  0
SECTION
  2
HEADER
  9
$ACADVER
  1
AC1012
  9
$DWGCODEPAGE
  3
ansi_932
  9
$INSBASE
 10
0.0
 20
0.0
 30
0.0
  9
$EXTMIN
 10
2166.241016568077
 20
-723.0839438839633
 30
-0.0000000000562575
  9
$EXTMAX
 10
2792.540863365573
 20
-303.1838220751141
 30
0.0000000000562748
  9
$LIMMIN
 10
0.0
 20
0.0
  9
$LIMMAX
 10
420.0
 20
297.0
  9
$ORTHOMODE
 70
     0
  9
$REGENMODE
 70
     1
  9
$FILLMODE
 70
     1
  9
$QTEXTMODE
 70
     0
  9
$MIRRTEXT
 70
     0
  9
$DRAGMODE
 70
     2
  9
$LTSCALE
 40
0.5
  9
$OSMODE
 70
 16383
  9
$ATTMODE
 70
     1
  9
$TEXTSIZE
 40
4.0
  9
$TRACEWID
 40
1.0
  9
$TEXTSTYLE
  7
STANDARD
  9
$CLAYER
  8
1TEXT
  9
$CELTYPE
  6
BYLAYER
  9
$CECOLOR
 62
   256
  9
$CELTSCALE
 40
1.0
  9
$DELOBJ
 70
     1
  9
$DISPSILH
 70
     0
  9
$DIMSCALE
 40
1.0
  9
$DIMASZ
 40
2.0
  9
$DIMEXO
 40
0.0
  9
$DIMDLI
 40
7.0
  9
$DIMRND
 40
0.0
  9
$DIMDLE
 40
0.0
  9
$DIMEXE
 40
1.0
  9
$DIMTP
 40
0.0
  9
$DIMTM
 40
0.0
  9
$DIMTXT
 40
3.5
  9
$DIMCEN
 40
0.0
  9
$DIMTSZ
 40
0.0
  9
$DIMTOL
 70
     0
  9
$DIMLIM
 70
     0
  9
$DIMTIH
 70
     0
  9
$DIMTOH
 70
     0
  9
$DIMSE1
 70
     0
  9
$DIMSE2
 70
     0
  9
$DIMTAD
 70
     1
  9
$DIMZIN
 70
     8
  9
$DIMBLK
  1

  9
$DIMASO
 70
     1
  9
$DIMSHO
 70
     1
  9
$DIMPOST
  1
 
  9
$DIMAPOST
  1

  9
$DIMALT
 70
     0
  9
$DIMALTD
 70
     2
  9
$DIMALTF
 40
25.4
  9
$DIMLFAC
 40
1.0
  9
$DIMTOFL
 70
     1
  9
$DIMTVP
 40
0.0
  9
$DIMTIX
 70
     0
  9
$DIMSOXD
 70
     0
  9
$DIMSAH
 70
     1
  9
$DIMBLK1
  1
OPEN30
  9
$DIMBLK2
  1
OPEN30
  9
$DIMSTYLE
  2
NEWX10
  9
$DIMCLRD
 70
   256
  9
$DIMCLRE
 70
   256
  9
$DIMCLRT
 70
   201
  9
$DIMTFAC
 40
0.7
  9
$DIMGAP
 40
0.7
  9
$DIMJUST
 70
     0
  9
$DIMSD1
 70
     0
  9
$DIMSD2
 70
     0
  9
$DIMTOLJ
 70
     1
  9
$DIMTZIN
 70
     8
  9
$DIMALTZ
 70
     0
  9
$DIMALTTZ
 70
     0
  9
$DIMFIT
 70
     2
  9
$DIMUPT
 70
     0
  9
$DIMUNIT
 70
     2
  9
$DIMDEC
 70
     2
  9
$DIMTDEC
 70
     4
  9
$DIMALTU
 70
     2
  9
$DIMALTTD
 70
     2
  9
$DIMTXSTY
  7
STANDARD
  9
$DIMAUNIT
 70
     0
  9
$LUNITS
 70
     2
  9
$LUPREC
 70
     4
  9
$SKETCHINC
 40
1.0
  9
$FILLETRAD
 40
0.0
  9
$AUNITS
 70
     0
  9
$AUPREC
 70
     2
  9
$MENU
  1
acad
  9
$ELEVATION
 40
0.0
  9
$PELEVATION
 40
0.0
  9
$THICKNESS
 40
0.0
  9
$LIMCHECK
 70
     0
  9
$CHAMFERA
 40
10.0
  9
$CHAMFERB
 40
10.0
  9
$CHAMFERC
 40
20.0
  9
$CHAMFERD
 40
0.0
  9
$SKPOLY
 70
     0
  9
$TDCREATE
 40
2451318.621352917
  9
$TDUPDATE
 40
2458449.465426169
  9
$TDINDWG
 40
1.6901125694
  9
$TDUSRTIMER
 40
1.6901125694
  9
$USRTIMER
 70
     1
  9
$ANGBASE
 50
0.0
  9
$ANGDIR
 70
     0
  9
$PDMODE
 70
     0
  9
$PDSIZE
 40
0.0
  9
$PLINEWID
 40
0.0
  9
$COORDS
 70
     2
  9
$SPLFRAME
 70
     0
  9
$SPLINETYPE
 70
     6
  9
$SPLINESEGS
 70
     8
  9
$ATTDIA
 70
     0
  9
$ATTREQ
 70
     1
  9
$HANDLING
 70
     1
  9
$HANDSEED
  5
1B640
  9
$SURFTAB1
 70
     6
  9
$SURFTAB2
 70
     6
  9
$SURFTYPE
 70
     6
  9
$SURFU
 70
     6
  9
$SURFV
 70
     6
  9
$UCSNAME
  2

  9
$UCSORG
 10
0.0
 20
0.0
 30
0.0
  9
$UCSXDIR
 10
1.0
 20
0.0
 30
0.0
  9
$UCSYDIR
 10
0.0
 20
1.0
 30
0.0
  9
$PUCSNAME
  2

  9
$PUCSORG
 10
0.0
 20
0.0
 30
0.0
  9
$PUCSXDIR
 10
1.0
 20
0.0
 30
0.0
  9
$PUCSYDIR
 10
0.0
 20
1.0
 30
0.0
  9
$USERI1
 70
     0
  9
$USERI2
 70
     0
  9
$USERI3
 70
     0
  9
$USERI4
 70
     0
  9
$USERI5
 70
     0
  9
$USERR1
 40
0.0
  9
$USERR2
 40
0.0
  9
$USERR3
 40
0.0
  9
$USERR4
 40
0.0
  9
$USERR5
 40
0.0
  9
$WORLDVIEW
 70
     1
  9
$SHADEDGE
 70
     3
  9
$SHADEDIF
 70
    70
  9
$TILEMODE
 70
     1
  9
$MAXACTVP
 70
    48
  9
$PINSBASE
 10
0.0
 20
0.0
 30
0.0
  9
$PLIMCHECK
 70
     0
  9
$PEXTMIN
 10
1.000000000000000E+20
 20
1.000000000000000E+20
 30
1.000000000000000E+20
  9
$PEXTMAX
 10
-1.000000000000000E+20
 20
-1.000000000000000E+20
 30
-1.000000000000000E+20
  9
$PLIMMIN
 10
0.0
 20
0.0
  9
$PLIMMAX
 10
420.0
 20
297.0
  9
$UNITMODE
 70
     0
  9
$VISRETAIN
 70
     1
  9
$PLINEGEN
 70
     0
  9
$PSLTSCALE
 70
     1
  9
$TREEDEPTH
 70
  3020
  9
$PICKSTYLE
 70
     0
  9
$CMLSTYLE
  2
STANDARD
  9
$CMLJUST
 70
     0
  9
$CMLSCALE
 40
20.0
  9
$SAVEIMAGES
 70
     1
  0
ENDSEC
  0
SECTION
  2
CLASSES
  0
CLASS
  1
DICTIONARYVAR
  2
AcDbDictionaryVar
  3
ObjectDBX Classes
 90
        0
280
     0
281
     0
  0
CLASS
  1
IDBUFFER
  2
AcDbIdBuffer
  3
ObjectDBX Classes
 90
    32768
280
     0
281
     0
  0
CLASS
  1
LWPOLYLINE
  2
AcDbPolyline
  3
ObjectDBX Classes
 90
    32768
280
     0
281
     1
  0
CLASS
  1
ACDBDICTIONARYWDFLT
  2
AcDbDictionaryWithDefault
  3
ObjectDBX Classes
 90
    32768
280
     0
281
     0
  0
CLASS
  1
ACDBPLACEHOLDER
  2
AcDbPlaceHolder
  3
ObjectDBX Classes
 90
        0
280
     0
281
     0
  0
CLASS
  1
LAYOUT
  2
AcDbLayout
  3
ObjectDBX Classes
 90
        0
280
     0
281
     0
  0
CLASS
  1
TABLESTYLE
  2
AcDbTableStyle
  3
ObjectDBX Classes
 90
     4095
280
     0
281
     0
  0
CLASS
  1
SORTENTSTABLE
  2
AcDbSortentsTable
  3
ObjectDBX Classes
 90
    32768
280
     0
281
     0
  0
CLASS
  1
MATERIAL
  2
AcDbMaterial
  3
ObjectDBX Classes
 90
     1153
280
     0
281
     0
  0
CLASS
  1
VISUALSTYLE
  2
AcDbVisualStyle
  3
ObjectDBX Classes
 90
     4095
280
     0
281
     0
  0
CLASS
  1
SCALE
  2
AcDbScale
  3
ObjectDBX Classes
 90
     1153
280
     0
281
     0
  0
CLASS
  1
MLEADERSTYLE
  2
AcDbMLeaderStyle
  3
ACDB_MLEADERSTYLE_CLASS
 90
     4095
280
     0
281
     0
  0
CLASS
  1
CELLSTYLEMAP
  2
AcDbCellStyleMap
  3
ObjectDBX Classes
 90
     1152
280
     0
281
     0
  0
CLASS
  1
SUN
  2
AcDbSun
  3
SCENEOE
 90
     1153
280
     0
281
     0
  0
CLASS
  1
AEC_REFEDIT_STATUS_TRACKER
  2
AecDbRefEditStatusTracker
  3
AecArchBase60|Product Desc: Autodesk Architectural Desktop 2007 |Company: Autodesk,Inc. |WEB Address: www.autodesk.com
 90
      129
280
     1
281
     0
  0
CLASS
  1
NPOCOLLECTION
  2
AcDbImpNonPersistentObjectsCollection
  3
ObjectDBX Classes
 90
     1153
280
     1
281
     0
  0
CLASS
  1
DIMASSOC
  2
AcDbDimAssoc
  3
"AcDbDimAssoc|Product Desc:     AcDim ARX App For Dimension|Company:          Autodesk, Inc.|WEB Address:      www.autodesk.com"
 90
        0
280
     0
281
     0
  0
CLASS
  1
XRECORD
  2
AcDbXrecord
  3
ObjectDBX Classes
 90
    32768
280
     0
281
     0
  0
CLASS
  1
HATCH
  2
AcDbHatch
  3
ObjectDBX Classes
 90
    32768
280
     0
281
     1
  0
ENDSEC
  0
SECTION
  2
TABLES
  0
TABLE
  2
VPORT
  5
8
330
0
100
AcDbSymbolTable
 70
     1
  0
VPORT
  5
D991
330
8
100
AcDbSymbolTableRecord
100
AcDbViewportTableRecord
  2
*ACTIVE
 70
     0
 10
0.0
 20
0.0
 11
1.0
 21
1.0
 12
2479.390939966825
 22
-513.1338829795387
 13
0.0
 23
0.0
 14
10.0
 24
10.0
 15
10.0
 25
10.0
 16
0.0
 26
0.0
 36
1.0
 17
0.0
 27
0.0
 37
0.0
 40
450.8401307842382
 41
1.803066037735849
 42
50.0
 43
0.0
 44
0.0
 50
0.0
 51
0.0
 71
    16
 72
   100
 73
     1
 74
     1
 75
     0
 76
     0
 77
     0
 78
     0
  0
ENDTAB
  0
TABLE
  2
LTYPE
  5
5
330
0
100
AcDbSymbolTable
 70
     3
  0
LTYPE
  5
12
330
5
100
AcDbSymbolTableRecord
100
AcDbLinetypeTableRecord
  2
BYBLOCK
 70
     0
  3

 72
    65
 73
     0
 40
0.0
  0
LTYPE
  5
13
330
5
100
AcDbSymbolTableRecord
100
AcDbLinetypeTableRecord
  2
BYLAYER
 70
     0
  3

 72
    65
 73
     0
 40
0.0
  0
LTYPE
  5
14
330
5
100
AcDbSymbolTableRecord
100
AcDbLinetypeTableRecord
  2
CONTINUOUS
 70
     0
  3
Solid line
 72
    65
 73
     0
 40
0.0
  0
LTYPE
  5
2C03
330
5
100
AcDbSymbolTableRecord
100
AcDbLinetypeTableRecord
  2
HIDDEN
 70
     0
  3
Hidden __ __ __ __ __ __ __ __ __ __ __ __ __ _
 72
    65
 73
     2
 40
9.524999999999999
 49
6.35
 74
     0
 49
-3.175
 74
     0
  0
LTYPE
  5
13839
330
5
100
AcDbSymbolTableRecord
100
AcDbLinetypeTableRecord
  2
CENTER2
 70
     0
  3
Center (.5x) ___ _ ___ _ ___ _ ___ _ ___ _ ___
 72
    65
 73
     4
 40
28.575
 49
19.05
 74
     0
 49
-3.175
 74
     0
 49
3.175
 74
     0
 49
-3.175
 74
     0
  0
ENDTAB
  0
TABLE
  2
LAYER
  5
2
102
{ACAD_XDICTIONARY
360
E6A6
102
}
330
0
100
AcDbSymbolTable
 70
     6
  0
LAYER
  5
E
102
{ACAD_XDICTIONARY
360
DA05
102
}
330
2
100
AcDbSymbolTableRecord
100
AcDbLayerTableRecord
  2
0
 70
     0
 62
     7
  6
CONTINUOUS
  0
LAYER
  5
29
102
{ACAD_XDICTIONARY
360
DA07
102
}
330
2
100
AcDbSymbolTableRecord
100
AcDbLayerTableRecord
  2
1CENTER
 70
     0
 62
     7
  6
CENTER2
  0
LAYER
  5
31
102
{ACAD_XDICTIONARY
360
DA09
102
}
330
2
100
AcDbSymbolTableRecord
100
AcDbLayerTableRecord
  2
1TEXT
 70
     0
 62
     7
  6
CONTINUOUS
  0
LAYER
  5
243
102
{ACAD_XDICTIONARY
360
DA0F
102
}
330
2
100
AcDbSymbolTableRecord
100
AcDbLayerTableRecord
  2
01
 70
     0
 62
     1
  6
CONTINUOUS
  0
LAYER
  5
24E
102
{ACAD_XDICTIONARY
360
DA15
102
}
330
2
100
AcDbSymbolTableRecord
100
AcDbLayerTableRecord
  2
1DIM
 70
     0
 62
     7
  6
CONTINUOUS
  0
LAYER
  5
2C05
102
{ACAD_XDICTIONARY
360
DA23
102
}
330
2
100
AcDbSymbolTableRecord
100
AcDbLayerTableRecord
  2
1HIDDEN
 70
     0
 62
     7
  6
HIDDEN
  0
ENDTAB
  0
TABLE
  2
STYLE
  5
3
330
0
100
AcDbSymbolTable
 70
     1
  0
STYLE
  5
F
330
3
100
AcDbSymbolTableRecord
100
AcDbTextStyleTableRecord
  2
STANDARD
 70
     0
 40
0.0
 41
1.0
 50
0.0
 71
     0
 42
4.0
  3
txt.shx
  4
extfont.shx
  0
ENDTAB
  0
TABLE
  2
VIEW
  5
6
330
0
100
AcDbSymbolTable
 70
     0
  0
ENDTAB
  0
TABLE
  2
UCS
  5
7
330
0
100
AcDbSymbolTable
 70
     0
  0
ENDTAB
  0
TABLE
  2
APPID
  5
9
330
0
100
AcDbSymbolTable
 70
    13
  0
APPID
  5
10
330
9
100
AcDbSymbolTableRecord
100
AcDbRegAppTableRecord
  2
ACAD
 70
     0
  0
APPID
  5
21
330
9
100
AcDbSymbolTableRecord
100
AcDbRegAppTableRecord
  2
DRAWINGVARIABLESXDATA
 70
     0
  0
APPID
  5
64
330
9
100
AcDbSymbolTableRecord
100
AcDbRegAppTableRecord
  2
CONTENTTABDATA
 70
     0
  0
APPID
  5
65
330
9
100
AcDbSymbolTableRecord
100
AcDbRegAppTableRecord
  2
CONTENTCURRENTTAB
 70
     0
  0
APPID
  5
66
330
9
100
AcDbSymbolTableRecord
100
AcDbRegAppTableRecord
  2
CONTENTBLOCKDESCRIPTION
 70
     0
  0
APPID
  5
67
330
9
100
AcDbSymbolTableRecord
100
AcDbRegAppTableRecord
  2
CONTENTBLOCKICON
 70
     0
  0
APPID
  5
68
330
9
100
AcDbSymbolTableRecord
100
AcDbRegAppTableRecord
  2
CONTENTLONGBLOCKNAME
 70
     0
  0
APPID
  5
2AE
330
9
100
AcDbSymbolTableRecord
100
AcDbRegAppTableRecord
  2
ACAD_PSEXT
 70
     0
  0
APPID
  5
D9E9
330
9
100
AcDbSymbolTableRecord
100
AcDbRegAppTableRecord
  2
ACAD_MLEADERVER
 70
     0
  0
APPID
  5
19D01
330
9
100
AcDbSymbolTableRecord
100
AcDbRegAppTableRecord
  2
ACADANNOTATIVE
 70
     0
  0
APPID
  5
19D02
330
9
100
AcDbSymbolTableRecord
100
AcDbRegAppTableRecord
  2
ACDBBLOCKREPETAG
 70
     0
  0
APPID
  5
1A67E
330
9
100
AcDbSymbolTableRecord
100
AcDbRegAppTableRecord
  2
ACAD_OBJECT_CHANGE_GUID
 70
     0
  0
APPID
  5
1A856
330
9
100
AcDbSymbolTableRecord
100
AcDbRegAppTableRecord
  2
ACAECLAYERSTANDARD
 70
     0
  0
ENDTAB
  0
TABLE
  2
DIMSTYLE
  5
A
330
0
100
AcDbSymbolTable
 70
     1
  0
DIMSTYLE
105
48
330
A
100
AcDbSymbolTableRecord
100
AcDbDimStyleTableRecord
  2
NEWX10
 70
     0
  3
 
  4

  5

  6
OPEN30
  7
OPEN30
 40
1.0
 41
2.0
 42
0.0
 43
7.0
 44
1.0
 45
0.0
 46
0.0
 47
0.0
 48
0.0
140
3.5
141
0.0
142
0.0
143
25.4
144
1.0
145
0.0
146
0.7
147
0.7
 71
     0
 72
     0
 73
     0
 74
     0
 75
     0
 76
     0
 77
     1
 78
     8
170
     0
171
     2
172
     1
173
     1
174
     0
175
     0
176
   256
177
   256
178
   201
179
     2
270
     2
271
     2
272
     4
273
     2
274
     2
340
F
275
     0
280
     0
281
     0
282
     0
283
     1
284
     8
285
     0
286
     0
287
     2
288
     0
  0
ENDTAB
  0
TABLE
  2
BLOCK_RECORD
  5
1
330
0
100
AcDbSymbolTable
 70
     8
  0
BLOCK_RECORD
  5
18
102
{ACAD_XDICTIONARY
360
88F
102
}
330
1
100
AcDbSymbolTableRecord
100
AcDbBlockTableRecord
  2
*MODEL_SPACE
  0
BLOCK_RECORD
  5
15
330
1
100
AcDbSymbolTableRecord
100
AcDbBlockTableRecord
  2
*PAPER_SPACE
  0
BLOCK_RECORD
  5
42
330
1
100
AcDbSymbolTableRecord
100
AcDbBlockTableRecord
  2
_OPEN30
  0
BLOCK_RECORD
  5
19D51
330
1
100
AcDbSymbolTableRecord
100
AcDbBlockTableRecord
  2
A3WAKUKAWAJUN2017_HYOUDAI_
  0
BLOCK_RECORD
  5
1B4A0
330
1
100
AcDbSymbolTableRecord
100
AcDbBlockTableRecord
  2
*X65
  0
BLOCK_RECORD
  5
1B4EE
330
1
100
AcDbSymbolTableRecord
100
AcDbBlockTableRecord
  2
*X66
  0
BLOCK_RECORD
  5
1B540
330
1
100
AcDbSymbolTableRecord
100
AcDbBlockTableRecord
  2
*X67
  0
BLOCK_RECORD
  5
1B591
330
1
100
AcDbSymbolTableRecord
100
AcDbBlockTableRecord
  2
*X68
  0
BLOCK_RECORD
  5
1B5CE
330
1
100
AcDbSymbolTableRecord
100
AcDbBlockTableRecord
  2
*X69
  0
BLOCK_RECORD
  5
1B60E
330
1
100
AcDbSymbolTableRecord
100
AcDbBlockTableRecord
  2
*X70
  0
ENDTAB
  0
ENDSEC
  0
SECTION
  2
BLOCKS
  0
BLOCK
  5
19
330
18
100
AcDbEntity
  8
0
100
AcDbBlockBegin
  2
*MODEL_SPACE
 70
     0
 10
0.0
 20
0.0
 30
0.0
  3
*MODEL_SPACE
  1

  0
ENDBLK
  5
1A
330
18
100
AcDbEntity
  8
0
100
AcDbBlockEnd
  0
BLOCK
  5
16
330
15
100
AcDbEntity
 67
     1
  8
0
100
AcDbBlockBegin
  2
*PAPER_SPACE
 70
     0
 10
0.0
 20
0.0
 30
0.0
  3
*PAPER_SPACE
  1

  0
ENDBLK
  5
17
330
15
100
AcDbEntity
 67
     1
  8
0
100
AcDbBlockEnd
  0
BLOCK
  5
43
330
42
100
AcDbEntity
  8
0
100
AcDbBlockBegin
  2
_OPEN30
 70
     0
 10
0.0
 20
0.0
 30
0.0
  3
_OPEN30
  1

  0
LINE
  5
44
330
42
100
AcDbEntity
  8
0
  6
BYBLOCK
 62
     0
100
AcDbLine
 10
-1.0
 20
0.26794919
 30
0.0
 11
0.0
 21
0.0
 31
0.0
  0
LINE
  5
45
330
42
100
AcDbEntity
  8
0
  6
BYBLOCK
 62
     0
100
AcDbLine
 10
0.0
 20
0.0
 30
0.0
 11
-1.0
 21
-0.26794919
 31
0.0
  0
LINE
  5
46
330
42
100
AcDbEntity
  8
0
  6
BYBLOCK
 62
     0
100
AcDbLine
 10
0.0
 20
0.0
 30
0.0
 11
-1.0
 21
0.0
 31
0.0
  0
ENDBLK
  5
47
330
42
100
AcDbEntity
  8
0
100
AcDbBlockEnd
  0
BLOCK
  5
1A474
330
19D51
100
AcDbEntity
  8
0
100
AcDbBlockBegin
  2
A3WAKUKAWAJUN2017_HYOUDAI_
 70
     0
 10
0.0
 20
0.0
 30
0.0
  3
A3WAKUKAWAJUN2017_HYOUDAI_
  1

  0
LINE
  5
19D53
330
19D51
100
AcDbEntity
  8
0
100
AcDbLine
 10
13.26299999998673
 20
-0.0001000000000317
 30
0.0
 11
9.236999999990758
 21
8.999899999990987
 31
0.0
1001
ACAD
1000
ASC_BOUNDS
1002
{
1070
    19
1005
19D94
1002
}
  0
LINE
  5
19D54
330
19D51
100
AcDbEntity
  8
0
100
AcDbLine
 10
5.657999999994331
 20
0.9999999999989768
 30
0.0
 11
9.236999999990758
 21
8.999999999991019
 31
0.0
1001
ACAD
1000
ASC_BOUNDS
1002
{
1070
    19
1005
19D94
1002
}
  0
LINE
  5
19D55
330
19D51
100
AcDbEntity
  8
0
100
AcDbLine
 10
18.59199999998134
 20
-0.2368999999997641
 30
0.0
 11
16.46099999998353
 21
5.432899999994561
 31
0.0
1001
ACAD
1000
ASC_BOUNDS
1002
{
1070
    19
1005
19D95
1002
}
  0
LINE
  5
19D56
330
19D51
100
AcDbEntity
  8
0
100
AcDbLine
 10
18.59199999998134
 20
-0.2368999999997641
 30
0.0
 11
22.38199999997767
 21
8.763099999991255
 31
0.0
1001
ACAD
1000
ASC_BOUNDS
1002
{
1070
    19
1005
19D95
1002
}
  0
LINE
  5
19D57
330
19D51
100
AcDbEntity
  8
0
100
AcDbLine
 10
14.32899999998563
 20
-0.2368999999997641
 30
0.0
 11
16.46099999998353
 21
5.432899999994561
 31
0.0
1001
ACAD
1000
ASC_BOUNDS
1002
{
1070
    19
1005
19D95
1002
}
  0
LINE
  5
19D58
330
19D51
100
AcDbEntity
  8
0
100
AcDbLine
 10
14.32899999998563
 20
-0.2368999999997641
 30
0.0
 11
10.53899999998941
 21
8.763099999991255
 31
0.0
1001
ACAD
1000
ASC_BOUNDS
1002
{
1070
    19
1005
19D95
1002
}
  0
LINE
  5
19D59
330
19D51
100
AcDbEntity
  8
0
100
AcDbLine
 10
19.53899999998043
 20
-0.0001000000000317
 30
0.0
 11
23.56599999997638
 21
8.999899999990987
 31
0.0
1001
ACAD
1000
ASC_BOUNDS
1002
{
1070
    19
1005
19D96
1002
}
  0
LINE
  5
19D5A
330
19D51
100
AcDbEntity
  8
0
100
AcDbLine
 10
26.97358892824991
 20
1.383099999991202
 30
0.0
 11
23.56599999997638
 21
8.999899999990987
 31
0.0
1001
ACAD
1000
ASC_BOUNDS
1002
{
1070
    19
1005
19D96
1002
}
  0
LINE
  5
19D5B
330
19D51
100
AcDbEntity
  8
0
100
AcDbLine
 10
5.657999999994331
 20
0.9999999999989768
 30
0.0
 11
3.181999999996833
 21
4.668599999995308
 31
0.0
1001
ACAD
1000
ASC_BOUNDS
1002
{
1070
    19
1005
19D94
1002
}
  0
LINE
  5
19D5C
330
19D51
100
AcDbEntity
  8
0
100
AcDbLine
 10
4.617999999995391
 20
-0.0001000000000317
 30
0.0
 11
1.420999999998571
 21
4.736799999995242
 31
0.0
1001
ACAD
1000
ASC_BOUNDS
1002
{
1070
    19
1005
19D94
1002
}
  0
LINE
  5
19D5D
330
19D51
100
AcDbEntity
  8
0
100
AcDbLine
 10
1.420999999998571
 20
8.763099999991255
 30
0.0
 11
1.420999999998571
 21
0.0
 31
0.0
1001
ACAD
1000
ASC_BOUNDS
1002
{
1070
    19
1005
19D99
1002
}
  0
LINE
  5
19D5E
330
19D51
100
AcDbEntity
  8
0
100
AcDbLine
 10
0.0
 20
8.763099999991255
 30
0.0
 11
0.0
 21
0.0
 31
0.0
1001
ACAD
1000
ASC_BOUNDS
1002
{
1070
    19
1005
19D99
1002
}
  0
LINE
  5
19D5F
330
19D51
100
AcDbEntity
  8
0
100
AcDbLine
 10
6.766999999993232
 20
-0.0001000000000317
 30
0.0
 11
7.826999999992154
 21
2.368399999997621
 31
0.0
1001
ACAD
1000
ASC_BOUNDS
1002
{
1070
    19
1005
19D94
1002
}
  0
LINE
  5
19D60
330
19D51
100
AcDbEntity
  8
0
100
AcDbLine
 10
0.0
 20
0.0
 30
0.0
 11
1.420999999998571
 21
0.0
 31
0.0
1001
ACAD
1000
ASC_BOUNDS
1002
{
1070
    19
1005
19D99
1002
}
  0
LINE
  5
19D61
330
19D51
100
AcDbEntity
  8
0
100
AcDbLine
 10
4.617999999995391
 20
0.0
 30
0.0
 11
6.766999999993232
 21
0.0
 31
0.0
1001
ACAD
1000
ASC_BOUNDS
1002
{
1070
    19
1005
19D94
1002
}
  0
LINE
  5
19D62
330
19D51
100
AcDbEntity
  8
0
100
AcDbLine
 10
11.70599999998831
 20
-0.0001000000000317
 30
0.0
 11
10.64699999998936
 21
2.368399999997621
 31
0.0
1001
ACAD
1000
ASC_BOUNDS
1002
{
1070
    19
1005
19D94
1002
}
  0
LINE
  5
19D63
330
19D51
100
AcDbEntity
  8
0
100
AcDbLine
 10
7.826999999992154
 20
2.368399999997621
 30
0.0
 11
10.64699999998936
 21
2.368399999997621
 31
0.0
1001
ACAD
1000
ASC_BOUNDS
1002
{
1070
    19
1005
19D94
1002
}
  0
LINE
  5
19D64
330
19D51
100
AcDbEntity
  8
0
100
AcDbLine
 10
11.70599999998831
 20
0.0
 30
0.0
 11
13.26299999998673
 21
0.0
 31
0.0
1001
ACAD
1000
ASC_BOUNDS
1002
{
1070
    19
1005
19D94
1002
}
  0
LINE
  5
19D65
330
19D51
100
AcDbEntity
  8
0
100
AcDbLine
 10
22.15599999997789
 20
2.368399999997621
 30
0.0
 11
24.97599999997499
 21
2.368399999997621
 31
0.0
1001
ACAD
1000
ASC_BOUNDS
1002
{
1070
    19
1005
19D96
1002
}
  0
LINE
  5
19D66
330
19D51
100
AcDbEntity
  8
0
100
AcDbLine
 10
19.53899999998043
 20
0.0
 30
0.0
 11
21.09599999997886
 21
0.0
 31
0.0
1001
ACAD
1000
ASC_BOUNDS
1002
{
1070
    19
1005
19D96
1002
}
  0
LINE
  5
19D67
330
19D51
100
AcDbEntity
  8
0
100
AcDbLine
 10
21.09599999997886
 20
-0.0001000000000317
 30
0.0
 11
22.15599999997789
 21
2.368399999997621
 31
0.0
1001
ACAD
1000
ASC_BOUNDS
1002
{
1070
    19
1005
19D96
1002
}
  0
LINE
  5
19D68
330
19D51
100
AcDbEntity
  8
0
100
AcDbLine
 10
26.02015566812236
 20
0.0330999999912365
 30
0.0
 11
24.97599999997499
 21
2.368399999997621
 31
0.0
1001
ACAD
1000
ASC_BOUNDS
1002
{
1070
    19
1005
19D96
1002
}
  0
LINE
  5
19D69
330
19D51
100
AcDbEntity
  8
0
100
AcDbLine
 10
14.32399999998563
 20
3.315799999996671
 30
0.0
 11
16.46099999998353
 21
8.999899999990987
 31
0.0
1001
ACAD
1000
ASC_BOUNDS
1002
{
1070
    19
1005
19D95
1002
}
  0
LINE
  5
19D6A
330
19D51
100
AcDbEntity
  8
0
100
AcDbLine
 10
6.432999999993513
 20
8.763099999991255
 30
0.0
 11
3.181999999996833
 21
4.668599999995308
 31
0.0
1001
ACAD
1000
ASC_BOUNDS
1002
{
1070
    19
1005
19D94
1002
}
  0
LINE
  5
19D6B
330
19D51
100
AcDbEntity
  8
0
100
AcDbLine
 10
4.617999999995391
 20
8.763099999991255
 30
0.0
 11
1.420999999998571
 21
4.736799999995242
 31
0.0
1001
ACAD
1000
ASC_BOUNDS
1002
{
1070
    19
1005
19D94
1002
}
  0
LINE
  5
19D6C
330
19D51
100
AcDbEntity
  8
0
100
AcDbLine
 10
0.0
 20
8.763099999991255
 30
0.0
 11
1.420999999998571
 21
8.763099999991255
 31
0.0
1001
ACAD
1000
ASC_BOUNDS
1002
{
1070
    19
1005
19D99
1002
}
  0
LINE
  5
19D6D
330
19D51
100
AcDbEntity
  8
0
100
AcDbLine
 10
4.617999999995391
 20
8.763099999991255
 30
0.0
 11
6.432999999993513
 21
8.763099999991255
 31
0.0
1001
ACAD
1000
ASC_BOUNDS
1002
{
1070
    19
1005
19D94
1002
}
  0
LINE
  5
19D6E
330
19D51
100
AcDbEntity
  8
0
100
AcDbLine
 10
14.32399999998563
 20
3.315799999996671
 30
0.0
 11
12.02999999998792
 21
8.763099999991255
 31
0.0
1001
ACAD
1000
ASC_BOUNDS
1002
{
1070
    19
1005
19D95
1002
}
  0
LINE
  5
19D6F
330
19D51
100
AcDbEntity
  8
0
100
AcDbLine
 10
10.06399999998996
 20
3.670999999996297
 30
0.0
 11
9.236999999990758
 21
5.5200999999945
 31
0.0
1001
ACAD
1000
ASC_BOUNDS
1002
{
1070
    19
1005
19D94
1002
}
  0
LINE
  5
19D70
330
19D51
100
AcDbEntity
  8
0
100
AcDbLine
 10
8.409999999991555
 20
3.670999999996297
 30
0.0
 11
9.236999999990758
 21
5.5200999999945
 31
0.0
1001
ACAD
1000
ASC_BOUNDS
1002
{
1070
    19
1005
19D94
1002
}
  0
LINE
  5
19D71
330
19D51
100
AcDbEntity
  8
0
100
AcDbLine
 10
8.409999999991555
 20
3.670999999996297
 30
0.0
 11
10.06399999998996
 21
3.670999999996297
 31
0.0
1001
ACAD
1000
ASC_BOUNDS
1002
{
1070
    19
1005
19D94
1002
}
  0
LINE
  5
19D72
330
19D51
100
AcDbEntity
  8
0
100
AcDbLine
 10
10.53899999998941
 20
8.763099999991255
 30
0.0
 11
12.02999999998792
 21
8.763099999991255
 31
0.0
1001
ACAD
1000
ASC_BOUNDS
1002
{
1070
    19
1005
19D95
1002
}
  0
LINE
  5
19D73
330
19D51
100
AcDbEntity
  8
0
100
AcDbLine
 10
22.7389999999773
 20
3.670999999996297
 30
0.0
 11
23.56599999997638
 21
5.5200999999945
 31
0.0
1001
ACAD
1000
ASC_BOUNDS
1002
{
1070
    19
1005
19D96
1002
}
  0
LINE
  5
19D74
330
19D51
100
AcDbEntity
  8
0
100
AcDbLine
 10
22.7389999999773
 20
3.670999999996297
 30
0.0
 11
24.39299999997559
 21
3.670999999996297
 31
0.0
1001
ACAD
1000
ASC_BOUNDS
1002
{
1070
    19
1005
19D96
1002
}
  0
LINE
  5
19D75
330
19D51
100
AcDbEntity
  8
0
100
AcDbLine
 10
18.59799999998143
 20
3.315799999996671
 30
0.0
 11
20.89099999997916
 21
8.763099999991255
 31
0.0
1001
ACAD
1000
ASC_BOUNDS
1002
{
1070
    19
1005
19D95
1002
}
  0
LINE
  5
19D76
330
19D51
100
AcDbEntity
  8
0
100
AcDbLine
 10
18.59799999998143
 20
3.315799999996671
 30
0.0
 11
16.46099999998353
 21
8.999899999990987
 31
0.0
1001
ACAD
1000
ASC_BOUNDS
1002
{
1070
    19
1005
19D95
1002
}
  0
LINE
  5
19D77
330
19D51
100
AcDbEntity
  8
0
100
AcDbLine
 10
20.89099999997916
 20
8.763099999991255
 30
0.0
 11
22.38199999997767
 21
8.763099999991255
 31
0.0
1001
ACAD
1000
ASC_BOUNDS
1002
{
1070
    19
1005
19D95
1002
}
  0
LINE
  5
19D78
330
19D51
100
AcDbEntity
  8
0
100
AcDbLine
 10
24.39299999997559
 20
3.670999999996297
 30
0.0
 11
23.56599999997638
 21
5.5200999999945
 31
0.0
1001
ACAD
1000
ASC_BOUNDS
1002
{
1070
    19
1005
19D96
1002
}
  0
LINE
  5
19D79
330
19D51
100
AcDbEntity
  8
0
100
AcDbLine
 10
44.99999999995498
 20
-0.2368999999997641
 30
0.0
 11
40.02599999995994
 21
5.341799999994635
 31
0.0
1001
ACAD
1000
ASC_BOUNDS
1002
{
1070
    19
1005
19D98
1002
}
  0
LINE
  5
19D7A
330
19D51
100
AcDbEntity
  8
0
100
AcDbLine
 10
40.02599999995994
 20
5.341799999994635
 30
0.0
 11
40.02599999995994
 21
0.0
 31
0.0
1001
ACAD
1000
ASC_BOUNDS
1002
{
1070
    19
1005
19D98
1002
}
  0
LINE
  5
19D7B
330
19D51
100
AcDbEntity
  8
0
100
AcDbLine
 10
38.60499999996136
 20
8.999999999991019
 30
0.0
 11
38.60499999996136
 21
0.0
 31
0.0
1001
ACAD
1000
ASC_BOUNDS
1002
{
1070
    19
1005
19D98
1002
}
  0
LINE
  5
19D7C
330
19D51
100
AcDbEntity
  8
0
100
AcDbLine
 10
44.99999999995498
 20
8.763099999991255
 30
0.0
 11
44.99999999995498
 21
-0.2368999999997641
 31
0.0
1001
ACAD
1000
ASC_BOUNDS
1002
{
1070
    19
1005
19D98
1002
}
  0
LINE
  5
19D7D
330
19D51
100
AcDbEntity
  8
0
100
AcDbLine
 10
38.60499999996136
 20
0.0
 30
0.0
 11
40.02599999995994
 21
0.0
 31
0.0
1001
ACAD
1000
ASC_BOUNDS
1002
{
1070
    19
1005
19D98
1002
}
  0
LINE
  5
19D7E
330
19D51
100
AcDbEntity
  8
0
100
AcDbLine
 10
43.57899999995641
 20
3.421199999996588
 30
0.0
 11
38.60499999996136
 21
8.999899999990987
 31
0.0
1001
ACAD
1000
ASC_BOUNDS
1002
{
1070
    19
1005
19D98
1002
}
  0
LINE
  5
19D7F
330
19D51
100
AcDbEntity
  8
0
100
AcDbLine
 10
43.57899999995641
 20
8.763099999991255
 30
0.0
 11
43.57899999995641
 21
3.421199999996588
 31
0.0
1001
ACAD
1000
ASC_BOUNDS
1002
{
1070
    19
1005
19D98
1002
}
  0
LINE
  5
19D80
330
19D51
100
AcDbEntity
  8
0
100
AcDbLine
 10
43.57899999995641
 20
8.763099999991255
 30
0.0
 11
44.99999999995498
 21
8.763099999991255
 31
0.0
1001
ACAD
1000
ASC_BOUNDS
1002
{
1070
    19
1005
19D98
1002
}
  0
LINE
  5
19D81
330
19D51
100
AcDbEntity
  8
0
100
AcDbLine
 10
37.67199999996831
 20
8.763099999991255
 30
0.0
 11
36.23199999996837
 21
8.763099999991255
 31
0.0
  0
LINE
  5
19D82
330
19D51
100
AcDbEntity
  8
0
100
AcDbLine
 10
31.64199999996833
 20
8.763099999991255
 30
0.0
 11
31.64199999996833
 21
2.481619422925121
 31
0.0
  0
LINE
  5
19D83
330
19D51
100
AcDbEntity
  8
0
100
AcDbLine
 10
37.67199999996831
 20
8.763099999991255
 30
0.0
 11
37.67199999996831
 21
2.481619422925121
 31
0.0
  0
LINE
  5
19D84
330
19D51
100
AcDbEntity
  8
0
100
AcDbLine
 10
36.23199999996837
 20
8.763099999991255
 30
0.0
 11
36.23199999996837
 21
2.481619422925064
 31
0.0
  0
LINE
  5
19D85
330
19D51
100
AcDbEntity
  8
0
100
AcDbLine
 10
33.08199999996839
 20
8.763099999991255
 30
0.0
 11
33.08199999996839
 21
2.481619422925121
 31
0.0
  0
ARC
  5
19D86
330
19D51
100
AcDbEntity
  8
0
100
AcDbCircle
 10
34.65699999996832
 20
3.183099999991214
 30
0.0
 40
3.420000000000007
100
AcDbArc
 50
240.0000000000255
 51
299.9999999999766
  0
ARC
  5
19D87
330
19D51
100
AcDbEntity
  8
0
100
AcDbCircle
 10
34.65699999996832
 20
3.183099999991214
 30
0.0
 40
1.97999999999999
100
AcDbArc
 50
240.000000000026
 51
299.9999999999703
  0
LINE
  5
19D88
330
19D51
100
AcDbEntity
  8
0
100
AcDbLine
 10
33.08199999996828
 20
8.763099999991255
 30
0.0
 11
31.64199999996833
 21
8.763099999991255
 31
0.0
  0
ARC
  5
19D89
330
19D51
100
AcDbEntity
  8
0
100
AcDbCircle
 10
35.06199999996829
 20
2.481619422925064
 30
0.0
 40
1.17
100
AcDbArc
 50
299.9999999999699
 51
0.0
  0
ARC
  5
19D8A
330
19D51
100
AcDbEntity
  8
0
100
AcDbCircle
 10
34.25199999996835
 20
2.481619422925121
 30
0.0
 40
1.17
100
AcDbArc
 50
180.0
 51
240.0000000000238
  0
ARC
  5
19D8B
330
19D51
100
AcDbEntity
  8
0
100
AcDbCircle
 10
35.06199999996841
 20
2.481619422925121
 30
0.0
 40
2.61
100
AcDbArc
 50
299.9999999999756
 51
0.0
  0
ARC
  5
19D8C
330
19D51
100
AcDbEntity
  8
0
100
AcDbCircle
 10
34.25199999996835
 20
2.481619422925121
 30
0.0
 40
2.61
100
AcDbArc
 50
180.0
 51
240.0000000000244
  0
LINE
  5
19D8D
330
19D51
100
AcDbEntity
  8
0
100
AcDbLine
 10
29.30199999996933
 20
8.763099999991255
 30
0.0
 11
30.74199999996927
 21
8.763099999991255
 31
0.0
1001
ACAD
1000
ASC_BOUNDS
1002
{
1070
    19
1005
19D96
1002
}
  0
LINE
  5
19D8E
330
19D51
100
AcDbEntity
  8
0
100
AcDbLine
 10
30.74199999996927
 20
8.763099999991255
 30
0.0
 11
30.74199999996927
 21
2.373099999991211
 31
0.0
1001
ACAD
1000
ASC_BOUNDS
1002
{
1070
    19
1005
19D96
1002
}
  0
LINE
  5
19D8F
330
19D51
100
AcDbEntity
  8
0
100
AcDbLine
 10
26.02015566812236
 20
0.0330999999912365
 30
0.0
 11
28.40199999996923
 21
0.0330999999912365
 31
0.0
1001
ACAD
1000
ASC_BOUNDS
1002
{
1070
    19
1005
19D96
1002
}
  0
LINE
  5
19D90
330
19D51
100
AcDbEntity
  8
0
100
AcDbLine
 10
29.30199999996933
 20
8.763099999991255
 30
0.0
 11
29.30199999996933
 21
2.283099999991236
 31
0.0
1001
ACAD
1000
ASC_BOUNDS
1002
{
1070
    19
1005
19D96
1002
}
  0
LINE
  5
19D91
330
19D51
100
AcDbEntity
  8
0
100
AcDbLine
 10
26.97358892824991
 20
1.383099999991202
 30
0.0
 11
28.40199999996923
 21
1.383099999991202
 31
0.0
1001
ACAD
1000
ASC_BOUNDS
1002
{
1070
    19
1005
19D96
1002
}
  0
ARC
  5
19D92
330
19D51
100
AcDbEntity
  8
0
100
AcDbCircle
 10
28.40199999996923
 20
2.283099999991236
 30
0.0
 40
0.9
100
AcDbArc
 50
270.0
 51
0.0
1001
ACAD
1000
ASC_BOUNDS
1002
{
1070
    19
1005
19D96
1002
}
  0
ARC
  5
19D93
330
19D51
100
AcDbEntity
  8
0
100
AcDbCircle
 10
28.40199999996923
 20
2.373099999991211
 30
0.0
 40
2.34
100
AcDbArc
 50
270.0
 51
0.0
1001
ACAD
1000
ASC_BOUNDS
1002
{
1070
    19
1005
19D96
1002
}
  0
INSERT
  5
19D94
330
19D51
100
AcDbEntity
  8
0
100
AcDbBlockReference
  2
*X65
 10
0.0
 20
0.0
 30
0.0
1001
ACAD
1000
HATCH
1002
{
1070
    19
1000
ANSI37
1040
0.15
1040
0.0
1000
ASC_BOUNDS
1070
     2
1070
     2
1070
    12
1005
19D53
1005
19D54
1005
19D5B
1005
19D6A
1005
19D6D
1005
19D6B
1005
19D5C
1005
19D61
1005
19D5F
1005
19D63
1005
19D62
1005
19D64
1070
     2
1070
     3
1005
19D6F
1005
19D71
1005
19D70
1000
ASC_SEEDPOINT
1011
3.614004224891801
1021
2.996669441146025
1031
0.0
1000
R14_HATCH_DATA
1000
19D94
1011
1.0
1021
0.0
1031
0.0
1011
0.0
1021
1.0
1031
0.0
1011
0.0
1021
0.0
1031
1.0
1040
0.0
1010
0.0
1020
0.0
1030
1.0
1000
ANSI37
1070
     0
1070
     1
1071
        2
1071
        7
1070
     0
1070
     1
1071
       17
1040
13.26299999998673
1040
-0.0001000000000317
1040
9.236999999990758
1040
8.999899999990987
1040
9.236999999990758
1040
8.999999999991019
1040
5.657999999994331
1040
0.9999999999989768
1040
3.181999999996833
1040
4.668599999995308
1040
6.432999999993513
1040
8.763099999991255
1040
4.617999999995391
1040
8.763099999991255
1040
1.420999999998571
1040
4.736799999995242
1040
4.617999999995391
1040
-0.0001000000000317
1040
4.617999999995391
1040
0.0
1040
6.766999999993232
1040
0.0
1040
6.766999999993232
1040
-0.0001000000000317
1040
7.826999999992154
1040
2.368399999997621
1040
10.64699999998936
1040
2.368399999997621
1040
11.70599999998831
1040
-0.0001000000000317
1040
11.70599999998831
1040
0.0
1040
13.26299999998673
1040
0.0
1071
       12
1005
19D53
1005
19D54
1005
19D5B
1005
19D6A
1005
19D6D
1005
19D6B
1005
19D5C
1005
19D61
1005
19D5F
1005
19D63
1005
19D62
1005
19D64
1071
       22
1070
     0
1070
     1
1071
        3
1040
9.236999999990758
1040
5.5200999999945
1040
10.06399999998996
1040
3.670999999996297
1040
8.409999999991555
1040
3.670999999996297
1071
        3
1005
19D6F
1005
19D71
1005
19D70
1070
     0
1070
     1
1040
0.0
1040
0.15
1070
     0
1070
     2
1040
0.7853981633974483
1040
49.29960901727088
1040
-10.17736998311392
1040
-0.3367596045400932
1040
0.3367596045400932
1070
     0
1040
2.356194490192345
1040
49.29960901727088
1040
-10.17736998311392
1040
-0.3367596045400932
1040
-0.3367596045400932
1070
     0
1040
0.0110235143455945
1071
        2
1040
3.614004224891801
1040
2.996669441146025
1040
0.0
1040
3.614004224891801
1040
2.996669441146025
1040
0.0
1002
}
  0
INSERT
  5
19D95
330
19D51
100
AcDbEntity
  8
0
100
AcDbBlockReference
  2
*X66
 10
0.0
 20
0.0
 30
0.0
1001
ACAD
1000
HATCH
1002
{
1070
    19
1000
ANSI37
1040
0.15
1040
0.0
1000
ASC_BOUNDS
1070
     1
1070
     2
1070
    10
1005
19D55
1005
19D56
1005
19D77
1005
19D75
1005
19D76
1005
19D69
1005
19D6E
1005
19D72
1005
19D58
1005
19D57
1000
ASC_SEEDPOINT
1011
14.73245321214324
1021
2.798246178283421
1031
0.0
1000
R14_HATCH_DATA
1000
19D95
1011
1.0
1021
0.0
1031
0.0
1011
0.0
1021
1.0
1031
0.0
1011
0.0
1021
0.0
1031
1.0
1040
0.0
1010
0.0
1020
0.0
1030
1.0
1000
ANSI37
1070
     0
1070
     1
1071
        1
1071
        7
1070
     0
1070
     1
1071
       10
1040
16.46099999998353
1040
5.432899999994561
1040
18.59199999998134
1040
-0.2368999999997641
1040
22.38199999997767
1040
8.763099999991255
1040
20.89099999997916
1040
8.763099999991255
1040
18.59799999998143
1040
3.315799999996671
1040
16.46099999998353
1040
8.999899999990987
1040
14.32399999998563
1040
3.315799999996671
1040
12.02999999998792
1040
8.763099999991255
1040
10.53899999998941
1040
8.763099999991255
1040
14.32899999998563
1040
-0.2368999999997641
1071
       10
1005
19D55
1005
19D56
1005
19D77
1005
19D75
1005
19D76
1005
19D69
1005
19D6E
1005
19D72
1005
19D58
1005
19D57
1070
     0
1070
     1
1040
0.0
1040
0.15
1070
     0
1070
     2
1040
0.7853981633974483
1040
49.29960901727088
1040
-10.17736998311392
1040
-0.3367596045400932
1040
0.3367596045400932
1070
     0
1040
2.356194490192345
1040
49.29960901727088
1040
-10.17736998311392
1040
-0.3367596045400932
1040
-0.3367596045400932
1070
     0
1040
0.0110235143455945
1071
        1
1040
14.73245321214324
1040
2.798246178283421
1040
0.0
1002
}
  0
INSERT
  5
19D96
330
19D51
100
AcDbEntity
  8
0
100
AcDbBlockReference
  2
*X67
 10
0.0
 20
0.0
 30
0.0
1001
ACAD
1000
HATCH
1002
{
1070
    19
1000
ANSI37
1040
0.15
1040
0.0
1000
ASC_BOUNDS
1070
     2
1070
     2
1070
    13
1005
19D59
1005
19D66
1005
19D67
1005
19D65
1005
19D68
1005
19D8F
1005
19D93
1005
19D8E
1005
19D8D
1005
19D90
1005
19D92
1005
19D91
1005
19D5A
1070
     2
1070
     3
1005
19D73
1005
19D78
1005
19D74
1000
ASC_SEEDPOINT
1011
21.97929957367762
1021
3.294304244259308
1031
0.0
1000
R14_HATCH_DATA
1000
19D96
1011
1.0
1021
0.0
1031
0.0
1011
0.0
1021
1.0
1031
0.0
1011
0.0
1021
0.0
1031
1.0
1040
0.0
1010
0.0
1020
0.0
1030
1.0
1000
ANSI37
1070
     0
1070
     1
1071
        2
1071
        7
1070
     1
1070
     1
1071
       15
1040
23.56599999997638
1040
8.999899999990987
1040
0.0
1040
19.53899999998043
1040
-0.0001000000000317
1040
0.0
1040
19.53899999998043
1040
0.0
1040
0.0
1040
21.09599999997886
1040
0.0
1040
0.0
1040
21.09599999997886
1040
-0.0001000000000317
1040
0.0
1040
22.15599999997789
1040
2.368399999997621
1040
0.0
1040
24.97599999997499
1040
2.368399999997621
1040
0.0
1040
26.02015566812236
1040
0.0330999999912365
1040
0.0
1040
28.40199999996923
1040
0.0330999999912365
1040
0.414213562373095
1040
30.74199999996923
1040
2.373099999991211
1040
0.0
1040
30.74199999996927
1040
8.763099999991255
1040
0.0
1040
29.30199999996933
1040
8.763099999991255
1040
0.0
1040
29.30199999996933
1040
2.283099999991236
1040
-0.414213562373095
1040
28.40199999996923
1040
1.383099999991237
1040
0.0
1040
26.97358892824991
1040
1.383099999991202
1040
0.0
1071
       13
1005
19D59
1005
19D66
1005
19D67
1005
19D65
1005
19D68
1005
19D8F
1005
19D93
1005
19D8E
1005
19D8D
1005
19D90
1005
19D92
1005
19D91
1005
19D5A
1071
       22
1070
     0
1070
     1
1071
        3
1040
22.7389999999773
1040
3.670999999996297
1040
23.56599999997638
1040
5.5200999999945
1040
24.39299999997559
1040
3.670999999996297
1071
        3
1005
19D73
1005
19D78
1005
19D74
1070
     0
1070
     1
1040
0.0
1040
0.15
1070
     0
1070
     2
1040
0.7853981633974483
1040
49.29960901727088
1040
-10.17736998311392
1040
-0.3367596045400932
1040
0.3367596045400932
1070
     0
1040
2.356194490192345
1040
49.29960901727088
1040
-10.17736998311392
1040
-0.3367596045400932
1040
-0.3367596045400932
1070
     0
1040
0.0110235143455945
1071
        2
1040
21.97929957367762
1040
3.294304244259308
1040
0.0
1040
21.97929957367762
1040
3.294304244259308
1040
0.0
1002
}
  0
INSERT
  5
19D97
330
19D51
100
AcDbEntity
  8
0
100
AcDbBlockReference
  2
*X68
 10
0.0
 20
0.0
 30
0.0
1001
ACAD
1000
HATCH
1002
{
1070
    19
1000
ANSI37
1040
0.15
1040
0.0
1000
R14_HATCH_DATA
1000
19D97
1011
1.0
1021
0.0
1031
0.0
1011
0.0
1021
1.0
1031
0.0
1011
0.0
1021
0.0
1031
1.0
1040
0.0
1010
0.0
1020
0.0
1030
1.0
1000
ANSI37
1070
     0
1070
     1
1071
        1
1071
        7
1070
     1
1070
     1
1071
       12
1040
31.64199999996833
1040
2.481619422925121
1040
0.2679491924310942
1040
32.94699999997067
1040
0.2212931190493919
1040
0.2679491924301353
1040
36.36699999995983
1040
0.2212931190459813
1040
0.2679491924321411
1040
37.67199999996831
1040
2.481619422928361
1040
0.0
1040
37.67199999996831
1040
8.763099999991255
1040
0.0
1040
36.23199999996837
1040
8.763099999991255
1040
0.0
1040
36.23199999996837
1040
2.481619422925064
1040
-0.2679491924310291
1040
35.64699999996708
1040
1.468369700498386
1040
-0.267949192430519
1040
33.66699999997093
1040
1.468369700497703
1040
-0.267949192431809
1040
33.08199999996839
1040
2.481619422926997
1040
0.0
1040
33.08199999996839
1040
8.763099999991255
1040
0.0
1040
31.64199999996833
1040
8.763099999991255
1040
0.0
1071
        0
1070
     0
1070
     1
1040
0.0
1040
0.15
1070
     0
1070
     2
1040
0.7853981633974483
1040
49.29960901727088
1040
-10.17736998311392
1040
-0.3367596045400932
1040
0.3367596045400932
1070
     0
1040
2.356194490192345
1040
49.29960901727088
1040
-10.17736998311392
1040
-0.3367596045400932
1040
-0.3367596045400932
1070
     0
1040
0.0110235143455945
1071
        1
1040
32.30357378967278
1040
3.988785755459219
1040
0.0
1002
}
  0
INSERT
  5
19D98
330
19D51
100
AcDbEntity
  8
0
100
AcDbBlockReference
  2
*X69
 10
0.0
 20
0.0
 30
0.0
1001
ACAD
1000
HATCH
1002
{
1070
    19
1000
ANSI37
1040
0.15
1040
0.0
1000
ASC_BOUNDS
1070
     1
1070
     2
1070
     8
1005
19D79
1005
19D7C
1005
19D80
1005
19D7F
1005
19D7E
1005
19D7B
1005
19D7D
1005
19D7A
1000
ASC_SEEDPOINT
1011
39.74896370716704
1021
4.484843821435049
1031
0.0
1000
R14_HATCH_DATA
1000
19D98
1011
1.0
1021
0.0
1031
0.0
1011
0.0
1021
1.0
1031
0.0
1011
0.0
1021
0.0
1031
1.0
1040
0.0
1010
0.0
1020
0.0
1030
1.0
1000
ANSI37
1070
     0
1070
     1
1071
        1
1071
        7
1070
     0
1070
     1
1071
        9
1040
40.02599999995994
1040
5.341799999994635
1040
44.99999999995498
1040
-0.2368999999997641
1040
44.99999999995498
1040
8.763099999991255
1040
43.57899999995641
1040
8.763099999991255
1040
43.57899999995641
1040
3.421199999996588
1040
38.60499999996136
1040
8.999899999990987
1040
38.60499999996136
1040
8.999999999991019
1040
38.60499999996136
1040
0.0
1040
40.02599999995994
1040
0.0
1071
        8
1005
19D79
1005
19D7C
1005
19D80
1005
19D7F
1005
19D7E
1005
19D7B
1005
19D7D
1005
19D7A
1070
     0
1070
     1
1040
0.0
1040
0.15
1070
     0
1070
     2
1040
0.7853981633974483
1040
49.29960901727088
1040
-10.17736998311392
1040
-0.3367596045400932
1040
0.3367596045400932
1070
     0
1040
2.356194490192345
1040
49.29960901727088
1040
-10.17736998311392
1040
-0.3367596045400932
1040
-0.3367596045400932
1070
     0
1040
0.0110235143455945
1071
        1
1040
39.74896370716704
1040
4.484843821435049
1040
0.0
1002
}
  0
INSERT
  5
19D99
330
19D51
100
AcDbEntity
  8
0
100
AcDbBlockReference
  2
*X70
 10
0.0
 20
0.0
 30
0.0
1001
ACAD
1000
HATCH
1002
{
1070
    19
1000
ANSI37
1040
0.15
1040
0.0
1000
ASC_BOUNDS
1070
     1
1070
     2
1070
     4
1005
19D5D
1005
19D6C
1005
19D5E
1005
19D60
1000
ASC_SEEDPOINT
1011
1.079051535452663
1021
4.148538732891836
1031
0.0
1000
R14_HATCH_DATA
1000
19D99
1011
1.0
1021
0.0
1031
0.0
1011
0.0
1021
1.0
1031
0.0
1011
0.0
1021
0.0
1031
1.0
1040
0.0
1010
0.0
1020
0.0
1030
1.0
1000
ANSI37
1070
     0
1070
     1
1071
        1
1071
        7
1070
     0
1070
     1
1071
        4
1040
1.420999999998571
1040
0.0
1040
1.420999999998571
1040
8.763099999991255
1040
0.0
1040
8.763099999991255
1040
0.0
1040
0.0
1071
        4
1005
19D5D
1005
19D6C
1005
19D5E
1005
19D60
1070
     0
1070
     1
1040
0.0
1040
0.15
1070
     0
1070
     2
1040
0.7853981633974483
1040
49.29960901727088
1040
-10.17736998311392
1040
-0.3367596045400932
1040
0.3367596045400932
1070
     0
1040
2.356194490192345
1040
49.29960901727088
1040
-10.17736998311392
1040
-0.3367596045400932
1040
-0.3367596045400932
1070
     0
1040
0.0053004257112761
1071
        1
1040
1.079051535452663
1040
4.148538732891836
1040
0.0
1002
}
  0
ENDBLK
  5
1A475
330
19D51
100
AcDbEntity
  8
0
100
AcDbBlockEnd
  0
BLOCK
  5
1B62E
330
1B4A0
100
AcDbEntity
  8
0
100
AcDbBlockBegin
  2
*X65
 70
     1
 10
0.0
 20
0.0
 30
0.0
  3
*X65
  1

  0
LINE
  5
1B4A1
330
1B4A0
100
AcDbEntity
  8
0
  6
CONTINUOUS
100
AcDbLine
 10
3.418023043697893
 20
7.251849696850613
 30
0.0
 11
4.929273346838536
 21
8.763099999991255
 31
0.0
  0
LINE
  5
1B4A2
330
1B4A0
100
AcDbEntity
  8
0
  6
CONTINUOUS
100
AcDbLine
 10
1.483656411257782
 20
4.643963855330318
 30
0.0
 11
5.60279255591872
 21
8.763099999991255
 31
0.0
  0
LINE
  5
1B4A3
330
1B4A0
100
AcDbEntity
  8
0
  6
CONTINUOUS
100
AcDbLine
 10
1.755053947328235
 20
4.241842182320584
 30
0.0
 11
6.276311764998907
 21
8.763099999991255
 31
0.0
  0
LINE
  5
1B4A4
330
1B4A0
100
AcDbEntity
  8
0
  6
CONTINUOUS
100
AcDbLine
 10
2.026451483398688
 20
3.839720509310849
 30
0.0
 11
4.441040904851878
 21
6.254309930764039
 31
0.0
  0
LINE
  5
1B4A5
330
1B4A0
100
AcDbEntity
  8
0
  6
CONTINUOUS
100
AcDbLine
 10
2.297849019469139
 20
3.437598836301114
 30
0.0
 11
3.321765168359338
 21
4.461514985191313
 31
0.0
  0
LINE
  5
1B4A6
330
1B4A0
100
AcDbEntity
  8
0
  6
CONTINUOUS
100
AcDbLine
 10
2.569246555539591
 20
3.03547716329138
 30
0.0
 11
3.593163397972743
 21
4.059394005724531
 31
0.0
  0
LINE
  5
1B4A7
330
1B4A0
100
AcDbEntity
  8
0
  6
CONTINUOUS
100
AcDbLine
 10
2.840644091610043
 20
2.633355490281646
 30
0.0
 11
3.864561627586149
 21
3.657273026257751
 31
0.0
  0
LINE
  5
1B4A8
330
1B4A0
100
AcDbEntity
  8
0
  6
CONTINUOUS
100
AcDbLine
 10
3.112041627680496
 20
2.231233817271911
 30
0.0
 11
4.135959857199554
 21
3.25515204679097
 31
0.0
  0
LINE
  5
1B4A9
330
1B4A0
100
AcDbEntity
  8
0
  6
CONTINUOUS
100
AcDbLine
 10
3.383439163750948
 20
1.829112144262177
 30
0.0
 11
4.40735808681296
 21
2.853031067324189
 31
0.0
  0
LINE
  5
1B4AA
330
1B4A0
100
AcDbEntity
  8
0
  6
CONTINUOUS
100
AcDbLine
 10
3.654836699821399
 20
1.426990471252442
 30
0.0
 11
4.678756316426365
 21
2.450910087857407
 31
0.0
  0
LINE
  5
1B4AB
330
1B4A0
100
AcDbEntity
  8
0
  6
CONTINUOUS
100
AcDbLine
 10
3.926234235891853
 20
1.024868798242709
 30
0.0
 11
4.95015454603977
 21
2.048789108390626
 31
0.0
  0
LINE
  5
1B4AC
330
1B4A0
100
AcDbEntity
  8
0
  6
CONTINUOUS
100
AcDbLine
 10
4.197631771962304
 20
0.6227471252329737
 30
0.0
 11
5.221552775653176
 21
1.646668128923846
 31
0.0
  0
LINE
  5
1B4AD
330
1B4A0
100
AcDbEntity
  8
0
  6
CONTINUOUS
100
AcDbLine
 10
8.715877546767851
 20
7.835069736359266
 30
0.0
 11
9.435953450375058
 21
8.555145639966472
 31
0.0
  0
LINE
  5
1B4AE
330
1B4A0
100
AcDbEntity
  8
0
  6
CONTINUOUS
100
AcDbLine
 10
8.170620868422267
 20
6.616293848933497
 30
0.0
 11
9.644120833743461
 21
8.08979381425469
 31
0.0
  0
LINE
  5
1B4AF
330
1B4A0
100
AcDbEntity
  8
0
  6
CONTINUOUS
100
AcDbLine
 10
7.625364190076684
 20
5.397517961507727
 30
0.0
 11
9.852288217111864
 21
7.624441988542907
 31
0.0
  0
LINE
  5
1B4B0
330
1B4A0
100
AcDbEntity
  8
0
  6
CONTINUOUS
100
AcDbLine
 10
7.080107511731101
 20
4.178742074081957
 30
0.0
 11
10.06045560048027
 21
7.159090162831124
 31
0.0
  0
LINE
  5
1B4B1
330
1B4A0
100
AcDbEntity
  8
0
  6
CONTINUOUS
100
AcDbLine
 10
6.534850833385518
 20
2.959966186656187
 30
0.0
 11
10.26862298384867
 21
6.693738337119342
 31
0.0
  0
LINE
  5
1B4B2
330
1B4A0
100
AcDbEntity
  8
0
  6
CONTINUOUS
100
AcDbLine
 10
4.469029308032756
 20
0.2206254522232385
 30
0.0
 11
5.492951005266582
 21
1.244547149457064
 31
0.0
  0
LINE
  5
1B4B3
330
1B4A0
100
AcDbEntity
  8
0
  6
CONTINUOUS
100
AcDbLine
 10
5.989594155039935
 20
1.741190299230417
 30
0.0
 11
8.806950407233131
 21
4.558546551423613
 31
0.0
  0
LINE
  5
1B4B4
330
1B4A0
100
AcDbEntity
  8
0
  6
CONTINUOUS
100
AcDbLine
 10
9.401251593263643
 20
5.152847737454126
 30
0.0
 11
10.47679036721708
 21
6.228386511407559
 31
0.0
  0
LINE
  5
1B4B5
330
1B4A0
100
AcDbEntity
  8
0
  6
CONTINUOUS
100
AcDbLine
 10
4.921837203428691
 20
-0.0000858614610131
 30
0.0
 11
8.592923064886001
 21
3.670999999996297
 31
0.0
  0
LINE
  5
1B4B6
330
1B4A0
100
AcDbEntity
  8
0
  6
CONTINUOUS
100
AcDbLine
 10
9.609390446785305
 20
4.6874673818956
 30
0.0
 11
10.68495775058548
 21
5.763034685695775
 31
0.0
  0
LINE
  5
1B4B7
330
1B4A0
100
AcDbEntity
  8
0
  6
CONTINUOUS
100
AcDbLine
 10
5.595387755019432
 20
-0.0000545189504582
 30
0.0
 11
7.716137258923768
 21
2.120694984953879
 31
0.0
  0
LINE
  5
1B4B8
330
1B4A0
100
AcDbEntity
  8
0
  6
CONTINUOUS
100
AcDbLine
 10
6.268938306610172
 20
-0.000023176439905
 30
0.0
 11
7.170485805526503
 21
0.9015243224764267
 31
0.0
  0
LINE
  5
1B4B9
330
1B4A0
100
AcDbEntity
  8
0
  6
CONTINUOUS
100
AcDbLine
 10
7.963842273967511
 20
2.368399999997621
 30
0.0
 11
9.266442273966188
 21
3.670999999996297
 31
0.0
  0
LINE
  5
1B4BA
330
1B4A0
100
AcDbEntity
  8
0
  6
CONTINUOUS
100
AcDbLine
 10
8.637361483047696
 20
2.368399999997621
 30
0.0
 11
9.939961483046375
 21
3.670999999996297
 31
0.0
  0
LINE
  5
1B4BB
330
1B4A0
100
AcDbEntity
  8
0
  6
CONTINUOUS
100
AcDbLine
 10
9.817529300306965
 20
4.222087026337075
 30
0.0
 11
10.89312513395388
 21
5.297682859983993
 31
0.0
  0
LINE
  5
1B4BC
330
1B4A0
100
AcDbEntity
  8
0
  6
CONTINUOUS
100
AcDbLine
 10
10.02566815382863
 20
3.756706670778549
 30
0.0
 11
11.10129251732229
 21
4.832331034272211
 31
0.0
  0
LINE
  5
1B4BD
330
1B4A0
100
AcDbEntity
  8
0
  6
CONTINUOUS
100
AcDbLine
 10
9.310880692127883
 20
2.368399999997621
 30
0.0
 11
11.30945990069069
 21
4.366979208560428
 31
0.0
  0
LINE
  5
1B4BE
330
1B4A0
100
AcDbEntity
  8
0
  6
CONTINUOUS
100
AcDbLine
 10
9.98439990120807
 20
2.36839999999762
 30
0.0
 11
11.5176272840591
 21
3.901627382848645
 31
0.0
  0
LINE
  5
1B4BF
330
1B4A0
100
AcDbEntity
  8
0
  6
CONTINUOUS
100
AcDbLine
 10
10.65037369446246
 20
2.36085458417182
 30
0.0
 11
11.7257946674275
 21
3.436275557136862
 31
0.0
  0
LINE
  5
1B4C0
330
1B4A0
100
AcDbEntity
  8
0
  6
CONTINUOUS
100
AcDbLine
 10
10.85847197087848
 20
1.895433651507656
 30
0.0
 11
11.9339620507959
 21
2.97092373142508
 31
0.0
  0
LINE
  5
1B4C1
330
1B4A0
100
AcDbEntity
  8
0
  6
CONTINUOUS
100
AcDbLine
 10
11.0665702472945
 20
1.430012718843491
 30
0.0
 11
12.14212943416431
 21
2.505571905713296
 31
0.0
  0
LINE
  5
1B4C2
330
1B4A0
100
AcDbEntity
  8
0
  6
CONTINUOUS
100
AcDbLine
 10
11.27466852371052
 20
0.9645917861793256
 30
0.0
 11
12.35029681753271
 21
2.040220080001513
 31
0.0
  0
LINE
  5
1B4C3
330
1B4A0
100
AcDbEntity
  8
0
  6
CONTINUOUS
100
AcDbLine
 10
11.48276680012654
 20
0.4991708535151611
 30
0.0
 11
12.55846420090111
 21
1.57486825428973
 31
0.0
  0
LINE
  5
1B4C4
330
1B4A0
100
AcDbEntity
  8
0
  6
CONTINUOUS
100
AcDbLine
 10
11.69086507654257
 20
0.0337499208509957
 30
0.0
 11
12.76663158426952
 21
1.109516428577947
 31
0.0
  0
LINE
  5
1B4C5
330
1B4A0
100
AcDbEntity
  8
0
  6
CONTINUOUS
100
AcDbLine
 10
12.33057447873954
 20
-0.0000598860322123
 30
0.0
 11
12.97479896763792
 21
0.6441646028661663
 31
0.0
  0
LINE
  5
1B4C6
330
1B4A0
100
AcDbEntity
  8
0
  6
CONTINUOUS
100
AcDbLine
 10
13.00413694809395
 20
-0.0000166257579952
 30
0.0
 11
13.18296635100632
 21
0.1788127771543824
 31
0.0
  0
LINE
  5
1B4C7
330
1B4A0
100
AcDbEntity
  8
0
  6
CONTINUOUS
100
AcDbLine
 10
4.772852165289667
 20
-0.000092794222212
 30
0.0
 11
4.296495091028902
 21
0.4762642800385528
 31
0.0
  0
LINE
  5
1B4C8
330
1B4A0
100
AcDbEntity
  8
0
  6
CONTINUOUS
100
AcDbLine
 10
5.446340034776103
 20
-0.0000614546284616
 30
0.0
 11
2.898195908335625
 21
2.548082671812017
 31
0.0
  0
LINE
  5
1B4C9
330
1B4A0
100
AcDbEntity
  8
0
  6
CONTINUOUS
100
AcDbLine
 10
6.119827904262539
 20
-0.0000301150347113
 30
0.0
 11
1.499896725642348
 21
4.61990106358548
 31
0.0
  0
LINE
  5
1B4CA
330
1B4A0
100
AcDbEntity
  8
0
  6
CONTINUOUS
100
AcDbLine
 10
6.775136745476159
 20
0.0181802528318542
 30
0.0
 11
5.699826040202669
 21
1.093490958105344
 31
0.0
  0
LINE
  5
1B4CB
330
1B4A0
100
AcDbEntity
  8
0
  6
CONTINUOUS
100
AcDbLine
 10
6.983376846288489
 20
0.4834593610997118
 30
0.0
 11
5.908008617934405
 21
1.558827589453796
 31
0.0
  0
LINE
  5
1B4CC
330
1B4A0
100
AcDbEntity
  8
0
  6
CONTINUOUS
100
AcDbLine
 10
5.377063484962296
 20
1.416253513345719
 30
0.0
 11
1.702276957014131
 21
5.091040041293883
 31
0.0
  0
LINE
  5
1B4CD
330
1B4A0
100
AcDbEntity
  8
0
  6
CONTINUOUS
100
AcDbLine
 10
3.978745891735324
 20
3.488090315652877
 30
0.0
 11
2.000373521109399
 21
5.466462686278803
 31
0.0
  0
LINE
  5
1B4CE
330
1B4A0
100
AcDbEntity
  8
0
  6
CONTINUOUS
100
AcDbLine
 10
7.191616947100819
 20
0.948738469367568
 30
0.0
 11
6.11619119566614
 21
2.024164220802247
 31
0.0
  0
LINE
  5
1B4CF
330
1B4A0
100
AcDbEntity
  8
0
  6
CONTINUOUS
100
AcDbLine
 10
7.399857047913149
 20
1.414017577635424
 30
0.0
 11
6.324373773397875
 21
2.489500852150698
 31
0.0
  0
LINE
  5
1B4D0
330
1B4A0
100
AcDbEntity
  8
0
  6
CONTINUOUS
100
AcDbLine
 10
7.608097148725479
 20
1.879296685903281
 30
0.0
 11
6.53255635112961
 21
2.95483748349915
 31
0.0
  0
LINE
  5
1B4D1
330
1B4A0
100
AcDbEntity
  8
0
  6
CONTINUOUS
100
AcDbLine
 10
7.816337249537808
 20
2.344575794171138
 30
0.0
 11
6.740738928861345
 21
3.420174114847601
 31
0.0
  0
LINE
  5
1B4D2
330
1B4A0
100
AcDbEntity
  8
0
  6
CONTINUOUS
100
AcDbLine
 10
3.310241080789734
 20
4.830114335678653
 30
0.0
 11
2.298470085204666
 21
5.84188533126372
 31
0.0
  0
LINE
  5
1B4D3
330
1B4A0
100
AcDbEntity
  8
0
  6
CONTINUOUS
100
AcDbLine
 10
3.60832983563551
 20
5.205544789913063
 30
0.0
 11
2.596566649299935
 21
6.217307976248638
 31
0.0
  0
LINE
  5
1B4D4
330
1B4A0
100
AcDbEntity
  8
0
  6
CONTINUOUS
100
AcDbLine
 10
3.906418590481286
 20
5.580975244147473
 30
0.0
 11
2.894663213395203
 21
6.592730621233557
 31
0.0
  0
LINE
  5
1B4D5
330
1B4A0
100
AcDbEntity
  8
0
  6
CONTINUOUS
100
AcDbLine
 10
4.204507345327062
 20
5.956405698381884
 30
0.0
 11
3.192759777490472
 21
6.968153266218474
 31
0.0
  0
LINE
  5
1B4D6
330
1B4A0
100
AcDbEntity
  8
0
  6
CONTINUOUS
100
AcDbLine
 10
8.466032252791512
 20
2.368399999997621
 30
0.0
 11
6.948921506593081
 21
3.885510746196053
 31
0.0
  0
LINE
  5
1B4D7
330
1B4A0
100
AcDbEntity
  8
0
  6
CONTINUOUS
100
AcDbLine
 10
9.139551461871699
 20
2.36839999999762
 30
0.0
 11
7.157104084324816
 21
4.350847377544504
 31
0.0
  0
LINE
  5
1B4D8
330
1B4A0
100
AcDbEntity
  8
0
  6
CONTINUOUS
100
AcDbLine
 10
4.502596100172839
 20
6.331836152616295
 30
0.0
 11
3.49085634158574
 21
7.343575911203393
 31
0.0
  0
LINE
  5
1B4D9
330
1B4A0
100
AcDbEntity
  8
0
  6
CONTINUOUS
100
AcDbLine
 10
4.800684855018615
 20
6.707266606850705
 30
0.0
 11
3.788952905681008
 21
7.718998556188312
 31
0.0
  0
LINE
  5
1B4DA
330
1B4A0
100
AcDbEntity
  8
0
  6
CONTINUOUS
100
AcDbLine
 10
12.18154012887317
 20
-0.0000694579236642
 30
0.0
 11
11.32140332908496
 21
0.8600673418645499
 31
0.0
  0
LINE
  5
1B4DB
330
1B4A0
100
AcDbEntity
  8
0
  6
CONTINUOUS
100
AcDbLine
 10
12.85501608323566
 20
-0.0000262032059659
 30
0.0
 11
10.77672456435345
 21
2.078265315676246
 31
0.0
  0
LINE
  5
1B4DC
330
1B4A0
100
AcDbEntity
  8
0
  6
CONTINUOUS
100
AcDbLine
 10
9.813070670951886
 20
2.36839999999762
 30
0.0
 11
8.51047067095321
 21
3.670999999996297
 31
0.0
  0
LINE
  5
1B4DD
330
1B4A0
100
AcDbEntity
  8
0
  6
CONTINUOUS
100
AcDbLine
 10
10.48658988003207
 20
2.36839999999762
 30
0.0
 11
9.183989880033396
 21
3.670999999996297
 31
0.0
  0
LINE
  5
1B4DE
330
1B4A0
100
AcDbEntity
  8
0
  6
CONTINUOUS
100
AcDbLine
 10
8.441048632286794
 20
3.740422038662712
 30
0.0
 11
7.365286662056551
 21
4.816184008892956
 31
0.0
  0
LINE
  5
1B4DF
330
1B4A0
100
AcDbEntity
  8
0
  6
CONTINUOUS
100
AcDbLine
 10
8.649187485808454
 20
4.205802394221237
 30
0.0
 11
7.573469239788285
 21
5.281520640241407
 31
0.0
  0
LINE
  5
1B4E0
330
1B4A0
100
AcDbEntity
  8
0
  6
CONTINUOUS
100
AcDbLine
 10
5.098773609864391
 20
7.082697061085115
 30
0.0
 11
4.087049469776277
 21
8.09442120117323
 31
0.0
  0
LINE
  5
1B4E1
330
1B4A0
100
AcDbEntity
  8
0
  6
CONTINUOUS
100
AcDbLine
 10
5.396862364710167
 20
7.458127515319526
 30
0.0
 11
4.385146033871544
 21
8.469843846158149
 31
0.0
  0
LINE
  5
1B4E2
330
1B4A0
100
AcDbEntity
  8
0
  6
CONTINUOUS
100
AcDbLine
 10
13.04801363231285
 20
0.4804954567970334
 30
0.0
 11
9.85750908911358
 21
3.670999999996297
 31
0.0
  0
LINE
  5
1B4E3
330
1B4A0
100
AcDbEntity
  8
0
  6
CONTINUOUS
100
AcDbLine
 10
8.857326339330116
 20
4.671182749779763
 30
0.0
 11
7.781651817520021
 21
5.746857271589858
 31
0.0
  0
LINE
  5
1B4E4
330
1B4A0
100
AcDbEntity
  8
0
  6
CONTINUOUS
100
AcDbLine
 10
5.694951119555943
 20
7.833557969553937
 30
0.0
 11
4.765409089118624
 21
8.763099999991255
 31
0.0
  0
LINE
  5
1B4E5
330
1B4A0
100
AcDbEntity
  8
0
  6
CONTINUOUS
100
AcDbLine
 10
12.50286117236978
 20
1.699167125820288
 30
0.0
 11
9.68611877250287
 21
4.515909525687196
 31
0.0
  0
LINE
  5
1B4E6
330
1B4A0
100
AcDbEntity
  8
0
  6
CONTINUOUS
100
AcDbLine
 10
9.065465192851777
 20
5.136563105338288
 30
0.0
 11
7.989834395251757
 21
6.21219390293831
 31
0.0
  0
LINE
  5
1B4E7
330
1B4A0
100
AcDbEntity
  8
0
  6
CONTINUOUS
100
AcDbLine
 10
5.993039874401719
 20
8.208988423788346
 30
0.0
 11
5.43892829819881
 21
8.763099999991255
 31
0.0
  0
LINE
  5
1B4E8
330
1B4A0
100
AcDbEntity
  8
0
  6
CONTINUOUS
100
AcDbLine
 10
11.95770871242671
 20
2.917838794843543
 30
0.0
 11
8.19801697298349
 21
6.677530534286761
 31
0.0
  0
LINE
  5
1B4E9
330
1B4A0
100
AcDbEntity
  8
0
  6
CONTINUOUS
100
AcDbLine
 10
6.291128629247495
 20
8.584418878022756
 30
0.0
 11
6.112447507278997
 21
8.763099999991255
 31
0.0
  0
LINE
  5
1B4EA
330
1B4A0
100
AcDbEntity
  8
0
  6
CONTINUOUS
100
AcDbLine
 10
11.41255625248364
 20
4.136510463866797
 30
0.0
 11
8.406199550715227
 21
7.142867165635211
 31
0.0
  0
LINE
  5
1B4EB
330
1B4A0
100
AcDbEntity
  8
0
  6
CONTINUOUS
100
AcDbLine
 10
10.86740379254057
 20
5.355182132890051
 30
0.0
 11
8.614382128446962
 21
7.608203796983664
 31
0.0
  0
LINE
  5
1B4EC
330
1B4A0
100
AcDbEntity
  8
0
  6
CONTINUOUS
100
AcDbLine
 10
10.3222513325975
 20
6.573853801913305
 30
0.0
 11
8.822564706178696
 21
8.073540428332114
 31
0.0
  0
LINE
  5
1B4ED
330
1B4A0
100
AcDbEntity
  8
0
  6
CONTINUOUS
100
AcDbLine
 10
9.777098872654436
 20
7.792525470936562
 30
0.0
 11
9.030747283910433
 21
8.538877059680566
 31
0.0
  0
ENDBLK
  5
1B62F
330
1B4A0
100
AcDbEntity
  8
0
100
AcDbBlockEnd
  0
BLOCK
  5
1B630
330
1B4EE
100
AcDbEntity
  8
0
100
AcDbBlockBegin
  2
*X66
 70
     1
 10
0.0
 20
0.0
 30
0.0
  3
*X66
  1

  0
LINE
  5
1B4EF
330
1B4EE
100
AcDbEntity
  8
0
  6
CONTINUOUS
100
AcDbLine
 10
10.67292308101235
 20
8.445076852443387
 30
0.0
 11
10.99094622856022
 21
8.763099999991255
 31
0.0
  0
LINE
  5
1B4F0
330
1B4EE
100
AcDbEntity
  8
0
  6
CONTINUOUS
100
AcDbLine
 10
10.87250383178748
 20
7.971138394138331
 30
0.0
 11
11.6644654376404
 21
8.763099999991255
 31
0.0
  0
LINE
  5
1B4F1
330
1B4EE
100
AcDbEntity
  8
0
  6
CONTINUOUS
100
AcDbLine
 10
11.07208458256261
 20
7.497199935833273
 30
0.0
 11
12.12126590876355
 21
8.546381262034211
 31
0.0
  0
LINE
  5
1B4F2
330
1B4EE
100
AcDbEntity
  8
0
  6
CONTINUOUS
100
AcDbLine
 10
11.27166533333774
 20
7.023261477528216
 30
0.0
 11
12.32085164573666
 21
8.072447789927136
 31
0.0
  0
LINE
  5
1B4F3
330
1B4EE
100
AcDbEntity
  8
0
  6
CONTINUOUS
100
AcDbLine
 10
11.47124608411287
 20
6.549323019223158
 30
0.0
 11
12.52043738270977
 21
7.59851431782006
 31
0.0
  0
LINE
  5
1B4F4
330
1B4EE
100
AcDbEntity
  8
0
  6
CONTINUOUS
100
AcDbLine
 10
11.670826834888
 20
6.075384560918101
 30
0.0
 11
12.72002311968288
 21
7.124580845712984
 31
0.0
  0
LINE
  5
1B4F5
330
1B4EE
100
AcDbEntity
  8
0
  6
CONTINUOUS
100
AcDbLine
 10
11.87040758566313
 20
5.601446102613043
 30
0.0
 11
12.91960885665599
 21
6.650647373605907
 31
0.0
  0
LINE
  5
1B4F6
330
1B4EE
100
AcDbEntity
  8
0
  6
CONTINUOUS
100
AcDbLine
 10
12.06998833643825
 20
5.127507644307986
 30
0.0
 11
13.1191945936291
 21
6.176713901498832
 31
0.0
  0
LINE
  5
1B4F7
330
1B4EE
100
AcDbEntity
  8
0
  6
CONTINUOUS
100
AcDbLine
 10
12.26956908721338
 20
4.65356918600293
 30
0.0
 11
13.31878033060221
 21
5.702780429391757
 31
0.0
  0
LINE
  5
1B4F8
330
1B4EE
100
AcDbEntity
  8
0
  6
CONTINUOUS
100
AcDbLine
 10
12.46914983798851
 20
4.179630727697873
 30
0.0
 11
13.51836606757532
 21
5.228846957284683
 31
0.0
  0
LINE
  5
1B4F9
330
1B4EE
100
AcDbEntity
  8
0
  6
CONTINUOUS
100
AcDbLine
 10
12.66873058876364
 20
3.705692269392816
 30
0.0
 11
13.71795180454843
 21
4.754913485177607
 31
0.0
  0
LINE
  5
1B4FA
330
1B4EE
100
AcDbEntity
  8
0
  6
CONTINUOUS
100
AcDbLine
 10
12.86831133953877
 20
3.231753811087759
 30
0.0
 11
13.91753754152154
 21
4.280980013070531
 31
0.0
  0
LINE
  5
1B4FB
330
1B4EE
100
AcDbEntity
  8
0
  6
CONTINUOUS
100
AcDbLine
 10
13.0678920903139
 20
2.757815352782702
 30
0.0
 11
14.11712327849465
 21
3.807046540963456
 31
0.0
  0
LINE
  5
1B4FC
330
1B4EE
100
AcDbEntity
  8
0
  6
CONTINUOUS
100
AcDbLine
 10
13.26747284108903
 20
2.283876894477644
 30
0.0
 11
14.31670901546777
 21
3.333113068856379
 31
0.0
  0
LINE
  5
1B4FD
330
1B4EE
100
AcDbEntity
  8
0
  6
CONTINUOUS
100
AcDbLine
 10
16.36767838827179
 20
8.751678487061342
 30
0.0
 11
16.50332410898388
 21
8.887324207773432
 31
0.0
  0
LINE
  5
1B4FE
330
1B4EE
100
AcDbEntity
  8
0
  6
CONTINUOUS
100
AcDbLine
 10
15.96190732182191
 20
7.67238821153127
 30
0.0
 11
16.68735328004734
 21
8.397834169756699
 31
0.0
  0
LINE
  5
1B4FF
330
1B4EE
100
AcDbEntity
  8
0
  6
CONTINUOUS
100
AcDbLine
 10
15.55613625537202
 20
6.593097936001196
 30
0.0
 11
16.87138245111079
 21
7.908344131739965
 31
0.0
  0
LINE
  5
1B500
330
1B4EE
100
AcDbEntity
  8
0
  6
CONTINUOUS
100
AcDbLine
 10
15.15036518892213
 20
5.513807660471122
 30
0.0
 11
17.05541162217424
 21
7.418854093723231
 31
0.0
  0
LINE
  5
1B501
330
1B4EE
100
AcDbEntity
  8
0
  6
CONTINUOUS
100
AcDbLine
 10
14.74459412247225
 20
4.434517384941048
 30
0.0
 11
17.2394407932377
 21
6.929364055706499
 31
0.0
  0
LINE
  5
1B502
330
1B4EE
100
AcDbEntity
  8
0
  6
CONTINUOUS
100
AcDbLine
 10
14.33882305602236
 20
3.355227109410975
 30
0.0
 11
17.42346996430115
 21
6.439874017689766
 31
0.0
  0
LINE
  5
1B503
330
1B4EE
100
AcDbEntity
  8
0
  6
CONTINUOUS
100
AcDbLine
 10
13.46705359186416
 20
1.809938436172586
 30
0.0
 11
16.0819338255367
 21
4.424818669845129
 31
0.0
  0
LINE
  5
1B504
330
1B4EE
100
AcDbEntity
  8
0
  6
CONTINUOUS
100
AcDbLine
 10
16.63283254238972
 20
4.975717386698149
 30
0.0
 11
17.60749913536461
 21
5.950383979673033
 31
0.0
  0
LINE
  5
1B505
330
1B4EE
100
AcDbEntity
  8
0
  6
CONTINUOUS
100
AcDbLine
 10
13.66663434263929
 20
1.335999977867529
 30
0.0
 11
15.67604797733754
 21
3.345413612565779
 31
0.0
  0
LINE
  5
1B506
330
1B4EE
100
AcDbEntity
  8
0
  6
CONTINUOUS
100
AcDbLine
 10
13.86621509341442
 20
0.8620615195624723
 30
0.0
 11
15.27016212913838
 21
2.26600855528643
 31
0.0
  0
LINE
  5
1B507
330
1B4EE
100
AcDbEntity
  8
0
  6
CONTINUOUS
100
AcDbLine
 10
16.81682257348267
 20
4.486188208710908
 30
0.0
 11
17.79152830642806
 21
5.460893941656299
 31
0.0
  0
LINE
  5
1B508
330
1B4EE
100
AcDbEntity
  8
0
  6
CONTINUOUS
100
AcDbLine
 10
17.00081260457561
 20
3.996659030723667
 30
0.0
 11
17.97555747749151
 21
4.971403903639565
 31
0.0
  0
LINE
  5
1B509
330
1B4EE
100
AcDbEntity
  8
0
  6
CONTINUOUS
100
AcDbLine
 10
20.74362343514722
 20
8.412989070375462
 30
0.0
 11
21.09373436476302
 21
8.763099999991256
 31
0.0
  0
LINE
  5
1B50A
330
1B4EE
100
AcDbEntity
  8
0
  6
CONTINUOUS
100
AcDbLine
 10
20.25401257174777
 20
7.249858997895826
 30
0.0
 11
21.7672535738432
 21
8.763099999991255
 31
0.0
  0
LINE
  5
1B50B
330
1B4EE
100
AcDbEntity
  8
0
  6
CONTINUOUS
100
AcDbLine
 10
14.06579584418955
 20
0.3881230612574149
 30
0.0
 11
14.86427628093921
 21
1.186603498007082
 31
0.0
  0
LINE
  5
1B50C
330
1B4EE
100
AcDbEntity
  8
0
  6
CONTINUOUS
100
AcDbLine
 10
14.26537659496467
 20
-0.0858153970476412
 30
0.0
 11
14.45839043274005
 21
0.1071984407277329
 31
0.0
  0
LINE
  5
1B50D
330
1B4EE
100
AcDbEntity
  8
0
  6
CONTINUOUS
100
AcDbLine
 10
17.18480263566856
 20
3.507129852736426
 30
0.0
 11
18.15958664855496
 21
4.481913865622833
 31
0.0
  0
LINE
  5
1B50E
330
1B4EE
100
AcDbEntity
  8
0
  6
CONTINUOUS
100
AcDbLine
 10
17.3687926667615
 20
3.017600674749186
 30
0.0
 11
18.34361581961842
 21
3.9924238276061
 31
0.0
  0
LINE
  5
1B50F
330
1B4EE
100
AcDbEntity
  8
0
  6
CONTINUOUS
100
AcDbLine
 10
19.76440170834832
 20
6.086728925416191
 30
0.0
 11
22.33924590259489
 21
8.661573119662755
 31
0.0
  0
LINE
  5
1B510
330
1B4EE
100
AcDbEntity
  8
0
  6
CONTINUOUS
100
AcDbLine
 10
19.27479084494887
 20
4.923598852936555
 30
0.0
 11
21.84929622842713
 21
7.498104236414807
 31
0.0
  0
LINE
  5
1B511
330
1B4EE
100
AcDbEntity
  8
0
  6
CONTINUOUS
100
AcDbLine
 10
17.55278269785445
 20
2.528071496761945
 30
0.0
 11
18.52764499068187
 21
3.502933789589366
 31
0.0
  0
LINE
  5
1B512
330
1B4EE
100
AcDbEntity
  8
0
  6
CONTINUOUS
100
AcDbLine
 10
18.78517998154942
 20
3.760468780456919
 30
0.0
 11
21.35934655425936
 21
6.33463535316686
 31
0.0
  0
LINE
  5
1B513
330
1B4EE
100
AcDbEntity
  8
0
  6
CONTINUOUS
100
AcDbLine
 10
17.73677272894739
 20
2.038542318774704
 30
0.0
 11
20.8693968800916
 21
5.171166469918914
 31
0.0
  0
LINE
  5
1B514
330
1B4EE
100
AcDbEntity
  8
0
  6
CONTINUOUS
100
AcDbLine
 10
17.92076276004034
 20
1.549013140787464
 30
0.0
 11
20.37944720592384
 21
4.007697586670968
 31
0.0
  0
LINE
  5
1B515
330
1B4EE
100
AcDbEntity
  8
0
  6
CONTINUOUS
100
AcDbLine
 10
18.10475279113329
 20
1.059483962800223
 30
0.0
 11
19.88949753175608
 21
2.84422870342302
 31
0.0
  0
LINE
  5
1B516
330
1B4EE
100
AcDbEntity
  8
0
  6
CONTINUOUS
100
AcDbLine
 10
18.28874282222623
 20
0.5699547848129822
 30
0.0
 11
19.39954785758832
 21
1.680759820175074
 31
0.0
  0
LINE
  5
1B517
330
1B4EE
100
AcDbEntity
  8
0
  6
CONTINUOUS
100
AcDbLine
 10
18.47273285331918
 20
0.0804256068257416
 30
0.0
 11
18.90959818342056
 21
0.517290936927127
 31
0.0
  0
LINE
  5
1B518
330
1B4EE
100
AcDbEntity
  8
0
  6
CONTINUOUS
100
AcDbLine
 10
14.3590401358224
 20
-0.1570118376323384
 30
0.0
 11
14.24903296539946
 21
-0.0470046672093929
 31
0.0
  0
LINE
  5
1B519
330
1B4EE
100
AcDbEntity
  8
0
  6
CONTINUOUS
100
AcDbLine
 10
14.54309291258661
 20
0.332454594683643
 30
0.0
 11
13.75908329123172
 21
1.116464216038529
 31
0.0
  0
LINE
  5
1B51A
330
1B4EE
100
AcDbEntity
  8
0
  6
CONTINUOUS
100
AcDbLine
 10
14.72714568935081
 20
0.8219210269996244
 30
0.0
 11
13.26913361706399
 21
2.27993309928645
 31
0.0
  0
LINE
  5
1B51B
330
1B4EE
100
AcDbEntity
  8
0
  6
CONTINUOUS
100
AcDbLine
 10
14.91119846611502
 20
1.311387459315606
 30
0.0
 11
12.77918394289625
 21
3.443401982534371
 31
0.0
  0
LINE
  5
1B51C
330
1B4EE
100
AcDbEntity
  8
0
  6
CONTINUOUS
100
AcDbLine
 10
15.09525124287922
 20
1.800853891631587
 30
0.0
 11
12.28923426872852
 21
4.606870865782293
 31
0.0
  0
LINE
  5
1B51D
330
1B4EE
100
AcDbEntity
  8
0
  6
CONTINUOUS
100
AcDbLine
 10
15.27930401964343
 20
2.290320323947569
 30
0.0
 11
11.79928459456078
 21
5.770339749030213
 31
0.0
  0
LINE
  5
1B51E
330
1B4EE
100
AcDbEntity
  8
0
  6
CONTINUOUS
100
AcDbLine
 10
15.46335679640763
 20
2.77978675626355
 30
0.0
 11
14.48885470994921
 21
3.754288842721972
 31
0.0
  0
LINE
  5
1B51F
330
1B4EE
100
AcDbEntity
  8
0
  6
CONTINUOUS
100
AcDbLine
 10
13.88507249233704
 20
4.358071060334137
 30
0.0
 11
11.30933492039305
 21
6.933808632278135
 31
0.0
  0
LINE
  5
1B520
330
1B4EE
100
AcDbEntity
  8
0
  6
CONTINUOUS
100
AcDbLine
 10
18.75840522805855
 20
0.1582575336928151
 30
0.0
 11
18.25383727664818
 21
0.6628254851031863
 31
0.0
  0
LINE
  5
1B521
330
1B4EE
100
AcDbEntity
  8
0
  6
CONTINUOUS
100
AcDbLine
 10
15.64740957317184
 20
3.269253188579531
 30
0.0
 11
14.67288388101266
 21
4.243778880738705
 31
0.0
  0
LINE
  5
1B522
330
1B4EE
100
AcDbEntity
  8
0
  6
CONTINUOUS
100
AcDbLine
 10
13.39509276772158
 20
5.521569994029786
 30
0.0
 11
10.81938524622531
 21
8.097277515526056
 31
0.0
  0
LINE
  5
1B523
330
1B4EE
100
AcDbEntity
  8
0
  6
CONTINUOUS
100
AcDbLine
 10
18.95798597883369
 20
0.6321959919978686
 30
0.0
 11
17.84825644852853
 21
1.741925522303024
 31
0.0
  0
LINE
  5
1B524
330
1B4EE
100
AcDbEntity
  8
0
  6
CONTINUOUS
100
AcDbLine
 10
19.15756672960882
 20
1.106134450302922
 30
0.0
 11
17.44267562040888
 21
2.821025559502861
 31
0.0
  0
LINE
  5
1B525
330
1B4EE
100
AcDbEntity
  8
0
  6
CONTINUOUS
100
AcDbLine
 10
15.83146234993604
 20
3.758719620895513
 30
0.0
 11
14.85691305207612
 21
4.733268918755439
 31
0.0
  0
LINE
  5
1B526
330
1B4EE
100
AcDbEntity
  8
0
  6
CONTINUOUS
100
AcDbLine
 10
16.01551512670025
 20
4.248186053211494
 30
0.0
 11
15.04094222313957
 21
5.222758956772172
 31
0.0
  0
LINE
  5
1B527
330
1B4EE
100
AcDbEntity
  8
0
  6
CONTINUOUS
100
AcDbLine
 10
12.90511304310612
 20
6.685068927725435
 30
0.0
 11
10.8270819708403
 21
8.763099999991255
 31
0.0
  0
LINE
  5
1B528
330
1B4EE
100
AcDbEntity
  8
0
  6
CONTINUOUS
100
AcDbLine
 10
12.41513331849066
 20
7.848567861421083
 30
0.0
 11
11.50060117992049
 21
8.763099999991255
 31
0.0
  0
LINE
  5
1B529
330
1B4EE
100
AcDbEntity
  8
0
  6
CONTINUOUS
100
AcDbLine
 10
19.35714748038395
 20
1.580072908607975
 30
0.0
 11
17.03709479228923
 21
3.900125596702697
 31
0.0
  0
LINE
  5
1B52A
330
1B4EE
100
AcDbEntity
  8
0
  6
CONTINUOUS
100
AcDbLine
 10
19.55672823115909
 20
2.054011366913028
 30
0.0
 11
16.63151396416958
 21
4.979225633902534
 31
0.0
  0
LINE
  5
1B52B
330
1B4EE
100
AcDbEntity
  8
0
  6
CONTINUOUS
100
AcDbLine
 10
16.19956790346445
 20
4.737652485527476
 30
0.0
 11
15.22497139420302
 21
5.712248994788904
 31
0.0
  0
LINE
  5
1B52C
330
1B4EE
100
AcDbEntity
  8
0
  6
CONTINUOUS
100
AcDbLine
 10
16.38362068022866
 20
5.227118917843457
 30
0.0
 11
15.40900056526648
 21
6.201739032805637
 31
0.0
  0
LINE
  5
1B52D
330
1B4EE
100
AcDbEntity
  8
0
  6
CONTINUOUS
100
AcDbLine
 10
19.75630898193422
 20
2.527949825218081
 30
0.0
 11
18.70774536448286
 21
3.576513442669441
 31
0.0
  0
LINE
  5
1B52E
330
1B4EE
100
AcDbEntity
  8
0
  6
CONTINUOUS
100
AcDbLine
 10
19.95588973270936
 20
3.001888283523134
 30
0.0
 11
18.90726987211446
 21
4.050508144118028
 31
0.0
  0
LINE
  5
1B52F
330
1B4EE
100
AcDbEntity
  8
0
  6
CONTINUOUS
100
AcDbLine
 10
20.15547048348449
 20
3.475826741828186
 30
0.0
 11
19.10679437974606
 21
4.524502845566614
 31
0.0
  0
LINE
  5
1B530
330
1B4EE
100
AcDbEntity
  8
0
  6
CONTINUOUS
100
AcDbLine
 10
20.35505123425962
 20
3.94976520013324
 30
0.0
 11
19.30631888737766
 21
4.998497547015201
 31
0.0
  0
LINE
  5
1B531
330
1B4EE
100
AcDbEntity
  8
0
  6
CONTINUOUS
100
AcDbLine
 10
20.55463198503475
 20
4.423703658438292
 30
0.0
 11
19.50584339500926
 21
5.472492248463787
 31
0.0
  0
LINE
  5
1B532
330
1B4EE
100
AcDbEntity
  8
0
  6
CONTINUOUS
100
AcDbLine
 10
18.37481191085755
 20
3.909446896294752
 30
0.0
 11
15.59302973632993
 21
6.691229070822371
 31
0.0
  0
LINE
  5
1B533
330
1B4EE
100
AcDbEntity
  8
0
  6
CONTINUOUS
100
AcDbLine
 10
17.96904084440766
 20
4.988737171824825
 30
0.0
 11
15.77705890739338
 21
7.180719108839104
 31
0.0
  0
LINE
  5
1B534
330
1B4EE
100
AcDbEntity
  8
0
  6
CONTINUOUS
100
AcDbLine
 10
17.56326977795777
 20
6.068027447354899
 30
0.0
 11
15.96108807845684
 21
7.670209146855838
 31
0.0
  0
LINE
  5
1B535
330
1B4EE
100
AcDbEntity
  8
0
  6
CONTINUOUS
100
AcDbLine
 10
17.15749871150789
 20
7.147317722884972
 30
0.0
 11
16.14511724952029
 21
8.15969918487257
 31
0.0
  0
LINE
  5
1B536
330
1B4EE
100
AcDbEntity
  8
0
  6
CONTINUOUS
100
AcDbLine
 10
16.751727645058
 20
8.226607998415046
 30
0.0
 11
16.32914642058374
 21
8.649189222889303
 31
0.0
  0
LINE
  5
1B537
330
1B4EE
100
AcDbEntity
  8
0
  6
CONTINUOUS
100
AcDbLine
 10
20.75421273580989
 20
4.897642116743345
 30
0.0
 11
19.70536790264086
 21
5.946486949912374
 31
0.0
  0
LINE
  5
1B538
330
1B4EE
100
AcDbEntity
  8
0
  6
CONTINUOUS
100
AcDbLine
 10
20.95379348658502
 20
5.371580575048398
 30
0.0
 11
19.90489241027246
 21
6.42048165136096
 31
0.0
  0
LINE
  5
1B539
330
1B4EE
100
AcDbEntity
  8
0
  6
CONTINUOUS
100
AcDbLine
 10
21.15337423736015
 20
5.845519033353452
 30
0.0
 11
20.10441691790406
 21
6.894476352809547
 31
0.0
  0
LINE
  5
1B53A
330
1B4EE
100
AcDbEntity
  8
0
  6
CONTINUOUS
100
AcDbLine
 10
21.35295498813529
 20
6.319457491658505
 30
0.0
 11
20.30394142553566
 21
7.368471054258134
 31
0.0
  0
LINE
  5
1B53B
330
1B4EE
100
AcDbEntity
  8
0
  6
CONTINUOUS
100
AcDbLine
 10
21.55253573891042
 20
6.793395949963558
 30
0.0
 11
20.50346593316726
 21
7.842465755706721
 31
0.0
  0
LINE
  5
1B53C
330
1B4EE
100
AcDbEntity
  8
0
  6
CONTINUOUS
100
AcDbLine
 10
21.75211648968556
 20
7.267334408268612
 30
0.0
 11
20.70299044079886
 21
8.316460457155308
 31
0.0
  0
LINE
  5
1B53D
330
1B4EE
100
AcDbEntity
  8
0
  6
CONTINUOUS
100
AcDbLine
 10
21.95169724046069
 20
7.741272866573663
 30
0.0
 11
20.9298701070431
 21
8.763099999991256
 31
0.0
  0
LINE
  5
1B53E
330
1B4EE
100
AcDbEntity
  8
0
  6
CONTINUOUS
100
AcDbLine
 10
22.15127799123582
 20
8.215211324878716
 30
0.0
 11
21.60338931612328
 21
8.763099999991256
 31
0.0
  0
LINE
  5
1B53F
330
1B4EE
100
AcDbEntity
  8
0
  6
CONTINUOUS
100
AcDbLine
 10
22.35085874201096
 20
8.689149783183769
 30
0.0
 11
22.27690852520347
 21
8.763099999991255
 31
0.0
  0
ENDBLK
  5
1B631
330
1B4EE
100
AcDbEntity
  8
0
100
AcDbBlockEnd
  0
BLOCK
  5
1B632
330
1B540
100
AcDbEntity
  8
0
100
AcDbBlockBegin
  2
*X67
 70
     1
 10
0.0
 20
0.0
 30
0.0
  3
*X67
  1

  0
LINE
  5
1B541
330
1B540
100
AcDbEntity
  8
0
  6
CONTINUOUS
100
AcDbLine
 10
23.19462913593892
 20
8.169917934846424
 30
0.0
 11
23.70775465517246
 21
8.683043454079957
 31
0.0
  0
LINE
  5
1B542
330
1B540
100
AcDbEntity
  8
0
  6
CONTINUOUS
100
AcDbLine
 10
22.64923161835078
 20
6.951001208178088
 30
0.0
 11
23.9159364069932
 21
8.217705996820516
 31
0.0
  0
LINE
  5
1B543
330
1B540
100
AcDbEntity
  8
0
  6
CONTINUOUS
100
AcDbLine
 10
22.10383410076263
 20
5.732084481509751
 30
0.0
 11
24.12411815881395
 21
7.752368539561078
 31
0.0
  0
LINE
  5
1B544
330
1B540
100
AcDbEntity
  8
0
  6
CONTINUOUS
100
AcDbLine
 10
21.55843658317447
 20
4.513167754841414
 30
0.0
 11
24.3322999106347
 21
7.287031082301639
 31
0.0
  0
LINE
  5
1B545
330
1B540
100
AcDbEntity
  8
0
  6
CONTINUOUS
100
AcDbLine
 10
21.01303906558632
 20
3.294251028173077
 30
0.0
 11
24.54048166245544
 21
6.821693625042199
 31
0.0
  0
LINE
  5
1B546
330
1B540
100
AcDbEntity
  8
0
  6
CONTINUOUS
100
AcDbLine
 10
20.46764154799817
 20
2.075334301504738
 30
0.0
 11
23.28571549467848
 21
4.89340824818505
 31
0.0
  0
LINE
  5
1B547
330
1B540
100
AcDbEntity
  8
0
  6
CONTINUOUS
100
AcDbLine
 10
19.92224403041002
 20
0.8564175748364002
 30
0.0
 11
22.74075865492779
 21
3.674932199354171
 31
0.0
  0
LINE
  5
1B548
330
1B540
100
AcDbEntity
  8
0
  6
CONTINUOUS
100
AcDbLine
 10
23.67305085490148
 20
5.280743608408048
 30
0.0
 11
24.74866341427619
 21
6.356356167782759
 31
0.0
  0
LINE
  5
1B549
330
1B540
100
AcDbEntity
  8
0
  6
CONTINUOUS
100
AcDbLine
 10
23.88118970842314
 20
4.815363252849522
 30
0.0
 11
24.95684516609694
 21
5.89101871052332
 31
0.0
  0
LINE
  5
1B54A
330
1B540
100
AcDbEntity
  8
0
  6
CONTINUOUS
100
AcDbLine
 10
19.73925852647308
 20
-0.0000871381807288
 30
0.0
 11
23.4103456646501
 21
3.670999999996297
 31
0.0
  0
LINE
  5
1B54B
330
1B540
100
AcDbEntity
  8
0
  6
CONTINUOUS
100
AcDbLine
 10
24.0893285619448
 20
4.349982897290997
 30
0.0
 11
25.16502691791769
 21
5.42568125326388
 31
0.0
  0
LINE
  5
1B54C
330
1B540
100
AcDbEntity
  8
0
  6
CONTINUOUS
100
AcDbLine
 10
20.41282099582748
 20
-0.0000438779065108
 30
0.0
 11
21.64944178675636
 21
1.236576913022366
 31
0.0
  0
LINE
  5
1B54D
330
1B540
100
AcDbEntity
  8
0
  6
CONTINUOUS
100
AcDbLine
 10
22.78126487373161
 20
2.36839999999762
 30
0.0
 11
24.08386487373029
 21
3.670999999996297
 31
0.0
  0
LINE
  5
1B54E
330
1B540
100
AcDbEntity
  8
0
  6
CONTINUOUS
100
AcDbLine
 10
24.29746741546646
 20
3.884602541732471
 30
0.0
 11
25.37320866973843
 21
4.960343796004441
 31
0.0
  0
LINE
  5
1B54F
330
1B540
100
AcDbEntity
  8
0
  6
CONTINUOUS
100
AcDbLine
 10
21.08638346518189
 20
-0.0000006176322938
 30
0.0
 11
21.10379033335899
 21
0.0174062505448083
 31
0.0
  0
LINE
  5
1B550
330
1B540
100
AcDbEntity
  8
0
  6
CONTINUOUS
100
AcDbLine
 10
23.4547840828118
 20
2.36839999999762
 30
0.0
 11
25.58139042155918
 21
4.495006338745002
 31
0.0
  0
LINE
  5
1B551
330
1B540
100
AcDbEntity
  8
0
  6
CONTINUOUS
100
AcDbLine
 10
29.30199999996933
 20
8.215615917155148
 30
0.0
 11
29.84948408280543
 21
8.763099999991255
 31
0.0
  0
LINE
  5
1B552
330
1B540
100
AcDbEntity
  8
0
  6
CONTINUOUS
100
AcDbLine
 10
24.12830329189199
 20
2.36839999999762
 30
0.0
 11
25.78957217337993
 21
4.029668881485562
 31
0.0
  0
LINE
  5
1B553
330
1B540
100
AcDbEntity
  8
0
  6
CONTINUOUS
100
AcDbLine
 10
29.30199999996933
 20
7.54209670807496
 30
0.0
 11
30.52300329188562
 21
8.763099999991255
 31
0.0
  0
LINE
  5
1B554
330
1B540
100
AcDbEntity
  8
0
  6
CONTINUOUS
100
AcDbLine
 10
24.80182250097217
 20
2.36839999999762
 30
0.0
 11
25.99775392520067
 21
3.564331424226122
 31
0.0
  0
LINE
  5
1B555
330
1B540
100
AcDbEntity
  8
0
  6
CONTINUOUS
100
AcDbLine
 10
29.30199999996933
 20
6.868577498994774
 30
0.0
 11
30.74199999996926
 21
8.308577498994712
 31
0.0
  0
LINE
  5
1B556
330
1B540
100
AcDbEntity
  8
0
  6
CONTINUOUS
100
AcDbLine
 10
25.13028238392013
 20
2.023340673865392
 30
0.0
 11
26.20593567702142
 21
3.098993966966683
 31
0.0
  0
LINE
  5
1B557
330
1B540
100
AcDbEntity
  8
0
  6
CONTINUOUS
100
AcDbLine
 10
25.33838066033617
 20
1.557919741201244
 30
0.0
 11
26.41411742884217
 21
2.633656509707244
 31
0.0
  0
LINE
  5
1B558
330
1B540
100
AcDbEntity
  8
0
  6
CONTINUOUS
100
AcDbLine
 10
25.54647893675221
 20
1.092498808537098
 30
0.0
 11
26.62229918066291
 21
2.168319052447804
 31
0.0
  0
LINE
  5
1B559
330
1B540
100
AcDbEntity
  8
0
  6
CONTINUOUS
100
AcDbLine
 10
25.75457721316825
 20
0.62707787587295
 30
0.0
 11
26.83048093248366
 21
1.702981595188365
 31
0.0
  0
LINE
  5
1B55A
330
1B540
100
AcDbEntity
  8
0
  6
CONTINUOUS
100
AcDbLine
 10
29.30199999996933
 20
6.195058289914587
 30
0.0
 11
30.74199999996926
 21
7.635058289914522
 31
0.0
  0
LINE
  5
1B55B
330
1B540
100
AcDbEntity
  8
0
  6
CONTINUOUS
100
AcDbLine
 10
29.30199999996933
 20
5.521539080834401
 30
0.0
 11
30.74199999996926
 21
6.961539080834331
 31
0.0
  0
LINE
  5
1B55C
330
1B540
100
AcDbEntity
  8
0
  6
CONTINUOUS
100
AcDbLine
 10
29.30199999996933
 20
4.848019871754214
 30
0.0
 11
30.74199999996925
 21
6.288019871754143
 31
0.0
  0
LINE
  5
1B55D
330
1B540
100
AcDbEntity
  8
0
  6
CONTINUOUS
100
AcDbLine
 10
29.30199999996933
 20
4.174500662674028
 30
0.0
 11
30.74199999996925
 21
5.614500662673953
 31
0.0
  0
LINE
  5
1B55E
330
1B540
100
AcDbEntity
  8
0
  6
CONTINUOUS
100
AcDbLine
 10
25.96267548958429
 20
0.1616569432088024
 30
0.0
 11
27.18411854636669
 21
1.383099999991207
 31
0.0
  0
LINE
  5
1B55F
330
1B540
100
AcDbEntity
  8
0
  6
CONTINUOUS
100
AcDbLine
 10
29.30199999996933
 20
3.500981453593841
 30
0.0
 11
30.74199999996925
 21
4.940981453593762
 31
0.0
  0
LINE
  5
1B560
330
1B540
100
AcDbEntity
  8
0
  6
CONTINUOUS
100
AcDbLine
 10
26.50763775544691
 20
0.0330999999912356
 30
0.0
 11
27.85763775544689
 21
1.383099999991223
 31
0.0
  0
LINE
  5
1B561
330
1B540
100
AcDbEntity
  8
0
  6
CONTINUOUS
100
AcDbLine
 10
29.30199999996933
 20
2.827462244513656
 30
0.0
 11
30.74199999996925
 21
4.267462244513574
 31
0.0
  0
LINE
  5
1B562
330
1B540
100
AcDbEntity
  8
0
  6
CONTINUOUS
100
AcDbLine
 10
27.18115696452709
 20
0.0330999999912356
 30
0.0
 11
28.55073879889363
 21
1.402681834357775
 31
0.0
  0
LINE
  5
1B563
330
1B540
100
AcDbEntity
  8
0
  6
CONTINUOUS
100
AcDbLine
 10
29.28241816560272
 20
2.134361201066866
 30
0.0
 11
30.74199999996924
 21
3.593943035433383
 31
0.0
  0
LINE
  5
1B564
330
1B540
100
AcDbEntity
  8
0
  6
CONTINUOUS
100
AcDbLine
 10
27.85467617360728
 20
0.0330999999912356
 30
0.0
 11
30.74199999996924
 21
2.920423826353195
 31
0.0
  0
LINE
  5
1B565
330
1B540
100
AcDbEntity
  8
0
  6
CONTINUOUS
100
AcDbLine
 10
28.53897559587887
 20
0.0438802131826428
 30
0.0
 11
30.73121978677781
 21
2.236124404081585
 31
0.0
  0
LINE
  5
1B566
330
1B540
100
AcDbEntity
  8
0
  6
CONTINUOUS
100
AcDbLine
 10
29.45140055588722
 20
0.2827859641107988
 30
0.0
 11
30.49231403584965
 21
1.323699444073236
 31
0.0
  0
LINE
  5
1B567
330
1B540
100
AcDbEntity
  8
0
  6
CONTINUOUS
100
AcDbLine
 10
19.59027867740337
 20
-0.0000967065718083
 30
0.0
 11
19.55485265190471
 21
0.035329318926844
 31
0.0
  0
LINE
  5
1B568
330
1B540
100
AcDbEntity
  8
0
  6
CONTINUOUS
100
AcDbLine
 10
20.26375463176586
 20
-0.0000534518541091
 30
0.0
 11
19.76305575737534
 21
0.5006454225364014
 31
0.0
  0
LINE
  5
1B569
330
1B540
100
AcDbEntity
  8
0
  6
CONTINUOUS
100
AcDbLine
 10
20.93723058612834
 20
-0.0000101971364099
 30
0.0
 11
19.97125886284597
 21
0.965961526145958
 31
0.0
  0
LINE
  5
1B56A
330
1B540
100
AcDbEntity
  8
0
  6
CONTINUOUS
100
AcDbLine
 10
21.25514828313686
 20
0.355591314935257
 30
0.0
 11
20.1794619683166
 21
1.431277629755512
 31
0.0
  0
LINE
  5
1B56B
330
1B540
100
AcDbEntity
  8
0
  6
CONTINUOUS
100
AcDbLine
 10
21.46338838394921
 20
0.8208704232030986
 30
0.0
 11
20.38766507378723
 21
1.896593733365069
 31
0.0
  0
LINE
  5
1B56C
330
1B540
100
AcDbEntity
  8
0
  6
CONTINUOUS
100
AcDbLine
 10
21.67162848476155
 20
1.28614953147094
 30
0.0
 11
20.59586817925786
 21
2.361909836974626
 31
0.0
  0
LINE
  5
1B56D
330
1B540
100
AcDbEntity
  8
0
  6
CONTINUOUS
100
AcDbLine
 10
21.8798685855739
 20
1.751428639738782
 30
0.0
 11
20.80407128472849
 21
2.827225940584183
 31
0.0
  0
LINE
  5
1B56E
330
1B540
100
AcDbEntity
  8
0
  6
CONTINUOUS
100
AcDbLine
 10
22.08810868638624
 20
2.216707748006623
 30
0.0
 11
21.01227439019912
 21
3.292542044193739
 31
0.0
  0
LINE
  5
1B56F
330
1B540
100
AcDbEntity
  8
0
  6
CONTINUOUS
100
AcDbLine
 10
22.60993564347543
 20
2.36839999999762
 30
0.0
 11
21.22047749566975
 21
3.757858147803296
 31
0.0
  0
LINE
  5
1B570
330
1B540
100
AcDbEntity
  8
0
  6
CONTINUOUS
100
AcDbLine
 10
23.28345485255561
 20
2.36839999999762
 30
0.0
 11
21.42868060114038
 21
4.223174251412853
 31
0.0
  0
LINE
  5
1B571
330
1B540
100
AcDbEntity
  8
0
  6
CONTINUOUS
100
AcDbLine
 10
26.29227406164219
 20
0.0330999999912356
 30
0.0
 11
25.80009199592872
 21
0.5252820657046957
 31
0.0
  0
LINE
  5
1B572
330
1B540
100
AcDbEntity
  8
0
  6
CONTINUOUS
100
AcDbLine
 10
23.9569740616358
 20
2.36839999999762
 30
0.0
 11
21.63688370661101
 21
4.688490355022409
 31
0.0
  0
LINE
  5
1B573
330
1B540
100
AcDbEntity
  8
0
  6
CONTINUOUS
100
AcDbLine
 10
26.96579327072237
 20
0.0330999999912356
 30
0.0
 11
25.2554132311971
 21
1.743480039516508
 31
0.0
  0
LINE
  5
1B574
330
1B540
100
AcDbEntity
  8
0
  6
CONTINUOUS
100
AcDbLine
 10
24.63049327071599
 20
2.36839999999762
 30
0.0
 11
23.32789327071731
 21
3.670999999996297
 31
0.0
  0
LINE
  5
1B575
330
1B540
100
AcDbEntity
  8
0
  6
CONTINUOUS
100
AcDbLine
 10
22.92098674744635
 20
4.077906523267254
 30
0.0
 11
21.84508681208164
 21
5.153806458631966
 31
0.0
  0
LINE
  5
1B576
330
1B540
100
AcDbEntity
  8
0
  6
CONTINUOUS
100
AcDbLine
 10
27.63931247980256
 20
0.0330999999912356
 30
0.0
 11
24.0014124797975
 21
3.670999999996297
 31
0.0
  0
LINE
  5
1B577
330
1B540
100
AcDbEntity
  8
0
  6
CONTINUOUS
100
AcDbLine
 10
23.129125600968
 20
4.5432868788258
 30
0.0
 11
22.05328991755227
 21
5.619122562241522
 31
0.0
  0
LINE
  5
1B578
330
1B540
100
AcDbEntity
  8
0
  6
CONTINUOUS
100
AcDbLine
 10
28.31283168888275
 20
0.0330999999912356
 30
0.0
 11
24.16488385994816
 21
4.181047828925828
 31
0.0
  0
LINE
  5
1B579
330
1B540
100
AcDbEntity
  8
0
  6
CONTINUOUS
100
AcDbLine
 10
23.33726445448964
 20
5.008667234384345
 30
0.0
 11
22.2614930230229
 21
6.084438665851079
 31
0.0
  0
LINE
  5
1B57A
330
1B540
100
AcDbEntity
  8
0
  6
CONTINUOUS
100
AcDbLine
 10
28.92085740005492
 20
0.0985934978992438
 30
0.0
 11
27.63635089796295
 21
1.383099999991217
 31
0.0
  0
LINE
  5
1B57B
330
1B540
100
AcDbEntity
  8
0
  6
CONTINUOUS
100
AcDbLine
 10
26.43704649509776
 20
2.582404402856405
 30
0.0
 11
23.61992702019732
 21
5.399523877756844
 31
0.0
  0
LINE
  5
1B57C
330
1B540
100
AcDbEntity
  8
0
  6
CONTINUOUS
100
AcDbLine
 10
23.54540330801128
 20
5.47404758994289
 30
0.0
 11
22.46969612849353
 21
6.549754769460635
 31
0.0
  0
LINE
  5
1B57D
330
1B540
100
AcDbEntity
  8
0
  6
CONTINUOUS
100
AcDbLine
 10
29.42225615078443
 20
0.2707139562499279
 30
0.0
 11
28.30987010704312
 21
1.383099999991234
 31
0.0
  0
LINE
  5
1B57E
330
1B540
100
AcDbEntity
  8
0
  6
CONTINUOUS
100
AcDbLine
 10
25.89179548232307
 20
3.801174624711282
 30
0.0
 11
22.67789923396416
 21
7.015070873070191
 31
0.0
  0
LINE
  5
1B57F
330
1B540
100
AcDbEntity
  8
0
  6
CONTINUOUS
100
AcDbLine
 10
29.83624534690007
 20
0.5302439692144705
 30
0.0
 11
28.85811781497101
 21
1.508371501143527
 31
0.0
  0
LINE
  5
1B580
330
1B540
100
AcDbEntity
  8
0
  6
CONTINUOUS
100
AcDbLine
 10
25.34654446954838
 20
5.01994484656616
 30
0.0
 11
22.88610233943479
 21
7.480386976679748
 31
0.0
  0
LINE
  5
1B581
330
1B540
100
AcDbEntity
  8
0
  6
CONTINUOUS
100
AcDbLine
 10
30.17865975401872
 20
0.8613487711760022
 30
0.0
 11
29.18888744090175
 21
1.851121084292977
 31
0.0
  0
LINE
  5
1B582
330
1B540
100
AcDbEntity
  8
0
  6
CONTINUOUS
100
AcDbLine
 10
24.80129345677369
 20
6.238715068421037
 30
0.0
 11
23.09430544490542
 21
7.945703080289305
 31
0.0
  0
LINE
  5
1B583
330
1B540
100
AcDbEntity
  8
0
  6
CONTINUOUS
100
AcDbLine
 10
30.45496647202376
 20
1.258561262251155
 30
0.0
 11
29.30199999996933
 21
2.411527734305588
 31
0.0
  0
LINE
  5
1B584
330
1B540
100
AcDbEntity
  8
0
  6
CONTINUOUS
100
AcDbLine
 10
24.256042443999
 20
7.457485290275915
 30
0.0
 11
23.30250855037605
 21
8.411019183898862
 31
0.0
  0
LINE
  5
1B585
330
1B540
100
AcDbEntity
  8
0
  6
CONTINUOUS
100
AcDbLine
 10
30.64868582078271
 20
1.738361122572387
 30
0.0
 11
29.30199999996933
 21
3.085046943385775
 31
0.0
  0
LINE
  5
1B586
330
1B540
100
AcDbEntity
  8
0
  6
CONTINUOUS
100
AcDbLine
 10
23.71079143122431
 20
8.676255512130794
 30
0.0
 11
23.51071165584668
 21
8.876335287508416
 31
0.0
  0
LINE
  5
1B587
330
1B540
100
AcDbEntity
  8
0
  6
CONTINUOUS
100
AcDbLine
 10
30.73802122914428
 20
2.322544923291007
 30
0.0
 11
29.30199999996933
 21
3.758566152465961
 31
0.0
  0
LINE
  5
1B588
330
1B540
100
AcDbEntity
  8
0
  6
CONTINUOUS
100
AcDbLine
 10
30.74199999996924
 20
2.992085361546236
 30
0.0
 11
29.30199999996933
 21
4.432085361546148
 31
0.0
  0
LINE
  5
1B589
330
1B540
100
AcDbEntity
  8
0
  6
CONTINUOUS
100
AcDbLine
 10
30.74199999996924
 20
3.665604570626419
 30
0.0
 11
29.30199999996933
 21
5.105604570626333
 31
0.0
  0
LINE
  5
1B58A
330
1B540
100
AcDbEntity
  8
0
  6
CONTINUOUS
100
AcDbLine
 10
30.74199999996925
 20
4.339123779706602
 30
0.0
 11
29.30199999996933
 21
5.77912377970652
 31
0.0
  0
LINE
  5
1B58B
330
1B540
100
AcDbEntity
  8
0
  6
CONTINUOUS
100
AcDbLine
 10
30.74199999996925
 20
5.012642988786785
 30
0.0
 11
29.30199999996933
 21
6.452642988786707
 31
0.0
  0
LINE
  5
1B58C
330
1B540
100
AcDbEntity
  8
0
  6
CONTINUOUS
100
AcDbLine
 10
30.74199999996925
 20
5.68616219786697
 30
0.0
 11
29.30199999996933
 21
7.126162197866894
 31
0.0
  0
LINE
  5
1B58D
330
1B540
100
AcDbEntity
  8
0
  6
CONTINUOUS
100
AcDbLine
 10
30.74199999996925
 20
6.359681406947153
 30
0.0
 11
29.30199999996933
 21
7.799681406947081
 31
0.0
  0
LINE
  5
1B58E
330
1B540
100
AcDbEntity
  8
0
  6
CONTINUOUS
100
AcDbLine
 10
30.74199999996926
 20
7.033200616027337
 30
0.0
 11
29.30199999996933
 21
8.473200616027269
 31
0.0
  0
LINE
  5
1B58F
330
1B540
100
AcDbEntity
  8
0
  6
CONTINUOUS
100
AcDbLine
 10
30.74199999996926
 20
7.706719825107518
 30
0.0
 11
29.68561982508552
 21
8.763099999991255
 31
0.0
  0
LINE
  5
1B590
330
1B540
100
AcDbEntity
  8
0
  6
CONTINUOUS
100
AcDbLine
 10
30.74199999996926
 20
8.380239034187703
 30
0.0
 11
30.35913903416571
 21
8.763099999991255
 31
0.0
  0
ENDBLK
  5
1B633
330
1B540
100
AcDbEntity
  8
0
100
AcDbBlockEnd
  0
BLOCK
  5
1B634
330
1B591
100
AcDbEntity
  8
0
100
AcDbBlockBegin
  2
*X68
 70
     1
 10
0.0
 20
0.0
 30
0.0
  3
*X68
  1

  0
LINE
  5
1B592
330
1B591
100
AcDbEntity
  8
0
  6
CONTINUOUS
100
AcDbLine
 10
31.64199999996833
 20
8.535058289913598
 30
0.0
 11
31.87004171004599
 21
8.763099999991255
 31
0.0
  0
LINE
  5
1B593
330
1B591
100
AcDbEntity
  8
0
  6
CONTINUOUS
100
AcDbLine
 10
31.64199999996833
 20
7.861539080833412
 30
0.0
 11
32.54356091912618
 21
8.763099999991255
 31
0.0
  0
LINE
  5
1B594
330
1B591
100
AcDbEntity
  8
0
  6
CONTINUOUS
100
AcDbLine
 10
31.64199999996833
 20
7.188019871753226
 30
0.0
 11
33.08199999996839
 21
8.628019871753281
 31
0.0
  0
LINE
  5
1B595
330
1B591
100
AcDbEntity
  8
0
  6
CONTINUOUS
100
AcDbLine
 10
31.64199999996833
 20
6.51450066267304
 30
0.0
 11
33.08199999996839
 21
7.954500662673095
 31
0.0
  0
LINE
  5
1B596
330
1B591
100
AcDbEntity
  8
0
  6
CONTINUOUS
100
AcDbLine
 10
31.64199999996833
 20
5.840981453592853
 30
0.0
 11
33.08199999996839
 21
7.280981453592908
 31
0.0
  0
LINE
  5
1B597
330
1B591
100
AcDbEntity
  8
0
  6
CONTINUOUS
100
AcDbLine
 10
31.64199999996833
 20
5.167462244512667
 30
0.0
 11
33.08199999996839
 21
6.607462244512721
 31
0.0
  0
LINE
  5
1B598
330
1B591
100
AcDbEntity
  8
0
  6
CONTINUOUS
100
AcDbLine
 10
31.64199999996833
 20
4.493943035432481
 30
0.0
 11
33.08199999996839
 21
5.933943035432535
 31
0.0
  0
LINE
  5
1B599
330
1B591
100
AcDbEntity
  8
0
  6
CONTINUOUS
100
AcDbLine
 10
31.64199999996833
 20
3.820423826352293
 30
0.0
 11
33.08199999996839
 21
5.260423826352348
 31
0.0
  0
LINE
  5
1B59A
330
1B591
100
AcDbEntity
  8
0
  6
CONTINUOUS
100
AcDbLine
 10
31.64199999996833
 20
3.146904617272106
 30
0.0
 11
33.08199999996839
 21
4.586904617272161
 31
0.0
  0
LINE
  5
1B59B
330
1B591
100
AcDbEntity
  8
0
  6
CONTINUOUS
100
AcDbLine
 10
36.23199999996837
 20
8.410423826352325
 30
0.0
 11
36.5846761736073
 21
8.763099999991255
 31
0.0
  0
LINE
  5
1B59C
330
1B591
100
AcDbEntity
  8
0
  6
CONTINUOUS
100
AcDbLine
 10
36.23199999996837
 20
7.73690461727214
 30
0.0
 11
37.25819538268748
 21
8.763099999991255
 31
0.0
  0
LINE
  5
1B59D
330
1B591
100
AcDbEntity
  8
0
  6
CONTINUOUS
100
AcDbLine
 10
31.64257403601376
 20
2.473959444237348
 30
0.0
 11
33.08199999996839
 21
3.913385408191974
 31
0.0
  0
LINE
  5
1B59E
330
1B591
100
AcDbEntity
  8
0
  6
CONTINUOUS
100
AcDbLine
 10
36.23199999996837
 20
7.063385408191953
 30
0.0
 11
37.67199999996831
 21
8.503385408191894
 31
0.0
  0
LINE
  5
1B59F
330
1B591
100
AcDbEntity
  8
0
  6
CONTINUOUS
100
AcDbLine
 10
31.72013636841932
 20
1.87800256756272
 30
0.0
 11
33.08199999996839
 21
3.239866199111788
 31
0.0
  0
LINE
  5
1B5A0
330
1B591
100
AcDbEntity
  8
0
  6
CONTINUOUS
100
AcDbLine
 10
36.23199999996837
 20
6.389866199111767
 30
0.0
 11
37.67199999996831
 21
7.829866199111708
 31
0.0
  0
LINE
  5
1B5A1
330
1B591
100
AcDbEntity
  8
0
  6
CONTINUOUS
100
AcDbLine
 10
31.89042734314753
 20
1.374774333210744
 30
0.0
 11
33.08199999996839
 21
2.566346990031601
 31
0.0
  0
LINE
  5
1B5A2
330
1B591
100
AcDbEntity
  8
0
  6
CONTINUOUS
100
AcDbLine
 10
36.23199999996837
 20
5.71634699003158
 30
0.0
 11
37.67199999996831
 21
7.156346990031521
 31
0.0
  0
LINE
  5
1B5A3
330
1B591
100
AcDbEntity
  8
0
  6
CONTINUOUS
100
AcDbLine
 10
32.14210568064475
 20
0.952933461627778
 30
0.0
 11
33.18745552475986
 21
1.998283305742888
 31
0.0
  0
LINE
  5
1B5A4
330
1B591
100
AcDbEntity
  8
0
  6
CONTINUOUS
100
AcDbLine
 10
36.23199999996837
 20
5.042827780951393
 30
0.0
 11
37.67199999996831
 21
6.482827780951334
 31
0.0
  0
LINE
  5
1B5A5
330
1B591
100
AcDbEntity
  8
0
  6
CONTINUOUS
100
AcDbLine
 10
32.45820639400955
 20
0.5955149659123915
 30
0.0
 11
33.47242681921943
 21
1.60973539112227
 31
0.0
  0
LINE
  5
1B5A6
330
1B591
100
AcDbEntity
  8
0
  6
CONTINUOUS
100
AcDbLine
 10
36.23199999996837
 20
4.369308571871207
 30
0.0
 11
37.67199999996831
 21
5.809308571871147
 31
0.0
  0
LINE
  5
1B5A7
330
1B591
100
AcDbEntity
  8
0
  6
CONTINUOUS
100
AcDbLine
 10
32.83432456621412
 20
0.2981139290367771
 30
0.0
 11
33.89722476612215
 21
1.361014128944803
 31
0.0
  0
LINE
  5
1B5A8
330
1B591
100
AcDbEntity
  8
0
  6
CONTINUOUS
100
AcDbLine
 10
36.23199999996837
 20
3.69578936279102
 30
0.0
 11
37.67199999996831
 21
5.135789362790962
 31
0.0
  0
LINE
  5
1B5A9
330
1B591
100
AcDbEntity
  8
0
  6
CONTINUOUS
100
AcDbLine
 10
33.2711633111245
 20
0.0614334648669672
 30
0.0
 11
34.43247338014423
 21
1.222743533886696
 31
0.0
  0
LINE
  5
1B5AA
330
1B591
100
AcDbEntity
  8
0
  6
CONTINUOUS
100
AcDbLine
 10
36.23199999996837
 20
3.022270153710834
 30
0.0
 11
37.67199999996831
 21
4.462270153710775
 31
0.0
  0
LINE
  5
1B5AB
330
1B591
100
AcDbEntity
  8
0
  6
CONTINUOUS
100
AcDbLine
 10
33.76515245874577
 20
-0.1180965965919523
 30
0.0
 11
35.1587445516215
 21
1.27549549628378
 31
0.0
  0
LINE
  5
1B5AC
330
1B591
100
AcDbEntity
  8
0
  6
CONTINUOUS
100
AcDbLine
 10
36.21639478609585
 20
2.333145730758136
 30
0.0
 11
37.67199999996831
 21
3.788750944630588
 31
0.0
  0
LINE
  5
1B5AD
330
1B591
100
AcDbEntity
  8
0
  6
CONTINUOUS
100
AcDbLine
 10
34.34060583368432
 20
-0.2161624307335863
 30
0.0
 11
37.67199999996831
 21
3.115231735550401
 31
0.0
  0
LINE
  5
1B5AE
330
1B591
100
AcDbEntity
  8
0
  6
CONTINUOUS
100
AcDbLine
 10
35.01698193613905
 20
-0.2133055373590427
 30
0.0
 11
37.66876712070525
 21
2.438479647207154
 31
0.0
  0
LINE
  5
1B5AF
330
1B591
100
AcDbEntity
  8
0
  6
CONTINUOUS
100
AcDbLine
 10
35.90743367693304
 20
0.0036269943547609
 30
0.0
 11
37.51723902192366
 21
1.613432339345381
 31
0.0
  0
LINE
  5
1B5B0
330
1B591
100
AcDbEntity
  8
0
  6
CONTINUOUS
100
AcDbLine
 10
32.55309425579761
 20
0.5074718966376706
 30
0.0
 11
32.27784730925847
 21
0.7827188431768102
 31
0.0
  0
LINE
  5
1B5B1
330
1B591
100
AcDbEntity
  8
0
  6
CONTINUOUS
100
AcDbLine
 10
33.87496468909684
 20
-0.1408793275813673
 30
0.0
 11
31.67993083278052
 21
2.054154528734943
 31
0.0
  0
LINE
  5
1B5B2
330
1B591
100
AcDbEntity
  8
0
  6
CONTINUOUS
100
AcDbLine
 10
34.64362813207632
 20
-0.2360235614806649
 30
0.0
 11
31.64199999996833
 21
2.765604570627322
 31
0.0
  0
LINE
  5
1B5B3
330
1B591
100
AcDbEntity
  8
0
  6
CONTINUOUS
100
AcDbLine
 10
35.25801106796118
 20
-0.1768872882853429
 30
0.0
 11
31.64199999996833
 21
3.439123779707508
 31
0.0
  0
LINE
  5
1B5B4
330
1B591
100
AcDbEntity
  8
0
  6
CONTINUOUS
100
AcDbLine
 10
35.79065650332146
 20
-0.0360135145654361
 30
0.0
 11
34.54143210838231
 21
1.213210880373721
 31
0.0
  0
LINE
  5
1B5B5
330
1B591
100
AcDbEntity
  8
0
  6
CONTINUOUS
100
AcDbLine
 10
33.08199999996839
 20
2.67264298878764
 30
0.0
 11
31.64199999996833
 21
4.112642988787695
 31
0.0
  0
LINE
  5
1B5B6
330
1B591
100
AcDbEntity
  8
0
  6
CONTINUOUS
100
AcDbLine
 10
36.25975597779143
 20
0.1684062200447833
 30
0.0
 11
35.15395110240023
 21
1.274211095435983
 31
0.0
  0
LINE
  5
1B5B7
330
1B591
100
AcDbEntity
  8
0
  6
CONTINUOUS
100
AcDbLine
 10
33.08199999996839
 20
3.346162197867826
 30
0.0
 11
31.64199999996833
 21
4.786162197867881
 31
0.0
  0
LINE
  5
1B5B8
330
1B591
100
AcDbEntity
  8
0
  6
CONTINUOUS
100
AcDbLine
 10
36.67226329638774
 20
0.4294181105286579
 30
0.0
 11
35.63766478748767
 21
1.464016619428737
 31
0.0
  0
LINE
  5
1B5B9
330
1B591
100
AcDbEntity
  8
0
  6
CONTINUOUS
100
AcDbLine
 10
33.08199999996839
 20
4.019681406948012
 30
0.0
 11
31.64199999996833
 21
5.459681406948068
 31
0.0
  0
LINE
  5
1B5BA
330
1B591
100
AcDbEntity
  8
0
  6
CONTINUOUS
100
AcDbLine
 10
37.01677749710036
 20
0.7584231188962329
 30
0.0
 11
35.99563422741351
 21
1.779566388583076
 31
0.0
  0
LINE
  5
1B5BB
330
1B591
100
AcDbEntity
  8
0
  6
CONTINUOUS
100
AcDbLine
 10
33.08199999996839
 20
4.693200616028199
 30
0.0
 11
31.64199999996833
 21
6.133200616028255
 31
0.0
  0
LINE
  5
1B5BC
330
1B591
100
AcDbEntity
  8
0
  6
CONTINUOUS
100
AcDbLine
 10
37.29859977568887
 20
1.1501200493879
 30
0.0
 11
36.20680593341555
 21
2.241913891661226
 31
0.0
  0
LINE
  5
1B5BD
330
1B591
100
AcDbEntity
  8
0
  6
CONTINUOUS
100
AcDbLine
 10
33.08199999996839
 20
5.366719825108386
 30
0.0
 11
31.64199999996833
 21
6.80671982510844
 31
0.0
  0
LINE
  5
1B5BE
330
1B591
100
AcDbEntity
  8
0
  6
CONTINUOUS
100
AcDbLine
 10
37.5148623517228
 20
1.607376682434161
 30
0.0
 11
36.23199999996837
 21
2.890239034188594
 31
0.0
  0
LINE
  5
1B5BF
330
1B591
100
AcDbEntity
  8
0
  6
CONTINUOUS
100
AcDbLine
 10
33.08199999996839
 20
6.040239034188573
 30
0.0
 11
31.64199999996833
 21
7.480239034188627
 31
0.0
  0
LINE
  5
1B5C0
330
1B591
100
AcDbEntity
  8
0
  6
CONTINUOUS
100
AcDbLine
 10
37.64705163358367
 20
2.148706609653477
 30
0.0
 11
36.23199999996837
 21
3.56375824326878
 31
0.0
  0
LINE
  5
1B5C1
330
1B591
100
AcDbEntity
  8
0
  6
CONTINUOUS
100
AcDbLine
 10
33.08199999996839
 20
6.713758243268758
 30
0.0
 11
31.64199999996833
 21
8.153758243268815
 31
0.0
  0
LINE
  5
1B5C2
330
1B591
100
AcDbEntity
  8
0
  6
CONTINUOUS
100
AcDbLine
 10
37.67199999996831
 20
2.797277452349026
 30
0.0
 11
36.23199999996837
 21
4.237277452348967
 31
0.0
  0
LINE
  5
1B5C3
330
1B591
100
AcDbEntity
  8
0
  6
CONTINUOUS
100
AcDbLine
 10
37.67199999996831
 20
3.470796661429213
 30
0.0
 11
36.23199999996837
 21
4.910796661429154
 31
0.0
  0
LINE
  5
1B5C4
330
1B591
100
AcDbEntity
  8
0
  6
CONTINUOUS
100
AcDbLine
 10
37.67199999996831
 20
4.144315870509399
 30
0.0
 11
36.23199999996837
 21
5.58431587050934
 31
0.0
  0
LINE
  5
1B5C5
330
1B591
100
AcDbEntity
  8
0
  6
CONTINUOUS
100
AcDbLine
 10
33.08199999996839
 20
7.387277452348945
 30
0.0
 11
31.70617745232608
 21
8.763099999991255
 31
0.0
  0
LINE
  5
1B5C6
330
1B591
100
AcDbEntity
  8
0
  6
CONTINUOUS
100
AcDbLine
 10
33.08199999996839
 20
8.060796661429132
 30
0.0
 11
32.37969666140626
 21
8.763099999991255
 31
0.0
  0
LINE
  5
1B5C7
330
1B591
100
AcDbEntity
  8
0
  6
CONTINUOUS
100
AcDbLine
 10
33.08199999996839
 20
8.734315870509318
 30
0.0
 11
33.05321587048645
 21
8.763099999991255
 31
0.0
  0
LINE
  5
1B5C8
330
1B591
100
AcDbEntity
  8
0
  6
CONTINUOUS
100
AcDbLine
 10
37.67199999996831
 20
4.817835079589585
 30
0.0
 11
36.23199999996837
 21
6.257835079589526
 31
0.0
  0
LINE
  5
1B5C9
330
1B591
100
AcDbEntity
  8
0
  6
CONTINUOUS
100
AcDbLine
 10
37.67199999996831
 20
5.491354288669771
 30
0.0
 11
36.23199999996837
 21
6.931354288669713
 31
0.0
  0
LINE
  5
1B5CA
330
1B591
100
AcDbEntity
  8
0
  6
CONTINUOUS
100
AcDbLine
 10
37.67199999996831
 20
6.164873497749958
 30
0.0
 11
36.23199999996837
 21
7.6048734977499
 31
0.0
  0
LINE
  5
1B5CB
330
1B591
100
AcDbEntity
  8
0
  6
CONTINUOUS
100
AcDbLine
 10
37.67199999996831
 20
6.838392706830144
 30
0.0
 11
36.23199999996837
 21
8.278392706830086
 31
0.0
  0
LINE
  5
1B5CC
330
1B591
100
AcDbEntity
  8
0
  6
CONTINUOUS
100
AcDbLine
 10
37.67199999996831
 20
7.511911915910332
 30
0.0
 11
36.42081191588738
 21
8.763099999991255
 31
0.0
  0
LINE
  5
1B5CD
330
1B591
100
AcDbEntity
  8
0
  6
CONTINUOUS
100
AcDbLine
 10
37.67199999996831
 20
8.185431124990519
 30
0.0
 11
37.09433112496757
 21
8.763099999991255
 31
0.0
  0
ENDBLK
  5
1B635
330
1B591
100
AcDbEntity
  8
0
100
AcDbBlockEnd
  0
BLOCK
  5
1B636
330
1B5CE
100
AcDbEntity
  8
0
100
AcDbBlockBegin
  2
*X69
 70
     1
 10
0.0
 20
0.0
 30
0.0
  3
*X69
  1

  0
LINE
  5
1B5CF
330
1B5CE
100
AcDbEntity
  8
0
  6
CONTINUOUS
100
AcDbLine
 10
38.60499999996136
 20
8.762866199104765
 30
0.0
 11
38.71672554182345
 21
8.874591740966855
 31
0.0
  0
LINE
  5
1B5D0
330
1B5CE
100
AcDbEntity
  8
0
  6
CONTINUOUS
100
AcDbLine
 10
38.60499999996136
 20
8.089346990024577
 30
0.0
 11
39.03418785440363
 21
8.518534844466847
 31
0.0
  0
LINE
  5
1B5D1
330
1B5CE
100
AcDbEntity
  8
0
  6
CONTINUOUS
100
AcDbLine
 10
38.60499999996136
 20
7.41582778094439
 30
0.0
 11
39.35165016698382
 21
8.16247794796684
 31
0.0
  0
LINE
  5
1B5D2
330
1B5CE
100
AcDbEntity
  8
0
  6
CONTINUOUS
100
AcDbLine
 10
38.60499999996136
 20
6.742308571864204
 30
0.0
 11
39.66911247956399
 21
7.806421051466834
 31
0.0
  0
LINE
  5
1B5D3
330
1B5CE
100
AcDbEntity
  8
0
  6
CONTINUOUS
100
AcDbLine
 10
38.60499999996136
 20
6.068789362784018
 30
0.0
 11
39.98657479214418
 21
7.450364154966827
 31
0.0
  0
LINE
  5
1B5D4
330
1B5CE
100
AcDbEntity
  8
0
  6
CONTINUOUS
100
AcDbLine
 10
38.60499999996136
 20
5.395270153703832
 30
0.0
 11
40.30403710472435
 21
7.09430725846682
 31
0.0
  0
LINE
  5
1B5D5
330
1B5CE
100
AcDbEntity
  8
0
  6
CONTINUOUS
100
AcDbLine
 10
38.60499999996136
 20
4.721750944623645
 30
0.0
 11
40.62149941730453
 21
6.738250361966813
 31
0.0
  0
LINE
  5
1B5D6
330
1B5CE
100
AcDbEntity
  8
0
  6
CONTINUOUS
100
AcDbLine
 10
38.60499999996136
 20
4.048231735543458
 30
0.0
 11
40.93896172988471
 21
6.382193465466806
 31
0.0
  0
LINE
  5
1B5D7
330
1B5CE
100
AcDbEntity
  8
0
  6
CONTINUOUS
100
AcDbLine
 10
38.60499999996136
 20
3.374712526463272
 30
0.0
 11
40.02599999995994
 21
4.795712526461843
 31
0.0
  0
LINE
  5
1B5D8
330
1B5CE
100
AcDbEntity
  8
0
  6
CONTINUOUS
100
AcDbLine
 10
38.60499999996136
 20
2.701193317383085
 30
0.0
 11
40.02599999995994
 21
4.122193317381657
 31
0.0
  0
LINE
  5
1B5D9
330
1B5CE
100
AcDbEntity
  8
0
  6
CONTINUOUS
100
AcDbLine
 10
40.28339754687704
 20
5.053110073378947
 30
0.0
 11
41.25642404246489
 21
6.026136568966799
 31
0.0
  0
LINE
  5
1B5DA
330
1B5CE
100
AcDbEntity
  8
0
  6
CONTINUOUS
100
AcDbLine
 10
40.60085985945722
 20
4.697053176878939
 30
0.0
 11
41.57388635504507
 21
5.670079672466793
 31
0.0
  0
LINE
  5
1B5DB
330
1B5CE
100
AcDbEntity
  8
0
  6
CONTINUOUS
100
AcDbLine
 10
43.57899999995641
 20
8.348712526458318
 30
0.0
 11
43.99338747348935
 21
8.763099999991255
 31
0.0
  0
LINE
  5
1B5DC
330
1B5CE
100
AcDbEntity
  8
0
  6
CONTINUOUS
100
AcDbLine
 10
43.57899999995641
 20
7.675193317378131
 30
0.0
 11
44.66690668256953
 21
8.763099999991255
 31
0.0
  0
LINE
  5
1B5DD
330
1B5CE
100
AcDbEntity
  8
0
  6
CONTINUOUS
100
AcDbLine
 10
38.60499999996136
 20
2.027674108302898
 30
0.0
 11
40.02599999995994
 21
3.44867410830147
 31
0.0
  0
LINE
  5
1B5DE
330
1B5CE
100
AcDbEntity
  8
0
  6
CONTINUOUS
100
AcDbLine
 10
38.60499999996136
 20
1.354154899222712
 30
0.0
 11
40.02599999995994
 21
2.775154899221284
 31
0.0
  0
LINE
  5
1B5DF
330
1B5CE
100
AcDbEntity
  8
0
  6
CONTINUOUS
100
AcDbLine
 10
38.60499999996136
 20
0.6806356901425255
 30
0.0
 11
40.02599999995994
 21
2.101635690141098
 31
0.0
  0
LINE
  5
1B5E0
330
1B5CE
100
AcDbEntity
  8
0
  6
CONTINUOUS
100
AcDbLine
 10
38.60499999996136
 20
0.0071164810623383
 30
0.0
 11
40.02599999995994
 21
1.428116481060911
 31
0.0
  0
LINE
  5
1B5E1
330
1B5CE
100
AcDbEntity
  8
0
  6
CONTINUOUS
100
AcDbLine
 10
40.9183221720374
 20
4.340996280378933
 30
0.0
 11
41.89134866762525
 21
5.314022775966786
 31
0.0
  0
LINE
  5
1B5E2
330
1B5CE
100
AcDbEntity
  8
0
  6
CONTINUOUS
100
AcDbLine
 10
41.23578448461758
 20
3.984939383878926
 30
0.0
 11
42.20881098020543
 21
4.957965879466778
 31
0.0
  0
LINE
  5
1B5E3
330
1B5CE
100
AcDbEntity
  8
0
  6
CONTINUOUS
100
AcDbLine
 10
41.55324679719776
 20
3.628882487378919
 30
0.0
 11
42.52627329278561
 21
4.601908982966772
 31
0.0
  0
LINE
  5
1B5E4
330
1B5CE
100
AcDbEntity
  8
0
  6
CONTINUOUS
100
AcDbLine
 10
41.87070910977793
 20
3.272825590878912
 30
0.0
 11
42.84373560536579
 21
4.245852086466765
 31
0.0
  0
LINE
  5
1B5E5
330
1B5CE
100
AcDbEntity
  8
0
  6
CONTINUOUS
100
AcDbLine
 10
43.57899999995641
 20
7.001674108297943
 30
0.0
 11
44.99999999995498
 21
8.422674108296516
 31
0.0
  0
LINE
  5
1B5E6
330
1B5CE
100
AcDbEntity
  8
0
  6
CONTINUOUS
100
AcDbLine
 10
43.57899999995641
 20
6.328154899217758
 30
0.0
 11
44.99999999995498
 21
7.749154899216329
 31
0.0
  0
LINE
  5
1B5E7
330
1B5CE
100
AcDbEntity
  8
0
  6
CONTINUOUS
100
AcDbLine
 10
43.57899999995641
 20
5.654635690137571
 30
0.0
 11
44.99999999995498
 21
7.075635690136142
 31
0.0
  0
LINE
  5
1B5E8
330
1B5CE
100
AcDbEntity
  8
0
  6
CONTINUOUS
100
AcDbLine
 10
43.57899999995641
 20
4.981116481057384
 30
0.0
 11
44.99999999995498
 21
6.402116481055955
 31
0.0
  0
LINE
  5
1B5E9
330
1B5CE
100
AcDbEntity
  8
0
  6
CONTINUOUS
100
AcDbLine
 10
39.27140272797921
 20
-0.0000000000000009
 30
0.0
 11
40.02599999995994
 21
0.7545972719807246
 31
0.0
  0
LINE
  5
1B5EA
330
1B5CE
100
AcDbEntity
  8
0
  6
CONTINUOUS
100
AcDbLine
 10
39.9449219370594
 20
-0.0000000000000009
 30
0.0
 11
40.02599999995994
 21
0.0810780629005379
 31
0.0
  0
LINE
  5
1B5EB
330
1B5CE
100
AcDbEntity
  8
0
  6
CONTINUOUS
100
AcDbLine
 10
42.18817142235812
 20
2.916768694378905
 30
0.0
 11
43.16119791794597
 21
3.889795189966758
 31
0.0
  0
LINE
  5
1B5EC
330
1B5CE
100
AcDbEntity
  8
0
  6
CONTINUOUS
100
AcDbLine
 10
42.50563373493829
 20
2.560711797878898
 30
0.0
 11
43.47866023052615
 21
3.533738293466751
 31
0.0
  0
LINE
  5
1B5ED
330
1B5CE
100
AcDbEntity
  8
0
  6
CONTINUOUS
100
AcDbLine
 10
43.57899999995641
 20
4.307597271977198
 30
0.0
 11
44.99999999995498
 21
5.728597271975769
 31
0.0
  0
LINE
  5
1B5EE
330
1B5CE
100
AcDbEntity
  8
0
  6
CONTINUOUS
100
AcDbLine
 10
43.57899999995641
 20
3.634078062897011
 30
0.0
 11
44.99999999995498
 21
5.055078062895582
 31
0.0
  0
LINE
  5
1B5EF
330
1B5CE
100
AcDbEntity
  8
0
  6
CONTINUOUS
100
AcDbLine
 10
42.82309604751848
 20
2.204654901378891
 30
0.0
 11
44.99999999995498
 21
4.381558853815395
 31
0.0
  0
LINE
  5
1B5F0
330
1B5CE
100
AcDbEntity
  8
0
  6
CONTINUOUS
100
AcDbLine
 10
43.14055836009865
 20
1.848598004878885
 30
0.0
 11
44.99999999995498
 21
3.70803964473521
 31
0.0
  0
LINE
  5
1B5F1
330
1B5CE
100
AcDbEntity
  8
0
  6
CONTINUOUS
100
AcDbLine
 10
43.45802067267883
 20
1.492541108378878
 30
0.0
 11
44.99999999995498
 21
3.034520435655023
 31
0.0
  0
LINE
  5
1B5F2
330
1B5CE
100
AcDbEntity
  8
0
  6
CONTINUOUS
100
AcDbLine
 10
43.77548298525902
 20
1.136484211878871
 30
0.0
 11
44.99999999995498
 21
2.361001226574837
 31
0.0
  0
LINE
  5
1B5F3
330
1B5CE
100
AcDbEntity
  8
0
  6
CONTINUOUS
100
AcDbLine
 10
44.09294529783919
 20
0.7804273153788639
 30
0.0
 11
44.99999999995498
 21
1.687482017494649
 31
0.0
  0
LINE
  5
1B5F4
330
1B5CE
100
AcDbEntity
  8
0
  6
CONTINUOUS
100
AcDbLine
 10
44.41040761041938
 20
0.4243704188788566
 30
0.0
 11
44.99999999995498
 21
1.013962808414463
 31
0.0
  0
LINE
  5
1B5F5
330
1B5CE
100
AcDbEntity
  8
0
  6
CONTINUOUS
100
AcDbLine
 10
44.72786992299955
 20
0.0683135223788494
 30
0.0
 11
44.99999999995498
 21
0.340443599334276
 31
0.0
  0
LINE
  5
1B5F6
330
1B5CE
100
AcDbEntity
  8
0
  6
CONTINUOUS
100
AcDbLine
 10
39.12223903415696
 20
-0.0000000000000009
 30
0.0
 11
38.60499999996136
 21
0.5172390341955961
 31
0.0
  0
LINE
  5
1B5F7
330
1B5CE
100
AcDbEntity
  8
0
  6
CONTINUOUS
100
AcDbLine
 10
39.79575824323715
 20
-0.0000000000000009
 30
0.0
 11
38.60499999996136
 21
1.190758243275783
 31
0.0
  0
LINE
  5
1B5F8
330
1B5CE
100
AcDbEntity
  8
0
  6
CONTINUOUS
100
AcDbLine
 10
40.02599999995994
 20
0.443277452357397
 30
0.0
 11
38.60499999996136
 21
1.864277452355969
 31
0.0
  0
LINE
  5
1B5F9
330
1B5CE
100
AcDbEntity
  8
0
  6
CONTINUOUS
100
AcDbLine
 10
40.02599999995994
 20
1.116796661437583
 30
0.0
 11
38.60499999996136
 21
2.537796661436155
 31
0.0
  0
LINE
  5
1B5FA
330
1B5CE
100
AcDbEntity
  8
0
  6
CONTINUOUS
100
AcDbLine
 10
40.02599999995994
 20
1.79031587051777
 30
0.0
 11
38.60499999996136
 21
3.211315870516341
 31
0.0
  0
LINE
  5
1B5FB
330
1B5CE
100
AcDbEntity
  8
0
  6
CONTINUOUS
100
AcDbLine
 10
40.02599999995994
 20
2.463835079597956
 30
0.0
 11
38.60499999996136
 21
3.884835079596527
 31
0.0
  0
LINE
  5
1B5FC
330
1B5CE
100
AcDbEntity
  8
0
  6
CONTINUOUS
100
AcDbLine
 10
40.02599999995994
 20
3.137354288678143
 30
0.0
 11
38.60499999996136
 21
4.558354288676714
 31
0.0
  0
LINE
  5
1B5FD
330
1B5CE
100
AcDbEntity
  8
0
  6
CONTINUOUS
100
AcDbLine
 10
40.02599999995994
 20
3.810873497758329
 30
0.0
 11
38.60499999996136
 21
5.2318734977569
 31
0.0
  0
LINE
  5
1B5FE
330
1B5CE
100
AcDbEntity
  8
0
  6
CONTINUOUS
100
AcDbLine
 10
40.02599999995994
 20
4.484392706838515
 30
0.0
 11
38.60499999996136
 21
5.905392706837086
 31
0.0
  0
LINE
  5
1B5FF
330
1B5CE
100
AcDbEntity
  8
0
  6
CONTINUOUS
100
AcDbLine
 10
44.99999999995498
 20
0.183911915923658
 30
0.0
 11
41.53858364506288
 21
3.64532827081576
 31
0.0
  0
LINE
  5
1B600
330
1B5CE
100
AcDbEntity
  8
0
  6
CONTINUOUS
100
AcDbLine
 10
40.02599999995994
 20
5.157911915918703
 30
0.0
 11
38.60499999996136
 21
6.578911915917274
 31
0.0
  0
LINE
  5
1B601
330
1B5CE
100
AcDbEntity
  8
0
  6
CONTINUOUS
100
AcDbLine
 10
44.99999999995498
 20
0.8574311250038447
 30
0.0
 11
38.60499999996136
 21
7.25243112499746
 31
0.0
  0
LINE
  5
1B602
330
1B5CE
100
AcDbEntity
  8
0
  6
CONTINUOUS
100
AcDbLine
 10
44.99999999995498
 20
1.530950334084031
 30
0.0
 11
38.60499999996136
 21
7.925950334077647
 31
0.0
  0
LINE
  5
1B603
330
1B5CE
100
AcDbEntity
  8
0
  6
CONTINUOUS
100
AcDbLine
 10
44.99999999995498
 20
2.204469543164218
 30
0.0
 11
43.57899999995641
 21
3.625469543162789
 31
0.0
  0
LINE
  5
1B604
330
1B5CE
100
AcDbEntity
  8
0
  6
CONTINUOUS
100
AcDbLine
 10
41.89876730984767
 20
5.305702233271528
 30
0.0
 11
38.60499999996136
 21
8.599469543157834
 31
0.0
  0
LINE
  5
1B605
330
1B5CE
100
AcDbEntity
  8
0
  6
CONTINUOUS
100
AcDbLine
 10
44.99999999995498
 20
2.877988752244405
 30
0.0
 11
43.57899999995641
 21
4.298988752242975
 31
0.0
  0
LINE
  5
1B606
330
1B5CE
100
AcDbEntity
  8
0
  6
CONTINUOUS
100
AcDbLine
 10
44.99999999995498
 20
3.551507961324591
 30
0.0
 11
43.57899999995641
 21
4.972507961323163
 31
0.0
  0
LINE
  5
1B607
330
1B5CE
100
AcDbEntity
  8
0
  6
CONTINUOUS
100
AcDbLine
 10
44.99999999995498
 20
4.225027170404777
 30
0.0
 11
43.57899999995641
 21
5.646027170403348
 31
0.0
  0
LINE
  5
1B608
330
1B5CE
100
AcDbEntity
  8
0
  6
CONTINUOUS
100
AcDbLine
 10
44.99999999995498
 20
4.898546379484964
 30
0.0
 11
43.57899999995641
 21
6.319546379483535
 31
0.0
  0
LINE
  5
1B609
330
1B5CE
100
AcDbEntity
  8
0
  6
CONTINUOUS
100
AcDbLine
 10
44.99999999995498
 20
5.572065588565151
 30
0.0
 11
43.57899999995641
 21
6.993065588563722
 31
0.0
  0
LINE
  5
1B60A
330
1B5CE
100
AcDbEntity
  8
0
  6
CONTINUOUS
100
AcDbLine
 10
44.99999999995498
 20
6.245584797645336
 30
0.0
 11
43.57899999995641
 21
7.666584797643908
 31
0.0
  0
LINE
  5
1B60B
330
1B5CE
100
AcDbEntity
  8
0
  6
CONTINUOUS
100
AcDbLine
 10
44.99999999995498
 20
6.919104006725522
 30
0.0
 11
43.57899999995641
 21
8.340104006724093
 31
0.0
  0
LINE
  5
1B60C
330
1B5CE
100
AcDbEntity
  8
0
  6
CONTINUOUS
100
AcDbLine
 10
44.99999999995498
 20
7.592623215805709
 30
0.0
 11
43.82952321576943
 21
8.763099999991255
 31
0.0
  0
LINE
  5
1B60D
330
1B5CE
100
AcDbEntity
  8
0
  6
CONTINUOUS
100
AcDbLine
 10
44.99999999995498
 20
8.266142424885896
 30
0.0
 11
44.50304242484962
 21
8.763099999991255
 31
0.0
  0
ENDBLK
  5
1B637
330
1B5CE
100
AcDbEntity
  8
0
100
AcDbBlockEnd
  0
BLOCK
  5
1B638
330
1B60E
100
AcDbEntity
  8
0
100
AcDbBlockBegin
  2
*X70
 70
     1
 10
0.0
 20
0.0
 30
0.0
  3
*X70
  1

  0
LINE
  5
1B60F
330
1B60E
100
AcDbEntity
  8
0
  6
CONTINUOUS
100
AcDbLine
 10
0.0
 20
8.548461116714023
 30
0.0
 11
0.2146388832772324
 21
8.763099999991255
 31
0.0
  0
LINE
  5
1B610
330
1B60E
100
AcDbEntity
  8
0
  6
CONTINUOUS
100
AcDbLine
 10
-0.0000000000000002
 20
7.874941907633837
 30
0.0
 11
0.8881580923574184
 21
8.763099999991255
 31
0.0
  0
LINE
  5
1B611
330
1B60E
100
AcDbEntity
  8
0
  6
CONTINUOUS
100
AcDbLine
 10
0.0
 20
7.20142269855365
 30
0.0
 11
1.420999999998572
 21
8.622422698552223
 31
0.0
  0
LINE
  5
1B612
330
1B60E
100
AcDbEntity
  8
0
  6
CONTINUOUS
100
AcDbLine
 10
-0.0000000000000001
 20
6.527903489473465
 30
0.0
 11
1.420999999998571
 21
7.948903489472036
 31
0.0
  0
LINE
  5
1B613
330
1B60E
100
AcDbEntity
  8
0
  6
CONTINUOUS
100
AcDbLine
 10
-0.0000000000000002
 20
5.854384280393278
 30
0.0
 11
1.420999999998571
 21
7.275384280391849
 31
0.0
  0
LINE
  5
1B614
330
1B60E
100
AcDbEntity
  8
0
  6
CONTINUOUS
100
AcDbLine
 10
-0.0000000000000002
 20
5.180865071313091
 30
0.0
 11
1.420999999998571
 21
6.601865071311663
 31
0.0
  0
LINE
  5
1B615
330
1B60E
100
AcDbEntity
  8
0
  6
CONTINUOUS
100
AcDbLine
 10
0.0
 20
4.507345862232905
 30
0.0
 11
1.420999999998571
 21
5.928345862231477
 31
0.0
  0
LINE
  5
1B616
330
1B60E
100
AcDbEntity
  8
0
  6
CONTINUOUS
100
AcDbLine
 10
-0.0000000000000003
 20
3.833826653152718
 30
0.0
 11
1.420999999998571
 21
5.25482665315129
 31
0.0
  0
LINE
  5
1B617
330
1B60E
100
AcDbEntity
  8
0
  6
CONTINUOUS
100
AcDbLine
 10
-0.0000000000000002
 20
3.160307444072532
 30
0.0
 11
1.420999999998571
 21
4.581307444071103
 31
0.0
  0
LINE
  5
1B618
330
1B60E
100
AcDbEntity
  8
0
  6
CONTINUOUS
100
AcDbLine
 10
-0.0000000000000001
 20
2.486788234992345
 30
0.0
 11
1.420999999998571
 21
3.907788234990917
 31
0.0
  0
LINE
  5
1B619
330
1B60E
100
AcDbEntity
  8
0
  6
CONTINUOUS
100
AcDbLine
 10
-0.0000000000000006
 20
1.813269025912159
 30
0.0
 11
1.420999999998571
 21
3.234269025910731
 31
0.0
  0
LINE
  5
1B61A
330
1B60E
100
AcDbEntity
  8
0
  6
CONTINUOUS
100
AcDbLine
 10
0.0
 20
1.139749816831973
 30
0.0
 11
1.420999999998571
 21
2.560749816830544
 31
0.0
  0
LINE
  5
1B61B
330
1B60E
100
AcDbEntity
  8
0
  6
CONTINUOUS
100
AcDbLine
 10
0.0000000000000002
 20
0.466230607751787
 30
0.0
 11
1.420999999998571
 21
1.887230607750358
 31
0.0
  0
LINE
  5
1B61C
330
1B60E
100
AcDbEntity
  8
0
  6
CONTINUOUS
100
AcDbLine
 10
0.2072886013284003
 20
-0.0000000000000009
 30
0.0
 11
1.420999999998571
 21
1.213711398670171
 31
0.0
  0
LINE
  5
1B61D
330
1B60E
100
AcDbEntity
  8
0
  6
CONTINUOUS
100
AcDbLine
 10
0.8808078104085864
 20
-0.0000000000000009
 30
0.0
 11
1.420999999998571
 21
0.5401921895899839
 31
0.0
  0
LINE
  5
1B61E
330
1B60E
100
AcDbEntity
  8
0
  6
CONTINUOUS
100
AcDbLine
 10
0.0581249075061505
 20
-0.0000000000000009
 30
0.0
 11
-0.0000000000000002
 21
0.0581249075061496
 31
0.0
  0
LINE
  5
1B61F
330
1B60E
100
AcDbEntity
  8
0
  6
CONTINUOUS
100
AcDbLine
 10
0.7316441165863372
 20
-0.0000000000000009
 30
0.0
 11
-0.0000000000000002
 21
0.7316441165863363
 31
0.0
  0
LINE
  5
1B620
330
1B60E
100
AcDbEntity
  8
0
  6
CONTINUOUS
100
AcDbLine
 10
1.405163325666523
 20
-0.0000000000000009
 30
0.0
 11
-0.0000000000000002
 21
1.405163325666523
 31
0.0
  0
LINE
  5
1B621
330
1B60E
100
AcDbEntity
  8
0
  6
CONTINUOUS
100
AcDbLine
 10
1.420999999998572
 20
0.6576825347481381
 30
0.0
 11
-0.0000000000000001
 21
2.07868253474671
 31
0.0
  0
LINE
  5
1B622
330
1B60E
100
AcDbEntity
  8
0
  6
CONTINUOUS
100
AcDbLine
 10
1.420999999998571
 20
1.331201743828324
 30
0.0
 11
-0.0000000000000001
 21
2.752201743826896
 31
0.0
  0
LINE
  5
1B623
330
1B60E
100
AcDbEntity
  8
0
  6
CONTINUOUS
100
AcDbLine
 10
1.420999999998571
 20
2.004720952908511
 30
0.0
 11
-0.0000000000000002
 21
3.425720952907082
 31
0.0
  0
LINE
  5
1B624
330
1B60E
100
AcDbEntity
  8
0
  6
CONTINUOUS
100
AcDbLine
 10
1.420999999998571
 20
2.678240161988697
 30
0.0
 11
-0.0000000000000001
 21
4.099240161987269
 31
0.0
  0
LINE
  5
1B625
330
1B60E
100
AcDbEntity
  8
0
  6
CONTINUOUS
100
AcDbLine
 10
1.420999999998572
 20
3.351759371068884
 30
0.0
 11
0.0
 21
4.772759371067455
 31
0.0
  0
LINE
  5
1B626
330
1B60E
100
AcDbEntity
  8
0
  6
CONTINUOUS
100
AcDbLine
 10
1.420999999998571
 20
4.02527858014907
 30
0.0
 11
-0.0000000000000003
 21
5.446278580147642
 31
0.0
  0
LINE
  5
1B627
330
1B60E
100
AcDbEntity
  8
0
  6
CONTINUOUS
100
AcDbLine
 10
1.420999999998571
 20
4.698797789229257
 30
0.0
 11
0.0
 21
6.119797789227828
 31
0.0
  0
LINE
  5
1B628
330
1B60E
100
AcDbEntity
  8
0
  6
CONTINUOUS
100
AcDbLine
 10
1.420999999998571
 20
5.372316998309444
 30
0.0
 11
-0.0000000000000001
 21
6.793316998308015
 31
0.0
  0
LINE
  5
1B629
330
1B60E
100
AcDbEntity
  8
0
  6
CONTINUOUS
100
AcDbLine
 10
1.420999999998572
 20
6.045836207389629
 30
0.0
 11
-0.0000000000000004
 21
7.466836207388202
 31
0.0
  0
LINE
  5
1B62A
330
1B60E
100
AcDbEntity
  8
0
  6
CONTINUOUS
100
AcDbLine
 10
1.420999999998571
 20
6.719355416469816
 30
0.0
 11
0.0
 21
8.140355416468388
 31
0.0
  0
LINE
  5
1B62B
330
1B60E
100
AcDbEntity
  8
0
  6
CONTINUOUS
100
AcDbLine
 10
1.420999999998571
 20
7.392874625550003
 30
0.0
 11
0.0507746255573185
 21
8.763099999991255
 31
0.0
  0
LINE
  5
1B62C
330
1B60E
100
AcDbEntity
  8
0
  6
CONTINUOUS
100
AcDbLine
 10
1.420999999998571
 20
8.06639383463019
 30
0.0
 11
0.7242938346375052
 21
8.763099999991255
 31
0.0
  0
LINE
  5
1B62D
330
1B60E
100
AcDbEntity
  8
0
  6
CONTINUOUS
100
AcDbLine
 10
1.420999999998571
 20
8.739913043710375
 30
0.0
 11
1.397813043717691
 21
8.763099999991255
 31
0.0
  0
ENDBLK
  5
1B639
330
1B60E
100
AcDbEntity
  8
0
100
AcDbBlockEnd
  0
ENDSEC
  0
SECTION
  2
ENTITIES
  0
LINE
  5
1AAAA
330
18
100
AcDbEntity
  8
01
100
AcDbLine
 10
2273.240859365575
 20
-603.0839438839629
 30
0.0
 11
2299.240859365575
 21
-603.0839438839629
 31
0.0
  0
LINE
  5
1AAAB
330
18
100
AcDbEntity
  8
01
100
AcDbLine
 10
2308.740859365575
 20
-597.5839438839629
 30
0.0
 11
2263.740859365575
 21
-597.5839438839629
 31
0.0
  0
LINE
  5
1AAAC
330
18
100
AcDbEntity
  8
01
100
AcDbLine
 10
2286.240859365575
 20
-575.0839438839629
 30
0.0
 11
2286.240859365575
 21
-620.0839438839629
 31
0.0
  0
LINE
  5
1AAAD
330
18
100
AcDbEntity
  8
01
100
AcDbLine
 10
2603.740755025833
 20
-597.5839438839629
 30
0.0
 11
2648.740755025833
 21
-597.5839438839629
 31
0.0
  0
LINE
  5
1AAAE
330
18
100
AcDbEntity
  8
01
100
AcDbLine
 10
2626.240755025833
 20
-575.0839438839629
 30
0.0
 11
2626.240755025833
 21
-620.0839438839629
 31
0.0
  0
LINE
  5
1AAB0
330
18
100
AcDbEntity
  8
01
100
AcDbLine
 10
2488.651733151249
 20
-603.0839438839702
 30
-0.0000000000562575
 11
2472.065649527697
 21
-603.0839438839702
 31
-0.0000000000562575
  0
CIRCLE
  5
1AAB2
330
18
100
AcDbEntity
  8
01
100
AcDbCircle
 10
2626.24075502612
 20
-603.083943679835
 30
0.0
 40
3.75
  0
CIRCLE
  5
1AAB3
330
18
100
AcDbEntity
  8
01
100
AcDbCircle
 10
2626.24075502612
 20
-603.0839438839629
 30
0.0
 40
3.5000005
  0
LINE
  5
1AAB4
330
18
100
AcDbEntity
  8
01
100
AcDbLine
 10
2627.24075502612
 20
-606.4380466839629
 30
0.0
 11
2627.24075502612
 21
-599.7298398839629
 31
0.0
  0
LINE
  5
1AAB5
330
18
100
AcDbEntity
  8
01
100
AcDbLine
 10
2625.24075502612
 20
-606.4380466839629
 30
0.0
 11
2625.24075502612
 21
-599.7298398839629
 31
0.0
  0
LINE
  5
1AAB6
330
18
100
AcDbEntity
  8
01
100
AcDbLine
 10
2606.740754703374
 20
-577.5839438842521
 30
0.0
 11
2645.740754703374
 21
-577.5839438842521
 31
0.0
  0
ARC
  5
1AAB7
330
18
100
AcDbEntity
  8
01
100
AcDbCircle
 10
2645.740754703374
 20
-578.0839438842521
 30
0.0
 40
0.5
100
AcDbArc
 50
0.0
 51
90.0
  0
LINE
  5
1AAB8
330
18
100
AcDbEntity
  8
01
100
AcDbLine
 10
2606.740754703374
 20
-617.5839438842521
 30
0.0
 11
2645.740754703374
 21
-617.5839438842521
 31
0.0
  0
ARC
  5
1AAB9
330
18
100
AcDbEntity
  8
01
100
AcDbCircle
 10
2606.740754703374
 20
-617.0839438842521
 30
0.0
 40
0.5
100
AcDbArc
 50
180.0
 51
270.0
  0
LINE
  5
1AABA
330
18
100
AcDbEntity
  8
01
100
AcDbLine
 10
2606.240754703374
 20
-617.0839438842521
 30
0.0
 11
2606.240754703374
 21
-578.0839438842521
 31
0.0
  0
ARC
  5
1AABB
330
18
100
AcDbEntity
  8
01
100
AcDbCircle
 10
2606.740754703374
 20
-578.0839438842521
 30
0.0
 40
0.5
100
AcDbArc
 50
90.0
 51
180.0
  0
LINE
  5
1AABC
330
18
100
AcDbEntity
  8
01
100
AcDbLine
 10
2646.240754703374
 20
-617.0839438842521
 30
0.0
 11
2646.240754703374
 21
-578.0839438842521
 31
0.0
  0
ARC
  5
1AABD
330
18
100
AcDbEntity
  8
01
100
AcDbCircle
 10
2645.740754703374
 20
-617.0839438842521
 30
0.0
 40
0.5
100
AcDbArc
 50
270.0
 51
0.0
  0
LINE
  5
1AABE
330
18
100
AcDbEntity
  8
01
100
AcDbLine
 10
2266.740867043119
 20
-577.5839438842521
 30
0.0
 11
2305.740867043117
 21
-577.5839438842521
 31
0.0
  0
ARC
  5
1AABF
330
18
100
AcDbEntity
  8
01
100
AcDbCircle
 10
2305.740867043117
 20
-578.0839438842521
 30
0.0
 40
0.5
100
AcDbArc
 50
0.0
 51
90.0
  0
LINE
  5
1AAC0
330
18
100
AcDbEntity
  8
01
100
AcDbLine
 10
2266.740867043117
 20
-617.5839438842521
 30
0.0
 11
2305.740867043117
 21
-617.5839438842521
 31
0.0
  0
ARC
  5
1AAC1
330
18
100
AcDbEntity
  8
01
100
AcDbCircle
 10
2266.740867043117
 20
-617.0839438842521
 30
0.0
 40
0.5
100
AcDbArc
 50
180.0
 51
270.0
  0
LINE
  5
1AAC2
330
18
100
AcDbEntity
  8
01
100
AcDbLine
 10
2266.240867043117
 20
-617.0839438842521
 30
0.0
 11
2266.240867043119
 21
-578.0839438842521
 31
0.0
  0
ARC
  5
1AAC3
330
18
100
AcDbEntity
  8
01
100
AcDbCircle
 10
2266.740867043119
 20
-578.0839438842521
 30
0.0
 40
0.5
100
AcDbArc
 50
90.0
 51
180.0
  0
LINE
  5
1AAC4
330
18
100
AcDbEntity
  8
01
100
AcDbLine
 10
2306.240867043117
 20
-617.0839438842521
 30
0.0
 11
2306.240867043117
 21
-578.0839438842521
 31
0.0
  0
ARC
  5
1AAC5
330
18
100
AcDbEntity
  8
01
100
AcDbCircle
 10
2305.740867043117
 20
-617.0839438842521
 30
0.0
 40
0.5
100
AcDbArc
 50
270.0
 51
0.0
  0
LINE
  5
1AAD9
330
18
100
AcDbEntity
  8
01
100
AcDbLine
 10
2436.240863365577
 20
-578.0839438842381
 30
0.0
 11
2436.240863365577
 21
-577.5839438842381
 31
0.0
  0
LINE
  5
1AADA
330
18
100
AcDbEntity
  8
01
100
AcDbLine
 10
2436.240863365577
 20
-578.0839438842381
 30
0.0
 11
2436.240863365577
 21
-617.083943884238
 31
0.0
  0
LINE
  5
1AADC
330
18
100
AcDbEntity
  8
01
100
AcDbLine
 10
2436.240863365577
 20
-617.583943884238
 30
0.0
 11
2436.240863365577
 21
-617.083943884238
 31
0.0
  0
LINE
  5
1AAEB
330
18
100
AcDbEntity
  8
01
100
AcDbLine
 10
2428.740863365577
 20
-596.348960587777
 30
0.0
 11
2428.740863365577
 21
-609.8189271801632
 31
0.0
  0
LINE
  5
1AAF9
330
18
100
AcDbEntity
  8
01
100
AcDbLine
 10
2476.240863365577
 20
-577.5839438839702
 30
0.0
 11
2476.240863365577
 21
-617.5839438839703
 31
0.0
  0
LINE
  5
1AB0C
330
18
100
AcDbEntity
  8
01
100
AcDbLine
 10
2646.240863109219
 20
-363.0839438849879
 30
0.0
 11
2606.240863109219
 21
-363.0839438849945
 31
0.0
  0
LINE
  5
1AB22
330
18
100
AcDbEntity
  8
01
100
AcDbLine
 10
2646.240863109219
 20
-403.0839438849911
 30
0.0
 11
2606.240863109219
 21
-403.0839438849911
 31
0.0
  0
TEXT
  5
1AB27
330
18
100
AcDbEntity
  8
1TEXT
100
AcDbText
 10
2268.240879365575
 20
-371.5839438839633
 30
0.0
 40
20.0
  1
2-GZT-X-LJ-8
100
AcDbText
  0
LINE
  5
1AB36
330
18
100
AcDbEntity
  8
01
100
AcDbLine
 10
2575.24163120789
 20
-363.083943884992
 30
0.0
 11
2728.996011362925
 21
-363.083943884992
 31
0.0
  0
LINE
  5
1AB39
330
18
100
AcDbEntity
  8
01
100
AcDbLine
 10
2575.24163120789
 20
-363.083943884992
 30
0.0
 11
2575.24163120789
 21
-403.083943884992
 31
0.0
  0
LINE
  5
1AB3B
330
18
100
AcDbEntity
  8
01
100
AcDbLine
 10
2626.24074702583
 20
-368.0839438860206
 30
0.0
 11
2626.24074702583
 21
-341.5839438860206
 31
0.0
  0
LINE
  5
1AB3C
330
18
100
AcDbEntity
  8
01
100
AcDbLine
 10
2599.740747025834
 20
-363.083943884992
 30
0.0
 11
2652.74074702583
 21
-363.083943884992
 31
0.0
  0
LINE
  5
1AB3D
330
18
100
AcDbEntity
  8
01
100
AcDbLine
 10
2600.240747025834
 20
-354.583943884992
 30
0.0
 11
2623.740759247045
 21
-354.583943884992
 31
0.0
  0
LINE
  5
1AB3E
330
18
100
AcDbEntity
  8
01
100
AcDbLine
 10
2628.740759247047
 20
-354.583943884992
 30
0.0
 11
2652.24074702583
 21
-354.583943884992
 31
0.0
  0
LINE
  5
1AB3F
330
18
100
AcDbEntity
  8
01
100
AcDbLine
 10
2652.74074702583
 20
-363.083943884992
 30
0.0
 11
2652.74074702583
 21
-355.083943884992
 31
0.0
  0
LINE
  5
1AB40
330
18
100
AcDbEntity
  8
01
100
AcDbLine
 10
2599.740747025834
 20
-363.083943884992
 30
0.0
 11
2599.740747025834
 21
-355.083943884992
 31
0.0
  0
ARC
  5
1AB41
330
18
100
AcDbEntity
  8
01
100
AcDbCircle
 10
2600.240747025834
 20
-355.083943884992
 30
0.0
 40
0.5
100
AcDbArc
 50
90.0
 51
180.0
  0
ARC
  5
1AB42
330
18
100
AcDbEntity
  8
01
100
AcDbCircle
 10
2652.24074702583
 20
-355.083943884992
 30
0.0
 40
0.5
100
AcDbArc
 50
0.0
 51
90.0
  0
ARC
  5
1AB43
330
18
100
AcDbEntity
  8
01
100
AcDbCircle
 10
2578.341631207891
 20
-379.5226933419921
 30
0.0
 40
1.6
100
AcDbArc
 50
115.944479772022
 51
180.0
  0
ARC
  5
1AB44
330
18
100
AcDbEntity
  8
01
100
AcDbCircle
 10
2578.341631207891
 20
-386.6451944279921
 30
0.0
 40
1.6
100
AcDbArc
 50
180.0
 51
244.055520227978
  0
ARC
  5
1AB45
330
18
100
AcDbEntity
  8
01
100
AcDbCircle
 10
2577.64163120789
 20
-387.9226933419922
 30
0.0
 40
1.6
100
AcDbArc
 50
0.0
 51
64.05552022797804
  0
ARC
  5
1AB46
330
18
100
AcDbEntity
  8
01
100
AcDbCircle
 10
2577.64163120789
 20
-378.2451944279923
 30
0.0
 40
1.6
100
AcDbArc
 50
295.944479772022
 51
0.0
  0
LINE
  5
1AB47
330
18
100
AcDbEntity
  8
01
100
AcDbLine
 10
2579.24163120789
 20
-378.2451944279923
 30
0.0
 11
2579.24163120789
 21
-370.8839438849922
 31
0.0
  0
LINE
  5
1AB48
330
18
100
AcDbEntity
  8
01
100
AcDbLine
 10
2578.341631207891
 20
-386.4839438849921
 30
0.0
 11
2578.341631207891
 21
-379.6839438849921
 31
0.0
  0
LINE
  5
1AB49
330
18
100
AcDbEntity
  8
01
100
AcDbLine
 10
2579.24163120789
 20
-395.0839438849922
 30
0.0
 11
2579.24163120789
 21
-387.9226933419922
 31
0.0
  0
LINE
  5
1AB4A
330
18
100
AcDbEntity
  8
01
100
AcDbLine
 10
2577.64163120789
 20
-378.0839438849922
 30
0.0
 11
2577.64163120789
 21
-370.8839438849922
 31
0.0
  0
LINE
  5
1AB4B
330
18
100
AcDbEntity
  8
01
100
AcDbLine
 10
2577.64163120789
 20
-388.0839438849922
 30
0.0
 11
2577.64163120789
 21
-395.1839438849921
 31
0.0
  0
ARC
  5
1AB4C
330
18
100
AcDbEntity
  8
01
100
AcDbCircle
 10
2642.64163120789
 20
-375.1839438849921
 30
0.0
 40
1.6
100
AcDbArc
 50
0.0
 51
90.0
  0
LINE
  5
1AB4D
330
18
100
AcDbEntity
  8
01
100
AcDbLine
 10
2576.74163120789
 20
-370.6839438849921
 30
0.0
 11
2576.74163120789
 21
-395.4839438849921
 31
0.0
  0
LINE
  5
1AB4E
330
18
100
AcDbEntity
  8
01
100
AcDbLine
 10
2642.64163120789
 20
-373.583943884992
 30
0.0
 11
2579.24163120789
 21
-373.583943884992
 31
0.0
  0
LINE
  5
1AB4F
330
18
100
AcDbEntity
  8
01
100
AcDbLine
 10
2642.64163120789
 20
-390.7839438849923
 30
0.0
 11
2642.64163120789
 21
-373.583943884992
 31
0.0
  0
LINE
  5
1AB50
330
18
100
AcDbEntity
  8
01
100
AcDbLine
 10
2644.24163120789
 20
-392.3839438849922
 30
0.0
 11
2644.24163120789
 21
-375.1839438849921
 31
0.0
  0
LINE
  5
1AB51
330
18
100
AcDbEntity
  8
01
100
AcDbLine
 10
2576.74163120789
 20
-370.8839438849922
 30
0.0
 11
2579.24163120789
 21
-370.8839438849922
 31
0.0
  0
LINE
  5
1AB52
330
18
100
AcDbEntity
  8
01
100
AcDbLine
 10
2579.24163120789
 20
-395.0839438849922
 30
0.0
 11
2577.64163120789
 21
-395.0839438849922
 31
0.0
  0
LINE
  5
1AB53
330
18
100
AcDbEntity
  8
01
100
AcDbLine
 10
2577.64163120789
 20
-395.1839438849919
 30
0.0
 11
2576.74163120789
 21
-395.1839438849919
 31
0.0
  0
ARC
  5
1AB54
330
18
100
AcDbEntity
  8
01
100
AcDbCircle
 10
2573.942226135289
 20
-377.3839438849926
 30
0.0
 40
0.3000000000000051
100
AcDbArc
 50
90.0
 51
127.1321941269999
  0
LINE
  5
1AB55
330
18
100
AcDbEntity
  8
01
100
AcDbLine
 10
2574.74163120789
 20
-377.0839438849924
 30
0.0
 11
2573.942226135289
 21
-377.0839438849924
 31
0.0
  0
LINE
  5
1AB56
330
18
100
AcDbEntity
  8
01
100
AcDbLine
 10
2564.341631207891
 20
-386.7569327511968
 30
0.0
 11
2564.341631207891
 21
-386.5863106956475
 31
0.0
  0
ARC
  5
1AB57
330
18
100
AcDbEntity
  8
01
100
AcDbCircle
 10
2564.64163120789
 20
-386.5863106956475
 30
0.0
 40
0.3
100
AcDbArc
 50
142.2594704370021
 51
180.0
  0
ARC
  5
1AB58
330
18
100
AcDbEntity
  8
01
100
AcDbCircle
 10
2603.943931807174
 20
-417.0070136395883
 30
0.0
 40
50.00000000000002
100
AcDbArc
 50
127.1321941269999
 51
142.2594704370021
  0
LINE
  5
1AB59
330
18
100
AcDbEntity
  8
01
100
AcDbLine
 10
2564.14163120789
 20
-387.8839438849922
 30
0.0
 11
2564.14163120789
 21
-388.583943884992
 31
0.0
  0
ARC
  5
1AB5A
330
18
100
AcDbEntity
  8
01
100
AcDbCircle
 10
2564.64163120789
 20
-388.583943884992
 30
0.0
 40
0.5000000000000142
100
AcDbArc
 50
180.0
 51
270.0
  0
LINE
  5
1AB5B
330
18
100
AcDbEntity
  8
01
100
AcDbLine
 10
2574.74163120789
 20
-389.083943884992
 30
0.0
 11
2564.64163120789
 21
-389.083943884992
 31
0.0
  0
LINE
  5
1AB5C
330
18
100
AcDbEntity
  8
01
100
AcDbLine
 10
2564.14163120789
 20
-387.5052642285517
 30
0.0
 11
2564.14163120789
 21
-387.8839438849922
 31
0.0
  0
SPLINE
  5
1AB5D
330
18
100
AcDbEntity
  8
01
100
AcDbSpline
210
0.0
220
0.0
230
1.0
 70
     8
 71
     3
 72
     8
 73
     4
 74
     0
 42
0.0000000001
 43
0.0000000001
 40
0.0
 40
0.0
 40
0.0
 40
0.0
 40
1.0
 40
1.0
 40
1.0
 40
1.0
 10
2564.167363749154
 20
-387.2286137991026
 30
0.0
 10
2564.149895863043
 20
-387.3216999949831
 30
0.0
 10
2564.14163120789
 20
-387.4149660058746
 30
0.0
 10
2564.14163120789
 20
-387.5052642285522
 30
0.0
  0
ARC
  5
1AB5E
330
18
100
AcDbEntity
  8
01
100
AcDbCircle
 10
2565.64163120789
 20
-387.5052642285517
 30
0.0
 40
1.499999999999998
100
AcDbArc
 50
135.0000000000092
 51
169.3718870123951
  0
LINE
  5
1AB5F
330
18
100
AcDbEntity
  8
01
100
AcDbLine
 10
2575.24163120789
 20
-376.2339438849921
 30
0.0
 11
2574.74163120789
 21
-376.2339438849921
 31
0.0
  0
LINE
  5
1AB60
330
18
100
AcDbEntity
  8
01
100
AcDbLine
 10
2574.74163120789
 20
-389.9339438849919
 30
0.0
 11
2575.24163120789
 21
-389.9339438849919
 31
0.0
  0
LINE
  5
1AB61
330
18
100
AcDbEntity
  8
01
100
AcDbLine
 10
2574.74163120789
 20
-389.9339438849919
 30
0.0
 11
2574.74163120789
 21
-376.2339438849921
 31
0.0
  0
LINE
  5
1AB62
330
18
100
AcDbEntity
  8
01
100
AcDbLine
 10
2575.24163120789
 20
-370.6839438849921
 30
0.0
 11
2576.74163120789
 21
-370.6839438849921
 31
0.0
  0
LINE
  5
1AB63
330
18
100
AcDbEntity
  8
01
100
AcDbLine
 10
2575.24163120789
 20
-395.4839438849921
 30
0.0
 11
2576.74163120789
 21
-395.4839438849921
 31
0.0
  0
LINE
  5
1AB64
330
18
100
AcDbEntity
  8
01
100
AcDbLine
 10
2575.24163120789
 20
-395.4839438849921
 30
0.0
 11
2575.24163120789
 21
-370.6839438849921
 31
0.0
  0
LINE
  5
1AB65
330
18
100
AcDbEntity
  8
01
100
AcDbLine
 10
2644.24163120789
 20
-390.7839438849923
 30
0.0
 11
2579.24163120789
 21
-390.7839438849923
 31
0.0
  0
LINE
  5
1AB66
330
18
100
AcDbEntity
  8
01
100
AcDbLine
 10
2644.24163120789
 20
-392.3839438849922
 30
0.0
 11
2593.841631207891
 21
-392.3839438849922
 31
0.0
  0
LINE
  5
1AB67
330
18
100
AcDbEntity
  8
01
100
AcDbLine
 10
2596.678889508093
 20
-392.3839438849922
 30
0.0
 11
2579.24163120789
 21
-392.3839438849922
 31
0.0
  0
LINE
  5
1AB68
330
18
100
AcDbEntity
  8
01
100
AcDbLine
 10
2573.795184598484
 20
-377.2303904943986
 30
0.0
 11
2564.580971036109
 21
-386.4446040567717
 31
0.0
  0
ARC
  5
1AB69
330
18
100
AcDbEntity
  8
01
100
AcDbCircle
 10
2574.148737989078
 20
-377.583943884992
 30
0.0
 40
0.5
100
AcDbArc
 50
90.0
 51
135.0000000000092
  0
LINE
  5
1AB6A
330
18
100
AcDbEntity
  8
01
100
AcDbLine
 10
2574.74163120789
 20
-377.083943884992
 30
0.0
 11
2574.148737989078
 21
-377.083943884992
 31
0.0
  0
LINE
  5
1AB6F
330
18
100
AcDbEntity
  8
01
100
AcDbLine
 10
2599.74074702583
 20
-669.0839438839638
 30
0.0
 11
2644.24074702583
 21
-669.0839438839633
 31
0.0
  0
LINE
  5
1AB70
330
18
100
AcDbEntity
  8
01
100
AcDbLine
 10
2570.24074702583
 20
-689.0839438839633
 30
0.0
 11
2584.24074702583
 21
-689.0839438839633
 31
0.0
  0
LINE
  5
1AB71
330
18
100
AcDbEntity
  8
01
100
AcDbLine
 10
2570.24074702583
 20
-575.0839438839633
 30
0.0
 11
2584.24074702583
 21
-575.0839438839633
 31
0.0
  0
LINE
  5
1AB72
330
18
100
AcDbEntity
  8
01
100
AcDbLine
 10
2462.740863365577
 20
-575.0839438839633
 30
0.0
 11
2449.740863365577
 21
-575.0839438839633
 31
0.0
  0
LINE
  5
1AB73
330
18
100
AcDbEntity
  8
01
100
AcDbLine
 10
2456.240863365577
 20
-568.5839438839633
 30
0.0
 11
2456.240863365577
 21
-581.5839438839633
 31
0.0
  0
LINE
  5
1AB74
330
18
100
AcDbEntity
  8
01
100
AcDbLine
 10
2462.740863365577
 20
-689.0839438839633
 30
0.0
 11
2449.740863365577
 21
-689.0839438839633
 31
0.0
  0
LINE
  5
1AB75
330
18
100
AcDbEntity
  8
01
100
AcDbLine
 10
2456.240863365577
 20
-682.5839438839633
 30
0.0
 11
2456.240863365577
 21
-695.5839438839633
 31
0.0
  0
LINE
  5
1AB76
330
18
100
AcDbEntity
  8
01
100
AcDbLine
 10
2316.240867365575
 20
-653.0839438839633
 30
0.0
 11
2256.240867365575
 21
-653.0839438839633
 31
0.0
  0
LINE
  5
1AB77
330
18
100
AcDbEntity
  8
01
100
AcDbLine
 10
2286.240867365575
 20
-623.0839438839633
 30
0.0
 11
2286.240867365575
 21
-683.0839438839633
 31
0.0
  0
LINE
  5
1AB7B
330
18
100
AcDbEntity
  8
01
100
AcDbLine
 10
2637.552635293084
 20
-603.0839438842526
 30
0.0
 11
2614.928858758
 21
-603.0839438842526
 31
0.0
  0
LINE
  5
1AB7C
330
18
100
AcDbEntity
  8
01
100
AcDbLine
 10
2626.240747025543
 20
-591.7720556167109
 30
0.0
 11
2626.240747025543
 21
-614.3958321517943
 31
0.0
  0
LINE
  5
1AB7D
330
18
100
AcDbEntity
  8
01
100
AcDbLine
 10
2436.24097970532
 20
-533.0839438839633
 30
0.0
 11
2436.24097970532
 21
-723.0839438839633
 31
0.0
  0
LINE
  5
1AB7E
330
18
100
AcDbEntity
  8
01
100
AcDbLine
 10
2438.369265087752
 20
-653.0839438839633
 30
0.0
 11
2415.74097970532
 21
-653.0839438839633
 31
0.0
  0
POINT
  5
1AB7F
330
18
100
AcDbEntity
  8
01
100
AcDbPoint
 10
2421.740863365577
 20
-653.0839438839633
 30
0.0
 50
180.0
  0
CIRCLE
  5
1AB80
330
18
100
AcDbEntity
  8
01
100
AcDbCircle
 10
2421.740863365577
 20
-653.0839438839633
 30
0.0
 40
2.5
  0
CIRCLE
  5
1AB81
330
18
100
AcDbEntity
  8
01
100
AcDbCircle
 10
2421.740863365577
 20
-653.0839438839633
 30
0.0
 40
3.0
  0
LINE
  5
1AB83
330
18
100
AcDbEntity
  8
1CENTER
100
AcDbLine
 10
2421.740863365577
 20
-659.0839438839633
 30
0.0
 11
2421.740863365577
 21
-647.0839438839633
 31
0.0
  0
LINE
  5
1AB84
330
18
100
AcDbEntity
  8
01
100
AcDbLine
 10
2436.24097970532
 20
-679.5839438839624
 30
0.0
 11
2436.24097970532
 21
-626.5839438839652
 31
0.0
  0
LINE
  5
1AB85
330
18
100
AcDbEntity
  8
01
100
AcDbLine
 10
2427.74097970532
 20
-679.0839438839624
 30
0.0
 11
2427.74097970532
 21
-627.0839438839652
 31
0.0
  0
LINE
  5
1AB86
330
18
100
AcDbEntity
  8
01
100
AcDbLine
 10
2436.24097970532
 20
-626.5839438839652
 30
0.0
 11
2428.24097970532
 21
-626.5839438839652
 31
0.0
  0
LINE
  5
1AB87
330
18
100
AcDbEntity
  8
01
100
AcDbLine
 10
2436.24097970532
 20
-679.5839438839624
 30
0.0
 11
2428.24097970532
 21
-679.5839438839624
 31
0.0
  0
ARC
  5
1AB88
330
18
100
AcDbEntity
  8
01
100
AcDbCircle
 10
2428.24097970532
 20
-679.0839438839624
 30
0.0
 40
0.5
100
AcDbArc
 50
180.0
 51
270.0
  0
ARC
  5
1AB89
330
18
100
AcDbEntity
  8
01
100
AcDbCircle
 10
2428.24097970532
 20
-627.0839438839652
 30
0.0
 40
0.5
100
AcDbArc
 50
90.0
 51
180.0
  0
LINE
  5
1AB8A
330
18
100
AcDbEntity
  8
01
100
AcDbLine
 10
2576.74074702583
 20
-567.1839438839633
 30
0.0
 11
2576.74074702583
 21
-696.9839438839632
 31
0.0
  0
LINE
  5
1AB8B
330
18
100
AcDbEntity
  8
01
100
AcDbLine
 10
2576.74074702583
 20
-696.0839438839631
 30
0.0
 11
2579.24074702583
 21
-696.0839438839631
 31
0.0
  0
LINE
  5
1AB8C
330
18
100
AcDbEntity
  8
01
100
AcDbLine
 10
2644.240747025832
 20
-617.5839438842521
 30
0.0
 11
2644.24074702583
 21
-626.5839438839652
 31
0.0
  0
LINE
  5
1AB8D
330
18
100
AcDbEntity
  8
01
100
AcDbLine
 10
2577.940747025829
 20
-595.0839438839631
 30
0.0
 11
2606.240754703374
 21
-595.0839438839629
 31
0.0
  0
LINE
  5
1AB8E
330
18
100
AcDbEntity
  8
1HIDDEN
100
AcDbLine
 10
2606.240754703374
 20
-595.0839438839629
 30
0.0
 11
2643.24074702583
 21
-595.0839438839631
 31
0.0
  0
LINE
  5
1AB8F
330
18
100
AcDbEntity
  8
01
100
AcDbLine
 10
2579.24074702583
 20
-696.0839438839631
 30
0.0
 11
2579.24074702583
 21
-679.5810001588108
 31
0.0
  0
LINE
  5
1AB90
330
18
100
AcDbEntity
  8
01
100
AcDbLine
 10
2575.24074702583
 20
-567.183943883963
 30
0.0
 11
2575.24074702583
 21
-696.9839438839632
 31
0.0
  0
LINE
  5
1AB91
330
18
100
AcDbEntity
  8
01
100
AcDbLine
 10
2575.24074702583
 20
-696.9839438839632
 30
0.0
 11
2576.74074702583
 21
-696.9839438839632
 31
0.0
  0
LINE
  5
1AB92
330
18
100
AcDbEntity
  8
01
100
AcDbLine
 10
2576.74074702583
 20
-568.0839438839631
 30
0.0
 11
2579.24074702583
 21
-568.0839438839631
 31
0.0
  0
LINE
  5
1AB93
330
18
100
AcDbEntity
  8
01
100
AcDbLine
 10
2575.24074702583
 20
-567.183943883963
 30
0.0
 11
2576.74074702583
 21
-567.183943883963
 31
0.0
  0
LINE
  5
1AB94
330
18
100
AcDbEntity
  8
01
100
AcDbLine
 10
2449.840863365577
 20
-567.1839438839633
 30
0.0
 11
2462.640863365576
 21
-567.1839438839633
 31
0.0
  0
LINE
  5
1AB95
330
18
100
AcDbEntity
  8
01
100
AcDbLine
 10
2449.840863365577
 20
-696.9839438839632
 30
0.0
 11
2462.640863365576
 21
-696.9839438839632
 31
0.0
  0
LINE
  5
1AB96
330
18
100
AcDbEntity
  8
01
100
AcDbLine
 10
2443.840863365577
 20
-573.1839438839633
 30
0.0
 11
2443.840863365577
 21
-690.9839438839632
 31
0.0
  0
LINE
  5
1AB97
330
18
100
AcDbEntity
  8
01
100
AcDbLine
 10
2468.640863365576
 20
-573.1839438839633
 30
0.0
 11
2468.640863365576
 21
-690.9839438839632
 31
0.0
  0
ARC
  5
1AB98
330
18
100
AcDbEntity
  8
01
100
AcDbCircle
 10
2449.840863365577
 20
-690.9839438839632
 30
0.0
 40
6.0
100
AcDbArc
 50
180.0
 51
270.0
  0
ARC
  5
1AB99
330
18
100
AcDbEntity
  8
01
100
AcDbCircle
 10
2462.640863365576
 20
-690.9839438839632
 30
0.0
 40
6.0
100
AcDbArc
 50
270.0
 51
0.0
  0
ARC
  5
1AB9A
330
18
100
AcDbEntity
  8
01
100
AcDbCircle
 10
2449.840863365577
 20
-573.1839438839633
 30
0.0
 40
6.0
100
AcDbArc
 50
90.0
 51
180.0
  0
ARC
  5
1AB9B
330
18
100
AcDbEntity
  8
01
100
AcDbCircle
 10
2462.640863365576
 20
-573.1839438839633
 30
0.0
 40
6.0
100
AcDbArc
 50
0.0
 51
90.0
  0
CIRCLE
  5
1AB9C
330
18
100
AcDbEntity
  8
01
100
AcDbCircle
 10
2456.240863365577
 20
-689.0839438839631
 30
0.0
 40
2.75
  0
CIRCLE
  5
1AB9D
330
18
100
AcDbEntity
  8
01
100
AcDbCircle
 10
2456.240863365577
 20
-689.0839438839631
 30
0.0
 40
4.25
  0
CIRCLE
  5
1AB9E
330
18
100
AcDbEntity
  8
01
100
AcDbCircle
 10
2456.240863365577
 20
-575.0839438839633
 30
0.0
 40
2.75
  0
CIRCLE
  5
1AB9F
330
18
100
AcDbEntity
  8
01
100
AcDbCircle
 10
2456.240863365577
 20
-575.0839438839633
 30
0.0
 40
4.25
  0
ARC
  5
1ABA0
330
18
100
AcDbEntity
  8
1HIDDEN
100
AcDbCircle
 10
2643.24074702583
 20
-596.0839438839633
 30
0.0
 40
1.0
100
AcDbArc
 50
0.0
 51
90.0
  0
LINE
  5
1ABA1
330
18
100
AcDbEntity
  8
01
100
AcDbLine
 10
2577.940747025829
 20
-586.3839438839631
 30
0.0
 11
2577.940747025829
 21
-677.7839438839632
 31
0.0
  0
LINE
  5
1ABA2
330
18
100
AcDbEntity
  8
01
100
AcDbLine
 10
2578.040747025831
 20
-696.0839438839631
 30
0.0
 11
2578.040747025831
 21
-679.4839438839632
 31
0.0
  0
LINE
  5
1ABA3
330
18
100
AcDbEntity
  8
01
100
AcDbLine
 10
2578.040747025831
 20
-679.4839438839632
 30
0.0
 11
2577.092218888406
 21
-678.5354157465391
 31
0.0
  0
LINE
  5
1ABA4
330
18
100
AcDbEntity
  8
01
100
AcDbLine
 10
2578.889275163255
 20
-678.732472021387
 30
0.0
 11
2577.940747025829
 21
-677.7839438839632
 31
0.0
  0
ARC
  5
1ABA5
330
18
100
AcDbEntity
  8
01
100
AcDbCircle
 10
2578.040747025831
 20
-679.5810001588108
 30
0.0
 40
1.2
100
AcDbArc
 50
0.0
 51
44.99999999999078
  0
ARC
  5
1ABA6
330
18
100
AcDbEntity
  8
01
100
AcDbCircle
 10
2577.940747025829
 20
-677.6868876091154
 30
0.0
 40
1.2
100
AcDbArc
 50
180.0
 51
224.9999999999908
  0
LINE
  5
1ABA7
330
18
100
AcDbEntity
  8
01
100
AcDbLine
 10
2579.24074702583
 20
-568.0839438839631
 30
0.0
 11
2579.24074702583
 21
-584.5868876091155
 31
0.0
  0
LINE
  5
1ABA8
330
18
100
AcDbEntity
  8
01
100
AcDbLine
 10
2578.040747025831
 20
-568.0839438839631
 30
0.0
 11
2578.040747025831
 21
-584.6839438839633
 31
0.0
  0
LINE
  5
1ABA9
330
18
100
AcDbEntity
  8
01
100
AcDbLine
 10
2578.040747025831
 20
-584.6839438839633
 30
0.0
 11
2577.092218888406
 21
-585.6324720213871
 31
0.0
  0
LINE
  5
1ABAA
330
18
100
AcDbEntity
  8
01
100
AcDbLine
 10
2578.889275163255
 20
-585.4354157465394
 30
0.0
 11
2577.940747025829
 21
-586.3839438839633
 31
0.0
  0
ARC
  5
1ABAB
330
18
100
AcDbEntity
  8
01
100
AcDbCircle
 10
2578.040747025831
 20
-584.5868876091155
 30
0.0
 40
1.2
100
AcDbArc
 50
315.0000000000092
 51
0.0
  0
ARC
  5
1ABAC
330
18
100
AcDbEntity
  8
01
100
AcDbCircle
 10
2577.940747025829
 20
-586.4810001588108
 30
0.0
 40
1.2
100
AcDbArc
 50
135.0000000000092
 51
180.0
  0
LINE
  5
1ABAD
330
18
100
AcDbEntity
  8
01
100
AcDbLine
 10
2577.940747025829
 20
-669.0839438839636
 30
0.0
 11
2599.740747025834
 21
-669.0839438839636
 31
0.0
  0
LINE
  5
1ABAE
330
18
100
AcDbEntity
  8
01
100
AcDbLine
 10
2564.24074702583
 20
-622.052273616947
 30
0.0
 11
2564.24074702583
 21
-640.1156141509531
 31
0.0
  0
LINE
  5
1ABAF
330
18
100
AcDbEntity
  8
01
100
AcDbLine
 10
2568.533640244644
 20
-621.0839438839499
 30
0.0
 11
2575.24074702583
 21
-621.0839438839499
 31
0.0
  0
LINE
  5
1ABB0
330
18
100
AcDbEntity
  8
01
100
AcDbLine
 10
2568.533640244644
 20
-641.0839438839499
 30
0.0
 11
2575.24074702583
 21
-641.0839438839502
 31
0.0
  0
LINE
  5
1ABB1
330
18
100
AcDbEntity
  8
01
100
AcDbLine
 10
2574.033640244644
 20
-625.8339438839502
 30
0.0
 11
2574.033640244644
 21
-636.3339438839499
 31
0.0
  0
ARC
  5
1ABB2
330
18
100
AcDbEntity
  8
01
100
AcDbCircle
 10
2568.533640244644
 20
-631.0839438839502
 30
0.0
 40
10.00000000000009
100
AcDbArc
 50
90.0
 51
115.4224671781103
  0
ARC
  5
1ABB3
330
18
100
AcDbEntity
  8
01
100
AcDbCircle
 10
2568.533640244644
 20
-631.0839438839499
 30
0.0
 40
10.00000000000009
100
AcDbArc
 50
244.5775328218897
 51
270.0
  0
LINE
  5
1ABB4
330
18
100
AcDbEntity
  8
01
100
AcDbLine
 10
2564.24074702583
 20
-625.8339438839499
 30
0.0
 11
2574.033640244644
 21
-625.8339438839499
 31
0.0
  0
LINE
  5
1ABB5
330
18
100
AcDbEntity
  8
01
100
AcDbLine
 10
2564.24074702583
 20
-636.3339438839499
 30
0.0
 11
2574.033640244644
 21
-636.3339438839499
 31
0.0
  0
LINE
  5
1ABB6
330
18
100
AcDbEntity
  8
01
100
AcDbLine
 10
2449.240863365577
 20
-622.9253594479229
 30
0.0
 11
2449.240863365577
 21
-639.2425283200035
 31
0.0
  0
LINE
  5
1ABB7
330
18
100
AcDbEntity
  8
01
100
AcDbLine
 10
2463.240863365577
 20
-622.9253594479229
 30
0.0
 11
2463.240863365577
 21
-639.2425283200035
 31
0.0
  0
ARC
  5
1ABB8
330
18
100
AcDbEntity
  8
01
100
AcDbCircle
 10
2456.240863365577
 20
-631.0839438839631
 30
0.0
 40
10.75
100
AcDbArc
 50
49.37067121664803
 51
130.629328783352
  0
ARC
  5
1ABB9
330
18
100
AcDbEntity
  8
01
100
AcDbCircle
 10
2456.240863365577
 20
-631.0839438839631
 30
0.0
 40
10.75
100
AcDbArc
 50
229.370671216648
 51
310.629328783352
  0
ARC
  5
1ABBA
330
18
100
AcDbEntity
  8
01
100
AcDbCircle
 10
2456.240863365577
 20
-631.0839438839631
 30
0.0
 40
10.0
100
AcDbArc
 50
56.25101140414051
 51
123.7489885958595
  0
LINE
  5
1ABBB
330
18
100
AcDbEntity
  8
01
100
AcDbLine
 10
2450.240863365577
 20
-623.6006291104153
 30
0.0
 11
2450.240863365577
 21
-638.5672586575112
 31
0.0
  0
LINE
  5
1ABBC
330
18
100
AcDbEntity
  8
01
100
AcDbLine
 10
2462.240863365577
 20
-623.6006291104153
 30
0.0
 11
2462.240863365577
 21
-638.5672586575112
 31
0.0
  0
ARC
  5
1ABBD
330
18
100
AcDbEntity
  8
01
100
AcDbCircle
 10
2456.240863365577
 20
-631.0839438839631
 30
0.0
 40
10.0
100
AcDbArc
 50
236.2510114040466
 51
303.7489885958595
  0
ARC
  5
1ABBE
330
18
100
AcDbEntity
  8
01
100
AcDbCircle
 10
2451.240863365577
 20
-623.6006291104155
 30
0.0
 40
1.0
100
AcDbArc
 50
123.7489885958595
 51
180.0
  0
ARC
  5
1ABBF
330
18
100
AcDbEntity
  8
01
100
AcDbCircle
 10
2461.240863365577
 20
-623.6006291104153
 30
0.0
 40
1.0
100
AcDbArc
 50
0.0
 51
56.25101140414051
  0
ARC
  5
1ABC0
330
18
100
AcDbEntity
  8
01
100
AcDbCircle
 10
2451.240863365577
 20
-638.5672586575112
 30
0.0
 40
1.0
100
AcDbArc
 50
180.0
 51
236.2510114040466
  0
ARC
  5
1ABC1
330
18
100
AcDbEntity
  8
01
100
AcDbCircle
 10
2461.240863365577
 20
-638.5672586575112
 30
0.0
 40
1.0
100
AcDbArc
 50
303.7489885958595
 51
0.0
  0
LINE
  5
1ABC2
330
18
100
AcDbEntity
  8
01
100
AcDbLine
 10
2461.740863365577
 20
-625.8339438839631
 30
0.0
 11
2461.740863365577
 21
-636.3339438839631
 31
0.0
  0
LINE
  5
1ABC3
330
18
100
AcDbEntity
  8
01
100
AcDbLine
 10
2450.740863365577
 20
-625.8339438839633
 30
0.0
 11
2450.740863365577
 21
-636.3339438839631
 31
0.0
  0
LINE
  5
1ABC4
330
18
100
AcDbEntity
  8
01
100
AcDbLine
 10
2450.740863365577
 20
-625.8339438839631
 30
0.0
 11
2461.740863365577
 21
-625.8339438839631
 31
0.0
  0
LINE
  5
1ABC5
330
18
100
AcDbEntity
  8
01
100
AcDbLine
 10
2450.740863365577
 20
-636.3339438839631
 30
0.0
 11
2461.740863365577
 21
-636.3339438839631
 31
0.0
  0
LINE
  5
1ABC6
330
18
100
AcDbEntity
  8
1HIDDEN
100
AcDbLine
 10
2644.240747025832
 20
-626.5839438839652
 30
0.0
 11
2644.240747025832
 21
-669.0839438839633
 31
0.0
  0
LINE
  5
1ABC7
330
18
100
AcDbEntity
  8
01
100
AcDbLine
 10
2342.240979705323
 20
-689.0839438839633
 30
0.0
 11
2328.240979705323
 21
-689.0839438839633
 31
0.0
  0
LINE
  5
1ABC8
330
18
100
AcDbEntity
  8
01
100
AcDbLine
 10
2342.240979705323
 20
-575.0839438839633
 30
0.0
 11
2328.240979705323
 21
-575.0839438839633
 31
0.0
  0
LINE
  5
1ABC9
330
18
100
AcDbEntity
  8
01
100
AcDbLine
 10
2274.92909143807
 20
-603.0839438842526
 30
0.0
 11
2297.552867973153
 21
-603.0839438842526
 31
0.0
  0
LINE
  5
1ABCA
330
18
100
AcDbEntity
  8
01
100
AcDbLine
 10
2286.240979705611
 20
-591.7720556167109
 30
0.0
 11
2286.240979705611
 21
-614.3958321517943
 31
0.0
  0
LINE
  5
1ABCB
330
18
100
AcDbEntity
  8
01
100
AcDbLine
 10
2335.740979705323
 20
-567.1839438839633
 30
0.0
 11
2335.740979705323
 21
-696.9839438839632
 31
0.0
  0
LINE
  5
1ABCC
330
18
100
AcDbEntity
  8
01
100
AcDbLine
 10
2335.740979705323
 20
-696.0839438839631
 30
0.0
 11
2333.240979705323
 21
-696.0839438839631
 31
0.0
  0
LINE
  5
1ABCD
330
18
100
AcDbEntity
  8
01
100
AcDbLine
 10
2268.240979705323
 20
-617.5839438842521
 30
0.0
 11
2268.240979705323
 21
-626.5839438839652
 31
0.0
  0
LINE
  5
1ABCE
330
18
100
AcDbEntity
  8
01
100
AcDbLine
 10
2334.540979705324
 20
-595.0839438839631
 30
0.0
 11
2306.240867043117
 21
-595.0839438839631
 31
0.0
  0
LINE
  5
1ABCF
330
18
100
AcDbEntity
  8
01
100
AcDbLine
 10
2333.240979705323
 20
-696.0839438839631
 30
0.0
 11
2333.240979705323
 21
-679.5810001588108
 31
0.0
  0
LINE
  5
1ABD0
330
18
100
AcDbEntity
  8
01
100
AcDbLine
 10
2337.240979705323
 20
-567.183943883963
 30
0.0
 11
2337.240979705323
 21
-696.9839438839632
 31
0.0
  0
LINE
  5
1ABD1
330
18
100
AcDbEntity
  8
01
100
AcDbLine
 10
2337.240979705323
 20
-696.9839438839632
 30
0.0
 11
2335.740979705323
 21
-696.9839438839632
 31
0.0
  0
LINE
  5
1ABD2
330
18
100
AcDbEntity
  8
01
100
AcDbLine
 10
2335.740979705323
 20
-568.0839438839631
 30
0.0
 11
2333.240979705323
 21
-568.0839438839631
 31
0.0
  0
LINE
  5
1ABD3
330
18
100
AcDbEntity
  8
01
100
AcDbLine
 10
2337.240979705323
 20
-567.183943883963
 30
0.0
 11
2335.740979705323
 21
-567.183943883963
 31
0.0
  0
LINE
  5
1ABD4
330
18
100
AcDbEntity
  8
01
100
AcDbLine
 10
2334.540979705324
 20
-586.3839438839631
 30
0.0
 11
2334.540979705324
 21
-677.7839438839632
 31
0.0
  0
LINE
  5
1ABD5
330
18
100
AcDbEntity
  8
01
100
AcDbLine
 10
2334.440979705322
 20
-696.0839438839631
 30
0.0
 11
2334.440979705322
 21
-679.4839438839632
 31
0.0
  0
LINE
  5
1ABD6
330
18
100
AcDbEntity
  8
01
100
AcDbLine
 10
2334.440979705322
 20
-679.4839438839632
 30
0.0
 11
2335.389507842748
 21
-678.5354157465391
 31
0.0
  0
LINE
  5
1ABD7
330
18
100
AcDbEntity
  8
01
100
AcDbLine
 10
2333.592451567899
 20
-678.732472021387
 30
0.0
 11
2334.540979705324
 21
-677.7839438839632
 31
0.0
  0
ARC
  5
1ABD8
330
18
100
AcDbEntity
  8
01
100
AcDbCircle
 10
2334.440979705322
 20
-679.5810001588108
 30
0.0
 40
1.2
100
AcDbArc
 50
135.0000000000092
 51
180.0
  0
ARC
  5
1ABD9
330
18
100
AcDbEntity
  8
01
100
AcDbCircle
 10
2334.540979705324
 20
-677.6868876091154
 30
0.0
 40
1.2
100
AcDbArc
 50
315.0000000000092
 51
0.0
  0
LINE
  5
1ABDA
330
18
100
AcDbEntity
  8
01
100
AcDbLine
 10
2333.240979705323
 20
-568.0839438839631
 30
0.0
 11
2333.240979705323
 21
-584.5868876091155
 31
0.0
  0
LINE
  5
1ABDB
330
18
100
AcDbEntity
  8
01
100
AcDbLine
 10
2334.440979705322
 20
-568.0839438839631
 30
0.0
 11
2334.440979705322
 21
-584.6839438839633
 31
0.0
  0
LINE
  5
1ABDC
330
18
100
AcDbEntity
  8
01
100
AcDbLine
 10
2334.440979705322
 20
-584.6839438839633
 30
0.0
 11
2335.389507842748
 21
-585.6324720213871
 31
0.0
  0
LINE
  5
1ABDD
330
18
100
AcDbEntity
  8
01
100
AcDbLine
 10
2333.592451567899
 20
-585.4354157465394
 30
0.0
 11
2334.540979705324
 21
-586.3839438839633
 31
0.0
  0
ARC
  5
1ABDE
330
18
100
AcDbEntity
  8
01
100
AcDbCircle
 10
2334.440979705322
 20
-584.5868876091155
 30
0.0
 40
1.2
100
AcDbArc
 50
180.0
 51
224.9999999999908
  0
ARC
  5
1ABDF
330
18
100
AcDbEntity
  8
01
100
AcDbCircle
 10
2334.540979705324
 20
-586.4810001588108
 30
0.0
 40
1.2
100
AcDbArc
 50
0.0
 51
44.99999999999078
  0
LINE
  5
1ABE0
330
18
100
AcDbEntity
  8
01
100
AcDbLine
 10
2268.240979705321
 20
-617.5839438842521
 30
0.0
 11
2268.240979705321
 21
-626.5839438839652
 31
0.0
  0
LINE
  5
1ABE1
330
18
100
AcDbEntity
  8
01
100
AcDbLine
 10
2334.540979705324
 20
-669.0839438839636
 30
0.0
 11
2312.74097970532
 21
-669.0839438839636
 31
0.0
  0
LINE
  5
1ABE2
330
18
100
AcDbEntity
  8
01
100
AcDbLine
 10
2348.240979705323
 20
-622.052273616947
 30
0.0
 11
2348.240979705323
 21
-640.1156141509531
 31
0.0
  0
LINE
  5
1ABE3
330
18
100
AcDbEntity
  8
01
100
AcDbLine
 10
2343.94808648651
 20
-621.0839438839499
 30
0.0
 11
2337.240979705323
 21
-621.0839438839499
 31
0.0
  0
LINE
  5
1ABE4
330
18
100
AcDbEntity
  8
01
100
AcDbLine
 10
2343.94808648651
 20
-641.0839438839499
 30
0.0
 11
2337.240979705323
 21
-641.0839438839502
 31
0.0
  0
LINE
  5
1ABE5
330
18
100
AcDbEntity
  8
01
100
AcDbLine
 10
2338.44808648651
 20
-625.8339438839502
 30
0.0
 11
2338.44808648651
 21
-636.3339438839499
 31
0.0
  0
ARC
  5
1ABE6
330
18
100
AcDbEntity
  8
01
100
AcDbCircle
 10
2343.94808648651
 20
-631.0839438839502
 30
0.0
 40
10.00000000000009
100
AcDbArc
 50
64.5775328218023
 51
126.8698976458701
  0
ARC
  5
1ABE7
330
18
100
AcDbEntity
  8
01
100
AcDbCircle
 10
2343.94808648651
 20
-631.0839438839499
 30
0.0
 40
10.00000000000009
100
AcDbArc
 50
233.1301023541299
 51
295.4224671781977
  0
LINE
  5
1ABE8
330
18
100
AcDbEntity
  8
01
100
AcDbLine
 10
2337.94808648651
 20
-623.0839438839499
 30
0.0
 11
2337.94808648651
 21
-639.0839438839499
 31
0.0
  0
LINE
  5
1ABE9
330
18
100
AcDbEntity
  8
01
100
AcDbLine
 10
2348.240979705323
 20
-625.8339438839499
 30
0.0
 11
2338.44808648651
 21
-625.8339438839499
 31
0.0
  0
LINE
  5
1ABEA
330
18
100
AcDbEntity
  8
01
100
AcDbLine
 10
2348.240979705323
 20
-636.3339438839499
 30
0.0
 11
2338.44808648651
 21
-636.3339438839499
 31
0.0
  0
LINE
  5
1ABEB
330
18
100
AcDbEntity
  8
1HIDDEN
100
AcDbLine
 10
2644.24074702583
 20
-596.0839438839633
 30
0.0
 11
2644.240747025832
 21
-617.5839438842521
 31
0.0
  0
POINT
  5
1ABEC
330
18
100
AcDbEntity
  8
01
100
AcDbPoint
 10
2490.74074702583
 20
-653.0826255708602
 30
0.0
  0
LINE
  5
1ABED
330
18
100
AcDbEntity
  8
01
100
AcDbLine
 10
2490.340747015832
 20
-654.8326255708602
 30
0.0
 11
2490.340747015832
 21
-653.98262555086
 31
0.0
  0
LINE
  5
1ABEE
330
18
100
AcDbEntity
  8
01
100
AcDbLine
 10
2491.140747035833
 20
-654.8326255708602
 30
0.0
 11
2491.140747035833
 21
-653.98262555086
 31
0.0
  0
LINE
  5
1ABEF
330
18
100
AcDbEntity
  8
01
100
AcDbLine
 10
2489.840747045831
 20
-653.4826255808606
 30
0.0
 11
2488.99074702583
 21
-653.4826255808606
 31
0.0
  0
LINE
  5
1ABF0
330
18
100
AcDbEntity
  8
01
100
AcDbLine
 10
2489.840747045831
 20
-652.6826255608606
 30
0.0
 11
2488.99074702583
 21
-652.6826255608606
 31
0.0
  0
LINE
  5
1ABF1
330
18
100
AcDbEntity
  8
01
100
AcDbLine
 10
2488.99074702583
 20
-653.4826255808606
 30
0.0
 11
2488.99074702583
 21
-652.6826255608606
 31
0.0
  0
LINE
  5
1ABF2
330
18
100
AcDbEntity
  8
01
100
AcDbLine
 10
2491.140747035833
 20
-654.8326255708602
 30
0.0
 11
2490.340747015832
 21
-654.8326255708602
 31
0.0
  0
LINE
  5
1ABF3
330
18
100
AcDbEntity
  8
01
100
AcDbLine
 10
2491.140747035833
 20
-651.3326255708602
 30
0.0
 11
2491.140747035833
 21
-652.1826255908603
 31
0.0
  0
LINE
  5
1ABF4
330
18
100
AcDbEntity
  8
01
100
AcDbLine
 10
2490.340747015832
 20
-651.3326255708602
 30
0.0
 11
2490.340747015832
 21
-652.1826255908603
 31
0.0
  0
LINE
  5
1ABF5
330
18
100
AcDbEntity
  8
01
100
AcDbLine
 10
2491.64074700583
 20
-652.6826255608606
 30
0.0
 11
2492.49074702583
 21
-652.6826255608606
 31
0.0
  0
LINE
  5
1ABF6
330
18
100
AcDbEntity
  8
01
100
AcDbLine
 10
2491.64074700583
 20
-653.4826255808606
 30
0.0
 11
2492.49074702583
 21
-653.4826255808606
 31
0.0
  0
LINE
  5
1ABF7
330
18
100
AcDbEntity
  8
01
100
AcDbLine
 10
2492.49074702583
 20
-652.6826255608606
 30
0.0
 11
2492.49074702583
 21
-653.4826255808606
 31
0.0
  0
LINE
  5
1ABF8
330
18
100
AcDbEntity
  8
01
100
AcDbLine
 10
2490.340747015832
 20
-651.3326255708602
 30
0.0
 11
2491.140747035833
 21
-651.3326255708602
 31
0.0
  0
CIRCLE
  5
1ABF9
330
18
100
AcDbEntity
  8
01
100
AcDbCircle
 10
2490.74074702583
 20
-653.0826255708602
 30
0.0
 40
2.5
  0
ARC
  5
1ABFA
330
18
100
AcDbEntity
  8
01
100
AcDbCircle
 10
2491.64074700583
 20
-652.1826255908603
 30
0.0
 40
0.5
100
AcDbArc
 50
179.999989999999
 51
270.0
  0
ARC
  5
1ABFB
330
18
100
AcDbEntity
  8
01
100
AcDbCircle
 10
2491.64074700583
 20
-653.98262555086
 30
0.0
 40
0.5
100
AcDbArc
 50
90.00000299998466
 51
180.000010000001
  0
ARC
  5
1ABFC
330
18
100
AcDbEntity
  8
01
100
AcDbCircle
 10
2489.840747045831
 20
-653.98262555086
 30
0.0
 40
0.5
100
AcDbArc
 50
0.0
 51
90.00000299998466
  0
ARC
  5
1ABFD
330
18
100
AcDbEntity
  8
01
100
AcDbCircle
 10
2489.840747045831
 20
-652.1826255908603
 30
0.0
 40
0.5
100
AcDbArc
 50
270.0
 51
0.0
  0
LINE
  5
1ABFF
330
18
100
AcDbEntity
  8
1CENTER
100
AcDbLine
 10
2490.74074702583
 20
-659.0826255708602
 30
0.0
 11
2490.74074702583
 21
-647.0826255708602
 31
0.0
  0
LINE
  5
1AC00
330
18
100
AcDbEntity
  8
01
100
AcDbLine
 10
2474.1124616434
 20
-653.0826255708602
 30
0.0
 11
2496.74074702583
 21
-653.0826255708602
 31
0.0
  0
LINE
  5
1AC01
330
18
100
AcDbEntity
  8
01
  6
BYBLOCK
100
AcDbLine
 10
2575.24163120789
 20
-403.083943884992
 30
0.0
 11
2728.996011362921
 21
-403.083943884992
 31
0.0
  0
LINE
  5
1AC02
330
18
100
AcDbEntity
  8
1CENTER
100
AcDbLine
 10
2610.157188601633
 20
-417.5839358517391
 30
0.0
 11
2618.290860963481
 21
-417.5839438849893
 31
0.0
  0
LINE
  5
1AC03
330
18
100
AcDbEntity
  8
01
100
AcDbLine
 10
2626.240863365573
 20
-398.083943884992
 30
0.0
 11
2626.240863365573
 21
-424.583943884992
 31
0.0
  0
LINE
  5
1AC09
330
18
100
AcDbEntity
  8
01
100
AcDbLine
 10
2476.24074702583
 20
-533.0826255708602
 30
0.0
 11
2476.24074702583
 21
-723.0826255708602
 31
0.0
  0
LINE
  5
1AC0A
330
18
100
AcDbEntity
  8
01
100
AcDbLine
 10
2596.24074702583
 20
-653.0826255708602
 30
0.0
 11
2656.24074702583
 21
-653.0826255708602
 31
0.0
  0
LINE
  5
1AC0B
330
18
100
AcDbEntity
  8
01
100
AcDbLine
 10
2626.24074702583
 20
-623.0826255708602
 30
0.0
 11
2626.24074702583
 21
-683.0826255708602
 31
0.0
  0
LINE
  5
1AC0D
330
18
100
AcDbEntity
  8
01
100
AcDbLine
 10
2652.24074702583
 20
-626.582625570862
 30
0.0
 11
2600.240747025834
 21
-626.582625570862
 31
0.0
  0
LINE
  5
1AC0E
330
18
100
AcDbEntity
  8
01
100
AcDbLine
 10
2600.240747025834
 20
-679.582625570862
 30
0.0
 11
2652.24074702583
 21
-679.582625570862
 31
0.0
  0
LINE
  5
1AC0F
330
18
100
AcDbEntity
  8
01
100
AcDbLine
 10
2599.740747025834
 20
-627.082625570862
 30
0.0
 11
2599.740747025834
 21
-679.082625570862
 31
0.0
  0
ARC
  5
1AC10
330
18
100
AcDbEntity
  8
01
100
AcDbCircle
 10
2600.240747025834
 20
-679.082625570862
 30
0.0
 40
0.5
100
AcDbArc
 50
180.0
 51
270.0
  0
ARC
  5
1AC11
330
18
100
AcDbEntity
  8
01
100
AcDbCircle
 10
2600.240747025834
 20
-627.082625570862
 30
0.0
 40
0.5
100
AcDbArc
 50
90.0
 51
180.0
  0
LINE
  5
1AC12
330
18
100
AcDbEntity
  8
01
100
AcDbLine
 10
2652.74074702583
 20
-627.082625570862
 30
0.0
 11
2652.74074702583
 21
-643.3630320169863
 31
0.0
  0
LINE
  5
1AC13
330
18
100
AcDbEntity
  8
01
100
AcDbLine
 10
2652.74074702583
 20
-662.8011892249523
 30
0.0
 11
2652.74074702583
 21
-679.082625570862
 31
0.0
  0
ARC
  5
1AC14
330
18
100
AcDbEntity
  8
01
100
AcDbCircle
 10
2652.24074702583
 20
-679.082625570862
 30
0.0
 40
0.5
100
AcDbArc
 50
270.0
 51
0.0
  0
ARC
  5
1AC15
330
18
100
AcDbEntity
  8
01
100
AcDbCircle
 10
2652.24074702583
 20
-627.082625570862
 30
0.0
 40
0.5
100
AcDbArc
 50
0.0
 51
90.0
  0
LINE
  5
1AC16
330
18
100
AcDbEntity
  8
01
100
AcDbLine
 10
2599.740863365577
 20
-403.083943884992
 30
0.0
 11
2652.740863365573
 21
-403.083943884992
 31
0.0
  0
LINE
  5
1AC17
330
18
100
AcDbEntity
  8
01
100
AcDbLine
 10
2600.240863365577
 20
-411.583943884992
 30
0.0
 11
2626.240734672419
 21
-411.583943884992
 31
0.0
  0
LINE
  5
1AC18
330
18
100
AcDbEntity
  8
01
100
AcDbLine
 10
2625.309287944619
 20
-411.583943884992
 30
0.0
 11
2627.309287944619
 21
-411.583943884992
 31
0.0
  0
LINE
  5
1AC19
330
18
100
AcDbEntity
  8
01
100
AcDbLine
 10
2626.240863365573
 20
-411.583943884992
 30
0.0
 11
2652.240863365573
 21
-411.583943884992
 31
0.0
  0
LINE
  5
1AC1A
330
18
100
AcDbEntity
  8
01
100
AcDbLine
 10
2652.740863365573
 20
-403.083943884992
 30
0.0
 11
2652.740863365573
 21
-411.083943884992
 31
0.0
  0
LINE
  5
1AC1B
330
18
100
AcDbEntity
  8
01
100
AcDbLine
 10
2599.740863365577
 20
-403.083943884992
 30
0.0
 11
2599.740863365577
 21
-411.083943884992
 31
0.0
  0
ARC
  5
1AC1C
330
18
100
AcDbEntity
  8
01
100
AcDbCircle
 10
2600.240863365577
 20
-411.083943884992
 30
0.0
 40
0.5
100
AcDbArc
 50
180.0
 51
270.0
  0
ARC
  5
1AC1D
330
18
100
AcDbEntity
  8
01
100
AcDbCircle
 10
2652.240863365573
 20
-411.083943884992
 30
0.0
 40
0.5
100
AcDbArc
 50
270.0
 51
0.0
  0
LINE
  5
1AC1E
330
18
100
AcDbEntity
  8
01
100
AcDbLine
 10
2476.24074702583
 20
-679.5826255708592
 30
0.0
 11
2476.24074702583
 21
-626.582625570862
 31
0.0
  0
LINE
  5
1AC1F
330
18
100
AcDbEntity
  8
01
100
AcDbLine
 10
2484.74074702583
 20
-679.0826255708592
 30
0.0
 11
2484.74074702583
 21
-627.082625570862
 31
0.0
  0
LINE
  5
1AC20
330
18
100
AcDbEntity
  8
01
100
AcDbLine
 10
2476.24074702583
 20
-626.582625570862
 30
0.0
 11
2484.24074702583
 21
-626.582625570862
 31
0.0
  0
LINE
  5
1AC21
330
18
100
AcDbEntity
  8
01
100
AcDbLine
 10
2476.24074702583
 20
-679.5826255708592
 30
0.0
 11
2484.24074702583
 21
-679.5826255708592
 31
0.0
  0
ARC
  5
1AC22
330
18
100
AcDbEntity
  8
01
100
AcDbCircle
 10
2484.24074702583
 20
-679.0826255708592
 30
0.0
 40
0.5
100
AcDbArc
 50
270.0
 51
0.0
  0
ARC
  5
1AC23
330
18
100
AcDbEntity
  8
01
100
AcDbCircle
 10
2484.24074702583
 20
-627.082625570862
 30
0.0
 40
0.5
100
AcDbArc
 50
0.0
 51
90.0
  0
SPLINE
  5
1AC24
330
18
100
AcDbEntity
  8
01
100
AcDbSpline
210
0.0
220
0.0
230
1.0
 70
     8
 71
     3
 72
    18
 73
    14
 74
     0
 42
0.0000000001
 43
0.0000000001
 40
0.0000649757542841
 40
0.0000649757542841
 40
0.0000649757542841
 40
0.0000649757542841
 40
0.0860520609830585
 40
0.2305629888503389
 40
0.3725690207133783
 40
0.5129959002680089
 40
0.6565061431096817
 40
0.7501835193149282
 40
0.8477363410374643
 40
0.8940869277261254
 40
0.9350128367551847
 40
0.9703342150502404
 40
1.0
 40
1.0
 40
1.0
 40
1.0
 10
2637.240833435181
 20
-435.0839760212074
 30
0.0
 10
2637.240828065457
 20
-434.4160699768685
 30
0.0
 10
2637.240813673033
 20
-432.6256729448572
 30
0.0
 10
2637.240800292263
 20
-429.7318394394468
 30
0.0
 10
2637.240898719773
 20
-426.4156526951027
 30
0.0
 10
2637.240610852826
 20
-423.1097480591178
 30
0.0
 10
2637.24058141025
 20
-420.1758914612627
 30
0.0
 10
2637.24087145968
 20
-417.5753567485784
 30
0.0
 10
2637.240816046878
 20
-415.7403791650471
 30
0.0
 10
2637.240774012377
 20
-414.3038714409375
 30
0.0
 10
2637.240885288319
 20
-413.3524012438919
 30
0.0
 10
2637.240754577138
 20
-412.5638055382082
 30
0.0
 10
2637.240842534114
 20
-412.2343403948229
 30
0.0
 10
2637.240882685316
 20
-412.08394389182
 30
0.0
  0
LINE
  5
1AC25
330
18
100
AcDbEntity
  8
01
100
AcDbLine
 10
2744.740844045834
 20
-439.0839438846568
 30
0.0
 11
2641.240833434159
 21
-439.0839438626489
 31
0.0
  0
ARC
  5
1AC26
330
18
100
AcDbEntity
  8
01
100
AcDbCircle
 10
2744.740844045834
 20
-440.5839438846568
 30
0.0
 40
1.5
100
AcDbArc
 50
0.0
 51
89.99999998718089
  0
LINE
  5
1AC27
330
18
100
AcDbEntity
  8
01
100
AcDbLine
 10
2616.24084404583
 20
-411.8851117830171
 30
0.0
 11
2616.24084404583
 21
-412.083943884992
 31
0.0
  0
LINE
  5
1AC28
330
18
100
AcDbEntity
  8
01
100
AcDbLine
 10
2636.24084404583
 20
-412.083943884992
 30
0.0
 11
2636.24084404583
 21
-411.8851117830171
 31
0.0
  0
LINE
  5
1AC29
330
18
100
AcDbEntity
  8
01
100
AcDbLine
 10
2618.290878622934
 20
-411.583943884992
 30
0.0
 11
2618.290878622934
 21
-411.8851117830171
 31
0.0
  0
LINE
  5
1AC2A
330
18
100
AcDbEntity
  8
01
100
AcDbLine
 10
2634.190878622935
 20
-411.8851117830171
 30
0.0
 11
2634.190878622935
 21
-411.583943884992
 31
0.0
  0
SPLINE
  5
1AC2B
330
18
100
AcDbEntity
  8
01
100
AcDbSpline
210
0.0
220
0.0
230
1.0
 70
     8
 71
     3
 72
    15
 73
    11
 74
     0
 42
0.0000000001
 43
0.0000000001
 40
0.0
 40
0.0
 40
0.0
 40
0.0
 40
0.0621384659276811
 40
0.1194624660158409
 40
0.2375262378245288
 40
0.485056379678497
 40
0.6028685908047778
 40
0.741824810946498
 40
0.8709376368659568
 40
1.0
 40
1.0
 40
1.0
 40
1.0
 10
2635.765289561746
 20
-441.3495431053801
 30
0.0
 10
2635.802843408975
 20
-441.3638537626024
 30
0.0
 10
2635.875041444949
 20
-441.3913662925078
 30
0.0
 10
2636.021487216482
 20
-441.438427659083
 30
0.0
 10
2636.286880926943
 20
-441.508045775537
 30
0.0
 10
2636.598646319885
 20
-441.5558152558632
 30
0.0
 10
2636.927638758279
 20
-441.5799213708355
 30
0.0
 10
2637.180978300646
 20
-441.5847711890636
 30
0.0
 10
2637.442559450218
 20
-441.5772946210058
 30
0.0
 10
2637.612500785327
 20
-441.5620291154568
 30
0.0
 10
2637.697454844561
 20
-441.554397854576
 30
0.0
  0
SPLINE
  5
1AC2C
330
18
100
AcDbEntity
  8
01
100
AcDbSpline
210
0.0
220
0.0
230
1.0
 70
     8
 71
     3
 72
    11
 73
     7
 74
     0
 42
0.0000000001
 43
0.0000000001
 40
0.0
 40
0.0
 40
0.0
 40
0.0
 40
0.246667354855828
 40
0.4951061132192802
 40
0.7459932421170662
 40
0.9999999999999999
 40
0.9999999999999999
 40
0.9999999999999999
 40
0.9999999999999999
 10
2635.434288109317
 20
-441.1718730745941
 30
0.0
 10
2635.46014633566
 20
-441.1894116336119
 30
0.0
 10
2635.512048485208
 20
-441.2246147021004
 30
0.0
 10
2635.593685633418
 20
-441.2710973928296
 30
0.0
 10
2635.678042478055
 20
-441.313466404525
 30
0.0
 10
2635.736087651037
 20
-441.3374681046752
 30
0.0
 10
2635.765289561746
 20
-441.3495431053801
 30
0.0
  0
SPLINE
  5
1AC2D
330
18
100
AcDbEntity
  8
01
100
AcDbSpline
210
0.0
220
0.0
230
1.0
 70
     8
 71
     3
 72
    19
 73
    15
 74
     0
 42
0.0000000001
 43
0.0000000001
 40
0.0
 40
0.0
 40
0.0
 40
0.0
 40
0.0974617489138209
 40
0.1847107255476317
 40
0.261814459899569
 40
0.3288460592983783
 40
0.385864790067484
 40
0.4277977639963271
 40
0.5108213901195143
 40
0.5928931626424222
 40
0.6749542339723672
 40
0.7852446773393177
 40
0.8934743715277373
 40
1.0
 40
1.0
 40
1.0
 40
1.0
 10
2634.802664281065
 20
-439.3714618145813
 30
0.0
 10
2634.803135909467
 20
-439.4347848595515
 30
0.0
 10
2634.804029745509
 20
-439.554795486394
 30
0.0
 10
2634.81513422821
 20
-439.7246576136466
 30
0.0
 10
2634.833020497633
 20
-439.8743417791237
 30
0.0
 10
2634.854315477286
 20
-440.0036773826008
 30
0.0
 10
2634.875984784862
 20
-440.1096760843728
 30
0.0
 10
2634.904720589987
 20
-440.2249003447267
 30
0.0
 10
2634.943492366797
 20
-440.354475475849
 30
0.0
 10
2635.000143390148
 20
-440.5058226461582
 30
0.0
 10
2635.074476587305
 20
-440.6692777172442
 30
0.0
 10
2635.171084959547
 20
-440.8408190468634
 30
0.0
 10
2635.292673920499
 20
-441.016076072703
 30
0.0
 10
2635.387333752354
 20
-441.1202161883638
 30
0.0
 10
2635.434288109317
 20
-441.1718730745941
 30
0.0
  0
SPLINE
  5
1AC2E
330
18
100
AcDbEntity
  8
01
100
AcDbSpline
210
0.0
220
0.0
230
1.0
 70
     8
 71
     3
 72
    11
 73
     7
 74
     0
 42
0.0000000001
 43
0.0000000001
 40
0.0
 40
0.0
 40
0.0
 40
0.0
 40
0.2788341038430541
 40
0.5384644005889189
 40
0.7788535199034351
 40
0.9999999999999999
 40
0.9999999999999999
 40
0.9999999999999999
 40
0.9999999999999999
 10
2634.856594224118
 20
-438.7165119484006
 30
0.0
 10
2634.84792641623
 20
-438.7769940571187
 30
0.0
 10
2634.831187768002
 20
-438.8937927627575
 30
0.0
 10
2634.815099122789
 20
-439.0638161383698
 30
0.0
 10
2634.805133962443
 20
-439.2216811849847
 30
0.0
 10
2634.803464304033
 20
-439.322942218101
 30
0.0
 10
2634.802664281065
 20
-439.3714618145813
 30
0.0
  0
SPLINE
  5
1AC2F
330
18
100
AcDbEntity
  8
01
100
AcDbSpline
210
0.0
220
0.0
230
1.0
 70
     8
 71
     3
 72
     9
 73
     5
 74
     0
 42
0.0000000001
 43
0.0000000001
 40
0.0
 40
0.0
 40
0.0
 40
0.0
 40
0.477460274534142
 40
1.0
 40
1.0
 40
1.0
 40
1.0
 10
2635.382683246812
 20
-442.2900499260253
 30
0.0
 10
2632.173147848739
 20
-445.4704672232259
 30
0.0
 10
2625.451048505071
 20
-452.1315811772691
 30
0.0
 10
2618.73506987358
 20
-458.7966319514352
 30
0.0
 10
2615.225704243246
 20
-462.2793857531836
 30
0.0
  0
LINE
  5
1AC30
330
18
100
AcDbEntity
  8
01
100
AcDbLine
 10
2637.240882685316
 20
-412.083943884992
 30
0.0
 11
2615.24084404583
 21
-412.083943884992
 31
0.0
  0
SPLINE
  5
1AC31
330
18
100
AcDbEntity
  8
01
100
AcDbSpline
210
0.0
220
0.0
230
1.0
 70
     8
 71
     3
 72
    12
 73
     8
 74
     0
 42
0.0000000001
 43
0.0000000001
 40
0.0
 40
0.0
 40
0.0
 40
0.0
 40
0.157441155016458
 40
0.3235627903252723
 40
0.4984485582856485
 40
0.7268212218397349
 40
0.9831250544958003
 40
0.9831250544958003
 40
0.9831250544958003
 40
0.9831250544958003
 10
2637.24084404583
 20
-412.083943884992
 30
0.0
 10
2637.12190014213
 20
-413.4821950012569
 30
0.0
 10
2636.877454391149
 20
-416.3557894734698
 30
0.0
 10
2636.493372601327
 20
-420.7818660991633
 30
0.0
 10
2636.046436615713
 20
-425.8370500118616
 30
0.0
 10
2635.517116857939
 20
-431.6918567775591
 30
0.0
 10
2635.112902361084
 20
-435.9928643023148
 30
0.0
 10
2634.856594224118
 20
-438.7165119484006
 30
0.0
  0
LINE
  5
1AC32
330
18
100
AcDbEntity
  8
01
100
AcDbLine
 10
2616.019035701399
 20
-413.5001539600765
 30
0.0
 11
2633.619513734308
 21
-441.2903824330923
 31
0.0
  0
LINE
  5
1AC33
330
18
100
AcDbEntity
  8
01
100
AcDbLine
 10
2615.191097437727
 20
-413.3524823915685
 30
0.0
 11
2615.24084404583
 21
-412.083943884992
 31
0.0
  0
LINE
  5
1AC34
330
18
100
AcDbEntity
  8
01
100
AcDbLine
 10
2613.326265587927
 20
-460.9056945614792
 30
0.0
 11
2615.191097437727
 21
-413.3524823915685
 31
0.0
  0
LINE
  5
1AC35
330
18
100
AcDbEntity
  8
01
100
AcDbLine
 10
2636.24084404583
 20
-411.8851117830171
 30
0.0
 11
2626.240863365573
 21
-411.8851117830171
 31
0.0
  0
LINE
  5
1AC36
330
18
100
AcDbEntity
  8
01
100
AcDbLine
 10
2627.386730257952
 20
-411.8851117830171
 30
0.0
 11
2625.231841631287
 21
-411.8851117830171
 31
0.0
  0
LINE
  5
1AC37
330
18
100
AcDbEntity
  8
01
100
AcDbLine
 10
2626.240734672419
 20
-411.8851117830171
 30
0.0
 11
2616.24084404583
 21
-411.8851117830171
 31
0.0
  0
LINE
  5
1AC38
330
18
100
AcDbEntity
  8
01
100
AcDbLine
 10
2744.717001104426
 20
-439.1092311234651
 30
0.0
 11
2744.717001389382
 21
-439.1092308531314
 31
0.0
  0
ARC
  5
1AC39
330
18
100
AcDbEntity
  8
01
100
AcDbCircle
 10
2744.740844045819
 20
-455.6526093400261
 30
0.0
 40
1.5
100
AcDbArc
 50
272.6837751591837
 51
0.0000000000130276
  0
LINE
  5
1AC3A
330
18
100
AcDbEntity
  8
01
100
AcDbLine
 10
2746.240844045834
 20
-455.6526093400242
 30
0.0
 11
2746.240844045834
 21
-440.5839438846568
 31
0.0
  0
LINE
  5
1AC3B
330
18
100
AcDbEntity
  8
01
100
AcDbLine
 10
2615.418376661989
 20
-462.9818720436095
 30
0.0
 11
2744.81107942526
 21
-457.1509641015808
 31
0.0
  0
ARC
  5
1AC3C
330
18
100
AcDbEntity
  8
01
100
AcDbCircle
 10
2615.324729489391
 20
-460.9840656948699
 30
0.0
 40
2.0
100
AcDbArc
 50
177.7542574341064
 51
272.6837751593922
  0
ARC
  5
1AC3D
330
18
100
AcDbEntity
  8
01
100
AcDbCircle
 10
2641.240833435052
 20
-435.0839438626489
 30
0.0
 40
4.0
100
AcDbArc
 50
180.0004606374193
 51
269.9999999871809
  0
LINE
  5
1AC3E
330
18
100
AcDbEntity
  8
01
100
AcDbLine
 10
2637.697456916908
 20
-441.5543962313731
 30
0.0
 11
2744.717000819407
 21
-439.1092313938597
 31
0.0
  0
LINE
  5
1AC3F
330
18
100
AcDbEntity
  8
01
100
AcDbLine
 10
2536.140868835709
 20
-657.3144233702973
 30
0.0
 11
2536.140868835709
 21
-648.8534011834366
 31
0.0
  0
ARC
  5
1AC40
330
18
100
AcDbEntity
  8
01
100
AcDbCircle
 10
2535.140868835709
 20
-657.3144233702973
 30
0.0
 40
1.0
100
AcDbArc
 50
285.8640017184883
 51
0.0
  0
LINE
  5
1AC41
330
18
100
AcDbEntity
  8
01
100
AcDbLine
 10
2485.041914923856
 20
-663.0826255708602
 30
0.0
 11
2485.24074702583
 21
-663.0826255708602
 31
0.0
  0
LINE
  5
1AC42
330
18
100
AcDbEntity
  8
01
100
AcDbLine
 10
2485.24074702583
 20
-643.0826255708602
 30
0.0
 11
2485.041914923856
 21
-643.0826255708602
 31
0.0
  0
SPLINE
  5
1AC43
330
18
100
AcDbEntity
  8
01
100
AcDbSpline
210
0.0
220
0.0
230
1.0
 70
     8
 71
     3
 72
     9
 73
     5
 74
     0
 42
0.0000000001
 43
0.0000000001
 40
0.0
 40
0.0
 40
0.0
 40
0.0
 40
0.4105674575655068
 40
0.9999999999999999
 40
0.9999999999999999
 40
0.9999999999999999
 40
0.9999999999999999
 10
2535.319290935077
 20
-647.8575430856266
 30
0.0
 10
2535.307238890132
 20
-647.8530565523291
 30
0.0
 10
2535.277884286587
 20
-647.8421289125093
 30
0.0
 10
2535.210819546838
 20
-647.830612154395
 30
0.0
 10
2535.171289406781
 20
-647.823823802379
 30
0.0
  0
SPLINE
  5
1AC44
330
18
100
AcDbEntity
  8
01
100
AcDbSpline
210
0.0
220
0.0
230
1.0
 70
     8
 71
     3
 72
     8
 73
     4
 74
     0
 42
0.0000000001
 43
0.0000000001
 40
0.0
 40
0.0
 40
0.0
 40
0.0
 40
1.0
 40
1.0
 40
1.0
 40
1.0
 10
2534.22105170357
 20
-658.4673226753442
 30
0.0
 10
2534.179644823619
 20
-658.4720130677773
 30
0.0
 10
2534.138212010969
 20
-658.4764725680947
 30
0.0
 10
2534.096757150607
 20
-658.4807015544851
 30
0.0
  0
LINE
  5
1AC45
330
18
100
AcDbEntity
  8
01
100
AcDbLine
 10
2536.134637164617
 20
-657.3118499582837
 30
0.0
 11
2536.138675184448
 21
-657.3095457057519
 31
0.0
  0
SPLINE
  5
1AC46
330
18
100
AcDbEntity
  8
01
100
AcDbSpline
210
0.0
220
0.0
230
1.0
 70
     8
 71
     3
 72
     8
 73
     4
 74
     0
 42
0.0000000001
 43
0.0000000001
 40
0.0
 40
0.0
 40
0.0
 40
0.0
 40
1.0
 40
1.0
 40
1.0
 40
1.0
 10
2534.09675715042
 20
-647.6845495872461
 30
0.0
 10
2534.138212010856
 20
-647.6887785736366
 30
0.0
 10
2534.17964482357
 20
-647.6932380739512
 30
0.0
 10
2534.22105170357
 20
-647.6979284663815
 30
0.0
  0
LINE
  5
1AC47
330
18
100
AcDbEntity
  8
01
100
AcDbLine
 10
2485.24074702583
 20
-664.0826255708602
 30
0.0
 11
2485.24074702583
 21
-642.0826255708602
 31
0.0
  0
LINE
  5
1AC48
330
18
100
AcDbEntity
  8
01
100
AcDbLine
 10
2534.0967570689
 20
-658.4807015493792
 30
0.0
 11
2486.656957100903
 21
-664.061854481873
 31
0.0
  0
LINE
  5
1AC49
330
18
100
AcDbEntity
  8
01
100
AcDbLine
 10
2534.096757041671
 20
-647.6845495940428
 30
0.0
 11
2486.656957100916
 21
-642.1033966598374
 31
0.0
  0
ARC
  5
1AC4A
330
18
100
AcDbEntity
  8
01
100
AcDbCircle
 10
2486.547355373742
 20
-663.7831051196393
 30
0.0
 40
0.2995225292744162
100
AcDbArc
 50
270.2134280259119
 51
291.4643031510248
  0
LINE
  5
1AC4B
330
18
100
AcDbEntity
  8
01
100
AcDbLine
 10
2486.548471099103
 20
-664.0826255708602
 30
0.0
 11
2485.24074702583
 21
-664.0826255708602
 31
0.0
  0
LINE
  5
1AC4C
330
18
100
AcDbEntity
  8
01
100
AcDbLine
 10
2485.24074702583
 20
-642.0826255708602
 30
0.0
 11
2486.548471099103
 21
-642.0826255708602
 31
0.0
  0
ARC
  5
1AC4D
330
18
100
AcDbEntity
  8
01
100
AcDbCircle
 10
2486.547355373797
 20
-642.3821460219882
 30
0.0
 40
0.2995225291803009
100
AcDbArc
 50
68.53569685099045
 51
89.7865719848229
  0
LINE
  5
1AC4E
330
18
100
AcDbEntity
  8
01
100
AcDbLine
 10
2486.548471099103
 20
-664.0826255708602
 30
0.0
 11
2514.843044266479
 21
-664.0826255708602
 31
0.0
  0
LINE
  5
1AC4F
330
18
100
AcDbEntity
  8
01
100
AcDbLine
 10
2485.041914923856
 20
-643.0826255708602
 30
0.0
 11
2485.041914923856
 21
-663.0826255708602
 31
0.0
  0
SPLINE
  5
1AC50
330
18
100
AcDbEntity
  8
01
100
AcDbSpline
210
0.0
220
0.0
230
1.0
 70
     8
 71
     3
 72
    10
 73
     6
 74
     0
 42
0.0000000001
 43
0.0000000001
 40
0.0
 40
0.0
 40
0.0
 40
0.0
 40
0.2453247720985068
 40
0.6314965854619112
 40
1.0
 40
1.0
 40
1.0
 40
1.0
 10
2535.171308550888
 20
-658.3414291656394
 30
0.0
 10
2535.115486757658
 20
-658.3529714038963
 30
0.0
 10
2534.971794494059
 20
-658.382682565902
 30
0.0
 10
2534.638967379505
 20
-658.4222390863637
 30
0.0
 10
2534.358165558463
 20
-658.4525312100635
 30
0.0
 10
2534.221051703341
 20
-658.4673226734689
 30
0.0
  0
SPLINE
  5
1AC51
330
18
100
AcDbEntity
  8
01
100
AcDbSpline
210
0.0
220
0.0
230
1.0
 70
     8
 71
     3
 72
    10
 73
     6
 74
     0
 42
0.0000000001
 43
0.0000000001
 40
0.0
 40
0.0
 40
0.0
 40
0.0
 40
0.2451891194566391
 40
0.6313454626814465
 40
1.0
 40
1.0
 40
1.0
 40
1.0
 10
2535.171289406781
 20
-647.823823802379
 30
0.0
 10
2535.115513214664
 20
-647.8122873900578
 30
0.0
 10
2534.971893277951
 20
-647.782581905611
 30
0.0
 10
2534.639072854657
 20
-647.7430232855544
 30
0.0
 10
2534.358221385365
 20
-647.712725905489
 30
0.0
 10
2534.221051703348
 20
-647.6979284682533
 30
0.0
  0
LINE
  5
1AC52
330
18
100
AcDbEntity
  8
01
100
AcDbLine
 10
2536.123132951309
 20
-657.3184147137221
 30
0.0
 11
2536.134637164617
 21
-657.3118499582837
 31
0.0
  0
LINE
  5
1AC53
330
18
100
AcDbEntity
  8
01
100
AcDbLine
 10
2484.74074702583
 20
-661.0326257644759
 30
0.0
 11
2485.041914923856
 21
-661.0326257644759
 31
0.0
  0
LINE
  5
1AC54
330
18
100
AcDbEntity
  8
01
100
AcDbLine
 10
2485.041914923856
 20
-645.1326257644763
 30
0.0
 11
2484.74074702583
 21
-645.1326257644761
 31
0.0
  0
ARC
  5
1AC55
330
18
100
AcDbEntity
  8
01
100
AcDbCircle
 10
2514.843044266358
 20
-663.0826255708802
 30
0.0
 40
1.0
100
AcDbArc
 50
270.0000000068786
 51
285.8538633042972
  0
LINE
  5
1AC56
330
18
100
AcDbEntity
  8
01
100
AcDbLine
 10
2515.116228966393
 20
-664.0445871707728
 30
0.0
 11
2535.414223749328
 21
-658.2763366154498
 31
0.0
  0
ARC
  5
1AC57
330
18
100
AcDbEntity
  8
01
100
AcDbCircle
 10
2535.140868835709
 20
-648.8505285929908
 30
0.0
 40
1.0
100
AcDbArc
 50
0.0
 51
74.13599828151175
  0
LINE
  5
1AC58
330
18
100
AcDbEntity
  8
01
100
AcDbLine
 10
2486.548471099103
 20
-642.082326392428
 30
0.0
 11
2514.843044266479
 21
-642.082326392428
 31
0.0
  0
ARC
  5
1AC59
330
18
100
AcDbEntity
  8
01
100
AcDbCircle
 10
2514.843044266358
 20
-643.0823263924079
 30
0.0
 40
1.0
100
AcDbArc
 50
74.14613669570276
 51
89.99999999301724
  0
LINE
  5
1AC5A
330
18
100
AcDbEntity
  8
01
100
AcDbLine
 10
2515.116228966393
 20
-642.1203647925153
 30
0.0
 11
2535.414223749328
 21
-647.8886153478383
 31
0.0
  0
LINE
  5
1AC5B
330
18
100
AcDbEntity
  8
01
100
AcDbLine
 10
2613.324597698672
 20
-648.6794252680685
 30
0.0
 11
2613.324597698672
 21
-657.4858258736518
 31
0.0
  0
ARC
  5
1AC5C
330
18
100
AcDbEntity
  8
01
100
AcDbCircle
 10
2614.324597698672
 20
-648.6794252680685
 30
0.0
 40
1.0
100
AcDbArc
 50
161.5650511770862
 51
180.0
  0
LINE
  5
1AC5D
330
18
100
AcDbEntity
  8
01
100
AcDbLine
 10
2613.375914400621
 20
-657.8020536396685
 30
0.0
 11
2615.24151429969
 21
-663.3988533368757
 31
0.0
  0
ARC
  5
1AC5E
330
18
100
AcDbEntity
  8
01
100
AcDbCircle
 10
2614.324597698672
 20
-657.4858258736518
 30
0.0
 40
1.0
100
AcDbArc
 50
180.0
 51
198.4349488229199
  0
LINE
  5
1AC5F
330
18
100
AcDbEntity
  8
01
100
AcDbLine
 10
2615.24151429969
 20
-642.7663978048421
 30
0.0
 11
2613.375914400621
 21
-648.3631975020518
 31
0.0
  0
SPLINE
  5
1AC60
330
18
100
AcDbEntity
  8
01
100
AcDbSpline
210
0.0
220
0.0
230
1.0
 70
     8
 71
     3
 72
     9
 73
     5
 74
     0
 42
0.0000000001
 43
0.0000000001
 40
0.0
 40
0.0
 40
0.0
 40
0.0
 40
0.4971336847320229
 40
0.9999999999999999
 40
0.9999999999999999
 40
0.9999999999999999
 40
0.9999999999999999
 10
2635.54368965973
 20
-663.9619788535823
 30
0.0
 10
2635.896084074901
 20
-663.8896315489034
 30
0.0
 10
2636.604936494269
 20
-663.7441026762864
 30
0.0
 10
2637.377655047342
 20
-663.6859720039864
 30
0.0
 10
2637.766229178865
 20
-663.6567400470027
 30
0.0
  0
SPLINE
  5
1AC61
330
18
100
AcDbEntity
  8
01
100
AcDbSpline
210
0.0
220
0.0
230
1.0
 70
     8
 71
     3
 72
     9
 73
     5
 74
     0
 42
0.0000000001
 43
0.0000000001
 40
0.0
 40
0.0
 40
0.0
 40
0.0
 40
0.5060576294160237
 40
0.9999999999999999
 40
0.9999999999999999
 40
0.9999999999999999
 40
0.9999999999999999
 10
2637.749902102786
 20
-642.5075427710866
 30
0.0
 10
2637.3616092695
 20
-642.4779545400662
 30
0.0
 10
2636.594319516877
 20
-642.4194864342604
 30
0.0
 10
2635.890688438124
 20
-642.2746989639071
 30
0.0
 10
2635.543135235067
 20
-642.2031822975699
 30
0.0
  0
LINE
  5
1AC62
330
18
100
AcDbEntity
  8
01
100
AcDbLine
 10
2635.543287228465
 20
-642.2032129596863
 30
0.0
 11
2635.08837512735
 21
-642.1015467788021
 31
0.0
  0
LINE
  5
1AC63
330
18
100
AcDbEntity
  8
01
100
AcDbLine
 10
2635.088452509876
 20
-664.0637049972364
 30
0.0
 11
2635.543323890407
 21
-663.9620532040077
 31
0.0
  0
ARC
  5
1AC64
330
18
100
AcDbEntity
  8
01
100
AcDbCircle
 10
2634.89516188261
 20
-643.082625570859
 30
0.0
 40
1.000000000000058
100
AcDbArc
 50
78.43054995700243
 51
90.00000000010422
  0
ARC
  5
1AC65
330
18
100
AcDbEntity
  8
01
100
AcDbCircle
 10
2634.895242398771
 20
-663.0826255708588
 30
0.0
 40
1.0
100
AcDbArc
 50
270.0
 51
281.8628305241962
  0
ARC
  5
1AC66
330
18
100
AcDbEntity
  8
01
100
AcDbCircle
 10
2616.190197597741
 20
-643.0826255708588
 30
0.0
 40
1.0
100
AcDbArc
 50
90.0
 51
161.5650511770801
  0
ARC
  5
1AC67
330
18
100
AcDbEntity
  8
01
100
AcDbCircle
 10
2616.190197597741
 20
-663.0826255708588
 30
0.0
 40
1.0
100
AcDbArc
 50
198.4349488229199
 51
270.0
  0
SPLINE
  5
1AC68
330
18
100
AcDbEntity
  8
01
100
AcDbSpline
210
0.0
220
0.0
230
1.0
 70
     8
 71
     3
 72
    10
 73
     6
 74
     0
 42
0.0000000001
 43
0.0000000001
 40
0.0
 40
0.0
 40
0.0
 40
0.0
 40
0.3343415713576167
 40
0.6676648310217684
 40
0.9999999999999999
 40
0.9999999999999999
 40
0.9999999999999999
 40
0.9999999999999999
 10
2615.058836572843
 20
-657.3184147137207
 30
0.0
 10
2615.098706456884
 20
-657.3169690986027
 30
0.0
 10
2615.178324792362
 20
-657.3140822713095
 30
0.0
 10
2615.298423732033
 20
-657.3111225454539
 30
0.0
 10
2615.378344035583
 20
-657.3100707985874
 30
0.0
 10
2615.418244871268
 20
-657.3095457057506
 30
0.0
  0
SPLINE
  5
1AC69
330
18
100
AcDbEntity
  8
01
100
AcDbSpline
210
0.0
220
0.0
230
1.0
 70
     8
 71
     3
 72
    10
 73
     6
 74
     0
 42
0.0000000001
 43
0.0000000001
 40
0.0
 40
0.0
 40
0.0
 40
0.0
 40
0.3323351691751165
 40
0.6656584288392461
 40
1.0
 40
1.0
 40
1.0
 40
1.0
 10
2615.418244871268
 20
-648.8557054359673
 30
0.0
 10
2615.378344035561
 20
-648.8551803431302
 30
0.0
 10
2615.29842373199
 20
-648.8541285962636
 30
0.0
 10
2615.178324792324
 20
-648.851168870409
 30
0.0
 10
2615.098706456875
 20
-648.8482820431155
 30
0.0
 10
2615.058836572857
 20
-648.8468364279978
 30
0.0
  0
SPLINE
  5
1AC6A
330
18
100
AcDbEntity
  8
01
100
AcDbSpline
210
0.0
220
0.0
230
1.0
 70
     8
 71
     3
 72
    19
 73
    15
 74
     0
 42
0.0000000001
 43
0.0000000001
 40
0.0
 40
0.0
 40
0.0
 40
0.0
 40
0.0424084333662313
 40
0.0886689639415328
 40
0.1387821038209021
 40
0.1927481509182004
 40
0.2505672382792412
 40
0.3218805652856683
 40
0.5002505393646266
 40
0.6128084937673238
 40
0.7500691770242507
 40
0.8537312650327051
 40
0.9370474150957282
 40
1.0
 40
1.0
 40
1.0
 40
1.0
 10
2615.058836665527
 20
-648.8468352247488
 30
0.0
 10
2615.018655544233
 20
-648.8451873497162
 30
0.0
 10
2614.934643518506
 20
-648.8417419177525
 30
0.0
 10
2614.805105288414
 20
-648.8355233811914
 30
0.0
 10
2614.667282394855
 20
-648.8282852474027
 30
0.0
 10
2614.522703154557
 20
-648.8199369349314
 30
0.0
 10
2614.364804859461
 20
-648.8100333718672
 30
0.0
 10
2614.112714227026
 20
-648.7922557134176
 30
0.0
 10
2613.849561550857
 20
-648.7713594640935
 30
0.0
 10
2613.60492546236
 20
-648.7469725776485
 30
0.0
 10
2613.454079656992
 20
-648.7273029937361
 30
0.0
 10
2613.367197976767
 20
-648.7092255570686
 30
0.0
 10
2613.329937275382
 20
-648.6950694549579
 30
0.0
 10
2613.326204323447
 20
-648.6864199065423
 30
0.0
 10
2613.324597698672
 20
-648.6826972283421
 30
0.0
  0
SPLINE
  5
1AC6B
330
18
100
AcDbEntity
  8
01
100
AcDbSpline
210
0.0
220
0.0
230
1.0
 70
     8
 71
     3
 72
     8
 73
     4
 74
     0
 42
0.0000000001
 43
0.0000000001
 40
0.0
 40
0.0
 40
0.0
 40
0.0
 40
1.0
 40
1.0
 40
1.0
 40
1.0
 10
2614.158519707188
 20
-658.4807015544835
 30
0.0
 10
2620.649571148758
 20
-660.3413446573369
 30
0.0
 10
2627.137128432317
 20
-662.2017675607359
 30
0.0
 10
2633.619382094227
 20
-664.0618544914281
 30
0.0
  0
SPLINE
  5
1AC6C
330
18
100
AcDbEntity
  8
01
100
AcDbSpline
210
0.0
220
0.0
230
1.0
 70
     8
 71
     3
 72
     8
 73
     4
 74
     0
 42
0.0000000001
 43
0.0000000001
 40
0.0
 40
0.0
 40
0.0
 40
0.0
 40
1.0
 40
1.0
 40
1.0
 40
1.0
 10
2614.164884035074
 20
-658.4673226753424
 30
0.0
 10
2614.162721456279
 20
-658.4720130677762
 30
0.0
 10
2614.160598746555
 20
-658.4764725680933
 30
0.0
 10
2614.158519707188
 20
-658.4807015544835
 30
0.0
  0
SPLINE
  5
1AC6D
330
18
100
AcDbEntity
  8
01
100
AcDbSpline
210
0.0
220
0.0
230
1.0
 70
     8
 71
     3
 72
     8
 73
     4
 74
     0
 42
0.0000000001
 43
0.0000000001
 40
0.0
 40
0.0
 40
0.0
 40
0.0
 40
1.0
 40
1.0
 40
1.0
 40
1.0
 10
2614.158519707008
 20
-647.684549587245
 30
0.0
 10
2614.160598746422
 20
-647.6887785736352
 30
0.0
 10
2614.16272145621
 20
-647.69323807395
 30
0.0
 10
2614.164884035073
 20
-647.6979284663797
 30
0.0
  0
SPLINE
  5
1AC6E
330
18
100
AcDbEntity
  8
01
100
AcDbSpline
210
0.0
220
0.0
230
1.0
 70
     8
 71
     3
 72
     8
 73
     4
 74
     0
 42
0.0000000001
 43
0.0000000001
 40
0.0
 40
0.0
 40
0.0
 40
0.0
 40
1.0
 40
1.0
 40
1.0
 40
1.0
 10
2633.61938209418
 20
-642.1033966502927
 30
0.0
 10
2627.137128431596
 20
-643.9634835810278
 30
0.0
 10
2620.649571145807
 20
-645.8239064845715
 30
0.0
 10
2614.158519707008
 20
-647.684549587245
 30
0.0
  0
SPLINE
  5
1AC6F
330
18
100
AcDbEntity
  8
01
100
AcDbSpline
210
0.0
220
0.0
230
1.0
 70
     8
 71
     3
 72
    10
 73
     6
 74
     0
 42
0.0000000001
 43
0.0000000001
 40
0.0
 40
0.0
 40
0.0
 40
0.0
 40
0.5
 40
0.5
 40
1.0
 40
1.0
 40
1.0
 40
1.0
 10
2745.30004842721
 20
-657.4524393470591
 30
0.0
 10
2745.300376718845
 20
-657.4674598886501
 30
0.0
 10
2745.245298995206
 20
-657.4856091542441
 30
0.0
 10
2745.05838817267
 20
-657.5178793228578
 30
0.0
 10
2744.925921058119
 20
-657.5320495046152
 30
0.0
 10
2744.793405771162
 20
-657.5398612267319
 30
0.0
  0
SPLINE
  5
1AC70
330
18
100
AcDbEntity
  8
01
100
AcDbSpline
210
0.0
220
0.0
230
1.0
 70
     8
 71
     3
 72
    16
 73
    12
 74
     0
 42
0.0000000001
 43
0.0000000001
 40
0.0
 40
0.0
 40
0.0
 40
0.0
 40
0.0786888963696355
 40
0.1564566302556064
 40
0.2345339740335824
 40
0.3141309596038094
 40
0.4548534519938955
 40
0.5585179707417066
 40
0.6632215900757792
 40
0.8323892133719423
 40
1.0
 40
1.0
 40
1.0
 40
1.0
 10
2745.300048425736
 20
-648.7036641128442
 30
0.0
 10
2745.299375974059
 20
-648.7012723891372
 30
0.0
 10
2745.298038942686
 20
-648.6965169401609
 30
0.0
 10
2745.286277204727
 20
-648.6889126050947
 30
0.0
 10
2745.267304922788
 20
-648.6810680175519
 30
0.0
 10
2745.234128571491
 20
-648.6709750137703
 30
0.0
 10
2745.185388130033
 20
-648.6599847394001
 30
0.0
 10
2745.118990987717
 20
-648.6486534137033
 30
0.0
 10
2745.036375369603
 20
-648.6372857175728
 30
0.0
 10
2744.927363147529
 20
-648.6252898533916
 30
0.0
 10
2744.83792027887
 20
-648.6192487867316
 30
0.0
 10
2744.79340557979
 20
-648.6162422165206
 30
0.0
  0
SPLINE
  5
1AC71
330
18
100
AcDbEntity
  8
01
100
AcDbSpline
210
0.0
220
0.0
230
1.0
 70
     8
 71
     3
 72
    21
 73
    17
 74
     0
 42
0.0000000001
 43
0.0000000001
 40
0.0
 40
0.0
 40
0.0
 40
0.0
 40
0.0543026746903798
 40
0.1089515020728126
 40
0.1639470580616293
 40
0.2192899076506203
 40
0.2749806051673976
 40
0.3310196945209795
 40
0.3874077094427233
 40
0.4441451737208603
 40
0.501232601428756
 40
0.5866890531856455
 40
0.6792957212739271
 40
0.7790511301746228
 40
0.8859533378763902
 40
0.9999999999999999
 40
0.9999999999999999
 40
0.9999999999999999
 40
0.9999999999999999
 10
2744.810945542525
 20
-654.7140243240514
 30
0.0
 10
2744.852226922957
 20
-654.7137727802195
 30
0.0
 10
2744.935052832207
 20
-654.7132680890883
 30
0.0
 10
2745.058219263573
 20
-654.7130293665788
 30
0.0
 10
2745.179982795736
 20
-654.7131656885382
 30
0.0
 10
2745.299394480538
 20
-654.7137151717358
 30
0.0
 10
2745.415550705015
 20
-654.7146674653799
 30
0.0
 10
2745.527529349484
 20
-654.7160255214282
 30
0.0
 10
2745.634415928772
 20
-654.7177879685086
 30
0.0
 10
2745.735308600158
 20
-654.7199573362053
 30
0.0
 10
2745.844699059388
 20
-654.7229448479007
 30
0.0
 10
2745.959692719508
 20
-654.7271755771534
 30
0.0
 10
2746.072451963749
 20
-654.733020482404
 30
0.0
 10
2746.163644003012
 20
-654.7400984212248
 30
0.0
 10
2746.227927911649
 20
-654.7483676696967
 30
0.0
 10
2746.236358543515
 20
-654.754599382814
 30
0.0
 10
2746.240710163077
 20
-654.7578159916201
 30
0.0
  0
SPLINE
  5
1AC72
330
18
100
AcDbEntity
  8
01
100
AcDbSpline
210
0.0
220
0.0
230
1.0
 70
     8
 71
     3
 72
    23
 73
    19
 74
     0
 42
0.0000000001
 43
0.0000000001
 40
0.0
 40
0.0
 40
0.0
 40
0.0
 40
0.0528182523272466
 40
0.1041556312968589
 40
0.154012137786094
 40
0.2023877805948915
 40
0.2492825772105166
 40
0.2946965546967934
 40
0.3386297507331105
 40
0.3810822148345328
 40
0.4220540097921852
 40
0.4615452133835036
 40
0.4995559204152067
 40
0.6018854951636194
 40
0.7030916251542205
 40
0.8031773224853901
 40
0.9021457048440085
 40
0.9999999999999999
 40
0.9999999999999999
 40
0.9999999999999999
 40
0.9999999999999999
 10
2746.240710163077
 20
-651.3982874009088
 30
0.0
 10
2746.239777934053
 20
-651.399789278384
 30
0.0
 10
2746.237939613055
 20
-651.4027509249678
 30
0.0
 10
2746.223417305976
 20
-651.4069690693294
 30
0.0
 10
2746.201292370376
 20
-651.4109411465432
 30
0.0
 10
2746.171614058715
 20
-651.4146565407062
 30
0.0
 10
2746.135476783466
 20
-651.4181179851493
 30
0.0
 10
2746.093691966867
 20
-651.421324805557
 30
0.0
 10
2746.047115683369
 20
-651.4242771631438
 30
0.0
 10
2745.99655359983
 20
-651.4269751456042
 30
0.0
 10
2745.942779371245
 20
-651.4294183761568
 30
0.0
 10
2745.886514494924
 20
-651.4316083199345
 30
0.0
 10
2745.794961916224
 20
-651.4346544805882
 30
0.0
 10
2745.657500921599
 20
-651.4380606742862
 30
0.0
 10
2745.462904727737
 20
-651.4410939489177
 30
0.0
 10
2745.253535534815
 20
-651.4427884078956
 30
0.0
 10
2745.034915749186
 20
-651.4432715165316
 30
0.0
 10
2744.885320022858
 20
-651.4424750483969
 30
0.0
 10
2744.810945542525
 20
-651.4420790684775
 30
0.0
  0
LINE
  5
1AC73
330
18
100
AcDbEntity
  8
01
100
AcDbLine
 10
2746.240710163077
 20
-649.6984816596845
 30
0.0
 11
2746.240710163077
 21
-656.4605664673994
 31
0.0
  0
ARC
  5
1AC74
330
18
100
AcDbEntity
  8
01
100
AcDbCircle
 10
2745.24433829522
 20
-656.4576218003136
 30
0.0
 40
0.9963762191656275
100
AcDbArc
 50
273.2052359898751
 51
359.8306691403985
  0
ARC
  5
1AC75
330
18
100
AcDbEntity
  8
01
100
AcDbCircle
 10
2745.244338295207
 20
-649.6984816596845
 30
0.0
 40
0.9963762191788412
100
AcDbArc
 50
0.1693308598880618
 51
86.79476409415366
  0
SPLINE
  5
1AC77
330
18
100
AcDbEntity
  8
01
100
AcDbSpline
210
0.0
220
0.0
230
1.0
 70
    24
 71
     3
 72
    18
 73
    14
 74
     0
 42
0.0000000001
 43
0.0000000001
 40
0.0
 40
0.0
 40
0.0
 40
0.0
 40
0.0839597436665112
 40
0.1667230443678697
 40
0.2492037561948338
 40
0.3323250542961265
 40
0.4169891616065288
 40
0.5040503494536523
 40
0.5942948411753061
 40
0.6884291316167205
 40
0.7870761765890856
 40
0.8907776366593899
 40
0.9999999999999999
 40
0.9999999999999999
 40
0.9999999999999999
 40
0.9999999999999999
 10
2633.790675630652
 20
-642.0826255708588
 30
0.0
 10
2633.810657352219
 20
-642.0826255708588
 30
0.0
 10
2633.850336051862
 20
-642.0826255708588
 30
0.0
 10
2633.92072473057
 20
-642.0826255708588
 30
0.0
 10
2633.998293083826
 20
-642.0826255708588
 30
0.0
 10
2634.083811499567
 20
-642.0826255708588
 30
0.0
 10
2634.177028234367
 20
-642.0826255708588
 30
0.0
 10
2634.277966436041
 20
-642.0826255708588
 30
0.0
 10
2634.386582658462
 20
-642.0826255708588
 30
0.0
 10
2634.502863601671
 20
-642.0826255708588
 30
0.0
 10
2634.626803349488
 20
-642.0826255708588
 30
0.0
 10
2634.758390363443
 20
-642.0826255708588
 30
0.0
 10
2634.848790051509
 20
-642.0826255708588
 30
0.0
 10
2634.895161882608
 20
-642.0826255708588
 30
0.0
  0
SPLINE
  5
1AC78
330
18
100
AcDbEntity
  8
01
100
AcDbSpline
210
0.0
220
0.0
230
1.0
 70
    24
 71
     3
 72
    17
 73
    13
 74
     0
 42
0.0000000001
 43
0.0000000001
 40
0.0
 40
0.0
 40
0.0
 40
0.0
 40
0.119840269243393
 40
0.2330526218349997
 40
0.3402725498500652
 40
0.4422476384012315
 40
0.5398460704773309
 40
0.6340571034811102
 40
0.7259794243438825
 40
0.8167948247074236
 40
0.9077282638308446
 40
1.0
 40
1.0
 40
1.0
 40
1.0
 10
2634.895242398771
 20
-664.0826255708588
 30
0.0
 10
2634.844362292814
 20
-664.0826255708588
 30
0.0
 10
2634.745416069082
 20
-664.0826255708588
 30
0.0
 10
2634.601847040462
 20
-664.0826255708588
 30
0.0
 10
2634.467516345127
 20
-664.0826255708588
 30
0.0
 10
2634.342441969521
 20
-664.0826255708588
 30
0.0
 10
2634.226632112522
 20
-664.0826255708588
 30
0.0
 10
2634.120142793504
 20
-664.0826255708588
 30
0.0
 10
2634.022954180428
 20
-664.0826255708588
 30
0.0
 10
2633.935387463381
 20
-664.0826255708588
 30
0.0
 10
2633.856525878266
 20
-664.0826255708588
 30
0.0
 10
2633.812732349098
 20
-664.0826255708588
 30
0.0
 10
2633.79067563065
 20
-664.0826255708588
 30
0.0
  0
LINE
  5
1AC79
330
18
100
AcDbEntity
  8
01
100
AcDbLine
 10
2616.190197597741
 20
-664.0826255708588
 30
0.0
 11
2633.79067563065
 21
-664.0826255708588
 31
0.0
  0
ARC
  5
1AC7A
330
18
100
AcDbEntity
  8
01
100
AcDbCircle
 10
2616.190481033295
 20
-642.8016554407028
 30
0.0
 40
0.7190299257078011
100
AcDbArc
 50
90.02258551549211
 51
103.8052866215116
  0
LINE
  5
1AC7B
330
18
100
AcDbEntity
  8
01
100
AcDbLine
 10
2616.190197597741
 20
-642.0826255708588
 30
0.0
 11
2633.790675630652
 21
-642.0826255708588
 31
0.0
  0
SPLINE
  5
1AC7C
330
18
100
AcDbEntity
  8
01
100
AcDbSpline
210
0.0
220
0.0
230
1.0
 70
     8
 71
     3
 72
    10
 73
     6
 74
     0
 42
0.0000000001
 43
0.0000000001
 40
0.0
 40
0.0
 40
0.0
 40
0.0
 40
0.3467292126223085
 40
0.7381714902233174
 40
1.0
 40
1.0
 40
1.0
 40
1.0
 10
2636.994302342761
 20
-663.7304674518126
 30
0.0
 10
2636.924121697414
 20
-663.8017362152035
 30
0.0
 10
2636.774710140288
 20
-663.9534643285648
 30
0.0
 10
2636.499019049866
 20
-664.0644593797784
 30
0.0
 10
2636.312061819676
 20
-664.0774278543339
 30
0.0
 10
2636.237130054905
 20
-664.0826255708588
 30
0.0
  0
LINE
  5
1AC7D
330
18
100
AcDbEntity
  8
01
100
AcDbLine
 10
2634.992460592189
 20
-664.0826255708588
 30
0.0
 11
2636.237130054905
 21
-664.0826255708588
 31
0.0
  0
SPLINE
  5
1AC7E
330
18
100
AcDbEntity
  8
01
100
AcDbSpline
210
0.0
220
0.0
230
1.0
 70
     8
 71
     3
 72
    10
 73
     6
 74
     0
 42
0.0000000001
 43
0.0000000001
 40
0.0
 40
0.0
 40
0.0
 40
0.0
 40
0.3465002606936584
 40
0.7380791582456137
 40
1.0
 40
1.0
 40
1.0
 40
1.0
 10
2636.994078176575
 20
-642.4345840329771
 30
0.0
 10
2636.92396635199
 20
-642.3633896667421
 30
0.0
 10
2636.774621366308
 20
-642.211738762361
 30
0.0
 10
2636.499017717054
 20
-642.1007934304151
 30
0.0
 10
2636.312060987989
 20
-642.087823772829
 30
0.0
 10
2636.237129261312
 20
-642.0826255708588
 30
0.0
  0
LINE
  5
1AC7F
330
18
100
AcDbEntity
  8
01
100
AcDbLine
 10
2634.992380076025
 20
-642.0826255708588
 30
0.0
 11
2636.237129261312
 21
-642.0826255708588
 31
0.0
  0
SPLINE
  5
1AC80
330
18
100
AcDbEntity
  8
01
100
AcDbSpline
210
0.0
220
0.0
230
1.0
 70
     8
 71
     3
 72
    25
 73
    21
 74
     0
 42
0.0000000001
 43
0.0000000001
 40
0.0
 40
0.0
 40
0.0
 40
0.0
 40
0.1275162504934405
 40
0.2820472593569216
 40
0.282166234814581
 40
0.28226285145005
 40
0.2824422449791314
 40
0.2827844777606477
 40
0.2834654010868402
 40
0.2849038909289052
 40
0.2881823005716541
 40
0.2962995820095712
 40
0.3180103346272334
 40
0.3797758007695785
 40
0.5630581963624083
 40
0.6230334448296416
 40
0.6899303875311185
 40
0.763747743545052
 40
0.8444840918070824
 40
1.0
 40
1.0
 40
1.0
 40
1.0
 10
2615.058836572843
 20
-657.3184147137207
 30
0.0
 10
2614.951890684947
 20
-657.3231033447663
 30
0.0
 10
2614.7153420532
 20
-657.3334739095484
 30
0.0
 10
2614.492526742612
 20
-657.3470110658499
 30
0.0
 10
2614.376662961592
 20
-657.3546409408704
 30
0.0
 10
2614.376367246378
 20
-657.3546604467664
 30
0.0
 10
2614.375904430354
 20
-657.3546910184679
 30
0.0
 10
2614.375004371325
 20
-657.3547506223366
 30
0.0
 10
2614.373162600356
 20
-657.3548730569051
 30
0.0
 10
2614.369127035748
 20
-657.355142803409
 30
0.0
 10
2614.359547668209
 20
-657.3557877366208
 30
0.0
 10
2614.334936079408
 20
-657.3574604122697
 30
0.0
 10
2614.267566762605
 20
-657.3621094718848
 30
0.0
 10
2614.077601062068
 20
-657.3756829819037
 30
0.0
 10
2613.883043953784
 20
-657.3913601260421
 30
0.0
 10
2613.71723418539
 20
-657.4071104948865
 30
0.0
 10
2613.620782056615
 20
-657.4171747273152
 30
0.0
 10
2613.52928690884
 20
-657.4282067719356
 30
0.0
 10
2613.421451375579
 20
-657.4434704056442
 30
0.0
 10
2613.380141856963
 20
-657.4553064597393
 30
0.0
 10
2613.352949366187
 20
-657.4630976856503
 30
0.0
  0
LINE
  5
1AC81
330
18
100
AcDbEntity
  8
1CENTER
100
AcDbLine
 10
2626.24074702583
 20
-666.1772732533515
 30
0.0
 11
2626.24074702583
 21
-639.9879778883688
 31
0.0
  0
LINE
  5
1AC82
330
18
100
AcDbEntity
  8
01
100
AcDbLine
 10
2637.749902102786
 20
-642.5075427710866
 30
0.0
 11
2744.79340557979
 21
-648.6162422165206
 31
0.0
  0
LINE
  5
1AC83
330
18
100
AcDbEntity
  8
01
100
AcDbLine
 10
2744.790047653039
 20
-657.5420646490828
 30
0.0
 11
2637.766229178865
 21
-663.6567400470027
 31
0.0
  0
LINE
  5
1AC84
330
18
100
AcDbEntity
  8
01
100
AcDbLine
 10
2744.810945542525
 20
-651.4420790684775
 30
0.0
 11
2615.418244871268
 21
-648.8557054359673
 31
0.0
  0
LINE
  5
1AC85
330
18
100
AcDbEntity
  8
01
100
AcDbLine
 10
2615.418244871266
 20
-657.3095457057506
 30
0.0
 11
2744.810945542525
 21
-654.7140243240514
 31
0.0
  0
LINE
  5
1AC86
330
18
100
AcDbEntity
  8
1CENTER
100
AcDbLine
 10
2610.157188601633
 20
-348.5839519182449
 30
0.0
 11
2618.290860963481
 21
-348.5839438849947
 31
0.0
  0
SPLINE
  5
1AC87
330
18
100
AcDbEntity
  8
01
100
AcDbSpline
210
0.0
220
0.0
230
1.0
 70
     8
 71
     3
 72
    18
 73
    14
 74
     0
 42
0.0000000001
 43
0.0000000001
 40
0.0000649757542841
 40
0.0000649757542841
 40
0.0000649757542841
 40
0.0000649757542841
 40
0.0860520609830585
 40
0.2305629888503389
 40
0.3725690207133783
 40
0.5129959002680089
 40
0.6565061431096817
 40
0.7501835193149282
 40
0.8477363410374643
 40
0.8940869277261254
 40
0.9350128367551847
 40
0.9703342150502404
 40
1.0
 40
1.0
 40
1.0
 40
1.0
 10
2637.240833435181
 20
-331.0839117487766
 30
0.0
 10
2637.240828065457
 20
-331.7518177931155
 30
0.0
 10
2637.240813673033
 20
-333.5422148251267
 30
0.0
 10
2637.240800292263
 20
-336.4360483305371
 30
0.0
 10
2637.240898719773
 20
-339.7522350748812
 30
0.0
 10
2637.240610852826
 20
-343.0581397108662
 30
0.0
 10
2637.24058141025
 20
-345.9919963087212
 30
0.0
 10
2637.24087145968
 20
-348.5925310214055
 30
0.0
 10
2637.240816046878
 20
-350.4275086049369
 30
0.0
 10
2637.240774012377
 20
-351.8640163290464
 30
0.0
 10
2637.240885288319
 20
-352.8154865260921
 30
0.0
 10
2637.240754577138
 20
-353.6040822317758
 30
0.0
 10
2637.240842534114
 20
-353.9335473751611
 30
0.0
 10
2637.240882685316
 20
-354.083943878164
 30
0.0
  0
LINE
  5
1AC88
330
18
100
AcDbEntity
  8
01
100
AcDbLine
 10
2744.740844045834
 20
-327.0839438853271
 30
0.0
 11
2641.240833434159
 21
-327.0839439073351
 31
0.0
  0
ARC
  5
1AC89
330
18
100
AcDbEntity
  8
01
100
AcDbCircle
 10
2744.740844045834
 20
-325.5839438853271
 30
0.0
 40
1.5
100
AcDbArc
 50
270.0000000128191
 51
0.0
  0
LINE
  5
1AC8A
330
18
100
AcDbEntity
  8
01
100
AcDbLine
 10
2616.24084404583
 20
-354.2827759869668
 30
0.0
 11
2616.24084404583
 21
-354.083943884992
 31
0.0
  0
LINE
  5
1AC8B
330
18
100
AcDbEntity
  8
01
100
AcDbLine
 10
2636.24084404583
 20
-354.083943884992
 30
0.0
 11
2636.24084404583
 21
-354.2827759869668
 31
0.0
  0
LINE
  5
1AC8C
330
18
100
AcDbEntity
  8
01
100
AcDbLine
 10
2618.290878622934
 20
-354.583943884992
 30
0.0
 11
2618.290878622934
 21
-354.2827759869668
 31
0.0
  0
LINE
  5
1AC8D
330
18
100
AcDbEntity
  8
01
100
AcDbLine
 10
2634.190878622935
 20
-354.2827759869668
 30
0.0
 11
2634.190878622935
 21
-354.583943884992
 31
0.0
  0
SPLINE
  5
1AC8E
330
18
100
AcDbEntity
  8
01
100
AcDbSpline
210
0.0
220
0.0
230
1.0
 70
     8
 71
     3
 72
    15
 73
    11
 74
     0
 42
0.0000000001
 43
0.0000000001
 40
0.0
 40
0.0
 40
0.0
 40
0.0
 40
0.0621384659276811
 40
0.1194624660158409
 40
0.2375262378245288
 40
0.485056379678497
 40
0.6028685908047778
 40
0.741824810946498
 40
0.8709376368659568
 40
1.0
 40
1.0
 40
1.0
 40
1.0
 10
2635.765289561746
 20
-324.8183446646038
 30
0.0
 10
2635.802843408975
 20
-324.8040340073816
 30
0.0
 10
2635.875041444949
 20
-324.7765214774762
 30
0.0
 10
2636.021487216482
 20
-324.729460110901
 30
0.0
 10
2636.286880926943
 20
-324.659841994447
 30
0.0
 10
2636.598646319885
 20
-324.6120725141208
 30
0.0
 10
2636.927638758279
 20
-324.5879663991485
 30
0.0
 10
2637.180978300646
 20
-324.5831165809203
 30
0.0
 10
2637.442559450218
 20
-324.5905931489782
 30
0.0
 10
2637.612500785327
 20
-324.6058586545272
 30
0.0
 10
2637.697454844561
 20
-324.613489915408
 30
0.0
  0
SPLINE
  5
1AC8F
330
18
100
AcDbEntity
  8
01
100
AcDbSpline
210
0.0
220
0.0
230
1.0
 70
     8
 71
     3
 72
    11
 73
     7
 74
     0
 42
0.0000000001
 43
0.0000000001
 40
0.0
 40
0.0
 40
0.0
 40
0.0
 40
0.246667354855828
 40
0.4951061132192802
 40
0.7459932421170662
 40
0.9999999999999999
 40
0.9999999999999999
 40
0.9999999999999999
 40
0.9999999999999999
 10
2635.434288109317
 20
-324.9960146953898
 30
0.0
 10
2635.46014633566
 20
-324.978476136372
 30
0.0
 10
2635.512048485208
 20
-324.9432730678835
 30
0.0
 10
2635.593685633418
 20
-324.8967903771544
 30
0.0
 10
2635.678042478055
 20
-324.854421365459
 30
0.0
 10
2635.736087651037
 20
-324.8304196653088
 30
0.0
 10
2635.765289561746
 20
-324.8183446646038
 30
0.0
  0
SPLINE
  5
1AC90
330
18
100
AcDbEntity
  8
01
100
AcDbSpline
210
0.0
220
0.0
230
1.0
 70
     8
 71
     3
 72
    19
 73
    15
 74
     0
 42
0.0000000001
 43
0.0000000001
 40
0.0
 40
0.0
 40
0.0
 40
0.0
 40
0.0974617489138209
 40
0.1847107255476317
 40
0.261814459899569
 40
0.3288460592983783
 40
0.385864790067484
 40
0.4277977639963271
 40
0.5108213901195143
 40
0.5928931626424222
 40
0.6749542339723672
 40
0.7852446773393177
 40
0.8934743715277373
 40
1.0
 40
1.0
 40
1.0
 40
1.0
 10
2634.802664281065
 20
-326.7964259554027
 30
0.0
 10
2634.803135909467
 20
-326.7331029104324
 30
0.0
 10
2634.804029745509
 20
-326.6130922835899
 30
0.0
 10
2634.81513422821
 20
-326.4432301563373
 30
0.0
 10
2634.833020497633
 20
-326.2935459908603
 30
0.0
 10
2634.854315477286
 20
-326.1642103873832
 30
0.0
 10
2634.875984784862
 20
-326.0582116856111
 30
0.0
 10
2634.904720589987
 20
-325.9429874252572
 30
0.0
 10
2634.943492366797
 20
-325.813412294135
 30
0.0
 10
2635.000143390148
 20
-325.6620651238258
 30
0.0
 10
2635.074476587305
 20
-325.4986100527398
 30
0.0
 10
2635.171084959547
 20
-325.3270687231205
 30
0.0
 10
2635.292673920499
 20
-325.151811697281
 30
0.0
 10
2635.387333752354
 20
-325.0476715816202
 30
0.0
 10
2635.434288109317
 20
-324.9960146953898
 30
0.0
  0
SPLINE
  5
1AC91
330
18
100
AcDbEntity
  8
01
100
AcDbSpline
210
0.0
220
0.0
230
1.0
 70
     8
 71
     3
 72
    11
 73
     7
 74
     0
 42
0.0000000001
 43
0.0000000001
 40
0.0
 40
0.0
 40
0.0
 40
0.0
 40
0.2788341038430541
 40
0.5384644005889189
 40
0.7788535199034351
 40
0.9999999999999999
 40
0.9999999999999999
 40
0.9999999999999999
 40
0.9999999999999999
 10
2634.856594224118
 20
-327.4513758215834
 30
0.0
 10
2634.84792641623
 20
-327.3908937128652
 30
0.0
 10
2634.831187768002
 20
-327.2740950072265
 30
0.0
 10
2634.815099122789
 20
-327.1040716316141
 30
0.0
 10
2634.805133962443
 20
-326.9462065849992
 30
0.0
 10
2634.803464304033
 20
-326.8449455518829
 30
0.0
 10
2634.802664281065
 20
-326.7964259554027
 30
0.0
  0
SPLINE
  5
1AC92
330
18
100
AcDbEntity
  8
01
100
AcDbSpline
210
0.0
220
0.0
230
1.0
 70
     8
 71
     3
 72
     9
 73
     5
 74
     0
 42
0.0000000001
 43
0.0000000001
 40
0.0
 40
0.0
 40
0.0
 40
0.0
 40
0.477460274534142
 40
1.0
 40
1.0
 40
1.0
 40
1.0
 10
2635.382683246812
 20
-323.8778378439587
 30
0.0
 10
2632.173147848739
 20
-320.6974205467581
 30
0.0
 10
2625.451048505071
 20
-314.0363065927148
 30
0.0
 10
2618.73506987358
 20
-307.3712558185488
 30
0.0
 10
2615.225704243246
 20
-303.8885020168003
 30
0.0
  0
LINE
  5
1AC93
330
18
100
AcDbEntity
  8
01
100
AcDbLine
 10
2637.240882685316
 20
-354.083943884992
 30
0.0
 11
2628.740759247047
 21
-354.083943884992
 31
0.0
  0
LINE
  5
1AC94
330
18
100
AcDbEntity
  8
01
100
AcDbLine
 10
2623.740759247045
 20
-354.083943884992
 30
0.0
 11
2615.24084404583
 21
-354.083943884992
 31
0.0
  0
SPLINE
  5
1AC95
330
18
100
AcDbEntity
  8
01
100
AcDbSpline
210
0.0
220
0.0
230
1.0
 70
     8
 71
     3
 72
    12
 73
     8
 74
     0
 42
0.0000000001
 43
0.0000000001
 40
0.0
 40
0.0
 40
0.0
 40
0.0
 40
0.157441155016458
 40
0.3235627903252723
 40
0.4984485582856485
 40
0.7268212218397349
 40
0.9831250544958003
 40
0.9831250544958003
 40
0.9831250544958003
 40
0.9831250544958003
 10
2637.24084404583
 20
-354.083943884992
 30
0.0
 10
2637.12190014213
 20
-352.6856927687271
 30
0.0
 10
2636.877454391149
 20
-349.8120982965141
 30
0.0
 10
2636.493372601327
 20
-345.3860216708207
 30
0.0
 10
2636.046436615713
 20
-340.3308377581224
 30
0.0
 10
2635.517116857939
 20
-334.4760309924249
 30
0.0
 10
2635.112902361084
 20
-330.1750234676691
 30
0.0
 10
2634.856594224118
 20
-327.4513758215834
 30
0.0
  0
LINE
  5
1AC96
330
18
100
AcDbEntity
  8
01
100
AcDbLine
 10
2616.019035701399
 20
-352.6677338099074
 30
0.0
 11
2633.619513734308
 21
-324.8775053368917
 31
0.0
  0
LINE
  5
1AC97
330
18
100
AcDbEntity
  8
01
100
AcDbLine
 10
2615.191097437727
 20
-352.8154053784154
 30
0.0
 11
2615.24084404583
 21
-354.083943884992
 31
0.0
  0
LINE
  5
1AC98
330
18
100
AcDbEntity
  8
01
100
AcDbLine
 10
2613.326265587927
 20
-305.2621932085048
 30
0.0
 11
2615.191097437727
 21
-352.8154053784154
 31
0.0
  0
LINE
  5
1AC99
330
18
100
AcDbEntity
  8
01
100
AcDbLine
 10
2636.24084404583
 20
-354.2827759869668
 30
0.0
 11
2628.740759247047
 21
-354.2827759869668
 31
0.0
  0
LINE
  5
1AC9A
330
18
100
AcDbEntity
  8
01
100
AcDbLine
 10
2623.740759247045
 20
-354.2827759869668
 30
0.0
 11
2616.24084404583
 21
-354.2827759869668
 31
0.0
  0
LINE
  5
1AC9B
330
18
100
AcDbEntity
  8
01
100
AcDbLine
 10
2744.717001104426
 20
-327.0586566465189
 30
0.0
 11
2744.717001389382
 21
-327.0586569168526
 31
0.0
  0
ARC
  5
1AC9C
330
18
100
AcDbEntity
  8
01
100
AcDbCircle
 10
2744.740844045819
 20
-310.5152784299579
 30
0.0
 40
1.5
100
AcDbArc
 50
0.0
 51
87.31622484081629
  0
LINE
  5
1AC9D
330
18
100
AcDbEntity
  8
01
100
AcDbLine
 10
2746.240844045834
 20
-310.5152784299597
 30
0.0
 11
2746.240844045834
 21
-325.5839438853271
 31
0.0
  0
LINE
  5
1AC9E
330
18
100
AcDbEntity
  8
01
100
AcDbLine
 10
2615.418376661989
 20
-303.1860157263744
 30
0.0
 11
2744.81107942526
 21
-309.0169236684031
 31
0.0
  0
ARC
  5
1AC9F
330
18
100
AcDbEntity
  8
01
100
AcDbCircle
 10
2615.324729489391
 20
-305.1838220751141
 30
0.0
 40
2.0
100
AcDbArc
 50
87.31622484060777
 51
182.2457425658935
  0
ARC
  5
1ACA0
330
18
100
AcDbEntity
  8
01
100
AcDbCircle
 10
2641.240833435052
 20
-331.0839439073351
 30
0.0
 40
4.0
100
AcDbArc
 50
90.0000000128191
 51
179.9995393625938
  0
LINE
  5
1ACA1
330
18
100
AcDbEntity
  8
01
100
AcDbLine
 10
2637.697456916908
 20
-324.6134915386109
 30
0.0
 11
2744.717000819407
 21
-327.0586563761243
 31
0.0
  0
LINE
  5
1ACA4
330
18
100
AcDbEntity
  8
01
100
AcDbLine
 10
2260.240979705323
 20
-626.582625570862
 30
0.0
 11
2312.24097970532
 21
-626.582625570862
 31
0.0
  0
LINE
  5
1ACA5
330
18
100
AcDbEntity
  8
01
100
AcDbLine
 10
2312.24097970532
 20
-679.582625570862
 30
0.0
 11
2260.240979705323
 21
-679.582625570862
 31
0.0
  0
LINE
  5
1ACA6
330
18
100
AcDbEntity
  8
01
100
AcDbLine
 10
2312.74097970532
 20
-627.082625570862
 30
0.0
 11
2312.74097970532
 21
-679.082625570862
 31
0.0
  0
ARC
  5
1ACA7
330
18
100
AcDbEntity
  8
01
100
AcDbCircle
 10
2312.24097970532
 20
-679.082625570862
 30
0.0
 40
0.5
100
AcDbArc
 50
270.0
 51
0.0
  0
ARC
  5
1ACA8
330
18
100
AcDbEntity
  8
01
100
AcDbCircle
 10
2312.24097970532
 20
-627.082625570862
 30
0.0
 40
0.5
100
AcDbArc
 50
0.0
 51
90.0
  0
LINE
  5
1ACA9
330
18
100
AcDbEntity
  8
01
100
AcDbLine
 10
2259.740979705323
 20
-627.082625570862
 30
0.0
 11
2259.740979705323
 21
-643.3630320169863
 31
0.0
  0
LINE
  5
1ACAA
330
18
100
AcDbEntity
  8
01
100
AcDbLine
 10
2259.740979705323
 20
-662.8011892249523
 30
0.0
 11
2259.740979705323
 21
-679.082625570862
 31
0.0
  0
ARC
  5
1ACAB
330
18
100
AcDbEntity
  8
01
100
AcDbCircle
 10
2260.240979705323
 20
-679.082625570862
 30
0.0
 40
0.5
100
AcDbArc
 50
180.0
 51
270.0
  0
ARC
  5
1ACAC
330
18
100
AcDbEntity
  8
01
100
AcDbCircle
 10
2260.240979705323
 20
-627.082625570862
 30
0.0
 40
0.5
100
AcDbArc
 50
90.0
 51
180.0
  0
LINE
  5
1ACAD
330
18
100
AcDbEntity
  8
01
100
AcDbLine
 10
2376.340857895445
 20
-657.3144233702973
 30
0.0
 11
2376.340857895445
 21
-648.8534011834366
 31
0.0
  0
ARC
  5
1ACAE
330
18
100
AcDbEntity
  8
01
100
AcDbCircle
 10
2377.340857895445
 20
-657.3144233702973
 30
0.0
 40
1.0
100
AcDbArc
 50
180.0
 51
254.1359982815117
  0
LINE
  5
1ACAF
330
18
100
AcDbEntity
  8
01
100
AcDbLine
 10
2427.439811807298
 20
-663.0826255708602
 30
0.0
 11
2427.240979705323
 21
-663.0826255708602
 31
0.0
  0
LINE
  5
1ACB0
330
18
100
AcDbEntity
  8
01
100
AcDbLine
 10
2427.240979705323
 20
-643.0826255708602
 30
0.0
 11
2427.439811807298
 21
-643.0826255708602
 31
0.0
  0
SPLINE
  5
1ACB1
330
18
100
AcDbEntity
  8
01
100
AcDbSpline
210
0.0
220
0.0
230
1.0
 70
     8
 71
     3
 72
     9
 73
     5
 74
     0
 42
0.0000000001
 43
0.0000000001
 40
0.0
 40
0.0
 40
0.0
 40
0.0
 40
0.4105674575655068
 40
0.9999999999999999
 40
0.9999999999999999
 40
0.9999999999999999
 40
0.9999999999999999
 10
2377.162435796076
 20
-647.8575430856266
 30
0.0
 10
2377.174487841022
 20
-647.8530565523291
 30
0.0
 10
2377.203842444566
 20
-647.8421289125093
 30
0.0
 10
2377.270907184316
 20
-647.830612154395
 30
0.0
 10
2377.310437324372
 20
-647.823823802379
 30
0.0
  0
SPLINE
  5
1ACB2
330
18
100
AcDbEntity
  8
01
100
AcDbSpline
210
0.0
220
0.0
230
1.0
 70
     8
 71
     3
 72
     8
 73
     4
 74
     0
 42
0.0000000001
 43
0.0000000001
 40
0.0
 40
0.0
 40
0.0
 40
0.0
 40
1.0
 40
1.0
 40
1.0
 40
1.0
 10
2378.260675027584
 20
-658.4673226753442
 30
0.0
 10
2378.302081907535
 20
-658.4720130677773
 30
0.0
 10
2378.343514720184
 20
-658.4764725680947
 30
0.0
 10
2378.384969580547
 20
-658.4807015544851
 30
0.0
  0
LINE
  5
1ACB3
330
18
100
AcDbEntity
  8
01
100
AcDbLine
 10
2376.347089566537
 20
-657.3118499582837
 30
0.0
 11
2376.343051546705
 21
-657.3095457057519
 31
0.0
  0
SPLINE
  5
1ACB4
330
18
100
AcDbEntity
  8
01
100
AcDbSpline
210
0.0
220
0.0
230
1.0
 70
     8
 71
     3
 72
     8
 73
     4
 74
     0
 42
0.0000000001
 43
0.0000000001
 40
0.0
 40
0.0
 40
0.0
 40
0.0
 40
1.0
 40
1.0
 40
1.0
 40
1.0
 10
2378.384969580734
 20
-647.6845495872461
 30
0.0
 10
2378.343514720297
 20
-647.6887785736366
 30
0.0
 10
2378.302081907584
 20
-647.6932380739512
 30
0.0
 10
2378.260675027584
 20
-647.6979284663815
 30
0.0
  0
LINE
  5
1ACB5
330
18
100
AcDbEntity
  8
01
100
AcDbLine
 10
2427.240979705323
 20
-664.0826255708602
 30
0.0
 11
2427.240979705323
 21
-642.0826255708602
 31
0.0
  0
LINE
  5
1ACB6
330
18
100
AcDbEntity
  8
01
100
AcDbLine
 10
2378.384969662254
 20
-658.4807015493792
 30
0.0
 11
2425.824769630251
 21
-664.061854481873
 31
0.0
  0
LINE
  5
1ACB7
330
18
100
AcDbEntity
  8
01
100
AcDbLine
 10
2378.384969689482
 20
-647.6845495940428
 30
0.0
 11
2425.824769630238
 21
-642.1033966598374
 31
0.0
  0
ARC
  5
1ACB8
330
18
100
AcDbEntity
  8
01
100
AcDbCircle
 10
2425.934371357412
 20
-663.7831051196393
 30
0.0
 40
0.2995225292744162
100
AcDbArc
 50
248.5356968489752
 51
269.7865719740881
  0
LINE
  5
1ACB9
330
18
100
AcDbEntity
  8
01
100
AcDbLine
 10
2425.933255632051
 20
-664.0826255708602
 30
0.0
 11
2427.240979705323
 21
-664.0826255708602
 31
0.0
  0
LINE
  5
1ACBA
330
18
100
AcDbEntity
  8
01
100
AcDbLine
 10
2427.240979705323
 20
-642.0826255708602
 30
0.0
 11
2425.933255632051
 21
-642.0826255708602
 31
0.0
  0
ARC
  5
1ACBB
330
18
100
AcDbEntity
  8
01
100
AcDbCircle
 10
2425.934371357357
 20
-642.3821460219882
 30
0.0
 40
0.2995225291803009
100
AcDbArc
 50
90.21342801528131
 51
111.4643031490095
  0
LINE
  5
1ACBC
330
18
100
AcDbEntity
  8
01
100
AcDbLine
 10
2425.933255632051
 20
-664.0826255708602
 30
0.0
 11
2397.638682464675
 21
-664.0826255708602
 31
0.0
  0
LINE
  5
1ACBD
330
18
100
AcDbEntity
  8
01
100
AcDbLine
 10
2427.439811807298
 20
-643.0826255708602
 30
0.0
 11
2427.439811807298
 21
-663.0826255708602
 31
0.0
  0
SPLINE
  5
1ACBE
330
18
100
AcDbEntity
  8
01
100
AcDbSpline
210
0.0
220
0.0
230
1.0
 70
     8
 71
     3
 72
    10
 73
     6
 74
     0
 42
0.0000000001
 43
0.0000000001
 40
0.0
 40
0.0
 40
0.0
 40
0.0
 40
0.2453247720985068
 40
0.6314965854619112
 40
1.0
 40
1.0
 40
1.0
 40
1.0
 10
2377.310418180266
 20
-658.3414291656394
 30
0.0
 10
2377.366239973496
 20
-658.3529714038963
 30
0.0
 10
2377.509932237094
 20
-658.382682565902
 30
0.0
 10
2377.842759351649
 20
-658.4222390863637
 30
0.0
 10
2378.123561172691
 20
-658.4525312100635
 30
0.0
 10
2378.260675027813
 20
-658.4673226734689
 30
0.0
  0
SPLINE
  5
1ACBF
330
18
100
AcDbEntity
  8
01
100
AcDbSpline
210
0.0
220
0.0
230
1.0
 70
     8
 71
     3
 72
    10
 73
     6
 74
     0
 42
0.0000000001
 43
0.0000000001
 40
0.0
 40
0.0
 40
0.0
 40
0.0
 40
0.2451891194566391
 40
0.6313454626814465
 40
1.0
 40
1.0
 40
1.0
 40
1.0
 10
2377.310437324372
 20
-647.823823802379
 30
0.0
 10
2377.36621351649
 20
-647.8122873900578
 30
0.0
 10
2377.509833453202
 20
-647.782581905611
 30
0.0
 10
2377.842653876497
 20
-647.7430232855544
 30
0.0
 10
2378.123505345789
 20
-647.712725905489
 30
0.0
 10
2378.260675027806
 20
-647.6979284682533
 30
0.0
  0
LINE
  5
1ACC0
330
18
100
AcDbEntity
  8
01
100
AcDbLine
 10
2376.358593779844
 20
-657.3184147137221
 30
0.0
 11
2376.347089566537
 21
-657.3118499582837
 31
0.0
  0
LINE
  5
1ACC1
330
18
100
AcDbEntity
  8
01
100
AcDbLine
 10
2427.740979705323
 20
-661.0326257644759
 30
0.0
 11
2427.439811807298
 21
-661.0326257644759
 31
0.0
  0
LINE
  5
1ACC2
330
18
100
AcDbEntity
  8
01
100
AcDbLine
 10
2427.439811807298
 20
-645.1326257644763
 30
0.0
 11
2427.740979705323
 21
-645.1326257644761
 31
0.0
  0
ARC
  5
1ACC3
330
18
100
AcDbEntity
  8
01
100
AcDbCircle
 10
2397.638682464795
 20
-663.0826255708802
 30
0.0
 40
1.0
100
AcDbArc
 50
254.1461366957028
 51
269.9999999931214
  0
LINE
  5
1ACC4
330
18
100
AcDbEntity
  8
01
100
AcDbLine
 10
2397.365497764761
 20
-664.0445871707728
 30
0.0
 11
2377.067502981826
 21
-658.2763366154498
 31
0.0
  0
ARC
  5
1ACC5
330
18
100
AcDbEntity
  8
01
100
AcDbCircle
 10
2377.340857895445
 20
-648.8505285929908
 30
0.0
 40
1.0
100
AcDbArc
 50
105.8640017184883
 51
180.0
  0
LINE
  5
1ACC6
330
18
100
AcDbEntity
  8
01
100
AcDbLine
 10
2425.933255632051
 20
-642.082326392428
 30
0.0
 11
2397.638682464675
 21
-642.082326392428
 31
0.0
  0
ARC
  5
1ACC7
330
18
100
AcDbEntity
  8
01
100
AcDbCircle
 10
2397.638682464795
 20
-643.0823263924079
 30
0.0
 40
1.0
100
AcDbArc
 50
90.00000000698277
 51
105.8538633042972
  0
LINE
  5
1ACC8
330
18
100
AcDbEntity
  8
01
100
AcDbLine
 10
2397.365497764761
 20
-642.1203647925153
 30
0.0
 11
2377.067502981826
 21
-647.8886153478383
 31
0.0
  0
LINE
  5
1ACC9
330
18
100
AcDbEntity
  8
01
100
AcDbLine
 10
2299.157129032482
 20
-648.6794252680685
 30
0.0
 11
2299.157129032482
 21
-657.4858258736518
 31
0.0
  0
ARC
  5
1ACCA
330
18
100
AcDbEntity
  8
01
100
AcDbCircle
 10
2298.157129032482
 20
-648.6794252680685
 30
0.0
 40
1.0
100
AcDbArc
 50
0.0
 51
18.43494882290759
  0
LINE
  5
1ACCB
330
18
100
AcDbEntity
  8
01
100
AcDbLine
 10
2299.105812330533
 20
-657.8020536396685
 30
0.0
 11
2297.240212431464
 21
-663.3988533368757
 31
0.0
  0
ARC
  5
1ACCC
330
18
100
AcDbEntity
  8
01
100
AcDbCircle
 10
2298.157129032482
 20
-657.4858258736518
 30
0.0
 40
1.0
100
AcDbArc
 50
341.5650511770862
 51
0.0
  0
LINE
  5
1ACCD
330
18
100
AcDbEntity
  8
01
100
AcDbLine
 10
2297.240212431464
 20
-642.7663978048421
 30
0.0
 11
2299.105812330533
 21
-648.3631975020518
 31
0.0
  0
SPLINE
  5
1ACCE
330
18
100
AcDbEntity
  8
01
100
AcDbSpline
210
0.0
220
0.0
230
1.0
 70
     8
 71
     3
 72
     9
 73
     5
 74
     0
 42
0.0000000001
 43
0.0000000001
 40
0.0
 40
0.0
 40
0.0
 40
0.0
 40
0.4971336847320229
 40
0.9999999999999999
 40
0.9999999999999999
 40
0.9999999999999999
 40
0.9999999999999999
 10
2276.938037071423
 20
-663.9619788535823
 30
0.0
 10
2276.585642656252
 20
-663.8896315489034
 30
0.0
 10
2275.876790236885
 20
-663.7441026762864
 30
0.0
 10
2275.104071683812
 20
-663.6859720039864
 30
0.0
 10
2274.715497552289
 20
-663.6567400470027
 30
0.0
  0
SPLINE
  5
1ACCF
330
18
100
AcDbEntity
  8
01
100
AcDbSpline
210
0.0
220
0.0
230
1.0
 70
     8
 71
     3
 72
     9
 73
     5
 74
     0
 42
0.0000000001
 43
0.0000000001
 40
0.0
 40
0.0
 40
0.0
 40
0.0
 40
0.5060576294160237
 40
0.9999999999999999
 40
0.9999999999999999
 40
0.9999999999999999
 40
0.9999999999999999
 10
2274.731824628368
 20
-642.5075427710866
 30
0.0
 10
2275.120117461654
 20
-642.4779545400662
 30
0.0
 10
2275.887407214276
 20
-642.4194864342604
 30
0.0
 10
2276.59103829303
 20
-642.2746989639071
 30
0.0
 10
2276.938591496087
 20
-642.2031822975699
 30
0.0
  0
LINE
  5
1ACD0
330
18
100
AcDbEntity
  8
01
100
AcDbLine
 10
2276.938439502689
 20
-642.2032129596863
 30
0.0
 11
2277.393351603804
 21
-642.1015467788021
 31
0.0
  0
LINE
  5
1ACD1
330
18
100
AcDbEntity
  8
01
100
AcDbLine
 10
2277.393274221277
 20
-664.0637049972364
 30
0.0
 11
2276.938402840747
 21
-663.9620532040077
 31
0.0
  0
ARC
  5
1ACD2
330
18
100
AcDbEntity
  8
01
100
AcDbCircle
 10
2277.586564848544
 20
-643.082625570859
 30
0.0
 40
1.000000000000058
100
AcDbArc
 50
89.99999999989578
 51
101.5694500429976
  0
ARC
  5
1ACD3
330
18
100
AcDbEntity
  8
01
100
AcDbCircle
 10
2277.586484332382
 20
-663.0826255708588
 30
0.0
 40
1.0
100
AcDbArc
 50
258.1371694758038
 51
270.0
  0
ARC
  5
1ACD4
330
18
100
AcDbEntity
  8
01
100
AcDbCircle
 10
2296.291529133413
 20
-643.0826255708588
 30
0.0
 40
1.0
100
AcDbArc
 50
18.43494882291377
 51
90.0
  0
ARC
  5
1ACD5
330
18
100
AcDbEntity
  8
01
100
AcDbCircle
 10
2296.291529133413
 20
-663.0826255708588
 30
0.0
 40
1.0
100
AcDbArc
 50
270.0
 51
341.5650511770862
  0
SPLINE
  5
1ACD6
330
18
100
AcDbEntity
  8
01
100
AcDbSpline
210
0.0
220
0.0
230
1.0
 70
     8
 71
     3
 72
    10
 73
     6
 74
     0
 42
0.0000000001
 43
0.0000000001
 40
0.0
 40
0.0
 40
0.0
 40
0.0
 40
0.3343415713576167
 40
0.6676648310217684
 40
0.9999999999999999
 40
0.9999999999999999
 40
0.9999999999999999
 40
0.9999999999999999
 10
2297.422890158311
 20
-657.3184147137207
 30
0.0
 10
2297.383020274269
 20
-657.3169690986027
 30
0.0
 10
2297.303401938791
 20
-657.3140822713095
 30
0.0
 10
2297.18330299912
 20
-657.3111225454539
 30
0.0
 10
2297.103382695571
 20
-657.3100707985874
 30
0.0
 10
2297.063481859886
 20
-657.3095457057506
 30
0.0
  0
SPLINE
  5
1ACD7
330
18
100
AcDbEntity
  8
01
100
AcDbSpline
210
0.0
220
0.0
230
1.0
 70
     8
 71
     3
 72
    10
 73
     6
 74
     0
 42
0.0000000001
 43
0.0000000001
 40
0.0
 40
0.0
 40
0.0
 40
0.0
 40
0.3323351691751165
 40
0.6656584288392461
 40
1.0
 40
1.0
 40
1.0
 40
1.0
 10
2297.063481859886
 20
-648.8557054359673
 30
0.0
 10
2297.103382695593
 20
-648.8551803431302
 30
0.0
 10
2297.183302999164
 20
-648.8541285962636
 30
0.0
 10
2297.30340193883
 20
-648.851168870409
 30
0.0
 10
2297.383020274278
 20
-648.8482820431155
 30
0.0
 10
2297.422890158296
 20
-648.8468364279978
 30
0.0
  0
SPLINE
  5
1ACD8
330
18
100
AcDbEntity
  8
01
100
AcDbSpline
210
0.0
220
0.0
230
1.0
 70
     8
 71
     3
 72
    19
 73
    15
 74
     0
 42
0.0000000001
 43
0.0000000001
 40
0.0
 40
0.0
 40
0.0
 40
0.0
 40
0.0424084333662313
 40
0.0886689639415328
 40
0.1387821038209021
 40
0.1927481509182004
 40
0.2505672382792412
 40
0.3218805652856683
 40
0.5002505393646266
 40
0.6128084937673238
 40
0.7500691770242507
 40
0.8537312650327051
 40
0.9370474150957282
 40
1.0
 40
1.0
 40
1.0
 40
1.0
 10
2297.422890065626
 20
-648.8468352247488
 30
0.0
 10
2297.46307118692
 20
-648.8451873497162
 30
0.0
 10
2297.547083212648
 20
-648.8417419177525
 30
0.0
 10
2297.67662144274
 20
-648.8355233811914
 30
0.0
 10
2297.814444336299
 20
-648.8282852474027
 30
0.0
 10
2297.959023576596
 20
-648.8199369349314
 30
0.0
 10
2298.116921871692
 20
-648.8100333718672
 30
0.0
 10
2298.369012504128
 20
-648.7922557134176
 30
0.0
 10
2298.632165180296
 20
-648.7713594640935
 30
0.0
 10
2298.876801268793
 20
-648.7469725776485
 30
0.0
 10
2299.027647074162
 20
-648.7273029937361
 30
0.0
 10
2299.114528754387
 20
-648.7092255570686
 30
0.0
 10
2299.151789455772
 20
-648.6950694549579
 30
0.0
 10
2299.155522407706
 20
-648.6864199065423
 30
0.0
 10
2299.157129032482
 20
-648.6826972283421
 30
0.0
  0
SPLINE
  5
1ACD9
330
18
100
AcDbEntity
  8
01
100
AcDbSpline
210
0.0
220
0.0
230
1.0
 70
     8
 71
     3
 72
     8
 73
     4
 74
     0
 42
0.0000000001
 43
0.0000000001
 40
0.0
 40
0.0
 40
0.0
 40
0.0
 40
1.0
 40
1.0
 40
1.0
 40
1.0
 10
2298.323207023966
 20
-658.4807015544835
 30
0.0
 10
2291.832155582396
 20
-660.3413446573369
 30
0.0
 10
2285.344598298837
 20
-662.2017675607359
 30
0.0
 10
2278.862344636927
 20
-664.0618544914281
 30
0.0
  0
SPLINE
  5
1ACDA
330
18
100
AcDbEntity
  8
01
100
AcDbSpline
210
0.0
220
0.0
230
1.0
 70
     8
 71
     3
 72
     8
 73
     4
 74
     0
 42
0.0000000001
 43
0.0000000001
 40
0.0
 40
0.0
 40
0.0
 40
0.0
 40
1.0
 40
1.0
 40
1.0
 40
1.0
 10
2298.316842696079
 20
-658.4673226753424
 30
0.0
 10
2298.319005274875
 20
-658.4720130677762
 30
0.0
 10
2298.321127984599
 20
-658.4764725680933
 30
0.0
 10
2298.323207023966
 20
-658.4807015544835
 30
0.0
  0
SPLINE
  5
1ACDB
330
18
100
AcDbEntity
  8
01
100
AcDbSpline
210
0.0
220
0.0
230
1.0
 70
     8
 71
     3
 72
     8
 73
     4
 74
     0
 42
0.0000000001
 43
0.0000000001
 40
0.0
 40
0.0
 40
0.0
 40
0.0
 40
1.0
 40
1.0
 40
1.0
 40
1.0
 10
2298.323207024146
 20
-647.684549587245
 30
0.0
 10
2298.321127984732
 20
-647.6887785736352
 30
0.0
 10
2298.319005274944
 20
-647.69323807395
 30
0.0
 10
2298.316842696081
 20
-647.6979284663797
 30
0.0
  0
SPLINE
  5
1ACDC
330
18
100
AcDbEntity
  8
01
100
AcDbSpline
210
0.0
220
0.0
230
1.0
 70
     8
 71
     3
 72
     8
 73
     4
 74
     0
 42
0.0000000001
 43
0.0000000001
 40
0.0
 40
0.0
 40
0.0
 40
0.0
 40
1.0
 40
1.0
 40
1.0
 40
1.0
 10
2278.862344636974
 20
-642.1033966502927
 30
0.0
 10
2285.344598299557
 20
-643.9634835810278
 30
0.0
 10
2291.832155585346
 20
-645.8239064845715
 30
0.0
 10
2298.323207024146
 20
-647.684549587245
 30
0.0
  0
SPLINE
  5
1ACDD
330
18
100
AcDbEntity
  8
01
100
AcDbSpline
210
0.0
220
0.0
230
1.0
 70
     8
 71
     3
 72
    10
 73
     6
 74
     0
 42
0.0000000001
 43
0.0000000001
 40
0.0
 40
0.0
 40
0.0
 40
0.0
 40
0.5
 40
0.5
 40
1.0
 40
1.0
 40
1.0
 40
1.0
 10
2167.181678303944
 20
-657.4524393470591
 30
0.0
 10
2167.181350012309
 20
-657.4674598886501
 30
0.0
 10
2167.236427735947
 20
-657.4856091542441
 30
0.0
 10
2167.423338558484
 20
-657.5178793228578
 30
0.0
 10
2167.555805673034
 20
-657.5320495046152
 30
0.0
 10
2167.688320959992
 20
-657.5398612267319
 30
0.0
  0
SPLINE
  5
1ACDE
330
18
100
AcDbEntity
  8
01
100
AcDbSpline
210
0.0
220
0.0
230
1.0
 70
     8
 71
     3
 72
    16
 73
    12
 74
     0
 42
0.0000000001
 43
0.0000000001
 40
0.0
 40
0.0
 40
0.0
 40
0.0
 40
0.0786888963696355
 40
0.1564566302556064
 40
0.2345339740335824
 40
0.3141309596038094
 40
0.4548534519938955
 40
0.5585179707417066
 40
0.6632215900757792
 40
0.8323892133719423
 40
1.0
 40
1.0
 40
1.0
 40
1.0
 10
2167.181678305417
 20
-648.7036641128442
 30
0.0
 10
2167.182350757094
 20
-648.7012723891372
 30
0.0
 10
2167.183687788468
 20
-648.6965169401609
 30
0.0
 10
2167.195449526426
 20
-648.6889126050947
 30
0.0
 10
2167.214421808366
 20
-648.6810680175519
 30
0.0
 10
2167.247598159663
 20
-648.6709750137703
 30
0.0
 10
2167.296338601121
 20
-648.6599847394001
 30
0.0
 10
2167.362735743437
 20
-648.6486534137033
 30
0.0
 10
2167.445351361551
 20
-648.6372857175728
 30
0.0
 10
2167.554363583625
 20
-648.6252898533916
 30
0.0
 10
2167.643806452284
 20
-648.6192487867316
 30
0.0
 10
2167.688321151364
 20
-648.6162422165206
 30
0.0
  0
SPLINE
  5
1ACDF
330
18
100
AcDbEntity
  8
01
100
AcDbSpline
210
0.0
220
0.0
230
1.0
 70
     8
 71
     3
 72
    21
 73
    17
 74
     0
 42
0.0000000001
 43
0.0000000001
 40
0.0
 40
0.0
 40
0.0
 40
0.0
 40
0.0543026746903798
 40
0.1089515020728126
 40
0.1639470580616293
 40
0.2192899076506203
 40
0.2749806051673976
 40
0.3310196945209795
 40
0.3874077094427233
 40
0.4441451737208603
 40
0.501232601428756
 40
0.5866890531856455
 40
0.6792957212739271
 40
0.7790511301746228
 40
0.8859533378763902
 40
0.9999999999999999
 40
0.9999999999999999
 40
0.9999999999999999
 40
0.9999999999999999
 10
2167.670781188629
 20
-654.7140243240514
 30
0.0
 10
2167.629499808197
 20
-654.7137727802195
 30
0.0
 10
2167.546673898946
 20
-654.7132680890883
 30
0.0
 10
2167.423507467581
 20
-654.7130293665788
 30
0.0
 10
2167.301743935418
 20
-654.7131656885382
 30
0.0
 10
2167.182332250616
 20
-654.7137151717358
 30
0.0
 10
2167.066176026138
 20
-654.7146674653799
 30
0.0
 10
2166.954197381669
 20
-654.7160255214282
 30
0.0
 10
2166.847310802382
 20
-654.7177879685086
 30
0.0
 10
2166.746418130996
 20
-654.7199573362053
 30
0.0
 10
2166.637027671765
 20
-654.7229448479007
 30
0.0
 10
2166.522034011646
 20
-654.7271755771534
 30
0.0
 10
2166.409274767405
 20
-654.733020482404
 30
0.0
 10
2166.318082728142
 20
-654.7400984212248
 30
0.0
 10
2166.253798819504
 20
-654.7483676696967
 30
0.0
 10
2166.245368187639
 20
-654.754599382814
 30
0.0
 10
2166.241016568077
 20
-654.7578159916201
 30
0.0
  0
SPLINE
  5
1ACE0
330
18
100
AcDbEntity
  8
01
100
AcDbSpline
210
0.0
220
0.0
230
1.0
 70
     8
 71
     3
 72
    23
 73
    19
 74
     0
 42
0.0000000001
 43
0.0000000001
 40
0.0
 40
0.0
 40
0.0
 40
0.0
 40
0.0528182523272466
 40
0.1041556312968589
 40
0.154012137786094
 40
0.2023877805948915
 40
0.2492825772105166
 40
0.2946965546967934
 40
0.3386297507331105
 40
0.3810822148345328
 40
0.4220540097921852
 40
0.4615452133835036
 40
0.4995559204152067
 40
0.6018854951636194
 40
0.7030916251542205
 40
0.8031773224853901
 40
0.9021457048440085
 40
0.9999999999999999
 40
0.9999999999999999
 40
0.9999999999999999
 40
0.9999999999999999
 10
2166.241016568077
 20
-651.3982874009088
 30
0.0
 10
2166.241948797101
 20
-651.399789278384
 30
0.0
 10
2166.243787118098
 20
-651.4027509249678
 30
0.0
 10
2166.258309425178
 20
-651.4069690693294
 30
0.0
 10
2166.280434360778
 20
-651.4109411465432
 30
0.0
 10
2166.310112672439
 20
-651.4146565407062
 30
0.0
 10
2166.346249947687
 20
-651.4181179851493
 30
0.0
 10
2166.388034764287
 20
-651.421324805557
 30
0.0
 10
2166.434611047785
 20
-651.4242771631438
 30
0.0
 10
2166.485173131324
 20
-651.4269751456042
 30
0.0
 10
2166.538947359909
 20
-651.4294183761568
 30
0.0
 10
2166.59521223623
 20
-651.4316083199345
 30
0.0
 10
2166.68676481493
 20
-651.4346544805882
 30
0.0
 10
2166.824225809555
 20
-651.4380606742862
 30
0.0
 10
2167.018822003417
 20
-651.4410939489177
 30
0.0
 10
2167.228191196339
 20
-651.4427884078956
 30
0.0
 10
2167.446810981967
 20
-651.4432715165316
 30
0.0
 10
2167.596406708296
 20
-651.4424750483969
 30
0.0
 10
2167.670781188629
 20
-651.4420790684775
 30
0.0
  0
LINE
  5
1ACE1
330
18
100
AcDbEntity
  8
01
100
AcDbLine
 10
2166.241016568077
 20
-649.6984816596845
 30
0.0
 11
2166.241016568077
 21
-656.4605664673994
 31
0.0
  0
ARC
  5
1ACE2
330
18
100
AcDbEntity
  8
01
100
AcDbCircle
 10
2167.237388435934
 20
-656.4576218003136
 30
0.0
 40
0.9963762191656275
100
AcDbArc
 50
180.1693308596015
 51
266.7947640101249
  0
ARC
  5
1ACE3
330
18
100
AcDbEntity
  8
01
100
AcDbCircle
 10
2167.237388435947
 20
-649.6984816596845
 30
0.0
 40
0.9963762191788412
100
AcDbArc
 50
93.20523590574192
 51
179.830669140112
  0
SPLINE
  5
1ACE5
330
18
100
AcDbEntity
  8
01
100
AcDbSpline
210
0.0
220
0.0
230
1.0
 70
    24
 71
     3
 72
    18
 73
    14
 74
     0
 42
0.0000000001
 43
0.0000000001
 40
0.0
 40
0.0
 40
0.0
 40
0.0
 40
0.0839597436665112
 40
0.1667230443678697
 40
0.2492037561948338
 40
0.3323250542961265
 40
0.4169891616065288
 40
0.5040503494536523
 40
0.5942948411753061
 40
0.6884291316167205
 40
0.7870761765890856
 40
0.8907776366593899
 40
0.9999999999999999
 40
0.9999999999999999
 40
0.9999999999999999
 40
0.9999999999999999
 10
2278.691051100502
 20
-642.0826255708588
 30
0.0
 10
2278.671069378935
 20
-642.0826255708588
 30
0.0
 10
2278.631390679292
 20
-642.0826255708588
 30
0.0
 10
2278.561002000583
 20
-642.0826255708588
 30
0.0
 10
2278.483433647328
 20
-642.0826255708588
 30
0.0
 10
2278.397915231587
 20
-642.0826255708588
 30
0.0
 10
2278.304698496787
 20
-642.0826255708588
 30
0.0
 10
2278.203760295112
 20
-642.0826255708588
 30
0.0
 10
2278.095144072692
 20
-642.0826255708588
 30
0.0
 10
2277.978863129482
 20
-642.0826255708588
 30
0.0
 10
2277.854923381666
 20
-642.0826255708588
 30
0.0
 10
2277.723336367711
 20
-642.0826255708588
 30
0.0
 10
2277.632936679644
 20
-642.0826255708588
 30
0.0
 10
2277.586564848546
 20
-642.0826255708588
 30
0.0
  0
SPLINE
  5
1ACE6
330
18
100
AcDbEntity
  8
01
100
AcDbSpline
210
0.0
220
0.0
230
1.0
 70
    24
 71
     3
 72
    17
 73
    13
 74
     0
 42
0.0000000001
 43
0.0000000001
 40
0.0
 40
0.0
 40
0.0
 40
0.0
 40
0.119840269243393
 40
0.2330526218349997
 40
0.3402725498500652
 40
0.4422476384012315
 40
0.5398460704773309
 40
0.6340571034811102
 40
0.7259794243438825
 40
0.8167948247074236
 40
0.9077282638308446
 40
1.0
 40
1.0
 40
1.0
 40
1.0
 10
2277.586484332382
 20
-664.0826255708588
 30
0.0
 10
2277.637364438339
 20
-664.0826255708588
 30
0.0
 10
2277.736310662071
 20
-664.0826255708588
 30
0.0
 10
2277.879879690691
 20
-664.0826255708588
 30
0.0
 10
2278.014210386026
 20
-664.0826255708588
 30
0.0
 10
2278.139284761633
 20
-664.0826255708588
 30
0.0
 10
2278.255094618632
 20
-664.0826255708588
 30
0.0
 10
2278.36158393765
 20
-664.0826255708588
 30
0.0
 10
2278.458772550725
 20
-664.0826255708588
 30
0.0
 10
2278.546339267773
 20
-664.0826255708588
 30
0.0
 10
2278.625200852887
 20
-664.0826255708588
 30
0.0
 10
2278.668994382056
 20
-664.0826255708588
 30
0.0
 10
2278.691051100504
 20
-664.0826255708588
 30
0.0
  0
LINE
  5
1ACE7
330
18
100
AcDbEntity
  8
01
100
AcDbLine
 10
2296.291529133413
 20
-664.0826255708588
 30
0.0
 11
2278.691051100504
 21
-664.0826255708588
 31
0.0
  0
ARC
  5
1ACE8
330
18
100
AcDbEntity
  8
01
100
AcDbCircle
 10
2296.291245697858
 20
-642.8016554407028
 30
0.0
 40
0.7190299257078011
100
AcDbArc
 50
76.19471337848836
 51
89.97741448450789
  0
LINE
  5
1ACE9
330
18
100
AcDbEntity
  8
01
100
AcDbLine
 10
2296.291529133413
 20
-642.0826255708588
 30
0.0
 11
2278.691051100502
 21
-642.0826255708588
 31
0.0
  0
SPLINE
  5
1ACEA
330
18
100
AcDbEntity
  8
01
100
AcDbSpline
210
0.0
220
0.0
230
1.0
 70
     8
 71
     3
 72
    10
 73
     6
 74
     0
 42
0.0000000001
 43
0.0000000001
 40
0.0
 40
0.0
 40
0.0
 40
0.0
 40
0.3467292126223085
 40
0.7381714902233174
 40
1.0
 40
1.0
 40
1.0
 40
1.0
 10
2275.487424388392
 20
-663.7304674518126
 30
0.0
 10
2275.557605033739
 20
-663.8017362152035
 30
0.0
 10
2275.707016590865
 20
-663.9534643285648
 30
0.0
 10
2275.982707681288
 20
-664.0644593797784
 30
0.0
 10
2276.169664911477
 20
-664.0774278543339
 30
0.0
 10
2276.244596676249
 20
-664.0826255708588
 30
0.0
  0
LINE
  5
1ACEB
330
18
100
AcDbEntity
  8
01
100
AcDbLine
 10
2277.489266138965
 20
-664.0826255708588
 30
0.0
 11
2276.244596676249
 21
-664.0826255708588
 31
0.0
  0
SPLINE
  5
1ACEC
330
18
100
AcDbEntity
  8
01
100
AcDbSpline
210
0.0
220
0.0
230
1.0
 70
     8
 71
     3
 72
    10
 73
     6
 74
     0
 42
0.0000000001
 43
0.0000000001
 40
0.0
 40
0.0
 40
0.0
 40
0.0
 40
0.3465002606936584
 40
0.7380791582456137
 40
1.0
 40
1.0
 40
1.0
 40
1.0
 10
2275.487648554578
 20
-642.4345840329771
 30
0.0
 10
2275.557760379163
 20
-642.3633896667421
 30
0.0
 10
2275.707105364846
 20
-642.211738762361
 30
0.0
 10
2275.9827090141
 20
-642.1007934304151
 30
0.0
 10
2276.169665743165
 20
-642.087823772829
 30
0.0
 10
2276.244597469841
 20
-642.0826255708588
 30
0.0
  0
LINE
  5
1ACED
330
18
100
AcDbEntity
  8
01
100
AcDbLine
 10
2277.489346655128
 20
-642.0826255708588
 30
0.0
 11
2276.244597469841
 21
-642.0826255708588
 31
0.0
  0
SPLINE
  5
1ACEE
330
18
100
AcDbEntity
  8
01
100
AcDbSpline
210
0.0
220
0.0
230
1.0
 70
     8
 71
     3
 72
    25
 73
    21
 74
     0
 42
0.0000000001
 43
0.0000000001
 40
0.0
 40
0.0
 40
0.0
 40
0.0
 40
0.1275162504934405
 40
0.2820472593569216
 40
0.282166234814581
 40
0.28226285145005
 40
0.2824422449791314
 40
0.2827844777606477
 40
0.2834654010868402
 40
0.2849038909289052
 40
0.2881823005716541
 40
0.2962995820095712
 40
0.3180103346272334
 40
0.3797758007695785
 40
0.5630581963624083
 40
0.6230334448296416
 40
0.6899303875311185
 40
0.763747743545052
 40
0.8444840918070824
 40
1.0
 40
1.0
 40
1.0
 40
1.0
 10
2297.422890158311
 20
-657.3184147137207
 30
0.0
 10
2297.529836046207
 20
-657.3231033447663
 30
0.0
 10
2297.766384677953
 20
-657.3334739095484
 30
0.0
 10
2297.989199988541
 20
-657.3470110658499
 30
0.0
 10
2298.105063769562
 20
-657.3546409408704
 30
0.0
 10
2298.105359484775
 20
-657.3546604467664
 30
0.0
 10
2298.105822300799
 20
-657.3546910184679
 30
0.0
 10
2298.106722359828
 20
-657.3547506223366
 30
0.0
 10
2298.108564130797
 20
-657.3548730569051
 30
0.0
 10
2298.112599695406
 20
-657.355142803409
 30
0.0
 10
2298.122179062945
 20
-657.3557877366208
 30
0.0
 10
2298.146790651746
 20
-657.3574604122697
 30
0.0
 10
2298.214159968548
 20
-657.3621094718848
 30
0.0
 10
2298.404125669086
 20
-657.3756829819037
 30
0.0
 10
2298.59868277737
 20
-657.3913601260421
 30
0.0
 10
2298.764492545763
 20
-657.4071104948865
 30
0.0
 10
2298.860944674539
 20
-657.4171747273152
 30
0.0
 10
2298.952439822314
 20
-657.4282067719356
 30
0.0
 10
2299.060275355575
 20
-657.4434704056442
 30
0.0
 10
2299.101584874191
 20
-657.4553064597393
 30
0.0
 10
2299.128777364966
 20
-657.4630976856503
 30
0.0
  0
LINE
  5
1ACEF
330
18
100
AcDbEntity
  8
1CENTER
100
AcDbLine
 10
2286.240979705323
 20
-666.1772732533515
 30
0.0
 11
2286.240979705323
 21
-639.9879778883688
 31
0.0
  0
LINE
  5
1ACF0
330
18
100
AcDbEntity
  8
01
100
AcDbLine
 10
2274.731824628368
 20
-642.5075427710866
 30
0.0
 11
2167.688321151364
 21
-648.6162422165206
 31
0.0
  0
LINE
  5
1ACF1
330
18
100
AcDbEntity
  8
01
100
AcDbLine
 10
2167.691679078115
 20
-657.5420646490828
 30
0.0
 11
2274.715497552289
 21
-663.6567400470027
 31
0.0
  0
LINE
  5
1ACF2
330
18
100
AcDbEntity
  8
01
100
AcDbLine
 10
2167.670781188629
 20
-651.4420790684775
 30
0.0
 11
2297.063481859886
 21
-648.8557054359673
 31
0.0
  0
LINE
  5
1ACF3
330
18
100
AcDbEntity
  8
01
100
AcDbLine
 10
2297.063481859887
 20
-657.3095457057506
 30
0.0
 11
2167.670781188629
 21
-654.7140243240514
 31
0.0
  0
TEXT
  5
1AF5A
330
18
100
AcDbEntity
  8
1TEXT
100
AcDbText
 10
2281.928614758707
 20
-425.6144609024516
 30
0.0
 40
6.0
  1
表面処理
 72
     1
 11
2295.828614758707
 21
-425.6144609024516
 31
0.0
100
AcDbText
  0
TEXT
  5
1AF5B
330
18
100
AcDbEntity
  8
1TEXT
100
AcDbText
 10
2276.308614758707
 20
-435.8673938917384
 30
0.0
 40
6.0
  1
マットブラック
 41
0.8000000000000002
 72
     1
 11
2295.828614758707
 21
-435.8673938917384
 31
0.0
100
AcDbText
  0
LINE
  5
1AF5C
330
18
100
AcDbEntity
  8
1DIM
100
AcDbLine
 10
2269.728614758705
 20
-417.3644609024516
 30
0.0
 11
2374.728614758705
 21
-417.3644609024516
 31
0.0
  0
LINE
  5
1AF5D
330
18
100
AcDbEntity
  8
1DIM
100
AcDbLine
 10
2269.728614758705
 20
-427.8644609024516
 30
0.0
 11
2374.728614758705
 21
-427.8644609024516
 31
0.0
  0
LINE
  5
1AF5E
330
18
100
AcDbEntity
  8
1DIM
100
AcDbLine
 10
2269.728614758705
 20
-438.3644609024516
 30
0.0
 11
2374.728614758705
 21
-438.3644609024516
 31
0.0
  0
LINE
  5
1AF5F
330
18
100
AcDbEntity
  8
1DIM
100
AcDbLine
 10
2269.728614758705
 20
-438.3644609024516
 30
0.0
 11
2374.728614758705
 21
-438.3644609024516
 31
0.0
  0
LINE
  5
1AF60
330
18
100
AcDbEntity
  8
1DIM
100
AcDbLine
 10
2322.228614758705
 20
-417.3644609024516
 30
0.0
 11
2322.228614758705
 21
-438.3644609024516
 31
0.0
  0
TEXT
  5
1AF61
330
18
100
AcDbEntity
  8
1TEXT
100
AcDbText
 10
2324.316114758707
 20
-436.4359963779254
 30
0.0
 40
6.0
  1
2-GZT-003-LJ-8
 41
0.6
 72
     1
 11
2348.328614758707
 21
-436.4359963779254
 31
0.0
100
AcDbText
  0
TEXT
  5
1AF62
330
18
100
AcDbEntity
  8
1TEXT
100
AcDbText
 10
2338.028614758707
 20
-425.6144609024516
 30
0.0
 40
6.0
  1
コード
 72
     1
 11
2348.328614758707
 21
-425.6144609024516
 31
0.0
100
AcDbText
  0
LINE
  5
1AF63
330
18
100
AcDbEntity
  8
1DIM
100
AcDbLine
 10
2269.728614758705
 20
-438.3644609024516
 30
0.0
 11
2269.728614758705
 21
-417.3644609024516
 31
0.0
  0
LINE
  5
1AF64
330
18
100
AcDbEntity
  8
1DIM
100
AcDbLine
 10
2374.728614758705
 20
-438.3644609024516
 30
0.0
 11
2374.728614758705
 21
-417.3644609024516
 31
0.0
  0
TEXT
  5
1AF65
330
18
100
AcDbEntity
  8
1TEXT
100
AcDbText
 10
2279.188614758707
 20
-446.3673938917384
 30
0.0
 40
6.0
  1
マットグレー
 41
0.8000000000000002
 72
     1
 11
2295.828614758707
 21
-446.3673938917384
 31
0.0
100
AcDbText
  0
LINE
  5
1AF66
330
18
100
AcDbEntity
  8
1DIM
100
AcDbLine
 10
2269.728614758705
 20
-438.3644609024516
 30
0.0
 11
2374.728614758705
 21
-438.3644609024516
 31
0.0
  0
LINE
  5
1AF67
330
18
100
AcDbEntity
  8
1DIM
100
AcDbLine
 10
2269.728614758705
 20
-448.8644609024516
 30
0.0
 11
2374.728614758705
 21
-448.8644609024516
 31
0.0
  0
LINE
  5
1AF68
330
18
100
AcDbEntity
  8
1DIM
100
AcDbLine
 10
2269.728614758705
 20
-448.8644609024516
 30
0.0
 11
2374.728614758705
 21
-448.8644609024516
 31
0.0
  0
LINE
  5
1AF69
330
18
100
AcDbEntity
  8
1DIM
100
AcDbLine
 10
2322.228614758705
 20
-438.3644609024516
 30
0.0
 11
2322.228614758705
 21
-448.8644609024516
 31
0.0
  0
TEXT
  5
1AF6A
330
18
100
AcDbEntity
  8
1TEXT
100
AcDbText
 10
2323.991114758707
 20
-446.9359963779254
 30
0.0
 40
6.0
  1
2-GZT-065-LJ-8
 41
0.6
 72
     1
 11
2348.328614758707
 21
-446.9359963779254
 31
0.0
100
AcDbText
  0
LINE
  5
1AF6B
330
18
100
AcDbEntity
  8
1DIM
100
AcDbLine
 10
2269.728614758705
 20
-448.8644609024516
 30
0.0
 11
2269.728614758705
 21
-438.3644609024516
 31
0.0
  0
LINE
  5
1AF6C
330
18
100
AcDbEntity
  8
1DIM
100
AcDbLine
 10
2374.728614758705
 20
-448.8644609024516
 30
0.0
 11
2374.728614758705
 21
-438.3644609024516
 31
0.0
  0
LINE
  5
1B205
330
18
100
AcDbEntity
  8
01
100
AcDbLine
 10
2273.240859365575
 20
-603.0839438839629
 30
0.0
 11
2299.240859365575
 21
-603.0839438839629
 31
0.0
  0
LINE
  5
1B206
330
18
100
AcDbEntity
  8
01
100
AcDbLine
 10
2308.740859365575
 20
-597.5839438839629
 30
0.0
 11
2263.740859365575
 21
-597.5839438839629
 31
0.0
  0
LINE
  5
1B207
330
18
100
AcDbEntity
  8
01
100
AcDbLine
 10
2286.240859365575
 20
-575.0839438839629
 30
0.0
 11
2286.240859365575
 21
-620.0839438839629
 31
0.0
  0
LINE
  5
1B217
330
18
100
AcDbEntity
  8
1CENTER
100
AcDbLine
 10
2626.240759247039
 20
-337.7473132223582
 30
0.0
 11
2626.240759247039
 21
-382.0340569364795
 31
0.0
  0
LINE
  5
1B218
330
18
100
AcDbEntity
  8
01
100
AcDbLine
 10
2606.740747025832
 20
-356.7839438849918
 30
0.0
 11
2645.740747025832
 21
-356.7839438849916
 31
0.0
  0
LINE
  5
1B219
330
18
100
AcDbEntity
  8
01
100
AcDbLine
 10
2646.240747025832
 20
-363.0839438849918
 30
0.0
 11
2606.240747025832
 21
-363.0839438849922
 31
0.0
  0
LINE
  5
1B21A
330
18
100
AcDbEntity
  8
01
100
AcDbLine
 10
2646.240747025832
 20
-363.0839438849918
 30
0.0
 11
2646.240747025832
 21
-357.2839438849916
 31
0.0
  0
ARC
  5
1B21B
330
18
100
AcDbEntity
  8
01
100
AcDbCircle
 10
2645.740747025832
 20
-357.2839438849918
 30
0.0
 40
0.5
100
AcDbArc
 50
0.0
 51
90.0
  0
LINE
  5
1B21C
330
18
100
AcDbEntity
  8
01
100
AcDbLine
 10
2606.240747025832
 20
-363.0839438849922
 30
0.0
 11
2606.240747025832
 21
-357.2839438849918
 31
0.0
  0
ARC
  5
1B21D
330
18
100
AcDbEntity
  8
01
100
AcDbCircle
 10
2606.740747025832
 20
-357.2839438849918
 30
0.0
 40
0.5
100
AcDbArc
 50
90.0
 51
180.0
  0
LINE
  5
1B21E
330
18
100
AcDbEntity
  8
01
100
AcDbLine
 10
2622.740759247045
 20
-355.5839472181921
 30
0.0000000000000173
 11
2616.990759247039
 21
-355.5839472181912
 31
0.0000000000000173
  0
LINE
  5
1B21F
330
18
100
AcDbEntity
  8
01
100
AcDbLine
 10
2623.740759247047
 20
-342.0839242739854
 30
0.0000000000000173
 11
2623.740759247045
 21
-354.5839472181921
 31
0.0000000000000173
  0
LINE
  5
1B220
330
18
100
AcDbEntity
  8
01
100
AcDbLine
 10
2628.740759247047
 20
-342.0839242739872
 30
0.0000000000000173
 11
2628.740759247047
 21
-354.5839472181902
 31
0.0000000000000173
  0
ARC
  5
1B221
330
18
100
AcDbEntity
  8
01
100
AcDbCircle
 10
2627.740759247048
 20
-342.0839242739854
 30
0.0000000000000173
 40
1.0
100
AcDbArc
 50
0.0000000000521102
 51
90.0
  0
ARC
  5
1B222
330
18
100
AcDbEntity
  8
01
100
AcDbCircle
 10
2624.740759247048
 20
-342.0839242739854
 30
0.0000000000000173
 40
1.0
100
AcDbArc
 50
90.0
 51
180.0
  0
LINE
  5
1B223
330
18
100
AcDbEntity
  8
01
100
AcDbLine
 10
2627.740759247047
 20
-341.0839242739836
 30
0.0000000000000173
 11
2624.740759247048
 21
-341.0839242739836
 31
0.0000000000000173
  0
LINE
  5
1B224
330
18
100
AcDbEntity
  8
01
100
AcDbLine
 10
2635.490759247039
 20
-355.5839472181902
 30
0.0000000000000173
 11
2629.740759247047
 21
-355.5839472181902
 31
0.0000000000000173
  0
ARC
  5
1B225
330
18
100
AcDbEntity
  8
01
100
AcDbCircle
 10
2629.740759247048
 20
-354.5839472181902
 30
0.0000000000000173
 40
1.0
100
AcDbArc
 50
180.0
 51
270.0
  0
ARC
  5
1B226
330
18
100
AcDbEntity
  8
01
100
AcDbCircle
 10
2622.740759247046
 20
-354.5839472181921
 30
0.0000000000000173
 40
1.0
100
AcDbArc
 50
270.0
 51
0.0
  0
LINE
  5
1B227
330
18
100
AcDbEntity
  8
01
100
AcDbLine
 10
2616.490759247039
 20
-356.0839472181907
 30
0.0000000000562748
 11
2616.490759247039
 21
-356.7839438849916
 31
0.0000000000562526
  0
ARC
  5
1B228
330
18
100
AcDbEntity
  8
01
100
AcDbCircle
 10
2616.990759247039
 20
-356.0839472181907
 30
0.0000000000562748
 40
0.5
100
AcDbArc
 50
90.0
 51
180.0
  0
LINE
  5
1B229
330
18
100
AcDbEntity
  8
01
100
AcDbLine
 10
2635.990759247039
 20
-356.0839472181907
 30
0.0000000000562748
 11
2635.990759247039
 21
-356.7839438849916
 31
0.0000000000562526
  0
ARC
  5
1B22A
330
18
100
AcDbEntity
  8
01
100
AcDbCircle
 10
2635.490759247039
 20
-356.0839472181907
 30
0.0000000000562748
 40
0.5
100
AcDbArc
 50
0.0
 51
90.0
  0
LINE
  5
1B22B
330
18
100
AcDbEntity
  8
1CENTER
100
AcDbLine
 10
2626.240734672419
 20
-411.908560273046
 30
0.0
 11
2626.240734672419
 21
-399.908560273046
 31
0.0
  0
LINE
  5
1B22C
330
18
100
AcDbEntity
  8
01
100
AcDbLine
 10
2645.740746893626
 20
-409.3839438849949
 30
0.0
 11
2606.740746893626
 21
-409.3839438849897
 31
0.0
  0
LINE
  5
1B22D
330
18
100
AcDbEntity
  8
01
100
AcDbLine
 10
2606.240746893626
 20
-403.0839438849893
 30
0.0
 11
2646.240746893626
 21
-403.0839438849947
 31
0.0
  0
LINE
  5
1B22E
330
18
100
AcDbEntity
  8
01
100
AcDbLine
 10
2606.240746893626
 20
-403.0839438849893
 30
0.0
 11
2606.240746893626
 21
-408.8839438849894
 31
0.0
  0
ARC
  5
1B22F
330
18
100
AcDbEntity
  8
01
100
AcDbCircle
 10
2606.740746893626
 20
-408.8839438849892
 30
0.0
 40
0.5
100
AcDbArc
 50
179.9999999999739
 51
270.0
  0
LINE
  5
1B230
330
18
100
AcDbEntity
  8
01
100
AcDbLine
 10
2646.240746893626
 20
-403.0839438849947
 30
0.0
 11
2646.240746893626
 21
-408.8839438849949
 31
0.0
  0
ARC
  5
1B231
330
18
100
AcDbEntity
  8
01
100
AcDbCircle
 10
2645.740746893626
 20
-408.8839438849949
 30
0.0
 40
0.5
100
AcDbArc
 50
270.0
 51
0.0
  0
ARC
  5
1B232
330
18
100
AcDbEntity
  8
01
100
AcDbCircle
 10
2626.240737351481
 20
-405.2339492628672
 30
-0.0000000000001137
 40
6.0
100
AcDbArc
 50
234.3146660000064
 51
256.8165180000062
  0
LINE
  5
1B233
330
18
100
AcDbEntity
  8
01
100
AcDbLine
 10
2622.740737351481
 20
-410.1073492628674
 30
-0.0000000000001137
 11
2622.74073735148
 21
-409.3839438849919
 31
-0.0000000000001137
  0
LINE
  5
1B234
330
18
100
AcDbEntity
  8
01
100
AcDbLine
 10
2629.740737351481
 20
-410.1073492628674
 30
-0.0000000000001137
 11
2629.740737351481
 21
-409.3839438849928
 31
-0.0000000000001137
  0
LINE
  5
1B235
330
18
100
AcDbEntity
  8
01
100
AcDbLine
 10
2627.240737351481
 20
-410.7844977222697
 30
-0.0000000000001137
 11
2627.240737351481
 21
-409.3839438849924
 31
-0.0000000000001137
  0
ARC
  5
1B236
330
18
100
AcDbEntity
  8
01
100
AcDbCircle
 10
2624.940734351481
 20
-410.7837192628673
 30
-0.0000000000001137
 40
0.30000001
100
AcDbArc
 50
256.8165179999368
 51
0.0
  0
ARC
  5
1B237
330
18
100
AcDbEntity
  8
01
100
AcDbCircle
 10
2627.540736351481
 20
-410.7837192628673
 30
-0.0000000000001137
 40
0.30000001
100
AcDbArc
 50
179.999996999972
 51
283.1834799999916
  0
LINE
  5
1B238
330
18
100
AcDbEntity
  8
01
100
AcDbLine
 10
2625.240737351481
 20
-410.7837192628673
 30
-0.0000000000001137
 11
2625.240737351481
 21
-409.3839438849922
 31
-0.0000000000001137
  0
ARC
  5
1B239
330
18
100
AcDbEntity
  8
01
100
AcDbCircle
 10
2626.240737351481
 20
-405.2339492628672
 30
-0.0000000000001137
 40
6.0
100
AcDbArc
 50
283.183482503361
 51
305.6853300000029
  0
LINE
  5
1B23A
330
18
100
AcDbEntity
  8
1CENTER
100
AcDbLine
 10
2286.240859365575
 20
-609.0839438839629
 30
0.0
 11
2286.240859365575
 21
-597.0839438839629
 31
0.0
  0
LINE
  5
1B23B
330
18
100
AcDbEntity
  8
1CENTER
100
AcDbLine
 10
2280.240859365575
 20
-603.0839438839629
 30
0.0
 11
2292.240859365575
 21
-603.0839438839629
 31
0.0
  0
LINE
  5
1B23C
330
18
100
AcDbEntity
  8
01
100
AcDbLine
 10
2305.740859365574
 20
-577.5839438839629
 30
0.0
 11
2266.740859365574
 21
-577.5839438839631
 31
0.0
  0
ARC
  5
1B23D
330
18
100
AcDbEntity
  8
01
100
AcDbCircle
 10
2266.740859365574
 20
-578.0839438839631
 30
0.0
 40
0.5
100
AcDbArc
 50
90.0
 51
180.0
  0
LINE
  5
1B23E
330
18
100
AcDbEntity
  8
01
100
AcDbLine
 10
2305.740859365574
 20
-617.5839438839629
 30
0.0
 11
2266.740859365574
 21
-617.5839438839633
 31
0.0
  0
ARC
  5
1B23F
330
18
100
AcDbEntity
  8
01
100
AcDbCircle
 10
2305.740859365574
 20
-617.0839438839629
 30
0.0
 40
0.5
100
AcDbArc
 50
270.0
 51
0.0
  0
LINE
  5
1B240
330
18
100
AcDbEntity
  8
01
100
AcDbLine
 10
2306.240859365574
 20
-617.0839438839629
 30
0.0
 11
2306.240859365574
 21
-578.0839438839629
 31
0.0
  0
ARC
  5
1B241
330
18
100
AcDbEntity
  8
01
100
AcDbCircle
 10
2305.740859365574
 20
-578.0839438839629
 30
0.0
 40
0.5
100
AcDbArc
 50
0.0
 51
90.0
  0
LINE
  5
1B242
330
18
100
AcDbEntity
  8
01
100
AcDbLine
 10
2266.240859365574
 20
-617.0839438839633
 30
0.0
 11
2266.240859365574
 21
-578.0839438839631
 31
0.0
  0
ARC
  5
1B243
330
18
100
AcDbEntity
  8
01
100
AcDbCircle
 10
2266.740859365574
 20
-617.0839438839633
 30
0.0
 40
0.5
100
AcDbArc
 50
180.0
 51
270.0
  0
ARC
  5
1B244
330
18
100
AcDbEntity
  8
01
100
AcDbCircle
 10
2288.240859365575
 20
-594.0527479498686
 30
0.0
 40
0.5000000000000013
100
AcDbArc
 50
0.0
 51
77.51311018581228
  0
ARC
  5
1B245
330
18
100
AcDbEntity
  8
01
100
AcDbCircle
 10
2284.240859365575
 20
-612.1151398180572
 30
0.0
 40
0.5000000000000029
100
AcDbArc
 50
180.0
 51
257.513110185866
  0
ARC
  5
1B246
330
18
100
AcDbEntity
  8
01
100
AcDbCircle
 10
2288.240859365575
 20
-612.1151398180572
 30
0.0
 40
0.5000000000000013
100
AcDbArc
 50
282.4868898141877
 51
0.0
  0
ARC
  5
1B247
330
18
100
AcDbEntity
  8
01
100
AcDbCircle
 10
2286.240859365575
 20
-603.0839438839629
 30
0.0
 40
9.749999999999995
100
AcDbArc
 50
77.5131101858446
 51
102.4868898141526
  0
ARC
  5
1B248
330
18
100
AcDbEntity
  8
01
100
AcDbCircle
 10
2284.240859365575
 20
-594.0527479498686
 30
0.0
 40
0.5000000000000029
100
AcDbArc
 50
102.486889814134
 51
180.0
  0
ARC
  5
1B249
330
18
100
AcDbEntity
  8
01
100
AcDbCircle
 10
2286.240859365575
 20
-603.0839438839629
 30
0.0
 40
9.75
100
AcDbArc
 50
257.5131101858473
 51
282.4868898141554
  0
LINE
  5
1B24A
330
18
100
AcDbEntity
  8
01
100
AcDbLine
 10
2288.740859365575
 20
-594.0527479498686
 30
0.0
 11
2288.740859365575
 21
-612.1151398180572
 31
0.0
  0
LINE
  5
1B24B
330
18
100
AcDbEntity
  8
01
100
AcDbLine
 10
2283.740859365575
 20
-612.1151398180572
 30
0.0
 11
2283.740859365575
 21
-594.0527479498686
 31
0.0
  0
SPLINE
  5
1B24C
330
18
100
AcDbEntity
  8
01
100
AcDbSpline
210
0.0
220
0.0
230
1.0
 70
     8
 71
     3
 72
    18
 73
    14
 74
     0
 42
0.0000000001
 43
0.0000000001
 40
0.0
 40
0.0
 40
0.0
 40
0.0
 40
0.2500000000000002
 40
0.2500000000000002
 40
0.375
 40
0.375
 40
0.4999999999999998
 40
0.4999999999999998
 40
0.6249999999999996
 40
0.6249999999999996
 40
0.7499999999999993
 40
0.7499999999999993
 40
1.0
 40
1.0
 40
1.0
 40
1.0
 10
2289.930048554765
 20
-612.1090412865602
 30
0.0
 10
2289.736787497489
 20
-612.1880406115969
 30
0.0
 10
2289.544465885761
 20
-612.2593081461665
 30
0.0
 10
2289.265140427302
 20
-612.3535652573399
 30
0.0
 10
2289.175647284793
 20
-612.3821984825278
 30
0.0
 10
2289.004370077002
 20
-612.4345335583283
 30
0.0
 10
2288.921720663831
 20
-612.4584657232491
 30
0.0
 10
2288.770247524391
 20
-612.5004651395958
 30
0.0
 10
2288.701575953435
 20
-612.5185270071551
 30
0.0
 10
2288.579207979174
 20
-612.5495981453158
 30
0.0
 10
2288.525367742558
 20
-612.5626296779227
 30
0.0
 10
2288.396013455327
 20
-612.5931847826831
 30
0.0
 10
2288.348967473684
 20
-612.6033125712514
 30
0.0
 10
2288.348967473684
 20
-612.6033125712514
 30
0.0
  0
SPLINE
  5
1B24D
330
18
100
AcDbEntity
  8
01
100
AcDbSpline
210
0.0
220
0.0
230
1.0
 70
     8
 71
     3
 72
    18
 73
    14
 74
     0
 42
0.0000000001
 43
0.0000000001
 40
0.0
 40
0.0
 40
0.0
 40
0.0
 40
0.2500000000000002
 40
0.2500000000000002
 40
0.3750000000000002
 40
0.3750000000000002
 40
0.5000000000000002
 40
0.5000000000000002
 40
0.6250000000000002
 40
0.6250000000000002
 40
0.7500000000000001
 40
0.7500000000000001
 40
1.0
 40
1.0
 40
1.0
 40
1.0
 10
2282.551670176386
 20
-594.0588464813655
 30
0.0
 10
2282.744931233663
 20
-593.9798471563289
 30
0.0
 10
2282.93725284539
 20
-593.9085796217595
 30
0.0
 10
2283.21657830385
 20
-593.8143225105858
 30
0.0
 10
2283.306071446358
 20
-593.785689285398
 30
0.0
 10
2283.47734865415
 20
-593.7333542095975
 30
0.0
 10
2283.55999806732
 20
-593.7094220446767
 30
0.0
 10
2283.711471206761
 20
-593.6674226283302
 30
0.0
 10
2283.780142777717
 20
-593.6493607607707
 30
0.0
 10
2283.902510751977
 20
-593.61828962261
 30
0.0
 10
2283.956350988594
 20
-593.6052580900031
 30
0.0
 10
2284.085705275824
 20
-593.5747029852427
 30
0.0
 10
2284.132751257468
 20
-593.5645751966744
 30
0.0
 10
2284.132751257468
 20
-593.5645751966744
 30
0.0
  0
SPLINE
  5
1B24E
330
18
100
AcDbEntity
  8
01
100
AcDbSpline
210
0.0
220
0.0
230
1.0
 70
     8
 71
     3
 72
    16
 73
    12
 74
     0
 42
0.0000000001
 43
0.0000000001
 40
0.0
 40
0.0
 40
0.0
 40
0.0
 40
0.1249999999999998
 40
0.1249999999999998
 40
0.2499999999999997
 40
0.2499999999999997
 40
0.4999999999999998
 40
0.4999999999999998
 40
0.7499999999999999
 40
0.7499999999999999
 40
1.0
 40
1.0
 40
1.0
 40
1.0
 10
2284.132751257468
 20
-612.6033125712514
 30
0.0
 10
2284.132751257468
 20
-612.6033125712514
 30
0.0
 10
2284.121335735341
 20
-612.6008046152605
 30
0.0
 10
2284.076902679
 20
-612.5907998341003
 30
0.0
 10
2284.043207078446
 20
-612.5831431690507
 30
0.0
 10
2283.913859756985
 20
-612.5525986645181
 30
0.0
 10
2283.787403876678
 20
-612.521498510741
 30
0.0
 10
2283.486457675683
 20
-612.4380955023695
 30
0.0
 10
2283.309664240915
 20
-612.3849465728468
 30
0.0
 10
2282.939967968912
 20
-612.2602542462433
 30
0.0
 10
2282.744896810677
 20
-612.1880265405126
 30
0.0
 10
2282.551670176386
 20
-612.1090412865602
 30
0.0
  0
SPLINE
  5
1B24F
330
18
100
AcDbEntity
  8
01
100
AcDbSpline
210
0.0
220
0.0
230
1.0
 70
     8
 71
     3
 72
    16
 73
    12
 74
     0
 42
0.0000000001
 43
0.0000000001
 40
0.0
 40
0.0
 40
0.0
 40
0.0
 40
0.1249999999999997
 40
0.1249999999999997
 40
0.2499999999999993
 40
0.2499999999999993
 40
0.4999999999999996
 40
0.4999999999999996
 40
0.7499999999999998
 40
0.7499999999999998
 40
1.0
 40
1.0
 40
1.0
 40
1.0
 10
2288.348967473684
 20
-593.5645751966744
 30
0.0
 10
2288.348967473684
 20
-593.5645751966744
 30
0.0
 10
2288.36038299581
 20
-593.5670831526655
 30
0.0
 10
2288.404816052152
 20
-593.5770879338257
 30
0.0
 10
2288.438511652705
 20
-593.5847445988753
 30
0.0
 10
2288.567858974166
 20
-593.6152891034079
 30
0.0
 10
2288.694314854473
 20
-593.6463892571848
 30
0.0
 10
2288.995261055469
 20
-593.7297922655563
 30
0.0
 10
2289.172054490236
 20
-593.7829411950789
 30
0.0
 10
2289.541750762239
 20
-593.9076335216824
 30
0.0
 10
2289.736821920474
 20
-593.9798612274132
 30
0.0
 10
2289.930048554765
 20
-594.0588464813655
 30
0.0
  0
ARC
  5
1B250
330
18
100
AcDbEntity
  8
01
100
AcDbCircle
 10
2286.240859365575
 20
-603.0839438839629
 30
0.0
 40
9.750000000000005
100
AcDbArc
 50
112.2332717982938
 51
247.7667282017062
  0
ARC
  5
1B251
330
18
100
AcDbEntity
  8
01
100
AcDbCircle
 10
2286.240859365575
 20
-603.0839438839629
 30
0.0
 40
9.750000000000009
100
AcDbArc
 50
292.2332717982968
 51
67.76672820170319
  0
CIRCLE
  5
1B252
330
18
100
AcDbEntity
  8
01
100
AcDbCircle
 10
2286.240859365575
 20
-603.0839438839629
 30
0.0
 40
10.3
  0
LINE
  5
1B253
330
18
100
AcDbEntity
  8
01
100
AcDbLine
 10
2482.540863365581
 20
-617.083939020048
 30
0.0
 11
2482.540863365582
 21
-578.0839390200484
 31
0.0
  0
LINE
  5
1B254
330
18
100
AcDbEntity
  8
01
100
AcDbLine
 10
2476.240863365581
 20
-577.583939020048
 30
0.0
 11
2476.240863365577
 21
-617.5839390200482
 31
0.0
  0
LINE
  5
1B255
330
18
100
AcDbEntity
  8
01
100
AcDbLine
 10
2476.240863365577
 20
-617.5839390200482
 30
0.0
 11
2482.040863365582
 21
-617.583939020048
 31
0.0
  0
ARC
  5
1B256
330
18
100
AcDbEntity
  8
01
100
AcDbCircle
 10
2482.040863365582
 20
-617.083939020048
 30
0.0
 40
0.5
100
AcDbArc
 50
270.0
 51
0.0
  0
LINE
  5
1B257
330
18
100
AcDbEntity
  8
01
100
AcDbLine
 10
2476.240863365581
 20
-577.583939020048
 30
0.0
 11
2482.040863365582
 21
-577.5839390200484
 31
0.0
  0
ARC
  5
1B258
330
18
100
AcDbEntity
  8
01
100
AcDbCircle
 10
2482.040863365582
 20
-578.0839390200484
 30
0.0
 40
0.5
100
AcDbArc
 50
0.0
 51
90.0
  0
LINE
  5
1B259
330
18
100
AcDbEntity
  8
01
100
AcDbLine
 10
2429.940863365581
 20
-617.0839438842378
 30
0.0
 11
2429.940863365581
 21
-578.0839438842382
 31
0.0
  0
LINE
  5
1B25A
330
18
100
AcDbEntity
  8
01
100
AcDbLine
 10
2436.240863365581
 20
-577.5839438842378
 30
0.0
 11
2436.240863365577
 21
-617.583943884238
 31
0.0
  0
LINE
  5
1B25B
330
18
100
AcDbEntity
  8
01
100
AcDbLine
 10
2436.240863365577
 20
-617.583943884238
 30
0.0
 11
2430.440863365581
 21
-617.5839438842378
 31
0.0
  0
ARC
  5
1B25C
330
18
100
AcDbEntity
  8
01
100
AcDbCircle
 10
2430.440863365581
 20
-617.0839438842378
 30
0.0
 40
0.5
100
AcDbArc
 50
180.0
 51
270.0
  0
LINE
  5
1B25D
330
18
100
AcDbEntity
  8
01
100
AcDbLine
 10
2436.240863365581
 20
-577.5839438842378
 30
0.0
 11
2430.440863365581
 21
-577.5839438842382
 31
0.0
  0
ARC
  5
1B25E
330
18
100
AcDbEntity
  8
01
100
AcDbCircle
 10
2430.440863365581
 20
-578.0839438842382
 30
0.0
 40
0.5
100
AcDbArc
 50
90.0
 51
180.0
  0
SPLINE
  5
1B25F
330
18
100
AcDbEntity
  8
01
100
AcDbSpline
210
0.0
220
0.0
230
1.0
 70
    24
 71
     1
 72
     4
 73
     2
 74
     0
 42
0.0000000001
 43
0.0000000001
 40
0.1160848018737504
 40
0.1160848018737504
 40
1.0
 40
1.0
 10
2429.940863365581
 20
-612.8339438842451
 30
0.0
 10
2415.240838554569
 20
-612.8339438842451
 30
0.0
  0
SPLINE
  5
1B260
330
18
100
AcDbEntity
  8
01
100
AcDbSpline
210
0.0
220
0.0
230
1.0
 70
    24
 71
     1
 72
     4
 73
     2
 74
     0
 42
0.0000000001
 43
0.0000000001
 40
0.0
 40
0.0
 40
0.8839151981262495
 40
0.8839151981262495
 10
2415.240838554569
 20
-593.3339438842451
 30
0.0
 10
2429.940863365581
 20
-593.3339438842451
 30
0.0
  0
ARC
  5
1B261
330
18
100
AcDbEntity
  8
01
100
AcDbCircle
 10
2415.240838554569
 20
-611.8339438842451
 30
0.0
 40
1.0
100
AcDbArc
 50
180.0
 51
270.0
  0
ARC
  5
1B262
330
18
100
AcDbEntity
  8
01
100
AcDbCircle
 10
2415.240838554569
 20
-594.3339438842451
 30
0.0
 40
1.0
100
AcDbArc
 50
90.0
 51
180.0
  0
LINE
  5
1B263
330
18
100
AcDbEntity
  8
01
100
AcDbLine
 10
2428.740838554569
 20
-594.5216719894732
 30
0.0
 11
2428.740838554569
 21
-611.6462157790169
 31
0.0
  0
SPLINE
  5
1B264
330
18
100
AcDbEntity
  8
01
100
AcDbSpline
210
0.0
220
0.0
230
1.0
 70
     8
 71
     3
 72
    14
 73
    10
 74
     0
 42
0.0000000001
 43
0.0000000001
 40
0.0
 40
0.0
 40
0.0
 40
0.0
 40
0.25
 40
0.25
 40
0.5
 40
0.5
 40
0.75
 40
0.75
 40
1.0
 40
1.0
 40
1.0
 40
1.0
 10
2427.740838554569
 20
-594.0527479501508
 30
0.0
 10
2427.880806232322
 20
-594.0527479501508
 30
0.0
 10
2428.019227506468
 20
-594.0623839054575
 30
0.0
 10
2428.269277846422
 20
-594.1014648143993
 30
0.0
 10
2428.381595409252
 20
-594.131270949273
 30
0.0
 10
2428.562642780338
 20
-594.2121906860569
 30
0.0
 10
2428.630443416642
 20
-594.2625802222484
 30
0.0
 10
2428.720062333186
 20
-594.3819498112633
 30
0.0
 10
2428.740838554569
 20
-594.4487492619747
 30
0.0
 10
2428.740838554569
 20
-594.5216719894732
 30
0.0
  0
SPLINE
  5
1B265
330
18
100
AcDbEntity
  8
01
100
AcDbSpline
210
0.0
220
0.0
230
1.0
 70
     8
 71
     3
 72
    14
 73
    10
 74
     0
 42
0.0000000001
 43
0.0000000001
 40
0.0
 40
0.0
 40
0.0
 40
0.0
 40
0.25
 40
0.25
 40
0.5
 40
0.5
 40
0.75
 40
0.75
 40
1.0
 40
1.0
 40
1.0
 40
1.0
 10
2428.740838554569
 20
-611.6462157790169
 30
0.0
 10
2428.740838554569
 20
-611.7191324661513
 30
0.0
 10
2428.719478147309
 20
-611.7869171620122
 30
0.0
 10
2428.630338955633
 20
-611.9052440359759
 30
0.0
 10
2428.561406325478
 20
-611.9563568907439
 30
0.0
 10
2428.381358885112
 20
-612.0366144828978
 30
0.0
 10
2428.268653211616
 20
-612.0665773026043
 30
0.0
 10
2428.018082597997
 20
-612.1056256781384
 30
0.0
 10
2427.880696448679
 20
-612.1151398183393
 30
0.0
 10
2427.740838554569
 20
-612.1151398183393
 30
0.0
  0
LINE
  5
1B266
330
18
100
AcDbEntity
  8
01
100
AcDbLine
 10
2427.740838554569
 20
-612.1151398183393
 30
0.0
 11
2415.240838554569
 21
-612.1151398183393
 31
0.0
  0
LINE
  5
1B267
330
18
100
AcDbEntity
  8
01
100
AcDbLine
 10
2415.240838554569
 20
-594.0527479501508
 30
0.0
 11
2427.740838554569
 21
-594.0527479501508
 31
0.0
  0
SPLINE
  5
1B268
330
18
100
AcDbEntity
  8
01
100
AcDbSpline
210
0.0
220
0.0
230
1.0
 70
     8
 71
     3
 72
    14
 73
    10
 74
     0
 42
0.0000000001
 43
0.0000000001
 40
0.0
 40
0.0
 40
0.0
 40
0.0
 40
0.2500000000000001
 40
0.2500000000000001
 40
0.5000000000000002
 40
0.5000000000000002
 40
0.7500000000000003
 40
0.7500000000000003
 40
1.0
 40
1.0
 40
1.0
 40
1.0
 10
2415.240838554569
 20
-594.0527479501508
 30
0.0
 10
2415.103629639642
 20
-594.0527479501508
 30
0.0
 10
2414.96862609413
 20
-594.064122760246
 30
0.0
 10
2414.721289635477
 20
-594.1070776275664
 30
0.0
 10
2414.610788206112
 20
-594.1383219546709
 30
0.0
 10
2414.428594532584
 20
-594.2155074720619
 30
0.0
 10
2414.359601430199
 20
-594.2598480873215
 30
0.0
 10
2414.264833891712
 20
-594.3578297386997
 30
0.0
 10
2414.240838554569
 20
-594.4103231617165
 30
0.0
 10
2414.240838554569
 20
-594.4634740594616
 30
0.0
  0
SPLINE
  5
1B269
330
18
100
AcDbEntity
  8
01
100
AcDbSpline
210
0.0
220
0.0
230
1.0
 70
     8
 71
     3
 72
    14
 73
    10
 74
     0
 42
0.0000000001
 43
0.0000000001
 40
0.0
 40
0.0
 40
0.0
 40
0.0
 40
0.2500000000000001
 40
0.2500000000000001
 40
0.5000000000000002
 40
0.5000000000000002
 40
0.7500000000000003
 40
0.7500000000000003
 40
1.0
 40
1.0
 40
1.0
 40
1.0
 10
2415.240838554569
 20
-612.1151398183393
 30
0.0
 10
2415.103629639642
 20
-612.1151398183393
 30
0.0
 10
2414.96862609413
 20
-612.1037650082441
 30
0.0
 10
2414.721289635477
 20
-612.0608101409238
 30
0.0
 10
2414.610788206112
 20
-612.0295658138192
 30
0.0
 10
2414.428594532584
 20
-611.952380296428
 30
0.0
 10
2414.359601430199
 20
-611.9080396811686
 30
0.0
 10
2414.264833891712
 20
-611.8100580297902
 30
0.0
 10
2414.240838554569
 20
-611.7575646067736
 30
0.0
 10
2414.240838554569
 20
-611.7044137090285
 30
0.0
  0
LINE
  5
1B26A
330
18
100
AcDbEntity
  8
01
100
AcDbLine
 10
2414.240838554569
 20
-594.4634740594616
 30
0.0
 11
2414.240838554569
 21
-611.7044137090285
 31
0.0
  0
LINE
  5
1B26B
330
18
100
AcDbEntity
  8
01
100
AcDbLine
 10
2414.240838554569
 20
-611.7044137090285
 30
0.0
 11
2414.240838554569
 21
-611.8339438842451
 31
0.0
  0
LINE
  5
1B26C
330
18
100
AcDbEntity
  8
01
100
AcDbLine
 10
2483.282847054542
 20
-599.5839425632995
 30
0.0000000000562539
 11
2482.540863365581
 21
-599.5839425632997
 31
0.0000000000562539
  0
LINE
  5
1B26D
330
18
100
AcDbEntity
  8
01
100
AcDbLine
 10
2483.282847054542
 20
-606.5839425632995
 30
0.0000000000562539
 11
2482.540863365581
 21
-606.5839425632995
 31
0.0000000000562539
  0
ARC
  5
1B26E
330
18
100
AcDbEntity
  8
01
100
AcDbCircle
 10
2478.409447054541
 20
-603.0839425632995
 30
0.0000000000562539
 40
6.0
100
AcDbArc
 50
324.3146700000025
 51
35.68533471265159
  0
LINE
  5
1B396
330
18
100
AcDbEntity
  8
01
100
AcDbLine
 10
2606.240754703374
 20
-578.0839438839629
 30
0.0
 11
2606.240754703374
 21
-568.7839438839629
 31
0.0
1001
ACAD
1000
DSTYLE
1002
{
1070
     3
1000
□<>
1070
    40
1040
1.3
1070
    45
1040
0.5
1070
   271
1070
     1
1070
   272
1070
     2
1002
}
  0
LINE
  5
1B397
330
18
100
AcDbEntity
  8
01
100
AcDbLine
 10
2646.240754703374
 20
-578.0839438839633
 30
0.0
 11
2646.240754703374
 21
-568.7839438839629
 31
0.0
1001
ACAD
1000
DSTYLE
1002
{
1070
     3
1000
□<>
1070
    40
1040
1.3
1070
    45
1040
0.5
1070
   271
1070
     1
1070
   272
1070
     2
1002
}
  0
LINE
  5
1B398
330
18
100
AcDbEntity
  8
01
100
AcDbLine
 10
2608.840754703373
 20
-570.0839438839629
 30
0.0
 11
2643.640754703374
 21
-570.0839438839629
 31
0.0
1001
ACAD
1000
DSTYLE
1002
{
1070
     3
1000
□<>
1070
    40
1040
1.3
1070
    45
1040
0.5
1070
   271
1070
     1
1070
   272
1070
     2
1002
}
  0
LINE
  5
1B39C
330
18
100
AcDbEntity
  8
01
100
AcDbLine
 10
2266.24087472066
 20
-578.0839438839629
 30
0.0
 11
2266.24087472066
 21
-568.7839438839629
 31
0.0
1001
ACAD
1000
DSTYLE
1002
{
1070
     3
1000
□<>
1070
    40
1040
1.3
1070
    45
1040
0.5
1070
   271
1070
     1
1070
   272
1070
     2
1002
}
  0
LINE
  5
1B39D
330
18
100
AcDbEntity
  8
01
100
AcDbLine
 10
2306.24087472066
 20
-578.0839438839633
 30
0.0
 11
2306.24087472066
 21
-568.7839438839629
 31
0.0
1001
ACAD
1000
DSTYLE
1002
{
1070
     3
1000
□<>
1070
    40
1040
1.3
1070
    45
1040
0.5
1070
   271
1070
     1
1070
   272
1070
     2
1002
}
  0
LINE
  5
1B39E
330
18
100
AcDbEntity
  8
01
100
AcDbLine
 10
2268.84087472066
 20
-570.0839438839629
 30
0.0
 11
2303.64087472066
 21
-570.0839438839629
 31
0.0
1001
ACAD
1000
DSTYLE
1002
{
1070
     3
1000
□<>
1070
    40
1040
1.3
1070
    45
1040
0.5
1070
   271
1070
     1
1070
   272
1070
     2
1002
}
  0
TEXT
  5
1B3A2
330
18
100
AcDbEntity
  8
01
  6
CONTINUOUS
100
AcDbText
 10
2564.695574785515
 20
-440.5006105516587
 30
0.0
 40
4.55
  1
材質：アルミ
100
AcDbText
  0
TEXT
  5
1B3A3
330
18
100
AcDbEntity
  8
01
  6
CONTINUOUS
100
AcDbText
 10
2547.253908118848
 20
-448.083943884992
 30
0.0
 40
4.55
  1
仕上げ：各種仕上げ
100
AcDbText
  0
LINE
  5
1B3A4
330
18
100
AcDbEntity
  8
01
100
AcDbLine
 10
2642.64163120789
 20
-373.583943884992
 30
0.0
 11
2667.402021967604
 21
-373.583943884992
 31
0.0
1001
ACAD
1000
DSTYLE
1002
{
1070
    40
1040
1.3
1070
    45
1040
0.5
1070
    79
1070
     2
1070
   179
1070
     2
1070
   272
1070
     2
1070
   341
1005
0
1002
}
  0
LINE
  5
1B3A5
330
18
100
AcDbEntity
  8
01
100
AcDbLine
 10
2644.24163120789
 20
-392.3839438849922
 30
0.0
 11
2667.402021967604
 21
-392.3839438849922
 31
0.0
1001
ACAD
1000
DSTYLE
1002
{
1070
    40
1040
1.3
1070
    45
1040
0.5
1070
    79
1070
     2
1070
   179
1070
     2
1070
   272
1070
     2
1070
   341
1005
0
1002
}
  0
LINE
  5
1B3A6
330
18
100
AcDbEntity
  8
01
100
AcDbLine
 10
2666.102021967604
 20
-376.183943884992
 30
0.0
 11
2666.102021967604
 21
-389.7839438849921
 31
0.0
1001
ACAD
1000
DSTYLE
1002
{
1070
    40
1040
1.3
1070
    45
1040
0.5
1070
    79
1070
     2
1070
   179
1070
     2
1070
   272
1070
     2
1070
   341
1005
0
1002
}
  0
LINE
  5
1B3AA
330
18
100
AcDbEntity
  8
01
100
AcDbLine
 10
2462.740863365577
 20
-575.0839438839633
 30
0.0
 11
2512.044454402132
 21
-575.0839438839633
 31
0.0
1001
ACAD
1000
DSTYLE
1002
{
1070
    40
1040
1.3
1070
    45
1040
0.5
1002
}
  0
LINE
  5
1B3AB
330
18
100
AcDbEntity
  8
01
100
AcDbLine
 10
2462.740863365577
 20
-689.0839438839633
 30
0.0
 11
2512.044454402132
 21
-689.0839438839633
 31
0.0
1001
ACAD
1000
DSTYLE
1002
{
1070
    40
1040
1.3
1070
    45
1040
0.5
1002
}
  0
LINE
  5
1B3AC
330
18
100
AcDbEntity
  8
01
100
AcDbLine
 10
2510.744454402132
 20
-577.6839438839634
 30
0.0
 11
2510.744454402132
 21
-686.4839438839633
 31
0.0
1001
ACAD
1000
DSTYLE
1002
{
1070
    40
1040
1.3
1070
    45
1040
0.5
1002
}
  0
LINE
  5
1B3B0
330
18
100
AcDbEntity
  8
01
100
AcDbLine
 10
2462.740863365577
 20
-567.0839438839633
 30
0.0
 11
2527.540863365577
 21
-567.0839438839633
 31
0.0
1001
ACAD
1000
DSTYLE
1002
{
1070
    40
1040
1.3
1070
    45
1040
0.5
1002
}
  0
LINE
  5
1B3B1
330
18
100
AcDbEntity
  8
01
100
AcDbLine
 10
2462.740863365577
 20
-697.0839438839633
 30
0.0
 11
2527.540863365577
 21
-697.0839438839633
 31
0.0
1001
ACAD
1000
DSTYLE
1002
{
1070
    40
1040
1.3
1070
    45
1040
0.5
1002
}
  0
LINE
  5
1B3B2
330
18
100
AcDbEntity
  8
01
100
AcDbLine
 10
2526.240863365577
 20
-569.6839438839634
 30
0.0
 11
2526.240863365577
 21
-694.4839438839633
 31
0.0
1001
ACAD
1000
DSTYLE
1002
{
1070
    40
1040
1.3
1070
    45
1040
0.5
1002
}
  0
LINE
  5
1B3B6
330
18
100
AcDbEntity
  8
01
100
AcDbLine
 10
2443.740863365577
 20
-573.0839438839633
 30
0.0
 11
2443.740863365577
 21
-522.3624517992754
 31
0.0
1001
ACAD
1000
DSTYLE
1002
{
1070
    40
1040
1.3
1070
    45
1040
0.5
1002
}
  0
LINE
  5
1B3B7
330
18
100
AcDbEntity
  8
01
100
AcDbLine
 10
2468.740863365577
 20
-573.0839438839633
 30
0.0
 11
2468.740863365577
 21
-522.3624517992754
 31
0.0
1001
ACAD
1000
DSTYLE
1002
{
1070
    40
1040
1.3
1070
    45
1040
0.5
1002
}
  0
LINE
  5
1B3B8
330
18
100
AcDbEntity
  8
01
100
AcDbLine
 10
2446.340863365577
 20
-523.6624517992753
 30
0.0
 11
2466.140863365577
 21
-523.6624517992753
 31
0.0
1001
ACAD
1000
DSTYLE
1002
{
1070
    40
1040
1.3
1070
    45
1040
0.5
1002
}
  0
LINE
  5
1B3BC
330
18
100
AcDbEntity
  8
01
100
AcDbLine
 10
2564.24074702583
 20
-625.0839445820942
 30
0.0
 11
2564.24074702583
 21
-522.3624517992754
 31
0.0
1001
ACAD
1000
DSTYLE
1002
{
1070
    40
1040
1.3
1070
    45
1040
0.5
1002
}
  0
LINE
  5
1B3BD
330
18
100
AcDbEntity
  8
01
100
AcDbLine
 10
2575.24074702583
 20
-567.0839438839633
 30
0.0
 11
2575.24074702583
 21
-522.3624517992754
 31
0.0
1001
ACAD
1000
DSTYLE
1002
{
1070
    40
1040
1.3
1070
    45
1040
0.5
1002
}
  0
LINE
  5
1B3BE
330
18
100
AcDbEntity
  8
01
100
AcDbLine
 10
2566.84074702583
 20
-523.6624517992753
 30
0.0
 11
2572.64074702583
 21
-523.6624517992753
 31
0.0
1001
ACAD
1000
DSTYLE
1002
{
1070
    40
1040
1.3
1070
    45
1040
0.5
1002
}
  0
LINE
  5
1B3C2
330
18
100
AcDbEntity
  8
01
100
AcDbLine
 10
2644.24074702583
 20
-594.5839438839633
 30
0.0
 11
2672.540747025831
 21
-594.5839438839633
 31
0.0
1001
ACAD
1000
DSTYLE
1002
{
1070
    40
1040
1.3
1070
    45
1040
0.5
1002
}
  0
LINE
  5
1B3C3
330
18
100
AcDbEntity
  8
01
100
AcDbLine
 10
2644.24074702583
 20
-669.0839438839633
 30
0.0
 11
2672.540747025831
 21
-669.0839438839633
 31
0.0
1001
ACAD
1000
DSTYLE
1002
{
1070
    40
1040
1.3
1070
    45
1040
0.5
1002
}
  0
LINE
  5
1B3C4
330
18
100
AcDbEntity
  8
01
100
AcDbLine
 10
2671.24074702583
 20
-597.1839438839634
 30
0.0
 11
2671.24074702583
 21
-666.4839438839633
 31
0.0
1001
ACAD
1000
DSTYLE
1002
{
1070
    40
1040
1.3
1070
    45
1040
0.5
1002
}
  0
LINE
  5
1B3C8
330
18
100
AcDbEntity
  8
01
100
AcDbLine
 10
2644.24074702583
 20
-594.5839438839633
 30
0.0
 11
2644.24074702583
 21
-512.2825843312272
 31
0.0
1001
ACAD
1000
DSTYLE
1002
{
1070
    40
1040
1.3
1070
    45
1040
0.5
1002
}
  0
LINE
  5
1B3C9
330
18
100
AcDbEntity
  8
01
100
AcDbLine
 10
2575.24074702583
 20
-567.0839438839633
 30
0.0
 11
2575.24074702583
 21
-512.2825843312272
 31
0.0
1001
ACAD
1000
DSTYLE
1002
{
1070
    40
1040
1.3
1070
    45
1040
0.5
1002
}
  0
LINE
  5
1B3CA
330
18
100
AcDbEntity
  8
01
100
AcDbLine
 10
2641.64074702583
 20
-513.5825843312272
 30
0.0
 11
2577.84074702583
 21
-513.5825843312272
 31
0.0
1001
ACAD
1000
DSTYLE
1002
{
1070
    40
1040
1.3
1070
    45
1040
0.5
1002
}
  0
LINE
  5
1B3CE
330
18
100
AcDbEntity
  8
01
100
AcDbLine
 10
2575.24074702583
 20
-567.0839438839633
 30
0.0
 11
2575.24074702583
 21
-522.3624517992754
 31
0.0
1001
ACAD
1000
DSTYLE
1002
{
1070
    40
1040
1.3
1070
    45
1040
0.5
1002
}
  0
LINE
  5
1B3CF
330
18
100
AcDbEntity
  8
01
100
AcDbLine
 10
2626.24074702583
 20
-623.0839438839638
 30
0.0
 11
2626.24074702583
 21
-522.3624517992754
 31
0.0
1001
ACAD
1000
DSTYLE
1002
{
1070
    40
1040
1.3
1070
    45
1040
0.5
1002
}
  0
LINE
  5
1B3D0
330
18
100
AcDbEntity
  8
01
100
AcDbLine
 10
2577.84074702583
 20
-523.6624517992753
 30
0.0
 11
2623.64074702583
 21
-523.6624517992753
 31
0.0
1001
ACAD
1000
DSTYLE
1002
{
1070
    40
1040
1.3
1070
    45
1040
0.5
1002
}
  0
LINE
  5
1B3D4
330
18
100
AcDbEntity
  8
01
100
AcDbLine
 10
2423.039901471254
 20
-652.3339438839633
 30
0.0
 11
2421.740863365577
 21
-651.5839438839633
 31
0.0
  0
LINE
  5
1B3D5
330
18
100
AcDbEntity
  8
01
100
AcDbLine
 10
2421.740863365577
 20
-651.5839438839633
 30
0.0
 11
2420.4418252599
 21
-652.3339438839633
 31
0.0
  0
LINE
  5
1B3D6
330
18
100
AcDbEntity
  8
01
100
AcDbLine
 10
2420.4418252599
 20
-652.3339438839633
 30
0.0
 11
2420.4418252599
 21
-653.8339438839633
 31
0.0
  0
LINE
  5
1B3D7
330
18
100
AcDbEntity
  8
01
100
AcDbLine
 10
2420.4418252599
 20
-653.8339438839633
 30
0.0
 11
2421.740863365577
 21
-654.5839438839633
 31
0.0
  0
LINE
  5
1B3D8
330
18
100
AcDbEntity
  8
01
100
AcDbLine
 10
2421.740863365577
 20
-654.5839438839633
 30
0.0
 11
2423.039901471254
 21
-653.8339438839633
 31
0.0
  0
LINE
  5
1B3D9
330
18
100
AcDbEntity
  8
01
100
AcDbLine
 10
2423.039901471254
 20
-653.8339438839633
 30
0.0
 11
2423.039901471254
 21
-652.3339438839633
 31
0.0
  0
CIRCLE
  5
1B3DA
330
18
100
AcDbEntity
  8
01
100
AcDbCircle
 10
2490.74074702583
 20
-653.0826255708602
 30
0.0
 40
3.0
  0
LINE
  5
1B3DB
330
18
100
AcDbEntity
  8
01
100
AcDbLine
 10
2600.240747025834
 20
-626.582625570862
 30
0.0
 11
2589.94074702583
 21
-626.582625570862
 31
0.0
1001
ACAD
1000
DSTYLE
1002
{
1070
     3
1000
□<>
1070
    40
1040
1.3
1070
    45
1040
0.5
1002
}
  0
LINE
  5
1B3DC
330
18
100
AcDbEntity
  8
01
100
AcDbLine
 10
2600.240747025834
 20
-679.582625570862
 30
0.0
 11
2589.94074702583
 21
-679.582625570862
 31
0.0
1001
ACAD
1000
DSTYLE
1002
{
1070
     3
1000
□<>
1070
    40
1040
1.3
1070
    45
1040
0.5
1002
}
  0
LINE
  5
1B3DD
330
18
100
AcDbEntity
  8
01
100
AcDbLine
 10
2591.24074702583
 20
-629.182625570862
 30
0.0
 11
2591.24074702583
 21
-676.982625570862
 31
0.0
1001
ACAD
1000
DSTYLE
1002
{
1070
     3
1000
□<>
1070
    40
1040
1.3
1070
    45
1040
0.5
1002
}
  0
LINE
  5
1B3E1
330
18
100
AcDbEntity
  8
01
100
AcDbLine
 10
2744.793405771162
 20
-657.5398612267319
 30
0.0
 11
2744.790047653039
 21
-657.5420646490828
 31
0.0
  0
LINE
  5
1B3E2
330
18
100
AcDbEntity
  8
01
100
AcDbLine
 10
2744.790047653039
 20
-657.5420646490828
 30
0.0
 11
2744.789282643337
 21
-657.53842691427
 31
0.0
  0
LINE
  5
1B3E3
330
18
100
AcDbEntity
  8
01
100
AcDbLine
 10
2167.688320959992
 20
-657.5398612267319
 30
0.0
 11
2167.691679078115
 21
-657.5420646490828
 31
0.0
  0
LINE
  5
1B3E4
330
18
100
AcDbEntity
  8
01
100
AcDbLine
 10
2167.691679078115
 20
-657.5420646490828
 30
0.0
 11
2167.692444087817
 21
-657.53842691427
 31
0.0
  0
LINE
  5
1B3E5
330
18
100
AcDbEntity
  8
01
100
AcDbLine
 10
2436.240863365581
 20
-577.5839438842378
 30
0.0
 11
2436.240863365581
 21
-545.7839438842378
 31
0.0
1001
ACAD
1000
DSTYLE
1002
{
1070
    40
1040
1.3
1070
    45
1040
0.5
1070
   341
1005
0
1002
}
  0
LINE
  5
1B3E6
330
18
100
AcDbEntity
  8
01
100
AcDbLine
 10
2414.240477799861
 20
-593.0839488842367
 30
0.0
 11
2414.240477799861
 21
-545.7839438842378
 31
0.0
1001
ACAD
1000
DSTYLE
1002
{
1070
    40
1040
1.3
1070
    45
1040
0.5
1070
   341
1005
0
1002
}
  0
LINE
  5
1B3E7
330
18
100
AcDbEntity
  8
01
100
AcDbLine
 10
2433.640863365581
 20
-547.0839438842378
 30
0.0
 11
2416.840477799861
 21
-547.0839438842378
 31
0.0
1001
ACAD
1000
DSTYLE
1002
{
1070
    40
1040
1.3
1070
    45
1040
0.5
1070
   341
1005
0
1002
}
  0
LINE
  5
1B3EB
330
18
100
AcDbEntity
  8
01
100
AcDbLine
 10
2476.240863365581
 20
-577.5839438842378
 30
0.0
 11
2476.240863365581
 21
-545.7839438842378
 31
0.0
1001
ACAD
1000
DSTYLE
1002
{
1070
    40
1040
1.3
1070
    45
1040
0.5
1070
   271
1070
     1
1070
   341
1005
0
1002
}
  0
LINE
  5
1B3EC
330
18
100
AcDbEntity
  8
01
100
AcDbLine
 10
2484.409447054541
 20
-603.0839423165456
 30
0.0
 11
2484.409447054541
 21
-545.7839438842378
 31
0.0
1001
ACAD
1000
DSTYLE
1002
{
1070
    40
1040
1.3
1070
    45
1040
0.5
1070
   271
1070
     1
1070
   341
1005
0
1002
}
  0
LINE
  5
1B3ED
330
18
100
AcDbEntity
  8
01
100
AcDbLine
 10
2478.840863365581
 20
-547.0839438842378
 30
0.0
 11
2481.809447054542
 21
-547.0839438842378
 31
0.0
1001
ACAD
1000
DSTYLE
1002
{
1070
    40
1040
1.3
1070
    45
1040
0.5
1070
   271
1070
     1
1070
   341
1005
0
1002
}
  0
LINE
  5
1B3F1
330
18
100
AcDbEntity
  8
01
  6
BYBLOCK
100
AcDbLine
 10
2608.840754703373
 20
-570.7806117779629
 30
0.0
 11
2606.240754703374
 21
-570.0839438839629
 31
0.0
  0
LINE
  5
1B3F2
330
18
100
AcDbEntity
  8
01
  6
BYBLOCK
100
AcDbLine
 10
2606.240754703374
 20
-570.0839438839629
 30
0.0
 11
2608.840754703373
 21
-569.3872759899629
 31
0.0
  0
LINE
  5
1B3F3
330
18
100
AcDbEntity
  8
01
  6
BYBLOCK
100
AcDbLine
 10
2606.240754703374
 20
-570.0839438839629
 30
0.0
 11
2608.840754703373
 21
-570.0839438839629
 31
0.0
  0
LINE
  5
1B3F4
330
18
100
AcDbEntity
  8
01
  6
BYBLOCK
100
AcDbLine
 10
2643.640754703374
 20
-569.3872759899629
 30
0.0
 11
2646.240754703374
 21
-570.0839438839629
 31
0.0
  0
LINE
  5
1B3F5
330
18
100
AcDbEntity
  8
01
  6
BYBLOCK
100
AcDbLine
 10
2646.240754703374
 20
-570.0839438839629
 30
0.0
 11
2643.640754703374
 21
-570.7806117779629
 31
0.0
  0
LINE
  5
1B3F6
330
18
100
AcDbEntity
  8
01
  6
BYBLOCK
100
AcDbLine
 10
2646.240754703374
 20
-570.0839438839629
 30
0.0
 11
2643.640754703374
 21
-570.0839438839629
 31
0.0
  0
TEXT
  5
1B3F7
330
18
100
AcDbEntity
  8
01
  6
CONTINUOUS
100
AcDbText
 10
2619.85179637004
 20
-569.1739438839629
 30
0.0
 40
4.55
  1
□40
100
AcDbText
1001
ACAD
1000
DSTYLE
1002
{
1070
     3
1000
□<>
1070
    40
1040
1.3
1070
    45
1040
0.5
1070
   271
1070
     1
1070
   272
1070
     2
1002
}
  0
LINE
  5
1B3F8
330
18
100
AcDbEntity
  8
01
  6
BYBLOCK
100
AcDbLine
 10
2268.84087472066
 20
-570.7806117779629
 30
0.0
 11
2266.24087472066
 21
-570.0839438839629
 31
0.0
  0
LINE
  5
1B3F9
330
18
100
AcDbEntity
  8
01
  6
BYBLOCK
100
AcDbLine
 10
2266.24087472066
 20
-570.0839438839629
 30
0.0
 11
2268.84087472066
 21
-569.3872759899629
 31
0.0
  0
LINE
  5
1B3FA
330
18
100
AcDbEntity
  8
01
  6
BYBLOCK
100
AcDbLine
 10
2266.24087472066
 20
-570.0839438839629
 30
0.0
 11
2268.84087472066
 21
-570.0839438839629
 31
0.0
  0
LINE
  5
1B3FB
330
18
100
AcDbEntity
  8
01
  6
BYBLOCK
100
AcDbLine
 10
2303.64087472066
 20
-569.3872759899629
 30
0.0
 11
2306.24087472066
 21
-570.0839438839629
 31
0.0
  0
LINE
  5
1B3FC
330
18
100
AcDbEntity
  8
01
  6
BYBLOCK
100
AcDbLine
 10
2306.24087472066
 20
-570.0839438839629
 30
0.0
 11
2303.64087472066
 21
-570.7806117779629
 31
0.0
  0
LINE
  5
1B3FD
330
18
100
AcDbEntity
  8
01
  6
BYBLOCK
100
AcDbLine
 10
2306.24087472066
 20
-570.0839438839629
 30
0.0
 11
2303.64087472066
 21
-570.0839438839629
 31
0.0
  0
TEXT
  5
1B3FE
330
18
100
AcDbEntity
  8
01
  6
CONTINUOUS
100
AcDbText
 10
2279.851916387327
 20
-569.1739438839629
 30
0.0
 40
4.55
  1
□40
100
AcDbText
1001
ACAD
1000
DSTYLE
1002
{
1070
     3
1000
□<>
1070
    40
1040
1.3
1070
    45
1040
0.5
1070
   271
1070
     1
1070
   272
1070
     2
1002
}
  0
LINE
  5
1B3FF
330
18
100
AcDbEntity
  8
01
  6
BYBLOCK
100
AcDbLine
 10
2665.405354073604
 20
-376.183943884992
 30
0.0
 11
2666.102021967604
 21
-373.583943884992
 31
0.0
  0
LINE
  5
1B400
330
18
100
AcDbEntity
  8
01
  6
BYBLOCK
100
AcDbLine
 10
2666.102021967604
 20
-373.583943884992
 30
0.0
 11
2666.798689861604
 21
-376.183943884992
 31
0.0
  0
LINE
  5
1B401
330
18
100
AcDbEntity
  8
01
  6
BYBLOCK
100
AcDbLine
 10
2666.102021967604
 20
-373.583943884992
 30
0.0
 11
2666.102021967604
 21
-376.183943884992
 31
0.0
  0
LINE
  5
1B402
330
18
100
AcDbEntity
  8
01
  6
BYBLOCK
100
AcDbLine
 10
2666.798689861604
 20
-389.7839438849921
 30
0.0
 11
2666.102021967604
 21
-392.3839438849922
 31
0.0
  0
LINE
  5
1B403
330
18
100
AcDbEntity
  8
01
  6
BYBLOCK
100
AcDbLine
 10
2666.102021967604
 20
-392.3839438849922
 30
0.0
 11
2665.405354073604
 21
-389.7839438849921
 31
0.0
  0
LINE
  5
1B404
330
18
100
AcDbEntity
  8
01
  6
BYBLOCK
100
AcDbLine
 10
2666.102021967604
 20
-392.3839438849922
 30
0.0
 11
2666.102021967604
 21
-389.7839438849921
 31
0.0
  0
TEXT
  5
1B405
330
18
100
AcDbEntity
  8
01
  6
CONTINUOUS
100
AcDbText
 10
2665.192021967604
 20
-386.018330459066
 30
0.0
 40
4.55
  1
19
 50
90.0
100
AcDbText
1001
ACAD
1000
DSTYLE
1002
{
1070
    40
1040
1.3
1070
    45
1040
0.5
1070
    79
1070
     2
1070
   179
1070
     2
1070
   272
1070
     2
1070
   341
1005
0
1002
}
  0
LINE
  5
1B406
330
18
100
AcDbEntity
  8
01
  6
BYBLOCK
100
AcDbLine
 10
2510.047786508132
 20
-577.6839438839634
 30
0.0
 11
2510.744454402132
 21
-575.0839438839633
 31
0.0
  0
LINE
  5
1B407
330
18
100
AcDbEntity
  8
01
  6
BYBLOCK
100
AcDbLine
 10
2510.744454402132
 20
-575.0839438839633
 30
0.0
 11
2511.441122296132
 21
-577.6839438839634
 31
0.0
  0
LINE
  5
1B408
330
18
100
AcDbEntity
  8
01
  6
BYBLOCK
100
AcDbLine
 10
2510.744454402132
 20
-575.0839438839633
 30
0.0
 11
2510.744454402132
 21
-577.6839438839634
 31
0.0
  0
LINE
  5
1B409
330
18
100
AcDbEntity
  8
01
  6
BYBLOCK
100
AcDbLine
 10
2511.441122296132
 20
-686.4839438839633
 30
0.0
 11
2510.744454402132
 21
-689.0839438839633
 31
0.0
  0
LINE
  5
1B40A
330
18
100
AcDbEntity
  8
01
  6
BYBLOCK
100
AcDbLine
 10
2510.744454402132
 20
-689.0839438839633
 30
0.0
 11
2510.047786508132
 21
-686.4839438839633
 31
0.0
  0
LINE
  5
1B40B
330
18
100
AcDbEntity
  8
01
  6
BYBLOCK
100
AcDbLine
 10
2510.744454402132
 20
-689.0839438839633
 30
0.0
 11
2510.744454402132
 21
-686.4839438839633
 31
0.0
  0
TEXT
  5
1B40C
330
18
100
AcDbEntity
  8
01
  6
CONTINUOUS
100
AcDbText
 10
2509.834454402132
 20
-607.5009215360424
 30
0.0
 40
4.55
  1
114
 50
90.0
100
AcDbText
1001
ACAD
1000
DSTYLE
1002
{
1070
    40
1040
1.3
1070
    45
1040
0.5
1002
}
  0
LINE
  5
1B40D
330
18
100
AcDbEntity
  8
01
  6
BYBLOCK
100
AcDbLine
 10
2525.544195471577
 20
-569.6839438839634
 30
0.0
 11
2526.240863365577
 21
-567.0839438839633
 31
0.0
  0
LINE
  5
1B40E
330
18
100
AcDbEntity
  8
01
  6
BYBLOCK
100
AcDbLine
 10
2526.240863365577
 20
-567.0839438839633
 30
0.0
 11
2526.937531259577
 21
-569.6839438839634
 31
0.0
  0
LINE
  5
1B40F
330
18
100
AcDbEntity
  8
01
  6
BYBLOCK
100
AcDbLine
 10
2526.240863365577
 20
-567.0839438839633
 30
0.0
 11
2526.240863365577
 21
-569.6839438839634
 31
0.0
  0
LINE
  5
1B410
330
18
100
AcDbEntity
  8
01
  6
BYBLOCK
100
AcDbLine
 10
2526.937531259577
 20
-694.4839438839633
 30
0.0
 11
2526.240863365577
 21
-697.0839438839633
 31
0.0
  0
LINE
  5
1B411
330
18
100
AcDbEntity
  8
01
  6
BYBLOCK
100
AcDbLine
 10
2526.240863365577
 20
-697.0839438839633
 30
0.0
 11
2525.544195471577
 21
-694.4839438839633
 31
0.0
  0
LINE
  5
1B412
330
18
100
AcDbEntity
  8
01
  6
BYBLOCK
100
AcDbLine
 10
2526.240863365577
 20
-697.0839438839633
 30
0.0
 11
2526.240863365577
 21
-694.4839438839633
 31
0.0
  0
TEXT
  5
1B413
330
18
100
AcDbEntity
  8
01
  6
CONTINUOUS
100
AcDbText
 10
2525.330863365577
 20
-608.28548553885
 30
0.0
 40
4.55
  1
130
 50
90.0
100
AcDbText
1001
ACAD
1000
DSTYLE
1002
{
1070
    40
1040
1.3
1070
    45
1040
0.5
1002
}
  0
LINE
  5
1B414
330
18
100
AcDbEntity
  8
01
  6
BYBLOCK
100
AcDbLine
 10
2446.340863365577
 20
-524.3591196932754
 30
0.0
 11
2443.740863365577
 21
-523.6624517992753
 31
0.0
  0
LINE
  5
1B415
330
18
100
AcDbEntity
  8
01
  6
BYBLOCK
100
AcDbLine
 10
2443.740863365577
 20
-523.6624517992753
 30
0.0
 11
2446.340863365577
 21
-522.9657839052753
 31
0.0
  0
LINE
  5
1B416
330
18
100
AcDbEntity
  8
01
  6
BYBLOCK
100
AcDbLine
 10
2443.740863365577
 20
-523.6624517992753
 30
0.0
 11
2446.340863365577
 21
-523.6624517992753
 31
0.0
  0
LINE
  5
1B417
330
18
100
AcDbEntity
  8
01
  6
BYBLOCK
100
AcDbLine
 10
2466.140863365577
 20
-522.9657839052753
 30
0.0
 11
2468.740863365577
 21
-523.6624517992753
 31
0.0
  0
LINE
  5
1B418
330
18
100
AcDbEntity
  8
01
  6
BYBLOCK
100
AcDbLine
 10
2468.740863365577
 20
-523.6624517992753
 30
0.0
 11
2466.140863365577
 21
-524.3591196932754
 31
0.0
  0
LINE
  5
1B419
330
18
100
AcDbEntity
  8
01
  6
BYBLOCK
100
AcDbLine
 10
2468.740863365577
 20
-523.6624517992753
 30
0.0
 11
2466.140863365577
 21
-523.6624517992753
 31
0.0
  0
TEXT
  5
1B41A
330
18
100
AcDbEntity
  8
01
  6
CONTINUOUS
100
AcDbText
 10
2452.44919669891
 20
-522.7524517992754
 30
0.0
 40
4.55
  1
25
100
AcDbText
1001
ACAD
1000
DSTYLE
1002
{
1070
    40
1040
1.3
1070
    45
1040
0.5
1002
}
  0
LINE
  5
1B41B
330
18
100
AcDbEntity
  8
01
  6
BYBLOCK
100
AcDbLine
 10
2566.84074702583
 20
-524.3591196932754
 30
0.0
 11
2564.24074702583
 21
-523.6624517992753
 31
0.0
  0
LINE
  5
1B41C
330
18
100
AcDbEntity
  8
01
  6
BYBLOCK
100
AcDbLine
 10
2564.24074702583
 20
-523.6624517992753
 30
0.0
 11
2566.84074702583
 21
-522.9657839052753
 31
0.0
  0
LINE
  5
1B41D
330
18
100
AcDbEntity
  8
01
  6
BYBLOCK
100
AcDbLine
 10
2564.24074702583
 20
-523.6624517992753
 30
0.0
 11
2566.84074702583
 21
-523.6624517992753
 31
0.0
  0
LINE
  5
1B41E
330
18
100
AcDbEntity
  8
01
  6
BYBLOCK
100
AcDbLine
 10
2572.64074702583
 20
-522.9657839052753
 30
0.0
 11
2575.24074702583
 21
-523.6624517992753
 31
0.0
  0
LINE
  5
1B41F
330
18
100
AcDbEntity
  8
01
  6
BYBLOCK
100
AcDbLine
 10
2575.24074702583
 20
-523.6624517992753
 30
0.0
 11
2572.64074702583
 21
-524.3591196932754
 31
0.0
  0
LINE
  5
1B420
330
18
100
AcDbEntity
  8
01
  6
BYBLOCK
100
AcDbLine
 10
2575.24074702583
 20
-523.6624517992753
 30
0.0
 11
2572.64074702583
 21
-523.6624517992753
 31
0.0
  0
TEXT
  5
1B421
330
18
100
AcDbEntity
  8
01
  6
CONTINUOUS
100
AcDbText
 10
2567.46574702583
 20
-522.7524517992754
 30
0.0
 40
4.55
  1
11
100
AcDbText
1001
ACAD
1000
DSTYLE
1002
{
1070
    40
1040
1.3
1070
    45
1040
0.5
1002
}
  0
LINE
  5
1B422
330
18
100
AcDbEntity
  8
01
  6
BYBLOCK
100
AcDbLine
 10
2670.544079131831
 20
-597.1839438839634
 30
0.0
 11
2671.24074702583
 21
-594.5839438839633
 31
0.0
  0
LINE
  5
1B423
330
18
100
AcDbEntity
  8
01
  6
BYBLOCK
100
AcDbLine
 10
2671.24074702583
 20
-594.5839438839633
 30
0.0
 11
2671.93741491983
 21
-597.1839438839634
 31
0.0
  0
LINE
  5
1B424
330
18
100
AcDbEntity
  8
01
  6
BYBLOCK
100
AcDbLine
 10
2671.24074702583
 20
-594.5839438839633
 30
0.0
 11
2671.24074702583
 21
-597.1839438839634
 31
0.0
  0
LINE
  5
1B425
330
18
100
AcDbEntity
  8
01
  6
BYBLOCK
100
AcDbLine
 10
2671.93741491983
 20
-666.4839438839633
 30
0.0
 11
2671.24074702583
 21
-669.0839438839633
 31
0.0
  0
LINE
  5
1B426
330
18
100
AcDbEntity
  8
01
  6
BYBLOCK
100
AcDbLine
 10
2671.24074702583
 20
-669.0839438839633
 30
0.0
 11
2670.544079131831
 21
-666.4839438839633
 31
0.0
  0
LINE
  5
1B427
330
18
100
AcDbEntity
  8
01
  6
BYBLOCK
100
AcDbLine
 10
2671.24074702583
 20
-669.0839438839633
 30
0.0
 11
2671.24074702583
 21
-666.4839438839633
 31
0.0
  0
TEXT
  5
1B428
330
18
100
AcDbEntity
  8
01
  6
CONTINUOUS
100
AcDbText
 10
2670.330747025831
 20
-617.1459331312776
 30
0.0
 40
4.55
  1
74.5
 50
90.0
100
AcDbText
1001
ACAD
1000
DSTYLE
1002
{
1070
    40
1040
1.3
1070
    45
1040
0.5
1002
}
  0
LINE
  5
1B429
330
18
100
AcDbEntity
  8
01
  6
BYBLOCK
100
AcDbLine
 10
2641.64074702583
 20
-512.8859164372271
 30
0.0
 11
2644.24074702583
 21
-513.5825843312272
 31
0.0
  0
LINE
  5
1B42A
330
18
100
AcDbEntity
  8
01
  6
BYBLOCK
100
AcDbLine
 10
2644.24074702583
 20
-513.5825843312272
 30
0.0
 11
2641.64074702583
 21
-514.2792522252272
 31
0.0
  0
LINE
  5
1B42B
330
18
100
AcDbEntity
  8
01
  6
BYBLOCK
100
AcDbLine
 10
2644.24074702583
 20
-513.5825843312272
 30
0.0
 11
2641.64074702583
 21
-513.5825843312272
 31
0.0
  0
LINE
  5
1B42C
330
18
100
AcDbEntity
  8
01
  6
BYBLOCK
100
AcDbLine
 10
2577.84074702583
 20
-514.2792522252272
 30
0.0
 11
2575.24074702583
 21
-513.5825843312272
 31
0.0
  0
LINE
  5
1B42D
330
18
100
AcDbEntity
  8
01
  6
BYBLOCK
100
AcDbLine
 10
2575.24074702583
 20
-513.5825843312272
 30
0.0
 11
2577.84074702583
 21
-512.8859164372271
 31
0.0
  0
LINE
  5
1B42E
330
18
100
AcDbEntity
  8
01
  6
BYBLOCK
100
AcDbLine
 10
2575.24074702583
 20
-513.5825843312272
 30
0.0
 11
2577.84074702583
 21
-513.5825843312272
 31
0.0
  0
TEXT
  5
1B42F
330
18
100
AcDbEntity
  8
01
  6
CONTINUOUS
100
AcDbText
 10
2605.932228507312
 20
-512.6725843312272
 30
0.0
 40
4.55
  1
69
100
AcDbText
1001
ACAD
1000
DSTYLE
1002
{
1070
    40
1040
1.3
1070
    45
1040
0.5
1002
}
  0
LINE
  5
1B430
330
18
100
AcDbEntity
  8
01
  6
BYBLOCK
100
AcDbLine
 10
2577.84074702583
 20
-524.3591196932754
 30
0.0
 11
2575.24074702583
 21
-523.6624517992753
 31
0.0
  0
LINE
  5
1B431
330
18
100
AcDbEntity
  8
01
  6
BYBLOCK
100
AcDbLine
 10
2575.24074702583
 20
-523.6624517992753
 30
0.0
 11
2577.84074702583
 21
-522.9657839052753
 31
0.0
  0
LINE
  5
1B432
330
18
100
AcDbEntity
  8
01
  6
BYBLOCK
100
AcDbLine
 10
2575.24074702583
 20
-523.6624517992753
 30
0.0
 11
2577.84074702583
 21
-523.6624517992753
 31
0.0
  0
LINE
  5
1B433
330
18
100
AcDbEntity
  8
01
  6
BYBLOCK
100
AcDbLine
 10
2623.64074702583
 20
-522.9657839052753
 30
0.0
 11
2626.24074702583
 21
-523.6624517992753
 31
0.0
  0
LINE
  5
1B434
330
18
100
AcDbEntity
  8
01
  6
BYBLOCK
100
AcDbLine
 10
2626.24074702583
 20
-523.6624517992753
 30
0.0
 11
2623.64074702583
 21
-524.3591196932754
 31
0.0
  0
LINE
  5
1B435
330
18
100
AcDbEntity
  8
01
  6
BYBLOCK
100
AcDbLine
 10
2626.24074702583
 20
-523.6624517992753
 30
0.0
 11
2623.64074702583
 21
-523.6624517992753
 31
0.0
  0
TEXT
  5
1B436
330
18
100
AcDbEntity
  8
01
  6
CONTINUOUS
100
AcDbText
 10
2597.691615081386
 20
-522.7524517992754
 30
0.0
 40
4.55
  1
51
100
AcDbText
1001
ACAD
1000
DSTYLE
1002
{
1070
    40
1040
1.3
1070
    45
1040
0.5
1002
}
  0
LINE
  5
1B437
330
18
100
AcDbEntity
  8
01
  6
BYBLOCK
100
AcDbLine
 10
2590.544079131831
 20
-629.182625570862
 30
0.0
 11
2591.24074702583
 21
-626.582625570862
 31
0.0
  0
LINE
  5
1B438
330
18
100
AcDbEntity
  8
01
  6
BYBLOCK
100
AcDbLine
 10
2591.24074702583
 20
-626.582625570862
 30
0.0
 11
2591.93741491983
 21
-629.182625570862
 31
0.0
  0
LINE
  5
1B439
330
18
100
AcDbEntity
  8
01
  6
BYBLOCK
100
AcDbLine
 10
2591.24074702583
 20
-626.582625570862
 30
0.0
 11
2591.24074702583
 21
-629.182625570862
 31
0.0
  0
LINE
  5
1B43A
330
18
100
AcDbEntity
  8
01
  6
BYBLOCK
100
AcDbLine
 10
2591.93741491983
 20
-676.982625570862
 30
0.0
 11
2591.24074702583
 21
-679.582625570862
 31
0.0
  0
LINE
  5
1B43B
330
18
100
AcDbEntity
  8
01
  6
BYBLOCK
100
AcDbLine
 10
2591.24074702583
 20
-679.582625570862
 30
0.0
 11
2590.544079131831
 21
-676.982625570862
 31
0.0
  0
LINE
  5
1B43C
330
18
100
AcDbEntity
  8
01
  6
BYBLOCK
100
AcDbLine
 10
2591.24074702583
 20
-679.582625570862
 30
0.0
 11
2591.24074702583
 21
-676.982625570862
 31
0.0
  0
TEXT
  5
1B43D
330
18
100
AcDbEntity
  8
01
  6
CONTINUOUS
100
AcDbText
 10
2590.330747025831
 20
-661.1115034774593
 30
0.0
 40
4.55
  1
□53
 50
90.0
100
AcDbText
1001
ACAD
1000
DSTYLE
1002
{
1070
     3
1000
□<>
1070
    40
1040
1.3
1070
    45
1040
0.5
1002
}
  0
LINE
  5
1B43E
330
18
100
AcDbEntity
  8
01
  6
BYBLOCK
100
AcDbLine
 10
2433.640863365581
 20
-546.3872759902378
 30
0.0
 11
2436.240863365581
 21
-547.0839438842378
 31
0.0
  0
LINE
  5
1B43F
330
18
100
AcDbEntity
  8
01
  6
BYBLOCK
100
AcDbLine
 10
2436.240863365581
 20
-547.0839438842378
 30
0.0
 11
2433.640863365581
 21
-547.7806117782378
 31
0.0
  0
LINE
  5
1B440
330
18
100
AcDbEntity
  8
01
  6
BYBLOCK
100
AcDbLine
 10
2436.240863365581
 20
-547.0839438842378
 30
0.0
 11
2433.640863365581
 21
-547.0839438842378
 31
0.0
  0
LINE
  5
1B441
330
18
100
AcDbEntity
  8
01
  6
BYBLOCK
100
AcDbLine
 10
2416.840477799861
 20
-547.7806117782378
 30
0.0
 11
2414.240477799861
 21
-547.0839438842378
 31
0.0
  0
LINE
  5
1B442
330
18
100
AcDbEntity
  8
01
  6
BYBLOCK
100
AcDbLine
 10
2414.240477799861
 20
-547.0839438842378
 30
0.0
 11
2416.840477799861
 21
-546.3872759902378
 31
0.0
  0
LINE
  5
1B443
330
18
100
AcDbEntity
  8
01
  6
BYBLOCK
100
AcDbLine
 10
2414.240477799861
 20
-547.0839438842378
 30
0.0
 11
2416.840477799861
 21
-547.0839438842378
 31
0.0
  0
TEXT
  5
1B444
330
18
100
AcDbEntity
  8
01
  6
CONTINUOUS
100
AcDbText
 10
2421.449003916055
 20
-546.1739438842378
 30
0.0
 40
4.55
  1
22
100
AcDbText
1001
ACAD
1000
DSTYLE
1002
{
1070
    40
1040
1.3
1070
    45
1040
0.5
1070
   341
1005
0
1002
}
  0
LINE
  5
1B445
330
18
100
AcDbEntity
  8
01
  6
BYBLOCK
100
AcDbLine
 10
2478.840863365581
 20
-547.7806117782378
 30
0.0
 11
2476.240863365581
 21
-547.0839438842378
 31
0.0
  0
LINE
  5
1B446
330
18
100
AcDbEntity
  8
01
  6
BYBLOCK
100
AcDbLine
 10
2476.240863365581
 20
-547.0839438842378
 30
0.0
 11
2478.840863365581
 21
-546.3872759902378
 31
0.0
  0
LINE
  5
1B447
330
18
100
AcDbEntity
  8
01
  6
BYBLOCK
100
AcDbLine
 10
2476.240863365581
 20
-547.0839438842378
 30
0.0
 11
2478.840863365581
 21
-547.0839438842378
 31
0.0
  0
LINE
  5
1B448
330
18
100
AcDbEntity
  8
01
  6
BYBLOCK
100
AcDbLine
 10
2481.809447054542
 20
-546.3872759902378
 30
0.0
 11
2484.409447054541
 21
-547.0839438842378
 31
0.0
  0
LINE
  5
1B449
330
18
100
AcDbEntity
  8
01
  6
BYBLOCK
100
AcDbLine
 10
2484.409447054541
 20
-547.0839438842378
 30
0.0
 11
2481.809447054542
 21
-547.7806117782378
 31
0.0
  0
LINE
  5
1B44A
330
18
100
AcDbEntity
  8
01
  6
BYBLOCK
100
AcDbLine
 10
2484.409447054541
 20
-547.0839438842378
 30
0.0
 11
2481.809447054542
 21
-547.0839438842378
 31
0.0
  0
TEXT
  5
1B44B
330
18
100
AcDbEntity
  8
01
  6
CONTINUOUS
100
AcDbText
 10
2478.808488543394
 20
-546.1739438842378
 30
0.0
 40
4.55
  1
8
100
AcDbText
1001
ACAD
1000
DSTYLE
1002
{
1070
    40
1040
1.3
1070
    45
1040
0.5
1070
   271
1070
     1
1070
   341
1005
0
1002
}
  0
LINE
  5
1B44C
330
18
100
AcDbEntity
  8
1DIM
100
AcDbLine
 10
2256.240867365575
 20
-653.0839438839631
 30
0.0
 11
2241.247014963286
 21
-653.0839438839631
 31
0.0
1001
ACAD
1000
DSTYLE
1002
{
1070
    40
1040
1.3
1070
    45
1040
0.5
1070
   341
1005
0
1002
}
  0
LINE
  5
1B44D
330
18
100
AcDbEntity
  8
1DIM
100
AcDbLine
 10
2263.740859365575
 20
-597.5839438839629
 30
0.0
 11
2241.247014963286
 21
-597.5839438839629
 31
0.0
1001
ACAD
1000
DSTYLE
1002
{
1070
    40
1040
1.3
1070
    45
1040
0.5
1070
   341
1005
0
1002
}
  0
LINE
  5
1B44E
330
18
100
AcDbEntity
  8
1DIM
100
AcDbLine
 10
2242.547014963287
 20
-650.4839438839631
 30
0.0
 11
2242.547014963287
 21
-600.1839438839629
 31
0.0
1001
ACAD
1000
DSTYLE
1002
{
1070
    40
1040
1.3
1070
    45
1040
0.5
1070
   341
1005
0
1002
}
  0
SOLID
  5
1B452
330
18
100
AcDbEntity
  8
1DIM
100
AcDbTrace
 10
2623.610596380576
 20
-429.1347009389072
 30
0.0
 11
2625.981348265891
 21
-427.9826101108669
 31
0.0
 12
2624.112396210498
 22
-429.8413182623584
 32
0.0
 13
2624.112396210498
 23
-429.8413182623584
 33
0.0
1001
ACAD
1000
DSTYLE
1002
{
1070
    40
1040
1.3
1070
    45
1040
0.5
1002
}
  0
LINE
  5
1B453
330
18
100
AcDbEntity
  8
1DIM
100
AcDbLine
 10
2623.861496295537
 20
-429.4880096006328
 30
0.0
 11
2596.393908118848
 21
-448.993943884992
 31
0.0
1001
ACAD
1000
DSTYLE
1002
{
1070
    40
1040
1.3
1070
    45
1040
0.5
1002
}
  0
LINE
  5
1B454
330
18
100
AcDbEntity
  8
1DIM
100
AcDbLine
 10
2626.240863365573
 20
-424.583943884992
 30
0.0
 11
2626.240863365573
 21
-489.383943884992
 31
0.0
1001
ACAD
1000
DSTYLE
1002
{
1070
    40
1040
1.3
1070
    45
1040
0.5
1002
}
  0
LINE
  5
1B455
330
18
100
AcDbEntity
  8
1DIM
100
AcDbLine
 10
2746.240844045834
 20
-455.6526093400242
 30
0.0
 11
2746.240844045834
 21
-489.383943884992
 31
0.0
1001
ACAD
1000
DSTYLE
1002
{
1070
    40
1040
1.3
1070
    45
1040
0.5
1002
}
  0
LINE
  5
1B456
330
18
100
AcDbEntity
  8
1DIM
100
AcDbLine
 10
2628.840863365573
 20
-488.083943884992
 30
0.0
 11
2743.640844045834
 21
-488.083943884992
 31
0.0
1001
ACAD
1000
DSTYLE
1002
{
1070
    40
1040
1.3
1070
    45
1040
0.5
1002
}
  0
LINE
  5
1B45A
330
18
100
AcDbEntity
  8
1DIM
100
AcDbLine
 10
2613.324729489391
 20
-460.9840656948699
 30
0.0
 11
2613.324729489391
 21
-499.383943884992
 31
0.0
1001
ACAD
1000
DSTYLE
1002
{
1070
    40
1040
1.3
1070
    45
1040
0.5
1002
}
  0
LINE
  5
1B45B
330
18
100
AcDbEntity
  8
1DIM
100
AcDbLine
 10
2746.240844045834
 20
-455.6526093400242
 30
0.0
 11
2746.240844045834
 21
-499.383943884992
 31
0.0
1001
ACAD
1000
DSTYLE
1002
{
1070
    40
1040
1.3
1070
    45
1040
0.5
1002
}
  0
LINE
  5
1B45C
330
18
100
AcDbEntity
  8
1DIM
100
AcDbLine
 10
2615.924729489391
 20
-498.083943884992
 30
0.0
 11
2743.640844045834
 21
-498.083943884992
 31
0.0
1001
ACAD
1000
DSTYLE
1002
{
1070
    40
1040
1.3
1070
    45
1040
0.5
1002
}
  0
LINE
  5
1B460
330
18
100
AcDbEntity
  8
1DIM
100
AcDbLine
 10
2744.740844045834
 20
-439.0839438846568
 30
0.0
 11
2782.540863365573
 21
-439.0839438846568
 31
0.0
1001
ACAD
1000
DSTYLE
1002
{
1070
    40
1040
1.3
1070
    45
1040
0.5
1002
}
  0
LINE
  5
1B461
330
18
100
AcDbEntity
  8
1DIM
100
AcDbLine
 10
2728.996011362921
 20
-403.083943884992
 30
0.0
 11
2782.540863365573
 21
-403.083943884992
 31
0.0
1001
ACAD
1000
DSTYLE
1002
{
1070
    40
1040
1.3
1070
    45
1040
0.5
1002
}
  0
LINE
  5
1B462
330
18
100
AcDbEntity
  8
1DIM
100
AcDbLine
 10
2781.240863365573
 20
-436.4839438846568
 30
0.0
 11
2781.240863365573
 21
-405.683943884992
 31
0.0
1001
ACAD
1000
DSTYLE
1002
{
1070
    40
1040
1.3
1070
    45
1040
0.5
1002
}
  0
LINE
  5
1B466
330
18
100
AcDbEntity
  8
1DIM
100
AcDbLine
 10
2615.324729489391
 20
-462.9840656948699
 30
0.0
 11
2792.540863365573
 21
-462.9840656948699
 31
0.0
1001
ACAD
1000
DSTYLE
1002
{
1070
    40
1040
1.3
1070
    45
1040
0.5
1002
}
  0
LINE
  5
1B467
330
18
100
AcDbEntity
  8
1DIM
100
AcDbLine
 10
2728.996011362921
 20
-403.083943884992
 30
0.0
 11
2792.540863365573
 21
-403.083943884992
 31
0.0
1001
ACAD
1000
DSTYLE
1002
{
1070
    40
1040
1.3
1070
    45
1040
0.5
1002
}
  0
LINE
  5
1B468
330
18
100
AcDbEntity
  8
1DIM
100
AcDbLine
 10
2791.240863365573
 20
-460.3840656948699
 30
0.0
 11
2791.240863365573
 21
-405.683943884992
 31
0.0
1001
ACAD
1000
DSTYLE
1002
{
1070
    40
1040
1.3
1070
    45
1040
0.5
1002
}
  0
LINE
  5
1B46C
330
18
100
AcDbEntity
  8
1DIM
100
AcDbLine
 10
2745.052548955128
 20
-657.5163436191134
 30
0.0
 11
2782.540747025831
 21
-657.5163436191134
 31
0.0
1001
ACAD
1000
DSTYLE
1002
{
1070
    40
1040
1.3
1070
    45
1040
0.5
1002
}
  0
LINE
  5
1B46D
330
18
100
AcDbEntity
  8
1DIM
100
AcDbLine
 10
2744.79340557978
 20
-648.6162422165202
 30
0.0
 11
2782.540747025831
 21
-648.6162422165202
 31
0.0
1001
ACAD
1000
DSTYLE
1002
{
1070
    40
1040
1.3
1070
    45
1040
0.5
1002
}
  0
LINE
  5
1B46E
330
18
100
AcDbEntity
  8
1DIM
100
AcDbLine
 10
2781.24074702583
 20
-654.9163436191134
 30
0.0
 11
2781.24074702583
 21
-651.2162422165202
 31
0.0
1001
ACAD
1000
DSTYLE
1002
{
1070
    40
1040
1.3
1070
    45
1040
0.5
1002
}
  0
LINE
  5
1B472
330
18
100
AcDbEntity
  8
0
  6
BYBLOCK
100
AcDbLine
 10
2243.243682857286
 20
-650.4839438839631
 30
0.0
 11
2242.547014963287
 21
-653.0839438839631
 31
0.0
  0
LINE
  5
1B473
330
18
100
AcDbEntity
  8
0
  6
BYBLOCK
100
AcDbLine
 10
2242.547014963287
 20
-653.0839438839631
 30
0.0
 11
2241.850347069287
 21
-650.4839438839631
 31
0.0
  0
LINE
  5
1B474
330
18
100
AcDbEntity
  8
0
  6
BYBLOCK
100
AcDbLine
 10
2242.547014963287
 20
-653.0839438839631
 30
0.0
 11
2242.547014963287
 21
-650.4839438839631
 31
0.0
  0
LINE
  5
1B475
330
18
100
AcDbEntity
  8
0
  6
BYBLOCK
100
AcDbLine
 10
2241.850347069287
 20
-600.1839438839629
 30
0.0
 11
2242.547014963287
 21
-597.5839438839629
 31
0.0
  0
LINE
  5
1B476
330
18
100
AcDbEntity
  8
0
  6
BYBLOCK
100
AcDbLine
 10
2242.547014963287
 20
-597.5839438839629
 30
0.0
 11
2243.243682857286
 21
-600.1839438839629
 31
0.0
  0
LINE
  5
1B477
330
18
100
AcDbEntity
  8
0
  6
BYBLOCK
100
AcDbLine
 10
2242.547014963287
 20
-597.5839438839629
 30
0.0
 11
2242.547014963287
 21
-600.1839438839629
 31
0.0
  0
TEXT
  5
1B478
330
18
100
AcDbEntity
  8
1DIM
  6
CONTINUOUS
100
AcDbText
 10
2241.637014963287
 20
-632.1905411061848
 30
0.0
 40
4.55
  1
55.5
 50
90.0
100
AcDbText
1001
ACAD
1000
DSTYLE
1002
{
1070
    40
1040
1.3
1070
    45
1040
0.5
1070
   341
1005
0
1002
}
  0
LINE
  5
1B479
330
18
100
AcDbEntity
  8
0
  6
BYBLOCK
100
AcDbLine
 10
2628.840863365573
 20
-488.780611778992
 30
0.0
 11
2626.240863365573
 21
-488.083943884992
 31
0.0
  0
LINE
  5
1B47A
330
18
100
AcDbEntity
  8
0
  6
BYBLOCK
100
AcDbLine
 10
2626.240863365573
 20
-488.083943884992
 30
0.0
 11
2628.840863365573
 21
-487.387275990992
 31
0.0
  0
LINE
  5
1B47B
330
18
100
AcDbEntity
  8
0
  6
BYBLOCK
100
AcDbLine
 10
2626.240863365573
 20
-488.083943884992
 30
0.0
 11
2628.840863365573
 21
-488.083943884992
 31
0.0
  0
LINE
  5
1B47C
330
18
100
AcDbEntity
  8
0
  6
BYBLOCK
100
AcDbLine
 10
2743.640844045834
 20
-487.387275990992
 30
0.0
 11
2746.240844045834
 21
-488.083943884992
 31
0.0
  0
LINE
  5
1B47D
330
18
100
AcDbEntity
  8
0
  6
BYBLOCK
100
AcDbLine
 10
2746.240844045834
 20
-488.083943884992
 30
0.0
 11
2743.640844045834
 21
-488.780611778992
 31
0.0
  0
LINE
  5
1B47E
330
18
100
AcDbEntity
  8
0
  6
BYBLOCK
100
AcDbLine
 10
2746.240844045834
 20
-488.083943884992
 30
0.0
 11
2743.640844045834
 21
-488.083943884992
 31
0.0
  0
TEXT
  5
1B47F
330
18
100
AcDbEntity
  8
1DIM
  6
CONTINUOUS
100
AcDbText
 10
2681.21689537237
 20
-487.173943884992
 30
0.0
 40
4.55
  1
120
100
AcDbText
1001
ACAD
1000
DSTYLE
1002
{
1070
    40
1040
1.3
1070
    45
1040
0.5
1002
}
  0
LINE
  5
1B480
330
18
100
AcDbEntity
  8
0
  6
BYBLOCK
100
AcDbLine
 10
2615.924729489391
 20
-498.780611778992
 30
0.0
 11
2613.324729489391
 21
-498.083943884992
 31
0.0
  0
LINE
  5
1B481
330
18
100
AcDbEntity
  8
0
  6
BYBLOCK
100
AcDbLine
 10
2613.324729489391
 20
-498.083943884992
 30
0.0
 11
2615.924729489391
 21
-497.387275990992
 31
0.0
  0
LINE
  5
1B482
330
18
100
AcDbEntity
  8
0
  6
BYBLOCK
100
AcDbLine
 10
2613.324729489391
 20
-498.083943884992
 30
0.0
 11
2615.924729489391
 21
-498.083943884992
 31
0.0
  0
LINE
  5
1B483
330
18
100
AcDbEntity
  8
0
  6
BYBLOCK
100
AcDbLine
 10
2743.640844045834
 20
-497.387275990992
 30
0.0
 11
2746.240844045834
 21
-498.083943884992
 31
0.0
  0
LINE
  5
1B484
330
18
100
AcDbEntity
  8
0
  6
BYBLOCK
100
AcDbLine
 10
2746.240844045834
 20
-498.083943884992
 30
0.0
 11
2743.640844045834
 21
-498.780611778992
 31
0.0
  0
LINE
  5
1B485
330
18
100
AcDbEntity
  8
0
  6
BYBLOCK
100
AcDbLine
 10
2746.240844045834
 20
-498.083943884992
 30
0.0
 11
2743.640844045834
 21
-498.083943884992
 31
0.0
  0
TEXT
  5
1B486
330
18
100
AcDbEntity
  8
1DIM
  6
CONTINUOUS
100
AcDbText
 10
2674.474453434279
 20
-497.173943884992
 30
0.0
 40
4.55
  1
133
100
AcDbText
1001
ACAD
1000
DSTYLE
1002
{
1070
    40
1040
1.3
1070
    45
1040
0.5
1002
}
  0
LINE
  5
1B487
330
18
100
AcDbEntity
  8
0
  6
BYBLOCK
100
AcDbLine
 10
2781.937531259573
 20
-436.4839438846568
 30
0.0
 11
2781.240863365573
 21
-439.0839438846568
 31
0.0
  0
LINE
  5
1B488
330
18
100
AcDbEntity
  8
0
  6
BYBLOCK
100
AcDbLine
 10
2781.240863365573
 20
-439.0839438846568
 30
0.0
 11
2780.544195471573
 21
-436.4839438846568
 31
0.0
  0
LINE
  5
1B489
330
18
100
AcDbEntity
  8
0
  6
BYBLOCK
100
AcDbLine
 10
2781.240863365573
 20
-439.0839438846568
 30
0.0
 11
2781.240863365573
 21
-436.4839438846568
 31
0.0
  0
LINE
  5
1B48A
330
18
100
AcDbEntity
  8
0
  6
BYBLOCK
100
AcDbLine
 10
2780.544195471573
 20
-405.683943884992
 30
0.0
 11
2781.240863365573
 21
-403.083943884992
 31
0.0
  0
LINE
  5
1B48B
330
18
100
AcDbEntity
  8
0
  6
BYBLOCK
100
AcDbLine
 10
2781.240863365573
 20
-403.083943884992
 30
0.0
 11
2781.937531259573
 21
-405.683943884992
 31
0.0
  0
LINE
  5
1B48C
330
18
100
AcDbEntity
  8
0
  6
BYBLOCK
100
AcDbLine
 10
2781.240863365573
 20
-403.083943884992
 30
0.0
 11
2781.240863365573
 21
-405.683943884992
 31
0.0
  0
TEXT
  5
1B48D
330
18
100
AcDbEntity
  8
1DIM
  6
CONTINUOUS
100
AcDbText
 10
2780.330863365573
 20
-424.8756105514904
 30
0.0
 40
4.55
  1
36
 50
90.0
100
AcDbText
1001
ACAD
1000
DSTYLE
1002
{
1070
    40
1040
1.3
1070
    45
1040
0.5
1002
}
  0
LINE
  5
1B48E
330
18
100
AcDbEntity
  8
0
  6
BYBLOCK
100
AcDbLine
 10
2791.937531259573
 20
-460.3840656948699
 30
0.0
 11
2791.240863365573
 21
-462.9840656948699
 31
0.0
  0
LINE
  5
1B48F
330
18
100
AcDbEntity
  8
0
  6
BYBLOCK
100
AcDbLine
 10
2791.240863365573
 20
-462.9840656948699
 30
0.0
 11
2790.544195471573
 21
-460.3840656948699
 31
0.0
  0
LINE
  5
1B490
330
18
100
AcDbEntity
  8
0
  6
BYBLOCK
100
AcDbLine
 10
2791.240863365573
 20
-462.9840656948699
 30
0.0
 11
2791.240863365573
 21
-460.3840656948699
 31
0.0
  0
LINE
  5
1B491
330
18
100
AcDbEntity
  8
0
  6
BYBLOCK
100
AcDbLine
 10
2790.544195471573
 20
-405.683943884992
 30
0.0
 11
2791.240863365573
 21
-403.083943884992
 31
0.0
  0
LINE
  5
1B492
330
18
100
AcDbEntity
  8
0
  6
BYBLOCK
100
AcDbLine
 10
2791.240863365573
 20
-403.083943884992
 30
0.0
 11
2791.937531259573
 21
-405.683943884992
 31
0.0
  0
LINE
  5
1B493
330
18
100
AcDbEntity
  8
0
  6
BYBLOCK
100
AcDbLine
 10
2791.240863365573
 20
-403.083943884992
 30
0.0
 11
2791.240863365573
 21
-405.683943884992
 31
0.0
  0
TEXT
  5
1B494
330
18
100
AcDbEntity
  8
1DIM
  6
CONTINUOUS
100
AcDbText
 10
2790.330863365573
 20
-436.5570950677079
 30
0.0
 40
4.55
  1
60
 50
90.0
100
AcDbText
1001
ACAD
1000
DSTYLE
1002
{
1070
    40
1040
1.3
1070
    45
1040
0.5
1002
}
  0
LINE
  5
1B495
330
18
100
AcDbEntity
  8
0
  6
BYBLOCK
100
AcDbLine
 10
2781.93741491983
 20
-654.9163436191134
 30
0.0
 11
2781.24074702583
 21
-657.5163436191134
 31
0.0
  0
LINE
  5
1B496
330
18
100
AcDbEntity
  8
0
  6
BYBLOCK
100
AcDbLine
 10
2781.24074702583
 20
-657.5163436191134
 30
0.0
 11
2780.544079131831
 21
-654.9163436191134
 31
0.0
  0
LINE
  5
1B497
330
18
100
AcDbEntity
  8
0
  6
BYBLOCK
100
AcDbLine
 10
2781.24074702583
 20
-657.5163436191134
 30
0.0
 11
2781.24074702583
 21
-654.9163436191134
 31
0.0
  0
LINE
  5
1B498
330
18
100
AcDbEntity
  8
0
  6
BYBLOCK
100
AcDbLine
 10
2780.544079131831
 20
-651.2162422165202
 30
0.0
 11
2781.24074702583
 21
-648.6162422165202
 31
0.0
  0
LINE
  5
1B499
330
18
100
AcDbEntity
  8
0
  6
BYBLOCK
100
AcDbLine
 10
2781.24074702583
 20
-648.6162422165202
 30
0.0
 11
2781.93741491983
 21
-651.2162422165202
 31
0.0
  0
LINE
  5
1B49A
330
18
100
AcDbEntity
  8
0
  6
BYBLOCK
100
AcDbLine
 10
2781.24074702583
 20
-648.6162422165202
 30
0.0
 11
2781.24074702583
 21
-651.2162422165202
 31
0.0
  0
TEXT
  5
1B49B
330
18
100
AcDbEntity
  8
1DIM
  6
CONTINUOUS
100
AcDbText
 10
2780.330747025831
 20
-654.5850660659648
 30
0.0
 40
4.55
  1
9
 50
90.0
100
AcDbText
1001
ACAD
1000
DSTYLE
1002
{
1070
    40
1040
1.3
1070
    45
1040
0.5
1002
}
  0
VIEWPORT
  5
57
330
15
100
AcDbEntity
 67
     1
  8
0
100
AcDbViewport
 68
     1
 10
0.0
 20
0.0
 30
0.0
 40
535.5106132075472
 41
297.0
 68
     1
 69
     1
1001
ACAD
1000
MVIEW
1002
{
1070
    16
1010
0.0
1020
0.0
1030
0.0
1010
0.0
1020
0.0
1030
1.0
1040
0.0
1040
297.0
1040
5.728000000000009
1040
25.339
1040
50.0
1040
0.0
1040
0.0
1070
    16
1070
   100
1070
     0
1070
     1
1070
     0
1070
     0
1070
     0
1070
     0
1040
0.0
1040
0.0
1040
0.0
1040
10.0
1040
10.0
1040
10.0
1040
10.0
1070
     0
1002
{
1002
}
1002
}
  0
ENDSEC
  0
SECTION
  2
OBJECTS
  0
DICTIONARY
  5
C
330
0
100
AcDbDictionary
  3
ACAD_COLOR
350
18D
  3
ACAD_GROUP
350
D
  3
ACAD_LAYOUT
350
18E
  3
ACAD_MATERIAL
350
18C
  3
ACAD_MLEADERSTYLE
350
D9E7
  3
ACAD_MLINESTYLE
350
1B
  3
ACAD_PLOTSETTINGS
350
18F
  3
ACAD_SCALELIST
350
D9C5
  3
ACAD_VISUALSTYLE
350
D9B4
  3
ACDBHEADERROUNDTRIPXREC
350
1B49C
  3
ACDBVARIABLEDICTIONARY
350
37
  3
AEC_PROPERTY_SET_DEFS
350
1AAA6
  3
CONTENTDICTIONARY
350
D8
  3
DRAWINGVARIABLESDICT
350
20
  3
DWGPROPS
350
1B49F
1001
ACAD
1000
TREAT_AS_HARD
1070
     0
  0
DICTIONARY
  5
E6A6
330
2
100
AcDbDictionary
  3
ACAD_LAYERSTATES
360
E6A7
1001
ACAD
1000
TREAT_AS_HARD
1070
     1
  0
DICTIONARY
  5
DA05
330
E
100
AcDbDictionary
  3
ADSK_XREC_LAYER_RECONCILED
360
DA06
1001
ACAD
1000
TREAT_AS_HARD
1070
     1
  0
DICTIONARY
  5
DA07
330
29
100
AcDbDictionary
  3
ADSK_XREC_LAYER_RECONCILED
360
DA08
1001
ACAD
1000
TREAT_AS_HARD
1070
     1
  0
DICTIONARY
  5
DA09
330
31
100
AcDbDictionary
  3
ADSK_XREC_LAYER_RECONCILED
360
DA0A
1001
ACAD
1000
TREAT_AS_HARD
1070
     1
  0
DICTIONARY
  5
DA0F
330
243
100
AcDbDictionary
  3
ADSK_XREC_LAYER_RECONCILED
360
DA10
1001
ACAD
1000
TREAT_AS_HARD
1070
     1
  0
DICTIONARY
  5
DA15
330
24E
100
AcDbDictionary
  3
ADSK_XREC_LAYER_RECONCILED
360
DA16
1001
ACAD
1000
TREAT_AS_HARD
1070
     1
  0
DICTIONARY
  5
DA23
330
2C05
100
AcDbDictionary
  3
ADSK_XREC_LAYER_RECONCILED
360
DA24
1001
ACAD
1000
TREAT_AS_HARD
1070
     1
  0
DICTIONARY
  5
88F
330
18
100
AcDbDictionary
  3
ACAD_SORTENTS
360
890
1001
ACAD
1000
TREAT_AS_HARD
1070
     1
  0
DICTIONARY
  5
18D
102
{ACAD_REACTORS
330
C
102
}
330
C
100
AcDbDictionary
1001
ACAD
1000
TREAT_AS_HARD
1070
     0
  0
DICTIONARY
  5
D
102
{ACAD_REACTORS
330
C
102
}
330
C
100
AcDbDictionary
1001
ACAD
1000
TREAT_AS_HARD
1070
     0
  0
DICTIONARY
  5
18E
102
{ACAD_REACTORS
330
C
102
}
330
C
100
AcDbDictionary
1001
ACAD
1000
TREAT_AS_HARD
1070
     0
  0
DICTIONARY
  5
18C
102
{ACAD_REACTORS
330
C
102
}
330
C
100
AcDbDictionary
  3
BYBLOCK
350
D9A4
  3
BYLAYER
350
D99C
  3
GLOBAL
350
D9AC
1001
ACAD
1000
TREAT_AS_HARD
1070
     0
  0
DICTIONARY
  5
D9E7
102
{ACAD_REACTORS
330
C
102
}
330
C
100
AcDbDictionary
  3
STANDARD
350
D9E8
1001
ACAD
1000
TREAT_AS_HARD
1070
     0
  0
DICTIONARY
  5
1B
102
{ACAD_REACTORS
330
C
102
}
330
C
100
AcDbDictionary
  3
STANDARD
350
1C
1001
ACAD
1000
TREAT_AS_HARD
1070
     0
  0
DICTIONARY
  5
18F
102
{ACAD_REACTORS
330
C
102
}
330
C
100
AcDbDictionary
1001
ACAD
1000
TREAT_AS_HARD
1070
     0
  0
DICTIONARY
  5
D9C5
102
{ACAD_REACTORS
330
C
102
}
330
C
100
AcDbDictionary
  3
A0
350
D9C6
  3
A1
350
D9C7
  3
A2
350
D9C8
  3
A3
350
D9C9
  3
A4
350
D9CA
  3
A5
350
D9CB
  3
A6
350
D9CC
  3
A7
350
D9CD
  3
A8
350
D9CE
  3
A9
350
D9CF
  3
B0
350
D9D0
  3
B1
350
D9D1
  3
B2
350
D9D2
  3
B3
350
D9D3
  3
B4
350
D9D4
  3
B5
350
D9D5
  3
B6
350
D9D6
  3
B7
350
D9D7
  3
B8
350
D9D8
  3
B9
350
D9D9
  3
C0
350
D9DA
  3
C1
350
D9DB
  3
C2
350
D9DC
  3
C3
350
D9DD
  3
C4
350
D9DE
  3
C5
350
D9DF
  3
C6
350
D9E0
  3
C7
350
D9E1
  3
C8
350
D9E2
  3
C9
350
D9E3
  3
D0
350
D9E4
  3
D1
350
D9E5
  3
D2
350
D9E6
1001
ACAD
1000
TREAT_AS_HARD
1070
     0
  0
DICTIONARY
  5
D9B4
102
{ACAD_REACTORS
330
C
102
}
330
C
100
AcDbDictionary
  3
2DWIREFRAME
350
D9BA
  3
3D_HIDDEN
350
D9BC
  3
3DWIREFRAME
350
D9BB
  3
BASIC
350
D9B9
  3
BRIGHTEN
350
D9C0
  3
COLORCHANGE
350
D9C4
  3
CONCEPTUAL
350
D9BD
  3
DIM
350
D9BF
  3
EDGECOLOROFF
350
19C2F
  3
FACEPATTERN
350
D9C3
  3
FLAT
350
D9B5
  3
FLATWITHEDGES
350
D9B6
  3
GOURAUD
350
D9B7
  3
GOURAUDWITHEDGES
350
D9B8
  3
HIDDEN
350
19C7E
  3
JITTEROFF
350
19C2D
  3
LINEPATTERN
350
D9C2
  3
MODELING
350
19C84
  3
OVERHANGOFF
350
19C2E
  3
REALISTIC
350
D9BE
  3
SHADED
350
19C83
  3
SHADED_WITH_EDGES
350
19C82
  3
SHADES_OF_GRAY
350
19C7F
  3
SKETCHY
350
19C80
  3
THICKEN
350
D9C1
  3
WIREFRAME
350
19C7D
  3
X-RAY
350
19C81
1001
ACAD
1000
TREAT_AS_HARD
1070
     0
  0
DICTIONARY
  5
1B49C
102
{ACAD_REACTORS
330
C
102
}
330
C
100
AcDbDictionary
  3
COLORDICT
350
1B49D
  3
MATERIALDICT
350
1B49E
1001
ACAD
1000
TREAT_AS_HARD
1070
     0
  0
DICTIONARY
  5
37
102
{ACAD_REACTORS
330
C
102
}
330
C
100
AcDbDictionary
  3
CANNOSCALE
350
1AEBF
  3
CMLEADERSTYLE
350
DA6A
  3
CTABLESTYLE
350
29E
  3
DIMADEC
350
38
  3
DIMASSOC
350
1CE
  3
HIDETEXT
350
704E
  3
INDEXCTL
350
DA6D
  3
INTERSECTIONCOLOR
350
7052
  3
INTERSECTIONDISPLAY
350
7051
  3
MSLTSCALE
350
1A516
  3
OBSCOLOR
350
704F
  3
OBSLTYPE
350
7050
  3
PROJECTNAME
350
1CF
  3
SORTENTS
350
DA6C
  3
XCLIPFRAME
350
1AE9C
1001
ACAD
1000
TREAT_AS_HARD
1070
     0
  0
DICTIONARY
  5
1AAA6
102
{ACAD_REACTORS
330
C
102
}
330
C
100
AcDbDictionary
1001
ACAD
1000
TREAT_AS_HARD
1070
     0
  0
DICTIONARY
  5
D8
102
{ACAD_REACTORS
330
C
102
}
330
C
100
AcDbDictionary
1001
ACAD
1000
TREAT_AS_HARD
1070
     0
  0
DICTIONARY
  5
20
102
{ACAD_REACTORS
330
C
102
}
330
C
100
AcDbDictionary
1001
DRAWINGVARIABLESXDATA
1000
POLARANG
1000
0.261799387799149410000000
1000
POLARMODE
1000
1
1000
POLARSTYLE
1000
1
1001
ACAD
1000
TREAT_AS_HARD
1070
     0
  0
XRECORD
  5
1B49F
102
{ACAD_REACTORS
330
C
102
}
330
C
100
AcDbXrecord
  1
DWGPROPS COOKIE
  2

  3

  4

  6

  7

  8
3684
  9

300
=
301
=
302
=
303
=
304
=
305
=
306
=
307
=
308
=
309
=
 40
0.0
 41
2451318.246352917
 42
2458449.090426169
  1

 90
        0
  0
DICTIONARY
  5
E6A7
102
{ACAD_REACTORS
330
E6A6
102
}
330
E6A6
100
AcDbDictionary
1001
ACAD
1000
TREAT_AS_HARD
1070
     0
  0
ACAD_PROXY_OBJECT
  5
DA06
102
{ACAD_REACTORS
330
DA05
102
}
330
DA05
100
AcDbZombieObject
 90
      499
 91
      517
 93
       34
310
40C8804040
  0
ACAD_PROXY_OBJECT
  5
DA08
102
{ACAD_REACTORS
330
DA07
102
}
330
DA07
100
AcDbZombieObject
 90
      499
 91
      517
 93
       34
310
40C8804040
  0
ACAD_PROXY_OBJECT
  5
DA0A
102
{ACAD_REACTORS
330
DA09
102
}
330
DA09
100
AcDbZombieObject
 90
      499
 91
      517
 93
       34
310
40C8804040
  0
ACAD_PROXY_OBJECT
  5
DA10
102
{ACAD_REACTORS
330
DA0F
102
}
330
DA0F
100
AcDbZombieObject
 90
      499
 91
      517
 93
       34
310
40C8804040
  0
ACAD_PROXY_OBJECT
  5
DA16
102
{ACAD_REACTORS
330
DA15
102
}
330
DA15
100
AcDbZombieObject
 90
      499
 91
      517
 93
       34
310
40C8804040
  0
ACAD_PROXY_OBJECT
  5
DA24
102
{ACAD_REACTORS
330
DA23
102
}
330
DA23
100
AcDbZombieObject
 90
      499
 91
      517
 93
       34
310
40C8804040
  0
SORTENTSTABLE
  5
890
102
{ACAD_REACTORS
330
88F
102
}
330
88F
100
AcDbSortentsTable
330
18
331
0
  5
5BFF
331
0
  5
1AB49
331
1AAD9
  5
1AB5B
331
1AADA
  5
1AB5C
331
1AADC
  5
1AB5D
331
1AAEB
  5
1AB5E
331
1AAF9
  5
1AB5F
331
1AB0C
  5
1AB60
331
1AB22
  5
1AB61
331
1AB27
  5
1AB62
331
1AB36
  5
1AB63
331
0
  5
1AB56
331
1AB39
  5
1AB68
331
1AB3B
  5
1AB77
331
1AB3C
  5
1AB7B
331
1AB3D
  5
1AB7C
331
1AB3E
  5
1AB7D
331
1AB3F
  5
1AB7E
331
1AB40
  5
1AB7F
331
1AB41
  5
1AB80
331
1AB42
  5
1AB81
331
1AB43
  5
1AB83
331
1AB44
  5
1AB84
331
1AB45
  5
1AB85
331
1AB46
  5
1AB86
331
1AB47
  5
1AB87
331
1AB48
  5
1AB88
331
1AB49
  5
1AB89
331
1AB4A
  5
1AB8D
331
1AB4B
  5
1AB8E
331
1AB4C
  5
1AB8F
331
1AB4D
  5
1AB93
331
1AB4E
  5
1AB94
331
1AB4F
  5
1AB95
331
1AB50
  5
1AB99
331
1AB51
  5
1AB9A
331
1AB52
  5
1AB9B
331
1AB53
  5
1AB9F
331
1AB54
  5
1ABA0
331
1AB55
  5
1ABA1
331
1AB56
  5
1ABA2
331
1AB57
  5
1ABA3
331
1AB58
  5
1ABA4
331
1AB59
  5
1ABA5
331
1AB5A
  5
1ABA6
331
1AB5B
  5
1ABA7
331
1AB5C
  5
1ABA8
331
1AB5D
  5
1ABA9
331
1AB5E
  5
1ABAA
331
1AB5F
  5
1ABAE
331
1AB60
  5
1ABAF
331
1AB61
  5
1ABB0
331
1AB62
  5
1ABB4
331
1AB63
  5
1ABB5
331
1AB64
  5
1ABB6
331
1AB65
  5
1ABBA
331
1AB66
  5
1ABBB
331
1AB67
  5
1ABBC
331
1AB68
  5
1ABBD
331
1AB69
  5
1ABBE
331
1AB6A
  5
1ABBF
331
1AB6F
  5
1ABE8
331
1AB70
  5
1ABE9
331
1AB71
  5
1ABEA
331
1AB72
  5
1ABEB
331
1AB73
  5
1ABEC
331
1AB74
  5
1ABED
331
1AB75
  5
1ABEE
331
1AB76
  5
1ABEF
331
1AB77
  5
1ABF0
331
1AB7B
  5
1AC11
331
1AB7C
  5
1AC12
331
1AB7D
  5
1AC13
331
1AB7E
  5
1AC14
331
1AB7F
  5
1AC15
331
1AB80
  5
1AC16
331
1AB81
  5
1AC17
331
1AB83
  5
1AC1E
331
1AB84
  5
1AC1F
331
1AB85
  5
1AC20
331
1AB86
  5
1AC21
331
1AB87
  5
1AC22
331
1AB88
  5
1AC23
331
1AB89
  5
1AC24
331
1AB8A
  5
1AC25
331
1AB8B
  5
1AC26
331
1AB8C
  5
1AC27
331
1AB8D
  5
1AC28
331
1AB8E
  5
1AC29
331
1AB8F
  5
1AC2A
331
1AB90
  5
1AC2B
331
1AB91
  5
1AC2C
331
1AB92
  5
1AC2D
331
1AB93
  5
1AC2E
331
1AB94
  5
1AC2F
331
1AB95
  5
1AC30
331
1AB96
  5
1AC31
331
1AB97
  5
1AC32
331
1AB98
  5
1AC33
331
1AB99
  5
1AC34
331
1AB9A
  5
1AC35
331
1AB9B
  5
1AC36
331
1AB9C
  5
1AC37
331
1AB9D
  5
1AC38
331
1AB9E
  5
1AC39
331
1AB9F
  5
1AC3A
331
1ABA0
  5
1AC3B
331
1ABA1
  5
1AC3C
331
1ABA2
  5
1AC3D
331
1ABA3
  5
1AC3E
331
1ABA4
  5
1AC3F
331
1ABA5
  5
1AC40
331
1ABA6
  5
1AC41
331
1ABA7
  5
1AC42
331
1ABA8
  5
1AC43
331
1ABA9
  5
1AC44
331
1ABAA
  5
1AC45
331
1ABAB
  5
1AC46
331
1ABAC
  5
1AC47
331
1ABAD
  5
1AC48
331
1ABAE
  5
1AC49
331
1ABAF
  5
1AC4A
331
1ABB0
  5
1AC4B
331
1ABB1
  5
1AC4C
331
1ABB2
  5
1AC4D
331
1ABB3
  5
1AC4E
331
1ABB4
  5
1AC4F
331
1ABB5
  5
1AC50
331
1ABB6
  5
1AC51
331
1ABB7
  5
1AC52
331
1ABB8
  5
1AC53
331
1ABB9
  5
1AC54
331
1ABBA
  5
1AC58
331
1ABBB
  5
1AC59
331
1ABBC
  5
1AC5A
331
1ABBD
  5
1AC5B
331
1ABBE
  5
1AC5C
331
1ABBF
  5
1AC5D
331
1ABC0
  5
1AC5E
331
1ABC1
  5
1AC5F
331
1ABC2
  5
1AC60
331
1ABC3
  5
1AC61
331
1ABC4
  5
1AC62
331
1ABC5
  5
1AC63
331
1ABC6
  5
1AC64
331
1ABC7
  5
1AC65
331
1ABC8
  5
1AC66
331
1ABC9
  5
1AC67
331
1ABCA
  5
1AC68
331
1ABCB
  5
1AC69
331
1ABCC
  5
1AC6A
331
1ABCD
  5
1AC6B
331
1ABCE
  5
1AC6C
331
1ABCF
  5
1AC6D
331
1ABD0
  5
1AC6E
331
1ABD1
  5
1AC6F
331
1ABD2
  5
1AC70
331
1ABD3
  5
1AC71
331
1ABD4
  5
1AC72
331
1ABD5
  5
1AC73
331
1ABD6
  5
1AC74
331
1ABD7
  5
1AC75
331
1ABD8
  5
1AC77
331
1ABD9
  5
1AC78
331
1ABDA
  5
1AC79
331
1ABDB
  5
1AC7A
331
1ABDC
  5
1AC7B
331
1ABDD
  5
1AC7C
331
1ABDE
  5
1AC7D
331
1ABDF
  5
1AC7E
331
1ABE0
  5
1AC7F
331
1ABE1
  5
1AC80
331
1ABE2
  5
1AC81
331
1ABE3
  5
1AC82
331
1ABE4
  5
1AC83
331
1ABE5
  5
1AC84
331
1ABE6
  5
1AC85
331
1ABE7
  5
1AC86
331
1ABE8
  5
1AC87
331
1ABE9
  5
1AC88
331
1ABEA
  5
1AC89
331
1ABEB
  5
1AC8A
331
1ABEC
  5
1AC8B
331
1ABED
  5
1AC8C
331
1ABEE
  5
1AC8D
331
1ABEF
  5
1AC8E
331
1ABF0
  5
1AC8F
331
1ABF1
  5
1AC90
331
1ABF2
  5
1AC91
331
1ABF3
  5
1AC92
331
1ABF4
  5
1AC93
331
1ABF5
  5
1AC99
331
1ABF6
  5
1AC9A
331
1ABF7
  5
1AC9B
331
1ABF8
  5
1AC9C
331
1ABF9
  5
1AC9D
331
1ABFA
  5
1AC9E
331
1ABFB
  5
1AC9F
331
1ABFC
  5
1ACA0
331
1ABFD
  5
1ACA1
331
1ABFF
  5
1ACA5
331
1AC00
  5
1ACA9
331
1AC01
  5
1ACAA
331
1AC02
  5
1ACAB
331
1AC03
  5
1ACAF
331
0
  5
1AC94
331
0
  5
1AC95
331
0
  5
1AC96
331
0
  5
1AC97
331
0
  5
1AC98
331
1AC09
  5
1ACEC
331
1AC0A
  5
1ACED
331
1AC0B
  5
1ACEE
331
1AC0D
  5
1AF5F
331
1AC0E
  5
1AF60
331
1AC0F
  5
1AF61
331
1AC10
  5
1AF62
331
1AC11
  5
1AF63
331
1AC12
  5
1AF64
331
1AC13
  5
1AF65
331
1AC14
  5
1AF66
331
1AC15
  5
1AF67
331
1AC16
  5
1AF68
331
1AC17
  5
1AF69
331
1AC18
  5
1AF6A
331
1AC19
  5
1AF6B
331
1AC1A
  5
1AF6C
331
1AC1B
  5
1B205
331
1AC1C
  5
1B206
331
1AC1D
  5
1B207
331
1AC1E
  5
1B217
331
1AC1F
  5
1B218
331
1AC20
  5
1B219
331
1AC21
  5
1B21A
331
1AC22
  5
1B21B
331
1AC23
  5
1B21C
331
1AC24
  5
1B21D
331
1AC25
  5
1B21E
331
1AC26
  5
1B21F
331
1AC27
  5
1B220
331
1AC28
  5
1B221
331
1AC29
  5
1B222
331
1AC2A
  5
1B223
331
1AC2B
  5
1B224
331
1AC2C
  5
1B225
331
1AC2D
  5
1B226
331
1AC2E
  5
1B227
331
1AC2F
  5
1B228
331
1AC30
  5
1B229
331
1AC31
  5
1B22A
331
1AC32
  5
1B22B
331
1AC33
  5
1B22C
331
1AC34
  5
1B22D
331
1AC35
  5
1B22E
331
1AC36
  5
1B22F
331
1AC37
  5
1B230
331
1AC38
  5
1B231
331
1AC39
  5
1B232
331
1AC3A
  5
1B233
331
1AC3B
  5
1B234
331
1AC3C
  5
1B235
331
1AC3D
  5
1B236
331
1AC3E
  5
1B237
331
1AC3F
  5
1B238
331
1AC40
  5
1B239
331
1AC41
  5
1B23A
331
1AC42
  5
1B23B
331
1AC43
  5
1B23C
331
1AC44
  5
1B23D
331
1AC45
  5
1B23E
331
1AC46
  5
1B23F
331
1AC47
  5
1B240
331
1AC48
  5
1B241
331
1AC49
  5
1B242
331
1AC4A
  5
1B243
331
1AC4B
  5
1B244
331
1AC4C
  5
1B245
331
1AC4D
  5
1B246
331
1AC4E
  5
1B247
331
1AC4F
  5
1B248
331
1AC50
  5
1B249
331
1AC51
  5
1B24A
331
1AC52
  5
1B24B
331
1AC53
  5
1B24C
331
1AC54
  5
1B24D
331
1AC55
  5
1B24E
331
1AC56
  5
1B24F
331
1AC57
  5
1B250
331
1AC58
  5
1B251
331
1AC59
  5
1B252
331
1AC5A
  5
1B253
331
1AC5B
  5
1B254
331
1AC5C
  5
1B255
331
1AC5D
  5
1B256
331
1AC5E
  5
1B257
331
1AC5F
  5
1B258
331
1AC60
  5
1B259
331
1AC61
  5
1B25A
331
1AC62
  5
1B25B
331
1AC63
  5
1B25C
331
1AC64
  5
1B25D
331
1AC65
  5
1B25E
331
1AC66
  5
1B25F
331
1AC67
  5
1B260
331
1AC68
  5
1B261
331
1AC69
  5
1B262
331
1AC6A
  5
1B263
331
1AC6B
  5
1B264
331
1AC6C
  5
1B265
331
1AC6D
  5
1B266
331
1AC6E
  5
1B267
331
1AC6F
  5
1B268
331
1AC70
  5
1B26C
331
1AC71
  5
1B26D
331
1AC72
  5
1B26E
331
1AC73
  5
1B399
331
1AC74
  5
1B39A
331
1AC75
  5
1B39B
331
1AC77
  5
1B39E
331
1AC78
  5
1B39F
331
1AC79
  5
1B3A0
331
1AC7A
  5
1B3A1
331
1AC7B
  5
1B3A2
331
1AC7C
  5
1B3A3
331
1AC7D
  5
1B3A4
331
1AC7E
  5
1B3A5
331
1AC7F
  5
1B3A6
331
1AC80
  5
1B3A7
331
1AC81
  5
1B3A8
331
1AC82
  5
1B3A9
331
1AC83
  5
1B3AA
331
1AC84
  5
1B3AB
331
1AC85
  5
1B3AC
331
1AC86
  5
1B3AD
331
1AC87
  5
1B3AE
331
1AC88
  5
1B3AF
331
1AC89
  5
1B3B0
331
1AC8A
  5
1B3B1
331
1AC8B
  5
1B3B2
331
1AC8C
  5
1B3B3
331
1AC8D
  5
1B3B4
331
1AC8E
  5
1B3B5
331
1AC8F
  5
1B3B6
331
1AC90
  5
1B3B7
331
1AC91
  5
1B3B8
331
1AC92
  5
1B3B9
331
1AC93
  5
1B3BA
331
1AC94
  5
1B3BB
331
1AC95
  5
1B3BC
331
1AC96
  5
1B3BD
331
1AC97
  5
1B3BE
331
1AC98
  5
1B3BF
331
1AC99
  5
1B3C0
331
1AC9A
  5
1B3C1
331
1AC9B
  5
1B3C2
331
1AC9C
  5
1B3C3
331
1AC9D
  5
1B3C4
331
1AC9E
  5
1B3C5
331
1AC9F
  5
1B3C6
331
1ACA0
  5
1B3C7
331
1ACA1
  5
1B3C8
331
1ACA4
  5
1B3C9
331
1ACA5
  5
1B3CA
331
1ACA6
  5
1B3CB
331
1ACA7
  5
1B3CC
331
1ACA8
  5
1B3CD
331
1ACA9
  5
1B3CE
331
1ACAA
  5
1B3CF
331
1ACAB
  5
1B3D0
331
1ACAC
  5
1B3D1
331
1ACAD
  5
1B3D2
331
1ACAE
  5
1B3D3
331
1ACAF
  5
1B3D4
331
1ACB0
  5
1B3D5
331
1ACB1
  5
1B3D6
331
1ACB2
  5
1B3D7
331
1ACB3
  5
1B3D8
331
1ACB4
  5
1B3D9
331
1ACB5
  5
1B3DA
331
1ACB6
  5
1B3DB
331
1ACB7
  5
1B3DC
331
1ACB8
  5
1B3DD
331
1ACB9
  5
1B3DE
331
1ACBA
  5
1B3DF
331
1ACBB
  5
1B3E0
331
1ACBC
  5
1B3E1
331
1ACBD
  5
1B3E2
331
1ACBE
  5
1B3E3
331
1ACBF
  5
1B3E4
331
1ACC0
  5
1B3E5
331
1ACC1
  5
1B3E6
331
1ACC2
  5
1B3E7
331
1ACC3
  5
1B3E8
331
1ACC4
  5
1B3E9
331
1ACC5
  5
1B3EA
331
1ACC6
  5
1B3EB
331
1ACC7
  5
1B3EC
331
1ACC8
  5
1B3ED
331
1ACC9
  5
1B3EE
331
1ACCA
  5
1B3EF
331
1ACCB
  5
1B3F0
331
1ACCC
  5
1B3F1
331
1ACCD
  5
1B3F2
331
1ACCE
  5
1B3F3
331
1ACCF
  5
1B3F4
331
1ACD0
  5
1B3F5
331
1ACD1
  5
1B3F6
331
1ACD2
  5
1B3F7
331
1ACD3
  5
1B3F8
331
1ACD4
  5
1B3F9
331
1ACD5
  5
1B3FA
331
1ACD6
  5
1B3FB
331
1ACD7
  5
1B3FC
331
1ACD8
  5
1B3FD
331
1ACD9
  5
1B3FE
331
1ACDA
  5
1B3FF
331
1ACDB
  5
1B400
331
1ACDC
  5
1B401
331
1ACDD
  5
1B402
331
1ACDE
  5
1B403
331
1ACDF
  5
1B404
331
1ACE0
  5
1B405
331
1ACE1
  5
1B406
331
1ACE2
  5
1B407
331
1ACE3
  5
1B408
331
1ACE5
  5
1B40B
331
1ACE6
  5
1B40C
331
1ACE7
  5
1B40D
331
1ACE8
  5
1B40E
331
1ACE9
  5
1B40F
331
1ACEA
  5
1B410
331
1ACEB
  5
1B411
331
1ACEC
  5
1B412
331
1ACED
  5
1B413
331
1ACEE
  5
1B414
331
1ACEF
  5
1B415
331
1ACF0
  5
1B416
331
1ACF1
  5
1B417
331
1ACF2
  5
1B418
331
1ACF3
  5
1B419
331
1AF5A
  5
1B41A
331
1AF5B
  5
1B41B
331
1AF5C
  5
1B41C
331
1AF5D
  5
1B41D
331
1AF5E
  5
1B41E
331
1AF5F
  5
1B41F
331
1AF60
  5
1B420
331
1AF61
  5
1B421
331
1AF62
  5
1B422
331
1AF63
  5
1B423
331
1AF64
  5
1B424
331
1AF65
  5
1B425
331
1AF66
  5
1B426
331
1AF67
  5
1B427
331
1AF68
  5
1B428
331
1AF69
  5
1B429
331
1AF6A
  5
1B42A
331
1AF6B
  5
1B42B
331
1AF6C
  5
1B42C
331
1B205
  5
1B42D
331
1B206
  5
1B42E
331
1B207
  5
1B42F
331
1B217
  5
1B444
331
1B218
  5
1B445
331
1B219
  5
1B446
331
1B21A
  5
1B447
331
1B21B
  5
1B448
331
1B21C
  5
1B449
331
1B21D
  5
1B44A
331
1B21E
  5
1B44B
331
1B21F
  5
1B44C
331
1B220
  5
1B44D
331
1B221
  5
1B44E
331
1B222
  5
1B44F
331
1B223
  5
1B450
331
1B224
  5
1B451
331
1B225
  5
1B452
331
1B226
  5
1B453
331
1B227
  5
1B454
331
1B228
  5
1B455
331
1B229
  5
1B456
331
1B22A
  5
1B457
331
1B22B
  5
1B458
331
1B22C
  5
1B459
331
1B22D
  5
1B45A
331
1B22E
  5
1B45B
331
1B22F
  5
1B45C
331
1B230
  5
1B45D
331
1B231
  5
1B45E
331
1B232
  5
1B45F
331
1B233
  5
1B460
331
1B234
  5
1B461
331
1B235
  5
1B462
331
1B236
  5
1B463
331
1B237
  5
1B464
331
1B238
  5
1B465
331
1B239
  5
1B466
331
1B23A
  5
1B467
331
1B23B
  5
1B468
331
1B23C
  5
1B469
331
1B23D
  5
1B46A
331
1B23E
  5
1B46B
331
1B23F
  5
1B46C
331
1B240
  5
1B46D
331
1B241
  5
1B46E
331
1B242
  5
1B46F
331
1B243
  5
1B470
331
1B244
  5
1B471
331
1B245
  5
1B472
331
1B246
  5
1B473
331
1B247
  5
1B474
331
1B248
  5
1B475
331
1B249
  5
1B476
331
1B24A
  5
1B477
331
1B24B
  5
1B478
331
1B24C
  5
1B479
331
1B24D
  5
1B47A
331
1B24E
  5
1B47B
331
1B24F
  5
1B47C
331
1B250
  5
1B47D
331
1B251
  5
1B47E
331
1B252
  5
1B47F
331
1B253
  5
1B480
331
1B254
  5
1B481
331
1B255
  5
1B482
331
1B256
  5
1B483
331
1B257
  5
1B484
331
1B258
  5
1B485
331
1B259
  5
1B486
331
1B25A
  5
1B487
331
1B25B
  5
1B488
331
1B25C
  5
1B489
331
1B25D
  5
1B48A
331
1B25E
  5
1B48B
331
1B25F
  5
1B48C
331
1B260
  5
1B48D
331
1B261
  5
1B48E
331
1B262
  5
1B48F
331
1B263
  5
1B490
331
1B264
  5
1B491
331
1B265
  5
1B492
331
1B266
  5
1B493
331
1B267
  5
1B494
331
1B268
  5
1B495
331
1B269
  5
1B496
331
1B26A
  5
1B497
331
1B26B
  5
1B498
331
1B26C
  5
1B499
331
1B26D
  5
1B49A
331
1B26E
  5
1B49B
331
1B396
  5
1AAC8
331
1B397
  5
1AAD9
331
1B398
  5
1AADA
331
0
  5
1AADC
331
0
  5
1AAEB
331
0
  5
1AAF9
331
1B39C
  5
1AB3F
331
1B39D
  5
1AB40
331
1B39E
  5
1AB41
331
0
  5
1AB36
331
0
  5
1AB37
331
0
  5
1AB39
331
1B3A2
  5
1AB66
331
1B3A3
  5
1AB67
331
1B3A4
  5
1AB69
331
1B3A5
  5
1AB6A
331
1B3A6
  5
1AB6F
331
0
  5
1AB4C
331
0
  5
1AB4D
331
0
  5
1AB4E
331
1B3AA
  5
1ABC0
331
1B3AB
  5
1ABC1
331
1B3AC
  5
1ABC2
331
0
  5
1AB8A
331
0
  5
1AB8B
331
0
  5
1AB8C
331
1B3B0
  5
1ABCA
331
1B3B1
  5
1ABCB
331
1B3B2
  5
1ABCC
331
0
  5
1AB90
331
0
  5
1AB91
331
0
  5
1AB92
331
1B3B6
  5
1ABD4
331
1B3B7
  5
1ABD5
331
1B3B8
  5
1ABD6
331
0
  5
1AB96
331
0
  5
1AB97
331
0
  5
1AB98
331
1B3BC
  5
1ABDE
331
1B3BD
  5
1ABDF
331
1B3BE
  5
1ABE0
331
0
  5
1AB9C
331
0
  5
1AB9D
331
0
  5
1AB9E
331
1B3C2
  5
1ABF1
331
1B3C3
  5
1ABF2
331
1B3C4
  5
1ABF3
331
0
  5
1ABAB
331
0
  5
1ABAC
331
0
  5
1ABAD
331
1B3C8
  5
1ABFB
331
1B3C9
  5
1ABFC
331
1B3CA
  5
1ABFD
331
0
  5
1ABB1
331
0
  5
1ABB2
331
0
  5
1ABB3
331
1B3CE
  5
1AC06
331
1B3CF
  5
1AC07
331
1B3D0
  5
1AC08
331
0
  5
1ABB7
331
0
  5
1ABB8
331
0
  5
1ABB9
331
1B3D4
  5
1AC18
331
1B3D5
  5
1AC19
331
1B3D6
  5
1AC1A
331
1B3D7
  5
1AC1B
331
1B3D8
  5
1AC1C
331
1B3D9
  5
1AC1D
331
1B3DA
  5
1ACA4
331
1B3DB
  5
1ACEF
331
1B3DC
  5
1ACF0
331
1B3DD
  5
1ACF1
331
0
  5
1AC55
331
0
  5
1AC56
331
0
  5
1AC57
331
1B3E1
  5
1B39C
331
1B3E2
  5
1B39D
331
1B3E3
  5
1B409
331
1B3E4
  5
1B40A
331
1B3E5
  5
1B430
331
1B3E6
  5
1B431
331
1B3E7
  5
1B432
331
0
  5
1B269
331
0
  5
1B26A
331
0
  5
1B26B
331
1B3EB
  5
1B43A
331
1B3EC
  5
1B43B
331
1B3ED
  5
1B43C
331
0
  5
1B396
331
0
  5
1B397
331
0
  5
1B398
331
1B3F1
  5
1AB0C
331
1B3F2
  5
1AB22
331
1B3F3
  5
1AB27
331
1B3F4
  5
1AB3B
331
1B3F5
  5
1AB3C
331
1B3F6
  5
1AB3D
331
1B3F7
  5
1AB3E
331
1B3F8
  5
1AB42
331
1B3F9
  5
1AB43
331
1B3FA
  5
1AB44
331
1B3FB
  5
1AB45
331
1B3FC
  5
1AB46
331
1B3FD
  5
1AB47
331
1B3FE
  5
1AB48
331
1B3FF
  5
1AB70
331
1B400
  5
1AB71
331
1B401
  5
1AB72
331
1B402
  5
1AB73
331
1B403
  5
1AB74
331
1B404
  5
1AB75
331
1B405
  5
1AB76
331
1B406
  5
1ABC3
331
1B407
  5
1ABC4
331
1B408
  5
1ABC5
331
1B409
  5
1ABC6
331
1B40A
  5
1ABC7
331
1B40B
  5
1ABC8
331
1B40C
  5
1ABC9
331
1B40D
  5
1ABCD
331
1B40E
  5
1ABCE
331
1B40F
  5
1ABCF
331
1B410
  5
1ABD0
331
1B411
  5
1ABD1
331
1B412
  5
1ABD2
331
1B413
  5
1ABD3
331
1B414
  5
1ABD7
331
1B415
  5
1ABD8
331
1B416
  5
1ABD9
331
1B417
  5
1ABDA
331
1B418
  5
1ABDB
331
1B419
  5
1ABDC
331
1B41A
  5
1ABDD
331
1B41B
  5
1ABE1
331
1B41C
  5
1ABE2
331
1B41D
  5
1ABE3
331
1B41E
  5
1ABE4
331
1B41F
  5
1ABE5
331
1B420
  5
1ABE6
331
1B421
  5
1ABE7
331
1B422
  5
1ABF4
331
1B423
  5
1ABF5
331
1B424
  5
1ABF6
331
1B425
  5
1ABF7
331
1B426
  5
1ABF8
331
1B427
  5
1ABF9
331
1B428
  5
1ABFA
331
1B429
  5
1ABFF
331
1B42A
  5
1AC00
331
1B42B
  5
1AC01
331
1B42C
  5
1AC02
331
1B42D
  5
1AC03
331
1B42E
  5
1AC04
331
1B42F
  5
1AC05
331
1B430
  5
1AC09
331
1B431
  5
1AC0A
331
1B432
  5
1AC0B
331
1B433
  5
1AC0D
331
1B434
  5
1AC0E
331
1B435
  5
1AC0F
331
1B436
  5
1AC10
331
1B437
  5
1ACF2
331
1B438
  5
1ACF3
331
1B439
  5
1AF5A
331
1B43A
  5
1AF5B
331
1B43B
  5
1AF5C
331
1B43C
  5
1AF5D
331
1B43D
  5
1AF5E
331
1B43E
  5
1B433
331
1B43F
  5
1B434
331
1B440
  5
1B435
331
1B441
  5
1B436
331
1B442
  5
1B437
331
1B443
  5
1B438
331
1B444
  5
1B439
331
1B445
  5
1B43D
331
1B446
  5
1B43E
331
1B447
  5
1B43F
331
1B448
  5
1B440
331
1B449
  5
1B441
331
1B44A
  5
1B442
331
1B44B
  5
1B443
331
1B44C
  5
1AB4A
331
1B44D
  5
1AB4B
331
1B44E
  5
1AB4F
331
0
  5
1AB50
331
0
  5
1AB51
331
0
  5
1AB52
331
1B452
  5
1AB64
331
1B453
  5
1AB65
331
1B454
  5
1ACB0
331
1B455
  5
1ACB1
331
1B456
  5
1ACB5
331
0
  5
1ACA6
331
0
  5
1ACA7
331
0
  5
1ACA8
331
1B45A
  5
1ACC3
331
1B45B
  5
1ACC4
331
1B45C
  5
1ACC5
331
0
  5
1ACAC
331
0
  5
1ACAD
331
0
  5
1ACAE
331
1B460
  5
1ACCD
331
1B461
  5
1ACCE
331
1B462
  5
1ACCF
331
0
  5
1ACB2
331
0
  5
1ACB3
331
0
  5
1ACB4
331
1B466
  5
1ACD7
331
1B467
  5
1ACD8
331
1B468
  5
1ACD9
331
0
  5
1ACB8
331
0
  5
1ACB9
331
0
  5
1ACBA
331
1B46C
  5
1ACE1
331
1B46D
  5
1ACE2
331
1B46E
  5
1ACE3
331
0
  5
1ACBE
331
0
  5
1ACBF
331
0
  5
1ACC0
331
1B472
  5
1AB53
331
1B473
  5
1AB54
331
1B474
  5
1AB55
331
1B475
  5
1AB57
331
1B476
  5
1AB58
331
1B477
  5
1AB59
331
1B478
  5
1AB5A
331
1B479
  5
1ACB6
331
1B47A
  5
1ACB7
331
1B47B
  5
1ACBB
331
1B47C
  5
1ACBC
331
1B47D
  5
1ACBD
331
1B47E
  5
1ACC1
331
1B47F
  5
1ACC2
331
1B480
  5
1ACC6
331
1B481
  5
1ACC7
331
1B482
  5
1ACC8
331
1B483
  5
1ACC9
331
1B484
  5
1ACCA
331
1B485
  5
1ACCB
331
1B486
  5
1ACCC
331
1B487
  5
1ACD0
331
1B488
  5
1ACD1
331
1B489
  5
1ACD2
331
1B48A
  5
1ACD3
331
1B48B
  5
1ACD4
331
1B48C
  5
1ACD5
331
1B48D
  5
1ACD6
331
1B48E
  5
1ACDA
331
1B48F
  5
1ACDB
331
1B490
  5
1ACDC
331
1B491
  5
1ACDD
331
1B492
  5
1ACDE
331
1B493
  5
1ACDF
331
1B494
  5
1ACE0
331
1B495
  5
1ACE5
331
1B496
  5
1ACE6
331
1B497
  5
1ACE7
331
1B498
  5
1ACE8
331
1B499
  5
1ACE9
331
1B49A
  5
1ACEA
331
1B49B
  5
1ACEB
  0
MATERIAL
  5
D9A4
102
{ACAD_REACTORS
330
18C
102
}
102
{ACAD_XDICTIONARY
360
1B63A
102
}
330
18C
100
AcDbMaterial
  1
BYBLOCK
 72
     0
 73
     2
 43
0.0208333333333333
 43
0.0
 43
0.0
 43
0.0
 43
0.0
 43
0.0208333333333333
 43
0.0
 43
0.0
 43
0.0
 43
0.0
 43
1.0
 43
0.0
 43
0.0
 43
0.0
 43
0.0
 43
1.0
 77
     0
 78
     2
 47
0.0208333333333333
 47
0.0
 47
0.0
 47
0.0
 47
0.0
 47
0.0208333333333333
 47
0.0
 47
0.0
 47
0.0
 47
0.0
 47
1.0
 47
0.0
 47
0.0
 47
0.0
 47
0.0
 47
1.0
171
     0
172
     2
 49
0.0208333333333333
 49
0.0
 49
0.0
 49
0.0
 49
0.0
 49
0.0208333333333333
 49
0.0
 49
0.0
 49
0.0
 49
0.0
 49
1.0
 49
0.0
 49
0.0
 49
0.0
 49
0.0
 49
1.0
175
     0
176
     2
142
0.0208333333333333
142
0.0
142
0.0
142
0.0
142
0.0
142
0.0208333333333333
142
0.0
142
0.0
142
0.0
142
0.0
142
1.0
142
0.0
142
0.0
142
0.0
142
0.0
142
1.0
179
     0
270
     2
144
0.0208333333333333
144
0.0
144
0.0
144
0.0
144
0.0
144
0.0208333333333333
144
0.0
144
0.0
144
0.0
144
0.0
144
1.0
144
0.0
144
0.0
144
0.0
144
0.0
144
1.0
274
     2
147
0.0208333333333333
147
0.0
147
0.0
147
0.0
147
0.0
147
0.0208333333333333
147
0.0
147
0.0
147
0.0
147
0.0
147
1.0
147
0.0
147
0.0
147
0.0
147
0.0
147
1.0
  0
MATERIAL
  5
D99C
102
{ACAD_REACTORS
330
18C
102
}
102
{ACAD_XDICTIONARY
360
1B63C
102
}
330
18C
100
AcDbMaterial
  1
BYLAYER
 72
     0
 73
     2
 43
0.0208333333333333
 43
0.0
 43
0.0
 43
0.0
 43
0.0
 43
0.0208333333333333
 43
0.0
 43
0.0
 43
0.0
 43
0.0
 43
1.0
 43
0.0
 43
0.0
 43
0.0
 43
0.0
 43
1.0
 77
     0
 78
     2
 47
0.0208333333333333
 47
0.0
 47
0.0
 47
0.0
 47
0.0
 47
0.0208333333333333
 47
0.0
 47
0.0
 47
0.0
 47
0.0
 47
1.0
 47
0.0
 47
0.0
 47
0.0
 47
0.0
 47
1.0
171
     0
172
     2
 49
0.0208333333333333
 49
0.0
 49
0.0
 49
0.0
 49
0.0
 49
0.0208333333333333
 49
0.0
 49
0.0
 49
0.0
 49
0.0
 49
1.0
 49
0.0
 49
0.0
 49
0.0
 49
0.0
 49
1.0
175
     0
176
     2
142
0.0208333333333333
142
0.0
142
0.0
142
0.0
142
0.0
142
0.0208333333333333
142
0.0
142
0.0
142
0.0
142
0.0
142
1.0
142
0.0
142
0.0
142
0.0
142
0.0
142
1.0
179
     0
270
     2
144
0.0208333333333333
144
0.0
144
0.0
144
0.0
144
0.0
144
0.0208333333333333
144
0.0
144
0.0
144
0.0
144
0.0
144
1.0
144
0.0
144
0.0
144
0.0
144
0.0
144
1.0
274
     2
147
0.0208333333333333
147
0.0
147
0.0
147
0.0
147
0.0
147
0.0208333333333333
147
0.0
147
0.0
147
0.0
147
0.0
147
1.0
147
0.0
147
0.0
147
0.0
147
0.0
147
1.0
  0
MATERIAL
  5
D9AC
102
{ACAD_REACTORS
330
18C
102
}
102
{ACAD_XDICTIONARY
360
1B63E
102
}
330
18C
100
AcDbMaterial
  1
GLOBAL
 72
     0
 73
     2
 43
0.0208333333333333
 43
0.0
 43
0.0
 43
0.0
 43
0.0
 43
0.0208333333333333
 43
0.0
 43
0.0
 43
0.0
 43
0.0
 43
1.0
 43
0.0
 43
0.0
 43
0.0
 43
0.0
 43
1.0
 77
     0
 78
     2
 47
0.0208333333333333
 47
0.0
 47
0.0
 47
0.0
 47
0.0
 47
0.0208333333333333
 47
0.0
 47
0.0
 47
0.0
 47
0.0
 47
1.0
 47
0.0
 47
0.0
 47
0.0
 47
0.0
 47
1.0
171
     0
172
     2
 49
0.0208333333333333
 49
0.0
 49
0.0
 49
0.0
 49
0.0
 49
0.0208333333333333
 49
0.0
 49
0.0
 49
0.0
 49
0.0
 49
1.0
 49
0.0
 49
0.0
 49
0.0
 49
0.0
 49
1.0
175
     0
176
     2
142
0.0208333333333333
142
0.0
142
0.0
142
0.0
142
0.0
142
0.0208333333333333
142
0.0
142
0.0
142
0.0
142
0.0
142
1.0
142
0.0
142
0.0
142
0.0
142
0.0
142
1.0
179
     0
270
     2
144
0.0208333333333333
144
0.0
144
0.0
144
0.0
144
0.0
144
0.0208333333333333
144
0.0
144
0.0
144
0.0
144
0.0
144
1.0
144
0.0
144
0.0
144
0.0
144
0.0
144
1.0
274
     2
147
0.0208333333333333
147
0.0
147
0.0
147
0.0
147
0.0
147
0.0208333333333333
147
0.0
147
0.0
147
0.0
147
0.0
147
1.0
147
0.0
147
0.0
147
0.0
147
0.0
147
1.0
  0
ACAD_PROXY_OBJECT
  5
D9E8
102
{ACAD_REACTORS
330
D9E7
102
}
330
D9E7
100
AcDbZombieObject
 90
      499
 91
      511
 93
      610
310
40901902A4063FBFFFFFE000000000000002040AD7A3703D0AD73F4214DD185B99185C990000000000000104090141901A00000000000004100000000000000041025764000000000000300FC0
340
12
340
0
340
F
340
0
 94
        0
1001
ACAD_MLEADERVER
1070
     2
  0
MLINESTYLE
  5
1C
102
{ACAD_REACTORS
330
1B
102
}
330
1B
100
AcDbMlineStyle
  2
STANDARD
 70
     0
  3

 62
   256
 51
90.0
 52
90.0
 71
     2
 49
0.5
 62
   256
  6
BYLAYER
 49
-0.5
 62
   256
  6
BYLAYER
  0
ACAD_PROXY_OBJECT
  5
D9C6
102
{ACAD_REACTORS
330
D9C5
102
}
330
D9C5
100
AcDbZombieObject
 90
      499
 91
      510
 93
       41
310
903313A31580
  0
ACAD_PROXY_OBJECT
  5
D9C7
102
{ACAD_REACTORS
330
D9C5
102
}
330
D9C5
100
AcDbZombieObject
 90
      499
 91
      510
 93
      105
310
903313A324000000000000004000
  0
ACAD_PROXY_OBJECT
  5
D9C8
102
{ACAD_REACTORS
330
D9C5
102
}
330
D9C5
100
AcDbZombieObject
 90
      499
 91
      510
 93
      105
310
903313A344000000000000104000
  0
ACAD_PROXY_OBJECT
  5
D9C9
102
{ACAD_REACTORS
330
D9C5
102
}
330
D9C5
100
AcDbZombieObject
 90
      499
 91
      510
 93
      105
310
903313A354000000000000144000
  0
ACAD_PROXY_OBJECT
  5
D9CA
102
{ACAD_REACTORS
330
D9C5
102
}
330
D9C5
100
AcDbZombieObject
 90
      499
 91
      510
 93
      105
310
903313A384000000000000204000
  0
ACAD_PROXY_OBJECT
  5
D9CB
102
{ACAD_REACTORS
330
D9C5
102
}
330
D9C5
100
AcDbZombieObject
 90
      499
 91
      510
 93
      113
310
904313A31304000000000000244000
  0
ACAD_PROXY_OBJECT
  5
D9CC
102
{ACAD_REACTORS
330
D9C5
102
}
330
D9C5
100
AcDbZombieObject
 90
      499
 91
      510
 93
      113
310
904313A31364000000000000304000
  0
ACAD_PROXY_OBJECT
  5
D9CD
102
{ACAD_REACTORS
330
D9C5
102
}
330
D9C5
100
AcDbZombieObject
 90
      499
 91
      510
 93
      113
310
904313A32304000000000000344000
  0
ACAD_PROXY_OBJECT
  5
D9CE
102
{ACAD_REACTORS
330
D9C5
102
}
330
D9C5
100
AcDbZombieObject
 90
      499
 91
      510
 93
      113
310
904313A333040000000000003E4000
  0
ACAD_PROXY_OBJECT
  5
D9CF
102
{ACAD_REACTORS
330
D9C5
102
}
330
D9C5
100
AcDbZombieObject
 90
      499
 91
      510
 93
      113
310
904313A34304000000000000444000
  0
ACAD_PROXY_OBJECT
  5
D9D0
102
{ACAD_REACTORS
330
D9C5
102
}
330
D9C5
100
AcDbZombieObject
 90
      499
 91
      510
 93
      113
310
904313A35304000000000000494000
  0
ACAD_PROXY_OBJECT
  5
D9D1
102
{ACAD_REACTORS
330
D9C5
102
}
330
D9C5
100
AcDbZombieObject
 90
      499
 91
      510
 93
      121
310
905313A3130304000000000000594000
  0
ACAD_PROXY_OBJECT
  5
D9D2
102
{ACAD_REACTORS
330
D9C5
102
}
330
D9C5
100
AcDbZombieObject
 90
      499
 91
      510
 93
      105
310
903323A310000000000000010100
  0
ACAD_PROXY_OBJECT
  5
D9D3
102
{ACAD_REACTORS
330
D9C5
102
}
330
D9C5
100
AcDbZombieObject
 90
      499
 91
      510
 93
      105
310
903343A310000000000000410100
  0
ACAD_PROXY_OBJECT
  5
D9D4
102
{ACAD_REACTORS
330
D9C5
102
}
330
D9C5
100
AcDbZombieObject
 90
      499
 91
      510
 93
      105
310
903383A310000000000000810100
  0
ACAD_PROXY_OBJECT
  5
D9D5
102
{ACAD_REACTORS
330
D9C5
102
}
330
D9C5
100
AcDbZombieObject
 90
      499
 91
      510
 93
      113
310
90431303A310000000000000910100
  0
ACAD_PROXY_OBJECT
  5
D9D6
102
{ACAD_REACTORS
330
D9C5
102
}
330
D9C5
100
AcDbZombieObject
 90
      499
 91
      510
 93
      121
310
9053130303A310000000000001650100
  0
ACAD_PROXY_OBJECT
  5
D9D7
102
{ACAD_REACTORS
330
D9C5
102
}
330
D9C5
100
AcDbZombieObject
 90
      499
 91
      510
 93
      257
310
90E312F31323822203D2031272D3022000000000000200FC000000000000284000
  0
ACAD_PROXY_OBJECT
  5
D9D8
102
{ACAD_REACTORS
330
D9C5
102
}
330
D9C5
100
AcDbZombieObject
 90
      499
 91
      510
 93
      249
310
90D312F363422203D2031272D3022000000000000240FC000000000000284000
  0
ACAD_PROXY_OBJECT
  5
D9D9
102
{ACAD_REACTORS
330
D9C5
102
}
330
D9C5
100
AcDbZombieObject
 90
      499
 91
      510
 93
      249
310
90D312F333222203D2031272D3022000000000000280FC000000000000284000
  0
ACAD_PROXY_OBJECT
  5
D9DA
102
{ACAD_REACTORS
330
D9C5
102
}
330
D9C5
100
AcDbZombieObject
 90
      499
 91
      510
 93
      249
310
90D312F313622203D2031272D30220000000000002C0FC000000000000284000
  0
ACAD_PROXY_OBJECT
  5
D9DB
102
{ACAD_REACTORS
330
D9C5
102
}
330
D9C5
100
AcDbZombieObject
 90
      499
 91
      510
 93
      249
310
90D332F333222203D2031272D30220000000000002E0FC000000000000284000
  0
ACAD_PROXY_OBJECT
  5
D9DC
102
{ACAD_REACTORS
330
D9C5
102
}
330
D9C5
100
AcDbZombieObject
 90
      499
 91
      510
 93
      241
310
90C312F3822203D2031272D3022000000000000300FC000000000000284000
  0
ACAD_PROXY_OBJECT
  5
D9DD
102
{ACAD_REACTORS
330
D9C5
102
}
330
D9C5
100
AcDbZombieObject
 90
      499
 91
      510
 93
      249
310
90D332F313622203D2031272D3022000000000000320FC000000000000284000
  0
ACAD_PROXY_OBJECT
  5
D9DE
102
{ACAD_REACTORS
330
D9C5
102
}
330
D9C5
100
AcDbZombieObject
 90
      499
 91
      510
 93
      241
310
90C312F3422203D2031272D3022000000000000340FC000000000000284000
  0
ACAD_PROXY_OBJECT
  5
D9DF
102
{ACAD_REACTORS
330
D9C5
102
}
330
D9C5
100
AcDbZombieObject
 90
      499
 91
      510
 93
      241
310
90C332F3822203D2031272D3022000000000000360FC000000000000284000
  0
ACAD_PROXY_OBJECT
  5
D9E0
102
{ACAD_REACTORS
330
D9C5
102
}
330
D9C5
100
AcDbZombieObject
 90
      499
 91
      510
 93
      241
310
90C312F3222203D2031272D3022000000000000380FC000000000000284000
  0
ACAD_PROXY_OBJECT
  5
D9E1
102
{ACAD_REACTORS
330
D9C5
102
}
330
D9C5
100
AcDbZombieObject
 90
      499
 91
      510
 93
      241
310
90C332F3422203D2031272D30220000000000003A0FC000000000000284000
  0
ACAD_PROXY_OBJECT
  5
D9E2
102
{ACAD_REACTORS
330
D9C5
102
}
330
D9C5
100
AcDbZombieObject
 90
      499
 91
      510
 93
      161
310
90A3122203D2031272D30224000000000000284000
  0
ACAD_PROXY_OBJECT
  5
D9E3
102
{ACAD_REACTORS
330
D9C5
102
}
330
D9C5
100
AcDbZombieObject
 90
      499
 91
      510
 93
      257
310
90E312D312F3222203D2031272D30220000000000003E0FC000000000000284000
  0
ACAD_PROXY_OBJECT
  5
D9E4
102
{ACAD_REACTORS
330
D9C5
102
}
330
D9C5
100
AcDbZombieObject
 90
      499
 91
      510
 93
      225
310
90A3322203D2031272D302200000000000002100000000000000284000
  0
ACAD_PROXY_OBJECT
  5
D9E5
102
{ACAD_REACTORS
330
D9C5
102
}
330
D9C5
100
AcDbZombieObject
 90
      499
 91
      510
 93
      225
310
90A3622203D2031272D302200000000000006100000000000000284000
  0
ACAD_PROXY_OBJECT
  5
D9E6
102
{ACAD_REACTORS
330
D9C5
102
}
330
D9C5
100
AcDbZombieObject
 90
      499
 91
      510
 93
      249
310
90D31272D3022203D2031272D30220000000000000A100000000000000284000
  0
ACAD_PROXY_OBJECT
  5
D9BA
102
{ACAD_REACTORS
330
D9B4
102
}
330
D9B4
100
AcDbZombieObject
 90
      499
 91
      509
 93
      436
310
42CC9915DA5C99599C985B595049028333333333333E3BF0000000000000FB0107901411070040501600405405064090741402480A0340
1001
ACAD
1000
AcDbSavedByObjectVersion
1070
     0
  0
ACAD_PROXY_OBJECT
  5
D9BC
102
{ACAD_REACTORS
330
D9B4
102
}
330
D9B4
100
AcDbZombieObject
 90
      499
 91
      509
 93
      500
310
424CD108121A5919195B90640502408333333333333E3BF0000000000000FB01079024090700405020000000000001110200405405064090740C02480A0340
1001
ACAD
1000
AcDbSavedByObjectVersion
1070
     0
  0
ACAD_PROXY_OBJECT
  5
D9BB
102
{ACAD_REACTORS
330
D9B4
102
}
330
D9B4
100
AcDbZombieObject
 90
      499
 91
      509
 93
      436
310
42CCD915DA5C99599C985B595059028333333333333E3BF0000000000000FB0107901411070040501600405405064090741402480A0340
1001
ACAD
1000
AcDbSavedByObjectVersion
1070
     0
  0
ACAD_PROXY_OBJECT
  5
D9B9
102
{ACAD_REACTORS
330
D9B4
102
}
330
D9B4
100
AcDbZombieObject
 90
      499
 91
      509
 93
      388
310
4150985CDA58D07406404333333333333E3BF0000000000000FB0107A41107004050150841D405064090741402480A0350
1001
ACAD
1000
AcDbSavedByObjectVersion
1070
     0
  0
ACAD_PROXY_OBJECT
  5
D9C0
102
{ACAD_REACTORS
330
D9B4
102
}
330
D9B4
100
AcDbZombieObject
 90
      499
 91
      509
 93
      428
310
42109C9A59DA1D195B90C409028333333333333E3BF0000000000000FB010790141107004050150841D405064090741402480A029950
1001
ACAD
1000
AcDbSavedByObjectVersion
1070
     0
  0
ACAD_PROXY_OBJECT
  5
D9C4
102
{ACAD_REACTORS
330
D9B4
102
}
330
D9B4
100
AcDbZombieObject
 90
      499
 91
      509
 93
      452
310
42D0DBDB1BDC90DA185B99D95104090240C333333333333E3BF0000000000000FB0108901411070040501508421405064090741402480A0350
1001
ACAD
1000
AcDbSavedByObjectVersion
1070
     0
  0
ACAD_PROXY_OBJECT
  5
D9BD
102
{ACAD_REACTORS
330
D9B4
102
}
330
D9B4
100
AcDbZombieObject
 90
      499
 91
      509
 93
      500
310
4290DBDB98D95C1D1D585B10940D028333333333333E3BF0000000000000FB0107902409070040501000000000000111010841D405064090740C02480A0340
1001
ACAD
1000
AcDbSavedByObjectVersion
1070
     0
  0
ACAD_PROXY_OBJECT
  5
D9BF
102
{ACAD_REACTORS
330
D9B4
102
}
330
D9B4
100
AcDbZombieObject
 90
      499
 91
      509
 93
      412
310
40D11A5B50B409028333333333333E3BF0000000000000FB010790141107004050150841D405064090741402480A02677FFFFFD0
1001
ACAD
1000
AcDbSavedByObjectVersion
1070
     0
  0
ACAD_PROXY_OBJECT
  5
19C2F
102
{ACAD_REACTORS
330
D9B4
102
}
330
D9B4
100
AcDbZombieObject
 90
      499
 91
      509
 93
      452
310
43115919D950DBDB1BDC93D999916409028333333333333E3BF0000000000000FB010790141107004050150841D405064090741402480A0350
1001
ACAD
1000
AcDbSavedByObjectVersion
1070
     0
  0
ACAD_PROXY_OBJECT
  5
D9C3
102
{ACAD_REACTORS
330
D9B4
102
}
330
D9B4
100
AcDbZombieObject
 90
      499
 91
      509
 93
      444
310
42D19858D95C185D1D195C9B90F409028333333333333E3BF0000000000000FB010790141107004050150841D405064090741402480A0350
1001
ACAD
1000
AcDbSavedByObjectVersion
1070
     0
  0
ACAD_PROXY_OBJECT
  5
D9B5
102
{ACAD_REACTORS
330
D9B4
102
}
330
D9B4
100
AcDbZombieObject
 90
      499
 91
      509
 93
      388
310
41119B185D240901404333333333333E3BF0000000000000F9010740A41107004050150841D405064090741402480A1B50
1001
ACAD
1000
AcDbSavedByObjectVersion
1070
     0
  0
ACAD_PROXY_OBJECT
  5
D9B6
102
{ACAD_REACTORS
330
D9B4
102
}
330
D9B4
100
AcDbZombieObject
 90
      499
 91
      509
 93
      476
310
43519B185D15DA5D1A115919D95CD0140901404333333333333E3BF0000000000000F9010740901411070040501600405405064090741402480A1B50
1001
ACAD
1000
AcDbSavedByObjectVersion
1070
     0
  0
ACAD_PROXY_OBJECT
  5
D9B7
102
{ACAD_REACTORS
330
D9B4
102
}
330
D9B4
100
AcDbZombieObject
 90
      499
 91
      509
 93
      412
310
41D1DBDD5C985D5910240902404333333333333E3BF0000000000000F9010740A411070040501641D405064090741402480A1B50
1001
ACAD
1000
AcDbSavedByObjectVersion
1070
     0
  0
ACAD_PROXY_OBJECT
  5
D9B8
102
{ACAD_REACTORS
330
D9B4
102
}
330
D9B4
100
AcDbZombieObject
 90
      499
 91
      509
 93
      500
310
4411DBDD5C985D5915DA5D1A115919D95CD0340902404333333333333E3BF0000000000000F9010740901411070040501600405405064090741402480A1B50
1001
ACAD
1000
AcDbSavedByObjectVersion
1070
     0
  0
ACAD_PROXY_OBJECT
  5
19C7E
102
{ACAD_REACTORS
330
D9B4
102
}
330
D9B4
100
AcDbZombieObject
 90
      499
 91
      509
 93
      476
310
41921A5919195B90640502408333333333333E3BF0000000000000FB01079024090700405020000000000001110200405405064090740C02480A0340
1001
ACAD
1000
AcDbSavedByObjectVersion
1070
     0
  0
ACAD_PROXY_OBJECT
  5
19C2D
102
{ACAD_REACTORS
330
D9B4
102
}
330
D9B4
100
AcDbZombieObject
 90
      499
 91
      509
 93
      428
310
42529A5D1D195C93D999914409028333333333333E3BF0000000000000FB010790141107004050150A41D405064090741402480A0350
1001
ACAD
1000
AcDbSavedByObjectVersion
1070
     0
  0
ACAD_PROXY_OBJECT
  5
D9C2
102
{ACAD_REACTORS
330
D9B4
102
}
330
D9B4
100
AcDbZombieObject
 90
      499
 91
      509
 93
      444
310
42D31A5B995C185D1D195C9B90E409028333333333333E3BF0000000000000FB010790141107004050750841D405064090741402483A0350
1001
ACAD
1000
AcDbSavedByObjectVersion
1070
     0
  0
ACAD_PROXY_OBJECT
  5
19C84
102
{ACAD_REACTORS
330
D9B4
102
}
330
D9B4
100
AcDbZombieObject
 90
      499
 91
      509
 93
      484
310
42135BD9195B1A5B99D0A409028333333333333E3BF0000000000000F901074090290700405010000000000201990108421405064090741402480A1B40
1001
ACAD
1000
AcDbSavedByObjectVersion
1070
     0
  0
ACAD_PROXY_OBJECT
  5
19C2E
102
{ACAD_REACTORS
330
D9B4
102
}
330
D9B4
100
AcDbZombieObject
 90
      499
 91
      509
 93
      444
310
42D3DD995C9A185B99D3D999915409028333333333333E3BF0000000000000FB010790141107004050150941D405064090741402480A0350
1001
ACAD
1000
AcDbSavedByObjectVersion
1070
     0
  0
ACAD_PROXY_OBJECT
  5
D9BE
102
{ACAD_REACTORS
330
D9B4
102
}
330
D9B4
100
AcDbZombieObject
 90
      499
 91
      509
 93
      420
310
425499585B1A5CDD1A58D08409028333333333333E3BF0000000000000FB01079019070040501508421405064090741402480A1B40
1001
ACAD
1000
AcDbSavedByObjectVersion
1070
     0
  0
ACAD_PROXY_OBJECT
  5
19C83
102
{ACAD_REACTORS
330
D9B4
102
}
330
D9B4
100
AcDbZombieObject
 90
      499
 91
      509
 93
      420
310
4194DA1859195911B40902404333333333333E3BF0000000000000F9010740A41107004050150800405405064090840C02480A0B40
1001
ACAD
1000
AcDbSavedByObjectVersion
1070
     0
  0
ACAD_PROXY_OBJECT
  5
19C82
102
{ACAD_REACTORS
330
D9B4
102
}
330
D9B4
100
AcDbZombieObject
 90
      499
 91
      509
 93
      516
310
4454DA18591959081DDA5D1A08195919D95CD1A40902404333333333333E3BF0000000000000F901074090142907004050250800405405064090740C02480A0B40
1001
ACAD
1000
AcDbSavedByObjectVersion
1070
     0
  0
ACAD_PROXY_OBJECT
  5
19C7F
102
{ACAD_REACTORS
330
D9B4
102
}
330
D9B4
100
AcDbZombieObject
 90
      499
 91
      509
 93
      532
310
4394DA1859195CC81BD98811DC985E5174090240C333333333333E3BF0000000000000FB01079024090741D01000000000000111010841D405064090740C02480A0340
1001
ACAD
1000
AcDbSavedByObjectVersion
1070
     0
  0
ACAD_PROXY_OBJECT
  5
19C80
102
{ACAD_REACTORS
330
D9B4
102
}
330
D9B4
100
AcDbZombieObject
 90
      499
 91
      509
 93
      476
310
41D4DAD95D18DA1E51840502408333333333333E3BF0000000000000FB01079024090741D01000000000000111010B41D405064090741802480A0340
1001
ACAD
1000
AcDbSavedByObjectVersion
1070
     0
  0
ACAD_PROXY_OBJECT
  5
D9C1
102
{ACAD_REACTORS
330
D9B4
102
}
330
D9B4
100
AcDbZombieObject
 90
      499
 91
      509
 93
      412
310
41D51A1A58DAD95B90D409028333333333333E3BF0000000000000FB010790141107004050150C41D405064090741402480A0350
1001
ACAD
1000
AcDbSavedByObjectVersion
1070
     0
  0
ACAD_PROXY_OBJECT
  5
19C7D
102
{ACAD_REACTORS
330
D9B4
102
}
330
D9B4
100
AcDbZombieObject
 90
      499
 91
      509
 93
      420
310
4255DA5C99599C985B595059028333333333333E3BF0000000000000FB0107901411070040501600405405064090740C02480A0340
1001
ACAD
1000
AcDbSavedByObjectVersion
1070
     0
  0
ACAD_PROXY_OBJECT
  5
19C81
102
{ACAD_REACTORS
330
D9B4
102
}
330
D9B4
100
AcDbZombieObject
 90
      499
 91
      509
 93
      404
310
41560B54985E51940902404000000000000E03F0000000000000FB010740501907004050150841D405064090740C02480A1B40
1001
ACAD
1000
AcDbSavedByObjectVersion
1070
     0
  0
XRECORD
  5
1B49D
102
{ACAD_REACTORS
330
1B49C
102
}
330
1B49C
100
AcDbXrecord
340
18D
  0
XRECORD
  5
1B49E
102
{ACAD_REACTORS
330
1B49C
102
}
330
1B49C
100
AcDbXrecord
340
18C
  0
DICTIONARYVAR
  5
1AEBF
102
{ACAD_REACTORS
330
37
102
}
330
37
100
DictionaryVariables
280
     0
  1
1:1
  0
DICTIONARYVAR
  5
DA6A
102
{ACAD_REACTORS
330
37
102
}
330
37
100
DictionaryVariables
280
     0
  1
Standard
  0
DICTIONARYVAR
  5
29E
102
{ACAD_REACTORS
330
37
102
}
330
37
100
DictionaryVariables
280
     0
  1
Standard
  0
DICTIONARYVAR
  5
38
102
{ACAD_REACTORS
330
37
102
}
330
37
100
DictionaryVariables
280
     0
  1
-1
  0
DICTIONARYVAR
  5
1CE
102
{ACAD_REACTORS
330
37
102
}
330
37
100
DictionaryVariables
280
     0
  1
2
  0
DICTIONARYVAR
  5
704E
102
{ACAD_REACTORS
330
37
102
}
330
37
100
DictionaryVariables
280
     0
  1
1
  0
DICTIONARYVAR
  5
DA6D
102
{ACAD_REACTORS
330
37
102
}
330
37
100
DictionaryVariables
280
     0
  1
0
  0
DICTIONARYVAR
  5
7052
102
{ACAD_REACTORS
330
37
102
}
330
37
100
DictionaryVariables
280
     0
  1
8
  0
DICTIONARYVAR
  5
7051
102
{ACAD_REACTORS
330
37
102
}
330
37
100
DictionaryVariables
280
     0
  1
1
  0
DICTIONARYVAR
  5
1A516
102
{ACAD_REACTORS
330
37
102
}
330
37
100
DictionaryVariables
280
     0
  1
0
  0
DICTIONARYVAR
  5
704F
102
{ACAD_REACTORS
330
37
102
}
330
37
100
DictionaryVariables
280
     0
  1
8
  0
DICTIONARYVAR
  5
7050
102
{ACAD_REACTORS
330
37
102
}
330
37
100
DictionaryVariables
280
     0
  1
2
  0
DICTIONARYVAR
  5
1CF
102
{ACAD_REACTORS
330
37
102
}
330
37
100
DictionaryVariables
280
     0
  1

  0
DICTIONARYVAR
  5
DA6C
102
{ACAD_REACTORS
330
37
102
}
330
37
100
DictionaryVariables
280
     0
  1
127
  0
DICTIONARYVAR
  5
1AE9C
102
{ACAD_REACTORS
330
37
102
}
330
37
100
DictionaryVariables
280
     0
  1
2
  0
DICTIONARY
  5
1B63A
330
D9A4
100
AcDbDictionary
  3
ACAD_XREC_ROUNDTRIP
360
1B63B
1001
ACAD
1000
TREAT_AS_HARD
1070
     1
  0
DICTIONARY
  5
1B63C
330
D99C
100
AcDbDictionary
  3
ACAD_XREC_ROUNDTRIP
360
1B63D
1001
ACAD
1000
TREAT_AS_HARD
1070
     1
  0
DICTIONARY
  5
1B63E
330
D9AC
100
AcDbDictionary
  3
ACAD_XREC_ROUNDTRIP
360
1B63F
1001
ACAD
1000
TREAT_AS_HARD
1070
     1
  0
XRECORD
  5
1B63B
102
{ACAD_REACTORS
330
1B63A
102
}
330
1B63A
100
AcDbXrecord
102
MATERIAL
148
0.0
149
0.0
149
0.0
 93
        0
 94
      127
282
     0
 72
     0
 77
     0
171
     0
175
     0
179
     0
273
     0
  0
XRECORD
  5
1B63D
102
{ACAD_REACTORS
330
1B63C
102
}
330
1B63C
100
AcDbXrecord
102
MATERIAL
148
0.0
149
0.0
149
0.0
 93
        0
 94
      127
282
     0
 72
     0
 77
     0
171
     0
175
     0
179
     0
273
     0
  0
XRECORD
  5
1B63F
102
{ACAD_REACTORS
330
1B63E
102
}
330
1B63E
100
AcDbXrecord
102
MATERIAL
148
0.0
149
0.0
149
0.0
 93
        0
 94
      127
282
     0
 72
     0
 77
     0
171
     0
175
     0
179
     0
273
     0
  0
ENDSEC
  0
EOF
