  0
SECTION
  2
HEADER
  9
$ACADVER
  1
AC1012
  9
$DWGCODEPAGE
  3
ansi_932
  9
$INSBASE
 10
0.0
 20
0.0
 30
0.0
  9
$EXTMIN
 10
2684.426479689653
 20
-309.8612389494876
 30
0.0
  9
$EXTMAX
 10
3318.741841739552
 20
117.1397637311113
 30
0.0000000000563712
  9
$LIMMIN
 10
0.0
 20
0.0
  9
$LIMMAX
 10
420.0
 20
297.0
  9
$ORTHOMODE
 70
     0
  9
$REGENMODE
 70
     1
  9
$FILLMODE
 70
     1
  9
$QTEXTMODE
 70
     0
  9
$MIRRTEXT
 70
     0
  9
$DRAGMODE
 70
     2
  9
$LTSCALE
 40
0.5
  9
$OSMODE
 70
 14463
  9
$ATTMODE
 70
     1
  9
$TEXTSIZE
 40
4.0
  9
$TRACEWID
 40
1.0
  9
$TEXTSTYLE
  7
STANDARD
  9
$CLAYER
  8
1TEXT
  9
$CELTYPE
  6
BYLAYER
  9
$CECOLOR
 62
   256
  9
$CELTSCALE
 40
1.0
  9
$DELOBJ
 70
     1
  9
$DISPSILH
 70
     0
  9
$DIMSCALE
 40
1.0
  9
$DIMASZ
 40
2.0
  9
$DIMEXO
 40
0.0
  9
$DIMDLI
 40
7.0
  9
$DIMRND
 40
0.0
  9
$DIMDLE
 40
0.0
  9
$DIMEXE
 40
1.0
  9
$DIMTP
 40
0.0
  9
$DIMTM
 40
0.0
  9
$DIMTXT
 40
3.5
  9
$DIMCEN
 40
0.0
  9
$DIMTSZ
 40
0.0
  9
$DIMTOL
 70
     0
  9
$DIMLIM
 70
     0
  9
$DIMTIH
 70
     0
  9
$DIMTOH
 70
     0
  9
$DIMSE1
 70
     0
  9
$DIMSE2
 70
     0
  9
$DIMTAD
 70
     1
  9
$DIMZIN
 70
     8
  9
$DIMBLK
  1

  9
$DIMASO
 70
     1
  9
$DIMSHO
 70
     1
  9
$DIMPOST
  1
 
  9
$DIMAPOST
  1

  9
$DIMALT
 70
     0
  9
$DIMALTD
 70
     2
  9
$DIMALTF
 40
25.4
  9
$DIMLFAC
 40
1.0
  9
$DIMTOFL
 70
     1
  9
$DIMTVP
 40
0.0
  9
$DIMTIX
 70
     0
  9
$DIMSOXD
 70
     0
  9
$DIMSAH
 70
     1
  9
$DIMBLK1
  1
OPEN30
  9
$DIMBLK2
  1
OPEN30
  9
$DIMSTYLE
  2
NEWX10
  9
$DIMCLRD
 70
   256
  9
$DIMCLRE
 70
   256
  9
$DIMCLRT
 70
   201
  9
$DIMTFAC
 40
0.7
  9
$DIMGAP
 40
0.7
  9
$DIMJUST
 70
     0
  9
$DIMSD1
 70
     0
  9
$DIMSD2
 70
     0
  9
$DIMTOLJ
 70
     1
  9
$DIMTZIN
 70
     8
  9
$DIMALTZ
 70
     0
  9
$DIMALTTZ
 70
     0
  9
$DIMFIT
 70
     3
  9
$DIMUPT
 70
     0
  9
$DIMUNIT
 70
     2
  9
$DIMDEC
 70
     2
  9
$DIMTDEC
 70
     4
  9
$DIMALTU
 70
     2
  9
$DIMALTTD
 70
     2
  9
$DIMTXSTY
  7
STANDARD
  9
$DIMAUNIT
 70
     0
  9
$LUNITS
 70
     2
  9
$LUPREC
 70
     4
  9
$SKETCHINC
 40
1.0
  9
$FILLETRAD
 40
0.0
  9
$AUNITS
 70
     0
  9
$AUPREC
 70
     2
  9
$MENU
  1
acad
  9
$ELEVATION
 40
0.0
  9
$PELEVATION
 40
0.0
  9
$THICKNESS
 40
0.0
  9
$LIMCHECK
 70
     0
  9
$CHAMFERA
 40
10.0
  9
$CHAMFERB
 40
10.0
  9
$CHAMFERC
 40
20.0
  9
$CHAMFERD
 40
0.0
  9
$SKPOLY
 70
     0
  9
$TDCREATE
 40
2451318.621352917
  9
$TDUPDATE
 40
2458152.62736603
  9
$TDINDWG
 40
1.6404371065
  9
$TDUSRTIMER
 40
1.6404371065
  9
$USRTIMER
 70
     1
  9
$ANGBASE
 50
0.0
  9
$ANGDIR
 70
     0
  9
$PDMODE
 70
     0
  9
$PDSIZE
 40
0.0
  9
$PLINEWID
 40
0.0
  9
$COORDS
 70
     2
  9
$SPLFRAME
 70
     0
  9
$SPLINETYPE
 70
     6
  9
$SPLINESEGS
 70
     8
  9
$ATTDIA
 70
     0
  9
$ATTREQ
 70
     1
  9
$HANDLING
 70
     1
  9
$HANDSEED
  5
1B089
  9
$SURFTAB1
 70
     6
  9
$SURFTAB2
 70
     6
  9
$SURFTYPE
 70
     6
  9
$SURFU
 70
     6
  9
$SURFV
 70
     6
  9
$UCSNAME
  2

  9
$UCSORG
 10
0.0
 20
0.0
 30
0.0
  9
$UCSXDIR
 10
1.0
 20
0.0
 30
0.0
  9
$UCSYDIR
 10
0.0
 20
1.0
 30
0.0
  9
$PUCSNAME
  2

  9
$PUCSORG
 10
0.0
 20
0.0
 30
0.0
  9
$PUCSXDIR
 10
1.0
 20
0.0
 30
0.0
  9
$PUCSYDIR
 10
0.0
 20
1.0
 30
0.0
  9
$USERI1
 70
     0
  9
$USERI2
 70
     0
  9
$USERI3
 70
     0
  9
$USERI4
 70
     0
  9
$USERI5
 70
     0
  9
$USERR1
 40
0.0
  9
$USERR2
 40
0.0
  9
$USERR3
 40
0.0
  9
$USERR4
 40
0.0
  9
$USERR5
 40
0.0
  9
$WORLDVIEW
 70
     1
  9
$SHADEDGE
 70
     3
  9
$SHADEDIF
 70
    70
  9
$TILEMODE
 70
     1
  9
$MAXACTVP
 70
    48
  9
$PINSBASE
 10
0.0
 20
0.0
 30
0.0
  9
$PLIMCHECK
 70
     0
  9
$PEXTMIN
 10
1.000000000000000E+20
 20
1.000000000000000E+20
 30
1.000000000000000E+20
  9
$PEXTMAX
 10
-1.000000000000000E+20
 20
-1.000000000000000E+20
 30
-1.000000000000000E+20
  9
$PLIMMIN
 10
0.0
 20
0.0
  9
$PLIMMAX
 10
420.0
 20
297.0
  9
$UNITMODE
 70
     0
  9
$VISRETAIN
 70
     1
  9
$PLINEGEN
 70
     0
  9
$PSLTSCALE
 70
     1
  9
$TREEDEPTH
 70
  3020
  9
$PICKSTYLE
 70
     1
  9
$CMLSTYLE
  2
STANDARD
  9
$CMLJUST
 70
     0
  9
$CMLSCALE
 40
20.0
  9
$SAVEIMAGES
 70
     1
  0
ENDSEC
  0
SECTION
  2
CLASSES
  0
CLASS
  1
DICTIONARYVAR
  2
AcDbDictionaryVar
  3
ObjectDBX Classes
 90
        0
280
     0
281
     0
  0
CLASS
  1
IDBUFFER
  2
AcDbIdBuffer
  3
ObjectDBX Classes
 90
    32768
280
     0
281
     0
  0
CLASS
  1
LWPOLYLINE
  2
AcDbPolyline
  3
ObjectDBX Classes
 90
    32768
280
     0
281
     1
  0
CLASS
  1
ACDBDICTIONARYWDFLT
  2
AcDbDictionaryWithDefault
  3
ObjectDBX Classes
 90
    32768
280
     0
281
     0
  0
CLASS
  1
ACDBPLACEHOLDER
  2
AcDbPlaceHolder
  3
ObjectDBX Classes
 90
        0
280
     0
281
     0
  0
CLASS
  1
LAYOUT
  2
AcDbLayout
  3
ObjectDBX Classes
 90
        0
280
     0
281
     0
  0
CLASS
  1
TABLESTYLE
  2
AcDbTableStyle
  3
ObjectDBX Classes
 90
     4095
280
     0
281
     0
  0
CLASS
  1
SORTENTSTABLE
  2
AcDbSortentsTable
  3
ObjectDBX Classes
 90
    32768
280
     0
281
     0
  0
CLASS
  1
MATERIAL
  2
AcDbMaterial
  3
ObjectDBX Classes
 90
     1153
280
     0
281
     0
  0
CLASS
  1
VISUALSTYLE
  2
AcDbVisualStyle
  3
ObjectDBX Classes
 90
     4095
280
     0
281
     0
  0
CLASS
  1
SCALE
  2
AcDbScale
  3
ObjectDBX Classes
 90
     1153
280
     0
281
     0
  0
CLASS
  1
MLEADERSTYLE
  2
AcDbMLeaderStyle
  3
ACDB_MLEADERSTYLE_CLASS
 90
     4095
280
     0
281
     0
  0
CLASS
  1
CELLSTYLEMAP
  2
AcDbCellStyleMap
  3
ObjectDBX Classes
 90
     1152
280
     0
281
     0
  0
CLASS
  1
SUN
  2
AcDbSun
  3
SCENEOE
 90
     1153
280
     0
281
     0
  0
CLASS
  1
AEC_REFEDIT_STATUS_TRACKER
  2
AecDbRefEditStatusTracker
  3
AecArchBase60|Product Desc: Autodesk Architectural Desktop 2007 |Company: Autodesk,Inc. |WEB Address: www.autodesk.com
 90
      129
280
     1
281
     0
  0
CLASS
  1
NPOCOLLECTION
  2
AcDbImpNonPersistentObjectsCollection
  3
ObjectDBX Classes
 90
     1153
280
     1
281
     0
  0
CLASS
  1
XRECORD
  2
AcDbXrecord
  3
ObjectDBX Classes
 90
    32768
280
     0
281
     0
  0
CLASS
  1
HATCH
  2
AcDbHatch
  3
ObjectDBX Classes
 90
    32768
280
     0
281
     1
  0
ENDSEC
  0
SECTION
  2
TABLES
  0
TABLE
  2
VPORT
  5
8
330
0
100
AcDbSymbolTable
 70
     1
  0
VPORT
  5
D991
330
8
100
AcDbSymbolTableRecord
100
AcDbViewportTableRecord
  2
*ACTIVE
 70
     0
 10
0.0
 20
0.0
 11
1.0
 21
1.0
 12
3001.584160714602
 22
-96.36073760918816
 13
0.0
 23
0.0
 14
10.0
 24
10.0
 15
10.0
 25
10.0
 16
0.0
 26
0.0
 36
1.0
 17
0.0
 27
0.0
 37
0.0
 40
458.4642344570642
 41
2.233782129742962
 42
50.0
 43
0.0
 44
0.0
 50
0.0
 51
0.0
 71
    16
 72
   100
 73
     1
 74
     1
 75
     0
 76
     0
 77
     0
 78
     0
  0
ENDTAB
  0
TABLE
  2
LTYPE
  5
5
330
0
100
AcDbSymbolTable
 70
     3
  0
LTYPE
  5
12
330
5
100
AcDbSymbolTableRecord
100
AcDbLinetypeTableRecord
  2
BYBLOCK
 70
     0
  3

 72
    65
 73
     0
 40
0.0
  0
LTYPE
  5
13
330
5
100
AcDbSymbolTableRecord
100
AcDbLinetypeTableRecord
  2
BYLAYER
 70
     0
  3

 72
    65
 73
     0
 40
0.0
  0
LTYPE
  5
14
330
5
100
AcDbSymbolTableRecord
100
AcDbLinetypeTableRecord
  2
CONTINUOUS
 70
     0
  3
Solid line
 72
    65
 73
     0
 40
0.0
  0
LTYPE
  5
2C03
330
5
100
AcDbSymbolTableRecord
100
AcDbLinetypeTableRecord
  2
HIDDEN
 70
     0
  3
Hidden __ __ __ __ __ __ __ __ __ __ __ __ __ _
 72
    65
 73
     2
 40
9.524999999999999
 49
6.35
 74
     0
 49
-3.175
 74
     0
  0
LTYPE
  5
13839
330
5
100
AcDbSymbolTableRecord
100
AcDbLinetypeTableRecord
  2
CENTER2
 70
     0
  3
Center (.5x) ___ _ ___ _ ___ _ ___ _ ___ _ ___
 72
    65
 73
     4
 40
28.575
 49
19.05
 74
     0
 49
-3.175
 74
     0
 49
3.175
 74
     0
 49
-3.175
 74
     0
  0
ENDTAB
  0
TABLE
  2
LAYER
  5
2
102
{ACAD_XDICTIONARY
360
E6A6
102
}
330
0
100
AcDbSymbolTable
 70
     6
  0
LAYER
  5
E
102
{ACAD_XDICTIONARY
360
DA05
102
}
330
2
100
AcDbSymbolTableRecord
100
AcDbLayerTableRecord
  2
0
 70
     0
 62
     7
  6
CONTINUOUS
  0
LAYER
  5
29
102
{ACAD_XDICTIONARY
360
DA07
102
}
330
2
100
AcDbSymbolTableRecord
100
AcDbLayerTableRecord
  2
1CENTER
 70
     0
 62
     7
  6
CENTER2
  0
LAYER
  5
31
102
{ACAD_XDICTIONARY
360
DA09
102
}
330
2
100
AcDbSymbolTableRecord
100
AcDbLayerTableRecord
  2
1TEXT
 70
     0
 62
     7
  6
CONTINUOUS
  0
LAYER
  5
243
102
{ACAD_XDICTIONARY
360
DA0F
102
}
330
2
100
AcDbSymbolTableRecord
100
AcDbLayerTableRecord
  2
01
 70
     0
 62
     1
  6
CONTINUOUS
  0
LAYER
  5
24E
102
{ACAD_XDICTIONARY
360
DA15
102
}
330
2
100
AcDbSymbolTableRecord
100
AcDbLayerTableRecord
  2
1DIM
 70
     0
 62
     7
  6
CONTINUOUS
  0
LAYER
  5
2C05
102
{ACAD_XDICTIONARY
360
DA23
102
}
330
2
100
AcDbSymbolTableRecord
100
AcDbLayerTableRecord
  2
1HIDDEN
 70
     0
 62
     7
  6
HIDDEN
  0
ENDTAB
  0
TABLE
  2
STYLE
  5
3
330
0
100
AcDbSymbolTable
 70
     1
  0
STYLE
  5
F
330
3
100
AcDbSymbolTableRecord
100
AcDbTextStyleTableRecord
  2
STANDARD
 70
     0
 40
0.0
 41
1.0
 50
0.0
 71
     0
 42
4.0
  3
txt.shx
  4
extfont.shx
  0
ENDTAB
  0
TABLE
  2
VIEW
  5
6
330
0
100
AcDbSymbolTable
 70
     0
  0
ENDTAB
  0
TABLE
  2
UCS
  5
7
330
0
100
AcDbSymbolTable
 70
     5
  0
UCS
  5
1A790
330
7
100
AcDbSymbolTableRecord
100
AcDbUCSTableRecord
  2
U
 70
     0
 10
0.0
 20
0.0
 30
0.0
 11
1.0
 21
0.0
 31
0.0
 12
0.0
 22
2.220446049250313E-16
 32
1.0
 79
     0
146
0.0
  0
UCS
  5
1A791
330
7
100
AcDbSymbolTableRecord
100
AcDbUCSTableRecord
  2
L
 70
     0
 10
0.0
 20
0.0
 30
0.0
 11
-2.220446049250313E-16
 21
-1.0
 31
2.220446049250313E-16
 12
0.0
 22
2.220446049250313E-16
 32
1.0
 79
     0
146
0.0
  0
UCS
  5
1A792
330
7
100
AcDbSymbolTableRecord
100
AcDbUCSTableRecord
  2
R
 70
     0
 10
0.0
 20
0.0
 30
0.0
 11
3.445052403072690E-16
 21
1.0
 31
-2.220446049250313E-16
 12
0.0
 22
2.220446049250313E-16
 32
1.0
 79
     0
146
0.0
  0
UCS
  5
1A793
330
7
100
AcDbSymbolTableRecord
100
AcDbUCSTableRecord
  2
ISOME
 70
     0
 10
0.0
 20
0.0
 30
0.0
 11
0.7071450863198264
 21
-0.7070684729403536
 31
-3.830824619477369E-5
 12
0.4082704059428736
 22
0.408270407740115
 32
0.8164744636514737
 79
     0
146
0.0
  0
UCS
  5
1A794
330
7
100
AcDbSymbolTableRecord
100
AcDbUCSTableRecord
  2
PERSPECTIVE
 70
     0
 10
0.0
 20
0.0
 30
0.0
 11
0.8191477691768962
 21
-0.5735823260466402
 31
-0.0004974931557765183
 12
0.1584844715982971
 22
0.225502028986108
 32
0.961265575782966
 79
     0
146
0.0
  0
ENDTAB
  0
TABLE
  2
APPID
  5
9
330
0
100
AcDbSymbolTable
 70
    13
  0
APPID
  5
10
330
9
100
AcDbSymbolTableRecord
100
AcDbRegAppTableRecord
  2
ACAD
 70
     0
  0
APPID
  5
21
330
9
100
AcDbSymbolTableRecord
100
AcDbRegAppTableRecord
  2
DRAWINGVARIABLESXDATA
 70
     0
  0
APPID
  5
64
330
9
100
AcDbSymbolTableRecord
100
AcDbRegAppTableRecord
  2
CONTENTTABDATA
 70
     0
  0
APPID
  5
65
330
9
100
AcDbSymbolTableRecord
100
AcDbRegAppTableRecord
  2
CONTENTCURRENTTAB
 70
     0
  0
APPID
  5
66
330
9
100
AcDbSymbolTableRecord
100
AcDbRegAppTableRecord
  2
CONTENTBLOCKDESCRIPTION
 70
     0
  0
APPID
  5
67
330
9
100
AcDbSymbolTableRecord
100
AcDbRegAppTableRecord
  2
CONTENTBLOCKICON
 70
     0
  0
APPID
  5
68
330
9
100
AcDbSymbolTableRecord
100
AcDbRegAppTableRecord
  2
CONTENTLONGBLOCKNAME
 70
     0
  0
APPID
  5
2AE
330
9
100
AcDbSymbolTableRecord
100
AcDbRegAppTableRecord
  2
ACAD_PSEXT
 70
     0
  0
APPID
  5
D9E9
330
9
100
AcDbSymbolTableRecord
100
AcDbRegAppTableRecord
  2
ACAD_MLEADERVER
 70
     0
  0
APPID
  5
19D01
330
9
100
AcDbSymbolTableRecord
100
AcDbRegAppTableRecord
  2
ACADANNOTATIVE
 70
     0
  0
APPID
  5
19D02
330
9
100
AcDbSymbolTableRecord
100
AcDbRegAppTableRecord
  2
ACDBBLOCKREPETAG
 70
     0
  0
APPID
  5
1A67E
330
9
100
AcDbSymbolTableRecord
100
AcDbRegAppTableRecord
  2
ACAD_OBJECT_CHANGE_GUID
 70
     0
  0
APPID
  5
1A8AD
330
9
100
AcDbSymbolTableRecord
100
AcDbRegAppTableRecord
  2
ACAECLAYERSTANDARD
 70
     0
  0
ENDTAB
  0
TABLE
  2
DIMSTYLE
  5
A
330
0
100
AcDbSymbolTable
 70
     1
  0
DIMSTYLE
105
48
330
A
100
AcDbSymbolTableRecord
100
AcDbDimStyleTableRecord
  2
NEWX10
 70
     0
  3
 
  4

  5

  6
OPEN30
  7
OPEN30
 40
1.0
 41
2.0
 42
0.0
 43
7.0
 44
1.0
 45
0.0
 46
0.0
 47
0.0
 48
0.0
140
3.5
141
0.0
142
0.0
143
25.4
144
1.0
145
0.0
146
0.7
147
0.7
 71
     0
 72
     0
 73
     0
 74
     0
 75
     0
 76
     0
 77
     1
 78
     8
170
     0
171
     2
172
     1
173
     1
174
     0
175
     0
176
   256
177
   256
178
   201
179
     1
270
     2
271
     2
272
     4
273
     2
274
     2
340
F
275
     0
280
     0
281
     0
282
     0
283
     1
284
     8
285
     0
286
     0
287
     3
288
     0
  0
ENDTAB
  0
TABLE
  2
BLOCK_RECORD
  5
1
330
0
100
AcDbSymbolTable
 70
     8
  0
BLOCK_RECORD
  5
18
102
{ACAD_XDICTIONARY
360
88F
102
}
330
1
100
AcDbSymbolTableRecord
100
AcDbBlockTableRecord
  2
*MODEL_SPACE
  0
BLOCK_RECORD
  5
15
330
1
100
AcDbSymbolTableRecord
100
AcDbBlockTableRecord
  2
*PAPER_SPACE
  0
BLOCK_RECORD
  5
42
330
1
100
AcDbSymbolTableRecord
100
AcDbBlockTableRecord
  2
_OPEN30
  0
BLOCK_RECORD
  5
19D51
330
1
100
AcDbSymbolTableRecord
100
AcDbBlockTableRecord
  2
A3WAKUKAWAJUN2017_HYOUDAI_
  0
BLOCK_RECORD
  5
1AEE9
330
1
100
AcDbSymbolTableRecord
100
AcDbBlockTableRecord
  2
*X51
  0
BLOCK_RECORD
  5
1AF37
330
1
100
AcDbSymbolTableRecord
100
AcDbBlockTableRecord
  2
*X52
  0
BLOCK_RECORD
  5
1AF89
330
1
100
AcDbSymbolTableRecord
100
AcDbBlockTableRecord
  2
*X53
  0
BLOCK_RECORD
  5
1AFDA
330
1
100
AcDbSymbolTableRecord
100
AcDbBlockTableRecord
  2
*X54
  0
BLOCK_RECORD
  5
1B017
330
1
100
AcDbSymbolTableRecord
100
AcDbBlockTableRecord
  2
*X55
  0
BLOCK_RECORD
  5
1B057
330
1
100
AcDbSymbolTableRecord
100
AcDbBlockTableRecord
  2
*X56
  0
ENDTAB
  0
ENDSEC
  0
SECTION
  2
BLOCKS
  0
BLOCK
  5
19
330
18
100
AcDbEntity
  8
0
100
AcDbBlockBegin
  2
*MODEL_SPACE
 70
     0
 10
0.0
 20
0.0
 30
0.0
  3
*MODEL_SPACE
  1

  0
ENDBLK
  5
1A
330
18
100
AcDbEntity
  8
0
100
AcDbBlockEnd
  0
BLOCK
  5
16
330
15
100
AcDbEntity
 67
     1
  8
0
100
AcDbBlockBegin
  2
*PAPER_SPACE
 70
     0
 10
0.0
 20
0.0
 30
0.0
  3
*PAPER_SPACE
  1

  0
ENDBLK
  5
17
330
15
100
AcDbEntity
 67
     1
  8
0
100
AcDbBlockEnd
  0
BLOCK
  5
43
330
42
100
AcDbEntity
  8
0
100
AcDbBlockBegin
  2
_OPEN30
 70
     0
 10
0.0
 20
0.0
 30
0.0
  3
_OPEN30
  1

  0
LINE
  5
44
330
42
100
AcDbEntity
  8
0
  6
BYBLOCK
 62
     0
100
AcDbLine
 10
-1.0
 20
0.26794919
 30
0.0
 11
0.0
 21
0.0
 31
0.0
  0
LINE
  5
45
330
42
100
AcDbEntity
  8
0
  6
BYBLOCK
 62
     0
100
AcDbLine
 10
0.0
 20
0.0
 30
0.0
 11
-1.0
 21
-0.26794919
 31
0.0
  0
LINE
  5
46
330
42
100
AcDbEntity
  8
0
  6
BYBLOCK
 62
     0
100
AcDbLine
 10
0.0
 20
0.0
 30
0.0
 11
-1.0
 21
0.0
 31
0.0
  0
ENDBLK
  5
47
330
42
100
AcDbEntity
  8
0
100
AcDbBlockEnd
  0
BLOCK
  5
1A474
330
19D51
100
AcDbEntity
  8
0
100
AcDbBlockBegin
  2
A3WAKUKAWAJUN2017_HYOUDAI_
 70
     0
 10
0.0
 20
0.0
 30
0.0
  3
A3WAKUKAWAJUN2017_HYOUDAI_
  1

  0
LINE
  5
19D53
330
19D51
100
AcDbEntity
  8
0
100
AcDbLine
 10
13.26299999998673
 20
-0.0001000000000317
 30
0.0
 11
9.236999999990758
 21
8.999899999990987
 31
0.0
1001
ACAD
1000
ASC_BOUNDS
1002
{
1070
    19
1005
19D94
1002
}
  0
LINE
  5
19D54
330
19D51
100
AcDbEntity
  8
0
100
AcDbLine
 10
5.657999999994331
 20
0.9999999999989768
 30
0.0
 11
9.236999999990758
 21
8.999999999991019
 31
0.0
1001
ACAD
1000
ASC_BOUNDS
1002
{
1070
    19
1005
19D94
1002
}
  0
LINE
  5
19D55
330
19D51
100
AcDbEntity
  8
0
100
AcDbLine
 10
18.59199999998134
 20
-0.2368999999997641
 30
0.0
 11
16.46099999998353
 21
5.432899999994561
 31
0.0
1001
ACAD
1000
ASC_BOUNDS
1002
{
1070
    19
1005
19D95
1002
}
  0
LINE
  5
19D56
330
19D51
100
AcDbEntity
  8
0
100
AcDbLine
 10
18.59199999998134
 20
-0.2368999999997641
 30
0.0
 11
22.38199999997767
 21
8.763099999991255
 31
0.0
1001
ACAD
1000
ASC_BOUNDS
1002
{
1070
    19
1005
19D95
1002
}
  0
LINE
  5
19D57
330
19D51
100
AcDbEntity
  8
0
100
AcDbLine
 10
14.32899999998563
 20
-0.2368999999997641
 30
0.0
 11
16.46099999998353
 21
5.432899999994561
 31
0.0
1001
ACAD
1000
ASC_BOUNDS
1002
{
1070
    19
1005
19D95
1002
}
  0
LINE
  5
19D58
330
19D51
100
AcDbEntity
  8
0
100
AcDbLine
 10
14.32899999998563
 20
-0.2368999999997641
 30
0.0
 11
10.53899999998941
 21
8.763099999991255
 31
0.0
1001
ACAD
1000
ASC_BOUNDS
1002
{
1070
    19
1005
19D95
1002
}
  0
LINE
  5
19D59
330
19D51
100
AcDbEntity
  8
0
100
AcDbLine
 10
19.53899999998043
 20
-0.0001000000000317
 30
0.0
 11
23.56599999997638
 21
8.999899999990987
 31
0.0
1001
ACAD
1000
ASC_BOUNDS
1002
{
1070
    19
1005
19D96
1002
}
  0
LINE
  5
19D5A
330
19D51
100
AcDbEntity
  8
0
100
AcDbLine
 10
26.97358892824991
 20
1.383099999991202
 30
0.0
 11
23.56599999997638
 21
8.999899999990987
 31
0.0
1001
ACAD
1000
ASC_BOUNDS
1002
{
1070
    19
1005
19D96
1002
}
  0
LINE
  5
19D5B
330
19D51
100
AcDbEntity
  8
0
100
AcDbLine
 10
5.657999999994331
 20
0.9999999999989768
 30
0.0
 11
3.181999999996833
 21
4.668599999995308
 31
0.0
1001
ACAD
1000
ASC_BOUNDS
1002
{
1070
    19
1005
19D94
1002
}
  0
LINE
  5
19D5C
330
19D51
100
AcDbEntity
  8
0
100
AcDbLine
 10
4.617999999995391
 20
-0.0001000000000317
 30
0.0
 11
1.420999999998571
 21
4.736799999995242
 31
0.0
1001
ACAD
1000
ASC_BOUNDS
1002
{
1070
    19
1005
19D94
1002
}
  0
LINE
  5
19D5D
330
19D51
100
AcDbEntity
  8
0
100
AcDbLine
 10
1.420999999998571
 20
8.763099999991255
 30
0.0
 11
1.420999999998571
 21
0.0
 31
0.0
1001
ACAD
1000
ASC_BOUNDS
1002
{
1070
    19
1005
19D99
1002
}
  0
LINE
  5
19D5E
330
19D51
100
AcDbEntity
  8
0
100
AcDbLine
 10
0.0
 20
8.763099999991255
 30
0.0
 11
0.0
 21
0.0
 31
0.0
1001
ACAD
1000
ASC_BOUNDS
1002
{
1070
    19
1005
19D99
1002
}
  0
LINE
  5
19D5F
330
19D51
100
AcDbEntity
  8
0
100
AcDbLine
 10
6.766999999993232
 20
-0.0001000000000317
 30
0.0
 11
7.826999999992154
 21
2.368399999997621
 31
0.0
1001
ACAD
1000
ASC_BOUNDS
1002
{
1070
    19
1005
19D94
1002
}
  0
LINE
  5
19D60
330
19D51
100
AcDbEntity
  8
0
100
AcDbLine
 10
0.0
 20
0.0
 30
0.0
 11
1.420999999998571
 21
0.0
 31
0.0
1001
ACAD
1000
ASC_BOUNDS
1002
{
1070
    19
1005
19D99
1002
}
  0
LINE
  5
19D61
330
19D51
100
AcDbEntity
  8
0
100
AcDbLine
 10
4.617999999995391
 20
0.0
 30
0.0
 11
6.766999999993232
 21
0.0
 31
0.0
1001
ACAD
1000
ASC_BOUNDS
1002
{
1070
    19
1005
19D94
1002
}
  0
LINE
  5
19D62
330
19D51
100
AcDbEntity
  8
0
100
AcDbLine
 10
11.70599999998831
 20
-0.0001000000000317
 30
0.0
 11
10.64699999998936
 21
2.368399999997621
 31
0.0
1001
ACAD
1000
ASC_BOUNDS
1002
{
1070
    19
1005
19D94
1002
}
  0
LINE
  5
19D63
330
19D51
100
AcDbEntity
  8
0
100
AcDbLine
 10
7.826999999992154
 20
2.368399999997621
 30
0.0
 11
10.64699999998936
 21
2.368399999997621
 31
0.0
1001
ACAD
1000
ASC_BOUNDS
1002
{
1070
    19
1005
19D94
1002
}
  0
LINE
  5
19D64
330
19D51
100
AcDbEntity
  8
0
100
AcDbLine
 10
11.70599999998831
 20
0.0
 30
0.0
 11
13.26299999998673
 21
0.0
 31
0.0
1001
ACAD
1000
ASC_BOUNDS
1002
{
1070
    19
1005
19D94
1002
}
  0
LINE
  5
19D65
330
19D51
100
AcDbEntity
  8
0
100
AcDbLine
 10
22.15599999997789
 20
2.368399999997621
 30
0.0
 11
24.97599999997499
 21
2.368399999997621
 31
0.0
1001
ACAD
1000
ASC_BOUNDS
1002
{
1070
    19
1005
19D96
1002
}
  0
LINE
  5
19D66
330
19D51
100
AcDbEntity
  8
0
100
AcDbLine
 10
19.53899999998043
 20
0.0
 30
0.0
 11
21.09599999997886
 21
0.0
 31
0.0
1001
ACAD
1000
ASC_BOUNDS
1002
{
1070
    19
1005
19D96
1002
}
  0
LINE
  5
19D67
330
19D51
100
AcDbEntity
  8
0
100
AcDbLine
 10
21.09599999997886
 20
-0.0001000000000317
 30
0.0
 11
22.15599999997789
 21
2.368399999997621
 31
0.0
1001
ACAD
1000
ASC_BOUNDS
1002
{
1070
    19
1005
19D96
1002
}
  0
LINE
  5
19D68
330
19D51
100
AcDbEntity
  8
0
100
AcDbLine
 10
26.02015566812236
 20
0.0330999999912365
 30
0.0
 11
24.97599999997499
 21
2.368399999997621
 31
0.0
1001
ACAD
1000
ASC_BOUNDS
1002
{
1070
    19
1005
19D96
1002
}
  0
LINE
  5
19D69
330
19D51
100
AcDbEntity
  8
0
100
AcDbLine
 10
14.32399999998563
 20
3.315799999996671
 30
0.0
 11
16.46099999998353
 21
8.999899999990987
 31
0.0
1001
ACAD
1000
ASC_BOUNDS
1002
{
1070
    19
1005
19D95
1002
}
  0
LINE
  5
19D6A
330
19D51
100
AcDbEntity
  8
0
100
AcDbLine
 10
6.432999999993513
 20
8.763099999991255
 30
0.0
 11
3.181999999996833
 21
4.668599999995308
 31
0.0
1001
ACAD
1000
ASC_BOUNDS
1002
{
1070
    19
1005
19D94
1002
}
  0
LINE
  5
19D6B
330
19D51
100
AcDbEntity
  8
0
100
AcDbLine
 10
4.617999999995391
 20
8.763099999991255
 30
0.0
 11
1.420999999998571
 21
4.736799999995242
 31
0.0
1001
ACAD
1000
ASC_BOUNDS
1002
{
1070
    19
1005
19D94
1002
}
  0
LINE
  5
19D6C
330
19D51
100
AcDbEntity
  8
0
100
AcDbLine
 10
0.0
 20
8.763099999991255
 30
0.0
 11
1.420999999998571
 21
8.763099999991255
 31
0.0
1001
ACAD
1000
ASC_BOUNDS
1002
{
1070
    19
1005
19D99
1002
}
  0
LINE
  5
19D6D
330
19D51
100
AcDbEntity
  8
0
100
AcDbLine
 10
4.617999999995391
 20
8.763099999991255
 30
0.0
 11
6.432999999993513
 21
8.763099999991255
 31
0.0
1001
ACAD
1000
ASC_BOUNDS
1002
{
1070
    19
1005
19D94
1002
}
  0
LINE
  5
19D6E
330
19D51
100
AcDbEntity
  8
0
100
AcDbLine
 10
14.32399999998563
 20
3.315799999996671
 30
0.0
 11
12.02999999998792
 21
8.763099999991255
 31
0.0
1001
ACAD
1000
ASC_BOUNDS
1002
{
1070
    19
1005
19D95
1002
}
  0
LINE
  5
19D6F
330
19D51
100
AcDbEntity
  8
0
100
AcDbLine
 10
10.06399999998996
 20
3.670999999996297
 30
0.0
 11
9.236999999990758
 21
5.5200999999945
 31
0.0
1001
ACAD
1000
ASC_BOUNDS
1002
{
1070
    19
1005
19D94
1002
}
  0
LINE
  5
19D70
330
19D51
100
AcDbEntity
  8
0
100
AcDbLine
 10
8.409999999991555
 20
3.670999999996297
 30
0.0
 11
9.236999999990758
 21
5.5200999999945
 31
0.0
1001
ACAD
1000
ASC_BOUNDS
1002
{
1070
    19
1005
19D94
1002
}
  0
LINE
  5
19D71
330
19D51
100
AcDbEntity
  8
0
100
AcDbLine
 10
8.409999999991555
 20
3.670999999996297
 30
0.0
 11
10.06399999998996
 21
3.670999999996297
 31
0.0
1001
ACAD
1000
ASC_BOUNDS
1002
{
1070
    19
1005
19D94
1002
}
  0
LINE
  5
19D72
330
19D51
100
AcDbEntity
  8
0
100
AcDbLine
 10
10.53899999998941
 20
8.763099999991255
 30
0.0
 11
12.02999999998792
 21
8.763099999991255
 31
0.0
1001
ACAD
1000
ASC_BOUNDS
1002
{
1070
    19
1005
19D95
1002
}
  0
LINE
  5
19D73
330
19D51
100
AcDbEntity
  8
0
100
AcDbLine
 10
22.7389999999773
 20
3.670999999996297
 30
0.0
 11
23.56599999997638
 21
5.5200999999945
 31
0.0
1001
ACAD
1000
ASC_BOUNDS
1002
{
1070
    19
1005
19D96
1002
}
  0
LINE
  5
19D74
330
19D51
100
AcDbEntity
  8
0
100
AcDbLine
 10
22.7389999999773
 20
3.670999999996297
 30
0.0
 11
24.39299999997559
 21
3.670999999996297
 31
0.0
1001
ACAD
1000
ASC_BOUNDS
1002
{
1070
    19
1005
19D96
1002
}
  0
LINE
  5
19D75
330
19D51
100
AcDbEntity
  8
0
100
AcDbLine
 10
18.59799999998143
 20
3.315799999996671
 30
0.0
 11
20.89099999997916
 21
8.763099999991255
 31
0.0
1001
ACAD
1000
ASC_BOUNDS
1002
{
1070
    19
1005
19D95
1002
}
  0
LINE
  5
19D76
330
19D51
100
AcDbEntity
  8
0
100
AcDbLine
 10
18.59799999998143
 20
3.315799999996671
 30
0.0
 11
16.46099999998353
 21
8.999899999990987
 31
0.0
1001
ACAD
1000
ASC_BOUNDS
1002
{
1070
    19
1005
19D95
1002
}
  0
LINE
  5
19D77
330
19D51
100
AcDbEntity
  8
0
100
AcDbLine
 10
20.89099999997916
 20
8.763099999991255
 30
0.0
 11
22.38199999997767
 21
8.763099999991255
 31
0.0
1001
ACAD
1000
ASC_BOUNDS
1002
{
1070
    19
1005
19D95
1002
}
  0
LINE
  5
19D78
330
19D51
100
AcDbEntity
  8
0
100
AcDbLine
 10
24.39299999997559
 20
3.670999999996297
 30
0.0
 11
23.56599999997638
 21
5.5200999999945
 31
0.0
1001
ACAD
1000
ASC_BOUNDS
1002
{
1070
    19
1005
19D96
1002
}
  0
LINE
  5
19D79
330
19D51
100
AcDbEntity
  8
0
100
AcDbLine
 10
44.99999999995498
 20
-0.2368999999997641
 30
0.0
 11
40.02599999995994
 21
5.341799999994635
 31
0.0
1001
ACAD
1000
ASC_BOUNDS
1002
{
1070
    19
1005
19D98
1002
}
  0
LINE
  5
19D7A
330
19D51
100
AcDbEntity
  8
0
100
AcDbLine
 10
40.02599999995994
 20
5.341799999994635
 30
0.0
 11
40.02599999995994
 21
0.0
 31
0.0
1001
ACAD
1000
ASC_BOUNDS
1002
{
1070
    19
1005
19D98
1002
}
  0
LINE
  5
19D7B
330
19D51
100
AcDbEntity
  8
0
100
AcDbLine
 10
38.60499999996136
 20
8.999999999991019
 30
0.0
 11
38.60499999996136
 21
0.0
 31
0.0
1001
ACAD
1000
ASC_BOUNDS
1002
{
1070
    19
1005
19D98
1002
}
  0
LINE
  5
19D7C
330
19D51
100
AcDbEntity
  8
0
100
AcDbLine
 10
44.99999999995498
 20
8.763099999991255
 30
0.0
 11
44.99999999995498
 21
-0.2368999999997641
 31
0.0
1001
ACAD
1000
ASC_BOUNDS
1002
{
1070
    19
1005
19D98
1002
}
  0
LINE
  5
19D7D
330
19D51
100
AcDbEntity
  8
0
100
AcDbLine
 10
38.60499999996136
 20
0.0
 30
0.0
 11
40.02599999995994
 21
0.0
 31
0.0
1001
ACAD
1000
ASC_BOUNDS
1002
{
1070
    19
1005
19D98
1002
}
  0
LINE
  5
19D7E
330
19D51
100
AcDbEntity
  8
0
100
AcDbLine
 10
43.57899999995641
 20
3.421199999996588
 30
0.0
 11
38.60499999996136
 21
8.999899999990987
 31
0.0
1001
ACAD
1000
ASC_BOUNDS
1002
{
1070
    19
1005
19D98
1002
}
  0
LINE
  5
19D7F
330
19D51
100
AcDbEntity
  8
0
100
AcDbLine
 10
43.57899999995641
 20
8.763099999991255
 30
0.0
 11
43.57899999995641
 21
3.421199999996588
 31
0.0
1001
ACAD
1000
ASC_BOUNDS
1002
{
1070
    19
1005
19D98
1002
}
  0
LINE
  5
19D80
330
19D51
100
AcDbEntity
  8
0
100
AcDbLine
 10
43.57899999995641
 20
8.763099999991255
 30
0.0
 11
44.99999999995498
 21
8.763099999991255
 31
0.0
1001
ACAD
1000
ASC_BOUNDS
1002
{
1070
    19
1005
19D98
1002
}
  0
LINE
  5
19D81
330
19D51
100
AcDbEntity
  8
0
100
AcDbLine
 10
37.67199999996831
 20
8.763099999991255
 30
0.0
 11
36.23199999996837
 21
8.763099999991255
 31
0.0
  0
LINE
  5
19D82
330
19D51
100
AcDbEntity
  8
0
100
AcDbLine
 10
31.64199999996833
 20
8.763099999991255
 30
0.0
 11
31.64199999996833
 21
2.481619422925121
 31
0.0
  0
LINE
  5
19D83
330
19D51
100
AcDbEntity
  8
0
100
AcDbLine
 10
37.67199999996831
 20
8.763099999991255
 30
0.0
 11
37.67199999996831
 21
2.481619422925121
 31
0.0
  0
LINE
  5
19D84
330
19D51
100
AcDbEntity
  8
0
100
AcDbLine
 10
36.23199999996837
 20
8.763099999991255
 30
0.0
 11
36.23199999996837
 21
2.481619422925064
 31
0.0
  0
LINE
  5
19D85
330
19D51
100
AcDbEntity
  8
0
100
AcDbLine
 10
33.08199999996839
 20
8.763099999991255
 30
0.0
 11
33.08199999996839
 21
2.481619422925121
 31
0.0
  0
ARC
  5
19D86
330
19D51
100
AcDbEntity
  8
0
100
AcDbCircle
 10
34.65699999996832
 20
3.183099999991214
 30
0.0
 40
3.420000000000007
100
AcDbArc
 50
240.0000000000255
 51
299.9999999999766
  0
ARC
  5
19D87
330
19D51
100
AcDbEntity
  8
0
100
AcDbCircle
 10
34.65699999996832
 20
3.183099999991214
 30
0.0
 40
1.97999999999999
100
AcDbArc
 50
240.000000000026
 51
299.9999999999703
  0
LINE
  5
19D88
330
19D51
100
AcDbEntity
  8
0
100
AcDbLine
 10
33.08199999996828
 20
8.763099999991255
 30
0.0
 11
31.64199999996833
 21
8.763099999991255
 31
0.0
  0
ARC
  5
19D89
330
19D51
100
AcDbEntity
  8
0
100
AcDbCircle
 10
35.06199999996829
 20
2.481619422925064
 30
0.0
 40
1.17
100
AcDbArc
 50
299.9999999999699
 51
0.0
  0
ARC
  5
19D8A
330
19D51
100
AcDbEntity
  8
0
100
AcDbCircle
 10
34.25199999996835
 20
2.481619422925121
 30
0.0
 40
1.17
100
AcDbArc
 50
180.0
 51
240.0000000000238
  0
ARC
  5
19D8B
330
19D51
100
AcDbEntity
  8
0
100
AcDbCircle
 10
35.06199999996841
 20
2.481619422925121
 30
0.0
 40
2.61
100
AcDbArc
 50
299.9999999999756
 51
0.0
  0
ARC
  5
19D8C
330
19D51
100
AcDbEntity
  8
0
100
AcDbCircle
 10
34.25199999996835
 20
2.481619422925121
 30
0.0
 40
2.61
100
AcDbArc
 50
180.0
 51
240.0000000000244
  0
LINE
  5
19D8D
330
19D51
100
AcDbEntity
  8
0
100
AcDbLine
 10
29.30199999996933
 20
8.763099999991255
 30
0.0
 11
30.74199999996927
 21
8.763099999991255
 31
0.0
1001
ACAD
1000
ASC_BOUNDS
1002
{
1070
    19
1005
19D96
1002
}
  0
LINE
  5
19D8E
330
19D51
100
AcDbEntity
  8
0
100
AcDbLine
 10
30.74199999996927
 20
8.763099999991255
 30
0.0
 11
30.74199999996927
 21
2.373099999991211
 31
0.0
1001
ACAD
1000
ASC_BOUNDS
1002
{
1070
    19
1005
19D96
1002
}
  0
LINE
  5
19D8F
330
19D51
100
AcDbEntity
  8
0
100
AcDbLine
 10
26.02015566812236
 20
0.0330999999912365
 30
0.0
 11
28.40199999996923
 21
0.0330999999912365
 31
0.0
1001
ACAD
1000
ASC_BOUNDS
1002
{
1070
    19
1005
19D96
1002
}
  0
LINE
  5
19D90
330
19D51
100
AcDbEntity
  8
0
100
AcDbLine
 10
29.30199999996933
 20
8.763099999991255
 30
0.0
 11
29.30199999996933
 21
2.283099999991236
 31
0.0
1001
ACAD
1000
ASC_BOUNDS
1002
{
1070
    19
1005
19D96
1002
}
  0
LINE
  5
19D91
330
19D51
100
AcDbEntity
  8
0
100
AcDbLine
 10
26.97358892824991
 20
1.383099999991202
 30
0.0
 11
28.40199999996923
 21
1.383099999991202
 31
0.0
1001
ACAD
1000
ASC_BOUNDS
1002
{
1070
    19
1005
19D96
1002
}
  0
ARC
  5
19D92
330
19D51
100
AcDbEntity
  8
0
100
AcDbCircle
 10
28.40199999996923
 20
2.283099999991236
 30
0.0
 40
0.9
100
AcDbArc
 50
270.0
 51
0.0
1001
ACAD
1000
ASC_BOUNDS
1002
{
1070
    19
1005
19D96
1002
}
  0
ARC
  5
19D93
330
19D51
100
AcDbEntity
  8
0
100
AcDbCircle
 10
28.40199999996923
 20
2.373099999991211
 30
0.0
 40
2.34
100
AcDbArc
 50
270.0
 51
0.0
1001
ACAD
1000
ASC_BOUNDS
1002
{
1070
    19
1005
19D96
1002
}
  0
INSERT
  5
19D94
330
19D51
100
AcDbEntity
  8
0
100
AcDbBlockReference
  2
*X51
 10
0.0
 20
0.0
 30
0.0
1001
ACAD
1000
HATCH
1002
{
1070
    19
1000
ANSI37
1040
0.15
1040
0.0
1000
ASC_BOUNDS
1070
     2
1070
     2
1070
    12
1005
19D53
1005
19D54
1005
19D5B
1005
19D6A
1005
19D6D
1005
19D6B
1005
19D5C
1005
19D61
1005
19D5F
1005
19D63
1005
19D62
1005
19D64
1070
     2
1070
     3
1005
19D6F
1005
19D71
1005
19D70
1000
ASC_SEEDPOINT
1011
3.614004224891801
1021
2.996669441146025
1031
0.0
1000
R14_HATCH_DATA
1000
19D94
1011
1.0
1021
0.0
1031
0.0
1011
0.0
1021
1.0
1031
0.0
1011
0.0
1021
0.0
1031
1.0
1040
0.0
1010
0.0
1020
0.0
1030
1.0
1000
ANSI37
1070
     0
1070
     1
1071
        2
1071
        7
1070
     0
1070
     1
1071
       17
1040
13.26299999998673
1040
-0.0001000000000317
1040
9.236999999990758
1040
8.999899999990987
1040
9.236999999990758
1040
8.999999999991019
1040
5.657999999994331
1040
0.9999999999989768
1040
3.181999999996833
1040
4.668599999995308
1040
6.432999999993513
1040
8.763099999991255
1040
4.617999999995391
1040
8.763099999991255
1040
1.420999999998571
1040
4.736799999995242
1040
4.617999999995391
1040
-0.0001000000000317
1040
4.617999999995391
1040
0.0
1040
6.766999999993232
1040
0.0
1040
6.766999999993232
1040
-0.0001000000000317
1040
7.826999999992154
1040
2.368399999997621
1040
10.64699999998936
1040
2.368399999997621
1040
11.70599999998831
1040
-0.0001000000000317
1040
11.70599999998831
1040
0.0
1040
13.26299999998673
1040
0.0
1071
       12
1005
19D53
1005
19D54
1005
19D5B
1005
19D6A
1005
19D6D
1005
19D6B
1005
19D5C
1005
19D61
1005
19D5F
1005
19D63
1005
19D62
1005
19D64
1071
       22
1070
     0
1070
     1
1071
        3
1040
9.236999999990758
1040
5.5200999999945
1040
10.06399999998996
1040
3.670999999996297
1040
8.409999999991555
1040
3.670999999996297
1071
        3
1005
19D6F
1005
19D71
1005
19D70
1070
     0
1070
     1
1040
0.0
1040
0.15
1070
     0
1070
     2
1040
0.7853981633974483
1040
49.29960901727088
1040
-10.17736998311392
1040
-0.3367596045400932
1040
0.3367596045400932
1070
     0
1040
2.356194490192345
1040
49.29960901727088
1040
-10.17736998311392
1040
-0.3367596045400932
1040
-0.3367596045400932
1070
     0
1040
0.0110235143455945
1071
        2
1040
3.614004224891801
1040
2.996669441146025
1040
0.0
1040
3.614004224891801
1040
2.996669441146025
1040
0.0
1002
}
  0
INSERT
  5
19D95
330
19D51
100
AcDbEntity
  8
0
100
AcDbBlockReference
  2
*X52
 10
0.0
 20
0.0
 30
0.0
1001
ACAD
1000
HATCH
1002
{
1070
    19
1000
ANSI37
1040
0.15
1040
0.0
1000
ASC_BOUNDS
1070
     1
1070
     2
1070
    10
1005
19D55
1005
19D56
1005
19D77
1005
19D75
1005
19D76
1005
19D69
1005
19D6E
1005
19D72
1005
19D58
1005
19D57
1000
ASC_SEEDPOINT
1011
14.73245321214324
1021
2.798246178283421
1031
0.0
1000
R14_HATCH_DATA
1000
19D95
1011
1.0
1021
0.0
1031
0.0
1011
0.0
1021
1.0
1031
0.0
1011
0.0
1021
0.0
1031
1.0
1040
0.0
1010
0.0
1020
0.0
1030
1.0
1000
ANSI37
1070
     0
1070
     1
1071
        1
1071
        7
1070
     0
1070
     1
1071
       10
1040
16.46099999998353
1040
5.432899999994561
1040
18.59199999998134
1040
-0.2368999999997641
1040
22.38199999997767
1040
8.763099999991255
1040
20.89099999997916
1040
8.763099999991255
1040
18.59799999998143
1040
3.315799999996671
1040
16.46099999998353
1040
8.999899999990987
1040
14.32399999998563
1040
3.315799999996671
1040
12.02999999998792
1040
8.763099999991255
1040
10.53899999998941
1040
8.763099999991255
1040
14.32899999998563
1040
-0.2368999999997641
1071
       10
1005
19D55
1005
19D56
1005
19D77
1005
19D75
1005
19D76
1005
19D69
1005
19D6E
1005
19D72
1005
19D58
1005
19D57
1070
     0
1070
     1
1040
0.0
1040
0.15
1070
     0
1070
     2
1040
0.7853981633974483
1040
49.29960901727088
1040
-10.17736998311392
1040
-0.3367596045400932
1040
0.3367596045400932
1070
     0
1040
2.356194490192345
1040
49.29960901727088
1040
-10.17736998311392
1040
-0.3367596045400932
1040
-0.3367596045400932
1070
     0
1040
0.0110235143455945
1071
        1
1040
14.73245321214324
1040
2.798246178283421
1040
0.0
1002
}
  0
INSERT
  5
19D96
330
19D51
100
AcDbEntity
  8
0
100
AcDbBlockReference
  2
*X53
 10
0.0
 20
0.0
 30
0.0
1001
ACAD
1000
HATCH
1002
{
1070
    19
1000
ANSI37
1040
0.15
1040
0.0
1000
ASC_BOUNDS
1070
     2
1070
     2
1070
    13
1005
19D59
1005
19D66
1005
19D67
1005
19D65
1005
19D68
1005
19D8F
1005
19D93
1005
19D8E
1005
19D8D
1005
19D90
1005
19D92
1005
19D91
1005
19D5A
1070
     2
1070
     3
1005
19D73
1005
19D78
1005
19D74
1000
ASC_SEEDPOINT
1011
21.97929957367762
1021
3.294304244259308
1031
0.0
1000
R14_HATCH_DATA
1000
19D96
1011
1.0
1021
0.0
1031
0.0
1011
0.0
1021
1.0
1031
0.0
1011
0.0
1021
0.0
1031
1.0
1040
0.0
1010
0.0
1020
0.0
1030
1.0
1000
ANSI37
1070
     0
1070
     1
1071
        2
1071
        7
1070
     1
1070
     1
1071
       15
1040
23.56599999997638
1040
8.999899999990987
1040
0.0
1040
19.53899999998043
1040
-0.0001000000000317
1040
0.0
1040
19.53899999998043
1040
0.0
1040
0.0
1040
21.09599999997886
1040
0.0
1040
0.0
1040
21.09599999997886
1040
-0.0001000000000317
1040
0.0
1040
22.15599999997789
1040
2.368399999997621
1040
0.0
1040
24.97599999997499
1040
2.368399999997621
1040
0.0
1040
26.02015566812236
1040
0.0330999999912365
1040
0.0
1040
28.40199999996923
1040
0.0330999999912365
1040
0.414213562373095
1040
30.74199999996923
1040
2.373099999991211
1040
0.0
1040
30.74199999996927
1040
8.763099999991255
1040
0.0
1040
29.30199999996933
1040
8.763099999991255
1040
0.0
1040
29.30199999996933
1040
2.283099999991236
1040
-0.414213562373095
1040
28.40199999996923
1040
1.383099999991237
1040
0.0
1040
26.97358892824991
1040
1.383099999991202
1040
0.0
1071
       13
1005
19D59
1005
19D66
1005
19D67
1005
19D65
1005
19D68
1005
19D8F
1005
19D93
1005
19D8E
1005
19D8D
1005
19D90
1005
19D92
1005
19D91
1005
19D5A
1071
       22
1070
     0
1070
     1
1071
        3
1040
22.7389999999773
1040
3.670999999996297
1040
23.56599999997638
1040
5.5200999999945
1040
24.39299999997559
1040
3.670999999996297
1071
        3
1005
19D73
1005
19D78
1005
19D74
1070
     0
1070
     1
1040
0.0
1040
0.15
1070
     0
1070
     2
1040
0.7853981633974483
1040
49.29960901727088
1040
-10.17736998311392
1040
-0.3367596045400932
1040
0.3367596045400932
1070
     0
1040
2.356194490192345
1040
49.29960901727088
1040
-10.17736998311392
1040
-0.3367596045400932
1040
-0.3367596045400932
1070
     0
1040
0.0110235143455945
1071
        2
1040
21.97929957367762
1040
3.294304244259308
1040
0.0
1040
21.97929957367762
1040
3.294304244259308
1040
0.0
1002
}
  0
INSERT
  5
19D97
330
19D51
100
AcDbEntity
  8
0
100
AcDbBlockReference
  2
*X54
 10
0.0
 20
0.0
 30
0.0
1001
ACAD
1000
HATCH
1002
{
1070
    19
1000
ANSI37
1040
0.15
1040
0.0
1000
R14_HATCH_DATA
1000
19D97
1011
1.0
1021
0.0
1031
0.0
1011
0.0
1021
1.0
1031
0.0
1011
0.0
1021
0.0
1031
1.0
1040
0.0
1010
0.0
1020
0.0
1030
1.0
1000
ANSI37
1070
     0
1070
     1
1071
        1
1071
        7
1070
     1
1070
     1
1071
       12
1040
31.64199999996833
1040
2.481619422925121
1040
0.2679491924310942
1040
32.94699999997067
1040
0.2212931190493919
1040
0.2679491924301353
1040
36.36699999995983
1040
0.2212931190459813
1040
0.2679491924321411
1040
37.67199999996831
1040
2.481619422928361
1040
0.0
1040
37.67199999996831
1040
8.763099999991255
1040
0.0
1040
36.23199999996837
1040
8.763099999991255
1040
0.0
1040
36.23199999996837
1040
2.481619422925064
1040
-0.2679491924310291
1040
35.64699999996708
1040
1.468369700498386
1040
-0.267949192430519
1040
33.66699999997093
1040
1.468369700497703
1040
-0.267949192431809
1040
33.08199999996839
1040
2.481619422926997
1040
0.0
1040
33.08199999996839
1040
8.763099999991255
1040
0.0
1040
31.64199999996833
1040
8.763099999991255
1040
0.0
1071
        0
1070
     0
1070
     1
1040
0.0
1040
0.15
1070
     0
1070
     2
1040
0.7853981633974483
1040
49.29960901727088
1040
-10.17736998311392
1040
-0.3367596045400932
1040
0.3367596045400932
1070
     0
1040
2.356194490192345
1040
49.29960901727088
1040
-10.17736998311392
1040
-0.3367596045400932
1040
-0.3367596045400932
1070
     0
1040
0.0110235143455945
1071
        1
1040
32.30357378967278
1040
3.988785755459219
1040
0.0
1002
}
  0
INSERT
  5
19D98
330
19D51
100
AcDbEntity
  8
0
100
AcDbBlockReference
  2
*X55
 10
0.0
 20
0.0
 30
0.0
1001
ACAD
1000
HATCH
1002
{
1070
    19
1000
ANSI37
1040
0.15
1040
0.0
1000
ASC_BOUNDS
1070
     1
1070
     2
1070
     8
1005
19D79
1005
19D7C
1005
19D80
1005
19D7F
1005
19D7E
1005
19D7B
1005
19D7D
1005
19D7A
1000
ASC_SEEDPOINT
1011
39.74896370716704
1021
4.484843821435049
1031
0.0
1000
R14_HATCH_DATA
1000
19D98
1011
1.0
1021
0.0
1031
0.0
1011
0.0
1021
1.0
1031
0.0
1011
0.0
1021
0.0
1031
1.0
1040
0.0
1010
0.0
1020
0.0
1030
1.0
1000
ANSI37
1070
     0
1070
     1
1071
        1
1071
        7
1070
     0
1070
     1
1071
        9
1040
40.02599999995994
1040
5.341799999994635
1040
44.99999999995498
1040
-0.2368999999997641
1040
44.99999999995498
1040
8.763099999991255
1040
43.57899999995641
1040
8.763099999991255
1040
43.57899999995641
1040
3.421199999996588
1040
38.60499999996136
1040
8.999899999990987
1040
38.60499999996136
1040
8.999999999991019
1040
38.60499999996136
1040
0.0
1040
40.02599999995994
1040
0.0
1071
        8
1005
19D79
1005
19D7C
1005
19D80
1005
19D7F
1005
19D7E
1005
19D7B
1005
19D7D
1005
19D7A
1070
     0
1070
     1
1040
0.0
1040
0.15
1070
     0
1070
     2
1040
0.7853981633974483
1040
49.29960901727088
1040
-10.17736998311392
1040
-0.3367596045400932
1040
0.3367596045400932
1070
     0
1040
2.356194490192345
1040
49.29960901727088
1040
-10.17736998311392
1040
-0.3367596045400932
1040
-0.3367596045400932
1070
     0
1040
0.0110235143455945
1071
        1
1040
39.74896370716704
1040
4.484843821435049
1040
0.0
1002
}
  0
INSERT
  5
19D99
330
19D51
100
AcDbEntity
  8
0
100
AcDbBlockReference
  2
*X56
 10
0.0
 20
0.0
 30
0.0
1001
ACAD
1000
HATCH
1002
{
1070
    19
1000
ANSI37
1040
0.15
1040
0.0
1000
ASC_BOUNDS
1070
     1
1070
     2
1070
     4
1005
19D5D
1005
19D6C
1005
19D5E
1005
19D60
1000
ASC_SEEDPOINT
1011
1.079051535452663
1021
4.148538732891836
1031
0.0
1000
R14_HATCH_DATA
1000
19D99
1011
1.0
1021
0.0
1031
0.0
1011
0.0
1021
1.0
1031
0.0
1011
0.0
1021
0.0
1031
1.0
1040
0.0
1010
0.0
1020
0.0
1030
1.0
1000
ANSI37
1070
     0
1070
     1
1071
        1
1071
        7
1070
     0
1070
     1
1071
        4
1040
1.420999999998571
1040
0.0
1040
1.420999999998571
1040
8.763099999991255
1040
0.0
1040
8.763099999991255
1040
0.0
1040
0.0
1071
        4
1005
19D5D
1005
19D6C
1005
19D5E
1005
19D60
1070
     0
1070
     1
1040
0.0
1040
0.15
1070
     0
1070
     2
1040
0.7853981633974483
1040
49.29960901727088
1040
-10.17736998311392
1040
-0.3367596045400932
1040
0.3367596045400932
1070
     0
1040
2.356194490192345
1040
49.29960901727088
1040
-10.17736998311392
1040
-0.3367596045400932
1040
-0.3367596045400932
1070
     0
1040
0.0053004257112761
1071
        1
1040
1.079051535452663
1040
4.148538732891836
1040
0.0
1002
}
  0
ENDBLK
  5
1A475
330
19D51
100
AcDbEntity
  8
0
100
AcDbBlockEnd
  0
BLOCK
  5
1B077
330
1AEE9
100
AcDbEntity
  8
0
100
AcDbBlockBegin
  2
*X51
 70
     1
 10
0.0
 20
0.0
 30
0.0
  3
*X51
  1

  0
LINE
  5
1AEEA
330
1AEE9
100
AcDbEntity
  8
0
  6
CONTINUOUS
100
AcDbLine
 10
3.418023043697893
 20
7.251849696850613
 30
0.0
 11
4.929273346838536
 21
8.763099999991255
 31
0.0
  0
LINE
  5
1AEEB
330
1AEE9
100
AcDbEntity
  8
0
  6
CONTINUOUS
100
AcDbLine
 10
1.483656411257782
 20
4.643963855330318
 30
0.0
 11
5.60279255591872
 21
8.763099999991255
 31
0.0
  0
LINE
  5
1AEEC
330
1AEE9
100
AcDbEntity
  8
0
  6
CONTINUOUS
100
AcDbLine
 10
1.755053947328235
 20
4.241842182320584
 30
0.0
 11
6.276311764998907
 21
8.763099999991255
 31
0.0
  0
LINE
  5
1AEED
330
1AEE9
100
AcDbEntity
  8
0
  6
CONTINUOUS
100
AcDbLine
 10
2.026451483398688
 20
3.839720509310849
 30
0.0
 11
4.441040904851878
 21
6.254309930764039
 31
0.0
  0
LINE
  5
1AEEE
330
1AEE9
100
AcDbEntity
  8
0
  6
CONTINUOUS
100
AcDbLine
 10
2.297849019469139
 20
3.437598836301114
 30
0.0
 11
3.321765168359338
 21
4.461514985191313
 31
0.0
  0
LINE
  5
1AEEF
330
1AEE9
100
AcDbEntity
  8
0
  6
CONTINUOUS
100
AcDbLine
 10
2.569246555539591
 20
3.03547716329138
 30
0.0
 11
3.593163397972743
 21
4.059394005724531
 31
0.0
  0
LINE
  5
1AEF0
330
1AEE9
100
AcDbEntity
  8
0
  6
CONTINUOUS
100
AcDbLine
 10
2.840644091610043
 20
2.633355490281646
 30
0.0
 11
3.864561627586149
 21
3.657273026257751
 31
0.0
  0
LINE
  5
1AEF1
330
1AEE9
100
AcDbEntity
  8
0
  6
CONTINUOUS
100
AcDbLine
 10
3.112041627680496
 20
2.231233817271911
 30
0.0
 11
4.135959857199554
 21
3.25515204679097
 31
0.0
  0
LINE
  5
1AEF2
330
1AEE9
100
AcDbEntity
  8
0
  6
CONTINUOUS
100
AcDbLine
 10
3.383439163750948
 20
1.829112144262177
 30
0.0
 11
4.40735808681296
 21
2.853031067324189
 31
0.0
  0
LINE
  5
1AEF3
330
1AEE9
100
AcDbEntity
  8
0
  6
CONTINUOUS
100
AcDbLine
 10
3.654836699821399
 20
1.426990471252442
 30
0.0
 11
4.678756316426365
 21
2.450910087857407
 31
0.0
  0
LINE
  5
1AEF4
330
1AEE9
100
AcDbEntity
  8
0
  6
CONTINUOUS
100
AcDbLine
 10
3.926234235891853
 20
1.024868798242709
 30
0.0
 11
4.95015454603977
 21
2.048789108390626
 31
0.0
  0
LINE
  5
1AEF5
330
1AEE9
100
AcDbEntity
  8
0
  6
CONTINUOUS
100
AcDbLine
 10
4.197631771962304
 20
0.6227471252329737
 30
0.0
 11
5.221552775653176
 21
1.646668128923846
 31
0.0
  0
LINE
  5
1AEF6
330
1AEE9
100
AcDbEntity
  8
0
  6
CONTINUOUS
100
AcDbLine
 10
8.715877546767851
 20
7.835069736359266
 30
0.0
 11
9.435953450375058
 21
8.555145639966472
 31
0.0
  0
LINE
  5
1AEF7
330
1AEE9
100
AcDbEntity
  8
0
  6
CONTINUOUS
100
AcDbLine
 10
8.170620868422267
 20
6.616293848933497
 30
0.0
 11
9.644120833743461
 21
8.08979381425469
 31
0.0
  0
LINE
  5
1AEF8
330
1AEE9
100
AcDbEntity
  8
0
  6
CONTINUOUS
100
AcDbLine
 10
7.625364190076684
 20
5.397517961507727
 30
0.0
 11
9.852288217111864
 21
7.624441988542907
 31
0.0
  0
LINE
  5
1AEF9
330
1AEE9
100
AcDbEntity
  8
0
  6
CONTINUOUS
100
AcDbLine
 10
7.080107511731101
 20
4.178742074081957
 30
0.0
 11
10.06045560048027
 21
7.159090162831124
 31
0.0
  0
LINE
  5
1AEFA
330
1AEE9
100
AcDbEntity
  8
0
  6
CONTINUOUS
100
AcDbLine
 10
6.534850833385518
 20
2.959966186656187
 30
0.0
 11
10.26862298384867
 21
6.693738337119342
 31
0.0
  0
LINE
  5
1AEFB
330
1AEE9
100
AcDbEntity
  8
0
  6
CONTINUOUS
100
AcDbLine
 10
4.469029308032756
 20
0.2206254522232385
 30
0.0
 11
5.492951005266582
 21
1.244547149457064
 31
0.0
  0
LINE
  5
1AEFC
330
1AEE9
100
AcDbEntity
  8
0
  6
CONTINUOUS
100
AcDbLine
 10
5.989594155039935
 20
1.741190299230417
 30
0.0
 11
8.806950407233131
 21
4.558546551423613
 31
0.0
  0
LINE
  5
1AEFD
330
1AEE9
100
AcDbEntity
  8
0
  6
CONTINUOUS
100
AcDbLine
 10
9.401251593263643
 20
5.152847737454126
 30
0.0
 11
10.47679036721708
 21
6.228386511407559
 31
0.0
  0
LINE
  5
1AEFE
330
1AEE9
100
AcDbEntity
  8
0
  6
CONTINUOUS
100
AcDbLine
 10
4.921837203428691
 20
-0.0000858614610131
 30
0.0
 11
8.592923064886001
 21
3.670999999996297
 31
0.0
  0
LINE
  5
1AEFF
330
1AEE9
100
AcDbEntity
  8
0
  6
CONTINUOUS
100
AcDbLine
 10
9.609390446785305
 20
4.6874673818956
 30
0.0
 11
10.68495775058548
 21
5.763034685695775
 31
0.0
  0
LINE
  5
1AF00
330
1AEE9
100
AcDbEntity
  8
0
  6
CONTINUOUS
100
AcDbLine
 10
5.595387755019432
 20
-0.0000545189504582
 30
0.0
 11
7.716137258923768
 21
2.120694984953879
 31
0.0
  0
LINE
  5
1AF01
330
1AEE9
100
AcDbEntity
  8
0
  6
CONTINUOUS
100
AcDbLine
 10
6.268938306610172
 20
-0.000023176439905
 30
0.0
 11
7.170485805526503
 21
0.9015243224764267
 31
0.0
  0
LINE
  5
1AF02
330
1AEE9
100
AcDbEntity
  8
0
  6
CONTINUOUS
100
AcDbLine
 10
7.963842273967511
 20
2.368399999997621
 30
0.0
 11
9.266442273966188
 21
3.670999999996297
 31
0.0
  0
LINE
  5
1AF03
330
1AEE9
100
AcDbEntity
  8
0
  6
CONTINUOUS
100
AcDbLine
 10
8.637361483047696
 20
2.368399999997621
 30
0.0
 11
9.939961483046375
 21
3.670999999996297
 31
0.0
  0
LINE
  5
1AF04
330
1AEE9
100
AcDbEntity
  8
0
  6
CONTINUOUS
100
AcDbLine
 10
9.817529300306965
 20
4.222087026337075
 30
0.0
 11
10.89312513395388
 21
5.297682859983993
 31
0.0
  0
LINE
  5
1AF05
330
1AEE9
100
AcDbEntity
  8
0
  6
CONTINUOUS
100
AcDbLine
 10
10.02566815382863
 20
3.756706670778549
 30
0.0
 11
11.10129251732229
 21
4.832331034272211
 31
0.0
  0
LINE
  5
1AF06
330
1AEE9
100
AcDbEntity
  8
0
  6
CONTINUOUS
100
AcDbLine
 10
9.310880692127883
 20
2.368399999997621
 30
0.0
 11
11.30945990069069
 21
4.366979208560428
 31
0.0
  0
LINE
  5
1AF07
330
1AEE9
100
AcDbEntity
  8
0
  6
CONTINUOUS
100
AcDbLine
 10
9.98439990120807
 20
2.36839999999762
 30
0.0
 11
11.5176272840591
 21
3.901627382848645
 31
0.0
  0
LINE
  5
1AF08
330
1AEE9
100
AcDbEntity
  8
0
  6
CONTINUOUS
100
AcDbLine
 10
10.65037369446246
 20
2.36085458417182
 30
0.0
 11
11.7257946674275
 21
3.436275557136862
 31
0.0
  0
LINE
  5
1AF09
330
1AEE9
100
AcDbEntity
  8
0
  6
CONTINUOUS
100
AcDbLine
 10
10.85847197087848
 20
1.895433651507656
 30
0.0
 11
11.9339620507959
 21
2.97092373142508
 31
0.0
  0
LINE
  5
1AF0A
330
1AEE9
100
AcDbEntity
  8
0
  6
CONTINUOUS
100
AcDbLine
 10
11.0665702472945
 20
1.430012718843491
 30
0.0
 11
12.14212943416431
 21
2.505571905713296
 31
0.0
  0
LINE
  5
1AF0B
330
1AEE9
100
AcDbEntity
  8
0
  6
CONTINUOUS
100
AcDbLine
 10
11.27466852371052
 20
0.9645917861793256
 30
0.0
 11
12.35029681753271
 21
2.040220080001513
 31
0.0
  0
LINE
  5
1AF0C
330
1AEE9
100
AcDbEntity
  8
0
  6
CONTINUOUS
100
AcDbLine
 10
11.48276680012654
 20
0.4991708535151611
 30
0.0
 11
12.55846420090111
 21
1.57486825428973
 31
0.0
  0
LINE
  5
1AF0D
330
1AEE9
100
AcDbEntity
  8
0
  6
CONTINUOUS
100
AcDbLine
 10
11.69086507654257
 20
0.0337499208509957
 30
0.0
 11
12.76663158426952
 21
1.109516428577947
 31
0.0
  0
LINE
  5
1AF0E
330
1AEE9
100
AcDbEntity
  8
0
  6
CONTINUOUS
100
AcDbLine
 10
12.33057447873954
 20
-0.0000598860322123
 30
0.0
 11
12.97479896763792
 21
0.6441646028661663
 31
0.0
  0
LINE
  5
1AF0F
330
1AEE9
100
AcDbEntity
  8
0
  6
CONTINUOUS
100
AcDbLine
 10
13.00413694809395
 20
-0.0000166257579952
 30
0.0
 11
13.18296635100632
 21
0.1788127771543824
 31
0.0
  0
LINE
  5
1AF10
330
1AEE9
100
AcDbEntity
  8
0
  6
CONTINUOUS
100
AcDbLine
 10
4.772852165289667
 20
-0.000092794222212
 30
0.0
 11
4.296495091028902
 21
0.4762642800385528
 31
0.0
  0
LINE
  5
1AF11
330
1AEE9
100
AcDbEntity
  8
0
  6
CONTINUOUS
100
AcDbLine
 10
5.446340034776103
 20
-0.0000614546284616
 30
0.0
 11
2.898195908335625
 21
2.548082671812017
 31
0.0
  0
LINE
  5
1AF12
330
1AEE9
100
AcDbEntity
  8
0
  6
CONTINUOUS
100
AcDbLine
 10
6.119827904262539
 20
-0.0000301150347113
 30
0.0
 11
1.499896725642348
 21
4.61990106358548
 31
0.0
  0
LINE
  5
1AF13
330
1AEE9
100
AcDbEntity
  8
0
  6
CONTINUOUS
100
AcDbLine
 10
6.775136745476159
 20
0.0181802528318542
 30
0.0
 11
5.699826040202669
 21
1.093490958105344
 31
0.0
  0
LINE
  5
1AF14
330
1AEE9
100
AcDbEntity
  8
0
  6
CONTINUOUS
100
AcDbLine
 10
6.983376846288489
 20
0.4834593610997118
 30
0.0
 11
5.908008617934405
 21
1.558827589453796
 31
0.0
  0
LINE
  5
1AF15
330
1AEE9
100
AcDbEntity
  8
0
  6
CONTINUOUS
100
AcDbLine
 10
5.377063484962296
 20
1.416253513345719
 30
0.0
 11
1.702276957014131
 21
5.091040041293883
 31
0.0
  0
LINE
  5
1AF16
330
1AEE9
100
AcDbEntity
  8
0
  6
CONTINUOUS
100
AcDbLine
 10
3.978745891735324
 20
3.488090315652877
 30
0.0
 11
2.000373521109399
 21
5.466462686278803
 31
0.0
  0
LINE
  5
1AF17
330
1AEE9
100
AcDbEntity
  8
0
  6
CONTINUOUS
100
AcDbLine
 10
7.191616947100819
 20
0.948738469367568
 30
0.0
 11
6.11619119566614
 21
2.024164220802247
 31
0.0
  0
LINE
  5
1AF18
330
1AEE9
100
AcDbEntity
  8
0
  6
CONTINUOUS
100
AcDbLine
 10
7.399857047913149
 20
1.414017577635424
 30
0.0
 11
6.324373773397875
 21
2.489500852150698
 31
0.0
  0
LINE
  5
1AF19
330
1AEE9
100
AcDbEntity
  8
0
  6
CONTINUOUS
100
AcDbLine
 10
7.608097148725479
 20
1.879296685903281
 30
0.0
 11
6.53255635112961
 21
2.95483748349915
 31
0.0
  0
LINE
  5
1AF1A
330
1AEE9
100
AcDbEntity
  8
0
  6
CONTINUOUS
100
AcDbLine
 10
7.816337249537808
 20
2.344575794171138
 30
0.0
 11
6.740738928861345
 21
3.420174114847601
 31
0.0
  0
LINE
  5
1AF1B
330
1AEE9
100
AcDbEntity
  8
0
  6
CONTINUOUS
100
AcDbLine
 10
3.310241080789734
 20
4.830114335678653
 30
0.0
 11
2.298470085204666
 21
5.84188533126372
 31
0.0
  0
LINE
  5
1AF1C
330
1AEE9
100
AcDbEntity
  8
0
  6
CONTINUOUS
100
AcDbLine
 10
3.60832983563551
 20
5.205544789913063
 30
0.0
 11
2.596566649299935
 21
6.217307976248638
 31
0.0
  0
LINE
  5
1AF1D
330
1AEE9
100
AcDbEntity
  8
0
  6
CONTINUOUS
100
AcDbLine
 10
3.906418590481286
 20
5.580975244147473
 30
0.0
 11
2.894663213395203
 21
6.592730621233557
 31
0.0
  0
LINE
  5
1AF1E
330
1AEE9
100
AcDbEntity
  8
0
  6
CONTINUOUS
100
AcDbLine
 10
4.204507345327062
 20
5.956405698381884
 30
0.0
 11
3.192759777490472
 21
6.968153266218474
 31
0.0
  0
LINE
  5
1AF1F
330
1AEE9
100
AcDbEntity
  8
0
  6
CONTINUOUS
100
AcDbLine
 10
8.466032252791512
 20
2.368399999997621
 30
0.0
 11
6.948921506593081
 21
3.885510746196053
 31
0.0
  0
LINE
  5
1AF20
330
1AEE9
100
AcDbEntity
  8
0
  6
CONTINUOUS
100
AcDbLine
 10
9.139551461871699
 20
2.36839999999762
 30
0.0
 11
7.157104084324816
 21
4.350847377544504
 31
0.0
  0
LINE
  5
1AF21
330
1AEE9
100
AcDbEntity
  8
0
  6
CONTINUOUS
100
AcDbLine
 10
4.502596100172839
 20
6.331836152616295
 30
0.0
 11
3.49085634158574
 21
7.343575911203393
 31
0.0
  0
LINE
  5
1AF22
330
1AEE9
100
AcDbEntity
  8
0
  6
CONTINUOUS
100
AcDbLine
 10
4.800684855018615
 20
6.707266606850705
 30
0.0
 11
3.788952905681008
 21
7.718998556188312
 31
0.0
  0
LINE
  5
1AF23
330
1AEE9
100
AcDbEntity
  8
0
  6
CONTINUOUS
100
AcDbLine
 10
12.18154012887317
 20
-0.0000694579236642
 30
0.0
 11
11.32140332908496
 21
0.8600673418645499
 31
0.0
  0
LINE
  5
1AF24
330
1AEE9
100
AcDbEntity
  8
0
  6
CONTINUOUS
100
AcDbLine
 10
12.85501608323566
 20
-0.0000262032059659
 30
0.0
 11
10.77672456435345
 21
2.078265315676246
 31
0.0
  0
LINE
  5
1AF25
330
1AEE9
100
AcDbEntity
  8
0
  6
CONTINUOUS
100
AcDbLine
 10
9.813070670951886
 20
2.36839999999762
 30
0.0
 11
8.51047067095321
 21
3.670999999996297
 31
0.0
  0
LINE
  5
1AF26
330
1AEE9
100
AcDbEntity
  8
0
  6
CONTINUOUS
100
AcDbLine
 10
10.48658988003207
 20
2.36839999999762
 30
0.0
 11
9.183989880033396
 21
3.670999999996297
 31
0.0
  0
LINE
  5
1AF27
330
1AEE9
100
AcDbEntity
  8
0
  6
CONTINUOUS
100
AcDbLine
 10
8.441048632286794
 20
3.740422038662712
 30
0.0
 11
7.365286662056551
 21
4.816184008892956
 31
0.0
  0
LINE
  5
1AF28
330
1AEE9
100
AcDbEntity
  8
0
  6
CONTINUOUS
100
AcDbLine
 10
8.649187485808454
 20
4.205802394221237
 30
0.0
 11
7.573469239788285
 21
5.281520640241407
 31
0.0
  0
LINE
  5
1AF29
330
1AEE9
100
AcDbEntity
  8
0
  6
CONTINUOUS
100
AcDbLine
 10
5.098773609864391
 20
7.082697061085115
 30
0.0
 11
4.087049469776277
 21
8.09442120117323
 31
0.0
  0
LINE
  5
1AF2A
330
1AEE9
100
AcDbEntity
  8
0
  6
CONTINUOUS
100
AcDbLine
 10
5.396862364710167
 20
7.458127515319526
 30
0.0
 11
4.385146033871544
 21
8.469843846158149
 31
0.0
  0
LINE
  5
1AF2B
330
1AEE9
100
AcDbEntity
  8
0
  6
CONTINUOUS
100
AcDbLine
 10
13.04801363231285
 20
0.4804954567970334
 30
0.0
 11
9.85750908911358
 21
3.670999999996297
 31
0.0
  0
LINE
  5
1AF2C
330
1AEE9
100
AcDbEntity
  8
0
  6
CONTINUOUS
100
AcDbLine
 10
8.857326339330116
 20
4.671182749779763
 30
0.0
 11
7.781651817520021
 21
5.746857271589858
 31
0.0
  0
LINE
  5
1AF2D
330
1AEE9
100
AcDbEntity
  8
0
  6
CONTINUOUS
100
AcDbLine
 10
5.694951119555943
 20
7.833557969553937
 30
0.0
 11
4.765409089118624
 21
8.763099999991255
 31
0.0
  0
LINE
  5
1AF2E
330
1AEE9
100
AcDbEntity
  8
0
  6
CONTINUOUS
100
AcDbLine
 10
12.50286117236978
 20
1.699167125820288
 30
0.0
 11
9.68611877250287
 21
4.515909525687196
 31
0.0
  0
LINE
  5
1AF2F
330
1AEE9
100
AcDbEntity
  8
0
  6
CONTINUOUS
100
AcDbLine
 10
9.065465192851777
 20
5.136563105338288
 30
0.0
 11
7.989834395251757
 21
6.21219390293831
 31
0.0
  0
LINE
  5
1AF30
330
1AEE9
100
AcDbEntity
  8
0
  6
CONTINUOUS
100
AcDbLine
 10
5.993039874401719
 20
8.208988423788346
 30
0.0
 11
5.43892829819881
 21
8.763099999991255
 31
0.0
  0
LINE
  5
1AF31
330
1AEE9
100
AcDbEntity
  8
0
  6
CONTINUOUS
100
AcDbLine
 10
11.95770871242671
 20
2.917838794843543
 30
0.0
 11
8.19801697298349
 21
6.677530534286761
 31
0.0
  0
LINE
  5
1AF32
330
1AEE9
100
AcDbEntity
  8
0
  6
CONTINUOUS
100
AcDbLine
 10
6.291128629247495
 20
8.584418878022756
 30
0.0
 11
6.112447507278997
 21
8.763099999991255
 31
0.0
  0
LINE
  5
1AF33
330
1AEE9
100
AcDbEntity
  8
0
  6
CONTINUOUS
100
AcDbLine
 10
11.41255625248364
 20
4.136510463866797
 30
0.0
 11
8.406199550715227
 21
7.142867165635211
 31
0.0
  0
LINE
  5
1AF34
330
1AEE9
100
AcDbEntity
  8
0
  6
CONTINUOUS
100
AcDbLine
 10
10.86740379254057
 20
5.355182132890051
 30
0.0
 11
8.614382128446962
 21
7.608203796983664
 31
0.0
  0
LINE
  5
1AF35
330
1AEE9
100
AcDbEntity
  8
0
  6
CONTINUOUS
100
AcDbLine
 10
10.3222513325975
 20
6.573853801913305
 30
0.0
 11
8.822564706178696
 21
8.073540428332114
 31
0.0
  0
LINE
  5
1AF36
330
1AEE9
100
AcDbEntity
  8
0
  6
CONTINUOUS
100
AcDbLine
 10
9.777098872654436
 20
7.792525470936562
 30
0.0
 11
9.030747283910433
 21
8.538877059680566
 31
0.0
  0
ENDBLK
  5
1B078
330
1AEE9
100
AcDbEntity
  8
0
100
AcDbBlockEnd
  0
BLOCK
  5
1B079
330
1AF37
100
AcDbEntity
  8
0
100
AcDbBlockBegin
  2
*X52
 70
     1
 10
0.0
 20
0.0
 30
0.0
  3
*X52
  1

  0
LINE
  5
1AF38
330
1AF37
100
AcDbEntity
  8
0
  6
CONTINUOUS
100
AcDbLine
 10
10.67292308101235
 20
8.445076852443387
 30
0.0
 11
10.99094622856022
 21
8.763099999991255
 31
0.0
  0
LINE
  5
1AF39
330
1AF37
100
AcDbEntity
  8
0
  6
CONTINUOUS
100
AcDbLine
 10
10.87250383178748
 20
7.971138394138331
 30
0.0
 11
11.6644654376404
 21
8.763099999991255
 31
0.0
  0
LINE
  5
1AF3A
330
1AF37
100
AcDbEntity
  8
0
  6
CONTINUOUS
100
AcDbLine
 10
11.07208458256261
 20
7.497199935833273
 30
0.0
 11
12.12126590876355
 21
8.546381262034211
 31
0.0
  0
LINE
  5
1AF3B
330
1AF37
100
AcDbEntity
  8
0
  6
CONTINUOUS
100
AcDbLine
 10
11.27166533333774
 20
7.023261477528216
 30
0.0
 11
12.32085164573666
 21
8.072447789927136
 31
0.0
  0
LINE
  5
1AF3C
330
1AF37
100
AcDbEntity
  8
0
  6
CONTINUOUS
100
AcDbLine
 10
11.47124608411287
 20
6.549323019223158
 30
0.0
 11
12.52043738270977
 21
7.59851431782006
 31
0.0
  0
LINE
  5
1AF3D
330
1AF37
100
AcDbEntity
  8
0
  6
CONTINUOUS
100
AcDbLine
 10
11.670826834888
 20
6.075384560918101
 30
0.0
 11
12.72002311968288
 21
7.124580845712984
 31
0.0
  0
LINE
  5
1AF3E
330
1AF37
100
AcDbEntity
  8
0
  6
CONTINUOUS
100
AcDbLine
 10
11.87040758566313
 20
5.601446102613043
 30
0.0
 11
12.91960885665599
 21
6.650647373605907
 31
0.0
  0
LINE
  5
1AF3F
330
1AF37
100
AcDbEntity
  8
0
  6
CONTINUOUS
100
AcDbLine
 10
12.06998833643825
 20
5.127507644307986
 30
0.0
 11
13.1191945936291
 21
6.176713901498832
 31
0.0
  0
LINE
  5
1AF40
330
1AF37
100
AcDbEntity
  8
0
  6
CONTINUOUS
100
AcDbLine
 10
12.26956908721338
 20
4.65356918600293
 30
0.0
 11
13.31878033060221
 21
5.702780429391757
 31
0.0
  0
LINE
  5
1AF41
330
1AF37
100
AcDbEntity
  8
0
  6
CONTINUOUS
100
AcDbLine
 10
12.46914983798851
 20
4.179630727697873
 30
0.0
 11
13.51836606757532
 21
5.228846957284683
 31
0.0
  0
LINE
  5
1AF42
330
1AF37
100
AcDbEntity
  8
0
  6
CONTINUOUS
100
AcDbLine
 10
12.66873058876364
 20
3.705692269392816
 30
0.0
 11
13.71795180454843
 21
4.754913485177607
 31
0.0
  0
LINE
  5
1AF43
330
1AF37
100
AcDbEntity
  8
0
  6
CONTINUOUS
100
AcDbLine
 10
12.86831133953877
 20
3.231753811087759
 30
0.0
 11
13.91753754152154
 21
4.280980013070531
 31
0.0
  0
LINE
  5
1AF44
330
1AF37
100
AcDbEntity
  8
0
  6
CONTINUOUS
100
AcDbLine
 10
13.0678920903139
 20
2.757815352782702
 30
0.0
 11
14.11712327849465
 21
3.807046540963456
 31
0.0
  0
LINE
  5
1AF45
330
1AF37
100
AcDbEntity
  8
0
  6
CONTINUOUS
100
AcDbLine
 10
13.26747284108903
 20
2.283876894477644
 30
0.0
 11
14.31670901546777
 21
3.333113068856379
 31
0.0
  0
LINE
  5
1AF46
330
1AF37
100
AcDbEntity
  8
0
  6
CONTINUOUS
100
AcDbLine
 10
16.36767838827179
 20
8.751678487061342
 30
0.0
 11
16.50332410898388
 21
8.887324207773432
 31
0.0
  0
LINE
  5
1AF47
330
1AF37
100
AcDbEntity
  8
0
  6
CONTINUOUS
100
AcDbLine
 10
15.96190732182191
 20
7.67238821153127
 30
0.0
 11
16.68735328004734
 21
8.397834169756699
 31
0.0
  0
LINE
  5
1AF48
330
1AF37
100
AcDbEntity
  8
0
  6
CONTINUOUS
100
AcDbLine
 10
15.55613625537202
 20
6.593097936001196
 30
0.0
 11
16.87138245111079
 21
7.908344131739965
 31
0.0
  0
LINE
  5
1AF49
330
1AF37
100
AcDbEntity
  8
0
  6
CONTINUOUS
100
AcDbLine
 10
15.15036518892213
 20
5.513807660471122
 30
0.0
 11
17.05541162217424
 21
7.418854093723231
 31
0.0
  0
LINE
  5
1AF4A
330
1AF37
100
AcDbEntity
  8
0
  6
CONTINUOUS
100
AcDbLine
 10
14.74459412247225
 20
4.434517384941048
 30
0.0
 11
17.2394407932377
 21
6.929364055706499
 31
0.0
  0
LINE
  5
1AF4B
330
1AF37
100
AcDbEntity
  8
0
  6
CONTINUOUS
100
AcDbLine
 10
14.33882305602236
 20
3.355227109410975
 30
0.0
 11
17.42346996430115
 21
6.439874017689766
 31
0.0
  0
LINE
  5
1AF4C
330
1AF37
100
AcDbEntity
  8
0
  6
CONTINUOUS
100
AcDbLine
 10
13.46705359186416
 20
1.809938436172586
 30
0.0
 11
16.0819338255367
 21
4.424818669845129
 31
0.0
  0
LINE
  5
1AF4D
330
1AF37
100
AcDbEntity
  8
0
  6
CONTINUOUS
100
AcDbLine
 10
16.63283254238972
 20
4.975717386698149
 30
0.0
 11
17.60749913536461
 21
5.950383979673033
 31
0.0
  0
LINE
  5
1AF4E
330
1AF37
100
AcDbEntity
  8
0
  6
CONTINUOUS
100
AcDbLine
 10
13.66663434263929
 20
1.335999977867529
 30
0.0
 11
15.67604797733754
 21
3.345413612565779
 31
0.0
  0
LINE
  5
1AF4F
330
1AF37
100
AcDbEntity
  8
0
  6
CONTINUOUS
100
AcDbLine
 10
13.86621509341442
 20
0.8620615195624723
 30
0.0
 11
15.27016212913838
 21
2.26600855528643
 31
0.0
  0
LINE
  5
1AF50
330
1AF37
100
AcDbEntity
  8
0
  6
CONTINUOUS
100
AcDbLine
 10
16.81682257348267
 20
4.486188208710908
 30
0.0
 11
17.79152830642806
 21
5.460893941656299
 31
0.0
  0
LINE
  5
1AF51
330
1AF37
100
AcDbEntity
  8
0
  6
CONTINUOUS
100
AcDbLine
 10
17.00081260457561
 20
3.996659030723667
 30
0.0
 11
17.97555747749151
 21
4.971403903639565
 31
0.0
  0
LINE
  5
1AF52
330
1AF37
100
AcDbEntity
  8
0
  6
CONTINUOUS
100
AcDbLine
 10
20.74362343514722
 20
8.412989070375462
 30
0.0
 11
21.09373436476302
 21
8.763099999991256
 31
0.0
  0
LINE
  5
1AF53
330
1AF37
100
AcDbEntity
  8
0
  6
CONTINUOUS
100
AcDbLine
 10
20.25401257174777
 20
7.249858997895826
 30
0.0
 11
21.7672535738432
 21
8.763099999991255
 31
0.0
  0
LINE
  5
1AF54
330
1AF37
100
AcDbEntity
  8
0
  6
CONTINUOUS
100
AcDbLine
 10
14.06579584418955
 20
0.3881230612574149
 30
0.0
 11
14.86427628093921
 21
1.186603498007082
 31
0.0
  0
LINE
  5
1AF55
330
1AF37
100
AcDbEntity
  8
0
  6
CONTINUOUS
100
AcDbLine
 10
14.26537659496467
 20
-0.0858153970476412
 30
0.0
 11
14.45839043274005
 21
0.1071984407277329
 31
0.0
  0
LINE
  5
1AF56
330
1AF37
100
AcDbEntity
  8
0
  6
CONTINUOUS
100
AcDbLine
 10
17.18480263566856
 20
3.507129852736426
 30
0.0
 11
18.15958664855496
 21
4.481913865622833
 31
0.0
  0
LINE
  5
1AF57
330
1AF37
100
AcDbEntity
  8
0
  6
CONTINUOUS
100
AcDbLine
 10
17.3687926667615
 20
3.017600674749186
 30
0.0
 11
18.34361581961842
 21
3.9924238276061
 31
0.0
  0
LINE
  5
1AF58
330
1AF37
100
AcDbEntity
  8
0
  6
CONTINUOUS
100
AcDbLine
 10
19.76440170834832
 20
6.086728925416191
 30
0.0
 11
22.33924590259489
 21
8.661573119662755
 31
0.0
  0
LINE
  5
1AF59
330
1AF37
100
AcDbEntity
  8
0
  6
CONTINUOUS
100
AcDbLine
 10
19.27479084494887
 20
4.923598852936555
 30
0.0
 11
21.84929622842713
 21
7.498104236414807
 31
0.0
  0
LINE
  5
1AF5A
330
1AF37
100
AcDbEntity
  8
0
  6
CONTINUOUS
100
AcDbLine
 10
17.55278269785445
 20
2.528071496761945
 30
0.0
 11
18.52764499068187
 21
3.502933789589366
 31
0.0
  0
LINE
  5
1AF5B
330
1AF37
100
AcDbEntity
  8
0
  6
CONTINUOUS
100
AcDbLine
 10
18.78517998154942
 20
3.760468780456919
 30
0.0
 11
21.35934655425936
 21
6.33463535316686
 31
0.0
  0
LINE
  5
1AF5C
330
1AF37
100
AcDbEntity
  8
0
  6
CONTINUOUS
100
AcDbLine
 10
17.73677272894739
 20
2.038542318774704
 30
0.0
 11
20.8693968800916
 21
5.171166469918914
 31
0.0
  0
LINE
  5
1AF5D
330
1AF37
100
AcDbEntity
  8
0
  6
CONTINUOUS
100
AcDbLine
 10
17.92076276004034
 20
1.549013140787464
 30
0.0
 11
20.37944720592384
 21
4.007697586670968
 31
0.0
  0
LINE
  5
1AF5E
330
1AF37
100
AcDbEntity
  8
0
  6
CONTINUOUS
100
AcDbLine
 10
18.10475279113329
 20
1.059483962800223
 30
0.0
 11
19.88949753175608
 21
2.84422870342302
 31
0.0
  0
LINE
  5
1AF5F
330
1AF37
100
AcDbEntity
  8
0
  6
CONTINUOUS
100
AcDbLine
 10
18.28874282222623
 20
0.5699547848129822
 30
0.0
 11
19.39954785758832
 21
1.680759820175074
 31
0.0
  0
LINE
  5
1AF60
330
1AF37
100
AcDbEntity
  8
0
  6
CONTINUOUS
100
AcDbLine
 10
18.47273285331918
 20
0.0804256068257416
 30
0.0
 11
18.90959818342056
 21
0.517290936927127
 31
0.0
  0
LINE
  5
1AF61
330
1AF37
100
AcDbEntity
  8
0
  6
CONTINUOUS
100
AcDbLine
 10
14.3590401358224
 20
-0.1570118376323384
 30
0.0
 11
14.24903296539946
 21
-0.0470046672093929
 31
0.0
  0
LINE
  5
1AF62
330
1AF37
100
AcDbEntity
  8
0
  6
CONTINUOUS
100
AcDbLine
 10
14.54309291258661
 20
0.332454594683643
 30
0.0
 11
13.75908329123172
 21
1.116464216038529
 31
0.0
  0
LINE
  5
1AF63
330
1AF37
100
AcDbEntity
  8
0
  6
CONTINUOUS
100
AcDbLine
 10
14.72714568935081
 20
0.8219210269996244
 30
0.0
 11
13.26913361706399
 21
2.27993309928645
 31
0.0
  0
LINE
  5
1AF64
330
1AF37
100
AcDbEntity
  8
0
  6
CONTINUOUS
100
AcDbLine
 10
14.91119846611502
 20
1.311387459315606
 30
0.0
 11
12.77918394289625
 21
3.443401982534371
 31
0.0
  0
LINE
  5
1AF65
330
1AF37
100
AcDbEntity
  8
0
  6
CONTINUOUS
100
AcDbLine
 10
15.09525124287922
 20
1.800853891631587
 30
0.0
 11
12.28923426872852
 21
4.606870865782293
 31
0.0
  0
LINE
  5
1AF66
330
1AF37
100
AcDbEntity
  8
0
  6
CONTINUOUS
100
AcDbLine
 10
15.27930401964343
 20
2.290320323947569
 30
0.0
 11
11.79928459456078
 21
5.770339749030213
 31
0.0
  0
LINE
  5
1AF67
330
1AF37
100
AcDbEntity
  8
0
  6
CONTINUOUS
100
AcDbLine
 10
15.46335679640763
 20
2.77978675626355
 30
0.0
 11
14.48885470994921
 21
3.754288842721972
 31
0.0
  0
LINE
  5
1AF68
330
1AF37
100
AcDbEntity
  8
0
  6
CONTINUOUS
100
AcDbLine
 10
13.88507249233704
 20
4.358071060334137
 30
0.0
 11
11.30933492039305
 21
6.933808632278135
 31
0.0
  0
LINE
  5
1AF69
330
1AF37
100
AcDbEntity
  8
0
  6
CONTINUOUS
100
AcDbLine
 10
18.75840522805855
 20
0.1582575336928151
 30
0.0
 11
18.25383727664818
 21
0.6628254851031863
 31
0.0
  0
LINE
  5
1AF6A
330
1AF37
100
AcDbEntity
  8
0
  6
CONTINUOUS
100
AcDbLine
 10
15.64740957317184
 20
3.269253188579531
 30
0.0
 11
14.67288388101266
 21
4.243778880738705
 31
0.0
  0
LINE
  5
1AF6B
330
1AF37
100
AcDbEntity
  8
0
  6
CONTINUOUS
100
AcDbLine
 10
13.39509276772158
 20
5.521569994029786
 30
0.0
 11
10.81938524622531
 21
8.097277515526056
 31
0.0
  0
LINE
  5
1AF6C
330
1AF37
100
AcDbEntity
  8
0
  6
CONTINUOUS
100
AcDbLine
 10
18.95798597883369
 20
0.6321959919978686
 30
0.0
 11
17.84825644852853
 21
1.741925522303024
 31
0.0
  0
LINE
  5
1AF6D
330
1AF37
100
AcDbEntity
  8
0
  6
CONTINUOUS
100
AcDbLine
 10
19.15756672960882
 20
1.106134450302922
 30
0.0
 11
17.44267562040888
 21
2.821025559502861
 31
0.0
  0
LINE
  5
1AF6E
330
1AF37
100
AcDbEntity
  8
0
  6
CONTINUOUS
100
AcDbLine
 10
15.83146234993604
 20
3.758719620895513
 30
0.0
 11
14.85691305207612
 21
4.733268918755439
 31
0.0
  0
LINE
  5
1AF6F
330
1AF37
100
AcDbEntity
  8
0
  6
CONTINUOUS
100
AcDbLine
 10
16.01551512670025
 20
4.248186053211494
 30
0.0
 11
15.04094222313957
 21
5.222758956772172
 31
0.0
  0
LINE
  5
1AF70
330
1AF37
100
AcDbEntity
  8
0
  6
CONTINUOUS
100
AcDbLine
 10
12.90511304310612
 20
6.685068927725435
 30
0.0
 11
10.8270819708403
 21
8.763099999991255
 31
0.0
  0
LINE
  5
1AF71
330
1AF37
100
AcDbEntity
  8
0
  6
CONTINUOUS
100
AcDbLine
 10
12.41513331849066
 20
7.848567861421083
 30
0.0
 11
11.50060117992049
 21
8.763099999991255
 31
0.0
  0
LINE
  5
1AF72
330
1AF37
100
AcDbEntity
  8
0
  6
CONTINUOUS
100
AcDbLine
 10
19.35714748038395
 20
1.580072908607975
 30
0.0
 11
17.03709479228923
 21
3.900125596702697
 31
0.0
  0
LINE
  5
1AF73
330
1AF37
100
AcDbEntity
  8
0
  6
CONTINUOUS
100
AcDbLine
 10
19.55672823115909
 20
2.054011366913028
 30
0.0
 11
16.63151396416958
 21
4.979225633902534
 31
0.0
  0
LINE
  5
1AF74
330
1AF37
100
AcDbEntity
  8
0
  6
CONTINUOUS
100
AcDbLine
 10
16.19956790346445
 20
4.737652485527476
 30
0.0
 11
15.22497139420302
 21
5.712248994788904
 31
0.0
  0
LINE
  5
1AF75
330
1AF37
100
AcDbEntity
  8
0
  6
CONTINUOUS
100
AcDbLine
 10
16.38362068022866
 20
5.227118917843457
 30
0.0
 11
15.40900056526648
 21
6.201739032805637
 31
0.0
  0
LINE
  5
1AF76
330
1AF37
100
AcDbEntity
  8
0
  6
CONTINUOUS
100
AcDbLine
 10
19.75630898193422
 20
2.527949825218081
 30
0.0
 11
18.70774536448286
 21
3.576513442669441
 31
0.0
  0
LINE
  5
1AF77
330
1AF37
100
AcDbEntity
  8
0
  6
CONTINUOUS
100
AcDbLine
 10
19.95588973270936
 20
3.001888283523134
 30
0.0
 11
18.90726987211446
 21
4.050508144118028
 31
0.0
  0
LINE
  5
1AF78
330
1AF37
100
AcDbEntity
  8
0
  6
CONTINUOUS
100
AcDbLine
 10
20.15547048348449
 20
3.475826741828186
 30
0.0
 11
19.10679437974606
 21
4.524502845566614
 31
0.0
  0
LINE
  5
1AF79
330
1AF37
100
AcDbEntity
  8
0
  6
CONTINUOUS
100
AcDbLine
 10
20.35505123425962
 20
3.94976520013324
 30
0.0
 11
19.30631888737766
 21
4.998497547015201
 31
0.0
  0
LINE
  5
1AF7A
330
1AF37
100
AcDbEntity
  8
0
  6
CONTINUOUS
100
AcDbLine
 10
20.55463198503475
 20
4.423703658438292
 30
0.0
 11
19.50584339500926
 21
5.472492248463787
 31
0.0
  0
LINE
  5
1AF7B
330
1AF37
100
AcDbEntity
  8
0
  6
CONTINUOUS
100
AcDbLine
 10
18.37481191085755
 20
3.909446896294752
 30
0.0
 11
15.59302973632993
 21
6.691229070822371
 31
0.0
  0
LINE
  5
1AF7C
330
1AF37
100
AcDbEntity
  8
0
  6
CONTINUOUS
100
AcDbLine
 10
17.96904084440766
 20
4.988737171824825
 30
0.0
 11
15.77705890739338
 21
7.180719108839104
 31
0.0
  0
LINE
  5
1AF7D
330
1AF37
100
AcDbEntity
  8
0
  6
CONTINUOUS
100
AcDbLine
 10
17.56326977795777
 20
6.068027447354899
 30
0.0
 11
15.96108807845684
 21
7.670209146855838
 31
0.0
  0
LINE
  5
1AF7E
330
1AF37
100
AcDbEntity
  8
0
  6
CONTINUOUS
100
AcDbLine
 10
17.15749871150789
 20
7.147317722884972
 30
0.0
 11
16.14511724952029
 21
8.15969918487257
 31
0.0
  0
LINE
  5
1AF7F
330
1AF37
100
AcDbEntity
  8
0
  6
CONTINUOUS
100
AcDbLine
 10
16.751727645058
 20
8.226607998415046
 30
0.0
 11
16.32914642058374
 21
8.649189222889303
 31
0.0
  0
LINE
  5
1AF80
330
1AF37
100
AcDbEntity
  8
0
  6
CONTINUOUS
100
AcDbLine
 10
20.75421273580989
 20
4.897642116743345
 30
0.0
 11
19.70536790264086
 21
5.946486949912374
 31
0.0
  0
LINE
  5
1AF81
330
1AF37
100
AcDbEntity
  8
0
  6
CONTINUOUS
100
AcDbLine
 10
20.95379348658502
 20
5.371580575048398
 30
0.0
 11
19.90489241027246
 21
6.42048165136096
 31
0.0
  0
LINE
  5
1AF82
330
1AF37
100
AcDbEntity
  8
0
  6
CONTINUOUS
100
AcDbLine
 10
21.15337423736015
 20
5.845519033353452
 30
0.0
 11
20.10441691790406
 21
6.894476352809547
 31
0.0
  0
LINE
  5
1AF83
330
1AF37
100
AcDbEntity
  8
0
  6
CONTINUOUS
100
AcDbLine
 10
21.35295498813529
 20
6.319457491658505
 30
0.0
 11
20.30394142553566
 21
7.368471054258134
 31
0.0
  0
LINE
  5
1AF84
330
1AF37
100
AcDbEntity
  8
0
  6
CONTINUOUS
100
AcDbLine
 10
21.55253573891042
 20
6.793395949963558
 30
0.0
 11
20.50346593316726
 21
7.842465755706721
 31
0.0
  0
LINE
  5
1AF85
330
1AF37
100
AcDbEntity
  8
0
  6
CONTINUOUS
100
AcDbLine
 10
21.75211648968556
 20
7.267334408268612
 30
0.0
 11
20.70299044079886
 21
8.316460457155308
 31
0.0
  0
LINE
  5
1AF86
330
1AF37
100
AcDbEntity
  8
0
  6
CONTINUOUS
100
AcDbLine
 10
21.95169724046069
 20
7.741272866573663
 30
0.0
 11
20.9298701070431
 21
8.763099999991256
 31
0.0
  0
LINE
  5
1AF87
330
1AF37
100
AcDbEntity
  8
0
  6
CONTINUOUS
100
AcDbLine
 10
22.15127799123582
 20
8.215211324878716
 30
0.0
 11
21.60338931612328
 21
8.763099999991256
 31
0.0
  0
LINE
  5
1AF88
330
1AF37
100
AcDbEntity
  8
0
  6
CONTINUOUS
100
AcDbLine
 10
22.35085874201096
 20
8.689149783183769
 30
0.0
 11
22.27690852520347
 21
8.763099999991255
 31
0.0
  0
ENDBLK
  5
1B07A
330
1AF37
100
AcDbEntity
  8
0
100
AcDbBlockEnd
  0
BLOCK
  5
1B07B
330
1AF89
100
AcDbEntity
  8
0
100
AcDbBlockBegin
  2
*X53
 70
     1
 10
0.0
 20
0.0
 30
0.0
  3
*X53
  1

  0
LINE
  5
1AF8A
330
1AF89
100
AcDbEntity
  8
0
  6
CONTINUOUS
100
AcDbLine
 10
23.19462913593892
 20
8.169917934846424
 30
0.0
 11
23.70775465517246
 21
8.683043454079957
 31
0.0
  0
LINE
  5
1AF8B
330
1AF89
100
AcDbEntity
  8
0
  6
CONTINUOUS
100
AcDbLine
 10
22.64923161835078
 20
6.951001208178088
 30
0.0
 11
23.9159364069932
 21
8.217705996820516
 31
0.0
  0
LINE
  5
1AF8C
330
1AF89
100
AcDbEntity
  8
0
  6
CONTINUOUS
100
AcDbLine
 10
22.10383410076263
 20
5.732084481509751
 30
0.0
 11
24.12411815881395
 21
7.752368539561078
 31
0.0
  0
LINE
  5
1AF8D
330
1AF89
100
AcDbEntity
  8
0
  6
CONTINUOUS
100
AcDbLine
 10
21.55843658317447
 20
4.513167754841414
 30
0.0
 11
24.3322999106347
 21
7.287031082301639
 31
0.0
  0
LINE
  5
1AF8E
330
1AF89
100
AcDbEntity
  8
0
  6
CONTINUOUS
100
AcDbLine
 10
21.01303906558632
 20
3.294251028173077
 30
0.0
 11
24.54048166245544
 21
6.821693625042199
 31
0.0
  0
LINE
  5
1AF8F
330
1AF89
100
AcDbEntity
  8
0
  6
CONTINUOUS
100
AcDbLine
 10
20.46764154799817
 20
2.075334301504738
 30
0.0
 11
23.28571549467848
 21
4.89340824818505
 31
0.0
  0
LINE
  5
1AF90
330
1AF89
100
AcDbEntity
  8
0
  6
CONTINUOUS
100
AcDbLine
 10
19.92224403041002
 20
0.8564175748364002
 30
0.0
 11
22.74075865492779
 21
3.674932199354171
 31
0.0
  0
LINE
  5
1AF91
330
1AF89
100
AcDbEntity
  8
0
  6
CONTINUOUS
100
AcDbLine
 10
23.67305085490148
 20
5.280743608408048
 30
0.0
 11
24.74866341427619
 21
6.356356167782759
 31
0.0
  0
LINE
  5
1AF92
330
1AF89
100
AcDbEntity
  8
0
  6
CONTINUOUS
100
AcDbLine
 10
23.88118970842314
 20
4.815363252849522
 30
0.0
 11
24.95684516609694
 21
5.89101871052332
 31
0.0
  0
LINE
  5
1AF93
330
1AF89
100
AcDbEntity
  8
0
  6
CONTINUOUS
100
AcDbLine
 10
19.73925852647308
 20
-0.0000871381807288
 30
0.0
 11
23.4103456646501
 21
3.670999999996297
 31
0.0
  0
LINE
  5
1AF94
330
1AF89
100
AcDbEntity
  8
0
  6
CONTINUOUS
100
AcDbLine
 10
24.0893285619448
 20
4.349982897290997
 30
0.0
 11
25.16502691791769
 21
5.42568125326388
 31
0.0
  0
LINE
  5
1AF95
330
1AF89
100
AcDbEntity
  8
0
  6
CONTINUOUS
100
AcDbLine
 10
20.41282099582748
 20
-0.0000438779065108
 30
0.0
 11
21.64944178675636
 21
1.236576913022366
 31
0.0
  0
LINE
  5
1AF96
330
1AF89
100
AcDbEntity
  8
0
  6
CONTINUOUS
100
AcDbLine
 10
22.78126487373161
 20
2.36839999999762
 30
0.0
 11
24.08386487373029
 21
3.670999999996297
 31
0.0
  0
LINE
  5
1AF97
330
1AF89
100
AcDbEntity
  8
0
  6
CONTINUOUS
100
AcDbLine
 10
24.29746741546646
 20
3.884602541732471
 30
0.0
 11
25.37320866973843
 21
4.960343796004441
 31
0.0
  0
LINE
  5
1AF98
330
1AF89
100
AcDbEntity
  8
0
  6
CONTINUOUS
100
AcDbLine
 10
21.08638346518189
 20
-0.0000006176322938
 30
0.0
 11
21.10379033335899
 21
0.0174062505448083
 31
0.0
  0
LINE
  5
1AF99
330
1AF89
100
AcDbEntity
  8
0
  6
CONTINUOUS
100
AcDbLine
 10
23.4547840828118
 20
2.36839999999762
 30
0.0
 11
25.58139042155918
 21
4.495006338745002
 31
0.0
  0
LINE
  5
1AF9A
330
1AF89
100
AcDbEntity
  8
0
  6
CONTINUOUS
100
AcDbLine
 10
29.30199999996933
 20
8.215615917155148
 30
0.0
 11
29.84948408280543
 21
8.763099999991255
 31
0.0
  0
LINE
  5
1AF9B
330
1AF89
100
AcDbEntity
  8
0
  6
CONTINUOUS
100
AcDbLine
 10
24.12830329189199
 20
2.36839999999762
 30
0.0
 11
25.78957217337993
 21
4.029668881485562
 31
0.0
  0
LINE
  5
1AF9C
330
1AF89
100
AcDbEntity
  8
0
  6
CONTINUOUS
100
AcDbLine
 10
29.30199999996933
 20
7.54209670807496
 30
0.0
 11
30.52300329188562
 21
8.763099999991255
 31
0.0
  0
LINE
  5
1AF9D
330
1AF89
100
AcDbEntity
  8
0
  6
CONTINUOUS
100
AcDbLine
 10
24.80182250097217
 20
2.36839999999762
 30
0.0
 11
25.99775392520067
 21
3.564331424226122
 31
0.0
  0
LINE
  5
1AF9E
330
1AF89
100
AcDbEntity
  8
0
  6
CONTINUOUS
100
AcDbLine
 10
29.30199999996933
 20
6.868577498994774
 30
0.0
 11
30.74199999996926
 21
8.308577498994712
 31
0.0
  0
LINE
  5
1AF9F
330
1AF89
100
AcDbEntity
  8
0
  6
CONTINUOUS
100
AcDbLine
 10
25.13028238392013
 20
2.023340673865392
 30
0.0
 11
26.20593567702142
 21
3.098993966966683
 31
0.0
  0
LINE
  5
1AFA0
330
1AF89
100
AcDbEntity
  8
0
  6
CONTINUOUS
100
AcDbLine
 10
25.33838066033617
 20
1.557919741201244
 30
0.0
 11
26.41411742884217
 21
2.633656509707244
 31
0.0
  0
LINE
  5
1AFA1
330
1AF89
100
AcDbEntity
  8
0
  6
CONTINUOUS
100
AcDbLine
 10
25.54647893675221
 20
1.092498808537098
 30
0.0
 11
26.62229918066291
 21
2.168319052447804
 31
0.0
  0
LINE
  5
1AFA2
330
1AF89
100
AcDbEntity
  8
0
  6
CONTINUOUS
100
AcDbLine
 10
25.75457721316825
 20
0.62707787587295
 30
0.0
 11
26.83048093248366
 21
1.702981595188365
 31
0.0
  0
LINE
  5
1AFA3
330
1AF89
100
AcDbEntity
  8
0
  6
CONTINUOUS
100
AcDbLine
 10
29.30199999996933
 20
6.195058289914587
 30
0.0
 11
30.74199999996926
 21
7.635058289914522
 31
0.0
  0
LINE
  5
1AFA4
330
1AF89
100
AcDbEntity
  8
0
  6
CONTINUOUS
100
AcDbLine
 10
29.30199999996933
 20
5.521539080834401
 30
0.0
 11
30.74199999996926
 21
6.961539080834331
 31
0.0
  0
LINE
  5
1AFA5
330
1AF89
100
AcDbEntity
  8
0
  6
CONTINUOUS
100
AcDbLine
 10
29.30199999996933
 20
4.848019871754214
 30
0.0
 11
30.74199999996925
 21
6.288019871754143
 31
0.0
  0
LINE
  5
1AFA6
330
1AF89
100
AcDbEntity
  8
0
  6
CONTINUOUS
100
AcDbLine
 10
29.30199999996933
 20
4.174500662674028
 30
0.0
 11
30.74199999996925
 21
5.614500662673953
 31
0.0
  0
LINE
  5
1AFA7
330
1AF89
100
AcDbEntity
  8
0
  6
CONTINUOUS
100
AcDbLine
 10
25.96267548958429
 20
0.1616569432088024
 30
0.0
 11
27.18411854636669
 21
1.383099999991207
 31
0.0
  0
LINE
  5
1AFA8
330
1AF89
100
AcDbEntity
  8
0
  6
CONTINUOUS
100
AcDbLine
 10
29.30199999996933
 20
3.500981453593841
 30
0.0
 11
30.74199999996925
 21
4.940981453593762
 31
0.0
  0
LINE
  5
1AFA9
330
1AF89
100
AcDbEntity
  8
0
  6
CONTINUOUS
100
AcDbLine
 10
26.50763775544691
 20
0.0330999999912356
 30
0.0
 11
27.85763775544689
 21
1.383099999991223
 31
0.0
  0
LINE
  5
1AFAA
330
1AF89
100
AcDbEntity
  8
0
  6
CONTINUOUS
100
AcDbLine
 10
29.30199999996933
 20
2.827462244513656
 30
0.0
 11
30.74199999996925
 21
4.267462244513574
 31
0.0
  0
LINE
  5
1AFAB
330
1AF89
100
AcDbEntity
  8
0
  6
CONTINUOUS
100
AcDbLine
 10
27.18115696452709
 20
0.0330999999912356
 30
0.0
 11
28.55073879889363
 21
1.402681834357775
 31
0.0
  0
LINE
  5
1AFAC
330
1AF89
100
AcDbEntity
  8
0
  6
CONTINUOUS
100
AcDbLine
 10
29.28241816560272
 20
2.134361201066866
 30
0.0
 11
30.74199999996924
 21
3.593943035433383
 31
0.0
  0
LINE
  5
1AFAD
330
1AF89
100
AcDbEntity
  8
0
  6
CONTINUOUS
100
AcDbLine
 10
27.85467617360728
 20
0.0330999999912356
 30
0.0
 11
30.74199999996924
 21
2.920423826353195
 31
0.0
  0
LINE
  5
1AFAE
330
1AF89
100
AcDbEntity
  8
0
  6
CONTINUOUS
100
AcDbLine
 10
28.53897559587887
 20
0.0438802131826428
 30
0.0
 11
30.73121978677781
 21
2.236124404081585
 31
0.0
  0
LINE
  5
1AFAF
330
1AF89
100
AcDbEntity
  8
0
  6
CONTINUOUS
100
AcDbLine
 10
29.45140055588722
 20
0.2827859641107988
 30
0.0
 11
30.49231403584965
 21
1.323699444073236
 31
0.0
  0
LINE
  5
1AFB0
330
1AF89
100
AcDbEntity
  8
0
  6
CONTINUOUS
100
AcDbLine
 10
19.59027867740337
 20
-0.0000967065718083
 30
0.0
 11
19.55485265190471
 21
0.035329318926844
 31
0.0
  0
LINE
  5
1AFB1
330
1AF89
100
AcDbEntity
  8
0
  6
CONTINUOUS
100
AcDbLine
 10
20.26375463176586
 20
-0.0000534518541091
 30
0.0
 11
19.76305575737534
 21
0.5006454225364014
 31
0.0
  0
LINE
  5
1AFB2
330
1AF89
100
AcDbEntity
  8
0
  6
CONTINUOUS
100
AcDbLine
 10
20.93723058612834
 20
-0.0000101971364099
 30
0.0
 11
19.97125886284597
 21
0.965961526145958
 31
0.0
  0
LINE
  5
1AFB3
330
1AF89
100
AcDbEntity
  8
0
  6
CONTINUOUS
100
AcDbLine
 10
21.25514828313686
 20
0.355591314935257
 30
0.0
 11
20.1794619683166
 21
1.431277629755512
 31
0.0
  0
LINE
  5
1AFB4
330
1AF89
100
AcDbEntity
  8
0
  6
CONTINUOUS
100
AcDbLine
 10
21.46338838394921
 20
0.8208704232030986
 30
0.0
 11
20.38766507378723
 21
1.896593733365069
 31
0.0
  0
LINE
  5
1AFB5
330
1AF89
100
AcDbEntity
  8
0
  6
CONTINUOUS
100
AcDbLine
 10
21.67162848476155
 20
1.28614953147094
 30
0.0
 11
20.59586817925786
 21
2.361909836974626
 31
0.0
  0
LINE
  5
1AFB6
330
1AF89
100
AcDbEntity
  8
0
  6
CONTINUOUS
100
AcDbLine
 10
21.8798685855739
 20
1.751428639738782
 30
0.0
 11
20.80407128472849
 21
2.827225940584183
 31
0.0
  0
LINE
  5
1AFB7
330
1AF89
100
AcDbEntity
  8
0
  6
CONTINUOUS
100
AcDbLine
 10
22.08810868638624
 20
2.216707748006623
 30
0.0
 11
21.01227439019912
 21
3.292542044193739
 31
0.0
  0
LINE
  5
1AFB8
330
1AF89
100
AcDbEntity
  8
0
  6
CONTINUOUS
100
AcDbLine
 10
22.60993564347543
 20
2.36839999999762
 30
0.0
 11
21.22047749566975
 21
3.757858147803296
 31
0.0
  0
LINE
  5
1AFB9
330
1AF89
100
AcDbEntity
  8
0
  6
CONTINUOUS
100
AcDbLine
 10
23.28345485255561
 20
2.36839999999762
 30
0.0
 11
21.42868060114038
 21
4.223174251412853
 31
0.0
  0
LINE
  5
1AFBA
330
1AF89
100
AcDbEntity
  8
0
  6
CONTINUOUS
100
AcDbLine
 10
26.29227406164219
 20
0.0330999999912356
 30
0.0
 11
25.80009199592872
 21
0.5252820657046957
 31
0.0
  0
LINE
  5
1AFBB
330
1AF89
100
AcDbEntity
  8
0
  6
CONTINUOUS
100
AcDbLine
 10
23.9569740616358
 20
2.36839999999762
 30
0.0
 11
21.63688370661101
 21
4.688490355022409
 31
0.0
  0
LINE
  5
1AFBC
330
1AF89
100
AcDbEntity
  8
0
  6
CONTINUOUS
100
AcDbLine
 10
26.96579327072237
 20
0.0330999999912356
 30
0.0
 11
25.2554132311971
 21
1.743480039516508
 31
0.0
  0
LINE
  5
1AFBD
330
1AF89
100
AcDbEntity
  8
0
  6
CONTINUOUS
100
AcDbLine
 10
24.63049327071599
 20
2.36839999999762
 30
0.0
 11
23.32789327071731
 21
3.670999999996297
 31
0.0
  0
LINE
  5
1AFBE
330
1AF89
100
AcDbEntity
  8
0
  6
CONTINUOUS
100
AcDbLine
 10
22.92098674744635
 20
4.077906523267254
 30
0.0
 11
21.84508681208164
 21
5.153806458631966
 31
0.0
  0
LINE
  5
1AFBF
330
1AF89
100
AcDbEntity
  8
0
  6
CONTINUOUS
100
AcDbLine
 10
27.63931247980256
 20
0.0330999999912356
 30
0.0
 11
24.0014124797975
 21
3.670999999996297
 31
0.0
  0
LINE
  5
1AFC0
330
1AF89
100
AcDbEntity
  8
0
  6
CONTINUOUS
100
AcDbLine
 10
23.129125600968
 20
4.5432868788258
 30
0.0
 11
22.05328991755227
 21
5.619122562241522
 31
0.0
  0
LINE
  5
1AFC1
330
1AF89
100
AcDbEntity
  8
0
  6
CONTINUOUS
100
AcDbLine
 10
28.31283168888275
 20
0.0330999999912356
 30
0.0
 11
24.16488385994816
 21
4.181047828925828
 31
0.0
  0
LINE
  5
1AFC2
330
1AF89
100
AcDbEntity
  8
0
  6
CONTINUOUS
100
AcDbLine
 10
23.33726445448964
 20
5.008667234384345
 30
0.0
 11
22.2614930230229
 21
6.084438665851079
 31
0.0
  0
LINE
  5
1AFC3
330
1AF89
100
AcDbEntity
  8
0
  6
CONTINUOUS
100
AcDbLine
 10
28.92085740005492
 20
0.0985934978992438
 30
0.0
 11
27.63635089796295
 21
1.383099999991217
 31
0.0
  0
LINE
  5
1AFC4
330
1AF89
100
AcDbEntity
  8
0
  6
CONTINUOUS
100
AcDbLine
 10
26.43704649509776
 20
2.582404402856405
 30
0.0
 11
23.61992702019732
 21
5.399523877756844
 31
0.0
  0
LINE
  5
1AFC5
330
1AF89
100
AcDbEntity
  8
0
  6
CONTINUOUS
100
AcDbLine
 10
23.54540330801128
 20
5.47404758994289
 30
0.0
 11
22.46969612849353
 21
6.549754769460635
 31
0.0
  0
LINE
  5
1AFC6
330
1AF89
100
AcDbEntity
  8
0
  6
CONTINUOUS
100
AcDbLine
 10
29.42225615078443
 20
0.2707139562499279
 30
0.0
 11
28.30987010704312
 21
1.383099999991234
 31
0.0
  0
LINE
  5
1AFC7
330
1AF89
100
AcDbEntity
  8
0
  6
CONTINUOUS
100
AcDbLine
 10
25.89179548232307
 20
3.801174624711282
 30
0.0
 11
22.67789923396416
 21
7.015070873070191
 31
0.0
  0
LINE
  5
1AFC8
330
1AF89
100
AcDbEntity
  8
0
  6
CONTINUOUS
100
AcDbLine
 10
29.83624534690007
 20
0.5302439692144705
 30
0.0
 11
28.85811781497101
 21
1.508371501143527
 31
0.0
  0
LINE
  5
1AFC9
330
1AF89
100
AcDbEntity
  8
0
  6
CONTINUOUS
100
AcDbLine
 10
25.34654446954838
 20
5.01994484656616
 30
0.0
 11
22.88610233943479
 21
7.480386976679748
 31
0.0
  0
LINE
  5
1AFCA
330
1AF89
100
AcDbEntity
  8
0
  6
CONTINUOUS
100
AcDbLine
 10
30.17865975401872
 20
0.8613487711760022
 30
0.0
 11
29.18888744090175
 21
1.851121084292977
 31
0.0
  0
LINE
  5
1AFCB
330
1AF89
100
AcDbEntity
  8
0
  6
CONTINUOUS
100
AcDbLine
 10
24.80129345677369
 20
6.238715068421037
 30
0.0
 11
23.09430544490542
 21
7.945703080289305
 31
0.0
  0
LINE
  5
1AFCC
330
1AF89
100
AcDbEntity
  8
0
  6
CONTINUOUS
100
AcDbLine
 10
30.45496647202376
 20
1.258561262251155
 30
0.0
 11
29.30199999996933
 21
2.411527734305588
 31
0.0
  0
LINE
  5
1AFCD
330
1AF89
100
AcDbEntity
  8
0
  6
CONTINUOUS
100
AcDbLine
 10
24.256042443999
 20
7.457485290275915
 30
0.0
 11
23.30250855037605
 21
8.411019183898862
 31
0.0
  0
LINE
  5
1AFCE
330
1AF89
100
AcDbEntity
  8
0
  6
CONTINUOUS
100
AcDbLine
 10
30.64868582078271
 20
1.738361122572387
 30
0.0
 11
29.30199999996933
 21
3.085046943385775
 31
0.0
  0
LINE
  5
1AFCF
330
1AF89
100
AcDbEntity
  8
0
  6
CONTINUOUS
100
AcDbLine
 10
23.71079143122431
 20
8.676255512130794
 30
0.0
 11
23.51071165584668
 21
8.876335287508416
 31
0.0
  0
LINE
  5
1AFD0
330
1AF89
100
AcDbEntity
  8
0
  6
CONTINUOUS
100
AcDbLine
 10
30.73802122914428
 20
2.322544923291007
 30
0.0
 11
29.30199999996933
 21
3.758566152465961
 31
0.0
  0
LINE
  5
1AFD1
330
1AF89
100
AcDbEntity
  8
0
  6
CONTINUOUS
100
AcDbLine
 10
30.74199999996924
 20
2.992085361546236
 30
0.0
 11
29.30199999996933
 21
4.432085361546148
 31
0.0
  0
LINE
  5
1AFD2
330
1AF89
100
AcDbEntity
  8
0
  6
CONTINUOUS
100
AcDbLine
 10
30.74199999996924
 20
3.665604570626419
 30
0.0
 11
29.30199999996933
 21
5.105604570626333
 31
0.0
  0
LINE
  5
1AFD3
330
1AF89
100
AcDbEntity
  8
0
  6
CONTINUOUS
100
AcDbLine
 10
30.74199999996925
 20
4.339123779706602
 30
0.0
 11
29.30199999996933
 21
5.77912377970652
 31
0.0
  0
LINE
  5
1AFD4
330
1AF89
100
AcDbEntity
  8
0
  6
CONTINUOUS
100
AcDbLine
 10
30.74199999996925
 20
5.012642988786785
 30
0.0
 11
29.30199999996933
 21
6.452642988786707
 31
0.0
  0
LINE
  5
1AFD5
330
1AF89
100
AcDbEntity
  8
0
  6
CONTINUOUS
100
AcDbLine
 10
30.74199999996925
 20
5.68616219786697
 30
0.0
 11
29.30199999996933
 21
7.126162197866894
 31
0.0
  0
LINE
  5
1AFD6
330
1AF89
100
AcDbEntity
  8
0
  6
CONTINUOUS
100
AcDbLine
 10
30.74199999996925
 20
6.359681406947153
 30
0.0
 11
29.30199999996933
 21
7.799681406947081
 31
0.0
  0
LINE
  5
1AFD7
330
1AF89
100
AcDbEntity
  8
0
  6
CONTINUOUS
100
AcDbLine
 10
30.74199999996926
 20
7.033200616027337
 30
0.0
 11
29.30199999996933
 21
8.473200616027269
 31
0.0
  0
LINE
  5
1AFD8
330
1AF89
100
AcDbEntity
  8
0
  6
CONTINUOUS
100
AcDbLine
 10
30.74199999996926
 20
7.706719825107518
 30
0.0
 11
29.68561982508552
 21
8.763099999991255
 31
0.0
  0
LINE
  5
1AFD9
330
1AF89
100
AcDbEntity
  8
0
  6
CONTINUOUS
100
AcDbLine
 10
30.74199999996926
 20
8.380239034187703
 30
0.0
 11
30.35913903416571
 21
8.763099999991255
 31
0.0
  0
ENDBLK
  5
1B07C
330
1AF89
100
AcDbEntity
  8
0
100
AcDbBlockEnd
  0
BLOCK
  5
1B07D
330
1AFDA
100
AcDbEntity
  8
0
100
AcDbBlockBegin
  2
*X54
 70
     1
 10
0.0
 20
0.0
 30
0.0
  3
*X54
  1

  0
LINE
  5
1AFDB
330
1AFDA
100
AcDbEntity
  8
0
  6
CONTINUOUS
100
AcDbLine
 10
31.64199999996833
 20
8.535058289913598
 30
0.0
 11
31.87004171004599
 21
8.763099999991255
 31
0.0
  0
LINE
  5
1AFDC
330
1AFDA
100
AcDbEntity
  8
0
  6
CONTINUOUS
100
AcDbLine
 10
31.64199999996833
 20
7.861539080833412
 30
0.0
 11
32.54356091912618
 21
8.763099999991255
 31
0.0
  0
LINE
  5
1AFDD
330
1AFDA
100
AcDbEntity
  8
0
  6
CONTINUOUS
100
AcDbLine
 10
31.64199999996833
 20
7.188019871753226
 30
0.0
 11
33.08199999996839
 21
8.628019871753281
 31
0.0
  0
LINE
  5
1AFDE
330
1AFDA
100
AcDbEntity
  8
0
  6
CONTINUOUS
100
AcDbLine
 10
31.64199999996833
 20
6.51450066267304
 30
0.0
 11
33.08199999996839
 21
7.954500662673095
 31
0.0
  0
LINE
  5
1AFDF
330
1AFDA
100
AcDbEntity
  8
0
  6
CONTINUOUS
100
AcDbLine
 10
31.64199999996833
 20
5.840981453592853
 30
0.0
 11
33.08199999996839
 21
7.280981453592908
 31
0.0
  0
LINE
  5
1AFE0
330
1AFDA
100
AcDbEntity
  8
0
  6
CONTINUOUS
100
AcDbLine
 10
31.64199999996833
 20
5.167462244512667
 30
0.0
 11
33.08199999996839
 21
6.607462244512721
 31
0.0
  0
LINE
  5
1AFE1
330
1AFDA
100
AcDbEntity
  8
0
  6
CONTINUOUS
100
AcDbLine
 10
31.64199999996833
 20
4.493943035432481
 30
0.0
 11
33.08199999996839
 21
5.933943035432535
 31
0.0
  0
LINE
  5
1AFE2
330
1AFDA
100
AcDbEntity
  8
0
  6
CONTINUOUS
100
AcDbLine
 10
31.64199999996833
 20
3.820423826352293
 30
0.0
 11
33.08199999996839
 21
5.260423826352348
 31
0.0
  0
LINE
  5
1AFE3
330
1AFDA
100
AcDbEntity
  8
0
  6
CONTINUOUS
100
AcDbLine
 10
31.64199999996833
 20
3.146904617272106
 30
0.0
 11
33.08199999996839
 21
4.586904617272161
 31
0.0
  0
LINE
  5
1AFE4
330
1AFDA
100
AcDbEntity
  8
0
  6
CONTINUOUS
100
AcDbLine
 10
36.23199999996837
 20
8.410423826352325
 30
0.0
 11
36.5846761736073
 21
8.763099999991255
 31
0.0
  0
LINE
  5
1AFE5
330
1AFDA
100
AcDbEntity
  8
0
  6
CONTINUOUS
100
AcDbLine
 10
36.23199999996837
 20
7.73690461727214
 30
0.0
 11
37.25819538268748
 21
8.763099999991255
 31
0.0
  0
LINE
  5
1AFE6
330
1AFDA
100
AcDbEntity
  8
0
  6
CONTINUOUS
100
AcDbLine
 10
31.64257403601376
 20
2.473959444237348
 30
0.0
 11
33.08199999996839
 21
3.913385408191974
 31
0.0
  0
LINE
  5
1AFE7
330
1AFDA
100
AcDbEntity
  8
0
  6
CONTINUOUS
100
AcDbLine
 10
36.23199999996837
 20
7.063385408191953
 30
0.0
 11
37.67199999996831
 21
8.503385408191894
 31
0.0
  0
LINE
  5
1AFE8
330
1AFDA
100
AcDbEntity
  8
0
  6
CONTINUOUS
100
AcDbLine
 10
31.72013636841932
 20
1.87800256756272
 30
0.0
 11
33.08199999996839
 21
3.239866199111788
 31
0.0
  0
LINE
  5
1AFE9
330
1AFDA
100
AcDbEntity
  8
0
  6
CONTINUOUS
100
AcDbLine
 10
36.23199999996837
 20
6.389866199111767
 30
0.0
 11
37.67199999996831
 21
7.829866199111708
 31
0.0
  0
LINE
  5
1AFEA
330
1AFDA
100
AcDbEntity
  8
0
  6
CONTINUOUS
100
AcDbLine
 10
31.89042734314753
 20
1.374774333210744
 30
0.0
 11
33.08199999996839
 21
2.566346990031601
 31
0.0
  0
LINE
  5
1AFEB
330
1AFDA
100
AcDbEntity
  8
0
  6
CONTINUOUS
100
AcDbLine
 10
36.23199999996837
 20
5.71634699003158
 30
0.0
 11
37.67199999996831
 21
7.156346990031521
 31
0.0
  0
LINE
  5
1AFEC
330
1AFDA
100
AcDbEntity
  8
0
  6
CONTINUOUS
100
AcDbLine
 10
32.14210568064475
 20
0.952933461627778
 30
0.0
 11
33.18745552475986
 21
1.998283305742888
 31
0.0
  0
LINE
  5
1AFED
330
1AFDA
100
AcDbEntity
  8
0
  6
CONTINUOUS
100
AcDbLine
 10
36.23199999996837
 20
5.042827780951393
 30
0.0
 11
37.67199999996831
 21
6.482827780951334
 31
0.0
  0
LINE
  5
1AFEE
330
1AFDA
100
AcDbEntity
  8
0
  6
CONTINUOUS
100
AcDbLine
 10
32.45820639400955
 20
0.5955149659123915
 30
0.0
 11
33.47242681921943
 21
1.60973539112227
 31
0.0
  0
LINE
  5
1AFEF
330
1AFDA
100
AcDbEntity
  8
0
  6
CONTINUOUS
100
AcDbLine
 10
36.23199999996837
 20
4.369308571871207
 30
0.0
 11
37.67199999996831
 21
5.809308571871147
 31
0.0
  0
LINE
  5
1AFF0
330
1AFDA
100
AcDbEntity
  8
0
  6
CONTINUOUS
100
AcDbLine
 10
32.83432456621412
 20
0.2981139290367771
 30
0.0
 11
33.89722476612215
 21
1.361014128944803
 31
0.0
  0
LINE
  5
1AFF1
330
1AFDA
100
AcDbEntity
  8
0
  6
CONTINUOUS
100
AcDbLine
 10
36.23199999996837
 20
3.69578936279102
 30
0.0
 11
37.67199999996831
 21
5.135789362790962
 31
0.0
  0
LINE
  5
1AFF2
330
1AFDA
100
AcDbEntity
  8
0
  6
CONTINUOUS
100
AcDbLine
 10
33.2711633111245
 20
0.0614334648669672
 30
0.0
 11
34.43247338014423
 21
1.222743533886696
 31
0.0
  0
LINE
  5
1AFF3
330
1AFDA
100
AcDbEntity
  8
0
  6
CONTINUOUS
100
AcDbLine
 10
36.23199999996837
 20
3.022270153710834
 30
0.0
 11
37.67199999996831
 21
4.462270153710775
 31
0.0
  0
LINE
  5
1AFF4
330
1AFDA
100
AcDbEntity
  8
0
  6
CONTINUOUS
100
AcDbLine
 10
33.76515245874577
 20
-0.1180965965919523
 30
0.0
 11
35.1587445516215
 21
1.27549549628378
 31
0.0
  0
LINE
  5
1AFF5
330
1AFDA
100
AcDbEntity
  8
0
  6
CONTINUOUS
100
AcDbLine
 10
36.21639478609585
 20
2.333145730758136
 30
0.0
 11
37.67199999996831
 21
3.788750944630588
 31
0.0
  0
LINE
  5
1AFF6
330
1AFDA
100
AcDbEntity
  8
0
  6
CONTINUOUS
100
AcDbLine
 10
34.34060583368432
 20
-0.2161624307335863
 30
0.0
 11
37.67199999996831
 21
3.115231735550401
 31
0.0
  0
LINE
  5
1AFF7
330
1AFDA
100
AcDbEntity
  8
0
  6
CONTINUOUS
100
AcDbLine
 10
35.01698193613905
 20
-0.2133055373590427
 30
0.0
 11
37.66876712070525
 21
2.438479647207154
 31
0.0
  0
LINE
  5
1AFF8
330
1AFDA
100
AcDbEntity
  8
0
  6
CONTINUOUS
100
AcDbLine
 10
35.90743367693304
 20
0.0036269943547609
 30
0.0
 11
37.51723902192366
 21
1.613432339345381
 31
0.0
  0
LINE
  5
1AFF9
330
1AFDA
100
AcDbEntity
  8
0
  6
CONTINUOUS
100
AcDbLine
 10
32.55309425579761
 20
0.5074718966376706
 30
0.0
 11
32.27784730925847
 21
0.7827188431768102
 31
0.0
  0
LINE
  5
1AFFA
330
1AFDA
100
AcDbEntity
  8
0
  6
CONTINUOUS
100
AcDbLine
 10
33.87496468909684
 20
-0.1408793275813673
 30
0.0
 11
31.67993083278052
 21
2.054154528734943
 31
0.0
  0
LINE
  5
1AFFB
330
1AFDA
100
AcDbEntity
  8
0
  6
CONTINUOUS
100
AcDbLine
 10
34.64362813207632
 20
-0.2360235614806649
 30
0.0
 11
31.64199999996833
 21
2.765604570627322
 31
0.0
  0
LINE
  5
1AFFC
330
1AFDA
100
AcDbEntity
  8
0
  6
CONTINUOUS
100
AcDbLine
 10
35.25801106796118
 20
-0.1768872882853429
 30
0.0
 11
31.64199999996833
 21
3.439123779707508
 31
0.0
  0
LINE
  5
1AFFD
330
1AFDA
100
AcDbEntity
  8
0
  6
CONTINUOUS
100
AcDbLine
 10
35.79065650332146
 20
-0.0360135145654361
 30
0.0
 11
34.54143210838231
 21
1.213210880373721
 31
0.0
  0
LINE
  5
1AFFE
330
1AFDA
100
AcDbEntity
  8
0
  6
CONTINUOUS
100
AcDbLine
 10
33.08199999996839
 20
2.67264298878764
 30
0.0
 11
31.64199999996833
 21
4.112642988787695
 31
0.0
  0
LINE
  5
1AFFF
330
1AFDA
100
AcDbEntity
  8
0
  6
CONTINUOUS
100
AcDbLine
 10
36.25975597779143
 20
0.1684062200447833
 30
0.0
 11
35.15395110240023
 21
1.274211095435983
 31
0.0
  0
LINE
  5
1B000
330
1AFDA
100
AcDbEntity
  8
0
  6
CONTINUOUS
100
AcDbLine
 10
33.08199999996839
 20
3.346162197867826
 30
0.0
 11
31.64199999996833
 21
4.786162197867881
 31
0.0
  0
LINE
  5
1B001
330
1AFDA
100
AcDbEntity
  8
0
  6
CONTINUOUS
100
AcDbLine
 10
36.67226329638774
 20
0.4294181105286579
 30
0.0
 11
35.63766478748767
 21
1.464016619428737
 31
0.0
  0
LINE
  5
1B002
330
1AFDA
100
AcDbEntity
  8
0
  6
CONTINUOUS
100
AcDbLine
 10
33.08199999996839
 20
4.019681406948012
 30
0.0
 11
31.64199999996833
 21
5.459681406948068
 31
0.0
  0
LINE
  5
1B003
330
1AFDA
100
AcDbEntity
  8
0
  6
CONTINUOUS
100
AcDbLine
 10
37.01677749710036
 20
0.7584231188962329
 30
0.0
 11
35.99563422741351
 21
1.779566388583076
 31
0.0
  0
LINE
  5
1B004
330
1AFDA
100
AcDbEntity
  8
0
  6
CONTINUOUS
100
AcDbLine
 10
33.08199999996839
 20
4.693200616028199
 30
0.0
 11
31.64199999996833
 21
6.133200616028255
 31
0.0
  0
LINE
  5
1B005
330
1AFDA
100
AcDbEntity
  8
0
  6
CONTINUOUS
100
AcDbLine
 10
37.29859977568887
 20
1.1501200493879
 30
0.0
 11
36.20680593341555
 21
2.241913891661226
 31
0.0
  0
LINE
  5
1B006
330
1AFDA
100
AcDbEntity
  8
0
  6
CONTINUOUS
100
AcDbLine
 10
33.08199999996839
 20
5.366719825108386
 30
0.0
 11
31.64199999996833
 21
6.80671982510844
 31
0.0
  0
LINE
  5
1B007
330
1AFDA
100
AcDbEntity
  8
0
  6
CONTINUOUS
100
AcDbLine
 10
37.5148623517228
 20
1.607376682434161
 30
0.0
 11
36.23199999996837
 21
2.890239034188594
 31
0.0
  0
LINE
  5
1B008
330
1AFDA
100
AcDbEntity
  8
0
  6
CONTINUOUS
100
AcDbLine
 10
33.08199999996839
 20
6.040239034188573
 30
0.0
 11
31.64199999996833
 21
7.480239034188627
 31
0.0
  0
LINE
  5
1B009
330
1AFDA
100
AcDbEntity
  8
0
  6
CONTINUOUS
100
AcDbLine
 10
37.64705163358367
 20
2.148706609653477
 30
0.0
 11
36.23199999996837
 21
3.56375824326878
 31
0.0
  0
LINE
  5
1B00A
330
1AFDA
100
AcDbEntity
  8
0
  6
CONTINUOUS
100
AcDbLine
 10
33.08199999996839
 20
6.713758243268758
 30
0.0
 11
31.64199999996833
 21
8.153758243268815
 31
0.0
  0
LINE
  5
1B00B
330
1AFDA
100
AcDbEntity
  8
0
  6
CONTINUOUS
100
AcDbLine
 10
37.67199999996831
 20
2.797277452349026
 30
0.0
 11
36.23199999996837
 21
4.237277452348967
 31
0.0
  0
LINE
  5
1B00C
330
1AFDA
100
AcDbEntity
  8
0
  6
CONTINUOUS
100
AcDbLine
 10
37.67199999996831
 20
3.470796661429213
 30
0.0
 11
36.23199999996837
 21
4.910796661429154
 31
0.0
  0
LINE
  5
1B00D
330
1AFDA
100
AcDbEntity
  8
0
  6
CONTINUOUS
100
AcDbLine
 10
37.67199999996831
 20
4.144315870509399
 30
0.0
 11
36.23199999996837
 21
5.58431587050934
 31
0.0
  0
LINE
  5
1B00E
330
1AFDA
100
AcDbEntity
  8
0
  6
CONTINUOUS
100
AcDbLine
 10
33.08199999996839
 20
7.387277452348945
 30
0.0
 11
31.70617745232608
 21
8.763099999991255
 31
0.0
  0
LINE
  5
1B00F
330
1AFDA
100
AcDbEntity
  8
0
  6
CONTINUOUS
100
AcDbLine
 10
33.08199999996839
 20
8.060796661429132
 30
0.0
 11
32.37969666140626
 21
8.763099999991255
 31
0.0
  0
LINE
  5
1B010
330
1AFDA
100
AcDbEntity
  8
0
  6
CONTINUOUS
100
AcDbLine
 10
33.08199999996839
 20
8.734315870509318
 30
0.0
 11
33.05321587048645
 21
8.763099999991255
 31
0.0
  0
LINE
  5
1B011
330
1AFDA
100
AcDbEntity
  8
0
  6
CONTINUOUS
100
AcDbLine
 10
37.67199999996831
 20
4.817835079589585
 30
0.0
 11
36.23199999996837
 21
6.257835079589526
 31
0.0
  0
LINE
  5
1B012
330
1AFDA
100
AcDbEntity
  8
0
  6
CONTINUOUS
100
AcDbLine
 10
37.67199999996831
 20
5.491354288669771
 30
0.0
 11
36.23199999996837
 21
6.931354288669713
 31
0.0
  0
LINE
  5
1B013
330
1AFDA
100
AcDbEntity
  8
0
  6
CONTINUOUS
100
AcDbLine
 10
37.67199999996831
 20
6.164873497749958
 30
0.0
 11
36.23199999996837
 21
7.6048734977499
 31
0.0
  0
LINE
  5
1B014
330
1AFDA
100
AcDbEntity
  8
0
  6
CONTINUOUS
100
AcDbLine
 10
37.67199999996831
 20
6.838392706830144
 30
0.0
 11
36.23199999996837
 21
8.278392706830086
 31
0.0
  0
LINE
  5
1B015
330
1AFDA
100
AcDbEntity
  8
0
  6
CONTINUOUS
100
AcDbLine
 10
37.67199999996831
 20
7.511911915910332
 30
0.0
 11
36.42081191588738
 21
8.763099999991255
 31
0.0
  0
LINE
  5
1B016
330
1AFDA
100
AcDbEntity
  8
0
  6
CONTINUOUS
100
AcDbLine
 10
37.67199999996831
 20
8.185431124990519
 30
0.0
 11
37.09433112496757
 21
8.763099999991255
 31
0.0
  0
ENDBLK
  5
1B07E
330
1AFDA
100
AcDbEntity
  8
0
100
AcDbBlockEnd
  0
BLOCK
  5
1B07F
330
1B017
100
AcDbEntity
  8
0
100
AcDbBlockBegin
  2
*X55
 70
     1
 10
0.0
 20
0.0
 30
0.0
  3
*X55
  1

  0
LINE
  5
1B018
330
1B017
100
AcDbEntity
  8
0
  6
CONTINUOUS
100
AcDbLine
 10
38.60499999996136
 20
8.762866199104765
 30
0.0
 11
38.71672554182345
 21
8.874591740966855
 31
0.0
  0
LINE
  5
1B019
330
1B017
100
AcDbEntity
  8
0
  6
CONTINUOUS
100
AcDbLine
 10
38.60499999996136
 20
8.089346990024577
 30
0.0
 11
39.03418785440363
 21
8.518534844466847
 31
0.0
  0
LINE
  5
1B01A
330
1B017
100
AcDbEntity
  8
0
  6
CONTINUOUS
100
AcDbLine
 10
38.60499999996136
 20
7.41582778094439
 30
0.0
 11
39.35165016698382
 21
8.16247794796684
 31
0.0
  0
LINE
  5
1B01B
330
1B017
100
AcDbEntity
  8
0
  6
CONTINUOUS
100
AcDbLine
 10
38.60499999996136
 20
6.742308571864204
 30
0.0
 11
39.66911247956399
 21
7.806421051466834
 31
0.0
  0
LINE
  5
1B01C
330
1B017
100
AcDbEntity
  8
0
  6
CONTINUOUS
100
AcDbLine
 10
38.60499999996136
 20
6.068789362784018
 30
0.0
 11
39.98657479214418
 21
7.450364154966827
 31
0.0
  0
LINE
  5
1B01D
330
1B017
100
AcDbEntity
  8
0
  6
CONTINUOUS
100
AcDbLine
 10
38.60499999996136
 20
5.395270153703832
 30
0.0
 11
40.30403710472435
 21
7.09430725846682
 31
0.0
  0
LINE
  5
1B01E
330
1B017
100
AcDbEntity
  8
0
  6
CONTINUOUS
100
AcDbLine
 10
38.60499999996136
 20
4.721750944623645
 30
0.0
 11
40.62149941730453
 21
6.738250361966813
 31
0.0
  0
LINE
  5
1B01F
330
1B017
100
AcDbEntity
  8
0
  6
CONTINUOUS
100
AcDbLine
 10
38.60499999996136
 20
4.048231735543458
 30
0.0
 11
40.93896172988471
 21
6.382193465466806
 31
0.0
  0
LINE
  5
1B020
330
1B017
100
AcDbEntity
  8
0
  6
CONTINUOUS
100
AcDbLine
 10
38.60499999996136
 20
3.374712526463272
 30
0.0
 11
40.02599999995994
 21
4.795712526461843
 31
0.0
  0
LINE
  5
1B021
330
1B017
100
AcDbEntity
  8
0
  6
CONTINUOUS
100
AcDbLine
 10
38.60499999996136
 20
2.701193317383085
 30
0.0
 11
40.02599999995994
 21
4.122193317381657
 31
0.0
  0
LINE
  5
1B022
330
1B017
100
AcDbEntity
  8
0
  6
CONTINUOUS
100
AcDbLine
 10
40.28339754687704
 20
5.053110073378947
 30
0.0
 11
41.25642404246489
 21
6.026136568966799
 31
0.0
  0
LINE
  5
1B023
330
1B017
100
AcDbEntity
  8
0
  6
CONTINUOUS
100
AcDbLine
 10
40.60085985945722
 20
4.697053176878939
 30
0.0
 11
41.57388635504507
 21
5.670079672466793
 31
0.0
  0
LINE
  5
1B024
330
1B017
100
AcDbEntity
  8
0
  6
CONTINUOUS
100
AcDbLine
 10
43.57899999995641
 20
8.348712526458318
 30
0.0
 11
43.99338747348935
 21
8.763099999991255
 31
0.0
  0
LINE
  5
1B025
330
1B017
100
AcDbEntity
  8
0
  6
CONTINUOUS
100
AcDbLine
 10
43.57899999995641
 20
7.675193317378131
 30
0.0
 11
44.66690668256953
 21
8.763099999991255
 31
0.0
  0
LINE
  5
1B026
330
1B017
100
AcDbEntity
  8
0
  6
CONTINUOUS
100
AcDbLine
 10
38.60499999996136
 20
2.027674108302898
 30
0.0
 11
40.02599999995994
 21
3.44867410830147
 31
0.0
  0
LINE
  5
1B027
330
1B017
100
AcDbEntity
  8
0
  6
CONTINUOUS
100
AcDbLine
 10
38.60499999996136
 20
1.354154899222712
 30
0.0
 11
40.02599999995994
 21
2.775154899221284
 31
0.0
  0
LINE
  5
1B028
330
1B017
100
AcDbEntity
  8
0
  6
CONTINUOUS
100
AcDbLine
 10
38.60499999996136
 20
0.6806356901425255
 30
0.0
 11
40.02599999995994
 21
2.101635690141098
 31
0.0
  0
LINE
  5
1B029
330
1B017
100
AcDbEntity
  8
0
  6
CONTINUOUS
100
AcDbLine
 10
38.60499999996136
 20
0.0071164810623383
 30
0.0
 11
40.02599999995994
 21
1.428116481060911
 31
0.0
  0
LINE
  5
1B02A
330
1B017
100
AcDbEntity
  8
0
  6
CONTINUOUS
100
AcDbLine
 10
40.9183221720374
 20
4.340996280378933
 30
0.0
 11
41.89134866762525
 21
5.314022775966786
 31
0.0
  0
LINE
  5
1B02B
330
1B017
100
AcDbEntity
  8
0
  6
CONTINUOUS
100
AcDbLine
 10
41.23578448461758
 20
3.984939383878926
 30
0.0
 11
42.20881098020543
 21
4.957965879466778
 31
0.0
  0
LINE
  5
1B02C
330
1B017
100
AcDbEntity
  8
0
  6
CONTINUOUS
100
AcDbLine
 10
41.55324679719776
 20
3.628882487378919
 30
0.0
 11
42.52627329278561
 21
4.601908982966772
 31
0.0
  0
LINE
  5
1B02D
330
1B017
100
AcDbEntity
  8
0
  6
CONTINUOUS
100
AcDbLine
 10
41.87070910977793
 20
3.272825590878912
 30
0.0
 11
42.84373560536579
 21
4.245852086466765
 31
0.0
  0
LINE
  5
1B02E
330
1B017
100
AcDbEntity
  8
0
  6
CONTINUOUS
100
AcDbLine
 10
43.57899999995641
 20
7.001674108297943
 30
0.0
 11
44.99999999995498
 21
8.422674108296516
 31
0.0
  0
LINE
  5
1B02F
330
1B017
100
AcDbEntity
  8
0
  6
CONTINUOUS
100
AcDbLine
 10
43.57899999995641
 20
6.328154899217758
 30
0.0
 11
44.99999999995498
 21
7.749154899216329
 31
0.0
  0
LINE
  5
1B030
330
1B017
100
AcDbEntity
  8
0
  6
CONTINUOUS
100
AcDbLine
 10
43.57899999995641
 20
5.654635690137571
 30
0.0
 11
44.99999999995498
 21
7.075635690136142
 31
0.0
  0
LINE
  5
1B031
330
1B017
100
AcDbEntity
  8
0
  6
CONTINUOUS
100
AcDbLine
 10
43.57899999995641
 20
4.981116481057384
 30
0.0
 11
44.99999999995498
 21
6.402116481055955
 31
0.0
  0
LINE
  5
1B032
330
1B017
100
AcDbEntity
  8
0
  6
CONTINUOUS
100
AcDbLine
 10
39.27140272797921
 20
-0.0000000000000009
 30
0.0
 11
40.02599999995994
 21
0.7545972719807246
 31
0.0
  0
LINE
  5
1B033
330
1B017
100
AcDbEntity
  8
0
  6
CONTINUOUS
100
AcDbLine
 10
39.9449219370594
 20
-0.0000000000000009
 30
0.0
 11
40.02599999995994
 21
0.0810780629005379
 31
0.0
  0
LINE
  5
1B034
330
1B017
100
AcDbEntity
  8
0
  6
CONTINUOUS
100
AcDbLine
 10
42.18817142235812
 20
2.916768694378905
 30
0.0
 11
43.16119791794597
 21
3.889795189966758
 31
0.0
  0
LINE
  5
1B035
330
1B017
100
AcDbEntity
  8
0
  6
CONTINUOUS
100
AcDbLine
 10
42.50563373493829
 20
2.560711797878898
 30
0.0
 11
43.47866023052615
 21
3.533738293466751
 31
0.0
  0
LINE
  5
1B036
330
1B017
100
AcDbEntity
  8
0
  6
CONTINUOUS
100
AcDbLine
 10
43.57899999995641
 20
4.307597271977198
 30
0.0
 11
44.99999999995498
 21
5.728597271975769
 31
0.0
  0
LINE
  5
1B037
330
1B017
100
AcDbEntity
  8
0
  6
CONTINUOUS
100
AcDbLine
 10
43.57899999995641
 20
3.634078062897011
 30
0.0
 11
44.99999999995498
 21
5.055078062895582
 31
0.0
  0
LINE
  5
1B038
330
1B017
100
AcDbEntity
  8
0
  6
CONTINUOUS
100
AcDbLine
 10
42.82309604751848
 20
2.204654901378891
 30
0.0
 11
44.99999999995498
 21
4.381558853815395
 31
0.0
  0
LINE
  5
1B039
330
1B017
100
AcDbEntity
  8
0
  6
CONTINUOUS
100
AcDbLine
 10
43.14055836009865
 20
1.848598004878885
 30
0.0
 11
44.99999999995498
 21
3.70803964473521
 31
0.0
  0
LINE
  5
1B03A
330
1B017
100
AcDbEntity
  8
0
  6
CONTINUOUS
100
AcDbLine
 10
43.45802067267883
 20
1.492541108378878
 30
0.0
 11
44.99999999995498
 21
3.034520435655023
 31
0.0
  0
LINE
  5
1B03B
330
1B017
100
AcDbEntity
  8
0
  6
CONTINUOUS
100
AcDbLine
 10
43.77548298525902
 20
1.136484211878871
 30
0.0
 11
44.99999999995498
 21
2.361001226574837
 31
0.0
  0
LINE
  5
1B03C
330
1B017
100
AcDbEntity
  8
0
  6
CONTINUOUS
100
AcDbLine
 10
44.09294529783919
 20
0.7804273153788639
 30
0.0
 11
44.99999999995498
 21
1.687482017494649
 31
0.0
  0
LINE
  5
1B03D
330
1B017
100
AcDbEntity
  8
0
  6
CONTINUOUS
100
AcDbLine
 10
44.41040761041938
 20
0.4243704188788566
 30
0.0
 11
44.99999999995498
 21
1.013962808414463
 31
0.0
  0
LINE
  5
1B03E
330
1B017
100
AcDbEntity
  8
0
  6
CONTINUOUS
100
AcDbLine
 10
44.72786992299955
 20
0.0683135223788494
 30
0.0
 11
44.99999999995498
 21
0.340443599334276
 31
0.0
  0
LINE
  5
1B03F
330
1B017
100
AcDbEntity
  8
0
  6
CONTINUOUS
100
AcDbLine
 10
39.12223903415696
 20
-0.0000000000000009
 30
0.0
 11
38.60499999996136
 21
0.5172390341955961
 31
0.0
  0
LINE
  5
1B040
330
1B017
100
AcDbEntity
  8
0
  6
CONTINUOUS
100
AcDbLine
 10
39.79575824323715
 20
-0.0000000000000009
 30
0.0
 11
38.60499999996136
 21
1.190758243275783
 31
0.0
  0
LINE
  5
1B041
330
1B017
100
AcDbEntity
  8
0
  6
CONTINUOUS
100
AcDbLine
 10
40.02599999995994
 20
0.443277452357397
 30
0.0
 11
38.60499999996136
 21
1.864277452355969
 31
0.0
  0
LINE
  5
1B042
330
1B017
100
AcDbEntity
  8
0
  6
CONTINUOUS
100
AcDbLine
 10
40.02599999995994
 20
1.116796661437583
 30
0.0
 11
38.60499999996136
 21
2.537796661436155
 31
0.0
  0
LINE
  5
1B043
330
1B017
100
AcDbEntity
  8
0
  6
CONTINUOUS
100
AcDbLine
 10
40.02599999995994
 20
1.79031587051777
 30
0.0
 11
38.60499999996136
 21
3.211315870516341
 31
0.0
  0
LINE
  5
1B044
330
1B017
100
AcDbEntity
  8
0
  6
CONTINUOUS
100
AcDbLine
 10
40.02599999995994
 20
2.463835079597956
 30
0.0
 11
38.60499999996136
 21
3.884835079596527
 31
0.0
  0
LINE
  5
1B045
330
1B017
100
AcDbEntity
  8
0
  6
CONTINUOUS
100
AcDbLine
 10
40.02599999995994
 20
3.137354288678143
 30
0.0
 11
38.60499999996136
 21
4.558354288676714
 31
0.0
  0
LINE
  5
1B046
330
1B017
100
AcDbEntity
  8
0
  6
CONTINUOUS
100
AcDbLine
 10
40.02599999995994
 20
3.810873497758329
 30
0.0
 11
38.60499999996136
 21
5.2318734977569
 31
0.0
  0
LINE
  5
1B047
330
1B017
100
AcDbEntity
  8
0
  6
CONTINUOUS
100
AcDbLine
 10
40.02599999995994
 20
4.484392706838515
 30
0.0
 11
38.60499999996136
 21
5.905392706837086
 31
0.0
  0
LINE
  5
1B048
330
1B017
100
AcDbEntity
  8
0
  6
CONTINUOUS
100
AcDbLine
 10
44.99999999995498
 20
0.183911915923658
 30
0.0
 11
41.53858364506288
 21
3.64532827081576
 31
0.0
  0
LINE
  5
1B049
330
1B017
100
AcDbEntity
  8
0
  6
CONTINUOUS
100
AcDbLine
 10
40.02599999995994
 20
5.157911915918703
 30
0.0
 11
38.60499999996136
 21
6.578911915917274
 31
0.0
  0
LINE
  5
1B04A
330
1B017
100
AcDbEntity
  8
0
  6
CONTINUOUS
100
AcDbLine
 10
44.99999999995498
 20
0.8574311250038447
 30
0.0
 11
38.60499999996136
 21
7.25243112499746
 31
0.0
  0
LINE
  5
1B04B
330
1B017
100
AcDbEntity
  8
0
  6
CONTINUOUS
100
AcDbLine
 10
44.99999999995498
 20
1.530950334084031
 30
0.0
 11
38.60499999996136
 21
7.925950334077647
 31
0.0
  0
LINE
  5
1B04C
330
1B017
100
AcDbEntity
  8
0
  6
CONTINUOUS
100
AcDbLine
 10
44.99999999995498
 20
2.204469543164218
 30
0.0
 11
43.57899999995641
 21
3.625469543162789
 31
0.0
  0
LINE
  5
1B04D
330
1B017
100
AcDbEntity
  8
0
  6
CONTINUOUS
100
AcDbLine
 10
41.89876730984767
 20
5.305702233271528
 30
0.0
 11
38.60499999996136
 21
8.599469543157834
 31
0.0
  0
LINE
  5
1B04E
330
1B017
100
AcDbEntity
  8
0
  6
CONTINUOUS
100
AcDbLine
 10
44.99999999995498
 20
2.877988752244405
 30
0.0
 11
43.57899999995641
 21
4.298988752242975
 31
0.0
  0
LINE
  5
1B04F
330
1B017
100
AcDbEntity
  8
0
  6
CONTINUOUS
100
AcDbLine
 10
44.99999999995498
 20
3.551507961324591
 30
0.0
 11
43.57899999995641
 21
4.972507961323163
 31
0.0
  0
LINE
  5
1B050
330
1B017
100
AcDbEntity
  8
0
  6
CONTINUOUS
100
AcDbLine
 10
44.99999999995498
 20
4.225027170404777
 30
0.0
 11
43.57899999995641
 21
5.646027170403348
 31
0.0
  0
LINE
  5
1B051
330
1B017
100
AcDbEntity
  8
0
  6
CONTINUOUS
100
AcDbLine
 10
44.99999999995498
 20
4.898546379484964
 30
0.0
 11
43.57899999995641
 21
6.319546379483535
 31
0.0
  0
LINE
  5
1B052
330
1B017
100
AcDbEntity
  8
0
  6
CONTINUOUS
100
AcDbLine
 10
44.99999999995498
 20
5.572065588565151
 30
0.0
 11
43.57899999995641
 21
6.993065588563722
 31
0.0
  0
LINE
  5
1B053
330
1B017
100
AcDbEntity
  8
0
  6
CONTINUOUS
100
AcDbLine
 10
44.99999999995498
 20
6.245584797645336
 30
0.0
 11
43.57899999995641
 21
7.666584797643908
 31
0.0
  0
LINE
  5
1B054
330
1B017
100
AcDbEntity
  8
0
  6
CONTINUOUS
100
AcDbLine
 10
44.99999999995498
 20
6.919104006725522
 30
0.0
 11
43.57899999995641
 21
8.340104006724093
 31
0.0
  0
LINE
  5
1B055
330
1B017
100
AcDbEntity
  8
0
  6
CONTINUOUS
100
AcDbLine
 10
44.99999999995498
 20
7.592623215805709
 30
0.0
 11
43.82952321576943
 21
8.763099999991255
 31
0.0
  0
LINE
  5
1B056
330
1B017
100
AcDbEntity
  8
0
  6
CONTINUOUS
100
AcDbLine
 10
44.99999999995498
 20
8.266142424885896
 30
0.0
 11
44.50304242484962
 21
8.763099999991255
 31
0.0
  0
ENDBLK
  5
1B080
330
1B017
100
AcDbEntity
  8
0
100
AcDbBlockEnd
  0
BLOCK
  5
1B081
330
1B057
100
AcDbEntity
  8
0
100
AcDbBlockBegin
  2
*X56
 70
     1
 10
0.0
 20
0.0
 30
0.0
  3
*X56
  1

  0
LINE
  5
1B058
330
1B057
100
AcDbEntity
  8
0
  6
CONTINUOUS
100
AcDbLine
 10
0.0
 20
8.548461116714023
 30
0.0
 11
0.2146388832772324
 21
8.763099999991255
 31
0.0
  0
LINE
  5
1B059
330
1B057
100
AcDbEntity
  8
0
  6
CONTINUOUS
100
AcDbLine
 10
-0.0000000000000002
 20
7.874941907633837
 30
0.0
 11
0.8881580923574184
 21
8.763099999991255
 31
0.0
  0
LINE
  5
1B05A
330
1B057
100
AcDbEntity
  8
0
  6
CONTINUOUS
100
AcDbLine
 10
0.0
 20
7.20142269855365
 30
0.0
 11
1.420999999998572
 21
8.622422698552223
 31
0.0
  0
LINE
  5
1B05B
330
1B057
100
AcDbEntity
  8
0
  6
CONTINUOUS
100
AcDbLine
 10
-0.0000000000000001
 20
6.527903489473465
 30
0.0
 11
1.420999999998571
 21
7.948903489472036
 31
0.0
  0
LINE
  5
1B05C
330
1B057
100
AcDbEntity
  8
0
  6
CONTINUOUS
100
AcDbLine
 10
-0.0000000000000002
 20
5.854384280393278
 30
0.0
 11
1.420999999998571
 21
7.275384280391849
 31
0.0
  0
LINE
  5
1B05D
330
1B057
100
AcDbEntity
  8
0
  6
CONTINUOUS
100
AcDbLine
 10
-0.0000000000000002
 20
5.180865071313091
 30
0.0
 11
1.420999999998571
 21
6.601865071311663
 31
0.0
  0
LINE
  5
1B05E
330
1B057
100
AcDbEntity
  8
0
  6
CONTINUOUS
100
AcDbLine
 10
0.0
 20
4.507345862232905
 30
0.0
 11
1.420999999998571
 21
5.928345862231477
 31
0.0
  0
LINE
  5
1B05F
330
1B057
100
AcDbEntity
  8
0
  6
CONTINUOUS
100
AcDbLine
 10
-0.0000000000000003
 20
3.833826653152718
 30
0.0
 11
1.420999999998571
 21
5.25482665315129
 31
0.0
  0
LINE
  5
1B060
330
1B057
100
AcDbEntity
  8
0
  6
CONTINUOUS
100
AcDbLine
 10
-0.0000000000000002
 20
3.160307444072532
 30
0.0
 11
1.420999999998571
 21
4.581307444071103
 31
0.0
  0
LINE
  5
1B061
330
1B057
100
AcDbEntity
  8
0
  6
CONTINUOUS
100
AcDbLine
 10
-0.0000000000000001
 20
2.486788234992345
 30
0.0
 11
1.420999999998571
 21
3.907788234990917
 31
0.0
  0
LINE
  5
1B062
330
1B057
100
AcDbEntity
  8
0
  6
CONTINUOUS
100
AcDbLine
 10
-0.0000000000000006
 20
1.813269025912159
 30
0.0
 11
1.420999999998571
 21
3.234269025910731
 31
0.0
  0
LINE
  5
1B063
330
1B057
100
AcDbEntity
  8
0
  6
CONTINUOUS
100
AcDbLine
 10
0.0
 20
1.139749816831973
 30
0.0
 11
1.420999999998571
 21
2.560749816830544
 31
0.0
  0
LINE
  5
1B064
330
1B057
100
AcDbEntity
  8
0
  6
CONTINUOUS
100
AcDbLine
 10
0.0000000000000002
 20
0.466230607751787
 30
0.0
 11
1.420999999998571
 21
1.887230607750358
 31
0.0
  0
LINE
  5
1B065
330
1B057
100
AcDbEntity
  8
0
  6
CONTINUOUS
100
AcDbLine
 10
0.2072886013284003
 20
-0.0000000000000009
 30
0.0
 11
1.420999999998571
 21
1.213711398670171
 31
0.0
  0
LINE
  5
1B066
330
1B057
100
AcDbEntity
  8
0
  6
CONTINUOUS
100
AcDbLine
 10
0.8808078104085864
 20
-0.0000000000000009
 30
0.0
 11
1.420999999998571
 21
0.5401921895899839
 31
0.0
  0
LINE
  5
1B067
330
1B057
100
AcDbEntity
  8
0
  6
CONTINUOUS
100
AcDbLine
 10
0.0581249075061505
 20
-0.0000000000000009
 30
0.0
 11
-0.0000000000000002
 21
0.0581249075061496
 31
0.0
  0
LINE
  5
1B068
330
1B057
100
AcDbEntity
  8
0
  6
CONTINUOUS
100
AcDbLine
 10
0.7316441165863372
 20
-0.0000000000000009
 30
0.0
 11
-0.0000000000000002
 21
0.7316441165863363
 31
0.0
  0
LINE
  5
1B069
330
1B057
100
AcDbEntity
  8
0
  6
CONTINUOUS
100
AcDbLine
 10
1.405163325666523
 20
-0.0000000000000009
 30
0.0
 11
-0.0000000000000002
 21
1.405163325666523
 31
0.0
  0
LINE
  5
1B06A
330
1B057
100
AcDbEntity
  8
0
  6
CONTINUOUS
100
AcDbLine
 10
1.420999999998572
 20
0.6576825347481381
 30
0.0
 11
-0.0000000000000001
 21
2.07868253474671
 31
0.0
  0
LINE
  5
1B06B
330
1B057
100
AcDbEntity
  8
0
  6
CONTINUOUS
100
AcDbLine
 10
1.420999999998571
 20
1.331201743828324
 30
0.0
 11
-0.0000000000000001
 21
2.752201743826896
 31
0.0
  0
LINE
  5
1B06C
330
1B057
100
AcDbEntity
  8
0
  6
CONTINUOUS
100
AcDbLine
 10
1.420999999998571
 20
2.004720952908511
 30
0.0
 11
-0.0000000000000002
 21
3.425720952907082
 31
0.0
  0
LINE
  5
1B06D
330
1B057
100
AcDbEntity
  8
0
  6
CONTINUOUS
100
AcDbLine
 10
1.420999999998571
 20
2.678240161988697
 30
0.0
 11
-0.0000000000000001
 21
4.099240161987269
 31
0.0
  0
LINE
  5
1B06E
330
1B057
100
AcDbEntity
  8
0
  6
CONTINUOUS
100
AcDbLine
 10
1.420999999998572
 20
3.351759371068884
 30
0.0
 11
0.0
 21
4.772759371067455
 31
0.0
  0
LINE
  5
1B06F
330
1B057
100
AcDbEntity
  8
0
  6
CONTINUOUS
100
AcDbLine
 10
1.420999999998571
 20
4.02527858014907
 30
0.0
 11
-0.0000000000000003
 21
5.446278580147642
 31
0.0
  0
LINE
  5
1B070
330
1B057
100
AcDbEntity
  8
0
  6
CONTINUOUS
100
AcDbLine
 10
1.420999999998571
 20
4.698797789229257
 30
0.0
 11
0.0
 21
6.119797789227828
 31
0.0
  0
LINE
  5
1B071
330
1B057
100
AcDbEntity
  8
0
  6
CONTINUOUS
100
AcDbLine
 10
1.420999999998571
 20
5.372316998309444
 30
0.0
 11
-0.0000000000000001
 21
6.793316998308015
 31
0.0
  0
LINE
  5
1B072
330
1B057
100
AcDbEntity
  8
0
  6
CONTINUOUS
100
AcDbLine
 10
1.420999999998572
 20
6.045836207389629
 30
0.0
 11
-0.0000000000000004
 21
7.466836207388202
 31
0.0
  0
LINE
  5
1B073
330
1B057
100
AcDbEntity
  8
0
  6
CONTINUOUS
100
AcDbLine
 10
1.420999999998571
 20
6.719355416469816
 30
0.0
 11
0.0
 21
8.140355416468388
 31
0.0
  0
LINE
  5
1B074
330
1B057
100
AcDbEntity
  8
0
  6
CONTINUOUS
100
AcDbLine
 10
1.420999999998571
 20
7.392874625550003
 30
0.0
 11
0.0507746255573185
 21
8.763099999991255
 31
0.0
  0
LINE
  5
1B075
330
1B057
100
AcDbEntity
  8
0
  6
CONTINUOUS
100
AcDbLine
 10
1.420999999998571
 20
8.06639383463019
 30
0.0
 11
0.7242938346375052
 21
8.763099999991255
 31
0.0
  0
LINE
  5
1B076
330
1B057
100
AcDbEntity
  8
0
  6
CONTINUOUS
100
AcDbLine
 10
1.420999999998571
 20
8.739913043710375
 30
0.0
 11
1.397813043717691
 21
8.763099999991255
 31
0.0
  0
ENDBLK
  5
1B082
330
1B057
100
AcDbEntity
  8
0
100
AcDbBlockEnd
  0
ENDSEC
  0
SECTION
  2
ENTITIES
  0
LINE
  5
1AA33
330
18
100
AcDbEntity
  8
01
100
AcDbLine
 10
2812.441837739548
 20
-202.8605797929363
 30
0.0
 11
2812.441837739548
 21
-176.8605797929363
 31
0.0
  0
CIRCLE
  5
1AA34
330
18
100
AcDbEntity
  8
01
100
AcDbCircle
 10
2812.441837739548
 20
-189.8605797929361
 30
0.0
 40
11.30000000000109
  0
LINE
  5
1AA35
330
18
100
AcDbEntity
  8
01
100
AcDbLine
 10
2814.941837739548
 20
-179.5528208221351
 30
0.0
 11
2814.941837739548
 21
-200.168338763737
 31
0.0
  0
LINE
  5
1AA36
330
18
100
AcDbEntity
  8
01
100
AcDbLine
 10
2809.941837739548
 20
-179.5528208221351
 30
0.0
 11
2809.941837739548
 21
-200.168338763737
 31
0.0
  0
ARC
  5
1AA37
330
18
100
AcDbEntity
  8
01
100
AcDbCircle
 10
2810.441837739548
 20
-179.5528208221351
 30
0.0
 40
0.5
100
AcDbArc
 50
100.9805807214292
 51
180.0
  0
ARC
  5
1AA38
330
18
100
AcDbEntity
  8
01
100
AcDbCircle
 10
2814.441837739548
 20
-179.5528208221351
 30
0.0
 40
0.5
100
AcDbArc
 50
0.0
 51
79.01941927857082
  0
ARC
  5
1AA39
330
18
100
AcDbEntity
  8
01
100
AcDbCircle
 10
2810.441837739548
 20
-200.168338763737
 30
0.0
 40
0.5
100
AcDbArc
 50
180.0
 51
259.0194192785708
  0
ARC
  5
1AA3A
330
18
100
AcDbEntity
  8
01
100
AcDbCircle
 10
2814.441837739548
 20
-200.168338763737
 30
0.0
 40
0.5
100
AcDbArc
 50
280.9805807214292
 51
0.0
  0
CIRCLE
  5
1AA3B
330
18
100
AcDbEntity
  8
01
100
AcDbCircle
 10
2812.441837739548
 20
-189.8605797929361
 30
0.0
 40
11.0
  0
CIRCLE
  5
1AA3C
330
18
100
AcDbEntity
  8
01
100
AcDbCircle
 10
3152.441733400095
 20
-189.8605795888082
 30
0.0
 40
3.75
  0
CIRCLE
  5
1AA3D
330
18
100
AcDbEntity
  8
01
100
AcDbCircle
 10
3152.441733400095
 20
-189.8605797929361
 30
0.0
 40
3.5000005
  0
LINE
  5
1AA3E
330
18
100
AcDbEntity
  8
01
100
AcDbLine
 10
3153.441733400095
 20
-193.214682592936
 30
0.0
 11
3153.441733400095
 21
-186.506475792936
 31
0.0
  0
LINE
  5
1AA3F
330
18
100
AcDbEntity
  8
01
100
AcDbLine
 10
3151.441733400095
 20
-193.214682592936
 30
0.0
 11
3151.441733400095
 21
-186.506475792936
 31
0.0
  0
LINE
  5
1AA40
330
18
100
AcDbEntity
  8
01
100
AcDbLine
 10
2799.441837739548
 20
-189.8605797929361
 30
0.0
 11
2825.441837739548
 21
-189.8605797929361
 31
0.0
  0
LINE
  5
1AA41
330
18
100
AcDbEntity
  8
01
100
AcDbLine
 10
2939.538430571328
 20
-178.860561339063
 30
0.0000000000023235
 11
2953.94184173955
 21
-178.8605613390625
 31
0.0000000000023235
  0
LINE
  5
1AA42
330
18
100
AcDbEntity
  8
01
100
AcDbLine
 10
2953.038453515539
 20
-200.3605613390625
 30
0.0000000000023235
 11
2953.038453515533
 21
-179.3605613390625
 31
0.0000000000023235
  0
LINE
  5
1AA43
330
18
100
AcDbEntity
  8
01
100
AcDbLine
 10
2939.538430571328
 20
-200.8605613390621
 30
0.0000000000023235
 11
2953.94184173955
 21
-200.8605613390621
 31
0.0000000000023235
  0
ARC
  5
1AA44
330
18
100
AcDbEntity
  8
01
100
AcDbCircle
 10
2939.538430571328
 20
-199.860561339063
 30
0.0000000000023235
 40
1.0
100
AcDbArc
 50
180.0
 51
270.0
  0
LINE
  5
1AA45
330
18
100
AcDbEntity
  8
01
100
AcDbLine
 10
2938.538430571328
 20
-199.860561339063
 30
0.0000000000023235
 11
2938.538430571328
 21
-179.8605613390653
 31
0.0000000000023235
  0
ARC
  5
1AA46
330
18
100
AcDbEntity
  8
01
100
AcDbCircle
 10
2939.538430571328
 20
-179.8605613390653
 30
0.0000000000023235
 40
1.0
100
AcDbArc
 50
90.0
 51
180.0
  0
ARC
  5
1AA47
330
18
100
AcDbEntity
  8
01
100
AcDbCircle
 10
2953.538453515533
 20
-200.3605613390621
 30
0.0000000000023235
 40
0.5
100
AcDbArc
 50
180.0
 51
270.0
  0
ARC
  5
1AA48
330
18
100
AcDbEntity
  8
01
100
AcDbCircle
 10
2953.538453515533
 20
-179.3605613390625
 30
0.0000000000023235
 40
0.5
100
AcDbArc
 50
90.0
 51
180.0
  0
LINE
  5
1AA49
330
18
100
AcDbEntity
  8
01
100
AcDbLine
 10
2939.538430571328
 20
-200.8605613390621
 30
0.0000000000023235
 11
2939.538430571328
 21
-200.8591712088703
 31
0.0000000000023235
  0
LINE
  5
1AA4A
330
18
100
AcDbEntity
  8
01
100
AcDbLine
 10
3011.615244046259
 20
-193.3605605985651
 30
0.0
 11
3010.94184173955
 21
-193.3605606218728
 31
0.0
  0
LINE
  5
1AA4B
330
18
100
AcDbEntity
  8
01
100
AcDbLine
 10
3011.615243803977
 20
-186.3605605985651
 30
0.0
 11
3010.94184173955
 21
-186.3605606218728
 31
0.0
  0
ARC
  5
1AA4C
330
18
100
AcDbEntity
  8
01
100
AcDbCircle
 10
3006.768858487341
 20
-189.8482732306895
 30
0.0
 40
5.970892950694182
100
AcDbArc
 50
323.9681518085879
 51
35.74077826093781
  0
LINE
  5
1AA4F
330
18
100
AcDbEntity
  8
01
100
AcDbLine
 10
3151.441840478008
 20
0.2896479754713255
 30
0.0
 11
3151.441840420247
 21
1.639420206035084
 31
0.0
  0
ARC
  5
1AA50
330
18
100
AcDbEntity
  8
01
100
AcDbCircle
 10
3153.74183946533
 20
0.2896480654621882
 30
0.0
 40
0.3000000099999999
100
AcDbArc
 50
179.9999989830693
 51
283.1834819831254
  0
ARC
  5
1AA51
330
18
100
AcDbEntity
  8
01
100
AcDbCircle
 10
3152.441840273242
 20
5.839418020467292
 30
0.0
 40
5.999999999999999
100
AcDbArc
 50
234.3146679830432
 51
256.8165199831201
  0
ARC
  5
1AA52
330
18
100
AcDbEntity
  8
01
100
AcDbCircle
 10
3151.141837465329
 20
0.2896479754713255
 30
0.0
 40
0.3000000099999999
100
AcDbArc
 50
256.816519983147
 51
0.0000019831386408
  0
LINE
  5
1AA53
330
18
100
AcDbEntity
  8
01
100
AcDbLine
 10
3148.941840441919
 20
0.9660178993258342
 30
0.0
 11
3148.941840418612
 21
1.639420206035084
 31
0.0
  0
LINE
  5
1AA54
330
18
100
AcDbEntity
  8
01
100
AcDbLine
 10
3155.941840441919
 20
0.9660181416079467
 30
0.0
 11
3155.941840418612
 21
1.639420206035084
 31
0.0
  0
ARC
  5
1AA55
330
18
100
AcDbEntity
  8
01
100
AcDbCircle
 10
3152.454127809794
 20
5.812403458244717
 30
0.0
 40
5.970892950694182
100
AcDbArc
 50
283.1278047888422
 51
305.7407782610029
  0
LINE
  5
1AA56
330
18
100
AcDbEntity
  8
01
100
AcDbLine
 10
3153.441840465357
 20
0.2888695956294214
 30
0.0
 11
3153.441840418612
 21
1.639420206035084
 31
0.0
  0
ARC
  5
1AA57
330
18
100
AcDbEntity
  8
01
100
AcDbCircle
 10
3155.941841739542
 20
60.53939726182671
 30
0.0
 40
1.0
100
AcDbArc
 50
180.0
 51
270.0
  0
LINE
  5
1AA58
330
18
100
AcDbEntity
  8
01
100
AcDbLine
 10
3155.941841739544
 20
59.53939726182671
 30
0.0
 11
3162.941846739542
 21
59.53939726182853
 31
0.0
  0
ARC
  5
1AA59
330
18
100
AcDbEntity
  8
01
100
AcDbCircle
 10
3162.941846739542
 20
59.03939726182853
 30
0.0
 40
0.5
100
AcDbArc
 50
0.0
 51
90.0
  0
ARC
  5
1AA5A
330
18
100
AcDbEntity
  8
01
100
AcDbCircle
 10
3148.94184173954
 20
60.53939726182853
 30
0.0
 40
1.0
100
AcDbArc
 50
270.0
 51
0.0
  0
ARC
  5
1AA5B
330
18
100
AcDbEntity
  8
01
100
AcDbCircle
 10
3141.941846739542
 20
59.03939726182853
 30
0.0
 40
0.5
100
AcDbArc
 50
90.0
 51
180.0
  0
LINE
  5
1AA5C
330
18
100
AcDbEntity
  8
01
100
AcDbLine
 10
3149.94184173954
 20
73.03942020603154
 30
0.0
 11
3149.94184173954
 21
60.53939726182853
 31
0.0
  0
ARC
  5
1AA5D
330
18
100
AcDbEntity
  8
01
100
AcDbCircle
 10
3150.94184173954
 20
73.03942020603336
 30
0.0
 40
1.0
100
AcDbArc
 50
90.0
 51
179.9999999999479
  0
LINE
  5
1AA5E
330
18
100
AcDbEntity
  8
01
100
AcDbLine
 10
3150.94184173954
 20
74.03942020603517
 30
0.0
 11
3153.94184173954
 21
74.03942020603517
 31
0.0
  0
ARC
  5
1AA5F
330
18
100
AcDbEntity
  8
01
100
AcDbCircle
 10
3153.94184173954
 20
73.03942020603336
 30
0.0
 40
1.0
100
AcDbArc
 50
0.0
 51
90.0
  0
LINE
  5
1AA60
330
18
100
AcDbEntity
  8
01
100
AcDbLine
 10
3154.94184173954
 20
73.03942020603336
 30
0.0
 11
3154.941841739544
 21
60.53939726182671
 31
0.0
  0
LINE
  5
1AA61
330
18
100
AcDbEntity
  8
01
100
AcDbLine
 10
3141.941846739542
 20
59.53939726182853
 30
0.0
 11
3148.94184173954
 21
59.53939726182853
 31
0.0
  0
LINE
  5
1AA62
330
18
100
AcDbEntity
  8
01
100
AcDbLine
 10
3141.441846739542
 20
59.03939726182853
 30
0.0
 11
3141.441846739542
 21
58.63942020603508
 31
0.0
  0
LINE
  5
1AA63
330
18
100
AcDbEntity
  8
01
100
AcDbLine
 10
3163.441846739542
 20
59.03939726182853
 30
0.0
 11
3163.441846739542
 21
58.63942020603508
 31
0.0
  0
LINE
  5
1AA66
330
18
100
AcDbEntity
  8
01
100
AcDbLine
 10
3096.441725399805
 20
-161.8612389494872
 30
0.0
 11
3110.441725399805
 21
-161.8612389494872
 31
0.0
  0
LINE
  5
1AA67
330
18
100
AcDbEntity
  8
01
100
AcDbLine
 10
2842.44184573955
 20
-239.8612389494876
 30
0.0
 11
2782.44184573955
 21
-239.8612389494876
 31
0.0
  0
LINE
  5
1AA68
330
18
100
AcDbEntity
  8
01
100
AcDbLine
 10
2812.44184573955
 20
-209.8612389494876
 30
0.0
 11
2812.44184573955
 21
-269.8612389494876
 31
0.0
  0
LINE
  5
1AA69
330
18
100
AcDbEntity
  8
01
100
AcDbLine
 10
3101.442609581865
 20
50.13876104948417
 30
0.0
 11
3255.196989736898
 21
50.13876104948417
 31
0.0
  0
LINE
  5
1AA6C
330
18
100
AcDbEntity
  8
01
  6
BYBLOCK
100
AcDbLine
 10
3101.442609581865
 20
50.13876104948417
 30
0.0
 11
3101.442609581865
 21
10.13876104948417
 31
0.0
  0
LINE
  5
1AA72
330
18
100
AcDbEntity
  8
01
100
AcDbLine
 10
3152.441725399804
 20
45.13876104845554
 30
0.0
 11
3152.441725399804
 21
76.05684123770448
 31
0.0
  0
LINE
  5
1AA73
330
18
100
AcDbEntity
  8
01
100
AcDbLine
 10
3127.441725399805
 20
50.13876104948508
 30
0.0
 11
3177.441725399805
 21
50.13876104948281
 31
0.0
  0
LINE
  5
1AA74
330
18
100
AcDbEntity
  8
01
100
AcDbLine
 10
3127.941725399802
 20
58.63876104948508
 30
0.0
 11
3176.941725399805
 21
58.63876104948145
 31
0.0
  0
LINE
  5
1AA75
330
18
100
AcDbEntity
  8
01
100
AcDbLine
 10
3177.441725399805
 20
50.13876104948281
 30
0.0
 11
3177.441725399805
 21
58.13876104948145
 31
0.0
  0
ARC
  5
1AA76
330
18
100
AcDbEntity
  8
01
100
AcDbCircle
 10
3176.941725399805
 20
58.13876104948145
 30
0.0
 40
0.5
100
AcDbArc
 50
0.0
 51
90.0
  0
LINE
  5
1AA77
330
18
100
AcDbEntity
  8
01
100
AcDbLine
 10
3127.441725399805
 20
50.13876104948508
 30
0.0
 11
3127.441725399802
 21
58.13876104948463
 31
0.0
  0
ARC
  5
1AA78
330
18
100
AcDbEntity
  8
01
100
AcDbCircle
 10
3127.941725399802
 20
58.13876104948508
 30
0.0
 40
0.5
100
AcDbArc
 50
90.0
 51
180.0
  0
LINE
  5
1AA79
330
18
100
AcDbEntity
  8
01
  6
BYBLOCK
100
AcDbLine
 10
3102.941725399805
 20
-153.9612389494871
 30
0.0
 11
3102.941725399805
 21
-283.7612389494871
 31
0.0
  0
LINE
  5
1AA7A
330
18
100
AcDbEntity
  8
01
  6
BYBLOCK
100
AcDbLine
 10
3102.941725399805
 20
-282.8612389494872
 30
0.0
 11
3105.441725399805
 21
-282.8612389494872
 31
0.0
  0
LINE
  5
1AA7B
330
18
100
AcDbEntity
  8
01
  6
BYBLOCK
100
AcDbLine
 10
3104.141725399806
 20
-181.8612389494872
 30
0.0
 11
3127.441725399806
 21
-181.8612389494872
 31
0.0
  0
LINE
  5
1AA7C
330
18
100
AcDbEntity
  8
01
  6
BYBLOCK
100
AcDbLine
 10
3105.441725399805
 20
-282.8612389494872
 30
0.0
 11
3105.441725399805
 21
-266.3582952243348
 31
0.0
  0
LINE
  5
1AA7D
330
18
100
AcDbEntity
  8
01
  6
BYBLOCK
100
AcDbLine
 10
3101.441725399805
 20
-153.9612389494871
 30
0.0
 11
3101.441725399805
 21
-283.7612389494871
 31
0.0
  0
LINE
  5
1AA7E
330
18
100
AcDbEntity
  8
01
  6
BYBLOCK
100
AcDbLine
 10
3101.441725399805
 20
-283.7612389494871
 30
0.0
 11
3102.941725399805
 21
-283.7612389494871
 31
0.0
  0
LINE
  5
1AA7F
330
18
100
AcDbEntity
  8
01
  6
BYBLOCK
100
AcDbLine
 10
3102.941725399805
 20
-154.8612389494872
 30
0.0
 11
3105.441725399805
 21
-154.8612389494872
 31
0.0
  0
LINE
  5
1AA80
330
18
100
AcDbEntity
  8
01
  6
BYBLOCK
100
AcDbLine
 10
3101.441725399805
 20
-153.9612389494871
 30
0.0
 11
3102.941725399805
 21
-153.9612389494871
 31
0.0
  0
LINE
  5
1AA81
330
18
100
AcDbEntity
  8
01
  6
BYBLOCK
100
AcDbLine
 10
3102.941725399805
 20
-178.8612389494872
 30
0.0
 11
3104.141725399806
 21
-178.8612389494872
 31
0.0
  0
LINE
  5
1AA82
330
18
100
AcDbEntity
  8
01
  6
BYBLOCK
100
AcDbLine
 10
3119.341725399805
 20
-181.8612389494872
 30
0.0
 11
3127.441725399806
 21
-181.8612389494872
 31
0.0
  0
LINE
  5
1AA83
330
18
100
AcDbEntity
  8
01
  6
BYBLOCK
100
AcDbLine
 10
3104.141725399806
 20
-173.1612389494869
 30
0.0
 11
3104.141725399805
 21
-264.561238949487
 31
0.0
  0
LINE
  5
1AA84
330
18
100
AcDbEntity
  8
01
  6
BYBLOCK
100
AcDbLine
 10
3104.241725399805
 20
-282.8612389494872
 30
0.0
 11
3104.241725399805
 21
-266.2612389494871
 31
0.0
  0
LINE
  5
1AA85
330
18
100
AcDbEntity
  8
01
  6
BYBLOCK
100
AcDbLine
 10
3104.241725399805
 20
-266.2612389494871
 30
0.0
 11
3103.293197262381
 21
-265.3127108120632
 31
0.0
  0
LINE
  5
1AA86
330
18
100
AcDbEntity
  8
01
  6
BYBLOCK
100
AcDbLine
 10
3105.090253537229
 20
-265.5097670869109
 30
0.0
 11
3104.141725399806
 21
-264.561238949487
 31
0.0
  0
ARC
  5
1AA87
330
18
100
AcDbEntity
  8
01
  6
BYBLOCK
100
AcDbCircle
 10
3104.241725399805
 20
-266.3582952243348
 30
0.0
 40
1.2
100
AcDbArc
 50
0.0
 51
44.99999999998619
  0
ARC
  5
1AA88
330
18
100
AcDbEntity
  8
01
  6
BYBLOCK
100
AcDbCircle
 10
3104.141725399806
 20
-264.4641826746392
 30
0.0
 40
1.2
100
AcDbArc
 50
180.0
 51
224.9999999999862
  0
LINE
  5
1AA89
330
18
100
AcDbEntity
  8
01
  6
BYBLOCK
100
AcDbLine
 10
3105.441725399805
 20
-154.8612389494872
 30
0.0
 11
3105.441725399805
 21
-171.3641826746393
 31
0.0
  0
LINE
  5
1AA8A
330
18
100
AcDbEntity
  8
01
  6
BYBLOCK
100
AcDbLine
 10
3104.241725399805
 20
-154.8612389494872
 30
0.0
 11
3104.241725399805
 21
-171.4612389494871
 31
0.0
  0
LINE
  5
1AA8B
330
18
100
AcDbEntity
  8
01
  6
BYBLOCK
100
AcDbLine
 10
3104.241725399805
 20
-171.4612389494871
 30
0.0
 11
3103.293197262381
 21
-172.409767086911
 31
0.0
  0
LINE
  5
1AA8C
330
18
100
AcDbEntity
  8
01
  6
BYBLOCK
100
AcDbLine
 10
3105.090253537229
 20
-172.2127108120633
 30
0.0
 11
3104.141725399806
 21
-173.1612389494871
 31
0.0
  0
ARC
  5
1AA8D
330
18
100
AcDbEntity
  8
01
  6
BYBLOCK
100
AcDbCircle
 10
3104.241725399805
 20
-171.3641826746393
 30
0.0
 40
1.2
100
AcDbArc
 50
315.0000000000138
 51
0.0
  0
ARC
  5
1AA8E
330
18
100
AcDbEntity
  8
01
  6
BYBLOCK
100
AcDbCircle
 10
3104.141725399806
 20
-173.2582952243349
 30
0.0
 40
1.2
100
AcDbArc
 50
135.0000000000138
 51
180.0
  0
LINE
  5
1AA8F
330
18
100
AcDbEntity
  8
01
  6
BYBLOCK
100
AcDbLine
 10
3104.141725399806
 20
-255.8612389494874
 30
0.0
 11
3127.441725399806
 21
-255.8612389494872
 31
0.0
  0
ARC
  5
1AA90
330
18
100
AcDbEntity
  8
01
  6
BYBLOCK
100
AcDbCircle
 10
3104.542609581865
 20
33.70001159248409
 30
0.0
 40
1.6
100
AcDbArc
 50
115.9444797719929
 51
180.0
  0
ARC
  5
1AA91
330
18
100
AcDbEntity
  8
01
  6
BYBLOCK
100
AcDbCircle
 10
3104.542609581865
 20
26.57751050648426
 30
0.0
 40
1.6
100
AcDbArc
 50
180.0
 51
244.0555202280072
  0
ARC
  5
1AA92
330
18
100
AcDbEntity
  8
01
  6
BYBLOCK
100
AcDbCircle
 10
3103.842609581865
 20
25.30001159248422
 30
0.0
 40
1.6
100
AcDbArc
 50
0.0
 51
64.05552022800715
  0
ARC
  5
1AA93
330
18
100
AcDbEntity
  8
01
  6
BYBLOCK
100
AcDbCircle
 10
3103.842609581865
 20
34.97751050648412
 30
0.0
 40
1.6
100
AcDbArc
 50
295.9444797719929
 51
0.0
  0
LINE
  5
1AA94
330
18
100
AcDbEntity
  8
01
  6
BYBLOCK
100
AcDbLine
 10
3105.442609581865
 20
34.97751050648412
 30
0.0
 11
3105.442609581866
 21
42.33876104948422
 31
0.0
  0
LINE
  5
1AA95
330
18
100
AcDbEntity
  8
01
  6
BYBLOCK
100
AcDbLine
 10
3104.542609581865
 20
26.73876104948408
 30
0.0
 11
3104.542609581865
 21
33.53876104948426
 31
0.0
  0
LINE
  5
1AA96
330
18
100
AcDbEntity
  8
01
  6
BYBLOCK
100
AcDbLine
 10
3105.442609581865
 20
18.13876104948417
 30
0.0
 11
3105.442609581865
 21
25.30001159248422
 31
0.0
  0
LINE
  5
1AA97
330
18
100
AcDbEntity
  8
01
  6
BYBLOCK
100
AcDbLine
 10
3103.842609581865
 20
35.13876104948417
 30
0.0
 11
3103.842609581865
 21
42.33876104948422
 31
0.0
  0
LINE
  5
1AA98
330
18
100
AcDbEntity
  8
01
  6
BYBLOCK
100
AcDbLine
 10
3103.842609581865
 20
25.13876104948417
 30
0.0
 11
3103.842609581865
 21
18.03876104948426
 31
0.0
  0
ARC
  5
1AA99
330
18
100
AcDbEntity
  8
01
  6
BYBLOCK
100
AcDbCircle
 10
3168.842609581865
 20
38.03876104948426
 30
0.0
 40
1.6
100
AcDbArc
 50
0.0
 51
90.0
  0
LINE
  5
1AA9A
330
18
100
AcDbEntity
  8
01
  6
BYBLOCK
100
AcDbLine
 10
3102.942609581866
 20
42.53876104948426
 30
0.0
 11
3102.942609581865
 21
17.73876104948431
 31
0.0
  0
LINE
  5
1AA9B
330
18
100
AcDbEntity
  8
01
  6
BYBLOCK
100
AcDbLine
 10
3168.842609581865
 20
39.63876104948417
 30
0.0
 11
3105.442609581865
 21
39.63876104948417
 31
0.0
  0
LINE
  5
1AA9C
330
18
100
AcDbEntity
  8
01
  6
BYBLOCK
100
AcDbLine
 10
3168.842609581865
 20
22.43876104948413
 30
0.0
 11
3168.842609581865
 21
39.63876104948417
 31
0.0
  0
LINE
  5
1AA9D
330
18
100
AcDbEntity
  8
01
  6
BYBLOCK
100
AcDbLine
 10
3170.442609581865
 20
20.83876104948422
 30
0.0
 11
3170.442609581865
 21
38.03876104948426
 31
0.0
  0
LINE
  5
1AA9E
330
18
100
AcDbEntity
  8
01
  6
BYBLOCK
100
AcDbLine
 10
3102.942609581866
 20
42.33876104948422
 30
0.0
 11
3105.442609581866
 21
42.33876104948422
 31
0.0
  0
LINE
  5
1AA9F
330
18
100
AcDbEntity
  8
01
  6
BYBLOCK
100
AcDbLine
 10
3105.442609581865
 20
18.13876104948417
 30
0.0
 11
3103.842609581865
 21
18.13876104948417
 31
0.0
  0
LINE
  5
1AAA0
330
18
100
AcDbEntity
  8
01
  6
BYBLOCK
100
AcDbLine
 10
3103.842609581865
 20
18.03876104948426
 30
0.0
 11
3102.942609581865
 21
18.03876104948426
 31
0.0
  0
ARC
  5
1AAA1
330
18
100
AcDbEntity
  8
01
  6
BYBLOCK
100
AcDbCircle
 10
3100.143204509264
 20
24.43876104948481
 30
0.0
 40
0.3000000000000051
100
AcDbArc
 50
232.8678058730366
 51
270.0
  0
LINE
  5
1AAA2
330
18
100
AcDbEntity
  8
01
  6
BYBLOCK
100
AcDbLine
 10
3100.942609581866
 20
24.13876104948486
 30
0.0
 11
3100.143204509264
 21
24.13876104948486
 31
0.0
  0
LINE
  5
1AAA3
330
18
100
AcDbEntity
  8
01
  6
BYBLOCK
100
AcDbLine
 10
3090.542609581865
 20
33.81174991568901
 30
0.0
 11
3090.542609581865
 21
33.64112786013993
 31
0.0
  0
ARC
  5
1AAA4
330
18
100
AcDbEntity
  8
01
  6
BYBLOCK
100
AcDbCircle
 10
3090.842609581865
 20
33.64112786013993
 30
0.0
 40
0.3
100
AcDbArc
 50
180.0
 51
217.7405295629614
  0
ARC
  5
1AAA5
330
18
100
AcDbEntity
  8
01
  6
BYBLOCK
100
AcDbCircle
 10
3130.144910181149
 20
64.06183080408073
 30
0.0
 40
50.00000000000002
100
AcDbArc
 50
217.7405295629927
 51
232.8678058729714
  0
LINE
  5
1AAA6
330
18
100
AcDbEntity
  8
01
  6
BYBLOCK
100
AcDbLine
 10
3090.342609581865
 20
34.93876104948436
 30
0.0
 11
3090.342609581865
 21
35.63876104948417
 31
0.0
  0
ARC
  5
1AAA7
330
18
100
AcDbEntity
  8
01
  6
BYBLOCK
100
AcDbCircle
 10
3090.842609581865
 20
35.63876104948417
 30
0.0
 40
0.5000000000000142
100
AcDbArc
 50
90.0
 51
180.0
  0
LINE
  5
1AAA8
330
18
100
AcDbEntity
  8
01
  6
BYBLOCK
100
AcDbLine
 10
3100.942609581866
 20
36.13876104948417
 30
0.0
 11
3090.842609581865
 21
36.13876104948417
 31
0.0
  0
LINE
  5
1AAA9
330
18
100
AcDbEntity
  8
01
  6
BYBLOCK
100
AcDbLine
 10
3090.342609581865
 20
34.5600813930439
 30
0.0
 11
3090.342609581865
 21
34.93876104948436
 31
0.0
  0
SPLINE
  5
1AAAA
330
18
100
AcDbEntity
  8
01
  6
BYBLOCK
100
AcDbSpline
210
0.0
220
0.0
230
1.0
 70
     8
 71
     3
 72
     8
 73
     4
 74
     0
 42
0.0000000001
 43
0.0000000001
 40
0.0
 40
0.0
 40
0.0
 40
0.0
 40
1.0
 40
1.0
 40
1.0
 40
1.0
 10
3090.36834212313
 20
34.28343096359481
 30
0.0
 10
3090.350874237019
 20
34.37651715947527
 30
0.0
 10
3090.342609581865
 20
34.46978317036678
 30
0.0
 10
3090.342609581865
 20
34.56008139304436
 30
0.0
  0
ARC
  5
1AAAB
330
18
100
AcDbEntity
  8
01
  6
BYBLOCK
100
AcDbCircle
 10
3091.842609581865
 20
34.5600813930439
 30
0.0
 40
1.499999999999998
100
AcDbArc
 50
190.628112987605
 51
224.9999999999908
  0
LINE
  5
1AAAC
330
18
100
AcDbEntity
  8
01
  6
BYBLOCK
100
AcDbLine
 10
3101.442609581865
 20
36.98876104948431
 30
0.0
 11
3100.942609581866
 21
36.98876104948431
 31
0.0
  0
LINE
  5
1AAAD
330
18
100
AcDbEntity
  8
01
  6
BYBLOCK
100
AcDbLine
 10
3100.942609581866
 20
23.28876104948426
 30
0.0
 11
3101.442609581865
 21
23.28876104948426
 31
0.0
  0
LINE
  5
1AAAE
330
18
100
AcDbEntity
  8
01
  6
BYBLOCK
100
AcDbLine
 10
3100.942609581866
 20
23.28876104948426
 30
0.0
 11
3100.942609581866
 21
36.98876104948431
 31
0.0
  0
LINE
  5
1AAAF
330
18
100
AcDbEntity
  8
01
  6
BYBLOCK
100
AcDbLine
 10
3101.442609581865
 20
42.53876104948426
 30
0.0
 11
3102.942609581866
 21
42.53876104948426
 31
0.0
  0
LINE
  5
1AAB0
330
18
100
AcDbEntity
  8
01
  6
BYBLOCK
100
AcDbLine
 10
3101.442609581865
 20
17.73876104948431
 30
0.0
 11
3102.942609581865
 21
17.73876104948431
 31
0.0
  0
LINE
  5
1AAB1
330
18
100
AcDbEntity
  8
01
  6
BYBLOCK
100
AcDbLine
 10
3101.442609581865
 20
17.73876104948431
 30
0.0
 11
3101.442609581865
 21
42.53876104948426
 31
0.0
  0
LINE
  5
1AAB2
330
18
100
AcDbEntity
  8
01
  6
BYBLOCK
100
AcDbLine
 10
3170.442609581865
 20
22.43876104948413
 30
0.0
 11
3105.442609581865
 21
22.43876104948413
 31
0.0
  0
LINE
  5
1AAB3
330
18
100
AcDbEntity
  8
01
  6
BYBLOCK
100
AcDbLine
 10
3170.442609581865
 20
20.83876104948422
 30
0.0
 11
3120.042609581865
 21
20.83876104948422
 31
0.0
  0
LINE
  5
1AAB4
330
18
100
AcDbEntity
  8
01
  6
BYBLOCK
100
AcDbLine
 10
3122.879867882068
 20
20.83876104948422
 30
0.0
 11
3105.442609581865
 21
20.83876104948422
 31
0.0
  0
LINE
  5
1AAB5
330
18
100
AcDbEntity
  8
01
  6
BYBLOCK
100
AcDbLine
 10
3099.996162972458
 20
24.28520765889084
 30
0.0
 11
3090.781949410085
 21
33.4994212212639
 31
0.0
  0
ARC
  5
1AAB6
330
18
100
AcDbEntity
  8
01
  6
BYBLOCK
100
AcDbCircle
 10
3100.349716363051
 20
24.63876104948417
 30
0.0
 40
0.5
100
AcDbArc
 50
224.9999999999908
 51
270.0
  0
LINE
  5
1AAB7
330
18
100
AcDbEntity
  8
01
  6
BYBLOCK
100
AcDbLine
 10
3100.942609581866
 20
24.13876104948417
 30
0.0
 11
3100.349716363051
 21
24.13876104948417
 31
0.0
  0
LINE
  5
1AAB9
330
18
100
AcDbEntity
  8
01
  6
BYBLOCK
100
AcDbLine
 10
3090.441725399806
 20
-208.8295686824711
 30
0.0
 11
3090.441725399806
 21
-226.8929092164769
 31
0.0
  0
LINE
  5
1AABA
330
18
100
AcDbEntity
  8
01
  6
BYBLOCK
100
AcDbLine
 10
3094.734618618619
 20
-207.861238949474
 30
0.0
 11
3101.441725399806
 21
-207.861238949474
 31
0.0
  0
LINE
  5
1AABB
330
18
100
AcDbEntity
  8
01
  6
BYBLOCK
100
AcDbLine
 10
3094.734618618619
 20
-227.861238949474
 30
0.0
 11
3101.441725399806
 21
-227.861238949474
 31
0.0
  0
LINE
  5
1AABC
330
18
100
AcDbEntity
  8
01
  6
BYBLOCK
100
AcDbLine
 10
3100.234618618619
 20
-212.611238949474
 30
0.0
 11
3100.234618618619
 21
-223.111238949474
 31
0.0
  0
ARC
  5
1AABD
330
18
100
AcDbEntity
  8
01
  6
BYBLOCK
100
AcDbCircle
 10
3094.734618618619
 20
-217.861238949474
 30
0.0
 40
10.00000000000009
100
AcDbArc
 50
53.1301023541625
 51
115.4224671781131
  0
ARC
  5
1AABE
330
18
100
AcDbEntity
  8
01
  6
BYBLOCK
100
AcDbCircle
 10
3094.734618618619
 20
-217.8612389494738
 30
0.0
 40
10.00000000000009
100
AcDbArc
 50
244.5775328218868
 51
306.8698976458375
  0
LINE
  5
1AABF
330
18
100
AcDbEntity
  8
01
  6
BYBLOCK
100
AcDbLine
 10
3100.734618618619
 20
-209.861238949474
 30
0.0
 11
3100.734618618619
 21
-225.861238949474
 31
0.0
  0
LINE
  5
1AAC0
330
18
100
AcDbEntity
  8
01
  6
BYBLOCK
100
AcDbLine
 10
3090.441725399806
 20
-212.611238949474
 30
0.0
 11
3100.234618618619
 21
-212.611238949474
 31
0.0
  0
LINE
  5
1AAC1
330
18
100
AcDbEntity
  8
01
  6
BYBLOCK
100
AcDbLine
 10
3090.441725399806
 20
-223.111238949474
 30
0.0
 11
3100.234618618619
 21
-223.111238949474
 31
0.0
  0
LINE
  5
1AAC2
330
18
100
AcDbEntity
  8
01
  6
BYBLOCK
100
AcDbLine
 10
2976.04184173955
 20
-153.9612389494878
 30
0.0
 11
2988.84184173955
 21
-153.9612389494878
 31
0.0
  0
LINE
  5
1AAC3
330
18
100
AcDbEntity
  8
01
  6
BYBLOCK
100
AcDbLine
 10
2976.04184173955
 20
-283.7612389494877
 30
0.0
 11
2988.84184173955
 21
-283.7612389494877
 31
0.0
  0
LINE
  5
1AAC4
330
18
100
AcDbEntity
  8
01
  6
BYBLOCK
100
AcDbLine
 10
2970.04184173955
 20
-159.9612389494878
 30
0.0
 11
2970.04184173955
 21
-277.7612389494877
 31
0.0
  0
LINE
  5
1AAC5
330
18
100
AcDbEntity
  8
01
  6
BYBLOCK
100
AcDbLine
 10
2994.84184173955
 20
-159.9612389494878
 30
0.0
 11
2994.84184173955
 21
-277.7612389494877
 31
0.0
  0
ARC
  5
1AAC6
330
18
100
AcDbEntity
  8
01
  6
BYBLOCK
100
AcDbCircle
 10
2976.04184173955
 20
-277.7612389494877
 30
0.0
 40
6.0
100
AcDbArc
 50
180.0
 51
270.0
  0
ARC
  5
1AAC7
330
18
100
AcDbEntity
  8
01
  6
BYBLOCK
100
AcDbCircle
 10
2988.84184173955
 20
-277.7612389494877
 30
0.0
 40
6.0
100
AcDbArc
 50
270.0
 51
0.0
  0
ARC
  5
1AAC8
330
18
100
AcDbEntity
  8
01
  6
BYBLOCK
100
AcDbCircle
 10
2976.04184173955
 20
-159.9612389494878
 30
0.0
 40
6.0
100
AcDbArc
 50
90.0
 51
180.0
  0
ARC
  5
1AAC9
330
18
100
AcDbEntity
  8
01
  6
BYBLOCK
100
AcDbCircle
 10
2988.84184173955
 20
-159.9612389494878
 30
0.0
 40
6.0
100
AcDbArc
 50
0.0
 51
90.0
  0
CIRCLE
  5
1AACA
330
18
100
AcDbEntity
  8
01
  6
BYBLOCK
100
AcDbCircle
 10
2982.44184173955
 20
-275.8612389494876
 30
0.0
 40
2.75
  0
CIRCLE
  5
1AACB
330
18
100
AcDbEntity
  8
01
  6
BYBLOCK
100
AcDbCircle
 10
2982.44184173955
 20
-275.8612389494876
 30
0.0
 40
4.25
  0
CIRCLE
  5
1AACC
330
18
100
AcDbEntity
  8
01
  6
BYBLOCK
100
AcDbCircle
 10
2982.44184173955
 20
-161.8612389494879
 30
0.0
 40
2.75
  0
CIRCLE
  5
1AACD
330
18
100
AcDbEntity
  8
01
  6
BYBLOCK
100
AcDbCircle
 10
2982.44184173955
 20
-161.8612389494879
 30
0.0
 40
4.25
  0
LINE
  5
1AACE
330
18
100
AcDbEntity
  8
1CENTER
100
AcDbLine
 10
2988.316867147456
 20
-275.8612389494879
 30
0.0
 11
2976.566816331644
 21
-275.8612389494879
 31
0.0
  0
LINE
  5
1AACF
330
18
100
AcDbEntity
  8
1CENTER
100
AcDbLine
 10
2982.44184173955
 20
-269.9862135415815
 30
0.0
 11
2982.44184173955
 21
-281.736264357394
 31
0.0
  0
LINE
  5
1AAD0
330
18
100
AcDbEntity
  8
1CENTER
100
AcDbLine
 10
2988.316867147456
 20
-161.8612389494879
 30
0.0
 11
2976.566816331644
 21
-161.8612389494879
 31
0.0
  0
LINE
  5
1AAD1
330
18
100
AcDbEntity
  8
1CENTER
100
AcDbLine
 10
2982.44184173955
 20
-155.9862135415815
 30
0.0
 11
2982.44184173955
 21
-167.736264357394
 31
0.0
  0
ARC
  5
1AAD2
330
18
100
AcDbEntity
  8
01
  6
BYBLOCK
100
AcDbCircle
 10
2982.44184173955
 20
-217.8612389494876
 30
0.0
 40
10.15
100
AcDbArc
 50
231.9925780701392
 51
308.0074219298607
  0
LINE
  5
1AAD3
330
18
100
AcDbEntity
  8
01
  6
BYBLOCK
100
AcDbLine
 10
2976.19184173955
 20
-209.8637393402348
 30
0.0
 11
2976.19184173955
 21
-225.8587385587405
 31
0.0
  0
LINE
  5
1AAD4
330
18
100
AcDbEntity
  8
01
  6
BYBLOCK
100
AcDbLine
 10
2988.69184173955
 20
-209.8637393402348
 30
0.0
 11
2988.69184173955
 21
-225.8587385587405
 31
0.0
  0
ARC
  5
1AAD5
330
18
100
AcDbEntity
  8
01
  6
BYBLOCK
100
AcDbCircle
 10
2982.44184173955
 20
-217.8612389494876
 30
0.0
 40
10.15
100
AcDbArc
 50
51.99257807013929
 51
128.0074219298607
  0
LINE
  5
1AAD6
330
18
100
AcDbEntity
  8
01
  6
BYBLOCK
100
AcDbLine
 10
2977.94184173955
 20
-212.6112389494876
 30
0.0
 11
2977.94184173955
 21
-223.1112389494876
 31
0.0
  0
LINE
  5
1AAD7
330
18
100
AcDbEntity
  8
01
  6
BYBLOCK
100
AcDbLine
 10
2987.94184173955
 20
-212.6112389494876
 30
0.0
 11
2987.94184173955
 21
-223.1112389494876
 31
0.0
  0
LINE
  5
1AAD8
330
18
100
AcDbEntity
  8
01
  6
BYBLOCK
100
AcDbLine
 10
2978.44184173955
 20
-208.5326538477693
 30
0.0
 11
2978.44184173955
 21
-212.6112389494879
 31
0.0
  0
LINE
  5
1AAD9
330
18
100
AcDbEntity
  8
01
  6
BYBLOCK
100
AcDbLine
 10
2976.94184173955
 20
-212.6112389494879
 30
0.0
 11
2976.94184173955
 21
-223.1112389494876
 31
0.0
  0
LINE
  5
1AADA
330
18
100
AcDbEntity
  8
01
  6
BYBLOCK
100
AcDbLine
 10
2978.44184173955
 20
-223.1112389494876
 30
0.0
 11
2978.44184173955
 21
-227.189824051206
 31
0.0
  0
LINE
  5
1AADB
330
18
100
AcDbEntity
  8
01
  6
BYBLOCK
100
AcDbLine
 10
2976.94184173955
 20
-212.6112389494876
 30
0.0
 11
2987.94184173955
 21
-212.6112389494876
 31
0.0
  0
LINE
  5
1AADC
330
18
100
AcDbEntity
  8
01
  6
BYBLOCK
100
AcDbLine
 10
2976.94184173955
 20
-223.1112389494876
 30
0.0
 11
2987.94184173955
 21
-223.1112389494876
 31
0.0
  0
LINE
  5
1AADE
330
18
100
AcDbEntity
  8
01
100
AcDbLine
 10
2962.441958079293
 20
-119.8612389494874
 30
0.0
 11
2962.441958079293
 21
-309.8612389494876
 31
0.0
  0
LINE
  5
1AADF
330
18
100
AcDbEntity
  8
01
100
AcDbLine
 10
3096.441725400093
 20
-275.8612389491984
 30
0.0
 11
3110.441725400093
 21
-275.8612389491984
 31
0.0
  0
LINE
  5
1AAE0
330
18
100
AcDbEntity
  8
01
100
AcDbLine
 10
2868.441958079295
 20
-161.8612389494872
 30
0.0
 11
2854.441958079295
 21
-161.8612389494872
 31
0.0
  0
LINE
  5
1AAE1
330
18
100
AcDbEntity
  8
01
  6
BYBLOCK
100
AcDbLine
 10
2861.941958079295
 20
-153.9612389494871
 30
0.0
 11
2861.941958079295
 21
-283.7612389494871
 31
0.0
  0
LINE
  5
1AAE2
330
18
100
AcDbEntity
  8
01
  6
BYBLOCK
100
AcDbLine
 10
2861.941958079295
 20
-282.8612389494872
 30
0.0
 11
2859.441958079295
 21
-282.8612389494872
 31
0.0
  0
LINE
  5
1AAE3
330
18
100
AcDbEntity
  8
01
  6
BYBLOCK
100
AcDbLine
 10
2860.741958079294
 20
-181.8612389494872
 30
0.0
 11
2837.441958079295
 21
-181.8612389494872
 31
0.0
  0
LINE
  5
1AAE4
330
18
100
AcDbEntity
  8
01
  6
BYBLOCK
100
AcDbLine
 10
2859.441958079295
 20
-282.8612389494872
 30
0.0
 11
2859.441958079295
 21
-266.3582952243348
 31
0.0
  0
LINE
  5
1AAE5
330
18
100
AcDbEntity
  8
01
  6
BYBLOCK
100
AcDbLine
 10
2863.441958079295
 20
-153.9612389494871
 30
0.0
 11
2863.441958079295
 21
-283.7612389494871
 31
0.0
  0
LINE
  5
1AAE6
330
18
100
AcDbEntity
  8
01
  6
BYBLOCK
100
AcDbLine
 10
2863.441958079295
 20
-283.7612389494871
 30
0.0
 11
2861.941958079295
 21
-283.7612389494871
 31
0.0
  0
LINE
  5
1AAE7
330
18
100
AcDbEntity
  8
01
  6
BYBLOCK
100
AcDbLine
 10
2861.941958079295
 20
-154.8612389494872
 30
0.0
 11
2859.441958079295
 21
-154.8612389494872
 31
0.0
  0
LINE
  5
1AAE8
330
18
100
AcDbEntity
  8
01
  6
BYBLOCK
100
AcDbLine
 10
2863.441958079295
 20
-153.9612389494871
 30
0.0
 11
2861.941958079295
 21
-153.9612389494871
 31
0.0
  0
LINE
  5
1AAE9
330
18
100
AcDbEntity
  8
01
  6
BYBLOCK
100
AcDbLine
 10
2861.941958079295
 20
-178.8612389494872
 30
0.0
 11
2860.741958079294
 21
-178.8612389494872
 31
0.0
  0
LINE
  5
1AAEA
330
18
100
AcDbEntity
  8
01
  6
BYBLOCK
100
AcDbLine
 10
2845.541958079295
 20
-181.8612389494872
 30
0.0
 11
2837.441958079295
 21
-181.8612389494872
 31
0.0
  0
LINE
  5
1AAEB
330
18
100
AcDbEntity
  8
01
  6
BYBLOCK
100
AcDbLine
 10
2860.741958079294
 20
-173.1612389494869
 30
0.0
 11
2860.741958079295
 21
-264.561238949487
 31
0.0
  0
LINE
  5
1AAEC
330
18
100
AcDbEntity
  8
01
  6
BYBLOCK
100
AcDbLine
 10
2860.641958079295
 20
-282.8612389494872
 30
0.0
 11
2860.641958079295
 21
-266.2612389494871
 31
0.0
  0
LINE
  5
1AAED
330
18
100
AcDbEntity
  8
01
  6
BYBLOCK
100
AcDbLine
 10
2860.641958079295
 20
-266.2612389494871
 30
0.0
 11
2861.590486216719
 21
-265.3127108120632
 31
0.0
  0
LINE
  5
1AAEE
330
18
100
AcDbEntity
  8
01
  6
BYBLOCK
100
AcDbLine
 10
2859.793429941871
 20
-265.5097670869109
 30
0.0
 11
2860.741958079294
 21
-264.561238949487
 31
0.0
  0
ARC
  5
1AAEF
330
18
100
AcDbEntity
  8
01
  6
BYBLOCK
100
AcDbCircle
 10
2860.641958079295
 20
-266.3582952243348
 30
0.0
 40
1.2
100
AcDbArc
 50
135.0000000000138
 51
180.0
  0
ARC
  5
1AAF0
330
18
100
AcDbEntity
  8
01
  6
BYBLOCK
100
AcDbCircle
 10
2860.741958079294
 20
-264.4641826746392
 30
0.0
 40
1.2
100
AcDbArc
 50
315.0000000000138
 51
0.0
  0
LINE
  5
1AAF1
330
18
100
AcDbEntity
  8
01
  6
BYBLOCK
100
AcDbLine
 10
2859.441958079295
 20
-154.8612389494872
 30
0.0
 11
2859.441958079295
 21
-171.3641826746393
 31
0.0
  0
LINE
  5
1AAF2
330
18
100
AcDbEntity
  8
01
  6
BYBLOCK
100
AcDbLine
 10
2860.641958079295
 20
-154.8612389494872
 30
0.0
 11
2860.641958079295
 21
-171.4612389494871
 31
0.0
  0
LINE
  5
1AAF3
330
18
100
AcDbEntity
  8
01
  6
BYBLOCK
100
AcDbLine
 10
2860.641958079295
 20
-171.4612389494871
 30
0.0
 11
2861.590486216719
 21
-172.409767086911
 31
0.0
  0
LINE
  5
1AAF4
330
18
100
AcDbEntity
  8
01
  6
BYBLOCK
100
AcDbLine
 10
2859.793429941871
 20
-172.2127108120633
 30
0.0
 11
2860.741958079294
 21
-173.1612389494871
 31
0.0
  0
ARC
  5
1AAF5
330
18
100
AcDbEntity
  8
01
  6
BYBLOCK
100
AcDbCircle
 10
2860.641958079295
 20
-171.3641826746393
 30
0.0
 40
1.2
100
AcDbArc
 50
180.0
 51
224.9999999999862
  0
ARC
  5
1AAF6
330
18
100
AcDbEntity
  8
01
  6
BYBLOCK
100
AcDbCircle
 10
2860.741958079294
 20
-173.2582952243349
 30
0.0
 40
1.2
100
AcDbArc
 50
0.0
 51
44.99999999998619
  0
LINE
  5
1AAF7
330
18
100
AcDbEntity
  8
01
  6
BYBLOCK
100
AcDbLine
 10
2860.741958079294
 20
-255.8612389494874
 30
0.0
 11
2837.441958079295
 21
-255.8612389494872
 31
0.0
  0
LINE
  5
1AAF8
330
18
100
AcDbEntity
  8
01
  6
BYBLOCK
100
AcDbLine
 10
2874.441958079294
 20
-208.8295686824711
 30
0.0
 11
2874.441958079294
 21
-226.8929092164769
 31
0.0
  0
LINE
  5
1AAF9
330
18
100
AcDbEntity
  8
01
  6
BYBLOCK
100
AcDbLine
 10
2870.149064860481
 20
-207.861238949474
 30
0.0
 11
2863.441958079294
 21
-207.861238949474
 31
0.0
  0
LINE
  5
1AAFA
330
18
100
AcDbEntity
  8
01
  6
BYBLOCK
100
AcDbLine
 10
2870.149064860481
 20
-227.861238949474
 30
0.0
 11
2863.441958079294
 21
-227.861238949474
 31
0.0
  0
ARC
  5
1AAFB
330
18
100
AcDbEntity
  8
01
  6
BYBLOCK
100
AcDbCircle
 10
2870.149064860481
 20
-217.861238949474
 30
0.0
 40
10.00000000000009
100
AcDbArc
 50
64.57753282188686
 51
90.0
  0
LINE
  5
1AAFC
330
18
100
AcDbEntity
  8
01
100
AcDbLine
 10
2868.441958079007
 20
-275.8612389491984
 30
0.0
 11
2854.441958079007
 21
-275.8612389491984
 31
0.0
  0
LINE
  5
1AAFD
330
18
100
AcDbEntity
  8
01
  6
CONTINUOUS
100
AcDbLine
 10
2873.941958079294
 20
-226.1760331423047
 30
0.0
 11
2863.441958079295
 21
-226.1760331423047
 31
0.0
  0
ARC
  5
1AAFE
330
18
100
AcDbEntity
  8
01
  6
CONTINUOUS
100
AcDbCircle
 10
2873.980538326208
 20
-225.713893911498
 30
0.0
 40
0.4637468103423796
100
AcDbArc
 50
265.2279066161988
 51
354.2577450626268
  0
LINE
  5
1AAFF
330
18
100
AcDbEntity
  8
01
  6
CONTINUOUS
100
AcDbLine
 10
2874.441958079294
 20
-210.377924175926
 30
0.0
 11
2874.441958079294
 21
-225.3445537230218
 31
0.0
  0
ARC
  5
1AB00
330
18
100
AcDbEntity
  8
01
  6
CONTINUOUS
100
AcDbCircle
 10
2873.980538326208
 20
-210.0085839874496
 30
0.0
 40
0.4637468103423387
100
AcDbArc
 50
5.742254937373203
 51
94.77209338380122
  0
ARC
  5
1AB01
330
18
100
AcDbEntity
  8
01
  6
BYBLOCK
100
AcDbCircle
 10
2870.149064860481
 20
-217.8612389494738
 30
0.0
 40
10.00000000000009
100
AcDbArc
 50
270.0
 51
295.4224671781132
  0
LINE
  5
1AB02
330
18
100
AcDbEntity
  8
01
  6
CONTINUOUS
100
AcDbLine
 10
2863.441958079295
 20
-209.5464447566428
 30
0.0
 11
2873.941958079294
 21
-209.5464447566428
 31
0.0
  0
LINE
  5
1AB03
330
18
100
AcDbEntity
  8
1HIDDEN
100
AcDbLine
 10
3170.441725399806
 20
-182.8612389494872
 30
0.0
 11
3170.441725399806
 21
-254.8612389494872
 31
0.0
  0
LINE
  5
1AB04
330
18
100
AcDbEntity
  8
1HIDDEN
100
AcDbLine
 10
3127.441725399806
 20
-181.8612389494872
 30
0.0
 11
3169.441725399806
 21
-181.8612389494872
 31
0.0
  0
ARC
  5
1AB05
330
18
100
AcDbEntity
  8
1HIDDEN
100
AcDbCircle
 10
3169.441725399806
 20
-182.8612389494872
 30
0.0
 40
1.0
100
AcDbArc
 50
0.0
 51
90.0
  0
ARC
  5
1AB06
330
18
100
AcDbEntity
  8
1HIDDEN
100
AcDbCircle
 10
3169.441725399806
 20
-254.8612389494872
 30
0.0
 40
1.0
100
AcDbArc
 50
270.0
 51
0.0
  0
CIRCLE
  5
1AB07
330
18
100
AcDbEntity
  8
1HIDDEN
100
AcDbCircle
 10
3152.441725399806
 20
-189.8612389494872
 30
0.0
 40
4.75
  0
LINE
  5
1AB08
330
18
100
AcDbEntity
  8
1HIDDEN
100
AcDbLine
 10
3127.441725399806
 20
-255.8612389494872
 30
0.0
 11
3169.441725399806
 21
-255.8612389494867
 31
0.0
  0
LINE
  5
1AB09
330
18
100
AcDbEntity
  8
1HIDDEN
100
AcDbLine
 10
3152.441725399809
 20
-181.8612389494872
 30
0.0
 11
3169.441725399806
 21
-181.8612389494872
 31
0.0
  0
LINE
  5
1AB0A
330
18
100
AcDbEntity
  8
01
100
AcDbLine
 10
3163.753613667347
 20
-189.8612389494872
 30
0.0
 11
3141.129837132263
 21
-189.8612389494872
 31
0.0
  0
LINE
  5
1AB0B
330
18
100
AcDbEntity
  8
01
100
AcDbLine
 10
3152.441725399806
 20
-178.5493506819455
 30
0.0
 11
3152.441725399806
 21
-201.1731272170289
 31
0.0
  0
LINE
  5
1AB0C
330
18
100
AcDbEntity
  8
01
100
AcDbLine
 10
2964.570243461723
 20
-239.8612389494876
 30
0.0
 11
2941.941958079293
 21
-239.8612389494876
 31
0.0
  0
LINE
  5
1AB0D
330
18
100
AcDbEntity
  8
01
100
AcDbLine
 10
2953.941958079293
 20
-126.3612389494874
 30
0.0
 11
2953.941958079293
 21
-303.3612389494876
 31
0.0
  0
ARC
  5
1AB0E
330
18
100
AcDbEntity
  8
01
100
AcDbCircle
 10
2954.441958079293
 20
-303.3612389494876
 30
0.0
 40
0.5
100
AcDbArc
 50
180.0
 51
270.0
  0
LINE
  5
1AB0F
330
18
100
AcDbEntity
  8
01
100
AcDbLine
 10
2962.441958079293
 20
-125.8612389494874
 30
0.0
 11
2962.441958079293
 21
-303.8612389494876
 31
0.0
  0
LINE
  5
1AB10
330
18
100
AcDbEntity
  8
01
100
AcDbLine
 10
2954.441958079293
 20
-125.8612389494874
 30
0.0
 11
2962.441958079293
 21
-125.8612389494874
 31
0.0
  0
ARC
  5
1AB11
330
18
100
AcDbEntity
  8
01
100
AcDbCircle
 10
2954.441958079293
 20
-126.3612389494874
 30
0.0
 40
0.5
100
AcDbArc
 50
90.0
 51
180.0
  0
LINE
  5
1AB12
330
18
100
AcDbEntity
  8
01
100
AcDbLine
 10
2954.441958079293
 20
-303.8612389494876
 30
0.0
 11
2962.441958079293
 21
-303.8612389494876
 31
0.0
  0
TEXT
  5
1AB15
330
18
100
AcDbEntity
  8
1TEXT
100
AcDbText
 10
2794.44185773955
 20
41.63876105051327
 30
0.0
 40
20.0
  1
2-HSK-X-LJ
100
AcDbText
  0
LINE
  5
1AB17
330
18
100
AcDbEntity
  8
1DIM
100
AcDbLine
 10
2794.44185773955
 20
-19.86123894948673
 30
0.0
 11
2951.94185773955
 21
-19.86123894948673
 31
0.0
  0
TEXT
  5
1AB18
330
18
100
AcDbEntity
  8
1TEXT
100
AcDbText
 10
2848.841857739551
 20
-17.32760936684303
 30
0.0
 40
6.0
  1
パールブラック
 72
     1
 11
2873.04185773955
 21
-17.32760936684303
 31
0.0
100
AcDbText
  0
TEXT
  5
1AB19
330
18
100
AcDbEntity
  8
1TEXT
100
AcDbText
 10
2849.14185773955
 20
3.388761050513267
 30
0.0
 40
6.0
  1
表面処理：握り
 72
     1
 11
2873.04185773955
 21
3.388761050513267
 31
0.0
100
AcDbText
  0
TEXT
  5
1AB1A
330
18
100
AcDbEntity
  8
1TEXT
100
AcDbText
 10
2848.24185773955
 20
-6.864171938773552
 30
0.0
 40
6.0
  1
サテンニッケル
 72
     1
 11
2873.04185773955
 21
-6.864171938773552
 31
0.0
100
AcDbText
  0
LINE
  5
1AB1B
330
18
100
AcDbEntity
  8
1DIM
100
AcDbLine
 10
2794.44185773955
 20
11.63876105051327
 30
0.0
 11
2951.94185773955
 21
11.63876105051327
 31
0.0
  0
LINE
  5
1AB1C
330
18
100
AcDbEntity
  8
1DIM
100
AcDbLine
 10
2794.44185773955
 20
1.138761050513267
 30
0.0
 11
2951.94185773955
 21
1.138761050513267
 31
0.0
  0
LINE
  5
1AB1D
330
18
100
AcDbEntity
  8
1DIM
100
AcDbLine
 10
2794.44185773955
 20
-9.361238949486733
 30
0.0
 11
2951.94185773955
 21
-9.361238949486733
 31
0.0
  0
LINE
  5
1AB1E
330
18
100
AcDbEntity
  8
1DIM
100
AcDbLine
 10
2794.44185773955
 20
-9.361238949486733
 30
0.0
 11
2951.94185773955
 21
-9.361238949486733
 31
0.0
  0
LINE
  5
1AB1F
330
18
100
AcDbEntity
  8
1DIM
100
AcDbLine
 10
2899.44185773955
 20
11.63876105051327
 30
0.0
 11
2899.44185773955
 21
-19.86123894948673
 31
0.0
  0
TEXT
  5
1AB20
330
18
100
AcDbEntity
  8
1TEXT
100
AcDbText
 10
2903.14185773955
 20
-7.432774424960598
 30
0.0
 40
6.0
  1
2-HSK-CN-LJ
 41
0.7
 72
     1
 11
2925.54185773955
 21
-7.432774424960598
 31
0.0
100
AcDbText
  0
TEXT
  5
1AB21
330
18
100
AcDbEntity
  8
1TEXT
100
AcDbText
 10
2915.24185773955
 20
3.388761050513267
 30
0.0
 40
6.0
  1
コード
 72
     1
 11
2925.54185773955
 21
3.388761050513267
 31
0.0
100
AcDbText
  0
LINE
  5
1AB22
330
18
100
AcDbEntity
  8
1DIM
100
AcDbLine
 10
2846.94185773955
 20
-19.86123894948673
 30
0.0
 11
2846.94185773955
 21
11.63876105051327
 31
0.0
  0
LINE
  5
1AB23
330
18
100
AcDbEntity
  8
1DIM
100
AcDbLine
 10
2951.94185773955
 20
-19.86123894948673
 30
0.0
 11
2951.94185773955
 21
11.63876105051327
 31
0.0
  0
TEXT
  5
1AB24
330
18
100
AcDbEntity
  8
1TEXT
100
AcDbText
 10
2902.778316072884
 20
-17.9327744249606
 30
0.0
 40
6.0
  1
2-HSK-CGQ-LJ
 41
0.65
 72
     1
 11
2925.54185773955
 21
-17.9327744249606
 31
0.0
100
AcDbText
  0
TEXT
  5
1AB25
330
18
100
AcDbEntity
  8
1TEXT
100
AcDbText
 10
2806.341857739551
 20
-17.32760936684303
 30
0.0
 40
6.0
  1
クローム
 72
     1
 11
2820.54185773955
 21
-17.32760936684303
 31
0.0
100
AcDbText
  0
TEXT
  5
1AB26
330
18
100
AcDbEntity
  8
1TEXT
100
AcDbText
 10
2795.841857739551
 20
3.388761050513267
 30
0.0
 40
6.0
  1
表面処理：脚部
 72
     1
 11
2820.54185773955
 21
3.388761050513267
 31
0.0
100
AcDbText
  0
TEXT
  5
1AB27
330
18
100
AcDbEntity
  8
1TEXT
100
AcDbText
 10
2806.341857739551
 20
-6.864171938773552
 30
0.0
 40
6.0
  1
クローム
 72
     1
 11
2820.54185773955
 21
-6.864171938773552
 31
0.0
100
AcDbText
  0
LINE
  5
1AB28
330
18
100
AcDbEntity
  8
1DIM
100
AcDbLine
 10
2794.44185773955
 20
-19.86123894948673
 30
0.0
 11
2794.44185773955
 21
11.63876105051327
 31
0.0
  0
LINE
  5
1AB29
330
18
100
AcDbEntity
  8
01
100
AcDbLine
 10
3000.313440017375
 20
-239.8599206363845
 30
0.0
 11
3022.941725399805
 21
-239.8599206363845
 31
0.0
  0
LINE
  5
1AB2D
330
18
100
AcDbEntity
  8
01
100
AcDbLine
 10
3002.441725399805
 20
-119.8599206363845
 30
0.0
 11
3002.441725399805
 21
-309.8599206363845
 31
0.0
  0
LINE
  5
1AB2E
330
18
100
AcDbEntity
  8
1CENTER
100
AcDbLine
 10
3016.941725399805
 20
-254.8599206363845
 30
0.0
 11
3016.941725399805
 21
-246.8599206363845
 31
0.0
  0
LINE
  5
1AB2F
330
18
100
AcDbEntity
  8
01
100
AcDbLine
 10
3122.441725399805
 20
-239.8599206363845
 30
0.0
 11
3182.441725399805
 21
-239.8599206363845
 31
0.0
  0
LINE
  5
1AB30
330
18
100
AcDbEntity
  8
01
100
AcDbLine
 10
3152.441725399805
 20
-209.8599206363845
 30
0.0
 11
3152.441725399805
 21
-269.8599206363845
 31
0.0
  0
LINE
  5
1AB31
330
18
100
AcDbEntity
  8
01
100
AcDbLine
 10
3127.441725399805
 20
-126.3599206363845
 30
0.0
 11
3127.441725399805
 21
-303.3599206363845
 31
0.0
  0
ARC
  5
1AB32
330
18
100
AcDbEntity
  8
01
100
AcDbCircle
 10
3127.941725399805
 20
-303.3599206363845
 30
0.0
 40
0.5
100
AcDbArc
 50
180.0
 51
270.0
  0
LINE
  5
1AB33
330
18
100
AcDbEntity
  8
01
100
AcDbLine
 10
3177.441725399805
 20
-126.3599206363845
 30
0.0
 11
3177.441725399805
 21
-231.3345082381998
 31
0.0
  0
LINE
  5
1AB34
330
18
100
AcDbEntity
  8
01
100
AcDbLine
 10
3177.441725399805
 20
-248.3872974474987
 30
0.0
 11
3177.441725399805
 21
-303.3599206363845
 31
0.0
  0
ARC
  5
1AB35
330
18
100
AcDbEntity
  8
01
100
AcDbCircle
 10
3176.941725399805
 20
-126.3599206363845
 30
0.0
 40
0.5
100
AcDbArc
 50
0.0
 51
90.0
  0
LINE
  5
1AB36
330
18
100
AcDbEntity
  8
01
100
AcDbLine
 10
3176.941725399805
 20
-303.8599206363845
 30
0.0
 11
3127.941725399805
 21
-303.8599206363845
 31
0.0
  0
ARC
  5
1AB37
330
18
100
AcDbEntity
  8
01
100
AcDbCircle
 10
3176.941725399805
 20
-303.3599206363845
 30
0.0
 40
0.5
100
AcDbArc
 50
270.0
 51
0.0
  0
LINE
  5
1AB38
330
18
100
AcDbEntity
  8
01
100
AcDbLine
 10
3127.941725399805
 20
-125.8599206363845
 30
0.0
 11
3176.941725399805
 21
-125.8599206363845
 31
0.0
  0
ARC
  5
1AB39
330
18
100
AcDbEntity
  8
01
100
AcDbCircle
 10
3127.941725399805
 20
-126.3599206363845
 30
0.0
 40
0.5
100
AcDbArc
 50
90.0
 51
180.0
  0
LINE
  5
1AB3A
330
18
100
AcDbEntity
  8
01
100
AcDbLine
 10
3010.941725399805
 20
-126.3599206363845
 30
0.0
 11
3010.941725399805
 21
-303.3599206363845
 31
0.0
  0
ARC
  5
1AB3B
330
18
100
AcDbEntity
  8
01
100
AcDbCircle
 10
3010.441725399805
 20
-303.3599206363845
 30
0.0
 40
0.5
100
AcDbArc
 50
270.0
 51
0.0
  0
LINE
  5
1AB3C
330
18
100
AcDbEntity
  8
01
100
AcDbLine
 10
3002.441725399805
 20
-125.8599206363845
 30
0.0
 11
3002.441725399805
 21
-303.8599206363845
 31
0.0
  0
LINE
  5
1AB3D
330
18
100
AcDbEntity
  8
01
100
AcDbLine
 10
3010.441725399805
 20
-125.8599206363845
 30
0.0
 11
3002.441725399805
 21
-125.8599206363845
 31
0.0
  0
ARC
  5
1AB3E
330
18
100
AcDbEntity
  8
01
100
AcDbCircle
 10
3010.441725399805
 20
-126.3599206363845
 30
0.0
 40
0.5
100
AcDbArc
 50
0.0
 51
90.0
  0
LINE
  5
1AB3F
330
18
100
AcDbEntity
  8
01
100
AcDbLine
 10
3010.441725399805
 20
-303.8599206363845
 30
0.0
 11
3002.441725399805
 21
-303.8599206363845
 31
0.0
  0
LINE
  5
1AB42
330
18
100
AcDbEntity
  8
01
100
AcDbLine
 10
3101.442609581865
 20
10.13876104948417
 30
0.0
 11
3255.196989736898
 21
10.13876104948417
 31
0.0
  0
LINE
  5
1AB43
330
18
100
AcDbEntity
  8
01
100
AcDbLine
 10
3127.441725399805
 20
10.13876104948326
 30
0.0
 11
3177.441725399805
 21
10.13876104948554
 31
0.0
  0
LINE
  5
1AB44
330
18
100
AcDbEntity
  8
01
100
AcDbLine
 10
3127.941725399802
 20
1.638761049483264
 30
0.0
 11
3176.941725399805
 21
1.638761049486902
 31
0.0
  0
LINE
  5
1AB45
330
18
100
AcDbEntity
  8
01
100
AcDbLine
 10
3177.441725399805
 20
10.13876104948554
 30
0.0
 11
3177.441725399805
 21
2.138761049486902
 31
0.0
  0
ARC
  5
1AB46
330
18
100
AcDbEntity
  8
01
100
AcDbCircle
 10
3176.941725399805
 20
2.138761049486902
 30
0.0
 40
0.5
100
AcDbArc
 50
270.0
 51
0.0
  0
LINE
  5
1AB47
330
18
100
AcDbEntity
  8
01
100
AcDbLine
 10
3127.441725399805
 20
10.13876104948326
 30
0.0
 11
3127.441725399802
 21
2.138761049483719
 31
0.0
  0
ARC
  5
1AB48
330
18
100
AcDbEntity
  8
01
100
AcDbCircle
 10
3127.941725399802
 20
2.138761049483264
 30
0.0
 40
0.5
100
AcDbArc
 50
180.0
 51
270.0
  0
LINE
  5
1AB49
330
18
100
AcDbEntity
  8
01
100
AcDbLine
 10
3152.441725399805
 20
-11.36123895051492
 30
0.0
 11
3152.441725399805
 21
15.20459196963316
 31
0.0
  0
LINE
  5
1AB4C
330
18
100
AcDbEntity
  8
01
100
AcDbLine
 10
3011.441725399805
 20
-250.8599588547511
 30
0.0
 11
3013.548428103279
 21
-250.8045245404817
 31
0.0
  0
SPLINE
  5
1AB4D
330
18
100
AcDbEntity
  8
01
100
AcDbSpline
210
0.0
220
0.0
230
1.0
 70
     8
 71
     3
 72
   138
 73
   134
 74
     0
 42
0.0000000001
 43
0.0000000001
 40
0.0
 40
0.0
 40
0.0
 40
0.0
 40
0.1668157130194292
 40
0.3346876553454588
 40
0.5240669493630439
 40
0.7147095099200806
 40
0.8985953965508194
 40
1.083107924707542
 40
1.290805810141262
 40
1.499182253444173
 40
1.701679046967988
 40
1.904500923923147
 40
2.107508332753089
 40
2.310627511543653
 40
2.481455866649648
 40
2.6521672245704
 40
2.730720249536133
 40
2.809206602893594
 40
3.024464093987093
 40
3.239426774508367
 40
3.417629971705596
 40
3.595080099381215
 40
3.665965004232471
 40
3.736621908582423
 40
3.88058279821407
 40
4.023441446393039
 40
4.168623700254177
 40
4.312700030266428
 40
4.455773429886731
 40
4.597946448969819
 40
4.734770866870796
 40
4.871067763021014
 40
5.006134682710677
 40
5.140723777495796
 40
5.408323944773493
 40
5.673767610389495
 40
5.809212267887493
 40
5.94422000793654
 40
6.079065042884841
 40
6.213593550615947
 40
6.348626553422866
 40
6.483273594736706
 40
6.618271226934831
 40
6.752756281565293
 40
7.02047152595319
 40
7.421616657639844
 40
7.692290584559225
 40
7.827919423113985
 40
8.07845510877842
 40
8.327871015826632
 40
8.576841194451651
 40
9.323570508807586
 40
9.575017729387518
 40
10.03707551382911
 40
10.24521813234471
 40
10.87119144050196
 40
11.50512337434287
 40
12.56666713690732
 40
12.78018384205361
 40
13.21089593904656
 40
13.86369562851506
 40
14.51947296165382
 40
14.84710488477319
 40
15.33703996929068
 40
15.66039604316792
 40
15.95641160121191
 40
16.22533809107201
 40
16.35806910952146
 40
16.48946025091275
 40
16.55512360860931
 40
16.62137360057212
 40
16.67216095566956
 40
16.72509011289515
 40
16.75927672523065
 40
16.79348964335928
 40
16.82501671458787
 40
16.85655277983729
 40
16.90650187766521
 40
16.95704041767811
 40
17.00878642968656
 40
17.06051158171665
 40
18.05232509175194
 40
19.05412842030143
 40
19.59748009973429
 40
20.14662486715726
 40
20.6960570326199
 40
21.24549961502616
 40
21.79838629269784
 40
22.35447510513524
 40
22.63281640714843
 40
22.91007054045417
 40
23.18629582463462
 40
23.4615601908881
 40
24.56983334669013
 40
25.68195104993805
 40
25.88208105101144
 40
26.22966387996111
 40
26.52349607570023
 40
26.82000405908244
 40
27.10872157924958
 40
27.39227484299192
 40
27.53218939748468
 40
27.80764894116495
 40
28.06877431243479
 40
28.19319811623436
 40
28.43835210689766
 40
28.79969009877493
 40
29.39673438016384
 40
29.87957113092499
 40
30.36613776974632
 40
30.85438344271968
 40
31.34245740531411
 40
32.17723335082021
 40
33.21783413460746
 40
34.25987937571865
 40
36.00862584052744
 40
37.05883755635396
 40
37.86561754231909
 40
38.78056165034153
 40
39.69506462414768
 40
41.05495505395752
 40
42.8539749115778
 40
44.63434476152022
 40
46.71905378355459
 40
48.78012043535887
 40
50.8350599240697
 40
52.87257028749691
 40
55.92425539466682
 40
58.94112843645743
 40
59.94188621989754
 40
60.94236754650147
 40
61.50419583016652
 40
62.06303412180577
 40
62.06303412180577
 40
62.06303412180577
 40
62.06303412180577
 10
3069.467379226928
 20
-239.8599188276582
 30
0.0
 10
3069.467368259224
 20
-239.9153210988886
 30
0.0
 10
3069.465730437189
 20
-240.0168910457649
 30
0.0
 10
3069.457347761745
 20
-240.1892084369099
 30
0.0
 10
3069.445682428097
 20
-240.3336564420285
 30
0.0
 10
3069.429074932475
 20
-240.4873754619155
 30
0.0
 10
3069.407374907692
 20
-240.6437583240966
 30
0.0
 10
3069.379317622541
 20
-240.8075012453744
 30
0.0
 10
3069.351786512496
 20
-240.9443418412773
 30
0.0
 10
3069.318140557065
 20
-241.0919821347268
 30
0.0
 10
3069.282253643352
 20
-241.231645538345
 30
0.0
 10
3069.243819883957
 20
-241.3676983606836
 30
0.0
 10
3069.201281820671
 20
-241.5047010054593
 30
0.0
 10
3069.163089336416
 20
-241.619478702142
 30
0.0
 10
3069.109879719679
 20
-241.7675098934267
 30
0.0
 10
3069.071054029551
 20
-241.8678991813438
 30
0.0
 10
3069.035537979544
 20
-241.9560039363967
 30
0.0
 10
3068.988540715618
 20
-242.0680991123825
 30
0.0
 10
3068.987323850202
 20
-242.0695293972565
 30
0.0
 10
3068.963124012902
 20
-242.1258781707118
 30
0.0
 10
3068.921650240736
 20
-242.2167540658218
 30
0.0
 10
3068.914700392357
 20
-242.2326215200244
 30
0.0
 10
3068.863550716225
 20
-242.3398043786508
 30
0.0
 10
3068.822547097529
 20
-242.4229579521586
 30
0.0
 10
3068.769401968333
 20
-242.527068252163
 30
0.0
 10
3068.702044838701
 20
-242.6526102321111
 30
0.0
 10
3068.634553442591
 20
-242.7728128285696
 30
0.0
 10
3068.563989759457
 20
-242.8931423615293
 30
0.0
 10
3068.491465962139
 20
-243.011627170016
 30
0.0
 10
3068.41869925131
 20
-243.1258500614292
 30
0.0
 10
3068.341858815093
 20
-243.2418587821091
 30
0.0
 10
3068.265219931285
 20
-243.3532981532696
 30
0.0
 10
3068.186582997225
 20
-243.4636794189253
 30
0.0
 10
3068.08032491109
 20
-243.6078099630065
 30
0.0
 10
3067.944371665239
 20
-243.7834263931488
 30
0.0
 10
3067.80321989999
 20
-243.9550031007209
 30
0.0
 10
3067.686954494835
 20
-244.0901250996837
 30
0.0
 10
3067.597447581364
 20
-244.1910762223258
 30
0.0
 10
3067.507287493761
 20
-244.28982411839
 30
0.0
 10
3067.415267702181
 20
-244.3877320151103
 30
0.0
 10
3067.323597162151
 20
-244.4825875092699
 30
0.0
 10
3067.229933067461
 20
-244.5769204356363
 30
0.0
 10
3067.136628494849
 20
-244.668444730172
 30
0.0
 10
3067.01072148827
 20
-244.7888495247905
 30
0.0
 10
3066.819866461632
 20
-244.9646181403293
 30
0.0
 10
3066.590151961327
 20
-245.1631637343542
 30
0.0
 10
3066.392596978309
 20
-245.3238825026881
 30
0.0
 10
3066.230057918739
 20
-245.4516191471564
 30
0.0
 10
3066.07214752535
 20
-245.5717163139104
 30
0.0
 10
3065.883252196239
 20
-245.7095084214341
 30
0.0
 10
3065.566903662653
 20
-245.9308842156249
 30
0.0
 10
3065.242790920875
 20
-246.1395346560537
 30
0.0
 10
3064.861872688143
 20
-246.3656165833252
 30
0.0
 10
3064.621695793945
 20
-246.5003075120192
 30
0.0
 10
3064.278307524895
 20
-246.6831318450165
 30
0.0
 10
3063.886642866551
 20
-246.8777753082493
 30
0.0
 10
3063.266072876197
 20
-247.1558186571272
 30
0.0
 10
3062.749404135697
 20
-247.3572619281056
 30
0.0
 10
3062.282947478336
 20
-247.5200093519768
 30
0.0
 10
3061.929931941642
 20
-247.6363134004348
 30
0.0
 10
3061.449719621876
 20
-247.7794751131476
 30
0.0
 10
3060.994660232649
 20
-247.8986786501598
 30
0.0
 10
3060.577702198101
 20
-247.9971659107111
 30
0.0
 10
3060.252153873729
 20
-248.0672104529865
 30
0.0
 10
3059.928731598233
 20
-248.1303605668443
 30
0.0
 10
3059.662764696019
 20
-248.1782413697927
 30
0.0
 10
3059.44712773155
 20
-248.2140391960645
 30
0.0
 10
3059.278190204781
 20
-248.2404032383872
 30
0.0
 10
3059.170775674454
 20
-248.2564668131433
 30
0.0
 10
3059.084116790291
 20
-248.2690040771365
 30
0.0
 10
3059.023480162989
 20
-248.2775788241368
 30
0.0
 10
3058.968441984802
 20
-248.2852098686387
 30
0.0
 10
3058.923133368467
 20
-248.2913766728241
 30
0.0
 10
3058.889588017486
 20
-248.2958828235276
 30
0.0
 10
3058.858657232944
 20
-248.2999928862716
 30
0.0
 10
3058.836749133303
 20
-248.3028772764681
 30
0.0
 10
3058.806958046982
 20
-248.3067691534795
 30
0.0
 10
3058.783790133824
 20
-248.3097633284613
 30
0.0
 10
3058.760524113441
 20
-248.3127491667726
 30
0.0
 10
3058.744304897415
 20
-248.314817495723
 30
0.0
 10
3058.613243279588
 20
-248.331446314596
 30
0.0
 10
3058.412582347521
 20
-248.3556087897757
 30
0.0
 10
3058.111585509134
 20
-248.388938519706
 30
0.0
 10
3057.922318507241
 20
-248.4088968241283
 30
0.0
 10
3057.767390027171
 20
-248.4249669379112
 30
0.0
 10
3057.597107943971
 20
-248.4422578533838
 30
0.0
 10
3057.41097340652
 20
-248.4607679412109
 30
0.0
 10
3057.223027664415
 20
-248.4791183530267
 30
0.0
 10
3057.062523010005
 20
-248.4945817581217
 30
0.0
 10
3056.929415920797
 20
-248.5073016988606
 30
0.0
 10
3056.823347537402
 20
-248.517377822244
 30
0.0
 10
3056.712145387088
 20
-248.5278639082596
 30
0.0
 10
3056.478713315417
 20
-248.54974251626
 30
0.0
 10
3056.072852718507
 20
-248.5865852145578
 30
0.0
 10
3055.871563719036
 20
-248.6055807666532
 30
0.0
 10
3055.443555500346
 20
-248.6437781816028
 30
0.0
 10
3055.198876224347
 20
-248.6648099361171
 30
0.0
 10
3054.908571781783
 20
-248.6885615060462
 30
0.0
 10
3054.63765454993
 20
-248.7096971155977
 30
0.0
 10
3054.387114050784
 20
-248.7285902571045
 30
0.0
 10
3054.189609671814
 20
-248.7431579410411
 30
0.0
 10
3054.00124839954
 20
-248.7569066926778
 30
0.0
 10
3053.823297066378
 20
-248.7697944472172
 30
0.0
 10
3053.658251524655
 20
-248.7817134830791
 30
0.0
 10
3053.496473172796
 20
-248.7934045193176
 30
0.0
 10
3053.303856306264
 20
-248.8073165041712
 30
0.0
 10
3052.973527029611
 20
-248.8311186077906
 30
0.0
 10
3052.555922338934
 20
-248.86098696156
 30
0.0
 10
3052.084450220796
 20
-248.8941950567403
 30
0.0
 10
3051.644572375944
 20
-248.9248060056959
 30
0.0
 10
3051.200077713009
 20
-248.9554943526098
 30
0.0
 10
3050.64866503974
 20
-248.9933728447784
 30
0.0
 10
3049.919922754361
 20
-249.0432024902245
 30
0.0
 10
3049.003427818319
 20
-249.1051921947499
 30
0.0
 10
3047.782533430585
 20
-249.1865921432152
 30
0.0
 10
3046.541780340232
 20
-249.26794453039
 30
0.0
 10
3045.365085168394
 20
-249.3438776592018
 30
0.0
 10
3044.452390021674
 20
-249.4018965535449
 30
0.0
 10
3043.578826628887
 20
-249.4564968332213
 30
0.0
 10
3042.517653692152
 20
-249.5214354340703
 30
0.0
 10
3041.162569576263
 20
-249.6021266137093
 30
0.0
 10
3039.521127661686
 20
-249.6985618961505
 30
0.0
 10
3037.638658553802
 20
-249.8090550080885
 30
0.0
 10
3035.66926499414
 20
-249.9206465869127
 30
0.0
 10
3033.607937794945
 20
-250.0326285287299
 30
0.0
 10
3031.561612578924
 20
-250.1386242462256
 30
0.0
 10
3029.185540455815
 20
-250.2556733213121
 30
0.0
 10
3026.489184458966
 20
-250.3782553046183
 30
0.0
 10
3024.136170301066
 20
-250.4713612884177
 30
0.0
 10
3022.465339542685
 20
-250.5319179250962
 30
0.0
 10
3021.611850580368
 20
-250.5620033475241
 30
0.0
 10
3020.905398124029
 20
-250.585139363581
 30
0.0
 10
3020.532253620768
 20
-250.5990958465325
 30
0.0
 10
3020.346065087098
 20
-250.6040989811397
 30
0.0
  0
SPLINE
  5
1AB4E
330
18
100
AcDbEntity
  8
01
100
AcDbSpline
210
0.0
220
0.0
230
1.0
 70
     8
 71
     3
 72
    21
 73
    17
 74
     0
 42
0.0000000001
 43
0.0000000001
 40
0.0
 40
0.0
 40
0.0
 40
0.0
 40
0.0851307068292339
 40
0.2153854175050789
 40
0.3139243314719375
 40
0.412233476593946
 40
0.5601151404401017
 40
0.9297231521164819
 40
1.151451454783988
 40
1.502743620640995
 40
1.736845939152541
 40
2.345000851588668
 40
2.730716427843832
 40
3.243685533877488
 40
4.637678957492575
 40
5.333893055117052
 40
5.333893055117052
 40
5.333893055117052
 40
5.333893055117052
 10
3013.550358239625
 20
-250.8043583291344
 30
0.0
 10
3013.566143597418
 20
-250.803936336443
 30
0.0
 10
3013.58363122429
 20
-250.8017320419001
 30
0.0
 10
3013.597897697569
 20
-250.799835571677
 30
0.0
 10
3013.613829042475
 20
-250.7971607989791
 30
0.0
 10
3013.632467886013
 20
-250.7937938533103
 30
0.0
 10
3013.667179111944
 20
-250.78712085033
 30
0.0
 10
3013.721465605076
 20
-250.7768111688781
 30
0.0
 10
3013.821133296402
 20
-250.7590016205884
 30
0.0
 10
3013.927577394899
 20
-250.7401293734763
 30
0.0
 10
3014.114495456226
 20
-250.7079122115972
 30
0.0
 10
3014.350036531192
 20
-250.6691140413284
 30
0.0
 10
3014.694317264413
 20
-250.6177929275034
 30
0.0
 10
3015.287183495788
 20
-250.5385739725032
 30
0.0
 10
3016.101187216987
 20
-250.4595533141799
 30
0.0
 10
3016.800147450103
 20
-250.4308668831952
 30
0.0
 10
3017.03165956755
 20
-250.4255552109578
 30
0.0
  0
SPLINE
  5
1AB4F
330
18
100
AcDbEntity
  8
01
100
AcDbSpline
210
0.0
220
0.0
230
1.0
 70
     8
 71
     3
 72
   161
 73
   157
 74
     0
 42
0.0000000001
 43
0.0000000001
 40
0.0
 40
0.0
 40
0.0
 40
0.0
 40
0.1753276591652896
 40
0.3519044495348527
 40
0.5296347732845289
 40
0.7084108616293461
 40
0.8823101758413803
 40
1.056860246306637
 40
1.267321473500869
 40
1.478598981410851
 40
1.698593606378595
 40
1.918963458870645
 40
2.107408618756955
 40
2.295733498234714
 40
2.461477313870521
 40
2.626961935464299
 40
2.777432642032876
 40
2.927548665257361
 40
3.00177237759288
 40
3.075878649229417
 40
3.147270802325481
 40
3.218465040601231
 40
3.364074812929046
 40
3.508723249385344
 40
3.653062580038595
 40
3.796485657768224
 40
3.939029070108194
 40
4.080726961651802
 40
4.218782162113135
 40
4.356174503276981
 40
4.492907066476416
 40
4.628986828465611
 40
4.899121683385133
 40
5.167026625407447
 40
5.300346847982976
 40
5.433238411412505
 40
5.566025713674333
 40
5.698460172232819
 40
5.831178089348829
 40
5.963607037547601
 40
6.096221802301735
 40
6.228595463666009
 40
6.436235965323256
 40
6.644073933893274
 40
6.852209702767026
 40
7.059925032818242
 40
7.268292062311387
 40
7.476250453930771
 40
7.893245666987257
 40
8.065712624877925
 40
8.238063048380367
 40
8.410811372925146
 40
8.92802287965372
 40
9.272880491136824
 40
9.619724739924168
 40
10.31752282469657
 40
10.66822216000941
 40
11.18964540534406
 40
11.45043819379522
 40
11.71289900943138
 40
11.97682335269064
 40
12.77116854795565
 40
13.03663544928481
 40
13.5697948965027
 40
14.36792165891221
 40
14.89885001030253
 40
15.2583126502101
 40
15.61079239575969
 40
15.69746829704618
 40
15.86886630374273
 40
15.95368425838593
 40
15.99600465780758
 40
16.03838648454619
 40
16.08121972553973
 40
16.12412443397156
 40
16.17033844542302
 40
16.21662766030539
 40
16.2466414232401
 40
16.27667526547951
 40
16.30484128941486
 40
16.3330147018479
 40
16.37600967978959
 40
16.41931394642792
 40
16.46371986904074
 40
16.50811001488443
 40
16.59786998379897
 40
16.68756487456678
 40
16.86851690829732
 40
17.04920229559118
 40
17.41150458881523
 40
18.03324322374408
 40
18.29683723786884
 40
18.83245571631319
 40
19.3772955531871
 40
19.65058637522725
 40
20.3122615440759
 40
20.70090138143717
 40
21.09144292122238
 40
21.48373808860526
 40
21.87748136894416
 40
22.27076176857144
 40
22.46635164106641
 40
22.66183471333888
 40
23.05083358640117
 40
23.38186736816081
 40
23.88485779616349
 40
24.05474264920091
 40
24.22585082071532
 40
24.39805743121401
 40
24.57228945751721
 40
24.74621167943534
 40
24.83046135932649
 40
24.99399742050408
 40
25.15406868498914
 40
25.39566743937679
 40
25.64621839534745
 40
25.90849182443579
 40
26.08929283538605
 40
26.26794001169155
 40
26.44333160660758
 40
26.61658700906262
 40
26.78799732060817
 40
26.95762164491552
 40
27.12529634459997
 40
27.45367866512593
 40
27.77196099452028
 40
27.92808537341424
 40
28.08271757058687
 40
28.59269882506748
 40
29.0012738236437
 40
29.20741171837419
 40
30.03812295407611
 40
30.45512700784406
 40
30.87173364194304
 40
31.28855683089697
 40
32.16709571260193
 40
32.62846021532462
 40
33.08985867115978
 40
34.94500812755368
 40
35.87622159166673
 40
37.50856175317855
 40
38.67996595723793
 40
39.50585720406737
 40
39.86286985642367
 40
41.28651074497824
 40
41.99439928761057
 40
43.39591297843097
 40
44.80370702859335
 40
46.88496279090998
 40
50.99680386293853
 40
53.0314855883046
 40
54.05069632410141
 40
57.08366503897778
 40
59.08867417229233
 40
65.06755382581002
 40
70.4615077558024
 40
70.4615077558024
 40
70.4615077558024
 40
70.4615077558024
 10
3069.467379226928
 20
-239.8599188276582
 30
0.0
 10
3069.467390754271
 20
-239.801689597625
 30
0.0
 10
3069.46568316816
 20
-239.7030474156461
 30
0.0
 10
3069.4581873101
 20
-239.5423690491623
 30
0.0
 10
3069.445836843643
 20
-239.3861245196065
 30
0.0
 10
3069.429188831547
 20
-239.2334037221115
 30
0.0
 10
3069.407745446846
 20
-239.0782127105256
 30
0.0
 10
3069.378242988194
 20
-238.9066251736838
 30
0.0
 10
3069.352257638908
 20
-238.7779515187219
 30
0.0
 10
3069.316660003296
 20
-238.6215893944197
 30
0.0
 10
3069.282226435636
 20
-238.4885163575216
 30
0.0
 10
3069.248510030635
 20
-238.3677108017216
 30
0.0
 10
3069.202171077057
 20
-238.2172437602328
 30
0.0
 10
3069.163161807883
 20
-238.1001738197053
 30
0.0
 10
3069.111667792788
 20
-237.9567722648997
 30
0.0
 10
3069.066652694426
 20
-237.8397671386717
 30
0.0
 10
3069.010891704806
 20
-237.7035648909048
 30
0.0
 10
3068.967874130865
 20
-237.604585103905
 30
0.0
 10
3068.927853799645
 20
-237.5161507684522
 30
0.0
 10
3068.898973309853
 20
-237.454085993945
 30
0.0
 10
3068.867382973072
 20
-237.387951735737
 30
0.0
 10
3068.825035262267
 20
-237.3016882810177
 30
0.0
 10
3068.771942751908
 20
-237.1975708020007
 30
0.0
 10
3068.704594350203
 20
-237.071767167178
 30
0.0
 10
3068.635625929111
 20
-236.9488583219006
 30
0.0
 10
3068.564365085189
 20
-236.8273863283318
 30
0.0
 10
3068.491058996504
 20
-236.7076835448258
 30
0.0
 10
3068.416862138838
 20
-236.5913269931186
 30
0.0
 10
3068.339701157856
 20
-236.4749344497611
 30
0.0
 10
3068.261944855276
 20
-236.3619385523677
 30
0.0
 10
3068.182566276389
 20
-236.2505773276559
 30
0.0
 10
3068.075153120357
 20
-236.1049298532023
 30
0.0
 10
3067.937555017614
 20
-235.9273547435139
 30
0.0
 10
3067.794890088662
 20
-235.7545301992166
 30
0.0
 10
3067.679083969677
 20
-235.6204296588237
 30
0.0
 10
3067.590951941029
 20
-235.5213238812591
 30
0.0
 10
3067.502324949957
 20
-235.4244683654676
 30
0.0
 10
3067.412049881827
 20
-235.3285328044665
 30
0.0
 10
3067.321744186178
 20
-235.235144060023
 30
0.0
 10
3067.229797235728
 20
-235.1425462386267
 30
0.0
 10
3067.137655602679
 20
-235.0521427678948
 30
0.0
 10
3067.026466060182
 20
-234.9458111321289
 30
0.0
 10
3066.89665019924
 20
-234.8256404058191
 30
0.0
 10
3066.746938789223
 20
-234.6922988187541
 30
0.0
 10
3066.596134546993
 20
-234.5629417566986
 30
0.0
 10
3066.442515861741
 20
-234.4359863444349
 30
0.0
 10
3066.288845376035
 20
-234.313556763095
 30
0.0
 10
3066.080500886526
 20
-234.1534449696708
 30
0.0
 10
3065.879531424061
 20
-234.0071308945978
 30
0.0
 10
3065.686029045462
 20
-233.8728982014698
 30
0.0
 10
3065.55331081431
 20
-233.7833967833283
 30
0.0
 10
3065.332156007891
 20
-233.6383858729748
 30
0.0
 10
3065.06338532583
 20
-233.4717691754965
 30
0.0
 10
3064.74631549478
 20
-233.2884654539582
 30
0.0
 10
3064.380427025288
 20
-233.0883591876343
 30
0.0
 10
3064.008718530873
 20
-232.9015481590675
 30
0.0
 10
3063.58884896983
 20
-232.7076862237061
 30
0.0
 10
3063.285408276181
 20
-232.57715069034
 30
0.0
 10
3063.002321582684
 20
-232.463059826832
 30
0.0
 10
3062.789152287092
 20
-232.3809118880069
 30
0.0
 10
3062.43079660042
 20
-232.248898237666
 30
0.0
 10
3062.069464851267
 20
-232.1276703139818
 30
0.0
 10
3061.630854060357
 20
-231.9941268827604
 30
0.0
 10
3061.189825148433
 20
-231.8697498621439
 30
0.0
 10
3060.666694285017
 20
-231.7409123090963
 30
0.0
 10
3060.183339025551
 20
-231.6383355353989
 30
0.0
 10
3059.817891764706
 20
-231.5687885395862
 30
0.0
 10
3059.575807697729
 20
-231.5269458782793
 30
0.0
 10
3059.38534426876
 20
-231.4960998502718
 30
0.0
 10
3059.27627254827
 20
-231.4791223593427
 30
0.0
 10
3059.179371615635
 20
-231.4646534618894
 30
0.0
 10
3059.123482821262
 20
-231.4564850242921
 30
0.0
 10
3059.081499066871
 20
-231.4504376667671
 30
0.0
 10
3059.039469689145
 20
-231.4444701526261
 30
0.0
 10
3058.995097399729
 20
-231.4382669766908
 30
0.0
 10
3058.953909886206
 20
-231.4325927594471
 30
0.0
 10
3058.913101801878
 20
-231.4270610140645
 30
0.0
 10
3058.884623021342
 20
-231.4232464180839
 30
0.0
 10
3058.858046706417
 20
-231.4197188217238
 30
0.0
 10
3058.838625758501
 20
-231.417161970862
 30
0.0
 10
3058.812651560027
 20
-231.4137663730687
 30
0.0
 10
3058.792596344585
 20
-231.4111685170453
 30
0.0
 10
3058.770673528215
 20
-231.4083476103931
 30
0.0
 10
3058.756784164128
 20
-231.4065712413965
 30
0.0
 10
3058.734126963409
 20
-231.4036857203444
 30
0.0
 10
3058.71157613944
 20
-231.4008352589033
 30
0.0
 10
3058.669996612023
 20
-231.3956237969203
 30
0.0
 10
3058.625712689898
 20
-231.3901458212692
 30
0.0
 10
3058.545765774828
 20
-231.3804100577297
 30
0.0
 10
3058.423365454613
 20
-231.3658473921512
 30
0.0
 10
3058.270803370368
 20
-231.3484930310894
 30
0.0
 10
3058.121252982017
 20
-231.3320917396311
 30
0.0
 10
3057.990337145984
 20
-231.3180855361177
 30
0.0
 10
3057.867922855625
 20
-231.3052871932111
 30
0.0
 10
3057.723538243994
 20
-231.2904097184689
 30
0.0
 10
3057.584619046391
 20
-231.2763406328211
 30
0.0
 10
3057.421664045061
 20
-231.2601653772224
 30
0.0
 10
3057.289219535975
 20
-231.2471881659337
 30
0.0
 10
3057.153844701741
 20
-231.234061634859
 30
0.0
 10
3057.016467882979
 20
-231.2208588252468
 30
0.0
 10
3056.897307465459
 20
-231.2094911440188
 30
0.0
 10
3056.793567472183
 20
-231.1996654075954
 30
0.0
 10
3056.689599526322
 20
-231.1898680638449
 30
0.0
 10
3056.558180701599
 20
-231.1775786083233
 30
0.0
 10
3056.371946607385
 20
-231.1603718620452
 30
0.0
 10
3056.228861686648
 20
-231.1473053900215
 30
0.0
 10
3056.116266367302
 20
-231.1370438883166
 30
0.0
 10
3056.050740078284
 20
-231.1310739786156
 30
0.0
 10
3055.986108022091
 20
-231.1251807904671
 30
0.0
 10
3055.926337774041
 20
-231.1197218503728
 30
0.0
 10
3055.879667391135
 20
-231.1154456956062
 30
0.0
 10
3055.820130229915
 20
-231.1099879968122
 30
0.0
 10
3055.749881847987
 20
-231.1035614724904
 30
0.0
 10
3055.628948127513
 20
-231.0925957039588
 30
0.0
 10
3055.461069554818
 20
-231.0776433706376
 30
0.0
 10
3055.243319030609
 20
-231.0588689147405
 30
0.0
 10
3055.032544375164
 20
-231.0413821492455
 30
0.0
 10
3054.837776426513
 20
-231.0257843476727
 30
0.0
 10
3054.674785195617
 20
-231.0130838589064
 30
0.0
 10
3054.519676956672
 20
-231.0012519357822
 30
0.0
 10
3054.370688024253
 20
-230.9900787495933
 30
0.0
 10
3054.227284593546
 20
-230.9794665524757
 30
0.0
 10
3054.088731169933
 20
-230.9693158932548
 30
0.0
 10
3053.911121459118
 20
-230.9563976548623
 30
0.0
 10
3053.703330889773
 20
-230.9413882596834
 30
0.0
 10
3053.500141792969
 20
-230.926701311442
 30
0.0
 10
3053.333085212038
 20
-230.9146385372503
 30
0.0
 10
3053.111033524136
 20
-230.8986246478269
 30
0.0
 10
3052.80816142173
 20
-230.8768638011713
 30
0.0
 10
3052.476996379559
 20
-230.8533099805361
 30
0.0
 10
3052.043053495836
 20
-230.822721720793
 30
0.0
 10
3051.603969905962
 20
-230.7921945229607
 30
0.0
 10
3051.097655710939
 20
-230.7572976306235
 30
0.0
 10
3050.716600346455
 20
-230.7311331841063
 30
0.0
 10
3050.19043913986
 20
-230.6951132718266
 30
0.0
 10
3049.643439573221
 20
-230.6578981119135
 30
0.0
 10
3049.075881087405
 20
-230.6196256181854
 30
0.0
 10
3048.195004503919
 20
-230.5605968140096
 30
0.0
 10
3047.150988009886
 20
-230.4916621343398
 30
0.0
 10
3045.715903771106
 20
-230.3983778048084
 30
0.0
 10
3044.488945265366
 20
-230.3199237661872
 30
0.0
 10
3043.283980108432
 20
-230.2450430627339
 30
0.0
 10
3042.500418025127
 20
-230.1975395544284
 30
0.0
 10
3041.633245126421
 20
-230.1456133390618
 30
0.0
 10
3040.805925477354
 20
-230.0967498484677
 30
0.0
 10
3039.631688154119
 20
-230.0277427921162
 30
0.0
 10
3038.462470132894
 20
-229.9589268413172
 30
0.0
 10
3036.837468037029
 20
-229.8650462057328
 30
0.0
 10
3034.310961167284
 20
-229.7237069260734
 30
0.0
 10
3031.575139968174
 20
-229.5807788341324
 30
0.0
 10
3029.191843900626
 20
-229.4654738699116
 30
0.0
 10
3027.167244073404
 20
-229.3724670298141
 30
0.0
 10
3025.15177892369
 20
-229.2875844378266
 30
0.0
 10
3021.484086714852
 20
-229.1496069705352
 30
0.0
 10
3017.027989972976
 20
-229.0085517103951
 30
0.0
 10
3013.238908493331
 20
-228.9062188180621
 30
0.0
 10
3011.441725399805
 20
-228.8598824180178
 30
0.0
  0
SPLINE
  5
1AB50
330
18
100
AcDbEntity
  8
01
100
AcDbSpline
210
0.0
220
0.0
230
1.0
 70
     8
 71
     3
 72
    18
 73
    14
 74
     0
 42
0.0000000001
 43
0.0000000001
 40
0.0
 40
0.0
 40
0.0
 40
0.0
 40
0.6968103897542867
 40
1.801970234880123
 40
2.17321326497219
 40
2.423509114463025
 40
3.439835155986084
 40
3.957522063926517
 40
4.346495939257521
 40
4.56152175118824
 40
4.77720781402824
 40
4.905127338730156
 40
5.034878036177931
 40
5.034878036177931
 40
5.034878036177931
 40
5.034878036177931
 10
3017.03165956755
 20
-250.4255552109578
 30
0.0
 10
3017.263373791928
 20
-250.4202389017025
 30
0.0
 10
3017.863259205566
 20
-250.4174582363664
 30
0.0
 10
3018.538038490038
 20
-250.4459993012958
 30
0.0
 10
3019.005348953513
 20
-250.4790355437588
 30
0.0
 10
3019.417274842943
 20
-250.5125021438241
 30
0.0
 10
3019.789389477108
 20
-250.550910070903
 30
0.0
 10
3020.068596896866
 20
-250.5812495916723
 30
0.0
 10
3020.186322974219
 20
-250.5934103302404
 30
0.0
 10
3020.250922854117
 20
-250.5996380620797
 30
0.0
 10
3020.286747163707
 20
-250.6026046931145
 30
0.0
 10
3020.314773790931
 20
-250.604086696
 30
0.0
 10
3020.332144564087
 20
-250.6045565268539
 30
0.0
 10
3020.345465224334
 20
-250.6041200136431
 30
0.0
  0
LINE
  5
1AB51
330
18
100
AcDbEntity
  8
01
100
AcDbLine
 10
3011.441725399805
 20
-228.8598824180178
 30
0.0
 11
3011.441725399805
 21
-250.8599588547511
 31
0.0
  0
ARC
  5
1AB52
330
18
100
AcDbEntity
  8
01
  6
CONTINUOUS
100
AcDbCircle
 10
3180.94177083491
 20
-231.8682322771822
 30
0.0
 40
0.5000152713007943
100
AcDbArc
 50
89.04565565614848
 51
179.9982666570861
  0
ARC
  5
1AB53
330
18
100
AcDbEntity
  8
01
  6
CONTINUOUS
100
AcDbCircle
 10
3278.404008751808
 20
-243.9989659254063
 30
0.0
 40
1.525357082928538
100
AcDbArc
 50
274.6043743568678
 51
346.0053948696606
  0
SPLINE
  5
1AB54
330
18
100
AcDbEntity
  8
01
  6
CONTINUOUS
100
AcDbSpline
210
0.0
220
0.0
230
1.0
 70
     8
 71
     3
 72
    19
 73
    15
 74
     0
 42
0.0000000001
 43
0.0000000001
 40
0.0
 40
0.0
 40
0.0
 40
0.0
 40
9.460161730091599
 40
15.98254808382674
 40
21.19129945756545
 40
25.09589110006226
 40
31.07976597410934
 40
37.07051130115414
 40
49.03234155557556
 40
60.99958883125357
 40
72.94987208489064
 40
78.94125269660621
 40
87.91845955628929
 40
97.64525170031928
 40
97.64525170031928
 40
97.64525170031928
 40
97.64525170031928
 10
3278.530220190863
 20
-234.2134158074607
 30
0.0
 10
3275.388963249839
 20
-233.9694961255166
 30
0.0
 10
3270.075684999876
 20
-233.6134616441107
 30
0.0
 10
3263.022026871238
 20
-233.2718689347305
 30
0.0
 10
3257.814327857073
 20
-233.083122578849
 30
0.0
 10
3252.784489819876
 20
-232.9395448349017
 30
0.0
 10
3247.493089211019
 20
-232.8218367286966
 30
0.0
 10
3239.516311973206
 20
-232.6644219273323
 30
0.0
 10
3229.546138512076
 20
-232.4438689348237
 30
0.0
 10
3217.590551207193
 20
-232.1623119568192
 30
0.0
 10
3207.624482729021
 20
-231.9247304749626
 30
0.0
 10
3198.654441485631
 20
-231.7208528452131
 30
0.0
 10
3190.425073214783
 20
-231.54299760554
 30
0.0
 10
3184.191829071417
 20
-231.4223658555986
 30
0.0
 10
3180.950099354075
 20
-231.3682609375903
 30
0.0
  0
SPLINE
  5
1AB55
330
18
100
AcDbEntity
  8
01
  6
CONTINUOUS
100
AcDbSpline
210
0.0
220
0.0
230
1.0
 70
     8
 71
     3
 72
     8
 73
     4
 74
     0
 42
0.0000000001
 43
0.0000000001
 40
0.0
 40
0.0
 40
0.0
 40
0.0
 40
0.2577938006557611
 40
0.2577938006557611
 40
0.2577938006557611
 40
0.2577938006557611
 10
3180.441755299817
 20
-247.8524421146769
 30
0.0
 10
3180.441758285106
 20
-247.8543448846797
 30
0.0
 10
3180.441757836395
 20
-247.8533971791819
 30
0.0
 10
3180.441756980119
 20
-247.8516761416661
 30
0.0
  0
ARC
  5
1AB56
330
18
100
AcDbEntity
  8
01
  6
CONTINUOUS
100
AcDbCircle
 10
3180.941770183665
 20
-247.8516782619347
 30
0.0
 40
0.5000153888062217
100
AcDbArc
 50
180.0017142246948
 51
270.947088851936
  0
ARC
  5
1AB57
330
18
100
AcDbEntity
  8
01
  6
CONTINUOUS
100
AcDbCircle
 10
3278.408195960854
 20
-235.7328417892224
 30
0.0
 40
1.524291238605641
100
AcDbArc
 50
14.00382236259211
 51
85.41177810106211
  0
ARC
  5
1AB58
330
18
100
AcDbEntity
  8
01
  6
CONTINUOUS
100
AcDbCircle
 10
3262.441694676572
 20
-239.8599206256179
 30
0.0
 40
18.01550911287495
100
AcDbArc
 50
345.5085506272797
 51
14.45129326876823
  0
SPLINE
  5
1AB59
330
18
100
AcDbEntity
  8
01
  6
CONTINUOUS
100
AcDbSpline
210
0.0
220
0.0
230
1.0
 70
     8
 71
     3
 72
    18
 73
    14
 74
     0
 42
0.0000000001
 43
0.0000000001
 40
0.0084261242649831
 40
0.0084261242649831
 40
0.0084261242649831
 40
0.0084261242649831
 40
7.712846085700495
 40
14.65425159473615
 40
25.07157586312692
 40
31.0434317342125
 40
43.00917413402433
 40
60.95019085191205
 40
72.92347365185603
 40
75.9095362856851
 40
81.88455093582228
 40
87.86541887519844
 40
97.65001262520049
 40
97.65001262520049
 40
97.65001262520049
 40
97.65001262520049
 10
3180.950035204547
 20
-248.3516394385917
 30
0.0
 10
3183.517753536247
 20
-248.3091076349667
 30
0.0
 10
3188.398648333718
 20
-248.2177624456301
 30
0.0
 10
3196.750725162188
 20
-248.043778964279
 30
0.0
 10
3204.525109250204
 20
-247.8695838619512
 30
0.0
 10
3213.973460188288
 20
-247.6487112989105
 30
0.0
 10
3225.928727423543
 20
-247.3650243672448
 30
0.0
 10
3239.884129457098
 20
-247.0490633612401
 30
0.0
 10
3250.848499937876
 20
-246.843854892564
 30
0.0
 10
3257.823095680289
 20
-246.6461741987016
 30
0.0
 10
3262.799860876219
 20
-246.4684259121616
 30
0.0
 10
3270.036409187202
 20
-246.1196021918524
 30
0.0
 10
3275.277877905624
 20
-245.771344072891
 30
0.0
 10
3278.527062401841
 20
-245.5193228567384
 30
0.0
  0
LINE
  5
1AB5A
330
18
100
AcDbEntity
  8
01
100
AcDbLine
 10
3180.441755563839
 20
-231.8682171504499
 30
0.0
 11
3180.441757599114
 21
-247.8531074169593
 31
0.0
  0
LINE
  5
1AB5B
330
18
100
AcDbEntity
  8
01
100
AcDbLine
 10
3180.44168859238
 20
-231.6584275902585
 30
0.0
 11
3180.44168859238
 21
-239.8599206363845
 31
0.0
  0
LINE
  5
1AB5C
330
18
100
AcDbEntity
  8
01
100
AcDbLine
 10
3180.44168859238
 20
-239.8599206363845
 30
0.0
 11
3180.44168859238
 21
-248.0633198618618
 31
0.0
  0
ARC
  5
1AB5D
330
18
100
AcDbEntity
  8
01
100
AcDbCircle
 10
3180.141629281203
 20
-248.0632648311432
 30
0.0
 40
0.3000593162567604
100
AcDbArc
 50
270.473277023687
 51
359.9894579441742
  0
SPLINE
  5
1AB5E
330
18
100
AcDbEntity
  8
01
100
AcDbSpline
210
0.0
220
0.0
230
1.0
 70
     8
 71
     3
 72
    50
 73
    46
 74
     0
 42
0.0000000001
 43
0.0000000001
 40
40.24605889528515
 40
40.24605889528515
 40
40.24605889528515
 40
40.24605889528515
 40
40.41330824550255
 40
41.05947960633106
 40
42.10215968566057
 40
42.51026830244423
 40
43.11266884409871
 40
43.50922291673435
 40
43.98418136823029
 40
44.53538836255579
 40
45.08142471240612
 40
45.62181933743891
 40
45.88937875052035
 40
46.06066524137628
 40
46.57258251084908
 40
47.08382222064991
 40
47.42685914774938
 40
47.94939217292845
 40
48.30296108340335
 40
48.65809398927975
 40
48.91534449632767
 40
49.42903302199714
 40
49.94097800742659
 40
50.70656261856672
 40
51.21581259154242
 40
51.97875699634007
 40
52.74150980806883
 40
53.13326652189864
 40
54.3118397937692
 40
54.70465026371415
 40
55.09791575571316
 40
55.49173697177937
 40
55.88448045148156
 40
56.16708261071171
 40
56.73196250872059
 40
57.01766912717855
 40
57.30623476903798
 40
57.89114633580776
 40
58.77871620482893
 40
59.37384912472834
 40
59.96449161567381
 40
60.55313685403777
 40
64.62558942126732
 40
68.70884455955124
 40
70.4428402906394
 40
70.4428402906394
 40
70.4428402906394
 40
70.4428402906394
 10
3156.332548690974
 20
-249.0280354879835
 30
0.0
 10
3156.332548697515
 20
-249.0280355281059
 30
0.0
 10
3156.334930707179
 20
-249.0276599787642
 30
0.0
 10
3156.365634148537
 20
-249.0229863794486
 30
0.0
 10
3156.460720166495
 20
-249.0100081284411
 30
0.0
 10
3156.608000849716
 20
-248.9920721375595
 30
0.0
 10
3156.742676772268
 20
-248.9766525579955
 30
0.0
 10
3156.914067439975
 20
-248.958236079023
 30
0.0
 10
3157.101597384102
 20
-248.9390783181946
 30
0.0
 10
3157.340647836991
 20
-248.9160306176084
 30
0.0
 10
3157.617862497511
 20
-248.8908107999025
 30
0.0
 10
3157.861508958673
 20
-248.8698224849861
 30
0.0
 10
3158.053274570446
 20
-248.8539030929962
 30
0.0
 10
3158.246003416521
 20
-248.8381689621094
 30
0.0
 10
3158.498692759302
 20
-248.8180187844393
 30
0.0
 10
3158.80571215851
 20
-248.7940554278969
 30
0.0
 10
3159.08710659196
 20
-248.7724969838812
 30
0.0
 10
3159.318715985042
 20
-248.7553372402083
 30
0.0
 10
3159.546673083114
 20
-248.7392341806592
 30
0.0
 10
3159.73151295973
 20
-248.7267140343254
 30
0.0
 10
3159.95425526273
 20
-248.7121915928522
 30
0.0
 10
3160.218853954295
 20
-248.6957669376682
 30
0.0
 10
3160.615051089391
 20
-248.6728118323465
 30
0.0
 10
3161.039016237804
 20
-248.6503263568795
 30
0.0
 10
3161.553316117917
 20
-248.6255150215459
 30
0.0
 10
3162.095253842228
 20
-248.601795825585
 30
0.0
 10
3162.629231717143
 20
-248.5812954878568
 30
0.0
 10
3163.300986321199
 20
-248.5584166084639
 30
0.0
 10
3163.895534169402
 20
-248.5413384043179
 30
0.0
 10
3164.505866522988
 20
-248.5264882112499
 30
0.0
 10
3164.876967354145
 20
-248.5182205791509
 30
0.0
 10
3165.251997082487
 20
-248.5105588927747
 30
0.0
 10
3165.59244727594
 20
-248.504313484824
 30
0.0
 10
3165.988987344337
 20
-248.497909928861
 30
0.0
 10
3166.352608117806
 20
-248.4932559776964
 30
0.0
 10
3166.725594739359
 20
-248.4895995585541
 30
0.0
 10
3167.108099270492
 20
-248.486345313376
 30
0.0
 10
3167.694224860606
 20
-248.4820293247296
 30
0.0
 10
3168.383671893371
 20
-248.4768954919284
 30
0.0
 10
3169.07456788365
 20
-248.4704711677889
 30
0.0
 10
3169.666072652421
 20
-248.4643281008464
 30
0.0
 10
3171.416271057253
 20
-248.4466500057581
 30
0.0
 10
3174.331030191177
 20
-248.4177330277237
 30
0.0
 10
3177.627212414756
 20
-248.3849622447699
 30
0.0
 10
3179.56612799771
 20
-248.367932138998
 30
0.0
 10
3180.144102614142
 20
-248.3632711332732
 30
0.0
  0
ARC
  5
1AB5F
330
18
100
AcDbEntity
  8
01
100
AcDbCircle
 10
3180.141630373055
 20
-231.658483754544
 30
0.0
 40
0.3000582325053063
100
AcDbArc
 50
0.0188015802829465
 51
89.52696146566508
  0
SPLINE
  5
1AB60
330
18
100
AcDbEntity
  8
01
100
AcDbSpline
210
0.0
220
0.0
230
1.0
 70
     8
 71
     3
 72
    49
 73
    45
 74
     0
 42
0.0000000001
 43
0.0000000001
 40
0.0
 40
0.0
 40
0.0
 40
0.0
 40
1.052004170098063
 40
2.114068328488348
 40
3.660643967315682
 40
5.205578484377293
 40
7.525733899751696
 40
9.841997416968454
 40
10.27670456311666
 40
10.71152584647312
 40
11.1483341883486
 40
12.02648531740571
 40
12.46242376388447
 40
13.11089356461147
 40
13.74676018385373
 40
14.16379049950606
 40
14.5810272807612
 40
14.99964071911551
 40
15.20950456042481
 40
16.04740468546638
 40
17.38165325542484
 40
18.08548826931737
 40
18.78860246884783
 40
19.25762548782302
 40
19.96217344386303
 40
21.18312281753642
 40
21.55961155680222
 40
22.31244472762127
 40
22.86998640791152
 40
23.23535997595707
 40
23.41662357783994
 40
23.64996011135596
 40
23.88319097472134
 40
24.35041982729464
 40
24.82049050931876
 40
25.05741057465696
 40
25.53505097306694
 40
26.25891944630026
 40
27.23920427015888
 40
27.98862206669473
 40
28.49788448903195
 40
29.27759755601144
 40
30.08357020682969
 40
30.14760390115131
 40
30.14760390115131
 40
30.14760390115131
 40
30.14760390115131
 10
3180.144102395871
 20
-231.3584849127517
 30
0.0
 10
3179.793446650441
 20
-231.3556571338552
 30
0.0
 10
3179.088785542164
 20
-231.3496513759662
 30
0.0
 10
3177.868713884269
 20
-231.3385921565307
 30
0.0
 10
3176.484295224955
 20
-231.3254678656706
 30
0.0
 10
3174.680585076363
 20
-231.3076229130559
 30
0.0
 10
3172.620351004793
 20
-231.2867027965378
 30
0.0
 10
3170.930016786726
 20
-231.2701313543678
 30
0.0
 10
3169.868293129448
 20
-231.259494778785
 30
0.0
 10
3169.432894866877
 20
-231.2549833300557
 30
0.0
 10
3168.84964119112
 20
-231.2490570950074
 30
0.0
 10
3168.266154678533
 20
-231.2440112987417
 30
0.0
 10
3167.611966106939
 20
-231.2391083805094
 30
0.0
 10
3167.039191468606
 20
-231.2349343732578
 30
0.0
 10
3166.478709232157
 20
-231.2299854818214
 30
0.0
 10
3166.006053236018
 20
-231.2240760859092
 30
0.0
 10
3165.605294343155
 20
-231.2177136118528
 30
0.0
 10
3165.272370357317
 20
-231.2115347059819
 30
0.0
 10
3164.806062304593
 20
-231.2021132219536
 30
0.0
 10
3164.058241031682
 20
-231.1851453572838
 30
0.0
 10
3163.186389806546
 20
-231.1601675083332
 30
0.0
 10
3162.408225205236
 20
-231.1323332816662
 30
0.0
 10
3161.89604225513
 20
-231.1113740587532
 30
0.0
 10
3161.403866878305
 20
-231.0892459716636
 30
0.0
 10
3160.807249929921
 20
-231.0598872635121
 30
0.0
 10
3160.286921864659
 20
-231.0303975566014
 30
0.0
 10
3159.807676858552
 20
-231.0002584842457
 30
0.0
 10
3159.485549734671
 20
-230.9784912820776
 30
0.0
 10
3159.174781284848
 20
-230.9558305776193
 30
0.0
 10
3158.953750351429
 20
-230.9390552824254
 30
0.0
 10
3158.789856688478
 20
-230.9264092398487
 30
0.0
 10
3158.64624811393
 20
-230.915229199227
 30
0.0
 10
3158.441414946799
 20
-230.8991588173906
 30
0.0
 10
3158.192958819662
 20
-230.8793465022611
 30
0.0
 10
3157.95833260313
 20
-230.8600340560504
 30
0.0
 10
3157.738466933781
 20
-230.841371696891
 30
0.0
 10
3157.4849654465
 20
-230.819081784228
 30
0.0
 10
3157.130414007435
 20
-230.7859233554075
 30
0.0
 10
3156.80988527071
 20
-230.7528438178063
 30
0.0
 10
3156.591916281939
 20
-230.7278963418751
 30
0.0
 10
3156.452703184552
 20
-230.710672437054
 30
0.0
 10
3156.358473202796
 20
-230.6978947695773
 30
0.0
 10
3156.331692569605
 20
-230.6937674124513
 30
0.0
 10
3156.330714793641
 20
-230.6936102431857
 30
0.0
 10
3156.330714839882
 20
-230.6936099442112
 30
0.0
  0
ELLIPSE
  5
1AB61
330
18
100
AcDbEntity
  8
01
100
AcDbEllipse
 10
3152.441725399805
 20
-239.8599206363845
 30
0.0
 11
-15.0
 21
4.454769886308439E-14
 31
0.0
210
0.0
220
0.0
230
1.0
 40
0.7333333333333331
 41
4.063812080098634
 42
8.50224305139331
  0
SPLINE
  5
1AB62
330
18
100
AcDbEntity
  8
01
  6
CONTINUOUS
100
AcDbSpline
210
0.0
220
0.0
230
1.0
 70
     8
 71
     3
 72
    22
 73
    18
 74
     0
 42
0.0000000001
 43
0.0000000001
 40
0.4991520728132199
 40
0.4991520728132199
 40
0.4991520728132199
 40
0.4991520728132199
 40
6.6691039202251
 40
13.3382078404502
 40
20.0073117606753
 40
26.6764156809004
 40
33.3455196011255
 40
40.0146235213506
 40
46.6837274415757
 40
53.3528313618008
 40
60.0219352820259
 40
66.691039202251
 40
73.3601431224762
 40
80.0292470427013
 40
86.6983509629264
 40
93.3674548831515
 40
94.9836652134268
 40
94.9836652134268
 40
94.9836652134268
 40
94.9836652134268
 10
3180.941152713666
 20
-29.86098534038433
 30
0.0
 10
3182.998988891127
 20
-29.85856033291543
 30
0.0
 10
3187.284086155883
 20
-29.85753379780476
 30
0.0
 10
3193.771051850202
 20
-29.86953275633982
 30
0.0
 10
3200.441200183571
 20
-29.89747135519133
 30
0.0
 10
3207.141501701371
 20
-29.94277079824883
 30
0.0
 10
3213.773832475084
 20
-30.00608129005582
 30
0.0
 10
3220.461154684418
 20
-30.09036157249716
 30
0.0
 10
3227.123095286183
 20
-30.19695827586179
 30
0.0
 10
3233.808996073612
 20
-30.32916364989137
 30
0.0
 10
3240.480872075342
 20
-30.48949508434066
 30
0.0
 10
3247.128544148908
 20
-30.68114438125781
 30
0.0
 10
3253.790989266855
 20
-30.90981511127507
 30
0.0
 10
3260.470460753274
 20
-31.18207300823246
 30
0.0
 10
3267.117026308301
 20
-31.50332426209548
 30
0.0
 10
3272.112607777751
 20
-31.79064231514644
 30
0.0
 10
3274.868911228084
 20
-31.96864953426325
 30
0.0
 10
3275.406281113256
 20
-32.0041481871865
 30
0.0
  0
ARC
  5
1AB63
330
18
100
AcDbEntity
  8
01
  6
CONTINUOUS
100
AcDbCircle
 10
3159.034379438838
 20
7080.37609083301
 30
0.0
 40
7137.270364721012
100
AcDbArc
 50
270.1758777753184
 51
270.9548782576449
  0
ARC
  5
1AB64
330
18
100
AcDbEntity
  8
01
  6
CONTINUOUS
100
AcDbCircle
 10
3277.952497972275
 20
-54.40256653537631
 30
0.0
 40
1.499603363099995
100
AcDbArc
 50
270.9381582033129
 51
345.3587315262051
  0
ARC
  5
1AB65
330
18
100
AcDbEntity
  8
01
  6
CONTINUOUS
100
AcDbCircle
 10
3275.307406832922
 20
-33.50088558711036
 30
0.0
 40
1.499999655880775
100
AcDbArc
 50
53.45425968259462
 51
86.22053952126305
  0
ARC
  5
1AB66
330
18
100
AcDbEntity
  8
01
  6
CONTINUOUS
100
AcDbCircle
 10
3180.941741903854
 20
-30.36098497093712
 30
0.0
 40
0.499999977697594
100
AcDbArc
 50
90.06751624088714
 51
179.999831839343
  0
ARC
  5
1AB67
330
18
100
AcDbEntity
  8
01
  6
CONTINUOUS
100
AcDbCircle
 10
3180.941666545202
 20
-56.36064934444562
 30
0.0
 40
0.4999997940691604
100
AcDbArc
 50
179.9998246816932
 51
270.1759041237186
  0
LINE
  5
1AB68
330
18
100
AcDbEntity
  8
01
  6
CONTINUOUS
100
AcDbLine
 10
3180.441667487506
 20
-56.36259596898822
 30
0.0
 11
3180.441666607779
 21
-56.36009872097952
 31
0.0
  0
ARC
  5
1AB69
330
18
100
AcDbEntity
  8
01
  6
CONTINUOUS
100
AcDbCircle
 10
3277.951954871941
 20
-54.40331334644566
 30
0.0
 40
1.499990088713092
100
AcDbArc
 50
270.954401062321
 51
345.3694977651999
  0
SPLINE
  5
1AB6A
330
18
100
AcDbEntity
  8
01
  6
CONTINUOUS
100
AcDbSpline
210
0.0
220
0.0
230
1.0
 70
     8
 71
     3
 72
    25
 73
    21
 74
     0
 42
0.0000000001
 43
0.0000000001
 40
0.0
 40
0.0
 40
0.0
 40
0.0
 40
1.330115194272647
 40
4.576620566491306
 40
7.684101941912565
 40
9.567915124321164
 40
10.70729894620776
 40
12.61567813784874
 40
14.52128244825964
 40
16.78952030782246
 40
18.28969619871088
 40
19.22510649745568
 40
20.71628671232397
 40
21.58886866030355
 40
22.37644809635422
 40
22.82765181115517
 40
23.11832309822512
 40
23.40038767435584
 40
23.53810277539185
 40
23.6735801868277
 40
23.6735801868277
 40
23.6735801868277
 40
23.6735801868277
 10
3279.403598435744
 20
-54.78107324407461
 30
0.0
 10
3279.515558411974
 20
-54.35210657563334
 30
0.0
 10
3279.86681310551
 20
-52.86702277988047
 30
0.0
 10
3280.26643605216
 20
-50.33378875177937
 30
0.0
 10
3280.448624548172
 20
-47.59169129413362
 30
0.0
 10
3280.463944389424
 20
-45.54778219179047
 30
0.0
 10
3280.425961598449
 20
-43.90427132407171
 30
0.0
 10
3280.333835157967
 20
-42.25519945486326
 30
0.0
 10
3280.098977595145
 20
-40.24025900667789
 30
0.0
 10
3279.715261829623
 20
-38.38518983941617
 30
0.0
 10
3279.235134640984
 20
-36.89062596550798
 30
0.0
 10
3278.734285441621
 20
-35.68055298255308
 30
0.0
 10
3278.225641518394
 20
-34.70347297129115
 30
0.0
 10
3277.65137646229
 20
-33.822888129798
 30
0.0
 10
3277.218695113254
 20
-33.26692801046897
 30
0.0
 10
3276.874673677919
 20
-32.89026140453257
 30
0.0
 10
3276.630282316625
 20
-32.65191584312902
 30
0.0
 10
3276.453233107187
 20
-32.49438103518446
 30
0.0
 10
3276.308713760297
 20
-32.37885962523137
 30
0.0
 10
3276.23809952803
 20
-32.32108017858786
 30
0.0
 10
3276.200648068579
 20
-32.29584655315034
 30
0.0
  0
LINE
  5
1AB6B
330
18
100
AcDbEntity
  8
01
100
AcDbLine
 10
3180.441741926158
 20
-30.36098350345833
 30
0.0
 11
3180.441666607779
 21
-56.36009872097952
 31
0.0
  0
LINE
  5
1AB6C
330
18
100
AcDbEntity
  8
01
100
AcDbLine
 10
3180.441668878329
 20
-56.56224043463112
 30
0.0
 11
3180.441668878329
 21
-30.16098555772601
 31
0.0
  0
ARC
  5
1AB6D
330
18
100
AcDbEntity
  8
01
100
AcDbCircle
 10
3180.141668879273
 20
-30.16098555867006
 30
0.0
 40
0.2999999990551187
100
AcDbArc
 50
0.0000001803273744
 51
89.95150405611312
  0
ARC
  5
1AB6E
330
18
100
AcDbEntity
  8
01
100
AcDbCircle
 10
3180.141668080968
 20
-56.56224113518806
 30
0.0
 40
0.3000007973596788
100
AcDbArc
 50
270.0810830080073
 51
0.0001337961896191
  0
LINE
  5
1AB6F
330
18
100
AcDbEntity
  8
01
100
AcDbLine
 10
3180.441668875331
 20
-30.16094314153838
 30
0.0
 11
3180.441361712216
 21
-30.14741332350718
 31
0.0
  0
LINE
  5
1AB70
330
18
100
AcDbEntity
  8
01
100
AcDbLine
 10
3137.441705602366
 20
1.138761049485083
 30
0.0
 11
3148.94184043594
 21
1.138761049484856
 31
0.0
  0
LINE
  5
1AB71
330
18
100
AcDbEntity
  8
01
100
AcDbLine
 10
3151.441840441672
 20
1.138761049484856
 30
0.0
 11
3153.441840435941
 21
1.138761049484856
 31
0.0
  0
LINE
  5
1AB72
330
18
100
AcDbEntity
  8
01
100
AcDbLine
 10
3155.94184043594
 20
1.138761049485083
 30
0.0
 11
3167.441745197245
 21
1.138761049485083
 31
0.0
  0
LINE
  5
1AB73
330
18
100
AcDbEntity
  8
01
100
AcDbLine
 10
3137.441705602366
 20
1.138761049485083
 30
0.0
 11
3137.441705602366
 21
-52.86223762168152
 31
0.0
  0
ARC
  5
1AB74
330
18
100
AcDbEntity
  8
01
100
AcDbCircle
 10
3141.441705602366
 20
-52.86223762168152
 30
0.0
 40
4.0
100
AcDbArc
 50
180.0
 51
270.0
  0
LINE
  5
1AB75
330
18
100
AcDbEntity
  8
01
100
AcDbLine
 10
3180.142441524119
 20
-56.86223762168152
 30
0.0
 11
3141.441705602366
 21
-56.86223762168152
 31
0.0
  0
LINE
  5
1AB76
330
18
100
AcDbEntity
  8
01
100
AcDbLine
 10
3180.141922803409
 20
-29.86098566707756
 30
0.0
 11
3177.441745197245
 21
-29.86098566707756
 31
0.0
  0
LINE
  5
1AB77
330
18
100
AcDbEntity
  8
01
100
AcDbLine
 10
3167.441745197245
 20
1.138761049485083
 30
0.0
 11
3167.441745197245
 21
-19.86098566707756
 31
0.0
  0
ARC
  5
1AB78
330
18
100
AcDbEntity
  8
01
100
AcDbCircle
 10
3177.441745197245
 20
-19.86098566707756
 30
0.0
 40
10.0
100
AcDbArc
 50
180.0
 51
270.0
  0
SPLINE
  5
1AB79
330
18
100
AcDbEntity
  8
01
  6
CONTINUOUS
100
AcDbSpline
210
0.0
220
0.0
230
1.0
 70
     8
 71
     3
 72
    22
 73
    18
 74
     0
 42
0.0000000001
 43
0.0000000001
 40
0.4991520728132199
 40
0.4991520728132199
 40
0.4991520728132199
 40
0.4991520728132199
 40
6.6691039202251
 40
13.3382078404502
 40
20.0073117606753
 40
26.6764156809004
 40
33.3455196011255
 40
40.0146235213506
 40
46.6837274415757
 40
53.3528313618008
 40
60.0219352820259
 40
66.691039202251
 40
73.3601431224762
 40
80.0292470427013
 40
86.6983509629264
 40
93.3674548831515
 40
94.9836652134268
 40
94.9836652134268
 40
94.9836652134268
 40
94.9836652134268
 10
3180.941152713666
 20
90.13850743935268
 30
0.0
 10
3182.998988891127
 20
90.13608243188378
 30
0.0
 10
3187.284086155883
 20
90.13505589677311
 30
0.0
 10
3193.771051850202
 20
90.14705485530817
 30
0.0
 10
3200.441200183571
 20
90.17499345415968
 30
0.0
 10
3207.141501701371
 20
90.22029289721718
 30
0.0
 10
3213.773832475084
 20
90.28360338902417
 30
0.0
 10
3220.461154684418
 20
90.3678836714655
 30
0.0
 10
3227.123095286183
 20
90.47448037483014
 30
0.0
 10
3233.808996073612
 20
90.60668574885972
 30
0.0
 10
3240.480872075342
 20
90.76701718330901
 30
0.0
 10
3247.128544148908
 20
90.95866648022616
 30
0.0
 10
3253.790989266855
 20
91.18733721024341
 30
0.0
 10
3260.470460753274
 20
91.45959510720081
 30
0.0
 10
3267.117026308301
 20
91.78084636106382
 30
0.0
 10
3272.112607777751
 20
92.06816441411479
 30
0.0
 10
3274.868911228084
 20
92.2461716332316
 30
0.0
 10
3275.406281113256
 20
92.28167028615485
 30
0.0
  0
ARC
  5
1AB7A
330
18
100
AcDbEntity
  8
01
  6
CONTINUOUS
100
AcDbCircle
 10
3159.034379438838
 20
-7020.09856873404
 30
0.0
 40
7137.270364721012
100
AcDbArc
 50
89.04512174235512
 51
89.82412222468156
  0
ARC
  5
1AB7B
330
18
100
AcDbEntity
  8
01
  6
CONTINUOUS
100
AcDbCircle
 10
3277.952497972275
 20
114.6800886343447
 30
0.0
 40
1.499603363099995
100
AcDbArc
 50
14.64126847379496
 51
89.06184179668708
  0
ARC
  5
1AB7C
330
18
100
AcDbEntity
  8
01
  6
CONTINUOUS
100
AcDbCircle
 10
3275.307406832922
 20
93.77840768607871
 30
0.0
 40
1.499999655880775
100
AcDbArc
 50
273.779460478737
 51
306.5457403174054
  0
ARC
  5
1AB7D
330
18
100
AcDbEntity
  8
01
  6
CONTINUOUS
100
AcDbCircle
 10
3180.941741903854
 20
90.63850706990547
 30
0.0
 40
0.499999977697594
100
AcDbArc
 50
180.000168160657
 51
269.9324837591129
  0
ARC
  5
1AB7E
330
18
100
AcDbEntity
  8
01
  6
CONTINUOUS
100
AcDbCircle
 10
3180.941666545202
 20
116.638171443414
 30
0.0
 40
0.4999997940691604
100
AcDbArc
 50
89.82409587628142
 51
180.0001753183068
  0
LINE
  5
1AB7F
330
18
100
AcDbEntity
  8
01
  6
CONTINUOUS
100
AcDbLine
 10
3180.441667487506
 20
116.6401180679566
 30
0.0
 11
3180.441666607779
 21
116.6376208199479
 31
0.0
  0
ARC
  5
1AB80
330
18
100
AcDbEntity
  8
01
  6
CONTINUOUS
100
AcDbCircle
 10
3277.951954871941
 20
114.680835445414
 30
0.0
 40
1.499990088713092
100
AcDbArc
 50
14.63050223480012
 51
89.04559893767902
  0
SPLINE
  5
1AB81
330
18
100
AcDbEntity
  8
01
  6
CONTINUOUS
100
AcDbSpline
210
0.0
220
0.0
230
1.0
 70
     8
 71
     3
 72
    25
 73
    21
 74
     0
 42
0.0000000001
 43
0.0000000001
 40
0.0
 40
0.0
 40
0.0
 40
0.0
 40
1.330115194272647
 40
4.576620566491306
 40
7.684101941912565
 40
9.567915124321164
 40
10.70729894620776
 40
12.61567813784874
 40
14.52128244825964
 40
16.78952030782246
 40
18.28969619871088
 40
19.22510649745568
 40
20.71628671232397
 40
21.58886866030355
 40
22.37644809635422
 40
22.82765181115517
 40
23.11832309822512
 40
23.40038767435584
 40
23.53810277539185
 40
23.6735801868277
 40
23.6735801868277
 40
23.6735801868277
 40
23.6735801868277
 10
3279.403598435744
 20
115.058595343043
 30
0.0
 10
3279.515558411974
 20
114.6296286746017
 30
0.0
 10
3279.86681310551
 20
113.1445448788488
 30
0.0
 10
3280.26643605216
 20
110.6113108507477
 30
0.0
 10
3280.448624548172
 20
107.869213393102
 30
0.0
 10
3280.463944389424
 20
105.8253042907588
 30
0.0
 10
3280.425961598449
 20
104.1817934230401
 30
0.0
 10
3280.333835157967
 20
102.5327215538316
 30
0.0
 10
3280.098977595145
 20
100.5177811056462
 30
0.0
 10
3279.715261829623
 20
98.66271193838452
 30
0.0
 10
3279.235134640984
 20
97.16814806447633
 30
0.0
 10
3278.734285441621
 20
95.95807508152143
 30
0.0
 10
3278.225641518394
 20
94.9809950702595
 30
0.0
 10
3277.65137646229
 20
94.10041022876635
 30
0.0
 10
3277.218695113254
 20
93.54445010943732
 30
0.0
 10
3276.874673677919
 20
93.16778350350091
 30
0.0
 10
3276.630282316625
 20
92.92943794209737
 30
0.0
 10
3276.453233107187
 20
92.77190313415281
 30
0.0
 10
3276.308713760297
 20
92.65638172419972
 30
0.0
 10
3276.23809952803
 20
92.59860227755621
 30
0.0
 10
3276.200648068579
 20
92.57336865211869
 30
0.0
  0
LINE
  5
1AB82
330
18
100
AcDbEntity
  8
01
100
AcDbLine
 10
3180.441741926158
 20
90.63850560242668
 30
0.0
 11
3180.441666607779
 21
116.6376208199479
 31
0.0
  0
LINE
  5
1AB83
330
18
100
AcDbEntity
  8
01
100
AcDbLine
 10
3180.441668878329
 20
116.8397625335995
 30
0.0
 11
3180.441668878329
 21
90.43850765669436
 31
0.0
  0
ARC
  5
1AB84
330
18
100
AcDbEntity
  8
01
100
AcDbCircle
 10
3180.141668879273
 20
90.43850765763841
 30
0.0
 40
0.2999999990551187
100
AcDbArc
 50
270.0484959438868
 51
359.9999998196726
  0
ARC
  5
1AB85
330
18
100
AcDbEntity
  8
01
100
AcDbCircle
 10
3180.141668080968
 20
116.8397632341564
 30
0.0
 40
0.3000007973596788
100
AcDbArc
 50
359.9998662038104
 51
89.91891699199267
  0
LINE
  5
1AB86
330
18
100
AcDbEntity
  8
01
100
AcDbLine
 10
3180.441668875331
 20
90.43846524050673
 30
0.0
 11
3180.441361712216
 21
90.42493542247553
 31
0.0
  0
LINE
  5
1AB87
330
18
100
AcDbEntity
  8
01
100
AcDbLine
 10
3137.441705602366
 20
59.13876104948326
 30
0.0
 11
3141.451819354897
 21
59.13876104948326
 31
0.0
  0
LINE
  5
1AB88
330
18
100
AcDbEntity
  8
01
100
AcDbLine
 10
3163.431874124188
 20
59.13876104948326
 30
0.0
 11
3167.441745197245
 21
59.13876104948326
 31
0.0
  0
LINE
  5
1AB89
330
18
100
AcDbEntity
  8
01
100
AcDbLine
 10
3137.441705602366
 20
59.13876104948326
 30
0.0
 11
3137.441705602366
 21
113.1397597206499
 31
0.0
  0
ARC
  5
1AB8A
330
18
100
AcDbEntity
  8
01
100
AcDbCircle
 10
3141.441705602366
 20
113.1397597206499
 30
0.0
 40
4.0
100
AcDbArc
 50
90.0
 51
180.0
  0
LINE
  5
1AB8B
330
18
100
AcDbEntity
  8
01
100
AcDbLine
 10
3180.142441524119
 20
117.1397597206499
 30
0.0
 11
3141.441705602366
 21
117.1397597206499
 31
0.0
  0
LINE
  5
1AB8C
330
18
100
AcDbEntity
  8
01
100
AcDbLine
 10
3180.141922803409
 20
90.1385077660459
 30
0.0
 11
3177.441745197245
 21
90.1385077660459
 31
0.0
  0
LINE
  5
1AB8D
330
18
100
AcDbEntity
  8
01
100
AcDbLine
 10
3167.441745197245
 20
59.13876104948326
 30
0.0
 11
3167.441745197245
 21
80.1385077660459
 31
0.0
  0
ARC
  5
1AB8E
330
18
100
AcDbEntity
  8
01
100
AcDbCircle
 10
3177.441745197245
 20
80.1385077660459
 30
0.0
 40
10.0
100
AcDbArc
 50
90.0
 51
180.0
  0
LINE
  5
1AB8F
330
18
100
AcDbEntity
  8
1CENTER
100
AcDbLine
 10
2947.941958079295
 20
-254.8599206363845
 30
0.0
 11
2947.941958079295
 21
-246.8599206363845
 31
0.0
  0
LINE
  5
1AB90
330
18
100
AcDbEntity
  8
01
100
AcDbLine
 10
2953.441958079295
 20
-250.8599588547511
 30
0.0
 11
2951.335255375821
 21
-250.8045245404817
 31
0.0
  0
SPLINE
  5
1AB91
330
18
100
AcDbEntity
  8
01
100
AcDbSpline
210
0.0
220
0.0
230
1.0
 70
     8
 71
     3
 72
   138
 73
   134
 74
     0
 42
0.0000000001
 43
0.0000000001
 40
0.0
 40
0.0
 40
0.0
 40
0.0
 40
0.1668157130194292
 40
0.3346876553454588
 40
0.5240669493630439
 40
0.7147095099200806
 40
0.8985953965508194
 40
1.083107924707542
 40
1.290805810141262
 40
1.499182253444173
 40
1.701679046967988
 40
1.904500923923147
 40
2.107508332753089
 40
2.310627511543653
 40
2.481455866649648
 40
2.6521672245704
 40
2.730720249536133
 40
2.809206602893594
 40
3.024464093987093
 40
3.239426774508367
 40
3.417629971705596
 40
3.595080099381215
 40
3.665965004232471
 40
3.736621908582423
 40
3.88058279821407
 40
4.023441446393039
 40
4.168623700254177
 40
4.312700030266428
 40
4.455773429886731
 40
4.597946448969819
 40
4.734770866870796
 40
4.871067763021014
 40
5.006134682710677
 40
5.140723777495796
 40
5.408323944773493
 40
5.673767610389495
 40
5.809212267887493
 40
5.94422000793654
 40
6.079065042884841
 40
6.213593550615947
 40
6.348626553422866
 40
6.483273594736706
 40
6.618271226934831
 40
6.752756281565293
 40
7.02047152595319
 40
7.421616657639844
 40
7.692290584559225
 40
7.827919423113985
 40
8.07845510877842
 40
8.327871015826632
 40
8.576841194451651
 40
9.323570508807586
 40
9.575017729387518
 40
10.03707551382911
 40
10.24521813234471
 40
10.87119144050196
 40
11.50512337434287
 40
12.56666713690732
 40
12.78018384205361
 40
13.21089593904656
 40
13.86369562851506
 40
14.51947296165382
 40
14.84710488477319
 40
15.33703996929068
 40
15.66039604316792
 40
15.95641160121191
 40
16.22533809107201
 40
16.35806910952146
 40
16.48946025091275
 40
16.55512360860931
 40
16.62137360057212
 40
16.67216095566956
 40
16.72509011289515
 40
16.75927672523065
 40
16.79348964335928
 40
16.82501671458787
 40
16.85655277983729
 40
16.90650187766521
 40
16.95704041767811
 40
17.00878642968656
 40
17.06051158171665
 40
18.05232509175194
 40
19.05412842030143
 40
19.59748009973429
 40
20.14662486715726
 40
20.6960570326199
 40
21.24549961502616
 40
21.79838629269784
 40
22.35447510513524
 40
22.63281640714843
 40
22.91007054045417
 40
23.18629582463462
 40
23.4615601908881
 40
24.56983334669013
 40
25.68195104993805
 40
25.88208105101144
 40
26.22966387996111
 40
26.52349607570023
 40
26.82000405908244
 40
27.10872157924958
 40
27.39227484299192
 40
27.53218939748468
 40
27.80764894116495
 40
28.06877431243479
 40
28.19319811623436
 40
28.43835210689766
 40
28.79969009877493
 40
29.39673438016384
 40
29.87957113092499
 40
30.36613776974632
 40
30.85438344271968
 40
31.34245740531411
 40
32.17723335082021
 40
33.21783413460746
 40
34.25987937571865
 40
36.00862584052744
 40
37.05883755635396
 40
37.86561754231909
 40
38.78056165034153
 40
39.69506462414768
 40
41.05495505395752
 40
42.8539749115778
 40
44.63434476152022
 40
46.71905378355459
 40
48.78012043535887
 40
50.8350599240697
 40
52.87257028749691
 40
55.92425539466682
 40
58.94112843645743
 40
59.94188621989754
 40
60.94236754650147
 40
61.50419583016652
 40
62.06303412180577
 40
62.06303412180577
 40
62.06303412180577
 40
62.06303412180577
 10
2895.416304252172
 20
-239.8599188276582
 30
0.0
 10
2895.416315219876
 20
-239.9153210988886
 30
0.0
 10
2895.417953041911
 20
-240.0168910457649
 30
0.0
 10
2895.426335717355
 20
-240.1892084369099
 30
0.0
 10
2895.438001051003
 20
-240.3336564420285
 30
0.0
 10
2895.454608546625
 20
-240.4873754619155
 30
0.0
 10
2895.476308571408
 20
-240.6437583240966
 30
0.0
 10
2895.504365856559
 20
-240.8075012453744
 30
0.0
 10
2895.531896966604
 20
-240.9443418412773
 30
0.0
 10
2895.565542922035
 20
-241.0919821347268
 30
0.0
 10
2895.601429835748
 20
-241.231645538345
 30
0.0
 10
2895.639863595143
 20
-241.3676983606836
 30
0.0
 10
2895.682401658429
 20
-241.5047010054593
 30
0.0
 10
2895.720594142684
 20
-241.619478702142
 30
0.0
 10
2895.773803759421
 20
-241.7675098934267
 30
0.0
 10
2895.812629449549
 20
-241.8678991813438
 30
0.0
 10
2895.848145499556
 20
-241.9560039363967
 30
0.0
 10
2895.895142763482
 20
-242.0680991123825
 30
0.0
 10
2895.896359628898
 20
-242.0695293972565
 30
0.0
 10
2895.920559466198
 20
-242.1258781707118
 30
0.0
 10
2895.962033238364
 20
-242.2167540658218
 30
0.0
 10
2895.968983086743
 20
-242.2326215200244
 30
0.0
 10
2896.020132762875
 20
-242.3398043786508
 30
0.0
 10
2896.061136381571
 20
-242.4229579521586
 30
0.0
 10
2896.114281510767
 20
-242.527068252163
 30
0.0
 10
2896.181638640399
 20
-242.6526102321111
 30
0.0
 10
2896.249130036509
 20
-242.7728128285696
 30
0.0
 10
2896.319693719643
 20
-242.8931423615293
 30
0.0
 10
2896.392217516961
 20
-243.011627170016
 30
0.0
 10
2896.46498422779
 20
-243.1258500614292
 30
0.0
 10
2896.541824664007
 20
-243.2418587821091
 30
0.0
 10
2896.618463547815
 20
-243.3532981532696
 30
0.0
 10
2896.697100481875
 20
-243.4636794189253
 30
0.0
 10
2896.80335856801
 20
-243.6078099630065
 30
0.0
 10
2896.939311813861
 20
-243.7834263931488
 30
0.0
 10
2897.08046357911
 20
-243.9550031007209
 30
0.0
 10
2897.196728984265
 20
-244.0901250996837
 30
0.0
 10
2897.286235897736
 20
-244.1910762223258
 30
0.0
 10
2897.376395985339
 20
-244.28982411839
 30
0.0
 10
2897.468415776919
 20
-244.3877320151103
 30
0.0
 10
2897.560086316949
 20
-244.4825875092699
 30
0.0
 10
2897.653750411639
 20
-244.5769204356363
 30
0.0
 10
2897.747054984251
 20
-244.668444730172
 30
0.0
 10
2897.87296199083
 20
-244.7888495247905
 30
0.0
 10
2898.063817017468
 20
-244.9646181403293
 30
0.0
 10
2898.293531517773
 20
-245.1631637343542
 30
0.0
 10
2898.491086500791
 20
-245.3238825026881
 30
0.0
 10
2898.653625560361
 20
-245.4516191471564
 30
0.0
 10
2898.81153595375
 20
-245.5717163139104
 30
0.0
 10
2899.000431282861
 20
-245.7095084214341
 30
0.0
 10
2899.316779816447
 20
-245.9308842156249
 30
0.0
 10
2899.640892558225
 20
-246.1395346560537
 30
0.0
 10
2900.021810790957
 20
-246.3656165833252
 30
0.0
 10
2900.261987685155
 20
-246.5003075120192
 30
0.0
 10
2900.605375954205
 20
-246.6831318450165
 30
0.0
 10
2900.997040612549
 20
-246.8777753082493
 30
0.0
 10
2901.617610602903
 20
-247.1558186571272
 30
0.0
 10
2902.134279343403
 20
-247.3572619281056
 30
0.0
 10
2902.600736000764
 20
-247.5200093519768
 30
0.0
 10
2902.953751537458
 20
-247.6363134004348
 30
0.0
 10
2903.433963857224
 20
-247.7794751131476
 30
0.0
 10
2903.889023246451
 20
-247.8986786501598
 30
0.0
 10
2904.305981280999
 20
-247.9971659107111
 30
0.0
 10
2904.631529605371
 20
-248.0672104529865
 30
0.0
 10
2904.954951880867
 20
-248.1303605668443
 30
0.0
 10
2905.220918783081
 20
-248.1782413697927
 30
0.0
 10
2905.43655574755
 20
-248.2140391960645
 30
0.0
 10
2905.605493274319
 20
-248.2404032383872
 30
0.0
 10
2905.712907804646
 20
-248.2564668131433
 30
0.0
 10
2905.799566688809
 20
-248.2690040771365
 30
0.0
 10
2905.860203316111
 20
-248.2775788241368
 30
0.0
 10
2905.915241494298
 20
-248.2852098686387
 30
0.0
 10
2905.960550110633
 20
-248.2913766728241
 30
0.0
 10
2905.994095461614
 20
-248.2958828235276
 30
0.0
 10
2906.025026246156
 20
-248.2999928862716
 30
0.0
 10
2906.046934345797
 20
-248.3028772764681
 30
0.0
 10
2906.076725432118
 20
-248.3067691534795
 30
0.0
 10
2906.099893345276
 20
-248.3097633284613
 30
0.0
 10
2906.123159365659
 20
-248.3127491667726
 30
0.0
 10
2906.139378581685
 20
-248.314817495723
 30
0.0
 10
2906.270440199512
 20
-248.331446314596
 30
0.0
 10
2906.471101131579
 20
-248.3556087897757
 30
0.0
 10
2906.772097969966
 20
-248.388938519706
 30
0.0
 10
2906.961364971859
 20
-248.4088968241283
 30
0.0
 10
2907.116293451929
 20
-248.4249669379112
 30
0.0
 10
2907.286575535129
 20
-248.4422578533838
 30
0.0
 10
2907.47271007258
 20
-248.4607679412109
 30
0.0
 10
2907.660655814685
 20
-248.4791183530267
 30
0.0
 10
2907.821160469095
 20
-248.4945817581217
 30
0.0
 10
2907.954267558303
 20
-248.5073016988606
 30
0.0
 10
2908.060335941698
 20
-248.517377822244
 30
0.0
 10
2908.171538092012
 20
-248.5278639082596
 30
0.0
 10
2908.404970163683
 20
-248.54974251626
 30
0.0
 10
2908.810830760593
 20
-248.5865852145578
 30
0.0
 10
2909.012119760064
 20
-248.6055807666532
 30
0.0
 10
2909.440127978754
 20
-248.6437781816028
 30
0.0
 10
2909.684807254753
 20
-248.6648099361171
 30
0.0
 10
2909.975111697317
 20
-248.6885615060462
 30
0.0
 10
2910.24602892917
 20
-248.7096971155977
 30
0.0
 10
2910.496569428316
 20
-248.7285902571045
 30
0.0
 10
2910.694073807286
 20
-248.7431579410411
 30
0.0
 10
2910.88243507956
 20
-248.7569066926778
 30
0.0
 10
2911.060386412722
 20
-248.7697944472172
 30
0.0
 10
2911.225431954445
 20
-248.7817134830791
 30
0.0
 10
2911.387210306304
 20
-248.7934045193176
 30
0.0
 10
2911.579827172836
 20
-248.8073165041712
 30
0.0
 10
2911.910156449489
 20
-248.8311186077906
 30
0.0
 10
2912.327761140166
 20
-248.86098696156
 30
0.0
 10
2912.799233258304
 20
-248.8941950567403
 30
0.0
 10
2913.239111103156
 20
-248.9248060056959
 30
0.0
 10
2913.683605766091
 20
-248.9554943526098
 30
0.0
 10
2914.23501843936
 20
-248.9933728447784
 30
0.0
 10
2914.963760724739
 20
-249.0432024902245
 30
0.0
 10
2915.880255660781
 20
-249.1051921947499
 30
0.0
 10
2917.101150048515
 20
-249.1865921432152
 30
0.0
 10
2918.341903138868
 20
-249.26794453039
 30
0.0
 10
2919.518598310706
 20
-249.3438776592018
 30
0.0
 10
2920.431293457426
 20
-249.4018965535449
 30
0.0
 10
2921.304856850213
 20
-249.4564968332213
 30
0.0
 10
2922.366029786948
 20
-249.5214354340703
 30
0.0
 10
2923.721113902837
 20
-249.6021266137093
 30
0.0
 10
2925.362555817414
 20
-249.6985618961505
 30
0.0
 10
2927.245024925298
 20
-249.8090550080885
 30
0.0
 10
2929.21441848496
 20
-249.9206465869127
 30
0.0
 10
2931.275745684155
 20
-250.0326285287299
 30
0.0
 10
2933.322070900176
 20
-250.1386242462256
 30
0.0
 10
2935.698143023285
 20
-250.2556733213121
 30
0.0
 10
2938.394499020134
 20
-250.3782553046183
 30
0.0
 10
2940.747513178034
 20
-250.4713612884177
 30
0.0
 10
2942.418343936415
 20
-250.5319179250962
 30
0.0
 10
2943.271832898732
 20
-250.5620033475241
 30
0.0
 10
2943.978285355071
 20
-250.585139363581
 30
0.0
 10
2944.351429858332
 20
-250.5990958465325
 30
0.0
 10
2944.537618392002
 20
-250.6040989811397
 30
0.0
  0
SPLINE
  5
1AB92
330
18
100
AcDbEntity
  8
01
100
AcDbSpline
210
0.0
220
0.0
230
1.0
 70
     8
 71
     3
 72
    21
 73
    17
 74
     0
 42
0.0000000001
 43
0.0000000001
 40
0.0
 40
0.0
 40
0.0
 40
0.0
 40
0.0851307068292339
 40
0.2153854175050789
 40
0.3139243314719375
 40
0.412233476593946
 40
0.5601151404401017
 40
0.9297231521164819
 40
1.151451454783988
 40
1.502743620640995
 40
1.736845939152541
 40
2.345000851588668
 40
2.730716427843832
 40
3.243685533877488
 40
4.637678957492575
 40
5.333893055117052
 40
5.333893055117052
 40
5.333893055117052
 40
5.333893055117052
 10
2951.333325239475
 20
-250.8043583291344
 30
0.0
 10
2951.317539881682
 20
-250.803936336443
 30
0.0
 10
2951.30005225481
 20
-250.8017320419001
 30
0.0
 10
2951.285785781531
 20
-250.799835571677
 30
0.0
 10
2951.269854436625
 20
-250.7971607989791
 30
0.0
 10
2951.251215593087
 20
-250.7937938533103
 30
0.0
 10
2951.216504367156
 20
-250.78712085033
 30
0.0
 10
2951.162217874024
 20
-250.7768111688781
 30
0.0
 10
2951.062550182698
 20
-250.7590016205884
 30
0.0
 10
2950.956106084201
 20
-250.7401293734763
 30
0.0
 10
2950.769188022874
 20
-250.7079122115972
 30
0.0
 10
2950.533646947908
 20
-250.6691140413284
 30
0.0
 10
2950.189366214687
 20
-250.6177929275034
 30
0.0
 10
2949.596499983312
 20
-250.5385739725032
 30
0.0
 10
2948.782496262113
 20
-250.4595533141799
 30
0.0
 10
2948.083536028997
 20
-250.4308668831952
 30
0.0
 10
2947.85202391155
 20
-250.4255552109578
 30
0.0
  0
SPLINE
  5
1AB93
330
18
100
AcDbEntity
  8
01
100
AcDbSpline
210
0.0
220
0.0
230
1.0
 70
     8
 71
     3
 72
   161
 73
   157
 74
     0
 42
0.0000000001
 43
0.0000000001
 40
0.0
 40
0.0
 40
0.0
 40
0.0
 40
0.1753276591652896
 40
0.3519044495348527
 40
0.5296347732845289
 40
0.7084108616293461
 40
0.8823101758413803
 40
1.056860246306637
 40
1.267321473500869
 40
1.478598981410851
 40
1.698593606378595
 40
1.918963458870645
 40
2.107408618756955
 40
2.295733498234714
 40
2.461477313870521
 40
2.626961935464299
 40
2.777432642032876
 40
2.927548665257361
 40
3.00177237759288
 40
3.075878649229417
 40
3.147270802325481
 40
3.218465040601231
 40
3.364074812929046
 40
3.508723249385344
 40
3.653062580038595
 40
3.796485657768224
 40
3.939029070108194
 40
4.080726961651802
 40
4.218782162113135
 40
4.356174503276981
 40
4.492907066476416
 40
4.628986828465611
 40
4.899121683385133
 40
5.167026625407447
 40
5.300346847982976
 40
5.433238411412505
 40
5.566025713674333
 40
5.698460172232819
 40
5.831178089348829
 40
5.963607037547601
 40
6.096221802301735
 40
6.228595463666009
 40
6.436235965323256
 40
6.644073933893274
 40
6.852209702767026
 40
7.059925032818242
 40
7.268292062311387
 40
7.476250453930771
 40
7.893245666987257
 40
8.065712624877925
 40
8.238063048380367
 40
8.410811372925146
 40
8.92802287965372
 40
9.272880491136824
 40
9.619724739924168
 40
10.31752282469657
 40
10.66822216000941
 40
11.18964540534406
 40
11.45043819379522
 40
11.71289900943138
 40
11.97682335269064
 40
12.77116854795565
 40
13.03663544928481
 40
13.5697948965027
 40
14.36792165891221
 40
14.89885001030253
 40
15.2583126502101
 40
15.61079239575969
 40
15.69746829704618
 40
15.86886630374273
 40
15.95368425838593
 40
15.99600465780758
 40
16.03838648454619
 40
16.08121972553973
 40
16.12412443397156
 40
16.17033844542302
 40
16.21662766030539
 40
16.2466414232401
 40
16.27667526547951
 40
16.30484128941486
 40
16.3330147018479
 40
16.37600967978959
 40
16.41931394642792
 40
16.46371986904074
 40
16.50811001488443
 40
16.59786998379897
 40
16.68756487456678
 40
16.86851690829732
 40
17.04920229559118
 40
17.41150458881523
 40
18.03324322374408
 40
18.29683723786884
 40
18.83245571631319
 40
19.3772955531871
 40
19.65058637522725
 40
20.3122615440759
 40
20.70090138143717
 40
21.09144292122238
 40
21.48373808860526
 40
21.87748136894416
 40
22.27076176857144
 40
22.46635164106641
 40
22.66183471333888
 40
23.05083358640117
 40
23.38186736816081
 40
23.88485779616349
 40
24.05474264920091
 40
24.22585082071532
 40
24.39805743121401
 40
24.57228945751721
 40
24.74621167943534
 40
24.83046135932649
 40
24.99399742050408
 40
25.15406868498914
 40
25.39566743937679
 40
25.64621839534745
 40
25.90849182443579
 40
26.08929283538605
 40
26.26794001169155
 40
26.44333160660758
 40
26.61658700906262
 40
26.78799732060817
 40
26.95762164491552
 40
27.12529634459997
 40
27.45367866512593
 40
27.77196099452028
 40
27.92808537341424
 40
28.08271757058687
 40
28.59269882506748
 40
29.0012738236437
 40
29.20741171837419
 40
30.03812295407611
 40
30.45512700784406
 40
30.87173364194304
 40
31.28855683089697
 40
32.16709571260193
 40
32.62846021532462
 40
33.08985867115978
 40
34.94500812755368
 40
35.87622159166673
 40
37.50856175317855
 40
38.67996595723793
 40
39.50585720406737
 40
39.86286985642367
 40
41.28651074497824
 40
41.99439928761057
 40
43.39591297843097
 40
44.80370702859335
 40
46.88496279090998
 40
50.99680386293853
 40
53.0314855883046
 40
54.05069632410141
 40
57.08366503897778
 40
59.08867417229233
 40
65.06755382581002
 40
70.4615077558024
 40
70.4615077558024
 40
70.4615077558024
 40
70.4615077558024
 10
2895.416304252172
 20
-239.8599188276582
 30
0.0
 10
2895.416292724829
 20
-239.801689597625
 30
0.0
 10
2895.41800031094
 20
-239.7030474156461
 30
0.0
 10
2895.425496169
 20
-239.5423690491623
 30
0.0
 10
2895.437846635457
 20
-239.3861245196065
 30
0.0
 10
2895.454494647553
 20
-239.2334037221115
 30
0.0
 10
2895.475938032254
 20
-239.0782127105256
 30
0.0
 10
2895.505440490906
 20
-238.9066251736838
 30
0.0
 10
2895.531425840192
 20
-238.7779515187219
 30
0.0
 10
2895.567023475804
 20
-238.6215893944197
 30
0.0
 10
2895.601457043464
 20
-238.4885163575216
 30
0.0
 10
2895.635173448465
 20
-238.3677108017216
 30
0.0
 10
2895.681512402043
 20
-238.2172437602328
 30
0.0
 10
2895.720521671217
 20
-238.1001738197053
 30
0.0
 10
2895.772015686312
 20
-237.9567722648997
 30
0.0
 10
2895.817030784674
 20
-237.8397671386717
 30
0.0
 10
2895.872791774294
 20
-237.7035648909048
 30
0.0
 10
2895.915809348235
 20
-237.604585103905
 30
0.0
 10
2895.955829679455
 20
-237.5161507684522
 30
0.0
 10
2895.984710169247
 20
-237.454085993945
 30
0.0
 10
2896.016300506028
 20
-237.387951735737
 30
0.0
 10
2896.058648216833
 20
-237.3016882810177
 30
0.0
 10
2896.111740727192
 20
-237.1975708020007
 30
0.0
 10
2896.179089128897
 20
-237.071767167178
 30
0.0
 10
2896.248057549989
 20
-236.9488583219006
 30
0.0
 10
2896.319318393911
 20
-236.8273863283318
 30
0.0
 10
2896.392624482596
 20
-236.7076835448258
 30
0.0
 10
2896.466821340262
 20
-236.5913269931186
 30
0.0
 10
2896.543982321244
 20
-236.4749344497611
 30
0.0
 10
2896.621738623824
 20
-236.3619385523677
 30
0.0
 10
2896.701117202711
 20
-236.2505773276559
 30
0.0
 10
2896.808530358743
 20
-236.1049298532023
 30
0.0
 10
2896.946128461486
 20
-235.9273547435139
 30
0.0
 10
2897.088793390438
 20
-235.7545301992166
 30
0.0
 10
2897.204599509423
 20
-235.6204296588237
 30
0.0
 10
2897.292731538071
 20
-235.5213238812591
 30
0.0
 10
2897.381358529143
 20
-235.4244683654676
 30
0.0
 10
2897.471633597273
 20
-235.3285328044665
 30
0.0
 10
2897.561939292922
 20
-235.235144060023
 30
0.0
 10
2897.653886243372
 20
-235.1425462386267
 30
0.0
 10
2897.746027876421
 20
-235.0521427678948
 30
0.0
 10
2897.857217418918
 20
-234.9458111321289
 30
0.0
 10
2897.98703327986
 20
-234.8256404058191
 30
0.0
 10
2898.136744689877
 20
-234.6922988187541
 30
0.0
 10
2898.287548932107
 20
-234.5629417566986
 30
0.0
 10
2898.441167617359
 20
-234.4359863444349
 30
0.0
 10
2898.594838103065
 20
-234.313556763095
 30
0.0
 10
2898.803182592574
 20
-234.1534449696708
 30
0.0
 10
2899.004152055039
 20
-234.0071308945978
 30
0.0
 10
2899.197654433638
 20
-233.8728982014698
 30
0.0
 10
2899.33037266479
 20
-233.7833967833283
 30
0.0
 10
2899.551527471209
 20
-233.6383858729748
 30
0.0
 10
2899.82029815327
 20
-233.4717691754965
 30
0.0
 10
2900.13736798432
 20
-233.2884654539582
 30
0.0
 10
2900.503256453812
 20
-233.0883591876343
 30
0.0
 10
2900.874964948227
 20
-232.9015481590675
 30
0.0
 10
2901.29483450927
 20
-232.7076862237061
 30
0.0
 10
2901.598275202919
 20
-232.57715069034
 30
0.0
 10
2901.881361896416
 20
-232.463059826832
 30
0.0
 10
2902.094531192008
 20
-232.3809118880069
 30
0.0
 10
2902.45288687868
 20
-232.248898237666
 30
0.0
 10
2902.814218627833
 20
-232.1276703139818
 30
0.0
 10
2903.252829418743
 20
-231.9941268827604
 30
0.0
 10
2903.693858330667
 20
-231.8697498621439
 30
0.0
 10
2904.216989194083
 20
-231.7409123090963
 30
0.0
 10
2904.700344453549
 20
-231.6383355353989
 30
0.0
 10
2905.065791714394
 20
-231.5687885395862
 30
0.0
 10
2905.307875781371
 20
-231.5269458782793
 30
0.0
 10
2905.49833921034
 20
-231.4960998502718
 30
0.0
 10
2905.60741093083
 20
-231.4791223593427
 30
0.0
 10
2905.704311863465
 20
-231.4646534618894
 30
0.0
 10
2905.760200657838
 20
-231.4564850242921
 30
0.0
 10
2905.802184412229
 20
-231.4504376667671
 30
0.0
 10
2905.844213789955
 20
-231.4444701526261
 30
0.0
 10
2905.888586079371
 20
-231.4382669766908
 30
0.0
 10
2905.929773592894
 20
-231.4325927594471
 30
0.0
 10
2905.970581677222
 20
-231.4270610140645
 30
0.0
 10
2905.999060457758
 20
-231.4232464180839
 30
0.0
 10
2906.025636772683
 20
-231.4197188217238
 30
0.0
 10
2906.045057720599
 20
-231.417161970862
 30
0.0
 10
2906.071031919073
 20
-231.4137663730687
 30
0.0
 10
2906.091087134515
 20
-231.4111685170453
 30
0.0
 10
2906.113009950885
 20
-231.4083476103931
 30
0.0
 10
2906.126899314972
 20
-231.4065712413965
 30
0.0
 10
2906.149556515691
 20
-231.4036857203444
 30
0.0
 10
2906.17210733966
 20
-231.4008352589033
 30
0.0
 10
2906.213686867077
 20
-231.3956237969203
 30
0.0
 10
2906.257970789202
 20
-231.3901458212692
 30
0.0
 10
2906.337917704272
 20
-231.3804100577297
 30
0.0
 10
2906.460318024487
 20
-231.3658473921512
 30
0.0
 10
2906.612880108732
 20
-231.3484930310894
 30
0.0
 10
2906.762430497083
 20
-231.3320917396311
 30
0.0
 10
2906.893346333116
 20
-231.3180855361177
 30
0.0
 10
2907.015760623475
 20
-231.3052871932111
 30
0.0
 10
2907.160145235106
 20
-231.2904097184689
 30
0.0
 10
2907.299064432709
 20
-231.2763406328211
 30
0.0
 10
2907.462019434039
 20
-231.2601653772224
 30
0.0
 10
2907.594463943125
 20
-231.2471881659337
 30
0.0
 10
2907.729838777359
 20
-231.234061634859
 30
0.0
 10
2907.867215596121
 20
-231.2208588252468
 30
0.0
 10
2907.986376013641
 20
-231.2094911440188
 30
0.0
 10
2908.090116006917
 20
-231.1996654075954
 30
0.0
 10
2908.194083952778
 20
-231.1898680638449
 30
0.0
 10
2908.325502777501
 20
-231.1775786083233
 30
0.0
 10
2908.511736871715
 20
-231.1603718620452
 30
0.0
 10
2908.654821792452
 20
-231.1473053900215
 30
0.0
 10
2908.767417111798
 20
-231.1370438883166
 30
0.0
 10
2908.832943400816
 20
-231.1310739786156
 30
0.0
 10
2908.897575457009
 20
-231.1251807904671
 30
0.0
 10
2908.957345705059
 20
-231.1197218503728
 30
0.0
 10
2909.004016087965
 20
-231.1154456956062
 30
0.0
 10
2909.063553249185
 20
-231.1099879968122
 30
0.0
 10
2909.133801631113
 20
-231.1035614724904
 30
0.0
 10
2909.254735351587
 20
-231.0925957039588
 30
0.0
 10
2909.422613924282
 20
-231.0776433706376
 30
0.0
 10
2909.640364448491
 20
-231.0588689147405
 30
0.0
 10
2909.851139103936
 20
-231.0413821492455
 30
0.0
 10
2910.045907052587
 20
-231.0257843476727
 30
0.0
 10
2910.208898283483
 20
-231.0130838589064
 30
0.0
 10
2910.364006522428
 20
-231.0012519357822
 30
0.0
 10
2910.512995454847
 20
-230.9900787495933
 30
0.0
 10
2910.656398885554
 20
-230.9794665524757
 30
0.0
 10
2910.794952309167
 20
-230.9693158932548
 30
0.0
 10
2910.972562019982
 20
-230.9563976548623
 30
0.0
 10
2911.180352589327
 20
-230.9413882596834
 30
0.0
 10
2911.383541686131
 20
-230.926701311442
 30
0.0
 10
2911.550598267062
 20
-230.9146385372503
 30
0.0
 10
2911.772649954964
 20
-230.8986246478269
 30
0.0
 10
2912.07552205737
 20
-230.8768638011713
 30
0.0
 10
2912.406687099541
 20
-230.8533099805361
 30
0.0
 10
2912.840629983264
 20
-230.822721720793
 30
0.0
 10
2913.279713573138
 20
-230.7921945229607
 30
0.0
 10
2913.786027768161
 20
-230.7572976306235
 30
0.0
 10
2914.167083132645
 20
-230.7311331841063
 30
0.0
 10
2914.69324433924
 20
-230.6951132718266
 30
0.0
 10
2915.240243905879
 20
-230.6578981119135
 30
0.0
 10
2915.807802391695
 20
-230.6196256181854
 30
0.0
 10
2916.688678975181
 20
-230.5605968140096
 30
0.0
 10
2917.732695469214
 20
-230.4916621343398
 30
0.0
 10
2919.167779707994
 20
-230.3983778048084
 30
0.0
 10
2920.394738213734
 20
-230.3199237661872
 30
0.0
 10
2921.599703370668
 20
-230.2450430627339
 30
0.0
 10
2922.383265453973
 20
-230.1975395544284
 30
0.0
 10
2923.250438352679
 20
-230.1456133390618
 30
0.0
 10
2924.077758001746
 20
-230.0967498484677
 30
0.0
 10
2925.251995324981
 20
-230.0277427921162
 30
0.0
 10
2926.421213346206
 20
-229.9589268413172
 30
0.0
 10
2928.046215442071
 20
-229.8650462057328
 30
0.0
 10
2930.572722311816
 20
-229.7237069260734
 30
0.0
 10
2933.308543510926
 20
-229.5807788341324
 30
0.0
 10
2935.691839578474
 20
-229.4654738699116
 30
0.0
 10
2937.716439405696
 20
-229.3724670298141
 30
0.0
 10
2939.73190455541
 20
-229.2875844378266
 30
0.0
 10
2943.399596764248
 20
-229.1496069705352
 30
0.0
 10
2947.855693506124
 20
-229.0085517103951
 30
0.0
 10
2951.644774985769
 20
-228.9062188180621
 30
0.0
 10
2953.441958079295
 20
-228.8598824180178
 30
0.0
  0
SPLINE
  5
1AB94
330
18
100
AcDbEntity
  8
01
100
AcDbSpline
210
0.0
220
0.0
230
1.0
 70
     8
 71
     3
 72
    18
 73
    14
 74
     0
 42
0.0000000001
 43
0.0000000001
 40
0.0
 40
0.0
 40
0.0
 40
0.0
 40
0.6968103897542867
 40
1.801970234880123
 40
2.17321326497219
 40
2.423509114463025
 40
3.439835155986084
 40
3.957522063926517
 40
4.346495939257521
 40
4.56152175118824
 40
4.77720781402824
 40
4.905127338730156
 40
5.034878036177931
 40
5.034878036177931
 40
5.034878036177931
 40
5.034878036177931
 10
2947.85202391155
 20
-250.4255552109578
 30
0.0
 10
2947.620309687172
 20
-250.4202389017025
 30
0.0
 10
2947.020424273534
 20
-250.4174582363664
 30
0.0
 10
2946.345644989062
 20
-250.4459993012958
 30
0.0
 10
2945.878334525587
 20
-250.4790355437588
 30
0.0
 10
2945.466408636157
 20
-250.5125021438241
 30
0.0
 10
2945.094294001992
 20
-250.550910070903
 30
0.0
 10
2944.815086582234
 20
-250.5812495916723
 30
0.0
 10
2944.697360504881
 20
-250.5934103302404
 30
0.0
 10
2944.632760624983
 20
-250.5996380620797
 30
0.0
 10
2944.596936315393
 20
-250.6026046931145
 30
0.0
 10
2944.568909688169
 20
-250.604086696
 30
0.0
 10
2944.551538915013
 20
-250.6045565268539
 30
0.0
 10
2944.538218254766
 20
-250.6041200136431
 30
0.0
  0
LINE
  5
1AB95
330
18
100
AcDbEntity
  8
01
100
AcDbLine
 10
2953.441958079295
 20
-228.8598824180178
 30
0.0
 11
2953.441958079295
 21
-250.8599588547511
 31
0.0
  0
ARC
  5
1AB96
330
18
100
AcDbEntity
  8
01
  6
CONTINUOUS
100
AcDbCircle
 10
2783.94191264419
 20
-231.8682322771822
 30
0.0
 40
0.5000152713007943
100
AcDbArc
 50
0.0017333429139377
 51
90.9543443438515
  0
ARC
  5
1AB97
330
18
100
AcDbEntity
  8
01
  6
CONTINUOUS
100
AcDbCircle
 10
2686.479674727292
 20
-243.9989659254063
 30
0.0
 40
1.525357082928538
100
AcDbArc
 50
193.9946051303457
 51
265.3956256431323
  0
SPLINE
  5
1AB98
330
18
100
AcDbEntity
  8
01
  6
CONTINUOUS
100
AcDbSpline
210
0.0
220
0.0
230
1.0
 70
     8
 71
     3
 72
    19
 73
    15
 74
     0
 42
0.0000000001
 43
0.0000000001
 40
0.0
 40
0.0
 40
0.0
 40
0.0
 40
9.460161730091599
 40
15.98254808382674
 40
21.19129945756545
 40
25.09589110006226
 40
31.07976597410934
 40
37.07051130115414
 40
49.03234155557556
 40
60.99958883125357
 40
72.94987208489064
 40
78.94125269660621
 40
87.91845955628929
 40
97.64525170031928
 40
97.64525170031928
 40
97.64525170031928
 40
97.64525170031928
 10
2686.353463288237
 20
-234.2134158074607
 30
0.0
 10
2689.494720229261
 20
-233.9694961255166
 30
0.0
 10
2694.807998479224
 20
-233.6134616441107
 30
0.0
 10
2701.861656607862
 20
-233.2718689347305
 30
0.0
 10
2707.069355622027
 20
-233.083122578849
 30
0.0
 10
2712.099193659224
 20
-232.9395448349017
 30
0.0
 10
2717.390594268081
 20
-232.8218367286966
 30
0.0
 10
2725.367371505894
 20
-232.6644219273323
 30
0.0
 10
2735.337544967024
 20
-232.4438689348237
 30
0.0
 10
2747.293132271907
 20
-232.1623119568192
 30
0.0
 10
2757.259200750079
 20
-231.9247304749626
 30
0.0
 10
2766.229241993469
 20
-231.7208528452131
 30
0.0
 10
2774.458610264317
 20
-231.54299760554
 30
0.0
 10
2780.691854407683
 20
-231.4223658555986
 30
0.0
 10
2783.933584125025
 20
-231.3682609375903
 30
0.0
  0
SPLINE
  5
1AB99
330
18
100
AcDbEntity
  8
01
  6
CONTINUOUS
100
AcDbSpline
210
0.0
220
0.0
230
1.0
 70
     8
 71
     3
 72
     8
 73
     4
 74
     0
 42
0.0000000001
 43
0.0000000001
 40
0.0
 40
0.0
 40
0.0
 40
0.0
 40
0.2577938006557611
 40
0.2577938006557611
 40
0.2577938006557611
 40
0.2577938006557611
 10
2784.441928179283
 20
-247.8524421146769
 30
0.0
 10
2784.441925193994
 20
-247.8543448846797
 30
0.0
 10
2784.441925642705
 20
-247.8533971791819
 30
0.0
 10
2784.441926498981
 20
-247.8516761416661
 30
0.0
  0
ARC
  5
1AB9A
330
18
100
AcDbEntity
  8
01
  6
CONTINUOUS
100
AcDbCircle
 10
2783.941913295435
 20
-247.8516782619347
 30
0.0
 40
0.5000153888062217
100
AcDbArc
 50
269.052911148064
 51
359.9982857753052
  0
ARC
  5
1AB9B
330
18
100
AcDbEntity
  8
01
  6
CONTINUOUS
100
AcDbCircle
 10
2686.475487518246
 20
-235.7328417892224
 30
0.0
 40
1.524291238605641
100
AcDbArc
 50
94.5882218989379
 51
165.9961776374142
  0
ARC
  5
1AB9C
330
18
100
AcDbEntity
  8
01
  6
CONTINUOUS
100
AcDbCircle
 10
2702.441988802528
 20
-239.8599206256179
 30
0.0
 40
18.01550911287495
100
AcDbArc
 50
165.5487067312381
 51
194.4914493727266
  0
SPLINE
  5
1AB9D
330
18
100
AcDbEntity
  8
01
  6
CONTINUOUS
100
AcDbSpline
210
0.0
220
0.0
230
1.0
 70
     8
 71
     3
 72
    18
 73
    14
 74
     0
 42
0.0000000001
 43
0.0000000001
 40
0.0084261242649831
 40
0.0084261242649831
 40
0.0084261242649831
 40
0.0084261242649831
 40
7.712846085700495
 40
14.65425159473615
 40
25.07157586312692
 40
31.0434317342125
 40
43.00917413402433
 40
60.95019085191205
 40
72.92347365185603
 40
75.9095362856851
 40
81.88455093582228
 40
87.86541887519844
 40
97.65001262520049
 40
97.65001262520049
 40
97.65001262520049
 40
97.65001262520049
 10
2783.933648274553
 20
-248.3516394385917
 30
0.0
 10
2781.365929942853
 20
-248.3091076349667
 30
0.0
 10
2776.485035145382
 20
-248.2177624456301
 30
0.0
 10
2768.132958316912
 20
-248.043778964279
 30
0.0
 10
2760.358574228896
 20
-247.8695838619512
 30
0.0
 10
2750.910223290812
 20
-247.6487112989105
 30
0.0
 10
2738.954956055557
 20
-247.3650243672448
 30
0.0
 10
2724.999554022002
 20
-247.0490633612401
 30
0.0
 10
2714.035183541224
 20
-246.843854892564
 30
0.0
 10
2707.060587798811
 20
-246.6461741987016
 30
0.0
 10
2702.083822602881
 20
-246.4684259121616
 30
0.0
 10
2694.847274291898
 20
-246.1196021918524
 30
0.0
 10
2689.605805573476
 20
-245.771344072891
 30
0.0
 10
2686.356621077259
 20
-245.5193228567384
 30
0.0
  0
LINE
  5
1AB9E
330
18
100
AcDbEntity
  8
01
100
AcDbLine
 10
2784.441927915261
 20
-231.8682171504499
 30
0.0
 11
2784.441925879986
 21
-247.8531074169593
 31
0.0
  0
LINE
  5
1AB9F
330
18
100
AcDbEntity
  8
01
100
AcDbLine
 10
2784.44199488672
 20
-231.6584275902585
 30
0.0
 11
2784.44199488672
 21
-239.8599206363845
 31
0.0
  0
LINE
  5
1ABA0
330
18
100
AcDbEntity
  8
01
100
AcDbLine
 10
2784.44199488672
 20
-239.8599206363845
 30
0.0
 11
2784.44199488672
 21
-248.0633198618618
 31
0.0
  0
ARC
  5
1ABA1
330
18
100
AcDbEntity
  8
01
100
AcDbCircle
 10
2784.742054197897
 20
-248.0632648311432
 30
0.0
 40
0.3000593162567604
100
AcDbArc
 50
180.0105420558258
 51
269.526722976313
  0
SPLINE
  5
1ABA2
330
18
100
AcDbEntity
  8
01
100
AcDbSpline
210
0.0
220
0.0
230
1.0
 70
     8
 71
     3
 72
    50
 73
    46
 74
     0
 42
0.0000000001
 43
0.0000000001
 40
40.24605889528515
 40
40.24605889528515
 40
40.24605889528515
 40
40.24605889528515
 40
40.41330824550255
 40
41.05947960633106
 40
42.10215968566057
 40
42.51026830244423
 40
43.11266884409871
 40
43.50922291673435
 40
43.98418136823029
 40
44.53538836255579
 40
45.08142471240612
 40
45.62181933743891
 40
45.88937875052035
 40
46.06066524137628
 40
46.57258251084908
 40
47.08382222064991
 40
47.42685914774938
 40
47.94939217292845
 40
48.30296108340335
 40
48.65809398927975
 40
48.91534449632767
 40
49.42903302199714
 40
49.94097800742659
 40
50.70656261856672
 40
51.21581259154242
 40
51.97875699634007
 40
52.74150980806883
 40
53.13326652189864
 40
54.3118397937692
 40
54.70465026371415
 40
55.09791575571316
 40
55.49173697177937
 40
55.88448045148156
 40
56.16708261071171
 40
56.73196250872059
 40
57.01766912717855
 40
57.30623476903798
 40
57.89114633580776
 40
58.77871620482893
 40
59.37384912472834
 40
59.96449161567381
 40
60.55313685403777
 40
64.62558942126732
 40
68.70884455955124
 40
70.4428402906394
 40
70.4428402906394
 40
70.4428402906394
 40
70.4428402906394
 10
2808.551134788126
 20
-249.0280354879835
 30
0.0
 10
2808.551134781585
 20
-249.0280355281059
 30
0.0
 10
2808.548752771921
 20
-249.0276599787642
 30
0.0
 10
2808.518049330563
 20
-249.0229863794486
 30
0.0
 10
2808.422963312605
 20
-249.0100081284411
 30
0.0
 10
2808.275682629384
 20
-248.9920721375595
 30
0.0
 10
2808.141006706832
 20
-248.9766525579955
 30
0.0
 10
2807.969616039125
 20
-248.958236079023
 30
0.0
 10
2807.782086094998
 20
-248.9390783181946
 30
0.0
 10
2807.543035642109
 20
-248.9160306176084
 30
0.0
 10
2807.265820981589
 20
-248.8908107999025
 30
0.0
 10
2807.022174520427
 20
-248.8698224849861
 30
0.0
 10
2806.830408908654
 20
-248.8539030929962
 30
0.0
 10
2806.637680062579
 20
-248.8381689621094
 30
0.0
 10
2806.384990719798
 20
-248.8180187844393
 30
0.0
 10
2806.07797132059
 20
-248.7940554278969
 30
0.0
 10
2805.79657688714
 20
-248.7724969838812
 30
0.0
 10
2805.564967494058
 20
-248.7553372402083
 30
0.0
 10
2805.337010395986
 20
-248.7392341806592
 30
0.0
 10
2805.15217051937
 20
-248.7267140343254
 30
0.0
 10
2804.92942821637
 20
-248.7121915928522
 30
0.0
 10
2804.664829524805
 20
-248.6957669376682
 30
0.0
 10
2804.268632389709
 20
-248.6728118323465
 30
0.0
 10
2803.844667241296
 20
-248.6503263568795
 30
0.0
 10
2803.330367361183
 20
-248.6255150215459
 30
0.0
 10
2802.788429636872
 20
-248.601795825585
 30
0.0
 10
2802.254451761957
 20
-248.5812954878568
 30
0.0
 10
2801.582697157901
 20
-248.5584166084639
 30
0.0
 10
2800.988149309698
 20
-248.5413384043179
 30
0.0
 10
2800.377816956112
 20
-248.5264882112499
 30
0.0
 10
2800.006716124955
 20
-248.5182205791509
 30
0.0
 10
2799.631686396613
 20
-248.5105588927747
 30
0.0
 10
2799.29123620316
 20
-248.504313484824
 30
0.0
 10
2798.894696134763
 20
-248.497909928861
 30
0.0
 10
2798.531075361294
 20
-248.4932559776964
 30
0.0
 10
2798.158088739741
 20
-248.4895995585541
 30
0.0
 10
2797.775584208608
 20
-248.486345313376
 30
0.0
 10
2797.189458618494
 20
-248.4820293247296
 30
0.0
 10
2796.500011585729
 20
-248.4768954919284
 30
0.0
 10
2795.80911559545
 20
-248.4704711677889
 30
0.0
 10
2795.217610826679
 20
-248.4643281008464
 30
0.0
 10
2793.467412421847
 20
-248.4466500057581
 30
0.0
 10
2790.552653287923
 20
-248.4177330277237
 30
0.0
 10
2787.256471064344
 20
-248.3849622447699
 30
0.0
 10
2785.31755548139
 20
-248.367932138998
 30
0.0
 10
2784.739580864958
 20
-248.3632711332732
 30
0.0
  0
ARC
  5
1ABA3
330
18
100
AcDbEntity
  8
01
100
AcDbCircle
 10
2784.742053106045
 20
-231.658483754544
 30
0.0
 40
0.3000582325053063
100
AcDbArc
 50
90.47303853433492
 51
179.9811984197171
  0
SPLINE
  5
1ABA4
330
18
100
AcDbEntity
  8
01
100
AcDbSpline
210
0.0
220
0.0
230
1.0
 70
     8
 71
     3
 72
    49
 73
    45
 74
     0
 42
0.0000000001
 43
0.0000000001
 40
0.0
 40
0.0
 40
0.0
 40
0.0
 40
1.052004170098063
 40
2.114068328488348
 40
3.660643967315682
 40
5.205578484377293
 40
7.525733899751696
 40
9.841997416968454
 40
10.27670456311666
 40
10.71152584647312
 40
11.1483341883486
 40
12.02648531740571
 40
12.46242376388447
 40
13.11089356461147
 40
13.74676018385373
 40
14.16379049950606
 40
14.5810272807612
 40
14.99964071911551
 40
15.20950456042481
 40
16.04740468546638
 40
17.38165325542484
 40
18.08548826931737
 40
18.78860246884783
 40
19.25762548782302
 40
19.96217344386303
 40
21.18312281753642
 40
21.55961155680222
 40
22.31244472762127
 40
22.86998640791152
 40
23.23535997595707
 40
23.41662357783994
 40
23.64996011135596
 40
23.88319097472134
 40
24.35041982729464
 40
24.82049050931876
 40
25.05741057465696
 40
25.53505097306694
 40
26.25891944630026
 40
27.23920427015888
 40
27.98862206669473
 40
28.49788448903195
 40
29.27759755601144
 40
30.08357020682969
 40
30.14760390115131
 40
30.14760390115131
 40
30.14760390115131
 40
30.14760390115131
 10
2784.739581083229
 20
-231.3584849127517
 30
0.0
 10
2785.090236828659
 20
-231.3556571338552
 30
0.0
 10
2785.794897936936
 20
-231.3496513759662
 30
0.0
 10
2787.014969594831
 20
-231.3385921565307
 30
0.0
 10
2788.399388254145
 20
-231.3254678656706
 30
0.0
 10
2790.203098402737
 20
-231.3076229130559
 30
0.0
 10
2792.263332474307
 20
-231.2867027965378
 30
0.0
 10
2793.953666692374
 20
-231.2701313543678
 30
0.0
 10
2795.015390349652
 20
-231.259494778785
 30
0.0
 10
2795.450788612223
 20
-231.2549833300557
 30
0.0
 10
2796.03404228798
 20
-231.2490570950074
 30
0.0
 10
2796.617528800567
 20
-231.2440112987417
 30
0.0
 10
2797.271717372161
 20
-231.2391083805094
 30
0.0
 10
2797.844492010494
 20
-231.2349343732578
 30
0.0
 10
2798.404974246943
 20
-231.2299854818214
 30
0.0
 10
2798.877630243082
 20
-231.2240760859092
 30
0.0
 10
2799.278389135945
 20
-231.2177136118528
 30
0.0
 10
2799.611313121783
 20
-231.2115347059819
 30
0.0
 10
2800.077621174507
 20
-231.2021132219536
 30
0.0
 10
2800.825442447418
 20
-231.1851453572838
 30
0.0
 10
2801.697293672554
 20
-231.1601675083332
 30
0.0
 10
2802.475458273864
 20
-231.1323332816662
 30
0.0
 10
2802.98764122397
 20
-231.1113740587532
 30
0.0
 10
2803.479816600795
 20
-231.0892459716636
 30
0.0
 10
2804.076433549179
 20
-231.0598872635121
 30
0.0
 10
2804.596761614441
 20
-231.0303975566014
 30
0.0
 10
2805.076006620548
 20
-231.0002584842457
 30
0.0
 10
2805.398133744429
 20
-230.9784912820776
 30
0.0
 10
2805.708902194252
 20
-230.9558305776193
 30
0.0
 10
2805.929933127671
 20
-230.9390552824254
 30
0.0
 10
2806.093826790622
 20
-230.9264092398487
 30
0.0
 10
2806.23743536517
 20
-230.915229199227
 30
0.0
 10
2806.442268532301
 20
-230.8991588173906
 30
0.0
 10
2806.690724659438
 20
-230.8793465022611
 30
0.0
 10
2806.92535087597
 20
-230.8600340560504
 30
0.0
 10
2807.145216545319
 20
-230.841371696891
 30
0.0
 10
2807.3987180326
 20
-230.819081784228
 30
0.0
 10
2807.753269471665
 20
-230.7859233554075
 30
0.0
 10
2808.07379820839
 20
-230.7528438178063
 30
0.0
 10
2808.291767197161
 20
-230.7278963418751
 30
0.0
 10
2808.430980294548
 20
-230.710672437054
 30
0.0
 10
2808.525210276304
 20
-230.6978947695773
 30
0.0
 10
2808.551990909495
 20
-230.6937674124513
 30
0.0
 10
2808.552968685459
 20
-230.6936102431857
 30
0.0
 10
2808.552968639218
 20
-230.6936099442112
 30
0.0
  0
ELLIPSE
  5
1ABA5
330
18
100
AcDbEntity
  8
01
100
AcDbEllipse
 10
2812.441958079295
 20
-239.8599206363845
 30
0.0
 11
15.0
 21
4.454769886308439E-14
 31
0.0
210
0.0
220
0.0
230
-1.0
 40
0.7333333333333331
 41
4.063812080098634
 42
8.50224305139331
  0
LINE
  5
1ABA6
330
18
100
AcDbEntity
  8
01
100
AcDbLine
 10
2837.441958079295
 20
-126.3599206363845
 30
0.0
 11
2837.441958079295
 21
-303.3599206363845
 31
0.0
  0
ARC
  5
1ABA7
330
18
100
AcDbEntity
  8
01
100
AcDbCircle
 10
2836.941958079295
 20
-303.3599206363845
 30
0.0
 40
0.5
100
AcDbArc
 50
270.0
 51
0.0
  0
LINE
  5
1ABA8
330
18
100
AcDbEntity
  8
01
100
AcDbLine
 10
2787.441958079295
 20
-126.3599206363845
 30
0.0
 11
2787.441958079295
 21
-231.3345082381998
 31
0.0
  0
LINE
  5
1ABA9
330
18
100
AcDbEntity
  8
01
100
AcDbLine
 10
2787.441958079295
 20
-248.3872974474987
 30
0.0
 11
2787.441958079295
 21
-303.3599206363845
 31
0.0
  0
ARC
  5
1ABAA
330
18
100
AcDbEntity
  8
01
100
AcDbCircle
 10
2787.941958079295
 20
-126.3599206363845
 30
0.0
 40
0.5
100
AcDbArc
 50
90.0
 51
180.0
  0
LINE
  5
1ABAB
330
18
100
AcDbEntity
  8
01
100
AcDbLine
 10
2787.941958079295
 20
-303.8599206363845
 30
0.0
 11
2836.941958079295
 21
-303.8599206363845
 31
0.0
  0
ARC
  5
1ABAC
330
18
100
AcDbEntity
  8
01
100
AcDbCircle
 10
2787.941958079295
 20
-303.3599206363845
 30
0.0
 40
0.5
100
AcDbArc
 50
180.0
 51
270.0
  0
LINE
  5
1ABAD
330
18
100
AcDbEntity
  8
01
100
AcDbLine
 10
2836.941958079295
 20
-125.8599206363845
 30
0.0
 11
2787.941958079295
 21
-125.8599206363845
 31
0.0
  0
ARC
  5
1ABAE
330
18
100
AcDbEntity
  8
01
100
AcDbCircle
 10
2836.941958079295
 20
-126.3599206363845
 30
0.0
 40
0.5
100
AcDbArc
 50
0.0
 51
90.0
  0
LINE
  5
1ADDE
330
18
100
AcDbEntity
  8
01
100
AcDbLine
 10
3090.441725399805
 20
-211.8612396476185
 30
0.0
 11
3090.441725399805
 21
-109.1397468647992
 31
0.0
1001
ACAD
1000
DSTYLE
1002
{
1070
    40
1040
1.3
1070
    45
1040
0.5
1002
}
  0
LINE
  5
1ADDF
330
18
100
AcDbEntity
  8
01
100
AcDbLine
 10
3101.441725399805
 20
-153.9899215983296
 30
0.0
 11
3101.441725399805
 21
-109.1397468647992
 31
0.0
1001
ACAD
1000
DSTYLE
1002
{
1070
    40
1040
1.3
1070
    45
1040
0.5
1002
}
  0
LINE
  5
1ADE0
330
18
100
AcDbEntity
  8
01
100
AcDbLine
 10
3093.041725399805
 20
-110.4397468647992
 30
0.0
 11
3098.841725399805
 21
-110.4397468647992
 31
0.0
1001
ACAD
1000
DSTYLE
1002
{
1070
    40
1040
1.3
1070
    45
1040
0.5
1002
}
  0
TEXT
  5
1ADE4
330
18
100
AcDbEntity
  8
01
  6
CONTINUOUS
100
AcDbText
 10
3063.444886492822
 20
-27.27790561718249
 30
0.0
 40
4.55
  1
材質：亜鉛ダイキャスト
100
AcDbText
  0
TEXT
  5
1ADE5
330
18
100
AcDbEntity
  8
01
  6
CONTINUOUS
100
AcDbText
 10
3073.758219826155
 20
-34.86123895051583
 30
0.0
 40
4.55
  1
仕上げ：各種メッキ
100
AcDbText
  0
LINE
  5
1ADE6
330
18
100
AcDbEntity
  8
01
100
AcDbLine
 10
3170.441725399805
 20
-181.8612389494872
 30
0.0
 11
3198.741725399806
 21
-181.8612389494872
 31
0.0
1001
ACAD
1000
DSTYLE
1002
{
1070
    40
1040
1.3
1070
    45
1040
0.5
1002
}
  0
LINE
  5
1ADE7
330
18
100
AcDbEntity
  8
01
100
AcDbLine
 10
3170.441725399805
 20
-255.8612389494876
 30
0.0
 11
3198.741725399806
 21
-255.8612389494876
 31
0.0
1001
ACAD
1000
DSTYLE
1002
{
1070
    40
1040
1.3
1070
    45
1040
0.5
1002
}
  0
LINE
  5
1ADE8
330
18
100
AcDbEntity
  8
01
100
AcDbLine
 10
3197.441725399805
 20
-184.4612389494872
 30
0.0
 11
3197.441725399805
 21
-253.2612389494876
 31
0.0
1001
ACAD
1000
DSTYLE
1002
{
1070
    40
1040
1.3
1070
    45
1040
0.5
1002
}
  0
LINE
  5
1ADEC
330
18
100
AcDbEntity
  8
01
100
AcDbLine
 10
3170.441725399805
 20
-181.8612389494872
 30
0.0
 11
3170.441725399805
 21
-99.05987939675101
 31
0.0
1001
ACAD
1000
DSTYLE
1002
{
1070
    40
1040
1.3
1070
    45
1040
0.5
1002
}
  0
LINE
  5
1ADED
330
18
100
AcDbEntity
  8
01
100
AcDbLine
 10
3101.441725399805
 20
-153.9899215983296
 30
0.0
 11
3101.441725399805
 21
-99.05987939675101
 31
0.0
1001
ACAD
1000
DSTYLE
1002
{
1070
    40
1040
1.3
1070
    45
1040
0.5
1002
}
  0
LINE
  5
1ADEE
330
18
100
AcDbEntity
  8
01
100
AcDbLine
 10
3167.841725399805
 20
-100.359879396751
 30
0.0
 11
3104.041725399805
 21
-100.359879396751
 31
0.0
1001
ACAD
1000
DSTYLE
1002
{
1070
    40
1040
1.3
1070
    45
1040
0.5
1002
}
  0
LINE
  5
1ADF2
330
18
100
AcDbEntity
  8
01
100
AcDbLine
 10
3101.441725399805
 20
-153.9899215983296
 30
0.0
 11
3101.441725399805
 21
-109.1397468647992
 31
0.0
1001
ACAD
1000
DSTYLE
1002
{
1070
    40
1040
1.3
1070
    45
1040
0.5
1002
}
  0
LINE
  5
1ADF3
330
18
100
AcDbEntity
  8
01
100
AcDbLine
 10
3152.441725399805
 20
-189.8612389494872
 30
0.0
 11
3152.441725399805
 21
-109.1397468647992
 31
0.0
1001
ACAD
1000
DSTYLE
1002
{
1070
    40
1040
1.3
1070
    45
1040
0.5
1002
}
  0
LINE
  5
1ADF4
330
18
100
AcDbEntity
  8
01
100
AcDbLine
 10
3104.041725399805
 20
-110.4397468647992
 30
0.0
 11
3149.841725399805
 21
-110.4397468647992
 31
0.0
1001
ACAD
1000
DSTYLE
1002
{
1070
    40
1040
1.3
1070
    45
1040
0.5
1002
}
  0
LINE
  5
1ADF8
330
18
100
AcDbEntity
  8
01
100
AcDbLine
 10
2969.94184173955
 20
-159.8612389494876
 30
0.0
 11
2969.94184173955
 21
-109.1397468647994
 31
0.0
1001
ACAD
1000
DSTYLE
1002
{
1070
    40
1040
1.3
1070
    45
1040
0.5
1002
}
  0
LINE
  5
1ADF9
330
18
100
AcDbEntity
  8
01
100
AcDbLine
 10
2994.94184173955
 20
-159.8612389494876
 30
0.0
 11
2994.94184173955
 21
-109.1397468647994
 31
0.0
1001
ACAD
1000
DSTYLE
1002
{
1070
    40
1040
1.3
1070
    45
1040
0.5
1002
}
  0
LINE
  5
1ADFA
330
18
100
AcDbEntity
  8
01
100
AcDbLine
 10
2972.54184173955
 20
-110.4397468647994
 30
0.0
 11
2992.34184173955
 21
-110.4397468647994
 31
0.0
1001
ACAD
1000
DSTYLE
1002
{
1070
    40
1040
1.3
1070
    45
1040
0.5
1002
}
  0
LINE
  5
1ADFE
330
18
100
AcDbEntity
  8
01
100
AcDbLine
 10
2988.48833140649
 20
-161.8657796043924
 30
0.0000000000563712
 11
3068.774462574698
 21
-161.8657796043924
 31
0.0000000000563712
1001
ACAD
1000
DSTYLE
1002
{
1070
    40
1040
1.3
1070
    45
1040
0.5
1002
}
  0
LINE
  5
1ADFF
330
18
100
AcDbEntity
  8
01
100
AcDbLine
 10
2988.48833140649
 20
-275.8657796043924
 30
0.0000000000563712
 11
3068.774462574698
 21
-275.8657796043924
 31
0.0000000000563712
1001
ACAD
1000
DSTYLE
1002
{
1070
    40
1040
1.3
1070
    45
1040
0.5
1002
}
  0
LINE
  5
1AE00
330
18
100
AcDbEntity
  8
01
100
AcDbLine
 10
3067.474462574698
 20
-164.4657796043924
 30
0.0000000000563712
 11
3067.474462574698
 21
-273.2657796043924
 31
0.0000000000563712
1001
ACAD
1000
DSTYLE
1002
{
1070
    40
1040
1.3
1070
    45
1040
0.5
1002
}
  0
LINE
  5
1AE04
330
18
100
AcDbEntity
  8
01
100
AcDbLine
 10
2989.086391803253
 20
-153.9662247488088
 30
0.0000000000563712
 11
3078.138796740922
 21
-153.9662247488089
 31
0.0000000000563712
1001
ACAD
1000
DSTYLE
1002
{
1070
    40
1040
1.3
1070
    45
1040
0.5
1002
}
  0
LINE
  5
1AE05
330
18
100
AcDbEntity
  8
01
100
AcDbLine
 10
2989.013305998583
 20
-283.7657796043923
 30
0.0000000000563712
 11
3078.138796740922
 21
-283.7657796043923
 31
0.0000000000563712
1001
ACAD
1000
DSTYLE
1002
{
1070
    40
1040
1.3
1070
    45
1040
0.5
1002
}
  0
LINE
  5
1AE06
330
18
100
AcDbEntity
  8
01
100
AcDbLine
 10
3076.838796740922
 20
-156.5662247488088
 30
0.0000000000563712
 11
3076.838796740922
 21
-281.1657796043922
 31
0.0000000000563712
1001
ACAD
1000
DSTYLE
1002
{
1070
    40
1040
1.3
1070
    45
1040
0.5
1002
}
  0
LINE
  5
1AE0A
330
18
100
AcDbEntity
  8
01
  6
BYBLOCK
100
AcDbLine
 10
3093.041725399805
 20
-111.1364147587992
 30
0.0
 11
3090.441725399805
 21
-110.4397468647992
 31
0.0
  0
LINE
  5
1AE0B
330
18
100
AcDbEntity
  8
01
  6
BYBLOCK
100
AcDbLine
 10
3090.441725399805
 20
-110.4397468647992
 30
0.0
 11
3093.041725399805
 21
-109.7430789707992
 31
0.0
  0
LINE
  5
1AE0C
330
18
100
AcDbEntity
  8
01
  6
BYBLOCK
100
AcDbLine
 10
3090.441725399805
 20
-110.4397468647992
 30
0.0
 11
3093.041725399805
 21
-110.4397468647992
 31
0.0
  0
LINE
  5
1AE0D
330
18
100
AcDbEntity
  8
01
  6
BYBLOCK
100
AcDbLine
 10
3098.841725399805
 20
-109.7430789707992
 30
0.0
 11
3101.441725399805
 21
-110.4397468647992
 31
0.0
  0
LINE
  5
1AE0E
330
18
100
AcDbEntity
  8
01
  6
BYBLOCK
100
AcDbLine
 10
3101.441725399805
 20
-110.4397468647992
 30
0.0
 11
3098.841725399805
 21
-111.1364147587992
 31
0.0
  0
LINE
  5
1AE0F
330
18
100
AcDbEntity
  8
01
  6
BYBLOCK
100
AcDbLine
 10
3101.441725399805
 20
-110.4397468647992
 30
0.0
 11
3098.841725399805
 21
-110.4397468647992
 31
0.0
  0
TEXT
  5
1AE10
330
18
100
AcDbEntity
  8
01
  6
CONTINUOUS
100
AcDbText
 10
3093.666725399805
 20
-109.5297468647992
 30
0.0
 40
4.55
  1
11
100
AcDbText
1001
ACAD
1000
DSTYLE
1002
{
1070
    40
1040
1.3
1070
    45
1040
0.5
1002
}
  0
LINE
  5
1AE11
330
18
100
AcDbEntity
  8
01
  6
BYBLOCK
100
AcDbLine
 10
3196.745057505806
 20
-184.4612389494872
 30
0.0
 11
3197.441725399805
 21
-181.8612389494872
 31
0.0
  0
LINE
  5
1AE12
330
18
100
AcDbEntity
  8
01
  6
BYBLOCK
100
AcDbLine
 10
3197.441725399805
 20
-181.8612389494872
 30
0.0
 11
3198.138393293805
 21
-184.4612389494872
 31
0.0
  0
LINE
  5
1AE13
330
18
100
AcDbEntity
  8
01
  6
BYBLOCK
100
AcDbLine
 10
3197.441725399805
 20
-181.8612389494872
 30
0.0
 11
3197.441725399805
 21
-184.4612389494872
 31
0.0
  0
LINE
  5
1AE14
330
18
100
AcDbEntity
  8
01
  6
BYBLOCK
100
AcDbLine
 10
3198.138393293805
 20
-253.2612389494876
 30
0.0
 11
3197.441725399805
 21
-255.8612389494876
 31
0.0
  0
LINE
  5
1AE15
330
18
100
AcDbEntity
  8
01
  6
BYBLOCK
100
AcDbLine
 10
3197.441725399805
 20
-255.8612389494876
 30
0.0
 11
3196.745057505806
 21
-253.2612389494876
 31
0.0
  0
LINE
  5
1AE16
330
18
100
AcDbEntity
  8
01
  6
BYBLOCK
100
AcDbLine
 10
3197.441725399805
 20
-255.8612389494876
 30
0.0
 11
3197.441725399805
 21
-253.2612389494876
 31
0.0
  0
TEXT
  5
1AE17
330
18
100
AcDbEntity
  8
01
  6
CONTINUOUS
100
AcDbText
 10
3196.531725399806
 20
-200.8898948634687
 30
0.0
 40
4.55
  1
74
 50
90.0
100
AcDbText
1001
ACAD
1000
DSTYLE
1002
{
1070
    40
1040
1.3
1070
    45
1040
0.5
1002
}
  0
LINE
  5
1AE18
330
18
100
AcDbEntity
  8
01
  6
BYBLOCK
100
AcDbLine
 10
3167.841725399805
 20
-99.66321150275101
 30
0.0
 11
3170.441725399805
 21
-100.359879396751
 31
0.0
  0
LINE
  5
1AE19
330
18
100
AcDbEntity
  8
01
  6
BYBLOCK
100
AcDbLine
 10
3170.441725399805
 20
-100.359879396751
 30
0.0
 11
3167.841725399805
 21
-101.056547290751
 31
0.0
  0
LINE
  5
1AE1A
330
18
100
AcDbEntity
  8
01
  6
BYBLOCK
100
AcDbLine
 10
3170.441725399805
 20
-100.359879396751
 30
0.0
 11
3167.841725399805
 21
-100.359879396751
 31
0.0
  0
LINE
  5
1AE1B
330
18
100
AcDbEntity
  8
01
  6
BYBLOCK
100
AcDbLine
 10
3104.041725399805
 20
-101.056547290751
 30
0.0
 11
3101.441725399805
 21
-100.359879396751
 31
0.0
  0
LINE
  5
1AE1C
330
18
100
AcDbEntity
  8
01
  6
BYBLOCK
100
AcDbLine
 10
3101.441725399805
 20
-100.359879396751
 30
0.0
 11
3104.041725399805
 21
-99.66321150275101
 31
0.0
  0
LINE
  5
1AE1D
330
18
100
AcDbEntity
  8
01
  6
BYBLOCK
100
AcDbLine
 10
3101.441725399805
 20
-100.359879396751
 30
0.0
 11
3104.041725399805
 21
-100.359879396751
 31
0.0
  0
TEXT
  5
1AE1E
330
18
100
AcDbEntity
  8
01
  6
CONTINUOUS
100
AcDbText
 10
3132.133206881287
 20
-99.449879396751
 30
0.0
 40
4.55
  1
69
100
AcDbText
1001
ACAD
1000
DSTYLE
1002
{
1070
    40
1040
1.3
1070
    45
1040
0.5
1002
}
  0
LINE
  5
1AE1F
330
18
100
AcDbEntity
  8
01
  6
BYBLOCK
100
AcDbLine
 10
3104.041725399805
 20
-111.1364147587992
 30
0.0
 11
3101.441725399805
 21
-110.4397468647992
 31
0.0
  0
LINE
  5
1AE20
330
18
100
AcDbEntity
  8
01
  6
BYBLOCK
100
AcDbLine
 10
3101.441725399805
 20
-110.4397468647992
 30
0.0
 11
3104.041725399805
 21
-109.7430789707992
 31
0.0
  0
LINE
  5
1AE21
330
18
100
AcDbEntity
  8
01
  6
BYBLOCK
100
AcDbLine
 10
3101.441725399805
 20
-110.4397468647992
 30
0.0
 11
3104.041725399805
 21
-110.4397468647992
 31
0.0
  0
LINE
  5
1AE22
330
18
100
AcDbEntity
  8
01
  6
BYBLOCK
100
AcDbLine
 10
3149.841725399805
 20
-109.7430789707992
 30
0.0
 11
3152.441725399805
 21
-110.4397468647992
 31
0.0
  0
LINE
  5
1AE23
330
18
100
AcDbEntity
  8
01
  6
BYBLOCK
100
AcDbLine
 10
3152.441725399805
 20
-110.4397468647992
 30
0.0
 11
3149.841725399805
 21
-111.1364147587992
 31
0.0
  0
LINE
  5
1AE24
330
18
100
AcDbEntity
  8
01
  6
BYBLOCK
100
AcDbLine
 10
3152.441725399805
 20
-110.4397468647992
 30
0.0
 11
3149.841725399805
 21
-110.4397468647992
 31
0.0
  0
TEXT
  5
1AE25
330
18
100
AcDbEntity
  8
01
  6
CONTINUOUS
100
AcDbText
 10
3123.892593455361
 20
-109.5297468647992
 30
0.0
 40
4.55
  1
51
100
AcDbText
1001
ACAD
1000
DSTYLE
1002
{
1070
    40
1040
1.3
1070
    45
1040
0.5
1002
}
  0
LINE
  5
1AE26
330
18
100
AcDbEntity
  8
01
  6
BYBLOCK
100
AcDbLine
 10
2972.54184173955
 20
-111.1364147587994
 30
0.0
 11
2969.94184173955
 21
-110.4397468647994
 31
0.0
  0
LINE
  5
1AE27
330
18
100
AcDbEntity
  8
01
  6
BYBLOCK
100
AcDbLine
 10
2969.94184173955
 20
-110.4397468647994
 30
0.0
 11
2972.54184173955
 21
-109.7430789707994
 31
0.0
  0
LINE
  5
1AE28
330
18
100
AcDbEntity
  8
01
  6
BYBLOCK
100
AcDbLine
 10
2969.94184173955
 20
-110.4397468647994
 30
0.0
 11
2972.54184173955
 21
-110.4397468647994
 31
0.0
  0
LINE
  5
1AE29
330
18
100
AcDbEntity
  8
01
  6
BYBLOCK
100
AcDbLine
 10
2992.34184173955
 20
-109.7430789707994
 30
0.0
 11
2994.94184173955
 21
-110.4397468647994
 31
0.0
  0
LINE
  5
1AE2A
330
18
100
AcDbEntity
  8
01
  6
BYBLOCK
100
AcDbLine
 10
2994.94184173955
 20
-110.4397468647994
 30
0.0
 11
2992.34184173955
 21
-111.1364147587994
 31
0.0
  0
LINE
  5
1AE2B
330
18
100
AcDbEntity
  8
01
  6
BYBLOCK
100
AcDbLine
 10
2994.94184173955
 20
-110.4397468647994
 30
0.0
 11
2992.34184173955
 21
-110.4397468647994
 31
0.0
  0
TEXT
  5
1AE2C
330
18
100
AcDbEntity
  8
01
  6
CONTINUOUS
100
AcDbText
 10
2978.650175072883
 20
-109.5297468647994
 30
0.0
 40
4.55
  1
25
100
AcDbText
1001
ACAD
1000
DSTYLE
1002
{
1070
    40
1040
1.3
1070
    45
1040
0.5
1002
}
  0
LINE
  5
1AE2D
330
18
100
AcDbEntity
  8
01
  6
BYBLOCK
100
AcDbLine
 10
3066.777794680698
 20
-164.4657796043924
 30
0.0000000000563712
 11
3067.474462574698
 21
-161.8657796043924
 31
0.0000000000563712
  0
LINE
  5
1AE2E
330
18
100
AcDbEntity
  8
01
  6
BYBLOCK
100
AcDbLine
 10
3067.474462574698
 20
-161.8657796043924
 30
0.0000000000563712
 11
3068.171130468697
 21
-164.4657796043924
 31
0.0000000000563712
  0
LINE
  5
1AE2F
330
18
100
AcDbEntity
  8
01
  6
BYBLOCK
100
AcDbLine
 10
3067.474462574698
 20
-161.8657796043924
 30
0.0000000000563712
 11
3067.474462574698
 21
-164.4657796043924
 31
0.0000000000563712
  0
LINE
  5
1AE30
330
18
100
AcDbEntity
  8
01
  6
BYBLOCK
100
AcDbLine
 10
3068.171130468697
 20
-273.2657796043924
 30
0.0000000000563712
 11
3067.474462574698
 21
-275.8657796043924
 31
0.0000000000563712
  0
LINE
  5
1AE31
330
18
100
AcDbEntity
  8
01
  6
BYBLOCK
100
AcDbLine
 10
3067.474462574698
 20
-275.8657796043924
 30
0.0000000000563712
 11
3066.777794680698
 21
-273.2657796043924
 31
0.0000000000563712
  0
LINE
  5
1AE32
330
18
100
AcDbEntity
  8
01
  6
BYBLOCK
100
AcDbLine
 10
3067.474462574698
 20
-275.8657796043924
 30
0.0000000000563712
 11
3067.474462574698
 21
-273.2657796043924
 31
0.0000000000563712
  0
TEXT
  5
1AE33
330
18
100
AcDbEntity
  8
01
  6
CONTINUOUS
100
AcDbText
 10
3066.564462574698
 20
-194.2827572564711
 30
0.0000000000563712
 40
4.55
  1
114
 50
90.0
100
AcDbText
1001
ACAD
1000
DSTYLE
1002
{
1070
    40
1040
1.3
1070
    45
1040
0.5
1002
}
  0
LINE
  5
1AE34
330
18
100
AcDbEntity
  8
01
  6
BYBLOCK
100
AcDbLine
 10
3076.142128846922
 20
-156.5662247488088
 30
0.0000000000563712
 11
3076.838796740922
 21
-153.9662247488089
 31
0.0000000000563712
  0
LINE
  5
1AE35
330
18
100
AcDbEntity
  8
01
  6
BYBLOCK
100
AcDbLine
 10
3076.838796740922
 20
-153.9662247488089
 30
0.0000000000563712
 11
3077.535464634922
 21
-156.5662247488088
 31
0.0000000000563712
  0
LINE
  5
1AE36
330
18
100
AcDbEntity
  8
01
  6
BYBLOCK
100
AcDbLine
 10
3076.838796740922
 20
-153.9662247488089
 30
0.0000000000563712
 11
3076.838796740922
 21
-156.5662247488088
 31
0.0000000000563712
  0
LINE
  5
1AE37
330
18
100
AcDbEntity
  8
01
  6
BYBLOCK
100
AcDbLine
 10
3077.535464634922
 20
-281.1657796043922
 30
0.0000000000563712
 11
3076.838796740922
 21
-283.7657796043923
 31
0.0000000000563712
  0
LINE
  5
1AE38
330
18
100
AcDbEntity
  8
01
  6
BYBLOCK
100
AcDbLine
 10
3076.838796740922
 20
-283.7657796043923
 30
0.0000000000563712
 11
3076.142128846922
 21
-281.1657796043922
 31
0.0000000000563712
  0
LINE
  5
1AE39
330
18
100
AcDbEntity
  8
01
  6
BYBLOCK
100
AcDbLine
 10
3076.838796740922
 20
-283.7657796043923
 30
0.0000000000563712
 11
3076.838796740922
 21
-281.1657796043922
 31
0.0000000000563712
  0
TEXT
  5
1AE3A
330
18
100
AcDbEntity
  8
01
  6
CONTINUOUS
100
AcDbText
 10
3075.928796740922
 20
-195.0673212592783
 30
0.0000000000563712
 40
4.55
  1
130
 50
90.0
100
AcDbText
1001
ACAD
1000
DSTYLE
1002
{
1070
    40
1040
1.3
1070
    45
1040
0.5
1002
}
  0
LINE
  5
1AE3B
330
18
100
AcDbEntity
  8
1DIM
100
AcDbLine
 10
2938.538430571328
 20
-179.8605613390653
 30
0.0
 11
2938.538430571328
 21
-109.1390877082476
 31
0.0
1001
ACAD
1000
DSTYLE
1002
{
1070
    40
1040
1.3
1070
    45
1040
0.5
1070
    79
1070
     2
1070
   179
1070
     2
1070
   272
1070
     2
1070
   341
1005
0
1002
}
  0
LINE
  5
1AE3C
330
18
100
AcDbEntity
  8
1DIM
100
AcDbLine
 10
2962.441958079294
 20
-125.8605797929361
 30
0.0
 11
2962.441958079294
 21
-109.1390877082476
 31
0.0
1001
ACAD
1000
DSTYLE
1002
{
1070
    40
1040
1.3
1070
    45
1040
0.5
1070
    79
1070
     2
1070
   179
1070
     2
1070
   272
1070
     2
1070
   341
1005
0
1002
}
  0
LINE
  5
1AE3D
330
18
100
AcDbEntity
  8
1DIM
100
AcDbLine
 10
2941.138430571328
 20
-110.4390877082476
 30
0.0
 11
2959.841958079294
 21
-110.4390877082476
 31
0.0
1001
ACAD
1000
DSTYLE
1002
{
1070
    40
1040
1.3
1070
    45
1040
0.5
1070
    79
1070
     2
1070
   179
1070
     2
1070
   272
1070
     2
1070
   341
1005
0
1002
}
  0
LINE
  5
1AE41
330
18
100
AcDbEntity
  8
1DIM
100
AcDbLine
 10
3002.44184173955
 20
-125.8605797929361
 30
0.0
 11
3002.44184173955
 21
-109.1390877082476
 31
0.0
1001
ACAD
1000
DSTYLE
1002
{
1070
    40
1040
1.3
1070
    45
1040
0.5
1070
    79
1070
     2
1070
   179
1070
     2
1070
   272
1070
     2
1070
   341
1005
0
1002
}
  0
LINE
  5
1AE42
330
18
100
AcDbEntity
  8
1DIM
100
AcDbLine
 10
3012.739751438033
 20
-189.8482732306895
 30
0.0
 11
3012.739751438033
 21
-109.1390877082476
 31
0.0
1001
ACAD
1000
DSTYLE
1002
{
1070
    40
1040
1.3
1070
    45
1040
0.5
1070
    79
1070
     2
1070
   179
1070
     2
1070
   272
1070
     2
1070
   341
1005
0
1002
}
  0
LINE
  5
1AE43
330
18
100
AcDbEntity
  8
1DIM
100
AcDbLine
 10
3005.041841739549
 20
-110.4390877082476
 30
0.0
 11
3010.139751438033
 21
-110.4390877082476
 31
0.0
1001
ACAD
1000
DSTYLE
1002
{
1070
    40
1040
1.3
1070
    45
1040
0.5
1070
    79
1070
     2
1070
   179
1070
     2
1070
   272
1070
     2
1070
   341
1005
0
1002
}
  0
LINE
  5
1AE44
330
18
100
AcDbEntity
  8
1DIM
100
AcDbLine
 10
3012.739751438033
 20
-110.4390877082476
 30
0.0
 11
3030.3764181047
 21
-110.4390877082476
 31
0.0
1001
ACAD
1000
DSTYLE
1002
{
1070
    40
1040
1.3
1070
    45
1040
0.5
1070
    79
1070
     2
1070
   179
1070
     2
1070
   272
1070
     2
1070
   341
1005
0
1002
}
  0
LINE
  5
1AE48
330
18
100
AcDbEntity
  8
1DIM
100
AcDbLine
 10
2782.441845739549
 20
-239.8605797929367
 30
0.0
 11
2751.042651409007
 21
-239.8605797929367
 31
0.0
1001
ACAD
1000
DSTYLE
1002
{
1070
    40
1040
1.3
1002
}
  0
LINE
  5
1AE49
330
18
100
AcDbEntity
  8
1DIM
100
AcDbLine
 10
2799.441837739548
 20
-189.8605797929361
 30
0.0
 11
2751.042651409007
 21
-189.860579792936
 31
0.0
1001
ACAD
1000
DSTYLE
1002
{
1070
    40
1040
1.3
1002
}
  0
LINE
  5
1AE4A
330
18
100
AcDbEntity
  8
1DIM
100
AcDbLine
 10
2752.342651409007
 20
-237.2605797929367
 30
0.0
 11
2752.342651409007
 21
-192.460579792936
 31
0.0
1001
ACAD
1000
DSTYLE
1002
{
1070
    40
1040
1.3
1002
}
  0
LINE
  5
1AE4F
330
18
100
AcDbEntity
  8
1DIM
100
AcDbLine
 10
3150.062474669512
 20
-16.26530466615658
 30
0.0
 11
3122.594886492821
 21
-35.77123895051582
 31
0.0
1001
ACAD
1000
DSTYLE
1002
{
1070
    40
1040
1.3
1070
    45
1040
0.5
1002
}
  0
TEXT
  5
1AE50
330
18
100
AcDbEntity
  8
1DIM
  6
CONTINUOUS
100
AcDbText
 10
3216.819033792501
 20
-11.63687556410052
 30
0.0
 40
4.55
  1
材質：亜鉛ダイキャスト
100
AcDbText
  0
TEXT
  5
1AE51
330
18
100
AcDbEntity
  8
1DIM
  6
CONTINUOUS
100
AcDbText
 10
3216.970700459167
 20
-19.22020889743385
 30
0.0
 40
4.55
  1
仕上げ：各種メッキ
100
AcDbText
  0
LINE
  5
1AE53
330
18
100
AcDbEntity
  8
1DIM
100
AcDbLine
 10
3201.995647797442
 20
-33.74636590016096
 30
0.0
 11
3213.612367125834
 21
-20.13020889743385
 31
0.0
1001
ACAD
1000
DSTYLE
1002
{
1070
    40
1040
1.3
1070
    45
1040
0.5
1002
}
  0
LINE
  5
1AE54
330
18
100
AcDbEntity
  8
1DIM
100
AcDbLine
 10
3213.612367125834
 20
-20.13020889743385
 30
0.0
 11
3275.059033792501
 21
-20.13020889743385
 31
0.0
1001
ACAD
1000
DSTYLE
1002
{
1070
    40
1040
1.3
1070
    45
1040
0.5
1002
}
  0
LINE
  5
1AE55
330
18
100
AcDbEntity
  8
1DIM
100
AcDbLine
 10
3168.842609581865
 20
39.63876104948417
 30
0.0
 11
3189.403000341578
 21
39.63876104948417
 31
0.0
1001
ACAD
1000
DSTYLE
1002
{
1070
    45
1040
0.5
1070
    40
1040
1.3
1002
}
  0
LINE
  5
1AE56
330
18
100
AcDbEntity
  8
1DIM
100
AcDbLine
 10
3170.442609581865
 20
20.83876104948422
 30
0.0
 11
3189.403000341578
 21
20.83876104948422
 31
0.0
1001
ACAD
1000
DSTYLE
1002
{
1070
    45
1040
0.5
1070
    40
1040
1.3
1002
}
  0
LINE
  5
1AE57
330
18
100
AcDbEntity
  8
1DIM
100
AcDbLine
 10
3188.103000341578
 20
37.03876104948417
 30
0.0
 11
3188.103000341578
 21
23.43876104948422
 31
0.0
1001
ACAD
1000
DSTYLE
1002
{
1070
    45
1040
0.5
1070
    40
1040
1.3
1002
}
  0
LINE
  5
1AE5B
330
18
100
AcDbEntity
  8
1DIM
100
AcDbLine
 10
2782.44184573955
 20
-239.8612389494876
 30
0.0
 11
2751.042651409007
 21
-239.8612389494876
 31
0.0
1001
ACAD
1000
DSTYLE
1002
{
1070
    40
1040
1.3
1002
}
  0
LINE
  5
1AE5C
330
18
100
AcDbEntity
  8
1DIM
100
AcDbLine
 10
2787.94184573955
 20
-303.8612389494876
 30
0.0
 11
2751.042651409007
 21
-303.8612389494876
 31
0.0
1001
ACAD
1000
DSTYLE
1002
{
1070
    40
1040
1.3
1002
}
  0
LINE
  5
1AE5D
330
18
100
AcDbEntity
  8
1DIM
100
AcDbLine
 10
2752.342651409007
 20
-242.4612389494876
 30
0.0
 11
2752.342651409007
 21
-301.2612389494876
 31
0.0
1001
ACAD
1000
DSTYLE
1002
{
1070
    40
1040
1.3
1002
}
  0
LINE
  5
1AE61
330
18
100
AcDbEntity
  8
1DIM
100
AcDbLine
 10
3152.441725399805
 20
-11.36123895051492
 30
0.0
 11
3152.441725399805
 21
-76.16123895051491
 31
0.0
1001
ACAD
1000
DSTYLE
1002
{
1070
    40
1040
1.3
1070
    45
1040
0.5
1002
}
  0
LINE
  5
1AE62
330
18
100
AcDbEntity
  8
1DIM
100
AcDbLine
 10
3280.457060290566
 20
-45.80968186667565
 30
0.0
 11
3280.457060290566
 21
-76.16123895051491
 31
0.0
1001
ACAD
1000
DSTYLE
1002
{
1070
    40
1040
1.3
1070
    45
1040
0.5
1002
}
  0
LINE
  5
1AE63
330
18
100
AcDbEntity
  8
1DIM
100
AcDbLine
 10
3155.041725399805
 20
-74.86123895051492
 30
0.0
 11
3277.857060290566
 21
-74.86123895051492
 31
0.0
1001
ACAD
1000
DSTYLE
1002
{
1070
    40
1040
1.3
1070
    45
1040
0.5
1002
}
  0
LINE
  5
1AE67
330
18
100
AcDbEntity
  8
1DIM
100
AcDbLine
 10
3137.441705602366
 20
-52.86223762168152
 30
0.0
 11
3137.441705602366
 21
-86.16123895051491
 31
0.0
1001
ACAD
1000
DSTYLE
1002
{
1070
    40
1040
1.3
1070
    45
1040
0.5
1002
}
  0
LINE
  5
1AE68
330
18
100
AcDbEntity
  8
1DIM
100
AcDbLine
 10
3280.457060290566
 20
-45.80968186667565
 30
0.0
 11
3280.457060290566
 21
-86.16123895051491
 31
0.0
1001
ACAD
1000
DSTYLE
1002
{
1070
    40
1040
1.3
1070
    45
1040
0.5
1002
}
  0
LINE
  5
1AE69
330
18
100
AcDbEntity
  8
1DIM
100
AcDbLine
 10
3140.041705602366
 20
-84.86123895051492
 30
0.0
 11
3277.857060290566
 21
-84.86123895051492
 31
0.0
1001
ACAD
1000
DSTYLE
1002
{
1070
    40
1040
1.3
1070
    45
1040
0.5
1002
}
  0
LINE
  5
1AE6D
330
18
100
AcDbEntity
  8
1DIM
100
AcDbLine
 10
3180.036594578311
 20
-248.3443400959047
 30
0.0
 11
3308.741725399806
 21
-248.3443400959048
 31
0.0
1001
ACAD
1000
DSTYLE
1002
{
1070
    40
1040
1.3
1070
    45
1040
0.5
1002
}
  0
LINE
  5
1AE6E
330
18
100
AcDbEntity
  8
1DIM
100
AcDbLine
 10
3177.441725399805
 20
-231.3345082381998
 30
0.0
 11
3308.741725399806
 21
-231.3345082381998
 31
0.0
1001
ACAD
1000
DSTYLE
1002
{
1070
    40
1040
1.3
1070
    45
1040
0.5
1002
}
  0
LINE
  5
1AE6F
330
18
100
AcDbEntity
  8
1DIM
100
AcDbLine
 10
3307.441725399805
 20
-245.7443400959048
 30
0.0
 11
3307.441725399805
 21
-233.9345082381998
 31
0.0
1001
ACAD
1000
DSTYLE
1002
{
1070
    40
1040
1.3
1070
    45
1040
0.5
1002
}
  0
LINE
  5
1AE73
330
18
100
AcDbEntity
  8
1DIM
100
AcDbLine
 10
3176.941725399805
 20
-303.8599206363845
 30
0.0
 11
3318.741725399806
 21
-303.8599206363845
 31
0.0
1001
ACAD
1000
DSTYLE
1002
{
1070
    40
1040
1.3
1070
    45
1040
0.5
1070
   341
1005
0
1002
}
  0
LINE
  5
1AE74
330
18
100
AcDbEntity
  8
1DIM
100
AcDbLine
 10
3176.941725399805
 20
-125.8599206363845
 30
0.0
 11
3318.741725399806
 21
-125.8599206363845
 31
0.0
1001
ACAD
1000
DSTYLE
1002
{
1070
    40
1040
1.3
1070
    45
1040
0.5
1070
   341
1005
0
1002
}
  0
LINE
  5
1AE75
330
18
100
AcDbEntity
  8
1DIM
100
AcDbLine
 10
3317.441725399805
 20
-301.2599206363845
 30
0.0
 11
3317.441725399805
 21
-128.4599206363845
 31
0.0
1001
ACAD
1000
DSTYLE
1002
{
1070
    40
1040
1.3
1070
    45
1040
0.5
1070
   341
1005
0
1002
}
  0
LINE
  5
1AE79
330
18
100
AcDbEntity
  8
1DIM
100
AcDbLine
 10
3127.441725399805
 20
-126.3599206363845
 30
0.0
 11
3127.441725399805
 21
-119.1599206363848
 31
0.0
1001
ACAD
1000
DSTYLE
1002
{
1070
    40
1040
1.3
1070
    45
1040
0.5
1070
   341
1005
0
1002
}
  0
LINE
  5
1AE7A
330
18
100
AcDbEntity
  8
1DIM
100
AcDbLine
 10
3177.441725399805
 20
-126.3599206363845
 30
0.0
 11
3177.441725399805
 21
-119.1599206363848
 31
0.0
1001
ACAD
1000
DSTYLE
1002
{
1070
    40
1040
1.3
1070
    45
1040
0.5
1070
   341
1005
0
1002
}
  0
LINE
  5
1AE7B
330
18
100
AcDbEntity
  8
1DIM
100
AcDbLine
 10
3130.041725399805
 20
-120.4599206363848
 30
0.0
 11
3174.841725399805
 21
-120.4599206363848
 31
0.0
1001
ACAD
1000
DSTYLE
1002
{
1070
    40
1040
1.3
1070
    45
1040
0.5
1070
   341
1005
0
1002
}
  0
LINE
  5
1AE7F
330
18
100
AcDbEntity
  8
1DIM
100
AcDbLine
 10
3180.941741903854
 20
-29.86098499323975
 30
0.0
 11
3308.741841739552
 21
-29.86098499323979
 31
0.0
1001
ACAD
1000
DSTYLE
1002
{
1070
    40
1040
1.3
1070
    45
1040
0.5
1002
}
  0
LINE
  5
1AE80
330
18
100
AcDbEntity
  8
1DIM
100
AcDbLine
 10
3255.196989736898
 20
10.13876104948417
 30
0.0
 11
3308.741841739552
 21
10.13876104948416
 31
0.0
1001
ACAD
1000
DSTYLE
1002
{
1070
    40
1040
1.3
1070
    45
1040
0.5
1002
}
  0
LINE
  5
1AE81
330
18
100
AcDbEntity
  8
1DIM
100
AcDbLine
 10
3307.441841739552
 20
-27.26098499323979
 30
0.0
 11
3307.441841739552
 21
7.538761049484159
 31
0.0
1001
ACAD
1000
DSTYLE
1002
{
1070
    40
1040
1.3
1070
    45
1040
0.5
1002
}
  0
LINE
  5
1AE85
330
18
100
AcDbEntity
  8
1DIM
100
AcDbLine
 10
3180.943240316378
 20
-56.86064763516902
 30
0.0
 11
3318.741841739552
 21
-56.86064763516906
 31
0.0
1001
ACAD
1000
DSTYLE
1002
{
1070
    40
1040
1.3
1070
    45
1040
0.5
1002
}
  0
LINE
  5
1AE86
330
18
100
AcDbEntity
  8
1DIM
100
AcDbLine
 10
3255.196989736898
 20
10.13876104948417
 30
0.0
 11
3318.741841739552
 21
10.13876104948416
 31
0.0
1001
ACAD
1000
DSTYLE
1002
{
1070
    40
1040
1.3
1070
    45
1040
0.5
1002
}
  0
LINE
  5
1AE87
330
18
100
AcDbEntity
  8
1DIM
100
AcDbLine
 10
3317.441841739552
 20
-54.26064763516906
 30
0.0
 11
3317.441841739552
 21
7.538761049484157
 31
0.0
1001
ACAD
1000
DSTYLE
1002
{
1070
    40
1040
1.3
1070
    45
1040
0.5
1002
}
  0
LINE
  5
1AE8B
330
18
100
AcDbEntity
  8
0
  6
BYBLOCK
100
AcDbLine
 10
2941.138430571328
 20
-111.1357556022476
 30
0.0
 11
2938.538430571328
 21
-110.4390877082476
 31
0.0
  0
LINE
  5
1AE8C
330
18
100
AcDbEntity
  8
0
  6
BYBLOCK
100
AcDbLine
 10
2938.538430571328
 20
-110.4390877082476
 30
0.0
 11
2941.138430571328
 21
-109.7424198142476
 31
0.0
  0
LINE
  5
1AE8D
330
18
100
AcDbEntity
  8
0
  6
BYBLOCK
100
AcDbLine
 10
2938.538430571328
 20
-110.4390877082476
 30
0.0
 11
2941.138430571328
 21
-110.4390877082476
 31
0.0
  0
LINE
  5
1AE8E
330
18
100
AcDbEntity
  8
0
  6
BYBLOCK
100
AcDbLine
 10
2959.841958079294
 20
-109.7424198142476
 30
0.0
 11
2962.441958079294
 21
-110.4390877082476
 31
0.0
  0
LINE
  5
1AE8F
330
18
100
AcDbEntity
  8
0
  6
BYBLOCK
100
AcDbLine
 10
2962.441958079294
 20
-110.4390877082476
 30
0.0
 11
2959.841958079294
 21
-111.1357556022476
 31
0.0
  0
LINE
  5
1AE90
330
18
100
AcDbEntity
  8
0
  6
BYBLOCK
100
AcDbLine
 10
2962.441958079294
 20
-110.4390877082476
 30
0.0
 11
2959.841958079294
 21
-110.4390877082476
 31
0.0
  0
TEXT
  5
1AE91
330
18
100
AcDbEntity
  8
1DIM
  6
CONTINUOUS
100
AcDbText
 10
2946.698527658645
 20
-109.5290877082476
 30
0.0
 40
4.55
  1
24
100
AcDbText
1001
ACAD
1000
DSTYLE
1002
{
1070
    40
1040
1.3
1070
    45
1040
0.5
1070
    79
1070
     2
1070
   179
1070
     2
1070
   272
1070
     2
1070
   341
1005
0
1002
}
  0
LINE
  5
1AE92
330
18
100
AcDbEntity
  8
0
  6
BYBLOCK
100
AcDbLine
 10
3005.041841739549
 20
-111.1357556022476
 30
0.0
 11
3002.44184173955
 21
-110.4390877082476
 31
0.0
  0
LINE
  5
1AE93
330
18
100
AcDbEntity
  8
0
  6
BYBLOCK
100
AcDbLine
 10
3002.44184173955
 20
-110.4390877082476
 30
0.0
 11
3005.041841739549
 21
-109.7424198142476
 31
0.0
  0
LINE
  5
1AE94
330
18
100
AcDbEntity
  8
0
  6
BYBLOCK
100
AcDbLine
 10
3002.44184173955
 20
-110.4390877082476
 30
0.0
 11
3005.041841739549
 21
-110.4390877082476
 31
0.0
  0
LINE
  5
1AE95
330
18
100
AcDbEntity
  8
0
  6
BYBLOCK
100
AcDbLine
 10
3010.139751438033
 20
-109.7424198142476
 30
0.0
 11
3012.739751438033
 21
-110.4390877082476
 31
0.0
  0
LINE
  5
1AE96
330
18
100
AcDbEntity
  8
0
  6
BYBLOCK
100
AcDbLine
 10
3012.739751438033
 20
-110.4390877082476
 30
0.0
 11
3010.139751438033
 21
-111.1357556022476
 31
0.0
  0
LINE
  5
1AE97
330
18
100
AcDbEntity
  8
0
  6
BYBLOCK
100
AcDbLine
 10
3012.739751438033
 20
-110.4390877082476
 30
0.0
 11
3010.139751438033
 21
-110.4390877082476
 31
0.0
  0
TEXT
  5
1AE98
330
18
100
AcDbEntity
  8
1DIM
  6
CONTINUOUS
100
AcDbText
 10
3017.170584771367
 20
-109.5290877082476
 30
0.0
 40
4.55
  1
10.5
100
AcDbText
1001
ACAD
1000
DSTYLE
1002
{
1070
    40
1040
1.3
1070
    45
1040
0.5
1070
    79
1070
     2
1070
   179
1070
     2
1070
   272
1070
     2
1070
   341
1005
0
1002
}
  0
LINE
  5
1AE99
330
18
100
AcDbEntity
  8
0
  6
BYBLOCK
100
AcDbLine
 10
2753.039319303007
 20
-237.2605797929367
 30
0.0
 11
2752.342651409007
 21
-239.8605797929367
 31
0.0
  0
LINE
  5
1AE9A
330
18
100
AcDbEntity
  8
0
  6
BYBLOCK
100
AcDbLine
 10
2752.342651409007
 20
-239.8605797929367
 30
0.0
 11
2751.645983515007
 21
-237.2605797929367
 31
0.0
  0
LINE
  5
1AE9B
330
18
100
AcDbEntity
  8
0
  6
BYBLOCK
100
AcDbLine
 10
2752.342651409007
 20
-239.8605797929367
 30
0.0
 11
2752.342651409007
 21
-237.2605797929367
 31
0.0
  0
LINE
  5
1AE9C
330
18
100
AcDbEntity
  8
0
  6
BYBLOCK
100
AcDbLine
 10
2751.645983515007
 20
-192.460579792936
 30
0.0
 11
2752.342651409007
 21
-189.8605797929361
 31
0.0
  0
LINE
  5
1AE9D
330
18
100
AcDbEntity
  8
0
  6
BYBLOCK
100
AcDbLine
 10
2752.342651409007
 20
-189.8605797929361
 30
0.0
 11
2753.039319303007
 21
-192.460579792936
 31
0.0
  0
LINE
  5
1AE9E
330
18
100
AcDbEntity
  8
0
  6
BYBLOCK
100
AcDbLine
 10
2752.342651409007
 20
-189.8605797929361
 30
0.0
 11
2752.342651409007
 21
-192.460579792936
 31
0.0
  0
TEXT
  5
1AE9F
330
18
100
AcDbEntity
  8
1DIM
  6
CONTINUOUS
100
AcDbText
 10
2751.432651409007
 20
-218.3836700707134
 30
0.0
 40
4.55
  1
50
 50
90.0
100
AcDbText
1001
ACAD
1000
DSTYLE
1002
{
1070
    40
1040
1.3
1002
}
  0
LINE
  5
1AEA0
330
18
100
AcDbEntity
  8
0
  6
BYBLOCK
100
AcDbLine
 10
3149.659104095603
 20
-15.69729204778039
 30
0.0
 11
3152.182326639866
 21
-14.7599051763907
 31
0.0
  0
LINE
  5
1AEA1
330
18
100
AcDbEntity
  8
0
  6
BYBLOCK
100
AcDbLine
 10
3152.182326639866
 20
-14.7599051763907
 30
0.0
 11
3150.465845243421
 21
-16.83331728453276
 31
0.0
  0
LINE
  5
1AEA2
330
18
100
AcDbEntity
  8
0
  6
BYBLOCK
100
AcDbLine
 10
3152.182326639866
 20
-14.7599051763907
 30
0.0
 11
3150.062474669512
 21
-16.26530466615658
 31
0.0
  0
LINE
  5
1AEA3
330
18
100
AcDbEntity
  8
0
  6
BYBLOCK
100
AcDbLine
 10
3202.525639910269
 20
-34.1985323682579
 30
0.0
 11
3200.308139549714
 21
-35.72432341078934
 31
0.0
  0
LINE
  5
1AEA4
330
18
100
AcDbEntity
  8
0
  6
BYBLOCK
100
AcDbLine
 10
3200.308139549714
 20
-35.72432341078934
 30
0.0
 11
3201.465655684614
 21
-33.29419943206402
 31
0.0
  0
LINE
  5
1AEA5
330
18
100
AcDbEntity
  8
0
  6
BYBLOCK
100
AcDbLine
 10
3200.308139549714
 20
-35.72432341078934
 30
0.0
 11
3201.995647797442
 21
-33.74636590016096
 31
0.0
  0
LINE
  5
1AEA6
330
18
100
AcDbEntity
  8
0
  6
BYBLOCK
100
AcDbLine
 10
3187.406332447578
 20
37.03876104948417
 30
0.0
 11
3188.103000341578
 21
39.63876104948417
 31
0.0
  0
LINE
  5
1AEA7
330
18
100
AcDbEntity
  8
0
  6
BYBLOCK
100
AcDbLine
 10
3188.103000341578
 20
39.63876104948417
 30
0.0
 11
3188.799668235577
 21
37.03876104948417
 31
0.0
  0
LINE
  5
1AEA8
330
18
100
AcDbEntity
  8
0
  6
BYBLOCK
100
AcDbLine
 10
3188.103000341578
 20
39.63876104948417
 30
0.0
 11
3188.103000341578
 21
37.03876104948417
 31
0.0
  0
LINE
  5
1AEA9
330
18
100
AcDbEntity
  8
0
  6
BYBLOCK
100
AcDbLine
 10
3188.799668235577
 20
23.43876104948422
 30
0.0
 11
3188.103000341578
 21
20.83876104948422
 31
0.0
  0
LINE
  5
1AEAA
330
18
100
AcDbEntity
  8
0
  6
BYBLOCK
100
AcDbLine
 10
3188.103000341578
 20
20.83876104948422
 30
0.0
 11
3187.406332447578
 21
23.43876104948422
 31
0.0
  0
LINE
  5
1AEAB
330
18
100
AcDbEntity
  8
0
  6
BYBLOCK
100
AcDbLine
 10
3188.103000341578
 20
20.83876104948422
 30
0.0
 11
3188.103000341578
 21
23.43876104948422
 31
0.0
  0
TEXT
  5
1AEAC
330
18
100
AcDbEntity
  8
1DIM
  6
CONTINUOUS
100
AcDbText
 10
3187.193000341578
 20
27.20437447541008
 30
0.0
 40
4.55
  1
19
 50
90.0
100
AcDbText
1001
ACAD
1000
DSTYLE
1002
{
1070
    45
1040
0.5
1070
    40
1040
1.3
1002
}
  0
LINE
  5
1AEAD
330
18
100
AcDbEntity
  8
0
  6
BYBLOCK
100
AcDbLine
 10
2751.645983515008
 20
-242.4612389494876
 30
0.0
 11
2752.342651409007
 21
-239.8612389494876
 31
0.0
  0
LINE
  5
1AEAE
330
18
100
AcDbEntity
  8
0
  6
BYBLOCK
100
AcDbLine
 10
2752.342651409007
 20
-239.8612389494876
 30
0.0
 11
2753.039319303007
 21
-242.4612389494876
 31
0.0
  0
LINE
  5
1AEAF
330
18
100
AcDbEntity
  8
0
  6
BYBLOCK
100
AcDbLine
 10
2752.342651409007
 20
-239.8612389494876
 30
0.0
 11
2752.342651409007
 21
-242.4612389494876
 31
0.0
  0
LINE
  5
1AEB0
330
18
100
AcDbEntity
  8
0
  6
BYBLOCK
100
AcDbLine
 10
2753.039319303007
 20
-301.2612389494876
 30
0.0
 11
2752.342651409007
 21
-303.8612389494876
 31
0.0
  0
LINE
  5
1AEB1
330
18
100
AcDbEntity
  8
0
  6
BYBLOCK
100
AcDbLine
 10
2752.342651409007
 20
-303.8612389494876
 30
0.0
 11
2751.645983515008
 21
-301.2612389494876
 31
0.0
  0
LINE
  5
1AEB2
330
18
100
AcDbEntity
  8
0
  6
BYBLOCK
100
AcDbLine
 10
2752.342651409007
 20
-303.8612389494876
 30
0.0
 11
2752.342651409007
 21
-301.2612389494876
 31
0.0
  0
TEXT
  5
1AEB3
330
18
100
AcDbEntity
  8
1DIM
  6
CONTINUOUS
100
AcDbText
 10
2751.432651409008
 20
-275.6687042272652
 30
0.0
 40
4.55
  1
64
 50
90.0
100
AcDbText
1001
ACAD
1000
DSTYLE
1002
{
1070
    40
1040
1.3
1002
}
  0
LINE
  5
1AEB4
330
18
100
AcDbEntity
  8
0
  6
BYBLOCK
100
AcDbLine
 10
3155.041725399805
 20
-75.55790684451492
 30
0.0
 11
3152.441725399805
 21
-74.86123895051492
 31
0.0
  0
LINE
  5
1AEB5
330
18
100
AcDbEntity
  8
0
  6
BYBLOCK
100
AcDbLine
 10
3152.441725399805
 20
-74.86123895051492
 30
0.0
 11
3155.041725399805
 21
-74.16457105651492
 31
0.0
  0
LINE
  5
1AEB6
330
18
100
AcDbEntity
  8
0
  6
BYBLOCK
100
AcDbLine
 10
3152.441725399805
 20
-74.86123895051492
 30
0.0
 11
3155.041725399805
 21
-74.86123895051492
 31
0.0
  0
LINE
  5
1AEB7
330
18
100
AcDbEntity
  8
0
  6
BYBLOCK
100
AcDbLine
 10
3277.857060290566
 20
-74.16457105651492
 30
0.0
 11
3280.457060290566
 21
-74.86123895051492
 31
0.0
  0
LINE
  5
1AEB8
330
18
100
AcDbEntity
  8
0
  6
BYBLOCK
100
AcDbLine
 10
3280.457060290566
 20
-74.86123895051492
 30
0.0
 11
3277.857060290566
 21
-75.55790684451492
 31
0.0
  0
LINE
  5
1AEB9
330
18
100
AcDbEntity
  8
0
  6
BYBLOCK
100
AcDbLine
 10
3280.457060290566
 20
-74.86123895051492
 30
0.0
 11
3277.857060290566
 21
-74.86123895051492
 31
0.0
  0
TEXT
  5
1AEBA
330
18
100
AcDbEntity
  8
1DIM
  6
CONTINUOUS
100
AcDbText
 10
3211.141059511852
 20
-73.9512389505149
 30
0.0
 40
4.55
  1
128
100
AcDbText
1001
ACAD
1000
DSTYLE
1002
{
1070
    40
1040
1.3
1070
    45
1040
0.5
1002
}
  0
LINE
  5
1AEBB
330
18
100
AcDbEntity
  8
0
  6
BYBLOCK
100
AcDbLine
 10
3140.041705602366
 20
-85.55790684451492
 30
0.0
 11
3137.441705602366
 21
-84.86123895051492
 31
0.0
  0
LINE
  5
1AEBC
330
18
100
AcDbEntity
  8
0
  6
BYBLOCK
100
AcDbLine
 10
3137.441705602366
 20
-84.86123895051492
 30
0.0
 11
3140.041705602366
 21
-84.16457105651492
 31
0.0
  0
LINE
  5
1AEBD
330
18
100
AcDbEntity
  8
0
  6
BYBLOCK
100
AcDbLine
 10
3137.441705602366
 20
-84.86123895051492
 30
0.0
 11
3140.041705602366
 21
-84.86123895051492
 31
0.0
  0
LINE
  5
1AEBE
330
18
100
AcDbEntity
  8
0
  6
BYBLOCK
100
AcDbLine
 10
3277.857060290566
 20
-84.16457105651492
 30
0.0
 11
3280.457060290566
 21
-84.86123895051492
 31
0.0
  0
LINE
  5
1AEBF
330
18
100
AcDbEntity
  8
0
  6
BYBLOCK
100
AcDbLine
 10
3280.457060290566
 20
-84.86123895051492
 30
0.0
 11
3277.857060290566
 21
-85.55790684451492
 31
0.0
  0
LINE
  5
1AEC0
330
18
100
AcDbEntity
  8
0
  6
BYBLOCK
100
AcDbLine
 10
3280.457060290566
 20
-84.86123895051492
 30
0.0
 11
3277.857060290566
 21
-84.86123895051492
 31
0.0
  0
TEXT
  5
1AEC1
330
18
100
AcDbEntity
  8
1DIM
  6
CONTINUOUS
100
AcDbText
 10
3203.641049613133
 20
-83.9512389505149
 30
0.0
 40
4.55
  1
143
100
AcDbText
1001
ACAD
1000
DSTYLE
1002
{
1070
    40
1040
1.3
1070
    45
1040
0.5
1002
}
  0
LINE
  5
1AEC2
330
18
100
AcDbEntity
  8
0
  6
BYBLOCK
100
AcDbLine
 10
3308.138393293805
 20
-245.7443400959048
 30
0.0
 11
3307.441725399805
 21
-248.3443400959048
 31
0.0
  0
LINE
  5
1AEC3
330
18
100
AcDbEntity
  8
0
  6
BYBLOCK
100
AcDbLine
 10
3307.441725399805
 20
-248.3443400959048
 30
0.0
 11
3306.745057505806
 21
-245.7443400959048
 31
0.0
  0
LINE
  5
1AEC4
330
18
100
AcDbEntity
  8
0
  6
BYBLOCK
100
AcDbLine
 10
3307.441725399805
 20
-248.3443400959048
 30
0.0
 11
3307.441725399805
 21
-245.7443400959048
 31
0.0
  0
LINE
  5
1AEC5
330
18
100
AcDbEntity
  8
0
  6
BYBLOCK
100
AcDbLine
 10
3306.745057505806
 20
-233.9345082381998
 30
0.0
 11
3307.441725399805
 21
-231.3345082381998
 31
0.0
  0
LINE
  5
1AEC6
330
18
100
AcDbEntity
  8
0
  6
BYBLOCK
100
AcDbLine
 10
3307.441725399805
 20
-231.3345082381998
 30
0.0
 11
3308.138393293805
 21
-233.9345082381998
 31
0.0
  0
LINE
  5
1AEC7
330
18
100
AcDbEntity
  8
0
  6
BYBLOCK
100
AcDbLine
 10
3307.441725399805
 20
-231.3345082381998
 30
0.0
 11
3307.441725399805
 21
-233.9345082381998
 31
0.0
  0
TEXT
  5
1AEC8
330
18
100
AcDbEntity
  8
1DIM
  6
CONTINUOUS
100
AcDbText
 10
3306.531725399805
 20
-242.872757500385
 30
0.0
 40
4.55
  1
17
 50
90.0
100
AcDbText
1001
ACAD
1000
DSTYLE
1002
{
1070
    40
1040
1.3
1070
    45
1040
0.5
1002
}
  0
LINE
  5
1AEC9
330
18
100
AcDbEntity
  8
0
  6
BYBLOCK
100
AcDbLine
 10
3318.138393293805
 20
-301.2599206363845
 30
0.0
 11
3317.441725399805
 21
-303.8599206363845
 31
0.0
  0
LINE
  5
1AECA
330
18
100
AcDbEntity
  8
0
  6
BYBLOCK
100
AcDbLine
 10
3317.441725399805
 20
-303.8599206363845
 30
0.0
 11
3316.745057505806
 21
-301.2599206363845
 31
0.0
  0
LINE
  5
1AECB
330
18
100
AcDbEntity
  8
0
  6
BYBLOCK
100
AcDbLine
 10
3317.441725399805
 20
-303.8599206363845
 30
0.0
 11
3317.441725399805
 21
-301.2599206363845
 31
0.0
  0
LINE
  5
1AECC
330
18
100
AcDbEntity
  8
0
  6
BYBLOCK
100
AcDbLine
 10
3316.745057505806
 20
-128.4599206363845
 30
0.0
 11
3317.441725399805
 21
-125.8599206363845
 31
0.0
  0
LINE
  5
1AECD
330
18
100
AcDbEntity
  8
0
  6
BYBLOCK
100
AcDbLine
 10
3317.441725399805
 20
-125.8599206363845
 30
0.0
 11
3318.138393293805
 21
-128.4599206363845
 31
0.0
  0
LINE
  5
1AECE
330
18
100
AcDbEntity
  8
0
  6
BYBLOCK
100
AcDbLine
 10
3317.441725399805
 20
-125.8599206363845
 30
0.0
 11
3317.441725399805
 21
-128.4599206363845
 31
0.0
  0
TEXT
  5
1AECF
330
18
100
AcDbEntity
  8
1DIM
  6
CONTINUOUS
100
AcDbText
 10
3316.531725399806
 20
-220.1682539697172
 30
0.0
 40
4.55
  1
178
 50
90.0
100
AcDbText
1001
ACAD
1000
DSTYLE
1002
{
1070
    40
1040
1.3
1070
    45
1040
0.5
1070
   341
1005
0
1002
}
  0
LINE
  5
1AED0
330
18
100
AcDbEntity
  8
0
  6
BYBLOCK
100
AcDbLine
 10
3130.041725399805
 20
-121.1565885303848
 30
0.0
 11
3127.441725399805
 21
-120.4599206363848
 31
0.0
  0
LINE
  5
1AED1
330
18
100
AcDbEntity
  8
0
  6
BYBLOCK
100
AcDbLine
 10
3127.441725399805
 20
-120.4599206363848
 30
0.0
 11
3130.041725399805
 21
-119.7632527423848
 31
0.0
  0
LINE
  5
1AED2
330
18
100
AcDbEntity
  8
0
  6
BYBLOCK
100
AcDbLine
 10
3127.441725399805
 20
-120.4599206363848
 30
0.0
 11
3130.041725399805
 21
-120.4599206363848
 31
0.0
  0
LINE
  5
1AED3
330
18
100
AcDbEntity
  8
0
  6
BYBLOCK
100
AcDbLine
 10
3174.841725399805
 20
-119.7632527423848
 30
0.0
 11
3177.441725399805
 21
-120.4599206363848
 31
0.0
  0
LINE
  5
1AED4
330
18
100
AcDbEntity
  8
0
  6
BYBLOCK
100
AcDbLine
 10
3177.441725399805
 20
-120.4599206363848
 30
0.0
 11
3174.841725399805
 21
-121.1565885303848
 31
0.0
  0
LINE
  5
1AED5
330
18
100
AcDbEntity
  8
0
  6
BYBLOCK
100
AcDbLine
 10
3177.441725399805
 20
-120.4599206363848
 30
0.0
 11
3174.841725399805
 21
-120.4599206363848
 31
0.0
  0
TEXT
  5
1AED6
330
18
100
AcDbEntity
  8
1DIM
  6
CONTINUOUS
100
AcDbText
 10
3148.918635122028
 20
-119.5499206363848
 30
0.0
 40
4.55
  1
50
100
AcDbText
1001
ACAD
1000
DSTYLE
1002
{
1070
    40
1040
1.3
1070
    45
1040
0.5
1070
   341
1005
0
1002
}
  0
LINE
  5
1AED7
330
18
100
AcDbEntity
  8
0
  6
BYBLOCK
100
AcDbLine
 10
3308.138509633552
 20
-27.26098499323979
 30
0.0
 11
3307.441841739552
 21
-29.86098499323979
 31
0.0
  0
LINE
  5
1AED8
330
18
100
AcDbEntity
  8
0
  6
BYBLOCK
100
AcDbLine
 10
3307.441841739552
 20
-29.86098499323979
 30
0.0
 11
3306.745173845552
 21
-27.26098499323979
 31
0.0
  0
LINE
  5
1AED9
330
18
100
AcDbEntity
  8
0
  6
BYBLOCK
100
AcDbLine
 10
3307.441841739552
 20
-29.86098499323979
 30
0.0
 11
3307.441841739552
 21
-27.26098499323979
 31
0.0
  0
LINE
  5
1AEDA
330
18
100
AcDbEntity
  8
0
  6
BYBLOCK
100
AcDbLine
 10
3306.745173845552
 20
7.53876104948416
 30
0.0
 11
3307.441841739552
 21
10.13876104948416
 31
0.0
  0
LINE
  5
1AEDB
330
18
100
AcDbEntity
  8
0
  6
BYBLOCK
100
AcDbLine
 10
3307.441841739552
 20
10.13876104948416
 30
0.0
 11
3308.138509633552
 21
7.53876104948416
 31
0.0
  0
LINE
  5
1AEDC
330
18
100
AcDbEntity
  8
0
  6
BYBLOCK
100
AcDbLine
 10
3307.441841739552
 20
10.13876104948416
 30
0.0
 11
3307.441841739552
 21
7.53876104948416
 31
0.0
  0
TEXT
  5
1AEDD
330
18
100
AcDbEntity
  8
1DIM
  6
CONTINUOUS
100
AcDbText
 10
3306.531841739552
 20
-13.3684036385439
 30
0.0
 40
4.55
  1
40
 50
90.0
100
AcDbText
1001
ACAD
1000
DSTYLE
1002
{
1070
    40
1040
1.3
1070
    45
1040
0.5
1002
}
  0
LINE
  5
1AEDE
330
18
100
AcDbEntity
  8
0
  6
BYBLOCK
100
AcDbLine
 10
3318.138509633552
 20
-54.26064763516906
 30
0.0
 11
3317.441841739552
 21
-56.86064763516906
 31
0.0
  0
LINE
  5
1AEDF
330
18
100
AcDbEntity
  8
0
  6
BYBLOCK
100
AcDbLine
 10
3317.441841739552
 20
-56.86064763516906
 30
0.0
 11
3316.745173845552
 21
-54.26064763516906
 31
0.0
  0
LINE
  5
1AEE0
330
18
100
AcDbEntity
  8
0
  6
BYBLOCK
100
AcDbLine
 10
3317.441841739552
 20
-56.86064763516906
 30
0.0
 11
3317.441841739552
 21
-54.26064763516906
 31
0.0
  0
LINE
  5
1AEE1
330
18
100
AcDbEntity
  8
0
  6
BYBLOCK
100
AcDbLine
 10
3316.745173845552
 20
7.538761049484156
 30
0.0
 11
3317.441841739552
 21
10.13876104948416
 31
0.0
  0
LINE
  5
1AEE2
330
18
100
AcDbEntity
  8
0
  6
BYBLOCK
100
AcDbLine
 10
3317.441841739552
 20
10.13876104948416
 30
0.0
 11
3318.138509633552
 21
7.538761049484156
 31
0.0
  0
LINE
  5
1AEE3
330
18
100
AcDbEntity
  8
0
  6
BYBLOCK
100
AcDbLine
 10
3317.441841739552
 20
10.13876104948416
 30
0.0
 11
3317.441841739552
 21
7.538761049484156
 31
0.0
  0
TEXT
  5
1AEE4
330
18
100
AcDbEntity
  8
1DIM
  6
CONTINUOUS
100
AcDbText
 10
3316.531841739552
 20
-27.1684085706197
 30
0.0
 40
4.55
  1
67
 50
90.0
100
AcDbText
1001
ACAD
1000
DSTYLE
1002
{
1070
    40
1040
1.3
1070
    45
1040
0.5
1002
}
  0
VIEWPORT
  5
57
330
15
100
AcDbEntity
 67
     1
  8
0
100
AcDbViewport
 68
     1
 10
0.0
 20
0.0
 30
0.0
 40
663.4332925336597
 41
297.0
 68
     1
 69
     1
1001
ACAD
1000
MVIEW
1002
{
1070
    16
1010
0.0
1020
0.0
1030
0.0
1010
0.0
1020
0.0
1030
1.0
1040
0.0
1040
297.0
1040
5.728000000000009
1040
25.339
1040
50.0
1040
0.0
1040
0.0
1070
    16
1070
  1000
1070
     0
1070
     1
1070
     0
1070
     0
1070
     0
1070
     0
1040
0.0
1040
0.0
1040
0.0
1040
10.0
1040
10.0
1040
10.0
1040
10.0
1070
     0
1002
{
1002
}
1002
}
  0
ENDSEC
  0
SECTION
  2
OBJECTS
  0
DICTIONARY
  5
C
330
0
100
AcDbDictionary
  3
ACAD_COLOR
350
18D
  3
ACAD_GROUP
350
D
  3
ACAD_LAYOUT
350
18E
  3
ACAD_MATERIAL
350
18C
  3
ACAD_MLEADERSTYLE
350
D9E7
  3
ACAD_MLINESTYLE
350
1B
  3
ACAD_PLOTSETTINGS
350
18F
  3
ACAD_SCALELIST
350
D9C5
  3
ACAD_VISUALSTYLE
350
D9B4
  3
ACDBHEADERROUNDTRIPXREC
350
1AEE5
  3
ACDBVARIABLEDICTIONARY
350
37
  3
AEC_PROPERTY_SET_DEFS
350
1AA2F
  3
CONTENTDICTIONARY
350
D8
  3
DRAWINGVARIABLESDICT
350
20
  3
DWGPROPS
350
1AEE8
1001
ACAD
1000
TREAT_AS_HARD
1070
     0
  0
DICTIONARY
  5
E6A6
330
2
100
AcDbDictionary
  3
ACAD_LAYERSTATES
360
E6A7
1001
ACAD
1000
TREAT_AS_HARD
1070
     1
  0
DICTIONARY
  5
DA05
330
E
100
AcDbDictionary
  3
ADSK_XREC_LAYER_RECONCILED
360
DA06
1001
ACAD
1000
TREAT_AS_HARD
1070
     1
  0
DICTIONARY
  5
DA07
330
29
100
AcDbDictionary
  3
ADSK_XREC_LAYER_RECONCILED
360
DA08
1001
ACAD
1000
TREAT_AS_HARD
1070
     1
  0
DICTIONARY
  5
DA09
330
31
100
AcDbDictionary
  3
ADSK_XREC_LAYER_RECONCILED
360
DA0A
1001
ACAD
1000
TREAT_AS_HARD
1070
     1
  0
DICTIONARY
  5
DA0F
330
243
100
AcDbDictionary
  3
ADSK_XREC_LAYER_RECONCILED
360
DA10
1001
ACAD
1000
TREAT_AS_HARD
1070
     1
  0
DICTIONARY
  5
DA15
330
24E
100
AcDbDictionary
  3
ADSK_XREC_LAYER_RECONCILED
360
DA16
1001
ACAD
1000
TREAT_AS_HARD
1070
     1
  0
DICTIONARY
  5
DA23
330
2C05
100
AcDbDictionary
  3
ADSK_XREC_LAYER_RECONCILED
360
DA24
1001
ACAD
1000
TREAT_AS_HARD
1070
     1
  0
DICTIONARY
  5
88F
330
18
100
AcDbDictionary
  3
ACAD_SORTENTS
360
890
1001
ACAD
1000
TREAT_AS_HARD
1070
     1
  0
DICTIONARY
  5
18D
102
{ACAD_REACTORS
330
C
102
}
330
C
100
AcDbDictionary
1001
ACAD
1000
TREAT_AS_HARD
1070
     0
  0
DICTIONARY
  5
D
102
{ACAD_REACTORS
330
C
102
}
330
C
100
AcDbDictionary
1001
ACAD
1000
TREAT_AS_HARD
1070
     0
  0
DICTIONARY
  5
18E
102
{ACAD_REACTORS
330
C
102
}
330
C
100
AcDbDictionary
1001
ACAD
1000
TREAT_AS_HARD
1070
     0
  0
DICTIONARY
  5
18C
102
{ACAD_REACTORS
330
C
102
}
330
C
100
AcDbDictionary
  3
BYBLOCK
350
D9A4
  3
BYLAYER
350
D99C
  3
GLOBAL
350
D9AC
1001
ACAD
1000
TREAT_AS_HARD
1070
     0
  0
DICTIONARY
  5
D9E7
102
{ACAD_REACTORS
330
C
102
}
330
C
100
AcDbDictionary
  3
STANDARD
350
D9E8
1001
ACAD
1000
TREAT_AS_HARD
1070
     0
  0
DICTIONARY
  5
1B
102
{ACAD_REACTORS
330
C
102
}
330
C
100
AcDbDictionary
  3
STANDARD
350
1C
1001
ACAD
1000
TREAT_AS_HARD
1070
     0
  0
DICTIONARY
  5
18F
102
{ACAD_REACTORS
330
C
102
}
330
C
100
AcDbDictionary
1001
ACAD
1000
TREAT_AS_HARD
1070
     0
  0
DICTIONARY
  5
D9C5
102
{ACAD_REACTORS
330
C
102
}
330
C
100
AcDbDictionary
  3
A0
350
D9C6
  3
A1
350
D9C7
  3
A2
350
D9C8
  3
A3
350
D9C9
  3
A4
350
D9CA
  3
A5
350
D9CB
  3
A6
350
D9CC
  3
A7
350
D9CD
  3
A8
350
D9CE
  3
A9
350
D9CF
  3
B0
350
D9D0
  3
B1
350
D9D1
  3
B2
350
D9D2
  3
B3
350
D9D3
  3
B4
350
D9D4
  3
B5
350
D9D5
  3
B6
350
D9D6
  3
B7
350
D9D7
  3
B8
350
D9D8
  3
B9
350
D9D9
  3
C0
350
D9DA
  3
C1
350
D9DB
  3
C2
350
D9DC
  3
C3
350
D9DD
  3
C4
350
D9DE
  3
C5
350
D9DF
  3
C6
350
D9E0
  3
C7
350
D9E1
  3
C8
350
D9E2
  3
C9
350
D9E3
  3
D0
350
D9E4
  3
D1
350
D9E5
  3
D2
350
D9E6
1001
ACAD
1000
TREAT_AS_HARD
1070
     0
  0
DICTIONARY
  5
D9B4
102
{ACAD_REACTORS
330
C
102
}
330
C
100
AcDbDictionary
  3
2DWIREFRAME
350
D9BA
  3
3D_HIDDEN
350
D9BC
  3
3DWIREFRAME
350
D9BB
  3
BASIC
350
D9B9
  3
BRIGHTEN
350
D9C0
  3
COLORCHANGE
350
D9C4
  3
CONCEPTUAL
350
D9BD
  3
DIM
350
D9BF
  3
EDGECOLOROFF
350
19C2F
  3
FACEPATTERN
350
D9C3
  3
FLAT
350
D9B5
  3
FLATWITHEDGES
350
D9B6
  3
GOURAUD
350
D9B7
  3
GOURAUDWITHEDGES
350
D9B8
  3
HIDDEN
350
19C7E
  3
JITTEROFF
350
19C2D
  3
LINEPATTERN
350
D9C2
  3
MODELING
350
19C84
  3
OVERHANGOFF
350
19C2E
  3
REALISTIC
350
D9BE
  3
SHADED
350
19C83
  3
SHADED_WITH_EDGES
350
19C82
  3
SHADES_OF_GRAY
350
19C7F
  3
SKETCHY
350
19C80
  3
THICKEN
350
D9C1
  3
WIREFRAME
350
19C7D
  3
X-RAY
350
19C81
1001
ACAD
1000
TREAT_AS_HARD
1070
     0
  0
DICTIONARY
  5
1AEE5
102
{ACAD_REACTORS
330
C
102
}
330
C
100
AcDbDictionary
  3
COLORDICT
350
1AEE6
  3
MATERIALDICT
350
1AEE7
1001
ACAD
1000
TREAT_AS_HARD
1070
     0
  0
DICTIONARY
  5
37
102
{ACAD_REACTORS
330
C
102
}
330
C
100
AcDbDictionary
  3
CANNOSCALE
350
1AD7C
  3
CMLEADERSTYLE
350
DA6A
  3
CTABLESTYLE
350
29E
  3
DIMADEC
350
38
  3
DIMASSOC
350
1CE
  3
HIDETEXT
350
704E
  3
INDEXCTL
350
DA6D
  3
INTERSECTIONCOLOR
350
7052
  3
INTERSECTIONDISPLAY
350
7051
  3
LAYEREVAL
350
1A7A6
  3
LAYERNOTIFY
350
1A7A7
  3
MSLTSCALE
350
1A516
  3
OBSCOLOR
350
704F
  3
OBSLTYPE
350
7050
  3
PROJECTNAME
350
1CF
  3
SORTENTS
350
DA6C
  3
XCLIPFRAME
350
1AD59
1001
ACAD
1000
TREAT_AS_HARD
1070
     0
  0
DICTIONARY
  5
1AA2F
102
{ACAD_REACTORS
330
C
102
}
330
C
100
AcDbDictionary
1001
ACAD
1000
TREAT_AS_HARD
1070
     0
  0
DICTIONARY
  5
D8
102
{ACAD_REACTORS
330
C
102
}
330
C
100
AcDbDictionary
1001
ACAD
1000
TREAT_AS_HARD
1070
     0
  0
DICTIONARY
  5
20
102
{ACAD_REACTORS
330
C
102
}
330
C
100
AcDbDictionary
1001
DRAWINGVARIABLESXDATA
1000
POLARANG
1000
0.261799387799149410000000
1000
POLARMODE
1000
1
1000
POLARSTYLE
1000
1
1001
ACAD
1000
TREAT_AS_HARD
1070
     0
  0
XRECORD
  5
1AEE8
102
{ACAD_REACTORS
330
C
102
}
330
C
100
AcDbXrecord
  1
DWGPROPS COOKIE
  2

  3

  4

  6

  7

  8
3684
  9

300
=
301
=
302
=
303
=
304
=
305
=
306
=
307
=
308
=
309
=
 40
0.0
 41
2451318.246352917
 42
2458152.25236603
  1

 90
        0
  0
DICTIONARY
  5
E6A7
102
{ACAD_REACTORS
330
E6A6
102
}
330
E6A6
100
AcDbDictionary
1001
ACAD
1000
TREAT_AS_HARD
1070
     0
  0
ACAD_PROXY_OBJECT
  5
DA06
102
{ACAD_REACTORS
330
DA05
102
}
330
DA05
100
AcDbZombieObject
 90
      499
 91
      516
 93
       34
310
40C8804040
  0
ACAD_PROXY_OBJECT
  5
DA08
102
{ACAD_REACTORS
330
DA07
102
}
330
DA07
100
AcDbZombieObject
 90
      499
 91
      516
 93
       34
310
40C8804040
  0
ACAD_PROXY_OBJECT
  5
DA0A
102
{ACAD_REACTORS
330
DA09
102
}
330
DA09
100
AcDbZombieObject
 90
      499
 91
      516
 93
       34
310
40C8804040
  0
ACAD_PROXY_OBJECT
  5
DA10
102
{ACAD_REACTORS
330
DA0F
102
}
330
DA0F
100
AcDbZombieObject
 90
      499
 91
      516
 93
       34
310
40C8804040
  0
ACAD_PROXY_OBJECT
  5
DA16
102
{ACAD_REACTORS
330
DA15
102
}
330
DA15
100
AcDbZombieObject
 90
      499
 91
      516
 93
       34
310
40C8804040
  0
ACAD_PROXY_OBJECT
  5
DA24
102
{ACAD_REACTORS
330
DA23
102
}
330
DA23
100
AcDbZombieObject
 90
      499
 91
      516
 93
       34
310
40C8804040
  0
SORTENTSTABLE
  5
890
102
{ACAD_REACTORS
330
88F
102
}
330
88F
100
AcDbSortentsTable
330
18
331
0
  5
5BFF
331
1AA4F
  5
1AA73
331
1AA50
  5
1AA74
331
1AA51
  5
1AA75
331
1AA52
  5
1AA76
331
1AA53
  5
1AA77
331
1AA54
  5
1AA78
331
1AA55
  5
1AA79
331
1AA56
  5
1AA7A
331
1AA57
  5
1AA7B
331
1AA58
  5
1AA7C
331
1AA59
  5
1AA8C
331
1AA5A
  5
1AA8D
331
1AA5B
  5
1AA8E
331
1AA5C
  5
1AA8F
331
1AA5D
  5
1AA90
331
1AA5E
  5
1AA91
331
1AA5F
  5
1AA92
331
1AA60
  5
1AA93
331
1AA61
  5
1AA94
331
1AA62
  5
1AA95
331
1AA63
  5
1AA96
331
1AA66
  5
1AAAD
331
1AA67
  5
1AAAE
331
1AA68
  5
1AAAF
331
1AA69
  5
1AAB0
331
0
  5
1AA80
331
1AA6C
  5
1AAB7
331
0
  5
1AA82
331
0
  5
1AA86
331
1AA72
  5
1AADE
331
1AA73
  5
1AADF
331
1AA74
  5
1AAE0
331
1AA75
  5
1AAE1
331
1AA76
  5
1AAE2
331
1AA77
  5
1AAE3
331
1AA78
  5
1AAE4
331
1AA79
  5
1AAE5
331
1AA7A
  5
1AAE6
331
1AA7B
  5
1AAE7
331
1AA7C
  5
1AAE8
331
1AA7D
  5
1AAE9
331
1AA7E
  5
1AAEA
331
1AA7F
  5
1AAEB
331
1AA80
  5
1AAEC
331
1AA81
  5
1AAED
331
1AA82
  5
1AAEE
331
1AA83
  5
1AAF0
331
1AA84
  5
1AAF1
331
1AA85
  5
1AAF2
331
1AA86
  5
1AAF3
331
1AA87
  5
1AAF4
331
1AA88
  5
1AAF5
331
1AA89
  5
1AAF6
331
1AA8A
  5
1AAF7
331
1AA8B
  5
1AAF8
331
1AA8C
  5
1AAF9
331
1AA8D
  5
1AAFA
331
1AA8E
  5
1AAFE
331
1AA8F
  5
1AAFF
331
1AA90
  5
1AB00
331
1AA91
  5
1AB01
331
1AA92
  5
1AB02
331
1AA93
  5
1AB03
331
1AA94
  5
1AB04
331
1AA95
  5
1AB05
331
1AA96
  5
1AB06
331
1AA97
  5
1AB07
331
1AA98
  5
1AB08
331
1AA99
  5
1AB09
331
1AA9A
  5
1AB0A
331
1AA9B
  5
1AB0B
331
1AA9C
  5
1AB0C
331
1AA9D
  5
1AB0D
331
1AA9E
  5
1AB0E
331
1AA9F
  5
1AB0F
331
1AAA0
  5
1AB15
331
1AAA1
  5
1AB16
331
1AAA2
  5
1AB17
331
1AAA3
  5
1AB18
331
1AAA4
  5
1AB19
331
1AAA5
  5
1AB1A
331
1AAA6
  5
1AB1B
331
1AAA7
  5
1AB1C
331
1AAA8
  5
1AB1D
331
1AAA9
  5
1AB1E
331
1AAAA
  5
1AB1F
331
1AAAB
  5
1AB20
331
1AAAC
  5
1AB21
331
1AAAD
  5
1AB22
331
1AAAE
  5
1AB23
331
1AAAF
  5
1AB24
331
1AAB0
  5
1AB25
331
1AAB1
  5
1AB26
331
1AAB2
  5
1AB27
331
1AAB3
  5
1AB28
331
1AAB4
  5
1AB29
331
1AAB5
  5
1AB2A
331
1AAB6
  5
1AB2B
331
1AAB7
  5
1AB2C
331
0
  5
1AAEF
331
1AAB9
  5
1AB37
331
1AABA
  5
1AB3B
331
1AABB
  5
1AB3C
331
1AABC
  5
1AB3D
331
1AABD
  5
1AB41
331
1AABE
  5
1AB42
331
1AABF
  5
1AB43
331
1AAC0
  5
1AB44
331
1AAC1
  5
1AB45
331
1AAC2
  5
1AB46
331
1AAC3
  5
1AB47
331
1AAC4
  5
1AB48
331
1AAC5
  5
1AB49
331
1AAC6
  5
1AB4A
331
1AAC7
  5
1AB4B
331
1AAC8
  5
1AB4C
331
1AAC9
  5
1AB4D
331
1AACA
  5
1AB4E
331
1AACB
  5
1AB4F
331
1AACC
  5
1AB50
331
1AACD
  5
1AB51
331
1AACE
  5
1AB52
331
1AACF
  5
1AB53
331
1AAD0
  5
1AB54
331
1AAD1
  5
1AB55
331
1AAD2
  5
1AB56
331
1AAD3
  5
1AB57
331
1AAD4
  5
1AB58
331
1AAD5
  5
1AB59
331
1AAD6
  5
1AB5A
331
1AAD7
  5
1AB5B
331
1AAD8
  5
1AB5C
331
1AAD9
  5
1AB5D
331
1AADA
  5
1AB5E
331
1AADB
  5
1AB5F
331
1AADC
  5
1AB60
331
1AADE
  5
1AB6B
331
1AADF
  5
1AB6C
331
1AAE0
  5
1AB6D
331
1AAE1
  5
1AB6E
331
1AAE2
  5
1AB6F
331
1AAE3
  5
1AB70
331
1AAE4
  5
1AB71
331
1AAE5
  5
1AB72
331
1AAE6
  5
1AB74
331
1AAE7
  5
1AB75
331
1AAE8
  5
1AB76
331
1AAE9
  5
1AB77
331
1AAEA
  5
1AB78
331
1AAEB
  5
1AB79
331
1AAEC
  5
1AB7A
331
1AAED
  5
1AB7B
331
1AAEE
  5
1AB7C
331
1AAEF
  5
1AB7D
331
1AAF0
  5
1AB7E
331
1AAF1
  5
1AB7F
331
1AAF2
  5
1AB80
331
1AAF3
  5
1AB81
331
1AAF4
  5
1AB82
331
1AAF5
  5
1AB83
331
1AAF6
  5
1AB84
331
1AAF7
  5
1AB85
331
1AAF8
  5
1AB86
331
1AAF9
  5
1AB8A
331
1AAFA
  5
1AB8B
331
1AAFB
  5
1AB8C
331
1AAFC
  5
1AB8D
331
1AAFD
  5
1AB8E
331
1AAFE
  5
1AB8F
331
1AAFF
  5
1AB90
331
1AB00
  5
1AB91
331
1AB01
  5
1AB92
331
1AB02
  5
1AB93
331
1AB03
  5
1AB94
331
1AB04
  5
1AB95
331
1AB05
  5
1AB96
331
1AB06
  5
1AB97
331
1AB07
  5
1AB98
331
1AB08
  5
1AB99
331
1AB09
  5
1AB9F
331
1AB0A
  5
1ABA0
331
1AB0B
  5
1ABA1
331
1AB0C
  5
1ABA2
331
1AB0D
  5
1ABA3
331
1AB0E
  5
1ABA4
331
1AB0F
  5
1ABA5
331
1AB10
  5
1ABA6
331
1AB11
  5
1ABA9
331
1AB12
  5
1ABAA
331
1AB15
  5
1ADF7
331
0
  5
1AB73
331
1AB17
  5
1AE02
331
1AB18
  5
1AE03
331
1AB19
  5
1AE04
331
1AB1A
  5
1AE05
331
1AB1B
  5
1AE06
331
1AB1C
  5
1AE07
331
1AB1D
  5
1AE08
331
1AB1E
  5
1AE09
331
1AB1F
  5
1AE0A
331
1AB20
  5
1AE0E
331
1AB21
  5
1AE0F
331
1AB22
  5
1AE10
331
1AB23
  5
1AE14
331
1AB24
  5
1AE15
331
1AB25
  5
1AE16
331
1AB26
  5
1AE17
331
1AB27
  5
1AE18
331
1AB28
  5
1AE19
331
1AB29
  5
1AE1A
331
0
  5
1AB87
331
0
  5
1AB88
331
0
  5
1AB89
331
1AB2D
  5
1AE3F
331
1AB2E
  5
1AE40
331
1AB2F
  5
1AE41
331
1AB30
  5
1AE42
331
1AB31
  5
1AE43
331
1AB32
  5
1AE44
331
1AB33
  5
1AE45
331
1AB34
  5
1AE46
331
1AB35
  5
1AE47
331
1AB36
  5
1AE48
331
1AB37
  5
1AE49
331
1AB38
  5
1AE4A
331
1AB39
  5
1AE4B
331
1AB3A
  5
1AE4C
331
1AB3B
  5
1AE4D
331
1AB3C
  5
1AE4E
331
1AB3D
  5
1AE4F
331
1AB3E
  5
1AE50
331
1AB3F
  5
1AE51
331
0
  5
1AB9D
331
0
  5
1AB9E
331
1AB42
  5
1AE66
331
1AB43
  5
1AE67
331
1AB44
  5
1AE68
331
1AB45
  5
1AE69
331
1AB46
  5
1AE6A
331
1AB47
  5
1AE6B
331
1AB48
  5
1AE6C
331
1AB49
  5
1AE6D
331
0
  5
1ABA7
331
0
  5
1ABA8
331
1AB4C
  5
1AE82
331
1AB4D
  5
1AE83
331
1AB4E
  5
1AE84
331
1AB4F
  5
1AE85
331
1AB50
  5
1AE86
331
1AB51
  5
1AE87
331
1AB52
  5
1AE88
331
1AB53
  5
1AE89
331
1AB54
  5
1AE8A
331
1AB55
  5
1AE8B
331
1AB56
  5
1AE8C
331
1AB57
  5
1AE8D
331
1AB58
  5
1AE8E
331
1AB59
  5
1AE8F
331
1AB5A
  5
1AE90
331
1AB5B
  5
1AE91
331
1AB5C
  5
1AE92
331
1AB5D
  5
1AE93
331
1AB5E
  5
1AE94
331
1AB5F
  5
1AE95
331
1AB60
  5
1AE96
331
1AB61
  5
1AE97
331
1AB62
  5
1AE98
331
1AB63
  5
1AE99
331
1AB64
  5
1AE9A
331
1AB65
  5
1AE9B
331
1AB66
  5
1AE9C
331
1AB67
  5
1AE9D
331
1AB68
  5
1AE9E
331
1AB69
  5
1AE9F
331
1AB6A
  5
1AEA0
331
1AB6B
  5
1AEA1
331
1AB6C
  5
1AEA2
331
1AB6D
  5
1AEA3
331
1AB6E
  5
1AEA4
331
1AB6F
  5
1AEA5
331
1AB70
  5
1AEA6
331
1AB71
  5
1AEA7
331
1AB72
  5
1AEA8
331
1AB73
  5
1AEA9
331
1AB74
  5
1AEAA
331
1AB75
  5
1AEAB
331
1AB76
  5
1AEAC
331
1AB77
  5
1AEAD
331
1AB78
  5
1AEAE
331
1AB79
  5
1AEAF
331
1AB7A
  5
1AEB0
331
1AB7B
  5
1AEB1
331
1AB7C
  5
1AEB2
331
1AB7D
  5
1AEB3
331
1AB7E
  5
1AEB4
331
1AB7F
  5
1AEB5
331
1AB80
  5
1AEB6
331
1AB81
  5
1AEB7
331
1AB82
  5
1AEB8
331
1AB83
  5
1AEB9
331
1AB84
  5
1AEBA
331
1AB85
  5
1AEBB
331
1AB86
  5
1AEBC
331
1AB87
  5
1AEBD
331
1AB88
  5
1AEBE
331
1AB89
  5
1AEBF
331
1AB8A
  5
1AEC0
331
1AB8B
  5
1AEC1
331
1AB8C
  5
1AEC2
331
1AB8D
  5
1AEC3
331
1AB8E
  5
1AEC4
331
1AB8F
  5
1AEC5
331
1AB90
  5
1AEC6
331
1AB91
  5
1AEC7
331
1AB92
  5
1AEC8
331
1AB93
  5
1AEC9
331
1AB94
  5
1AECA
331
1AB95
  5
1AECB
331
1AB96
  5
1AECC
331
1AB97
  5
1AECD
331
1AB98
  5
1AECE
331
1AB99
  5
1AECF
331
1AB9A
  5
1AED0
331
1AB9B
  5
1AED1
331
1AB9C
  5
1AED2
331
1AB9D
  5
1AED3
331
1AB9E
  5
1AED4
331
1AB9F
  5
1AED5
331
1ABA0
  5
1AED6
331
1ABA1
  5
1AED7
331
1ABA2
  5
1AED8
331
1ABA3
  5
1AED9
331
1ABA4
  5
1AEDA
331
1ABA5
  5
1AEDB
331
1ABA6
  5
1AEDC
331
1ABA7
  5
1AEDD
331
1ABA8
  5
1AEDE
331
1ABA9
  5
1AEDF
331
1ABAA
  5
1AEE0
331
1ABAB
  5
1AEE1
331
1ABAC
  5
1AEE2
331
1ABAD
  5
1AEE3
331
1ABAE
  5
1AEE4
331
1ADDE
  5
1AAA3
331
1ADDF
  5
1AAA4
331
1ADE0
  5
1AAA5
331
0
  5
1AA69
331
0
  5
1AA6B
331
0
  5
1AA6C
331
1ADE4
  5
1AAB1
331
1ADE5
  5
1AAB2
331
1ADE6
  5
1AABF
331
1ADE7
  5
1AAC0
331
1ADE8
  5
1AAC1
331
0
  5
1AA7D
331
0
  5
1AA7E
331
0
  5
1AA7F
331
1ADEC
  5
1AAC9
331
1ADED
  5
1AACA
331
1ADEE
  5
1AACB
331
0
  5
1AA83
331
0
  5
1AA84
331
0
  5
1AA85
331
1ADF2
  5
1AAD3
331
1ADF3
  5
1AAD4
331
1ADF4
  5
1AAD5
331
0
  5
1AA89
331
0
  5
1AA8A
331
0
  5
1AA8B
331
1ADF8
  5
1AB61
331
1ADF9
  5
1AB62
331
1ADFA
  5
1AB63
331
0
  5
1AAFB
331
0
  5
1AAFC
331
0
  5
1AAFD
331
1ADFE
  5
1ABAB
331
1ADFF
  5
1ABAC
331
1AE00
  5
1ABAD
331
0
  5
1AB38
331
0
  5
1AB39
331
0
  5
1AB3A
331
1AE04
  5
1ADE4
331
1AE05
  5
1ADE5
331
1AE06
  5
1ADE9
331
0
  5
1AB3E
331
0
  5
1AB3F
331
0
  5
1AB40
331
1AE0A
  5
1AAA6
331
1AE0B
  5
1AAA7
331
1AE0C
  5
1AAA8
331
1AE0D
  5
1AAA9
331
1AE0E
  5
1AAAA
331
1AE0F
  5
1AAAB
331
1AE10
  5
1AAAC
331
1AE11
  5
1AAC2
331
1AE12
  5
1AAC3
331
1AE13
  5
1AAC4
331
1AE14
  5
1AAC5
331
1AE15
  5
1AAC6
331
1AE16
  5
1AAC7
331
1AE17
  5
1AAC8
331
1AE18
  5
1AACC
331
1AE19
  5
1AACD
331
1AE1A
  5
1AACE
331
1AE1B
  5
1AACF
331
1AE1C
  5
1AAD0
331
1AE1D
  5
1AAD1
331
1AE1E
  5
1AAD2
331
1AE1F
  5
1AAD6
331
1AE20
  5
1AAD7
331
1AE21
  5
1AAD8
331
1AE22
  5
1AAD9
331
1AE23
  5
1AADA
331
1AE24
  5
1AADB
331
1AE25
  5
1AADC
331
1AE26
  5
1AB64
331
1AE27
  5
1AB65
331
1AE28
  5
1AB66
331
1AE29
  5
1AB67
331
1AE2A
  5
1AB68
331
1AE2B
  5
1AB69
331
1AE2C
  5
1AB6A
331
1AE2D
  5
1ABAE
331
1AE2E
  5
1ADDE
331
1AE2F
  5
1ADDF
331
1AE30
  5
1ADE0
331
1AE31
  5
1ADE1
331
1AE32
  5
1ADE2
331
1AE33
  5
1ADE3
331
1AE34
  5
1ADEA
331
1AE35
  5
1ADEB
331
1AE36
  5
1ADEF
331
1AE37
  5
1ADF0
331
1AE38
  5
1ADF1
331
1AE39
  5
1ADF5
331
1AE3A
  5
1ADF6
331
1AE3B
  5
1AA4F
331
1AE3C
  5
1AA50
331
1AE3D
  5
1AA51
331
0
  5
1AA52
331
0
  5
1AA53
331
0
  5
1AA54
331
1AE41
  5
1AA5F
331
1AE42
  5
1AA60
331
1AE43
  5
1AA61
331
1AE44
  5
1AA62
331
0
  5
1AA59
331
0
  5
1AA5A
331
0
  5
1AA5B
331
1AE48
  5
1AA97
331
1AE49
  5
1AA98
331
1AE4A
  5
1AA99
331
0
  5
1AA81
331
0
  5
1AA87
331
0
  5
1AA88
331
0
  5
1AA9C
331
1AE4F
  5
1AAB6
331
1AE50
  5
1AAB8
331
1AE51
  5
1AAB9
331
0
  5
1AAA1
331
1AE53
  5
1AABD
331
1AE54
  5
1AABE
331
1AE55
  5
1AB2D
331
1AE56
  5
1AB2E
331
1AE57
  5
1AB2F
331
0
  5
1AB10
331
0
  5
1AB11
331
0
  5
1AB12
331
1AE5B
  5
1ADF8
331
1AE5C
  5
1ADF9
331
1AE5D
  5
1ADFA
331
0
  5
1AB9A
331
0
  5
1AB9B
331
0
  5
1AB9C
331
1AE61
  5
1AE1B
331
1AE62
  5
1AE1C
331
1AE63
  5
1AE1D
331
0
  5
1ADE6
331
0
  5
1ADE7
331
0
  5
1ADE8
331
1AE67
  5
1AE2B
331
1AE68
  5
1AE2C
331
1AE69
  5
1AE2D
331
0
  5
1ADEC
331
0
  5
1ADED
331
0
  5
1ADEE
331
1AE6D
  5
1AE35
331
1AE6E
  5
1AE36
331
1AE6F
  5
1AE37
331
0
  5
1ADF2
331
0
  5
1ADF3
331
0
  5
1ADF4
331
1AE73
  5
1AE52
331
1AE74
  5
1AE53
331
1AE75
  5
1AE54
331
0
  5
1AE0B
331
0
  5
1AE0C
331
0
  5
1AE0D
331
1AE79
  5
1AE5C
331
1AE7A
  5
1AE5D
331
1AE7B
  5
1AE5E
331
0
  5
1AE11
331
0
  5
1AE12
331
0
  5
1AE13
331
1AE7F
  5
1AE6E
331
1AE80
  5
1AE6F
331
1AE81
  5
1AE70
331
0
  5
1AE1F
331
0
  5
1AE20
331
0
  5
1AE21
331
1AE85
  5
1AE78
331
1AE86
  5
1AE79
331
1AE87
  5
1AE7A
331
0
  5
1AE25
331
0
  5
1AE26
331
0
  5
1AE27
331
1AE8B
  5
1AA55
331
1AE8C
  5
1AA56
331
1AE8D
  5
1AA57
331
1AE8E
  5
1AA58
331
1AE8F
  5
1AA5C
331
1AE90
  5
1AA5D
331
1AE91
  5
1AA5E
331
1AE92
  5
1AA63
331
1AE93
  5
1AA66
331
1AE94
  5
1AA67
331
1AE95
  5
1AA68
331
1AE96
  5
1AA6D
331
1AE97
  5
1AA6E
331
1AE98
  5
1AA72
331
1AE99
  5
1AA9A
331
1AE9A
  5
1AA9B
331
1AE9B
  5
1AA9D
331
1AE9C
  5
1AA9E
331
1AE9D
  5
1AA9F
331
1AE9E
  5
1AAA0
331
1AE9F
  5
1AAA2
331
1AEA0
  5
1AAB3
331
1AEA1
  5
1AAB4
331
1AEA2
  5
1AAB5
331
1AEA3
  5
1AABA
331
1AEA4
  5
1AABB
331
1AEA5
  5
1AABC
331
1AEA6
  5
1AB30
331
1AEA7
  5
1AB31
331
1AEA8
  5
1AB32
331
1AEA9
  5
1AB33
331
1AEAA
  5
1AB34
331
1AEAB
  5
1AB35
331
1AEAC
  5
1AB36
331
1AEAD
  5
1ADFB
331
1AEAE
  5
1ADFC
331
1AEAF
  5
1ADFD
331
1AEB0
  5
1ADFE
331
1AEB1
  5
1ADFF
331
1AEB2
  5
1AE00
331
1AEB3
  5
1AE01
331
1AEB4
  5
1AE1E
331
1AEB5
  5
1AE22
331
1AEB6
  5
1AE23
331
1AEB7
  5
1AE24
331
1AEB8
  5
1AE28
331
1AEB9
  5
1AE29
331
1AEBA
  5
1AE2A
331
1AEBB
  5
1AE2E
331
1AEBC
  5
1AE2F
331
1AEBD
  5
1AE30
331
1AEBE
  5
1AE31
331
1AEBF
  5
1AE32
331
1AEC0
  5
1AE33
331
1AEC1
  5
1AE34
331
1AEC2
  5
1AE38
331
1AEC3
  5
1AE39
331
1AEC4
  5
1AE3A
331
1AEC5
  5
1AE3B
331
1AEC6
  5
1AE3C
331
1AEC7
  5
1AE3D
331
1AEC8
  5
1AE3E
331
1AEC9
  5
1AE55
331
1AECA
  5
1AE56
331
1AECB
  5
1AE57
331
1AECC
  5
1AE58
331
1AECD
  5
1AE59
331
1AECE
  5
1AE5A
331
1AECF
  5
1AE5B
331
1AED0
  5
1AE5F
331
1AED1
  5
1AE60
331
1AED2
  5
1AE61
331
1AED3
  5
1AE62
331
1AED4
  5
1AE63
331
1AED5
  5
1AE64
331
1AED6
  5
1AE65
331
1AED7
  5
1AE71
331
1AED8
  5
1AE72
331
1AED9
  5
1AE73
331
1AEDA
  5
1AE74
331
1AEDB
  5
1AE75
331
1AEDC
  5
1AE76
331
1AEDD
  5
1AE77
331
1AEDE
  5
1AE7B
331
1AEDF
  5
1AE7C
331
1AEE0
  5
1AE7D
331
1AEE1
  5
1AE7E
331
1AEE2
  5
1AE7F
331
1AEE3
  5
1AE80
331
1AEE4
  5
1AE81
  0
MATERIAL
  5
D9A4
102
{ACAD_REACTORS
330
18C
102
}
102
{ACAD_XDICTIONARY
360
1B083
102
}
330
18C
100
AcDbMaterial
  1
BYBLOCK
 72
     0
 73
     2
 43
0.0208333333333333
 43
0.0
 43
0.0
 43
0.0
 43
0.0
 43
0.0208333333333333
 43
0.0
 43
0.0
 43
0.0
 43
0.0
 43
1.0
 43
0.0
 43
0.0
 43
0.0
 43
0.0
 43
1.0
 77
     0
 78
     2
 47
0.0208333333333333
 47
0.0
 47
0.0
 47
0.0
 47
0.0
 47
0.0208333333333333
 47
0.0
 47
0.0
 47
0.0
 47
0.0
 47
1.0
 47
0.0
 47
0.0
 47
0.0
 47
0.0
 47
1.0
171
     0
172
     2
 49
0.0208333333333333
 49
0.0
 49
0.0
 49
0.0
 49
0.0
 49
0.0208333333333333
 49
0.0
 49
0.0
 49
0.0
 49
0.0
 49
1.0
 49
0.0
 49
0.0
 49
0.0
 49
0.0
 49
1.0
175
     0
176
     2
142
0.0208333333333333
142
0.0
142
0.0
142
0.0
142
0.0
142
0.0208333333333333
142
0.0
142
0.0
142
0.0
142
0.0
142
1.0
142
0.0
142
0.0
142
0.0
142
0.0
142
1.0
179
     0
270
     2
144
0.0208333333333333
144
0.0
144
0.0
144
0.0
144
0.0
144
0.0208333333333333
144
0.0
144
0.0
144
0.0
144
0.0
144
1.0
144
0.0
144
0.0
144
0.0
144
0.0
144
1.0
274
     2
147
0.0208333333333333
147
0.0
147
0.0
147
0.0
147
0.0
147
0.0208333333333333
147
0.0
147
0.0
147
0.0
147
0.0
147
1.0
147
0.0
147
0.0
147
0.0
147
0.0
147
1.0
  0
MATERIAL
  5
D99C
102
{ACAD_REACTORS
330
18C
102
}
102
{ACAD_XDICTIONARY
360
1B085
102
}
330
18C
100
AcDbMaterial
  1
BYLAYER
 72
     0
 73
     2
 43
0.0208333333333333
 43
0.0
 43
0.0
 43
0.0
 43
0.0
 43
0.0208333333333333
 43
0.0
 43
0.0
 43
0.0
 43
0.0
 43
1.0
 43
0.0
 43
0.0
 43
0.0
 43
0.0
 43
1.0
 77
     0
 78
     2
 47
0.0208333333333333
 47
0.0
 47
0.0
 47
0.0
 47
0.0
 47
0.0208333333333333
 47
0.0
 47
0.0
 47
0.0
 47
0.0
 47
1.0
 47
0.0
 47
0.0
 47
0.0
 47
0.0
 47
1.0
171
     0
172
     2
 49
0.0208333333333333
 49
0.0
 49
0.0
 49
0.0
 49
0.0
 49
0.0208333333333333
 49
0.0
 49
0.0
 49
0.0
 49
0.0
 49
1.0
 49
0.0
 49
0.0
 49
0.0
 49
0.0
 49
1.0
175
     0
176
     2
142
0.0208333333333333
142
0.0
142
0.0
142
0.0
142
0.0
142
0.0208333333333333
142
0.0
142
0.0
142
0.0
142
0.0
142
1.0
142
0.0
142
0.0
142
0.0
142
0.0
142
1.0
179
     0
270
     2
144
0.0208333333333333
144
0.0
144
0.0
144
0.0
144
0.0
144
0.0208333333333333
144
0.0
144
0.0
144
0.0
144
0.0
144
1.0
144
0.0
144
0.0
144
0.0
144
0.0
144
1.0
274
     2
147
0.0208333333333333
147
0.0
147
0.0
147
0.0
147
0.0
147
0.0208333333333333
147
0.0
147
0.0
147
0.0
147
0.0
147
1.0
147
0.0
147
0.0
147
0.0
147
0.0
147
1.0
  0
MATERIAL
  5
D9AC
102
{ACAD_REACTORS
330
18C
102
}
102
{ACAD_XDICTIONARY
360
1B087
102
}
330
18C
100
AcDbMaterial
  1
GLOBAL
 72
     0
 73
     2
 43
0.0208333333333333
 43
0.0
 43
0.0
 43
0.0
 43
0.0
 43
0.0208333333333333
 43
0.0
 43
0.0
 43
0.0
 43
0.0
 43
1.0
 43
0.0
 43
0.0
 43
0.0
 43
0.0
 43
1.0
 77
     0
 78
     2
 47
0.0208333333333333
 47
0.0
 47
0.0
 47
0.0
 47
0.0
 47
0.0208333333333333
 47
0.0
 47
0.0
 47
0.0
 47
0.0
 47
1.0
 47
0.0
 47
0.0
 47
0.0
 47
0.0
 47
1.0
171
     0
172
     2
 49
0.0208333333333333
 49
0.0
 49
0.0
 49
0.0
 49
0.0
 49
0.0208333333333333
 49
0.0
 49
0.0
 49
0.0
 49
0.0
 49
1.0
 49
0.0
 49
0.0
 49
0.0
 49
0.0
 49
1.0
175
     0
176
     2
142
0.0208333333333333
142
0.0
142
0.0
142
0.0
142
0.0
142
0.0208333333333333
142
0.0
142
0.0
142
0.0
142
0.0
142
1.0
142
0.0
142
0.0
142
0.0
142
0.0
142
1.0
179
     0
270
     2
144
0.0208333333333333
144
0.0
144
0.0
144
0.0
144
0.0
144
0.0208333333333333
144
0.0
144
0.0
144
0.0
144
0.0
144
1.0
144
0.0
144
0.0
144
0.0
144
0.0
144
1.0
274
     2
147
0.0208333333333333
147
0.0
147
0.0
147
0.0
147
0.0
147
0.0208333333333333
147
0.0
147
0.0
147
0.0
147
0.0
147
1.0
147
0.0
147
0.0
147
0.0
147
0.0
147
1.0
  0
ACAD_PROXY_OBJECT
  5
D9E8
102
{ACAD_REACTORS
330
D9E7
102
}
330
D9E7
100
AcDbZombieObject
 90
      499
 91
      511
 93
      610
310
40901902A4063FBFFFFFE000000000000002040AD7A3703D0AD73F4214DD185B99185C990000000000000104090141901A00000000000004100000000000000041025764000000000000300FC0
340
12
340
0
340
F
340
0
 94
        0
1001
ACAD_MLEADERVER
1070
     2
  0
MLINESTYLE
  5
1C
102
{ACAD_REACTORS
330
1B
102
}
330
1B
100
AcDbMlineStyle
  2
STANDARD
 70
     0
  3

 62
   256
 51
90.0
 52
90.0
 71
     2
 49
0.5
 62
   256
  6
BYLAYER
 49
-0.5
 62
   256
  6
BYLAYER
  0
ACAD_PROXY_OBJECT
  5
D9C6
102
{ACAD_REACTORS
330
D9C5
102
}
330
D9C5
100
AcDbZombieObject
 90
      499
 91
      510
 93
       41
310
903313A31580
  0
ACAD_PROXY_OBJECT
  5
D9C7
102
{ACAD_REACTORS
330
D9C5
102
}
330
D9C5
100
AcDbZombieObject
 90
      499
 91
      510
 93
      105
310
903313A324000000000000004000
  0
ACAD_PROXY_OBJECT
  5
D9C8
102
{ACAD_REACTORS
330
D9C5
102
}
330
D9C5
100
AcDbZombieObject
 90
      499
 91
      510
 93
      105
310
903313A344000000000000104000
  0
ACAD_PROXY_OBJECT
  5
D9C9
102
{ACAD_REACTORS
330
D9C5
102
}
330
D9C5
100
AcDbZombieObject
 90
      499
 91
      510
 93
      105
310
903313A354000000000000144000
  0
ACAD_PROXY_OBJECT
  5
D9CA
102
{ACAD_REACTORS
330
D9C5
102
}
330
D9C5
100
AcDbZombieObject
 90
      499
 91
      510
 93
      105
310
903313A384000000000000204000
  0
ACAD_PROXY_OBJECT
  5
D9CB
102
{ACAD_REACTORS
330
D9C5
102
}
330
D9C5
100
AcDbZombieObject
 90
      499
 91
      510
 93
      113
310
904313A31304000000000000244000
  0
ACAD_PROXY_OBJECT
  5
D9CC
102
{ACAD_REACTORS
330
D9C5
102
}
330
D9C5
100
AcDbZombieObject
 90
      499
 91
      510
 93
      113
310
904313A31364000000000000304000
  0
ACAD_PROXY_OBJECT
  5
D9CD
102
{ACAD_REACTORS
330
D9C5
102
}
330
D9C5
100
AcDbZombieObject
 90
      499
 91
      510
 93
      113
310
904313A32304000000000000344000
  0
ACAD_PROXY_OBJECT
  5
D9CE
102
{ACAD_REACTORS
330
D9C5
102
}
330
D9C5
100
AcDbZombieObject
 90
      499
 91
      510
 93
      113
310
904313A333040000000000003E4000
  0
ACAD_PROXY_OBJECT
  5
D9CF
102
{ACAD_REACTORS
330
D9C5
102
}
330
D9C5
100
AcDbZombieObject
 90
      499
 91
      510
 93
      113
310
904313A34304000000000000444000
  0
ACAD_PROXY_OBJECT
  5
D9D0
102
{ACAD_REACTORS
330
D9C5
102
}
330
D9C5
100
AcDbZombieObject
 90
      499
 91
      510
 93
      113
310
904313A35304000000000000494000
  0
ACAD_PROXY_OBJECT
  5
D9D1
102
{ACAD_REACTORS
330
D9C5
102
}
330
D9C5
100
AcDbZombieObject
 90
      499
 91
      510
 93
      121
310
905313A3130304000000000000594000
  0
ACAD_PROXY_OBJECT
  5
D9D2
102
{ACAD_REACTORS
330
D9C5
102
}
330
D9C5
100
AcDbZombieObject
 90
      499
 91
      510
 93
      105
310
903323A310000000000000010100
  0
ACAD_PROXY_OBJECT
  5
D9D3
102
{ACAD_REACTORS
330
D9C5
102
}
330
D9C5
100
AcDbZombieObject
 90
      499
 91
      510
 93
      105
310
903343A310000000000000410100
  0
ACAD_PROXY_OBJECT
  5
D9D4
102
{ACAD_REACTORS
330
D9C5
102
}
330
D9C5
100
AcDbZombieObject
 90
      499
 91
      510
 93
      105
310
903383A310000000000000810100
  0
ACAD_PROXY_OBJECT
  5
D9D5
102
{ACAD_REACTORS
330
D9C5
102
}
330
D9C5
100
AcDbZombieObject
 90
      499
 91
      510
 93
      113
310
90431303A310000000000000910100
  0
ACAD_PROXY_OBJECT
  5
D9D6
102
{ACAD_REACTORS
330
D9C5
102
}
330
D9C5
100
AcDbZombieObject
 90
      499
 91
      510
 93
      121
310
9053130303A310000000000001650100
  0
ACAD_PROXY_OBJECT
  5
D9D7
102
{ACAD_REACTORS
330
D9C5
102
}
330
D9C5
100
AcDbZombieObject
 90
      499
 91
      510
 93
      257
310
90E312F31323822203D2031272D3022000000000000200FC000000000000284000
  0
ACAD_PROXY_OBJECT
  5
D9D8
102
{ACAD_REACTORS
330
D9C5
102
}
330
D9C5
100
AcDbZombieObject
 90
      499
 91
      510
 93
      249
310
90D312F363422203D2031272D3022000000000000240FC000000000000284000
  0
ACAD_PROXY_OBJECT
  5
D9D9
102
{ACAD_REACTORS
330
D9C5
102
}
330
D9C5
100
AcDbZombieObject
 90
      499
 91
      510
 93
      249
310
90D312F333222203D2031272D3022000000000000280FC000000000000284000
  0
ACAD_PROXY_OBJECT
  5
D9DA
102
{ACAD_REACTORS
330
D9C5
102
}
330
D9C5
100
AcDbZombieObject
 90
      499
 91
      510
 93
      249
310
90D312F313622203D2031272D30220000000000002C0FC000000000000284000
  0
ACAD_PROXY_OBJECT
  5
D9DB
102
{ACAD_REACTORS
330
D9C5
102
}
330
D9C5
100
AcDbZombieObject
 90
      499
 91
      510
 93
      249
310
90D332F333222203D2031272D30220000000000002E0FC000000000000284000
  0
ACAD_PROXY_OBJECT
  5
D9DC
102
{ACAD_REACTORS
330
D9C5
102
}
330
D9C5
100
AcDbZombieObject
 90
      499
 91
      510
 93
      241
310
90C312F3822203D2031272D3022000000000000300FC000000000000284000
  0
ACAD_PROXY_OBJECT
  5
D9DD
102
{ACAD_REACTORS
330
D9C5
102
}
330
D9C5
100
AcDbZombieObject
 90
      499
 91
      510
 93
      249
310
90D332F313622203D2031272D3022000000000000320FC000000000000284000
  0
ACAD_PROXY_OBJECT
  5
D9DE
102
{ACAD_REACTORS
330
D9C5
102
}
330
D9C5
100
AcDbZombieObject
 90
      499
 91
      510
 93
      241
310
90C312F3422203D2031272D3022000000000000340FC000000000000284000
  0
ACAD_PROXY_OBJECT
  5
D9DF
102
{ACAD_REACTORS
330
D9C5
102
}
330
D9C5
100
AcDbZombieObject
 90
      499
 91
      510
 93
      241
310
90C332F3822203D2031272D3022000000000000360FC000000000000284000
  0
ACAD_PROXY_OBJECT
  5
D9E0
102
{ACAD_REACTORS
330
D9C5
102
}
330
D9C5
100
AcDbZombieObject
 90
      499
 91
      510
 93
      241
310
90C312F3222203D2031272D3022000000000000380FC000000000000284000
  0
ACAD_PROXY_OBJECT
  5
D9E1
102
{ACAD_REACTORS
330
D9C5
102
}
330
D9C5
100
AcDbZombieObject
 90
      499
 91
      510
 93
      241
310
90C332F3422203D2031272D30220000000000003A0FC000000000000284000
  0
ACAD_PROXY_OBJECT
  5
D9E2
102
{ACAD_REACTORS
330
D9C5
102
}
330
D9C5
100
AcDbZombieObject
 90
      499
 91
      510
 93
      161
310
90A3122203D2031272D30224000000000000284000
  0
ACAD_PROXY_OBJECT
  5
D9E3
102
{ACAD_REACTORS
330
D9C5
102
}
330
D9C5
100
AcDbZombieObject
 90
      499
 91
      510
 93
      257
310
90E312D312F3222203D2031272D30220000000000003E0FC000000000000284000
  0
ACAD_PROXY_OBJECT
  5
D9E4
102
{ACAD_REACTORS
330
D9C5
102
}
330
D9C5
100
AcDbZombieObject
 90
      499
 91
      510
 93
      225
310
90A3322203D2031272D302200000000000002100000000000000284000
  0
ACAD_PROXY_OBJECT
  5
D9E5
102
{ACAD_REACTORS
330
D9C5
102
}
330
D9C5
100
AcDbZombieObject
 90
      499
 91
      510
 93
      225
310
90A3622203D2031272D302200000000000006100000000000000284000
  0
ACAD_PROXY_OBJECT
  5
D9E6
102
{ACAD_REACTORS
330
D9C5
102
}
330
D9C5
100
AcDbZombieObject
 90
      499
 91
      510
 93
      249
310
90D31272D3022203D2031272D30220000000000000A100000000000000284000
  0
ACAD_PROXY_OBJECT
  5
D9BA
102
{ACAD_REACTORS
330
D9B4
102
}
330
D9B4
100
AcDbZombieObject
 90
      499
 91
      509
 93
      436
310
42CC9915DA5C99599C985B595049028333333333333E3BF0000000000000FB0107901411070040501600405405064090741402480A0340
1001
ACAD
1000
AcDbSavedByObjectVersion
1070
     0
  0
ACAD_PROXY_OBJECT
  5
D9BC
102
{ACAD_REACTORS
330
D9B4
102
}
330
D9B4
100
AcDbZombieObject
 90
      499
 91
      509
 93
      500
310
424CD108121A5919195B90640502408333333333333E3BF0000000000000FB01079024090700405020000000000001110200405405064090740C02480A0340
1001
ACAD
1000
AcDbSavedByObjectVersion
1070
     0
  0
ACAD_PROXY_OBJECT
  5
D9BB
102
{ACAD_REACTORS
330
D9B4
102
}
330
D9B4
100
AcDbZombieObject
 90
      499
 91
      509
 93
      436
310
42CCD915DA5C99599C985B595059028333333333333E3BF0000000000000FB0107901411070040501600405405064090741402480A0340
1001
ACAD
1000
AcDbSavedByObjectVersion
1070
     0
  0
ACAD_PROXY_OBJECT
  5
D9B9
102
{ACAD_REACTORS
330
D9B4
102
}
330
D9B4
100
AcDbZombieObject
 90
      499
 91
      509
 93
      388
310
4150985CDA58D07406404333333333333E3BF0000000000000FB0107A41107004050150841D405064090741402480A0350
1001
ACAD
1000
AcDbSavedByObjectVersion
1070
     0
  0
ACAD_PROXY_OBJECT
  5
D9C0
102
{ACAD_REACTORS
330
D9B4
102
}
330
D9B4
100
AcDbZombieObject
 90
      499
 91
      509
 93
      428
310
42109C9A59DA1D195B90C409028333333333333E3BF0000000000000FB010790141107004050150841D405064090741402480A029950
1001
ACAD
1000
AcDbSavedByObjectVersion
1070
     0
  0
ACAD_PROXY_OBJECT
  5
D9C4
102
{ACAD_REACTORS
330
D9B4
102
}
330
D9B4
100
AcDbZombieObject
 90
      499
 91
      509
 93
      452
310
42D0DBDB1BDC90DA185B99D95104090240C333333333333E3BF0000000000000FB0108901411070040501508421405064090741402480A0350
1001
ACAD
1000
AcDbSavedByObjectVersion
1070
     0
  0
ACAD_PROXY_OBJECT
  5
D9BD
102
{ACAD_REACTORS
330
D9B4
102
}
330
D9B4
100
AcDbZombieObject
 90
      499
 91
      509
 93
      500
310
4290DBDB98D95C1D1D585B10940D028333333333333E3BF0000000000000FB0107902409070040501000000000000111010841D405064090740C02480A0340
1001
ACAD
1000
AcDbSavedByObjectVersion
1070
     0
  0
ACAD_PROXY_OBJECT
  5
D9BF
102
{ACAD_REACTORS
330
D9B4
102
}
330
D9B4
100
AcDbZombieObject
 90
      499
 91
      509
 93
      412
310
40D11A5B50B409028333333333333E3BF0000000000000FB010790141107004050150841D405064090741402480A02677FFFFFD0
1001
ACAD
1000
AcDbSavedByObjectVersion
1070
     0
  0
ACAD_PROXY_OBJECT
  5
19C2F
102
{ACAD_REACTORS
330
D9B4
102
}
330
D9B4
100
AcDbZombieObject
 90
      499
 91
      509
 93
      452
310
43115919D950DBDB1BDC93D999916409028333333333333E3BF0000000000000FB010790141107004050150841D405064090741402480A0350
1001
ACAD
1000
AcDbSavedByObjectVersion
1070
     0
  0
ACAD_PROXY_OBJECT
  5
D9C3
102
{ACAD_REACTORS
330
D9B4
102
}
330
D9B4
100
AcDbZombieObject
 90
      499
 91
      509
 93
      444
310
42D19858D95C185D1D195C9B90F409028333333333333E3BF0000000000000FB010790141107004050150841D405064090741402480A0350
1001
ACAD
1000
AcDbSavedByObjectVersion
1070
     0
  0
ACAD_PROXY_OBJECT
  5
D9B5
102
{ACAD_REACTORS
330
D9B4
102
}
330
D9B4
100
AcDbZombieObject
 90
      499
 91
      509
 93
      388
310
41119B185D240901404333333333333E3BF0000000000000F9010740A41107004050150841D405064090741402480A1B50
1001
ACAD
1000
AcDbSavedByObjectVersion
1070
     0
  0
ACAD_PROXY_OBJECT
  5
D9B6
102
{ACAD_REACTORS
330
D9B4
102
}
330
D9B4
100
AcDbZombieObject
 90
      499
 91
      509
 93
      476
310
43519B185D15DA5D1A115919D95CD0140901404333333333333E3BF0000000000000F9010740901411070040501600405405064090741402480A1B50
1001
ACAD
1000
AcDbSavedByObjectVersion
1070
     0
  0
ACAD_PROXY_OBJECT
  5
D9B7
102
{ACAD_REACTORS
330
D9B4
102
}
330
D9B4
100
AcDbZombieObject
 90
      499
 91
      509
 93
      412
310
41D1DBDD5C985D5910240902404333333333333E3BF0000000000000F9010740A411070040501641D405064090741402480A1B50
1001
ACAD
1000
AcDbSavedByObjectVersion
1070
     0
  0
ACAD_PROXY_OBJECT
  5
D9B8
102
{ACAD_REACTORS
330
D9B4
102
}
330
D9B4
100
AcDbZombieObject
 90
      499
 91
      509
 93
      500
310
4411DBDD5C985D5915DA5D1A115919D95CD0340902404333333333333E3BF0000000000000F9010740901411070040501600405405064090741402480A1B50
1001
ACAD
1000
AcDbSavedByObjectVersion
1070
     0
  0
ACAD_PROXY_OBJECT
  5
19C7E
102
{ACAD_REACTORS
330
D9B4
102
}
330
D9B4
100
AcDbZombieObject
 90
      499
 91
      509
 93
      476
310
41921A5919195B90640502408333333333333E3BF0000000000000FB01079024090700405020000000000001110200405405064090740C02480A0340
1001
ACAD
1000
AcDbSavedByObjectVersion
1070
     0
  0
ACAD_PROXY_OBJECT
  5
19C2D
102
{ACAD_REACTORS
330
D9B4
102
}
330
D9B4
100
AcDbZombieObject
 90
      499
 91
      509
 93
      428
310
42529A5D1D195C93D999914409028333333333333E3BF0000000000000FB010790141107004050150A41D405064090741402480A0350
1001
ACAD
1000
AcDbSavedByObjectVersion
1070
     0
  0
ACAD_PROXY_OBJECT
  5
D9C2
102
{ACAD_REACTORS
330
D9B4
102
}
330
D9B4
100
AcDbZombieObject
 90
      499
 91
      509
 93
      444
310
42D31A5B995C185D1D195C9B90E409028333333333333E3BF0000000000000FB010790141107004050750841D405064090741402483A0350
1001
ACAD
1000
AcDbSavedByObjectVersion
1070
     0
  0
ACAD_PROXY_OBJECT
  5
19C84
102
{ACAD_REACTORS
330
D9B4
102
}
330
D9B4
100
AcDbZombieObject
 90
      499
 91
      509
 93
      484
310
42135BD9195B1A5B99D0A409028333333333333E3BF0000000000000F901074090290700405010000000000201990108421405064090741402480A1B40
1001
ACAD
1000
AcDbSavedByObjectVersion
1070
     0
  0
ACAD_PROXY_OBJECT
  5
19C2E
102
{ACAD_REACTORS
330
D9B4
102
}
330
D9B4
100
AcDbZombieObject
 90
      499
 91
      509
 93
      444
310
42D3DD995C9A185B99D3D999915409028333333333333E3BF0000000000000FB010790141107004050150941D405064090741402480A0350
1001
ACAD
1000
AcDbSavedByObjectVersion
1070
     0
  0
ACAD_PROXY_OBJECT
  5
D9BE
102
{ACAD_REACTORS
330
D9B4
102
}
330
D9B4
100
AcDbZombieObject
 90
      499
 91
      509
 93
      420
310
425499585B1A5CDD1A58D08409028333333333333E3BF0000000000000FB01079019070040501508421405064090741402480A1B40
1001
ACAD
1000
AcDbSavedByObjectVersion
1070
     0
  0
ACAD_PROXY_OBJECT
  5
19C83
102
{ACAD_REACTORS
330
D9B4
102
}
330
D9B4
100
AcDbZombieObject
 90
      499
 91
      509
 93
      420
310
4194DA1859195911B40902404333333333333E3BF0000000000000F9010740A41107004050150800405405064090840C02480A0B40
1001
ACAD
1000
AcDbSavedByObjectVersion
1070
     0
  0
ACAD_PROXY_OBJECT
  5
19C82
102
{ACAD_REACTORS
330
D9B4
102
}
330
D9B4
100
AcDbZombieObject
 90
      499
 91
      509
 93
      516
310
4454DA18591959081DDA5D1A08195919D95CD1A40902404333333333333E3BF0000000000000F901074090142907004050250800405405064090740C02480A0B40
1001
ACAD
1000
AcDbSavedByObjectVersion
1070
     0
  0
ACAD_PROXY_OBJECT
  5
19C7F
102
{ACAD_REACTORS
330
D9B4
102
}
330
D9B4
100
AcDbZombieObject
 90
      499
 91
      509
 93
      532
310
4394DA1859195CC81BD98811DC985E5174090240C333333333333E3BF0000000000000FB01079024090741D01000000000000111010841D405064090740C02480A0340
1001
ACAD
1000
AcDbSavedByObjectVersion
1070
     0
  0
ACAD_PROXY_OBJECT
  5
19C80
102
{ACAD_REACTORS
330
D9B4
102
}
330
D9B4
100
AcDbZombieObject
 90
      499
 91
      509
 93
      476
310
41D4DAD95D18DA1E51840502408333333333333E3BF0000000000000FB01079024090741D01000000000000111010B41D405064090741802480A0340
1001
ACAD
1000
AcDbSavedByObjectVersion
1070
     0
  0
ACAD_PROXY_OBJECT
  5
D9C1
102
{ACAD_REACTORS
330
D9B4
102
}
330
D9B4
100
AcDbZombieObject
 90
      499
 91
      509
 93
      412
310
41D51A1A58DAD95B90D409028333333333333E3BF0000000000000FB010790141107004050150C41D405064090741402480A0350
1001
ACAD
1000
AcDbSavedByObjectVersion
1070
     0
  0
ACAD_PROXY_OBJECT
  5
19C7D
102
{ACAD_REACTORS
330
D9B4
102
}
330
D9B4
100
AcDbZombieObject
 90
      499
 91
      509
 93
      420
310
4255DA5C99599C985B595059028333333333333E3BF0000000000000FB0107901411070040501600405405064090740C02480A0340
1001
ACAD
1000
AcDbSavedByObjectVersion
1070
     0
  0
ACAD_PROXY_OBJECT
  5
19C81
102
{ACAD_REACTORS
330
D9B4
102
}
330
D9B4
100
AcDbZombieObject
 90
      499
 91
      509
 93
      404
310
41560B54985E51940902404000000000000E03F0000000000000FB010740501907004050150841D405064090740C02480A1B40
1001
ACAD
1000
AcDbSavedByObjectVersion
1070
     0
  0
XRECORD
  5
1AEE6
102
{ACAD_REACTORS
330
1AEE5
102
}
330
1AEE5
100
AcDbXrecord
340
18D
  0
XRECORD
  5
1AEE7
102
{ACAD_REACTORS
330
1AEE5
102
}
330
1AEE5
100
AcDbXrecord
340
18C
  0
DICTIONARYVAR
  5
1AD7C
102
{ACAD_REACTORS
330
37
102
}
330
37
100
DictionaryVariables
280
     0
  1
1:1
  0
DICTIONARYVAR
  5
DA6A
102
{ACAD_REACTORS
330
37
102
}
330
37
100
DictionaryVariables
280
     0
  1
Standard
  0
DICTIONARYVAR
  5
29E
102
{ACAD_REACTORS
330
37
102
}
330
37
100
DictionaryVariables
280
     0
  1
Standard
  0
DICTIONARYVAR
  5
38
102
{ACAD_REACTORS
330
37
102
}
330
37
100
DictionaryVariables
280
     0
  1
-1
  0
DICTIONARYVAR
  5
1CE
102
{ACAD_REACTORS
330
37
102
}
330
37
100
DictionaryVariables
280
     0
  1
2
  0
DICTIONARYVAR
  5
704E
102
{ACAD_REACTORS
330
37
102
}
330
37
100
DictionaryVariables
280
     0
  1
1
  0
DICTIONARYVAR
  5
DA6D
102
{ACAD_REACTORS
330
37
102
}
330
37
100
DictionaryVariables
280
     0
  1
0
  0
DICTIONARYVAR
  5
7052
102
{ACAD_REACTORS
330
37
102
}
330
37
100
DictionaryVariables
280
     0
  1
8
  0
DICTIONARYVAR
  5
7051
102
{ACAD_REACTORS
330
37
102
}
330
37
100
DictionaryVariables
280
     0
  1
1
  0
DICTIONARYVAR
  5
1A7A6
102
{ACAD_REACTORS
330
37
102
}
330
37
100
DictionaryVariables
280
     0
  1
0
  0
DICTIONARYVAR
  5
1A7A7
102
{ACAD_REACTORS
330
37
102
}
330
37
100
DictionaryVariables
280
     0
  1
0
  0
DICTIONARYVAR
  5
1A516
102
{ACAD_REACTORS
330
37
102
}
330
37
100
DictionaryVariables
280
     0
  1
0
  0
DICTIONARYVAR
  5
704F
102
{ACAD_REACTORS
330
37
102
}
330
37
100
DictionaryVariables
280
     0
  1
120
  0
DICTIONARYVAR
  5
7050
102
{ACAD_REACTORS
330
37
102
}
330
37
100
DictionaryVariables
280
     0
  1
0
  0
DICTIONARYVAR
  5
1CF
102
{ACAD_REACTORS
330
37
102
}
330
37
100
DictionaryVariables
280
     0
  1

  0
DICTIONARYVAR
  5
DA6C
102
{ACAD_REACTORS
330
37
102
}
330
37
100
DictionaryVariables
280
     0
  1
127
  0
DICTIONARYVAR
  5
1AD59
102
{ACAD_REACTORS
330
37
102
}
330
37
100
DictionaryVariables
280
     0
  1
2
  0
DICTIONARY
  5
1B083
330
D9A4
100
AcDbDictionary
  3
ACAD_XREC_ROUNDTRIP
360
1B084
1001
ACAD
1000
TREAT_AS_HARD
1070
     1
  0
DICTIONARY
  5
1B085
330
D99C
100
AcDbDictionary
  3
ACAD_XREC_ROUNDTRIP
360
1B086
1001
ACAD
1000
TREAT_AS_HARD
1070
     1
  0
DICTIONARY
  5
1B087
330
D9AC
100
AcDbDictionary
  3
ACAD_XREC_ROUNDTRIP
360
1B088
1001
ACAD
1000
TREAT_AS_HARD
1070
     1
  0
XRECORD
  5
1B084
102
{ACAD_REACTORS
330
1B083
102
}
330
1B083
100
AcDbXrecord
102
MATERIAL
148
0.0
149
0.0
149
0.0
 93
        0
 94
      127
282
     0
 72
     0
 77
     0
171
     0
175
     0
179
     0
273
     0
  0
XRECORD
  5
1B086
102
{ACAD_REACTORS
330
1B085
102
}
330
1B085
100
AcDbXrecord
102
MATERIAL
148
0.0
149
0.0
149
0.0
 93
        0
 94
      127
282
     0
 72
     0
 77
     0
171
     0
175
     0
179
     0
273
     0
  0
XRECORD
  5
1B088
102
{ACAD_REACTORS
330
1B087
102
}
330
1B087
100
AcDbXrecord
102
MATERIAL
148
0.0
149
0.0
149
0.0
 93
        0
 94
      127
282
     0
 72
     0
 77
     0
171
     0
175
     0
179
     0
273
     0
  0
ENDSEC
  0
EOF
