  0
SECTION
  2
HEADER
  9
$ACADVER
  1
AC1012
  9
$DWGCODEPAGE
  3
ansi_932
  9
$INSBASE
 10
0.0
 20
0.0
 30
0.0
  9
$EXTMIN
 10
2023.841399659574
 20
-640.6664763021766
 30
0.0
  9
$EXTMAX
 10
2650.141283738052
 20
-230.466476303205
 30
0.000000000112646
  9
$LIMMIN
 10
0.0
 20
0.0
  9
$LIMMAX
 10
420.0
 20
297.0
  9
$ORTHOMODE
 70
     0
  9
$REGENMODE
 70
     1
  9
$FILLMODE
 70
     1
  9
$QTEXTMODE
 70
     0
  9
$MIRRTEXT
 70
     0
  9
$DRAGMODE
 70
     2
  9
$LTSCALE
 40
0.5
  9
$OSMODE
 70
 14463
  9
$ATTMODE
 70
     1
  9
$TEXTSIZE
 40
4.0
  9
$TRACEWID
 40
1.0
  9
$TEXTSTYLE
  7
STANDARD
  9
$CLAYER
  8
1TEXT
  9
$CELTYPE
  6
BYLAYER
  9
$CECOLOR
 62
   256
  9
$CELTSCALE
 40
1.0
  9
$DELOBJ
 70
     1
  9
$DISPSILH
 70
     0
  9
$DIMSCALE
 40
1.0
  9
$DIMASZ
 40
2.0
  9
$DIMEXO
 40
0.0
  9
$DIMDLI
 40
7.0
  9
$DIMRND
 40
0.0
  9
$DIMDLE
 40
0.0
  9
$DIMEXE
 40
1.0
  9
$DIMTP
 40
0.0
  9
$DIMTM
 40
0.0
  9
$DIMTXT
 40
3.5
  9
$DIMCEN
 40
0.0
  9
$DIMTSZ
 40
0.0
  9
$DIMTOL
 70
     0
  9
$DIMLIM
 70
     0
  9
$DIMTIH
 70
     0
  9
$DIMTOH
 70
     0
  9
$DIMSE1
 70
     0
  9
$DIMSE2
 70
     0
  9
$DIMTAD
 70
     1
  9
$DIMZIN
 70
     8
  9
$DIMBLK
  1

  9
$DIMASO
 70
     1
  9
$DIMSHO
 70
     1
  9
$DIMPOST
  1
 
  9
$DIMAPOST
  1

  9
$DIMALT
 70
     0
  9
$DIMALTD
 70
     2
  9
$DIMALTF
 40
25.4
  9
$DIMLFAC
 40
1.0
  9
$DIMTOFL
 70
     1
  9
$DIMTVP
 40
0.0
  9
$DIMTIX
 70
     0
  9
$DIMSOXD
 70
     0
  9
$DIMSAH
 70
     1
  9
$DIMBLK1
  1
OPEN30
  9
$DIMBLK2
  1
OPEN30
  9
$DIMSTYLE
  2
NEWX10
  9
$DIMCLRD
 70
   256
  9
$DIMCLRE
 70
   256
  9
$DIMCLRT
 70
   201
  9
$DIMTFAC
 40
0.7
  9
$DIMGAP
 40
0.7
  9
$DIMJUST
 70
     0
  9
$DIMSD1
 70
     0
  9
$DIMSD2
 70
     0
  9
$DIMTOLJ
 70
     1
  9
$DIMTZIN
 70
     8
  9
$DIMALTZ
 70
     0
  9
$DIMALTTZ
 70
     0
  9
$DIMFIT
 70
     2
  9
$DIMUPT
 70
     0
  9
$DIMUNIT
 70
     2
  9
$DIMDEC
 70
     2
  9
$DIMTDEC
 70
     4
  9
$DIMALTU
 70
     2
  9
$DIMALTTD
 70
     2
  9
$DIMTXSTY
  7
STANDARD
  9
$DIMAUNIT
 70
     0
  9
$LUNITS
 70
     2
  9
$LUPREC
 70
     4
  9
$SKETCHINC
 40
1.0
  9
$FILLETRAD
 40
0.0
  9
$AUNITS
 70
     0
  9
$AUPREC
 70
     2
  9
$MENU
  1
acad
  9
$ELEVATION
 40
0.0
  9
$PELEVATION
 40
0.0
  9
$THICKNESS
 40
0.0
  9
$LIMCHECK
 70
     0
  9
$CHAMFERA
 40
10.0
  9
$CHAMFERB
 40
10.0
  9
$CHAMFERC
 40
20.0
  9
$CHAMFERD
 40
0.0
  9
$SKPOLY
 70
     0
  9
$TDCREATE
 40
2451318.621352917
  9
$TDUPDATE
 40
2458149.817914607
  9
$TDINDWG
 40
1.6408626736
  9
$TDUSRTIMER
 40
1.6408626736
  9
$USRTIMER
 70
     1
  9
$ANGBASE
 50
0.0
  9
$ANGDIR
 70
     0
  9
$PDMODE
 70
     0
  9
$PDSIZE
 40
0.0
  9
$PLINEWID
 40
0.0
  9
$COORDS
 70
     2
  9
$SPLFRAME
 70
     0
  9
$SPLINETYPE
 70
     6
  9
$SPLINESEGS
 70
     8
  9
$ATTDIA
 70
     0
  9
$ATTREQ
 70
     1
  9
$HANDLING
 70
     1
  9
$HANDSEED
  5
1B1F2
  9
$SURFTAB1
 70
     6
  9
$SURFTAB2
 70
     6
  9
$SURFTYPE
 70
     6
  9
$SURFU
 70
     6
  9
$SURFV
 70
     6
  9
$UCSNAME
  2

  9
$UCSORG
 10
0.0
 20
0.0
 30
0.0
  9
$UCSXDIR
 10
1.0
 20
0.0
 30
0.0
  9
$UCSYDIR
 10
0.0
 20
1.0
 30
0.0
  9
$PUCSNAME
  2

  9
$PUCSORG
 10
0.0
 20
0.0
 30
0.0
  9
$PUCSXDIR
 10
1.0
 20
0.0
 30
0.0
  9
$PUCSYDIR
 10
0.0
 20
1.0
 30
0.0
  9
$USERI1
 70
     0
  9
$USERI2
 70
     0
  9
$USERI3
 70
     0
  9
$USERI4
 70
     0
  9
$USERI5
 70
     0
  9
$USERR1
 40
0.0
  9
$USERR2
 40
0.0
  9
$USERR3
 40
0.0
  9
$USERR4
 40
0.0
  9
$USERR5
 40
0.0
  9
$WORLDVIEW
 70
     1
  9
$SHADEDGE
 70
     3
  9
$SHADEDIF
 70
    70
  9
$TILEMODE
 70
     1
  9
$MAXACTVP
 70
    48
  9
$PINSBASE
 10
0.0
 20
0.0
 30
0.0
  9
$PLIMCHECK
 70
     0
  9
$PEXTMIN
 10
1.000000000000000E+20
 20
1.000000000000000E+20
 30
1.000000000000000E+20
  9
$PEXTMAX
 10
-1.000000000000000E+20
 20
-1.000000000000000E+20
 30
-1.000000000000000E+20
  9
$PLIMMIN
 10
0.0
 20
0.0
  9
$PLIMMAX
 10
420.0
 20
297.0
  9
$UNITMODE
 70
     0
  9
$VISRETAIN
 70
     1
  9
$PLINEGEN
 70
     0
  9
$PSLTSCALE
 70
     1
  9
$TREEDEPTH
 70
  3020
  9
$PICKSTYLE
 70
     1
  9
$CMLSTYLE
  2
STANDARD
  9
$CMLJUST
 70
     0
  9
$CMLSCALE
 40
20.0
  9
$SAVEIMAGES
 70
     1
  0
ENDSEC
  0
SECTION
  2
CLASSES
  0
CLASS
  1
DICTIONARYVAR
  2
AcDbDictionaryVar
  3
ObjectDBX Classes
 90
        0
280
     0
281
     0
  0
CLASS
  1
IDBUFFER
  2
AcDbIdBuffer
  3
ObjectDBX Classes
 90
    32768
280
     0
281
     0
  0
CLASS
  1
LWPOLYLINE
  2
AcDbPolyline
  3
ObjectDBX Classes
 90
    32768
280
     0
281
     1
  0
CLASS
  1
ACDBDICTIONARYWDFLT
  2
AcDbDictionaryWithDefault
  3
ObjectDBX Classes
 90
    32768
280
     0
281
     0
  0
CLASS
  1
ACDBPLACEHOLDER
  2
AcDbPlaceHolder
  3
ObjectDBX Classes
 90
        0
280
     0
281
     0
  0
CLASS
  1
LAYOUT
  2
AcDbLayout
  3
ObjectDBX Classes
 90
        0
280
     0
281
     0
  0
CLASS
  1
TABLESTYLE
  2
AcDbTableStyle
  3
ObjectDBX Classes
 90
     4095
280
     0
281
     0
  0
CLASS
  1
SORTENTSTABLE
  2
AcDbSortentsTable
  3
ObjectDBX Classes
 90
    32768
280
     0
281
     0
  0
CLASS
  1
MATERIAL
  2
AcDbMaterial
  3
ObjectDBX Classes
 90
     1153
280
     0
281
     0
  0
CLASS
  1
VISUALSTYLE
  2
AcDbVisualStyle
  3
ObjectDBX Classes
 90
     4095
280
     0
281
     0
  0
CLASS
  1
SCALE
  2
AcDbScale
  3
ObjectDBX Classes
 90
     1153
280
     0
281
     0
  0
CLASS
  1
MLEADERSTYLE
  2
AcDbMLeaderStyle
  3
ACDB_MLEADERSTYLE_CLASS
 90
     4095
280
     0
281
     0
  0
CLASS
  1
CELLSTYLEMAP
  2
AcDbCellStyleMap
  3
ObjectDBX Classes
 90
     1152
280
     0
281
     0
  0
CLASS
  1
SUN
  2
AcDbSun
  3
SCENEOE
 90
     1153
280
     0
281
     0
  0
CLASS
  1
XRECORD
  2
AcDbXrecord
  3
ObjectDBX Classes
 90
    32768
280
     0
281
     0
  0
CLASS
  1
HATCH
  2
AcDbHatch
  3
ObjectDBX Classes
 90
    32768
280
     0
281
     1
  0
ENDSEC
  0
SECTION
  2
TABLES
  0
TABLE
  2
VPORT
  5
8
330
0
100
AcDbSymbolTable
 70
     1
  0
VPORT
  5
D991
330
8
100
AcDbSymbolTableRecord
100
AcDbViewportTableRecord
  2
*ACTIVE
 70
     0
 10
0.0
 20
0.0
 11
1.0
 21
1.0
 12
2336.991341698813
 22
-435.5664763026908
 13
0.0
 23
0.0
 14
10.0
 24
10.0
 15
10.0
 25
10.0
 16
0.0
 26
0.0
 36
1.0
 17
0.0
 27
0.0
 37
0.0
 40
440.4252631567906
 41
2.233782129742962
 42
50.0
 43
0.0
 44
0.0
 50
0.0
 51
0.0
 71
    16
 72
   100
 73
     1
 74
     1
 75
     0
 76
     0
 77
     0
 78
     0
  0
ENDTAB
  0
TABLE
  2
LTYPE
  5
5
330
0
100
AcDbSymbolTable
 70
     2
  0
LTYPE
  5
12
330
5
100
AcDbSymbolTableRecord
100
AcDbLinetypeTableRecord
  2
BYBLOCK
 70
     0
  3

 72
    65
 73
     0
 40
0.0
  0
LTYPE
  5
13
330
5
100
AcDbSymbolTableRecord
100
AcDbLinetypeTableRecord
  2
BYLAYER
 70
     0
  3

 72
    65
 73
     0
 40
0.0
  0
LTYPE
  5
14
330
5
100
AcDbSymbolTableRecord
100
AcDbLinetypeTableRecord
  2
CONTINUOUS
 70
     0
  3
Solid line
 72
    65
 73
     0
 40
0.0
  0
LTYPE
  5
13839
330
5
100
AcDbSymbolTableRecord
100
AcDbLinetypeTableRecord
  2
CENTER2
 70
     0
  3
Center (.5x) ___ _ ___ _ ___ _ ___ _ ___ _ ___
 72
    65
 73
     4
 40
28.575
 49
19.05
 74
     0
 49
-3.175
 74
     0
 49
3.175
 74
     0
 49
-3.175
 74
     0
  0
ENDTAB
  0
TABLE
  2
LAYER
  5
2
102
{ACAD_XDICTIONARY
360
E6A6
102
}
330
0
100
AcDbSymbolTable
 70
     5
  0
LAYER
  5
E
102
{ACAD_XDICTIONARY
360
DA05
102
}
330
2
100
AcDbSymbolTableRecord
100
AcDbLayerTableRecord
  2
0
 70
     0
 62
     7
  6
CONTINUOUS
  0
LAYER
  5
29
102
{ACAD_XDICTIONARY
360
DA07
102
}
330
2
100
AcDbSymbolTableRecord
100
AcDbLayerTableRecord
  2
1CENTER
 70
     0
 62
     7
  6
CENTER2
  0
LAYER
  5
31
102
{ACAD_XDICTIONARY
360
DA09
102
}
330
2
100
AcDbSymbolTableRecord
100
AcDbLayerTableRecord
  2
1TEXT
 70
     0
 62
     7
  6
CONTINUOUS
  0
LAYER
  5
243
102
{ACAD_XDICTIONARY
360
DA0F
102
}
330
2
100
AcDbSymbolTableRecord
100
AcDbLayerTableRecord
  2
01
 70
     0
 62
     1
  6
CONTINUOUS
  0
LAYER
  5
24E
102
{ACAD_XDICTIONARY
360
DA15
102
}
330
2
100
AcDbSymbolTableRecord
100
AcDbLayerTableRecord
  2
1DIM
 70
     0
 62
     7
  6
CONTINUOUS
  0
ENDTAB
  0
TABLE
  2
STYLE
  5
3
330
0
100
AcDbSymbolTable
 70
     1
  0
STYLE
  5
F
330
3
100
AcDbSymbolTableRecord
100
AcDbTextStyleTableRecord
  2
STANDARD
 70
     0
 40
0.0
 41
1.0
 50
0.0
 71
     0
 42
4.0
  3
txt.shx
  4
extfont.shx
  0
ENDTAB
  0
TABLE
  2
VIEW
  5
6
330
0
100
AcDbSymbolTable
 70
     0
  0
ENDTAB
  0
TABLE
  2
UCS
  5
7
330
0
100
AcDbSymbolTable
 70
     0
  0
ENDTAB
  0
TABLE
  2
APPID
  5
9
330
0
100
AcDbSymbolTable
 70
    13
  0
APPID
  5
10
330
9
100
AcDbSymbolTableRecord
100
AcDbRegAppTableRecord
  2
ACAD
 70
     0
  0
APPID
  5
21
330
9
100
AcDbSymbolTableRecord
100
AcDbRegAppTableRecord
  2
DRAWINGVARIABLESXDATA
 70
     0
  0
APPID
  5
64
330
9
100
AcDbSymbolTableRecord
100
AcDbRegAppTableRecord
  2
CONTENTTABDATA
 70
     0
  0
APPID
  5
65
330
9
100
AcDbSymbolTableRecord
100
AcDbRegAppTableRecord
  2
CONTENTCURRENTTAB
 70
     0
  0
APPID
  5
66
330
9
100
AcDbSymbolTableRecord
100
AcDbRegAppTableRecord
  2
CONTENTBLOCKDESCRIPTION
 70
     0
  0
APPID
  5
67
330
9
100
AcDbSymbolTableRecord
100
AcDbRegAppTableRecord
  2
CONTENTBLOCKICON
 70
     0
  0
APPID
  5
68
330
9
100
AcDbSymbolTableRecord
100
AcDbRegAppTableRecord
  2
CONTENTLONGBLOCKNAME
 70
     0
  0
APPID
  5
2AE
330
9
100
AcDbSymbolTableRecord
100
AcDbRegAppTableRecord
  2
ACAD_PSEXT
 70
     0
  0
APPID
  5
D9E9
330
9
100
AcDbSymbolTableRecord
100
AcDbRegAppTableRecord
  2
ACAD_MLEADERVER
 70
     0
  0
APPID
  5
19D01
330
9
100
AcDbSymbolTableRecord
100
AcDbRegAppTableRecord
  2
ACADANNOTATIVE
 70
     0
  0
APPID
  5
19D02
330
9
100
AcDbSymbolTableRecord
100
AcDbRegAppTableRecord
  2
ACDBBLOCKREPETAG
 70
     0
  0
APPID
  5
1A67E
330
9
100
AcDbSymbolTableRecord
100
AcDbRegAppTableRecord
  2
ACAD_OBJECT_CHANGE_GUID
 70
     0
  0
APPID
  5
1A7E7
330
9
100
AcDbSymbolTableRecord
100
AcDbRegAppTableRecord
  2
ACAECLAYERSTANDARD
 70
     0
  0
ENDTAB
  0
TABLE
  2
DIMSTYLE
  5
A
330
0
100
AcDbSymbolTable
 70
     1
  0
DIMSTYLE
105
48
330
A
100
AcDbSymbolTableRecord
100
AcDbDimStyleTableRecord
  2
NEWX10
 70
     0
  3
 
  4

  5

  6
OPEN30
  7
OPEN30
 40
1.0
 41
2.0
 42
0.0
 43
7.0
 44
1.0
 45
0.0
 46
0.0
 47
0.0
 48
0.0
140
3.5
141
0.0
142
0.0
143
25.4
144
1.0
145
0.0
146
0.7
147
0.7
 71
     0
 72
     0
 73
     0
 74
     0
 75
     0
 76
     0
 77
     1
 78
     8
170
     0
171
     2
172
     1
173
     1
174
     0
175
     0
176
   256
177
   256
178
   201
179
     2
270
     2
271
     2
272
     4
273
     2
274
     2
340
F
275
     0
280
     0
281
     0
282
     0
283
     1
284
     8
285
     0
286
     0
287
     2
288
     0
  0
ENDTAB
  0
TABLE
  2
BLOCK_RECORD
  5
1
330
0
100
AcDbSymbolTable
 70
     8
  0
BLOCK_RECORD
  5
18
102
{ACAD_XDICTIONARY
360
88F
102
}
330
1
100
AcDbSymbolTableRecord
100
AcDbBlockTableRecord
  2
*MODEL_SPACE
  0
BLOCK_RECORD
  5
15
330
1
100
AcDbSymbolTableRecord
100
AcDbBlockTableRecord
  2
*PAPER_SPACE
  0
BLOCK_RECORD
  5
42
330
1
100
AcDbSymbolTableRecord
100
AcDbBlockTableRecord
  2
_OPEN30
  0
BLOCK_RECORD
  5
19D51
330
1
100
AcDbSymbolTableRecord
100
AcDbBlockTableRecord
  2
A3WAKUKAWAJUN2017_HYOUDAI_
  0
BLOCK_RECORD
  5
1B052
330
1
100
AcDbSymbolTableRecord
100
AcDbBlockTableRecord
  2
*X156
  0
BLOCK_RECORD
  5
1B0A0
330
1
100
AcDbSymbolTableRecord
100
AcDbBlockTableRecord
  2
*X157
  0
BLOCK_RECORD
  5
1B0F2
330
1
100
AcDbSymbolTableRecord
100
AcDbBlockTableRecord
  2
*X158
  0
BLOCK_RECORD
  5
1B143
330
1
100
AcDbSymbolTableRecord
100
AcDbBlockTableRecord
  2
*X159
  0
BLOCK_RECORD
  5
1B180
330
1
100
AcDbSymbolTableRecord
100
AcDbBlockTableRecord
  2
*X160
  0
BLOCK_RECORD
  5
1B1C0
330
1
100
AcDbSymbolTableRecord
100
AcDbBlockTableRecord
  2
*X161
  0
ENDTAB
  0
ENDSEC
  0
SECTION
  2
BLOCKS
  0
BLOCK
  5
19
330
18
100
AcDbEntity
  8
0
100
AcDbBlockBegin
  2
*MODEL_SPACE
 70
     0
 10
0.0
 20
0.0
 30
0.0
  3
*MODEL_SPACE
  1

  0
ENDBLK
  5
1A
330
18
100
AcDbEntity
  8
0
100
AcDbBlockEnd
  0
BLOCK
  5
16
330
15
100
AcDbEntity
 67
     1
  8
0
100
AcDbBlockBegin
  2
*PAPER_SPACE
 70
     0
 10
0.0
 20
0.0
 30
0.0
  3
*PAPER_SPACE
  1

  0
ENDBLK
  5
17
330
15
100
AcDbEntity
 67
     1
  8
0
100
AcDbBlockEnd
  0
BLOCK
  5
43
330
42
100
AcDbEntity
  8
0
100
AcDbBlockBegin
  2
_OPEN30
 70
     0
 10
0.0
 20
0.0
 30
0.0
  3
_OPEN30
  1

  0
LINE
  5
44
330
42
100
AcDbEntity
  8
0
  6
BYBLOCK
 62
     0
100
AcDbLine
 10
-1.0
 20
0.26794919
 30
0.0
 11
0.0
 21
0.0
 31
0.0
  0
LINE
  5
45
330
42
100
AcDbEntity
  8
0
  6
BYBLOCK
 62
     0
100
AcDbLine
 10
0.0
 20
0.0
 30
0.0
 11
-1.0
 21
-0.26794919
 31
0.0
  0
LINE
  5
46
330
42
100
AcDbEntity
  8
0
  6
BYBLOCK
 62
     0
100
AcDbLine
 10
0.0
 20
0.0
 30
0.0
 11
-1.0
 21
0.0
 31
0.0
  0
ENDBLK
  5
47
330
42
100
AcDbEntity
  8
0
100
AcDbBlockEnd
  0
BLOCK
  5
1A474
330
19D51
100
AcDbEntity
  8
0
100
AcDbBlockBegin
  2
A3WAKUKAWAJUN2017_HYOUDAI_
 70
     0
 10
0.0
 20
0.0
 30
0.0
  3
A3WAKUKAWAJUN2017_HYOUDAI_
  1

  0
LINE
  5
19D53
330
19D51
100
AcDbEntity
  8
0
100
AcDbLine
 10
13.26299999998673
 20
-0.0001000000000317
 30
0.0
 11
9.236999999990758
 21
8.999899999990987
 31
0.0
1001
ACAD
1000
ASC_BOUNDS
1002
{
1070
    19
1005
19D94
1002
}
  0
LINE
  5
19D54
330
19D51
100
AcDbEntity
  8
0
100
AcDbLine
 10
5.657999999994331
 20
0.9999999999989768
 30
0.0
 11
9.236999999990758
 21
8.999999999991019
 31
0.0
1001
ACAD
1000
ASC_BOUNDS
1002
{
1070
    19
1005
19D94
1002
}
  0
LINE
  5
19D55
330
19D51
100
AcDbEntity
  8
0
100
AcDbLine
 10
18.59199999998134
 20
-0.2368999999997641
 30
0.0
 11
16.46099999998353
 21
5.432899999994561
 31
0.0
1001
ACAD
1000
ASC_BOUNDS
1002
{
1070
    19
1005
19D95
1002
}
  0
LINE
  5
19D56
330
19D51
100
AcDbEntity
  8
0
100
AcDbLine
 10
18.59199999998134
 20
-0.2368999999997641
 30
0.0
 11
22.38199999997767
 21
8.763099999991255
 31
0.0
1001
ACAD
1000
ASC_BOUNDS
1002
{
1070
    19
1005
19D95
1002
}
  0
LINE
  5
19D57
330
19D51
100
AcDbEntity
  8
0
100
AcDbLine
 10
14.32899999998563
 20
-0.2368999999997641
 30
0.0
 11
16.46099999998353
 21
5.432899999994561
 31
0.0
1001
ACAD
1000
ASC_BOUNDS
1002
{
1070
    19
1005
19D95
1002
}
  0
LINE
  5
19D58
330
19D51
100
AcDbEntity
  8
0
100
AcDbLine
 10
14.32899999998563
 20
-0.2368999999997641
 30
0.0
 11
10.53899999998941
 21
8.763099999991255
 31
0.0
1001
ACAD
1000
ASC_BOUNDS
1002
{
1070
    19
1005
19D95
1002
}
  0
LINE
  5
19D59
330
19D51
100
AcDbEntity
  8
0
100
AcDbLine
 10
19.53899999998043
 20
-0.0001000000000317
 30
0.0
 11
23.56599999997638
 21
8.999899999990987
 31
0.0
1001
ACAD
1000
ASC_BOUNDS
1002
{
1070
    19
1005
19D96
1002
}
  0
LINE
  5
19D5A
330
19D51
100
AcDbEntity
  8
0
100
AcDbLine
 10
26.97358892824991
 20
1.383099999991202
 30
0.0
 11
23.56599999997638
 21
8.999899999990987
 31
0.0
1001
ACAD
1000
ASC_BOUNDS
1002
{
1070
    19
1005
19D96
1002
}
  0
LINE
  5
19D5B
330
19D51
100
AcDbEntity
  8
0
100
AcDbLine
 10
5.657999999994331
 20
0.9999999999989768
 30
0.0
 11
3.181999999996833
 21
4.668599999995308
 31
0.0
1001
ACAD
1000
ASC_BOUNDS
1002
{
1070
    19
1005
19D94
1002
}
  0
LINE
  5
19D5C
330
19D51
100
AcDbEntity
  8
0
100
AcDbLine
 10
4.617999999995391
 20
-0.0001000000000317
 30
0.0
 11
1.420999999998571
 21
4.736799999995242
 31
0.0
1001
ACAD
1000
ASC_BOUNDS
1002
{
1070
    19
1005
19D94
1002
}
  0
LINE
  5
19D5D
330
19D51
100
AcDbEntity
  8
0
100
AcDbLine
 10
1.420999999998571
 20
8.763099999991255
 30
0.0
 11
1.420999999998571
 21
0.0
 31
0.0
1001
ACAD
1000
ASC_BOUNDS
1002
{
1070
    19
1005
19D99
1002
}
  0
LINE
  5
19D5E
330
19D51
100
AcDbEntity
  8
0
100
AcDbLine
 10
0.0
 20
8.763099999991255
 30
0.0
 11
0.0
 21
0.0
 31
0.0
1001
ACAD
1000
ASC_BOUNDS
1002
{
1070
    19
1005
19D99
1002
}
  0
LINE
  5
19D5F
330
19D51
100
AcDbEntity
  8
0
100
AcDbLine
 10
6.766999999993232
 20
-0.0001000000000317
 30
0.0
 11
7.826999999992154
 21
2.368399999997621
 31
0.0
1001
ACAD
1000
ASC_BOUNDS
1002
{
1070
    19
1005
19D94
1002
}
  0
LINE
  5
19D60
330
19D51
100
AcDbEntity
  8
0
100
AcDbLine
 10
0.0
 20
0.0
 30
0.0
 11
1.420999999998571
 21
0.0
 31
0.0
1001
ACAD
1000
ASC_BOUNDS
1002
{
1070
    19
1005
19D99
1002
}
  0
LINE
  5
19D61
330
19D51
100
AcDbEntity
  8
0
100
AcDbLine
 10
4.617999999995391
 20
0.0
 30
0.0
 11
6.766999999993232
 21
0.0
 31
0.0
1001
ACAD
1000
ASC_BOUNDS
1002
{
1070
    19
1005
19D94
1002
}
  0
LINE
  5
19D62
330
19D51
100
AcDbEntity
  8
0
100
AcDbLine
 10
11.70599999998831
 20
-0.0001000000000317
 30
0.0
 11
10.64699999998936
 21
2.368399999997621
 31
0.0
1001
ACAD
1000
ASC_BOUNDS
1002
{
1070
    19
1005
19D94
1002
}
  0
LINE
  5
19D63
330
19D51
100
AcDbEntity
  8
0
100
AcDbLine
 10
7.826999999992154
 20
2.368399999997621
 30
0.0
 11
10.64699999998936
 21
2.368399999997621
 31
0.0
1001
ACAD
1000
ASC_BOUNDS
1002
{
1070
    19
1005
19D94
1002
}
  0
LINE
  5
19D64
330
19D51
100
AcDbEntity
  8
0
100
AcDbLine
 10
11.70599999998831
 20
0.0
 30
0.0
 11
13.26299999998673
 21
0.0
 31
0.0
1001
ACAD
1000
ASC_BOUNDS
1002
{
1070
    19
1005
19D94
1002
}
  0
LINE
  5
19D65
330
19D51
100
AcDbEntity
  8
0
100
AcDbLine
 10
22.15599999997789
 20
2.368399999997621
 30
0.0
 11
24.97599999997499
 21
2.368399999997621
 31
0.0
1001
ACAD
1000
ASC_BOUNDS
1002
{
1070
    19
1005
19D96
1002
}
  0
LINE
  5
19D66
330
19D51
100
AcDbEntity
  8
0
100
AcDbLine
 10
19.53899999998043
 20
0.0
 30
0.0
 11
21.09599999997886
 21
0.0
 31
0.0
1001
ACAD
1000
ASC_BOUNDS
1002
{
1070
    19
1005
19D96
1002
}
  0
LINE
  5
19D67
330
19D51
100
AcDbEntity
  8
0
100
AcDbLine
 10
21.09599999997886
 20
-0.0001000000000317
 30
0.0
 11
22.15599999997789
 21
2.368399999997621
 31
0.0
1001
ACAD
1000
ASC_BOUNDS
1002
{
1070
    19
1005
19D96
1002
}
  0
LINE
  5
19D68
330
19D51
100
AcDbEntity
  8
0
100
AcDbLine
 10
26.02015566812236
 20
0.0330999999912365
 30
0.0
 11
24.97599999997499
 21
2.368399999997621
 31
0.0
1001
ACAD
1000
ASC_BOUNDS
1002
{
1070
    19
1005
19D96
1002
}
  0
LINE
  5
19D69
330
19D51
100
AcDbEntity
  8
0
100
AcDbLine
 10
14.32399999998563
 20
3.315799999996671
 30
0.0
 11
16.46099999998353
 21
8.999899999990987
 31
0.0
1001
ACAD
1000
ASC_BOUNDS
1002
{
1070
    19
1005
19D95
1002
}
  0
LINE
  5
19D6A
330
19D51
100
AcDbEntity
  8
0
100
AcDbLine
 10
6.432999999993513
 20
8.763099999991255
 30
0.0
 11
3.181999999996833
 21
4.668599999995308
 31
0.0
1001
ACAD
1000
ASC_BOUNDS
1002
{
1070
    19
1005
19D94
1002
}
  0
LINE
  5
19D6B
330
19D51
100
AcDbEntity
  8
0
100
AcDbLine
 10
4.617999999995391
 20
8.763099999991255
 30
0.0
 11
1.420999999998571
 21
4.736799999995242
 31
0.0
1001
ACAD
1000
ASC_BOUNDS
1002
{
1070
    19
1005
19D94
1002
}
  0
LINE
  5
19D6C
330
19D51
100
AcDbEntity
  8
0
100
AcDbLine
 10
0.0
 20
8.763099999991255
 30
0.0
 11
1.420999999998571
 21
8.763099999991255
 31
0.0
1001
ACAD
1000
ASC_BOUNDS
1002
{
1070
    19
1005
19D99
1002
}
  0
LINE
  5
19D6D
330
19D51
100
AcDbEntity
  8
0
100
AcDbLine
 10
4.617999999995391
 20
8.763099999991255
 30
0.0
 11
6.432999999993513
 21
8.763099999991255
 31
0.0
1001
ACAD
1000
ASC_BOUNDS
1002
{
1070
    19
1005
19D94
1002
}
  0
LINE
  5
19D6E
330
19D51
100
AcDbEntity
  8
0
100
AcDbLine
 10
14.32399999998563
 20
3.315799999996671
 30
0.0
 11
12.02999999998792
 21
8.763099999991255
 31
0.0
1001
ACAD
1000
ASC_BOUNDS
1002
{
1070
    19
1005
19D95
1002
}
  0
LINE
  5
19D6F
330
19D51
100
AcDbEntity
  8
0
100
AcDbLine
 10
10.06399999998996
 20
3.670999999996297
 30
0.0
 11
9.236999999990758
 21
5.5200999999945
 31
0.0
1001
ACAD
1000
ASC_BOUNDS
1002
{
1070
    19
1005
19D94
1002
}
  0
LINE
  5
19D70
330
19D51
100
AcDbEntity
  8
0
100
AcDbLine
 10
8.409999999991555
 20
3.670999999996297
 30
0.0
 11
9.236999999990758
 21
5.5200999999945
 31
0.0
1001
ACAD
1000
ASC_BOUNDS
1002
{
1070
    19
1005
19D94
1002
}
  0
LINE
  5
19D71
330
19D51
100
AcDbEntity
  8
0
100
AcDbLine
 10
8.409999999991555
 20
3.670999999996297
 30
0.0
 11
10.06399999998996
 21
3.670999999996297
 31
0.0
1001
ACAD
1000
ASC_BOUNDS
1002
{
1070
    19
1005
19D94
1002
}
  0
LINE
  5
19D72
330
19D51
100
AcDbEntity
  8
0
100
AcDbLine
 10
10.53899999998941
 20
8.763099999991255
 30
0.0
 11
12.02999999998792
 21
8.763099999991255
 31
0.0
1001
ACAD
1000
ASC_BOUNDS
1002
{
1070
    19
1005
19D95
1002
}
  0
LINE
  5
19D73
330
19D51
100
AcDbEntity
  8
0
100
AcDbLine
 10
22.7389999999773
 20
3.670999999996297
 30
0.0
 11
23.56599999997638
 21
5.5200999999945
 31
0.0
1001
ACAD
1000
ASC_BOUNDS
1002
{
1070
    19
1005
19D96
1002
}
  0
LINE
  5
19D74
330
19D51
100
AcDbEntity
  8
0
100
AcDbLine
 10
22.7389999999773
 20
3.670999999996297
 30
0.0
 11
24.39299999997559
 21
3.670999999996297
 31
0.0
1001
ACAD
1000
ASC_BOUNDS
1002
{
1070
    19
1005
19D96
1002
}
  0
LINE
  5
19D75
330
19D51
100
AcDbEntity
  8
0
100
AcDbLine
 10
18.59799999998143
 20
3.315799999996671
 30
0.0
 11
20.89099999997916
 21
8.763099999991255
 31
0.0
1001
ACAD
1000
ASC_BOUNDS
1002
{
1070
    19
1005
19D95
1002
}
  0
LINE
  5
19D76
330
19D51
100
AcDbEntity
  8
0
100
AcDbLine
 10
18.59799999998143
 20
3.315799999996671
 30
0.0
 11
16.46099999998353
 21
8.999899999990987
 31
0.0
1001
ACAD
1000
ASC_BOUNDS
1002
{
1070
    19
1005
19D95
1002
}
  0
LINE
  5
19D77
330
19D51
100
AcDbEntity
  8
0
100
AcDbLine
 10
20.89099999997916
 20
8.763099999991255
 30
0.0
 11
22.38199999997767
 21
8.763099999991255
 31
0.0
1001
ACAD
1000
ASC_BOUNDS
1002
{
1070
    19
1005
19D95
1002
}
  0
LINE
  5
19D78
330
19D51
100
AcDbEntity
  8
0
100
AcDbLine
 10
24.39299999997559
 20
3.670999999996297
 30
0.0
 11
23.56599999997638
 21
5.5200999999945
 31
0.0
1001
ACAD
1000
ASC_BOUNDS
1002
{
1070
    19
1005
19D96
1002
}
  0
LINE
  5
19D79
330
19D51
100
AcDbEntity
  8
0
100
AcDbLine
 10
44.99999999995498
 20
-0.2368999999997641
 30
0.0
 11
40.02599999995994
 21
5.341799999994635
 31
0.0
1001
ACAD
1000
ASC_BOUNDS
1002
{
1070
    19
1005
19D98
1002
}
  0
LINE
  5
19D7A
330
19D51
100
AcDbEntity
  8
0
100
AcDbLine
 10
40.02599999995994
 20
5.341799999994635
 30
0.0
 11
40.02599999995994
 21
0.0
 31
0.0
1001
ACAD
1000
ASC_BOUNDS
1002
{
1070
    19
1005
19D98
1002
}
  0
LINE
  5
19D7B
330
19D51
100
AcDbEntity
  8
0
100
AcDbLine
 10
38.60499999996136
 20
8.999999999991019
 30
0.0
 11
38.60499999996136
 21
0.0
 31
0.0
1001
ACAD
1000
ASC_BOUNDS
1002
{
1070
    19
1005
19D98
1002
}
  0
LINE
  5
19D7C
330
19D51
100
AcDbEntity
  8
0
100
AcDbLine
 10
44.99999999995498
 20
8.763099999991255
 30
0.0
 11
44.99999999995498
 21
-0.2368999999997641
 31
0.0
1001
ACAD
1000
ASC_BOUNDS
1002
{
1070
    19
1005
19D98
1002
}
  0
LINE
  5
19D7D
330
19D51
100
AcDbEntity
  8
0
100
AcDbLine
 10
38.60499999996136
 20
0.0
 30
0.0
 11
40.02599999995994
 21
0.0
 31
0.0
1001
ACAD
1000
ASC_BOUNDS
1002
{
1070
    19
1005
19D98
1002
}
  0
LINE
  5
19D7E
330
19D51
100
AcDbEntity
  8
0
100
AcDbLine
 10
43.57899999995641
 20
3.421199999996588
 30
0.0
 11
38.60499999996136
 21
8.999899999990987
 31
0.0
1001
ACAD
1000
ASC_BOUNDS
1002
{
1070
    19
1005
19D98
1002
}
  0
LINE
  5
19D7F
330
19D51
100
AcDbEntity
  8
0
100
AcDbLine
 10
43.57899999995641
 20
8.763099999991255
 30
0.0
 11
43.57899999995641
 21
3.421199999996588
 31
0.0
1001
ACAD
1000
ASC_BOUNDS
1002
{
1070
    19
1005
19D98
1002
}
  0
LINE
  5
19D80
330
19D51
100
AcDbEntity
  8
0
100
AcDbLine
 10
43.57899999995641
 20
8.763099999991255
 30
0.0
 11
44.99999999995498
 21
8.763099999991255
 31
0.0
1001
ACAD
1000
ASC_BOUNDS
1002
{
1070
    19
1005
19D98
1002
}
  0
LINE
  5
19D81
330
19D51
100
AcDbEntity
  8
0
100
AcDbLine
 10
37.67199999996831
 20
8.763099999991255
 30
0.0
 11
36.23199999996837
 21
8.763099999991255
 31
0.0
  0
LINE
  5
19D82
330
19D51
100
AcDbEntity
  8
0
100
AcDbLine
 10
31.64199999996833
 20
8.763099999991255
 30
0.0
 11
31.64199999996833
 21
2.481619422925121
 31
0.0
  0
LINE
  5
19D83
330
19D51
100
AcDbEntity
  8
0
100
AcDbLine
 10
37.67199999996831
 20
8.763099999991255
 30
0.0
 11
37.67199999996831
 21
2.481619422925121
 31
0.0
  0
LINE
  5
19D84
330
19D51
100
AcDbEntity
  8
0
100
AcDbLine
 10
36.23199999996837
 20
8.763099999991255
 30
0.0
 11
36.23199999996837
 21
2.481619422925064
 31
0.0
  0
LINE
  5
19D85
330
19D51
100
AcDbEntity
  8
0
100
AcDbLine
 10
33.08199999996839
 20
8.763099999991255
 30
0.0
 11
33.08199999996839
 21
2.481619422925121
 31
0.0
  0
ARC
  5
19D86
330
19D51
100
AcDbEntity
  8
0
100
AcDbCircle
 10
34.65699999996832
 20
3.183099999991214
 30
0.0
 40
3.420000000000007
100
AcDbArc
 50
240.0000000000255
 51
299.9999999999766
  0
ARC
  5
19D87
330
19D51
100
AcDbEntity
  8
0
100
AcDbCircle
 10
34.65699999996832
 20
3.183099999991214
 30
0.0
 40
1.97999999999999
100
AcDbArc
 50
240.000000000026
 51
299.9999999999703
  0
LINE
  5
19D88
330
19D51
100
AcDbEntity
  8
0
100
AcDbLine
 10
33.08199999996828
 20
8.763099999991255
 30
0.0
 11
31.64199999996833
 21
8.763099999991255
 31
0.0
  0
ARC
  5
19D89
330
19D51
100
AcDbEntity
  8
0
100
AcDbCircle
 10
35.06199999996829
 20
2.481619422925064
 30
0.0
 40
1.17
100
AcDbArc
 50
299.9999999999699
 51
0.0
  0
ARC
  5
19D8A
330
19D51
100
AcDbEntity
  8
0
100
AcDbCircle
 10
34.25199999996835
 20
2.481619422925121
 30
0.0
 40
1.17
100
AcDbArc
 50
180.0
 51
240.0000000000238
  0
ARC
  5
19D8B
330
19D51
100
AcDbEntity
  8
0
100
AcDbCircle
 10
35.06199999996841
 20
2.481619422925121
 30
0.0
 40
2.61
100
AcDbArc
 50
299.9999999999756
 51
0.0
  0
ARC
  5
19D8C
330
19D51
100
AcDbEntity
  8
0
100
AcDbCircle
 10
34.25199999996835
 20
2.481619422925121
 30
0.0
 40
2.61
100
AcDbArc
 50
180.0
 51
240.0000000000244
  0
LINE
  5
19D8D
330
19D51
100
AcDbEntity
  8
0
100
AcDbLine
 10
29.30199999996933
 20
8.763099999991255
 30
0.0
 11
30.74199999996927
 21
8.763099999991255
 31
0.0
1001
ACAD
1000
ASC_BOUNDS
1002
{
1070
    19
1005
19D96
1002
}
  0
LINE
  5
19D8E
330
19D51
100
AcDbEntity
  8
0
100
AcDbLine
 10
30.74199999996927
 20
8.763099999991255
 30
0.0
 11
30.74199999996927
 21
2.373099999991211
 31
0.0
1001
ACAD
1000
ASC_BOUNDS
1002
{
1070
    19
1005
19D96
1002
}
  0
LINE
  5
19D8F
330
19D51
100
AcDbEntity
  8
0
100
AcDbLine
 10
26.02015566812236
 20
0.0330999999912365
 30
0.0
 11
28.40199999996923
 21
0.0330999999912365
 31
0.0
1001
ACAD
1000
ASC_BOUNDS
1002
{
1070
    19
1005
19D96
1002
}
  0
LINE
  5
19D90
330
19D51
100
AcDbEntity
  8
0
100
AcDbLine
 10
29.30199999996933
 20
8.763099999991255
 30
0.0
 11
29.30199999996933
 21
2.283099999991236
 31
0.0
1001
ACAD
1000
ASC_BOUNDS
1002
{
1070
    19
1005
19D96
1002
}
  0
LINE
  5
19D91
330
19D51
100
AcDbEntity
  8
0
100
AcDbLine
 10
26.97358892824991
 20
1.383099999991202
 30
0.0
 11
28.40199999996923
 21
1.383099999991202
 31
0.0
1001
ACAD
1000
ASC_BOUNDS
1002
{
1070
    19
1005
19D96
1002
}
  0
ARC
  5
19D92
330
19D51
100
AcDbEntity
  8
0
100
AcDbCircle
 10
28.40199999996923
 20
2.283099999991236
 30
0.0
 40
0.9
100
AcDbArc
 50
270.0
 51
0.0
1001
ACAD
1000
ASC_BOUNDS
1002
{
1070
    19
1005
19D96
1002
}
  0
ARC
  5
19D93
330
19D51
100
AcDbEntity
  8
0
100
AcDbCircle
 10
28.40199999996923
 20
2.373099999991211
 30
0.0
 40
2.34
100
AcDbArc
 50
270.0
 51
0.0
1001
ACAD
1000
ASC_BOUNDS
1002
{
1070
    19
1005
19D96
1002
}
  0
INSERT
  5
19D94
330
19D51
100
AcDbEntity
  8
0
100
AcDbBlockReference
  2
*X156
 10
0.0
 20
0.0
 30
0.0
1001
ACAD
1000
HATCH
1002
{
1070
    19
1000
ANSI37
1040
0.15
1040
0.0
1000
ASC_BOUNDS
1070
     2
1070
     2
1070
    12
1005
19D53
1005
19D54
1005
19D5B
1005
19D6A
1005
19D6D
1005
19D6B
1005
19D5C
1005
19D61
1005
19D5F
1005
19D63
1005
19D62
1005
19D64
1070
     2
1070
     3
1005
19D6F
1005
19D71
1005
19D70
1000
ASC_SEEDPOINT
1011
3.614004224891801
1021
2.996669441146025
1031
0.0
1000
R14_HATCH_DATA
1000
19D94
1011
1.0
1021
0.0
1031
0.0
1011
0.0
1021
1.0
1031
0.0
1011
0.0
1021
0.0
1031
1.0
1040
0.0
1010
0.0
1020
0.0
1030
1.0
1000
ANSI37
1070
     0
1070
     1
1071
        2
1071
        7
1070
     0
1070
     1
1071
       17
1040
13.26299999998673
1040
-0.0001000000000317
1040
9.236999999990758
1040
8.999899999990987
1040
9.236999999990758
1040
8.999999999991019
1040
5.657999999994331
1040
0.9999999999989768
1040
3.181999999996833
1040
4.668599999995308
1040
6.432999999993513
1040
8.763099999991255
1040
4.617999999995391
1040
8.763099999991255
1040
1.420999999998571
1040
4.736799999995242
1040
4.617999999995391
1040
-0.0001000000000317
1040
4.617999999995391
1040
0.0
1040
6.766999999993232
1040
0.0
1040
6.766999999993232
1040
-0.0001000000000317
1040
7.826999999992154
1040
2.368399999997621
1040
10.64699999998936
1040
2.368399999997621
1040
11.70599999998831
1040
-0.0001000000000317
1040
11.70599999998831
1040
0.0
1040
13.26299999998673
1040
0.0
1071
       12
1005
19D53
1005
19D54
1005
19D5B
1005
19D6A
1005
19D6D
1005
19D6B
1005
19D5C
1005
19D61
1005
19D5F
1005
19D63
1005
19D62
1005
19D64
1071
       22
1070
     0
1070
     1
1071
        3
1040
9.236999999990758
1040
5.5200999999945
1040
10.06399999998996
1040
3.670999999996297
1040
8.409999999991555
1040
3.670999999996297
1071
        3
1005
19D6F
1005
19D71
1005
19D70
1070
     0
1070
     1
1040
0.0
1040
0.15
1070
     0
1070
     2
1040
0.7853981633974483
1040
49.29960901727088
1040
-10.17736998311392
1040
-0.3367596045400932
1040
0.3367596045400932
1070
     0
1040
2.356194490192345
1040
49.29960901727088
1040
-10.17736998311392
1040
-0.3367596045400932
1040
-0.3367596045400932
1070
     0
1040
0.0110235143455945
1071
        2
1040
3.614004224891801
1040
2.996669441146025
1040
0.0
1040
3.614004224891801
1040
2.996669441146025
1040
0.0
1002
}
  0
INSERT
  5
19D95
330
19D51
100
AcDbEntity
  8
0
100
AcDbBlockReference
  2
*X157
 10
0.0
 20
0.0
 30
0.0
1001
ACAD
1000
HATCH
1002
{
1070
    19
1000
ANSI37
1040
0.15
1040
0.0
1000
ASC_BOUNDS
1070
     1
1070
     2
1070
    10
1005
19D55
1005
19D56
1005
19D77
1005
19D75
1005
19D76
1005
19D69
1005
19D6E
1005
19D72
1005
19D58
1005
19D57
1000
ASC_SEEDPOINT
1011
14.73245321214324
1021
2.798246178283421
1031
0.0
1000
R14_HATCH_DATA
1000
19D95
1011
1.0
1021
0.0
1031
0.0
1011
0.0
1021
1.0
1031
0.0
1011
0.0
1021
0.0
1031
1.0
1040
0.0
1010
0.0
1020
0.0
1030
1.0
1000
ANSI37
1070
     0
1070
     1
1071
        1
1071
        7
1070
     0
1070
     1
1071
       10
1040
16.46099999998353
1040
5.432899999994561
1040
18.59199999998134
1040
-0.2368999999997641
1040
22.38199999997767
1040
8.763099999991255
1040
20.89099999997916
1040
8.763099999991255
1040
18.59799999998143
1040
3.315799999996671
1040
16.46099999998353
1040
8.999899999990987
1040
14.32399999998563
1040
3.315799999996671
1040
12.02999999998792
1040
8.763099999991255
1040
10.53899999998941
1040
8.763099999991255
1040
14.32899999998563
1040
-0.2368999999997641
1071
       10
1005
19D55
1005
19D56
1005
19D77
1005
19D75
1005
19D76
1005
19D69
1005
19D6E
1005
19D72
1005
19D58
1005
19D57
1070
     0
1070
     1
1040
0.0
1040
0.15
1070
     0
1070
     2
1040
0.7853981633974483
1040
49.29960901727088
1040
-10.17736998311392
1040
-0.3367596045400932
1040
0.3367596045400932
1070
     0
1040
2.356194490192345
1040
49.29960901727088
1040
-10.17736998311392
1040
-0.3367596045400932
1040
-0.3367596045400932
1070
     0
1040
0.0110235143455945
1071
        1
1040
14.73245321214324
1040
2.798246178283421
1040
0.0
1002
}
  0
INSERT
  5
19D96
330
19D51
100
AcDbEntity
  8
0
100
AcDbBlockReference
  2
*X158
 10
0.0
 20
0.0
 30
0.0
1001
ACAD
1000
HATCH
1002
{
1070
    19
1000
ANSI37
1040
0.15
1040
0.0
1000
ASC_BOUNDS
1070
     2
1070
     2
1070
    13
1005
19D59
1005
19D66
1005
19D67
1005
19D65
1005
19D68
1005
19D8F
1005
19D93
1005
19D8E
1005
19D8D
1005
19D90
1005
19D92
1005
19D91
1005
19D5A
1070
     2
1070
     3
1005
19D73
1005
19D78
1005
19D74
1000
ASC_SEEDPOINT
1011
21.97929957367762
1021
3.294304244259308
1031
0.0
1000
R14_HATCH_DATA
1000
19D96
1011
1.0
1021
0.0
1031
0.0
1011
0.0
1021
1.0
1031
0.0
1011
0.0
1021
0.0
1031
1.0
1040
0.0
1010
0.0
1020
0.0
1030
1.0
1000
ANSI37
1070
     0
1070
     1
1071
        2
1071
        7
1070
     1
1070
     1
1071
       15
1040
23.56599999997638
1040
8.999899999990987
1040
0.0
1040
19.53899999998043
1040
-0.0001000000000317
1040
0.0
1040
19.53899999998043
1040
0.0
1040
0.0
1040
21.09599999997886
1040
0.0
1040
0.0
1040
21.09599999997886
1040
-0.0001000000000317
1040
0.0
1040
22.15599999997789
1040
2.368399999997621
1040
0.0
1040
24.97599999997499
1040
2.368399999997621
1040
0.0
1040
26.02015566812236
1040
0.0330999999912365
1040
0.0
1040
28.40199999996923
1040
0.0330999999912365
1040
0.414213562373095
1040
30.74199999996923
1040
2.373099999991211
1040
0.0
1040
30.74199999996927
1040
8.763099999991255
1040
0.0
1040
29.30199999996933
1040
8.763099999991255
1040
0.0
1040
29.30199999996933
1040
2.283099999991236
1040
-0.414213562373095
1040
28.40199999996923
1040
1.383099999991237
1040
0.0
1040
26.97358892824991
1040
1.383099999991202
1040
0.0
1071
       13
1005
19D59
1005
19D66
1005
19D67
1005
19D65
1005
19D68
1005
19D8F
1005
19D93
1005
19D8E
1005
19D8D
1005
19D90
1005
19D92
1005
19D91
1005
19D5A
1071
       22
1070
     0
1070
     1
1071
        3
1040
22.7389999999773
1040
3.670999999996297
1040
23.56599999997638
1040
5.5200999999945
1040
24.39299999997559
1040
3.670999999996297
1071
        3
1005
19D73
1005
19D78
1005
19D74
1070
     0
1070
     1
1040
0.0
1040
0.15
1070
     0
1070
     2
1040
0.7853981633974483
1040
49.29960901727088
1040
-10.17736998311392
1040
-0.3367596045400932
1040
0.3367596045400932
1070
     0
1040
2.356194490192345
1040
49.29960901727088
1040
-10.17736998311392
1040
-0.3367596045400932
1040
-0.3367596045400932
1070
     0
1040
0.0110235143455945
1071
        2
1040
21.97929957367762
1040
3.294304244259308
1040
0.0
1040
21.97929957367762
1040
3.294304244259308
1040
0.0
1002
}
  0
INSERT
  5
19D97
330
19D51
100
AcDbEntity
  8
0
100
AcDbBlockReference
  2
*X159
 10
0.0
 20
0.0
 30
0.0
1001
ACAD
1000
HATCH
1002
{
1070
    19
1000
ANSI37
1040
0.15
1040
0.0
1000
R14_HATCH_DATA
1000
19D97
1011
1.0
1021
0.0
1031
0.0
1011
0.0
1021
1.0
1031
0.0
1011
0.0
1021
0.0
1031
1.0
1040
0.0
1010
0.0
1020
0.0
1030
1.0
1000
ANSI37
1070
     0
1070
     1
1071
        1
1071
        7
1070
     1
1070
     1
1071
       12
1040
31.64199999996833
1040
2.481619422925121
1040
0.2679491924310942
1040
32.94699999997067
1040
0.2212931190493919
1040
0.2679491924301353
1040
36.36699999995983
1040
0.2212931190459813
1040
0.2679491924321411
1040
37.67199999996831
1040
2.481619422928361
1040
0.0
1040
37.67199999996831
1040
8.763099999991255
1040
0.0
1040
36.23199999996837
1040
8.763099999991255
1040
0.0
1040
36.23199999996837
1040
2.481619422925064
1040
-0.2679491924310291
1040
35.64699999996708
1040
1.468369700498386
1040
-0.267949192430519
1040
33.66699999997093
1040
1.468369700497703
1040
-0.267949192431809
1040
33.08199999996839
1040
2.481619422926997
1040
0.0
1040
33.08199999996839
1040
8.763099999991255
1040
0.0
1040
31.64199999996833
1040
8.763099999991255
1040
0.0
1071
        0
1070
     0
1070
     1
1040
0.0
1040
0.15
1070
     0
1070
     2
1040
0.7853981633974483
1040
49.29960901727088
1040
-10.17736998311392
1040
-0.3367596045400932
1040
0.3367596045400932
1070
     0
1040
2.356194490192345
1040
49.29960901727088
1040
-10.17736998311392
1040
-0.3367596045400932
1040
-0.3367596045400932
1070
     0
1040
0.0110235143455945
1071
        1
1040
32.30357378967278
1040
3.988785755459219
1040
0.0
1002
}
  0
INSERT
  5
19D98
330
19D51
100
AcDbEntity
  8
0
100
AcDbBlockReference
  2
*X160
 10
0.0
 20
0.0
 30
0.0
1001
ACAD
1000
HATCH
1002
{
1070
    19
1000
ANSI37
1040
0.15
1040
0.0
1000
ASC_BOUNDS
1070
     1
1070
     2
1070
     8
1005
19D79
1005
19D7C
1005
19D80
1005
19D7F
1005
19D7E
1005
19D7B
1005
19D7D
1005
19D7A
1000
ASC_SEEDPOINT
1011
39.74896370716704
1021
4.484843821435049
1031
0.0
1000
R14_HATCH_DATA
1000
19D98
1011
1.0
1021
0.0
1031
0.0
1011
0.0
1021
1.0
1031
0.0
1011
0.0
1021
0.0
1031
1.0
1040
0.0
1010
0.0
1020
0.0
1030
1.0
1000
ANSI37
1070
     0
1070
     1
1071
        1
1071
        7
1070
     0
1070
     1
1071
        9
1040
40.02599999995994
1040
5.341799999994635
1040
44.99999999995498
1040
-0.2368999999997641
1040
44.99999999995498
1040
8.763099999991255
1040
43.57899999995641
1040
8.763099999991255
1040
43.57899999995641
1040
3.421199999996588
1040
38.60499999996136
1040
8.999899999990987
1040
38.60499999996136
1040
8.999999999991019
1040
38.60499999996136
1040
0.0
1040
40.02599999995994
1040
0.0
1071
        8
1005
19D79
1005
19D7C
1005
19D80
1005
19D7F
1005
19D7E
1005
19D7B
1005
19D7D
1005
19D7A
1070
     0
1070
     1
1040
0.0
1040
0.15
1070
     0
1070
     2
1040
0.7853981633974483
1040
49.29960901727088
1040
-10.17736998311392
1040
-0.3367596045400932
1040
0.3367596045400932
1070
     0
1040
2.356194490192345
1040
49.29960901727088
1040
-10.17736998311392
1040
-0.3367596045400932
1040
-0.3367596045400932
1070
     0
1040
0.0110235143455945
1071
        1
1040
39.74896370716704
1040
4.484843821435049
1040
0.0
1002
}
  0
INSERT
  5
19D99
330
19D51
100
AcDbEntity
  8
0
100
AcDbBlockReference
  2
*X161
 10
0.0
 20
0.0
 30
0.0
1001
ACAD
1000
HATCH
1002
{
1070
    19
1000
ANSI37
1040
0.15
1040
0.0
1000
ASC_BOUNDS
1070
     1
1070
     2
1070
     4
1005
19D5D
1005
19D6C
1005
19D5E
1005
19D60
1000
ASC_SEEDPOINT
1011
1.079051535452663
1021
4.148538732891836
1031
0.0
1000
R14_HATCH_DATA
1000
19D99
1011
1.0
1021
0.0
1031
0.0
1011
0.0
1021
1.0
1031
0.0
1011
0.0
1021
0.0
1031
1.0
1040
0.0
1010
0.0
1020
0.0
1030
1.0
1000
ANSI37
1070
     0
1070
     1
1071
        1
1071
        7
1070
     0
1070
     1
1071
        4
1040
1.420999999998571
1040
0.0
1040
1.420999999998571
1040
8.763099999991255
1040
0.0
1040
8.763099999991255
1040
0.0
1040
0.0
1071
        4
1005
19D5D
1005
19D6C
1005
19D5E
1005
19D60
1070
     0
1070
     1
1040
0.0
1040
0.15
1070
     0
1070
     2
1040
0.7853981633974483
1040
49.29960901727088
1040
-10.17736998311392
1040
-0.3367596045400932
1040
0.3367596045400932
1070
     0
1040
2.356194490192345
1040
49.29960901727088
1040
-10.17736998311392
1040
-0.3367596045400932
1040
-0.3367596045400932
1070
     0
1040
0.0053004257112761
1071
        1
1040
1.079051535452663
1040
4.148538732891836
1040
0.0
1002
}
  0
ENDBLK
  5
1A475
330
19D51
100
AcDbEntity
  8
0
100
AcDbBlockEnd
  0
BLOCK
  5
1B1E0
330
1B052
100
AcDbEntity
  8
0
100
AcDbBlockBegin
  2
*X156
 70
     1
 10
0.0
 20
0.0
 30
0.0
  3
*X156
  1

  0
LINE
  5
1B053
330
1B052
100
AcDbEntity
  8
0
  6
CONTINUOUS
100
AcDbLine
 10
3.418023043697893
 20
7.251849696850613
 30
0.0
 11
4.929273346838536
 21
8.763099999991255
 31
0.0
  0
LINE
  5
1B054
330
1B052
100
AcDbEntity
  8
0
  6
CONTINUOUS
100
AcDbLine
 10
1.483656411257782
 20
4.643963855330318
 30
0.0
 11
5.60279255591872
 21
8.763099999991255
 31
0.0
  0
LINE
  5
1B055
330
1B052
100
AcDbEntity
  8
0
  6
CONTINUOUS
100
AcDbLine
 10
1.755053947328235
 20
4.241842182320584
 30
0.0
 11
6.276311764998907
 21
8.763099999991255
 31
0.0
  0
LINE
  5
1B056
330
1B052
100
AcDbEntity
  8
0
  6
CONTINUOUS
100
AcDbLine
 10
2.026451483398688
 20
3.839720509310849
 30
0.0
 11
4.441040904851878
 21
6.254309930764039
 31
0.0
  0
LINE
  5
1B057
330
1B052
100
AcDbEntity
  8
0
  6
CONTINUOUS
100
AcDbLine
 10
2.297849019469139
 20
3.437598836301114
 30
0.0
 11
3.321765168359338
 21
4.461514985191313
 31
0.0
  0
LINE
  5
1B058
330
1B052
100
AcDbEntity
  8
0
  6
CONTINUOUS
100
AcDbLine
 10
2.569246555539591
 20
3.03547716329138
 30
0.0
 11
3.593163397972743
 21
4.059394005724531
 31
0.0
  0
LINE
  5
1B059
330
1B052
100
AcDbEntity
  8
0
  6
CONTINUOUS
100
AcDbLine
 10
2.840644091610043
 20
2.633355490281646
 30
0.0
 11
3.864561627586149
 21
3.657273026257751
 31
0.0
  0
LINE
  5
1B05A
330
1B052
100
AcDbEntity
  8
0
  6
CONTINUOUS
100
AcDbLine
 10
3.112041627680496
 20
2.231233817271911
 30
0.0
 11
4.135959857199554
 21
3.25515204679097
 31
0.0
  0
LINE
  5
1B05B
330
1B052
100
AcDbEntity
  8
0
  6
CONTINUOUS
100
AcDbLine
 10
3.383439163750948
 20
1.829112144262177
 30
0.0
 11
4.40735808681296
 21
2.853031067324189
 31
0.0
  0
LINE
  5
1B05C
330
1B052
100
AcDbEntity
  8
0
  6
CONTINUOUS
100
AcDbLine
 10
3.654836699821399
 20
1.426990471252442
 30
0.0
 11
4.678756316426365
 21
2.450910087857407
 31
0.0
  0
LINE
  5
1B05D
330
1B052
100
AcDbEntity
  8
0
  6
CONTINUOUS
100
AcDbLine
 10
3.926234235891853
 20
1.024868798242709
 30
0.0
 11
4.95015454603977
 21
2.048789108390626
 31
0.0
  0
LINE
  5
1B05E
330
1B052
100
AcDbEntity
  8
0
  6
CONTINUOUS
100
AcDbLine
 10
4.197631771962304
 20
0.6227471252329737
 30
0.0
 11
5.221552775653176
 21
1.646668128923846
 31
0.0
  0
LINE
  5
1B05F
330
1B052
100
AcDbEntity
  8
0
  6
CONTINUOUS
100
AcDbLine
 10
8.715877546767851
 20
7.835069736359266
 30
0.0
 11
9.435953450375058
 21
8.555145639966472
 31
0.0
  0
LINE
  5
1B060
330
1B052
100
AcDbEntity
  8
0
  6
CONTINUOUS
100
AcDbLine
 10
8.170620868422267
 20
6.616293848933497
 30
0.0
 11
9.644120833743461
 21
8.08979381425469
 31
0.0
  0
LINE
  5
1B061
330
1B052
100
AcDbEntity
  8
0
  6
CONTINUOUS
100
AcDbLine
 10
7.625364190076684
 20
5.397517961507727
 30
0.0
 11
9.852288217111864
 21
7.624441988542907
 31
0.0
  0
LINE
  5
1B062
330
1B052
100
AcDbEntity
  8
0
  6
CONTINUOUS
100
AcDbLine
 10
7.080107511731101
 20
4.178742074081957
 30
0.0
 11
10.06045560048027
 21
7.159090162831124
 31
0.0
  0
LINE
  5
1B063
330
1B052
100
AcDbEntity
  8
0
  6
CONTINUOUS
100
AcDbLine
 10
6.534850833385518
 20
2.959966186656187
 30
0.0
 11
10.26862298384867
 21
6.693738337119342
 31
0.0
  0
LINE
  5
1B064
330
1B052
100
AcDbEntity
  8
0
  6
CONTINUOUS
100
AcDbLine
 10
4.469029308032756
 20
0.2206254522232385
 30
0.0
 11
5.492951005266582
 21
1.244547149457064
 31
0.0
  0
LINE
  5
1B065
330
1B052
100
AcDbEntity
  8
0
  6
CONTINUOUS
100
AcDbLine
 10
5.989594155039935
 20
1.741190299230417
 30
0.0
 11
8.806950407233131
 21
4.558546551423613
 31
0.0
  0
LINE
  5
1B066
330
1B052
100
AcDbEntity
  8
0
  6
CONTINUOUS
100
AcDbLine
 10
9.401251593263643
 20
5.152847737454126
 30
0.0
 11
10.47679036721708
 21
6.228386511407559
 31
0.0
  0
LINE
  5
1B067
330
1B052
100
AcDbEntity
  8
0
  6
CONTINUOUS
100
AcDbLine
 10
4.921837203428691
 20
-0.0000858614610131
 30
0.0
 11
8.592923064886001
 21
3.670999999996297
 31
0.0
  0
LINE
  5
1B068
330
1B052
100
AcDbEntity
  8
0
  6
CONTINUOUS
100
AcDbLine
 10
9.609390446785305
 20
4.6874673818956
 30
0.0
 11
10.68495775058548
 21
5.763034685695775
 31
0.0
  0
LINE
  5
1B069
330
1B052
100
AcDbEntity
  8
0
  6
CONTINUOUS
100
AcDbLine
 10
5.595387755019432
 20
-0.0000545189504582
 30
0.0
 11
7.716137258923768
 21
2.120694984953879
 31
0.0
  0
LINE
  5
1B06A
330
1B052
100
AcDbEntity
  8
0
  6
CONTINUOUS
100
AcDbLine
 10
6.268938306610172
 20
-0.000023176439905
 30
0.0
 11
7.170485805526503
 21
0.9015243224764267
 31
0.0
  0
LINE
  5
1B06B
330
1B052
100
AcDbEntity
  8
0
  6
CONTINUOUS
100
AcDbLine
 10
7.963842273967511
 20
2.368399999997621
 30
0.0
 11
9.266442273966188
 21
3.670999999996297
 31
0.0
  0
LINE
  5
1B06C
330
1B052
100
AcDbEntity
  8
0
  6
CONTINUOUS
100
AcDbLine
 10
8.637361483047696
 20
2.368399999997621
 30
0.0
 11
9.939961483046375
 21
3.670999999996297
 31
0.0
  0
LINE
  5
1B06D
330
1B052
100
AcDbEntity
  8
0
  6
CONTINUOUS
100
AcDbLine
 10
9.817529300306965
 20
4.222087026337075
 30
0.0
 11
10.89312513395388
 21
5.297682859983993
 31
0.0
  0
LINE
  5
1B06E
330
1B052
100
AcDbEntity
  8
0
  6
CONTINUOUS
100
AcDbLine
 10
10.02566815382863
 20
3.756706670778549
 30
0.0
 11
11.10129251732229
 21
4.832331034272211
 31
0.0
  0
LINE
  5
1B06F
330
1B052
100
AcDbEntity
  8
0
  6
CONTINUOUS
100
AcDbLine
 10
9.310880692127883
 20
2.368399999997621
 30
0.0
 11
11.30945990069069
 21
4.366979208560428
 31
0.0
  0
LINE
  5
1B070
330
1B052
100
AcDbEntity
  8
0
  6
CONTINUOUS
100
AcDbLine
 10
9.98439990120807
 20
2.36839999999762
 30
0.0
 11
11.5176272840591
 21
3.901627382848645
 31
0.0
  0
LINE
  5
1B071
330
1B052
100
AcDbEntity
  8
0
  6
CONTINUOUS
100
AcDbLine
 10
10.65037369446246
 20
2.36085458417182
 30
0.0
 11
11.7257946674275
 21
3.436275557136862
 31
0.0
  0
LINE
  5
1B072
330
1B052
100
AcDbEntity
  8
0
  6
CONTINUOUS
100
AcDbLine
 10
10.85847197087848
 20
1.895433651507656
 30
0.0
 11
11.9339620507959
 21
2.97092373142508
 31
0.0
  0
LINE
  5
1B073
330
1B052
100
AcDbEntity
  8
0
  6
CONTINUOUS
100
AcDbLine
 10
11.0665702472945
 20
1.430012718843491
 30
0.0
 11
12.14212943416431
 21
2.505571905713296
 31
0.0
  0
LINE
  5
1B074
330
1B052
100
AcDbEntity
  8
0
  6
CONTINUOUS
100
AcDbLine
 10
11.27466852371052
 20
0.9645917861793256
 30
0.0
 11
12.35029681753271
 21
2.040220080001513
 31
0.0
  0
LINE
  5
1B075
330
1B052
100
AcDbEntity
  8
0
  6
CONTINUOUS
100
AcDbLine
 10
11.48276680012654
 20
0.4991708535151611
 30
0.0
 11
12.55846420090111
 21
1.57486825428973
 31
0.0
  0
LINE
  5
1B076
330
1B052
100
AcDbEntity
  8
0
  6
CONTINUOUS
100
AcDbLine
 10
11.69086507654257
 20
0.0337499208509957
 30
0.0
 11
12.76663158426952
 21
1.109516428577947
 31
0.0
  0
LINE
  5
1B077
330
1B052
100
AcDbEntity
  8
0
  6
CONTINUOUS
100
AcDbLine
 10
12.33057447873954
 20
-0.0000598860322123
 30
0.0
 11
12.97479896763792
 21
0.6441646028661663
 31
0.0
  0
LINE
  5
1B078
330
1B052
100
AcDbEntity
  8
0
  6
CONTINUOUS
100
AcDbLine
 10
13.00413694809395
 20
-0.0000166257579952
 30
0.0
 11
13.18296635100632
 21
0.1788127771543824
 31
0.0
  0
LINE
  5
1B079
330
1B052
100
AcDbEntity
  8
0
  6
CONTINUOUS
100
AcDbLine
 10
4.772852165289667
 20
-0.000092794222212
 30
0.0
 11
4.296495091028902
 21
0.4762642800385528
 31
0.0
  0
LINE
  5
1B07A
330
1B052
100
AcDbEntity
  8
0
  6
CONTINUOUS
100
AcDbLine
 10
5.446340034776103
 20
-0.0000614546284616
 30
0.0
 11
2.898195908335625
 21
2.548082671812017
 31
0.0
  0
LINE
  5
1B07B
330
1B052
100
AcDbEntity
  8
0
  6
CONTINUOUS
100
AcDbLine
 10
6.119827904262539
 20
-0.0000301150347113
 30
0.0
 11
1.499896725642348
 21
4.61990106358548
 31
0.0
  0
LINE
  5
1B07C
330
1B052
100
AcDbEntity
  8
0
  6
CONTINUOUS
100
AcDbLine
 10
6.775136745476159
 20
0.0181802528318542
 30
0.0
 11
5.699826040202669
 21
1.093490958105344
 31
0.0
  0
LINE
  5
1B07D
330
1B052
100
AcDbEntity
  8
0
  6
CONTINUOUS
100
AcDbLine
 10
6.983376846288489
 20
0.4834593610997118
 30
0.0
 11
5.908008617934405
 21
1.558827589453796
 31
0.0
  0
LINE
  5
1B07E
330
1B052
100
AcDbEntity
  8
0
  6
CONTINUOUS
100
AcDbLine
 10
5.377063484962296
 20
1.416253513345719
 30
0.0
 11
1.702276957014131
 21
5.091040041293883
 31
0.0
  0
LINE
  5
1B07F
330
1B052
100
AcDbEntity
  8
0
  6
CONTINUOUS
100
AcDbLine
 10
3.978745891735324
 20
3.488090315652877
 30
0.0
 11
2.000373521109399
 21
5.466462686278803
 31
0.0
  0
LINE
  5
1B080
330
1B052
100
AcDbEntity
  8
0
  6
CONTINUOUS
100
AcDbLine
 10
7.191616947100819
 20
0.948738469367568
 30
0.0
 11
6.11619119566614
 21
2.024164220802247
 31
0.0
  0
LINE
  5
1B081
330
1B052
100
AcDbEntity
  8
0
  6
CONTINUOUS
100
AcDbLine
 10
7.399857047913149
 20
1.414017577635424
 30
0.0
 11
6.324373773397875
 21
2.489500852150698
 31
0.0
  0
LINE
  5
1B082
330
1B052
100
AcDbEntity
  8
0
  6
CONTINUOUS
100
AcDbLine
 10
7.608097148725479
 20
1.879296685903281
 30
0.0
 11
6.53255635112961
 21
2.95483748349915
 31
0.0
  0
LINE
  5
1B083
330
1B052
100
AcDbEntity
  8
0
  6
CONTINUOUS
100
AcDbLine
 10
7.816337249537808
 20
2.344575794171138
 30
0.0
 11
6.740738928861345
 21
3.420174114847601
 31
0.0
  0
LINE
  5
1B084
330
1B052
100
AcDbEntity
  8
0
  6
CONTINUOUS
100
AcDbLine
 10
3.310241080789734
 20
4.830114335678653
 30
0.0
 11
2.298470085204666
 21
5.84188533126372
 31
0.0
  0
LINE
  5
1B085
330
1B052
100
AcDbEntity
  8
0
  6
CONTINUOUS
100
AcDbLine
 10
3.60832983563551
 20
5.205544789913063
 30
0.0
 11
2.596566649299935
 21
6.217307976248638
 31
0.0
  0
LINE
  5
1B086
330
1B052
100
AcDbEntity
  8
0
  6
CONTINUOUS
100
AcDbLine
 10
3.906418590481286
 20
5.580975244147473
 30
0.0
 11
2.894663213395203
 21
6.592730621233557
 31
0.0
  0
LINE
  5
1B087
330
1B052
100
AcDbEntity
  8
0
  6
CONTINUOUS
100
AcDbLine
 10
4.204507345327062
 20
5.956405698381884
 30
0.0
 11
3.192759777490472
 21
6.968153266218474
 31
0.0
  0
LINE
  5
1B088
330
1B052
100
AcDbEntity
  8
0
  6
CONTINUOUS
100
AcDbLine
 10
8.466032252791512
 20
2.368399999997621
 30
0.0
 11
6.948921506593081
 21
3.885510746196053
 31
0.0
  0
LINE
  5
1B089
330
1B052
100
AcDbEntity
  8
0
  6
CONTINUOUS
100
AcDbLine
 10
9.139551461871699
 20
2.36839999999762
 30
0.0
 11
7.157104084324816
 21
4.350847377544504
 31
0.0
  0
LINE
  5
1B08A
330
1B052
100
AcDbEntity
  8
0
  6
CONTINUOUS
100
AcDbLine
 10
4.502596100172839
 20
6.331836152616295
 30
0.0
 11
3.49085634158574
 21
7.343575911203393
 31
0.0
  0
LINE
  5
1B08B
330
1B052
100
AcDbEntity
  8
0
  6
CONTINUOUS
100
AcDbLine
 10
4.800684855018615
 20
6.707266606850705
 30
0.0
 11
3.788952905681008
 21
7.718998556188312
 31
0.0
  0
LINE
  5
1B08C
330
1B052
100
AcDbEntity
  8
0
  6
CONTINUOUS
100
AcDbLine
 10
12.18154012887317
 20
-0.0000694579236642
 30
0.0
 11
11.32140332908496
 21
0.8600673418645499
 31
0.0
  0
LINE
  5
1B08D
330
1B052
100
AcDbEntity
  8
0
  6
CONTINUOUS
100
AcDbLine
 10
12.85501608323566
 20
-0.0000262032059659
 30
0.0
 11
10.77672456435345
 21
2.078265315676246
 31
0.0
  0
LINE
  5
1B08E
330
1B052
100
AcDbEntity
  8
0
  6
CONTINUOUS
100
AcDbLine
 10
9.813070670951886
 20
2.36839999999762
 30
0.0
 11
8.51047067095321
 21
3.670999999996297
 31
0.0
  0
LINE
  5
1B08F
330
1B052
100
AcDbEntity
  8
0
  6
CONTINUOUS
100
AcDbLine
 10
10.48658988003207
 20
2.36839999999762
 30
0.0
 11
9.183989880033396
 21
3.670999999996297
 31
0.0
  0
LINE
  5
1B090
330
1B052
100
AcDbEntity
  8
0
  6
CONTINUOUS
100
AcDbLine
 10
8.441048632286794
 20
3.740422038662712
 30
0.0
 11
7.365286662056551
 21
4.816184008892956
 31
0.0
  0
LINE
  5
1B091
330
1B052
100
AcDbEntity
  8
0
  6
CONTINUOUS
100
AcDbLine
 10
8.649187485808454
 20
4.205802394221237
 30
0.0
 11
7.573469239788285
 21
5.281520640241407
 31
0.0
  0
LINE
  5
1B092
330
1B052
100
AcDbEntity
  8
0
  6
CONTINUOUS
100
AcDbLine
 10
5.098773609864391
 20
7.082697061085115
 30
0.0
 11
4.087049469776277
 21
8.09442120117323
 31
0.0
  0
LINE
  5
1B093
330
1B052
100
AcDbEntity
  8
0
  6
CONTINUOUS
100
AcDbLine
 10
5.396862364710167
 20
7.458127515319526
 30
0.0
 11
4.385146033871544
 21
8.469843846158149
 31
0.0
  0
LINE
  5
1B094
330
1B052
100
AcDbEntity
  8
0
  6
CONTINUOUS
100
AcDbLine
 10
13.04801363231285
 20
0.4804954567970334
 30
0.0
 11
9.85750908911358
 21
3.670999999996297
 31
0.0
  0
LINE
  5
1B095
330
1B052
100
AcDbEntity
  8
0
  6
CONTINUOUS
100
AcDbLine
 10
8.857326339330116
 20
4.671182749779763
 30
0.0
 11
7.781651817520021
 21
5.746857271589858
 31
0.0
  0
LINE
  5
1B096
330
1B052
100
AcDbEntity
  8
0
  6
CONTINUOUS
100
AcDbLine
 10
5.694951119555943
 20
7.833557969553937
 30
0.0
 11
4.765409089118624
 21
8.763099999991255
 31
0.0
  0
LINE
  5
1B097
330
1B052
100
AcDbEntity
  8
0
  6
CONTINUOUS
100
AcDbLine
 10
12.50286117236978
 20
1.699167125820288
 30
0.0
 11
9.68611877250287
 21
4.515909525687196
 31
0.0
  0
LINE
  5
1B098
330
1B052
100
AcDbEntity
  8
0
  6
CONTINUOUS
100
AcDbLine
 10
9.065465192851777
 20
5.136563105338288
 30
0.0
 11
7.989834395251757
 21
6.21219390293831
 31
0.0
  0
LINE
  5
1B099
330
1B052
100
AcDbEntity
  8
0
  6
CONTINUOUS
100
AcDbLine
 10
5.993039874401719
 20
8.208988423788346
 30
0.0
 11
5.43892829819881
 21
8.763099999991255
 31
0.0
  0
LINE
  5
1B09A
330
1B052
100
AcDbEntity
  8
0
  6
CONTINUOUS
100
AcDbLine
 10
11.95770871242671
 20
2.917838794843543
 30
0.0
 11
8.19801697298349
 21
6.677530534286761
 31
0.0
  0
LINE
  5
1B09B
330
1B052
100
AcDbEntity
  8
0
  6
CONTINUOUS
100
AcDbLine
 10
6.291128629247495
 20
8.584418878022756
 30
0.0
 11
6.112447507278997
 21
8.763099999991255
 31
0.0
  0
LINE
  5
1B09C
330
1B052
100
AcDbEntity
  8
0
  6
CONTINUOUS
100
AcDbLine
 10
11.41255625248364
 20
4.136510463866797
 30
0.0
 11
8.406199550715227
 21
7.142867165635211
 31
0.0
  0
LINE
  5
1B09D
330
1B052
100
AcDbEntity
  8
0
  6
CONTINUOUS
100
AcDbLine
 10
10.86740379254057
 20
5.355182132890051
 30
0.0
 11
8.614382128446962
 21
7.608203796983664
 31
0.0
  0
LINE
  5
1B09E
330
1B052
100
AcDbEntity
  8
0
  6
CONTINUOUS
100
AcDbLine
 10
10.3222513325975
 20
6.573853801913305
 30
0.0
 11
8.822564706178696
 21
8.073540428332114
 31
0.0
  0
LINE
  5
1B09F
330
1B052
100
AcDbEntity
  8
0
  6
CONTINUOUS
100
AcDbLine
 10
9.777098872654436
 20
7.792525470936562
 30
0.0
 11
9.030747283910433
 21
8.538877059680566
 31
0.0
  0
ENDBLK
  5
1B1E1
330
1B052
100
AcDbEntity
  8
0
100
AcDbBlockEnd
  0
BLOCK
  5
1B1E2
330
1B0A0
100
AcDbEntity
  8
0
100
AcDbBlockBegin
  2
*X157
 70
     1
 10
0.0
 20
0.0
 30
0.0
  3
*X157
  1

  0
LINE
  5
1B0A1
330
1B0A0
100
AcDbEntity
  8
0
  6
CONTINUOUS
100
AcDbLine
 10
10.67292308101235
 20
8.445076852443387
 30
0.0
 11
10.99094622856022
 21
8.763099999991255
 31
0.0
  0
LINE
  5
1B0A2
330
1B0A0
100
AcDbEntity
  8
0
  6
CONTINUOUS
100
AcDbLine
 10
10.87250383178748
 20
7.971138394138331
 30
0.0
 11
11.6644654376404
 21
8.763099999991255
 31
0.0
  0
LINE
  5
1B0A3
330
1B0A0
100
AcDbEntity
  8
0
  6
CONTINUOUS
100
AcDbLine
 10
11.07208458256261
 20
7.497199935833273
 30
0.0
 11
12.12126590876355
 21
8.546381262034211
 31
0.0
  0
LINE
  5
1B0A4
330
1B0A0
100
AcDbEntity
  8
0
  6
CONTINUOUS
100
AcDbLine
 10
11.27166533333774
 20
7.023261477528216
 30
0.0
 11
12.32085164573666
 21
8.072447789927136
 31
0.0
  0
LINE
  5
1B0A5
330
1B0A0
100
AcDbEntity
  8
0
  6
CONTINUOUS
100
AcDbLine
 10
11.47124608411287
 20
6.549323019223158
 30
0.0
 11
12.52043738270977
 21
7.59851431782006
 31
0.0
  0
LINE
  5
1B0A6
330
1B0A0
100
AcDbEntity
  8
0
  6
CONTINUOUS
100
AcDbLine
 10
11.670826834888
 20
6.075384560918101
 30
0.0
 11
12.72002311968288
 21
7.124580845712984
 31
0.0
  0
LINE
  5
1B0A7
330
1B0A0
100
AcDbEntity
  8
0
  6
CONTINUOUS
100
AcDbLine
 10
11.87040758566313
 20
5.601446102613043
 30
0.0
 11
12.91960885665599
 21
6.650647373605907
 31
0.0
  0
LINE
  5
1B0A8
330
1B0A0
100
AcDbEntity
  8
0
  6
CONTINUOUS
100
AcDbLine
 10
12.06998833643825
 20
5.127507644307986
 30
0.0
 11
13.1191945936291
 21
6.176713901498832
 31
0.0
  0
LINE
  5
1B0A9
330
1B0A0
100
AcDbEntity
  8
0
  6
CONTINUOUS
100
AcDbLine
 10
12.26956908721338
 20
4.65356918600293
 30
0.0
 11
13.31878033060221
 21
5.702780429391757
 31
0.0
  0
LINE
  5
1B0AA
330
1B0A0
100
AcDbEntity
  8
0
  6
CONTINUOUS
100
AcDbLine
 10
12.46914983798851
 20
4.179630727697873
 30
0.0
 11
13.51836606757532
 21
5.228846957284683
 31
0.0
  0
LINE
  5
1B0AB
330
1B0A0
100
AcDbEntity
  8
0
  6
CONTINUOUS
100
AcDbLine
 10
12.66873058876364
 20
3.705692269392816
 30
0.0
 11
13.71795180454843
 21
4.754913485177607
 31
0.0
  0
LINE
  5
1B0AC
330
1B0A0
100
AcDbEntity
  8
0
  6
CONTINUOUS
100
AcDbLine
 10
12.86831133953877
 20
3.231753811087759
 30
0.0
 11
13.91753754152154
 21
4.280980013070531
 31
0.0
  0
LINE
  5
1B0AD
330
1B0A0
100
AcDbEntity
  8
0
  6
CONTINUOUS
100
AcDbLine
 10
13.0678920903139
 20
2.757815352782702
 30
0.0
 11
14.11712327849465
 21
3.807046540963456
 31
0.0
  0
LINE
  5
1B0AE
330
1B0A0
100
AcDbEntity
  8
0
  6
CONTINUOUS
100
AcDbLine
 10
13.26747284108903
 20
2.283876894477644
 30
0.0
 11
14.31670901546777
 21
3.333113068856379
 31
0.0
  0
LINE
  5
1B0AF
330
1B0A0
100
AcDbEntity
  8
0
  6
CONTINUOUS
100
AcDbLine
 10
16.36767838827179
 20
8.751678487061342
 30
0.0
 11
16.50332410898388
 21
8.887324207773432
 31
0.0
  0
LINE
  5
1B0B0
330
1B0A0
100
AcDbEntity
  8
0
  6
CONTINUOUS
100
AcDbLine
 10
15.96190732182191
 20
7.67238821153127
 30
0.0
 11
16.68735328004734
 21
8.397834169756699
 31
0.0
  0
LINE
  5
1B0B1
330
1B0A0
100
AcDbEntity
  8
0
  6
CONTINUOUS
100
AcDbLine
 10
15.55613625537202
 20
6.593097936001196
 30
0.0
 11
16.87138245111079
 21
7.908344131739965
 31
0.0
  0
LINE
  5
1B0B2
330
1B0A0
100
AcDbEntity
  8
0
  6
CONTINUOUS
100
AcDbLine
 10
15.15036518892213
 20
5.513807660471122
 30
0.0
 11
17.05541162217424
 21
7.418854093723231
 31
0.0
  0
LINE
  5
1B0B3
330
1B0A0
100
AcDbEntity
  8
0
  6
CONTINUOUS
100
AcDbLine
 10
14.74459412247225
 20
4.434517384941048
 30
0.0
 11
17.2394407932377
 21
6.929364055706499
 31
0.0
  0
LINE
  5
1B0B4
330
1B0A0
100
AcDbEntity
  8
0
  6
CONTINUOUS
100
AcDbLine
 10
14.33882305602236
 20
3.355227109410975
 30
0.0
 11
17.42346996430115
 21
6.439874017689766
 31
0.0
  0
LINE
  5
1B0B5
330
1B0A0
100
AcDbEntity
  8
0
  6
CONTINUOUS
100
AcDbLine
 10
13.46705359186416
 20
1.809938436172586
 30
0.0
 11
16.0819338255367
 21
4.424818669845129
 31
0.0
  0
LINE
  5
1B0B6
330
1B0A0
100
AcDbEntity
  8
0
  6
CONTINUOUS
100
AcDbLine
 10
16.63283254238972
 20
4.975717386698149
 30
0.0
 11
17.60749913536461
 21
5.950383979673033
 31
0.0
  0
LINE
  5
1B0B7
330
1B0A0
100
AcDbEntity
  8
0
  6
CONTINUOUS
100
AcDbLine
 10
13.66663434263929
 20
1.335999977867529
 30
0.0
 11
15.67604797733754
 21
3.345413612565779
 31
0.0
  0
LINE
  5
1B0B8
330
1B0A0
100
AcDbEntity
  8
0
  6
CONTINUOUS
100
AcDbLine
 10
13.86621509341442
 20
0.8620615195624723
 30
0.0
 11
15.27016212913838
 21
2.26600855528643
 31
0.0
  0
LINE
  5
1B0B9
330
1B0A0
100
AcDbEntity
  8
0
  6
CONTINUOUS
100
AcDbLine
 10
16.81682257348267
 20
4.486188208710908
 30
0.0
 11
17.79152830642806
 21
5.460893941656299
 31
0.0
  0
LINE
  5
1B0BA
330
1B0A0
100
AcDbEntity
  8
0
  6
CONTINUOUS
100
AcDbLine
 10
17.00081260457561
 20
3.996659030723667
 30
0.0
 11
17.97555747749151
 21
4.971403903639565
 31
0.0
  0
LINE
  5
1B0BB
330
1B0A0
100
AcDbEntity
  8
0
  6
CONTINUOUS
100
AcDbLine
 10
20.74362343514722
 20
8.412989070375462
 30
0.0
 11
21.09373436476302
 21
8.763099999991256
 31
0.0
  0
LINE
  5
1B0BC
330
1B0A0
100
AcDbEntity
  8
0
  6
CONTINUOUS
100
AcDbLine
 10
20.25401257174777
 20
7.249858997895826
 30
0.0
 11
21.7672535738432
 21
8.763099999991255
 31
0.0
  0
LINE
  5
1B0BD
330
1B0A0
100
AcDbEntity
  8
0
  6
CONTINUOUS
100
AcDbLine
 10
14.06579584418955
 20
0.3881230612574149
 30
0.0
 11
14.86427628093921
 21
1.186603498007082
 31
0.0
  0
LINE
  5
1B0BE
330
1B0A0
100
AcDbEntity
  8
0
  6
CONTINUOUS
100
AcDbLine
 10
14.26537659496467
 20
-0.0858153970476412
 30
0.0
 11
14.45839043274005
 21
0.1071984407277329
 31
0.0
  0
LINE
  5
1B0BF
330
1B0A0
100
AcDbEntity
  8
0
  6
CONTINUOUS
100
AcDbLine
 10
17.18480263566856
 20
3.507129852736426
 30
0.0
 11
18.15958664855496
 21
4.481913865622833
 31
0.0
  0
LINE
  5
1B0C0
330
1B0A0
100
AcDbEntity
  8
0
  6
CONTINUOUS
100
AcDbLine
 10
17.3687926667615
 20
3.017600674749186
 30
0.0
 11
18.34361581961842
 21
3.9924238276061
 31
0.0
  0
LINE
  5
1B0C1
330
1B0A0
100
AcDbEntity
  8
0
  6
CONTINUOUS
100
AcDbLine
 10
19.76440170834832
 20
6.086728925416191
 30
0.0
 11
22.33924590259489
 21
8.661573119662755
 31
0.0
  0
LINE
  5
1B0C2
330
1B0A0
100
AcDbEntity
  8
0
  6
CONTINUOUS
100
AcDbLine
 10
19.27479084494887
 20
4.923598852936555
 30
0.0
 11
21.84929622842713
 21
7.498104236414807
 31
0.0
  0
LINE
  5
1B0C3
330
1B0A0
100
AcDbEntity
  8
0
  6
CONTINUOUS
100
AcDbLine
 10
17.55278269785445
 20
2.528071496761945
 30
0.0
 11
18.52764499068187
 21
3.502933789589366
 31
0.0
  0
LINE
  5
1B0C4
330
1B0A0
100
AcDbEntity
  8
0
  6
CONTINUOUS
100
AcDbLine
 10
18.78517998154942
 20
3.760468780456919
 30
0.0
 11
21.35934655425936
 21
6.33463535316686
 31
0.0
  0
LINE
  5
1B0C5
330
1B0A0
100
AcDbEntity
  8
0
  6
CONTINUOUS
100
AcDbLine
 10
17.73677272894739
 20
2.038542318774704
 30
0.0
 11
20.8693968800916
 21
5.171166469918914
 31
0.0
  0
LINE
  5
1B0C6
330
1B0A0
100
AcDbEntity
  8
0
  6
CONTINUOUS
100
AcDbLine
 10
17.92076276004034
 20
1.549013140787464
 30
0.0
 11
20.37944720592384
 21
4.007697586670968
 31
0.0
  0
LINE
  5
1B0C7
330
1B0A0
100
AcDbEntity
  8
0
  6
CONTINUOUS
100
AcDbLine
 10
18.10475279113329
 20
1.059483962800223
 30
0.0
 11
19.88949753175608
 21
2.84422870342302
 31
0.0
  0
LINE
  5
1B0C8
330
1B0A0
100
AcDbEntity
  8
0
  6
CONTINUOUS
100
AcDbLine
 10
18.28874282222623
 20
0.5699547848129822
 30
0.0
 11
19.39954785758832
 21
1.680759820175074
 31
0.0
  0
LINE
  5
1B0C9
330
1B0A0
100
AcDbEntity
  8
0
  6
CONTINUOUS
100
AcDbLine
 10
18.47273285331918
 20
0.0804256068257416
 30
0.0
 11
18.90959818342056
 21
0.517290936927127
 31
0.0
  0
LINE
  5
1B0CA
330
1B0A0
100
AcDbEntity
  8
0
  6
CONTINUOUS
100
AcDbLine
 10
14.3590401358224
 20
-0.1570118376323384
 30
0.0
 11
14.24903296539946
 21
-0.0470046672093929
 31
0.0
  0
LINE
  5
1B0CB
330
1B0A0
100
AcDbEntity
  8
0
  6
CONTINUOUS
100
AcDbLine
 10
14.54309291258661
 20
0.332454594683643
 30
0.0
 11
13.75908329123172
 21
1.116464216038529
 31
0.0
  0
LINE
  5
1B0CC
330
1B0A0
100
AcDbEntity
  8
0
  6
CONTINUOUS
100
AcDbLine
 10
14.72714568935081
 20
0.8219210269996244
 30
0.0
 11
13.26913361706399
 21
2.27993309928645
 31
0.0
  0
LINE
  5
1B0CD
330
1B0A0
100
AcDbEntity
  8
0
  6
CONTINUOUS
100
AcDbLine
 10
14.91119846611502
 20
1.311387459315606
 30
0.0
 11
12.77918394289625
 21
3.443401982534371
 31
0.0
  0
LINE
  5
1B0CE
330
1B0A0
100
AcDbEntity
  8
0
  6
CONTINUOUS
100
AcDbLine
 10
15.09525124287922
 20
1.800853891631587
 30
0.0
 11
12.28923426872852
 21
4.606870865782293
 31
0.0
  0
LINE
  5
1B0CF
330
1B0A0
100
AcDbEntity
  8
0
  6
CONTINUOUS
100
AcDbLine
 10
15.27930401964343
 20
2.290320323947569
 30
0.0
 11
11.79928459456078
 21
5.770339749030213
 31
0.0
  0
LINE
  5
1B0D0
330
1B0A0
100
AcDbEntity
  8
0
  6
CONTINUOUS
100
AcDbLine
 10
15.46335679640763
 20
2.77978675626355
 30
0.0
 11
14.48885470994921
 21
3.754288842721972
 31
0.0
  0
LINE
  5
1B0D1
330
1B0A0
100
AcDbEntity
  8
0
  6
CONTINUOUS
100
AcDbLine
 10
13.88507249233704
 20
4.358071060334137
 30
0.0
 11
11.30933492039305
 21
6.933808632278135
 31
0.0
  0
LINE
  5
1B0D2
330
1B0A0
100
AcDbEntity
  8
0
  6
CONTINUOUS
100
AcDbLine
 10
18.75840522805855
 20
0.1582575336928151
 30
0.0
 11
18.25383727664818
 21
0.6628254851031863
 31
0.0
  0
LINE
  5
1B0D3
330
1B0A0
100
AcDbEntity
  8
0
  6
CONTINUOUS
100
AcDbLine
 10
15.64740957317184
 20
3.269253188579531
 30
0.0
 11
14.67288388101266
 21
4.243778880738705
 31
0.0
  0
LINE
  5
1B0D4
330
1B0A0
100
AcDbEntity
  8
0
  6
CONTINUOUS
100
AcDbLine
 10
13.39509276772158
 20
5.521569994029786
 30
0.0
 11
10.81938524622531
 21
8.097277515526056
 31
0.0
  0
LINE
  5
1B0D5
330
1B0A0
100
AcDbEntity
  8
0
  6
CONTINUOUS
100
AcDbLine
 10
18.95798597883369
 20
0.6321959919978686
 30
0.0
 11
17.84825644852853
 21
1.741925522303024
 31
0.0
  0
LINE
  5
1B0D6
330
1B0A0
100
AcDbEntity
  8
0
  6
CONTINUOUS
100
AcDbLine
 10
19.15756672960882
 20
1.106134450302922
 30
0.0
 11
17.44267562040888
 21
2.821025559502861
 31
0.0
  0
LINE
  5
1B0D7
330
1B0A0
100
AcDbEntity
  8
0
  6
CONTINUOUS
100
AcDbLine
 10
15.83146234993604
 20
3.758719620895513
 30
0.0
 11
14.85691305207612
 21
4.733268918755439
 31
0.0
  0
LINE
  5
1B0D8
330
1B0A0
100
AcDbEntity
  8
0
  6
CONTINUOUS
100
AcDbLine
 10
16.01551512670025
 20
4.248186053211494
 30
0.0
 11
15.04094222313957
 21
5.222758956772172
 31
0.0
  0
LINE
  5
1B0D9
330
1B0A0
100
AcDbEntity
  8
0
  6
CONTINUOUS
100
AcDbLine
 10
12.90511304310612
 20
6.685068927725435
 30
0.0
 11
10.8270819708403
 21
8.763099999991255
 31
0.0
  0
LINE
  5
1B0DA
330
1B0A0
100
AcDbEntity
  8
0
  6
CONTINUOUS
100
AcDbLine
 10
12.41513331849066
 20
7.848567861421083
 30
0.0
 11
11.50060117992049
 21
8.763099999991255
 31
0.0
  0
LINE
  5
1B0DB
330
1B0A0
100
AcDbEntity
  8
0
  6
CONTINUOUS
100
AcDbLine
 10
19.35714748038395
 20
1.580072908607975
 30
0.0
 11
17.03709479228923
 21
3.900125596702697
 31
0.0
  0
LINE
  5
1B0DC
330
1B0A0
100
AcDbEntity
  8
0
  6
CONTINUOUS
100
AcDbLine
 10
19.55672823115909
 20
2.054011366913028
 30
0.0
 11
16.63151396416958
 21
4.979225633902534
 31
0.0
  0
LINE
  5
1B0DD
330
1B0A0
100
AcDbEntity
  8
0
  6
CONTINUOUS
100
AcDbLine
 10
16.19956790346445
 20
4.737652485527476
 30
0.0
 11
15.22497139420302
 21
5.712248994788904
 31
0.0
  0
LINE
  5
1B0DE
330
1B0A0
100
AcDbEntity
  8
0
  6
CONTINUOUS
100
AcDbLine
 10
16.38362068022866
 20
5.227118917843457
 30
0.0
 11
15.40900056526648
 21
6.201739032805637
 31
0.0
  0
LINE
  5
1B0DF
330
1B0A0
100
AcDbEntity
  8
0
  6
CONTINUOUS
100
AcDbLine
 10
19.75630898193422
 20
2.527949825218081
 30
0.0
 11
18.70774536448286
 21
3.576513442669441
 31
0.0
  0
LINE
  5
1B0E0
330
1B0A0
100
AcDbEntity
  8
0
  6
CONTINUOUS
100
AcDbLine
 10
19.95588973270936
 20
3.001888283523134
 30
0.0
 11
18.90726987211446
 21
4.050508144118028
 31
0.0
  0
LINE
  5
1B0E1
330
1B0A0
100
AcDbEntity
  8
0
  6
CONTINUOUS
100
AcDbLine
 10
20.15547048348449
 20
3.475826741828186
 30
0.0
 11
19.10679437974606
 21
4.524502845566614
 31
0.0
  0
LINE
  5
1B0E2
330
1B0A0
100
AcDbEntity
  8
0
  6
CONTINUOUS
100
AcDbLine
 10
20.35505123425962
 20
3.94976520013324
 30
0.0
 11
19.30631888737766
 21
4.998497547015201
 31
0.0
  0
LINE
  5
1B0E3
330
1B0A0
100
AcDbEntity
  8
0
  6
CONTINUOUS
100
AcDbLine
 10
20.55463198503475
 20
4.423703658438292
 30
0.0
 11
19.50584339500926
 21
5.472492248463787
 31
0.0
  0
LINE
  5
1B0E4
330
1B0A0
100
AcDbEntity
  8
0
  6
CONTINUOUS
100
AcDbLine
 10
18.37481191085755
 20
3.909446896294752
 30
0.0
 11
15.59302973632993
 21
6.691229070822371
 31
0.0
  0
LINE
  5
1B0E5
330
1B0A0
100
AcDbEntity
  8
0
  6
CONTINUOUS
100
AcDbLine
 10
17.96904084440766
 20
4.988737171824825
 30
0.0
 11
15.77705890739338
 21
7.180719108839104
 31
0.0
  0
LINE
  5
1B0E6
330
1B0A0
100
AcDbEntity
  8
0
  6
CONTINUOUS
100
AcDbLine
 10
17.56326977795777
 20
6.068027447354899
 30
0.0
 11
15.96108807845684
 21
7.670209146855838
 31
0.0
  0
LINE
  5
1B0E7
330
1B0A0
100
AcDbEntity
  8
0
  6
CONTINUOUS
100
AcDbLine
 10
17.15749871150789
 20
7.147317722884972
 30
0.0
 11
16.14511724952029
 21
8.15969918487257
 31
0.0
  0
LINE
  5
1B0E8
330
1B0A0
100
AcDbEntity
  8
0
  6
CONTINUOUS
100
AcDbLine
 10
16.751727645058
 20
8.226607998415046
 30
0.0
 11
16.32914642058374
 21
8.649189222889303
 31
0.0
  0
LINE
  5
1B0E9
330
1B0A0
100
AcDbEntity
  8
0
  6
CONTINUOUS
100
AcDbLine
 10
20.75421273580989
 20
4.897642116743345
 30
0.0
 11
19.70536790264086
 21
5.946486949912374
 31
0.0
  0
LINE
  5
1B0EA
330
1B0A0
100
AcDbEntity
  8
0
  6
CONTINUOUS
100
AcDbLine
 10
20.95379348658502
 20
5.371580575048398
 30
0.0
 11
19.90489241027246
 21
6.42048165136096
 31
0.0
  0
LINE
  5
1B0EB
330
1B0A0
100
AcDbEntity
  8
0
  6
CONTINUOUS
100
AcDbLine
 10
21.15337423736015
 20
5.845519033353452
 30
0.0
 11
20.10441691790406
 21
6.894476352809547
 31
0.0
  0
LINE
  5
1B0EC
330
1B0A0
100
AcDbEntity
  8
0
  6
CONTINUOUS
100
AcDbLine
 10
21.35295498813529
 20
6.319457491658505
 30
0.0
 11
20.30394142553566
 21
7.368471054258134
 31
0.0
  0
LINE
  5
1B0ED
330
1B0A0
100
AcDbEntity
  8
0
  6
CONTINUOUS
100
AcDbLine
 10
21.55253573891042
 20
6.793395949963558
 30
0.0
 11
20.50346593316726
 21
7.842465755706721
 31
0.0
  0
LINE
  5
1B0EE
330
1B0A0
100
AcDbEntity
  8
0
  6
CONTINUOUS
100
AcDbLine
 10
21.75211648968556
 20
7.267334408268612
 30
0.0
 11
20.70299044079886
 21
8.316460457155308
 31
0.0
  0
LINE
  5
1B0EF
330
1B0A0
100
AcDbEntity
  8
0
  6
CONTINUOUS
100
AcDbLine
 10
21.95169724046069
 20
7.741272866573663
 30
0.0
 11
20.9298701070431
 21
8.763099999991256
 31
0.0
  0
LINE
  5
1B0F0
330
1B0A0
100
AcDbEntity
  8
0
  6
CONTINUOUS
100
AcDbLine
 10
22.15127799123582
 20
8.215211324878716
 30
0.0
 11
21.60338931612328
 21
8.763099999991256
 31
0.0
  0
LINE
  5
1B0F1
330
1B0A0
100
AcDbEntity
  8
0
  6
CONTINUOUS
100
AcDbLine
 10
22.35085874201096
 20
8.689149783183769
 30
0.0
 11
22.27690852520347
 21
8.763099999991255
 31
0.0
  0
ENDBLK
  5
1B1E3
330
1B0A0
100
AcDbEntity
  8
0
100
AcDbBlockEnd
  0
BLOCK
  5
1B1E4
330
1B0F2
100
AcDbEntity
  8
0
100
AcDbBlockBegin
  2
*X158
 70
     1
 10
0.0
 20
0.0
 30
0.0
  3
*X158
  1

  0
LINE
  5
1B0F3
330
1B0F2
100
AcDbEntity
  8
0
  6
CONTINUOUS
100
AcDbLine
 10
23.19462913593892
 20
8.169917934846424
 30
0.0
 11
23.70775465517246
 21
8.683043454079957
 31
0.0
  0
LINE
  5
1B0F4
330
1B0F2
100
AcDbEntity
  8
0
  6
CONTINUOUS
100
AcDbLine
 10
22.64923161835078
 20
6.951001208178088
 30
0.0
 11
23.9159364069932
 21
8.217705996820516
 31
0.0
  0
LINE
  5
1B0F5
330
1B0F2
100
AcDbEntity
  8
0
  6
CONTINUOUS
100
AcDbLine
 10
22.10383410076263
 20
5.732084481509751
 30
0.0
 11
24.12411815881395
 21
7.752368539561078
 31
0.0
  0
LINE
  5
1B0F6
330
1B0F2
100
AcDbEntity
  8
0
  6
CONTINUOUS
100
AcDbLine
 10
21.55843658317447
 20
4.513167754841414
 30
0.0
 11
24.3322999106347
 21
7.287031082301639
 31
0.0
  0
LINE
  5
1B0F7
330
1B0F2
100
AcDbEntity
  8
0
  6
CONTINUOUS
100
AcDbLine
 10
21.01303906558632
 20
3.294251028173077
 30
0.0
 11
24.54048166245544
 21
6.821693625042199
 31
0.0
  0
LINE
  5
1B0F8
330
1B0F2
100
AcDbEntity
  8
0
  6
CONTINUOUS
100
AcDbLine
 10
20.46764154799817
 20
2.075334301504738
 30
0.0
 11
23.28571549467848
 21
4.89340824818505
 31
0.0
  0
LINE
  5
1B0F9
330
1B0F2
100
AcDbEntity
  8
0
  6
CONTINUOUS
100
AcDbLine
 10
19.92224403041002
 20
0.8564175748364002
 30
0.0
 11
22.74075865492779
 21
3.674932199354171
 31
0.0
  0
LINE
  5
1B0FA
330
1B0F2
100
AcDbEntity
  8
0
  6
CONTINUOUS
100
AcDbLine
 10
23.67305085490148
 20
5.280743608408048
 30
0.0
 11
24.74866341427619
 21
6.356356167782759
 31
0.0
  0
LINE
  5
1B0FB
330
1B0F2
100
AcDbEntity
  8
0
  6
CONTINUOUS
100
AcDbLine
 10
23.88118970842314
 20
4.815363252849522
 30
0.0
 11
24.95684516609694
 21
5.89101871052332
 31
0.0
  0
LINE
  5
1B0FC
330
1B0F2
100
AcDbEntity
  8
0
  6
CONTINUOUS
100
AcDbLine
 10
19.73925852647308
 20
-0.0000871381807288
 30
0.0
 11
23.4103456646501
 21
3.670999999996297
 31
0.0
  0
LINE
  5
1B0FD
330
1B0F2
100
AcDbEntity
  8
0
  6
CONTINUOUS
100
AcDbLine
 10
24.0893285619448
 20
4.349982897290997
 30
0.0
 11
25.16502691791769
 21
5.42568125326388
 31
0.0
  0
LINE
  5
1B0FE
330
1B0F2
100
AcDbEntity
  8
0
  6
CONTINUOUS
100
AcDbLine
 10
20.41282099582748
 20
-0.0000438779065108
 30
0.0
 11
21.64944178675636
 21
1.236576913022366
 31
0.0
  0
LINE
  5
1B0FF
330
1B0F2
100
AcDbEntity
  8
0
  6
CONTINUOUS
100
AcDbLine
 10
22.78126487373161
 20
2.36839999999762
 30
0.0
 11
24.08386487373029
 21
3.670999999996297
 31
0.0
  0
LINE
  5
1B100
330
1B0F2
100
AcDbEntity
  8
0
  6
CONTINUOUS
100
AcDbLine
 10
24.29746741546646
 20
3.884602541732471
 30
0.0
 11
25.37320866973843
 21
4.960343796004441
 31
0.0
  0
LINE
  5
1B101
330
1B0F2
100
AcDbEntity
  8
0
  6
CONTINUOUS
100
AcDbLine
 10
21.08638346518189
 20
-0.0000006176322938
 30
0.0
 11
21.10379033335899
 21
0.0174062505448083
 31
0.0
  0
LINE
  5
1B102
330
1B0F2
100
AcDbEntity
  8
0
  6
CONTINUOUS
100
AcDbLine
 10
23.4547840828118
 20
2.36839999999762
 30
0.0
 11
25.58139042155918
 21
4.495006338745002
 31
0.0
  0
LINE
  5
1B103
330
1B0F2
100
AcDbEntity
  8
0
  6
CONTINUOUS
100
AcDbLine
 10
29.30199999996933
 20
8.215615917155148
 30
0.0
 11
29.84948408280543
 21
8.763099999991255
 31
0.0
  0
LINE
  5
1B104
330
1B0F2
100
AcDbEntity
  8
0
  6
CONTINUOUS
100
AcDbLine
 10
24.12830329189199
 20
2.36839999999762
 30
0.0
 11
25.78957217337993
 21
4.029668881485562
 31
0.0
  0
LINE
  5
1B105
330
1B0F2
100
AcDbEntity
  8
0
  6
CONTINUOUS
100
AcDbLine
 10
29.30199999996933
 20
7.54209670807496
 30
0.0
 11
30.52300329188562
 21
8.763099999991255
 31
0.0
  0
LINE
  5
1B106
330
1B0F2
100
AcDbEntity
  8
0
  6
CONTINUOUS
100
AcDbLine
 10
24.80182250097217
 20
2.36839999999762
 30
0.0
 11
25.99775392520067
 21
3.564331424226122
 31
0.0
  0
LINE
  5
1B107
330
1B0F2
100
AcDbEntity
  8
0
  6
CONTINUOUS
100
AcDbLine
 10
29.30199999996933
 20
6.868577498994774
 30
0.0
 11
30.74199999996926
 21
8.308577498994712
 31
0.0
  0
LINE
  5
1B108
330
1B0F2
100
AcDbEntity
  8
0
  6
CONTINUOUS
100
AcDbLine
 10
25.13028238392013
 20
2.023340673865392
 30
0.0
 11
26.20593567702142
 21
3.098993966966683
 31
0.0
  0
LINE
  5
1B109
330
1B0F2
100
AcDbEntity
  8
0
  6
CONTINUOUS
100
AcDbLine
 10
25.33838066033617
 20
1.557919741201244
 30
0.0
 11
26.41411742884217
 21
2.633656509707244
 31
0.0
  0
LINE
  5
1B10A
330
1B0F2
100
AcDbEntity
  8
0
  6
CONTINUOUS
100
AcDbLine
 10
25.54647893675221
 20
1.092498808537098
 30
0.0
 11
26.62229918066291
 21
2.168319052447804
 31
0.0
  0
LINE
  5
1B10B
330
1B0F2
100
AcDbEntity
  8
0
  6
CONTINUOUS
100
AcDbLine
 10
25.75457721316825
 20
0.62707787587295
 30
0.0
 11
26.83048093248366
 21
1.702981595188365
 31
0.0
  0
LINE
  5
1B10C
330
1B0F2
100
AcDbEntity
  8
0
  6
CONTINUOUS
100
AcDbLine
 10
29.30199999996933
 20
6.195058289914587
 30
0.0
 11
30.74199999996926
 21
7.635058289914522
 31
0.0
  0
LINE
  5
1B10D
330
1B0F2
100
AcDbEntity
  8
0
  6
CONTINUOUS
100
AcDbLine
 10
29.30199999996933
 20
5.521539080834401
 30
0.0
 11
30.74199999996926
 21
6.961539080834331
 31
0.0
  0
LINE
  5
1B10E
330
1B0F2
100
AcDbEntity
  8
0
  6
CONTINUOUS
100
AcDbLine
 10
29.30199999996933
 20
4.848019871754214
 30
0.0
 11
30.74199999996925
 21
6.288019871754143
 31
0.0
  0
LINE
  5
1B10F
330
1B0F2
100
AcDbEntity
  8
0
  6
CONTINUOUS
100
AcDbLine
 10
29.30199999996933
 20
4.174500662674028
 30
0.0
 11
30.74199999996925
 21
5.614500662673953
 31
0.0
  0
LINE
  5
1B110
330
1B0F2
100
AcDbEntity
  8
0
  6
CONTINUOUS
100
AcDbLine
 10
25.96267548958429
 20
0.1616569432088024
 30
0.0
 11
27.18411854636669
 21
1.383099999991207
 31
0.0
  0
LINE
  5
1B111
330
1B0F2
100
AcDbEntity
  8
0
  6
CONTINUOUS
100
AcDbLine
 10
29.30199999996933
 20
3.500981453593841
 30
0.0
 11
30.74199999996925
 21
4.940981453593762
 31
0.0
  0
LINE
  5
1B112
330
1B0F2
100
AcDbEntity
  8
0
  6
CONTINUOUS
100
AcDbLine
 10
26.50763775544691
 20
0.0330999999912356
 30
0.0
 11
27.85763775544689
 21
1.383099999991223
 31
0.0
  0
LINE
  5
1B113
330
1B0F2
100
AcDbEntity
  8
0
  6
CONTINUOUS
100
AcDbLine
 10
29.30199999996933
 20
2.827462244513656
 30
0.0
 11
30.74199999996925
 21
4.267462244513574
 31
0.0
  0
LINE
  5
1B114
330
1B0F2
100
AcDbEntity
  8
0
  6
CONTINUOUS
100
AcDbLine
 10
27.18115696452709
 20
0.0330999999912356
 30
0.0
 11
28.55073879889363
 21
1.402681834357775
 31
0.0
  0
LINE
  5
1B115
330
1B0F2
100
AcDbEntity
  8
0
  6
CONTINUOUS
100
AcDbLine
 10
29.28241816560272
 20
2.134361201066866
 30
0.0
 11
30.74199999996924
 21
3.593943035433383
 31
0.0
  0
LINE
  5
1B116
330
1B0F2
100
AcDbEntity
  8
0
  6
CONTINUOUS
100
AcDbLine
 10
27.85467617360728
 20
0.0330999999912356
 30
0.0
 11
30.74199999996924
 21
2.920423826353195
 31
0.0
  0
LINE
  5
1B117
330
1B0F2
100
AcDbEntity
  8
0
  6
CONTINUOUS
100
AcDbLine
 10
28.53897559587887
 20
0.0438802131826428
 30
0.0
 11
30.73121978677781
 21
2.236124404081585
 31
0.0
  0
LINE
  5
1B118
330
1B0F2
100
AcDbEntity
  8
0
  6
CONTINUOUS
100
AcDbLine
 10
29.45140055588722
 20
0.2827859641107988
 30
0.0
 11
30.49231403584965
 21
1.323699444073236
 31
0.0
  0
LINE
  5
1B119
330
1B0F2
100
AcDbEntity
  8
0
  6
CONTINUOUS
100
AcDbLine
 10
19.59027867740337
 20
-0.0000967065718083
 30
0.0
 11
19.55485265190471
 21
0.035329318926844
 31
0.0
  0
LINE
  5
1B11A
330
1B0F2
100
AcDbEntity
  8
0
  6
CONTINUOUS
100
AcDbLine
 10
20.26375463176586
 20
-0.0000534518541091
 30
0.0
 11
19.76305575737534
 21
0.5006454225364014
 31
0.0
  0
LINE
  5
1B11B
330
1B0F2
100
AcDbEntity
  8
0
  6
CONTINUOUS
100
AcDbLine
 10
20.93723058612834
 20
-0.0000101971364099
 30
0.0
 11
19.97125886284597
 21
0.965961526145958
 31
0.0
  0
LINE
  5
1B11C
330
1B0F2
100
AcDbEntity
  8
0
  6
CONTINUOUS
100
AcDbLine
 10
21.25514828313686
 20
0.355591314935257
 30
0.0
 11
20.1794619683166
 21
1.431277629755512
 31
0.0
  0
LINE
  5
1B11D
330
1B0F2
100
AcDbEntity
  8
0
  6
CONTINUOUS
100
AcDbLine
 10
21.46338838394921
 20
0.8208704232030986
 30
0.0
 11
20.38766507378723
 21
1.896593733365069
 31
0.0
  0
LINE
  5
1B11E
330
1B0F2
100
AcDbEntity
  8
0
  6
CONTINUOUS
100
AcDbLine
 10
21.67162848476155
 20
1.28614953147094
 30
0.0
 11
20.59586817925786
 21
2.361909836974626
 31
0.0
  0
LINE
  5
1B11F
330
1B0F2
100
AcDbEntity
  8
0
  6
CONTINUOUS
100
AcDbLine
 10
21.8798685855739
 20
1.751428639738782
 30
0.0
 11
20.80407128472849
 21
2.827225940584183
 31
0.0
  0
LINE
  5
1B120
330
1B0F2
100
AcDbEntity
  8
0
  6
CONTINUOUS
100
AcDbLine
 10
22.08810868638624
 20
2.216707748006623
 30
0.0
 11
21.01227439019912
 21
3.292542044193739
 31
0.0
  0
LINE
  5
1B121
330
1B0F2
100
AcDbEntity
  8
0
  6
CONTINUOUS
100
AcDbLine
 10
22.60993564347543
 20
2.36839999999762
 30
0.0
 11
21.22047749566975
 21
3.757858147803296
 31
0.0
  0
LINE
  5
1B122
330
1B0F2
100
AcDbEntity
  8
0
  6
CONTINUOUS
100
AcDbLine
 10
23.28345485255561
 20
2.36839999999762
 30
0.0
 11
21.42868060114038
 21
4.223174251412853
 31
0.0
  0
LINE
  5
1B123
330
1B0F2
100
AcDbEntity
  8
0
  6
CONTINUOUS
100
AcDbLine
 10
26.29227406164219
 20
0.0330999999912356
 30
0.0
 11
25.80009199592872
 21
0.5252820657046957
 31
0.0
  0
LINE
  5
1B124
330
1B0F2
100
AcDbEntity
  8
0
  6
CONTINUOUS
100
AcDbLine
 10
23.9569740616358
 20
2.36839999999762
 30
0.0
 11
21.63688370661101
 21
4.688490355022409
 31
0.0
  0
LINE
  5
1B125
330
1B0F2
100
AcDbEntity
  8
0
  6
CONTINUOUS
100
AcDbLine
 10
26.96579327072237
 20
0.0330999999912356
 30
0.0
 11
25.2554132311971
 21
1.743480039516508
 31
0.0
  0
LINE
  5
1B126
330
1B0F2
100
AcDbEntity
  8
0
  6
CONTINUOUS
100
AcDbLine
 10
24.63049327071599
 20
2.36839999999762
 30
0.0
 11
23.32789327071731
 21
3.670999999996297
 31
0.0
  0
LINE
  5
1B127
330
1B0F2
100
AcDbEntity
  8
0
  6
CONTINUOUS
100
AcDbLine
 10
22.92098674744635
 20
4.077906523267254
 30
0.0
 11
21.84508681208164
 21
5.153806458631966
 31
0.0
  0
LINE
  5
1B128
330
1B0F2
100
AcDbEntity
  8
0
  6
CONTINUOUS
100
AcDbLine
 10
27.63931247980256
 20
0.0330999999912356
 30
0.0
 11
24.0014124797975
 21
3.670999999996297
 31
0.0
  0
LINE
  5
1B129
330
1B0F2
100
AcDbEntity
  8
0
  6
CONTINUOUS
100
AcDbLine
 10
23.129125600968
 20
4.5432868788258
 30
0.0
 11
22.05328991755227
 21
5.619122562241522
 31
0.0
  0
LINE
  5
1B12A
330
1B0F2
100
AcDbEntity
  8
0
  6
CONTINUOUS
100
AcDbLine
 10
28.31283168888275
 20
0.0330999999912356
 30
0.0
 11
24.16488385994816
 21
4.181047828925828
 31
0.0
  0
LINE
  5
1B12B
330
1B0F2
100
AcDbEntity
  8
0
  6
CONTINUOUS
100
AcDbLine
 10
23.33726445448964
 20
5.008667234384345
 30
0.0
 11
22.2614930230229
 21
6.084438665851079
 31
0.0
  0
LINE
  5
1B12C
330
1B0F2
100
AcDbEntity
  8
0
  6
CONTINUOUS
100
AcDbLine
 10
28.92085740005492
 20
0.0985934978992438
 30
0.0
 11
27.63635089796295
 21
1.383099999991217
 31
0.0
  0
LINE
  5
1B12D
330
1B0F2
100
AcDbEntity
  8
0
  6
CONTINUOUS
100
AcDbLine
 10
26.43704649509776
 20
2.582404402856405
 30
0.0
 11
23.61992702019732
 21
5.399523877756844
 31
0.0
  0
LINE
  5
1B12E
330
1B0F2
100
AcDbEntity
  8
0
  6
CONTINUOUS
100
AcDbLine
 10
23.54540330801128
 20
5.47404758994289
 30
0.0
 11
22.46969612849353
 21
6.549754769460635
 31
0.0
  0
LINE
  5
1B12F
330
1B0F2
100
AcDbEntity
  8
0
  6
CONTINUOUS
100
AcDbLine
 10
29.42225615078443
 20
0.2707139562499279
 30
0.0
 11
28.30987010704312
 21
1.383099999991234
 31
0.0
  0
LINE
  5
1B130
330
1B0F2
100
AcDbEntity
  8
0
  6
CONTINUOUS
100
AcDbLine
 10
25.89179548232307
 20
3.801174624711282
 30
0.0
 11
22.67789923396416
 21
7.015070873070191
 31
0.0
  0
LINE
  5
1B131
330
1B0F2
100
AcDbEntity
  8
0
  6
CONTINUOUS
100
AcDbLine
 10
29.83624534690007
 20
0.5302439692144705
 30
0.0
 11
28.85811781497101
 21
1.508371501143527
 31
0.0
  0
LINE
  5
1B132
330
1B0F2
100
AcDbEntity
  8
0
  6
CONTINUOUS
100
AcDbLine
 10
25.34654446954838
 20
5.01994484656616
 30
0.0
 11
22.88610233943479
 21
7.480386976679748
 31
0.0
  0
LINE
  5
1B133
330
1B0F2
100
AcDbEntity
  8
0
  6
CONTINUOUS
100
AcDbLine
 10
30.17865975401872
 20
0.8613487711760022
 30
0.0
 11
29.18888744090175
 21
1.851121084292977
 31
0.0
  0
LINE
  5
1B134
330
1B0F2
100
AcDbEntity
  8
0
  6
CONTINUOUS
100
AcDbLine
 10
24.80129345677369
 20
6.238715068421037
 30
0.0
 11
23.09430544490542
 21
7.945703080289305
 31
0.0
  0
LINE
  5
1B135
330
1B0F2
100
AcDbEntity
  8
0
  6
CONTINUOUS
100
AcDbLine
 10
30.45496647202376
 20
1.258561262251155
 30
0.0
 11
29.30199999996933
 21
2.411527734305588
 31
0.0
  0
LINE
  5
1B136
330
1B0F2
100
AcDbEntity
  8
0
  6
CONTINUOUS
100
AcDbLine
 10
24.256042443999
 20
7.457485290275915
 30
0.0
 11
23.30250855037605
 21
8.411019183898862
 31
0.0
  0
LINE
  5
1B137
330
1B0F2
100
AcDbEntity
  8
0
  6
CONTINUOUS
100
AcDbLine
 10
30.64868582078271
 20
1.738361122572387
 30
0.0
 11
29.30199999996933
 21
3.085046943385775
 31
0.0
  0
LINE
  5
1B138
330
1B0F2
100
AcDbEntity
  8
0
  6
CONTINUOUS
100
AcDbLine
 10
23.71079143122431
 20
8.676255512130794
 30
0.0
 11
23.51071165584668
 21
8.876335287508416
 31
0.0
  0
LINE
  5
1B139
330
1B0F2
100
AcDbEntity
  8
0
  6
CONTINUOUS
100
AcDbLine
 10
30.73802122914428
 20
2.322544923291007
 30
0.0
 11
29.30199999996933
 21
3.758566152465961
 31
0.0
  0
LINE
  5
1B13A
330
1B0F2
100
AcDbEntity
  8
0
  6
CONTINUOUS
100
AcDbLine
 10
30.74199999996924
 20
2.992085361546236
 30
0.0
 11
29.30199999996933
 21
4.432085361546148
 31
0.0
  0
LINE
  5
1B13B
330
1B0F2
100
AcDbEntity
  8
0
  6
CONTINUOUS
100
AcDbLine
 10
30.74199999996924
 20
3.665604570626419
 30
0.0
 11
29.30199999996933
 21
5.105604570626333
 31
0.0
  0
LINE
  5
1B13C
330
1B0F2
100
AcDbEntity
  8
0
  6
CONTINUOUS
100
AcDbLine
 10
30.74199999996925
 20
4.339123779706602
 30
0.0
 11
29.30199999996933
 21
5.77912377970652
 31
0.0
  0
LINE
  5
1B13D
330
1B0F2
100
AcDbEntity
  8
0
  6
CONTINUOUS
100
AcDbLine
 10
30.74199999996925
 20
5.012642988786785
 30
0.0
 11
29.30199999996933
 21
6.452642988786707
 31
0.0
  0
LINE
  5
1B13E
330
1B0F2
100
AcDbEntity
  8
0
  6
CONTINUOUS
100
AcDbLine
 10
30.74199999996925
 20
5.68616219786697
 30
0.0
 11
29.30199999996933
 21
7.126162197866894
 31
0.0
  0
LINE
  5
1B13F
330
1B0F2
100
AcDbEntity
  8
0
  6
CONTINUOUS
100
AcDbLine
 10
30.74199999996925
 20
6.359681406947153
 30
0.0
 11
29.30199999996933
 21
7.799681406947081
 31
0.0
  0
LINE
  5
1B140
330
1B0F2
100
AcDbEntity
  8
0
  6
CONTINUOUS
100
AcDbLine
 10
30.74199999996926
 20
7.033200616027337
 30
0.0
 11
29.30199999996933
 21
8.473200616027269
 31
0.0
  0
LINE
  5
1B141
330
1B0F2
100
AcDbEntity
  8
0
  6
CONTINUOUS
100
AcDbLine
 10
30.74199999996926
 20
7.706719825107518
 30
0.0
 11
29.68561982508552
 21
8.763099999991255
 31
0.0
  0
LINE
  5
1B142
330
1B0F2
100
AcDbEntity
  8
0
  6
CONTINUOUS
100
AcDbLine
 10
30.74199999996926
 20
8.380239034187703
 30
0.0
 11
30.35913903416571
 21
8.763099999991255
 31
0.0
  0
ENDBLK
  5
1B1E5
330
1B0F2
100
AcDbEntity
  8
0
100
AcDbBlockEnd
  0
BLOCK
  5
1B1E6
330
1B143
100
AcDbEntity
  8
0
100
AcDbBlockBegin
  2
*X159
 70
     1
 10
0.0
 20
0.0
 30
0.0
  3
*X159
  1

  0
LINE
  5
1B144
330
1B143
100
AcDbEntity
  8
0
  6
CONTINUOUS
100
AcDbLine
 10
31.64199999996833
 20
8.535058289913598
 30
0.0
 11
31.87004171004599
 21
8.763099999991255
 31
0.0
  0
LINE
  5
1B145
330
1B143
100
AcDbEntity
  8
0
  6
CONTINUOUS
100
AcDbLine
 10
31.64199999996833
 20
7.861539080833412
 30
0.0
 11
32.54356091912618
 21
8.763099999991255
 31
0.0
  0
LINE
  5
1B146
330
1B143
100
AcDbEntity
  8
0
  6
CONTINUOUS
100
AcDbLine
 10
31.64199999996833
 20
7.188019871753226
 30
0.0
 11
33.08199999996839
 21
8.628019871753281
 31
0.0
  0
LINE
  5
1B147
330
1B143
100
AcDbEntity
  8
0
  6
CONTINUOUS
100
AcDbLine
 10
31.64199999996833
 20
6.51450066267304
 30
0.0
 11
33.08199999996839
 21
7.954500662673095
 31
0.0
  0
LINE
  5
1B148
330
1B143
100
AcDbEntity
  8
0
  6
CONTINUOUS
100
AcDbLine
 10
31.64199999996833
 20
5.840981453592853
 30
0.0
 11
33.08199999996839
 21
7.280981453592908
 31
0.0
  0
LINE
  5
1B149
330
1B143
100
AcDbEntity
  8
0
  6
CONTINUOUS
100
AcDbLine
 10
31.64199999996833
 20
5.167462244512667
 30
0.0
 11
33.08199999996839
 21
6.607462244512721
 31
0.0
  0
LINE
  5
1B14A
330
1B143
100
AcDbEntity
  8
0
  6
CONTINUOUS
100
AcDbLine
 10
31.64199999996833
 20
4.493943035432481
 30
0.0
 11
33.08199999996839
 21
5.933943035432535
 31
0.0
  0
LINE
  5
1B14B
330
1B143
100
AcDbEntity
  8
0
  6
CONTINUOUS
100
AcDbLine
 10
31.64199999996833
 20
3.820423826352293
 30
0.0
 11
33.08199999996839
 21
5.260423826352348
 31
0.0
  0
LINE
  5
1B14C
330
1B143
100
AcDbEntity
  8
0
  6
CONTINUOUS
100
AcDbLine
 10
31.64199999996833
 20
3.146904617272106
 30
0.0
 11
33.08199999996839
 21
4.586904617272161
 31
0.0
  0
LINE
  5
1B14D
330
1B143
100
AcDbEntity
  8
0
  6
CONTINUOUS
100
AcDbLine
 10
36.23199999996837
 20
8.410423826352325
 30
0.0
 11
36.5846761736073
 21
8.763099999991255
 31
0.0
  0
LINE
  5
1B14E
330
1B143
100
AcDbEntity
  8
0
  6
CONTINUOUS
100
AcDbLine
 10
36.23199999996837
 20
7.73690461727214
 30
0.0
 11
37.25819538268748
 21
8.763099999991255
 31
0.0
  0
LINE
  5
1B14F
330
1B143
100
AcDbEntity
  8
0
  6
CONTINUOUS
100
AcDbLine
 10
31.64257403601376
 20
2.473959444237348
 30
0.0
 11
33.08199999996839
 21
3.913385408191974
 31
0.0
  0
LINE
  5
1B150
330
1B143
100
AcDbEntity
  8
0
  6
CONTINUOUS
100
AcDbLine
 10
36.23199999996837
 20
7.063385408191953
 30
0.0
 11
37.67199999996831
 21
8.503385408191894
 31
0.0
  0
LINE
  5
1B151
330
1B143
100
AcDbEntity
  8
0
  6
CONTINUOUS
100
AcDbLine
 10
31.72013636841932
 20
1.87800256756272
 30
0.0
 11
33.08199999996839
 21
3.239866199111788
 31
0.0
  0
LINE
  5
1B152
330
1B143
100
AcDbEntity
  8
0
  6
CONTINUOUS
100
AcDbLine
 10
36.23199999996837
 20
6.389866199111767
 30
0.0
 11
37.67199999996831
 21
7.829866199111708
 31
0.0
  0
LINE
  5
1B153
330
1B143
100
AcDbEntity
  8
0
  6
CONTINUOUS
100
AcDbLine
 10
31.89042734314753
 20
1.374774333210744
 30
0.0
 11
33.08199999996839
 21
2.566346990031601
 31
0.0
  0
LINE
  5
1B154
330
1B143
100
AcDbEntity
  8
0
  6
CONTINUOUS
100
AcDbLine
 10
36.23199999996837
 20
5.71634699003158
 30
0.0
 11
37.67199999996831
 21
7.156346990031521
 31
0.0
  0
LINE
  5
1B155
330
1B143
100
AcDbEntity
  8
0
  6
CONTINUOUS
100
AcDbLine
 10
32.14210568064475
 20
0.952933461627778
 30
0.0
 11
33.18745552475986
 21
1.998283305742888
 31
0.0
  0
LINE
  5
1B156
330
1B143
100
AcDbEntity
  8
0
  6
CONTINUOUS
100
AcDbLine
 10
36.23199999996837
 20
5.042827780951393
 30
0.0
 11
37.67199999996831
 21
6.482827780951334
 31
0.0
  0
LINE
  5
1B157
330
1B143
100
AcDbEntity
  8
0
  6
CONTINUOUS
100
AcDbLine
 10
32.45820639400955
 20
0.5955149659123915
 30
0.0
 11
33.47242681921943
 21
1.60973539112227
 31
0.0
  0
LINE
  5
1B158
330
1B143
100
AcDbEntity
  8
0
  6
CONTINUOUS
100
AcDbLine
 10
36.23199999996837
 20
4.369308571871207
 30
0.0
 11
37.67199999996831
 21
5.809308571871147
 31
0.0
  0
LINE
  5
1B159
330
1B143
100
AcDbEntity
  8
0
  6
CONTINUOUS
100
AcDbLine
 10
32.83432456621412
 20
0.2981139290367771
 30
0.0
 11
33.89722476612215
 21
1.361014128944803
 31
0.0
  0
LINE
  5
1B15A
330
1B143
100
AcDbEntity
  8
0
  6
CONTINUOUS
100
AcDbLine
 10
36.23199999996837
 20
3.69578936279102
 30
0.0
 11
37.67199999996831
 21
5.135789362790962
 31
0.0
  0
LINE
  5
1B15B
330
1B143
100
AcDbEntity
  8
0
  6
CONTINUOUS
100
AcDbLine
 10
33.2711633111245
 20
0.0614334648669672
 30
0.0
 11
34.43247338014423
 21
1.222743533886696
 31
0.0
  0
LINE
  5
1B15C
330
1B143
100
AcDbEntity
  8
0
  6
CONTINUOUS
100
AcDbLine
 10
36.23199999996837
 20
3.022270153710834
 30
0.0
 11
37.67199999996831
 21
4.462270153710775
 31
0.0
  0
LINE
  5
1B15D
330
1B143
100
AcDbEntity
  8
0
  6
CONTINUOUS
100
AcDbLine
 10
33.76515245874577
 20
-0.1180965965919523
 30
0.0
 11
35.1587445516215
 21
1.27549549628378
 31
0.0
  0
LINE
  5
1B15E
330
1B143
100
AcDbEntity
  8
0
  6
CONTINUOUS
100
AcDbLine
 10
36.21639478609585
 20
2.333145730758136
 30
0.0
 11
37.67199999996831
 21
3.788750944630588
 31
0.0
  0
LINE
  5
1B15F
330
1B143
100
AcDbEntity
  8
0
  6
CONTINUOUS
100
AcDbLine
 10
34.34060583368432
 20
-0.2161624307335863
 30
0.0
 11
37.67199999996831
 21
3.115231735550401
 31
0.0
  0
LINE
  5
1B160
330
1B143
100
AcDbEntity
  8
0
  6
CONTINUOUS
100
AcDbLine
 10
35.01698193613905
 20
-0.2133055373590427
 30
0.0
 11
37.66876712070525
 21
2.438479647207154
 31
0.0
  0
LINE
  5
1B161
330
1B143
100
AcDbEntity
  8
0
  6
CONTINUOUS
100
AcDbLine
 10
35.90743367693304
 20
0.0036269943547609
 30
0.0
 11
37.51723902192366
 21
1.613432339345381
 31
0.0
  0
LINE
  5
1B162
330
1B143
100
AcDbEntity
  8
0
  6
CONTINUOUS
100
AcDbLine
 10
32.55309425579761
 20
0.5074718966376706
 30
0.0
 11
32.27784730925847
 21
0.7827188431768102
 31
0.0
  0
LINE
  5
1B163
330
1B143
100
AcDbEntity
  8
0
  6
CONTINUOUS
100
AcDbLine
 10
33.87496468909684
 20
-0.1408793275813673
 30
0.0
 11
31.67993083278052
 21
2.054154528734943
 31
0.0
  0
LINE
  5
1B164
330
1B143
100
AcDbEntity
  8
0
  6
CONTINUOUS
100
AcDbLine
 10
34.64362813207632
 20
-0.2360235614806649
 30
0.0
 11
31.64199999996833
 21
2.765604570627322
 31
0.0
  0
LINE
  5
1B165
330
1B143
100
AcDbEntity
  8
0
  6
CONTINUOUS
100
AcDbLine
 10
35.25801106796118
 20
-0.1768872882853429
 30
0.0
 11
31.64199999996833
 21
3.439123779707508
 31
0.0
  0
LINE
  5
1B166
330
1B143
100
AcDbEntity
  8
0
  6
CONTINUOUS
100
AcDbLine
 10
35.79065650332146
 20
-0.0360135145654361
 30
0.0
 11
34.54143210838231
 21
1.213210880373721
 31
0.0
  0
LINE
  5
1B167
330
1B143
100
AcDbEntity
  8
0
  6
CONTINUOUS
100
AcDbLine
 10
33.08199999996839
 20
2.67264298878764
 30
0.0
 11
31.64199999996833
 21
4.112642988787695
 31
0.0
  0
LINE
  5
1B168
330
1B143
100
AcDbEntity
  8
0
  6
CONTINUOUS
100
AcDbLine
 10
36.25975597779143
 20
0.1684062200447833
 30
0.0
 11
35.15395110240023
 21
1.274211095435983
 31
0.0
  0
LINE
  5
1B169
330
1B143
100
AcDbEntity
  8
0
  6
CONTINUOUS
100
AcDbLine
 10
33.08199999996839
 20
3.346162197867826
 30
0.0
 11
31.64199999996833
 21
4.786162197867881
 31
0.0
  0
LINE
  5
1B16A
330
1B143
100
AcDbEntity
  8
0
  6
CONTINUOUS
100
AcDbLine
 10
36.67226329638774
 20
0.4294181105286579
 30
0.0
 11
35.63766478748767
 21
1.464016619428737
 31
0.0
  0
LINE
  5
1B16B
330
1B143
100
AcDbEntity
  8
0
  6
CONTINUOUS
100
AcDbLine
 10
33.08199999996839
 20
4.019681406948012
 30
0.0
 11
31.64199999996833
 21
5.459681406948068
 31
0.0
  0
LINE
  5
1B16C
330
1B143
100
AcDbEntity
  8
0
  6
CONTINUOUS
100
AcDbLine
 10
37.01677749710036
 20
0.7584231188962329
 30
0.0
 11
35.99563422741351
 21
1.779566388583076
 31
0.0
  0
LINE
  5
1B16D
330
1B143
100
AcDbEntity
  8
0
  6
CONTINUOUS
100
AcDbLine
 10
33.08199999996839
 20
4.693200616028199
 30
0.0
 11
31.64199999996833
 21
6.133200616028255
 31
0.0
  0
LINE
  5
1B16E
330
1B143
100
AcDbEntity
  8
0
  6
CONTINUOUS
100
AcDbLine
 10
37.29859977568887
 20
1.1501200493879
 30
0.0
 11
36.20680593341555
 21
2.241913891661226
 31
0.0
  0
LINE
  5
1B16F
330
1B143
100
AcDbEntity
  8
0
  6
CONTINUOUS
100
AcDbLine
 10
33.08199999996839
 20
5.366719825108386
 30
0.0
 11
31.64199999996833
 21
6.80671982510844
 31
0.0
  0
LINE
  5
1B170
330
1B143
100
AcDbEntity
  8
0
  6
CONTINUOUS
100
AcDbLine
 10
37.5148623517228
 20
1.607376682434161
 30
0.0
 11
36.23199999996837
 21
2.890239034188594
 31
0.0
  0
LINE
  5
1B171
330
1B143
100
AcDbEntity
  8
0
  6
CONTINUOUS
100
AcDbLine
 10
33.08199999996839
 20
6.040239034188573
 30
0.0
 11
31.64199999996833
 21
7.480239034188627
 31
0.0
  0
LINE
  5
1B172
330
1B143
100
AcDbEntity
  8
0
  6
CONTINUOUS
100
AcDbLine
 10
37.64705163358367
 20
2.148706609653477
 30
0.0
 11
36.23199999996837
 21
3.56375824326878
 31
0.0
  0
LINE
  5
1B173
330
1B143
100
AcDbEntity
  8
0
  6
CONTINUOUS
100
AcDbLine
 10
33.08199999996839
 20
6.713758243268758
 30
0.0
 11
31.64199999996833
 21
8.153758243268815
 31
0.0
  0
LINE
  5
1B174
330
1B143
100
AcDbEntity
  8
0
  6
CONTINUOUS
100
AcDbLine
 10
37.67199999996831
 20
2.797277452349026
 30
0.0
 11
36.23199999996837
 21
4.237277452348967
 31
0.0
  0
LINE
  5
1B175
330
1B143
100
AcDbEntity
  8
0
  6
CONTINUOUS
100
AcDbLine
 10
37.67199999996831
 20
3.470796661429213
 30
0.0
 11
36.23199999996837
 21
4.910796661429154
 31
0.0
  0
LINE
  5
1B176
330
1B143
100
AcDbEntity
  8
0
  6
CONTINUOUS
100
AcDbLine
 10
37.67199999996831
 20
4.144315870509399
 30
0.0
 11
36.23199999996837
 21
5.58431587050934
 31
0.0
  0
LINE
  5
1B177
330
1B143
100
AcDbEntity
  8
0
  6
CONTINUOUS
100
AcDbLine
 10
33.08199999996839
 20
7.387277452348945
 30
0.0
 11
31.70617745232608
 21
8.763099999991255
 31
0.0
  0
LINE
  5
1B178
330
1B143
100
AcDbEntity
  8
0
  6
CONTINUOUS
100
AcDbLine
 10
33.08199999996839
 20
8.060796661429132
 30
0.0
 11
32.37969666140626
 21
8.763099999991255
 31
0.0
  0
LINE
  5
1B179
330
1B143
100
AcDbEntity
  8
0
  6
CONTINUOUS
100
AcDbLine
 10
33.08199999996839
 20
8.734315870509318
 30
0.0
 11
33.05321587048645
 21
8.763099999991255
 31
0.0
  0
LINE
  5
1B17A
330
1B143
100
AcDbEntity
  8
0
  6
CONTINUOUS
100
AcDbLine
 10
37.67199999996831
 20
4.817835079589585
 30
0.0
 11
36.23199999996837
 21
6.257835079589526
 31
0.0
  0
LINE
  5
1B17B
330
1B143
100
AcDbEntity
  8
0
  6
CONTINUOUS
100
AcDbLine
 10
37.67199999996831
 20
5.491354288669771
 30
0.0
 11
36.23199999996837
 21
6.931354288669713
 31
0.0
  0
LINE
  5
1B17C
330
1B143
100
AcDbEntity
  8
0
  6
CONTINUOUS
100
AcDbLine
 10
37.67199999996831
 20
6.164873497749958
 30
0.0
 11
36.23199999996837
 21
7.6048734977499
 31
0.0
  0
LINE
  5
1B17D
330
1B143
100
AcDbEntity
  8
0
  6
CONTINUOUS
100
AcDbLine
 10
37.67199999996831
 20
6.838392706830144
 30
0.0
 11
36.23199999996837
 21
8.278392706830086
 31
0.0
  0
LINE
  5
1B17E
330
1B143
100
AcDbEntity
  8
0
  6
CONTINUOUS
100
AcDbLine
 10
37.67199999996831
 20
7.511911915910332
 30
0.0
 11
36.42081191588738
 21
8.763099999991255
 31
0.0
  0
LINE
  5
1B17F
330
1B143
100
AcDbEntity
  8
0
  6
CONTINUOUS
100
AcDbLine
 10
37.67199999996831
 20
8.185431124990519
 30
0.0
 11
37.09433112496757
 21
8.763099999991255
 31
0.0
  0
ENDBLK
  5
1B1E7
330
1B143
100
AcDbEntity
  8
0
100
AcDbBlockEnd
  0
BLOCK
  5
1B1E8
330
1B180
100
AcDbEntity
  8
0
100
AcDbBlockBegin
  2
*X160
 70
     1
 10
0.0
 20
0.0
 30
0.0
  3
*X160
  1

  0
LINE
  5
1B181
330
1B180
100
AcDbEntity
  8
0
  6
CONTINUOUS
100
AcDbLine
 10
38.60499999996136
 20
8.762866199104765
 30
0.0
 11
38.71672554182345
 21
8.874591740966855
 31
0.0
  0
LINE
  5
1B182
330
1B180
100
AcDbEntity
  8
0
  6
CONTINUOUS
100
AcDbLine
 10
38.60499999996136
 20
8.089346990024577
 30
0.0
 11
39.03418785440363
 21
8.518534844466847
 31
0.0
  0
LINE
  5
1B183
330
1B180
100
AcDbEntity
  8
0
  6
CONTINUOUS
100
AcDbLine
 10
38.60499999996136
 20
7.41582778094439
 30
0.0
 11
39.35165016698382
 21
8.16247794796684
 31
0.0
  0
LINE
  5
1B184
330
1B180
100
AcDbEntity
  8
0
  6
CONTINUOUS
100
AcDbLine
 10
38.60499999996136
 20
6.742308571864204
 30
0.0
 11
39.66911247956399
 21
7.806421051466834
 31
0.0
  0
LINE
  5
1B185
330
1B180
100
AcDbEntity
  8
0
  6
CONTINUOUS
100
AcDbLine
 10
38.60499999996136
 20
6.068789362784018
 30
0.0
 11
39.98657479214418
 21
7.450364154966827
 31
0.0
  0
LINE
  5
1B186
330
1B180
100
AcDbEntity
  8
0
  6
CONTINUOUS
100
AcDbLine
 10
38.60499999996136
 20
5.395270153703832
 30
0.0
 11
40.30403710472435
 21
7.09430725846682
 31
0.0
  0
LINE
  5
1B187
330
1B180
100
AcDbEntity
  8
0
  6
CONTINUOUS
100
AcDbLine
 10
38.60499999996136
 20
4.721750944623645
 30
0.0
 11
40.62149941730453
 21
6.738250361966813
 31
0.0
  0
LINE
  5
1B188
330
1B180
100
AcDbEntity
  8
0
  6
CONTINUOUS
100
AcDbLine
 10
38.60499999996136
 20
4.048231735543458
 30
0.0
 11
40.93896172988471
 21
6.382193465466806
 31
0.0
  0
LINE
  5
1B189
330
1B180
100
AcDbEntity
  8
0
  6
CONTINUOUS
100
AcDbLine
 10
38.60499999996136
 20
3.374712526463272
 30
0.0
 11
40.02599999995994
 21
4.795712526461843
 31
0.0
  0
LINE
  5
1B18A
330
1B180
100
AcDbEntity
  8
0
  6
CONTINUOUS
100
AcDbLine
 10
38.60499999996136
 20
2.701193317383085
 30
0.0
 11
40.02599999995994
 21
4.122193317381657
 31
0.0
  0
LINE
  5
1B18B
330
1B180
100
AcDbEntity
  8
0
  6
CONTINUOUS
100
AcDbLine
 10
40.28339754687704
 20
5.053110073378947
 30
0.0
 11
41.25642404246489
 21
6.026136568966799
 31
0.0
  0
LINE
  5
1B18C
330
1B180
100
AcDbEntity
  8
0
  6
CONTINUOUS
100
AcDbLine
 10
40.60085985945722
 20
4.697053176878939
 30
0.0
 11
41.57388635504507
 21
5.670079672466793
 31
0.0
  0
LINE
  5
1B18D
330
1B180
100
AcDbEntity
  8
0
  6
CONTINUOUS
100
AcDbLine
 10
43.57899999995641
 20
8.348712526458318
 30
0.0
 11
43.99338747348935
 21
8.763099999991255
 31
0.0
  0
LINE
  5
1B18E
330
1B180
100
AcDbEntity
  8
0
  6
CONTINUOUS
100
AcDbLine
 10
43.57899999995641
 20
7.675193317378131
 30
0.0
 11
44.66690668256953
 21
8.763099999991255
 31
0.0
  0
LINE
  5
1B18F
330
1B180
100
AcDbEntity
  8
0
  6
CONTINUOUS
100
AcDbLine
 10
38.60499999996136
 20
2.027674108302898
 30
0.0
 11
40.02599999995994
 21
3.44867410830147
 31
0.0
  0
LINE
  5
1B190
330
1B180
100
AcDbEntity
  8
0
  6
CONTINUOUS
100
AcDbLine
 10
38.60499999996136
 20
1.354154899222712
 30
0.0
 11
40.02599999995994
 21
2.775154899221284
 31
0.0
  0
LINE
  5
1B191
330
1B180
100
AcDbEntity
  8
0
  6
CONTINUOUS
100
AcDbLine
 10
38.60499999996136
 20
0.6806356901425255
 30
0.0
 11
40.02599999995994
 21
2.101635690141098
 31
0.0
  0
LINE
  5
1B192
330
1B180
100
AcDbEntity
  8
0
  6
CONTINUOUS
100
AcDbLine
 10
38.60499999996136
 20
0.0071164810623383
 30
0.0
 11
40.02599999995994
 21
1.428116481060911
 31
0.0
  0
LINE
  5
1B193
330
1B180
100
AcDbEntity
  8
0
  6
CONTINUOUS
100
AcDbLine
 10
40.9183221720374
 20
4.340996280378933
 30
0.0
 11
41.89134866762525
 21
5.314022775966786
 31
0.0
  0
LINE
  5
1B194
330
1B180
100
AcDbEntity
  8
0
  6
CONTINUOUS
100
AcDbLine
 10
41.23578448461758
 20
3.984939383878926
 30
0.0
 11
42.20881098020543
 21
4.957965879466778
 31
0.0
  0
LINE
  5
1B195
330
1B180
100
AcDbEntity
  8
0
  6
CONTINUOUS
100
AcDbLine
 10
41.55324679719776
 20
3.628882487378919
 30
0.0
 11
42.52627329278561
 21
4.601908982966772
 31
0.0
  0
LINE
  5
1B196
330
1B180
100
AcDbEntity
  8
0
  6
CONTINUOUS
100
AcDbLine
 10
41.87070910977793
 20
3.272825590878912
 30
0.0
 11
42.84373560536579
 21
4.245852086466765
 31
0.0
  0
LINE
  5
1B197
330
1B180
100
AcDbEntity
  8
0
  6
CONTINUOUS
100
AcDbLine
 10
43.57899999995641
 20
7.001674108297943
 30
0.0
 11
44.99999999995498
 21
8.422674108296516
 31
0.0
  0
LINE
  5
1B198
330
1B180
100
AcDbEntity
  8
0
  6
CONTINUOUS
100
AcDbLine
 10
43.57899999995641
 20
6.328154899217758
 30
0.0
 11
44.99999999995498
 21
7.749154899216329
 31
0.0
  0
LINE
  5
1B199
330
1B180
100
AcDbEntity
  8
0
  6
CONTINUOUS
100
AcDbLine
 10
43.57899999995641
 20
5.654635690137571
 30
0.0
 11
44.99999999995498
 21
7.075635690136142
 31
0.0
  0
LINE
  5
1B19A
330
1B180
100
AcDbEntity
  8
0
  6
CONTINUOUS
100
AcDbLine
 10
43.57899999995641
 20
4.981116481057384
 30
0.0
 11
44.99999999995498
 21
6.402116481055955
 31
0.0
  0
LINE
  5
1B19B
330
1B180
100
AcDbEntity
  8
0
  6
CONTINUOUS
100
AcDbLine
 10
39.27140272797921
 20
-0.0000000000000009
 30
0.0
 11
40.02599999995994
 21
0.7545972719807246
 31
0.0
  0
LINE
  5
1B19C
330
1B180
100
AcDbEntity
  8
0
  6
CONTINUOUS
100
AcDbLine
 10
39.9449219370594
 20
-0.0000000000000009
 30
0.0
 11
40.02599999995994
 21
0.0810780629005379
 31
0.0
  0
LINE
  5
1B19D
330
1B180
100
AcDbEntity
  8
0
  6
CONTINUOUS
100
AcDbLine
 10
42.18817142235812
 20
2.916768694378905
 30
0.0
 11
43.16119791794597
 21
3.889795189966758
 31
0.0
  0
LINE
  5
1B19E
330
1B180
100
AcDbEntity
  8
0
  6
CONTINUOUS
100
AcDbLine
 10
42.50563373493829
 20
2.560711797878898
 30
0.0
 11
43.47866023052615
 21
3.533738293466751
 31
0.0
  0
LINE
  5
1B19F
330
1B180
100
AcDbEntity
  8
0
  6
CONTINUOUS
100
AcDbLine
 10
43.57899999995641
 20
4.307597271977198
 30
0.0
 11
44.99999999995498
 21
5.728597271975769
 31
0.0
  0
LINE
  5
1B1A0
330
1B180
100
AcDbEntity
  8
0
  6
CONTINUOUS
100
AcDbLine
 10
43.57899999995641
 20
3.634078062897011
 30
0.0
 11
44.99999999995498
 21
5.055078062895582
 31
0.0
  0
LINE
  5
1B1A1
330
1B180
100
AcDbEntity
  8
0
  6
CONTINUOUS
100
AcDbLine
 10
42.82309604751848
 20
2.204654901378891
 30
0.0
 11
44.99999999995498
 21
4.381558853815395
 31
0.0
  0
LINE
  5
1B1A2
330
1B180
100
AcDbEntity
  8
0
  6
CONTINUOUS
100
AcDbLine
 10
43.14055836009865
 20
1.848598004878885
 30
0.0
 11
44.99999999995498
 21
3.70803964473521
 31
0.0
  0
LINE
  5
1B1A3
330
1B180
100
AcDbEntity
  8
0
  6
CONTINUOUS
100
AcDbLine
 10
43.45802067267883
 20
1.492541108378878
 30
0.0
 11
44.99999999995498
 21
3.034520435655023
 31
0.0
  0
LINE
  5
1B1A4
330
1B180
100
AcDbEntity
  8
0
  6
CONTINUOUS
100
AcDbLine
 10
43.77548298525902
 20
1.136484211878871
 30
0.0
 11
44.99999999995498
 21
2.361001226574837
 31
0.0
  0
LINE
  5
1B1A5
330
1B180
100
AcDbEntity
  8
0
  6
CONTINUOUS
100
AcDbLine
 10
44.09294529783919
 20
0.7804273153788639
 30
0.0
 11
44.99999999995498
 21
1.687482017494649
 31
0.0
  0
LINE
  5
1B1A6
330
1B180
100
AcDbEntity
  8
0
  6
CONTINUOUS
100
AcDbLine
 10
44.41040761041938
 20
0.4243704188788566
 30
0.0
 11
44.99999999995498
 21
1.013962808414463
 31
0.0
  0
LINE
  5
1B1A7
330
1B180
100
AcDbEntity
  8
0
  6
CONTINUOUS
100
AcDbLine
 10
44.72786992299955
 20
0.0683135223788494
 30
0.0
 11
44.99999999995498
 21
0.340443599334276
 31
0.0
  0
LINE
  5
1B1A8
330
1B180
100
AcDbEntity
  8
0
  6
CONTINUOUS
100
AcDbLine
 10
39.12223903415696
 20
-0.0000000000000009
 30
0.0
 11
38.60499999996136
 21
0.5172390341955961
 31
0.0
  0
LINE
  5
1B1A9
330
1B180
100
AcDbEntity
  8
0
  6
CONTINUOUS
100
AcDbLine
 10
39.79575824323715
 20
-0.0000000000000009
 30
0.0
 11
38.60499999996136
 21
1.190758243275783
 31
0.0
  0
LINE
  5
1B1AA
330
1B180
100
AcDbEntity
  8
0
  6
CONTINUOUS
100
AcDbLine
 10
40.02599999995994
 20
0.443277452357397
 30
0.0
 11
38.60499999996136
 21
1.864277452355969
 31
0.0
  0
LINE
  5
1B1AB
330
1B180
100
AcDbEntity
  8
0
  6
CONTINUOUS
100
AcDbLine
 10
40.02599999995994
 20
1.116796661437583
 30
0.0
 11
38.60499999996136
 21
2.537796661436155
 31
0.0
  0
LINE
  5
1B1AC
330
1B180
100
AcDbEntity
  8
0
  6
CONTINUOUS
100
AcDbLine
 10
40.02599999995994
 20
1.79031587051777
 30
0.0
 11
38.60499999996136
 21
3.211315870516341
 31
0.0
  0
LINE
  5
1B1AD
330
1B180
100
AcDbEntity
  8
0
  6
CONTINUOUS
100
AcDbLine
 10
40.02599999995994
 20
2.463835079597956
 30
0.0
 11
38.60499999996136
 21
3.884835079596527
 31
0.0
  0
LINE
  5
1B1AE
330
1B180
100
AcDbEntity
  8
0
  6
CONTINUOUS
100
AcDbLine
 10
40.02599999995994
 20
3.137354288678143
 30
0.0
 11
38.60499999996136
 21
4.558354288676714
 31
0.0
  0
LINE
  5
1B1AF
330
1B180
100
AcDbEntity
  8
0
  6
CONTINUOUS
100
AcDbLine
 10
40.02599999995994
 20
3.810873497758329
 30
0.0
 11
38.60499999996136
 21
5.2318734977569
 31
0.0
  0
LINE
  5
1B1B0
330
1B180
100
AcDbEntity
  8
0
  6
CONTINUOUS
100
AcDbLine
 10
40.02599999995994
 20
4.484392706838515
 30
0.0
 11
38.60499999996136
 21
5.905392706837086
 31
0.0
  0
LINE
  5
1B1B1
330
1B180
100
AcDbEntity
  8
0
  6
CONTINUOUS
100
AcDbLine
 10
44.99999999995498
 20
0.183911915923658
 30
0.0
 11
41.53858364506288
 21
3.64532827081576
 31
0.0
  0
LINE
  5
1B1B2
330
1B180
100
AcDbEntity
  8
0
  6
CONTINUOUS
100
AcDbLine
 10
40.02599999995994
 20
5.157911915918703
 30
0.0
 11
38.60499999996136
 21
6.578911915917274
 31
0.0
  0
LINE
  5
1B1B3
330
1B180
100
AcDbEntity
  8
0
  6
CONTINUOUS
100
AcDbLine
 10
44.99999999995498
 20
0.8574311250038447
 30
0.0
 11
38.60499999996136
 21
7.25243112499746
 31
0.0
  0
LINE
  5
1B1B4
330
1B180
100
AcDbEntity
  8
0
  6
CONTINUOUS
100
AcDbLine
 10
44.99999999995498
 20
1.530950334084031
 30
0.0
 11
38.60499999996136
 21
7.925950334077647
 31
0.0
  0
LINE
  5
1B1B5
330
1B180
100
AcDbEntity
  8
0
  6
CONTINUOUS
100
AcDbLine
 10
44.99999999995498
 20
2.204469543164218
 30
0.0
 11
43.57899999995641
 21
3.625469543162789
 31
0.0
  0
LINE
  5
1B1B6
330
1B180
100
AcDbEntity
  8
0
  6
CONTINUOUS
100
AcDbLine
 10
41.89876730984767
 20
5.305702233271528
 30
0.0
 11
38.60499999996136
 21
8.599469543157834
 31
0.0
  0
LINE
  5
1B1B7
330
1B180
100
AcDbEntity
  8
0
  6
CONTINUOUS
100
AcDbLine
 10
44.99999999995498
 20
2.877988752244405
 30
0.0
 11
43.57899999995641
 21
4.298988752242975
 31
0.0
  0
LINE
  5
1B1B8
330
1B180
100
AcDbEntity
  8
0
  6
CONTINUOUS
100
AcDbLine
 10
44.99999999995498
 20
3.551507961324591
 30
0.0
 11
43.57899999995641
 21
4.972507961323163
 31
0.0
  0
LINE
  5
1B1B9
330
1B180
100
AcDbEntity
  8
0
  6
CONTINUOUS
100
AcDbLine
 10
44.99999999995498
 20
4.225027170404777
 30
0.0
 11
43.57899999995641
 21
5.646027170403348
 31
0.0
  0
LINE
  5
1B1BA
330
1B180
100
AcDbEntity
  8
0
  6
CONTINUOUS
100
AcDbLine
 10
44.99999999995498
 20
4.898546379484964
 30
0.0
 11
43.57899999995641
 21
6.319546379483535
 31
0.0
  0
LINE
  5
1B1BB
330
1B180
100
AcDbEntity
  8
0
  6
CONTINUOUS
100
AcDbLine
 10
44.99999999995498
 20
5.572065588565151
 30
0.0
 11
43.57899999995641
 21
6.993065588563722
 31
0.0
  0
LINE
  5
1B1BC
330
1B180
100
AcDbEntity
  8
0
  6
CONTINUOUS
100
AcDbLine
 10
44.99999999995498
 20
6.245584797645336
 30
0.0
 11
43.57899999995641
 21
7.666584797643908
 31
0.0
  0
LINE
  5
1B1BD
330
1B180
100
AcDbEntity
  8
0
  6
CONTINUOUS
100
AcDbLine
 10
44.99999999995498
 20
6.919104006725522
 30
0.0
 11
43.57899999995641
 21
8.340104006724093
 31
0.0
  0
LINE
  5
1B1BE
330
1B180
100
AcDbEntity
  8
0
  6
CONTINUOUS
100
AcDbLine
 10
44.99999999995498
 20
7.592623215805709
 30
0.0
 11
43.82952321576943
 21
8.763099999991255
 31
0.0
  0
LINE
  5
1B1BF
330
1B180
100
AcDbEntity
  8
0
  6
CONTINUOUS
100
AcDbLine
 10
44.99999999995498
 20
8.266142424885896
 30
0.0
 11
44.50304242484962
 21
8.763099999991255
 31
0.0
  0
ENDBLK
  5
1B1E9
330
1B180
100
AcDbEntity
  8
0
100
AcDbBlockEnd
  0
BLOCK
  5
1B1EA
330
1B1C0
100
AcDbEntity
  8
0
100
AcDbBlockBegin
  2
*X161
 70
     1
 10
0.0
 20
0.0
 30
0.0
  3
*X161
  1

  0
LINE
  5
1B1C1
330
1B1C0
100
AcDbEntity
  8
0
  6
CONTINUOUS
100
AcDbLine
 10
0.0
 20
8.548461116714023
 30
0.0
 11
0.2146388832772324
 21
8.763099999991255
 31
0.0
  0
LINE
  5
1B1C2
330
1B1C0
100
AcDbEntity
  8
0
  6
CONTINUOUS
100
AcDbLine
 10
-0.0000000000000002
 20
7.874941907633837
 30
0.0
 11
0.8881580923574184
 21
8.763099999991255
 31
0.0
  0
LINE
  5
1B1C3
330
1B1C0
100
AcDbEntity
  8
0
  6
CONTINUOUS
100
AcDbLine
 10
0.0
 20
7.20142269855365
 30
0.0
 11
1.420999999998572
 21
8.622422698552223
 31
0.0
  0
LINE
  5
1B1C4
330
1B1C0
100
AcDbEntity
  8
0
  6
CONTINUOUS
100
AcDbLine
 10
-0.0000000000000001
 20
6.527903489473465
 30
0.0
 11
1.420999999998571
 21
7.948903489472036
 31
0.0
  0
LINE
  5
1B1C5
330
1B1C0
100
AcDbEntity
  8
0
  6
CONTINUOUS
100
AcDbLine
 10
-0.0000000000000002
 20
5.854384280393278
 30
0.0
 11
1.420999999998571
 21
7.275384280391849
 31
0.0
  0
LINE
  5
1B1C6
330
1B1C0
100
AcDbEntity
  8
0
  6
CONTINUOUS
100
AcDbLine
 10
-0.0000000000000002
 20
5.180865071313091
 30
0.0
 11
1.420999999998571
 21
6.601865071311663
 31
0.0
  0
LINE
  5
1B1C7
330
1B1C0
100
AcDbEntity
  8
0
  6
CONTINUOUS
100
AcDbLine
 10
0.0
 20
4.507345862232905
 30
0.0
 11
1.420999999998571
 21
5.928345862231477
 31
0.0
  0
LINE
  5
1B1C8
330
1B1C0
100
AcDbEntity
  8
0
  6
CONTINUOUS
100
AcDbLine
 10
-0.0000000000000003
 20
3.833826653152718
 30
0.0
 11
1.420999999998571
 21
5.25482665315129
 31
0.0
  0
LINE
  5
1B1C9
330
1B1C0
100
AcDbEntity
  8
0
  6
CONTINUOUS
100
AcDbLine
 10
-0.0000000000000002
 20
3.160307444072532
 30
0.0
 11
1.420999999998571
 21
4.581307444071103
 31
0.0
  0
LINE
  5
1B1CA
330
1B1C0
100
AcDbEntity
  8
0
  6
CONTINUOUS
100
AcDbLine
 10
-0.0000000000000001
 20
2.486788234992345
 30
0.0
 11
1.420999999998571
 21
3.907788234990917
 31
0.0
  0
LINE
  5
1B1CB
330
1B1C0
100
AcDbEntity
  8
0
  6
CONTINUOUS
100
AcDbLine
 10
-0.0000000000000006
 20
1.813269025912159
 30
0.0
 11
1.420999999998571
 21
3.234269025910731
 31
0.0
  0
LINE
  5
1B1CC
330
1B1C0
100
AcDbEntity
  8
0
  6
CONTINUOUS
100
AcDbLine
 10
0.0
 20
1.139749816831973
 30
0.0
 11
1.420999999998571
 21
2.560749816830544
 31
0.0
  0
LINE
  5
1B1CD
330
1B1C0
100
AcDbEntity
  8
0
  6
CONTINUOUS
100
AcDbLine
 10
0.0000000000000002
 20
0.466230607751787
 30
0.0
 11
1.420999999998571
 21
1.887230607750358
 31
0.0
  0
LINE
  5
1B1CE
330
1B1C0
100
AcDbEntity
  8
0
  6
CONTINUOUS
100
AcDbLine
 10
0.2072886013284003
 20
-0.0000000000000009
 30
0.0
 11
1.420999999998571
 21
1.213711398670171
 31
0.0
  0
LINE
  5
1B1CF
330
1B1C0
100
AcDbEntity
  8
0
  6
CONTINUOUS
100
AcDbLine
 10
0.8808078104085864
 20
-0.0000000000000009
 30
0.0
 11
1.420999999998571
 21
0.5401921895899839
 31
0.0
  0
LINE
  5
1B1D0
330
1B1C0
100
AcDbEntity
  8
0
  6
CONTINUOUS
100
AcDbLine
 10
0.0581249075061505
 20
-0.0000000000000009
 30
0.0
 11
-0.0000000000000002
 21
0.0581249075061496
 31
0.0
  0
LINE
  5
1B1D1
330
1B1C0
100
AcDbEntity
  8
0
  6
CONTINUOUS
100
AcDbLine
 10
0.7316441165863372
 20
-0.0000000000000009
 30
0.0
 11
-0.0000000000000002
 21
0.7316441165863363
 31
0.0
  0
LINE
  5
1B1D2
330
1B1C0
100
AcDbEntity
  8
0
  6
CONTINUOUS
100
AcDbLine
 10
1.405163325666523
 20
-0.0000000000000009
 30
0.0
 11
-0.0000000000000002
 21
1.405163325666523
 31
0.0
  0
LINE
  5
1B1D3
330
1B1C0
100
AcDbEntity
  8
0
  6
CONTINUOUS
100
AcDbLine
 10
1.420999999998572
 20
0.6576825347481381
 30
0.0
 11
-0.0000000000000001
 21
2.07868253474671
 31
0.0
  0
LINE
  5
1B1D4
330
1B1C0
100
AcDbEntity
  8
0
  6
CONTINUOUS
100
AcDbLine
 10
1.420999999998571
 20
1.331201743828324
 30
0.0
 11
-0.0000000000000001
 21
2.752201743826896
 31
0.0
  0
LINE
  5
1B1D5
330
1B1C0
100
AcDbEntity
  8
0
  6
CONTINUOUS
100
AcDbLine
 10
1.420999999998571
 20
2.004720952908511
 30
0.0
 11
-0.0000000000000002
 21
3.425720952907082
 31
0.0
  0
LINE
  5
1B1D6
330
1B1C0
100
AcDbEntity
  8
0
  6
CONTINUOUS
100
AcDbLine
 10
1.420999999998571
 20
2.678240161988697
 30
0.0
 11
-0.0000000000000001
 21
4.099240161987269
 31
0.0
  0
LINE
  5
1B1D7
330
1B1C0
100
AcDbEntity
  8
0
  6
CONTINUOUS
100
AcDbLine
 10
1.420999999998572
 20
3.351759371068884
 30
0.0
 11
0.0
 21
4.772759371067455
 31
0.0
  0
LINE
  5
1B1D8
330
1B1C0
100
AcDbEntity
  8
0
  6
CONTINUOUS
100
AcDbLine
 10
1.420999999998571
 20
4.02527858014907
 30
0.0
 11
-0.0000000000000003
 21
5.446278580147642
 31
0.0
  0
LINE
  5
1B1D9
330
1B1C0
100
AcDbEntity
  8
0
  6
CONTINUOUS
100
AcDbLine
 10
1.420999999998571
 20
4.698797789229257
 30
0.0
 11
0.0
 21
6.119797789227828
 31
0.0
  0
LINE
  5
1B1DA
330
1B1C0
100
AcDbEntity
  8
0
  6
CONTINUOUS
100
AcDbLine
 10
1.420999999998571
 20
5.372316998309444
 30
0.0
 11
-0.0000000000000001
 21
6.793316998308015
 31
0.0
  0
LINE
  5
1B1DB
330
1B1C0
100
AcDbEntity
  8
0
  6
CONTINUOUS
100
AcDbLine
 10
1.420999999998572
 20
6.045836207389629
 30
0.0
 11
-0.0000000000000004
 21
7.466836207388202
 31
0.0
  0
LINE
  5
1B1DC
330
1B1C0
100
AcDbEntity
  8
0
  6
CONTINUOUS
100
AcDbLine
 10
1.420999999998571
 20
6.719355416469816
 30
0.0
 11
0.0
 21
8.140355416468388
 31
0.0
  0
LINE
  5
1B1DD
330
1B1C0
100
AcDbEntity
  8
0
  6
CONTINUOUS
100
AcDbLine
 10
1.420999999998571
 20
7.392874625550003
 30
0.0
 11
0.0507746255573185
 21
8.763099999991255
 31
0.0
  0
LINE
  5
1B1DE
330
1B1C0
100
AcDbEntity
  8
0
  6
CONTINUOUS
100
AcDbLine
 10
1.420999999998571
 20
8.06639383463019
 30
0.0
 11
0.7242938346375052
 21
8.763099999991255
 31
0.0
  0
LINE
  5
1B1DF
330
1B1C0
100
AcDbEntity
  8
0
  6
CONTINUOUS
100
AcDbLine
 10
1.420999999998571
 20
8.739913043710375
 30
0.0
 11
1.397813043717691
 21
8.763099999991255
 31
0.0
  0
ENDBLK
  5
1B1EB
330
1B1C0
100
AcDbEntity
  8
0
100
AcDbBlockEnd
  0
ENDSEC
  0
SECTION
  2
ENTITIES
  0
LINE
  5
1AB35
330
18
100
AcDbEntity
  8
01
100
AcDbLine
 10
2130.841279738054
 20
-520.6651579890728
 30
0.0000000000563712
 11
2156.841279738054
 21
-520.6651579890728
 31
0.0000000000563712
  0
LINE
  5
1AB36
330
18
100
AcDbEntity
  8
01
100
AcDbLine
 10
2166.341279738054
 20
-515.1651579890728
 30
0.0000000000563712
 11
2121.341279738054
 21
-515.1651579890728
 31
0.0000000000563712
  0
LINE
  5
1AB37
330
18
100
AcDbEntity
  8
01
100
AcDbLine
 10
2143.841279738054
 20
-492.6651579890728
 30
0.0000000000563712
 11
2143.841279738054
 21
-537.6651579890728
 31
0.0000000000563712
  0
LINE
  5
1AB3C
330
18
100
AcDbEntity
  8
1CENTER
100
AcDbLine
 10
2483.841295702905
 20
-255.3285273274677
 30
0.0000000000563712
 11
2483.841295702905
 21
-299.6152710415889
 31
0.0000000000563712
  0
LINE
  5
1AB3D
330
18
100
AcDbEntity
  8
01
100
AcDbLine
 10
2464.341283481698
 20
-274.3651579901012
 30
0.0000000000563712
 11
2503.341283481697
 21
-274.365157990101
 31
0.0000000000563712
  0
LINE
  5
1AB3E
330
18
100
AcDbEntity
  8
01
100
AcDbLine
 10
2503.841283481698
 20
-280.6651579901012
 30
0.0000000000563712
 11
2463.841283481698
 21
-280.6651579901016
 31
0.0000000000563712
  0
LINE
  5
1AB3F
330
18
100
AcDbEntity
  8
01
100
AcDbLine
 10
2503.841283481698
 20
-280.6651579901012
 30
0.0000000000563712
 11
2503.841283481697
 21
-274.865157990101
 31
0.0000000000563712
  0
ARC
  5
1AB40
330
18
100
AcDbEntity
  8
01
100
AcDbCircle
 10
2503.341283481698
 20
-274.8651579901012
 30
0.0000000000563712
 40
0.5
100
AcDbArc
 50
0.0
 51
90.0
  0
LINE
  5
1AB41
330
18
100
AcDbEntity
  8
01
100
AcDbLine
 10
2463.841283481698
 20
-280.6651579901016
 30
0.0000000000563712
 11
2463.841283481698
 21
-274.8651579901012
 31
0.0000000000563712
  0
ARC
  5
1AB42
330
18
100
AcDbEntity
  8
01
100
AcDbCircle
 10
2464.341283481698
 20
-274.8651579901012
 30
0.0000000000563712
 40
0.5
100
AcDbArc
 50
90.0
 51
180.0
  0
LINE
  5
1AB43
330
18
100
AcDbEntity
  8
01
100
AcDbLine
 10
2480.341295702911
 20
-273.1651613233015
 30
0.0000000000563885
 11
2474.591295702905
 21
-273.1651613233006
 31
0.0000000000563885
  0
LINE
  5
1AB44
330
18
100
AcDbEntity
  8
01
100
AcDbLine
 10
2481.341295702913
 20
-259.6651383790949
 30
0.0000000000563885
 11
2481.341295702911
 21
-272.1651613233015
 31
0.0000000000563885
  0
LINE
  5
1AB45
330
18
100
AcDbEntity
  8
01
100
AcDbLine
 10
2486.341295702913
 20
-259.6651383790967
 30
0.0000000000563885
 11
2486.341295702913
 21
-272.1651613232997
 31
0.0000000000563885
  0
ARC
  5
1AB46
330
18
100
AcDbEntity
  8
01
100
AcDbCircle
 10
2485.341295702913
 20
-259.6651383790949
 30
0.0000000000563885
 40
1.0
100
AcDbArc
 50
0.0000000000521102
 51
90.0
  0
ARC
  5
1AB47
330
18
100
AcDbEntity
  8
01
100
AcDbCircle
 10
2482.341295702913
 20
-259.6651383790949
 30
0.0000000000563885
 40
1.0
100
AcDbArc
 50
90.0
 51
180.0
  0
LINE
  5
1AB48
330
18
100
AcDbEntity
  8
01
100
AcDbLine
 10
2485.341295702913
 20
-258.665138379093
 30
0.0000000000563885
 11
2482.341295702914
 21
-258.665138379093
 31
0.0000000000563885
  0
LINE
  5
1AB49
330
18
100
AcDbEntity
  8
01
100
AcDbLine
 10
2493.091295702904
 20
-273.1651613232997
 30
0.0000000000563885
 11
2487.341295702913
 21
-273.1651613232997
 31
0.0000000000563885
  0
ARC
  5
1AB4A
330
18
100
AcDbEntity
  8
01
100
AcDbCircle
 10
2487.341295702913
 20
-272.1651613232997
 30
0.0000000000563885
 40
1.0
100
AcDbArc
 50
180.0
 51
270.0
  0
ARC
  5
1AB4B
330
18
100
AcDbEntity
  8
01
100
AcDbCircle
 10
2480.341295702911
 20
-272.1651613233015
 30
0.0000000000563885
 40
1.0
100
AcDbArc
 50
270.0
 51
0.0
  0
LINE
  5
1AB4C
330
18
100
AcDbEntity
  8
01
100
AcDbLine
 10
2474.091295702905
 20
-273.6651613233001
 30
0.000000000112646
 11
2474.091295702905
 21
-274.365157990101
 31
0.0000000001126239
  0
ARC
  5
1AB4D
330
18
100
AcDbEntity
  8
01
100
AcDbCircle
 10
2474.591295702905
 20
-273.6651613233001
 30
0.000000000112646
 40
0.5
100
AcDbArc
 50
90.0
 51
180.0
  0
LINE
  5
1AB4E
330
18
100
AcDbEntity
  8
01
100
AcDbLine
 10
2493.591295702905
 20
-273.6651613233001
 30
0.000000000112646
 11
2493.591295702905
 21
-274.365157990101
 31
0.0000000001126239
  0
ARC
  5
1AB4F
330
18
100
AcDbEntity
  8
01
100
AcDbCircle
 10
2493.091295702904
 20
-273.6651613233001
 30
0.000000000112646
 40
0.5
100
AcDbArc
 50
0.0
 51
90.0
  0
LINE
  5
1AB50
330
18
100
AcDbEntity
  8
1CENTER
100
AcDbLine
 10
2483.841271128285
 20
-329.4897743781554
 30
0.0000000000563712
 11
2483.841271128285
 21
-317.4897743781554
 31
0.0000000000563712
  0
LINE
  5
1AB51
330
18
100
AcDbEntity
  8
01
100
AcDbLine
 10
2503.341283349491
 20
-326.9651579901043
 30
0.0000000000563712
 11
2464.341283349491
 21
-326.9651579900991
 31
0.0000000000563712
  0
LINE
  5
1AB52
330
18
100
AcDbEntity
  8
01
100
AcDbLine
 10
2463.841283349492
 20
-320.6651579900987
 30
0.0000000000563712
 11
2503.841283349492
 21
-320.6651579901041
 31
0.0000000000563712
  0
LINE
  5
1AB53
330
18
100
AcDbEntity
  8
01
100
AcDbLine
 10
2463.841283349492
 20
-320.6651579900987
 30
0.0000000000563712
 11
2463.841283349491
 21
-326.4651579900989
 31
0.0000000000563712
  0
ARC
  5
1AB54
330
18
100
AcDbEntity
  8
01
100
AcDbCircle
 10
2464.341283349491
 20
-326.4651579900986
 30
0.0000000000563712
 40
0.5
100
AcDbArc
 50
179.9999999999739
 51
270.0
  0
LINE
  5
1AB55
330
18
100
AcDbEntity
  8
01
100
AcDbLine
 10
2503.841283349492
 20
-320.6651579901041
 30
0.0000000000563712
 11
2503.841283349491
 21
-326.4651579901043
 31
0.0000000000563712
  0
ARC
  5
1AB56
330
18
100
AcDbEntity
  8
01
100
AcDbCircle
 10
2503.341283349491
 20
-326.4651579901043
 30
0.0000000000563712
 40
0.5
100
AcDbArc
 50
270.0
 51
0.0
  0
ARC
  5
1AB57
330
18
100
AcDbEntity
  8
01
100
AcDbCircle
 10
2483.841273807346
 20
-322.8151633679767
 30
0.0000000000562575
 40
6.0
100
AcDbArc
 50
234.3146660000061
 51
256.8165180000061
  0
LINE
  5
1AB58
330
18
100
AcDbEntity
  8
01
100
AcDbLine
 10
2480.341273807346
 20
-327.6885633679768
 30
0.0000000000562575
 11
2480.341273807346
 21
-326.9651579901014
 31
0.0000000000562575
  0
LINE
  5
1AB59
330
18
100
AcDbEntity
  8
01
100
AcDbLine
 10
2487.341273807346
 20
-327.6885633679768
 30
0.0000000000562575
 11
2487.341273807346
 21
-326.9651579901023
 31
0.0000000000562575
  0
LINE
  5
1AB5A
330
18
100
AcDbEntity
  8
01
100
AcDbLine
 10
2484.841273807346
 20
-328.3657118273792
 30
0.0000000000562575
 11
2484.841273807346
 21
-326.9651579901018
 31
0.0000000000562575
  0
ARC
  5
1AB5B
330
18
100
AcDbEntity
  8
01
100
AcDbCircle
 10
2482.541270807347
 20
-328.3649333679767
 30
0.0000000000562575
 40
0.30000001
100
AcDbArc
 50
256.8165179999368
 51
0.0
  0
ARC
  5
1AB5C
330
18
100
AcDbEntity
  8
01
100
AcDbCircle
 10
2485.141272807346
 20
-328.3649333679767
 30
0.0000000000562575
 40
0.30000001
100
AcDbArc
 50
179.999996999972
 51
283.1834799999916
  0
LINE
  5
1AB5D
330
18
100
AcDbEntity
  8
01
100
AcDbLine
 10
2482.841273807346
 20
-328.3649333679767
 30
0.0000000000562575
 11
2482.841273807346
 21
-326.9651579901016
 31
0.0000000000562575
  0
ARC
  5
1AB5E
330
18
100
AcDbEntity
  8
01
100
AcDbCircle
 10
2483.841273807346
 20
-322.8151633679767
 30
0.0000000000562575
 40
6.0
100
AcDbArc
 50
283.1834825033611
 51
305.6853300000029
  0
LINE
  5
1AB5F
330
18
100
AcDbEntity
  8
1CENTER
100
AcDbLine
 10
2143.841279738054
 20
-526.6651579890728
 30
0.0000000000563712
 11
2143.841279738054
 21
-514.6651579890728
 31
0.0000000000563712
  0
LINE
  5
1AB60
330
18
100
AcDbEntity
  8
1CENTER
100
AcDbLine
 10
2137.841279738054
 20
-520.6651579890728
 30
0.0000000000563712
 11
2149.841279738054
 21
-520.6651579890728
 31
0.0000000000563712
  0
LINE
  5
1AB61
330
18
100
AcDbEntity
  8
01
100
AcDbLine
 10
2163.341279738052
 20
-495.1651579890728
 30
0.0000000000563712
 11
2124.341279738052
 21
-495.165157989073
 31
0.0000000000563712
  0
ARC
  5
1AB62
330
18
100
AcDbEntity
  8
01
100
AcDbCircle
 10
2124.341279738052
 20
-495.665157989073
 30
0.0000000000563712
 40
0.5
100
AcDbArc
 50
90.0
 51
180.0
  0
LINE
  5
1AB63
330
18
100
AcDbEntity
  8
01
100
AcDbLine
 10
2163.341279738052
 20
-535.1651579890728
 30
0.0000000000563712
 11
2124.341279738052
 21
-535.1651579890732
 31
0.0000000000563712
  0
ARC
  5
1AB64
330
18
100
AcDbEntity
  8
01
100
AcDbCircle
 10
2163.341279738052
 20
-534.6651579890728
 30
0.0000000000563712
 40
0.5
100
AcDbArc
 50
270.0
 51
0.0
  0
LINE
  5
1AB65
330
18
100
AcDbEntity
  8
01
100
AcDbLine
 10
2163.841279738052
 20
-534.6651579890728
 30
0.0000000000563712
 11
2163.841279738052
 21
-495.6651579890728
 31
0.0000000000563712
  0
ARC
  5
1AB66
330
18
100
AcDbEntity
  8
01
100
AcDbCircle
 10
2163.341279738052
 20
-495.6651579890728
 30
0.0000000000563712
 40
0.5
100
AcDbArc
 50
0.0
 51
90.0
  0
LINE
  5
1AB67
330
18
100
AcDbEntity
  8
01
100
AcDbLine
 10
2123.841279738052
 20
-534.6651579890732
 30
0.0000000000563712
 11
2123.841279738052
 21
-495.665157989073
 31
0.0000000000563712
  0
ARC
  5
1AB68
330
18
100
AcDbEntity
  8
01
100
AcDbCircle
 10
2124.341279738052
 20
-534.6651579890732
 30
0.0000000000563712
 40
0.5
100
AcDbArc
 50
180.0
 51
270.0
  0
ARC
  5
1AB69
330
18
100
AcDbEntity
  8
01
100
AcDbCircle
 10
2145.841279738054
 20
-511.6339620549785
 30
0.0000000000563712
 40
0.5000000000000013
100
AcDbArc
 50
0.0
 51
77.51311018581228
  0
ARC
  5
1AB6A
330
18
100
AcDbEntity
  8
01
100
AcDbCircle
 10
2141.841279738054
 20
-529.6963539231671
 30
0.0000000000563712
 40
0.5000000000000029
100
AcDbArc
 50
180.0
 51
257.513110185866
  0
ARC
  5
1AB6B
330
18
100
AcDbEntity
  8
01
100
AcDbCircle
 10
2145.841279738054
 20
-529.6963539231671
 30
0.0000000000563712
 40
0.5000000000000013
100
AcDbArc
 50
282.4868898141877
 51
0.0
  0
ARC
  5
1AB6C
330
18
100
AcDbEntity
  8
01
100
AcDbCircle
 10
2143.841279738054
 20
-520.6651579890728
 30
0.0000000000563712
 40
9.749999999999995
100
AcDbArc
 50
77.5131101858446
 51
102.4868898141526
  0
ARC
  5
1AB6D
330
18
100
AcDbEntity
  8
01
100
AcDbCircle
 10
2141.841279738054
 20
-511.6339620549785
 30
0.0000000000563712
 40
0.5000000000000029
100
AcDbArc
 50
102.486889814134
 51
180.0
  0
ARC
  5
1AB6E
330
18
100
AcDbEntity
  8
01
100
AcDbCircle
 10
2143.841279738054
 20
-520.6651579890728
 30
0.0000000000563712
 40
9.75
100
AcDbArc
 50
257.5131101858473
 51
282.4868898141554
  0
LINE
  5
1AB6F
330
18
100
AcDbEntity
  8
01
100
AcDbLine
 10
2146.341279738054
 20
-511.6339620549785
 30
0.0000000000563712
 11
2146.341279738054
 21
-529.6963539231671
 31
0.0000000000563712
  0
LINE
  5
1AB70
330
18
100
AcDbEntity
  8
01
100
AcDbLine
 10
2141.341279738054
 20
-529.6963539231671
 30
0.0000000000563712
 11
2141.341279738054
 21
-511.6339620549785
 31
0.0000000000563712
  0
SPLINE
  5
1AB71
330
18
100
AcDbEntity
  8
01
100
AcDbSpline
210
0.0
220
0.0
230
1.0
 70
     8
 71
     3
 72
    18
 73
    14
 74
     0
 42
0.0000000001
 43
0.0000000001
 40
0.0
 40
0.0
 40
0.0
 40
0.0
 40
0.2500000000000002
 40
0.2500000000000002
 40
0.375
 40
0.375
 40
0.4999999999999998
 40
0.4999999999999998
 40
0.6249999999999996
 40
0.6249999999999996
 40
0.7499999999999993
 40
0.7499999999999993
 40
1.0
 40
1.0
 40
1.0
 40
1.0
 10
2147.530468927243
 20
-529.6902553916701
 30
0.0000000000563712
 10
2147.337207869967
 20
-529.7692547167068
 30
0.0000000000563712
 10
2147.14488625824
 20
-529.8405222512764
 30
0.0000000000563712
 10
2146.86556079978
 20
-529.9347793624498
 30
0.0000000000563712
 10
2146.776067657272
 20
-529.9634125876377
 30
0.0000000000563712
 10
2146.60479044948
 20
-530.0157476634382
 30
0.0000000000563712
 10
2146.52214103631
 20
-530.039679828359
 30
0.0000000000563712
 10
2146.370667896869
 20
-530.0816792447057
 30
0.0000000000563712
 10
2146.301996325913
 20
-530.099741112265
 30
0.0000000000563712
 10
2146.179628351653
 20
-530.1308122504257
 30
0.0000000000563712
 10
2146.125788115036
 20
-530.1438437830326
 30
0.0000000000563712
 10
2145.996433827806
 20
-530.174398887793
 30
0.0000000000563712
 10
2145.949387846162
 20
-530.1845266763613
 30
0.0000000000563712
 10
2145.949387846162
 20
-530.1845266763613
 30
0.0000000000563712
  0
SPLINE
  5
1AB72
330
18
100
AcDbEntity
  8
01
100
AcDbSpline
210
0.0
220
0.0
230
1.0
 70
     8
 71
     3
 72
    18
 73
    14
 74
     0
 42
0.0000000001
 43
0.0000000001
 40
0.0
 40
0.0
 40
0.0
 40
0.0
 40
0.2500000000000002
 40
0.2500000000000002
 40
0.3750000000000002
 40
0.3750000000000002
 40
0.5000000000000002
 40
0.5000000000000002
 40
0.6250000000000002
 40
0.6250000000000002
 40
0.7500000000000001
 40
0.7500000000000001
 40
1.0
 40
1.0
 40
1.0
 40
1.0
 10
2140.152090548865
 20
-511.6400605864754
 30
0.0000000000563712
 10
2140.345351606141
 20
-511.5610612614388
 30
0.0000000000563712
 10
2140.537673217868
 20
-511.4897937268694
 30
0.0000000000563712
 10
2140.816998676328
 20
-511.3955366156957
 30
0.0000000000563712
 10
2140.906491818836
 20
-511.3669033905079
 30
0.0000000000563712
 10
2141.077769026628
 20
-511.3145683147073
 30
0.0000000000563712
 10
2141.160418439798
 20
-511.2906361497866
 30
0.0000000000563712
 10
2141.311891579239
 20
-511.2486367334401
 30
0.0000000000563712
 10
2141.380563150195
 20
-511.2305748658806
 30
0.0000000000563712
 10
2141.502931124455
 20
-511.1995037277198
 30
0.0000000000563712
 10
2141.556771361072
 20
-511.186472195113
 30
0.0000000000563712
 10
2141.686125648303
 20
-511.1559170903525
 30
0.0000000000563712
 10
2141.733171629946
 20
-511.1457893017842
 30
0.0000000000563712
 10
2141.733171629946
 20
-511.1457893017842
 30
0.0000000000563712
  0
SPLINE
  5
1AB73
330
18
100
AcDbEntity
  8
01
100
AcDbSpline
210
0.0
220
0.0
230
1.0
 70
     8
 71
     3
 72
    16
 73
    12
 74
     0
 42
0.0000000001
 43
0.0000000001
 40
0.0
 40
0.0
 40
0.0
 40
0.0
 40
0.1249999999999998
 40
0.1249999999999998
 40
0.2499999999999997
 40
0.2499999999999997
 40
0.4999999999999998
 40
0.4999999999999998
 40
0.7499999999999999
 40
0.7499999999999999
 40
1.0
 40
1.0
 40
1.0
 40
1.0
 10
2141.733171629946
 20
-530.1845266763613
 30
0.0000000000563712
 10
2141.733171629946
 20
-530.1845266763613
 30
0.0000000000563712
 10
2141.721756107819
 20
-530.1820187203704
 30
0.0000000000563712
 10
2141.677323051478
 20
-530.1720139392102
 30
0.0000000000563712
 10
2141.643627450925
 20
-530.1643572741606
 30
0.0000000000563712
 10
2141.514280129463
 20
-530.133812769628
 30
0.0000000000563712
 10
2141.387824249156
 20
-530.1027126158509
 30
0.0000000000563712
 10
2141.086878048161
 20
-530.0193096074794
 30
0.0000000000563712
 10
2140.910084613393
 20
-529.9661606779567
 30
0.0000000000563712
 10
2140.540388341391
 20
-529.8414683513532
 30
0.0000000000563712
 10
2140.345317183156
 20
-529.7692406456225
 30
0.0000000000563712
 10
2140.152090548865
 20
-529.6902553916701
 30
0.0000000000563712
  0
SPLINE
  5
1AB74
330
18
100
AcDbEntity
  8
01
100
AcDbSpline
210
0.0
220
0.0
230
1.0
 70
     8
 71
     3
 72
    16
 73
    12
 74
     0
 42
0.0000000001
 43
0.0000000001
 40
0.0
 40
0.0
 40
0.0
 40
0.0
 40
0.1249999999999997
 40
0.1249999999999997
 40
0.2499999999999993
 40
0.2499999999999993
 40
0.4999999999999996
 40
0.4999999999999996
 40
0.7499999999999998
 40
0.7499999999999998
 40
1.0
 40
1.0
 40
1.0
 40
1.0
 10
2145.949387846162
 20
-511.1457893017842
 30
0.0000000000563712
 10
2145.949387846162
 20
-511.1457893017842
 30
0.0000000000563712
 10
2145.960803368288
 20
-511.1482972577754
 30
0.0000000000563712
 10
2146.00523642463
 20
-511.1583020389356
 30
0.0000000000563712
 10
2146.038932025183
 20
-511.1659587039852
 30
0.0000000000563712
 10
2146.168279346645
 20
-511.1965032085178
 30
0.0000000000563712
 10
2146.294735226952
 20
-511.2276033622946
 30
0.0000000000563712
 10
2146.595681427948
 20
-511.3110063706662
 30
0.0000000000563712
 10
2146.772474862715
 20
-511.3641553001888
 30
0.0000000000563712
 10
2147.142171134718
 20
-511.4888476267923
 30
0.0000000000563712
 10
2147.337242292952
 20
-511.561075332523
 30
0.0000000000563712
 10
2147.530468927243
 20
-511.6400605864754
 30
0.0000000000563712
  0
ARC
  5
1AB75
330
18
100
AcDbEntity
  8
01
100
AcDbCircle
 10
2143.841279738054
 20
-520.6651579890728
 30
0.0000000000563712
 40
9.750000000000005
100
AcDbArc
 50
112.2332717982938
 51
247.7667282017062
  0
ARC
  5
1AB76
330
18
100
AcDbEntity
  8
01
100
AcDbCircle
 10
2143.841279738054
 20
-520.6651579890728
 30
0.0000000000563712
 40
9.750000000000009
100
AcDbArc
 50
292.2332717982968
 51
67.76672820170319
  0
CIRCLE
  5
1AB77
330
18
100
AcDbEntity
  8
01
100
AcDbCircle
 10
2143.841279738054
 20
-520.6651579890728
 30
0.0000000000563712
 40
10.3
  0
LINE
  5
1AB78
330
18
100
AcDbEntity
  8
01
100
AcDbLine
 10
2340.141283738055
 20
-534.665153124883
 30
0.0000000000563712
 11
2340.141283738056
 21
-495.6651531248834
 31
0.0000000000563712
  0
LINE
  5
1AB79
330
18
100
AcDbEntity
  8
01
100
AcDbLine
 10
2333.841283738056
 20
-495.165153124883
 30
0.0000000000563712
 11
2333.841283738052
 21
-535.1651531248832
 31
0.0000000000563712
  0
LINE
  5
1AB7A
330
18
100
AcDbEntity
  8
01
100
AcDbLine
 10
2333.841283738052
 20
-535.1651531248832
 30
0.0000000000563712
 11
2339.641283738056
 21
-535.165153124883
 31
0.0000000000563712
  0
ARC
  5
1AB7B
330
18
100
AcDbEntity
  8
01
100
AcDbCircle
 10
2339.641283738056
 20
-534.665153124883
 30
0.0000000000563712
 40
0.5
100
AcDbArc
 50
270.0
 51
0.0
  0
LINE
  5
1AB7C
330
18
100
AcDbEntity
  8
01
100
AcDbLine
 10
2333.841283738056
 20
-495.165153124883
 30
0.0000000000563712
 11
2339.641283738056
 21
-495.1651531248834
 31
0.0000000000563712
  0
ARC
  5
1AB7D
330
18
100
AcDbEntity
  8
01
100
AcDbCircle
 10
2339.641283738056
 20
-495.6651531248834
 30
0.0000000000563712
 40
0.5
100
AcDbArc
 50
0.0
 51
90.0
  0
LINE
  5
1AB7E
330
18
100
AcDbEntity
  8
01
100
AcDbLine
 10
2287.541283738055
 20
-534.6651579890728
 30
0.0000000000563712
 11
2287.541283738055
 21
-495.6651579890732
 31
0.0000000000563712
  0
LINE
  5
1AB7F
330
18
100
AcDbEntity
  8
01
100
AcDbLine
 10
2293.841283738056
 20
-495.1651579890728
 30
0.0000000000563712
 11
2293.841283738051
 21
-535.165157989073
 31
0.0000000000563712
  0
LINE
  5
1AB80
330
18
100
AcDbEntity
  8
01
100
AcDbLine
 10
2293.841283738051
 20
-535.165157989073
 30
0.0000000000563712
 11
2288.041283738055
 21
-535.1651579890728
 31
0.0000000000563712
  0
ARC
  5
1AB81
330
18
100
AcDbEntity
  8
01
100
AcDbCircle
 10
2288.041283738055
 20
-534.6651579890728
 30
0.0000000000563712
 40
0.5
100
AcDbArc
 50
180.0
 51
270.0
  0
LINE
  5
1AB82
330
18
100
AcDbEntity
  8
01
100
AcDbLine
 10
2293.841283738056
 20
-495.1651579890728
 30
0.0000000000563712
 11
2288.041283738055
 21
-495.1651579890732
 31
0.0000000000563712
  0
ARC
  5
1AB83
330
18
100
AcDbEntity
  8
01
100
AcDbCircle
 10
2288.041283738055
 20
-495.6651579890732
 30
0.0000000000563712
 40
0.5
100
AcDbArc
 50
90.0
 51
180.0
  0
SPLINE
  5
1AB84
330
18
100
AcDbEntity
  8
01
100
AcDbSpline
210
0.0
220
0.0
230
1.0
 70
    24
 71
     1
 72
     4
 73
     2
 74
     0
 42
0.0000000001
 43
0.0000000001
 40
0.1160848018737504
 40
0.1160848018737504
 40
1.0
 40
1.0
 10
2287.541283738055
 20
-530.4151579890801
 30
0.0000000000563712
 10
2272.841258927043
 20
-530.4151579890801
 30
0.0000000000563712
  0
SPLINE
  5
1AB85
330
18
100
AcDbEntity
  8
01
100
AcDbSpline
210
0.0
220
0.0
230
1.0
 70
    24
 71
     1
 72
     4
 73
     2
 74
     0
 42
0.0000000001
 43
0.0000000001
 40
0.0
 40
0.0
 40
0.8839151981262495
 40
0.8839151981262495
 10
2272.841258927043
 20
-510.9151579890801
 30
0.0000000000563712
 10
2287.541283738055
 20
-510.9151579890801
 30
0.0000000000563712
  0
ARC
  5
1AB86
330
18
100
AcDbEntity
  8
01
100
AcDbCircle
 10
2272.841258927043
 20
-529.4151579890801
 30
0.0000000000563712
 40
1.0
100
AcDbArc
 50
180.0
 51
270.0
  0
ARC
  5
1AB87
330
18
100
AcDbEntity
  8
01
100
AcDbCircle
 10
2272.841258927043
 20
-511.9151579890801
 30
0.0000000000563712
 40
1.0
100
AcDbArc
 50
90.0
 51
180.0
  0
LINE
  5
1AB88
330
18
100
AcDbEntity
  8
01
100
AcDbLine
 10
2286.341258927043
 20
-512.1028860943082
 30
0.0000000000563712
 11
2286.341258927043
 21
-529.2274298838519
 31
0.0000000000563712
  0
SPLINE
  5
1AB89
330
18
100
AcDbEntity
  8
01
100
AcDbSpline
210
0.0
220
0.0
230
1.0
 70
     8
 71
     3
 72
    14
 73
    10
 74
     0
 42
0.0000000001
 43
0.0000000001
 40
0.0
 40
0.0
 40
0.0
 40
0.0
 40
0.25
 40
0.25
 40
0.5
 40
0.5
 40
0.75
 40
0.75
 40
1.0
 40
1.0
 40
1.0
 40
1.0
 10
2285.341258927043
 20
-511.6339620549858
 30
0.0000000000563712
 10
2285.481226604797
 20
-511.6339620549858
 30
0.0000000000563712
 10
2285.619647878942
 20
-511.6435980102925
 30
0.0000000000563712
 10
2285.869698218897
 20
-511.6826789192343
 30
0.0000000000563712
 10
2285.982015781726
 20
-511.712485054108
 30
0.0000000000563712
 10
2286.163063152812
 20
-511.7934047908919
 30
0.0000000000563712
 10
2286.230863789116
 20
-511.8437943270834
 30
0.0000000000563712
 10
2286.32048270566
 20
-511.9631639160983
 30
0.0000000000563712
 10
2286.341258927043
 20
-512.0299633668097
 30
0.0000000000563712
 10
2286.341258927043
 20
-512.1028860943082
 30
0.0000000000563712
  0
SPLINE
  5
1AB8A
330
18
100
AcDbEntity
  8
01
100
AcDbSpline
210
0.0
220
0.0
230
1.0
 70
     8
 71
     3
 72
    14
 73
    10
 74
     0
 42
0.0000000001
 43
0.0000000001
 40
0.0
 40
0.0
 40
0.0
 40
0.0
 40
0.25
 40
0.25
 40
0.5
 40
0.5
 40
0.75
 40
0.75
 40
1.0
 40
1.0
 40
1.0
 40
1.0
 10
2286.341258927043
 20
-529.2274298838519
 30
0.0000000000563712
 10
2286.341258927043
 20
-529.3003465709863
 30
0.0000000000563712
 10
2286.319898519783
 20
-529.3681312668472
 30
0.0000000000563712
 10
2286.230759328107
 20
-529.4864581408109
 30
0.0000000000563712
 10
2286.161826697953
 20
-529.5375709955789
 30
0.0000000000563712
 10
2285.981779257586
 20
-529.6178285877328
 30
0.0000000000563712
 10
2285.869073584091
 20
-529.6477914074393
 30
0.0000000000563712
 10
2285.618502970472
 20
-529.6868397829734
 30
0.0000000000563712
 10
2285.481116821153
 20
-529.6963539231743
 30
0.0000000000563712
 10
2285.341258927043
 20
-529.6963539231743
 30
0.0000000000563712
  0
LINE
  5
1AB8B
330
18
100
AcDbEntity
  8
01
100
AcDbLine
 10
2285.341258927043
 20
-529.6963539231743
 30
0.0000000000563712
 11
2272.841258927043
 21
-529.6963539231743
 31
0.0000000000563712
  0
LINE
  5
1AB8C
330
18
100
AcDbEntity
  8
01
100
AcDbLine
 10
2272.841258927043
 20
-511.6339620549858
 30
0.0000000000563712
 11
2285.341258927043
 21
-511.6339620549858
 31
0.0000000000563712
  0
SPLINE
  5
1AB8D
330
18
100
AcDbEntity
  8
01
100
AcDbSpline
210
0.0
220
0.0
230
1.0
 70
     8
 71
     3
 72
    14
 73
    10
 74
     0
 42
0.0000000001
 43
0.0000000001
 40
0.0
 40
0.0
 40
0.0
 40
0.0
 40
0.2500000000000001
 40
0.2500000000000001
 40
0.5000000000000002
 40
0.5000000000000002
 40
0.7500000000000003
 40
0.7500000000000003
 40
1.0
 40
1.0
 40
1.0
 40
1.0
 10
2272.841258927043
 20
-511.6339620549858
 30
0.0000000000563712
 10
2272.704050012116
 20
-511.6339620549858
 30
0.0000000000563712
 10
2272.569046466604
 20
-511.645336865081
 30
0.0000000000563712
 10
2272.321710007951
 20
-511.6882917324014
 30
0.0000000000563712
 10
2272.211208578586
 20
-511.7195360595059
 30
0.0000000000563712
 10
2272.029014905058
 20
-511.7967215768969
 30
0.0000000000563712
 10
2271.960021802673
 20
-511.8410621921565
 30
0.0000000000563712
 10
2271.865254264187
 20
-511.9390438435347
 30
0.0000000000563712
 10
2271.841258927043
 20
-511.9915372665515
 30
0.0000000000563712
 10
2271.841258927043
 20
-512.0446881642966
 30
0.0000000000563712
  0
SPLINE
  5
1AB8E
330
18
100
AcDbEntity
  8
01
100
AcDbSpline
210
0.0
220
0.0
230
1.0
 70
     8
 71
     3
 72
    14
 73
    10
 74
     0
 42
0.0000000001
 43
0.0000000001
 40
0.0
 40
0.0
 40
0.0
 40
0.0
 40
0.2500000000000001
 40
0.2500000000000001
 40
0.5000000000000002
 40
0.5000000000000002
 40
0.7500000000000003
 40
0.7500000000000003
 40
1.0
 40
1.0
 40
1.0
 40
1.0
 10
2272.841258927043
 20
-529.6963539231743
 30
0.0000000000563712
 10
2272.704050012116
 20
-529.6963539231743
 30
0.0000000000563712
 10
2272.569046466604
 20
-529.6849791130791
 30
0.0000000000563712
 10
2272.321710007951
 20
-529.6420242457588
 30
0.0000000000563712
 10
2272.211208578586
 20
-529.6107799186542
 30
0.0000000000563712
 10
2272.029014905058
 20
-529.533594401263
 30
0.0000000000563712
 10
2271.960021802673
 20
-529.4892537860036
 30
0.0000000000563712
 10
2271.865254264187
 20
-529.3912721346252
 30
0.0000000000563712
 10
2271.841258927043
 20
-529.3387787116086
 30
0.0000000000563712
 10
2271.841258927043
 20
-529.2856278138635
 30
0.0000000000563712
  0
LINE
  5
1AB8F
330
18
100
AcDbEntity
  8
01
100
AcDbLine
 10
2271.841258927043
 20
-512.0446881642966
 30
0.0000000000563712
 11
2271.841258927043
 21
-529.2856278138635
 31
0.0000000000563712
  0
LINE
  5
1AB90
330
18
100
AcDbEntity
  8
01
100
AcDbLine
 10
2271.841258927043
 20
-529.2856278138635
 30
0.0000000000563712
 11
2271.841258927043
 21
-529.4151579890801
 31
0.0000000000563712
  0
LINE
  5
1AB91
330
18
100
AcDbEntity
  8
01
100
AcDbLine
 10
2340.883267427016
 20
-517.1651566681345
 30
0.0000000001126251
 11
2340.141283738055
 21
-517.1651566681347
 31
0.0000000001126251
  0
LINE
  5
1AB92
330
18
100
AcDbEntity
  8
01
100
AcDbLine
 10
2340.883267427016
 20
-524.1651566681345
 30
0.0000000001126251
 11
2340.141283738055
 21
-524.1651566681345
 31
0.0000000001126251
  0
ARC
  5
1AB93
330
18
100
AcDbEntity
  8
01
100
AcDbCircle
 10
2336.009867427016
 20
-520.6651566681345
 30
0.0000000001126251
 40
6.0
100
AcDbArc
 50
324.3146700000025
 51
35.68533471265159
  0
LINE
  5
1AB94
330
18
100
AcDbEntity
  8
1CENTER
100
AcDbLine
 10
2483.841175398311
 20
-526.6651573890728
 30
0.0000000000563712
 11
2483.841175398311
 21
-514.6651573890728
 31
0.0000000000563712
  0
LINE
  5
1AB95
330
18
100
AcDbEntity
  8
1CENTER
100
AcDbLine
 10
2477.841175398311
 20
-520.6651573890728
 30
0.0000000000563712
 11
2489.841175398311
 21
-520.6651573890728
 31
0.0000000000563712
  0
LINE
  5
1AB96
330
18
100
AcDbEntity
  8
01
100
AcDbLine
 10
2464.341175398313
 20
-495.1651571849449
 30
0.0000000000563712
 11
2503.341175398313
 21
-495.1651571849451
 31
0.0000000000563712
  0
ARC
  5
1AB97
330
18
100
AcDbEntity
  8
01
100
AcDbCircle
 10
2503.341175398313
 20
-495.6651571849451
 30
0.0000000000563712
 40
0.5
100
AcDbArc
 50
0.0
 51
90.0
  0
LINE
  5
1AB98
330
18
100
AcDbEntity
  8
01
100
AcDbLine
 10
2464.341175398313
 20
-535.1651571849449
 30
0.0000000000563712
 11
2503.341175398313
 21
-535.1651571849453
 31
0.0000000000563712
  0
ARC
  5
1AB99
330
18
100
AcDbEntity
  8
01
100
AcDbCircle
 10
2464.341175398313
 20
-534.6651571849449
 30
0.0000000000563712
 40
0.5
100
AcDbArc
 50
180.0
 51
270.0
  0
LINE
  5
1AB9A
330
18
100
AcDbEntity
  8
01
100
AcDbLine
 10
2463.841175398313
 20
-534.6651571849449
 30
0.0000000000563712
 11
2463.841175398313
 21
-495.6651571849449
 31
0.0000000000563712
  0
ARC
  5
1AB9B
330
18
100
AcDbEntity
  8
01
100
AcDbCircle
 10
2464.341175398313
 20
-495.6651571849449
 30
0.0000000000563712
 40
0.5
100
AcDbArc
 50
90.0
 51
180.0
  0
LINE
  5
1AB9C
330
18
100
AcDbEntity
  8
01
100
AcDbLine
 10
2503.841175398313
 20
-534.6651571849453
 30
0.0000000000563712
 11
2503.841175398313
 21
-495.6651571849451
 31
0.0000000000563712
  0
ARC
  5
1AB9D
330
18
100
AcDbEntity
  8
01
100
AcDbCircle
 10
2503.341175398313
 20
-534.6651571849453
 30
0.0000000000563712
 40
0.5
100
AcDbArc
 50
270.0
 51
0.0
  0
CIRCLE
  5
1AB9E
330
18
100
AcDbEntity
  8
01
100
AcDbCircle
 10
2483.841175720771
 20
-520.665156980817
 30
0.0000000000563712
 40
3.75
  0
CIRCLE
  5
1AB9F
330
18
100
AcDbEntity
  8
01
100
AcDbCircle
 10
2483.841175720771
 20
-520.6651571849449
 30
0.0000000000563712
 40
3.5000005
  0
LINE
  5
1ABA0
330
18
100
AcDbEntity
  8
01
100
AcDbLine
 10
2484.841175720771
 20
-524.0192599849448
 30
0.0000000000563712
 11
2484.841175720771
 21
-517.3110531849449
 31
0.0000000000563712
  0
LINE
  5
1ABA1
330
18
100
AcDbEntity
  8
01
100
AcDbLine
 10
2482.841175720771
 20
-524.0192599849448
 30
0.0000000000563712
 11
2482.841175720771
 21
-517.3110531849449
 31
0.0000000000563712
  0
LINE
  5
1ABA2
330
18
100
AcDbEntity
  8
01
100
AcDbLine
 10
2461.341175398311
 20
-515.1651579890728
 30
0.0000000000563712
 11
2506.341175398311
 21
-515.1651579890728
 31
0.0000000000563712
  0
LINE
  5
1ABA3
330
18
100
AcDbEntity
  8
01
100
AcDbLine
 10
2483.841175398311
 20
-492.6651579890728
 30
0.0000000000563712
 11
2483.841175398311
 21
-537.6651579890728
 31
0.0000000000563712
  0
LINE
  5
1ABA8
330
18
100
AcDbEntity
  8
01
100
AcDbLine
 10
2427.841167398309
 20
-492.6664763021762
 30
0.0000000000563712
 11
2441.841167398309
 21
-492.6664763021762
 31
0.0000000000563712
  0
LINE
  5
1ABA9
330
18
100
AcDbEntity
  8
01
100
AcDbLine
 10
2432.842051580369
 20
-280.6664763032048
 30
0.0000000000563712
 11
2586.596431735401
 21
-280.6664763032048
 31
0.0000000000563712
  0
LINE
  5
1ABAA
330
18
100
AcDbEntity
  8
01
  6
BYBLOCK
100
AcDbLine
 10
2432.842051580369
 20
-280.6664763032048
 30
0.0000000000563712
 11
2432.842051580369
 21
-320.6664763032048
 31
0.0000000000563712
  0
LINE
  5
1ABAE
330
18
100
AcDbEntity
  8
01
100
AcDbLine
 10
2483.841283738053
 20
-285.6664763042335
 30
0.0000000000563712
 11
2483.841283738053
 21
-254.7483961149845
 31
0.0000000000563712
  0
LINE
  5
1ABAF
330
18
100
AcDbEntity
  8
01
  6
BYBLOCK
100
AcDbLine
 10
2434.341167398309
 20
-484.7664763021761
 30
0.0000000000563712
 11
2434.341167398309
 21
-614.566476302176
 31
0.0000000000563712
  0
LINE
  5
1ABB0
330
18
100
AcDbEntity
  8
01
  6
BYBLOCK
100
AcDbLine
 10
2434.341167398309
 20
-613.6664763021762
 30
0.0000000000563712
 11
2436.841167398309
 21
-613.6664763021762
 31
0.0000000000563712
  0
LINE
  5
1ABB1
330
18
100
AcDbEntity
  8
01
  6
BYBLOCK
100
AcDbLine
 10
2436.841167398309
 20
-613.6664763021762
 30
0.0000000000563712
 11
2436.841167398309
 21
-597.1635325770238
 31
0.0000000000563712
  0
LINE
  5
1ABB2
330
18
100
AcDbEntity
  8
01
  6
BYBLOCK
100
AcDbLine
 10
2432.841167398309
 20
-484.7664763021761
 30
0.0000000000563712
 11
2432.841167398309
 21
-614.566476302176
 31
0.0000000000563712
  0
LINE
  5
1ABB3
330
18
100
AcDbEntity
  8
01
  6
BYBLOCK
100
AcDbLine
 10
2432.841167398309
 20
-614.566476302176
 30
0.0000000000563712
 11
2434.341167398309
 21
-614.566476302176
 31
0.0000000000563712
  0
LINE
  5
1ABB4
330
18
100
AcDbEntity
  8
01
  6
BYBLOCK
100
AcDbLine
 10
2434.341167398309
 20
-485.6664763021762
 30
0.0000000000563712
 11
2436.841167398309
 21
-485.6664763021762
 31
0.0000000000563712
  0
LINE
  5
1ABB5
330
18
100
AcDbEntity
  8
01
  6
BYBLOCK
100
AcDbLine
 10
2432.841167398309
 20
-484.7664763021761
 30
0.0000000000563712
 11
2434.341167398309
 21
-484.7664763021761
 31
0.0000000000563712
  0
LINE
  5
1ABB6
330
18
100
AcDbEntity
  8
01
  6
BYBLOCK
100
AcDbLine
 10
2434.341167398309
 20
-509.6664763021762
 30
0.0000000000563712
 11
2435.541167398309
 21
-509.6664763021762
 31
0.0000000000563712
  0
ARC
  5
1ABB7
330
18
100
AcDbEntity
  8
01
100
AcDbCircle
 10
2500.841167398309
 20
-513.6664763021762
 30
0.0000000000563712
 40
1.0
100
AcDbArc
 50
0.0
 51
90.0
  0
LINE
  5
1ABB8
330
18
100
AcDbEntity
  8
01
  6
BYBLOCK
100
AcDbLine
 10
2435.541167398309
 20
-503.9664763021759
 30
0.0000000000563712
 11
2435.541167398309
 21
-595.366476302176
 31
0.0000000000563712
  0
LINE
  5
1ABB9
330
18
100
AcDbEntity
  8
01
  6
BYBLOCK
100
AcDbLine
 10
2435.641167398309
 20
-613.6664763021762
 30
0.0000000000563712
 11
2435.641167398309
 21
-597.066476302176
 31
0.0000000000563712
  0
LINE
  5
1ABBA
330
18
100
AcDbEntity
  8
01
  6
BYBLOCK
100
AcDbLine
 10
2435.641167398309
 20
-597.066476302176
 30
0.0000000000563712
 11
2434.692639260884
 21
-596.1179481647522
 31
0.0000000000563712
  0
LINE
  5
1ABBB
330
18
100
AcDbEntity
  8
01
  6
BYBLOCK
100
AcDbLine
 10
2436.489695535732
 20
-596.3150044395999
 30
0.0000000000563712
 11
2435.541167398309
 21
-595.366476302176
 31
0.0000000000563712
  0
ARC
  5
1ABBC
330
18
100
AcDbEntity
  8
01
  6
BYBLOCK
100
AcDbCircle
 10
2435.641167398309
 20
-597.1635325770238
 30
0.0000000000563712
 40
1.2
100
AcDbArc
 50
0.0
 51
45.00000000003838
  0
ARC
  5
1ABBD
330
18
100
AcDbEntity
  8
01
  6
BYBLOCK
100
AcDbCircle
 10
2435.541167398309
 20
-595.2694200273282
 30
0.0000000000563712
 40
1.2
100
AcDbArc
 50
180.0
 51
225.0000000000384
  0
LINE
  5
1ABBE
330
18
100
AcDbEntity
  8
01
  6
BYBLOCK
100
AcDbLine
 10
2436.841167398309
 20
-485.6664763021762
 30
0.0000000000563712
 11
2436.841167398309
 21
-502.1694200273283
 31
0.0000000000563712
  0
LINE
  5
1ABBF
330
18
100
AcDbEntity
  8
01
  6
BYBLOCK
100
AcDbLine
 10
2435.641167398309
 20
-485.6664763021762
 30
0.0000000000563712
 11
2435.641167398309
 21
-502.2664763021761
 31
0.0000000000563712
  0
LINE
  5
1ABC0
330
18
100
AcDbEntity
  8
01
  6
BYBLOCK
100
AcDbLine
 10
2435.641167398309
 20
-502.2664763021761
 30
0.0000000000563712
 11
2434.692639260884
 21
-503.2150044396
 31
0.0000000000563712
  0
LINE
  5
1ABC1
330
18
100
AcDbEntity
  8
01
  6
BYBLOCK
100
AcDbLine
 10
2436.489695535732
 20
-503.0179481647523
 30
0.0000000000563712
 11
2435.541167398309
 21
-503.9664763021761
 31
0.0000000000563712
  0
ARC
  5
1ABC2
330
18
100
AcDbEntity
  8
01
  6
BYBLOCK
100
AcDbCircle
 10
2435.641167398309
 20
-502.1694200273283
 30
0.0000000000563712
 40
1.2
100
AcDbArc
 50
314.9999999999616
 51
0.0
  0
ARC
  5
1ABC3
330
18
100
AcDbEntity
  8
01
  6
BYBLOCK
100
AcDbCircle
 10
2435.541167398309
 20
-504.0635325770239
 30
0.0000000000563712
 40
1.2
100
AcDbArc
 50
134.9999999999616
 51
180.0
  0
CIRCLE
  5
1ABC4
330
18
100
AcDbEntity
  8
01
100
AcDbCircle
 10
2483.841167398309
 20
-520.6664763021762
 30
0.0000000000563712
 40
4.75
  0
LINE
  5
1ABC5
330
18
100
AcDbEntity
  8
01
  6
BYBLOCK
100
AcDbLine
 10
2435.541167398309
 20
-586.6664763021764
 30
0.0000000000563712
 11
2457.341167398312
 21
-586.6664763021762
 31
0.0000000000563712
  0
ARC
  5
1ABC6
330
18
100
AcDbEntity
  8
01
  6
BYBLOCK
100
AcDbCircle
 10
2435.942051580369
 20
-297.1052257602049
 30
0.0000000000563712
 40
1.6
100
AcDbArc
 50
115.9444797720007
 51
180.0
  0
ARC
  5
1ABC7
330
18
100
AcDbEntity
  8
01
  6
BYBLOCK
100
AcDbCircle
 10
2435.942051580369
 20
-304.2277268462047
 30
0.0000000000563712
 40
1.6
100
AcDbArc
 50
180.0
 51
244.0555202279993
  0
ARC
  5
1ABC8
330
18
100
AcDbEntity
  8
01
  6
BYBLOCK
100
AcDbCircle
 10
2435.242051580368
 20
-305.5052257602048
 30
0.0000000000563712
 40
1.6
100
AcDbArc
 50
0.0
 51
64.05552022799934
  0
ARC
  5
1ABC9
330
18
100
AcDbEntity
  8
01
  6
BYBLOCK
100
AcDbCircle
 10
2435.242051580368
 20
-295.8277268462049
 30
0.0000000000563712
 40
1.6
100
AcDbArc
 50
295.9444797720006
 51
0.0
  0
LINE
  5
1ABCA
330
18
100
AcDbEntity
  8
01
  6
BYBLOCK
100
AcDbLine
 10
2436.842051580369
 20
-295.8277268462049
 30
0.0000000000563712
 11
2436.842051580369
 21
-288.4664763032048
 31
0.0000000000563712
  0
LINE
  5
1ABCB
330
18
100
AcDbEntity
  8
01
  6
BYBLOCK
100
AcDbLine
 10
2435.942051580369
 20
-304.0664763032049
 30
0.0000000000563712
 11
2435.942051580369
 21
-297.2664763032047
 31
0.0000000000563712
  0
LINE
  5
1ABCC
330
18
100
AcDbEntity
  8
01
  6
BYBLOCK
100
AcDbLine
 10
2436.842051580369
 20
-312.6664763032048
 30
0.0000000000563712
 11
2436.842051580369
 21
-305.5052257602048
 31
0.0000000000563712
  0
LINE
  5
1ABCD
330
18
100
AcDbEntity
  8
01
  6
BYBLOCK
100
AcDbLine
 10
2435.242051580368
 20
-295.6664763032048
 30
0.0000000000563712
 11
2435.242051580369
 21
-288.4664763032048
 31
0.0000000000563712
  0
LINE
  5
1ABCE
330
18
100
AcDbEntity
  8
01
  6
BYBLOCK
100
AcDbLine
 10
2435.242051580368
 20
-305.6664763032048
 30
0.0000000000563712
 11
2435.242051580368
 21
-312.7664763032047
 31
0.0000000000563712
  0
ARC
  5
1ABCF
330
18
100
AcDbEntity
  8
01
  6
BYBLOCK
100
AcDbCircle
 10
2500.242051580368
 20
-292.7664763032047
 30
0.0000000000563712
 40
1.6
100
AcDbArc
 50
0.0
 51
90.0
  0
LINE
  5
1ABD0
330
18
100
AcDbEntity
  8
01
  6
BYBLOCK
100
AcDbLine
 10
2434.342051580369
 20
-288.2664763032047
 30
0.0000000000563712
 11
2434.342051580369
 21
-313.0664763032047
 31
0.0000000000563712
  0
LINE
  5
1ABD1
330
18
100
AcDbEntity
  8
01
  6
BYBLOCK
100
AcDbLine
 10
2500.242051580368
 20
-291.1664763032048
 30
0.0000000000563712
 11
2436.842051580369
 21
-291.1664763032048
 31
0.0000000000563712
  0
LINE
  5
1ABD2
330
18
100
AcDbEntity
  8
01
  6
BYBLOCK
100
AcDbLine
 10
2500.242051580368
 20
-308.3664763032049
 30
0.0000000000563712
 11
2500.242051580368
 21
-291.1664763032048
 31
0.0000000000563712
  0
LINE
  5
1ABD3
330
18
100
AcDbEntity
  8
01
  6
BYBLOCK
100
AcDbLine
 10
2501.842051580369
 20
-309.9664763032048
 30
0.0000000000563712
 11
2501.842051580369
 21
-292.7664763032047
 31
0.0000000000563712
  0
LINE
  5
1ABD4
330
18
100
AcDbEntity
  8
01
  6
BYBLOCK
100
AcDbLine
 10
2434.342051580369
 20
-288.4664763032048
 30
0.0000000000563712
 11
2436.842051580369
 21
-288.4664763032048
 31
0.0000000000563712
  0
LINE
  5
1ABD5
330
18
100
AcDbEntity
  8
01
  6
BYBLOCK
100
AcDbLine
 10
2436.842051580369
 20
-312.6664763032048
 30
0.0000000000563712
 11
2435.242051580368
 21
-312.6664763032048
 31
0.0000000000563712
  0
LINE
  5
1ABD6
330
18
100
AcDbEntity
  8
01
  6
BYBLOCK
100
AcDbLine
 10
2435.242051580368
 20
-312.7664763032047
 30
0.0000000000563712
 11
2434.342051580369
 21
-312.7664763032047
 31
0.0000000000563712
  0
ARC
  5
1ABD7
330
18
100
AcDbEntity
  8
01
  6
BYBLOCK
100
AcDbCircle
 10
2431.542646507768
 20
-306.3664763032042
 30
0.0000000000563712
 40
0.3000000000000051
100
AcDbArc
 50
232.8678058729264
 51
270.0
  0
LINE
  5
1ABD8
330
18
100
AcDbEntity
  8
01
  6
BYBLOCK
100
AcDbLine
 10
2432.342051580369
 20
-306.6664763032041
 30
0.0000000000563712
 11
2431.542646507768
 21
-306.6664763032041
 31
0.0000000000563712
  0
LINE
  5
1ABD9
330
18
100
AcDbEntity
  8
01
  6
BYBLOCK
100
AcDbLine
 10
2421.942051580369
 20
-296.993487437
 30
0.0000000000563712
 11
2421.942051580369
 21
-297.1641094925491
 31
0.0000000000563712
  0
ARC
  5
1ABDA
330
18
100
AcDbEntity
  8
01
  6
BYBLOCK
100
AcDbCircle
 10
2422.242051580368
 20
-297.1641094925491
 30
0.0000000000563712
 40
0.3
100
AcDbArc
 50
180.0
 51
217.7405295629754
  0
ARC
  5
1ABDB
330
18
100
AcDbEntity
  8
01
  6
BYBLOCK
100
AcDbCircle
 10
2461.544352179653
 20
-266.7434065486083
 30
0.0000000000563712
 40
50.00000000000002
100
AcDbArc
 50
217.7405295629802
 51
232.8678058729729
  0
LINE
  5
1ABDC
330
18
100
AcDbEntity
  8
01
  6
BYBLOCK
100
AcDbLine
 10
2421.742051580368
 20
-295.8664763032046
 30
0.0000000000563712
 11
2421.742051580368
 21
-295.1664763032048
 31
0.0000000000563712
  0
ARC
  5
1ABDD
330
18
100
AcDbEntity
  8
01
  6
BYBLOCK
100
AcDbCircle
 10
2422.242051580368
 20
-295.1664763032048
 30
0.0000000000563712
 40
0.5000000000000142
100
AcDbArc
 50
90.0
 51
180.0
  0
LINE
  5
1ABDE
330
18
100
AcDbEntity
  8
01
  6
BYBLOCK
100
AcDbLine
 10
2432.342051580369
 20
-294.6664763032048
 30
0.0000000000563712
 11
2422.242051580368
 21
-294.6664763032048
 31
0.0000000000563712
  0
LINE
  5
1ABDF
330
18
100
AcDbEntity
  8
01
  6
BYBLOCK
100
AcDbLine
 10
2421.742051580368
 20
-296.2451559596451
 30
0.0000000000563712
 11
2421.742051580368
 21
-295.8664763032046
 31
0.0000000000563712
  0
SPLINE
  5
1ABE0
330
18
100
AcDbEntity
  8
01
  6
BYBLOCK
100
AcDbSpline
210
0.0
220
0.0
230
1.0
 70
     8
 71
     3
 72
     8
 73
     4
 74
     0
 42
0.0000000001
 43
0.0000000001
 40
0.0
 40
0.0
 40
0.0
 40
0.0
 40
1.0
 40
1.0
 40
1.0
 40
1.0
 10
2421.767784121633
 20
-296.5218063890942
 30
0.0000000000563712
 10
2421.750316235522
 20
-296.4287201932137
 30
0.0000000000563712
 10
2421.742051580368
 20
-296.3354541823222
 30
0.0000000000563712
 10
2421.742051580368
 20
-296.2451559596446
 30
0.0000000000563712
  0
ARC
  5
1ABE1
330
18
100
AcDbEntity
  8
01
  6
BYBLOCK
100
AcDbCircle
 10
2423.242051580368
 20
-296.2451559596451
 30
0.0000000000563712
 40
1.499999999999998
100
AcDbArc
 50
190.628112987605
 51
225.0000000000384
  0
LINE
  5
1ABE2
330
18
100
AcDbEntity
  8
01
  6
BYBLOCK
100
AcDbLine
 10
2432.842051580369
 20
-293.8164763032047
 30
0.0000000000563712
 11
2432.342051580369
 21
-293.8164763032047
 31
0.0000000000563712
  0
LINE
  5
1ABE3
330
18
100
AcDbEntity
  8
01
  6
BYBLOCK
100
AcDbLine
 10
2432.342051580369
 20
-307.5164763032047
 30
0.0000000000563712
 11
2432.842051580369
 21
-307.5164763032047
 31
0.0000000000563712
  0
LINE
  5
1ABE4
330
18
100
AcDbEntity
  8
01
  6
BYBLOCK
100
AcDbLine
 10
2432.342051580369
 20
-307.5164763032047
 30
0.0000000000563712
 11
2432.342051580369
 21
-293.8164763032047
 31
0.0000000000563712
  0
LINE
  5
1ABE5
330
18
100
AcDbEntity
  8
01
  6
BYBLOCK
100
AcDbLine
 10
2432.842051580369
 20
-288.2664763032047
 30
0.0000000000563712
 11
2434.342051580369
 21
-288.2664763032047
 31
0.0000000000563712
  0
LINE
  5
1ABE6
330
18
100
AcDbEntity
  8
01
  6
BYBLOCK
100
AcDbLine
 10
2432.842051580369
 20
-313.0664763032047
 30
0.0000000000563712
 11
2434.342051580369
 21
-313.0664763032047
 31
0.0000000000563712
  0
LINE
  5
1ABE7
330
18
100
AcDbEntity
  8
01
  6
BYBLOCK
100
AcDbLine
 10
2432.842051580369
 20
-313.0664763032047
 30
0.0000000000563712
 11
2432.842051580369
 21
-288.2664763032047
 31
0.0000000000563712
  0
LINE
  5
1ABE8
330
18
100
AcDbEntity
  8
01
  6
BYBLOCK
100
AcDbLine
 10
2501.842051580369
 20
-308.3664763032049
 30
0.0000000000563712
 11
2436.842051580369
 21
-308.3664763032049
 31
0.0000000000563712
  0
LINE
  5
1ABE9
330
18
100
AcDbEntity
  8
01
  6
BYBLOCK
100
AcDbLine
 10
2501.842051580369
 20
-309.9664763032048
 30
0.0000000000563712
 11
2451.442051580369
 21
-309.9664763032048
 31
0.0000000000563712
  0
LINE
  5
1ABEA
330
18
100
AcDbEntity
  8
01
  6
BYBLOCK
100
AcDbLine
 10
2454.279309880572
 20
-309.9664763032048
 30
0.0000000000563712
 11
2436.842051580369
 21
-309.9664763032048
 31
0.0000000000563712
  0
LINE
  5
1ABEB
330
18
100
AcDbEntity
  8
01
  6
BYBLOCK
100
AcDbLine
 10
2431.395604970962
 20
-306.5200296937982
 30
0.0000000000563712
 11
2422.181391408588
 21
-297.3058161314251
 31
0.0000000000563712
  0
ARC
  5
1ABEC
330
18
100
AcDbEntity
  8
01
  6
BYBLOCK
100
AcDbCircle
 10
2431.749158361555
 20
-306.1664763032048
 30
0.0000000000563712
 40
0.5
100
AcDbArc
 50
224.9999999999954
 51
270.0
  0
LINE
  5
1ABED
330
18
100
AcDbEntity
  8
01
  6
BYBLOCK
100
AcDbLine
 10
2432.342051580369
 20
-306.6664763032048
 30
0.0000000000563712
 11
2431.749158361555
 21
-306.6664763032048
 31
0.0000000000563712
  0
LINE
  5
1ABEF
330
18
100
AcDbEntity
  8
01
  6
BYBLOCK
100
AcDbLine
 10
2421.841167398309
 20
-539.6348060351601
 30
0.0000000000563712
 11
2421.841167398309
 21
-557.6981465691659
 31
0.0000000000563712
  0
LINE
  5
1ABF0
330
18
100
AcDbEntity
  8
01
  6
BYBLOCK
100
AcDbLine
 10
2426.134060617122
 20
-538.666476302163
 30
0.0000000000563712
 11
2432.841167398309
 21
-538.666476302163
 31
0.0000000000563712
  0
LINE
  5
1ABF1
330
18
100
AcDbEntity
  8
01
  6
BYBLOCK
100
AcDbLine
 10
2426.134060617122
 20
-558.666476302163
 30
0.0000000000563712
 11
2432.841167398309
 21
-558.666476302163
 31
0.0000000000563712
  0
LINE
  5
1ABF2
330
18
100
AcDbEntity
  8
01
  6
BYBLOCK
100
AcDbLine
 10
2431.634060617123
 20
-543.416476302163
 30
0.0000000000563712
 11
2431.634060617122
 21
-553.916476302163
 31
0.0000000000563712
  0
ARC
  5
1ABF3
330
18
100
AcDbEntity
  8
01
  6
BYBLOCK
100
AcDbCircle
 10
2426.134060617122
 20
-548.666476302163
 30
0.0000000000563712
 40
10.00000000000009
100
AcDbArc
 50
53.13010235414986
 51
115.4224671781178
  0
ARC
  5
1ABF4
330
18
100
AcDbEntity
  8
01
  6
BYBLOCK
100
AcDbCircle
 10
2426.134060617122
 20
-548.6664763021628
 30
0.0000000000563712
 40
10.00000000000009
100
AcDbArc
 50
244.5775328218822
 51
306.8698976458437
  0
LINE
  5
1ABF5
330
18
100
AcDbEntity
  8
01
  6
BYBLOCK
100
AcDbLine
 10
2432.134060617123
 20
-540.666476302163
 30
0.0000000000563712
 11
2432.134060617123
 21
-556.666476302163
 31
0.0000000000563712
  0
LINE
  5
1ABF6
330
18
100
AcDbEntity
  8
01
  6
BYBLOCK
100
AcDbLine
 10
2421.841167398309
 20
-543.416476302163
 30
0.0000000000563712
 11
2431.634060617123
 21
-543.416476302163
 31
0.0000000000563712
  0
LINE
  5
1ABF7
330
18
100
AcDbEntity
  8
01
  6
BYBLOCK
100
AcDbLine
 10
2421.841167398309
 20
-553.916476302163
 30
0.0000000000563712
 11
2431.634060617123
 21
-553.916476302163
 31
0.0000000000563712
  0
LINE
  5
1ABF8
330
18
100
AcDbEntity
  8
01
  6
BYBLOCK
100
AcDbLine
 10
2307.441283738054
 20
-484.7664763021768
 30
0.0000000000563712
 11
2320.241283738053
 21
-484.7664763021768
 31
0.0000000000563712
  0
LINE
  5
1ABF9
330
18
100
AcDbEntity
  8
01
  6
BYBLOCK
100
AcDbLine
 10
2307.441283738054
 20
-614.5664763021767
 30
0.0000000000563712
 11
2320.241283738053
 21
-614.5664763021767
 31
0.0000000000563712
  0
LINE
  5
1ABFA
330
18
100
AcDbEntity
  8
01
  6
BYBLOCK
100
AcDbLine
 10
2301.441283738054
 20
-490.7664763021768
 30
0.0000000000563712
 11
2301.441283738054
 21
-608.5664763021767
 31
0.0000000000563712
  0
LINE
  5
1ABFB
330
18
100
AcDbEntity
  8
01
  6
BYBLOCK
100
AcDbLine
 10
2326.241283738053
 20
-490.7664763021768
 30
0.0000000000563712
 11
2326.241283738053
 21
-608.5664763021767
 31
0.0000000000563712
  0
ARC
  5
1ABFC
330
18
100
AcDbEntity
  8
01
  6
BYBLOCK
100
AcDbCircle
 10
2307.441283738054
 20
-608.5664763021767
 30
0.0000000000563712
 40
6.0
100
AcDbArc
 50
180.0
 51
270.0
  0
ARC
  5
1ABFD
330
18
100
AcDbEntity
  8
01
  6
BYBLOCK
100
AcDbCircle
 10
2320.241283738053
 20
-608.5664763021767
 30
0.0000000000563712
 40
6.0
100
AcDbArc
 50
270.0
 51
0.0
  0
ARC
  5
1ABFE
330
18
100
AcDbEntity
  8
01
  6
BYBLOCK
100
AcDbCircle
 10
2307.441283738054
 20
-490.7664763021768
 30
0.0000000000563712
 40
6.0
100
AcDbArc
 50
90.0
 51
180.0
  0
ARC
  5
1ABFF
330
18
100
AcDbEntity
  8
01
  6
BYBLOCK
100
AcDbCircle
 10
2320.241283738053
 20
-490.7664763021768
 30
0.0000000000563712
 40
6.0
100
AcDbArc
 50
0.0
 51
90.0
  0
CIRCLE
  5
1AC00
330
18
100
AcDbEntity
  8
01
  6
BYBLOCK
100
AcDbCircle
 10
2313.841283738053
 20
-606.6664763021766
 30
0.0000000000563712
 40
2.75
  0
CIRCLE
  5
1AC01
330
18
100
AcDbEntity
  8
01
  6
BYBLOCK
100
AcDbCircle
 10
2313.841283738053
 20
-606.6664763021766
 30
0.0000000000563712
 40
4.25
  0
CIRCLE
  5
1AC02
330
18
100
AcDbEntity
  8
01
  6
BYBLOCK
100
AcDbCircle
 10
2313.841283738053
 20
-492.6664763021769
 30
0.0000000000563712
 40
2.75
  0
CIRCLE
  5
1AC03
330
18
100
AcDbEntity
  8
01
  6
BYBLOCK
100
AcDbCircle
 10
2313.841283738053
 20
-492.6664763021769
 30
0.0000000000563712
 40
4.25
  0
LINE
  5
1AC04
330
18
100
AcDbEntity
  8
1CENTER
100
AcDbLine
 10
2319.716309145959
 20
-606.6664763021769
 30
0.0000000000563712
 11
2307.966258330147
 21
-606.6664763021769
 31
0.0000000000563712
  0
LINE
  5
1AC05
330
18
100
AcDbEntity
  8
1CENTER
100
AcDbLine
 10
2313.841283738053
 20
-600.7914508942705
 30
0.0000000000563712
 11
2313.841283738053
 21
-612.541501710083
 31
0.0000000000563712
  0
LINE
  5
1AC06
330
18
100
AcDbEntity
  8
1CENTER
100
AcDbLine
 10
2319.716309145959
 20
-492.6664763021769
 30
0.0000000000563712
 11
2307.966258330147
 21
-492.6664763021769
 31
0.0000000000563712
  0
LINE
  5
1AC07
330
18
100
AcDbEntity
  8
1CENTER
100
AcDbLine
 10
2313.841283738053
 20
-486.7914508942705
 30
0.0000000000563712
 11
2313.841283738053
 21
-498.541501710083
 31
0.0000000000563712
  0
ARC
  5
1AC08
330
18
100
AcDbEntity
  8
01
  6
BYBLOCK
100
AcDbCircle
 10
2313.841283738053
 20
-548.6664763021766
 30
0.0000000000563712
 40
10.15
100
AcDbArc
 50
231.9925780701365
 51
308.0074219298635
  0
LINE
  5
1AC09
330
18
100
AcDbEntity
  8
01
  6
BYBLOCK
100
AcDbLine
 10
2307.591283738053
 20
-540.6689766929238
 30
0.0000000000563712
 11
2307.591283738053
 21
-556.6639759114295
 31
0.0000000000563712
  0
LINE
  5
1AC0A
330
18
100
AcDbEntity
  8
01
  6
BYBLOCK
100
AcDbLine
 10
2320.091283738053
 20
-540.6689766929238
 30
0.0000000000563712
 11
2320.091283738053
 21
-556.6639759114295
 31
0.0000000000563712
  0
ARC
  5
1AC0B
330
18
100
AcDbEntity
  8
01
  6
BYBLOCK
100
AcDbCircle
 10
2313.841283738053
 20
-548.6664763021766
 30
0.0000000000563712
 40
10.15
100
AcDbArc
 50
51.9925780701429
 51
128.0074219298571
  0
LINE
  5
1AC0C
330
18
100
AcDbEntity
  8
01
  6
BYBLOCK
100
AcDbLine
 10
2309.341283738053
 20
-543.4164763021766
 30
0.0000000000563712
 11
2309.341283738053
 21
-553.9164763021766
 31
0.0000000000563712
  0
LINE
  5
1AC0D
330
18
100
AcDbEntity
  8
01
  6
BYBLOCK
100
AcDbLine
 10
2319.341283738053
 20
-543.4164763021766
 30
0.0000000000563712
 11
2319.341283738053
 21
-553.9164763021766
 31
0.0000000000563712
  0
LINE
  5
1AC0E
330
18
100
AcDbEntity
  8
01
  6
BYBLOCK
100
AcDbLine
 10
2309.841283738053
 20
-539.3378912004583
 30
0.0000000000563712
 11
2309.841283738053
 21
-543.4164763021769
 31
0.0000000000563712
  0
LINE
  5
1AC0F
330
18
100
AcDbEntity
  8
01
  6
BYBLOCK
100
AcDbLine
 10
2308.341283738053
 20
-543.4164763021769
 30
0.0000000000563712
 11
2308.341283738053
 21
-553.9164763021766
 31
0.0000000000563712
  0
LINE
  5
1AC10
330
18
100
AcDbEntity
  8
01
  6
BYBLOCK
100
AcDbLine
 10
2309.841283738053
 20
-553.9164763021766
 30
0.0000000000563712
 11
2309.841283738053
 21
-557.995061403895
 31
0.0000000000563712
  0
LINE
  5
1AC11
330
18
100
AcDbEntity
  8
01
  6
BYBLOCK
100
AcDbLine
 10
2308.341283738053
 20
-543.4164763021766
 30
0.0000000000563712
 11
2319.341283738053
 21
-543.4164763021766
 31
0.0000000000563712
  0
LINE
  5
1AC12
330
18
100
AcDbEntity
  8
01
  6
BYBLOCK
100
AcDbLine
 10
2308.341283738053
 20
-553.9164763021766
 30
0.0000000000563712
 11
2319.341283738053
 21
-553.9164763021766
 31
0.0000000000563712
  0
LINE
  5
1AC16
330
18
100
AcDbEntity
  8
01
100
AcDbLine
 10
2293.841400077796
 20
-450.6664763021764
 30
0.0000000000563712
 11
2293.841400077796
 21
-640.6664763021766
 31
0.0000000000563712
  0
LINE
  5
1AC17
330
18
100
AcDbEntity
  8
01
100
AcDbLine
 10
2293.841400077796
 20
-545.6664763021766
 30
0.0000000000563712
 11
2293.841400077796
 21
-595.6664763021766
 31
0.0000000000563712
  0
LINE
  5
1AC18
330
18
100
AcDbEntity
  8
01
100
AcDbLine
 10
2285.341400077796
 20
-594.6664763021766
 30
0.0000000000563712
 11
2285.341400077796
 21
-546.6664763021766
 31
0.0000000000563712
  0
LINE
  5
1AC19
330
18
100
AcDbEntity
  8
01
100
AcDbLine
 10
2293.841400077796
 20
-595.6664763021766
 30
0.0000000000563712
 11
2286.341400077796
 21
-595.6664763021766
 31
0.0000000000563712
  0
ARC
  5
1AC1A
330
18
100
AcDbEntity
  8
01
100
AcDbCircle
 10
2286.341400077796
 20
-594.6664763021766
 30
0.0000000000563712
 40
1.0
100
AcDbArc
 50
180.0
 51
270.0
  0
LINE
  5
1AC1B
330
18
100
AcDbEntity
  8
01
100
AcDbLine
 10
2293.841400077796
 20
-545.6664763021766
 30
0.0000000000563712
 11
2286.341400077796
 21
-545.6664763021766
 31
0.0000000000563712
  0
ARC
  5
1AC1C
330
18
100
AcDbEntity
  8
01
100
AcDbCircle
 10
2286.341400077796
 20
-546.6664763021766
 30
0.0000000000563712
 40
1.0
100
AcDbArc
 50
90.0
 51
180.0
  0
LINE
  5
1AC1D
330
18
100
AcDbEntity
  8
01
100
AcDbLine
 10
2427.841167398596
 20
-606.6664763018874
 30
0.0000000000563712
 11
2441.841167398596
 21
-606.6664763018874
 31
0.0000000000563712
  0
LINE
  5
1AC1E
330
18
100
AcDbEntity
  8
01
100
AcDbLine
 10
2495.153055665849
 20
-520.6664763021762
 30
0.0000000000563712
 11
2472.529279130766
 21
-520.6664763021762
 31
0.0000000000563712
  0
LINE
  5
1AC1F
330
18
100
AcDbEntity
  8
01
100
AcDbLine
 10
2483.841167398309
 20
-509.3545880346345
 30
0.0000000000563712
 11
2483.841167398309
 21
-531.9783645697179
 31
0.0000000000563712
  0
LINE
  5
1AC20
330
18
100
AcDbEntity
  8
01
  6
BYBLOCK
100
AcDbLine
 10
2205.841400077798
 20
-539.6348060351601
 30
0.0000000000563712
 11
2205.841400077798
 21
-557.6981465691659
 31
0.0000000000563712
  0
LINE
  5
1AC21
330
18
100
AcDbEntity
  8
01
  6
BYBLOCK
100
AcDbLine
 10
2201.548506858985
 20
-538.666476302163
 30
0.0000000000563712
 11
2194.841400077798
 21
-538.666476302163
 31
0.0000000000563712
  0
LINE
  5
1AC22
330
18
100
AcDbEntity
  8
01
  6
BYBLOCK
100
AcDbLine
 10
2201.548506858985
 20
-558.666476302163
 30
0.0000000000563712
 11
2194.841400077798
 21
-558.666476302163
 31
0.0000000000563712
  0
ARC
  5
1AC23
330
18
100
AcDbEntity
  8
01
  6
BYBLOCK
100
AcDbCircle
 10
2201.548506858985
 20
-548.666476302163
 30
0.0000000000563712
 40
10.00000000000009
100
AcDbArc
 50
64.57753282188216
 51
90.0
  0
LINE
  5
1AC24
330
18
100
AcDbEntity
  8
01
  6
CONTINUOUS
100
AcDbLine
 10
2205.341400077798
 20
-556.9812704949937
 30
0.0000000000563712
 11
2194.841400077798
 21
-556.9812704949937
 31
0.0000000000563712
  0
ARC
  5
1AC25
330
18
100
AcDbEntity
  8
01
  6
CONTINUOUS
100
AcDbCircle
 10
2205.379980324712
 20
-556.519131264187
 30
0.0000000000563712
 40
0.4637468103423796
100
AcDbArc
 50
265.2279066161926
 51
354.2577450626241
  0
LINE
  5
1AC26
330
18
100
AcDbEntity
  8
01
  6
CONTINUOUS
100
AcDbLine
 10
2205.841400077798
 20
-541.183161528615
 30
0.0000000000563712
 11
2205.841400077798
 21
-556.1497910757108
 31
0.0000000000563712
  0
ARC
  5
1AC27
330
18
100
AcDbEntity
  8
01
  6
CONTINUOUS
100
AcDbCircle
 10
2205.379980324712
 20
-540.8138213401386
 30
0.0000000000563712
 40
0.4637468103423387
100
AcDbArc
 50
5.742254937375924
 51
94.77209338380747
  0
ARC
  5
1AC28
330
18
100
AcDbEntity
  8
01
  6
BYBLOCK
100
AcDbCircle
 10
2201.548506858985
 20
-548.6664763021628
 30
0.0000000000563712
 40
10.00000000000009
100
AcDbArc
 50
270.0
 51
295.4224671781178
  0
LINE
  5
1AC29
330
18
100
AcDbEntity
  8
01
  6
CONTINUOUS
100
AcDbLine
 10
2194.841400077798
 20
-540.3516821093318
 30
0.0000000000563712
 11
2205.341400077798
 21
-540.3516821093318
 31
0.0000000000563712
  0
LINE
  5
1AC2A
330
18
100
AcDbEntity
  8
01
100
AcDbLine
 10
2501.841167398309
 20
-544.166476302178
 30
0.0000000000563712
 11
2501.841167398309
 21
-585.6664763021762
 31
0.0000000000563712
  0
ARC
  5
1AC2F
330
18
100
AcDbEntity
  8
01
100
AcDbCircle
 10
2500.841167398309
 20
-585.6664763021762
 30
0.0000000000563712
 40
1.0
100
AcDbArc
 50
270.0
 51
0.0
  0
LINE
  5
1AC34
330
18
100
AcDbEntity
  8
01
100
AcDbLine
 10
2457.341167398312
 20
-586.6664763021762
 30
0.0000000000563712
 11
2500.841167398309
 21
-586.666476302176
 31
0.0000000000563712
  0
LINE
  5
1AC35
330
18
100
AcDbEntity
  8
01
100
AcDbLine
 10
2173.841400077798
 20
-570.6664763021762
 30
0.0000000000563712
 11
2113.841400077798
 21
-570.6664763021762
 31
0.0000000000563712
  0
LINE
  5
1AC36
330
18
100
AcDbEntity
  8
01
100
AcDbLine
 10
2143.841400077798
 20
-540.6664763021762
 30
0.0000000000563712
 11
2143.841400077798
 21
-600.6664763021762
 31
0.0000000000563712
  0
LINE
  5
1AC37
330
18
100
AcDbEntity
  8
01
100
AcDbLine
 10
2457.341283738055
 20
-280.6664763032048
 30
0.0000000000563712
 11
2510.341283738052
 21
-280.6664763032048
 31
0.0000000000563712
  0
LINE
  5
1AC38
330
18
100
AcDbEntity
  8
01
100
AcDbLine
 10
2457.841283738055
 20
-272.1664763032048
 30
0.0000000000563712
 11
2481.341294838325
 21
-272.1664763032048
 31
0.0000000000563712
  0
LINE
  5
1AC39
330
18
100
AcDbEntity
  8
01
100
AcDbLine
 10
2510.341283738052
 20
-280.6664763032048
 30
0.0000000000563712
 11
2510.341283738052
 21
-272.6664763032048
 31
0.0000000000563712
  0
LINE
  5
1AC3A
330
18
100
AcDbEntity
  8
01
100
AcDbLine
 10
2457.341283738055
 20
-280.6664763032048
 30
0.0000000000563712
 11
2457.341283738055
 21
-272.6664763032048
 31
0.0000000000563712
  0
ARC
  5
1AC3B
330
18
100
AcDbEntity
  8
01
100
AcDbCircle
 10
2457.841283738055
 20
-272.6664763032048
 30
0.0000000000563712
 40
0.5
100
AcDbArc
 50
90.0
 51
180.0
  0
ARC
  5
1AC3C
330
18
100
AcDbEntity
  8
01
100
AcDbCircle
 10
2509.841283738052
 20
-272.6664763032048
 30
0.0000000000563712
 40
0.5
100
AcDbArc
 50
0.0
 51
90.0
  0
LINE
  5
1AC3D
330
18
100
AcDbEntity
  8
01
100
AcDbLine
 10
2453.841167398309
 20
-570.6664763021762
 30
0.0000000000563712
 11
2513.841167398309
 21
-570.6664763021762
 31
0.0000000000563712
  0
LINE
  5
1AC3E
330
18
100
AcDbEntity
  8
01
100
AcDbLine
 10
2483.841167398309
 20
-540.6664763021762
 30
0.0000000000563712
 11
2483.841167398309
 21
-600.6664763021762
 31
0.0000000000563712
  0
LINE
  5
1AC3F
330
18
100
AcDbEntity
  8
01
100
AcDbLine
 10
2501.841167398309
 20
-513.6664763021762
 30
0.0000000000563712
 11
2501.841167398309
 21
-535.166476098049
 31
0.0000000000563712
  0
LINE
  5
1AC40
330
18
100
AcDbEntity
  8
01
  6
BYBLOCK
100
AcDbLine
 10
2435.541167398309
 20
-512.6664763021762
 30
0.0000000000563712
 11
2463.841167398311
 21
-512.6664763021762
 31
0.0000000000563712
  0
LINE
  5
1AC41
330
18
100
AcDbEntity
  8
01
100
AcDbLine
 10
2463.841167398311
 20
-512.6664763021762
 30
0.0000000000563712
 11
2500.841167398309
 21
-512.6664763021762
 31
0.0000000000563712
  0
LINE
  5
1AC42
330
18
100
AcDbEntity
  8
01
  6
BYBLOCK
100
AcDbLine
 10
2501.841167398311
 20
-535.166476098049
 30
0.0000000000563712
 11
2501.841167398311
 21
-544.166476302178
 31
0.0000000000563712
  0
LINE
  5
1AC43
330
18
100
AcDbEntity
  8
01
100
AcDbLine
 10
2199.841400077798
 20
-492.6664763021762
 30
0.0000000000563712
 11
2185.841400077798
 21
-492.6664763021762
 31
0.0000000000563712
  0
LINE
  5
1AC44
330
18
100
AcDbEntity
  8
01
  6
BYBLOCK
100
AcDbLine
 10
2193.341400077798
 20
-484.7664763021761
 30
0.0000000000563712
 11
2193.341400077798
 21
-614.566476302176
 31
0.0000000000563712
  0
LINE
  5
1AC45
330
18
100
AcDbEntity
  8
01
  6
BYBLOCK
100
AcDbLine
 10
2193.341400077798
 20
-613.6664763021762
 30
0.0000000000563712
 11
2190.841400077798
 21
-613.6664763021762
 31
0.0000000000563712
  0
LINE
  5
1AC46
330
18
100
AcDbEntity
  8
01
  6
BYBLOCK
100
AcDbLine
 10
2190.841400077798
 20
-613.6664763021762
 30
0.0000000000563712
 11
2190.841400077798
 21
-597.1635325770238
 31
0.0000000000563712
  0
LINE
  5
1AC47
330
18
100
AcDbEntity
  8
01
  6
BYBLOCK
100
AcDbLine
 10
2194.841400077798
 20
-484.7664763021761
 30
0.0000000000563712
 11
2194.841400077798
 21
-614.566476302176
 31
0.0000000000563712
  0
LINE
  5
1AC48
330
18
100
AcDbEntity
  8
01
  6
BYBLOCK
100
AcDbLine
 10
2194.841400077798
 20
-614.566476302176
 30
0.0000000000563712
 11
2193.341400077798
 21
-614.566476302176
 31
0.0000000000563712
  0
LINE
  5
1AC49
330
18
100
AcDbEntity
  8
01
  6
BYBLOCK
100
AcDbLine
 10
2193.341400077798
 20
-485.6664763021762
 30
0.0000000000563712
 11
2190.841400077798
 21
-485.6664763021762
 31
0.0000000000563712
  0
LINE
  5
1AC4A
330
18
100
AcDbEntity
  8
01
  6
BYBLOCK
100
AcDbLine
 10
2194.841400077798
 20
-484.7664763021761
 30
0.0000000000563712
 11
2193.341400077798
 21
-484.7664763021761
 31
0.0000000000563712
  0
LINE
  5
1AC4B
330
18
100
AcDbEntity
  8
01
  6
BYBLOCK
100
AcDbLine
 10
2193.341400077798
 20
-509.6664763021762
 30
0.0000000000563712
 11
2192.141400077798
 21
-509.6664763021762
 31
0.0000000000563712
  0
LINE
  5
1AC4C
330
18
100
AcDbEntity
  8
01
  6
BYBLOCK
100
AcDbLine
 10
2192.141400077798
 20
-503.9664763021759
 30
0.0000000000563712
 11
2192.141400077798
 21
-595.366476302176
 31
0.0000000000563712
  0
LINE
  5
1AC4D
330
18
100
AcDbEntity
  8
01
  6
BYBLOCK
100
AcDbLine
 10
2192.041400077798
 20
-613.6664763021762
 30
0.0000000000563712
 11
2192.041400077798
 21
-597.066476302176
 31
0.0000000000563712
  0
LINE
  5
1AC4E
330
18
100
AcDbEntity
  8
01
  6
BYBLOCK
100
AcDbLine
 10
2192.041400077798
 20
-597.066476302176
 30
0.0000000000563712
 11
2192.989928215222
 21
-596.1179481647522
 31
0.0000000000563712
  0
LINE
  5
1AC4F
330
18
100
AcDbEntity
  8
01
  6
BYBLOCK
100
AcDbLine
 10
2191.192871940375
 20
-596.3150044395999
 30
0.0000000000563712
 11
2192.141400077798
 21
-595.366476302176
 31
0.0000000000563712
  0
ARC
  5
1AC50
330
18
100
AcDbEntity
  8
01
  6
BYBLOCK
100
AcDbCircle
 10
2192.041400077798
 20
-597.1635325770238
 30
0.0000000000563712
 40
1.2
100
AcDbArc
 50
134.9999999999616
 51
180.0
  0
ARC
  5
1AC51
330
18
100
AcDbEntity
  8
01
  6
BYBLOCK
100
AcDbCircle
 10
2192.141400077798
 20
-595.2694200273282
 30
0.0000000000563712
 40
1.2
100
AcDbArc
 50
314.9999999999616
 51
0.0
  0
LINE
  5
1AC52
330
18
100
AcDbEntity
  8
01
  6
BYBLOCK
100
AcDbLine
 10
2190.841400077798
 20
-485.6664763021762
 30
0.0000000000563712
 11
2190.841400077798
 21
-502.1694200273283
 31
0.0000000000563712
  0
LINE
  5
1AC53
330
18
100
AcDbEntity
  8
01
  6
BYBLOCK
100
AcDbLine
 10
2192.041400077798
 20
-485.6664763021762
 30
0.0000000000563712
 11
2192.041400077798
 21
-502.2664763021761
 31
0.0000000000563712
  0
LINE
  5
1AC54
330
18
100
AcDbEntity
  8
01
  6
BYBLOCK
100
AcDbLine
 10
2192.041400077798
 20
-502.2664763021761
 30
0.0000000000563712
 11
2192.989928215222
 21
-503.2150044396
 31
0.0000000000563712
  0
LINE
  5
1AC55
330
18
100
AcDbEntity
  8
01
  6
BYBLOCK
100
AcDbLine
 10
2191.192871940375
 20
-503.0179481647523
 30
0.0000000000563712
 11
2192.141400077798
 21
-503.9664763021761
 31
0.0000000000563712
  0
ARC
  5
1AC56
330
18
100
AcDbEntity
  8
01
  6
BYBLOCK
100
AcDbCircle
 10
2192.041400077798
 20
-502.1694200273283
 30
0.0000000000563712
 40
1.2
100
AcDbArc
 50
180.0
 51
225.0000000000384
  0
ARC
  5
1AC57
330
18
100
AcDbEntity
  8
01
  6
BYBLOCK
100
AcDbCircle
 10
2192.141400077798
 20
-504.0635325770239
 30
0.0000000000563712
 40
1.2
100
AcDbArc
 50
0.0
 51
45.00000000003838
  0
LINE
  5
1AC58
330
18
100
AcDbEntity
  8
01
  6
BYBLOCK
100
AcDbLine
 10
2192.141400077798
 20
-586.6664763021764
 30
0.0000000000563712
 11
2170.341400077794
 21
-586.6664763021762
 31
0.0000000000563712
  0
LINE
  5
1AC59
330
18
100
AcDbEntity
  8
01
  6
BYBLOCK
100
AcDbLine
 10
2205.841400077798
 20
-539.6348060351601
 30
0.0000000000563712
 11
2205.841400077798
 21
-557.6981465691659
 31
0.0000000000563712
  0
LINE
  5
1AC5A
330
18
100
AcDbEntity
  8
01
  6
BYBLOCK
100
AcDbLine
 10
2201.548506858985
 20
-538.666476302163
 30
0.0000000000563712
 11
2194.841400077798
 21
-538.666476302163
 31
0.0000000000563712
  0
LINE
  5
1AC5B
330
18
100
AcDbEntity
  8
01
  6
BYBLOCK
100
AcDbLine
 10
2201.548506858985
 20
-558.666476302163
 30
0.0000000000563712
 11
2194.841400077798
 21
-558.666476302163
 31
0.0000000000563712
  0
LINE
  5
1AC5C
330
18
100
AcDbEntity
  8
01
100
AcDbLine
 10
2199.841400077511
 20
-606.6664763018874
 30
0.0000000000563712
 11
2185.841400077511
 21
-606.6664763018874
 31
0.0000000000563712
  0
LINE
  5
1AC5D
330
18
100
AcDbEntity
  8
01
100
AcDbLine
 10
2173.841400077798
 20
-570.6664763021762
 30
0.0000000000563712
 11
2113.841400077798
 21
-570.6664763021762
 31
0.0000000000563712
  0
LINE
  5
1AC5E
330
18
100
AcDbEntity
  8
01
100
AcDbLine
 10
2143.841400077798
 20
-540.6664763021762
 30
0.0000000000563712
 11
2143.841400077798
 21
-600.6664763021762
 31
0.0000000000563712
  0
LINE
  5
1AC5F
330
18
100
AcDbEntity
  8
01
  6
BYBLOCK
100
AcDbLine
 10
2192.141400077798
 20
-512.6664763021762
 30
0.0000000000563712
 11
2163.841400077796
 21
-512.6664763021762
 31
0.0000000000563712
  0
LINE
  5
1AC60
330
18
100
AcDbEntity
  8
01
  6
BYBLOCK
100
AcDbLine
 10
2125.841400077795
 20
-535.166476098049
 30
0.0000000000563712
 11
2125.841400077795
 21
-544.166476302178
 31
0.0000000000563712
  0
TEXT
  5
1AC61
330
18
100
AcDbEntity
  8
1TEXT
100
AcDbText
 10
2125.841299738053
 20
-289.1664763021762
 30
0.0
 40
20.0
  1
2-J8T-X-LJ-2
100
AcDbText
  0
TEXT
  5
1AC62
330
18
100
AcDbEntity
  8
1TEXT
100
AcDbText
 10
2138.041299738054
 20
-327.4164763021762
 30
0.0
 40
6.0
  1
表面処理
 72
     1
 11
2151.941299738054
 21
-327.4164763021762
 31
0.0
100
AcDbText
  0
TEXT
  5
1AC63
330
18
100
AcDbEntity
  8
1TEXT
100
AcDbText
 10
2137.741299738054
 20
-337.669409291463
 30
0.0
 40
6.0
  1
クローム
 72
     1
 11
2151.941299738054
 21
-337.669409291463
 31
0.0
100
AcDbText
  0
LINE
  5
1AC64
330
18
100
AcDbEntity
  8
1DIM
100
AcDbLine
 10
2125.841299738053
 20
-319.1664763021762
 30
0.0000000000563712
 11
2230.841299738053
 21
-319.1664763021762
 31
0.0000000000563712
  0
LINE
  5
1AC65
330
18
100
AcDbEntity
  8
1DIM
100
AcDbLine
 10
2125.841299738053
 20
-329.6664763021762
 30
0.0000000000563712
 11
2230.841299738053
 21
-329.6664763021762
 31
0.0000000000563712
  0
LINE
  5
1AC66
330
18
100
AcDbEntity
  8
1DIM
100
AcDbLine
 10
2125.841299738053
 20
-340.1664763021762
 30
0.0000000000563712
 11
2230.841299738053
 21
-340.1664763021762
 31
0.0000000000563712
  0
LINE
  5
1AC67
330
18
100
AcDbEntity
  8
1DIM
100
AcDbLine
 10
2125.841299738053
 20
-340.1664763021762
 30
0.0000000000563712
 11
2230.841299738053
 21
-340.1664763021762
 31
0.0000000000563712
  0
LINE
  5
1AC68
330
18
100
AcDbEntity
  8
1DIM
100
AcDbLine
 10
2178.341299738053
 20
-319.1664763021762
 30
0.0000000000563712
 11
2178.341299738053
 21
-340.1664763021762
 31
0.0000000000563712
  0
TEXT
  5
1AC69
330
18
100
AcDbEntity
  8
1TEXT
100
AcDbText
 10
2179.941299738054
 20
-338.2380117776501
 30
0.0
 40
6.0
  1
2-J8T-C-LJ-2
 41
0.6999999999999998
 72
     1
 11
2204.441299738054
 21
-338.2380117776501
 31
0.0
100
AcDbText
  0
TEXT
  5
1AC6A
330
18
100
AcDbEntity
  8
1TEXT
100
AcDbText
 10
2194.141299738053
 20
-327.4164763021762
 30
0.0
 40
6.0
  1
コード
 72
     1
 11
2204.441299738054
 21
-327.4164763021762
 31
0.0
100
AcDbText
  0
LINE
  5
1AC6B
330
18
100
AcDbEntity
  8
1DIM
100
AcDbLine
 10
2230.841299738053
 20
-340.1664763021762
 30
0.0000000000563712
 11
2230.841299738053
 21
-319.1664763021762
 31
0.0000000000563712
  0
LINE
  5
1AC6C
330
18
100
AcDbEntity
  8
1DIM
100
AcDbLine
 10
2125.841299738053
 20
-340.1664763021762
 30
0.0000000000563712
 11
2230.841299738053
 21
-340.1664763021762
 31
0.0000000000563712
  0
LINE
  5
1AC6D
330
18
100
AcDbEntity
  8
1DIM
100
AcDbLine
 10
2178.341299738053
 20
-340.1664763021762
 30
0.0000000000563712
 11
2178.341299738053
 21
-350.6664763021762
 31
0.0000000000563712
  0
LINE
  5
1AC6E
330
18
100
AcDbEntity
  8
1DIM
100
AcDbLine
 10
2125.841299738053
 20
-350.6664763021762
 30
0.0000000000563712
 11
2230.841299738053
 21
-350.6664763021762
 31
0.0000000000563712
  0
TEXT
  5
1AC6F
330
18
100
AcDbEntity
  8
1TEXT
100
AcDbText
 10
2127.141299738053
 20
-348.1328467195325
 30
0.0
 40
6.0
  1
サテンニッケル
 72
     1
 11
2151.941299738054
 21
-348.1328467195325
 31
0.0
100
AcDbText
  0
LINE
  5
1AC70
330
18
100
AcDbEntity
  8
1DIM
100
AcDbLine
 10
2125.841299738053
 20
-350.6664763021762
 30
0.0000000000563712
 11
2125.841299738053
 21
-340.1664763021762
 31
0.0000000000563712
  0
LINE
  5
1AC71
330
18
100
AcDbEntity
  8
1DIM
100
AcDbLine
 10
2230.841299738053
 20
-350.6664763021762
 30
0.0000000000563712
 11
2230.841299738053
 21
-340.1664763021762
 31
0.0000000000563712
  0
TEXT
  5
1AC72
330
18
100
AcDbEntity
  8
1TEXT
100
AcDbText
 10
2179.941299738054
 20
-348.7380117776501
 30
0.0
 40
6.0
  1
2-J8T-N-LJ-2
 41
0.6999999999999998
 72
     1
 11
2204.441299738054
 21
-348.7380117776501
 31
0.0
100
AcDbText
  0
LINE
  5
1AC73
330
18
100
AcDbEntity
  8
1DIM
100
AcDbLine
 10
2125.841299738053
 20
-340.1664763021762
 30
0.0000000000563712
 11
2125.841299738053
 21
-319.1664763021762
 31
0.0000000000563712
  0
LINE
  5
1AC74
330
18
100
AcDbEntity
  8
1DIM
100
AcDbLine
 10
2178.341299738053
 20
-350.6664763021762
 30
0.0000000000563712
 11
2178.341299738053
 21
-361.1664763021762
 31
0.0000000000563712
  0
LINE
  5
1AC75
330
18
100
AcDbEntity
  8
1DIM
100
AcDbLine
 10
2125.841299738053
 20
-361.1664763021762
 30
0.0000000000563712
 11
2230.841299738053
 21
-361.1664763021762
 31
0.0000000000563712
  0
TEXT
  5
1AC76
330
18
100
AcDbEntity
  8
1TEXT
100
AcDbText
 10
2127.741299738054
 20
-358.6328467195325
 30
0.0
 40
6.0
  1
パールブラック
 72
     1
 11
2151.941299738054
 21
-358.6328467195325
 31
0.0
100
AcDbText
  0
LINE
  5
1AC77
330
18
100
AcDbEntity
  8
1DIM
100
AcDbLine
 10
2125.841299738053
 20
-361.1664763021762
 30
0.0000000000563712
 11
2125.841299738053
 21
-350.6664763021762
 31
0.0000000000563712
  0
LINE
  5
1AC78
330
18
100
AcDbEntity
  8
1DIM
100
AcDbLine
 10
2230.841299738053
 20
-361.1664763021762
 30
0.0000000000563712
 11
2230.841299738053
 21
-350.6664763021762
 31
0.0000000000563712
  0
TEXT
  5
1AC79
330
18
100
AcDbEntity
  8
1TEXT
100
AcDbText
 10
2179.727758071387
 20
-359.2380117776501
 30
0.0
 40
6.0
  1
2-J8T-GQ-LJ-2
 41
0.65
 72
     1
 11
2204.441299738054
 21
-359.2380117776501
 31
0.0
100
AcDbText
  0
POINT
  5
1AC7A
330
18
100
AcDbEntity
  8
01
100
AcDbPoint
 10
2348.341167398309
 20
-570.665157989073
 30
0.0000000000563712
  0
LINE
  5
1AC7B
330
18
100
AcDbEntity
  8
01
100
AcDbLine
 10
2331.712882015878
 20
-570.665157989073
 30
0.0000000000563712
 11
2354.341167398309
 21
-570.665157989073
 31
0.0000000000563712
  0
LINE
  5
1AC7C
330
18
100
AcDbEntity
  8
01
  6
BYBLOCK
100
AcDbLine
 10
2432.842051580369
 20
-320.6664763032048
 30
0.0000000000563712
 11
2586.5964317354
 21
-320.6664763032048
 31
0.0000000000563712
  0
LINE
  5
1AC7D
330
18
100
AcDbEntity
  8
01
100
AcDbLine
 10
2483.841283738052
 20
-315.6664763032048
 30
0.0000000000563712
 11
2483.841283738052
 21
-342.1664763032048
 31
0.0000000000563712
  0
LINE
  5
1AC83
330
18
100
AcDbEntity
  8
01
100
AcDbLine
 10
2333.841167398309
 20
-450.665157989073
 30
0.0000000000563712
 11
2333.841167398309
 21
-640.665157989073
 31
0.0000000000563712
  0
LINE
  5
1AC84
330
18
100
AcDbEntity
  8
1CENTER
100
AcDbLine
 10
2348.341167398309
 20
-585.665157989073
 30
0.0000000000563712
 11
2348.341167398309
 21
-577.665157989073
 31
0.0000000000563712
  0
LINE
  5
1AC85
330
18
100
AcDbEntity
  8
01
100
AcDbLine
 10
2453.841167398309
 20
-570.665157989073
 30
0.0000000000563712
 11
2513.841167398309
 21
-570.665157989073
 31
0.0000000000563712
  0
LINE
  5
1AC86
330
18
100
AcDbEntity
  8
01
100
AcDbLine
 10
2483.841167398309
 20
-540.665157989073
 30
0.0000000000563712
 11
2483.841167398309
 21
-600.665157989073
 31
0.0000000000563712
  0
LINE
  5
1AC88
330
18
100
AcDbEntity
  8
01
100
AcDbLine
 10
2509.841167398309
 20
-544.1651579890748
 30
0.0000000000563712
 11
2457.841167398312
 21
-544.1651579890748
 31
0.0000000000563712
  0
LINE
  5
1AC89
330
18
100
AcDbEntity
  8
01
100
AcDbLine
 10
2457.841167398312
 20
-597.1651579890748
 30
0.0000000000563712
 11
2509.841167398309
 21
-597.1651579890748
 31
0.0000000000563712
  0
LINE
  5
1AC8A
330
18
100
AcDbEntity
  8
01
100
AcDbLine
 10
2457.341167398312
 20
-544.6651579890748
 30
0.0000000000563712
 11
2457.341167398312
 21
-596.6651579890748
 31
0.0000000000563712
  0
ARC
  5
1AC8B
330
18
100
AcDbEntity
  8
01
100
AcDbCircle
 10
2457.841167398312
 20
-596.6651579890748
 30
0.0000000000563712
 40
0.5
100
AcDbArc
 50
180.0
 51
270.0
  0
ARC
  5
1AC8C
330
18
100
AcDbEntity
  8
01
100
AcDbCircle
 10
2457.841167398312
 20
-544.6651579890748
 30
0.0000000000563712
 40
0.5
100
AcDbArc
 50
90.0
 51
180.0
  0
LINE
  5
1AC8D
330
18
100
AcDbEntity
  8
01
100
AcDbLine
 10
2510.341167398309
 20
-544.6651579890748
 30
0.0000000000563712
 11
2510.341167398309
 21
-559.665157989073
 31
0.0000000000563712
  0
ARC
  5
1AC8E
330
18
100
AcDbEntity
  8
01
100
AcDbCircle
 10
2509.841167398309
 20
-596.6651579890748
 30
0.0000000000563712
 40
0.5
100
AcDbArc
 50
270.0
 51
0.0
  0
ARC
  5
1AC8F
330
18
100
AcDbEntity
  8
01
100
AcDbCircle
 10
2509.841167398309
 20
-544.6651579890748
 30
0.0000000000563712
 40
0.5
100
AcDbArc
 50
0.0
 51
90.0
  0
LINE
  5
1AC90
330
18
100
AcDbEntity
  8
01
100
AcDbLine
 10
2457.341283738055
 20
-320.6664763032048
 30
0.0000000000563712
 11
2510.341283738052
 21
-320.6664763032048
 31
0.0000000000563712
  0
LINE
  5
1AC91
330
18
100
AcDbEntity
  8
01
100
AcDbLine
 10
2457.841283738055
 20
-329.1664763032048
 30
0.0000000000563712
 11
2509.841283738052
 21
-329.1664763032048
 31
0.0000000000563712
  0
LINE
  5
1AC92
330
18
100
AcDbEntity
  8
01
100
AcDbLine
 10
2510.341283738052
 20
-320.6664763032048
 30
0.0000000000563712
 11
2510.341283738052
 21
-328.6664763032048
 31
0.0000000000563712
  0
LINE
  5
1AC93
330
18
100
AcDbEntity
  8
01
100
AcDbLine
 10
2457.341283738055
 20
-320.6664763032048
 30
0.0000000000563712
 11
2457.341283738055
 21
-328.6664763032048
 31
0.0000000000563712
  0
ARC
  5
1AC94
330
18
100
AcDbEntity
  8
01
100
AcDbCircle
 10
2457.841283738055
 20
-328.6664763032048
 30
0.0000000000563712
 40
0.5
100
AcDbArc
 50
180.0
 51
270.0
  0
ARC
  5
1AC95
330
18
100
AcDbEntity
  8
01
100
AcDbCircle
 10
2509.841283738052
 20
-328.6664763032048
 30
0.0000000000563712
 40
0.5
100
AcDbArc
 50
270.0
 51
0.0
  0
LINE
  5
1AC96
330
18
100
AcDbEntity
  8
01
100
AcDbLine
 10
2333.841167398309
 20
-597.1651579890721
 30
0.0000000000563712
 11
2333.841167398309
 21
-544.1651579890748
 31
0.0000000000563712
  0
LINE
  5
1AC97
330
18
100
AcDbEntity
  8
01
100
AcDbLine
 10
2342.341167398309
 20
-596.6651579890721
 30
0.0000000000563712
 11
2342.341167398309
 21
-544.6651579890748
 31
0.0000000000563712
  0
LINE
  5
1AC98
330
18
100
AcDbEntity
  8
01
100
AcDbLine
 10
2333.841167398309
 20
-544.1651579890748
 30
0.0000000000563712
 11
2341.841167398309
 21
-544.1651579890748
 31
0.0000000000563712
  0
LINE
  5
1AC99
330
18
100
AcDbEntity
  8
01
100
AcDbLine
 10
2333.841167398309
 20
-597.1651579890721
 30
0.0000000000563712
 11
2341.841167398309
 21
-597.1651579890721
 31
0.0000000000563712
  0
ARC
  5
1AC9A
330
18
100
AcDbEntity
  8
01
100
AcDbCircle
 10
2341.841167398309
 20
-596.6651579890721
 30
0.0000000000563712
 40
0.5
100
AcDbArc
 50
270.0
 51
0.0
  0
ARC
  5
1AC9B
330
18
100
AcDbEntity
  8
01
100
AcDbCircle
 10
2341.841167398309
 20
-544.6651579890748
 30
0.0000000000563712
 40
0.5
100
AcDbArc
 50
0.0
 51
90.0
  0
LINE
  5
1AC9C
330
18
100
AcDbEntity
  8
01
  6
CONTINUOUS
100
AcDbLine
 10
2472.841167816533
 20
-576.3533573919884
 30
0.0000000000563712
 11
2472.841167816533
 21
-564.9769585861576
 31
0.0000000000563712
  0
LINE
  5
1AC9D
330
18
100
AcDbEntity
  8
01
  6
CONTINUOUS
100
AcDbLine
 10
2603.841167816533
 20
-561.165157989073
 30
0.0000000000563712
 11
2603.841167816533
 21
-580.165157989073
 31
0.0000000000563712
  0
LINE
  5
1AC9E
330
18
100
AcDbEntity
  8
01
  6
CONTINUOUS
100
AcDbLine
 10
2472.841167816533
 20
-564.9769585861576
 30
0.0000000000563712
 11
2472.841167816533
 21
-560.665157989073
 31
0.0000000000563712
  0
LINE
  5
1AC9F
330
18
100
AcDbEntity
  8
01
  6
CONTINUOUS
100
AcDbLine
 10
2472.841167816533
 20
-580.665157989073
 30
0.0000000000563712
 11
2472.841167816533
 21
-576.3533573919884
 31
0.0000000000563712
  0
ARC
  5
1ACA0
330
18
100
AcDbEntity
  8
01
  6
CONTINUOUS
100
AcDbCircle
 10
2473.841167816533
 20
-580.665157989073
 30
0.0000000000563712
 40
1.0
100
AcDbArc
 50
180.0
 51
270.0
  0
ARC
  5
1ACA1
330
18
100
AcDbEntity
  8
01
  6
CONTINUOUS
100
AcDbCircle
 10
2473.841167816533
 20
-560.665157989073
 30
0.0000000000563712
 40
1.0
100
AcDbArc
 50
90.0
 51
180.0
  0
LINE
  5
1ACA2
330
18
100
AcDbEntity
  8
01
  6
CONTINUOUS
100
AcDbLine
 10
2493.841283738052
 20
-329.8664763032046
 30
0.0000000000563712
 11
2493.841283738052
 21
-329.6664763032048
 31
0.0000000000563712
  0
LINE
  5
1ACA3
330
18
100
AcDbEntity
  8
01
  6
CONTINUOUS
100
AcDbLine
 10
2473.841283738052
 20
-329.6664763032048
 30
0.0000000000563712
 11
2473.841283738052
 21
-329.8664763032046
 31
0.0000000000563712
  0
LINE
  5
1ACA4
330
18
100
AcDbEntity
  8
01
  6
CONTINUOUS
100
AcDbLine
 10
2491.791283738051
 20
-329.6664763032048
 30
0.0000000000563712
 11
2491.791283738051
 21
-329.1664763032048
 31
0.0000000000563712
  0
LINE
  5
1ACA5
330
18
100
AcDbEntity
  8
01
  6
CONTINUOUS
100
AcDbLine
 10
2475.891283738052
 20
-329.1664763032048
 30
0.0000000000563712
 11
2475.891283738052
 21
-329.6664763032048
 31
0.0000000000563712
  0
LINE
  5
1ACA6
330
18
100
AcDbEntity
  8
01
  6
CONTINUOUS
100
AcDbLine
 10
2472.841283738052
 20
-368.8664763032046
 30
0.0000000000563712
 11
2472.841283738052
 21
-329.8664763032046
 31
0.0000000000563712
  0
LINE
  5
1ACA7
330
18
100
AcDbEntity
  8
01
  6
CONTINUOUS
100
AcDbLine
 10
2472.841283738052
 20
-329.8664763032046
 30
0.0000000000563712
 11
2473.841283738052
 21
-329.8664763032046
 31
0.0000000000563712
  0
LINE
  5
1ACA8
330
18
100
AcDbEntity
  8
01
  6
CONTINUOUS
100
AcDbLine
 10
2493.841283738052
 20
-329.8664763032046
 30
0.0000000000563712
 11
2494.841283738052
 21
-329.8664763032046
 31
0.0000000000563712
  0
LINE
  5
1ACA9
330
18
100
AcDbEntity
  8
01
  6
CONTINUOUS
100
AcDbLine
 10
2493.841283738052
 20
-329.8664763032046
 30
0.0000000000563712
 11
2473.841283738052
 21
-329.8664763032046
 31
0.0000000000563712
  0
LINE
  5
1ACAA
330
18
100
AcDbEntity
  8
01
  6
CONTINUOUS
100
AcDbLine
 10
2473.841283738052
 20
-329.6664763032048
 30
0.0000000000563712
 11
2493.841283738052
 21
-329.6664763032048
 31
0.0000000000563712
  0
SPLINE
  5
1ACAB
330
18
100
AcDbEntity
  8
01
  6
CONTINUOUS
100
AcDbSpline
210
0.0
220
0.0
230
1.0
 70
     8
 71
     3
 72
     8
 73
     4
 74
     0
 42
0.00000001
 43
0.00000001
 40
0.0
 40
0.0
 40
0.0
 40
0.0
 40
1.0
 40
1.0
 40
1.0
 40
1.0
 10
2472.841167816533
 20
-565.665157989073
 30
0.0000000000563712
 10
2516.344375381994
 20
-561.0026473139004
 30
0.0000000000563712
 10
2560.337960251074
 20
-561.0026473136785
 30
0.0000000000563712
 10
2603.841167816533
 20
-565.665157989073
 30
0.0000000000563712
  0
SPLINE
  5
1ACAC
330
18
100
AcDbEntity
  8
01
  6
CONTINUOUS
100
AcDbSpline
210
0.0
220
0.0
230
1.0
 70
     8
 71
     3
 72
     8
 73
     4
 74
     0
 42
0.00000001
 43
0.00000001
 40
0.0
 40
0.0
 40
0.0
 40
0.0
 40
1.0
 40
1.0
 40
1.0
 40
1.0
 10
2472.841167816533
 20
-575.665157989073
 30
0.0000000000563712
 10
2516.344375381994
 20
-580.3276686642456
 30
0.0000000000563712
 10
2560.337960251074
 20
-580.3276686644675
 30
0.0000000000563712
 10
2603.841167816533
 20
-575.665157989073
 30
0.0000000000563712
  0
LINE
  5
1ACAD
330
18
100
AcDbEntity
  8
01
  6
CONTINUOUS
100
AcDbLine
 10
2383.755617421128
 20
-561.8796430630836
 30
0.0000000000563712
 11
2381.826995193391
 21
-559.9510208353462
 31
0.0000000000563712
  0
ARC
  5
1ACAE
330
18
100
AcDbEntity
  8
01
  6
CONTINUOUS
100
AcDbCircle
 10
2381.126918782495
 20
-560.6651579890735
 30
0.0000000000563712
 40
1.000000000000013
100
AcDbArc
 50
45.65809724731695
 51
90.00028604361376
  0
LINE
  5
1ACAF
330
18
100
AcDbEntity
  8
01
  6
CONTINUOUS
100
AcDbLine
 10
2343.041167398309
 20
-560.665157989073
 30
0.0000000000563712
 11
2342.841167398309
 21
-560.665157989073
 31
0.0000000000563712
  0
ARC
  5
1ACB0
330
18
100
AcDbEntity
  8
01
  6
CONTINUOUS
100
AcDbCircle
 10
2383.041167398309
 20
-562.5794066026373
 30
0.0000000000563712
 40
1.0
100
AcDbArc
 50
0.0000000005732123
 51
44.47438711930053
  0
LINE
  5
1ACB1
330
18
100
AcDbEntity
  8
01
  6
CONTINUOUS
100
AcDbLine
 10
2342.841167398309
 20
-562.7151579890732
 30
0.0000000000563712
 11
2342.341167398309
 21
-562.7151579890732
 31
0.0000000000563712
  0
LINE
  5
1ACB2
330
18
100
AcDbEntity
  8
01
  6
CONTINUOUS
100
AcDbLine
 10
2343.041167398309
 20
-559.665157989073
 30
0.0000000000563712
 11
2381.126918782495
 21
-559.6651579890735
 31
0.0000000000563712
  0
LINE
  5
1ACB3
330
18
100
AcDbEntity
  8
01
  6
CONTINUOUS
100
AcDbLine
 10
2343.041167398309
 20
-560.665157989073
 30
0.0000000000563712
 11
2343.041167398309
 21
-559.665157989073
 31
0.0000000000563712
  0
LINE
  5
1ACB4
330
18
100
AcDbEntity
  8
01
  6
CONTINUOUS
100
AcDbLine
 10
2343.041167398309
 20
-560.665157989073
 30
0.0000000000563712
 11
2343.041167398309
 21
-570.665157989073
 31
0.0000000000563712
  0
LINE
  5
1ACB5
330
18
100
AcDbEntity
  8
01
  6
CONTINUOUS
100
AcDbLine
 10
2384.041167398309
 20
-562.5794066026373
 30
0.0000000000563712
 11
2384.041167398309
 21
-570.665157989073
 31
0.0000000000563712
  0
LINE
  5
1ACB6
330
18
100
AcDbEntity
  8
01
  6
CONTINUOUS
100
AcDbLine
 10
2342.841167398309
 20
-570.665157989073
 30
0.0000000000563712
 11
2342.841167398309
 21
-560.665157989073
 31
0.0000000000563712
  0
ARC
  5
1ACB7
330
18
100
AcDbEntity
  8
01
100
AcDbCircle
 10
2474.841283738052
 20
-368.8664763032046
 30
0.0000000000563712
 40
2.0
100
AcDbArc
 50
180.0
 51
270.0
  0
LINE
  5
1ACB8
330
18
100
AcDbEntity
  8
01
  6
BYBLOCK
100
AcDbLine
 10
2383.748275273873
 20
-565.3722835302809
 30
0.0000000000563712
 11
2378.334060804887
 21
-559.9580523022663
 31
0.0000000000563712
  0
ARC
  5
1ACB9
330
18
100
AcDbEntity
  8
01
100
AcDbCircle
 10
2377.626952929322
 20
-560.6651579890735
 30
0.0000000000563712
 40
1.0
100
AcDbArc
 50
44.99991132417323
 51
90.0
  0
ARC
  5
1ACBA
330
18
100
AcDbEntity
  8
01
100
AcDbCircle
 10
2383.041167398309
 20
-566.0793892170876
 30
0.0000000000563712
 40
1.0
100
AcDbArc
 50
0.0
 51
44.99991132409954
  0
LINE
  5
1ACBB
330
18
100
AcDbEntity
  8
01
  6
CONTINUOUS
100
AcDbLine
 10
2383.755617421128
 20
-579.4506729150629
 30
0.0000000000563712
 11
2381.826995193391
 21
-581.3792951428003
 31
0.0000000000563712
  0
ARC
  5
1ACBC
330
18
100
AcDbEntity
  8
01
  6
CONTINUOUS
100
AcDbCircle
 10
2381.126918782495
 20
-580.665157989073
 30
0.0000000000563712
 40
1.000000000000013
100
AcDbArc
 50
269.9997139563862
 51
314.341902752683
  0
LINE
  5
1ACBD
330
18
100
AcDbEntity
  8
01
  6
CONTINUOUS
100
AcDbLine
 10
2343.041167398309
 20
-580.665157989073
 30
0.0000000000563712
 11
2342.841167398309
 21
-580.665157989073
 31
0.0000000000563712
  0
ARC
  5
1ACBE
330
18
100
AcDbEntity
  8
01
  6
CONTINUOUS
100
AcDbCircle
 10
2383.041167398309
 20
-578.7509093755092
 30
0.0000000000563712
 40
1.0
100
AcDbArc
 50
315.5256128806995
 51
0.0000000005732123
  0
LINE
  5
1ACBF
330
18
100
AcDbEntity
  8
01
  6
CONTINUOUS
100
AcDbLine
 10
2342.841167398309
 20
-578.6151579890733
 30
0.0000000000563712
 11
2342.341167398309
 21
-578.6151579890733
 31
0.0000000000563712
  0
LINE
  5
1ACC0
330
18
100
AcDbEntity
  8
01
  6
CONTINUOUS
100
AcDbLine
 10
2343.041167398309
 20
-581.665157989073
 30
0.0000000000563712
 11
2381.126918782495
 21
-581.665157989073
 31
0.0000000000563712
  0
LINE
  5
1ACC1
330
18
100
AcDbEntity
  8
01
  6
CONTINUOUS
100
AcDbLine
 10
2343.041167398309
 20
-580.665157989073
 30
0.0000000000563712
 11
2343.041167398309
 21
-581.665157989073
 31
0.0000000000563712
  0
LINE
  5
1ACC2
330
18
100
AcDbEntity
  8
01
  6
CONTINUOUS
100
AcDbLine
 10
2343.041167398309
 20
-580.665157989073
 30
0.0000000000563712
 11
2343.041167398309
 21
-570.665157989073
 31
0.0000000000563712
  0
LINE
  5
1ACC3
330
18
100
AcDbEntity
  8
01
  6
CONTINUOUS
100
AcDbLine
 10
2384.041167398309
 20
-578.7509093755092
 30
0.0000000000563712
 11
2384.041167398309
 21
-570.665157989073
 31
0.0000000000563712
  0
LINE
  5
1ACC4
330
18
100
AcDbEntity
  8
01
  6
CONTINUOUS
100
AcDbLine
 10
2342.841167398309
 20
-570.665157989073
 30
0.0000000000563712
 11
2342.841167398309
 21
-580.665157989073
 31
0.0000000000563712
  0
LINE
  5
1ACC5
330
18
100
AcDbEntity
  8
01
  6
BYBLOCK
100
AcDbLine
 10
2383.748275273873
 20
-575.9580324478655
 30
0.0000000000563712
 11
2378.334060804887
 21
-581.3722636758802
 31
0.0000000000563712
  0
ARC
  5
1ACC6
330
18
100
AcDbEntity
  8
01
100
AcDbCircle
 10
2377.626952929322
 20
-580.665157989073
 30
0.0000000000563712
 40
1.0
100
AcDbArc
 50
270.0
 51
315.0000886758268
  0
ARC
  5
1ACC7
330
18
100
AcDbEntity
  8
01
100
AcDbCircle
 10
2383.041167398309
 20
-575.2509267610584
 30
0.0000000000563712
 40
1.0
100
AcDbArc
 50
315.0000886758268
 51
0.0
  0
SPLINE
  5
1ACC8
330
18
100
AcDbEntity
  8
01
  6
CONTINUOUS
100
AcDbSpline
210
0.0
220
0.0
230
1.0
 70
     8
 71
     3
 72
     8
 73
     4
 74
     0
 42
0.000000001
 43
0.00000001
 40
0.0068564003526187
 40
0.0068564003526187
 40
0.0068564003526187
 40
0.0068564003526187
 40
1.0
 40
1.0
 40
1.0
 40
1.0
 10
2473.736178803259
 20
-364.9617228656592
 30
0.0000000000563712
 10
2516.947743512668
 20
-369.5287677917794
 30
0.0000000000563712
 10
2560.636351580013
 20
-369.4970189389454
 30
0.0000000000563712
 10
2603.841283738051
 20
-364.8664763032046
 30
0.0000000000563712
  0
LINE
  5
1ACC9
330
18
100
AcDbEntity
  8
01
  6
CONTINUOUS
100
AcDbLine
 10
2472.841283738052
 20
-329.8664763032046
 30
0.0000000000563712
 11
2472.841283738052
 21
-363.967261728841
 31
0.0000000000563712
  0
LINE
  5
1ACCA
330
18
100
AcDbEntity
  8
01
  6
CONTINUOUS
100
AcDbLine
 10
2494.841283738052
 20
-351.5297619479983
 30
0.0000000000563712
 11
2494.841283738052
 21
-329.8664763032046
 31
0.0000000000563712
  0
SPLINE
  5
1ACCB
330
18
100
AcDbEntity
  8
01
  6
CONTINUOUS
100
AcDbSpline
210
0.0
220
0.0
230
1.0
 70
     8
 71
     3
 72
    12
 73
     8
 74
     0
 42
0.00000001
 43
0.00000001
 40
0.0
 40
0.0
 40
0.0
 40
0.0
 40
0.2499999999999999
 40
0.2499999999999999
 40
0.4999999999999998
 40
0.4999999999999998
 40
1.0
 40
1.0
 40
1.0
 40
1.0
 10
2495.646735411695
 20
-354.488221525516
 30
0.0000000000563712
 10
2495.526678713006
 20
-354.2622515149095
 30
0.0000000000563712
 10
2495.416203557326
 20
-354.0309741329864
 30
0.0000000000563712
 10
2495.219299332013
 20
-353.5550998539819
 30
0.0000000000563712
 10
2495.132387256049
 20
-353.3087294057126
 30
0.0000000000563712
 10
2494.920011820519
 20
-352.5608737524675
 30
0.0000000000563712
 10
2494.841283738052
 20
-352.0518588338385
 30
0.0000000000563712
 10
2494.841283738052
 20
-351.5297619479983
 30
0.0000000000563712
  0
SPLINE
  5
1ACCC
330
18
100
AcDbEntity
  8
01
  6
CONTINUOUS
100
AcDbSpline
210
0.0
220
0.0
230
1.0
 70
     8
 71
     3
 72
    18
 73
    14
 74
     0
 42
0.00000001
 43
0.00000001
 40
0.0
 40
0.0
 40
0.0
 40
0.0
 40
0.125
 40
0.125
 40
0.25
 40
0.25
 40
0.375
 40
0.375
 40
0.5
 40
0.5
 40
0.75
 40
0.75
 40
1.0
 40
1.0
 40
1.0
 40
1.0
 10
2498.538652442372
 20
-356.7309792525147
 30
0.0000000000563712
 10
2498.380772602743
 20
-356.7139891575051
 30
0.0000000000563712
 10
2498.2255986776
 20
-356.6839698267416
 30
0.0000000000563712
 10
2497.920377796659
 20
-356.5992443199215
 30
0.0000000000563712
 10
2497.769215320977
 20
-356.5439392289699
 30
0.0000000000563712
 10
2497.479322912041
 20
-356.4126177528004
 30
0.0000000000563712
 10
2497.340195775232
 20
-356.3367272104559
 30
0.0000000000563712
 10
2497.072376020859
 20
-356.16660245017
 30
0.0000000000563712
 10
2496.942934001091
 20
-356.0716825591197
 30
0.0000000000563712
 10
2496.57584019925
 20
-355.7669105522849
 30
0.0000000000563712
 10
2496.358933103646
 20
-355.5381303343578
 30
0.0000000000563712
 10
2495.969127017278
 20
-355.0400784198331
 30
0.0000000000563712
 10
2495.796389594331
 20
-354.7698997459432
 30
0.0000000000563712
 10
2495.646735411695
 20
-354.488221525516
 30
0.0000000000563712
  0
ARC
  5
1ACCD
330
18
100
AcDbEntity
  8
01
  6
CONTINUOUS
100
AcDbCircle
 10
2538.341283738052
 20
13.1335236967949
 30
0.0000000000563712
 40
371.9999999999999
100
AcDbArc
 50
263.8578046352661
 51
270.0000000000007
  0
LINE
  5
1ACCE
330
18
100
AcDbEntity
  8
01
  6
CONTINUOUS
100
AcDbLine
 10
2603.571822901425
 20
-358.8664763032046
 30
0.0000000000563712
 11
2538.341283738052
 21
-358.8664763032046
 31
0.0000000000563712
  0
LINE
  5
1ACCF
330
18
100
AcDbEntity
  8
01
  6
CONTINUOUS
100
AcDbLine
 10
2603.841283738052
 20
-368.8664763032046
 30
0.0000000000563712
 11
2603.841283738052
 21
-360.1091169903242
 31
0.0000000000563712
  0
LINE
  5
1ACD0
330
18
100
AcDbEntity
  8
01
  6
CONTINUOUS
100
AcDbLine
 10
2472.841283738052
 20
-364.8664763032046
 30
0.0000000000563712
 11
2472.841283738052
 21
-368.8664763032046
 31
0.0000000000563712
  0
ARC
  5
1ACD1
330
18
100
AcDbEntity
  8
01
  6
CONTINUOUS
100
AcDbCircle
 10
2498.841283738052
 20
-350.7287442013752
 30
0.0000000000563712
 40
4.000000000000002
100
AcDbArc
 50
180.0
 51
263.8043719218731
  0
ARC
  5
1ACD2
330
18
100
AcDbEntity
  8
01
  6
CONTINUOUS
100
AcDbCircle
 10
2538.341283738052
 20
13.1335236967949
 30
0.0000000000563712
 40
369.9999999999999
100
AcDbArc
 50
263.8043719218715
 51
270.0000000000007
  0
LINE
  5
1ACD3
330
18
100
AcDbEntity
  8
01
  6
BYBLOCK
100
AcDbLine
 10
2474.841283738052
 20
-370.8664763032046
 30
0.0000000000563712
 11
2601.841283738052
 21
-370.8664763032046
 31
0.0000000000563712
  0
ARC
  5
1ACD4
330
18
100
AcDbEntity
  8
01
  6
BYBLOCK
100
AcDbCircle
 10
2601.841283738052
 20
-368.8664763032046
 30
0.0000000000563712
 40
2.0
100
AcDbArc
 50
270.0
 51
0.0
  0
ARC
  5
1ACD5
330
18
100
AcDbEntity
  8
01
  6
CONTINUOUS
100
AcDbCircle
 10
2473.841283738052
 20
-363.967261728841
 30
0.0000000000563712
 40
1.0
100
AcDbArc
 50
180.0
 51
263.9667876657765
  0
LINE
  5
1ACD6
330
18
100
AcDbEntity
  8
01
  6
BYBLOCK
100
AcDbLine
 10
2473.841167816533
 20
-559.665157989073
 30
0.0000000000563712
 11
2602.341167816533
 21
-559.665157989073
 31
0.0000000000563712
  0
ARC
  5
1ACD7
330
18
100
AcDbEntity
  8
01
100
AcDbCircle
 10
2602.341167816533
 20
-561.165157989073
 30
0.0000000000563712
 40
1.5
100
AcDbArc
 50
0.0
 51
90.0
  0
LINE
  5
1ACD8
330
18
100
AcDbEntity
  8
01
  6
BYBLOCK
100
AcDbLine
 10
2473.841167816533
 20
-581.6651579890735
 30
0.0000000000563712
 11
2602.341167816533
 21
-581.665157989073
 31
0.0000000000563712
  0
ARC
  5
1ACD9
330
18
100
AcDbEntity
  8
01
100
AcDbCircle
 10
2602.341167816533
 20
-580.165157989073
 30
0.0000000000563712
 40
1.5
100
AcDbArc
 50
270.0
 51
0.0
  0
LINE
  5
1ACDA
330
18
100
AcDbEntity
  8
01
  6
CONTINUOUS
100
AcDbLine
 10
2603.841283738052
 20
-359.4826649448268
 30
0.0000000000563712
 11
2603.841283738052
 21
-365.0546757061201
 31
0.0000000000563712
  0
LINE
  5
1ACDB
330
18
100
AcDbEntity
  8
01
  6
CONTINUOUS
100
AcDbLine
 10
2601.073334545621
 20
-357.2684000918515
 30
0.0000000000563712
 11
2603.341283738052
 21
-358.5778011686101
 31
0.0000000000563712
  0
ARC
  5
1ACDC
330
18
100
AcDbEntity
  8
01
  6
CONTINUOUS
100
AcDbCircle
 10
2602.841283738052
 20
-359.4438265723942
 30
0.0000000000563712
 40
1.000000000000057
100
AcDbArc
 50
0.0
 51
60.00000000000271
  0
LINE
  5
1ACDD
330
18
100
AcDbEntity
  8
01
  6
CONTINUOUS
100
AcDbLine
 10
2603.841283738052
 20
-359.4438265723942
 30
0.0000000000563712
 11
2603.841283738052
 21
-359.4826649448268
 31
0.0000000000563712
  0
ARC
  5
1ACDE
330
18
100
AcDbEntity
  8
01
  6
CONTINUOUS
100
AcDbCircle
 10
2599.573334545621
 20
-359.8664763032046
 30
0.0000000000563712
 40
3.0
100
AcDbArc
 50
60.00000000000001
 51
90.0
  0
LINE
  5
1ACDF
330
18
100
AcDbEntity
  8
01
  6
CONTINUOUS
100
AcDbLine
 10
2538.341283738052
 20
-356.8664763032046
 30
0.0000000000563712
 11
2599.573334545621
 21
-356.8664763032046
 31
0.0000000000563712
  0
LINE
  5
1ACE0
330
18
100
AcDbEntity
  8
01
100
AcDbLine
 10
2510.341167398309
 20
-581.6651579890735
 30
0.0000000000563712
 11
2510.341167398309
 21
-596.6651579890748
 31
0.0000000000563712
  0
POINT
  5
1ACE1
330
18
100
AcDbEntity
  8
01
100
AcDbPoint
 10
2279.341400077798
 20
-570.665157989073
 30
0.0000000000563712
 50
180.0
  0
LINE
  5
1ACE2
330
18
100
AcDbEntity
  8
01
100
AcDbLine
 10
2295.969685460228
 20
-570.665157989073
 30
0.0000000000563712
 11
2273.341400077798
 21
-570.665157989073
 31
0.0000000000563712
  0
LINE
  5
1ACE3
330
18
100
AcDbEntity
  8
1CENTER
100
AcDbLine
 10
2279.341400077798
 20
-585.665157989073
 30
0.0000000000563712
 11
2279.341400077798
 21
-577.665157989073
 31
0.0000000000563712
  0
LINE
  5
1ACE4
330
18
100
AcDbEntity
  8
01
  6
CONTINUOUS
100
AcDbLine
 10
2243.926950054979
 20
-561.8796430630836
 30
0.0000000000563712
 11
2245.855572282716
 21
-559.9510208353462
 31
0.0000000000563712
  0
ARC
  5
1ACE5
330
18
100
AcDbEntity
  8
01
  6
CONTINUOUS
100
AcDbCircle
 10
2246.555648693612
 20
-560.6651579890735
 30
0.0000000000563712
 40
1.000000000000013
100
AcDbArc
 50
89.99971395638623
 51
134.341902752683
  0
LINE
  5
1ACE6
330
18
100
AcDbEntity
  8
01
  6
CONTINUOUS
100
AcDbLine
 10
2284.641400077798
 20
-560.665157989073
 30
0.0000000000563712
 11
2284.841400077798
 21
-560.665157989073
 31
0.0000000000563712
  0
ARC
  5
1ACE7
330
18
100
AcDbEntity
  8
01
  6
CONTINUOUS
100
AcDbCircle
 10
2244.641400077798
 20
-562.5794066026373
 30
0.0000000000563712
 40
1.0
100
AcDbArc
 50
135.5256128806995
 51
179.9999999994268
  0
LINE
  5
1ACE8
330
18
100
AcDbEntity
  8
01
  6
CONTINUOUS
100
AcDbLine
 10
2284.841400077798
 20
-562.7151579890732
 30
0.0000000000563712
 11
2285.341400077798
 21
-562.7151579890732
 31
0.0000000000563712
  0
LINE
  5
1ACE9
330
18
100
AcDbEntity
  8
01
  6
CONTINUOUS
100
AcDbLine
 10
2284.641400077798
 20
-559.665157989073
 30
0.0000000000563712
 11
2246.555648693612
 21
-559.6651579890735
 31
0.0000000000563712
  0
LINE
  5
1ACEA
330
18
100
AcDbEntity
  8
01
  6
CONTINUOUS
100
AcDbLine
 10
2284.641400077798
 20
-560.665157989073
 30
0.0000000000563712
 11
2284.641400077798
 21
-559.665157989073
 31
0.0000000000563712
  0
LINE
  5
1ACEB
330
18
100
AcDbEntity
  8
01
  6
CONTINUOUS
100
AcDbLine
 10
2284.641400077798
 20
-560.665157989073
 30
0.0000000000563712
 11
2284.641400077798
 21
-570.665157989073
 31
0.0000000000563712
  0
LINE
  5
1ACEC
330
18
100
AcDbEntity
  8
01
  6
CONTINUOUS
100
AcDbLine
 10
2243.641400077798
 20
-562.5794066026373
 30
0.0000000000563712
 11
2243.641400077798
 21
-570.665157989073
 31
0.0000000000563712
  0
LINE
  5
1ACED
330
18
100
AcDbEntity
  8
01
  6
CONTINUOUS
100
AcDbLine
 10
2284.841400077798
 20
-570.665157989073
 30
0.0000000000563712
 11
2284.841400077798
 21
-560.665157989073
 31
0.0000000000563712
  0
LINE
  5
1ACEE
330
18
100
AcDbEntity
  8
01
  6
BYBLOCK
100
AcDbLine
 10
2243.934292202233
 20
-565.3722835302809
 30
0.0000000000563712
 11
2249.34850667122
 21
-559.9580523022663
 31
0.0000000000563712
  0
ARC
  5
1ACEF
330
18
100
AcDbEntity
  8
01
100
AcDbCircle
 10
2250.055614546784
 20
-560.6651579890735
 30
0.0000000000563712
 40
1.0
100
AcDbArc
 50
90.0
 51
135.0000886758268
  0
ARC
  5
1ACF0
330
18
100
AcDbEntity
  8
01
100
AcDbCircle
 10
2244.641400077798
 20
-566.0793892170876
 30
0.0000000000563712
 40
1.0
100
AcDbArc
 50
135.0000886759005
 51
180.0
  0
LINE
  5
1ACF1
330
18
100
AcDbEntity
  8
01
  6
CONTINUOUS
100
AcDbLine
 10
2243.926950054979
 20
-579.4506729150629
 30
0.0000000000563712
 11
2245.855572282716
 21
-581.3792951428003
 31
0.0000000000563712
  0
ARC
  5
1ACF2
330
18
100
AcDbEntity
  8
01
  6
CONTINUOUS
100
AcDbCircle
 10
2246.555648693612
 20
-580.665157989073
 30
0.0000000000563712
 40
1.000000000000013
100
AcDbArc
 50
225.658097247317
 51
270.0002860436138
  0
LINE
  5
1ACF3
330
18
100
AcDbEntity
  8
01
  6
CONTINUOUS
100
AcDbLine
 10
2284.641400077798
 20
-580.665157989073
 30
0.0000000000563712
 11
2284.841400077798
 21
-580.665157989073
 31
0.0000000000563712
  0
ARC
  5
1ACF4
330
18
100
AcDbEntity
  8
01
  6
CONTINUOUS
100
AcDbCircle
 10
2244.641400077798
 20
-578.7509093755092
 30
0.0000000000563712
 40
1.0
100
AcDbArc
 50
179.9999999994268
 51
224.4743871193005
  0
LINE
  5
1ACF5
330
18
100
AcDbEntity
  8
01
  6
CONTINUOUS
100
AcDbLine
 10
2284.841400077798
 20
-578.6151579890733
 30
0.0000000000563712
 11
2285.341400077798
 21
-578.6151579890733
 31
0.0000000000563712
  0
LINE
  5
1ACF6
330
18
100
AcDbEntity
  8
01
  6
CONTINUOUS
100
AcDbLine
 10
2284.641400077798
 20
-581.665157989073
 30
0.0000000000563712
 11
2246.555648693612
 21
-581.665157989073
 31
0.0000000000563712
  0
LINE
  5
1ACF7
330
18
100
AcDbEntity
  8
01
  6
CONTINUOUS
100
AcDbLine
 10
2284.641400077798
 20
-580.665157989073
 30
0.0000000000563712
 11
2284.641400077798
 21
-581.665157989073
 31
0.0000000000563712
  0
LINE
  5
1ACF8
330
18
100
AcDbEntity
  8
01
  6
CONTINUOUS
100
AcDbLine
 10
2284.641400077798
 20
-580.665157989073
 30
0.0000000000563712
 11
2284.641400077798
 21
-570.665157989073
 31
0.0000000000563712
  0
LINE
  5
1ACF9
330
18
100
AcDbEntity
  8
01
  6
CONTINUOUS
100
AcDbLine
 10
2243.641400077798
 20
-578.7509093755092
 30
0.0000000000563712
 11
2243.641400077798
 21
-570.665157989073
 31
0.0000000000563712
  0
LINE
  5
1ACFA
330
18
100
AcDbEntity
  8
01
  6
CONTINUOUS
100
AcDbLine
 10
2284.841400077798
 20
-570.665157989073
 30
0.0000000000563712
 11
2284.841400077798
 21
-580.665157989073
 31
0.0000000000563712
  0
LINE
  5
1ACFB
330
18
100
AcDbEntity
  8
01
  6
BYBLOCK
100
AcDbLine
 10
2243.934292202233
 20
-575.9580324478655
 30
0.0000000000563712
 11
2249.34850667122
 21
-581.3722636758802
 31
0.0000000000563712
  0
ARC
  5
1ACFC
330
18
100
AcDbEntity
  8
01
100
AcDbCircle
 10
2250.055614546784
 20
-580.665157989073
 30
0.0000000000563712
 40
1.0
100
AcDbArc
 50
224.9999113241732
 51
270.0
  0
ARC
  5
1ACFD
330
18
100
AcDbEntity
  8
01
100
AcDbCircle
 10
2244.641400077798
 20
-575.2509267610584
 30
0.0000000000563712
 40
1.0
100
AcDbArc
 50
180.0
 51
224.9999113241732
  0
LINE
  5
1ACFE
330
18
100
AcDbEntity
  8
01
100
AcDbLine
 10
2173.841400077798
 20
-570.6664763021762
 30
0.0000000000563712
 11
2113.841400077798
 21
-570.6664763021762
 31
0.0000000000563712
  0
LINE
  5
1ACFF
330
18
100
AcDbEntity
  8
01
100
AcDbLine
 10
2143.841400077798
 20
-540.6664763021762
 30
0.0000000000563712
 11
2143.841400077798
 21
-600.6664763021762
 31
0.0000000000563712
  0
LINE
  5
1AD00
330
18
100
AcDbEntity
  8
01
  6
BYBLOCK
100
AcDbLine
 10
2125.841400077795
 20
-535.166476098049
 30
0.0000000000563712
 11
2125.841400077795
 21
-544.166476302178
 31
0.0000000000563712
  0
LINE
  5
1AD01
330
18
100
AcDbEntity
  8
01
100
AcDbLine
 10
2173.841400077798
 20
-570.665157989073
 30
0.0000000000563712
 11
2113.841400077798
 21
-570.665157989073
 31
0.0000000000563712
  0
LINE
  5
1AD02
330
18
100
AcDbEntity
  8
01
100
AcDbLine
 10
2143.841400077798
 20
-540.665157989073
 30
0.0000000000563712
 11
2143.841400077798
 21
-600.665157989073
 31
0.0000000000563712
  0
LINE
  5
1AD03
330
18
100
AcDbEntity
  8
01
100
AcDbLine
 10
2117.841400077798
 20
-544.1651579890748
 30
0.0000000000563712
 11
2169.841400077794
 21
-544.1651579890748
 31
0.0000000000563712
  0
LINE
  5
1AD04
330
18
100
AcDbEntity
  8
01
100
AcDbLine
 10
2169.841400077794
 20
-597.1651579890748
 30
0.0000000000563712
 11
2117.841400077798
 21
-597.1651579890748
 31
0.0000000000563712
  0
LINE
  5
1AD05
330
18
100
AcDbEntity
  8
01
100
AcDbLine
 10
2170.341400077794
 20
-544.6651579890748
 30
0.0000000000563712
 11
2170.341400077794
 21
-596.6651579890748
 31
0.0000000000563712
  0
ARC
  5
1AD06
330
18
100
AcDbEntity
  8
01
100
AcDbCircle
 10
2169.841400077794
 20
-596.6651579890748
 30
0.0000000000563712
 40
0.5
100
AcDbArc
 50
270.0
 51
0.0
  0
ARC
  5
1AD07
330
18
100
AcDbEntity
  8
01
100
AcDbCircle
 10
2169.841400077794
 20
-544.6651579890748
 30
0.0000000000563712
 40
0.5
100
AcDbArc
 50
0.0
 51
90.0
  0
LINE
  5
1AD08
330
18
100
AcDbEntity
  8
01
100
AcDbLine
 10
2117.341400077798
 20
-544.6651579890748
 30
0.0000000000563712
 11
2117.341400077798
 21
-559.665157989073
 31
0.0000000000563712
  0
ARC
  5
1AD09
330
18
100
AcDbEntity
  8
01
100
AcDbCircle
 10
2117.841400077798
 20
-596.6651579890748
 30
0.0000000000563712
 40
0.5
100
AcDbArc
 50
180.0
 51
270.0
  0
ARC
  5
1AD0A
330
18
100
AcDbEntity
  8
01
100
AcDbCircle
 10
2117.841400077798
 20
-544.6651579890748
 30
0.0000000000563712
 40
0.5
100
AcDbArc
 50
90.0
 51
180.0
  0
LINE
  5
1AD0B
330
18
100
AcDbEntity
  8
01
  6
CONTINUOUS
100
AcDbLine
 10
2154.841399659574
 20
-576.3533573919884
 30
0.0000000000563712
 11
2154.841399659574
 21
-564.9769585861576
 31
0.0000000000563712
  0
LINE
  5
1AD0C
330
18
100
AcDbEntity
  8
01
  6
CONTINUOUS
100
AcDbLine
 10
2023.841399659574
 20
-561.165157989073
 30
0.0000000000563712
 11
2023.841399659574
 21
-580.165157989073
 31
0.0000000000563712
  0
LINE
  5
1AD0D
330
18
100
AcDbEntity
  8
01
  6
CONTINUOUS
100
AcDbLine
 10
2154.841399659574
 20
-564.9769585861576
 30
0.0000000000563712
 11
2154.841399659574
 21
-560.665157989073
 31
0.0000000000563712
  0
LINE
  5
1AD0E
330
18
100
AcDbEntity
  8
01
  6
CONTINUOUS
100
AcDbLine
 10
2154.841399659574
 20
-580.665157989073
 30
0.0000000000563712
 11
2154.841399659574
 21
-576.3533573919884
 31
0.0000000000563712
  0
ARC
  5
1AD0F
330
18
100
AcDbEntity
  8
01
  6
CONTINUOUS
100
AcDbCircle
 10
2153.841399659574
 20
-580.665157989073
 30
0.0000000000563712
 40
1.0
100
AcDbArc
 50
270.0
 51
0.0
  0
ARC
  5
1AD10
330
18
100
AcDbEntity
  8
01
  6
CONTINUOUS
100
AcDbCircle
 10
2153.841399659574
 20
-560.665157989073
 30
0.0000000000563712
 40
1.0
100
AcDbArc
 50
0.0
 51
90.0
  0
SPLINE
  5
1AD11
330
18
100
AcDbEntity
  8
01
  6
CONTINUOUS
100
AcDbSpline
210
0.0
220
0.0
230
1.0
 70
     8
 71
     3
 72
     8
 73
     4
 74
     0
 42
0.00000001
 43
0.00000001
 40
0.0
 40
0.0
 40
0.0
 40
0.0
 40
1.0
 40
1.0
 40
1.0
 40
1.0
 10
2154.841399659574
 20
-565.665157989073
 30
0.0000000000563712
 10
2111.338192094112
 20
-561.0026473139004
 30
0.0000000000563712
 10
2067.344607225033
 20
-561.0026473136785
 30
0.0000000000563712
 10
2023.841399659574
 20
-565.665157989073
 30
0.0000000000563712
  0
SPLINE
  5
1AD12
330
18
100
AcDbEntity
  8
01
  6
CONTINUOUS
100
AcDbSpline
210
0.0
220
0.0
230
1.0
 70
     8
 71
     3
 72
     8
 73
     4
 74
     0
 42
0.00000001
 43
0.00000001
 40
0.0
 40
0.0
 40
0.0
 40
0.0
 40
1.0
 40
1.0
 40
1.0
 40
1.0
 10
2154.841399659574
 20
-575.665157989073
 30
0.0000000000563712
 10
2111.338192094112
 20
-580.3276686642456
 30
0.0000000000563712
 10
2067.344607225033
 20
-580.3276686644675
 30
0.0000000000563712
 10
2023.841399659574
 20
-575.665157989073
 30
0.0000000000563712
  0
LINE
  5
1AD13
330
18
100
AcDbEntity
  8
01
  6
BYBLOCK
100
AcDbLine
 10
2153.841399659574
 20
-559.665157989073
 30
0.0000000000563712
 11
2025.341399659574
 21
-559.665157989073
 31
0.0000000000563712
  0
ARC
  5
1AD14
330
18
100
AcDbEntity
  8
01
100
AcDbCircle
 10
2025.341399659574
 20
-561.165157989073
 30
0.0000000000563712
 40
1.5
100
AcDbArc
 50
90.0
 51
180.0
  0
LINE
  5
1AD15
330
18
100
AcDbEntity
  8
01
  6
BYBLOCK
100
AcDbLine
 10
2153.841399659574
 20
-581.6651579890735
 30
0.0000000000563712
 11
2025.341399659574
 21
-581.665157989073
 31
0.0000000000563712
  0
ARC
  5
1AD16
330
18
100
AcDbEntity
  8
01
100
AcDbCircle
 10
2025.341399659574
 20
-580.165157989073
 30
0.0000000000563712
 40
1.5
100
AcDbArc
 50
180.0
 51
270.0
  0
LINE
  5
1AD17
330
18
100
AcDbEntity
  8
01
100
AcDbLine
 10
2117.341400077798
 20
-581.6651579890735
 30
0.0000000000563712
 11
2117.341400077798
 21
-596.6651579890748
 31
0.0000000000563712
  0
LINE
  5
1AD18
330
18
100
AcDbEntity
  8
01
100
AcDbLine
 10
2486.3412965675
 20
-272.1664763032048
 30
0.0000000000563712
 11
2509.841283738052
 21
-272.1664763032048
 31
0.0000000000563712
  0
LINE
  5
1AD19
330
18
100
AcDbEntity
  8
01
100
AcDbLine
 10
2432.842051580369
 20
-280.6664763032048
 30
0.0000000000563712
 11
2586.596431735401
 21
-280.6664763032048
 31
0.0000000000563712
  0
LINE
  5
1AD1A
330
18
100
AcDbEntity
  8
01
100
AcDbLine
 10
2457.341283738055
 20
-280.6664763032048
 30
0.0000000000563712
 11
2510.341283738052
 21
-280.6664763032048
 31
0.0000000000563712
  0
LINE
  5
1AD1B
330
18
100
AcDbEntity
  8
01
100
AcDbLine
 10
2457.841283738055
 20
-272.1664763032048
 30
0.0000000000563712
 11
2481.341294838325
 21
-272.1664763032048
 31
0.0000000000563712
  0
LINE
  5
1AD1C
330
18
100
AcDbEntity
  8
01
100
AcDbLine
 10
2510.341283738052
 20
-280.6664763032048
 30
0.0000000000563712
 11
2510.341283738052
 21
-272.6664763032048
 31
0.0000000000563712
  0
LINE
  5
1AD1D
330
18
100
AcDbEntity
  8
01
100
AcDbLine
 10
2457.341283738055
 20
-280.6664763032048
 30
0.0000000000563712
 11
2457.341283738055
 21
-272.6664763032048
 31
0.0000000000563712
  0
ARC
  5
1AD1E
330
18
100
AcDbEntity
  8
01
100
AcDbCircle
 10
2457.841283738055
 20
-272.6664763032048
 30
0.0000000000563712
 40
0.5
100
AcDbArc
 50
90.0
 51
180.0
  0
ARC
  5
1AD1F
330
18
100
AcDbEntity
  8
01
100
AcDbCircle
 10
2509.841283738052
 20
-272.6664763032048
 30
0.0000000000563712
 40
0.5
100
AcDbArc
 50
0.0
 51
90.0
  0
LINE
  5
1AD20
330
18
100
AcDbEntity
  8
01
100
AcDbLine
 10
2483.841283738052
 20
-285.4664763032052
 30
0.0000000000563712
 11
2483.841283738052
 21
-258.9664763032052
 31
0.0000000000563712
  0
LINE
  5
1AD21
330
18
100
AcDbEntity
  8
01
  6
CONTINUOUS
100
AcDbLine
 10
2493.841283738052
 20
-271.466476303205
 30
0.0000000000563712
 11
2493.841283738052
 21
-271.6664763032048
 31
0.0000000000563712
  0
LINE
  5
1AD22
330
18
100
AcDbEntity
  8
01
  6
CONTINUOUS
100
AcDbLine
 10
2473.841283738052
 20
-271.6664763032048
 30
0.0000000000563712
 11
2473.841283738052
 21
-271.466476303205
 31
0.0000000000563712
  0
LINE
  5
1AD23
330
18
100
AcDbEntity
  8
01
  6
CONTINUOUS
100
AcDbLine
 10
2491.791283738051
 20
-271.6664763032048
 30
0.0000000000563712
 11
2491.791283738051
 21
-272.1664763032048
 31
0.0000000000563712
  0
LINE
  5
1AD24
330
18
100
AcDbEntity
  8
01
  6
CONTINUOUS
100
AcDbLine
 10
2475.891283738052
 20
-272.1664763032048
 30
0.0000000000563712
 11
2475.891283738052
 21
-271.6664763032048
 31
0.0000000000563712
  0
LINE
  5
1AD25
330
18
100
AcDbEntity
  8
01
  6
CONTINUOUS
100
AcDbLine
 10
2472.841283738052
 20
-232.466476303205
 30
0.0000000000563712
 11
2472.841283738052
 21
-271.466476303205
 31
0.0000000000563712
  0
LINE
  5
1AD26
330
18
100
AcDbEntity
  8
01
  6
CONTINUOUS
100
AcDbLine
 10
2472.841283738052
 20
-271.466476303205
 30
0.0000000000563712
 11
2473.841283738052
 21
-271.466476303205
 31
0.0000000000563712
  0
LINE
  5
1AD27
330
18
100
AcDbEntity
  8
01
  6
CONTINUOUS
100
AcDbLine
 10
2493.841283738052
 20
-271.466476303205
 30
0.0000000000563712
 11
2494.841283738052
 21
-271.466476303205
 31
0.0000000000563712
  0
LINE
  5
1AD28
330
18
100
AcDbEntity
  8
01
  6
CONTINUOUS
100
AcDbLine
 10
2493.841283738052
 20
-271.466476303205
 30
0.0000000000563712
 11
2486.341295702913
 21
-271.466476303205
 31
0.0000000000563712
  0
LINE
  5
1AD29
330
18
100
AcDbEntity
  8
01
  6
CONTINUOUS
100
AcDbLine
 10
2473.841283738052
 20
-271.6664763032048
 30
0.0000000000563712
 11
2481.341295702911
 21
-271.6664763032048
 31
0.0000000000563712
  0
ARC
  5
1AD2A
330
18
100
AcDbEntity
  8
01
100
AcDbCircle
 10
2474.841283738052
 20
-232.466476303205
 30
0.0000000000563712
 40
2.0
100
AcDbArc
 50
90.0
 51
180.0
  0
SPLINE
  5
1AD2B
330
18
100
AcDbEntity
  8
01
  6
CONTINUOUS
100
AcDbSpline
210
0.0
220
0.0
230
1.0
 70
     8
 71
     3
 72
     8
 73
     4
 74
     0
 42
0.000000001
 43
0.00000001
 40
0.0068564003526187
 40
0.0068564003526187
 40
0.0068564003526187
 40
0.0068564003526187
 40
1.0
 40
1.0
 40
1.0
 40
1.0
 10
2473.736178803259
 20
-236.3712297407504
 30
0.0000000000563712
 10
2516.947743512668
 20
-231.8041848146303
 30
0.0000000000563712
 10
2560.636351580013
 20
-231.8359336674642
 30
0.0000000000563712
 10
2603.841283738051
 20
-236.466476303205
 30
0.0000000000563712
  0
LINE
  5
1AD2C
330
18
100
AcDbEntity
  8
01
  6
CONTINUOUS
100
AcDbLine
 10
2472.841283738052
 20
-271.466476303205
 30
0.0000000000563712
 11
2472.841283738052
 21
-237.3656908775687
 31
0.0000000000563712
  0
LINE
  5
1AD2D
330
18
100
AcDbEntity
  8
01
  6
CONTINUOUS
100
AcDbLine
 10
2494.841283738052
 20
-249.8031906584114
 30
0.0000000000563712
 11
2494.841283738052
 21
-271.466476303205
 31
0.0000000000563712
  0
SPLINE
  5
1AD2E
330
18
100
AcDbEntity
  8
01
  6
CONTINUOUS
100
AcDbSpline
210
0.0
220
0.0
230
1.0
 70
     8
 71
     3
 72
    12
 73
     8
 74
     0
 42
0.00000001
 43
0.00000001
 40
0.0
 40
0.0
 40
0.0
 40
0.0
 40
0.2499999999999999
 40
0.2499999999999999
 40
0.4999999999999998
 40
0.4999999999999998
 40
1.0
 40
1.0
 40
1.0
 40
1.0
 10
2495.646735411695
 20
-246.8447310808937
 30
0.0000000000563712
 10
2495.526678713006
 20
-247.0707010915002
 30
0.0000000000563712
 10
2495.416203557326
 20
-247.3019784734232
 30
0.0000000000563712
 10
2495.219299332013
 20
-247.7778527524277
 30
0.0000000000563712
 10
2495.132387256049
 20
-248.0242232006971
 30
0.0000000000563712
 10
2494.920011820519
 20
-248.7720788539422
 30
0.0000000000563712
 10
2494.841283738052
 20
-249.2810937725711
 30
0.0000000000563712
 10
2494.841283738052
 20
-249.8031906584114
 30
0.0000000000563712
  0
SPLINE
  5
1AD2F
330
18
100
AcDbEntity
  8
01
  6
CONTINUOUS
100
AcDbSpline
210
0.0
220
0.0
230
1.0
 70
     8
 71
     3
 72
    18
 73
    14
 74
     0
 42
0.00000001
 43
0.00000001
 40
0.0
 40
0.0
 40
0.0
 40
0.0
 40
0.125
 40
0.125
 40
0.25
 40
0.25
 40
0.375
 40
0.375
 40
0.5
 40
0.5
 40
0.75
 40
0.75
 40
1.0
 40
1.0
 40
1.0
 40
1.0
 10
2498.538652442372
 20
-244.601973353895
 30
0.0000000000563712
 10
2498.380772602743
 20
-244.6189634489045
 30
0.0000000000563712
 10
2498.2255986776
 20
-244.648982779668
 30
0.0000000000563712
 10
2497.920377796659
 20
-244.7337082864882
 30
0.0000000000563712
 10
2497.769215320977
 20
-244.7890133774398
 30
0.0000000000563712
 10
2497.479322912041
 20
-244.9203348536092
 30
0.0000000000563712
 10
2497.340195775232
 20
-244.9962253959537
 30
0.0000000000563712
 10
2497.072376020859
 20
-245.1663501562397
 30
0.0000000000563712
 10
2496.942934001091
 20
-245.2612700472899
 30
0.0000000000563712
 10
2496.57584019925
 20
-245.5660420541248
 30
0.0000000000563712
 10
2496.358933103646
 20
-245.7948222720519
 30
0.0000000000563712
 10
2495.969127017278
 20
-246.2928741865766
 30
0.0000000000563712
 10
2495.796389594331
 20
-246.5630528604664
 30
0.0000000000563712
 10
2495.646735411695
 20
-246.8447310808937
 30
0.0000000000563712
  0
ARC
  5
1AD30
330
18
100
AcDbEntity
  8
01
  6
CONTINUOUS
100
AcDbCircle
 10
2538.341283738052
 20
-614.4664763032043
 30
0.0000000000563712
 40
371.9999999999999
100
AcDbArc
 50
89.99999999999925
 51
96.14219536473388
  0
LINE
  5
1AD31
330
18
100
AcDbEntity
  8
01
  6
CONTINUOUS
100
AcDbLine
 10
2603.571822901425
 20
-242.466476303205
 30
0.0000000000563712
 11
2538.341283738052
 21
-242.466476303205
 31
0.0000000000563712
  0
LINE
  5
1AD32
330
18
100
AcDbEntity
  8
01
  6
CONTINUOUS
100
AcDbLine
 10
2603.841283738052
 20
-232.466476303205
 30
0.0000000000563712
 11
2603.841283738052
 21
-241.2238356160855
 31
0.0000000000563712
  0
LINE
  5
1AD33
330
18
100
AcDbEntity
  8
01
  6
CONTINUOUS
100
AcDbLine
 10
2472.841283738052
 20
-236.466476303205
 30
0.0000000000563712
 11
2472.841283738052
 21
-232.466476303205
 31
0.0000000000563712
  0
ARC
  5
1AD34
330
18
100
AcDbEntity
  8
01
  6
CONTINUOUS
100
AcDbCircle
 10
2498.841283738052
 20
-250.6042084050345
 30
0.0000000000563712
 40
4.000000000000002
100
AcDbArc
 50
96.19562807812694
 51
180.0
  0
ARC
  5
1AD35
330
18
100
AcDbEntity
  8
01
  6
CONTINUOUS
100
AcDbCircle
 10
2538.341283738052
 20
-614.4664763032043
 30
0.0000000000563712
 40
369.9999999999999
100
AcDbArc
 50
89.99999999999922
 51
96.19562807812848
  0
LINE
  5
1AD36
330
18
100
AcDbEntity
  8
01
  6
BYBLOCK
100
AcDbLine
 10
2474.841283738052
 20
-230.466476303205
 30
0.0000000000563712
 11
2601.841283738052
 21
-230.466476303205
 31
0.0000000000563712
  0
ARC
  5
1AD37
330
18
100
AcDbEntity
  8
01
  6
BYBLOCK
100
AcDbCircle
 10
2601.841283738052
 20
-232.466476303205
 30
0.0000000000563712
 40
2.0
100
AcDbArc
 50
0.0
 51
90.0
  0
ARC
  5
1AD38
330
18
100
AcDbEntity
  8
01
  6
CONTINUOUS
100
AcDbCircle
 10
2473.841283738052
 20
-237.3656908775687
 30
0.0000000000563712
 40
1.0
100
AcDbArc
 50
96.03321233422348
 51
180.0
  0
LINE
  5
1AD39
330
18
100
AcDbEntity
  8
01
  6
CONTINUOUS
100
AcDbLine
 10
2603.841283738052
 20
-241.8502876615829
 30
0.0000000000563712
 11
2603.841283738052
 21
-236.2782769002896
 31
0.0000000000563712
  0
LINE
  5
1AD3A
330
18
100
AcDbEntity
  8
01
  6
CONTINUOUS
100
AcDbLine
 10
2601.073334545621
 20
-244.0645525145582
 30
0.0000000000563712
 11
2603.341283738052
 21
-242.7551514377996
 31
0.0000000000563712
  0
ARC
  5
1AD3B
330
18
100
AcDbEntity
  8
01
  6
CONTINUOUS
100
AcDbCircle
 10
2602.841283738052
 20
-241.8891260340155
 30
0.0000000000563712
 40
1.000000000000057
100
AcDbArc
 50
299.9999999999973
 51
0.0
  0
LINE
  5
1AD3C
330
18
100
AcDbEntity
  8
01
  6
CONTINUOUS
100
AcDbLine
 10
2603.841283738052
 20
-241.8891260340155
 30
0.0000000000563712
 11
2603.841283738052
 21
-241.8502876615829
 31
0.0000000000563712
  0
ARC
  5
1AD3D
330
18
100
AcDbEntity
  8
01
  6
CONTINUOUS
100
AcDbCircle
 10
2599.573334545621
 20
-241.466476303205
 30
0.0000000000563712
 40
3.0
100
AcDbArc
 50
270.0
 51
300.0
  0
LINE
  5
1AD3E
330
18
100
AcDbEntity
  8
01
  6
CONTINUOUS
100
AcDbLine
 10
2538.341283738052
 20
-244.466476303205
 30
0.0000000000563712
 11
2599.573334545621
 21
-244.466476303205
 31
0.0000000000563712
  0
LINE
  5
1AD3F
330
18
100
AcDbEntity
  8
01
  6
CONTINUOUS
100
AcDbLine
 10
2481.341295702911
 20
-271.466476303205
 30
0.0000000000563712
 11
2473.841283738052
 21
-271.466476303205
 31
0.0000000000563712
  0
LINE
  5
1AD40
330
18
100
AcDbEntity
  8
01
100
AcDbLine
 10
2486.3412965675
 20
-272.1664763032048
 30
0.0000000000563712
 11
2509.841283738052
 21
-272.1664763032048
 31
0.0000000000563712
  0
LINE
  5
1AD41
330
18
100
AcDbEntity
  8
01
  6
CONTINUOUS
100
AcDbLine
 10
2486.341295702913
 20
-271.6664763032048
 30
0.0000000000563712
 11
2493.841283738052
 21
-271.6664763032048
 31
0.0000000000563712
  0
LINE
  5
1AF53
330
18
100
AcDbEntity
  8
01
100
AcDbLine
 10
2293.841283738055
 20
-495.1651579890728
 30
0.0
 11
2293.841283738055
 21
-463.3651579890728
 31
0.0
1001
ACAD
1000
DSTYLE
1002
{
1070
    40
1040
1.3
1070
    45
1040
0.5
1070
   341
1005
0
1002
}
  0
LINE
  5
1AF54
330
18
100
AcDbEntity
  8
01
100
AcDbLine
 10
2271.840898172336
 20
-510.6651629890717
 30
0.0
 11
2271.840898172336
 21
-463.3651579890728
 31
0.0
1001
ACAD
1000
DSTYLE
1002
{
1070
    40
1040
1.3
1070
    45
1040
0.5
1070
   341
1005
0
1002
}
  0
LINE
  5
1AF55
330
18
100
AcDbEntity
  8
01
100
AcDbLine
 10
2291.241283738055
 20
-464.6651579890728
 30
0.0
 11
2274.440898172335
 21
-464.6651579890728
 31
0.0
1001
ACAD
1000
DSTYLE
1002
{
1070
    40
1040
1.3
1070
    45
1040
0.5
1070
   341
1005
0
1002
}
  0
LINE
  5
1AF59
330
18
100
AcDbEntity
  8
01
100
AcDbLine
 10
2333.841283738055
 20
-495.1651579890728
 30
0.0
 11
2333.841283738055
 21
-463.3651579890728
 31
0.0
1001
ACAD
1000
DSTYLE
1002
{
1070
    40
1040
1.3
1070
    45
1040
0.5
1070
   271
1070
     1
1070
   341
1005
0
1002
}
  0
LINE
  5
1AF5A
330
18
100
AcDbEntity
  8
01
100
AcDbLine
 10
2342.009867427016
 20
-520.6651564213806
 30
0.0
 11
2342.009867427016
 21
-463.3651579890728
 31
0.0
1001
ACAD
1000
DSTYLE
1002
{
1070
    40
1040
1.3
1070
    45
1040
0.5
1070
   271
1070
     1
1070
   341
1005
0
1002
}
  0
LINE
  5
1AF5B
330
18
100
AcDbEntity
  8
01
100
AcDbLine
 10
2336.441283738055
 20
-464.6651579890728
 30
0.0
 11
2339.409867427016
 21
-464.6651579890728
 31
0.0
1001
ACAD
1000
DSTYLE
1002
{
1070
    40
1040
1.3
1070
    45
1040
0.5
1070
   271
1070
     1
1070
   341
1005
0
1002
}
  0
LINE
  5
1AF5F
330
18
100
AcDbEntity
  8
01
100
AcDbLine
 10
2123.841295093138
 20
-495.6651579890728
 30
0.0
 11
2123.841295093138
 21
-486.3651579890728
 31
0.0
1001
ACAD
1000
DSTYLE
1002
{
1070
     3
1000
□<>
1070
    40
1040
1.3
1070
    45
1040
0.5
1070
   271
1070
     1
1070
   272
1070
     2
1002
}
  0
LINE
  5
1AF60
330
18
100
AcDbEntity
  8
01
100
AcDbLine
 10
2163.841295093138
 20
-495.6651579890732
 30
0.0
 11
2163.841295093138
 21
-486.3651579890728
 31
0.0
1001
ACAD
1000
DSTYLE
1002
{
1070
     3
1000
□<>
1070
    40
1040
1.3
1070
    45
1040
0.5
1070
   271
1070
     1
1070
   272
1070
     2
1002
}
  0
LINE
  5
1AF61
330
18
100
AcDbEntity
  8
01
100
AcDbLine
 10
2126.441295093138
 20
-487.6651579890728
 30
0.0
 11
2161.241295093138
 21
-487.6651579890728
 31
0.0
1001
ACAD
1000
DSTYLE
1002
{
1070
     3
1000
□<>
1070
    40
1040
1.3
1070
    45
1040
0.5
1070
   271
1070
     1
1070
   272
1070
     2
1002
}
  0
LINE
  5
1AF65
330
18
100
AcDbEntity
  8
01
100
AcDbLine
 10
2463.841175075852
 20
-495.6651579890728
 30
0.0
 11
2463.841175075852
 21
-486.3651579890728
 31
0.0
1001
ACAD
1000
DSTYLE
1002
{
1070
     3
1000
□<>
1070
    40
1040
1.3
1070
    45
1040
0.5
1070
   271
1070
     1
1070
   272
1070
     2
1002
}
  0
LINE
  5
1AF66
330
18
100
AcDbEntity
  8
01
100
AcDbLine
 10
2503.841175075852
 20
-495.6651579890732
 30
0.0
 11
2503.841175075852
 21
-486.3651579890728
 31
0.0
1001
ACAD
1000
DSTYLE
1002
{
1070
     3
1000
□<>
1070
    40
1040
1.3
1070
    45
1040
0.5
1070
   271
1070
     1
1070
   272
1070
     2
1002
}
  0
LINE
  5
1AF67
330
18
100
AcDbEntity
  8
01
100
AcDbLine
 10
2466.441175075852
 20
-487.6651579890728
 30
0.0
 11
2501.241175075852
 21
-487.6651579890728
 31
0.0
1001
ACAD
1000
DSTYLE
1002
{
1070
     3
1000
□<>
1070
    40
1040
1.3
1070
    45
1040
0.5
1070
   271
1070
     1
1070
   272
1070
     2
1002
}
  0
TEXT
  5
1AF6B
330
18
100
AcDbEntity
  8
01
  6
CONTINUOUS
100
AcDbText
 10
2384.03550392422
 20
-366.2627939936281
 30
0.0000000000563712
 40
4.55
  1
材質：亜鉛ダイキャスト
100
AcDbText
  0
TEXT
  5
1AF6C
330
18
100
AcDbEntity
  8
01
  6
CONTINUOUS
100
AcDbText
 10
2394.348837257553
 20
-373.8461273269614
 30
0.0000000000563712
 40
4.55
  1
仕上げ：各種メッキ
100
AcDbText
  0
LINE
  5
1AF6D
330
18
100
AcDbEntity
  8
01
100
AcDbLine
 10
2421.841167398309
 20
-542.6664770003075
 30
0.0
 11
2421.841167398309
 21
-439.9449842174882
 31
0.0
1001
ACAD
1000
DSTYLE
1002
{
1070
    40
1040
1.3
1070
    45
1040
0.5
1002
}
  0
LINE
  5
1AF6E
330
18
100
AcDbEntity
  8
01
100
AcDbLine
 10
2432.841167398309
 20
-484.7951589510186
 30
0.0
 11
2432.841167398309
 21
-439.9449842174882
 31
0.0
1001
ACAD
1000
DSTYLE
1002
{
1070
    40
1040
1.3
1070
    45
1040
0.5
1002
}
  0
LINE
  5
1AF6F
330
18
100
AcDbEntity
  8
01
100
AcDbLine
 10
2424.441167398309
 20
-441.2449842174882
 30
0.0
 11
2430.241167398309
 21
-441.2449842174882
 31
0.0
1001
ACAD
1000
DSTYLE
1002
{
1070
    40
1040
1.3
1070
    45
1040
0.5
1002
}
  0
LINE
  5
1AF73
330
18
100
AcDbEntity
  8
01
100
AcDbLine
 10
2501.841167398309
 20
-512.6738488097843
 30
0.0
 11
2530.141167398309
 21
-512.6738488097843
 31
0.0
1001
ACAD
1000
DSTYLE
1002
{
1070
    40
1040
1.3
1070
    45
1040
0.5
1002
}
  0
LINE
  5
1AF74
330
18
100
AcDbEntity
  8
01
100
AcDbLine
 10
2501.841167398309
 20
-586.6664763021766
 30
0.0
 11
2530.141167398309
 21
-586.6664763021766
 31
0.0
1001
ACAD
1000
DSTYLE
1002
{
1070
    40
1040
1.3
1070
    45
1040
0.5
1002
}
  0
LINE
  5
1AF75
330
18
100
AcDbEntity
  8
01
100
AcDbLine
 10
2528.841167398309
 20
-515.2738488097843
 30
0.0
 11
2528.841167398309
 21
-584.0664763021766
 31
0.0
1001
ACAD
1000
DSTYLE
1002
{
1070
    40
1040
1.3
1070
    45
1040
0.5
1002
}
  0
LINE
  5
1AF79
330
18
100
AcDbEntity
  8
01
100
AcDbLine
 10
2501.841167398309
 20
-512.6738488097843
 30
0.0
 11
2501.841167398309
 21
-429.86511674944
 31
0.0
1001
ACAD
1000
DSTYLE
1002
{
1070
    40
1040
1.3
1070
    45
1040
0.5
1002
}
  0
LINE
  5
1AF7A
330
18
100
AcDbEntity
  8
01
100
AcDbLine
 10
2432.841167398309
 20
-484.7951589510186
 30
0.0
 11
2432.841167398309
 21
-429.86511674944
 31
0.0
1001
ACAD
1000
DSTYLE
1002
{
1070
    40
1040
1.3
1070
    45
1040
0.5
1002
}
  0
LINE
  5
1AF7B
330
18
100
AcDbEntity
  8
01
100
AcDbLine
 10
2499.241167398309
 20
-431.16511674944
 30
0.0
 11
2435.441167398309
 21
-431.16511674944
 31
0.0
1001
ACAD
1000
DSTYLE
1002
{
1070
    40
1040
1.3
1070
    45
1040
0.5
1002
}
  0
LINE
  5
1AF7F
330
18
100
AcDbEntity
  8
01
100
AcDbLine
 10
2432.841167398309
 20
-484.7951589510186
 30
0.0
 11
2432.841167398309
 21
-439.9449842174882
 31
0.0
1001
ACAD
1000
DSTYLE
1002
{
1070
    40
1040
1.3
1070
    45
1040
0.5
1002
}
  0
LINE
  5
1AF80
330
18
100
AcDbEntity
  8
01
100
AcDbLine
 10
2483.841167398309
 20
-520.6664763021762
 30
0.0
 11
2483.841167398309
 21
-439.9449842174882
 31
0.0
1001
ACAD
1000
DSTYLE
1002
{
1070
    40
1040
1.3
1070
    45
1040
0.5
1002
}
  0
LINE
  5
1AF81
330
18
100
AcDbEntity
  8
01
100
AcDbLine
 10
2435.441167398309
 20
-441.2449842174882
 30
0.0
 11
2481.241167398309
 21
-441.2449842174882
 31
0.0
1001
ACAD
1000
DSTYLE
1002
{
1070
    40
1040
1.3
1070
    45
1040
0.5
1002
}
  0
LINE
  5
1AF85
330
18
100
AcDbEntity
  8
01
100
AcDbLine
 10
2319.716309145959
 20
-492.6664763021769
 30
0.0
 11
2400.002440314167
 21
-492.6664763021769
 31
0.0
1001
ACAD
1000
DSTYLE
1002
{
1070
    40
1040
1.3
1070
    45
1040
0.5
1002
}
  0
LINE
  5
1AF86
330
18
100
AcDbEntity
  8
01
100
AcDbLine
 10
2319.716309145959
 20
-606.6664763021769
 30
0.0
 11
2400.002440314167
 21
-606.6664763021769
 31
0.0
1001
ACAD
1000
DSTYLE
1002
{
1070
    40
1040
1.3
1070
    45
1040
0.5
1002
}
  0
LINE
  5
1AF87
330
18
100
AcDbEntity
  8
01
100
AcDbLine
 10
2398.702440314167
 20
-495.2664763021769
 30
0.0
 11
2398.702440314167
 21
-604.0664763021769
 31
0.0
1001
ACAD
1000
DSTYLE
1002
{
1070
    40
1040
1.3
1070
    45
1040
0.5
1002
}
  0
LINE
  5
1AF8B
330
18
100
AcDbEntity
  8
01
100
AcDbLine
 10
2320.314369542723
 20
-484.7669214465933
 30
0.0
 11
2409.366774480392
 21
-484.7669214465933
 31
0.0
1001
ACAD
1000
DSTYLE
1002
{
1070
    40
1040
1.3
1070
    45
1040
0.5
1002
}
  0
LINE
  5
1AF8C
330
18
100
AcDbEntity
  8
01
100
AcDbLine
 10
2320.241283738053
 20
-614.5664763021767
 30
0.0
 11
2409.366774480392
 21
-614.5664763021767
 31
0.0
1001
ACAD
1000
DSTYLE
1002
{
1070
    40
1040
1.3
1070
    45
1040
0.5
1002
}
  0
LINE
  5
1AF8D
330
18
100
AcDbEntity
  8
01
100
AcDbLine
 10
2408.066774480392
 20
-487.3669214465933
 30
0.0
 11
2408.066774480392
 21
-611.9664763021767
 31
0.0
1001
ACAD
1000
DSTYLE
1002
{
1070
    40
1040
1.3
1070
    45
1040
0.5
1002
}
  0
LINE
  5
1AF91
330
18
100
AcDbEntity
  8
01
100
AcDbLine
 10
2301.341283738053
 20
-490.6664763021766
 30
0.0
 11
2301.341283738053
 21
-439.9449842174884
 31
0.0
1001
ACAD
1000
DSTYLE
1002
{
1070
    40
1040
1.3
1070
    45
1040
0.5
1002
}
  0
LINE
  5
1AF92
330
18
100
AcDbEntity
  8
01
100
AcDbLine
 10
2326.341283738053
 20
-490.6664763021766
 30
0.0
 11
2326.341283738053
 21
-439.9449842174884
 31
0.0
1001
ACAD
1000
DSTYLE
1002
{
1070
    40
1040
1.3
1070
    45
1040
0.5
1002
}
  0
LINE
  5
1AF93
330
18
100
AcDbEntity
  8
01
100
AcDbLine
 10
2303.941283738053
 20
-441.2449842174884
 30
0.0
 11
2323.741283738053
 21
-441.2449842174884
 31
0.0
1001
ACAD
1000
DSTYLE
1002
{
1070
    40
1040
1.3
1070
    45
1040
0.5
1002
}
  0
LINE
  5
1AF97
330
18
100
AcDbEntity
  8
01
100
AcDbLine
 10
2457.841167398312
 20
-544.1651579890748
 30
0.0
 11
2447.541167398309
 21
-544.1651579890748
 31
0.0
1001
ACAD
1000
DSTYLE
1002
{
1070
     3
1000
□<>
1070
    40
1040
1.3
1070
    45
1040
0.5
1002
}
  0
LINE
  5
1AF98
330
18
100
AcDbEntity
  8
01
100
AcDbLine
 10
2457.841167398312
 20
-597.1651579890748
 30
0.0
 11
2447.541167398309
 21
-597.1651579890748
 31
0.0
1001
ACAD
1000
DSTYLE
1002
{
1070
     3
1000
□<>
1070
    40
1040
1.3
1070
    45
1040
0.5
1002
}
  0
LINE
  5
1AF99
330
18
100
AcDbEntity
  8
01
100
AcDbLine
 10
2448.841167398309
 20
-546.7651579890749
 30
0.0
 11
2448.841167398309
 21
-594.5651579890748
 31
0.0
1001
ACAD
1000
DSTYLE
1002
{
1070
     3
1000
□<>
1070
    40
1040
1.3
1070
    45
1040
0.5
1002
}
  0
LINE
  5
1AF9D
330
18
100
AcDbEntity
  8
01
  6
BYBLOCK
100
AcDbLine
 10
2291.241283738055
 20
-463.9684900950728
 30
0.0
 11
2293.841283738055
 21
-464.6651579890728
 31
0.0
  0
LINE
  5
1AF9E
330
18
100
AcDbEntity
  8
01
  6
BYBLOCK
100
AcDbLine
 10
2293.841283738055
 20
-464.6651579890728
 30
0.0
 11
2291.241283738055
 21
-465.3618258830728
 31
0.0
  0
LINE
  5
1AF9F
330
18
100
AcDbEntity
  8
01
  6
BYBLOCK
100
AcDbLine
 10
2293.841283738055
 20
-464.6651579890728
 30
0.0
 11
2291.241283738055
 21
-464.6651579890728
 31
0.0
  0
LINE
  5
1AFA0
330
18
100
AcDbEntity
  8
01
  6
BYBLOCK
100
AcDbLine
 10
2274.440898172335
 20
-465.3618258830728
 30
0.0
 11
2271.840898172336
 21
-464.6651579890728
 31
0.0
  0
LINE
  5
1AFA1
330
18
100
AcDbEntity
  8
01
  6
BYBLOCK
100
AcDbLine
 10
2271.840898172336
 20
-464.6651579890728
 30
0.0
 11
2274.440898172335
 21
-463.9684900950728
 31
0.0
  0
LINE
  5
1AFA2
330
18
100
AcDbEntity
  8
01
  6
BYBLOCK
100
AcDbLine
 10
2271.840898172336
 20
-464.6651579890728
 30
0.0
 11
2274.440898172335
 21
-464.6651579890728
 31
0.0
  0
TEXT
  5
1AFA3
330
18
100
AcDbEntity
  8
01
  6
CONTINUOUS
100
AcDbText
 10
2279.049424288529
 20
-463.7551579890728
 30
0.0
 40
4.55
  1
22
100
AcDbText
1001
ACAD
1000
DSTYLE
1002
{
1070
    40
1040
1.3
1070
    45
1040
0.5
1070
   341
1005
0
1002
}
  0
LINE
  5
1AFA4
330
18
100
AcDbEntity
  8
01
  6
BYBLOCK
100
AcDbLine
 10
2336.441283738055
 20
-465.3618258830728
 30
0.0
 11
2333.841283738055
 21
-464.6651579890728
 31
0.0
  0
LINE
  5
1AFA5
330
18
100
AcDbEntity
  8
01
  6
BYBLOCK
100
AcDbLine
 10
2333.841283738055
 20
-464.6651579890728
 30
0.0
 11
2336.441283738055
 21
-463.9684900950728
 31
0.0
  0
LINE
  5
1AFA6
330
18
100
AcDbEntity
  8
01
  6
BYBLOCK
100
AcDbLine
 10
2333.841283738055
 20
-464.6651579890728
 30
0.0
 11
2336.441283738055
 21
-464.6651579890728
 31
0.0
  0
LINE
  5
1AFA7
330
18
100
AcDbEntity
  8
01
  6
BYBLOCK
100
AcDbLine
 10
2339.409867427016
 20
-463.9684900950728
 30
0.0
 11
2342.009867427016
 21
-464.6651579890728
 31
0.0
  0
LINE
  5
1AFA8
330
18
100
AcDbEntity
  8
01
  6
BYBLOCK
100
AcDbLine
 10
2342.009867427016
 20
-464.6651579890728
 30
0.0
 11
2339.409867427016
 21
-465.3618258830728
 31
0.0
  0
LINE
  5
1AFA9
330
18
100
AcDbEntity
  8
01
  6
BYBLOCK
100
AcDbLine
 10
2342.009867427016
 20
-464.6651579890728
 30
0.0
 11
2339.409867427016
 21
-464.6651579890728
 31
0.0
  0
TEXT
  5
1AFAA
330
18
100
AcDbEntity
  8
01
  6
CONTINUOUS
100
AcDbText
 10
2336.408908915868
 20
-463.7551579890728
 30
0.0
 40
4.55
  1
8
100
AcDbText
1001
ACAD
1000
DSTYLE
1002
{
1070
    40
1040
1.3
1070
    45
1040
0.5
1070
   271
1070
     1
1070
   341
1005
0
1002
}
  0
LINE
  5
1AFAB
330
18
100
AcDbEntity
  8
01
  6
BYBLOCK
100
AcDbLine
 10
2126.441295093138
 20
-488.3618258830728
 30
0.0
 11
2123.841295093138
 21
-487.6651579890728
 31
0.0
  0
LINE
  5
1AFAC
330
18
100
AcDbEntity
  8
01
  6
BYBLOCK
100
AcDbLine
 10
2123.841295093138
 20
-487.6651579890728
 30
0.0
 11
2126.441295093138
 21
-486.9684900950728
 31
0.0
  0
LINE
  5
1AFAD
330
18
100
AcDbEntity
  8
01
  6
BYBLOCK
100
AcDbLine
 10
2123.841295093138
 20
-487.6651579890728
 30
0.0
 11
2126.441295093138
 21
-487.6651579890728
 31
0.0
  0
LINE
  5
1AFAE
330
18
100
AcDbEntity
  8
01
  6
BYBLOCK
100
AcDbLine
 10
2161.241295093138
 20
-486.9684900950728
 30
0.0
 11
2163.841295093138
 21
-487.6651579890728
 31
0.0
  0
LINE
  5
1AFAF
330
18
100
AcDbEntity
  8
01
  6
BYBLOCK
100
AcDbLine
 10
2163.841295093138
 20
-487.6651579890728
 30
0.0
 11
2161.241295093138
 21
-488.3618258830728
 31
0.0
  0
LINE
  5
1AFB0
330
18
100
AcDbEntity
  8
01
  6
BYBLOCK
100
AcDbLine
 10
2163.841295093138
 20
-487.6651579890728
 30
0.0
 11
2161.241295093138
 21
-487.6651579890728
 31
0.0
  0
TEXT
  5
1AFB1
330
18
100
AcDbEntity
  8
01
  6
CONTINUOUS
100
AcDbText
 10
2137.452336759805
 20
-486.7551579890728
 30
0.0
 40
4.55
  1
□40
100
AcDbText
1001
ACAD
1000
DSTYLE
1002
{
1070
     3
1000
□<>
1070
    40
1040
1.3
1070
    45
1040
0.5
1070
   271
1070
     1
1070
   272
1070
     2
1002
}
  0
LINE
  5
1AFB2
330
18
100
AcDbEntity
  8
01
  6
BYBLOCK
100
AcDbLine
 10
2466.441175075852
 20
-488.3618258830728
 30
0.0
 11
2463.841175075852
 21
-487.6651579890728
 31
0.0
  0
LINE
  5
1AFB3
330
18
100
AcDbEntity
  8
01
  6
BYBLOCK
100
AcDbLine
 10
2463.841175075852
 20
-487.6651579890728
 30
0.0
 11
2466.441175075852
 21
-486.9684900950728
 31
0.0
  0
LINE
  5
1AFB4
330
18
100
AcDbEntity
  8
01
  6
BYBLOCK
100
AcDbLine
 10
2463.841175075852
 20
-487.6651579890728
 30
0.0
 11
2466.441175075852
 21
-487.6651579890728
 31
0.0
  0
LINE
  5
1AFB5
330
18
100
AcDbEntity
  8
01
  6
BYBLOCK
100
AcDbLine
 10
2501.241175075852
 20
-486.9684900950728
 30
0.0
 11
2503.841175075852
 21
-487.6651579890728
 31
0.0
  0
LINE
  5
1AFB6
330
18
100
AcDbEntity
  8
01
  6
BYBLOCK
100
AcDbLine
 10
2503.841175075852
 20
-487.6651579890728
 30
0.0
 11
2501.241175075852
 21
-488.3618258830728
 31
0.0
  0
LINE
  5
1AFB7
330
18
100
AcDbEntity
  8
01
  6
BYBLOCK
100
AcDbLine
 10
2503.841175075852
 20
-487.6651579890728
 30
0.0
 11
2501.241175075852
 21
-487.6651579890728
 31
0.0
  0
TEXT
  5
1AFB8
330
18
100
AcDbEntity
  8
01
  6
CONTINUOUS
100
AcDbText
 10
2477.452216742518
 20
-486.7551579890728
 30
0.0
 40
4.55
  1
□40
100
AcDbText
1001
ACAD
1000
DSTYLE
1002
{
1070
     3
1000
□<>
1070
    40
1040
1.3
1070
    45
1040
0.5
1070
   271
1070
     1
1070
   272
1070
     2
1002
}
  0
LINE
  5
1AFB9
330
18
100
AcDbEntity
  8
01
  6
BYBLOCK
100
AcDbLine
 10
2424.441167398309
 20
-441.9416521114882
 30
0.0
 11
2421.841167398309
 21
-441.2449842174882
 31
0.0
  0
LINE
  5
1AFBA
330
18
100
AcDbEntity
  8
01
  6
BYBLOCK
100
AcDbLine
 10
2421.841167398309
 20
-441.2449842174882
 30
0.0
 11
2424.441167398309
 21
-440.5483163234882
 31
0.0
  0
LINE
  5
1AFBB
330
18
100
AcDbEntity
  8
01
  6
BYBLOCK
100
AcDbLine
 10
2421.841167398309
 20
-441.2449842174882
 30
0.0
 11
2424.441167398309
 21
-441.2449842174882
 31
0.0
  0
LINE
  5
1AFBC
330
18
100
AcDbEntity
  8
01
  6
BYBLOCK
100
AcDbLine
 10
2430.241167398309
 20
-440.5483163234882
 30
0.0
 11
2432.841167398309
 21
-441.2449842174882
 31
0.0
  0
LINE
  5
1AFBD
330
18
100
AcDbEntity
  8
01
  6
BYBLOCK
100
AcDbLine
 10
2432.841167398309
 20
-441.2449842174882
 30
0.0
 11
2430.241167398309
 21
-441.9416521114882
 31
0.0
  0
LINE
  5
1AFBE
330
18
100
AcDbEntity
  8
01
  6
BYBLOCK
100
AcDbLine
 10
2432.841167398309
 20
-441.2449842174882
 30
0.0
 11
2430.241167398309
 21
-441.2449842174882
 31
0.0
  0
TEXT
  5
1AFBF
330
18
100
AcDbEntity
  8
01
  6
CONTINUOUS
100
AcDbText
 10
2425.066167398309
 20
-440.3349842174882
 30
0.0
 40
4.55
  1
11
100
AcDbText
1001
ACAD
1000
DSTYLE
1002
{
1070
    40
1040
1.3
1070
    45
1040
0.5
1002
}
  0
LINE
  5
1AFC0
330
18
100
AcDbEntity
  8
01
  6
BYBLOCK
100
AcDbLine
 10
2528.144499504309
 20
-515.2738488097843
 30
0.0
 11
2528.841167398309
 21
-512.6738488097843
 31
0.0
  0
LINE
  5
1AFC1
330
18
100
AcDbEntity
  8
01
  6
BYBLOCK
100
AcDbLine
 10
2528.841167398309
 20
-512.6738488097843
 30
0.0
 11
2529.537835292309
 21
-515.2738488097843
 31
0.0
  0
LINE
  5
1AFC2
330
18
100
AcDbEntity
  8
01
  6
BYBLOCK
100
AcDbLine
 10
2528.841167398309
 20
-512.6738488097843
 30
0.0
 11
2528.841167398309
 21
-515.2738488097843
 31
0.0
  0
LINE
  5
1AFC3
330
18
100
AcDbEntity
  8
01
  6
BYBLOCK
100
AcDbLine
 10
2529.537835292309
 20
-584.0664763021766
 30
0.0
 11
2528.841167398309
 21
-586.6664763021766
 31
0.0
  0
LINE
  5
1AFC4
330
18
100
AcDbEntity
  8
01
  6
BYBLOCK
100
AcDbLine
 10
2528.841167398309
 20
-586.6664763021766
 30
0.0
 11
2528.144499504309
 21
-584.0664763021766
 31
0.0
  0
LINE
  5
1AFC5
330
18
100
AcDbEntity
  8
01
  6
BYBLOCK
100
AcDbLine
 10
2528.841167398309
 20
-586.6664763021766
 30
0.0
 11
2528.841167398309
 21
-584.0664763021766
 31
0.0
  0
TEXT
  5
1AFC6
330
18
100
AcDbEntity
  8
01
  6
CONTINUOUS
100
AcDbText
 10
2527.931167398308
 20
-531.6951322161576
 30
0.0
 40
4.55
  1
74
 50
90.0
100
AcDbText
1001
ACAD
1000
DSTYLE
1002
{
1070
    40
1040
1.3
1070
    45
1040
0.5
1002
}
  0
LINE
  5
1AFC7
330
18
100
AcDbEntity
  8
01
  6
BYBLOCK
100
AcDbLine
 10
2499.241167398309
 20
-430.46844885544
 30
0.0
 11
2501.841167398309
 21
-431.16511674944
 31
0.0
  0
LINE
  5
1AFC8
330
18
100
AcDbEntity
  8
01
  6
BYBLOCK
100
AcDbLine
 10
2501.841167398309
 20
-431.16511674944
 30
0.0
 11
2499.241167398309
 21
-431.86178464344
 31
0.0
  0
LINE
  5
1AFC9
330
18
100
AcDbEntity
  8
01
  6
BYBLOCK
100
AcDbLine
 10
2501.841167398309
 20
-431.16511674944
 30
0.0
 11
2499.241167398309
 21
-431.16511674944
 31
0.0
  0
LINE
  5
1AFCA
330
18
100
AcDbEntity
  8
01
  6
BYBLOCK
100
AcDbLine
 10
2435.441167398309
 20
-431.86178464344
 30
0.0
 11
2432.841167398309
 21
-431.16511674944
 31
0.0
  0
LINE
  5
1AFCB
330
18
100
AcDbEntity
  8
01
  6
BYBLOCK
100
AcDbLine
 10
2432.841167398309
 20
-431.16511674944
 30
0.0
 11
2435.441167398309
 21
-430.46844885544
 31
0.0
  0
LINE
  5
1AFCC
330
18
100
AcDbEntity
  8
01
  6
BYBLOCK
100
AcDbLine
 10
2432.841167398309
 20
-431.16511674944
 30
0.0
 11
2435.441167398309
 21
-431.16511674944
 31
0.0
  0
TEXT
  5
1AFCD
330
18
100
AcDbEntity
  8
01
  6
CONTINUOUS
100
AcDbText
 10
2463.53264887979
 20
-430.25511674944
 30
0.0
 40
4.55
  1
69
100
AcDbText
1001
ACAD
1000
DSTYLE
1002
{
1070
    40
1040
1.3
1070
    45
1040
0.5
1002
}
  0
LINE
  5
1AFCE
330
18
100
AcDbEntity
  8
01
  6
BYBLOCK
100
AcDbLine
 10
2435.441167398309
 20
-441.9416521114882
 30
0.0
 11
2432.841167398309
 21
-441.2449842174882
 31
0.0
  0
LINE
  5
1AFCF
330
18
100
AcDbEntity
  8
01
  6
BYBLOCK
100
AcDbLine
 10
2432.841167398309
 20
-441.2449842174882
 30
0.0
 11
2435.441167398309
 21
-440.5483163234882
 31
0.0
  0
LINE
  5
1AFD0
330
18
100
AcDbEntity
  8
01
  6
BYBLOCK
100
AcDbLine
 10
2432.841167398309
 20
-441.2449842174882
 30
0.0
 11
2435.441167398309
 21
-441.2449842174882
 31
0.0
  0
LINE
  5
1AFD1
330
18
100
AcDbEntity
  8
01
  6
BYBLOCK
100
AcDbLine
 10
2481.241167398309
 20
-440.5483163234882
 30
0.0
 11
2483.841167398309
 21
-441.2449842174882
 31
0.0
  0
LINE
  5
1AFD2
330
18
100
AcDbEntity
  8
01
  6
BYBLOCK
100
AcDbLine
 10
2483.841167398309
 20
-441.2449842174882
 30
0.0
 11
2481.241167398309
 21
-441.9416521114882
 31
0.0
  0
LINE
  5
1AFD3
330
18
100
AcDbEntity
  8
01
  6
BYBLOCK
100
AcDbLine
 10
2483.841167398309
 20
-441.2449842174882
 30
0.0
 11
2481.241167398309
 21
-441.2449842174882
 31
0.0
  0
TEXT
  5
1AFD4
330
18
100
AcDbEntity
  8
01
  6
CONTINUOUS
100
AcDbText
 10
2455.292035453864
 20
-440.3349842174882
 30
0.0
 40
4.55
  1
51
100
AcDbText
1001
ACAD
1000
DSTYLE
1002
{
1070
    40
1040
1.3
1070
    45
1040
0.5
1002
}
  0
LINE
  5
1AFD5
330
18
100
AcDbEntity
  8
01
  6
BYBLOCK
100
AcDbLine
 10
2398.005772420167
 20
-495.2664763021769
 30
0.0
 11
2398.702440314167
 21
-492.6664763021769
 31
0.0
  0
LINE
  5
1AFD6
330
18
100
AcDbEntity
  8
01
  6
BYBLOCK
100
AcDbLine
 10
2398.702440314167
 20
-492.6664763021769
 30
0.0
 11
2399.399108208167
 21
-495.2664763021769
 31
0.0
  0
LINE
  5
1AFD7
330
18
100
AcDbEntity
  8
01
  6
BYBLOCK
100
AcDbLine
 10
2398.702440314167
 20
-492.6664763021769
 30
0.0
 11
2398.702440314167
 21
-495.2664763021769
 31
0.0
  0
LINE
  5
1AFD8
330
18
100
AcDbEntity
  8
01
  6
BYBLOCK
100
AcDbLine
 10
2399.399108208167
 20
-604.0664763021769
 30
0.0
 11
2398.702440314167
 21
-606.6664763021769
 31
0.0
  0
LINE
  5
1AFD9
330
18
100
AcDbEntity
  8
01
  6
BYBLOCK
100
AcDbLine
 10
2398.702440314167
 20
-606.6664763021769
 30
0.0
 11
2398.005772420167
 21
-604.0664763021769
 31
0.0
  0
LINE
  5
1AFDA
330
18
100
AcDbEntity
  8
01
  6
BYBLOCK
100
AcDbLine
 10
2398.702440314167
 20
-606.6664763021769
 30
0.0
 11
2398.702440314167
 21
-604.0664763021769
 31
0.0
  0
TEXT
  5
1AFDB
330
18
100
AcDbEntity
  8
01
  6
CONTINUOUS
100
AcDbText
 10
2397.792440314167
 20
-525.0834539542552
 30
0.0
 40
4.55
  1
114
 50
90.0
100
AcDbText
1001
ACAD
1000
DSTYLE
1002
{
1070
    40
1040
1.3
1070
    45
1040
0.5
1002
}
  0
LINE
  5
1AFDC
330
18
100
AcDbEntity
  8
01
  6
BYBLOCK
100
AcDbLine
 10
2407.370106586392
 20
-487.3669214465933
 30
0.0
 11
2408.066774480392
 21
-484.7669214465933
 31
0.0
  0
LINE
  5
1AFDD
330
18
100
AcDbEntity
  8
01
  6
BYBLOCK
100
AcDbLine
 10
2408.066774480392
 20
-484.7669214465933
 30
0.0
 11
2408.763442374392
 21
-487.3669214465933
 31
0.0
  0
LINE
  5
1AFDE
330
18
100
AcDbEntity
  8
01
  6
BYBLOCK
100
AcDbLine
 10
2408.066774480392
 20
-484.7669214465933
 30
0.0
 11
2408.066774480392
 21
-487.3669214465933
 31
0.0
  0
LINE
  5
1AFDF
330
18
100
AcDbEntity
  8
01
  6
BYBLOCK
100
AcDbLine
 10
2408.763442374392
 20
-611.9664763021767
 30
0.0
 11
2408.066774480392
 21
-614.5664763021767
 31
0.0
  0
LINE
  5
1AFE0
330
18
100
AcDbEntity
  8
01
  6
BYBLOCK
100
AcDbLine
 10
2408.066774480392
 20
-614.5664763021767
 30
0.0
 11
2407.370106586392
 21
-611.9664763021767
 31
0.0
  0
LINE
  5
1AFE1
330
18
100
AcDbEntity
  8
01
  6
BYBLOCK
100
AcDbLine
 10
2408.066774480392
 20
-614.5664763021767
 30
0.0
 11
2408.066774480392
 21
-611.9664763021767
 31
0.0
  0
TEXT
  5
1AFE2
330
18
100
AcDbEntity
  8
01
  6
CONTINUOUS
100
AcDbText
 10
2407.156774480392
 20
-525.8680179570629
 30
0.0
 40
4.55
  1
130
 50
90.0
100
AcDbText
1001
ACAD
1000
DSTYLE
1002
{
1070
    40
1040
1.3
1070
    45
1040
0.5
1002
}
  0
LINE
  5
1AFE3
330
18
100
AcDbEntity
  8
01
  6
BYBLOCK
100
AcDbLine
 10
2303.941283738053
 20
-441.9416521114884
 30
0.0
 11
2301.341283738053
 21
-441.2449842174884
 31
0.0
  0
LINE
  5
1AFE4
330
18
100
AcDbEntity
  8
01
  6
BYBLOCK
100
AcDbLine
 10
2301.341283738053
 20
-441.2449842174884
 30
0.0
 11
2303.941283738053
 21
-440.5483163234885
 31
0.0
  0
LINE
  5
1AFE5
330
18
100
AcDbEntity
  8
01
  6
BYBLOCK
100
AcDbLine
 10
2301.341283738053
 20
-441.2449842174884
 30
0.0
 11
2303.941283738053
 21
-441.2449842174884
 31
0.0
  0
LINE
  5
1AFE6
330
18
100
AcDbEntity
  8
01
  6
BYBLOCK
100
AcDbLine
 10
2323.741283738053
 20
-440.5483163234885
 30
0.0
 11
2326.341283738053
 21
-441.2449842174884
 31
0.0
  0
LINE
  5
1AFE7
330
18
100
AcDbEntity
  8
01
  6
BYBLOCK
100
AcDbLine
 10
2326.341283738053
 20
-441.2449842174884
 30
0.0
 11
2323.741283738053
 21
-441.9416521114884
 31
0.0
  0
LINE
  5
1AFE8
330
18
100
AcDbEntity
  8
01
  6
BYBLOCK
100
AcDbLine
 10
2326.341283738053
 20
-441.2449842174884
 30
0.0
 11
2323.741283738053
 21
-441.2449842174884
 31
0.0
  0
TEXT
  5
1AFE9
330
18
100
AcDbEntity
  8
01
  6
CONTINUOUS
100
AcDbText
 10
2310.049617071387
 20
-440.3349842174885
 30
0.0
 40
4.55
  1
25
100
AcDbText
1001
ACAD
1000
DSTYLE
1002
{
1070
    40
1040
1.3
1070
    45
1040
0.5
1002
}
  0
LINE
  5
1AFEA
330
18
100
AcDbEntity
  8
01
  6
BYBLOCK
100
AcDbLine
 10
2448.144499504309
 20
-546.7651579890749
 30
0.0
 11
2448.841167398309
 21
-544.1651579890748
 31
0.0
  0
LINE
  5
1AFEB
330
18
100
AcDbEntity
  8
01
  6
BYBLOCK
100
AcDbLine
 10
2448.841167398309
 20
-544.1651579890748
 30
0.0
 11
2449.537835292309
 21
-546.7651579890749
 31
0.0
  0
LINE
  5
1AFEC
330
18
100
AcDbEntity
  8
01
  6
BYBLOCK
100
AcDbLine
 10
2448.841167398309
 20
-544.1651579890748
 30
0.0
 11
2448.841167398309
 21
-546.7651579890749
 31
0.0
  0
LINE
  5
1AFED
330
18
100
AcDbEntity
  8
01
  6
BYBLOCK
100
AcDbLine
 10
2449.537835292309
 20
-594.5651579890748
 30
0.0
 11
2448.841167398309
 21
-597.1651579890748
 31
0.0
  0
LINE
  5
1AFEE
330
18
100
AcDbEntity
  8
01
  6
BYBLOCK
100
AcDbLine
 10
2448.841167398309
 20
-597.1651579890748
 30
0.0
 11
2448.144499504309
 21
-594.5651579890748
 31
0.0
  0
LINE
  5
1AFEF
330
18
100
AcDbEntity
  8
01
  6
BYBLOCK
100
AcDbLine
 10
2448.841167398309
 20
-597.1651579890748
 30
0.0
 11
2448.841167398309
 21
-594.5651579890748
 31
0.0
  0
TEXT
  5
1AFF0
330
18
100
AcDbEntity
  8
01
  6
CONTINUOUS
100
AcDbText
 10
2447.931167398308
 20
-578.6940358956722
 30
0.0
 40
4.55
  1
□53
 50
90.0
100
AcDbText
1001
ACAD
1000
DSTYLE
1002
{
1070
     3
1000
□<>
1070
    40
1040
1.3
1070
    45
1040
0.5
1002
}
  0
LINE
  5
1AFF1
330
18
100
AcDbEntity
  8
1DIM
100
AcDbLine
 10
2113.841287738053
 20
-570.665157989073
 30
0.0
 11
2098.847435335765
 21
-570.665157989073
 31
0.0
1001
ACAD
1000
DSTYLE
1002
{
1070
    40
1040
1.3
1070
    45
1040
0.5
1070
   341
1005
0
1002
}
  0
LINE
  5
1AFF2
330
18
100
AcDbEntity
  8
1DIM
100
AcDbLine
 10
2121.341279738054
 20
-515.1651579890728
 30
0.0
 11
2098.847435335765
 21
-515.1651579890728
 31
0.0
1001
ACAD
1000
DSTYLE
1002
{
1070
    40
1040
1.3
1070
    45
1040
0.5
1070
   341
1005
0
1002
}
  0
LINE
  5
1AFF3
330
18
100
AcDbEntity
  8
1DIM
100
AcDbLine
 10
2100.147435335765
 20
-568.065157989073
 30
0.0
 11
2100.147435335765
 21
-517.7651579890728
 31
0.0
1001
ACAD
1000
DSTYLE
1002
{
1070
    40
1040
1.3
1070
    45
1040
0.5
1070
   341
1005
0
1002
}
  0
SOLID
  5
1AFF7
330
18
100
AcDbEntity
  8
1DIM
100
AcDbTrace
 10
2470.402192185948
 20
-354.8968843808767
 30
0.0000000000563712
 11
2472.772944071262
 21
-353.7447935528363
 31
0.0000000000563712
 12
2470.90399201587
 22
-355.6035017043279
 32
0.0000000000563712
 13
2470.90399201587
 23
-355.6035017043279
 33
0.0000000000563712
1001
ACAD
1000
DSTYLE
1002
{
1070
    40
1040
1.3
1070
    45
1040
0.5
1002
}
  0
LINE
  5
1AFF8
330
18
100
AcDbEntity
  8
1DIM
100
AcDbLine
 10
2470.653092100908
 20
-355.2501930426022
 30
0.0000000000563712
 11
2443.18550392422
 21
-374.7561273269615
 31
0.0000000000563712
1001
ACAD
1000
DSTYLE
1002
{
1070
    40
1040
1.3
1070
    45
1040
0.5
1002
}
  0
LINE
  5
1AFF9
330
18
100
AcDbEntity
  8
1DIM
100
AcDbLine
 10
2500.242051580368
 20
-291.1664763032048
 30
0.0
 11
2520.802442340082
 21
-291.1664763032048
 31
0.0
1001
ACAD
1000
DSTYLE
1002
{
1070
    45
1040
0.5
1070
    40
1040
1.3
1002
}
  0
LINE
  5
1AFFA
330
18
100
AcDbEntity
  8
1DIM
100
AcDbLine
 10
2501.842051580369
 20
-309.9664763032048
 30
0.0
 11
2520.802442340082
 21
-309.9664763032048
 31
0.0
1001
ACAD
1000
DSTYLE
1002
{
1070
    45
1040
0.5
1070
    40
1040
1.3
1002
}
  0
LINE
  5
1AFFB
330
18
100
AcDbEntity
  8
1DIM
100
AcDbLine
 10
2519.502442340081
 20
-293.7664763032049
 30
0.0
 11
2519.502442340081
 21
-307.3664763032048
 31
0.0
1001
ACAD
1000
DSTYLE
1002
{
1070
    45
1040
0.5
1070
    40
1040
1.3
1002
}
  0
LINE
  5
1AFFF
330
18
100
AcDbEntity
  8
1DIM
100
AcDbLine
 10
2483.841283738052
 20
-342.1664763032048
 30
0.0
 11
2483.841283738052
 21
-406.9664763032048
 31
0.0
1001
ACAD
1000
DSTYLE
1002
{
1070
    40
1040
1.3
1070
    45
1040
0.5
1002
}
  0
LINE
  5
1B000
330
18
100
AcDbEntity
  8
1DIM
100
AcDbLine
 10
2603.841283738052
 20
-368.8664763032046
 30
0.0
 11
2603.841283738052
 21
-406.9664763032048
 31
0.0
1001
ACAD
1000
DSTYLE
1002
{
1070
    40
1040
1.3
1070
    45
1040
0.5
1002
}
  0
LINE
  5
1B001
330
18
100
AcDbEntity
  8
1DIM
100
AcDbLine
 10
2486.441283738051
 20
-405.6664763032048
 30
0.0
 11
2601.241283738052
 21
-405.6664763032048
 31
0.0
1001
ACAD
1000
DSTYLE
1002
{
1070
    40
1040
1.3
1070
    45
1040
0.5
1002
}
  0
LINE
  5
1B005
330
18
100
AcDbEntity
  8
1DIM
100
AcDbLine
 10
2472.841283738052
 20
-368.8664763032046
 30
0.0
 11
2472.841283738052
 21
-416.9664763032048
 31
0.0
1001
ACAD
1000
DSTYLE
1002
{
1070
    40
1040
1.3
1070
    45
1040
0.5
1002
}
  0
LINE
  5
1B006
330
18
100
AcDbEntity
  8
1DIM
100
AcDbLine
 10
2603.841283738052
 20
-368.8664763032046
 30
0.0
 11
2603.841283738052
 21
-416.9664763032048
 31
0.0
1001
ACAD
1000
DSTYLE
1002
{
1070
    40
1040
1.3
1070
    45
1040
0.5
1002
}
  0
LINE
  5
1B007
330
18
100
AcDbEntity
  8
1DIM
100
AcDbLine
 10
2475.441283738051
 20
-415.6664763032048
 30
0.0
 11
2601.241283738052
 21
-415.6664763032048
 31
0.0
1001
ACAD
1000
DSTYLE
1002
{
1070
    40
1040
1.3
1070
    45
1040
0.5
1002
}
  0
LINE
  5
1B00B
330
18
100
AcDbEntity
  8
1DIM
100
AcDbLine
 10
2599.573334545621
 20
-356.8664763032046
 30
0.0
 11
2640.141283738052
 21
-356.8664763032046
 31
0.0
1001
ACAD
1000
DSTYLE
1002
{
1070
    40
1040
1.3
1070
    45
1040
0.5
1002
}
  0
LINE
  5
1B00C
330
18
100
AcDbEntity
  8
1DIM
100
AcDbLine
 10
2586.5964317354
 20
-320.6664763032048
 30
0.0
 11
2640.141283738052
 21
-320.6664763032048
 31
0.0
1001
ACAD
1000
DSTYLE
1002
{
1070
    40
1040
1.3
1070
    45
1040
0.5
1002
}
  0
LINE
  5
1B00D
330
18
100
AcDbEntity
  8
1DIM
100
AcDbLine
 10
2638.841283738052
 20
-354.2664763032046
 30
0.0
 11
2638.841283738052
 21
-323.2664763032049
 31
0.0
1001
ACAD
1000
DSTYLE
1002
{
1070
    40
1040
1.3
1070
    45
1040
0.5
1002
}
  0
LINE
  5
1B011
330
18
100
AcDbEntity
  8
1DIM
100
AcDbLine
 10
2601.841283738052
 20
-370.8664763032046
 30
0.0
 11
2650.141283738052
 21
-370.8664763032046
 31
0.0
1001
ACAD
1000
DSTYLE
1002
{
1070
    40
1040
1.3
1070
    45
1040
0.5
1002
}
  0
LINE
  5
1B012
330
18
100
AcDbEntity
  8
1DIM
100
AcDbLine
 10
2586.5964317354
 20
-320.6664763032048
 30
0.0
 11
2650.141283738052
 21
-320.6664763032048
 31
0.0
1001
ACAD
1000
DSTYLE
1002
{
1070
    40
1040
1.3
1070
    45
1040
0.5
1002
}
  0
LINE
  5
1B013
330
18
100
AcDbEntity
  8
1DIM
100
AcDbLine
 10
2648.841283738052
 20
-368.2664763032046
 30
0.0
 11
2648.841283738052
 21
-323.2664763032049
 31
0.0
1001
ACAD
1000
DSTYLE
1002
{
1070
    40
1040
1.3
1070
    45
1040
0.5
1002
}
  0
LINE
  5
1B017
330
18
100
AcDbEntity
  8
1DIM
100
AcDbLine
 10
2602.341167816533
 20
-581.665157989073
 30
0.0
 11
2640.141167398309
 21
-581.665157989073
 31
0.0
1001
ACAD
1000
DSTYLE
1002
{
1070
    40
1040
1.3
1070
    45
1040
0.5
1002
}
  0
LINE
  5
1B018
330
18
100
AcDbEntity
  8
1DIM
100
AcDbLine
 10
2602.341167816533
 20
-559.665157989073
 30
0.0
 11
2640.141167398309
 21
-559.665157989073
 31
0.0
1001
ACAD
1000
DSTYLE
1002
{
1070
    40
1040
1.3
1070
    45
1040
0.5
1002
}
  0
LINE
  5
1B019
330
18
100
AcDbEntity
  8
1DIM
100
AcDbLine
 10
2638.841167398309
 20
-579.065157989073
 30
0.0
 11
2638.841167398309
 21
-562.265157989073
 31
0.0
1001
ACAD
1000
DSTYLE
1002
{
1070
    40
1040
1.3
1070
    45
1040
0.5
1002
}
  0
LINE
  5
1B01D
330
18
100
AcDbEntity
  8
0
  6
BYBLOCK
100
AcDbLine
 10
2100.844103229765
 20
-568.065157989073
 30
0.0
 11
2100.147435335765
 21
-570.665157989073
 31
0.0
  0
LINE
  5
1B01E
330
18
100
AcDbEntity
  8
0
  6
BYBLOCK
100
AcDbLine
 10
2100.147435335765
 20
-570.665157989073
 30
0.0
 11
2099.450767441765
 21
-568.065157989073
 31
0.0
  0
LINE
  5
1B01F
330
18
100
AcDbEntity
  8
0
  6
BYBLOCK
100
AcDbLine
 10
2100.147435335765
 20
-570.665157989073
 30
0.0
 11
2100.147435335765
 21
-568.065157989073
 31
0.0
  0
LINE
  5
1B020
330
18
100
AcDbEntity
  8
0
  6
BYBLOCK
100
AcDbLine
 10
2099.450767441765
 20
-517.7651579890728
 30
0.0
 11
2100.147435335765
 21
-515.1651579890728
 31
0.0
  0
LINE
  5
1B021
330
18
100
AcDbEntity
  8
0
  6
BYBLOCK
100
AcDbLine
 10
2100.147435335765
 20
-515.1651579890728
 30
0.0
 11
2100.844103229765
 21
-517.7651579890728
 31
0.0
  0
LINE
  5
1B022
330
18
100
AcDbEntity
  8
0
  6
BYBLOCK
100
AcDbLine
 10
2100.147435335765
 20
-515.1651579890728
 30
0.0
 11
2100.147435335765
 21
-517.7651579890728
 31
0.0
  0
TEXT
  5
1B023
330
18
100
AcDbEntity
  8
1DIM
  6
CONTINUOUS
100
AcDbText
 10
2099.237435335765
 20
-549.7717552112954
 30
0.0
 40
4.55
  1
55.5
 50
90.0
100
AcDbText
1001
ACAD
1000
DSTYLE
1002
{
1070
    40
1040
1.3
1070
    45
1040
0.5
1070
   341
1005
0
1002
}
  0
LINE
  5
1B024
330
18
100
AcDbEntity
  8
0
  6
BYBLOCK
100
AcDbLine
 10
2518.805774446082
 20
-293.7664763032049
 30
0.0
 11
2519.502442340081
 21
-291.1664763032048
 31
0.0
  0
LINE
  5
1B025
330
18
100
AcDbEntity
  8
0
  6
BYBLOCK
100
AcDbLine
 10
2519.502442340081
 20
-291.1664763032048
 30
0.0
 11
2520.199110234081
 21
-293.7664763032049
 31
0.0
  0
LINE
  5
1B026
330
18
100
AcDbEntity
  8
0
  6
BYBLOCK
100
AcDbLine
 10
2519.502442340081
 20
-291.1664763032048
 30
0.0
 11
2519.502442340081
 21
-293.7664763032049
 31
0.0
  0
LINE
  5
1B027
330
18
100
AcDbEntity
  8
0
  6
BYBLOCK
100
AcDbLine
 10
2520.199110234081
 20
-307.3664763032048
 30
0.0
 11
2519.502442340081
 21
-309.9664763032048
 31
0.0
  0
LINE
  5
1B028
330
18
100
AcDbEntity
  8
0
  6
BYBLOCK
100
AcDbLine
 10
2519.502442340081
 20
-309.9664763032048
 30
0.0
 11
2518.805774446082
 21
-307.3664763032048
 31
0.0
  0
LINE
  5
1B029
330
18
100
AcDbEntity
  8
0
  6
BYBLOCK
100
AcDbLine
 10
2519.502442340081
 20
-309.9664763032048
 30
0.0
 11
2519.502442340081
 21
-307.3664763032048
 31
0.0
  0
TEXT
  5
1B02A
330
18
100
AcDbEntity
  8
1DIM
  6
CONTINUOUS
100
AcDbText
 10
2518.592442340082
 20
-303.6008628772793
 30
0.0
 40
4.55
  1
19
 50
90.0
100
AcDbText
1001
ACAD
1000
DSTYLE
1002
{
1070
    45
1040
0.5
1070
    40
1040
1.3
1002
}
  0
LINE
  5
1B02B
330
18
100
AcDbEntity
  8
0
  6
BYBLOCK
100
AcDbLine
 10
2486.441283738051
 20
-406.3631441972048
 30
0.0
 11
2483.841283738052
 21
-405.6664763032048
 31
0.0
  0
LINE
  5
1B02C
330
18
100
AcDbEntity
  8
0
  6
BYBLOCK
100
AcDbLine
 10
2483.841283738052
 20
-405.6664763032048
 30
0.0
 11
2486.441283738051
 21
-404.9698084092049
 31
0.0
  0
LINE
  5
1B02D
330
18
100
AcDbEntity
  8
0
  6
BYBLOCK
100
AcDbLine
 10
2483.841283738052
 20
-405.6664763032048
 30
0.0
 11
2486.441283738051
 21
-405.6664763032048
 31
0.0
  0
LINE
  5
1B02E
330
18
100
AcDbEntity
  8
0
  6
BYBLOCK
100
AcDbLine
 10
2601.241283738052
 20
-404.9698084092049
 30
0.0
 11
2603.841283738052
 21
-405.6664763032048
 31
0.0
  0
LINE
  5
1B02F
330
18
100
AcDbEntity
  8
0
  6
BYBLOCK
100
AcDbLine
 10
2603.841283738052
 20
-405.6664763032048
 30
0.0
 11
2601.241283738052
 21
-406.3631441972048
 31
0.0
  0
LINE
  5
1B030
330
18
100
AcDbEntity
  8
0
  6
BYBLOCK
100
AcDbLine
 10
2603.841283738052
 20
-405.6664763032048
 30
0.0
 11
2601.241283738052
 21
-405.6664763032048
 31
0.0
  0
TEXT
  5
1B031
330
18
100
AcDbEntity
  8
1DIM
  6
CONTINUOUS
100
AcDbText
 10
2538.817325404718
 20
-404.7564763032049
 30
0.0
 40
4.55
  1
120
100
AcDbText
1001
ACAD
1000
DSTYLE
1002
{
1070
    40
1040
1.3
1070
    45
1040
0.5
1002
}
  0
LINE
  5
1B032
330
18
100
AcDbEntity
  8
0
  6
BYBLOCK
100
AcDbLine
 10
2475.441283738051
 20
-416.3631441972048
 30
0.0
 11
2472.841283738052
 21
-415.6664763032048
 31
0.0
  0
LINE
  5
1B033
330
18
100
AcDbEntity
  8
0
  6
BYBLOCK
100
AcDbLine
 10
2472.841283738052
 20
-415.6664763032048
 30
0.0
 11
2475.441283738051
 21
-414.9698084092049
 31
0.0
  0
LINE
  5
1B034
330
18
100
AcDbEntity
  8
0
  6
BYBLOCK
100
AcDbLine
 10
2472.841283738052
 20
-415.6664763032048
 30
0.0
 11
2475.441283738051
 21
-415.6664763032048
 31
0.0
  0
LINE
  5
1B035
330
18
100
AcDbEntity
  8
0
  6
BYBLOCK
100
AcDbLine
 10
2601.241283738052
 20
-414.9698084092049
 30
0.0
 11
2603.841283738052
 21
-415.6664763032048
 31
0.0
  0
LINE
  5
1B036
330
18
100
AcDbEntity
  8
0
  6
BYBLOCK
100
AcDbLine
 10
2603.841283738052
 20
-415.6664763032048
 30
0.0
 11
2601.241283738052
 21
-416.3631441972048
 31
0.0
  0
LINE
  5
1B037
330
18
100
AcDbEntity
  8
0
  6
BYBLOCK
100
AcDbLine
 10
2603.841283738052
 20
-415.6664763032048
 30
0.0
 11
2601.241283738052
 21
-415.6664763032048
 31
0.0
  0
TEXT
  5
1B038
330
18
100
AcDbEntity
  8
1DIM
  6
CONTINUOUS
100
AcDbText
 10
2533.791283738051
 20
-414.7564763032049
 30
0.0
 40
4.55
  1
131
100
AcDbText
1001
ACAD
1000
DSTYLE
1002
{
1070
    40
1040
1.3
1070
    45
1040
0.5
1002
}
  0
LINE
  5
1B039
330
18
100
AcDbEntity
  8
0
  6
BYBLOCK
100
AcDbLine
 10
2639.537951632051
 20
-354.2664763032046
 30
0.0
 11
2638.841283738052
 21
-356.8664763032046
 31
0.0
  0
LINE
  5
1B03A
330
18
100
AcDbEntity
  8
0
  6
BYBLOCK
100
AcDbLine
 10
2638.841283738052
 20
-356.8664763032046
 30
0.0
 11
2638.144615844052
 21
-354.2664763032046
 31
0.0
  0
LINE
  5
1B03B
330
18
100
AcDbEntity
  8
0
  6
BYBLOCK
100
AcDbLine
 10
2638.841283738052
 20
-356.8664763032046
 30
0.0
 11
2638.841283738052
 21
-354.2664763032046
 31
0.0
  0
LINE
  5
1B03C
330
18
100
AcDbEntity
  8
0
  6
BYBLOCK
100
AcDbLine
 10
2638.144615844052
 20
-323.2664763032049
 30
0.0
 11
2638.841283738052
 21
-320.6664763032048
 31
0.0
  0
LINE
  5
1B03D
330
18
100
AcDbEntity
  8
0
  6
BYBLOCK
100
AcDbLine
 10
2638.841283738052
 20
-320.6664763032048
 30
0.0
 11
2639.537951632051
 21
-323.2664763032049
 31
0.0
  0
LINE
  5
1B03E
330
18
100
AcDbEntity
  8
0
  6
BYBLOCK
100
AcDbLine
 10
2638.841283738052
 20
-320.6664763032048
 30
0.0
 11
2638.841283738052
 21
-323.2664763032049
 31
0.0
  0
TEXT
  5
1B03F
330
18
100
AcDbEntity
  8
1DIM
  6
CONTINUOUS
100
AcDbText
 10
2637.931283738052
 20
-342.5581429698714
 30
0.0
 40
4.55
  1
36
 50
90.0
100
AcDbText
1001
ACAD
1000
DSTYLE
1002
{
1070
    40
1040
1.3
1070
    45
1040
0.5
1002
}
  0
LINE
  5
1B040
330
18
100
AcDbEntity
  8
0
  6
BYBLOCK
100
AcDbLine
 10
2649.537951632051
 20
-368.2664763032046
 30
0.0
 11
2648.841283738052
 21
-370.8664763032046
 31
0.0
  0
LINE
  5
1B041
330
18
100
AcDbEntity
  8
0
  6
BYBLOCK
100
AcDbLine
 10
2648.841283738052
 20
-370.8664763032046
 30
0.0
 11
2648.144615844052
 21
-368.2664763032046
 31
0.0
  0
LINE
  5
1B042
330
18
100
AcDbEntity
  8
0
  6
BYBLOCK
100
AcDbLine
 10
2648.841283738052
 20
-370.8664763032046
 30
0.0
 11
2648.841283738052
 21
-368.2664763032046
 31
0.0
  0
LINE
  5
1B043
330
18
100
AcDbEntity
  8
0
  6
BYBLOCK
100
AcDbLine
 10
2648.144615844052
 20
-323.2664763032049
 30
0.0
 11
2648.841283738052
 21
-320.6664763032048
 31
0.0
  0
LINE
  5
1B044
330
18
100
AcDbEntity
  8
0
  6
BYBLOCK
100
AcDbLine
 10
2648.841283738052
 20
-320.6664763032048
 30
0.0
 11
2649.537951632051
 21
-323.2664763032049
 31
0.0
  0
LINE
  5
1B045
330
18
100
AcDbEntity
  8
0
  6
BYBLOCK
100
AcDbLine
 10
2648.841283738052
 20
-320.6664763032048
 30
0.0
 11
2648.841283738052
 21
-323.2664763032049
 31
0.0
  0
TEXT
  5
1B046
330
18
100
AcDbEntity
  8
1DIM
  6
CONTINUOUS
100
AcDbText
 10
2647.931283738052
 20
-349.2895665809824
 30
0.0
 40
4.55
  1
50
 50
90.0
100
AcDbText
1001
ACAD
1000
DSTYLE
1002
{
1070
    40
1040
1.3
1070
    45
1040
0.5
1002
}
  0
LINE
  5
1B047
330
18
100
AcDbEntity
  8
0
  6
BYBLOCK
100
AcDbLine
 10
2639.537835292309
 20
-579.065157989073
 30
0.0
 11
2638.841167398309
 21
-581.665157989073
 31
0.0
  0
LINE
  5
1B048
330
18
100
AcDbEntity
  8
0
  6
BYBLOCK
100
AcDbLine
 10
2638.841167398309
 20
-581.665157989073
 30
0.0
 11
2638.144499504309
 21
-579.065157989073
 31
0.0
  0
LINE
  5
1B049
330
18
100
AcDbEntity
  8
0
  6
BYBLOCK
100
AcDbLine
 10
2638.841167398309
 20
-581.665157989073
 30
0.0
 11
2638.841167398309
 21
-579.065157989073
 31
0.0
  0
LINE
  5
1B04A
330
18
100
AcDbEntity
  8
0
  6
BYBLOCK
100
AcDbLine
 10
2638.144499504309
 20
-562.265157989073
 30
0.0
 11
2638.841167398309
 21
-559.665157989073
 31
0.0
  0
LINE
  5
1B04B
330
18
100
AcDbEntity
  8
0
  6
BYBLOCK
100
AcDbLine
 10
2638.841167398309
 20
-559.665157989073
 30
0.0
 11
2639.537835292309
 21
-562.265157989073
 31
0.0
  0
LINE
  5
1B04C
330
18
100
AcDbEntity
  8
0
  6
BYBLOCK
100
AcDbLine
 10
2638.841167398309
 20
-559.665157989073
 30
0.0
 11
2638.841167398309
 21
-562.265157989073
 31
0.0
  0
TEXT
  5
1B04D
330
18
100
AcDbEntity
  8
1DIM
  6
CONTINUOUS
100
AcDbText
 10
2637.931167398308
 20
-574.4568246557396
 30
0.0
 40
4.55
  1
22
 50
90.0
100
AcDbText
1001
ACAD
1000
DSTYLE
1002
{
1070
    40
1040
1.3
1070
    45
1040
0.5
1002
}
  0
VIEWPORT
  5
57
330
15
100
AcDbEntity
 67
     1
  8
0
100
AcDbViewport
 68
     1
 10
0.0
 20
0.0
 30
0.0
 40
663.4332925336597
 41
297.0
 68
     1
 69
     1
1001
ACAD
1000
MVIEW
1002
{
1070
    16
1010
0.0
1020
0.0
1030
0.0
1010
0.0
1020
0.0
1030
1.0
1040
0.0
1040
297.0
1040
5.728000000000009
1040
25.339
1040
50.0
1040
0.0
1040
0.0
1070
    16
1070
   100
1070
     0
1070
     1
1070
     0
1070
     0
1070
     0
1070
     0
1040
0.0
1040
0.0
1040
0.0
1040
10.0
1040
10.0
1040
10.0
1040
10.0
1070
     0
1002
{
1002
}
1002
}
  0
ENDSEC
  0
SECTION
  2
OBJECTS
  0
DICTIONARY
  5
C
330
0
100
AcDbDictionary
  3
ACAD_COLOR
350
18D
  3
ACAD_GROUP
350
D
  3
ACAD_LAYOUT
350
18E
  3
ACAD_MATERIAL
350
18C
  3
ACAD_MLEADERSTYLE
350
D9E7
  3
ACAD_MLINESTYLE
350
1B
  3
ACAD_PLOTSETTINGS
350
18F
  3
ACAD_SCALELIST
350
D9C5
  3
ACAD_VISUALSTYLE
350
D9B4
  3
ACDBHEADERROUNDTRIPXREC
350
1B04E
  3
ACDBVARIABLEDICTIONARY
350
37
  3
CONTENTDICTIONARY
350
D8
  3
DRAWINGVARIABLESDICT
350
20
  3
DWGPROPS
350
1B051
1001
ACAD
1000
TREAT_AS_HARD
1070
     0
  0
DICTIONARY
  5
E6A6
330
2
100
AcDbDictionary
  3
ACAD_LAYERSTATES
360
E6A7
1001
ACAD
1000
TREAT_AS_HARD
1070
     1
  0
DICTIONARY
  5
DA05
330
E
100
AcDbDictionary
  3
ADSK_XREC_LAYER_RECONCILED
360
DA06
1001
ACAD
1000
TREAT_AS_HARD
1070
     1
  0
DICTIONARY
  5
DA07
330
29
100
AcDbDictionary
  3
ADSK_XREC_LAYER_RECONCILED
360
DA08
1001
ACAD
1000
TREAT_AS_HARD
1070
     1
  0
DICTIONARY
  5
DA09
330
31
100
AcDbDictionary
  3
ADSK_XREC_LAYER_RECONCILED
360
DA0A
1001
ACAD
1000
TREAT_AS_HARD
1070
     1
  0
DICTIONARY
  5
DA0F
330
243
100
AcDbDictionary
  3
ADSK_XREC_LAYER_RECONCILED
360
DA10
1001
ACAD
1000
TREAT_AS_HARD
1070
     1
  0
DICTIONARY
  5
DA15
330
24E
100
AcDbDictionary
  3
ADSK_XREC_LAYER_RECONCILED
360
DA16
1001
ACAD
1000
TREAT_AS_HARD
1070
     1
  0
DICTIONARY
  5
88F
330
18
100
AcDbDictionary
  3
ACAD_SORTENTS
360
890
1001
ACAD
1000
TREAT_AS_HARD
1070
     1
  0
DICTIONARY
  5
18D
102
{ACAD_REACTORS
330
C
102
}
330
C
100
AcDbDictionary
1001
ACAD
1000
TREAT_AS_HARD
1070
     0
  0
DICTIONARY
  5
D
102
{ACAD_REACTORS
330
C
102
}
330
C
100
AcDbDictionary
1001
ACAD
1000
TREAT_AS_HARD
1070
     0
  0
DICTIONARY
  5
18E
102
{ACAD_REACTORS
330
C
102
}
330
C
100
AcDbDictionary
1001
ACAD
1000
TREAT_AS_HARD
1070
     0
  0
DICTIONARY
  5
18C
102
{ACAD_REACTORS
330
C
102
}
330
C
100
AcDbDictionary
  3
BYBLOCK
350
D9A4
  3
BYLAYER
350
D99C
  3
GLOBAL
350
D9AC
1001
ACAD
1000
TREAT_AS_HARD
1070
     0
  0
DICTIONARY
  5
D9E7
102
{ACAD_REACTORS
330
C
102
}
330
C
100
AcDbDictionary
  3
STANDARD
350
D9E8
1001
ACAD
1000
TREAT_AS_HARD
1070
     0
  0
DICTIONARY
  5
1B
102
{ACAD_REACTORS
330
C
102
}
330
C
100
AcDbDictionary
  3
STANDARD
350
1C
1001
ACAD
1000
TREAT_AS_HARD
1070
     0
  0
DICTIONARY
  5
18F
102
{ACAD_REACTORS
330
C
102
}
330
C
100
AcDbDictionary
1001
ACAD
1000
TREAT_AS_HARD
1070
     0
  0
DICTIONARY
  5
D9C5
102
{ACAD_REACTORS
330
C
102
}
330
C
100
AcDbDictionary
  3
A0
350
D9C6
  3
A1
350
D9C7
  3
A2
350
D9C8
  3
A3
350
D9C9
  3
A4
350
D9CA
  3
A5
350
D9CB
  3
A6
350
D9CC
  3
A7
350
D9CD
  3
A8
350
D9CE
  3
A9
350
D9CF
  3
B0
350
D9D0
  3
B1
350
D9D1
  3
B2
350
D9D2
  3
B3
350
D9D3
  3
B4
350
D9D4
  3
B5
350
D9D5
  3
B6
350
D9D6
  3
B7
350
D9D7
  3
B8
350
D9D8
  3
B9
350
D9D9
  3
C0
350
D9DA
  3
C1
350
D9DB
  3
C2
350
D9DC
  3
C3
350
D9DD
  3
C4
350
D9DE
  3
C5
350
D9DF
  3
C6
350
D9E0
  3
C7
350
D9E1
  3
C8
350
D9E2
  3
C9
350
D9E3
  3
D0
350
D9E4
  3
D1
350
D9E5
  3
D2
350
D9E6
1001
ACAD
1000
TREAT_AS_HARD
1070
     0
  0
DICTIONARY
  5
D9B4
102
{ACAD_REACTORS
330
C
102
}
330
C
100
AcDbDictionary
  3
2DWIREFRAME
350
D9BA
  3
3D_HIDDEN
350
D9BC
  3
3DWIREFRAME
350
D9BB
  3
BASIC
350
D9B9
  3
BRIGHTEN
350
D9C0
  3
COLORCHANGE
350
D9C4
  3
CONCEPTUAL
350
D9BD
  3
DIM
350
D9BF
  3
EDGECOLOROFF
350
19C2F
  3
FACEPATTERN
350
D9C3
  3
FLAT
350
D9B5
  3
FLATWITHEDGES
350
D9B6
  3
GOURAUD
350
D9B7
  3
GOURAUDWITHEDGES
350
D9B8
  3
HIDDEN
350
19C7E
  3
JITTEROFF
350
19C2D
  3
LINEPATTERN
350
D9C2
  3
MODELING
350
19C84
  3
OVERHANGOFF
350
19C2E
  3
REALISTIC
350
D9BE
  3
SHADED
350
19C83
  3
SHADED_WITH_EDGES
350
19C82
  3
SHADES_OF_GRAY
350
19C7F
  3
SKETCHY
350
19C80
  3
THICKEN
350
D9C1
  3
WIREFRAME
350
19C7D
  3
X-RAY
350
19C81
1001
ACAD
1000
TREAT_AS_HARD
1070
     0
  0
DICTIONARY
  5
1B04E
102
{ACAD_REACTORS
330
C
102
}
330
C
100
AcDbDictionary
  3
COLORDICT
350
1B04F
  3
MATERIALDICT
350
1B050
1001
ACAD
1000
TREAT_AS_HARD
1070
     0
  0
DICTIONARY
  5
37
102
{ACAD_REACTORS
330
C
102
}
330
C
100
AcDbDictionary
  3
CANNOSCALE
350
1A4C6
  3
CMLEADERSTYLE
350
DA6A
  3
CTABLESTYLE
350
29E
  3
DIMADEC
350
38
  3
DIMASSOC
350
1CE
  3
HIDETEXT
350
704E
  3
INDEXCTL
350
DA6D
  3
INTERSECTIONCOLOR
350
7052
  3
INTERSECTIONDISPLAY
350
7051
  3
MSLTSCALE
350
1A516
  3
OBSCOLOR
350
704F
  3
OBSLTYPE
350
7050
  3
PROJECTNAME
350
1CF
  3
SORTENTS
350
DA6C
  3
XCLIPFRAME
350
19C7C
1001
ACAD
1000
TREAT_AS_HARD
1070
     0
  0
DICTIONARY
  5
D8
102
{ACAD_REACTORS
330
C
102
}
330
C
100
AcDbDictionary
1001
ACAD
1000
TREAT_AS_HARD
1070
     0
  0
DICTIONARY
  5
20
102
{ACAD_REACTORS
330
C
102
}
330
C
100
AcDbDictionary
1001
DRAWINGVARIABLESXDATA
1000
POLARANG
1000
0.261799387799149410000000
1000
POLARMODE
1000
1
1000
POLARSTYLE
1000
1
1001
ACAD
1000
TREAT_AS_HARD
1070
     0
  0
XRECORD
  5
1B051
102
{ACAD_REACTORS
330
C
102
}
330
C
100
AcDbXrecord
  1
DWGPROPS COOKIE
  2

  3

  4

  6

  7

  8
3684
  9

300
=
301
=
302
=
303
=
304
=
305
=
306
=
307
=
308
=
309
=
 40
0.0
 41
2451318.246352917
 42
2458149.442914607
  1

 90
        0
  0
DICTIONARY
  5
E6A7
102
{ACAD_REACTORS
330
E6A6
102
}
330
E6A6
100
AcDbDictionary
1001
ACAD
1000
TREAT_AS_HARD
1070
     0
  0
ACAD_PROXY_OBJECT
  5
DA06
102
{ACAD_REACTORS
330
DA05
102
}
330
DA05
100
AcDbZombieObject
 90
      499
 91
      514
 93
       34
310
40C8804040
  0
ACAD_PROXY_OBJECT
  5
DA08
102
{ACAD_REACTORS
330
DA07
102
}
330
DA07
100
AcDbZombieObject
 90
      499
 91
      514
 93
       34
310
40C8804040
  0
ACAD_PROXY_OBJECT
  5
DA0A
102
{ACAD_REACTORS
330
DA09
102
}
330
DA09
100
AcDbZombieObject
 90
      499
 91
      514
 93
       34
310
40C8804040
  0
ACAD_PROXY_OBJECT
  5
DA10
102
{ACAD_REACTORS
330
DA0F
102
}
330
DA0F
100
AcDbZombieObject
 90
      499
 91
      514
 93
       34
310
40C8804040
  0
ACAD_PROXY_OBJECT
  5
DA16
102
{ACAD_REACTORS
330
DA15
102
}
330
DA15
100
AcDbZombieObject
 90
      499
 91
      514
 93
       34
310
40C8804040
  0
SORTENTSTABLE
  5
890
102
{ACAD_REACTORS
330
88F
102
}
330
88F
100
AcDbSortentsTable
330
18
331
0
  5
5BFF
331
0
  5
1AB62
331
1AB3C
  5
1AB70
331
1AB3D
  5
1AB71
331
1AB3E
  5
1AB72
331
1AB3F
  5
1AB73
331
1AB40
  5
1AB74
331
1AB41
  5
1AB75
331
1AB42
  5
1AB76
331
1AB43
  5
1AB77
331
1AB44
  5
1AB78
331
1AB45
  5
1AB79
331
1AB46
  5
1AB7A
331
1AB47
  5
1AB7B
331
1AB48
  5
1AB7C
331
1AB49
  5
1AB7D
331
1AB4A
  5
1AB7E
331
1AB4B
  5
1AB7F
331
1AB4C
  5
1AB80
331
1AB4D
  5
1AB81
331
1AB4E
  5
1AB82
331
1AB4F
  5
1AB83
331
1AB50
  5
1AB84
331
1AB51
  5
1AB85
331
1AB52
  5
1AB86
331
1AB53
  5
1AB87
331
1AB54
  5
1AB88
331
1AB55
  5
1AB89
331
1AB56
  5
1AB8A
331
1AB57
  5
1AB8B
331
1AB58
  5
1AB8C
331
1AB59
  5
1AB8D
331
1AB5A
  5
1AB8E
331
1AB5B
  5
1AB8F
331
1AB5C
  5
1AB90
331
1AB5D
  5
1AB91
331
1AB5E
  5
1AB92
331
1AB5F
  5
1AB93
331
1AB60
  5
1AB94
331
1AB61
  5
1AB95
331
1AB62
  5
1AB96
331
1AB63
  5
1AB97
331
1AB64
  5
1AB98
331
1AB65
  5
1AB99
331
1AB66
  5
1AB9A
331
1AB67
  5
1AB9B
331
1AB68
  5
1AB9C
331
1AB69
  5
1AB9D
331
1AB6A
  5
1AB9E
331
1AB6B
  5
1AB9F
331
1AB6C
  5
1ABA0
331
1AB6D
  5
1ABA1
331
1AB6E
  5
1ABA2
331
1AB6F
  5
1ABA3
331
1AB70
  5
1ABA6
331
1AB71
  5
1ABA8
331
1AB72
  5
1ABA9
331
1AB73
  5
1ABAA
331
1AB74
  5
1ABAE
331
1AB75
  5
1ABAF
331
1AB76
  5
1ABB0
331
1AB77
  5
1ABB1
331
1AB78
  5
1ABB2
331
1AB79
  5
1ABB3
331
1AB7A
  5
1ABB4
331
1AB7B
  5
1ABB5
331
1AB7C
  5
1ABB6
331
1AB7D
  5
1ABB7
331
1AB7E
  5
1ABB8
331
1AB7F
  5
1ABB9
331
1AB80
  5
1ABBA
331
1AB81
  5
1ABBB
331
1AB82
  5
1ABBC
331
1AB83
  5
1ABBD
331
1AB84
  5
1ABBE
331
1AB85
  5
1ABC2
331
1AB86
  5
1ABC3
331
1AB87
  5
1ABC4
331
1AB88
  5
1ABC5
331
1AB89
  5
1ABC6
331
1AB8A
  5
1ABC7
331
1AB8B
  5
1ABCB
331
1AB8C
  5
1ABCC
331
1AB8D
  5
1ABCD
331
1AB8E
  5
1ABCE
331
1AB8F
  5
1ABCF
331
1AB90
  5
1ABD0
331
1AB91
  5
1ABD4
331
1AB92
  5
1ABD5
331
1AB93
  5
1ABD6
331
1AB94
  5
1ABDA
331
1AB95
  5
1ABDB
331
1AB96
  5
1ABDC
331
1AB97
  5
1ABE0
331
1AB98
  5
1ABE1
331
1AB99
  5
1ABE2
331
1AB9A
  5
1ABE3
331
1AB9B
  5
1ABE4
331
1AB9C
  5
1ABE5
331
1AB9D
  5
1ABE6
331
1AB9E
  5
1ABE7
331
1AB9F
  5
1ABE8
331
1ABA0
  5
1ABE9
331
1ABA1
  5
1ABEA
331
1ABA2
  5
1ABEB
331
1ABA3
  5
1ABED
331
0
  5
1ABEC
331
1ABA8
  5
1AC06
331
1ABA9
  5
1AC07
331
1ABAA
  5
1AC08
331
1ABAE
  5
1AC2A
331
1ABAF
  5
1AC2F
331
1ABB0
  5
1AC34
331
1ABB1
  5
1AC35
331
1ABB2
  5
1AC36
331
1ABB3
  5
1AC37
331
1ABB4
  5
1AC38
331
1ABB5
  5
1AC39
331
1ABB6
  5
1AC3A
331
1ABB7
  5
1AC3B
331
1ABB8
  5
1AC3C
331
1ABB9
  5
1AC3D
331
1ABBA
  5
1AC3E
331
1ABBB
  5
1AC3F
331
1ABBC
  5
1AC40
331
1ABBD
  5
1AC41
331
1ABBE
  5
1AC42
331
1ABBF
  5
1AC43
331
1ABC0
  5
1AC44
331
1ABC1
  5
1AC45
331
1ABC2
  5
1AC46
331
1ABC3
  5
1AC47
331
1ABC4
  5
1AC48
331
1ABC5
  5
1AC49
331
1ABC6
  5
1AC4A
331
1ABC7
  5
1AC4B
331
1ABC8
  5
1AC4C
331
1ABC9
  5
1AC4D
331
1ABCA
  5
1AC4E
331
1ABCB
  5
1AC4F
331
1ABCC
  5
1AC50
331
1ABCD
  5
1AC51
331
1ABCE
  5
1AC52
331
1ABCF
  5
1AC56
331
1ABD0
  5
1AC57
331
1ABD1
  5
1AC58
331
1ABD2
  5
1AC5C
331
1ABD3
  5
1AC5D
331
1ABD4
  5
1AC5E
331
1ABD5
  5
1AC62
331
1ABD6
  5
1AC63
331
1ABD7
  5
1AC64
331
1ABD8
  5
1AC65
331
1ABD9
  5
1AC66
331
1ABDA
  5
1AC67
331
1ABDB
  5
1AC68
331
1ABDC
  5
1AC69
331
1ABDD
  5
1AC6A
331
1ABDE
  5
1AC6B
331
1ABDF
  5
1AC6D
331
1ABE0
  5
1AC6E
331
1ABE1
  5
1AC6F
331
1ABE2
  5
1AC70
331
1ABE3
  5
1AC71
331
1ABE4
  5
1AC72
331
1ABE5
  5
1AC73
331
1ABE6
  5
1AC74
331
1ABE7
  5
1AC75
331
1ABE8
  5
1AC76
331
1ABE9
  5
1AC77
331
1ABEA
  5
1AC7B
331
1ABEB
  5
1AC7C
331
1ABEC
  5
1AC7D
331
1ABED
  5
1AC7E
331
0
  5
1AC6C
331
1ABEF
  5
1AC8A
331
1ABF0
  5
1AC8B
331
1ABF1
  5
1AC8C
331
1ABF2
  5
1AC8D
331
1ABF3
  5
1AC8E
331
1ABF4
  5
1AC8F
331
1ABF5
  5
1AC90
331
1ABF6
  5
1AC91
331
1ABF7
  5
1AC92
331
1ABF8
  5
1AC93
331
1ABF9
  5
1AC94
331
1ABFA
  5
1AC95
331
1ABFB
  5
1AC96
331
1ABFC
  5
1AC97
331
1ABFD
  5
1AC98
331
1ABFE
  5
1AC99
331
1ABFF
  5
1AC9A
331
1AC00
  5
1AC9B
331
1AC01
  5
1AC9C
331
1AC02
  5
1AC9D
331
1AC03
  5
1AC9E
331
1AC04
  5
1AC9F
331
1AC05
  5
1ACA0
331
1AC06
  5
1ACA1
331
1AC07
  5
1ACA2
331
1AC08
  5
1ACA3
331
1AC09
  5
1ACA4
331
1AC0A
  5
1ACA5
331
1AC0B
  5
1ACA6
331
1AC0C
  5
1ACA7
331
1AC0D
  5
1ACA8
331
1AC0E
  5
1ACA9
331
1AC0F
  5
1ACAA
331
1AC10
  5
1ACAB
331
1AC11
  5
1ACAC
331
1AC12
  5
1ACAD
331
1AC16
  5
1ACCC
331
1AC17
  5
1ACCD
331
1AC18
  5
1ACCE
331
1AC19
  5
1ACD2
331
1AC1A
  5
1ACD3
331
1AC1B
  5
1ACD4
331
1AC1C
  5
1ACD5
331
1AC1D
  5
1ACD6
331
1AC1E
  5
1ACD7
331
1AC1F
  5
1ACD8
331
1AC20
  5
1ACD9
331
1AC21
  5
1ACDA
331
1AC22
  5
1ACDB
331
1AC23
  5
1ACDC
331
1AC24
  5
1ACDD
331
1AC25
  5
1ACDE
331
1AC26
  5
1ACDF
331
1AC27
  5
1ACE0
331
1AC28
  5
1ACE1
331
1AC29
  5
1ACE2
331
1AC2A
  5
1ACE3
331
1AC2F
  5
1ACE4
331
1AC34
  5
1ACE5
331
1AC35
  5
1ACE6
331
1AC36
  5
1ACE7
331
1AC37
  5
1ACE8
331
1AC38
  5
1ACE9
331
1AC39
  5
1ACEA
331
1AC3A
  5
1ACEB
331
1AC3B
  5
1ACEC
331
1AC3C
  5
1ACED
331
1AC3D
  5
1ACEE
331
1AC3E
  5
1ACEF
331
1AC3F
  5
1ACF0
331
1AC40
  5
1ACF1
331
1AC41
  5
1ACF2
331
1AC42
  5
1ACF3
331
1AC43
  5
1ACF4
331
1AC44
  5
1ACF5
331
1AC45
  5
1ACF6
331
1AC46
  5
1ACF7
331
1AC47
  5
1ACF8
331
1AC48
  5
1ACF9
331
1AC49
  5
1ACFA
331
1AC4A
  5
1ACFB
331
1AC4B
  5
1ACFC
331
1AC4C
  5
1ACFD
331
1AC4D
  5
1ACFE
331
1AC4E
  5
1ACFF
331
1AC4F
  5
1AD00
331
1AC50
  5
1AD01
331
1AC51
  5
1AD02
331
1AC52
  5
1AD03
331
1AC53
  5
1AD04
331
1AC54
  5
1AD05
331
1AC55
  5
1AD06
331
1AC56
  5
1AD07
331
1AC57
  5
1AD08
331
1AC58
  5
1AD09
331
1AC59
  5
1AD0A
331
1AC5A
  5
1AD0B
331
1AC5B
  5
1AD0C
331
1AC5C
  5
1AD0D
331
1AC5D
  5
1AD0E
331
1AC5E
  5
1AD0F
331
1AC5F
  5
1AD10
331
1AC60
  5
1AD11
331
1AC61
  5
1AD12
331
1AC62
  5
1AD18
331
1AC63
  5
1AD19
331
1AC64
  5
1AD1A
331
1AC65
  5
1AD1B
331
1AC66
  5
1AD1C
331
1AC67
  5
1AD1D
331
1AC68
  5
1AD1E
331
1AC69
  5
1AD1F
331
1AC6A
  5
1AD20
331
1AC6B
  5
1AD21
331
1AC6C
  5
1AD22
331
1AC6D
  5
1AD23
331
1AC6E
  5
1AD24
331
1AC6F
  5
1AD25
331
1AC70
  5
1AD26
331
1AC71
  5
1AD27
331
1AC72
  5
1AD28
331
1AC73
  5
1AD2C
331
1AC74
  5
1AD2D
331
1AC75
  5
1AD2E
331
1AC76
  5
1AD32
331
1AC77
  5
1AD33
331
1AC78
  5
1AD34
331
1AC79
  5
1AD38
331
1AC7A
  5
1AD39
331
1AC7B
  5
1AD3A
331
1AC7C
  5
1AD3E
331
1AC7D
  5
1AD3F
331
0
  5
1AD13
331
0
  5
1AD14
331
0
  5
1AD15
331
0
  5
1AD16
331
0
  5
1AD17
331
1AC83
  5
1AF86
331
1AC84
  5
1AF87
331
1AC85
  5
1AF88
331
1AC86
  5
1AF89
331
1AC88
  5
1AF94
331
1AC89
  5
1AF95
331
1AC8A
  5
1AF96
331
1AC8B
  5
1AF97
331
1AC8C
  5
1AF98
331
1AC8D
  5
1AF99
331
1AC8E
  5
1AF9A
331
1AC8F
  5
1AF9B
331
1AC90
  5
1AF9C
331
1AC91
  5
1AF9D
331
1AC92
  5
1AF9E
331
1AC93
  5
1AF9F
331
1AC94
  5
1AFA0
331
1AC95
  5
1AFA1
331
1AC96
  5
1AFA2
331
1AC97
  5
1AFA3
331
1AC98
  5
1AFA4
331
1AC99
  5
1AFA5
331
1AC9A
  5
1AFA6
331
1AC9B
  5
1AFA7
331
1AC9C
  5
1AFA8
331
1AC9D
  5
1AFA9
331
1AC9E
  5
1AFAA
331
1AC9F
  5
1AFAB
331
1ACA0
  5
1AFAC
331
1ACA1
  5
1AFAD
331
1ACA2
  5
1AFAE
331
1ACA3
  5
1AFAF
331
1ACA4
  5
1AFB0
331
1ACA5
  5
1AFB1
331
1ACA6
  5
1AFB2
331
1ACA7
  5
1AFB3
331
1ACA8
  5
1AFB4
331
1ACA9
  5
1AFB5
331
1ACAA
  5
1AFB6
331
1ACAB
  5
1AFB7
331
1ACAC
  5
1AFB8
331
1ACAD
  5
1AFB9
331
1ACAE
  5
1AFBA
331
1ACAF
  5
1AFBB
331
1ACB0
  5
1AFBC
331
1ACB1
  5
1AFBD
331
1ACB2
  5
1AFBE
331
1ACB3
  5
1AFBF
331
1ACB4
  5
1AFC0
331
1ACB5
  5
1AFC1
331
1ACB6
  5
1AFC2
331
1ACB7
  5
1AFC3
331
1ACB8
  5
1AFC4
331
1ACB9
  5
1AFC5
331
1ACBA
  5
1AFC6
331
1ACBB
  5
1AFC7
331
1ACBC
  5
1AFC8
331
1ACBD
  5
1AFC9
331
1ACBE
  5
1AFCA
331
1ACBF
  5
1AFCB
331
1ACC0
  5
1AFCC
331
1ACC1
  5
1AFCD
331
1ACC2
  5
1AFCE
331
1ACC3
  5
1AFCF
331
1ACC4
  5
1AFD0
331
1ACC5
  5
1AFD1
331
1ACC6
  5
1AFD2
331
1ACC7
  5
1AFD3
331
1ACC8
  5
1AFD4
331
1ACC9
  5
1AFD5
331
1ACCA
  5
1AFD6
331
1ACCB
  5
1AFD7
331
1ACCC
  5
1AFD8
331
1ACCD
  5
1AFD9
331
1ACCE
  5
1AFDA
331
1ACCF
  5
1AFDB
331
1ACD0
  5
1AFDC
331
1ACD1
  5
1AFDD
331
1ACD2
  5
1AFDE
331
1ACD3
  5
1AFDF
331
1ACD4
  5
1AFE0
331
1ACD5
  5
1AFE1
331
1ACD6
  5
1AFE2
331
1ACD7
  5
1AFE3
331
1ACD8
  5
1AFE4
331
1ACD9
  5
1AFE5
331
1ACDA
  5
1AFE6
331
1ACDB
  5
1AFE7
331
1ACDC
  5
1AFE8
331
1ACDD
  5
1AFE9
331
1ACDE
  5
1AFEA
331
1ACDF
  5
1AFEB
331
1ACE0
  5
1AFEC
331
1ACE1
  5
1AFED
331
1ACE2
  5
1AFEE
331
1ACE3
  5
1AFEF
331
1ACE4
  5
1AFF0
331
1ACE5
  5
1AFF1
331
1ACE6
  5
1AFF2
331
1ACE7
  5
1AFF3
331
1ACE8
  5
1AFF4
331
1ACE9
  5
1AFF5
331
1ACEA
  5
1AFF6
331
1ACEB
  5
1AFF7
331
1ACEC
  5
1AFF8
331
1ACED
  5
1AFF9
331
1ACEE
  5
1AFFA
331
1ACEF
  5
1AFFB
331
1ACF0
  5
1AFFC
331
1ACF1
  5
1AFFD
331
1ACF2
  5
1AFFE
331
1ACF3
  5
1AFFF
331
1ACF4
  5
1B000
331
1ACF5
  5
1B001
331
1ACF6
  5
1B002
331
1ACF7
  5
1B003
331
1ACF8
  5
1B004
331
1ACF9
  5
1B005
331
1ACFA
  5
1B006
331
1ACFB
  5
1B007
331
1ACFC
  5
1B008
331
1ACFD
  5
1B009
331
1ACFE
  5
1B00A
331
1ACFF
  5
1B00B
331
1AD00
  5
1B00C
331
1AD01
  5
1B00D
331
1AD02
  5
1B00E
331
1AD03
  5
1B00F
331
1AD04
  5
1B010
331
1AD05
  5
1B011
331
1AD06
  5
1B012
331
1AD07
  5
1B013
331
1AD08
  5
1B014
331
1AD09
  5
1B015
331
1AD0A
  5
1B016
331
1AD0B
  5
1B017
331
1AD0C
  5
1B018
331
1AD0D
  5
1B019
331
1AD0E
  5
1B01A
331
1AD0F
  5
1B01B
331
1AD10
  5
1B01C
331
1AD11
  5
1B01D
331
1AD12
  5
1B01E
331
1AD13
  5
1B01F
331
1AD14
  5
1B020
331
1AD15
  5
1B021
331
1AD16
  5
1B022
331
1AD17
  5
1B023
331
1AD18
  5
1B024
331
1AD19
  5
1B025
331
1AD1A
  5
1B026
331
1AD1B
  5
1B027
331
1AD1C
  5
1B028
331
1AD1D
  5
1B029
331
1AD1E
  5
1B02A
331
1AD1F
  5
1B02B
331
1AD20
  5
1B02C
331
1AD21
  5
1B02D
331
1AD22
  5
1B02E
331
1AD23
  5
1B02F
331
1AD24
  5
1B030
331
1AD25
  5
1B031
331
1AD26
  5
1B032
331
1AD27
  5
1B033
331
1AD28
  5
1B034
331
1AD29
  5
1B035
331
1AD2A
  5
1B036
331
1AD2B
  5
1B037
331
1AD2C
  5
1B038
331
1AD2D
  5
1B039
331
1AD2E
  5
1B03A
331
1AD2F
  5
1B03B
331
1AD30
  5
1B03C
331
1AD31
  5
1B03D
331
1AD32
  5
1B03E
331
1AD33
  5
1B03F
331
1AD34
  5
1B040
331
1AD35
  5
1B041
331
1AD36
  5
1B042
331
1AD37
  5
1B043
331
1AD38
  5
1B044
331
1AD39
  5
1B045
331
1AD3A
  5
1B046
331
1AD3B
  5
1B047
331
1AD3C
  5
1B048
331
1AD3D
  5
1B049
331
1AD3E
  5
1B04A
331
1AD3F
  5
1B04B
331
1AD40
  5
1B04C
331
1AD41
  5
1B04D
331
1AF53
  5
1AB3B
331
1AF54
  5
1AB3C
331
1AF55
  5
1AB3D
331
0
  5
1AB3E
331
0
  5
1AB3F
331
0
  5
1AB40
331
1AF59
  5
1AB4E
331
1AF5A
  5
1AB4F
331
1AF5B
  5
1AB50
331
0
  5
1AB44
331
0
  5
1AB45
331
0
  5
1AB46
331
1AF5F
  5
1AB58
331
1AF60
  5
1AB59
331
1AF61
  5
1AB5A
331
0
  5
1AB4A
331
0
  5
1AB4B
331
0
  5
1AB4C
331
1AF65
  5
1ABEE
331
1AF66
  5
1ABEF
331
1AF67
  5
1ABF0
331
0
  5
1ABBF
331
0
  5
1ABC0
331
0
  5
1ABC1
331
1AF6B
  5
1ABF8
331
1AF6C
  5
1ABF9
331
1AF6D
  5
1ABFC
331
1AF6E
  5
1ABFD
331
1AF6F
  5
1ABFE
331
0
  5
1ABC8
331
0
  5
1ABC9
331
0
  5
1ABCA
331
1AF73
  5
1AC09
331
1AF74
  5
1AC0A
331
1AF75
  5
1AC0B
331
0
  5
1ABD1
331
0
  5
1ABD2
331
0
  5
1ABD3
331
1AF79
  5
1AC16
331
1AF7A
  5
1AC17
331
1AF7B
  5
1AC18
331
0
  5
1ABD7
331
0
  5
1ABD8
331
0
  5
1ABD9
331
1AF7F
  5
1AC20
331
1AF80
  5
1AC21
331
1AF81
  5
1AC22
331
0
  5
1ABDD
331
0
  5
1ABDE
331
0
  5
1ABDF
331
1AF85
  5
1ACAE
331
1AF86
  5
1ACAF
331
1AF87
  5
1ACB0
331
0
  5
1AC53
331
0
  5
1AC54
331
0
  5
1AC55
331
1AF8B
  5
1ACB8
331
1AF8C
  5
1ACB9
331
1AF8D
  5
1ACBA
331
0
  5
1AC59
331
0
  5
1AC5A
331
0
  5
1AC5B
331
1AF91
  5
1ACC2
331
1AF92
  5
1ACC3
331
1AF93
  5
1ACC4
331
0
  5
1AC5F
331
0
  5
1AC60
331
0
  5
1AC61
331
1AF97
  5
1AF8A
331
1AF98
  5
1AF8B
331
1AF99
  5
1AF8C
331
0
  5
1ACCF
331
0
  5
1ACD0
331
0
  5
1ACD1
331
1AF9D
  5
1AB41
331
1AF9E
  5
1AB42
331
1AF9F
  5
1AB43
331
1AFA0
  5
1AB47
331
1AFA1
  5
1AB48
331
1AFA2
  5
1AB49
331
1AFA3
  5
1AB4D
331
1AFA4
  5
1AB51
331
1AFA5
  5
1AB52
331
1AFA6
  5
1AB53
331
1AFA7
  5
1AB54
331
1AFA8
  5
1AB55
331
1AFA9
  5
1AB56
331
1AFAA
  5
1AB57
331
1AFAB
  5
1AB5B
331
1AFAC
  5
1AB5C
331
1AFAD
  5
1AB5D
331
1AFAE
  5
1AB5E
331
1AFAF
  5
1AB5F
331
1AFB0
  5
1AB60
331
1AFB1
  5
1AB61
331
1AFB2
  5
1ABF1
331
1AFB3
  5
1ABF2
331
1AFB4
  5
1ABF3
331
1AFB5
  5
1ABF4
331
1AFB6
  5
1ABF5
331
1AFB7
  5
1ABF6
331
1AFB8
  5
1ABF7
331
1AFB9
  5
1ABFF
331
1AFBA
  5
1AC00
331
1AFBB
  5
1AC01
331
1AFBC
  5
1AC02
331
1AFBD
  5
1AC03
331
1AFBE
  5
1AC04
331
1AFBF
  5
1AC05
331
1AFC0
  5
1AC0C
331
1AFC1
  5
1AC0D
331
1AFC2
  5
1AC0E
331
1AFC3
  5
1AC0F
331
1AFC4
  5
1AC10
331
1AFC5
  5
1AC11
331
1AFC6
  5
1AC12
331
1AFC7
  5
1AC19
331
1AFC8
  5
1AC1A
331
1AFC9
  5
1AC1B
331
1AFCA
  5
1AC1C
331
1AFCB
  5
1AC1D
331
1AFCC
  5
1AC1E
331
1AFCD
  5
1AC1F
331
1AFCE
  5
1AC23
331
1AFCF
  5
1AC24
331
1AFD0
  5
1AC25
331
1AFD1
  5
1AC26
331
1AFD2
  5
1AC27
331
1AFD3
  5
1AC28
331
1AFD4
  5
1AC29
331
1AFD5
  5
1ACB1
331
1AFD6
  5
1ACB2
331
1AFD7
  5
1ACB3
331
1AFD8
  5
1ACB4
331
1AFD9
  5
1ACB5
331
1AFDA
  5
1ACB6
331
1AFDB
  5
1ACB7
331
1AFDC
  5
1ACBB
331
1AFDD
  5
1ACBC
331
1AFDE
  5
1ACBD
331
1AFDF
  5
1ACBE
331
1AFE0
  5
1ACBF
331
1AFE1
  5
1ACC0
331
1AFE2
  5
1ACC1
331
1AFE3
  5
1ACC5
331
1AFE4
  5
1ACC6
331
1AFE5
  5
1ACC7
331
1AFE6
  5
1ACC8
331
1AFE7
  5
1ACC9
331
1AFE8
  5
1ACCA
331
1AFE9
  5
1ACCB
331
1AFEA
  5
1AF8D
331
1AFEB
  5
1AF8E
331
1AFEC
  5
1AF8F
331
1AFED
  5
1AF90
331
1AFEE
  5
1AF91
331
1AFEF
  5
1AF92
331
1AFF0
  5
1AF93
331
1AFF1
  5
1AB63
331
1AFF2
  5
1AB64
331
1AFF3
  5
1AB65
331
0
  5
1AB66
331
0
  5
1AB67
331
0
  5
1AB68
331
1AFF7
  5
1ABFA
331
1AFF8
  5
1ABFB
331
1AFF9
  5
1AC7F
331
1AFFA
  5
1AC80
331
1AFFB
  5
1AC81
331
0
  5
1AC78
331
0
  5
1AC79
331
0
  5
1AC7A
331
1AFFF
  5
1AD40
331
1B000
  5
1AF55
331
1B001
  5
1AF56
331
0
  5
1AD29
331
0
  5
1AD2A
331
0
  5
1AD2B
331
1B005
  5
1AF5E
331
1B006
  5
1AF5F
331
1B007
  5
1AF60
331
0
  5
1AD2F
331
0
  5
1AD30
331
0
  5
1AD31
331
1B00B
  5
1AF68
331
1B00C
  5
1AF69
331
1B00D
  5
1AF6A
331
0
  5
1AD35
331
0
  5
1AD36
331
0
  5
1AD37
331
1B011
  5
1AF72
331
1B012
  5
1AF73
331
1B013
  5
1AF74
331
0
  5
1AD3B
331
0
  5
1AD3C
331
0
  5
1AD3D
331
1B017
  5
1AF7C
331
1B018
  5
1AF7D
331
1B019
  5
1AF7E
331
0
  5
1AD41
331
0
  5
1AF53
331
0
  5
1AF54
331
1B01D
  5
1AB69
331
1B01E
  5
1AB6A
331
1B01F
  5
1AB6B
331
1B020
  5
1AB6C
331
1B021
  5
1AB6D
331
1B022
  5
1AB6E
331
1B023
  5
1AB6F
331
1B024
  5
1AC82
331
1B025
  5
1AC83
331
1B026
  5
1AC84
331
1B027
  5
1AC85
331
1B028
  5
1AC86
331
1B029
  5
1AC88
331
1B02A
  5
1AC89
331
1B02B
  5
1AF57
331
1B02C
  5
1AF58
331
1B02D
  5
1AF59
331
1B02E
  5
1AF5A
331
1B02F
  5
1AF5B
331
1B030
  5
1AF5C
331
1B031
  5
1AF5D
331
1B032
  5
1AF61
331
1B033
  5
1AF62
331
1B034
  5
1AF63
331
1B035
  5
1AF64
331
1B036
  5
1AF65
331
1B037
  5
1AF66
331
1B038
  5
1AF67
331
1B039
  5
1AF6B
331
1B03A
  5
1AF6C
331
1B03B
  5
1AF6D
331
1B03C
  5
1AF6E
331
1B03D
  5
1AF6F
331
1B03E
  5
1AF70
331
1B03F
  5
1AF71
331
1B040
  5
1AF75
331
1B041
  5
1AF76
331
1B042
  5
1AF77
331
1B043
  5
1AF78
331
1B044
  5
1AF79
331
1B045
  5
1AF7A
331
1B046
  5
1AF7B
331
1B047
  5
1AF7F
331
1B048
  5
1AF80
331
1B049
  5
1AF81
331
1B04A
  5
1AF82
331
1B04B
  5
1AF83
331
1B04C
  5
1AF84
331
1B04D
  5
1AF85
  0
MATERIAL
  5
D9A4
102
{ACAD_REACTORS
330
18C
102
}
102
{ACAD_XDICTIONARY
360
1B1EC
102
}
330
18C
100
AcDbMaterial
  1
BYBLOCK
 72
     0
 73
     2
 43
0.0208333333333333
 43
0.0
 43
0.0
 43
0.0
 43
0.0
 43
0.0208333333333333
 43
0.0
 43
0.0
 43
0.0
 43
0.0
 43
1.0
 43
0.0
 43
0.0
 43
0.0
 43
0.0
 43
1.0
 77
     0
 78
     2
 47
0.0208333333333333
 47
0.0
 47
0.0
 47
0.0
 47
0.0
 47
0.0208333333333333
 47
0.0
 47
0.0
 47
0.0
 47
0.0
 47
1.0
 47
0.0
 47
0.0
 47
0.0
 47
0.0
 47
1.0
171
     0
172
     2
 49
0.0208333333333333
 49
0.0
 49
0.0
 49
0.0
 49
0.0
 49
0.0208333333333333
 49
0.0
 49
0.0
 49
0.0
 49
0.0
 49
1.0
 49
0.0
 49
0.0
 49
0.0
 49
0.0
 49
1.0
175
     0
176
     2
142
0.0208333333333333
142
0.0
142
0.0
142
0.0
142
0.0
142
0.0208333333333333
142
0.0
142
0.0
142
0.0
142
0.0
142
1.0
142
0.0
142
0.0
142
0.0
142
0.0
142
1.0
179
     0
270
     2
144
0.0208333333333333
144
0.0
144
0.0
144
0.0
144
0.0
144
0.0208333333333333
144
0.0
144
0.0
144
0.0
144
0.0
144
1.0
144
0.0
144
0.0
144
0.0
144
0.0
144
1.0
274
     2
147
0.0208333333333333
147
0.0
147
0.0
147
0.0
147
0.0
147
0.0208333333333333
147
0.0
147
0.0
147
0.0
147
0.0
147
1.0
147
0.0
147
0.0
147
0.0
147
0.0
147
1.0
  0
MATERIAL
  5
D99C
102
{ACAD_REACTORS
330
18C
102
}
102
{ACAD_XDICTIONARY
360
1B1EE
102
}
330
18C
100
AcDbMaterial
  1
BYLAYER
 72
     0
 73
     2
 43
0.0208333333333333
 43
0.0
 43
0.0
 43
0.0
 43
0.0
 43
0.0208333333333333
 43
0.0
 43
0.0
 43
0.0
 43
0.0
 43
1.0
 43
0.0
 43
0.0
 43
0.0
 43
0.0
 43
1.0
 77
     0
 78
     2
 47
0.0208333333333333
 47
0.0
 47
0.0
 47
0.0
 47
0.0
 47
0.0208333333333333
 47
0.0
 47
0.0
 47
0.0
 47
0.0
 47
1.0
 47
0.0
 47
0.0
 47
0.0
 47
0.0
 47
1.0
171
     0
172
     2
 49
0.0208333333333333
 49
0.0
 49
0.0
 49
0.0
 49
0.0
 49
0.0208333333333333
 49
0.0
 49
0.0
 49
0.0
 49
0.0
 49
1.0
 49
0.0
 49
0.0
 49
0.0
 49
0.0
 49
1.0
175
     0
176
     2
142
0.0208333333333333
142
0.0
142
0.0
142
0.0
142
0.0
142
0.0208333333333333
142
0.0
142
0.0
142
0.0
142
0.0
142
1.0
142
0.0
142
0.0
142
0.0
142
0.0
142
1.0
179
     0
270
     2
144
0.0208333333333333
144
0.0
144
0.0
144
0.0
144
0.0
144
0.0208333333333333
144
0.0
144
0.0
144
0.0
144
0.0
144
1.0
144
0.0
144
0.0
144
0.0
144
0.0
144
1.0
274
     2
147
0.0208333333333333
147
0.0
147
0.0
147
0.0
147
0.0
147
0.0208333333333333
147
0.0
147
0.0
147
0.0
147
0.0
147
1.0
147
0.0
147
0.0
147
0.0
147
0.0
147
1.0
  0
MATERIAL
  5
D9AC
102
{ACAD_REACTORS
330
18C
102
}
102
{ACAD_XDICTIONARY
360
1B1F0
102
}
330
18C
100
AcDbMaterial
  1
GLOBAL
 72
     0
 73
     2
 43
0.0208333333333333
 43
0.0
 43
0.0
 43
0.0
 43
0.0
 43
0.0208333333333333
 43
0.0
 43
0.0
 43
0.0
 43
0.0
 43
1.0
 43
0.0
 43
0.0
 43
0.0
 43
0.0
 43
1.0
 77
     0
 78
     2
 47
0.0208333333333333
 47
0.0
 47
0.0
 47
0.0
 47
0.0
 47
0.0208333333333333
 47
0.0
 47
0.0
 47
0.0
 47
0.0
 47
1.0
 47
0.0
 47
0.0
 47
0.0
 47
0.0
 47
1.0
171
     0
172
     2
 49
0.0208333333333333
 49
0.0
 49
0.0
 49
0.0
 49
0.0
 49
0.0208333333333333
 49
0.0
 49
0.0
 49
0.0
 49
0.0
 49
1.0
 49
0.0
 49
0.0
 49
0.0
 49
0.0
 49
1.0
175
     0
176
     2
142
0.0208333333333333
142
0.0
142
0.0
142
0.0
142
0.0
142
0.0208333333333333
142
0.0
142
0.0
142
0.0
142
0.0
142
1.0
142
0.0
142
0.0
142
0.0
142
0.0
142
1.0
179
     0
270
     2
144
0.0208333333333333
144
0.0
144
0.0
144
0.0
144
0.0
144
0.0208333333333333
144
0.0
144
0.0
144
0.0
144
0.0
144
1.0
144
0.0
144
0.0
144
0.0
144
0.0
144
1.0
274
     2
147
0.0208333333333333
147
0.0
147
0.0
147
0.0
147
0.0
147
0.0208333333333333
147
0.0
147
0.0
147
0.0
147
0.0
147
1.0
147
0.0
147
0.0
147
0.0
147
0.0
147
1.0
  0
ACAD_PROXY_OBJECT
  5
D9E8
102
{ACAD_REACTORS
330
D9E7
102
}
330
D9E7
100
AcDbZombieObject
 90
      499
 91
      511
 93
      610
310
40901902A4063FBFFFFFE000000000000002040AD7A3703D0AD73F4214DD185B99185C990000000000000104090141901A00000000000004100000000000000041025764000000000000300FC0
340
12
340
0
340
F
340
0
 94
        0
1001
ACAD_MLEADERVER
1070
     2
  0
MLINESTYLE
  5
1C
102
{ACAD_REACTORS
330
1B
102
}
330
1B
100
AcDbMlineStyle
  2
STANDARD
 70
     0
  3

 62
   256
 51
90.0
 52
90.0
 71
     2
 49
0.5
 62
   256
  6
BYLAYER
 49
-0.5
 62
   256
  6
BYLAYER
  0
ACAD_PROXY_OBJECT
  5
D9C6
102
{ACAD_REACTORS
330
D9C5
102
}
330
D9C5
100
AcDbZombieObject
 90
      499
 91
      510
 93
       41
310
903313A31580
  0
ACAD_PROXY_OBJECT
  5
D9C7
102
{ACAD_REACTORS
330
D9C5
102
}
330
D9C5
100
AcDbZombieObject
 90
      499
 91
      510
 93
      105
310
903313A324000000000000004000
  0
ACAD_PROXY_OBJECT
  5
D9C8
102
{ACAD_REACTORS
330
D9C5
102
}
330
D9C5
100
AcDbZombieObject
 90
      499
 91
      510
 93
      105
310
903313A344000000000000104000
  0
ACAD_PROXY_OBJECT
  5
D9C9
102
{ACAD_REACTORS
330
D9C5
102
}
330
D9C5
100
AcDbZombieObject
 90
      499
 91
      510
 93
      105
310
903313A354000000000000144000
  0
ACAD_PROXY_OBJECT
  5
D9CA
102
{ACAD_REACTORS
330
D9C5
102
}
330
D9C5
100
AcDbZombieObject
 90
      499
 91
      510
 93
      105
310
903313A384000000000000204000
  0
ACAD_PROXY_OBJECT
  5
D9CB
102
{ACAD_REACTORS
330
D9C5
102
}
330
D9C5
100
AcDbZombieObject
 90
      499
 91
      510
 93
      113
310
904313A31304000000000000244000
  0
ACAD_PROXY_OBJECT
  5
D9CC
102
{ACAD_REACTORS
330
D9C5
102
}
330
D9C5
100
AcDbZombieObject
 90
      499
 91
      510
 93
      113
310
904313A31364000000000000304000
  0
ACAD_PROXY_OBJECT
  5
D9CD
102
{ACAD_REACTORS
330
D9C5
102
}
330
D9C5
100
AcDbZombieObject
 90
      499
 91
      510
 93
      113
310
904313A32304000000000000344000
  0
ACAD_PROXY_OBJECT
  5
D9CE
102
{ACAD_REACTORS
330
D9C5
102
}
330
D9C5
100
AcDbZombieObject
 90
      499
 91
      510
 93
      113
310
904313A333040000000000003E4000
  0
ACAD_PROXY_OBJECT
  5
D9CF
102
{ACAD_REACTORS
330
D9C5
102
}
330
D9C5
100
AcDbZombieObject
 90
      499
 91
      510
 93
      113
310
904313A34304000000000000444000
  0
ACAD_PROXY_OBJECT
  5
D9D0
102
{ACAD_REACTORS
330
D9C5
102
}
330
D9C5
100
AcDbZombieObject
 90
      499
 91
      510
 93
      113
310
904313A35304000000000000494000
  0
ACAD_PROXY_OBJECT
  5
D9D1
102
{ACAD_REACTORS
330
D9C5
102
}
330
D9C5
100
AcDbZombieObject
 90
      499
 91
      510
 93
      121
310
905313A3130304000000000000594000
  0
ACAD_PROXY_OBJECT
  5
D9D2
102
{ACAD_REACTORS
330
D9C5
102
}
330
D9C5
100
AcDbZombieObject
 90
      499
 91
      510
 93
      105
310
903323A310000000000000010100
  0
ACAD_PROXY_OBJECT
  5
D9D3
102
{ACAD_REACTORS
330
D9C5
102
}
330
D9C5
100
AcDbZombieObject
 90
      499
 91
      510
 93
      105
310
903343A310000000000000410100
  0
ACAD_PROXY_OBJECT
  5
D9D4
102
{ACAD_REACTORS
330
D9C5
102
}
330
D9C5
100
AcDbZombieObject
 90
      499
 91
      510
 93
      105
310
903383A310000000000000810100
  0
ACAD_PROXY_OBJECT
  5
D9D5
102
{ACAD_REACTORS
330
D9C5
102
}
330
D9C5
100
AcDbZombieObject
 90
      499
 91
      510
 93
      113
310
90431303A310000000000000910100
  0
ACAD_PROXY_OBJECT
  5
D9D6
102
{ACAD_REACTORS
330
D9C5
102
}
330
D9C5
100
AcDbZombieObject
 90
      499
 91
      510
 93
      121
310
9053130303A310000000000001650100
  0
ACAD_PROXY_OBJECT
  5
D9D7
102
{ACAD_REACTORS
330
D9C5
102
}
330
D9C5
100
AcDbZombieObject
 90
      499
 91
      510
 93
      257
310
90E312F31323822203D2031272D3022000000000000200FC000000000000284000
  0
ACAD_PROXY_OBJECT
  5
D9D8
102
{ACAD_REACTORS
330
D9C5
102
}
330
D9C5
100
AcDbZombieObject
 90
      499
 91
      510
 93
      249
310
90D312F363422203D2031272D3022000000000000240FC000000000000284000
  0
ACAD_PROXY_OBJECT
  5
D9D9
102
{ACAD_REACTORS
330
D9C5
102
}
330
D9C5
100
AcDbZombieObject
 90
      499
 91
      510
 93
      249
310
90D312F333222203D2031272D3022000000000000280FC000000000000284000
  0
ACAD_PROXY_OBJECT
  5
D9DA
102
{ACAD_REACTORS
330
D9C5
102
}
330
D9C5
100
AcDbZombieObject
 90
      499
 91
      510
 93
      249
310
90D312F313622203D2031272D30220000000000002C0FC000000000000284000
  0
ACAD_PROXY_OBJECT
  5
D9DB
102
{ACAD_REACTORS
330
D9C5
102
}
330
D9C5
100
AcDbZombieObject
 90
      499
 91
      510
 93
      249
310
90D332F333222203D2031272D30220000000000002E0FC000000000000284000
  0
ACAD_PROXY_OBJECT
  5
D9DC
102
{ACAD_REACTORS
330
D9C5
102
}
330
D9C5
100
AcDbZombieObject
 90
      499
 91
      510
 93
      241
310
90C312F3822203D2031272D3022000000000000300FC000000000000284000
  0
ACAD_PROXY_OBJECT
  5
D9DD
102
{ACAD_REACTORS
330
D9C5
102
}
330
D9C5
100
AcDbZombieObject
 90
      499
 91
      510
 93
      249
310
90D332F313622203D2031272D3022000000000000320FC000000000000284000
  0
ACAD_PROXY_OBJECT
  5
D9DE
102
{ACAD_REACTORS
330
D9C5
102
}
330
D9C5
100
AcDbZombieObject
 90
      499
 91
      510
 93
      241
310
90C312F3422203D2031272D3022000000000000340FC000000000000284000
  0
ACAD_PROXY_OBJECT
  5
D9DF
102
{ACAD_REACTORS
330
D9C5
102
}
330
D9C5
100
AcDbZombieObject
 90
      499
 91
      510
 93
      241
310
90C332F3822203D2031272D3022000000000000360FC000000000000284000
  0
ACAD_PROXY_OBJECT
  5
D9E0
102
{ACAD_REACTORS
330
D9C5
102
}
330
D9C5
100
AcDbZombieObject
 90
      499
 91
      510
 93
      241
310
90C312F3222203D2031272D3022000000000000380FC000000000000284000
  0
ACAD_PROXY_OBJECT
  5
D9E1
102
{ACAD_REACTORS
330
D9C5
102
}
330
D9C5
100
AcDbZombieObject
 90
      499
 91
      510
 93
      241
310
90C332F3422203D2031272D30220000000000003A0FC000000000000284000
  0
ACAD_PROXY_OBJECT
  5
D9E2
102
{ACAD_REACTORS
330
D9C5
102
}
330
D9C5
100
AcDbZombieObject
 90
      499
 91
      510
 93
      161
310
90A3122203D2031272D30224000000000000284000
  0
ACAD_PROXY_OBJECT
  5
D9E3
102
{ACAD_REACTORS
330
D9C5
102
}
330
D9C5
100
AcDbZombieObject
 90
      499
 91
      510
 93
      257
310
90E312D312F3222203D2031272D30220000000000003E0FC000000000000284000
  0
ACAD_PROXY_OBJECT
  5
D9E4
102
{ACAD_REACTORS
330
D9C5
102
}
330
D9C5
100
AcDbZombieObject
 90
      499
 91
      510
 93
      225
310
90A3322203D2031272D302200000000000002100000000000000284000
  0
ACAD_PROXY_OBJECT
  5
D9E5
102
{ACAD_REACTORS
330
D9C5
102
}
330
D9C5
100
AcDbZombieObject
 90
      499
 91
      510
 93
      225
310
90A3622203D2031272D302200000000000006100000000000000284000
  0
ACAD_PROXY_OBJECT
  5
D9E6
102
{ACAD_REACTORS
330
D9C5
102
}
330
D9C5
100
AcDbZombieObject
 90
      499
 91
      510
 93
      249
310
90D31272D3022203D2031272D30220000000000000A100000000000000284000
  0
ACAD_PROXY_OBJECT
  5
D9BA
102
{ACAD_REACTORS
330
D9B4
102
}
330
D9B4
100
AcDbZombieObject
 90
      499
 91
      509
 93
      436
310
42CC9915DA5C99599C985B595049028333333333333E3BF0000000000000FB0107901411070040501600405405064090741402480A0340
1001
ACAD
1000
AcDbSavedByObjectVersion
1070
     0
  0
ACAD_PROXY_OBJECT
  5
D9BC
102
{ACAD_REACTORS
330
D9B4
102
}
330
D9B4
100
AcDbZombieObject
 90
      499
 91
      509
 93
      500
310
424CD108121A5919195B90640502408333333333333E3BF0000000000000FB01079024090700405020000000000001110200405405064090740C02480A0340
1001
ACAD
1000
AcDbSavedByObjectVersion
1070
     0
  0
ACAD_PROXY_OBJECT
  5
D9BB
102
{ACAD_REACTORS
330
D9B4
102
}
330
D9B4
100
AcDbZombieObject
 90
      499
 91
      509
 93
      436
310
42CCD915DA5C99599C985B595059028333333333333E3BF0000000000000FB0107901411070040501600405405064090741402480A0340
1001
ACAD
1000
AcDbSavedByObjectVersion
1070
     0
  0
ACAD_PROXY_OBJECT
  5
D9B9
102
{ACAD_REACTORS
330
D9B4
102
}
330
D9B4
100
AcDbZombieObject
 90
      499
 91
      509
 93
      388
310
4150985CDA58D07406404333333333333E3BF0000000000000FB0107A41107004050150841D405064090741402480A0350
1001
ACAD
1000
AcDbSavedByObjectVersion
1070
     0
  0
ACAD_PROXY_OBJECT
  5
D9C0
102
{ACAD_REACTORS
330
D9B4
102
}
330
D9B4
100
AcDbZombieObject
 90
      499
 91
      509
 93
      428
310
42109C9A59DA1D195B90C409028333333333333E3BF0000000000000FB010790141107004050150841D405064090741402480A029950
1001
ACAD
1000
AcDbSavedByObjectVersion
1070
     0
  0
ACAD_PROXY_OBJECT
  5
D9C4
102
{ACAD_REACTORS
330
D9B4
102
}
330
D9B4
100
AcDbZombieObject
 90
      499
 91
      509
 93
      452
310
42D0DBDB1BDC90DA185B99D95104090240C333333333333E3BF0000000000000FB0108901411070040501508421405064090741402480A0350
1001
ACAD
1000
AcDbSavedByObjectVersion
1070
     0
  0
ACAD_PROXY_OBJECT
  5
D9BD
102
{ACAD_REACTORS
330
D9B4
102
}
330
D9B4
100
AcDbZombieObject
 90
      499
 91
      509
 93
      500
310
4290DBDB98D95C1D1D585B10940D028333333333333E3BF0000000000000FB0107902409070040501000000000000111010841D405064090740C02480A0340
1001
ACAD
1000
AcDbSavedByObjectVersion
1070
     0
  0
ACAD_PROXY_OBJECT
  5
D9BF
102
{ACAD_REACTORS
330
D9B4
102
}
330
D9B4
100
AcDbZombieObject
 90
      499
 91
      509
 93
      412
310
40D11A5B50B409028333333333333E3BF0000000000000FB010790141107004050150841D405064090741402480A02677FFFFFD0
1001
ACAD
1000
AcDbSavedByObjectVersion
1070
     0
  0
ACAD_PROXY_OBJECT
  5
19C2F
102
{ACAD_REACTORS
330
D9B4
102
}
330
D9B4
100
AcDbZombieObject
 90
      499
 91
      509
 93
      452
310
43115919D950DBDB1BDC93D999916409028333333333333E3BF0000000000000FB010790141107004050150841D405064090741402480A0350
1001
ACAD
1000
AcDbSavedByObjectVersion
1070
     0
  0
ACAD_PROXY_OBJECT
  5
D9C3
102
{ACAD_REACTORS
330
D9B4
102
}
330
D9B4
100
AcDbZombieObject
 90
      499
 91
      509
 93
      444
310
42D19858D95C185D1D195C9B90F409028333333333333E3BF0000000000000FB010790141107004050150841D405064090741402480A0350
1001
ACAD
1000
AcDbSavedByObjectVersion
1070
     0
  0
ACAD_PROXY_OBJECT
  5
D9B5
102
{ACAD_REACTORS
330
D9B4
102
}
330
D9B4
100
AcDbZombieObject
 90
      499
 91
      509
 93
      388
310
41119B185D240901404333333333333E3BF0000000000000F9010740A41107004050150841D405064090741402480A1B50
1001
ACAD
1000
AcDbSavedByObjectVersion
1070
     0
  0
ACAD_PROXY_OBJECT
  5
D9B6
102
{ACAD_REACTORS
330
D9B4
102
}
330
D9B4
100
AcDbZombieObject
 90
      499
 91
      509
 93
      476
310
43519B185D15DA5D1A115919D95CD0140901404333333333333E3BF0000000000000F9010740901411070040501600405405064090741402480A1B50
1001
ACAD
1000
AcDbSavedByObjectVersion
1070
     0
  0
ACAD_PROXY_OBJECT
  5
D9B7
102
{ACAD_REACTORS
330
D9B4
102
}
330
D9B4
100
AcDbZombieObject
 90
      499
 91
      509
 93
      412
310
41D1DBDD5C985D5910240902404333333333333E3BF0000000000000F9010740A411070040501641D405064090741402480A1B50
1001
ACAD
1000
AcDbSavedByObjectVersion
1070
     0
  0
ACAD_PROXY_OBJECT
  5
D9B8
102
{ACAD_REACTORS
330
D9B4
102
}
330
D9B4
100
AcDbZombieObject
 90
      499
 91
      509
 93
      500
310
4411DBDD5C985D5915DA5D1A115919D95CD0340902404333333333333E3BF0000000000000F9010740901411070040501600405405064090741402480A1B50
1001
ACAD
1000
AcDbSavedByObjectVersion
1070
     0
  0
ACAD_PROXY_OBJECT
  5
19C7E
102
{ACAD_REACTORS
330
D9B4
102
}
330
D9B4
100
AcDbZombieObject
 90
      499
 91
      509
 93
      476
310
41921A5919195B90640502408333333333333E33F0000000000000F901079024090700405020000000000001110200405405064090740C02480A0340
1001
ACAD
1000
AcDbSavedByObjectVersion
1070
     0
  0
ACAD_PROXY_OBJECT
  5
19C2D
102
{ACAD_REACTORS
330
D9B4
102
}
330
D9B4
100
AcDbZombieObject
 90
      499
 91
      509
 93
      428
310
42529A5D1D195C93D999914409028333333333333E3BF0000000000000FB010790141107004050150A41D405064090741402480A0350
1001
ACAD
1000
AcDbSavedByObjectVersion
1070
     0
  0
ACAD_PROXY_OBJECT
  5
D9C2
102
{ACAD_REACTORS
330
D9B4
102
}
330
D9B4
100
AcDbZombieObject
 90
      499
 91
      509
 93
      444
310
42D31A5B995C185D1D195C9B90E409028333333333333E3BF0000000000000FB010790141107004050750841D405064090741402483A0350
1001
ACAD
1000
AcDbSavedByObjectVersion
1070
     0
  0
ACAD_PROXY_OBJECT
  5
19C84
102
{ACAD_REACTORS
330
D9B4
102
}
330
D9B4
100
AcDbZombieObject
 90
      499
 91
      509
 93
      484
310
42135BD9195B1A5B99D0A409038333333333333E33F0000000000000F901074090290700405010000000000201990108421405064090741402480A1B40
1001
ACAD
1000
AcDbSavedByObjectVersion
1070
     0
  0
ACAD_PROXY_OBJECT
  5
19C2E
102
{ACAD_REACTORS
330
D9B4
102
}
330
D9B4
100
AcDbZombieObject
 90
      499
 91
      509
 93
      444
310
42D3DD995C9A185B99D3D999915409028333333333333E3BF0000000000000FB010790141107004050150941D405064090741402480A0350
1001
ACAD
1000
AcDbSavedByObjectVersion
1070
     0
  0
ACAD_PROXY_OBJECT
  5
D9BE
102
{ACAD_REACTORS
330
D9B4
102
}
330
D9B4
100
AcDbZombieObject
 90
      499
 91
      509
 93
      420
310
425499585B1A5CDD1A58D08409028333333333333E3BF0000000000000FB01079019070040501508421405064090741402480A1B40
1001
ACAD
1000
AcDbSavedByObjectVersion
1070
     0
  0
ACAD_PROXY_OBJECT
  5
19C83
102
{ACAD_REACTORS
330
D9B4
102
}
330
D9B4
100
AcDbZombieObject
 90
      499
 91
      509
 93
      420
310
4194DA1859195911B40902404333333333333E33F0000000000000F9010740A41107004050150800405405064090840C02480A0B40
1001
ACAD
1000
AcDbSavedByObjectVersion
1070
     0
  0
ACAD_PROXY_OBJECT
  5
19C82
102
{ACAD_REACTORS
330
D9B4
102
}
330
D9B4
100
AcDbZombieObject
 90
      499
 91
      509
 93
      516
310
4454DA18591959081DDA5D1A08195919D95CD1A40902404333333333333E33F0000000000000F901074090142907004050250800405405064090740C02480A0B40
1001
ACAD
1000
AcDbSavedByObjectVersion
1070
     0
  0
ACAD_PROXY_OBJECT
  5
19C7F
102
{ACAD_REACTORS
330
D9B4
102
}
330
D9B4
100
AcDbZombieObject
 90
      499
 91
      509
 93
      532
310
4394DA1859195CC81BD98811DC985E5174090240C333333333333E33F0000000000000F901079024090741D01000000000000111010841D405064090740C02480A0340
1001
ACAD
1000
AcDbSavedByObjectVersion
1070
     0
  0
ACAD_PROXY_OBJECT
  5
19C80
102
{ACAD_REACTORS
330
D9B4
102
}
330
D9B4
100
AcDbZombieObject
 90
      499
 91
      509
 93
      476
310
41D4DAD95D18DA1E51840502408333333333333E33F0000000000000F901079024090741D01000000000000111010B41D405064090741802480A0340
1001
ACAD
1000
AcDbSavedByObjectVersion
1070
     0
  0
ACAD_PROXY_OBJECT
  5
D9C1
102
{ACAD_REACTORS
330
D9B4
102
}
330
D9B4
100
AcDbZombieObject
 90
      499
 91
      509
 93
      412
310
41D51A1A58DAD95B90D409028333333333333E3BF0000000000000FB010790141107004050150C41D405064090741402480A0350
1001
ACAD
1000
AcDbSavedByObjectVersion
1070
     0
  0
ACAD_PROXY_OBJECT
  5
19C7D
102
{ACAD_REACTORS
330
D9B4
102
}
330
D9B4
100
AcDbZombieObject
 90
      499
 91
      509
 93
      420
310
4255DA5C99599C985B595059028333333333333E33F0000000000000F90107901411070040501600405405064090740C02480A0340
1001
ACAD
1000
AcDbSavedByObjectVersion
1070
     0
  0
ACAD_PROXY_OBJECT
  5
19C81
102
{ACAD_REACTORS
330
D9B4
102
}
330
D9B4
100
AcDbZombieObject
 90
      499
 91
      509
 93
      404
310
41560B54985E51940902404000000000000E03F0000000000000F9010740501907004050150841D405064090740C02480A1B40
1001
ACAD
1000
AcDbSavedByObjectVersion
1070
     0
  0
XRECORD
  5
1B04F
102
{ACAD_REACTORS
330
1B04E
102
}
330
1B04E
100
AcDbXrecord
340
18D
  0
XRECORD
  5
1B050
102
{ACAD_REACTORS
330
1B04E
102
}
330
1B04E
100
AcDbXrecord
340
18C
  0
DICTIONARYVAR
  5
1A4C6
102
{ACAD_REACTORS
330
37
102
}
330
37
100
DictionaryVariables
280
     0
  1
1:1
  0
DICTIONARYVAR
  5
DA6A
102
{ACAD_REACTORS
330
37
102
}
330
37
100
DictionaryVariables
280
     0
  1
Standard
  0
DICTIONARYVAR
  5
29E
102
{ACAD_REACTORS
330
37
102
}
330
37
100
DictionaryVariables
280
     0
  1
Standard
  0
DICTIONARYVAR
  5
38
102
{ACAD_REACTORS
330
37
102
}
330
37
100
DictionaryVariables
280
     0
  1
-1
  0
DICTIONARYVAR
  5
1CE
102
{ACAD_REACTORS
330
37
102
}
330
37
100
DictionaryVariables
280
     0
  1
2
  0
DICTIONARYVAR
  5
704E
102
{ACAD_REACTORS
330
37
102
}
330
37
100
DictionaryVariables
280
     0
  1
1
  0
DICTIONARYVAR
  5
DA6D
102
{ACAD_REACTORS
330
37
102
}
330
37
100
DictionaryVariables
280
     0
  1
0
  0
DICTIONARYVAR
  5
7052
102
{ACAD_REACTORS
330
37
102
}
330
37
100
DictionaryVariables
280
     0
  1
8
  0
DICTIONARYVAR
  5
7051
102
{ACAD_REACTORS
330
37
102
}
330
37
100
DictionaryVariables
280
     0
  1
1
  0
DICTIONARYVAR
  5
1A516
102
{ACAD_REACTORS
330
37
102
}
330
37
100
DictionaryVariables
280
     0
  1
0
  0
DICTIONARYVAR
  5
704F
102
{ACAD_REACTORS
330
37
102
}
330
37
100
DictionaryVariables
280
     0
  1
8
  0
DICTIONARYVAR
  5
7050
102
{ACAD_REACTORS
330
37
102
}
330
37
100
DictionaryVariables
280
     0
  1
2
  0
DICTIONARYVAR
  5
1CF
102
{ACAD_REACTORS
330
37
102
}
330
37
100
DictionaryVariables
280
     0
  1

  0
DICTIONARYVAR
  5
DA6C
102
{ACAD_REACTORS
330
37
102
}
330
37
100
DictionaryVariables
280
     0
  1
127
  0
DICTIONARYVAR
  5
19C7C
102
{ACAD_REACTORS
330
37
102
}
330
37
100
DictionaryVariables
280
     0
  1
2
  0
DICTIONARY
  5
1B1EC
330
D9A4
100
AcDbDictionary
  3
ACAD_XREC_ROUNDTRIP
360
1B1ED
1001
ACAD
1000
TREAT_AS_HARD
1070
     1
  0
DICTIONARY
  5
1B1EE
330
D99C
100
AcDbDictionary
  3
ACAD_XREC_ROUNDTRIP
360
1B1EF
1001
ACAD
1000
TREAT_AS_HARD
1070
     1
  0
DICTIONARY
  5
1B1F0
330
D9AC
100
AcDbDictionary
  3
ACAD_XREC_ROUNDTRIP
360
1B1F1
1001
ACAD
1000
TREAT_AS_HARD
1070
     1
  0
XRECORD
  5
1B1ED
102
{ACAD_REACTORS
330
1B1EC
102
}
330
1B1EC
100
AcDbXrecord
102
MATERIAL
148
0.0
149
0.0
149
0.0
 93
        0
 94
      127
282
     0
 72
     0
 77
     0
171
     0
175
     0
179
     0
273
     0
  0
XRECORD
  5
1B1EF
102
{ACAD_REACTORS
330
1B1EE
102
}
330
1B1EE
100
AcDbXrecord
102
MATERIAL
148
0.0
149
0.0
149
0.0
 93
        0
 94
      127
282
     0
 72
     0
 77
     0
171
     0
175
     0
179
     0
273
     0
  0
XRECORD
  5
1B1F1
102
{ACAD_REACTORS
330
1B1F0
102
}
330
1B1F0
100
AcDbXrecord
102
MATERIAL
148
0.0
149
0.0
149
0.0
 93
        0
 94
      127
282
     0
 72
     0
 77
     0
171
     0
175
     0
179
     0
273
     0
  0
ENDSEC
  0
EOF
