  0
SECTION
  2
HEADER
  9
$ACADVER
  1
AC1012
  9
$DWGCODEPAGE
  3
ansi_932
  9
$INSBASE
 10
0.0
 20
0.0
 30
0.0
  9
$EXTMIN
 10
4780.840003528744
 20
1650.034411655984
 30
0.0
  9
$EXTMAX
 10
5412.139770849256
 20
2074.056130810145
 30
0.0000000001127424
  9
$LIMMIN
 10
0.0
 20
0.0
  9
$LIMMAX
 10
420.0
 20
297.0
  9
$ORTHOMODE
 70
     0
  9
$REGENMODE
 70
     1
  9
$FILLMODE
 70
     1
  9
$QTEXTMODE
 70
     0
  9
$MIRRTEXT
 70
     0
  9
$DRAGMODE
 70
     2
  9
$LTSCALE
 40
0.5
  9
$OSMODE
 70
 14463
  9
$ATTMODE
 70
     1
  9
$TEXTSIZE
 40
4.0
  9
$TRACEWID
 40
1.0
  9
$TEXTSTYLE
  7
STANDARD
  9
$CLAYER
  8
1TEXT
  9
$CELTYPE
  6
BYLAYER
  9
$CECOLOR
 62
   256
  9
$CELTSCALE
 40
1.0
  9
$DELOBJ
 70
     1
  9
$DISPSILH
 70
     0
  9
$DIMSCALE
 40
1.0
  9
$DIMASZ
 40
2.0
  9
$DIMEXO
 40
0.0
  9
$DIMDLI
 40
7.0
  9
$DIMRND
 40
0.0
  9
$DIMDLE
 40
0.0
  9
$DIMEXE
 40
1.0
  9
$DIMTP
 40
0.0
  9
$DIMTM
 40
0.0
  9
$DIMTXT
 40
3.5
  9
$DIMCEN
 40
0.0
  9
$DIMTSZ
 40
0.0
  9
$DIMTOL
 70
     0
  9
$DIMLIM
 70
     0
  9
$DIMTIH
 70
     0
  9
$DIMTOH
 70
     0
  9
$DIMSE1
 70
     0
  9
$DIMSE2
 70
     0
  9
$DIMTAD
 70
     1
  9
$DIMZIN
 70
     8
  9
$DIMBLK
  1

  9
$DIMASO
 70
     1
  9
$DIMSHO
 70
     1
  9
$DIMPOST
  1
 
  9
$DIMAPOST
  1

  9
$DIMALT
 70
     0
  9
$DIMALTD
 70
     2
  9
$DIMALTF
 40
25.4
  9
$DIMLFAC
 40
1.0
  9
$DIMTOFL
 70
     1
  9
$DIMTVP
 40
0.0
  9
$DIMTIX
 70
     0
  9
$DIMSOXD
 70
     0
  9
$DIMSAH
 70
     1
  9
$DIMBLK1
  1
OPEN30
  9
$DIMBLK2
  1
OPEN30
  9
$DIMSTYLE
  2
NEWX10
  9
$DIMCLRD
 70
   256
  9
$DIMCLRE
 70
   256
  9
$DIMCLRT
 70
   201
  9
$DIMTFAC
 40
0.7
  9
$DIMGAP
 40
0.7
  9
$DIMJUST
 70
     0
  9
$DIMSD1
 70
     0
  9
$DIMSD2
 70
     0
  9
$DIMTOLJ
 70
     1
  9
$DIMTZIN
 70
     8
  9
$DIMALTZ
 70
     0
  9
$DIMALTTZ
 70
     0
  9
$DIMFIT
 70
     2
  9
$DIMUPT
 70
     0
  9
$DIMUNIT
 70
     2
  9
$DIMDEC
 70
     2
  9
$DIMTDEC
 70
     4
  9
$DIMALTU
 70
     2
  9
$DIMALTTD
 70
     2
  9
$DIMTXSTY
  7
STANDARD
  9
$DIMAUNIT
 70
     0
  9
$LUNITS
 70
     2
  9
$LUPREC
 70
     4
  9
$SKETCHINC
 40
1.0
  9
$FILLETRAD
 40
0.0
  9
$AUNITS
 70
     0
  9
$AUPREC
 70
     2
  9
$MENU
  1
acad
  9
$ELEVATION
 40
0.0
  9
$PELEVATION
 40
0.0
  9
$THICKNESS
 40
0.0
  9
$LIMCHECK
 70
     0
  9
$CHAMFERA
 40
10.0
  9
$CHAMFERB
 40
10.0
  9
$CHAMFERC
 40
20.0
  9
$CHAMFERD
 40
0.0
  9
$SKPOLY
 70
     0
  9
$TDCREATE
 40
2451318.621352917
  9
$TDUPDATE
 40
2458159.435577662
  9
$TDINDWG
 40
1.4832983796
  9
$TDUSRTIMER
 40
1.4832983796
  9
$USRTIMER
 70
     1
  9
$ANGBASE
 50
0.0
  9
$ANGDIR
 70
     0
  9
$PDMODE
 70
     0
  9
$PDSIZE
 40
0.0
  9
$PLINEWID
 40
0.0
  9
$COORDS
 70
     2
  9
$SPLFRAME
 70
     0
  9
$SPLINETYPE
 70
     6
  9
$SPLINESEGS
 70
     8
  9
$ATTDIA
 70
     0
  9
$ATTREQ
 70
     1
  9
$HANDLING
 70
     1
  9
$HANDSEED
  5
FFBE
  9
$SURFTAB1
 70
     6
  9
$SURFTAB2
 70
     6
  9
$SURFTYPE
 70
     6
  9
$SURFU
 70
     6
  9
$SURFV
 70
     6
  9
$UCSNAME
  2

  9
$UCSORG
 10
0.0
 20
0.0
 30
0.0
  9
$UCSXDIR
 10
1.0
 20
0.0
 30
0.0
  9
$UCSYDIR
 10
0.0
 20
1.0
 30
0.0
  9
$PUCSNAME
  2

  9
$PUCSORG
 10
0.0
 20
0.0
 30
0.0
  9
$PUCSXDIR
 10
1.0
 20
0.0
 30
0.0
  9
$PUCSYDIR
 10
0.0
 20
1.0
 30
0.0
  9
$USERI1
 70
     0
  9
$USERI2
 70
     0
  9
$USERI3
 70
     0
  9
$USERI4
 70
     0
  9
$USERI5
 70
     0
  9
$USERR1
 40
0.0
  9
$USERR2
 40
0.0
  9
$USERR3
 40
0.0
  9
$USERR4
 40
0.0
  9
$USERR5
 40
0.0
  9
$WORLDVIEW
 70
     1
  9
$SHADEDGE
 70
     3
  9
$SHADEDIF
 70
    70
  9
$TILEMODE
 70
     1
  9
$MAXACTVP
 70
    48
  9
$PINSBASE
 10
0.0
 20
0.0
 30
0.0
  9
$PLIMCHECK
 70
     0
  9
$PEXTMIN
 10
1.000000000000000E+20
 20
1.000000000000000E+20
 30
1.000000000000000E+20
  9
$PEXTMAX
 10
-1.000000000000000E+20
 20
-1.000000000000000E+20
 30
-1.000000000000000E+20
  9
$PLIMMIN
 10
0.0
 20
0.0
  9
$PLIMMAX
 10
420.0
 20
297.0
  9
$UNITMODE
 70
     0
  9
$VISRETAIN
 70
     1
  9
$PLINEGEN
 70
     0
  9
$PSLTSCALE
 70
     1
  9
$TREEDEPTH
 70
  3020
  9
$PICKSTYLE
 70
     1
  9
$CMLSTYLE
  2
STANDARD
  9
$CMLJUST
 70
     0
  9
$CMLSCALE
 40
20.0
  9
$SAVEIMAGES
 70
     1
  0
ENDSEC
  0
SECTION
  2
CLASSES
  0
CLASS
  1
DICTIONARYVAR
  2
AcDbDictionaryVar
  3
ObjectDBX Classes
 90
        0
280
     0
281
     0
  0
CLASS
  1
IDBUFFER
  2
AcDbIdBuffer
  3
ObjectDBX Classes
 90
    32768
280
     0
281
     0
  0
CLASS
  1
LWPOLYLINE
  2
AcDbPolyline
  3
ObjectDBX Classes
 90
    32768
280
     0
281
     1
  0
CLASS
  1
ACDBDICTIONARYWDFLT
  2
AcDbDictionaryWithDefault
  3
ObjectDBX Classes
 90
    32768
280
     0
281
     0
  0
CLASS
  1
ACDBPLACEHOLDER
  2
AcDbPlaceHolder
  3
ObjectDBX Classes
 90
        0
280
     0
281
     0
  0
CLASS
  1
LAYOUT
  2
AcDbLayout
  3
ObjectDBX Classes
 90
        0
280
     0
281
     0
  0
CLASS
  1
TABLESTYLE
  2
AcDbTableStyle
  3
ObjectDBX Classes
 90
     4095
280
     0
281
     0
  0
CLASS
  1
SORTENTSTABLE
  2
AcDbSortentsTable
  3
ObjectDBX Classes
 90
    32768
280
     0
281
     0
  0
CLASS
  1
MATERIAL
  2
AcDbMaterial
  3
ObjectDBX Classes
 90
     1153
280
     0
281
     0
  0
CLASS
  1
VISUALSTYLE
  2
AcDbVisualStyle
  3
ObjectDBX Classes
 90
     4095
280
     0
281
     0
  0
CLASS
  1
SCALE
  2
AcDbScale
  3
ObjectDBX Classes
 90
     1153
280
     0
281
     0
  0
CLASS
  1
MLEADERSTYLE
  2
AcDbMLeaderStyle
  3
ACDB_MLEADERSTYLE_CLASS
 90
     4095
280
     0
281
     0
  0
CLASS
  1
CELLSTYLEMAP
  2
AcDbCellStyleMap
  3
ObjectDBX Classes
 90
     1152
280
     0
281
     0
  0
CLASS
  1
SUN
  2
AcDbSun
  3
SCENEOE
 90
     1153
280
     0
281
     0
  0
CLASS
  1
XRECORD
  2
AcDbXrecord
  3
ObjectDBX Classes
 90
    32768
280
     0
281
     0
  0
CLASS
  1
HATCH
  2
AcDbHatch
  3
ObjectDBX Classes
 90
    32768
280
     0
281
     1
  0
ENDSEC
  0
SECTION
  2
TABLES
  0
TABLE
  2
VPORT
  5
8
330
0
100
AcDbSymbolTable
 70
     1
  0
VPORT
  5
952D
330
8
100
AcDbSymbolTableRecord
100
AcDbViewportTableRecord
  2
*ACTIVE
 70
     0
 10
0.0
 20
0.0
 11
1.0
 21
1.0
 12
5096.489887189
 22
1862.045271233064
 13
0.0
 23
0.0
 14
10.0
 24
10.0
 15
10.0
 25
10.0
 16
0.0
 26
0.0
 36
1.0
 17
0.0
 27
0.0
 37
0.0
 40
455.2654247760471
 41
1.871481028151775
 42
50.0
 43
0.0
 44
0.0
 50
0.0
 51
0.0
 71
    16
 72
   100
 73
     1
 74
     1
 75
     0
 76
     0
 77
     0
 78
     0
1001
ACAD_NAV_VCDISPLAY
1070
     3
  0
ENDTAB
  0
TABLE
  2
LTYPE
  5
5
330
0
100
AcDbSymbolTable
 70
     3
  0
LTYPE
  5
12
330
5
100
AcDbSymbolTableRecord
100
AcDbLinetypeTableRecord
  2
BYBLOCK
 70
     0
  3

 72
    65
 73
     0
 40
0.0
  0
LTYPE
  5
13
330
5
100
AcDbSymbolTableRecord
100
AcDbLinetypeTableRecord
  2
BYLAYER
 70
     0
  3

 72
    65
 73
     0
 40
0.0
  0
LTYPE
  5
14
330
5
100
AcDbSymbolTableRecord
100
AcDbLinetypeTableRecord
  2
CONTINUOUS
 70
     0
  3
Solid line
 72
    65
 73
     0
 40
0.0
  0
LTYPE
  5
2C03
330
5
100
AcDbSymbolTableRecord
100
AcDbLinetypeTableRecord
  2
HIDDEN
 70
     0
  3
Hidden __ __ __ __ __ __ __ __ __ __ __ __ __ _
 72
    65
 73
     2
 40
9.524999999999999
 49
6.35
 74
     0
 49
-3.175
 74
     0
  0
LTYPE
  5
9837
330
5
100
AcDbSymbolTableRecord
100
AcDbLinetypeTableRecord
  2
CENTER2
 70
     0
  3
Center (.5x) ___ _ ___ _ ___ _ ___ _ ___ _ ___
 72
    65
 73
     4
 40
28.575
 49
19.05
 74
     0
 49
-3.175
 74
     0
 49
3.175
 74
     0
 49
-3.175
 74
     0
  0
ENDTAB
  0
TABLE
  2
LAYER
  5
2
102
{ACAD_XDICTIONARY
360
96D9
102
}
330
0
100
AcDbSymbolTable
 70
     6
  0
LAYER
  5
E
102
{ACAD_XDICTIONARY
360
9593
102
}
330
2
100
AcDbSymbolTableRecord
100
AcDbLayerTableRecord
  2
0
 70
     0
 62
     7
  6
CONTINUOUS
  0
LAYER
  5
29
102
{ACAD_XDICTIONARY
360
9595
102
}
330
2
100
AcDbSymbolTableRecord
100
AcDbLayerTableRecord
  2
1CENTER
 70
     0
 62
     7
  6
CENTER2
  0
LAYER
  5
31
102
{ACAD_XDICTIONARY
360
9597
102
}
330
2
100
AcDbSymbolTableRecord
100
AcDbLayerTableRecord
  2
1TEXT
 70
     0
 62
     7
  6
CONTINUOUS
  0
LAYER
  5
243
102
{ACAD_XDICTIONARY
360
959D
102
}
330
2
100
AcDbSymbolTableRecord
100
AcDbLayerTableRecord
  2
01
 70
     0
 62
     1
  6
CONTINUOUS
  0
LAYER
  5
24E
102
{ACAD_XDICTIONARY
360
95A3
102
}
330
2
100
AcDbSymbolTableRecord
100
AcDbLayerTableRecord
  2
1DIM
 70
     0
 62
     7
  6
CONTINUOUS
  0
LAYER
  5
2C05
102
{ACAD_XDICTIONARY
360
95AF
102
}
330
2
100
AcDbSymbolTableRecord
100
AcDbLayerTableRecord
  2
1HIDDEN
 70
     0
 62
     7
  6
HIDDEN
  0
ENDTAB
  0
TABLE
  2
STYLE
  5
3
330
0
100
AcDbSymbolTable
 70
     1
  0
STYLE
  5
F
330
3
100
AcDbSymbolTableRecord
100
AcDbTextStyleTableRecord
  2
STANDARD
 70
     0
 40
0.0
 41
1.0
 50
0.0
 71
     0
 42
4.0
  3
txt.shx
  4
extfont.shx
  0
ENDTAB
  0
TABLE
  2
VIEW
  5
6
330
0
100
AcDbSymbolTable
 70
     0
  0
ENDTAB
  0
TABLE
  2
UCS
  5
7
330
0
100
AcDbSymbolTable
 70
     0
  0
ENDTAB
  0
TABLE
  2
APPID
  5
9
330
0
100
AcDbSymbolTable
 70
    14
  0
APPID
  5
10
330
9
100
AcDbSymbolTableRecord
100
AcDbRegAppTableRecord
  2
ACAD
 70
     0
  0
APPID
  5
21
330
9
100
AcDbSymbolTableRecord
100
AcDbRegAppTableRecord
  2
DRAWINGVARIABLESXDATA
 70
     0
  0
APPID
  5
64
330
9
100
AcDbSymbolTableRecord
100
AcDbRegAppTableRecord
  2
CONTENTTABDATA
 70
     0
  0
APPID
  5
65
330
9
100
AcDbSymbolTableRecord
100
AcDbRegAppTableRecord
  2
CONTENTCURRENTTAB
 70
     0
  0
APPID
  5
66
330
9
100
AcDbSymbolTableRecord
100
AcDbRegAppTableRecord
  2
CONTENTBLOCKDESCRIPTION
 70
     0
  0
APPID
  5
67
330
9
100
AcDbSymbolTableRecord
100
AcDbRegAppTableRecord
  2
CONTENTBLOCKICON
 70
     0
  0
APPID
  5
68
330
9
100
AcDbSymbolTableRecord
100
AcDbRegAppTableRecord
  2
CONTENTLONGBLOCKNAME
 70
     0
  0
APPID
  5
2AE
330
9
100
AcDbSymbolTableRecord
100
AcDbRegAppTableRecord
  2
ACAD_PSEXT
 70
     0
  0
APPID
  5
9585
330
9
100
AcDbSymbolTableRecord
100
AcDbRegAppTableRecord
  2
ACAD_MLEADERVER
 70
     0
  0
APPID
  5
A2E3
330
9
100
AcDbSymbolTableRecord
100
AcDbRegAppTableRecord
  2
ACADANNOTATIVE
 70
     0
  0
APPID
  5
A2E4
330
9
100
AcDbSymbolTableRecord
100
AcDbRegAppTableRecord
  2
ACDBBLOCKREPETAG
 70
     0
  0
APPID
  5
AEB1
330
9
100
AcDbSymbolTableRecord
100
AcDbRegAppTableRecord
  2
ACAD_NAV_VCDISPLAY
 70
     0
  0
APPID
  5
B6A4
330
9
100
AcDbSymbolTableRecord
100
AcDbRegAppTableRecord
  2
ACAECLAYERSTANDARD
 70
     0
  0
APPID
  5
E1EF
330
9
100
AcDbSymbolTableRecord
100
AcDbRegAppTableRecord
  2
ACAD_EXEMPT_FROM_CAD_STAND
 70
     0
  0
ENDTAB
  0
TABLE
  2
DIMSTYLE
  5
A
330
0
100
AcDbSymbolTable
 70
     1
  0
DIMSTYLE
105
48
330
A
100
AcDbSymbolTableRecord
100
AcDbDimStyleTableRecord
  2
NEWX10
 70
     0
  3
 
  4

  5

  6
OPEN30
  7
OPEN30
 40
1.0
 41
2.0
 42
0.0
 43
7.0
 44
1.0
 45
0.0
 46
0.0
 47
0.0
 48
0.0
140
3.5
141
0.0
142
0.0
143
25.4
144
1.0
145
0.0
146
0.7
147
0.7
 71
     0
 72
     0
 73
     0
 74
     0
 75
     0
 76
     0
 77
     1
 78
     8
170
     0
171
     2
172
     1
173
     1
174
     0
175
     0
176
   256
177
   256
178
   201
179
     2
270
     2
271
     2
272
     4
273
     2
274
     2
340
F
275
     0
280
     0
281
     0
282
     0
283
     1
284
     8
285
     0
286
     0
287
     2
288
     0
  0
ENDTAB
  0
TABLE
  2
BLOCK_RECORD
  5
1
330
0
100
AcDbSymbolTable
 70
     8
  0
BLOCK_RECORD
  5
18
102
{ACAD_XDICTIONARY
360
88F
102
}
330
1
100
AcDbSymbolTableRecord
100
AcDbBlockTableRecord
  2
*MODEL_SPACE
  0
BLOCK_RECORD
  5
15
330
1
100
AcDbSymbolTableRecord
100
AcDbBlockTableRecord
  2
*PAPER_SPACE
  0
BLOCK_RECORD
  5
42
330
1
100
AcDbSymbolTableRecord
100
AcDbBlockTableRecord
  2
_OPEN30
  0
BLOCK_RECORD
  5
A333
330
1
100
AcDbSymbolTableRecord
100
AcDbBlockTableRecord
  2
A3WAKUKAWAJUN2017_HYOUDAI_
  0
BLOCK_RECORD
  5
FE1E
330
1
100
AcDbSymbolTableRecord
100
AcDbBlockTableRecord
  2
*X26
  0
BLOCK_RECORD
  5
FE6C
330
1
100
AcDbSymbolTableRecord
100
AcDbBlockTableRecord
  2
*X27
  0
BLOCK_RECORD
  5
FEBE
330
1
100
AcDbSymbolTableRecord
100
AcDbBlockTableRecord
  2
*X28
  0
BLOCK_RECORD
  5
FF0F
330
1
100
AcDbSymbolTableRecord
100
AcDbBlockTableRecord
  2
*X29
  0
BLOCK_RECORD
  5
FF4C
330
1
100
AcDbSymbolTableRecord
100
AcDbBlockTableRecord
  2
*X30
  0
BLOCK_RECORD
  5
FF8C
330
1
100
AcDbSymbolTableRecord
100
AcDbBlockTableRecord
  2
*X31
  0
ENDTAB
  0
ENDSEC
  0
SECTION
  2
BLOCKS
  0
BLOCK
  5
19
330
18
100
AcDbEntity
  8
0
100
AcDbBlockBegin
  2
*MODEL_SPACE
 70
     0
 10
0.0
 20
0.0
 30
0.0
  3
*MODEL_SPACE
  1

  0
ENDBLK
  5
1A
330
18
100
AcDbEntity
  8
0
100
AcDbBlockEnd
  0
BLOCK
  5
16
330
15
100
AcDbEntity
 67
     1
  8
0
100
AcDbBlockBegin
  2
*PAPER_SPACE
 70
     0
 10
0.0
 20
0.0
 30
0.0
  3
*PAPER_SPACE
  1

  0
ENDBLK
  5
17
330
15
100
AcDbEntity
 67
     1
  8
0
100
AcDbBlockEnd
  0
BLOCK
  5
43
330
42
100
AcDbEntity
  8
0
100
AcDbBlockBegin
  2
_OPEN30
 70
     0
 10
0.0
 20
0.0
 30
0.0
  3
_OPEN30
  1

  0
LINE
  5
44
330
42
100
AcDbEntity
  8
0
  6
BYBLOCK
 62
     0
100
AcDbLine
 10
-1.0
 20
0.26794919
 30
0.0
 11
0.0
 21
0.0
 31
0.0
  0
LINE
  5
45
330
42
100
AcDbEntity
  8
0
  6
BYBLOCK
 62
     0
100
AcDbLine
 10
0.0
 20
0.0
 30
0.0
 11
-1.0
 21
-0.26794919
 31
0.0
  0
LINE
  5
46
330
42
100
AcDbEntity
  8
0
  6
BYBLOCK
 62
     0
100
AcDbLine
 10
0.0
 20
0.0
 30
0.0
 11
-1.0
 21
0.0
 31
0.0
  0
ENDBLK
  5
47
330
42
100
AcDbEntity
  8
0
100
AcDbBlockEnd
  0
BLOCK
  5
AA56
330
A333
100
AcDbEntity
  8
0
100
AcDbBlockBegin
  2
A3WAKUKAWAJUN2017_HYOUDAI_
 70
     0
 10
0.0
 20
0.0
 30
0.0
  3
A3WAKUKAWAJUN2017_HYOUDAI_
  1

  0
LINE
  5
A335
330
A333
100
AcDbEntity
  8
0
100
AcDbLine
 10
13.26299999998673
 20
-0.0001000000000317
 30
0.0
 11
9.236999999990758
 21
8.999899999990987
 31
0.0
1001
ACAD
1000
ASC_BOUNDS
1002
{
1070
    19
1005
A376
1002
}
  0
LINE
  5
A336
330
A333
100
AcDbEntity
  8
0
100
AcDbLine
 10
5.657999999994331
 20
0.9999999999989768
 30
0.0
 11
9.236999999990758
 21
8.999999999991019
 31
0.0
1001
ACAD
1000
ASC_BOUNDS
1002
{
1070
    19
1005
A376
1002
}
  0
LINE
  5
A337
330
A333
100
AcDbEntity
  8
0
100
AcDbLine
 10
18.59199999998134
 20
-0.2368999999997641
 30
0.0
 11
16.46099999998353
 21
5.432899999994561
 31
0.0
1001
ACAD
1000
ASC_BOUNDS
1002
{
1070
    19
1005
A377
1002
}
  0
LINE
  5
A338
330
A333
100
AcDbEntity
  8
0
100
AcDbLine
 10
18.59199999998134
 20
-0.2368999999997641
 30
0.0
 11
22.38199999997767
 21
8.763099999991255
 31
0.0
1001
ACAD
1000
ASC_BOUNDS
1002
{
1070
    19
1005
A377
1002
}
  0
LINE
  5
A339
330
A333
100
AcDbEntity
  8
0
100
AcDbLine
 10
14.32899999998563
 20
-0.2368999999997641
 30
0.0
 11
16.46099999998353
 21
5.432899999994561
 31
0.0
1001
ACAD
1000
ASC_BOUNDS
1002
{
1070
    19
1005
A377
1002
}
  0
LINE
  5
A33A
330
A333
100
AcDbEntity
  8
0
100
AcDbLine
 10
14.32899999998563
 20
-0.2368999999997641
 30
0.0
 11
10.53899999998941
 21
8.763099999991255
 31
0.0
1001
ACAD
1000
ASC_BOUNDS
1002
{
1070
    19
1005
A377
1002
}
  0
LINE
  5
A33B
330
A333
100
AcDbEntity
  8
0
100
AcDbLine
 10
19.53899999998043
 20
-0.0001000000000317
 30
0.0
 11
23.56599999997638
 21
8.999899999990987
 31
0.0
1001
ACAD
1000
ASC_BOUNDS
1002
{
1070
    19
1005
A378
1002
}
  0
LINE
  5
A33C
330
A333
100
AcDbEntity
  8
0
100
AcDbLine
 10
26.97358892824991
 20
1.383099999991202
 30
0.0
 11
23.56599999997638
 21
8.999899999990987
 31
0.0
1001
ACAD
1000
ASC_BOUNDS
1002
{
1070
    19
1005
A378
1002
}
  0
LINE
  5
A33D
330
A333
100
AcDbEntity
  8
0
100
AcDbLine
 10
5.657999999994331
 20
0.9999999999989768
 30
0.0
 11
3.181999999996833
 21
4.668599999995308
 31
0.0
1001
ACAD
1000
ASC_BOUNDS
1002
{
1070
    19
1005
A376
1002
}
  0
LINE
  5
A33E
330
A333
100
AcDbEntity
  8
0
100
AcDbLine
 10
4.617999999995391
 20
-0.0001000000000317
 30
0.0
 11
1.420999999998571
 21
4.736799999995242
 31
0.0
1001
ACAD
1000
ASC_BOUNDS
1002
{
1070
    19
1005
A376
1002
}
  0
LINE
  5
A33F
330
A333
100
AcDbEntity
  8
0
100
AcDbLine
 10
1.420999999998571
 20
8.763099999991255
 30
0.0
 11
1.420999999998571
 21
0.0
 31
0.0
1001
ACAD
1000
ASC_BOUNDS
1002
{
1070
    19
1005
A37B
1002
}
  0
LINE
  5
A340
330
A333
100
AcDbEntity
  8
0
100
AcDbLine
 10
0.0
 20
8.763099999991255
 30
0.0
 11
0.0
 21
0.0
 31
0.0
1001
ACAD
1000
ASC_BOUNDS
1002
{
1070
    19
1005
A37B
1002
}
  0
LINE
  5
A341
330
A333
100
AcDbEntity
  8
0
100
AcDbLine
 10
6.766999999993232
 20
-0.0001000000000317
 30
0.0
 11
7.826999999992154
 21
2.368399999997621
 31
0.0
1001
ACAD
1000
ASC_BOUNDS
1002
{
1070
    19
1005
A376
1002
}
  0
LINE
  5
A342
330
A333
100
AcDbEntity
  8
0
100
AcDbLine
 10
0.0
 20
0.0
 30
0.0
 11
1.420999999998571
 21
0.0
 31
0.0
1001
ACAD
1000
ASC_BOUNDS
1002
{
1070
    19
1005
A37B
1002
}
  0
LINE
  5
A343
330
A333
100
AcDbEntity
  8
0
100
AcDbLine
 10
4.617999999995391
 20
0.0
 30
0.0
 11
6.766999999993232
 21
0.0
 31
0.0
1001
ACAD
1000
ASC_BOUNDS
1002
{
1070
    19
1005
A376
1002
}
  0
LINE
  5
A344
330
A333
100
AcDbEntity
  8
0
100
AcDbLine
 10
11.70599999998831
 20
-0.0001000000000317
 30
0.0
 11
10.64699999998936
 21
2.368399999997621
 31
0.0
1001
ACAD
1000
ASC_BOUNDS
1002
{
1070
    19
1005
A376
1002
}
  0
LINE
  5
A345
330
A333
100
AcDbEntity
  8
0
100
AcDbLine
 10
7.826999999992154
 20
2.368399999997621
 30
0.0
 11
10.64699999998936
 21
2.368399999997621
 31
0.0
1001
ACAD
1000
ASC_BOUNDS
1002
{
1070
    19
1005
A376
1002
}
  0
LINE
  5
A346
330
A333
100
AcDbEntity
  8
0
100
AcDbLine
 10
11.70599999998831
 20
0.0
 30
0.0
 11
13.26299999998673
 21
0.0
 31
0.0
1001
ACAD
1000
ASC_BOUNDS
1002
{
1070
    19
1005
A376
1002
}
  0
LINE
  5
A347
330
A333
100
AcDbEntity
  8
0
100
AcDbLine
 10
22.15599999997789
 20
2.368399999997621
 30
0.0
 11
24.97599999997499
 21
2.368399999997621
 31
0.0
1001
ACAD
1000
ASC_BOUNDS
1002
{
1070
    19
1005
A378
1002
}
  0
LINE
  5
A348
330
A333
100
AcDbEntity
  8
0
100
AcDbLine
 10
19.53899999998043
 20
0.0
 30
0.0
 11
21.09599999997886
 21
0.0
 31
0.0
1001
ACAD
1000
ASC_BOUNDS
1002
{
1070
    19
1005
A378
1002
}
  0
LINE
  5
A349
330
A333
100
AcDbEntity
  8
0
100
AcDbLine
 10
21.09599999997886
 20
-0.0001000000000317
 30
0.0
 11
22.15599999997789
 21
2.368399999997621
 31
0.0
1001
ACAD
1000
ASC_BOUNDS
1002
{
1070
    19
1005
A378
1002
}
  0
LINE
  5
A34A
330
A333
100
AcDbEntity
  8
0
100
AcDbLine
 10
26.02015566812236
 20
0.0330999999912365
 30
0.0
 11
24.97599999997499
 21
2.368399999997621
 31
0.0
1001
ACAD
1000
ASC_BOUNDS
1002
{
1070
    19
1005
A378
1002
}
  0
LINE
  5
A34B
330
A333
100
AcDbEntity
  8
0
100
AcDbLine
 10
14.32399999998563
 20
3.315799999996671
 30
0.0
 11
16.46099999998353
 21
8.999899999990987
 31
0.0
1001
ACAD
1000
ASC_BOUNDS
1002
{
1070
    19
1005
A377
1002
}
  0
LINE
  5
A34C
330
A333
100
AcDbEntity
  8
0
100
AcDbLine
 10
6.432999999993513
 20
8.763099999991255
 30
0.0
 11
3.181999999996833
 21
4.668599999995308
 31
0.0
1001
ACAD
1000
ASC_BOUNDS
1002
{
1070
    19
1005
A376
1002
}
  0
LINE
  5
A34D
330
A333
100
AcDbEntity
  8
0
100
AcDbLine
 10
4.617999999995391
 20
8.763099999991255
 30
0.0
 11
1.420999999998571
 21
4.736799999995242
 31
0.0
1001
ACAD
1000
ASC_BOUNDS
1002
{
1070
    19
1005
A376
1002
}
  0
LINE
  5
A34E
330
A333
100
AcDbEntity
  8
0
100
AcDbLine
 10
0.0
 20
8.763099999991255
 30
0.0
 11
1.420999999998571
 21
8.763099999991255
 31
0.0
1001
ACAD
1000
ASC_BOUNDS
1002
{
1070
    19
1005
A37B
1002
}
  0
LINE
  5
A34F
330
A333
100
AcDbEntity
  8
0
100
AcDbLine
 10
4.617999999995391
 20
8.763099999991255
 30
0.0
 11
6.432999999993513
 21
8.763099999991255
 31
0.0
1001
ACAD
1000
ASC_BOUNDS
1002
{
1070
    19
1005
A376
1002
}
  0
LINE
  5
A350
330
A333
100
AcDbEntity
  8
0
100
AcDbLine
 10
14.32399999998563
 20
3.315799999996671
 30
0.0
 11
12.02999999998792
 21
8.763099999991255
 31
0.0
1001
ACAD
1000
ASC_BOUNDS
1002
{
1070
    19
1005
A377
1002
}
  0
LINE
  5
A351
330
A333
100
AcDbEntity
  8
0
100
AcDbLine
 10
10.06399999998996
 20
3.670999999996297
 30
0.0
 11
9.236999999990758
 21
5.5200999999945
 31
0.0
1001
ACAD
1000
ASC_BOUNDS
1002
{
1070
    19
1005
A376
1002
}
  0
LINE
  5
A352
330
A333
100
AcDbEntity
  8
0
100
AcDbLine
 10
8.409999999991555
 20
3.670999999996297
 30
0.0
 11
9.236999999990758
 21
5.5200999999945
 31
0.0
1001
ACAD
1000
ASC_BOUNDS
1002
{
1070
    19
1005
A376
1002
}
  0
LINE
  5
A353
330
A333
100
AcDbEntity
  8
0
100
AcDbLine
 10
8.409999999991555
 20
3.670999999996297
 30
0.0
 11
10.06399999998996
 21
3.670999999996297
 31
0.0
1001
ACAD
1000
ASC_BOUNDS
1002
{
1070
    19
1005
A376
1002
}
  0
LINE
  5
A354
330
A333
100
AcDbEntity
  8
0
100
AcDbLine
 10
10.53899999998941
 20
8.763099999991255
 30
0.0
 11
12.02999999998792
 21
8.763099999991255
 31
0.0
1001
ACAD
1000
ASC_BOUNDS
1002
{
1070
    19
1005
A377
1002
}
  0
LINE
  5
A355
330
A333
100
AcDbEntity
  8
0
100
AcDbLine
 10
22.7389999999773
 20
3.670999999996297
 30
0.0
 11
23.56599999997638
 21
5.5200999999945
 31
0.0
1001
ACAD
1000
ASC_BOUNDS
1002
{
1070
    19
1005
A378
1002
}
  0
LINE
  5
A356
330
A333
100
AcDbEntity
  8
0
100
AcDbLine
 10
22.7389999999773
 20
3.670999999996297
 30
0.0
 11
24.39299999997559
 21
3.670999999996297
 31
0.0
1001
ACAD
1000
ASC_BOUNDS
1002
{
1070
    19
1005
A378
1002
}
  0
LINE
  5
A357
330
A333
100
AcDbEntity
  8
0
100
AcDbLine
 10
18.59799999998143
 20
3.315799999996671
 30
0.0
 11
20.89099999997916
 21
8.763099999991255
 31
0.0
1001
ACAD
1000
ASC_BOUNDS
1002
{
1070
    19
1005
A377
1002
}
  0
LINE
  5
A358
330
A333
100
AcDbEntity
  8
0
100
AcDbLine
 10
18.59799999998143
 20
3.315799999996671
 30
0.0
 11
16.46099999998353
 21
8.999899999990987
 31
0.0
1001
ACAD
1000
ASC_BOUNDS
1002
{
1070
    19
1005
A377
1002
}
  0
LINE
  5
A359
330
A333
100
AcDbEntity
  8
0
100
AcDbLine
 10
20.89099999997916
 20
8.763099999991255
 30
0.0
 11
22.38199999997767
 21
8.763099999991255
 31
0.0
1001
ACAD
1000
ASC_BOUNDS
1002
{
1070
    19
1005
A377
1002
}
  0
LINE
  5
A35A
330
A333
100
AcDbEntity
  8
0
100
AcDbLine
 10
24.39299999997559
 20
3.670999999996297
 30
0.0
 11
23.56599999997638
 21
5.5200999999945
 31
0.0
1001
ACAD
1000
ASC_BOUNDS
1002
{
1070
    19
1005
A378
1002
}
  0
LINE
  5
A35B
330
A333
100
AcDbEntity
  8
0
100
AcDbLine
 10
44.99999999995498
 20
-0.2368999999997641
 30
0.0
 11
40.02599999995994
 21
5.341799999994635
 31
0.0
1001
ACAD
1000
ASC_BOUNDS
1002
{
1070
    19
1005
A37A
1002
}
  0
LINE
  5
A35C
330
A333
100
AcDbEntity
  8
0
100
AcDbLine
 10
40.02599999995994
 20
5.341799999994635
 30
0.0
 11
40.02599999995994
 21
0.0
 31
0.0
1001
ACAD
1000
ASC_BOUNDS
1002
{
1070
    19
1005
A37A
1002
}
  0
LINE
  5
A35D
330
A333
100
AcDbEntity
  8
0
100
AcDbLine
 10
38.60499999996136
 20
8.999999999991019
 30
0.0
 11
38.60499999996136
 21
0.0
 31
0.0
1001
ACAD
1000
ASC_BOUNDS
1002
{
1070
    19
1005
A37A
1002
}
  0
LINE
  5
A35E
330
A333
100
AcDbEntity
  8
0
100
AcDbLine
 10
44.99999999995498
 20
8.763099999991255
 30
0.0
 11
44.99999999995498
 21
-0.2368999999997641
 31
0.0
1001
ACAD
1000
ASC_BOUNDS
1002
{
1070
    19
1005
A37A
1002
}
  0
LINE
  5
A35F
330
A333
100
AcDbEntity
  8
0
100
AcDbLine
 10
38.60499999996136
 20
0.0
 30
0.0
 11
40.02599999995994
 21
0.0
 31
0.0
1001
ACAD
1000
ASC_BOUNDS
1002
{
1070
    19
1005
A37A
1002
}
  0
LINE
  5
A360
330
A333
100
AcDbEntity
  8
0
100
AcDbLine
 10
43.57899999995641
 20
3.421199999996588
 30
0.0
 11
38.60499999996136
 21
8.999899999990987
 31
0.0
1001
ACAD
1000
ASC_BOUNDS
1002
{
1070
    19
1005
A37A
1002
}
  0
LINE
  5
A361
330
A333
100
AcDbEntity
  8
0
100
AcDbLine
 10
43.57899999995641
 20
8.763099999991255
 30
0.0
 11
43.57899999995641
 21
3.421199999996588
 31
0.0
1001
ACAD
1000
ASC_BOUNDS
1002
{
1070
    19
1005
A37A
1002
}
  0
LINE
  5
A362
330
A333
100
AcDbEntity
  8
0
100
AcDbLine
 10
43.57899999995641
 20
8.763099999991255
 30
0.0
 11
44.99999999995498
 21
8.763099999991255
 31
0.0
1001
ACAD
1000
ASC_BOUNDS
1002
{
1070
    19
1005
A37A
1002
}
  0
LINE
  5
A363
330
A333
100
AcDbEntity
  8
0
100
AcDbLine
 10
37.67199999996831
 20
8.763099999991255
 30
0.0
 11
36.23199999996837
 21
8.763099999991255
 31
0.0
  0
LINE
  5
A364
330
A333
100
AcDbEntity
  8
0
100
AcDbLine
 10
31.64199999996833
 20
8.763099999991255
 30
0.0
 11
31.64199999996833
 21
2.481619422925121
 31
0.0
  0
LINE
  5
A365
330
A333
100
AcDbEntity
  8
0
100
AcDbLine
 10
37.67199999996831
 20
8.763099999991255
 30
0.0
 11
37.67199999996831
 21
2.481619422925121
 31
0.0
  0
LINE
  5
A366
330
A333
100
AcDbEntity
  8
0
100
AcDbLine
 10
36.23199999996837
 20
8.763099999991255
 30
0.0
 11
36.23199999996837
 21
2.481619422925064
 31
0.0
  0
LINE
  5
A367
330
A333
100
AcDbEntity
  8
0
100
AcDbLine
 10
33.08199999996839
 20
8.763099999991255
 30
0.0
 11
33.08199999996839
 21
2.481619422925121
 31
0.0
  0
ARC
  5
A368
330
A333
100
AcDbEntity
  8
0
100
AcDbCircle
 10
34.65699999996832
 20
3.183099999991214
 30
0.0
 40
3.420000000000007
100
AcDbArc
 50
240.0000000000255
 51
299.9999999999766
  0
ARC
  5
A369
330
A333
100
AcDbEntity
  8
0
100
AcDbCircle
 10
34.65699999996832
 20
3.183099999991214
 30
0.0
 40
1.97999999999999
100
AcDbArc
 50
240.000000000026
 51
299.9999999999703
  0
LINE
  5
A36A
330
A333
100
AcDbEntity
  8
0
100
AcDbLine
 10
33.08199999996828
 20
8.763099999991255
 30
0.0
 11
31.64199999996833
 21
8.763099999991255
 31
0.0
  0
ARC
  5
A36B
330
A333
100
AcDbEntity
  8
0
100
AcDbCircle
 10
35.06199999996829
 20
2.481619422925064
 30
0.0
 40
1.17
100
AcDbArc
 50
299.9999999999699
 51
0.0
  0
ARC
  5
A36C
330
A333
100
AcDbEntity
  8
0
100
AcDbCircle
 10
34.25199999996835
 20
2.481619422925121
 30
0.0
 40
1.17
100
AcDbArc
 50
180.0
 51
240.0000000000238
  0
ARC
  5
A36D
330
A333
100
AcDbEntity
  8
0
100
AcDbCircle
 10
35.06199999996841
 20
2.481619422925121
 30
0.0
 40
2.61
100
AcDbArc
 50
299.9999999999756
 51
0.0
  0
ARC
  5
A36E
330
A333
100
AcDbEntity
  8
0
100
AcDbCircle
 10
34.25199999996835
 20
2.481619422925121
 30
0.0
 40
2.61
100
AcDbArc
 50
180.0
 51
240.0000000000244
  0
LINE
  5
A36F
330
A333
100
AcDbEntity
  8
0
100
AcDbLine
 10
29.30199999996933
 20
8.763099999991255
 30
0.0
 11
30.74199999996927
 21
8.763099999991255
 31
0.0
1001
ACAD
1000
ASC_BOUNDS
1002
{
1070
    19
1005
A378
1002
}
  0
LINE
  5
A370
330
A333
100
AcDbEntity
  8
0
100
AcDbLine
 10
30.74199999996927
 20
8.763099999991255
 30
0.0
 11
30.74199999996927
 21
2.373099999991211
 31
0.0
1001
ACAD
1000
ASC_BOUNDS
1002
{
1070
    19
1005
A378
1002
}
  0
LINE
  5
A371
330
A333
100
AcDbEntity
  8
0
100
AcDbLine
 10
26.02015566812236
 20
0.0330999999912365
 30
0.0
 11
28.40199999996923
 21
0.0330999999912365
 31
0.0
1001
ACAD
1000
ASC_BOUNDS
1002
{
1070
    19
1005
A378
1002
}
  0
LINE
  5
A372
330
A333
100
AcDbEntity
  8
0
100
AcDbLine
 10
29.30199999996933
 20
8.763099999991255
 30
0.0
 11
29.30199999996933
 21
2.283099999991236
 31
0.0
1001
ACAD
1000
ASC_BOUNDS
1002
{
1070
    19
1005
A378
1002
}
  0
LINE
  5
A373
330
A333
100
AcDbEntity
  8
0
100
AcDbLine
 10
26.97358892824991
 20
1.383099999991202
 30
0.0
 11
28.40199999996923
 21
1.383099999991202
 31
0.0
1001
ACAD
1000
ASC_BOUNDS
1002
{
1070
    19
1005
A378
1002
}
  0
ARC
  5
A374
330
A333
100
AcDbEntity
  8
0
100
AcDbCircle
 10
28.40199999996923
 20
2.283099999991236
 30
0.0
 40
0.9
100
AcDbArc
 50
270.0
 51
0.0
1001
ACAD
1000
ASC_BOUNDS
1002
{
1070
    19
1005
A378
1002
}
  0
ARC
  5
A375
330
A333
100
AcDbEntity
  8
0
100
AcDbCircle
 10
28.40199999996923
 20
2.373099999991211
 30
0.0
 40
2.34
100
AcDbArc
 50
270.0
 51
0.0
1001
ACAD
1000
ASC_BOUNDS
1002
{
1070
    19
1005
A378
1002
}
  0
INSERT
  5
A376
330
A333
100
AcDbEntity
  8
0
100
AcDbBlockReference
  2
*X26
 10
0.0
 20
0.0
 30
0.0
1001
ACAD
1000
HATCH
1002
{
1070
    19
1000
ANSI37
1040
0.15
1040
0.0
1000
ASC_BOUNDS
1070
     2
1070
     2
1070
    12
1005
A335
1005
A336
1005
A33D
1005
A34C
1005
A34F
1005
A34D
1005
A33E
1005
A343
1005
A341
1005
A345
1005
A344
1005
A346
1070
     2
1070
     3
1005
A351
1005
A353
1005
A352
1000
ASC_SEEDPOINT
1011
3.614004224891801
1021
2.996669441146025
1031
0.0
1000
R14_HATCH_DATA
1000
A376
1011
1.0
1021
0.0
1031
0.0
1011
0.0
1021
1.0
1031
0.0
1011
0.0
1021
0.0
1031
1.0
1040
0.0
1010
0.0
1020
0.0
1030
1.0
1000
ANSI37
1070
     0
1070
     1
1071
        2
1071
        7
1070
     0
1070
     1
1071
       17
1040
13.26299999998673
1040
-0.0001000000000317
1040
9.236999999990758
1040
8.999899999990987
1040
9.236999999990758
1040
8.999999999991019
1040
5.657999999994331
1040
0.9999999999989768
1040
3.181999999996833
1040
4.668599999995308
1040
6.432999999993513
1040
8.763099999991255
1040
4.617999999995391
1040
8.763099999991255
1040
1.420999999998571
1040
4.736799999995242
1040
4.617999999995391
1040
-0.0001000000000317
1040
4.617999999995391
1040
0.0
1040
6.766999999993232
1040
0.0
1040
6.766999999993232
1040
-0.0001000000000317
1040
7.826999999992154
1040
2.368399999997621
1040
10.64699999998936
1040
2.368399999997621
1040
11.70599999998831
1040
-0.0001000000000317
1040
11.70599999998831
1040
0.0
1040
13.26299999998673
1040
0.0
1071
       12
1005
A335
1005
A336
1005
A33D
1005
A34C
1005
A34F
1005
A34D
1005
A33E
1005
A343
1005
A341
1005
A345
1005
A344
1005
A346
1071
       22
1070
     0
1070
     1
1071
        3
1040
9.236999999990758
1040
5.5200999999945
1040
10.06399999998996
1040
3.670999999996297
1040
8.409999999991555
1040
3.670999999996297
1071
        3
1005
A351
1005
A353
1005
A352
1070
     0
1070
     1
1040
0.0
1040
0.15
1070
     0
1070
     2
1040
0.7853981633974483
1040
49.29960901727088
1040
-10.17736998311392
1040
-0.3367596045400932
1040
0.3367596045400932
1070
     0
1040
2.356194490192345
1040
49.29960901727088
1040
-10.17736998311392
1040
-0.3367596045400932
1040
-0.3367596045400932
1070
     0
1040
0.0110235143455945
1071
        2
1040
3.614004224891801
1040
2.996669441146025
1040
0.0
1040
3.614004224891801
1040
2.996669441146025
1040
0.0
1002
}
  0
INSERT
  5
A377
330
A333
100
AcDbEntity
  8
0
100
AcDbBlockReference
  2
*X27
 10
0.0
 20
0.0
 30
0.0
1001
ACAD
1000
HATCH
1002
{
1070
    19
1000
ANSI37
1040
0.15
1040
0.0
1000
ASC_BOUNDS
1070
     1
1070
     2
1070
    10
1005
A337
1005
A338
1005
A359
1005
A357
1005
A358
1005
A34B
1005
A350
1005
A354
1005
A33A
1005
A339
1000
ASC_SEEDPOINT
1011
14.73245321214324
1021
2.798246178283421
1031
0.0
1000
R14_HATCH_DATA
1000
A377
1011
1.0
1021
0.0
1031
0.0
1011
0.0
1021
1.0
1031
0.0
1011
0.0
1021
0.0
1031
1.0
1040
0.0
1010
0.0
1020
0.0
1030
1.0
1000
ANSI37
1070
     0
1070
     1
1071
        1
1071
        7
1070
     0
1070
     1
1071
       10
1040
16.46099999998353
1040
5.432899999994561
1040
18.59199999998134
1040
-0.2368999999997641
1040
22.38199999997767
1040
8.763099999991255
1040
20.89099999997916
1040
8.763099999991255
1040
18.59799999998143
1040
3.315799999996671
1040
16.46099999998353
1040
8.999899999990987
1040
14.32399999998563
1040
3.315799999996671
1040
12.02999999998792
1040
8.763099999991255
1040
10.53899999998941
1040
8.763099999991255
1040
14.32899999998563
1040
-0.2368999999997641
1071
       10
1005
A337
1005
A338
1005
A359
1005
A357
1005
A358
1005
A34B
1005
A350
1005
A354
1005
A33A
1005
A339
1070
     0
1070
     1
1040
0.0
1040
0.15
1070
     0
1070
     2
1040
0.7853981633974483
1040
49.29960901727088
1040
-10.17736998311392
1040
-0.3367596045400932
1040
0.3367596045400932
1070
     0
1040
2.356194490192345
1040
49.29960901727088
1040
-10.17736998311392
1040
-0.3367596045400932
1040
-0.3367596045400932
1070
     0
1040
0.0110235143455945
1071
        1
1040
14.73245321214324
1040
2.798246178283421
1040
0.0
1002
}
  0
INSERT
  5
A378
330
A333
100
AcDbEntity
  8
0
100
AcDbBlockReference
  2
*X28
 10
0.0
 20
0.0
 30
0.0
1001
ACAD
1000
HATCH
1002
{
1070
    19
1000
ANSI37
1040
0.15
1040
0.0
1000
ASC_BOUNDS
1070
     2
1070
     2
1070
    13
1005
A33B
1005
A348
1005
A349
1005
A347
1005
A34A
1005
A371
1005
A375
1005
A370
1005
A36F
1005
A372
1005
A374
1005
A373
1005
A33C
1070
     2
1070
     3
1005
A355
1005
A35A
1005
A356
1000
ASC_SEEDPOINT
1011
21.97929957367762
1021
3.294304244259308
1031
0.0
1000
R14_HATCH_DATA
1000
A378
1011
1.0
1021
0.0
1031
0.0
1011
0.0
1021
1.0
1031
0.0
1011
0.0
1021
0.0
1031
1.0
1040
0.0
1010
0.0
1020
0.0
1030
1.0
1000
ANSI37
1070
     0
1070
     1
1071
        2
1071
        7
1070
     1
1070
     1
1071
       15
1040
23.56599999997638
1040
8.999899999990987
1040
0.0
1040
19.53899999998043
1040
-0.0001000000000317
1040
0.0
1040
19.53899999998043
1040
0.0
1040
0.0
1040
21.09599999997886
1040
0.0
1040
0.0
1040
21.09599999997886
1040
-0.0001000000000317
1040
0.0
1040
22.15599999997789
1040
2.368399999997621
1040
0.0
1040
24.97599999997499
1040
2.368399999997621
1040
0.0
1040
26.02015566812236
1040
0.0330999999912365
1040
0.0
1040
28.40199999996923
1040
0.0330999999912365
1040
0.414213562373095
1040
30.74199999996923
1040
2.373099999991211
1040
0.0
1040
30.74199999996927
1040
8.763099999991255
1040
0.0
1040
29.30199999996933
1040
8.763099999991255
1040
0.0
1040
29.30199999996933
1040
2.283099999991236
1040
-0.414213562373095
1040
28.40199999996923
1040
1.383099999991237
1040
0.0
1040
26.97358892824991
1040
1.383099999991202
1040
0.0
1071
       13
1005
A33B
1005
A348
1005
A349
1005
A347
1005
A34A
1005
A371
1005
A375
1005
A370
1005
A36F
1005
A372
1005
A374
1005
A373
1005
A33C
1071
       22
1070
     0
1070
     1
1071
        3
1040
22.7389999999773
1040
3.670999999996297
1040
23.56599999997638
1040
5.5200999999945
1040
24.39299999997559
1040
3.670999999996297
1071
        3
1005
A355
1005
A35A
1005
A356
1070
     0
1070
     1
1040
0.0
1040
0.15
1070
     0
1070
     2
1040
0.7853981633974483
1040
49.29960901727088
1040
-10.17736998311392
1040
-0.3367596045400932
1040
0.3367596045400932
1070
     0
1040
2.356194490192345
1040
49.29960901727088
1040
-10.17736998311392
1040
-0.3367596045400932
1040
-0.3367596045400932
1070
     0
1040
0.0110235143455945
1071
        2
1040
21.97929957367762
1040
3.294304244259308
1040
0.0
1040
21.97929957367762
1040
3.294304244259308
1040
0.0
1002
}
  0
INSERT
  5
A379
330
A333
100
AcDbEntity
  8
0
100
AcDbBlockReference
  2
*X29
 10
0.0
 20
0.0
 30
0.0
1001
ACAD
1000
HATCH
1002
{
1070
    19
1000
ANSI37
1040
0.15
1040
0.0
1000
R14_HATCH_DATA
1000
A379
1011
1.0
1021
0.0
1031
0.0
1011
0.0
1021
1.0
1031
0.0
1011
0.0
1021
0.0
1031
1.0
1040
0.0
1010
0.0
1020
0.0
1030
1.0
1000
ANSI37
1070
     0
1070
     1
1071
        1
1071
        7
1070
     1
1070
     1
1071
       12
1040
31.64199999996833
1040
2.481619422925121
1040
0.2679491924310942
1040
32.94699999997067
1040
0.2212931190493919
1040
0.2679491924301353
1040
36.36699999995983
1040
0.2212931190459813
1040
0.2679491924321411
1040
37.67199999996831
1040
2.481619422928361
1040
0.0
1040
37.67199999996831
1040
8.763099999991255
1040
0.0
1040
36.23199999996837
1040
8.763099999991255
1040
0.0
1040
36.23199999996837
1040
2.481619422925064
1040
-0.2679491924310291
1040
35.64699999996708
1040
1.468369700498386
1040
-0.267949192430519
1040
33.66699999997093
1040
1.468369700497703
1040
-0.267949192431809
1040
33.08199999996839
1040
2.481619422926997
1040
0.0
1040
33.08199999996839
1040
8.763099999991255
1040
0.0
1040
31.64199999996833
1040
8.763099999991255
1040
0.0
1071
        0
1070
     0
1070
     1
1040
0.0
1040
0.15
1070
     0
1070
     2
1040
0.7853981633974483
1040
49.29960901727088
1040
-10.17736998311392
1040
-0.3367596045400932
1040
0.3367596045400932
1070
     0
1040
2.356194490192345
1040
49.29960901727088
1040
-10.17736998311392
1040
-0.3367596045400932
1040
-0.3367596045400932
1070
     0
1040
0.0110235143455945
1071
        1
1040
32.30357378967278
1040
3.988785755459219
1040
0.0
1002
}
  0
INSERT
  5
A37A
330
A333
100
AcDbEntity
  8
0
100
AcDbBlockReference
  2
*X30
 10
0.0
 20
0.0
 30
0.0
1001
ACAD
1000
HATCH
1002
{
1070
    19
1000
ANSI37
1040
0.15
1040
0.0
1000
ASC_BOUNDS
1070
     1
1070
     2
1070
     8
1005
A35B
1005
A35E
1005
A362
1005
A361
1005
A360
1005
A35D
1005
A35F
1005
A35C
1000
ASC_SEEDPOINT
1011
39.74896370716704
1021
4.484843821435049
1031
0.0
1000
R14_HATCH_DATA
1000
A37A
1011
1.0
1021
0.0
1031
0.0
1011
0.0
1021
1.0
1031
0.0
1011
0.0
1021
0.0
1031
1.0
1040
0.0
1010
0.0
1020
0.0
1030
1.0
1000
ANSI37
1070
     0
1070
     1
1071
        1
1071
        7
1070
     0
1070
     1
1071
        9
1040
40.02599999995994
1040
5.341799999994635
1040
44.99999999995498
1040
-0.2368999999997641
1040
44.99999999995498
1040
8.763099999991255
1040
43.57899999995641
1040
8.763099999991255
1040
43.57899999995641
1040
3.421199999996588
1040
38.60499999996136
1040
8.999899999990987
1040
38.60499999996136
1040
8.999999999991019
1040
38.60499999996136
1040
0.0
1040
40.02599999995994
1040
0.0
1071
        8
1005
A35B
1005
A35E
1005
A362
1005
A361
1005
A360
1005
A35D
1005
A35F
1005
A35C
1070
     0
1070
     1
1040
0.0
1040
0.15
1070
     0
1070
     2
1040
0.7853981633974483
1040
49.29960901727088
1040
-10.17736998311392
1040
-0.3367596045400932
1040
0.3367596045400932
1070
     0
1040
2.356194490192345
1040
49.29960901727088
1040
-10.17736998311392
1040
-0.3367596045400932
1040
-0.3367596045400932
1070
     0
1040
0.0110235143455945
1071
        1
1040
39.74896370716704
1040
4.484843821435049
1040
0.0
1002
}
  0
INSERT
  5
A37B
330
A333
100
AcDbEntity
  8
0
100
AcDbBlockReference
  2
*X31
 10
0.0
 20
0.0
 30
0.0
1001
ACAD
1000
HATCH
1002
{
1070
    19
1000
ANSI37
1040
0.15
1040
0.0
1000
ASC_BOUNDS
1070
     1
1070
     2
1070
     4
1005
A33F
1005
A34E
1005
A340
1005
A342
1000
ASC_SEEDPOINT
1011
1.079051535452663
1021
4.148538732891836
1031
0.0
1000
R14_HATCH_DATA
1000
A37B
1011
1.0
1021
0.0
1031
0.0
1011
0.0
1021
1.0
1031
0.0
1011
0.0
1021
0.0
1031
1.0
1040
0.0
1010
0.0
1020
0.0
1030
1.0
1000
ANSI37
1070
     0
1070
     1
1071
        1
1071
        7
1070
     0
1070
     1
1071
        4
1040
1.420999999998571
1040
0.0
1040
1.420999999998571
1040
8.763099999991255
1040
0.0
1040
8.763099999991255
1040
0.0
1040
0.0
1071
        4
1005
A33F
1005
A34E
1005
A340
1005
A342
1070
     0
1070
     1
1040
0.0
1040
0.15
1070
     0
1070
     2
1040
0.7853981633974483
1040
49.29960901727088
1040
-10.17736998311392
1040
-0.3367596045400932
1040
0.3367596045400932
1070
     0
1040
2.356194490192345
1040
49.29960901727088
1040
-10.17736998311392
1040
-0.3367596045400932
1040
-0.3367596045400932
1070
     0
1040
0.0053004257112761
1071
        1
1040
1.079051535452663
1040
4.148538732891836
1040
0.0
1002
}
  0
ENDBLK
  5
AA57
330
A333
100
AcDbEntity
  8
0
100
AcDbBlockEnd
  0
BLOCK
  5
FFAC
330
FE1E
100
AcDbEntity
  8
0
100
AcDbBlockBegin
  2
*X26
 70
     1
 10
0.0
 20
0.0
 30
0.0
  3
*X26
  1

  0
LINE
  5
FE1F
330
FE1E
100
AcDbEntity
  8
0
  6
CONTINUOUS
100
AcDbLine
 10
3.418023043697893
 20
7.251849696850613
 30
0.0
 11
4.929273346838536
 21
8.763099999991255
 31
0.0
  0
LINE
  5
FE20
330
FE1E
100
AcDbEntity
  8
0
  6
CONTINUOUS
100
AcDbLine
 10
1.483656411257782
 20
4.643963855330318
 30
0.0
 11
5.60279255591872
 21
8.763099999991255
 31
0.0
  0
LINE
  5
FE21
330
FE1E
100
AcDbEntity
  8
0
  6
CONTINUOUS
100
AcDbLine
 10
1.755053947328235
 20
4.241842182320584
 30
0.0
 11
6.276311764998907
 21
8.763099999991255
 31
0.0
  0
LINE
  5
FE22
330
FE1E
100
AcDbEntity
  8
0
  6
CONTINUOUS
100
AcDbLine
 10
2.026451483398688
 20
3.839720509310849
 30
0.0
 11
4.441040904851878
 21
6.254309930764039
 31
0.0
  0
LINE
  5
FE23
330
FE1E
100
AcDbEntity
  8
0
  6
CONTINUOUS
100
AcDbLine
 10
2.297849019469139
 20
3.437598836301114
 30
0.0
 11
3.321765168359338
 21
4.461514985191313
 31
0.0
  0
LINE
  5
FE24
330
FE1E
100
AcDbEntity
  8
0
  6
CONTINUOUS
100
AcDbLine
 10
2.569246555539591
 20
3.03547716329138
 30
0.0
 11
3.593163397972743
 21
4.059394005724531
 31
0.0
  0
LINE
  5
FE25
330
FE1E
100
AcDbEntity
  8
0
  6
CONTINUOUS
100
AcDbLine
 10
2.840644091610043
 20
2.633355490281646
 30
0.0
 11
3.864561627586149
 21
3.657273026257751
 31
0.0
  0
LINE
  5
FE26
330
FE1E
100
AcDbEntity
  8
0
  6
CONTINUOUS
100
AcDbLine
 10
3.112041627680496
 20
2.231233817271911
 30
0.0
 11
4.135959857199554
 21
3.25515204679097
 31
0.0
  0
LINE
  5
FE27
330
FE1E
100
AcDbEntity
  8
0
  6
CONTINUOUS
100
AcDbLine
 10
3.383439163750948
 20
1.829112144262177
 30
0.0
 11
4.40735808681296
 21
2.853031067324189
 31
0.0
  0
LINE
  5
FE28
330
FE1E
100
AcDbEntity
  8
0
  6
CONTINUOUS
100
AcDbLine
 10
3.654836699821399
 20
1.426990471252442
 30
0.0
 11
4.678756316426365
 21
2.450910087857407
 31
0.0
  0
LINE
  5
FE29
330
FE1E
100
AcDbEntity
  8
0
  6
CONTINUOUS
100
AcDbLine
 10
3.926234235891853
 20
1.024868798242709
 30
0.0
 11
4.95015454603977
 21
2.048789108390626
 31
0.0
  0
LINE
  5
FE2A
330
FE1E
100
AcDbEntity
  8
0
  6
CONTINUOUS
100
AcDbLine
 10
4.197631771962304
 20
0.6227471252329737
 30
0.0
 11
5.221552775653176
 21
1.646668128923846
 31
0.0
  0
LINE
  5
FE2B
330
FE1E
100
AcDbEntity
  8
0
  6
CONTINUOUS
100
AcDbLine
 10
8.715877546767851
 20
7.835069736359266
 30
0.0
 11
9.435953450375058
 21
8.555145639966472
 31
0.0
  0
LINE
  5
FE2C
330
FE1E
100
AcDbEntity
  8
0
  6
CONTINUOUS
100
AcDbLine
 10
8.170620868422267
 20
6.616293848933497
 30
0.0
 11
9.644120833743461
 21
8.08979381425469
 31
0.0
  0
LINE
  5
FE2D
330
FE1E
100
AcDbEntity
  8
0
  6
CONTINUOUS
100
AcDbLine
 10
7.625364190076684
 20
5.397517961507727
 30
0.0
 11
9.852288217111864
 21
7.624441988542907
 31
0.0
  0
LINE
  5
FE2E
330
FE1E
100
AcDbEntity
  8
0
  6
CONTINUOUS
100
AcDbLine
 10
7.080107511731101
 20
4.178742074081957
 30
0.0
 11
10.06045560048027
 21
7.159090162831124
 31
0.0
  0
LINE
  5
FE2F
330
FE1E
100
AcDbEntity
  8
0
  6
CONTINUOUS
100
AcDbLine
 10
6.534850833385518
 20
2.959966186656187
 30
0.0
 11
10.26862298384867
 21
6.693738337119342
 31
0.0
  0
LINE
  5
FE30
330
FE1E
100
AcDbEntity
  8
0
  6
CONTINUOUS
100
AcDbLine
 10
4.469029308032756
 20
0.2206254522232385
 30
0.0
 11
5.492951005266582
 21
1.244547149457064
 31
0.0
  0
LINE
  5
FE31
330
FE1E
100
AcDbEntity
  8
0
  6
CONTINUOUS
100
AcDbLine
 10
5.989594155039935
 20
1.741190299230417
 30
0.0
 11
8.806950407233131
 21
4.558546551423613
 31
0.0
  0
LINE
  5
FE32
330
FE1E
100
AcDbEntity
  8
0
  6
CONTINUOUS
100
AcDbLine
 10
9.401251593263643
 20
5.152847737454126
 30
0.0
 11
10.47679036721708
 21
6.228386511407559
 31
0.0
  0
LINE
  5
FE33
330
FE1E
100
AcDbEntity
  8
0
  6
CONTINUOUS
100
AcDbLine
 10
4.921837203428691
 20
-0.0000858614610131
 30
0.0
 11
8.592923064886001
 21
3.670999999996297
 31
0.0
  0
LINE
  5
FE34
330
FE1E
100
AcDbEntity
  8
0
  6
CONTINUOUS
100
AcDbLine
 10
9.609390446785305
 20
4.6874673818956
 30
0.0
 11
10.68495775058548
 21
5.763034685695775
 31
0.0
  0
LINE
  5
FE35
330
FE1E
100
AcDbEntity
  8
0
  6
CONTINUOUS
100
AcDbLine
 10
5.595387755019432
 20
-0.0000545189504582
 30
0.0
 11
7.716137258923768
 21
2.120694984953879
 31
0.0
  0
LINE
  5
FE36
330
FE1E
100
AcDbEntity
  8
0
  6
CONTINUOUS
100
AcDbLine
 10
6.268938306610172
 20
-0.000023176439905
 30
0.0
 11
7.170485805526503
 21
0.9015243224764267
 31
0.0
  0
LINE
  5
FE37
330
FE1E
100
AcDbEntity
  8
0
  6
CONTINUOUS
100
AcDbLine
 10
7.963842273967511
 20
2.368399999997621
 30
0.0
 11
9.266442273966188
 21
3.670999999996297
 31
0.0
  0
LINE
  5
FE38
330
FE1E
100
AcDbEntity
  8
0
  6
CONTINUOUS
100
AcDbLine
 10
8.637361483047696
 20
2.368399999997621
 30
0.0
 11
9.939961483046375
 21
3.670999999996297
 31
0.0
  0
LINE
  5
FE39
330
FE1E
100
AcDbEntity
  8
0
  6
CONTINUOUS
100
AcDbLine
 10
9.817529300306965
 20
4.222087026337075
 30
0.0
 11
10.89312513395388
 21
5.297682859983993
 31
0.0
  0
LINE
  5
FE3A
330
FE1E
100
AcDbEntity
  8
0
  6
CONTINUOUS
100
AcDbLine
 10
10.02566815382863
 20
3.756706670778549
 30
0.0
 11
11.10129251732229
 21
4.832331034272211
 31
0.0
  0
LINE
  5
FE3B
330
FE1E
100
AcDbEntity
  8
0
  6
CONTINUOUS
100
AcDbLine
 10
9.310880692127883
 20
2.368399999997621
 30
0.0
 11
11.30945990069069
 21
4.366979208560428
 31
0.0
  0
LINE
  5
FE3C
330
FE1E
100
AcDbEntity
  8
0
  6
CONTINUOUS
100
AcDbLine
 10
9.98439990120807
 20
2.36839999999762
 30
0.0
 11
11.5176272840591
 21
3.901627382848645
 31
0.0
  0
LINE
  5
FE3D
330
FE1E
100
AcDbEntity
  8
0
  6
CONTINUOUS
100
AcDbLine
 10
10.65037369446246
 20
2.36085458417182
 30
0.0
 11
11.7257946674275
 21
3.436275557136862
 31
0.0
  0
LINE
  5
FE3E
330
FE1E
100
AcDbEntity
  8
0
  6
CONTINUOUS
100
AcDbLine
 10
10.85847197087848
 20
1.895433651507656
 30
0.0
 11
11.9339620507959
 21
2.97092373142508
 31
0.0
  0
LINE
  5
FE3F
330
FE1E
100
AcDbEntity
  8
0
  6
CONTINUOUS
100
AcDbLine
 10
11.0665702472945
 20
1.430012718843491
 30
0.0
 11
12.14212943416431
 21
2.505571905713296
 31
0.0
  0
LINE
  5
FE40
330
FE1E
100
AcDbEntity
  8
0
  6
CONTINUOUS
100
AcDbLine
 10
11.27466852371052
 20
0.9645917861793256
 30
0.0
 11
12.35029681753271
 21
2.040220080001513
 31
0.0
  0
LINE
  5
FE41
330
FE1E
100
AcDbEntity
  8
0
  6
CONTINUOUS
100
AcDbLine
 10
11.48276680012654
 20
0.4991708535151611
 30
0.0
 11
12.55846420090111
 21
1.57486825428973
 31
0.0
  0
LINE
  5
FE42
330
FE1E
100
AcDbEntity
  8
0
  6
CONTINUOUS
100
AcDbLine
 10
11.69086507654257
 20
0.0337499208509957
 30
0.0
 11
12.76663158426952
 21
1.109516428577947
 31
0.0
  0
LINE
  5
FE43
330
FE1E
100
AcDbEntity
  8
0
  6
CONTINUOUS
100
AcDbLine
 10
12.33057447873954
 20
-0.0000598860322123
 30
0.0
 11
12.97479896763792
 21
0.6441646028661663
 31
0.0
  0
LINE
  5
FE44
330
FE1E
100
AcDbEntity
  8
0
  6
CONTINUOUS
100
AcDbLine
 10
13.00413694809395
 20
-0.0000166257579952
 30
0.0
 11
13.18296635100632
 21
0.1788127771543824
 31
0.0
  0
LINE
  5
FE45
330
FE1E
100
AcDbEntity
  8
0
  6
CONTINUOUS
100
AcDbLine
 10
4.772852165289667
 20
-0.000092794222212
 30
0.0
 11
4.296495091028902
 21
0.4762642800385528
 31
0.0
  0
LINE
  5
FE46
330
FE1E
100
AcDbEntity
  8
0
  6
CONTINUOUS
100
AcDbLine
 10
5.446340034776103
 20
-0.0000614546284616
 30
0.0
 11
2.898195908335625
 21
2.548082671812017
 31
0.0
  0
LINE
  5
FE47
330
FE1E
100
AcDbEntity
  8
0
  6
CONTINUOUS
100
AcDbLine
 10
6.119827904262539
 20
-0.0000301150347113
 30
0.0
 11
1.499896725642348
 21
4.61990106358548
 31
0.0
  0
LINE
  5
FE48
330
FE1E
100
AcDbEntity
  8
0
  6
CONTINUOUS
100
AcDbLine
 10
6.775136745476159
 20
0.0181802528318542
 30
0.0
 11
5.699826040202669
 21
1.093490958105344
 31
0.0
  0
LINE
  5
FE49
330
FE1E
100
AcDbEntity
  8
0
  6
CONTINUOUS
100
AcDbLine
 10
6.983376846288489
 20
0.4834593610997118
 30
0.0
 11
5.908008617934405
 21
1.558827589453796
 31
0.0
  0
LINE
  5
FE4A
330
FE1E
100
AcDbEntity
  8
0
  6
CONTINUOUS
100
AcDbLine
 10
5.377063484962296
 20
1.416253513345719
 30
0.0
 11
1.702276957014131
 21
5.091040041293883
 31
0.0
  0
LINE
  5
FE4B
330
FE1E
100
AcDbEntity
  8
0
  6
CONTINUOUS
100
AcDbLine
 10
3.978745891735324
 20
3.488090315652877
 30
0.0
 11
2.000373521109399
 21
5.466462686278803
 31
0.0
  0
LINE
  5
FE4C
330
FE1E
100
AcDbEntity
  8
0
  6
CONTINUOUS
100
AcDbLine
 10
7.191616947100819
 20
0.948738469367568
 30
0.0
 11
6.11619119566614
 21
2.024164220802247
 31
0.0
  0
LINE
  5
FE4D
330
FE1E
100
AcDbEntity
  8
0
  6
CONTINUOUS
100
AcDbLine
 10
7.399857047913149
 20
1.414017577635424
 30
0.0
 11
6.324373773397875
 21
2.489500852150698
 31
0.0
  0
LINE
  5
FE4E
330
FE1E
100
AcDbEntity
  8
0
  6
CONTINUOUS
100
AcDbLine
 10
7.608097148725479
 20
1.879296685903281
 30
0.0
 11
6.53255635112961
 21
2.95483748349915
 31
0.0
  0
LINE
  5
FE4F
330
FE1E
100
AcDbEntity
  8
0
  6
CONTINUOUS
100
AcDbLine
 10
7.816337249537808
 20
2.344575794171138
 30
0.0
 11
6.740738928861345
 21
3.420174114847601
 31
0.0
  0
LINE
  5
FE50
330
FE1E
100
AcDbEntity
  8
0
  6
CONTINUOUS
100
AcDbLine
 10
3.310241080789734
 20
4.830114335678653
 30
0.0
 11
2.298470085204666
 21
5.84188533126372
 31
0.0
  0
LINE
  5
FE51
330
FE1E
100
AcDbEntity
  8
0
  6
CONTINUOUS
100
AcDbLine
 10
3.60832983563551
 20
5.205544789913063
 30
0.0
 11
2.596566649299935
 21
6.217307976248638
 31
0.0
  0
LINE
  5
FE52
330
FE1E
100
AcDbEntity
  8
0
  6
CONTINUOUS
100
AcDbLine
 10
3.906418590481286
 20
5.580975244147473
 30
0.0
 11
2.894663213395203
 21
6.592730621233557
 31
0.0
  0
LINE
  5
FE53
330
FE1E
100
AcDbEntity
  8
0
  6
CONTINUOUS
100
AcDbLine
 10
4.204507345327062
 20
5.956405698381884
 30
0.0
 11
3.192759777490472
 21
6.968153266218474
 31
0.0
  0
LINE
  5
FE54
330
FE1E
100
AcDbEntity
  8
0
  6
CONTINUOUS
100
AcDbLine
 10
8.466032252791512
 20
2.368399999997621
 30
0.0
 11
6.948921506593081
 21
3.885510746196053
 31
0.0
  0
LINE
  5
FE55
330
FE1E
100
AcDbEntity
  8
0
  6
CONTINUOUS
100
AcDbLine
 10
9.139551461871699
 20
2.36839999999762
 30
0.0
 11
7.157104084324816
 21
4.350847377544504
 31
0.0
  0
LINE
  5
FE56
330
FE1E
100
AcDbEntity
  8
0
  6
CONTINUOUS
100
AcDbLine
 10
4.502596100172839
 20
6.331836152616295
 30
0.0
 11
3.49085634158574
 21
7.343575911203393
 31
0.0
  0
LINE
  5
FE57
330
FE1E
100
AcDbEntity
  8
0
  6
CONTINUOUS
100
AcDbLine
 10
4.800684855018615
 20
6.707266606850705
 30
0.0
 11
3.788952905681008
 21
7.718998556188312
 31
0.0
  0
LINE
  5
FE58
330
FE1E
100
AcDbEntity
  8
0
  6
CONTINUOUS
100
AcDbLine
 10
12.18154012887317
 20
-0.0000694579236642
 30
0.0
 11
11.32140332908496
 21
0.8600673418645499
 31
0.0
  0
LINE
  5
FE59
330
FE1E
100
AcDbEntity
  8
0
  6
CONTINUOUS
100
AcDbLine
 10
12.85501608323566
 20
-0.0000262032059659
 30
0.0
 11
10.77672456435345
 21
2.078265315676246
 31
0.0
  0
LINE
  5
FE5A
330
FE1E
100
AcDbEntity
  8
0
  6
CONTINUOUS
100
AcDbLine
 10
9.813070670951886
 20
2.36839999999762
 30
0.0
 11
8.51047067095321
 21
3.670999999996297
 31
0.0
  0
LINE
  5
FE5B
330
FE1E
100
AcDbEntity
  8
0
  6
CONTINUOUS
100
AcDbLine
 10
10.48658988003207
 20
2.36839999999762
 30
0.0
 11
9.183989880033396
 21
3.670999999996297
 31
0.0
  0
LINE
  5
FE5C
330
FE1E
100
AcDbEntity
  8
0
  6
CONTINUOUS
100
AcDbLine
 10
8.441048632286794
 20
3.740422038662712
 30
0.0
 11
7.365286662056551
 21
4.816184008892956
 31
0.0
  0
LINE
  5
FE5D
330
FE1E
100
AcDbEntity
  8
0
  6
CONTINUOUS
100
AcDbLine
 10
8.649187485808454
 20
4.205802394221237
 30
0.0
 11
7.573469239788285
 21
5.281520640241407
 31
0.0
  0
LINE
  5
FE5E
330
FE1E
100
AcDbEntity
  8
0
  6
CONTINUOUS
100
AcDbLine
 10
5.098773609864391
 20
7.082697061085115
 30
0.0
 11
4.087049469776277
 21
8.09442120117323
 31
0.0
  0
LINE
  5
FE5F
330
FE1E
100
AcDbEntity
  8
0
  6
CONTINUOUS
100
AcDbLine
 10
5.396862364710167
 20
7.458127515319526
 30
0.0
 11
4.385146033871544
 21
8.469843846158149
 31
0.0
  0
LINE
  5
FE60
330
FE1E
100
AcDbEntity
  8
0
  6
CONTINUOUS
100
AcDbLine
 10
13.04801363231285
 20
0.4804954567970334
 30
0.0
 11
9.85750908911358
 21
3.670999999996297
 31
0.0
  0
LINE
  5
FE61
330
FE1E
100
AcDbEntity
  8
0
  6
CONTINUOUS
100
AcDbLine
 10
8.857326339330116
 20
4.671182749779763
 30
0.0
 11
7.781651817520021
 21
5.746857271589858
 31
0.0
  0
LINE
  5
FE62
330
FE1E
100
AcDbEntity
  8
0
  6
CONTINUOUS
100
AcDbLine
 10
5.694951119555943
 20
7.833557969553937
 30
0.0
 11
4.765409089118624
 21
8.763099999991255
 31
0.0
  0
LINE
  5
FE63
330
FE1E
100
AcDbEntity
  8
0
  6
CONTINUOUS
100
AcDbLine
 10
12.50286117236978
 20
1.699167125820288
 30
0.0
 11
9.68611877250287
 21
4.515909525687196
 31
0.0
  0
LINE
  5
FE64
330
FE1E
100
AcDbEntity
  8
0
  6
CONTINUOUS
100
AcDbLine
 10
9.065465192851777
 20
5.136563105338288
 30
0.0
 11
7.989834395251757
 21
6.21219390293831
 31
0.0
  0
LINE
  5
FE65
330
FE1E
100
AcDbEntity
  8
0
  6
CONTINUOUS
100
AcDbLine
 10
5.993039874401719
 20
8.208988423788346
 30
0.0
 11
5.43892829819881
 21
8.763099999991255
 31
0.0
  0
LINE
  5
FE66
330
FE1E
100
AcDbEntity
  8
0
  6
CONTINUOUS
100
AcDbLine
 10
11.95770871242671
 20
2.917838794843543
 30
0.0
 11
8.19801697298349
 21
6.677530534286761
 31
0.0
  0
LINE
  5
FE67
330
FE1E
100
AcDbEntity
  8
0
  6
CONTINUOUS
100
AcDbLine
 10
6.291128629247495
 20
8.584418878022756
 30
0.0
 11
6.112447507278997
 21
8.763099999991255
 31
0.0
  0
LINE
  5
FE68
330
FE1E
100
AcDbEntity
  8
0
  6
CONTINUOUS
100
AcDbLine
 10
11.41255625248364
 20
4.136510463866797
 30
0.0
 11
8.406199550715227
 21
7.142867165635211
 31
0.0
  0
LINE
  5
FE69
330
FE1E
100
AcDbEntity
  8
0
  6
CONTINUOUS
100
AcDbLine
 10
10.86740379254057
 20
5.355182132890051
 30
0.0
 11
8.614382128446962
 21
7.608203796983664
 31
0.0
  0
LINE
  5
FE6A
330
FE1E
100
AcDbEntity
  8
0
  6
CONTINUOUS
100
AcDbLine
 10
10.3222513325975
 20
6.573853801913305
 30
0.0
 11
8.822564706178696
 21
8.073540428332114
 31
0.0
  0
LINE
  5
FE6B
330
FE1E
100
AcDbEntity
  8
0
  6
CONTINUOUS
100
AcDbLine
 10
9.777098872654436
 20
7.792525470936562
 30
0.0
 11
9.030747283910433
 21
8.538877059680566
 31
0.0
  0
ENDBLK
  5
FFAD
330
FE1E
100
AcDbEntity
  8
0
100
AcDbBlockEnd
  0
BLOCK
  5
FFAE
330
FE6C
100
AcDbEntity
  8
0
100
AcDbBlockBegin
  2
*X27
 70
     1
 10
0.0
 20
0.0
 30
0.0
  3
*X27
  1

  0
LINE
  5
FE6D
330
FE6C
100
AcDbEntity
  8
0
  6
CONTINUOUS
100
AcDbLine
 10
10.67292308101235
 20
8.445076852443387
 30
0.0
 11
10.99094622856022
 21
8.763099999991255
 31
0.0
  0
LINE
  5
FE6E
330
FE6C
100
AcDbEntity
  8
0
  6
CONTINUOUS
100
AcDbLine
 10
10.87250383178748
 20
7.971138394138331
 30
0.0
 11
11.6644654376404
 21
8.763099999991255
 31
0.0
  0
LINE
  5
FE6F
330
FE6C
100
AcDbEntity
  8
0
  6
CONTINUOUS
100
AcDbLine
 10
11.07208458256261
 20
7.497199935833273
 30
0.0
 11
12.12126590876355
 21
8.546381262034211
 31
0.0
  0
LINE
  5
FE70
330
FE6C
100
AcDbEntity
  8
0
  6
CONTINUOUS
100
AcDbLine
 10
11.27166533333774
 20
7.023261477528216
 30
0.0
 11
12.32085164573666
 21
8.072447789927136
 31
0.0
  0
LINE
  5
FE71
330
FE6C
100
AcDbEntity
  8
0
  6
CONTINUOUS
100
AcDbLine
 10
11.47124608411287
 20
6.549323019223158
 30
0.0
 11
12.52043738270977
 21
7.59851431782006
 31
0.0
  0
LINE
  5
FE72
330
FE6C
100
AcDbEntity
  8
0
  6
CONTINUOUS
100
AcDbLine
 10
11.670826834888
 20
6.075384560918101
 30
0.0
 11
12.72002311968288
 21
7.124580845712984
 31
0.0
  0
LINE
  5
FE73
330
FE6C
100
AcDbEntity
  8
0
  6
CONTINUOUS
100
AcDbLine
 10
11.87040758566313
 20
5.601446102613043
 30
0.0
 11
12.91960885665599
 21
6.650647373605907
 31
0.0
  0
LINE
  5
FE74
330
FE6C
100
AcDbEntity
  8
0
  6
CONTINUOUS
100
AcDbLine
 10
12.06998833643825
 20
5.127507644307986
 30
0.0
 11
13.1191945936291
 21
6.176713901498832
 31
0.0
  0
LINE
  5
FE75
330
FE6C
100
AcDbEntity
  8
0
  6
CONTINUOUS
100
AcDbLine
 10
12.26956908721338
 20
4.65356918600293
 30
0.0
 11
13.31878033060221
 21
5.702780429391757
 31
0.0
  0
LINE
  5
FE76
330
FE6C
100
AcDbEntity
  8
0
  6
CONTINUOUS
100
AcDbLine
 10
12.46914983798851
 20
4.179630727697873
 30
0.0
 11
13.51836606757532
 21
5.228846957284683
 31
0.0
  0
LINE
  5
FE77
330
FE6C
100
AcDbEntity
  8
0
  6
CONTINUOUS
100
AcDbLine
 10
12.66873058876364
 20
3.705692269392816
 30
0.0
 11
13.71795180454843
 21
4.754913485177607
 31
0.0
  0
LINE
  5
FE78
330
FE6C
100
AcDbEntity
  8
0
  6
CONTINUOUS
100
AcDbLine
 10
12.86831133953877
 20
3.231753811087759
 30
0.0
 11
13.91753754152154
 21
4.280980013070531
 31
0.0
  0
LINE
  5
FE79
330
FE6C
100
AcDbEntity
  8
0
  6
CONTINUOUS
100
AcDbLine
 10
13.0678920903139
 20
2.757815352782702
 30
0.0
 11
14.11712327849465
 21
3.807046540963456
 31
0.0
  0
LINE
  5
FE7A
330
FE6C
100
AcDbEntity
  8
0
  6
CONTINUOUS
100
AcDbLine
 10
13.26747284108903
 20
2.283876894477644
 30
0.0
 11
14.31670901546777
 21
3.333113068856379
 31
0.0
  0
LINE
  5
FE7B
330
FE6C
100
AcDbEntity
  8
0
  6
CONTINUOUS
100
AcDbLine
 10
16.36767838827179
 20
8.751678487061342
 30
0.0
 11
16.50332410898388
 21
8.887324207773432
 31
0.0
  0
LINE
  5
FE7C
330
FE6C
100
AcDbEntity
  8
0
  6
CONTINUOUS
100
AcDbLine
 10
15.96190732182191
 20
7.67238821153127
 30
0.0
 11
16.68735328004734
 21
8.397834169756699
 31
0.0
  0
LINE
  5
FE7D
330
FE6C
100
AcDbEntity
  8
0
  6
CONTINUOUS
100
AcDbLine
 10
15.55613625537202
 20
6.593097936001196
 30
0.0
 11
16.87138245111079
 21
7.908344131739965
 31
0.0
  0
LINE
  5
FE7E
330
FE6C
100
AcDbEntity
  8
0
  6
CONTINUOUS
100
AcDbLine
 10
15.15036518892213
 20
5.513807660471122
 30
0.0
 11
17.05541162217424
 21
7.418854093723231
 31
0.0
  0
LINE
  5
FE7F
330
FE6C
100
AcDbEntity
  8
0
  6
CONTINUOUS
100
AcDbLine
 10
14.74459412247225
 20
4.434517384941048
 30
0.0
 11
17.2394407932377
 21
6.929364055706499
 31
0.0
  0
LINE
  5
FE80
330
FE6C
100
AcDbEntity
  8
0
  6
CONTINUOUS
100
AcDbLine
 10
14.33882305602236
 20
3.355227109410975
 30
0.0
 11
17.42346996430115
 21
6.439874017689766
 31
0.0
  0
LINE
  5
FE81
330
FE6C
100
AcDbEntity
  8
0
  6
CONTINUOUS
100
AcDbLine
 10
13.46705359186416
 20
1.809938436172586
 30
0.0
 11
16.0819338255367
 21
4.424818669845129
 31
0.0
  0
LINE
  5
FE82
330
FE6C
100
AcDbEntity
  8
0
  6
CONTINUOUS
100
AcDbLine
 10
16.63283254238972
 20
4.975717386698149
 30
0.0
 11
17.60749913536461
 21
5.950383979673033
 31
0.0
  0
LINE
  5
FE83
330
FE6C
100
AcDbEntity
  8
0
  6
CONTINUOUS
100
AcDbLine
 10
13.66663434263929
 20
1.335999977867529
 30
0.0
 11
15.67604797733754
 21
3.345413612565779
 31
0.0
  0
LINE
  5
FE84
330
FE6C
100
AcDbEntity
  8
0
  6
CONTINUOUS
100
AcDbLine
 10
13.86621509341442
 20
0.8620615195624723
 30
0.0
 11
15.27016212913838
 21
2.26600855528643
 31
0.0
  0
LINE
  5
FE85
330
FE6C
100
AcDbEntity
  8
0
  6
CONTINUOUS
100
AcDbLine
 10
16.81682257348267
 20
4.486188208710908
 30
0.0
 11
17.79152830642806
 21
5.460893941656299
 31
0.0
  0
LINE
  5
FE86
330
FE6C
100
AcDbEntity
  8
0
  6
CONTINUOUS
100
AcDbLine
 10
17.00081260457561
 20
3.996659030723667
 30
0.0
 11
17.97555747749151
 21
4.971403903639565
 31
0.0
  0
LINE
  5
FE87
330
FE6C
100
AcDbEntity
  8
0
  6
CONTINUOUS
100
AcDbLine
 10
20.74362343514722
 20
8.412989070375462
 30
0.0
 11
21.09373436476302
 21
8.763099999991256
 31
0.0
  0
LINE
  5
FE88
330
FE6C
100
AcDbEntity
  8
0
  6
CONTINUOUS
100
AcDbLine
 10
20.25401257174777
 20
7.249858997895826
 30
0.0
 11
21.7672535738432
 21
8.763099999991255
 31
0.0
  0
LINE
  5
FE89
330
FE6C
100
AcDbEntity
  8
0
  6
CONTINUOUS
100
AcDbLine
 10
14.06579584418955
 20
0.3881230612574149
 30
0.0
 11
14.86427628093921
 21
1.186603498007082
 31
0.0
  0
LINE
  5
FE8A
330
FE6C
100
AcDbEntity
  8
0
  6
CONTINUOUS
100
AcDbLine
 10
14.26537659496467
 20
-0.0858153970476412
 30
0.0
 11
14.45839043274005
 21
0.1071984407277329
 31
0.0
  0
LINE
  5
FE8B
330
FE6C
100
AcDbEntity
  8
0
  6
CONTINUOUS
100
AcDbLine
 10
17.18480263566856
 20
3.507129852736426
 30
0.0
 11
18.15958664855496
 21
4.481913865622833
 31
0.0
  0
LINE
  5
FE8C
330
FE6C
100
AcDbEntity
  8
0
  6
CONTINUOUS
100
AcDbLine
 10
17.3687926667615
 20
3.017600674749186
 30
0.0
 11
18.34361581961842
 21
3.9924238276061
 31
0.0
  0
LINE
  5
FE8D
330
FE6C
100
AcDbEntity
  8
0
  6
CONTINUOUS
100
AcDbLine
 10
19.76440170834832
 20
6.086728925416191
 30
0.0
 11
22.33924590259489
 21
8.661573119662755
 31
0.0
  0
LINE
  5
FE8E
330
FE6C
100
AcDbEntity
  8
0
  6
CONTINUOUS
100
AcDbLine
 10
19.27479084494887
 20
4.923598852936555
 30
0.0
 11
21.84929622842713
 21
7.498104236414807
 31
0.0
  0
LINE
  5
FE8F
330
FE6C
100
AcDbEntity
  8
0
  6
CONTINUOUS
100
AcDbLine
 10
17.55278269785445
 20
2.528071496761945
 30
0.0
 11
18.52764499068187
 21
3.502933789589366
 31
0.0
  0
LINE
  5
FE90
330
FE6C
100
AcDbEntity
  8
0
  6
CONTINUOUS
100
AcDbLine
 10
18.78517998154942
 20
3.760468780456919
 30
0.0
 11
21.35934655425936
 21
6.33463535316686
 31
0.0
  0
LINE
  5
FE91
330
FE6C
100
AcDbEntity
  8
0
  6
CONTINUOUS
100
AcDbLine
 10
17.73677272894739
 20
2.038542318774704
 30
0.0
 11
20.8693968800916
 21
5.171166469918914
 31
0.0
  0
LINE
  5
FE92
330
FE6C
100
AcDbEntity
  8
0
  6
CONTINUOUS
100
AcDbLine
 10
17.92076276004034
 20
1.549013140787464
 30
0.0
 11
20.37944720592384
 21
4.007697586670968
 31
0.0
  0
LINE
  5
FE93
330
FE6C
100
AcDbEntity
  8
0
  6
CONTINUOUS
100
AcDbLine
 10
18.10475279113329
 20
1.059483962800223
 30
0.0
 11
19.88949753175608
 21
2.84422870342302
 31
0.0
  0
LINE
  5
FE94
330
FE6C
100
AcDbEntity
  8
0
  6
CONTINUOUS
100
AcDbLine
 10
18.28874282222623
 20
0.5699547848129822
 30
0.0
 11
19.39954785758832
 21
1.680759820175074
 31
0.0
  0
LINE
  5
FE95
330
FE6C
100
AcDbEntity
  8
0
  6
CONTINUOUS
100
AcDbLine
 10
18.47273285331918
 20
0.0804256068257416
 30
0.0
 11
18.90959818342056
 21
0.517290936927127
 31
0.0
  0
LINE
  5
FE96
330
FE6C
100
AcDbEntity
  8
0
  6
CONTINUOUS
100
AcDbLine
 10
14.3590401358224
 20
-0.1570118376323384
 30
0.0
 11
14.24903296539946
 21
-0.0470046672093929
 31
0.0
  0
LINE
  5
FE97
330
FE6C
100
AcDbEntity
  8
0
  6
CONTINUOUS
100
AcDbLine
 10
14.54309291258661
 20
0.332454594683643
 30
0.0
 11
13.75908329123172
 21
1.116464216038529
 31
0.0
  0
LINE
  5
FE98
330
FE6C
100
AcDbEntity
  8
0
  6
CONTINUOUS
100
AcDbLine
 10
14.72714568935081
 20
0.8219210269996244
 30
0.0
 11
13.26913361706399
 21
2.27993309928645
 31
0.0
  0
LINE
  5
FE99
330
FE6C
100
AcDbEntity
  8
0
  6
CONTINUOUS
100
AcDbLine
 10
14.91119846611502
 20
1.311387459315606
 30
0.0
 11
12.77918394289625
 21
3.443401982534371
 31
0.0
  0
LINE
  5
FE9A
330
FE6C
100
AcDbEntity
  8
0
  6
CONTINUOUS
100
AcDbLine
 10
15.09525124287922
 20
1.800853891631587
 30
0.0
 11
12.28923426872852
 21
4.606870865782293
 31
0.0
  0
LINE
  5
FE9B
330
FE6C
100
AcDbEntity
  8
0
  6
CONTINUOUS
100
AcDbLine
 10
15.27930401964343
 20
2.290320323947569
 30
0.0
 11
11.79928459456078
 21
5.770339749030213
 31
0.0
  0
LINE
  5
FE9C
330
FE6C
100
AcDbEntity
  8
0
  6
CONTINUOUS
100
AcDbLine
 10
15.46335679640763
 20
2.77978675626355
 30
0.0
 11
14.48885470994921
 21
3.754288842721972
 31
0.0
  0
LINE
  5
FE9D
330
FE6C
100
AcDbEntity
  8
0
  6
CONTINUOUS
100
AcDbLine
 10
13.88507249233704
 20
4.358071060334137
 30
0.0
 11
11.30933492039305
 21
6.933808632278135
 31
0.0
  0
LINE
  5
FE9E
330
FE6C
100
AcDbEntity
  8
0
  6
CONTINUOUS
100
AcDbLine
 10
18.75840522805855
 20
0.1582575336928151
 30
0.0
 11
18.25383727664818
 21
0.6628254851031863
 31
0.0
  0
LINE
  5
FE9F
330
FE6C
100
AcDbEntity
  8
0
  6
CONTINUOUS
100
AcDbLine
 10
15.64740957317184
 20
3.269253188579531
 30
0.0
 11
14.67288388101266
 21
4.243778880738705
 31
0.0
  0
LINE
  5
FEA0
330
FE6C
100
AcDbEntity
  8
0
  6
CONTINUOUS
100
AcDbLine
 10
13.39509276772158
 20
5.521569994029786
 30
0.0
 11
10.81938524622531
 21
8.097277515526056
 31
0.0
  0
LINE
  5
FEA1
330
FE6C
100
AcDbEntity
  8
0
  6
CONTINUOUS
100
AcDbLine
 10
18.95798597883369
 20
0.6321959919978686
 30
0.0
 11
17.84825644852853
 21
1.741925522303024
 31
0.0
  0
LINE
  5
FEA2
330
FE6C
100
AcDbEntity
  8
0
  6
CONTINUOUS
100
AcDbLine
 10
19.15756672960882
 20
1.106134450302922
 30
0.0
 11
17.44267562040888
 21
2.821025559502861
 31
0.0
  0
LINE
  5
FEA3
330
FE6C
100
AcDbEntity
  8
0
  6
CONTINUOUS
100
AcDbLine
 10
15.83146234993604
 20
3.758719620895513
 30
0.0
 11
14.85691305207612
 21
4.733268918755439
 31
0.0
  0
LINE
  5
FEA4
330
FE6C
100
AcDbEntity
  8
0
  6
CONTINUOUS
100
AcDbLine
 10
16.01551512670025
 20
4.248186053211494
 30
0.0
 11
15.04094222313957
 21
5.222758956772172
 31
0.0
  0
LINE
  5
FEA5
330
FE6C
100
AcDbEntity
  8
0
  6
CONTINUOUS
100
AcDbLine
 10
12.90511304310612
 20
6.685068927725435
 30
0.0
 11
10.8270819708403
 21
8.763099999991255
 31
0.0
  0
LINE
  5
FEA6
330
FE6C
100
AcDbEntity
  8
0
  6
CONTINUOUS
100
AcDbLine
 10
12.41513331849066
 20
7.848567861421083
 30
0.0
 11
11.50060117992049
 21
8.763099999991255
 31
0.0
  0
LINE
  5
FEA7
330
FE6C
100
AcDbEntity
  8
0
  6
CONTINUOUS
100
AcDbLine
 10
19.35714748038395
 20
1.580072908607975
 30
0.0
 11
17.03709479228923
 21
3.900125596702697
 31
0.0
  0
LINE
  5
FEA8
330
FE6C
100
AcDbEntity
  8
0
  6
CONTINUOUS
100
AcDbLine
 10
19.55672823115909
 20
2.054011366913028
 30
0.0
 11
16.63151396416958
 21
4.979225633902534
 31
0.0
  0
LINE
  5
FEA9
330
FE6C
100
AcDbEntity
  8
0
  6
CONTINUOUS
100
AcDbLine
 10
16.19956790346445
 20
4.737652485527476
 30
0.0
 11
15.22497139420302
 21
5.712248994788904
 31
0.0
  0
LINE
  5
FEAA
330
FE6C
100
AcDbEntity
  8
0
  6
CONTINUOUS
100
AcDbLine
 10
16.38362068022866
 20
5.227118917843457
 30
0.0
 11
15.40900056526648
 21
6.201739032805637
 31
0.0
  0
LINE
  5
FEAB
330
FE6C
100
AcDbEntity
  8
0
  6
CONTINUOUS
100
AcDbLine
 10
19.75630898193422
 20
2.527949825218081
 30
0.0
 11
18.70774536448286
 21
3.576513442669441
 31
0.0
  0
LINE
  5
FEAC
330
FE6C
100
AcDbEntity
  8
0
  6
CONTINUOUS
100
AcDbLine
 10
19.95588973270936
 20
3.001888283523134
 30
0.0
 11
18.90726987211446
 21
4.050508144118028
 31
0.0
  0
LINE
  5
FEAD
330
FE6C
100
AcDbEntity
  8
0
  6
CONTINUOUS
100
AcDbLine
 10
20.15547048348449
 20
3.475826741828186
 30
0.0
 11
19.10679437974606
 21
4.524502845566614
 31
0.0
  0
LINE
  5
FEAE
330
FE6C
100
AcDbEntity
  8
0
  6
CONTINUOUS
100
AcDbLine
 10
20.35505123425962
 20
3.94976520013324
 30
0.0
 11
19.30631888737766
 21
4.998497547015201
 31
0.0
  0
LINE
  5
FEAF
330
FE6C
100
AcDbEntity
  8
0
  6
CONTINUOUS
100
AcDbLine
 10
20.55463198503475
 20
4.423703658438292
 30
0.0
 11
19.50584339500926
 21
5.472492248463787
 31
0.0
  0
LINE
  5
FEB0
330
FE6C
100
AcDbEntity
  8
0
  6
CONTINUOUS
100
AcDbLine
 10
18.37481191085755
 20
3.909446896294752
 30
0.0
 11
15.59302973632993
 21
6.691229070822371
 31
0.0
  0
LINE
  5
FEB1
330
FE6C
100
AcDbEntity
  8
0
  6
CONTINUOUS
100
AcDbLine
 10
17.96904084440766
 20
4.988737171824825
 30
0.0
 11
15.77705890739338
 21
7.180719108839104
 31
0.0
  0
LINE
  5
FEB2
330
FE6C
100
AcDbEntity
  8
0
  6
CONTINUOUS
100
AcDbLine
 10
17.56326977795777
 20
6.068027447354899
 30
0.0
 11
15.96108807845684
 21
7.670209146855838
 31
0.0
  0
LINE
  5
FEB3
330
FE6C
100
AcDbEntity
  8
0
  6
CONTINUOUS
100
AcDbLine
 10
17.15749871150789
 20
7.147317722884972
 30
0.0
 11
16.14511724952029
 21
8.15969918487257
 31
0.0
  0
LINE
  5
FEB4
330
FE6C
100
AcDbEntity
  8
0
  6
CONTINUOUS
100
AcDbLine
 10
16.751727645058
 20
8.226607998415046
 30
0.0
 11
16.32914642058374
 21
8.649189222889303
 31
0.0
  0
LINE
  5
FEB5
330
FE6C
100
AcDbEntity
  8
0
  6
CONTINUOUS
100
AcDbLine
 10
20.75421273580989
 20
4.897642116743345
 30
0.0
 11
19.70536790264086
 21
5.946486949912374
 31
0.0
  0
LINE
  5
FEB6
330
FE6C
100
AcDbEntity
  8
0
  6
CONTINUOUS
100
AcDbLine
 10
20.95379348658502
 20
5.371580575048398
 30
0.0
 11
19.90489241027246
 21
6.42048165136096
 31
0.0
  0
LINE
  5
FEB7
330
FE6C
100
AcDbEntity
  8
0
  6
CONTINUOUS
100
AcDbLine
 10
21.15337423736015
 20
5.845519033353452
 30
0.0
 11
20.10441691790406
 21
6.894476352809547
 31
0.0
  0
LINE
  5
FEB8
330
FE6C
100
AcDbEntity
  8
0
  6
CONTINUOUS
100
AcDbLine
 10
21.35295498813529
 20
6.319457491658505
 30
0.0
 11
20.30394142553566
 21
7.368471054258134
 31
0.0
  0
LINE
  5
FEB9
330
FE6C
100
AcDbEntity
  8
0
  6
CONTINUOUS
100
AcDbLine
 10
21.55253573891042
 20
6.793395949963558
 30
0.0
 11
20.50346593316726
 21
7.842465755706721
 31
0.0
  0
LINE
  5
FEBA
330
FE6C
100
AcDbEntity
  8
0
  6
CONTINUOUS
100
AcDbLine
 10
21.75211648968556
 20
7.267334408268612
 30
0.0
 11
20.70299044079886
 21
8.316460457155308
 31
0.0
  0
LINE
  5
FEBB
330
FE6C
100
AcDbEntity
  8
0
  6
CONTINUOUS
100
AcDbLine
 10
21.95169724046069
 20
7.741272866573663
 30
0.0
 11
20.9298701070431
 21
8.763099999991256
 31
0.0
  0
LINE
  5
FEBC
330
FE6C
100
AcDbEntity
  8
0
  6
CONTINUOUS
100
AcDbLine
 10
22.15127799123582
 20
8.215211324878716
 30
0.0
 11
21.60338931612328
 21
8.763099999991256
 31
0.0
  0
LINE
  5
FEBD
330
FE6C
100
AcDbEntity
  8
0
  6
CONTINUOUS
100
AcDbLine
 10
22.35085874201096
 20
8.689149783183769
 30
0.0
 11
22.27690852520347
 21
8.763099999991255
 31
0.0
  0
ENDBLK
  5
FFAF
330
FE6C
100
AcDbEntity
  8
0
100
AcDbBlockEnd
  0
BLOCK
  5
FFB0
330
FEBE
100
AcDbEntity
  8
0
100
AcDbBlockBegin
  2
*X28
 70
     1
 10
0.0
 20
0.0
 30
0.0
  3
*X28
  1

  0
LINE
  5
FEBF
330
FEBE
100
AcDbEntity
  8
0
  6
CONTINUOUS
100
AcDbLine
 10
23.19462913593892
 20
8.169917934846424
 30
0.0
 11
23.70775465517246
 21
8.683043454079957
 31
0.0
  0
LINE
  5
FEC0
330
FEBE
100
AcDbEntity
  8
0
  6
CONTINUOUS
100
AcDbLine
 10
22.64923161835078
 20
6.951001208178088
 30
0.0
 11
23.9159364069932
 21
8.217705996820516
 31
0.0
  0
LINE
  5
FEC1
330
FEBE
100
AcDbEntity
  8
0
  6
CONTINUOUS
100
AcDbLine
 10
22.10383410076263
 20
5.732084481509751
 30
0.0
 11
24.12411815881395
 21
7.752368539561078
 31
0.0
  0
LINE
  5
FEC2
330
FEBE
100
AcDbEntity
  8
0
  6
CONTINUOUS
100
AcDbLine
 10
21.55843658317447
 20
4.513167754841414
 30
0.0
 11
24.3322999106347
 21
7.287031082301639
 31
0.0
  0
LINE
  5
FEC3
330
FEBE
100
AcDbEntity
  8
0
  6
CONTINUOUS
100
AcDbLine
 10
21.01303906558632
 20
3.294251028173077
 30
0.0
 11
24.54048166245544
 21
6.821693625042199
 31
0.0
  0
LINE
  5
FEC4
330
FEBE
100
AcDbEntity
  8
0
  6
CONTINUOUS
100
AcDbLine
 10
20.46764154799817
 20
2.075334301504738
 30
0.0
 11
23.28571549467848
 21
4.89340824818505
 31
0.0
  0
LINE
  5
FEC5
330
FEBE
100
AcDbEntity
  8
0
  6
CONTINUOUS
100
AcDbLine
 10
19.92224403041002
 20
0.8564175748364002
 30
0.0
 11
22.74075865492779
 21
3.674932199354171
 31
0.0
  0
LINE
  5
FEC6
330
FEBE
100
AcDbEntity
  8
0
  6
CONTINUOUS
100
AcDbLine
 10
23.67305085490148
 20
5.280743608408048
 30
0.0
 11
24.74866341427619
 21
6.356356167782759
 31
0.0
  0
LINE
  5
FEC7
330
FEBE
100
AcDbEntity
  8
0
  6
CONTINUOUS
100
AcDbLine
 10
23.88118970842314
 20
4.815363252849522
 30
0.0
 11
24.95684516609694
 21
5.89101871052332
 31
0.0
  0
LINE
  5
FEC8
330
FEBE
100
AcDbEntity
  8
0
  6
CONTINUOUS
100
AcDbLine
 10
19.73925852647308
 20
-0.0000871381807288
 30
0.0
 11
23.4103456646501
 21
3.670999999996297
 31
0.0
  0
LINE
  5
FEC9
330
FEBE
100
AcDbEntity
  8
0
  6
CONTINUOUS
100
AcDbLine
 10
24.0893285619448
 20
4.349982897290997
 30
0.0
 11
25.16502691791769
 21
5.42568125326388
 31
0.0
  0
LINE
  5
FECA
330
FEBE
100
AcDbEntity
  8
0
  6
CONTINUOUS
100
AcDbLine
 10
20.41282099582748
 20
-0.0000438779065108
 30
0.0
 11
21.64944178675636
 21
1.236576913022366
 31
0.0
  0
LINE
  5
FECB
330
FEBE
100
AcDbEntity
  8
0
  6
CONTINUOUS
100
AcDbLine
 10
22.78126487373161
 20
2.36839999999762
 30
0.0
 11
24.08386487373029
 21
3.670999999996297
 31
0.0
  0
LINE
  5
FECC
330
FEBE
100
AcDbEntity
  8
0
  6
CONTINUOUS
100
AcDbLine
 10
24.29746741546646
 20
3.884602541732471
 30
0.0
 11
25.37320866973843
 21
4.960343796004441
 31
0.0
  0
LINE
  5
FECD
330
FEBE
100
AcDbEntity
  8
0
  6
CONTINUOUS
100
AcDbLine
 10
21.08638346518189
 20
-0.0000006176322938
 30
0.0
 11
21.10379033335899
 21
0.0174062505448083
 31
0.0
  0
LINE
  5
FECE
330
FEBE
100
AcDbEntity
  8
0
  6
CONTINUOUS
100
AcDbLine
 10
23.4547840828118
 20
2.36839999999762
 30
0.0
 11
25.58139042155918
 21
4.495006338745002
 31
0.0
  0
LINE
  5
FECF
330
FEBE
100
AcDbEntity
  8
0
  6
CONTINUOUS
100
AcDbLine
 10
29.30199999996933
 20
8.215615917155148
 30
0.0
 11
29.84948408280543
 21
8.763099999991255
 31
0.0
  0
LINE
  5
FED0
330
FEBE
100
AcDbEntity
  8
0
  6
CONTINUOUS
100
AcDbLine
 10
24.12830329189199
 20
2.36839999999762
 30
0.0
 11
25.78957217337993
 21
4.029668881485562
 31
0.0
  0
LINE
  5
FED1
330
FEBE
100
AcDbEntity
  8
0
  6
CONTINUOUS
100
AcDbLine
 10
29.30199999996933
 20
7.54209670807496
 30
0.0
 11
30.52300329188562
 21
8.763099999991255
 31
0.0
  0
LINE
  5
FED2
330
FEBE
100
AcDbEntity
  8
0
  6
CONTINUOUS
100
AcDbLine
 10
24.80182250097217
 20
2.36839999999762
 30
0.0
 11
25.99775392520067
 21
3.564331424226122
 31
0.0
  0
LINE
  5
FED3
330
FEBE
100
AcDbEntity
  8
0
  6
CONTINUOUS
100
AcDbLine
 10
29.30199999996933
 20
6.868577498994774
 30
0.0
 11
30.74199999996926
 21
8.308577498994712
 31
0.0
  0
LINE
  5
FED4
330
FEBE
100
AcDbEntity
  8
0
  6
CONTINUOUS
100
AcDbLine
 10
25.13028238392013
 20
2.023340673865392
 30
0.0
 11
26.20593567702142
 21
3.098993966966683
 31
0.0
  0
LINE
  5
FED5
330
FEBE
100
AcDbEntity
  8
0
  6
CONTINUOUS
100
AcDbLine
 10
25.33838066033617
 20
1.557919741201244
 30
0.0
 11
26.41411742884217
 21
2.633656509707244
 31
0.0
  0
LINE
  5
FED6
330
FEBE
100
AcDbEntity
  8
0
  6
CONTINUOUS
100
AcDbLine
 10
25.54647893675221
 20
1.092498808537098
 30
0.0
 11
26.62229918066291
 21
2.168319052447804
 31
0.0
  0
LINE
  5
FED7
330
FEBE
100
AcDbEntity
  8
0
  6
CONTINUOUS
100
AcDbLine
 10
25.75457721316825
 20
0.62707787587295
 30
0.0
 11
26.83048093248366
 21
1.702981595188365
 31
0.0
  0
LINE
  5
FED8
330
FEBE
100
AcDbEntity
  8
0
  6
CONTINUOUS
100
AcDbLine
 10
29.30199999996933
 20
6.195058289914587
 30
0.0
 11
30.74199999996926
 21
7.635058289914522
 31
0.0
  0
LINE
  5
FED9
330
FEBE
100
AcDbEntity
  8
0
  6
CONTINUOUS
100
AcDbLine
 10
29.30199999996933
 20
5.521539080834401
 30
0.0
 11
30.74199999996926
 21
6.961539080834331
 31
0.0
  0
LINE
  5
FEDA
330
FEBE
100
AcDbEntity
  8
0
  6
CONTINUOUS
100
AcDbLine
 10
29.30199999996933
 20
4.848019871754214
 30
0.0
 11
30.74199999996925
 21
6.288019871754143
 31
0.0
  0
LINE
  5
FEDB
330
FEBE
100
AcDbEntity
  8
0
  6
CONTINUOUS
100
AcDbLine
 10
29.30199999996933
 20
4.174500662674028
 30
0.0
 11
30.74199999996925
 21
5.614500662673953
 31
0.0
  0
LINE
  5
FEDC
330
FEBE
100
AcDbEntity
  8
0
  6
CONTINUOUS
100
AcDbLine
 10
25.96267548958429
 20
0.1616569432088024
 30
0.0
 11
27.18411854636669
 21
1.383099999991207
 31
0.0
  0
LINE
  5
FEDD
330
FEBE
100
AcDbEntity
  8
0
  6
CONTINUOUS
100
AcDbLine
 10
29.30199999996933
 20
3.500981453593841
 30
0.0
 11
30.74199999996925
 21
4.940981453593762
 31
0.0
  0
LINE
  5
FEDE
330
FEBE
100
AcDbEntity
  8
0
  6
CONTINUOUS
100
AcDbLine
 10
26.50763775544691
 20
0.0330999999912356
 30
0.0
 11
27.85763775544689
 21
1.383099999991223
 31
0.0
  0
LINE
  5
FEDF
330
FEBE
100
AcDbEntity
  8
0
  6
CONTINUOUS
100
AcDbLine
 10
29.30199999996933
 20
2.827462244513656
 30
0.0
 11
30.74199999996925
 21
4.267462244513574
 31
0.0
  0
LINE
  5
FEE0
330
FEBE
100
AcDbEntity
  8
0
  6
CONTINUOUS
100
AcDbLine
 10
27.18115696452709
 20
0.0330999999912356
 30
0.0
 11
28.55073879889363
 21
1.402681834357775
 31
0.0
  0
LINE
  5
FEE1
330
FEBE
100
AcDbEntity
  8
0
  6
CONTINUOUS
100
AcDbLine
 10
29.28241816560272
 20
2.134361201066866
 30
0.0
 11
30.74199999996924
 21
3.593943035433383
 31
0.0
  0
LINE
  5
FEE2
330
FEBE
100
AcDbEntity
  8
0
  6
CONTINUOUS
100
AcDbLine
 10
27.85467617360728
 20
0.0330999999912356
 30
0.0
 11
30.74199999996924
 21
2.920423826353195
 31
0.0
  0
LINE
  5
FEE3
330
FEBE
100
AcDbEntity
  8
0
  6
CONTINUOUS
100
AcDbLine
 10
28.53897559587887
 20
0.0438802131826428
 30
0.0
 11
30.73121978677781
 21
2.236124404081585
 31
0.0
  0
LINE
  5
FEE4
330
FEBE
100
AcDbEntity
  8
0
  6
CONTINUOUS
100
AcDbLine
 10
29.45140055588722
 20
0.2827859641107988
 30
0.0
 11
30.49231403584965
 21
1.323699444073236
 31
0.0
  0
LINE
  5
FEE5
330
FEBE
100
AcDbEntity
  8
0
  6
CONTINUOUS
100
AcDbLine
 10
19.59027867740337
 20
-0.0000967065718083
 30
0.0
 11
19.55485265190471
 21
0.035329318926844
 31
0.0
  0
LINE
  5
FEE6
330
FEBE
100
AcDbEntity
  8
0
  6
CONTINUOUS
100
AcDbLine
 10
20.26375463176586
 20
-0.0000534518541091
 30
0.0
 11
19.76305575737534
 21
0.5006454225364014
 31
0.0
  0
LINE
  5
FEE7
330
FEBE
100
AcDbEntity
  8
0
  6
CONTINUOUS
100
AcDbLine
 10
20.93723058612834
 20
-0.0000101971364099
 30
0.0
 11
19.97125886284597
 21
0.965961526145958
 31
0.0
  0
LINE
  5
FEE8
330
FEBE
100
AcDbEntity
  8
0
  6
CONTINUOUS
100
AcDbLine
 10
21.25514828313686
 20
0.355591314935257
 30
0.0
 11
20.1794619683166
 21
1.431277629755512
 31
0.0
  0
LINE
  5
FEE9
330
FEBE
100
AcDbEntity
  8
0
  6
CONTINUOUS
100
AcDbLine
 10
21.46338838394921
 20
0.8208704232030986
 30
0.0
 11
20.38766507378723
 21
1.896593733365069
 31
0.0
  0
LINE
  5
FEEA
330
FEBE
100
AcDbEntity
  8
0
  6
CONTINUOUS
100
AcDbLine
 10
21.67162848476155
 20
1.28614953147094
 30
0.0
 11
20.59586817925786
 21
2.361909836974626
 31
0.0
  0
LINE
  5
FEEB
330
FEBE
100
AcDbEntity
  8
0
  6
CONTINUOUS
100
AcDbLine
 10
21.8798685855739
 20
1.751428639738782
 30
0.0
 11
20.80407128472849
 21
2.827225940584183
 31
0.0
  0
LINE
  5
FEEC
330
FEBE
100
AcDbEntity
  8
0
  6
CONTINUOUS
100
AcDbLine
 10
22.08810868638624
 20
2.216707748006623
 30
0.0
 11
21.01227439019912
 21
3.292542044193739
 31
0.0
  0
LINE
  5
FEED
330
FEBE
100
AcDbEntity
  8
0
  6
CONTINUOUS
100
AcDbLine
 10
22.60993564347543
 20
2.36839999999762
 30
0.0
 11
21.22047749566975
 21
3.757858147803296
 31
0.0
  0
LINE
  5
FEEE
330
FEBE
100
AcDbEntity
  8
0
  6
CONTINUOUS
100
AcDbLine
 10
23.28345485255561
 20
2.36839999999762
 30
0.0
 11
21.42868060114038
 21
4.223174251412853
 31
0.0
  0
LINE
  5
FEEF
330
FEBE
100
AcDbEntity
  8
0
  6
CONTINUOUS
100
AcDbLine
 10
26.29227406164219
 20
0.0330999999912356
 30
0.0
 11
25.80009199592872
 21
0.5252820657046957
 31
0.0
  0
LINE
  5
FEF0
330
FEBE
100
AcDbEntity
  8
0
  6
CONTINUOUS
100
AcDbLine
 10
23.9569740616358
 20
2.36839999999762
 30
0.0
 11
21.63688370661101
 21
4.688490355022409
 31
0.0
  0
LINE
  5
FEF1
330
FEBE
100
AcDbEntity
  8
0
  6
CONTINUOUS
100
AcDbLine
 10
26.96579327072237
 20
0.0330999999912356
 30
0.0
 11
25.2554132311971
 21
1.743480039516508
 31
0.0
  0
LINE
  5
FEF2
330
FEBE
100
AcDbEntity
  8
0
  6
CONTINUOUS
100
AcDbLine
 10
24.63049327071599
 20
2.36839999999762
 30
0.0
 11
23.32789327071731
 21
3.670999999996297
 31
0.0
  0
LINE
  5
FEF3
330
FEBE
100
AcDbEntity
  8
0
  6
CONTINUOUS
100
AcDbLine
 10
22.92098674744635
 20
4.077906523267254
 30
0.0
 11
21.84508681208164
 21
5.153806458631966
 31
0.0
  0
LINE
  5
FEF4
330
FEBE
100
AcDbEntity
  8
0
  6
CONTINUOUS
100
AcDbLine
 10
27.63931247980256
 20
0.0330999999912356
 30
0.0
 11
24.0014124797975
 21
3.670999999996297
 31
0.0
  0
LINE
  5
FEF5
330
FEBE
100
AcDbEntity
  8
0
  6
CONTINUOUS
100
AcDbLine
 10
23.129125600968
 20
4.5432868788258
 30
0.0
 11
22.05328991755227
 21
5.619122562241522
 31
0.0
  0
LINE
  5
FEF6
330
FEBE
100
AcDbEntity
  8
0
  6
CONTINUOUS
100
AcDbLine
 10
28.31283168888275
 20
0.0330999999912356
 30
0.0
 11
24.16488385994816
 21
4.181047828925828
 31
0.0
  0
LINE
  5
FEF7
330
FEBE
100
AcDbEntity
  8
0
  6
CONTINUOUS
100
AcDbLine
 10
23.33726445448964
 20
5.008667234384345
 30
0.0
 11
22.2614930230229
 21
6.084438665851079
 31
0.0
  0
LINE
  5
FEF8
330
FEBE
100
AcDbEntity
  8
0
  6
CONTINUOUS
100
AcDbLine
 10
28.92085740005492
 20
0.0985934978992438
 30
0.0
 11
27.63635089796295
 21
1.383099999991217
 31
0.0
  0
LINE
  5
FEF9
330
FEBE
100
AcDbEntity
  8
0
  6
CONTINUOUS
100
AcDbLine
 10
26.43704649509776
 20
2.582404402856405
 30
0.0
 11
23.61992702019732
 21
5.399523877756844
 31
0.0
  0
LINE
  5
FEFA
330
FEBE
100
AcDbEntity
  8
0
  6
CONTINUOUS
100
AcDbLine
 10
23.54540330801128
 20
5.47404758994289
 30
0.0
 11
22.46969612849353
 21
6.549754769460635
 31
0.0
  0
LINE
  5
FEFB
330
FEBE
100
AcDbEntity
  8
0
  6
CONTINUOUS
100
AcDbLine
 10
29.42225615078443
 20
0.2707139562499279
 30
0.0
 11
28.30987010704312
 21
1.383099999991234
 31
0.0
  0
LINE
  5
FEFC
330
FEBE
100
AcDbEntity
  8
0
  6
CONTINUOUS
100
AcDbLine
 10
25.89179548232307
 20
3.801174624711282
 30
0.0
 11
22.67789923396416
 21
7.015070873070191
 31
0.0
  0
LINE
  5
FEFD
330
FEBE
100
AcDbEntity
  8
0
  6
CONTINUOUS
100
AcDbLine
 10
29.83624534690007
 20
0.5302439692144705
 30
0.0
 11
28.85811781497101
 21
1.508371501143527
 31
0.0
  0
LINE
  5
FEFE
330
FEBE
100
AcDbEntity
  8
0
  6
CONTINUOUS
100
AcDbLine
 10
25.34654446954838
 20
5.01994484656616
 30
0.0
 11
22.88610233943479
 21
7.480386976679748
 31
0.0
  0
LINE
  5
FEFF
330
FEBE
100
AcDbEntity
  8
0
  6
CONTINUOUS
100
AcDbLine
 10
30.17865975401872
 20
0.8613487711760022
 30
0.0
 11
29.18888744090175
 21
1.851121084292977
 31
0.0
  0
LINE
  5
FF00
330
FEBE
100
AcDbEntity
  8
0
  6
CONTINUOUS
100
AcDbLine
 10
24.80129345677369
 20
6.238715068421037
 30
0.0
 11
23.09430544490542
 21
7.945703080289305
 31
0.0
  0
LINE
  5
FF01
330
FEBE
100
AcDbEntity
  8
0
  6
CONTINUOUS
100
AcDbLine
 10
30.45496647202376
 20
1.258561262251155
 30
0.0
 11
29.30199999996933
 21
2.411527734305588
 31
0.0
  0
LINE
  5
FF02
330
FEBE
100
AcDbEntity
  8
0
  6
CONTINUOUS
100
AcDbLine
 10
24.256042443999
 20
7.457485290275915
 30
0.0
 11
23.30250855037605
 21
8.411019183898862
 31
0.0
  0
LINE
  5
FF03
330
FEBE
100
AcDbEntity
  8
0
  6
CONTINUOUS
100
AcDbLine
 10
30.64868582078271
 20
1.738361122572387
 30
0.0
 11
29.30199999996933
 21
3.085046943385775
 31
0.0
  0
LINE
  5
FF04
330
FEBE
100
AcDbEntity
  8
0
  6
CONTINUOUS
100
AcDbLine
 10
23.71079143122431
 20
8.676255512130794
 30
0.0
 11
23.51071165584668
 21
8.876335287508416
 31
0.0
  0
LINE
  5
FF05
330
FEBE
100
AcDbEntity
  8
0
  6
CONTINUOUS
100
AcDbLine
 10
30.73802122914428
 20
2.322544923291007
 30
0.0
 11
29.30199999996933
 21
3.758566152465961
 31
0.0
  0
LINE
  5
FF06
330
FEBE
100
AcDbEntity
  8
0
  6
CONTINUOUS
100
AcDbLine
 10
30.74199999996924
 20
2.992085361546236
 30
0.0
 11
29.30199999996933
 21
4.432085361546148
 31
0.0
  0
LINE
  5
FF07
330
FEBE
100
AcDbEntity
  8
0
  6
CONTINUOUS
100
AcDbLine
 10
30.74199999996924
 20
3.665604570626419
 30
0.0
 11
29.30199999996933
 21
5.105604570626333
 31
0.0
  0
LINE
  5
FF08
330
FEBE
100
AcDbEntity
  8
0
  6
CONTINUOUS
100
AcDbLine
 10
30.74199999996925
 20
4.339123779706602
 30
0.0
 11
29.30199999996933
 21
5.77912377970652
 31
0.0
  0
LINE
  5
FF09
330
FEBE
100
AcDbEntity
  8
0
  6
CONTINUOUS
100
AcDbLine
 10
30.74199999996925
 20
5.012642988786785
 30
0.0
 11
29.30199999996933
 21
6.452642988786707
 31
0.0
  0
LINE
  5
FF0A
330
FEBE
100
AcDbEntity
  8
0
  6
CONTINUOUS
100
AcDbLine
 10
30.74199999996925
 20
5.68616219786697
 30
0.0
 11
29.30199999996933
 21
7.126162197866894
 31
0.0
  0
LINE
  5
FF0B
330
FEBE
100
AcDbEntity
  8
0
  6
CONTINUOUS
100
AcDbLine
 10
30.74199999996925
 20
6.359681406947153
 30
0.0
 11
29.30199999996933
 21
7.799681406947081
 31
0.0
  0
LINE
  5
FF0C
330
FEBE
100
AcDbEntity
  8
0
  6
CONTINUOUS
100
AcDbLine
 10
30.74199999996926
 20
7.033200616027337
 30
0.0
 11
29.30199999996933
 21
8.473200616027269
 31
0.0
  0
LINE
  5
FF0D
330
FEBE
100
AcDbEntity
  8
0
  6
CONTINUOUS
100
AcDbLine
 10
30.74199999996926
 20
7.706719825107518
 30
0.0
 11
29.68561982508552
 21
8.763099999991255
 31
0.0
  0
LINE
  5
FF0E
330
FEBE
100
AcDbEntity
  8
0
  6
CONTINUOUS
100
AcDbLine
 10
30.74199999996926
 20
8.380239034187703
 30
0.0
 11
30.35913903416571
 21
8.763099999991255
 31
0.0
  0
ENDBLK
  5
FFB1
330
FEBE
100
AcDbEntity
  8
0
100
AcDbBlockEnd
  0
BLOCK
  5
FFB2
330
FF0F
100
AcDbEntity
  8
0
100
AcDbBlockBegin
  2
*X29
 70
     1
 10
0.0
 20
0.0
 30
0.0
  3
*X29
  1

  0
LINE
  5
FF10
330
FF0F
100
AcDbEntity
  8
0
  6
CONTINUOUS
100
AcDbLine
 10
31.64199999996833
 20
8.535058289913598
 30
0.0
 11
31.87004171004599
 21
8.763099999991255
 31
0.0
  0
LINE
  5
FF11
330
FF0F
100
AcDbEntity
  8
0
  6
CONTINUOUS
100
AcDbLine
 10
31.64199999996833
 20
7.861539080833412
 30
0.0
 11
32.54356091912618
 21
8.763099999991255
 31
0.0
  0
LINE
  5
FF12
330
FF0F
100
AcDbEntity
  8
0
  6
CONTINUOUS
100
AcDbLine
 10
31.64199999996833
 20
7.188019871753226
 30
0.0
 11
33.08199999996839
 21
8.628019871753281
 31
0.0
  0
LINE
  5
FF13
330
FF0F
100
AcDbEntity
  8
0
  6
CONTINUOUS
100
AcDbLine
 10
31.64199999996833
 20
6.51450066267304
 30
0.0
 11
33.08199999996839
 21
7.954500662673095
 31
0.0
  0
LINE
  5
FF14
330
FF0F
100
AcDbEntity
  8
0
  6
CONTINUOUS
100
AcDbLine
 10
31.64199999996833
 20
5.840981453592853
 30
0.0
 11
33.08199999996839
 21
7.280981453592908
 31
0.0
  0
LINE
  5
FF15
330
FF0F
100
AcDbEntity
  8
0
  6
CONTINUOUS
100
AcDbLine
 10
31.64199999996833
 20
5.167462244512667
 30
0.0
 11
33.08199999996839
 21
6.607462244512721
 31
0.0
  0
LINE
  5
FF16
330
FF0F
100
AcDbEntity
  8
0
  6
CONTINUOUS
100
AcDbLine
 10
31.64199999996833
 20
4.493943035432481
 30
0.0
 11
33.08199999996839
 21
5.933943035432535
 31
0.0
  0
LINE
  5
FF17
330
FF0F
100
AcDbEntity
  8
0
  6
CONTINUOUS
100
AcDbLine
 10
31.64199999996833
 20
3.820423826352293
 30
0.0
 11
33.08199999996839
 21
5.260423826352348
 31
0.0
  0
LINE
  5
FF18
330
FF0F
100
AcDbEntity
  8
0
  6
CONTINUOUS
100
AcDbLine
 10
31.64199999996833
 20
3.146904617272106
 30
0.0
 11
33.08199999996839
 21
4.586904617272161
 31
0.0
  0
LINE
  5
FF19
330
FF0F
100
AcDbEntity
  8
0
  6
CONTINUOUS
100
AcDbLine
 10
36.23199999996837
 20
8.410423826352325
 30
0.0
 11
36.5846761736073
 21
8.763099999991255
 31
0.0
  0
LINE
  5
FF1A
330
FF0F
100
AcDbEntity
  8
0
  6
CONTINUOUS
100
AcDbLine
 10
36.23199999996837
 20
7.73690461727214
 30
0.0
 11
37.25819538268748
 21
8.763099999991255
 31
0.0
  0
LINE
  5
FF1B
330
FF0F
100
AcDbEntity
  8
0
  6
CONTINUOUS
100
AcDbLine
 10
31.64257403601376
 20
2.473959444237348
 30
0.0
 11
33.08199999996839
 21
3.913385408191974
 31
0.0
  0
LINE
  5
FF1C
330
FF0F
100
AcDbEntity
  8
0
  6
CONTINUOUS
100
AcDbLine
 10
36.23199999996837
 20
7.063385408191953
 30
0.0
 11
37.67199999996831
 21
8.503385408191894
 31
0.0
  0
LINE
  5
FF1D
330
FF0F
100
AcDbEntity
  8
0
  6
CONTINUOUS
100
AcDbLine
 10
31.72013636841932
 20
1.87800256756272
 30
0.0
 11
33.08199999996839
 21
3.239866199111788
 31
0.0
  0
LINE
  5
FF1E
330
FF0F
100
AcDbEntity
  8
0
  6
CONTINUOUS
100
AcDbLine
 10
36.23199999996837
 20
6.389866199111767
 30
0.0
 11
37.67199999996831
 21
7.829866199111708
 31
0.0
  0
LINE
  5
FF1F
330
FF0F
100
AcDbEntity
  8
0
  6
CONTINUOUS
100
AcDbLine
 10
31.89042734314753
 20
1.374774333210744
 30
0.0
 11
33.08199999996839
 21
2.566346990031601
 31
0.0
  0
LINE
  5
FF20
330
FF0F
100
AcDbEntity
  8
0
  6
CONTINUOUS
100
AcDbLine
 10
36.23199999996837
 20
5.71634699003158
 30
0.0
 11
37.67199999996831
 21
7.156346990031521
 31
0.0
  0
LINE
  5
FF21
330
FF0F
100
AcDbEntity
  8
0
  6
CONTINUOUS
100
AcDbLine
 10
32.14210568064475
 20
0.952933461627778
 30
0.0
 11
33.18745552475986
 21
1.998283305742888
 31
0.0
  0
LINE
  5
FF22
330
FF0F
100
AcDbEntity
  8
0
  6
CONTINUOUS
100
AcDbLine
 10
36.23199999996837
 20
5.042827780951393
 30
0.0
 11
37.67199999996831
 21
6.482827780951334
 31
0.0
  0
LINE
  5
FF23
330
FF0F
100
AcDbEntity
  8
0
  6
CONTINUOUS
100
AcDbLine
 10
32.45820639400955
 20
0.5955149659123915
 30
0.0
 11
33.47242681921943
 21
1.60973539112227
 31
0.0
  0
LINE
  5
FF24
330
FF0F
100
AcDbEntity
  8
0
  6
CONTINUOUS
100
AcDbLine
 10
36.23199999996837
 20
4.369308571871207
 30
0.0
 11
37.67199999996831
 21
5.809308571871147
 31
0.0
  0
LINE
  5
FF25
330
FF0F
100
AcDbEntity
  8
0
  6
CONTINUOUS
100
AcDbLine
 10
32.83432456621412
 20
0.2981139290367771
 30
0.0
 11
33.89722476612215
 21
1.361014128944803
 31
0.0
  0
LINE
  5
FF26
330
FF0F
100
AcDbEntity
  8
0
  6
CONTINUOUS
100
AcDbLine
 10
36.23199999996837
 20
3.69578936279102
 30
0.0
 11
37.67199999996831
 21
5.135789362790962
 31
0.0
  0
LINE
  5
FF27
330
FF0F
100
AcDbEntity
  8
0
  6
CONTINUOUS
100
AcDbLine
 10
33.2711633111245
 20
0.0614334648669672
 30
0.0
 11
34.43247338014423
 21
1.222743533886696
 31
0.0
  0
LINE
  5
FF28
330
FF0F
100
AcDbEntity
  8
0
  6
CONTINUOUS
100
AcDbLine
 10
36.23199999996837
 20
3.022270153710834
 30
0.0
 11
37.67199999996831
 21
4.462270153710775
 31
0.0
  0
LINE
  5
FF29
330
FF0F
100
AcDbEntity
  8
0
  6
CONTINUOUS
100
AcDbLine
 10
33.76515245874577
 20
-0.1180965965919523
 30
0.0
 11
35.1587445516215
 21
1.27549549628378
 31
0.0
  0
LINE
  5
FF2A
330
FF0F
100
AcDbEntity
  8
0
  6
CONTINUOUS
100
AcDbLine
 10
36.21639478609585
 20
2.333145730758136
 30
0.0
 11
37.67199999996831
 21
3.788750944630588
 31
0.0
  0
LINE
  5
FF2B
330
FF0F
100
AcDbEntity
  8
0
  6
CONTINUOUS
100
AcDbLine
 10
34.34060583368432
 20
-0.2161624307335863
 30
0.0
 11
37.67199999996831
 21
3.115231735550401
 31
0.0
  0
LINE
  5
FF2C
330
FF0F
100
AcDbEntity
  8
0
  6
CONTINUOUS
100
AcDbLine
 10
35.01698193613905
 20
-0.2133055373590427
 30
0.0
 11
37.66876712070525
 21
2.438479647207154
 31
0.0
  0
LINE
  5
FF2D
330
FF0F
100
AcDbEntity
  8
0
  6
CONTINUOUS
100
AcDbLine
 10
35.90743367693304
 20
0.0036269943547609
 30
0.0
 11
37.51723902192366
 21
1.613432339345381
 31
0.0
  0
LINE
  5
FF2E
330
FF0F
100
AcDbEntity
  8
0
  6
CONTINUOUS
100
AcDbLine
 10
32.55309425579761
 20
0.5074718966376706
 30
0.0
 11
32.27784730925847
 21
0.7827188431768102
 31
0.0
  0
LINE
  5
FF2F
330
FF0F
100
AcDbEntity
  8
0
  6
CONTINUOUS
100
AcDbLine
 10
33.87496468909684
 20
-0.1408793275813673
 30
0.0
 11
31.67993083278052
 21
2.054154528734943
 31
0.0
  0
LINE
  5
FF30
330
FF0F
100
AcDbEntity
  8
0
  6
CONTINUOUS
100
AcDbLine
 10
34.64362813207632
 20
-0.2360235614806649
 30
0.0
 11
31.64199999996833
 21
2.765604570627322
 31
0.0
  0
LINE
  5
FF31
330
FF0F
100
AcDbEntity
  8
0
  6
CONTINUOUS
100
AcDbLine
 10
35.25801106796118
 20
-0.1768872882853429
 30
0.0
 11
31.64199999996833
 21
3.439123779707508
 31
0.0
  0
LINE
  5
FF32
330
FF0F
100
AcDbEntity
  8
0
  6
CONTINUOUS
100
AcDbLine
 10
35.79065650332146
 20
-0.0360135145654361
 30
0.0
 11
34.54143210838231
 21
1.213210880373721
 31
0.0
  0
LINE
  5
FF33
330
FF0F
100
AcDbEntity
  8
0
  6
CONTINUOUS
100
AcDbLine
 10
33.08199999996839
 20
2.67264298878764
 30
0.0
 11
31.64199999996833
 21
4.112642988787695
 31
0.0
  0
LINE
  5
FF34
330
FF0F
100
AcDbEntity
  8
0
  6
CONTINUOUS
100
AcDbLine
 10
36.25975597779143
 20
0.1684062200447833
 30
0.0
 11
35.15395110240023
 21
1.274211095435983
 31
0.0
  0
LINE
  5
FF35
330
FF0F
100
AcDbEntity
  8
0
  6
CONTINUOUS
100
AcDbLine
 10
33.08199999996839
 20
3.346162197867826
 30
0.0
 11
31.64199999996833
 21
4.786162197867881
 31
0.0
  0
LINE
  5
FF36
330
FF0F
100
AcDbEntity
  8
0
  6
CONTINUOUS
100
AcDbLine
 10
36.67226329638774
 20
0.4294181105286579
 30
0.0
 11
35.63766478748767
 21
1.464016619428737
 31
0.0
  0
LINE
  5
FF37
330
FF0F
100
AcDbEntity
  8
0
  6
CONTINUOUS
100
AcDbLine
 10
33.08199999996839
 20
4.019681406948012
 30
0.0
 11
31.64199999996833
 21
5.459681406948068
 31
0.0
  0
LINE
  5
FF38
330
FF0F
100
AcDbEntity
  8
0
  6
CONTINUOUS
100
AcDbLine
 10
37.01677749710036
 20
0.7584231188962329
 30
0.0
 11
35.99563422741351
 21
1.779566388583076
 31
0.0
  0
LINE
  5
FF39
330
FF0F
100
AcDbEntity
  8
0
  6
CONTINUOUS
100
AcDbLine
 10
33.08199999996839
 20
4.693200616028199
 30
0.0
 11
31.64199999996833
 21
6.133200616028255
 31
0.0
  0
LINE
  5
FF3A
330
FF0F
100
AcDbEntity
  8
0
  6
CONTINUOUS
100
AcDbLine
 10
37.29859977568887
 20
1.1501200493879
 30
0.0
 11
36.20680593341555
 21
2.241913891661226
 31
0.0
  0
LINE
  5
FF3B
330
FF0F
100
AcDbEntity
  8
0
  6
CONTINUOUS
100
AcDbLine
 10
33.08199999996839
 20
5.366719825108386
 30
0.0
 11
31.64199999996833
 21
6.80671982510844
 31
0.0
  0
LINE
  5
FF3C
330
FF0F
100
AcDbEntity
  8
0
  6
CONTINUOUS
100
AcDbLine
 10
37.5148623517228
 20
1.607376682434161
 30
0.0
 11
36.23199999996837
 21
2.890239034188594
 31
0.0
  0
LINE
  5
FF3D
330
FF0F
100
AcDbEntity
  8
0
  6
CONTINUOUS
100
AcDbLine
 10
33.08199999996839
 20
6.040239034188573
 30
0.0
 11
31.64199999996833
 21
7.480239034188627
 31
0.0
  0
LINE
  5
FF3E
330
FF0F
100
AcDbEntity
  8
0
  6
CONTINUOUS
100
AcDbLine
 10
37.64705163358367
 20
2.148706609653477
 30
0.0
 11
36.23199999996837
 21
3.56375824326878
 31
0.0
  0
LINE
  5
FF3F
330
FF0F
100
AcDbEntity
  8
0
  6
CONTINUOUS
100
AcDbLine
 10
33.08199999996839
 20
6.713758243268758
 30
0.0
 11
31.64199999996833
 21
8.153758243268815
 31
0.0
  0
LINE
  5
FF40
330
FF0F
100
AcDbEntity
  8
0
  6
CONTINUOUS
100
AcDbLine
 10
37.67199999996831
 20
2.797277452349026
 30
0.0
 11
36.23199999996837
 21
4.237277452348967
 31
0.0
  0
LINE
  5
FF41
330
FF0F
100
AcDbEntity
  8
0
  6
CONTINUOUS
100
AcDbLine
 10
37.67199999996831
 20
3.470796661429213
 30
0.0
 11
36.23199999996837
 21
4.910796661429154
 31
0.0
  0
LINE
  5
FF42
330
FF0F
100
AcDbEntity
  8
0
  6
CONTINUOUS
100
AcDbLine
 10
37.67199999996831
 20
4.144315870509399
 30
0.0
 11
36.23199999996837
 21
5.58431587050934
 31
0.0
  0
LINE
  5
FF43
330
FF0F
100
AcDbEntity
  8
0
  6
CONTINUOUS
100
AcDbLine
 10
33.08199999996839
 20
7.387277452348945
 30
0.0
 11
31.70617745232608
 21
8.763099999991255
 31
0.0
  0
LINE
  5
FF44
330
FF0F
100
AcDbEntity
  8
0
  6
CONTINUOUS
100
AcDbLine
 10
33.08199999996839
 20
8.060796661429132
 30
0.0
 11
32.37969666140626
 21
8.763099999991255
 31
0.0
  0
LINE
  5
FF45
330
FF0F
100
AcDbEntity
  8
0
  6
CONTINUOUS
100
AcDbLine
 10
33.08199999996839
 20
8.734315870509318
 30
0.0
 11
33.05321587048645
 21
8.763099999991255
 31
0.0
  0
LINE
  5
FF46
330
FF0F
100
AcDbEntity
  8
0
  6
CONTINUOUS
100
AcDbLine
 10
37.67199999996831
 20
4.817835079589585
 30
0.0
 11
36.23199999996837
 21
6.257835079589526
 31
0.0
  0
LINE
  5
FF47
330
FF0F
100
AcDbEntity
  8
0
  6
CONTINUOUS
100
AcDbLine
 10
37.67199999996831
 20
5.491354288669771
 30
0.0
 11
36.23199999996837
 21
6.931354288669713
 31
0.0
  0
LINE
  5
FF48
330
FF0F
100
AcDbEntity
  8
0
  6
CONTINUOUS
100
AcDbLine
 10
37.67199999996831
 20
6.164873497749958
 30
0.0
 11
36.23199999996837
 21
7.6048734977499
 31
0.0
  0
LINE
  5
FF49
330
FF0F
100
AcDbEntity
  8
0
  6
CONTINUOUS
100
AcDbLine
 10
37.67199999996831
 20
6.838392706830144
 30
0.0
 11
36.23199999996837
 21
8.278392706830086
 31
0.0
  0
LINE
  5
FF4A
330
FF0F
100
AcDbEntity
  8
0
  6
CONTINUOUS
100
AcDbLine
 10
37.67199999996831
 20
7.511911915910332
 30
0.0
 11
36.42081191588738
 21
8.763099999991255
 31
0.0
  0
LINE
  5
FF4B
330
FF0F
100
AcDbEntity
  8
0
  6
CONTINUOUS
100
AcDbLine
 10
37.67199999996831
 20
8.185431124990519
 30
0.0
 11
37.09433112496757
 21
8.763099999991255
 31
0.0
  0
ENDBLK
  5
FFB3
330
FF0F
100
AcDbEntity
  8
0
100
AcDbBlockEnd
  0
BLOCK
  5
FFB4
330
FF4C
100
AcDbEntity
  8
0
100
AcDbBlockBegin
  2
*X30
 70
     1
 10
0.0
 20
0.0
 30
0.0
  3
*X30
  1

  0
LINE
  5
FF4D
330
FF4C
100
AcDbEntity
  8
0
  6
CONTINUOUS
100
AcDbLine
 10
38.60499999996136
 20
8.762866199104765
 30
0.0
 11
38.71672554182345
 21
8.874591740966855
 31
0.0
  0
LINE
  5
FF4E
330
FF4C
100
AcDbEntity
  8
0
  6
CONTINUOUS
100
AcDbLine
 10
38.60499999996136
 20
8.089346990024577
 30
0.0
 11
39.03418785440363
 21
8.518534844466847
 31
0.0
  0
LINE
  5
FF4F
330
FF4C
100
AcDbEntity
  8
0
  6
CONTINUOUS
100
AcDbLine
 10
38.60499999996136
 20
7.41582778094439
 30
0.0
 11
39.35165016698382
 21
8.16247794796684
 31
0.0
  0
LINE
  5
FF50
330
FF4C
100
AcDbEntity
  8
0
  6
CONTINUOUS
100
AcDbLine
 10
38.60499999996136
 20
6.742308571864204
 30
0.0
 11
39.66911247956399
 21
7.806421051466834
 31
0.0
  0
LINE
  5
FF51
330
FF4C
100
AcDbEntity
  8
0
  6
CONTINUOUS
100
AcDbLine
 10
38.60499999996136
 20
6.068789362784018
 30
0.0
 11
39.98657479214418
 21
7.450364154966827
 31
0.0
  0
LINE
  5
FF52
330
FF4C
100
AcDbEntity
  8
0
  6
CONTINUOUS
100
AcDbLine
 10
38.60499999996136
 20
5.395270153703832
 30
0.0
 11
40.30403710472435
 21
7.09430725846682
 31
0.0
  0
LINE
  5
FF53
330
FF4C
100
AcDbEntity
  8
0
  6
CONTINUOUS
100
AcDbLine
 10
38.60499999996136
 20
4.721750944623645
 30
0.0
 11
40.62149941730453
 21
6.738250361966813
 31
0.0
  0
LINE
  5
FF54
330
FF4C
100
AcDbEntity
  8
0
  6
CONTINUOUS
100
AcDbLine
 10
38.60499999996136
 20
4.048231735543458
 30
0.0
 11
40.93896172988471
 21
6.382193465466806
 31
0.0
  0
LINE
  5
FF55
330
FF4C
100
AcDbEntity
  8
0
  6
CONTINUOUS
100
AcDbLine
 10
38.60499999996136
 20
3.374712526463272
 30
0.0
 11
40.02599999995994
 21
4.795712526461843
 31
0.0
  0
LINE
  5
FF56
330
FF4C
100
AcDbEntity
  8
0
  6
CONTINUOUS
100
AcDbLine
 10
38.60499999996136
 20
2.701193317383085
 30
0.0
 11
40.02599999995994
 21
4.122193317381657
 31
0.0
  0
LINE
  5
FF57
330
FF4C
100
AcDbEntity
  8
0
  6
CONTINUOUS
100
AcDbLine
 10
40.28339754687704
 20
5.053110073378947
 30
0.0
 11
41.25642404246489
 21
6.026136568966799
 31
0.0
  0
LINE
  5
FF58
330
FF4C
100
AcDbEntity
  8
0
  6
CONTINUOUS
100
AcDbLine
 10
40.60085985945722
 20
4.697053176878939
 30
0.0
 11
41.57388635504507
 21
5.670079672466793
 31
0.0
  0
LINE
  5
FF59
330
FF4C
100
AcDbEntity
  8
0
  6
CONTINUOUS
100
AcDbLine
 10
43.57899999995641
 20
8.348712526458318
 30
0.0
 11
43.99338747348935
 21
8.763099999991255
 31
0.0
  0
LINE
  5
FF5A
330
FF4C
100
AcDbEntity
  8
0
  6
CONTINUOUS
100
AcDbLine
 10
43.57899999995641
 20
7.675193317378131
 30
0.0
 11
44.66690668256953
 21
8.763099999991255
 31
0.0
  0
LINE
  5
FF5B
330
FF4C
100
AcDbEntity
  8
0
  6
CONTINUOUS
100
AcDbLine
 10
38.60499999996136
 20
2.027674108302898
 30
0.0
 11
40.02599999995994
 21
3.44867410830147
 31
0.0
  0
LINE
  5
FF5C
330
FF4C
100
AcDbEntity
  8
0
  6
CONTINUOUS
100
AcDbLine
 10
38.60499999996136
 20
1.354154899222712
 30
0.0
 11
40.02599999995994
 21
2.775154899221284
 31
0.0
  0
LINE
  5
FF5D
330
FF4C
100
AcDbEntity
  8
0
  6
CONTINUOUS
100
AcDbLine
 10
38.60499999996136
 20
0.6806356901425255
 30
0.0
 11
40.02599999995994
 21
2.101635690141098
 31
0.0
  0
LINE
  5
FF5E
330
FF4C
100
AcDbEntity
  8
0
  6
CONTINUOUS
100
AcDbLine
 10
38.60499999996136
 20
0.0071164810623383
 30
0.0
 11
40.02599999995994
 21
1.428116481060911
 31
0.0
  0
LINE
  5
FF5F
330
FF4C
100
AcDbEntity
  8
0
  6
CONTINUOUS
100
AcDbLine
 10
40.9183221720374
 20
4.340996280378933
 30
0.0
 11
41.89134866762525
 21
5.314022775966786
 31
0.0
  0
LINE
  5
FF60
330
FF4C
100
AcDbEntity
  8
0
  6
CONTINUOUS
100
AcDbLine
 10
41.23578448461758
 20
3.984939383878926
 30
0.0
 11
42.20881098020543
 21
4.957965879466778
 31
0.0
  0
LINE
  5
FF61
330
FF4C
100
AcDbEntity
  8
0
  6
CONTINUOUS
100
AcDbLine
 10
41.55324679719776
 20
3.628882487378919
 30
0.0
 11
42.52627329278561
 21
4.601908982966772
 31
0.0
  0
LINE
  5
FF62
330
FF4C
100
AcDbEntity
  8
0
  6
CONTINUOUS
100
AcDbLine
 10
41.87070910977793
 20
3.272825590878912
 30
0.0
 11
42.84373560536579
 21
4.245852086466765
 31
0.0
  0
LINE
  5
FF63
330
FF4C
100
AcDbEntity
  8
0
  6
CONTINUOUS
100
AcDbLine
 10
43.57899999995641
 20
7.001674108297943
 30
0.0
 11
44.99999999995498
 21
8.422674108296516
 31
0.0
  0
LINE
  5
FF64
330
FF4C
100
AcDbEntity
  8
0
  6
CONTINUOUS
100
AcDbLine
 10
43.57899999995641
 20
6.328154899217758
 30
0.0
 11
44.99999999995498
 21
7.749154899216329
 31
0.0
  0
LINE
  5
FF65
330
FF4C
100
AcDbEntity
  8
0
  6
CONTINUOUS
100
AcDbLine
 10
43.57899999995641
 20
5.654635690137571
 30
0.0
 11
44.99999999995498
 21
7.075635690136142
 31
0.0
  0
LINE
  5
FF66
330
FF4C
100
AcDbEntity
  8
0
  6
CONTINUOUS
100
AcDbLine
 10
43.57899999995641
 20
4.981116481057384
 30
0.0
 11
44.99999999995498
 21
6.402116481055955
 31
0.0
  0
LINE
  5
FF67
330
FF4C
100
AcDbEntity
  8
0
  6
CONTINUOUS
100
AcDbLine
 10
39.27140272797921
 20
-0.0000000000000009
 30
0.0
 11
40.02599999995994
 21
0.7545972719807246
 31
0.0
  0
LINE
  5
FF68
330
FF4C
100
AcDbEntity
  8
0
  6
CONTINUOUS
100
AcDbLine
 10
39.9449219370594
 20
-0.0000000000000009
 30
0.0
 11
40.02599999995994
 21
0.0810780629005379
 31
0.0
  0
LINE
  5
FF69
330
FF4C
100
AcDbEntity
  8
0
  6
CONTINUOUS
100
AcDbLine
 10
42.18817142235812
 20
2.916768694378905
 30
0.0
 11
43.16119791794597
 21
3.889795189966758
 31
0.0
  0
LINE
  5
FF6A
330
FF4C
100
AcDbEntity
  8
0
  6
CONTINUOUS
100
AcDbLine
 10
42.50563373493829
 20
2.560711797878898
 30
0.0
 11
43.47866023052615
 21
3.533738293466751
 31
0.0
  0
LINE
  5
FF6B
330
FF4C
100
AcDbEntity
  8
0
  6
CONTINUOUS
100
AcDbLine
 10
43.57899999995641
 20
4.307597271977198
 30
0.0
 11
44.99999999995498
 21
5.728597271975769
 31
0.0
  0
LINE
  5
FF6C
330
FF4C
100
AcDbEntity
  8
0
  6
CONTINUOUS
100
AcDbLine
 10
43.57899999995641
 20
3.634078062897011
 30
0.0
 11
44.99999999995498
 21
5.055078062895582
 31
0.0
  0
LINE
  5
FF6D
330
FF4C
100
AcDbEntity
  8
0
  6
CONTINUOUS
100
AcDbLine
 10
42.82309604751848
 20
2.204654901378891
 30
0.0
 11
44.99999999995498
 21
4.381558853815395
 31
0.0
  0
LINE
  5
FF6E
330
FF4C
100
AcDbEntity
  8
0
  6
CONTINUOUS
100
AcDbLine
 10
43.14055836009865
 20
1.848598004878885
 30
0.0
 11
44.99999999995498
 21
3.70803964473521
 31
0.0
  0
LINE
  5
FF6F
330
FF4C
100
AcDbEntity
  8
0
  6
CONTINUOUS
100
AcDbLine
 10
43.45802067267883
 20
1.492541108378878
 30
0.0
 11
44.99999999995498
 21
3.034520435655023
 31
0.0
  0
LINE
  5
FF70
330
FF4C
100
AcDbEntity
  8
0
  6
CONTINUOUS
100
AcDbLine
 10
43.77548298525902
 20
1.136484211878871
 30
0.0
 11
44.99999999995498
 21
2.361001226574837
 31
0.0
  0
LINE
  5
FF71
330
FF4C
100
AcDbEntity
  8
0
  6
CONTINUOUS
100
AcDbLine
 10
44.09294529783919
 20
0.7804273153788639
 30
0.0
 11
44.99999999995498
 21
1.687482017494649
 31
0.0
  0
LINE
  5
FF72
330
FF4C
100
AcDbEntity
  8
0
  6
CONTINUOUS
100
AcDbLine
 10
44.41040761041938
 20
0.4243704188788566
 30
0.0
 11
44.99999999995498
 21
1.013962808414463
 31
0.0
  0
LINE
  5
FF73
330
FF4C
100
AcDbEntity
  8
0
  6
CONTINUOUS
100
AcDbLine
 10
44.72786992299955
 20
0.0683135223788494
 30
0.0
 11
44.99999999995498
 21
0.340443599334276
 31
0.0
  0
LINE
  5
FF74
330
FF4C
100
AcDbEntity
  8
0
  6
CONTINUOUS
100
AcDbLine
 10
39.12223903415696
 20
-0.0000000000000009
 30
0.0
 11
38.60499999996136
 21
0.5172390341955961
 31
0.0
  0
LINE
  5
FF75
330
FF4C
100
AcDbEntity
  8
0
  6
CONTINUOUS
100
AcDbLine
 10
39.79575824323715
 20
-0.0000000000000009
 30
0.0
 11
38.60499999996136
 21
1.190758243275783
 31
0.0
  0
LINE
  5
FF76
330
FF4C
100
AcDbEntity
  8
0
  6
CONTINUOUS
100
AcDbLine
 10
40.02599999995994
 20
0.443277452357397
 30
0.0
 11
38.60499999996136
 21
1.864277452355969
 31
0.0
  0
LINE
  5
FF77
330
FF4C
100
AcDbEntity
  8
0
  6
CONTINUOUS
100
AcDbLine
 10
40.02599999995994
 20
1.116796661437583
 30
0.0
 11
38.60499999996136
 21
2.537796661436155
 31
0.0
  0
LINE
  5
FF78
330
FF4C
100
AcDbEntity
  8
0
  6
CONTINUOUS
100
AcDbLine
 10
40.02599999995994
 20
1.79031587051777
 30
0.0
 11
38.60499999996136
 21
3.211315870516341
 31
0.0
  0
LINE
  5
FF79
330
FF4C
100
AcDbEntity
  8
0
  6
CONTINUOUS
100
AcDbLine
 10
40.02599999995994
 20
2.463835079597956
 30
0.0
 11
38.60499999996136
 21
3.884835079596527
 31
0.0
  0
LINE
  5
FF7A
330
FF4C
100
AcDbEntity
  8
0
  6
CONTINUOUS
100
AcDbLine
 10
40.02599999995994
 20
3.137354288678143
 30
0.0
 11
38.60499999996136
 21
4.558354288676714
 31
0.0
  0
LINE
  5
FF7B
330
FF4C
100
AcDbEntity
  8
0
  6
CONTINUOUS
100
AcDbLine
 10
40.02599999995994
 20
3.810873497758329
 30
0.0
 11
38.60499999996136
 21
5.2318734977569
 31
0.0
  0
LINE
  5
FF7C
330
FF4C
100
AcDbEntity
  8
0
  6
CONTINUOUS
100
AcDbLine
 10
40.02599999995994
 20
4.484392706838515
 30
0.0
 11
38.60499999996136
 21
5.905392706837086
 31
0.0
  0
LINE
  5
FF7D
330
FF4C
100
AcDbEntity
  8
0
  6
CONTINUOUS
100
AcDbLine
 10
44.99999999995498
 20
0.183911915923658
 30
0.0
 11
41.53858364506288
 21
3.64532827081576
 31
0.0
  0
LINE
  5
FF7E
330
FF4C
100
AcDbEntity
  8
0
  6
CONTINUOUS
100
AcDbLine
 10
40.02599999995994
 20
5.157911915918703
 30
0.0
 11
38.60499999996136
 21
6.578911915917274
 31
0.0
  0
LINE
  5
FF7F
330
FF4C
100
AcDbEntity
  8
0
  6
CONTINUOUS
100
AcDbLine
 10
44.99999999995498
 20
0.8574311250038447
 30
0.0
 11
38.60499999996136
 21
7.25243112499746
 31
0.0
  0
LINE
  5
FF80
330
FF4C
100
AcDbEntity
  8
0
  6
CONTINUOUS
100
AcDbLine
 10
44.99999999995498
 20
1.530950334084031
 30
0.0
 11
38.60499999996136
 21
7.925950334077647
 31
0.0
  0
LINE
  5
FF81
330
FF4C
100
AcDbEntity
  8
0
  6
CONTINUOUS
100
AcDbLine
 10
44.99999999995498
 20
2.204469543164218
 30
0.0
 11
43.57899999995641
 21
3.625469543162789
 31
0.0
  0
LINE
  5
FF82
330
FF4C
100
AcDbEntity
  8
0
  6
CONTINUOUS
100
AcDbLine
 10
41.89876730984767
 20
5.305702233271528
 30
0.0
 11
38.60499999996136
 21
8.599469543157834
 31
0.0
  0
LINE
  5
FF83
330
FF4C
100
AcDbEntity
  8
0
  6
CONTINUOUS
100
AcDbLine
 10
44.99999999995498
 20
2.877988752244405
 30
0.0
 11
43.57899999995641
 21
4.298988752242975
 31
0.0
  0
LINE
  5
FF84
330
FF4C
100
AcDbEntity
  8
0
  6
CONTINUOUS
100
AcDbLine
 10
44.99999999995498
 20
3.551507961324591
 30
0.0
 11
43.57899999995641
 21
4.972507961323163
 31
0.0
  0
LINE
  5
FF85
330
FF4C
100
AcDbEntity
  8
0
  6
CONTINUOUS
100
AcDbLine
 10
44.99999999995498
 20
4.225027170404777
 30
0.0
 11
43.57899999995641
 21
5.646027170403348
 31
0.0
  0
LINE
  5
FF86
330
FF4C
100
AcDbEntity
  8
0
  6
CONTINUOUS
100
AcDbLine
 10
44.99999999995498
 20
4.898546379484964
 30
0.0
 11
43.57899999995641
 21
6.319546379483535
 31
0.0
  0
LINE
  5
FF87
330
FF4C
100
AcDbEntity
  8
0
  6
CONTINUOUS
100
AcDbLine
 10
44.99999999995498
 20
5.572065588565151
 30
0.0
 11
43.57899999995641
 21
6.993065588563722
 31
0.0
  0
LINE
  5
FF88
330
FF4C
100
AcDbEntity
  8
0
  6
CONTINUOUS
100
AcDbLine
 10
44.99999999995498
 20
6.245584797645336
 30
0.0
 11
43.57899999995641
 21
7.666584797643908
 31
0.0
  0
LINE
  5
FF89
330
FF4C
100
AcDbEntity
  8
0
  6
CONTINUOUS
100
AcDbLine
 10
44.99999999995498
 20
6.919104006725522
 30
0.0
 11
43.57899999995641
 21
8.340104006724093
 31
0.0
  0
LINE
  5
FF8A
330
FF4C
100
AcDbEntity
  8
0
  6
CONTINUOUS
100
AcDbLine
 10
44.99999999995498
 20
7.592623215805709
 30
0.0
 11
43.82952321576943
 21
8.763099999991255
 31
0.0
  0
LINE
  5
FF8B
330
FF4C
100
AcDbEntity
  8
0
  6
CONTINUOUS
100
AcDbLine
 10
44.99999999995498
 20
8.266142424885896
 30
0.0
 11
44.50304242484962
 21
8.763099999991255
 31
0.0
  0
ENDBLK
  5
FFB5
330
FF4C
100
AcDbEntity
  8
0
100
AcDbBlockEnd
  0
BLOCK
  5
FFB6
330
FF8C
100
AcDbEntity
  8
0
100
AcDbBlockBegin
  2
*X31
 70
     1
 10
0.0
 20
0.0
 30
0.0
  3
*X31
  1

  0
LINE
  5
FF8D
330
FF8C
100
AcDbEntity
  8
0
  6
CONTINUOUS
100
AcDbLine
 10
0.0
 20
8.548461116714023
 30
0.0
 11
0.2146388832772324
 21
8.763099999991255
 31
0.0
  0
LINE
  5
FF8E
330
FF8C
100
AcDbEntity
  8
0
  6
CONTINUOUS
100
AcDbLine
 10
-0.0000000000000002
 20
7.874941907633837
 30
0.0
 11
0.8881580923574184
 21
8.763099999991255
 31
0.0
  0
LINE
  5
FF8F
330
FF8C
100
AcDbEntity
  8
0
  6
CONTINUOUS
100
AcDbLine
 10
0.0
 20
7.20142269855365
 30
0.0
 11
1.420999999998572
 21
8.622422698552223
 31
0.0
  0
LINE
  5
FF90
330
FF8C
100
AcDbEntity
  8
0
  6
CONTINUOUS
100
AcDbLine
 10
-0.0000000000000001
 20
6.527903489473465
 30
0.0
 11
1.420999999998571
 21
7.948903489472036
 31
0.0
  0
LINE
  5
FF91
330
FF8C
100
AcDbEntity
  8
0
  6
CONTINUOUS
100
AcDbLine
 10
-0.0000000000000002
 20
5.854384280393278
 30
0.0
 11
1.420999999998571
 21
7.275384280391849
 31
0.0
  0
LINE
  5
FF92
330
FF8C
100
AcDbEntity
  8
0
  6
CONTINUOUS
100
AcDbLine
 10
-0.0000000000000002
 20
5.180865071313091
 30
0.0
 11
1.420999999998571
 21
6.601865071311663
 31
0.0
  0
LINE
  5
FF93
330
FF8C
100
AcDbEntity
  8
0
  6
CONTINUOUS
100
AcDbLine
 10
0.0
 20
4.507345862232905
 30
0.0
 11
1.420999999998571
 21
5.928345862231477
 31
0.0
  0
LINE
  5
FF94
330
FF8C
100
AcDbEntity
  8
0
  6
CONTINUOUS
100
AcDbLine
 10
-0.0000000000000003
 20
3.833826653152718
 30
0.0
 11
1.420999999998571
 21
5.25482665315129
 31
0.0
  0
LINE
  5
FF95
330
FF8C
100
AcDbEntity
  8
0
  6
CONTINUOUS
100
AcDbLine
 10
-0.0000000000000002
 20
3.160307444072532
 30
0.0
 11
1.420999999998571
 21
4.581307444071103
 31
0.0
  0
LINE
  5
FF96
330
FF8C
100
AcDbEntity
  8
0
  6
CONTINUOUS
100
AcDbLine
 10
-0.0000000000000001
 20
2.486788234992345
 30
0.0
 11
1.420999999998571
 21
3.907788234990917
 31
0.0
  0
LINE
  5
FF97
330
FF8C
100
AcDbEntity
  8
0
  6
CONTINUOUS
100
AcDbLine
 10
-0.0000000000000006
 20
1.813269025912159
 30
0.0
 11
1.420999999998571
 21
3.234269025910731
 31
0.0
  0
LINE
  5
FF98
330
FF8C
100
AcDbEntity
  8
0
  6
CONTINUOUS
100
AcDbLine
 10
0.0
 20
1.139749816831973
 30
0.0
 11
1.420999999998571
 21
2.560749816830544
 31
0.0
  0
LINE
  5
FF99
330
FF8C
100
AcDbEntity
  8
0
  6
CONTINUOUS
100
AcDbLine
 10
0.0000000000000002
 20
0.466230607751787
 30
0.0
 11
1.420999999998571
 21
1.887230607750358
 31
0.0
  0
LINE
  5
FF9A
330
FF8C
100
AcDbEntity
  8
0
  6
CONTINUOUS
100
AcDbLine
 10
0.2072886013284003
 20
-0.0000000000000009
 30
0.0
 11
1.420999999998571
 21
1.213711398670171
 31
0.0
  0
LINE
  5
FF9B
330
FF8C
100
AcDbEntity
  8
0
  6
CONTINUOUS
100
AcDbLine
 10
0.8808078104085864
 20
-0.0000000000000009
 30
0.0
 11
1.420999999998571
 21
0.5401921895899839
 31
0.0
  0
LINE
  5
FF9C
330
FF8C
100
AcDbEntity
  8
0
  6
CONTINUOUS
100
AcDbLine
 10
0.0581249075061505
 20
-0.0000000000000009
 30
0.0
 11
-0.0000000000000002
 21
0.0581249075061496
 31
0.0
  0
LINE
  5
FF9D
330
FF8C
100
AcDbEntity
  8
0
  6
CONTINUOUS
100
AcDbLine
 10
0.7316441165863372
 20
-0.0000000000000009
 30
0.0
 11
-0.0000000000000002
 21
0.7316441165863363
 31
0.0
  0
LINE
  5
FF9E
330
FF8C
100
AcDbEntity
  8
0
  6
CONTINUOUS
100
AcDbLine
 10
1.405163325666523
 20
-0.0000000000000009
 30
0.0
 11
-0.0000000000000002
 21
1.405163325666523
 31
0.0
  0
LINE
  5
FF9F
330
FF8C
100
AcDbEntity
  8
0
  6
CONTINUOUS
100
AcDbLine
 10
1.420999999998572
 20
0.6576825347481381
 30
0.0
 11
-0.0000000000000001
 21
2.07868253474671
 31
0.0
  0
LINE
  5
FFA0
330
FF8C
100
AcDbEntity
  8
0
  6
CONTINUOUS
100
AcDbLine
 10
1.420999999998571
 20
1.331201743828324
 30
0.0
 11
-0.0000000000000001
 21
2.752201743826896
 31
0.0
  0
LINE
  5
FFA1
330
FF8C
100
AcDbEntity
  8
0
  6
CONTINUOUS
100
AcDbLine
 10
1.420999999998571
 20
2.004720952908511
 30
0.0
 11
-0.0000000000000002
 21
3.425720952907082
 31
0.0
  0
LINE
  5
FFA2
330
FF8C
100
AcDbEntity
  8
0
  6
CONTINUOUS
100
AcDbLine
 10
1.420999999998571
 20
2.678240161988697
 30
0.0
 11
-0.0000000000000001
 21
4.099240161987269
 31
0.0
  0
LINE
  5
FFA3
330
FF8C
100
AcDbEntity
  8
0
  6
CONTINUOUS
100
AcDbLine
 10
1.420999999998572
 20
3.351759371068884
 30
0.0
 11
0.0
 21
4.772759371067455
 31
0.0
  0
LINE
  5
FFA4
330
FF8C
100
AcDbEntity
  8
0
  6
CONTINUOUS
100
AcDbLine
 10
1.420999999998571
 20
4.02527858014907
 30
0.0
 11
-0.0000000000000003
 21
5.446278580147642
 31
0.0
  0
LINE
  5
FFA5
330
FF8C
100
AcDbEntity
  8
0
  6
CONTINUOUS
100
AcDbLine
 10
1.420999999998571
 20
4.698797789229257
 30
0.0
 11
0.0
 21
6.119797789227828
 31
0.0
  0
LINE
  5
FFA6
330
FF8C
100
AcDbEntity
  8
0
  6
CONTINUOUS
100
AcDbLine
 10
1.420999999998571
 20
5.372316998309444
 30
0.0
 11
-0.0000000000000001
 21
6.793316998308015
 31
0.0
  0
LINE
  5
FFA7
330
FF8C
100
AcDbEntity
  8
0
  6
CONTINUOUS
100
AcDbLine
 10
1.420999999998572
 20
6.045836207389629
 30
0.0
 11
-0.0000000000000004
 21
7.466836207388202
 31
0.0
  0
LINE
  5
FFA8
330
FF8C
100
AcDbEntity
  8
0
  6
CONTINUOUS
100
AcDbLine
 10
1.420999999998571
 20
6.719355416469816
 30
0.0
 11
0.0
 21
8.140355416468388
 31
0.0
  0
LINE
  5
FFA9
330
FF8C
100
AcDbEntity
  8
0
  6
CONTINUOUS
100
AcDbLine
 10
1.420999999998571
 20
7.392874625550003
 30
0.0
 11
0.0507746255573185
 21
8.763099999991255
 31
0.0
  0
LINE
  5
FFAA
330
FF8C
100
AcDbEntity
  8
0
  6
CONTINUOUS
100
AcDbLine
 10
1.420999999998571
 20
8.06639383463019
 30
0.0
 11
0.7242938346375052
 21
8.763099999991255
 31
0.0
  0
LINE
  5
FFAB
330
FF8C
100
AcDbEntity
  8
0
  6
CONTINUOUS
100
AcDbLine
 10
1.420999999998571
 20
8.739913043710375
 30
0.0
 11
1.397813043717691
 21
8.763099999991255
 31
0.0
  0
ENDBLK
  5
FFB7
330
FF8C
100
AcDbEntity
  8
0
100
AcDbBlockEnd
  0
ENDSEC
  0
SECTION
  2
ENTITIES
  0
LINE
  5
EDCE
330
18
100
AcDbEntity
  8
01
100
AcDbLine
 10
4892.839883189001
 20
1770.034411655985
 30
0.0000000000563712
 11
4918.839883189001
 21
1770.034411655985
 31
0.0000000000563712
  0
LINE
  5
EDCF
330
18
100
AcDbEntity
  8
01
100
AcDbLine
 10
4928.339883189001
 20
1775.534411655985
 30
0.0000000000563712
 11
4883.339883189001
 21
1775.534411655985
 31
0.0000000000563712
  0
LINE
  5
EDD0
330
18
100
AcDbEntity
  8
01
100
AcDbLine
 10
4905.839883189001
 20
1798.034411655985
 30
0.0000000000563712
 11
4905.839883189001
 21
1753.034411655985
 31
0.0000000000563712
  0
LINE
  5
EF08
330
18
100
AcDbEntity
  8
1CENTER
100
AcDbLine
 10
5245.839899153851
 20
2035.37104231759
 30
0.0000000000563712
 11
5245.839899153851
 21
1991.084298603468
 31
0.0000000000563712
  0
LINE
  5
EF09
330
18
100
AcDbEntity
  8
01
100
AcDbLine
 10
5226.339886932645
 20
2016.334411654956
 30
0.0000000000563712
 11
5265.339886932644
 21
2016.334411654956
 31
0.0000000000563712
  0
LINE
  5
EF0A
330
18
100
AcDbEntity
  8
01
100
AcDbLine
 10
5265.839886932645
 20
2010.034411654956
 30
0.0000000000563712
 11
5225.839886932645
 21
2010.034411654956
 31
0.0000000000563712
  0
LINE
  5
EF0B
330
18
100
AcDbEntity
  8
01
100
AcDbLine
 10
5265.839886932645
 20
2010.034411654956
 30
0.0000000000563712
 11
5265.839886932644
 21
2015.834411654956
 31
0.0000000000563712
  0
ARC
  5
EF0C
330
18
100
AcDbEntity
  8
01
100
AcDbCircle
 10
5265.339886932645
 20
2015.834411654956
 30
0.0000000000563712
 40
0.5
100
AcDbArc
 50
0.0
 51
90.0
  0
LINE
  5
EF0D
330
18
100
AcDbEntity
  8
01
100
AcDbLine
 10
5225.839886932645
 20
2010.034411654956
 30
0.0000000000563712
 11
5225.839886932645
 21
2015.834411654956
 31
0.0000000000563712
  0
ARC
  5
EF0E
330
18
100
AcDbEntity
  8
01
100
AcDbCircle
 10
5226.339886932645
 20
2015.834411654956
 30
0.0000000000563712
 40
0.5
100
AcDbArc
 50
90.0
 51
180.0
  0
LINE
  5
EF0F
330
18
100
AcDbEntity
  8
01
100
AcDbLine
 10
5242.339899153858
 20
2017.534408321756
 30
0.0000000000563885
 11
5236.589899153852
 21
2017.534408321757
 31
0.0000000000563885
  0
LINE
  5
EF10
330
18
100
AcDbEntity
  8
01
100
AcDbLine
 10
5243.33989915386
 20
2031.034431265962
 30
0.0000000000563885
 11
5243.339899153858
 21
2018.534408321756
 31
0.0000000000563885
  0
LINE
  5
EF11
330
18
100
AcDbEntity
  8
01
100
AcDbLine
 10
5248.33989915386
 20
2031.034431265961
 30
0.0000000000563885
 11
5248.33989915386
 21
2018.534408321758
 31
0.0000000000563885
  0
ARC
  5
EF12
330
18
100
AcDbEntity
  8
01
100
AcDbCircle
 10
5247.33989915386
 20
2031.034431265962
 30
0.0000000000563885
 40
1.0
100
AcDbArc
 50
0.0000000000521102
 51
90.0
  0
ARC
  5
EF13
330
18
100
AcDbEntity
  8
01
100
AcDbCircle
 10
5244.33989915386
 20
2031.034431265962
 30
0.0000000000563885
 40
1.0
100
AcDbArc
 50
90.0
 51
180.0
  0
LINE
  5
EF14
330
18
100
AcDbEntity
  8
01
100
AcDbLine
 10
5247.33989915386
 20
2032.034431265964
 30
0.0000000000563885
 11
5244.33989915386
 21
2032.034431265964
 31
0.0000000000563885
  0
LINE
  5
EF15
330
18
100
AcDbEntity
  8
01
100
AcDbLine
 10
5255.089899153851
 20
2017.534408321758
 30
0.0000000000563885
 11
5249.33989915386
 21
2017.534408321758
 31
0.0000000000563885
  0
ARC
  5
EF16
330
18
100
AcDbEntity
  8
01
100
AcDbCircle
 10
5249.33989915386
 20
2018.534408321758
 30
0.0000000000563885
 40
1.0
100
AcDbArc
 50
180.0
 51
270.0
  0
ARC
  5
EF17
330
18
100
AcDbEntity
  8
01
100
AcDbCircle
 10
5242.339899153858
 20
2018.534408321756
 30
0.0000000000563885
 40
1.0
100
AcDbArc
 50
270.0
 51
0.0
  0
LINE
  5
EF18
330
18
100
AcDbEntity
  8
01
100
AcDbLine
 10
5236.089899153852
 20
2017.034408321757
 30
0.000000000112646
 11
5236.089899153852
 21
2016.334411654956
 31
0.0000000001126239
  0
ARC
  5
EF19
330
18
100
AcDbEntity
  8
01
100
AcDbCircle
 10
5236.589899153852
 20
2017.034408321757
 30
0.000000000112646
 40
0.5
100
AcDbArc
 50
90.0
 51
180.0
  0
LINE
  5
EF1A
330
18
100
AcDbEntity
  8
01
100
AcDbLine
 10
5255.589899153851
 20
2017.034408321757
 30
0.000000000112646
 11
5255.589899153851
 21
2016.334411654956
 31
0.0000000001126239
  0
ARC
  5
EF1B
330
18
100
AcDbEntity
  8
01
100
AcDbCircle
 10
5255.089899153851
 20
2017.034408321757
 30
0.000000000112646
 40
0.5
100
AcDbArc
 50
0.0
 51
90.0
  0
LINE
  5
EF1C
330
18
100
AcDbEntity
  8
1CENTER
100
AcDbLine
 10
5245.839874579231
 20
1961.209795266902
 30
0.0000000000563712
 11
5245.839874579231
 21
1973.209795266902
 31
0.0000000000563712
  0
LINE
  5
EF1D
330
18
100
AcDbEntity
  8
01
100
AcDbLine
 10
5265.339886800438
 20
1963.734411654953
 30
0.0000000000563712
 11
5226.339886800438
 21
1963.734411654958
 31
0.0000000000563712
  0
LINE
  5
EF1E
330
18
100
AcDbEntity
  8
01
100
AcDbLine
 10
5225.839886800439
 20
1970.034411654959
 30
0.0000000000563712
 11
5265.839886800439
 21
1970.034411654953
 31
0.0000000000563712
  0
LINE
  5
EF1F
330
18
100
AcDbEntity
  8
01
100
AcDbLine
 10
5225.839886800439
 20
1970.034411654959
 30
0.0000000000563712
 11
5225.839886800438
 21
1964.234411654958
 31
0.0000000000563712
  0
ARC
  5
EF20
330
18
100
AcDbEntity
  8
01
100
AcDbCircle
 10
5226.339886800438
 20
1964.234411654959
 30
0.0000000000563712
 40
0.5
100
AcDbArc
 50
179.9999999999739
 51
270.0
  0
LINE
  5
EF21
330
18
100
AcDbEntity
  8
01
100
AcDbLine
 10
5265.839886800439
 20
1970.034411654953
 30
0.0000000000563712
 11
5265.839886800438
 21
1964.234411654953
 31
0.0000000000563712
  0
ARC
  5
EF22
330
18
100
AcDbEntity
  8
01
100
AcDbCircle
 10
5265.339886800438
 20
1964.234411654953
 30
0.0000000000563712
 40
0.5
100
AcDbArc
 50
270.0
 51
0.0
  0
ARC
  5
EF23
330
18
100
AcDbEntity
  8
01
100
AcDbCircle
 10
5245.839877258293
 20
1967.884406277081
 30
0.0000000000562575
 40
6.0
100
AcDbArc
 50
234.3146660000132
 51
256.8165180000152
  0
LINE
  5
EF24
330
18
100
AcDbEntity
  8
01
100
AcDbLine
 10
5242.339877258293
 20
1963.01100627708
 30
0.0000000000562575
 11
5242.339877258292
 21
1963.734411654956
 31
0.0000000000562575
  0
LINE
  5
EF25
330
18
100
AcDbEntity
  8
01
100
AcDbLine
 10
5249.339877258293
 20
1963.01100627708
 30
0.0000000000562575
 11
5249.339877258293
 21
1963.734411654955
 31
0.0000000000562575
  0
LINE
  5
EF26
330
18
100
AcDbEntity
  8
01
100
AcDbLine
 10
5246.839877258293
 20
1962.333857817678
 30
0.0000000000562575
 11
5246.839877258293
 21
1963.734411654955
 31
0.0000000000562575
  0
ARC
  5
EF27
330
18
100
AcDbEntity
  8
01
100
AcDbCircle
 10
5244.539874258293
 20
1962.334636277081
 30
0.0000000000562575
 40
0.30000001
100
AcDbArc
 50
256.8165179999093
 51
0.0
  0
ARC
  5
EF28
330
18
100
AcDbEntity
  8
01
100
AcDbCircle
 10
5247.139876258293
 20
1962.334636277081
 30
0.0000000000562575
 40
0.30000001
100
AcDbArc
 50
179.999996999973
 51
283.1834800000198
  0
LINE
  5
EF29
330
18
100
AcDbEntity
  8
01
100
AcDbLine
 10
5244.839877258293
 20
1962.334636277081
 30
0.0000000000562575
 11
5244.839877258293
 21
1963.734411654956
 31
0.0000000000562575
  0
ARC
  5
EF2A
330
18
100
AcDbEntity
  8
01
100
AcDbCircle
 10
5245.839877258293
 20
1967.884406277081
 30
0.0000000000562575
 40
6.0
100
AcDbArc
 50
283.1834825033491
 51
305.6853299999988
  0
LINE
  5
EF2B
330
18
100
AcDbEntity
  8
1CENTER
100
AcDbLine
 10
4905.839883189001
 20
1764.034411655985
 30
0.0000000000563712
 11
4905.839883189001
 21
1776.034411655985
 31
0.0000000000563712
  0
LINE
  5
EF2C
330
18
100
AcDbEntity
  8
1CENTER
100
AcDbLine
 10
4899.839883189001
 20
1770.034411655985
 30
0.0000000000563712
 11
4911.839883189001
 21
1770.034411655985
 31
0.0000000000563712
  0
LINE
  5
EF2D
330
18
100
AcDbEntity
  8
01
100
AcDbLine
 10
4925.339883188999
 20
1795.534411655985
 30
0.0000000000563712
 11
4886.339883188999
 21
1795.534411655984
 31
0.0000000000563712
  0
ARC
  5
EF2E
330
18
100
AcDbEntity
  8
01
100
AcDbCircle
 10
4886.339883188999
 20
1795.034411655984
 30
0.0000000000563712
 40
0.5
100
AcDbArc
 50
90.0
 51
180.0
  0
LINE
  5
EF2F
330
18
100
AcDbEntity
  8
01
100
AcDbLine
 10
4925.339883188999
 20
1755.534411655985
 30
0.0000000000563712
 11
4886.339883188999
 21
1755.534411655984
 31
0.0000000000563712
  0
ARC
  5
EF30
330
18
100
AcDbEntity
  8
01
100
AcDbCircle
 10
4925.339883188999
 20
1756.034411655985
 30
0.0000000000563712
 40
0.5
100
AcDbArc
 50
270.0
 51
0.0
  0
LINE
  5
EF31
330
18
100
AcDbEntity
  8
01
100
AcDbLine
 10
4925.839883188999
 20
1756.034411655985
 30
0.0000000000563712
 11
4925.839883188999
 21
1795.034411655985
 31
0.0000000000563712
  0
ARC
  5
EF32
330
18
100
AcDbEntity
  8
01
100
AcDbCircle
 10
4925.339883188999
 20
1795.034411655985
 30
0.0000000000563712
 40
0.5
100
AcDbArc
 50
0.0
 51
90.0
  0
LINE
  5
EF33
330
18
100
AcDbEntity
  8
01
100
AcDbLine
 10
4885.839883188999
 20
1756.034411655984
 30
0.0000000000563712
 11
4885.839883188999
 21
1795.034411655984
 31
0.0000000000563712
  0
ARC
  5
EF34
330
18
100
AcDbEntity
  8
01
100
AcDbCircle
 10
4886.339883188999
 20
1756.034411655984
 30
0.0000000000563712
 40
0.5
100
AcDbArc
 50
180.0
 51
270.0
  0
ARC
  5
EF35
330
18
100
AcDbEntity
  8
01
100
AcDbCircle
 10
4907.839883189001
 20
1779.065607590079
 30
0.0000000000563712
 40
0.5000000000000013
100
AcDbArc
 50
0.0
 51
77.51311018581158
  0
ARC
  5
EF36
330
18
100
AcDbEntity
  8
01
100
AcDbCircle
 10
4903.839883189001
 20
1761.00321572189
 30
0.0000000000563712
 40
0.5000000000000029
100
AcDbArc
 50
180.0
 51
257.5131101858652
  0
ARC
  5
EF37
330
18
100
AcDbEntity
  8
01
100
AcDbCircle
 10
4907.839883189001
 20
1761.00321572189
 30
0.0000000000563712
 40
0.5000000000000013
100
AcDbArc
 50
282.4868898141884
 51
0.0
  0
ARC
  5
EF38
330
18
100
AcDbEntity
  8
01
100
AcDbCircle
 10
4905.839883189001
 20
1770.034411655985
 30
0.0000000000563712
 40
9.749999999999995
100
AcDbArc
 50
77.51311018581298
 51
102.4868898141361
  0
ARC
  5
EF39
330
18
100
AcDbEntity
  8
01
100
AcDbCircle
 10
4903.839883189001
 20
1779.065607590079
 30
0.0000000000563712
 40
0.5000000000000029
100
AcDbArc
 50
102.4868898141347
 51
180.0
  0
ARC
  5
EF3A
330
18
100
AcDbEntity
  8
01
100
AcDbCircle
 10
4905.839883189001
 20
1770.034411655985
 30
0.0000000000563712
 40
9.75
100
AcDbArc
 50
257.5131101858639
 51
282.486889814187
  0
LINE
  5
EF3B
330
18
100
AcDbEntity
  8
01
100
AcDbLine
 10
4908.339883189001
 20
1779.065607590079
 30
0.0000000000563712
 11
4908.339883189001
 21
1761.00321572189
 31
0.0000000000563712
  0
LINE
  5
EF3C
330
18
100
AcDbEntity
  8
01
100
AcDbLine
 10
4903.339883189001
 20
1761.00321572189
 30
0.0000000000563712
 11
4903.339883189001
 21
1779.065607590079
 31
0.0000000000563712
  0
SPLINE
  5
EF3D
330
18
100
AcDbEntity
  8
01
100
AcDbSpline
210
0.0
220
0.0
230
1.0
 70
     8
 71
     3
 72
    18
 73
    14
 74
     0
 42
0.0000000001
 43
0.0000000001
 40
0.0
 40
0.0
 40
0.0
 40
0.0
 40
0.2500000000000002
 40
0.2500000000000002
 40
0.375
 40
0.375
 40
0.4999999999999998
 40
0.4999999999999998
 40
0.6249999999999996
 40
0.6249999999999996
 40
0.7499999999999993
 40
0.7499999999999993
 40
1.0
 40
1.0
 40
1.0
 40
1.0
 10
4909.529072378189
 20
1761.009314253387
 30
0.0000000000563712
 10
4909.335811320914
 20
1760.930314928351
 30
0.0000000000563712
 10
4909.143489709186
 20
1760.859047393781
 30
0.0000000000563712
 10
4908.864164250726
 20
1760.764790282607
 30
0.0000000000563712
 10
4908.774671108218
 20
1760.73615705742
 30
0.0000000000563712
 10
4908.603393900426
 20
1760.683821981619
 30
0.0000000000563712
 10
4908.520744487256
 20
1760.659889816698
 30
0.0000000000563712
 10
4908.369271347816
 20
1760.617890400352
 30
0.0000000000563712
 10
4908.30059977686
 20
1760.599828532792
 30
0.0000000000563712
 10
4908.1782318026
 20
1760.568757394632
 30
0.0000000000563712
 10
4908.124391565983
 20
1760.555725862025
 30
0.0000000000563712
 10
4907.995037278752
 20
1760.525170757264
 30
0.0000000000563712
 10
4907.947991297109
 20
1760.515042968696
 30
0.0000000000563712
 10
4907.947991297109
 20
1760.515042968696
 30
0.0000000000563712
  0
SPLINE
  5
EF3E
330
18
100
AcDbEntity
  8
01
100
AcDbSpline
210
0.0
220
0.0
230
1.0
 70
     8
 71
     3
 72
    18
 73
    14
 74
     0
 42
0.0000000001
 43
0.0000000001
 40
0.0
 40
0.0
 40
0.0
 40
0.0
 40
0.2500000000000002
 40
0.2500000000000002
 40
0.3750000000000002
 40
0.3750000000000002
 40
0.5000000000000002
 40
0.5000000000000002
 40
0.6250000000000002
 40
0.6250000000000002
 40
0.7500000000000001
 40
0.7500000000000001
 40
1.0
 40
1.0
 40
1.0
 40
1.0
 10
4902.150693999811
 20
1779.059509058582
 30
0.0000000000563712
 10
4902.343955057087
 20
1779.138508383619
 30
0.0000000000563712
 10
4902.536276668815
 20
1779.209775918188
 30
0.0000000000563712
 10
4902.815602127275
 20
1779.304033029362
 30
0.0000000000563712
 10
4902.905095269783
 20
1779.332666254549
 30
0.0000000000563712
 10
4903.076372477575
 20
1779.38500133035
 30
0.0000000000563712
 10
4903.159021890744
 20
1779.408933495271
 30
0.0000000000563712
 10
4903.310495030186
 20
1779.450932911617
 30
0.0000000000563712
 10
4903.379166601142
 20
1779.468994779177
 30
0.0000000000563712
 10
4903.501534575402
 20
1779.500065917337
 30
0.0000000000563712
 10
4903.555374812018
 20
1779.513097449944
 30
0.0000000000563712
 10
4903.684729099249
 20
1779.543652554705
 30
0.0000000000563712
 10
4903.731775080892
 20
1779.553780343273
 30
0.0000000000563712
 10
4903.731775080892
 20
1779.553780343273
 30
0.0000000000563712
  0
SPLINE
  5
EF3F
330
18
100
AcDbEntity
  8
01
100
AcDbSpline
210
0.0
220
0.0
230
1.0
 70
     8
 71
     3
 72
    16
 73
    12
 74
     0
 42
0.0000000001
 43
0.0000000001
 40
0.0
 40
0.0
 40
0.0
 40
0.0
 40
0.1249999999999998
 40
0.1249999999999998
 40
0.2499999999999997
 40
0.2499999999999997
 40
0.4999999999999998
 40
0.4999999999999998
 40
0.7499999999999999
 40
0.7499999999999999
 40
1.0
 40
1.0
 40
1.0
 40
1.0
 10
4903.731775080892
 20
1760.515042968696
 30
0.0000000000563712
 10
4903.731775080892
 20
1760.515042968696
 30
0.0000000000563712
 10
4903.720359558765
 20
1760.517550924687
 30
0.0000000000563712
 10
4903.675926502425
 20
1760.527555705847
 30
0.0000000000563712
 10
4903.642230901871
 20
1760.535212370897
 30
0.0000000000563712
 10
4903.51288358041
 20
1760.565756875429
 30
0.0000000000563712
 10
4903.386427700103
 20
1760.596857029206
 30
0.0000000000563712
 10
4903.085481499107
 20
1760.680260037578
 30
0.0000000000563712
 10
4902.90868806434
 20
1760.733408967101
 30
0.0000000000563712
 10
4902.538991792337
 20
1760.858101293704
 30
0.0000000000563712
 10
4902.343920634103
 20
1760.930328999435
 30
0.0000000000563712
 10
4902.150693999811
 20
1761.009314253387
 30
0.0000000000563712
  0
SPLINE
  5
EF40
330
18
100
AcDbEntity
  8
01
100
AcDbSpline
210
0.0
220
0.0
230
1.0
 70
     8
 71
     3
 72
    16
 73
    12
 74
     0
 42
0.0000000001
 43
0.0000000001
 40
0.0
 40
0.0
 40
0.0
 40
0.0
 40
0.1249999999999997
 40
0.1249999999999997
 40
0.2499999999999993
 40
0.2499999999999993
 40
0.4999999999999996
 40
0.4999999999999996
 40
0.7499999999999998
 40
0.7499999999999998
 40
1.0
 40
1.0
 40
1.0
 40
1.0
 10
4907.947991297109
 20
1779.553780343273
 30
0.0000000000563712
 10
4907.947991297109
 20
1779.553780343273
 30
0.0000000000563712
 10
4907.959406819235
 20
1779.551272387282
 30
0.0000000000563712
 10
4908.003839875577
 20
1779.541267606122
 30
0.0000000000563712
 10
4908.037535476129
 20
1779.533610941072
 30
0.0000000000563712
 10
4908.166882797592
 20
1779.503066436539
 30
0.0000000000563712
 10
4908.293338677899
 20
1779.471966282763
 30
0.0000000000563712
 10
4908.594284878895
 20
1779.388563274391
 30
0.0000000000563712
 10
4908.771078313661
 20
1779.335414344868
 30
0.0000000000563712
 10
4909.140774585664
 20
1779.210722018265
 30
0.0000000000563712
 10
4909.335845743899
 20
1779.138494312534
 30
0.0000000000563712
 10
4909.529072378189
 20
1779.059509058582
 30
0.0000000000563712
  0
ARC
  5
EF41
330
18
100
AcDbEntity
  8
01
100
AcDbCircle
 10
4905.839883189001
 20
1770.034411655985
 30
0.0000000000563712
 40
9.750000000000005
100
AcDbArc
 50
112.2332717982963
 51
247.7667282017037
  0
ARC
  5
EF42
330
18
100
AcDbEntity
  8
01
100
AcDbCircle
 10
4905.839883189001
 20
1770.034411655985
 30
0.0000000000563712
 40
9.750000000000009
100
AcDbArc
 50
292.2332717982963
 51
67.7667282017037
  0
CIRCLE
  5
EF43
330
18
100
AcDbEntity
  8
01
100
AcDbCircle
 10
4905.839883189001
 20
1770.034411655985
 30
0.0000000000563712
 40
10.3
  0
LINE
  5
EF44
330
18
100
AcDbEntity
  8
01
100
AcDbLine
 10
5102.139887189001
 20
1756.034416520174
 30
0.0000000000563712
 11
5102.139887189002
 21
1795.034416520174
 31
0.0000000000563712
  0
LINE
  5
EF45
330
18
100
AcDbEntity
  8
01
100
AcDbLine
 10
5095.839887189002
 20
1795.534416520174
 30
0.0000000000563712
 11
5095.839887188999
 21
1755.534416520174
 31
0.0000000000563712
  0
LINE
  5
EF46
330
18
100
AcDbEntity
  8
01
100
AcDbLine
 10
5095.839887188999
 20
1755.534416520174
 30
0.0000000000563712
 11
5101.639887189002
 21
1755.534416520174
 31
0.0000000000563712
  0
ARC
  5
EF47
330
18
100
AcDbEntity
  8
01
100
AcDbCircle
 10
5101.639887189002
 20
1756.034416520174
 30
0.0000000000563712
 40
0.5
100
AcDbArc
 50
270.0
 51
0.0
  0
LINE
  5
EF48
330
18
100
AcDbEntity
  8
01
100
AcDbLine
 10
5095.839887189002
 20
1795.534416520174
 30
0.0000000000563712
 11
5101.639887189002
 21
1795.534416520174
 31
0.0000000000563712
  0
ARC
  5
EF49
330
18
100
AcDbEntity
  8
01
100
AcDbCircle
 10
5101.639887189002
 20
1795.034416520174
 30
0.0000000000563712
 40
0.5
100
AcDbArc
 50
0.0
 51
90.0
  0
LINE
  5
EF4A
330
18
100
AcDbEntity
  8
01
100
AcDbLine
 10
5049.539887189002
 20
1756.034411655985
 30
0.0000000000563712
 11
5049.539887189002
 21
1795.034411655984
 31
0.0000000000563712
  0
LINE
  5
EF4B
330
18
100
AcDbEntity
  8
01
100
AcDbLine
 10
5055.839887189002
 20
1795.534411655985
 30
0.0000000000563712
 11
5055.839887188998
 21
1755.534411655984
 31
0.0000000000563712
  0
LINE
  5
EF4C
330
18
100
AcDbEntity
  8
01
100
AcDbLine
 10
5055.839887188998
 20
1755.534411655984
 30
0.0000000000563712
 11
5050.039887189002
 21
1755.534411655985
 31
0.0000000000563712
  0
ARC
  5
EF4D
330
18
100
AcDbEntity
  8
01
100
AcDbCircle
 10
5050.039887189002
 20
1756.034411655985
 30
0.0000000000563712
 40
0.5
100
AcDbArc
 50
180.0
 51
270.0
  0
LINE
  5
EF4E
330
18
100
AcDbEntity
  8
01
100
AcDbLine
 10
5055.839887189002
 20
1795.534411655985
 30
0.0000000000563712
 11
5050.039887189002
 21
1795.534411655984
 31
0.0000000000563712
  0
ARC
  5
EF4F
330
18
100
AcDbEntity
  8
01
100
AcDbCircle
 10
5050.039887189002
 20
1795.034411655984
 30
0.0000000000563712
 40
0.5
100
AcDbArc
 50
90.0
 51
180.0
  0
SPLINE
  5
EF50
330
18
100
AcDbEntity
  8
01
100
AcDbSpline
210
0.0
220
0.0
230
1.0
 70
    24
 71
     1
 72
     4
 73
     2
 74
     0
 42
0.0000000001
 43
0.0000000001
 40
0.1160848018737504
 40
0.1160848018737504
 40
1.0
 40
1.0
 10
5049.539887189002
 20
1760.284411655977
 30
0.0000000000563712
 10
5034.83986237799
 20
1760.284411655977
 30
0.0000000000563712
  0
SPLINE
  5
EF51
330
18
100
AcDbEntity
  8
01
100
AcDbSpline
210
0.0
220
0.0
230
1.0
 70
    24
 71
     1
 72
     4
 73
     2
 74
     0
 42
0.0000000001
 43
0.0000000001
 40
0.0
 40
0.0
 40
0.8839151981262495
 40
0.8839151981262495
 10
5034.83986237799
 20
1779.784411655977
 30
0.0000000000563712
 10
5049.539887189002
 20
1779.784411655977
 30
0.0000000000563712
  0
ARC
  5
EF52
330
18
100
AcDbEntity
  8
01
100
AcDbCircle
 10
5034.83986237799
 20
1761.284411655977
 30
0.0000000000563712
 40
1.0
100
AcDbArc
 50
180.0
 51
270.0
  0
ARC
  5
EF53
330
18
100
AcDbEntity
  8
01
100
AcDbCircle
 10
5034.83986237799
 20
1778.784411655977
 30
0.0000000000563712
 40
1.0
100
AcDbArc
 50
90.0
 51
180.0
  0
LINE
  5
EF54
330
18
100
AcDbEntity
  8
01
100
AcDbLine
 10
5048.33986237799
 20
1778.596683550749
 30
0.0000000000563712
 11
5048.33986237799
 21
1761.472139761205
 31
0.0000000000563712
  0
SPLINE
  5
EF55
330
18
100
AcDbEntity
  8
01
100
AcDbSpline
210
0.0
220
0.0
230
1.0
 70
     8
 71
     3
 72
    14
 73
    10
 74
     0
 42
0.0000000001
 43
0.0000000001
 40
0.0
 40
0.0
 40
0.0
 40
0.0
 40
0.25
 40
0.25
 40
0.5
 40
0.5
 40
0.75
 40
0.75
 40
1.0
 40
1.0
 40
1.0
 40
1.0
 10
5047.33986237799
 20
1779.065607590072
 30
0.0000000000563712
 10
5047.479830055743
 20
1779.065607590072
 30
0.0000000000563712
 10
5047.618251329888
 20
1779.055971634765
 30
0.0000000000563712
 10
5047.868301669843
 20
1779.016890725823
 30
0.0000000000563712
 10
5047.980619232672
 20
1778.987084590949
 30
0.0000000000563712
 10
5048.161666603759
 20
1778.906164854165
 30
0.0000000000563712
 10
5048.229467240063
 20
1778.855775317974
 30
0.0000000000563712
 10
5048.319086156606
 20
1778.736405728959
 30
0.0000000000563712
 10
5048.33986237799
 20
1778.669606278248
 30
0.0000000000563712
 10
5048.33986237799
 20
1778.596683550749
 30
0.0000000000563712
  0
SPLINE
  5
EF56
330
18
100
AcDbEntity
  8
01
100
AcDbSpline
210
0.0
220
0.0
230
1.0
 70
     8
 71
     3
 72
    14
 73
    10
 74
     0
 42
0.0000000001
 43
0.0000000001
 40
0.0
 40
0.0
 40
0.0
 40
0.0
 40
0.25
 40
0.25
 40
0.5
 40
0.5
 40
0.75
 40
0.75
 40
1.0
 40
1.0
 40
1.0
 40
1.0
 10
5048.33986237799
 20
1761.472139761205
 30
0.0000000000563712
 10
5048.33986237799
 20
1761.399223074071
 30
0.0000000000563712
 10
5048.318501970729
 20
1761.33143837821
 30
0.0000000000563712
 10
5048.229362779053
 20
1761.213111504246
 30
0.0000000000563712
 10
5048.160430148899
 20
1761.161998649478
 30
0.0000000000563712
 10
5047.980382708532
 20
1761.081741057325
 30
0.0000000000563712
 10
5047.867677035038
 20
1761.051778237618
 30
0.0000000000563712
 10
5047.617106421418
 20
1761.012729862084
 30
0.0000000000563712
 10
5047.4797202721
 20
1761.003215721883
 30
0.0000000000563712
 10
5047.33986237799
 20
1761.003215721883
 30
0.0000000000563712
  0
LINE
  5
EF57
330
18
100
AcDbEntity
  8
01
100
AcDbLine
 10
5047.33986237799
 20
1761.003215721883
 30
0.0000000000563712
 11
5034.83986237799
 21
1761.003215721883
 31
0.0000000000563712
  0
LINE
  5
EF58
330
18
100
AcDbEntity
  8
01
100
AcDbLine
 10
5034.83986237799
 20
1779.065607590072
 30
0.0000000000563712
 11
5047.33986237799
 21
1779.065607590072
 31
0.0000000000563712
  0
SPLINE
  5
EF59
330
18
100
AcDbEntity
  8
01
100
AcDbSpline
210
0.0
220
0.0
230
1.0
 70
     8
 71
     3
 72
    14
 73
    10
 74
     0
 42
0.0000000001
 43
0.0000000001
 40
0.0
 40
0.0
 40
0.0
 40
0.0
 40
0.2500000000000001
 40
0.2500000000000001
 40
0.5000000000000002
 40
0.5000000000000002
 40
0.7500000000000003
 40
0.7500000000000003
 40
1.0
 40
1.0
 40
1.0
 40
1.0
 10
5034.83986237799
 20
1779.065607590072
 30
0.0000000000563712
 10
5034.702653463062
 20
1779.065607590072
 30
0.0000000000563712
 10
5034.567649917551
 20
1779.054232779976
 30
0.0000000000563712
 10
5034.320313458898
 20
1779.011277912656
 30
0.0000000000563712
 10
5034.209812029532
 20
1778.980033585551
 30
0.0000000000563712
 10
5034.027618356004
 20
1778.90284806816
 30
0.0000000000563712
 10
5033.958625253619
 20
1778.858507452901
 30
0.0000000000563712
 10
5033.863857715133
 20
1778.760525801523
 30
0.0000000000563712
 10
5033.83986237799
 20
1778.708032378506
 30
0.0000000000563712
 10
5033.83986237799
 20
1778.654881480761
 30
0.0000000000563712
  0
SPLINE
  5
EF5A
330
18
100
AcDbEntity
  8
01
100
AcDbSpline
210
0.0
220
0.0
230
1.0
 70
     8
 71
     3
 72
    14
 73
    10
 74
     0
 42
0.0000000001
 43
0.0000000001
 40
0.0
 40
0.0
 40
0.0
 40
0.0
 40
0.2500000000000001
 40
0.2500000000000001
 40
0.5000000000000002
 40
0.5000000000000002
 40
0.7500000000000003
 40
0.7500000000000003
 40
1.0
 40
1.0
 40
1.0
 40
1.0
 10
5034.83986237799
 20
1761.003215721883
 30
0.0000000000563712
 10
5034.702653463062
 20
1761.003215721883
 30
0.0000000000563712
 10
5034.567649917551
 20
1761.014590531978
 30
0.0000000000563712
 10
5034.320313458898
 20
1761.057545399299
 30
0.0000000000563712
 10
5034.209812029532
 20
1761.088789726403
 30
0.0000000000563712
 10
5034.027618356004
 20
1761.165975243794
 30
0.0000000000563712
 10
5033.958625253619
 20
1761.210315859054
 30
0.0000000000563712
 10
5033.863857715133
 20
1761.308297510432
 30
0.0000000000563712
 10
5033.83986237799
 20
1761.360790933449
 30
0.0000000000563712
 10
5033.83986237799
 20
1761.413941831194
 30
0.0000000000563712
  0
LINE
  5
EF5B
330
18
100
AcDbEntity
  8
01
100
AcDbLine
 10
5033.83986237799
 20
1778.654881480761
 30
0.0000000000563712
 11
5033.83986237799
 21
1761.413941831194
 31
0.0000000000563712
  0
LINE
  5
EF5C
330
18
100
AcDbEntity
  8
01
100
AcDbLine
 10
5033.83986237799
 20
1761.413941831194
 30
0.0000000000563712
 11
5033.83986237799
 21
1761.284411655977
 31
0.0000000000563712
  0
LINE
  5
EF5D
330
18
100
AcDbEntity
  8
01
100
AcDbLine
 10
5102.881870877963
 20
1773.534412976923
 30
0.0000000001126251
 11
5102.139887189001
 21
1773.534412976923
 31
0.0000000001126251
  0
LINE
  5
EF5E
330
18
100
AcDbEntity
  8
01
100
AcDbLine
 10
5102.881870877963
 20
1766.534412976923
 30
0.0000000001126251
 11
5102.139887189001
 21
1766.534412976923
 31
0.0000000001126251
  0
ARC
  5
EF5F
330
18
100
AcDbEntity
  8
01
100
AcDbCircle
 10
5098.008470877962
 20
1770.034412976923
 30
0.0000000001126251
 40
6.0
100
AcDbArc
 50
324.3146699999925
 51
35.68533471264553
  0
LINE
  5
EF60
330
18
100
AcDbEntity
  8
1CENTER
100
AcDbLine
 10
5245.839778849258
 20
1764.034412255985
 30
0.0000000000563712
 11
5245.839778849258
 21
1776.034412255985
 31
0.0000000000563712
  0
LINE
  5
EF61
330
18
100
AcDbEntity
  8
1CENTER
100
AcDbLine
 10
5239.839778849258
 20
1770.034412255985
 30
0.0000000000563712
 11
5251.839778849258
 21
1770.034412255985
 31
0.0000000000563712
  0
LINE
  5
EF62
330
18
100
AcDbEntity
  8
01
100
AcDbLine
 10
5226.33977884926
 20
1795.534412460112
 30
0.0000000000563712
 11
5265.339778849259
 21
1795.534412460112
 31
0.0000000000563712
  0
ARC
  5
EF63
330
18
100
AcDbEntity
  8
01
100
AcDbCircle
 10
5265.339778849259
 20
1795.034412460112
 30
0.0000000000563712
 40
0.5
100
AcDbArc
 50
0.0
 51
90.0
  0
LINE
  5
EF64
330
18
100
AcDbEntity
  8
01
100
AcDbLine
 10
5226.339778849259
 20
1755.534412460112
 30
0.0000000000563712
 11
5265.339778849259
 21
1755.534412460112
 31
0.0000000000563712
  0
ARC
  5
EF65
330
18
100
AcDbEntity
  8
01
100
AcDbCircle
 10
5226.339778849259
 20
1756.034412460112
 30
0.0000000000563712
 40
0.5
100
AcDbArc
 50
180.0
 51
270.0
  0
LINE
  5
EF66
330
18
100
AcDbEntity
  8
01
100
AcDbLine
 10
5225.839778849259
 20
1756.034412460112
 30
0.0000000000563712
 11
5225.83977884926
 21
1795.034412460112
 31
0.0000000000563712
  0
ARC
  5
EF67
330
18
100
AcDbEntity
  8
01
100
AcDbCircle
 10
5226.33977884926
 20
1795.034412460112
 30
0.0000000000563712
 40
0.5
100
AcDbArc
 50
90.0
 51
180.0
  0
LINE
  5
EF68
330
18
100
AcDbEntity
  8
01
100
AcDbLine
 10
5265.839778849259
 20
1756.034412460112
 30
0.0000000000563712
 11
5265.839778849259
 21
1795.034412460112
 31
0.0000000000563712
  0
ARC
  5
EF69
330
18
100
AcDbEntity
  8
01
100
AcDbCircle
 10
5265.339778849259
 20
1756.034412460112
 30
0.0000000000563712
 40
0.5
100
AcDbArc
 50
270.0
 51
0.0
  0
CIRCLE
  5
EF6A
330
18
100
AcDbEntity
  8
01
100
AcDbCircle
 10
5245.839779171718
 20
1770.03441266424
 30
0.0000000000563712
 40
3.75
  0
CIRCLE
  5
EF6B
330
18
100
AcDbEntity
  8
01
100
AcDbCircle
 10
5245.839779171718
 20
1770.034412460112
 30
0.0000000000563712
 40
3.5000005
  0
LINE
  5
EF6C
330
18
100
AcDbEntity
  8
01
100
AcDbLine
 10
5246.839779171718
 20
1766.680309660112
 30
0.0000000000563712
 11
5246.839779171718
 21
1773.388516460112
 31
0.0000000000563712
  0
LINE
  5
EF6D
330
18
100
AcDbEntity
  8
01
100
AcDbLine
 10
5244.839779171718
 20
1766.680309660112
 30
0.0000000000563712
 11
5244.839779171718
 21
1773.388516460112
 31
0.0000000000563712
  0
LINE
  5
EF6E
330
18
100
AcDbEntity
  8
01
100
AcDbLine
 10
5223.339778849258
 20
1775.534411655985
 30
0.0000000000563712
 11
5268.339778849258
 21
1775.534411655985
 31
0.0000000000563712
  0
LINE
  5
EF6F
330
18
100
AcDbEntity
  8
01
100
AcDbLine
 10
5245.839778849258
 20
1798.034411655985
 30
0.0000000000563712
 11
5245.839778849258
 21
1753.034411655985
 31
0.0000000000563712
  0
LINE
  5
F0ED
330
18
100
AcDbEntity
  8
01
100
AcDbLine
 10
5189.839770849256
 20
1798.034411655984
 30
0.0000000000563712
 11
5203.839770849256
 21
1798.034411655984
 31
0.0000000000563712
  0
LINE
  5
F0EE
330
18
100
AcDbEntity
  8
01
100
AcDbLine
 10
5194.840655031316
 20
2010.034411654955
 30
0.0000000000563712
 11
5348.595035186348
 21
2010.034411654955
 31
0.0000000000563712
  0
LINE
  5
F0EF
330
18
100
AcDbEntity
  8
01
  6
BYBLOCK
100
AcDbLine
 10
5194.840655031316
 20
2010.034411654955
 30
0.0000000000563712
 11
5194.840655031316
 21
1970.034411654955
 31
0.0000000000563712
  0
LINE
  5
F0F3
330
18
100
AcDbEntity
  8
01
100
AcDbLine
 10
5245.839887189
 20
2005.034411653927
 30
0.0000000000563712
 11
5245.839887189
 21
2035.952491843176
 31
0.0000000000563712
  0
LINE
  5
F0F4
330
18
100
AcDbEntity
  8
01
  6
BYBLOCK
100
AcDbLine
 10
5196.339770849256
 20
1805.934411655984
 30
0.0000000000563712
 11
5196.339770849256
 21
1676.134411655984
 31
0.0000000000563712
  0
LINE
  5
F0F5
330
18
100
AcDbEntity
  8
01
  6
BYBLOCK
100
AcDbLine
 10
5196.339770849256
 20
1677.034411655984
 30
0.0000000000563712
 11
5198.839770849256
 21
1677.034411655984
 31
0.0000000000563712
  0
LINE
  5
F0F6
330
18
100
AcDbEntity
  8
01
  6
BYBLOCK
100
AcDbLine
 10
5198.839770849256
 20
1677.034411655984
 30
0.0000000000563712
 11
5198.839770849256
 21
1693.537355381136
 31
0.0000000000563712
  0
LINE
  5
F0F7
330
18
100
AcDbEntity
  8
01
  6
BYBLOCK
100
AcDbLine
 10
5194.839770849256
 20
1805.934411655984
 30
0.0000000000563712
 11
5194.839770849256
 21
1676.134411655984
 31
0.0000000000563712
  0
LINE
  5
F0F8
330
18
100
AcDbEntity
  8
01
  6
BYBLOCK
100
AcDbLine
 10
5194.839770849256
 20
1676.134411655984
 30
0.0000000000563712
 11
5196.339770849256
 21
1676.134411655984
 31
0.0000000000563712
  0
LINE
  5
F0F9
330
18
100
AcDbEntity
  8
01
  6
BYBLOCK
100
AcDbLine
 10
5196.339770849256
 20
1805.034411655984
 30
0.0000000000563712
 11
5198.839770849256
 21
1805.034411655984
 31
0.0000000000563712
  0
LINE
  5
F0FA
330
18
100
AcDbEntity
  8
01
  6
BYBLOCK
100
AcDbLine
 10
5194.839770849256
 20
1805.934411655984
 30
0.0000000000563712
 11
5196.339770849256
 21
1805.934411655984
 31
0.0000000000563712
  0
LINE
  5
F0FB
330
18
100
AcDbEntity
  8
01
  6
BYBLOCK
100
AcDbLine
 10
5196.339770849256
 20
1781.034411655984
 30
0.0000000000563712
 11
5197.539770849255
 21
1781.034411655984
 31
0.0000000000563712
  0
ARC
  5
F0FC
330
18
100
AcDbEntity
  8
1HIDDEN
100
AcDbCircle
 10
5262.839770849256
 20
1777.034411655984
 30
0.0000000000563712
 40
1.0
100
AcDbArc
 50
0.0
 51
90.0
  0
LINE
  5
F0FD
330
18
100
AcDbEntity
  8
01
  6
BYBLOCK
100
AcDbLine
 10
5197.539770849255
 20
1786.734411655984
 30
0.0000000000563712
 11
5197.539770849255
 21
1695.334411655984
 31
0.0000000000563712
  0
LINE
  5
F0FE
330
18
100
AcDbEntity
  8
01
  6
BYBLOCK
100
AcDbLine
 10
5197.639770849255
 20
1677.034411655984
 30
0.0000000000563712
 11
5197.639770849255
 21
1693.634411655984
 31
0.0000000000563712
  0
LINE
  5
F0FF
330
18
100
AcDbEntity
  8
01
  6
BYBLOCK
100
AcDbLine
 10
5197.639770849255
 20
1693.634411655984
 30
0.0000000000563712
 11
5196.691242711831
 21
1694.582939793408
 31
0.0000000000563712
  0
LINE
  5
F100
330
18
100
AcDbEntity
  8
01
  6
BYBLOCK
100
AcDbLine
 10
5198.488298986678
 20
1694.38588351856
 30
0.0000000000563712
 11
5197.539770849255
 21
1695.334411655984
 31
0.0000000000563712
  0
ARC
  5
F101
330
18
100
AcDbEntity
  8
01
  6
BYBLOCK
100
AcDbCircle
 10
5197.639770849255
 20
1693.537355381136
 30
0.0000000000563712
 40
1.2
100
AcDbArc
 50
0.0
 51
45.00000000004836
  0
ARC
  5
F102
330
18
100
AcDbEntity
  8
01
  6
BYBLOCK
100
AcDbCircle
 10
5197.539770849255
 20
1695.431467930832
 30
0.0000000000563712
 40
1.2
100
AcDbArc
 50
180.0
 51
225.0000000000484
  0
LINE
  5
F103
330
18
100
AcDbEntity
  8
01
  6
BYBLOCK
100
AcDbLine
 10
5198.839770849256
 20
1805.034411655984
 30
0.0000000000563712
 11
5198.839770849256
 21
1788.531467930832
 31
0.0000000000563712
  0
LINE
  5
F104
330
18
100
AcDbEntity
  8
01
  6
BYBLOCK
100
AcDbLine
 10
5197.639770849255
 20
1805.034411655984
 30
0.0000000000563712
 11
5197.639770849255
 21
1788.434411655984
 31
0.0000000000563712
  0
LINE
  5
F105
330
18
100
AcDbEntity
  8
01
  6
BYBLOCK
100
AcDbLine
 10
5197.639770849255
 20
1788.434411655984
 30
0.0000000000563712
 11
5196.691242711831
 21
1787.48588351856
 31
0.0000000000563712
  0
LINE
  5
F106
330
18
100
AcDbEntity
  8
01
  6
BYBLOCK
100
AcDbLine
 10
5198.488298986678
 20
1787.682939793408
 30
0.0000000000563712
 11
5197.539770849255
 21
1786.734411655984
 31
0.0000000000563712
  0
ARC
  5
F107
330
18
100
AcDbEntity
  8
01
  6
BYBLOCK
100
AcDbCircle
 10
5197.639770849255
 20
1788.531467930832
 30
0.0000000000563712
 40
1.2
100
AcDbArc
 50
314.9999999999516
 51
0.0
  0
ARC
  5
F108
330
18
100
AcDbEntity
  8
01
  6
BYBLOCK
100
AcDbCircle
 10
5197.539770849255
 20
1786.637355381136
 30
0.0000000000563712
 40
1.2
100
AcDbArc
 50
134.9999999999516
 51
180.0
  0
CIRCLE
  5
F109
330
18
100
AcDbEntity
  8
1HIDDEN
100
AcDbCircle
 10
5245.839770849256
 20
1770.034411655984
 30
0.0000000000563712
 40
4.75
  0
LINE
  5
F10A
330
18
100
AcDbEntity
  8
01
  6
BYBLOCK
100
AcDbLine
 10
5197.539770849255
 20
1704.034411655984
 30
0.0000000000563712
 11
5219.339770849259
 21
1704.034411655984
 31
0.0000000000563712
  0
ARC
  5
F10B
330
18
100
AcDbEntity
  8
01
  6
BYBLOCK
100
AcDbCircle
 10
5197.940655031316
 20
1993.595662197955
 30
0.0000000000563712
 40
1.6
100
AcDbArc
 50
115.9444797720177
 51
180.0
  0
ARC
  5
F10C
330
18
100
AcDbEntity
  8
01
  6
BYBLOCK
100
AcDbCircle
 10
5197.940655031316
 20
1986.473161111956
 30
0.0000000000563712
 40
1.6
100
AcDbArc
 50
180.0
 51
244.0555202279823
  0
ARC
  5
F10D
330
18
100
AcDbEntity
  8
01
  6
BYBLOCK
100
AcDbCircle
 10
5197.240655031315
 20
1985.195662197955
 30
0.0000000000563712
 40
1.6
100
AcDbArc
 50
0.0
 51
64.0555202279823
  0
ARC
  5
F10E
330
18
100
AcDbEntity
  8
01
  6
BYBLOCK
100
AcDbCircle
 10
5197.240655031315
 20
1994.873161111955
 30
0.0000000000563712
 40
1.6
100
AcDbArc
 50
295.9444797720177
 51
0.0
  0
LINE
  5
F10F
330
18
100
AcDbEntity
  8
01
  6
BYBLOCK
100
AcDbLine
 10
5198.840655031316
 20
1994.873161111955
 30
0.0000000000563712
 11
5198.840655031316
 21
2002.234411654955
 31
0.0000000000563712
  0
LINE
  5
F110
330
18
100
AcDbEntity
  8
01
  6
BYBLOCK
100
AcDbLine
 10
5197.940655031316
 20
1986.634411654955
 30
0.0000000000563712
 11
5197.940655031316
 21
1993.434411654956
 31
0.0000000000563712
  0
LINE
  5
F111
330
18
100
AcDbEntity
  8
01
  6
BYBLOCK
100
AcDbLine
 10
5198.840655031316
 20
1978.034411654955
 30
0.0000000000563712
 11
5198.840655031316
 21
1985.195662197955
 31
0.0000000000563712
  0
LINE
  5
F112
330
18
100
AcDbEntity
  8
01
  6
BYBLOCK
100
AcDbLine
 10
5197.240655031315
 20
1995.034411654955
 30
0.0000000000563712
 11
5197.240655031315
 21
2002.234411654955
 31
0.0000000000563712
  0
LINE
  5
F113
330
18
100
AcDbEntity
  8
01
  6
BYBLOCK
100
AcDbLine
 10
5197.240655031315
 20
1985.034411654955
 30
0.0000000000563712
 11
5197.240655031315
 21
1977.934411654956
 31
0.0000000000563712
  0
ARC
  5
F114
330
18
100
AcDbEntity
  8
01
  6
BYBLOCK
100
AcDbCircle
 10
5262.240655031315
 20
1997.934411654956
 30
0.0000000000563712
 40
1.6
100
AcDbArc
 50
0.0
 51
90.0
  0
LINE
  5
F115
330
18
100
AcDbEntity
  8
01
  6
BYBLOCK
100
AcDbLine
 10
5196.340655031316
 20
2002.434411654956
 30
0.0000000000563712
 11
5196.340655031316
 21
1977.634411654956
 31
0.0000000000563712
  0
LINE
  5
F116
330
18
100
AcDbEntity
  8
01
  6
BYBLOCK
100
AcDbLine
 10
5262.240655031315
 20
1999.534411654955
 30
0.0000000000563712
 11
5198.840655031316
 21
1999.534411654955
 31
0.0000000000563712
  0
LINE
  5
F117
330
18
100
AcDbEntity
  8
01
  6
BYBLOCK
100
AcDbLine
 10
5262.240655031315
 20
1982.334411654955
 30
0.0000000000563712
 11
5262.240655031315
 21
1999.534411654955
 31
0.0000000000563712
  0
LINE
  5
F118
330
18
100
AcDbEntity
  8
01
  6
BYBLOCK
100
AcDbLine
 10
5263.840655031316
 20
1980.734411654955
 30
0.0000000000563712
 11
5263.840655031316
 21
1997.934411654956
 31
0.0000000000563712
  0
LINE
  5
F119
330
18
100
AcDbEntity
  8
01
  6
BYBLOCK
100
AcDbLine
 10
5196.340655031316
 20
2002.234411654955
 30
0.0000000000563712
 11
5198.840655031316
 21
2002.234411654955
 31
0.0000000000563712
  0
LINE
  5
F11A
330
18
100
AcDbEntity
  8
01
  6
BYBLOCK
100
AcDbLine
 10
5198.840655031316
 20
1978.034411654955
 30
0.0000000000563712
 11
5197.240655031315
 21
1978.034411654955
 31
0.0000000000563712
  0
LINE
  5
F11B
330
18
100
AcDbEntity
  8
01
  6
BYBLOCK
100
AcDbLine
 10
5197.240655031315
 20
1977.934411654956
 30
0.0000000000563712
 11
5196.340655031316
 21
1977.934411654956
 31
0.0000000000563712
  0
ARC
  5
F11C
330
18
100
AcDbEntity
  8
01
  6
BYBLOCK
100
AcDbCircle
 10
5193.541249958715
 20
1984.334411654956
 30
0.0000000000563712
 40
0.3000000000000051
100
AcDbArc
 50
232.8678058729389
 51
270.0
  0
LINE
  5
F11D
330
18
100
AcDbEntity
  8
01
  6
BYBLOCK
100
AcDbLine
 10
5194.340655031316
 20
1984.034411654956
 30
0.0000000000563712
 11
5193.541249958715
 21
1984.034411654956
 31
0.0000000000563712
  0
LINE
  5
F11E
330
18
100
AcDbEntity
  8
01
  6
BYBLOCK
100
AcDbLine
 10
5183.940655031316
 20
1993.70740052116
 30
0.0000000000563712
 11
5183.940655031316
 21
1993.536778465611
 31
0.0000000000563712
  0
ARC
  5
F11F
330
18
100
AcDbEntity
  8
01
  6
BYBLOCK
100
AcDbCircle
 10
5184.240655031315
 20
1993.536778465611
 30
0.0000000000563712
 40
0.3
100
AcDbArc
 50
180.0
 51
217.7405295629614
  0
ARC
  5
F120
330
18
100
AcDbEntity
  8
01
  6
BYBLOCK
100
AcDbCircle
 10
5223.542955630599
 20
2023.957481409552
 30
0.0000000000563712
 40
50.00000000000002
100
AcDbArc
 50
217.7405295629768
 51
232.8678058729507
  0
LINE
  5
F121
330
18
100
AcDbEntity
  8
01
  6
BYBLOCK
100
AcDbLine
 10
5183.740655031315
 20
1994.834411654956
 30
0.0000000000563712
 11
5183.740655031315
 21
1995.534411654955
 31
0.0000000000563712
  0
ARC
  5
F122
330
18
100
AcDbEntity
  8
01
  6
BYBLOCK
100
AcDbCircle
 10
5184.240655031315
 20
1995.534411654955
 30
0.0000000000563712
 40
0.5000000000000142
100
AcDbArc
 50
90.0
 51
180.0
  0
LINE
  5
F123
330
18
100
AcDbEntity
  8
01
  6
BYBLOCK
100
AcDbLine
 10
5194.340655031316
 20
1996.034411654955
 30
0.0000000000563712
 11
5184.240655031315
 21
1996.034411654955
 31
0.0000000000563712
  0
LINE
  5
F124
330
18
100
AcDbEntity
  8
01
  6
BYBLOCK
100
AcDbLine
 10
5183.740655031315
 20
1994.455731998515
 30
0.0000000000563712
 11
5183.740655031315
 21
1994.834411654956
 31
0.0000000000563712
  0
SPLINE
  5
F125
330
18
100
AcDbEntity
  8
01
  6
BYBLOCK
100
AcDbSpline
210
0.0
220
0.0
230
1.0
 70
     8
 71
     3
 72
     8
 73
     4
 74
     0
 42
0.0000000001
 43
0.0000000001
 40
0.0
 40
0.0
 40
0.0
 40
0.0
 40
1.0
 40
1.0
 40
1.0
 40
1.0
 10
5183.766387572579
 20
1994.179081569066
 30
0.0000000000563712
 10
5183.748919686468
 20
1994.272167764947
 30
0.0000000000563712
 10
5183.740655031315
 20
1994.365433775838
 30
0.0000000000563712
 10
5183.740655031315
 20
1994.455731998516
 30
0.0000000000563712
  0
ARC
  5
F126
330
18
100
AcDbEntity
  8
01
  6
BYBLOCK
100
AcDbCircle
 10
5185.240655031315
 20
1994.455731998515
 30
0.0000000000563712
 40
1.499999999999998
100
AcDbArc
 50
190.628112987605
 51
225.0000000000484
  0
LINE
  5
F127
330
18
100
AcDbEntity
  8
01
  6
BYBLOCK
100
AcDbLine
 10
5194.840655031316
 20
1996.884411654956
 30
0.0000000000563712
 11
5194.340655031316
 21
1996.884411654956
 31
0.0000000000563712
  0
LINE
  5
F128
330
18
100
AcDbEntity
  8
01
  6
BYBLOCK
100
AcDbLine
 10
5194.340655031316
 20
1983.184411654956
 30
0.0000000000563712
 11
5194.840655031316
 21
1983.184411654956
 31
0.0000000000563712
  0
LINE
  5
F129
330
18
100
AcDbEntity
  8
01
  6
BYBLOCK
100
AcDbLine
 10
5194.340655031316
 20
1983.184411654956
 30
0.0000000000563712
 11
5194.340655031316
 21
1996.884411654956
 31
0.0000000000563712
  0
LINE
  5
F12A
330
18
100
AcDbEntity
  8
01
  6
BYBLOCK
100
AcDbLine
 10
5194.840655031316
 20
2002.434411654956
 30
0.0000000000563712
 11
5196.340655031316
 21
2002.434411654956
 31
0.0000000000563712
  0
LINE
  5
F12B
330
18
100
AcDbEntity
  8
01
  6
BYBLOCK
100
AcDbLine
 10
5194.840655031316
 20
1977.634411654956
 30
0.0000000000563712
 11
5196.340655031316
 21
1977.634411654956
 31
0.0000000000563712
  0
LINE
  5
F12C
330
18
100
AcDbEntity
  8
01
  6
BYBLOCK
100
AcDbLine
 10
5194.840655031316
 20
1977.634411654956
 30
0.0000000000563712
 11
5194.840655031316
 21
2002.434411654956
 31
0.0000000000563712
  0
LINE
  5
F12D
330
18
100
AcDbEntity
  8
01
  6
BYBLOCK
100
AcDbLine
 10
5263.840655031316
 20
1982.334411654955
 30
0.0000000000563712
 11
5198.840655031316
 21
1982.334411654955
 31
0.0000000000563712
  0
LINE
  5
F12E
330
18
100
AcDbEntity
  8
01
  6
BYBLOCK
100
AcDbLine
 10
5263.840655031316
 20
1980.734411654955
 30
0.0000000000563712
 11
5213.440655031316
 21
1980.734411654955
 31
0.0000000000563712
  0
LINE
  5
F12F
330
18
100
AcDbEntity
  8
01
  6
BYBLOCK
100
AcDbLine
 10
5216.277913331518
 20
1980.734411654955
 30
0.0000000000563712
 11
5198.840655031316
 21
1980.734411654955
 31
0.0000000000563712
  0
LINE
  5
F130
330
18
100
AcDbEntity
  8
01
  6
BYBLOCK
100
AcDbLine
 10
5193.394208421909
 20
1984.180858264362
 30
0.0000000000563712
 11
5184.179994859534
 21
1993.395071826735
 31
0.0000000000563712
  0
ARC
  5
F131
330
18
100
AcDbEntity
  8
01
  6
BYBLOCK
100
AcDbCircle
 10
5193.747761812501
 20
1984.534411654955
 30
0.0000000000563712
 40
0.5
100
AcDbArc
 50
224.9999999999931
 51
270.0
  0
LINE
  5
F132
330
18
100
AcDbEntity
  8
01
  6
BYBLOCK
100
AcDbLine
 10
5194.340655031316
 20
1984.034411654955
 30
0.0000000000563712
 11
5193.747761812501
 21
1984.034411654955
 31
0.0000000000563712
  0
LINE
  5
F134
330
18
100
AcDbEntity
  8
01
  6
BYBLOCK
100
AcDbLine
 10
5183.839770849256
 20
1751.066081923
 30
0.0000000000563712
 11
5183.839770849256
 21
1733.002741388994
 31
0.0000000000563712
  0
LINE
  5
F135
330
18
100
AcDbEntity
  8
01
  6
BYBLOCK
100
AcDbLine
 10
5188.132664068069
 20
1752.034411655997
 30
0.0000000000563712
 11
5194.839770849256
 21
1752.034411655997
 31
0.0000000000563712
  0
LINE
  5
F136
330
18
100
AcDbEntity
  8
01
  6
BYBLOCK
100
AcDbLine
 10
5188.132664068069
 20
1732.034411655997
 30
0.0000000000563712
 11
5194.839770849256
 21
1732.034411655997
 31
0.0000000000563712
  0
LINE
  5
F137
330
18
100
AcDbEntity
  8
01
  6
BYBLOCK
100
AcDbLine
 10
5193.632664068069
 20
1747.284411655997
 30
0.0000000000563712
 11
5193.632664068069
 21
1736.784411655997
 31
0.0000000000563712
  0
ARC
  5
F138
330
18
100
AcDbEntity
  8
01
  6
BYBLOCK
100
AcDbCircle
 10
5188.132664068069
 20
1742.034411655997
 30
0.0000000000563712
 40
10.00000000000009
100
AcDbArc
 50
53.13010235413969
 51
115.4224671781367
  0
ARC
  5
F139
330
18
100
AcDbEntity
  8
01
  6
BYBLOCK
100
AcDbCircle
 10
5188.132664068069
 20
1742.034411655997
 30
0.0000000000563712
 40
10.00000000000009
100
AcDbArc
 50
244.5775328218633
 51
306.8698976458584
  0
LINE
  5
F13A
330
18
100
AcDbEntity
  8
01
  6
BYBLOCK
100
AcDbLine
 10
5194.132664068069
 20
1750.034411655997
 30
0.0000000000563712
 11
5194.132664068069
 21
1734.034411655997
 31
0.0000000000563712
  0
LINE
  5
F13B
330
18
100
AcDbEntity
  8
01
  6
BYBLOCK
100
AcDbLine
 10
5183.839770849256
 20
1747.284411655997
 30
0.0000000000563712
 11
5193.632664068069
 21
1747.284411655997
 31
0.0000000000563712
  0
LINE
  5
F13C
330
18
100
AcDbEntity
  8
01
  6
BYBLOCK
100
AcDbLine
 10
5183.839770849256
 20
1736.784411655997
 30
0.0000000000563712
 11
5193.632664068069
 21
1736.784411655997
 31
0.0000000000563712
  0
LINE
  5
F13D
330
18
100
AcDbEntity
  8
01
  6
BYBLOCK
100
AcDbLine
 10
5069.439887189001
 20
1805.934411655983
 30
0.0000000000563712
 11
5082.239887189
 21
1805.934411655983
 31
0.0000000000563712
  0
LINE
  5
F13E
330
18
100
AcDbEntity
  8
01
  6
BYBLOCK
100
AcDbLine
 10
5069.439887189001
 20
1676.134411655984
 30
0.0000000000563712
 11
5082.239887189
 21
1676.134411655984
 31
0.0000000000563712
  0
LINE
  5
F13F
330
18
100
AcDbEntity
  8
01
  6
BYBLOCK
100
AcDbLine
 10
5063.439887189001
 20
1799.934411655983
 30
0.0000000000563712
 11
5063.439887189001
 21
1682.134411655984
 31
0.0000000000563712
  0
LINE
  5
F140
330
18
100
AcDbEntity
  8
01
  6
BYBLOCK
100
AcDbLine
 10
5088.239887189
 20
1799.934411655983
 30
0.0000000000563712
 11
5088.239887189
 21
1682.134411655984
 31
0.0000000000563712
  0
ARC
  5
F141
330
18
100
AcDbEntity
  8
01
  6
BYBLOCK
100
AcDbCircle
 10
5069.439887189001
 20
1682.134411655984
 30
0.0000000000563712
 40
6.0
100
AcDbArc
 50
180.0
 51
270.0
  0
ARC
  5
F142
330
18
100
AcDbEntity
  8
01
  6
BYBLOCK
100
AcDbCircle
 10
5082.239887189
 20
1682.134411655984
 30
0.0000000000563712
 40
6.0
100
AcDbArc
 50
270.0
 51
0.0
  0
ARC
  5
F143
330
18
100
AcDbEntity
  8
01
  6
BYBLOCK
100
AcDbCircle
 10
5069.439887189001
 20
1799.934411655983
 30
0.0000000000563712
 40
6.0
100
AcDbArc
 50
90.0
 51
180.0
  0
ARC
  5
F144
330
18
100
AcDbEntity
  8
01
  6
BYBLOCK
100
AcDbCircle
 10
5082.239887189
 20
1799.934411655983
 30
0.0000000000563712
 40
6.0
100
AcDbArc
 50
0.0
 51
90.0
  0
CIRCLE
  5
F145
330
18
100
AcDbEntity
  8
01
  6
BYBLOCK
100
AcDbCircle
 10
5075.839887189
 20
1684.034411655984
 30
0.0000000000563712
 40
2.75
  0
CIRCLE
  5
F146
330
18
100
AcDbEntity
  8
01
  6
BYBLOCK
100
AcDbCircle
 10
5075.839887189
 20
1684.034411655984
 30
0.0000000000563712
 40
4.25
  0
CIRCLE
  5
F147
330
18
100
AcDbEntity
  8
01
  6
BYBLOCK
100
AcDbCircle
 10
5075.839887189
 20
1798.034411655983
 30
0.0000000000563712
 40
2.75
  0
CIRCLE
  5
F148
330
18
100
AcDbEntity
  8
01
  6
BYBLOCK
100
AcDbCircle
 10
5075.839887189
 20
1798.034411655983
 30
0.0000000000563712
 40
4.25
  0
LINE
  5
F149
330
18
100
AcDbEntity
  8
1CENTER
100
AcDbLine
 10
5081.714912596906
 20
1684.034411655983
 30
0.0000000000563712
 11
5069.964861781094
 21
1684.034411655983
 31
0.0000000000563712
  0
LINE
  5
F14A
330
18
100
AcDbEntity
  8
1CENTER
100
AcDbLine
 10
5075.839887189
 20
1689.90943706389
 30
0.0000000000563712
 11
5075.839887189
 21
1678.159386248077
 31
0.0000000000563712
  0
LINE
  5
F14B
330
18
100
AcDbEntity
  8
1CENTER
100
AcDbLine
 10
5081.714912596906
 20
1798.034411655983
 30
0.0000000000563712
 11
5069.964861781094
 21
1798.034411655983
 31
0.0000000000563712
  0
LINE
  5
F14C
330
18
100
AcDbEntity
  8
1CENTER
100
AcDbLine
 10
5075.839887189
 20
1803.90943706389
 30
0.0000000000563712
 11
5075.839887189
 21
1792.159386248077
 31
0.0000000000563712
  0
ARC
  5
F14D
330
18
100
AcDbEntity
  8
01
  6
BYBLOCK
100
AcDbCircle
 10
5075.839887189
 20
1742.034411655984
 30
0.0000000000563712
 40
10.15
100
AcDbArc
 50
231.9925780701373
 51
308.0074219298627
  0
LINE
  5
F14E
330
18
100
AcDbEntity
  8
01
  6
BYBLOCK
100
AcDbLine
 10
5069.589887189
 20
1750.031911265236
 30
0.0000000000563712
 11
5069.589887189
 21
1734.036912046731
 31
0.0000000000563712
  0
LINE
  5
F14F
330
18
100
AcDbEntity
  8
01
  6
BYBLOCK
100
AcDbLine
 10
5082.089887189
 20
1750.031911265236
 30
0.0000000000563712
 11
5082.089887189
 21
1734.036912046731
 31
0.0000000000563712
  0
ARC
  5
F150
330
18
100
AcDbEntity
  8
01
  6
BYBLOCK
100
AcDbCircle
 10
5075.839887189
 20
1742.034411655984
 30
0.0000000000563712
 40
10.15
100
AcDbArc
 50
51.99257807013929
 51
128.0074219298607
  0
LINE
  5
F151
330
18
100
AcDbEntity
  8
01
  6
BYBLOCK
100
AcDbLine
 10
5071.339887189
 20
1747.284411655984
 30
0.0000000000563712
 11
5071.339887189
 21
1736.784411655984
 31
0.0000000000563712
  0
LINE
  5
F152
330
18
100
AcDbEntity
  8
01
  6
BYBLOCK
100
AcDbLine
 10
5081.339887189
 20
1747.284411655984
 30
0.0000000000563712
 11
5081.339887189
 21
1736.784411655984
 31
0.0000000000563712
  0
LINE
  5
F153
330
18
100
AcDbEntity
  8
01
  6
BYBLOCK
100
AcDbLine
 10
5071.839887189
 20
1751.362996757702
 30
0.0000000000563712
 11
5071.839887189
 21
1747.284411655983
 31
0.0000000000563712
  0
LINE
  5
F154
330
18
100
AcDbEntity
  8
01
  6
BYBLOCK
100
AcDbLine
 10
5070.339887189
 20
1747.284411655983
 30
0.0000000000563712
 11
5070.339887189
 21
1736.784411655984
 31
0.0000000000563712
  0
LINE
  5
F155
330
18
100
AcDbEntity
  8
01
  6
BYBLOCK
100
AcDbLine
 10
5071.839887189
 20
1736.784411655984
 30
0.0000000000563712
 11
5071.839887189
 21
1732.705826554265
 31
0.0000000000563712
  0
LINE
  5
F156
330
18
100
AcDbEntity
  8
01
  6
BYBLOCK
100
AcDbLine
 10
5070.339887189
 20
1747.284411655984
 30
0.0000000000563712
 11
5081.339887189
 21
1747.284411655984
 31
0.0000000000563712
  0
LINE
  5
F157
330
18
100
AcDbEntity
  8
01
  6
BYBLOCK
100
AcDbLine
 10
5070.339887189
 20
1736.784411655984
 30
0.0000000000563712
 11
5081.339887189
 21
1736.784411655984
 31
0.0000000000563712
  0
LINE
  5
F15B
330
18
100
AcDbEntity
  8
01
100
AcDbLine
 10
5055.840003528743
 20
1840.034411655984
 30
0.0000000000563712
 11
5055.840003528743
 21
1650.034411655984
 31
0.0000000000563712
  0
LINE
  5
F15C
330
18
100
AcDbEntity
  8
01
100
AcDbLine
 10
5055.840003528743
 20
1745.034411655984
 30
0.0000000000563712
 11
5055.840003528743
 21
1695.034411655984
 31
0.0000000000563712
  0
LINE
  5
F15D
330
18
100
AcDbEntity
  8
01
100
AcDbLine
 10
5047.340003528743
 20
1696.034411655984
 30
0.0000000000563712
 11
5047.340003528743
 21
1744.034411655984
 31
0.0000000000563712
  0
LINE
  5
F15E
330
18
100
AcDbEntity
  8
01
100
AcDbLine
 10
5055.840003528743
 20
1695.034411655984
 30
0.0000000000563712
 11
5048.340003528743
 21
1695.034411655984
 31
0.0000000000563712
  0
ARC
  5
F15F
330
18
100
AcDbEntity
  8
01
100
AcDbCircle
 10
5048.340003528743
 20
1696.034411655984
 30
0.0000000000563712
 40
1.0
100
AcDbArc
 50
180.0
 51
270.0
  0
LINE
  5
F160
330
18
100
AcDbEntity
  8
01
100
AcDbLine
 10
5055.840003528743
 20
1745.034411655984
 30
0.0000000000563712
 11
5048.340003528743
 21
1745.034411655984
 31
0.0000000000563712
  0
ARC
  5
F161
330
18
100
AcDbEntity
  8
01
100
AcDbCircle
 10
5048.340003528743
 20
1744.034411655984
 30
0.0000000000563712
 40
1.0
100
AcDbArc
 50
90.0
 51
180.0
  0
LINE
  5
F162
330
18
100
AcDbEntity
  8
01
100
AcDbLine
 10
5057.968288911175
 20
1720.034411655984
 30
0.0000000000563712
 11
5035.340003528743
 21
1720.034411655984
 31
0.0000000000563712
  0
LINE
  5
F163
330
18
100
AcDbEntity
  8
01
100
AcDbLine
 10
5189.839770849543
 20
1684.034411656273
 30
0.0000000000563712
 11
5203.839770849543
 21
1684.034411656273
 31
0.0000000000563712
  0
LINE
  5
F164
330
18
100
AcDbEntity
  8
01
100
AcDbLine
 10
5257.151659116797
 20
1770.034411655984
 30
0.0000000000563712
 11
5234.527882581713
 21
1770.034411655984
 31
0.0000000000563712
  0
LINE
  5
F165
330
18
100
AcDbEntity
  8
01
100
AcDbLine
 10
5245.839770849256
 20
1781.346299923526
 30
0.0000000000563712
 11
5245.839770849256
 21
1758.722523388442
 31
0.0000000000563712
  0
LINE
  5
F166
330
18
100
AcDbEntity
  8
01
  6
BYBLOCK
100
AcDbLine
 10
4967.840003528745
 20
1751.066081923
 30
0.0000000000563712
 11
4967.840003528745
 21
1733.002741388994
 31
0.0000000000563712
  0
LINE
  5
F167
330
18
100
AcDbEntity
  8
01
  6
BYBLOCK
100
AcDbLine
 10
4963.547110309932
 20
1752.034411655997
 30
0.0000000000563712
 11
4956.840003528745
 21
1752.034411655997
 31
0.0000000000563712
  0
LINE
  5
F168
330
18
100
AcDbEntity
  8
01
  6
BYBLOCK
100
AcDbLine
 10
4963.547110309932
 20
1732.034411655997
 30
0.0000000000563712
 11
4956.840003528745
 21
1732.034411655997
 31
0.0000000000563712
  0
ARC
  5
F169
330
18
100
AcDbEntity
  8
01
  6
BYBLOCK
100
AcDbCircle
 10
4963.547110309932
 20
1742.034411655997
 30
0.0000000000563712
 40
10.00000000000009
100
AcDbArc
 50
64.57753282186333
 51
90.0
  0
LINE
  5
F16A
330
18
100
AcDbEntity
  8
01
  6
CONTINUOUS
100
AcDbLine
 10
4967.340003528745
 20
1733.719617463167
 30
0.0000000000563712
 11
4956.840003528745
 21
1733.719617463167
 31
0.0000000000563712
  0
ARC
  5
F16B
330
18
100
AcDbEntity
  8
01
  6
CONTINUOUS
100
AcDbCircle
 10
4967.378583775659
 20
1734.181756693973
 30
0.0000000000563712
 40
0.4637468103423796
100
AcDbArc
 50
265.2279066161985
 51
354.2577450626242
  0
LINE
  5
F16C
330
18
100
AcDbEntity
  8
01
  6
CONTINUOUS
100
AcDbLine
 10
4967.840003528745
 20
1749.517726429545
 30
0.0000000000563712
 11
4967.840003528745
 21
1734.551096882449
 31
0.0000000000563712
  0
ARC
  5
F16D
330
18
100
AcDbEntity
  8
01
  6
CONTINUOUS
100
AcDbCircle
 10
4967.378583775659
 20
1749.887066618022
 30
0.0000000000563712
 40
0.4637468103423387
100
AcDbArc
 50
5.742254937375811
 51
94.77209338380148
  0
ARC
  5
F16E
330
18
100
AcDbEntity
  8
01
  6
BYBLOCK
100
AcDbCircle
 10
4963.547110309932
 20
1742.034411655997
 30
0.0000000000563712
 40
10.00000000000009
100
AcDbArc
 50
270.0
 51
295.4224671781366
  0
LINE
  5
F16F
330
18
100
AcDbEntity
  8
01
  6
CONTINUOUS
100
AcDbLine
 10
4956.840003528745
 20
1750.349205848828
 30
0.0000000000563712
 11
4967.340003528745
 21
1750.349205848828
 31
0.0000000000563712
  0
LINE
  5
F170
330
18
100
AcDbEntity
  8
01
100
AcDbLine
 10
5263.839770849256
 20
1746.534411655982
 30
0.0000000000563712
 11
5263.839770849256
 21
1705.034411655984
 31
0.0000000000563712
  0
ARC
  5
F171
330
18
100
AcDbEntity
  8
01
100
AcDbCircle
 10
5262.839770849256
 20
1705.034411655984
 30
0.0000000000563712
 40
1.0
100
AcDbArc
 50
270.0
 51
0.0
  0
LINE
  5
F172
330
18
100
AcDbEntity
  8
01
100
AcDbLine
 10
5219.339770849259
 20
1704.034411655984
 30
0.0000000000563712
 11
5262.839770849256
 21
1704.034411655984
 31
0.0000000000563712
  0
LINE
  5
F173
330
18
100
AcDbEntity
  8
01
100
AcDbLine
 10
4935.840003528745
 20
1720.034411655984
 30
0.0000000000563712
 11
4875.840003528745
 21
1720.034411655984
 31
0.0000000000563712
  0
LINE
  5
F174
330
18
100
AcDbEntity
  8
01
100
AcDbLine
 10
4905.840003528745
 20
1750.034411655984
 30
0.0000000000563712
 11
4905.840003528745
 21
1690.034411655984
 31
0.0000000000563712
  0
LINE
  5
F175
330
18
100
AcDbEntity
  8
01
100
AcDbLine
 10
5219.339887189002
 20
2010.034411654955
 30
0.0000000000563712
 11
5272.339887188999
 21
2010.034411654955
 31
0.0000000000563712
  0
LINE
  5
F176
330
18
100
AcDbEntity
  8
01
100
AcDbLine
 10
5219.839887189002
 20
2018.534411654955
 30
0.0000000000563712
 11
5243.339899153857
 21
2018.534411654955
 31
0.0000000000563712
  0
LINE
  5
F177
330
18
100
AcDbEntity
  8
01
100
AcDbLine
 10
5248.33989915386
 20
2018.534411654955
 30
0.0000000000563712
 11
5271.839887188999
 21
2018.534411654955
 31
0.0000000000563712
  0
LINE
  5
F178
330
18
100
AcDbEntity
  8
01
100
AcDbLine
 10
5272.339887188999
 20
2010.034411654955
 30
0.0000000000563712
 11
5272.339887188999
 21
2018.034411654955
 31
0.0000000000563712
  0
LINE
  5
F179
330
18
100
AcDbEntity
  8
01
100
AcDbLine
 10
5219.339887189002
 20
2010.034411654955
 30
0.0000000000563712
 11
5219.339887189002
 21
2018.034411654955
 31
0.0000000000563712
  0
ARC
  5
F17A
330
18
100
AcDbEntity
  8
01
100
AcDbCircle
 10
5219.839887189002
 20
2018.034411654955
 30
0.0000000000563712
 40
0.5
100
AcDbArc
 50
90.0
 51
180.0
  0
ARC
  5
F17B
330
18
100
AcDbEntity
  8
01
100
AcDbCircle
 10
5271.839887188999
 20
2018.034411654955
 30
0.0000000000563712
 40
0.5
100
AcDbArc
 50
0.0
 51
90.0
  0
LINE
  5
F17C
330
18
100
AcDbEntity
  8
1HIDDEN
100
AcDbLine
 10
5263.839770849256
 20
1777.034411655984
 30
0.0000000000563712
 11
5263.839770849256
 21
1755.534411860111
 31
0.0000000000563712
  0
LINE
  5
F17D
330
18
100
AcDbEntity
  8
01
  6
BYBLOCK
100
AcDbLine
 10
5197.539770849255
 20
1778.034411655984
 30
0.0000000000563712
 11
5225.839770849258
 21
1778.034411655984
 31
0.0000000000563712
  0
LINE
  5
F17E
330
18
100
AcDbEntity
  8
1HIDDEN
100
AcDbLine
 10
5225.839770849258
 20
1778.034411655984
 30
0.0000000000563712
 11
5262.839770849256
 21
1778.034411655984
 31
0.0000000000563712
  0
LINE
  5
F17F
330
18
100
AcDbEntity
  8
01
  6
BYBLOCK
100
AcDbLine
 10
5263.839770849258
 20
1755.534411860111
 30
0.0000000000563712
 11
5263.839770849258
 21
1746.534411655982
 31
0.0000000000563712
  0
LINE
  5
F180
330
18
100
AcDbEntity
  8
01
100
AcDbLine
 10
4961.840003528745
 20
1798.034411655984
 30
0.0000000000563712
 11
4947.840003528745
 21
1798.034411655984
 31
0.0000000000563712
  0
LINE
  5
F181
330
18
100
AcDbEntity
  8
01
  6
BYBLOCK
100
AcDbLine
 10
4955.340003528745
 20
1805.934411655984
 30
0.0000000000563712
 11
4955.340003528745
 21
1676.134411655984
 31
0.0000000000563712
  0
LINE
  5
F182
330
18
100
AcDbEntity
  8
01
  6
BYBLOCK
100
AcDbLine
 10
4955.340003528745
 20
1677.034411655984
 30
0.0000000000563712
 11
4952.840003528745
 21
1677.034411655984
 31
0.0000000000563712
  0
LINE
  5
F183
330
18
100
AcDbEntity
  8
01
  6
BYBLOCK
100
AcDbLine
 10
4952.840003528745
 20
1677.034411655984
 30
0.0000000000563712
 11
4952.840003528745
 21
1693.537355381136
 31
0.0000000000563712
  0
LINE
  5
F184
330
18
100
AcDbEntity
  8
01
  6
BYBLOCK
100
AcDbLine
 10
4956.840003528745
 20
1805.934411655984
 30
0.0000000000563712
 11
4956.840003528745
 21
1676.134411655984
 31
0.0000000000563712
  0
LINE
  5
F185
330
18
100
AcDbEntity
  8
01
  6
BYBLOCK
100
AcDbLine
 10
4956.840003528745
 20
1676.134411655984
 30
0.0000000000563712
 11
4955.340003528745
 21
1676.134411655984
 31
0.0000000000563712
  0
LINE
  5
F186
330
18
100
AcDbEntity
  8
01
  6
BYBLOCK
100
AcDbLine
 10
4955.340003528745
 20
1805.034411655984
 30
0.0000000000563712
 11
4952.840003528745
 21
1805.034411655984
 31
0.0000000000563712
  0
LINE
  5
F187
330
18
100
AcDbEntity
  8
01
  6
BYBLOCK
100
AcDbLine
 10
4956.840003528745
 20
1805.934411655984
 30
0.0000000000563712
 11
4955.340003528745
 21
1805.934411655984
 31
0.0000000000563712
  0
LINE
  5
F188
330
18
100
AcDbEntity
  8
01
  6
BYBLOCK
100
AcDbLine
 10
4955.340003528745
 20
1781.034411655984
 30
0.0000000000563712
 11
4954.140003528744
 21
1781.034411655984
 31
0.0000000000563712
  0
LINE
  5
F189
330
18
100
AcDbEntity
  8
01
  6
BYBLOCK
100
AcDbLine
 10
4954.140003528744
 20
1786.734411655984
 30
0.0000000000563712
 11
4954.140003528744
 21
1695.334411655984
 31
0.0000000000563712
  0
LINE
  5
F18A
330
18
100
AcDbEntity
  8
01
  6
BYBLOCK
100
AcDbLine
 10
4954.040003528744
 20
1677.034411655984
 30
0.0000000000563712
 11
4954.040003528744
 21
1693.634411655984
 31
0.0000000000563712
  0
LINE
  5
F18B
330
18
100
AcDbEntity
  8
01
  6
BYBLOCK
100
AcDbLine
 10
4954.040003528744
 20
1693.634411655984
 30
0.0000000000563712
 11
4954.988531666169
 21
1694.582939793408
 31
0.0000000000563712
  0
LINE
  5
F18C
330
18
100
AcDbEntity
  8
01
  6
BYBLOCK
100
AcDbLine
 10
4953.191475391321
 20
1694.38588351856
 30
0.0000000000563712
 11
4954.140003528744
 21
1695.334411655984
 31
0.0000000000563712
  0
ARC
  5
F18D
330
18
100
AcDbEntity
  8
01
  6
BYBLOCK
100
AcDbCircle
 10
4954.040003528744
 20
1693.537355381136
 30
0.0000000000563712
 40
1.2
100
AcDbArc
 50
134.9999999999516
 51
180.0
  0
ARC
  5
F18E
330
18
100
AcDbEntity
  8
01
  6
BYBLOCK
100
AcDbCircle
 10
4954.140003528744
 20
1695.431467930832
 30
0.0000000000563712
 40
1.2
100
AcDbArc
 50
314.9999999999516
 51
0.0
  0
LINE
  5
F18F
330
18
100
AcDbEntity
  8
01
  6
BYBLOCK
100
AcDbLine
 10
4952.840003528745
 20
1805.034411655984
 30
0.0000000000563712
 11
4952.840003528745
 21
1788.531467930832
 31
0.0000000000563712
  0
LINE
  5
F190
330
18
100
AcDbEntity
  8
01
  6
BYBLOCK
100
AcDbLine
 10
4954.040003528744
 20
1805.034411655984
 30
0.0000000000563712
 11
4954.040003528744
 21
1788.434411655984
 31
0.0000000000563712
  0
LINE
  5
F191
330
18
100
AcDbEntity
  8
01
  6
BYBLOCK
100
AcDbLine
 10
4954.040003528744
 20
1788.434411655984
 30
0.0000000000563712
 11
4954.988531666169
 21
1787.48588351856
 31
0.0000000000563712
  0
LINE
  5
F192
330
18
100
AcDbEntity
  8
01
  6
BYBLOCK
100
AcDbLine
 10
4953.191475391321
 20
1787.682939793408
 30
0.0000000000563712
 11
4954.140003528744
 21
1786.734411655984
 31
0.0000000000563712
  0
ARC
  5
F193
330
18
100
AcDbEntity
  8
01
  6
BYBLOCK
100
AcDbCircle
 10
4954.040003528744
 20
1788.531467930832
 30
0.0000000000563712
 40
1.2
100
AcDbArc
 50
180.0
 51
225.0000000000484
  0
ARC
  5
F194
330
18
100
AcDbEntity
  8
01
  6
BYBLOCK
100
AcDbCircle
 10
4954.140003528744
 20
1786.637355381136
 30
0.0000000000563712
 40
1.2
100
AcDbArc
 50
0.0
 51
45.00000000004836
  0
LINE
  5
F195
330
18
100
AcDbEntity
  8
01
  6
BYBLOCK
100
AcDbLine
 10
4954.140003528744
 20
1704.034411655984
 30
0.0000000000563712
 11
4932.340003528741
 21
1704.034411655984
 31
0.0000000000563712
  0
LINE
  5
F196
330
18
100
AcDbEntity
  8
01
  6
BYBLOCK
100
AcDbLine
 10
4967.840003528745
 20
1751.066081923
 30
0.0000000000563712
 11
4967.840003528745
 21
1733.002741388994
 31
0.0000000000563712
  0
LINE
  5
F197
330
18
100
AcDbEntity
  8
01
  6
BYBLOCK
100
AcDbLine
 10
4963.547110309932
 20
1752.034411655997
 30
0.0000000000563712
 11
4956.840003528745
 21
1752.034411655997
 31
0.0000000000563712
  0
LINE
  5
F198
330
18
100
AcDbEntity
  8
01
  6
BYBLOCK
100
AcDbLine
 10
4963.547110309932
 20
1732.034411655997
 30
0.0000000000563712
 11
4956.840003528745
 21
1732.034411655997
 31
0.0000000000563712
  0
LINE
  5
F199
330
18
100
AcDbEntity
  8
01
100
AcDbLine
 10
4961.840003528458
 20
1684.034411656273
 30
0.0000000000563712
 11
4947.840003528458
 21
1684.034411656273
 31
0.0000000000563712
  0
LINE
  5
F19A
330
18
100
AcDbEntity
  8
01
100
AcDbLine
 10
4935.840003528745
 20
1720.034411655984
 30
0.0000000000563712
 11
4875.840003528745
 21
1720.034411655984
 31
0.0000000000563712
  0
LINE
  5
F19B
330
18
100
AcDbEntity
  8
01
100
AcDbLine
 10
4905.840003528745
 20
1750.034411655984
 30
0.0000000000563712
 11
4905.840003528745
 21
1690.034411655984
 31
0.0000000000563712
  0
LINE
  5
F19C
330
18
100
AcDbEntity
  8
01
  6
BYBLOCK
100
AcDbLine
 10
4954.140003528744
 20
1778.034411655984
 30
0.0000000000563712
 11
4925.840003528743
 21
1778.034411655984
 31
0.0000000000563712
  0
LINE
  5
F19D
330
18
100
AcDbEntity
  8
01
  6
BYBLOCK
100
AcDbLine
 10
4887.840003528741
 20
1755.534411860111
 30
0.0000000000563712
 11
4887.840003528741
 21
1746.534411655982
 31
0.0000000000563712
  0
TEXT
  5
F19E
330
18
100
AcDbEntity
  8
1TEXT
100
AcDbText
 10
4887.839903189
 20
2001.534411655984
 30
0.0
 40
20.0
  1
2-JRT-X-LJ-2
100
AcDbText
  0
TEXT
  5
F19F
330
18
100
AcDbEntity
  8
1TEXT
100
AcDbText
 10
4900.039903189001
 20
1963.284411655984
 30
0.0
 40
6.0
  1
表面処理
 72
     1
 11
4913.939903189001
 21
1963.284411655984
 31
0.0
100
AcDbText
  0
TEXT
  5
F1A0
330
18
100
AcDbEntity
  8
1TEXT
100
AcDbText
 10
4899.739903189001
 20
1953.031478666697
 30
0.0
 40
6.0
  1
クローム
 72
     1
 11
4913.939903189001
 21
1953.031478666697
 31
0.0
100
AcDbText
  0
LINE
  5
F1A1
330
18
100
AcDbEntity
  8
1DIM
100
AcDbLine
 10
4887.839903189
 20
1971.534411655984
 30
0.0000000000563712
 11
4992.839903189
 21
1971.534411655984
 31
0.0000000000563712
  0
LINE
  5
F1A2
330
18
100
AcDbEntity
  8
1DIM
100
AcDbLine
 10
4887.839903189
 20
1961.034411655984
 30
0.0000000000563712
 11
4992.839903189
 21
1961.034411655984
 31
0.0000000000563712
  0
LINE
  5
F1A3
330
18
100
AcDbEntity
  8
1DIM
100
AcDbLine
 10
4887.839903189
 20
1950.534411655984
 30
0.0000000000563712
 11
4992.839903189
 21
1950.534411655984
 31
0.0000000000563712
  0
LINE
  5
F1A4
330
18
100
AcDbEntity
  8
1DIM
100
AcDbLine
 10
4887.839903189
 20
1950.534411655984
 30
0.0000000000563712
 11
4992.839903189
 21
1950.534411655984
 31
0.0000000000563712
  0
LINE
  5
F1A5
330
18
100
AcDbEntity
  8
1DIM
100
AcDbLine
 10
4940.339903189
 20
1971.534411655984
 30
0.0000000000563712
 11
4940.339903189
 21
1950.534411655984
 31
0.0000000000563712
  0
TEXT
  5
F1A6
330
18
100
AcDbEntity
  8
1TEXT
100
AcDbText
 10
4941.939903189001
 20
1952.46287618051
 30
0.0
 40
6.0
  1
2-JRT-C-LJ-2
 41
0.6999999999999998
 72
     1
 11
4966.439903189001
 21
1952.46287618051
 31
0.0
100
AcDbText
  0
TEXT
  5
F1A7
330
18
100
AcDbEntity
  8
1TEXT
100
AcDbText
 10
4956.139903189001
 20
1963.284411655984
 30
0.0
 40
6.0
  1
コード
 72
     1
 11
4966.439903189001
 21
1963.284411655984
 31
0.0
100
AcDbText
  0
LINE
  5
F1A8
330
18
100
AcDbEntity
  8
1DIM
100
AcDbLine
 10
4992.839903189
 20
1950.534411655984
 30
0.0000000000563712
 11
4992.839903189
 21
1971.534411655984
 31
0.0000000000563712
  0
LINE
  5
F1A9
330
18
100
AcDbEntity
  8
1DIM
100
AcDbLine
 10
4887.839903189
 20
1950.534411655984
 30
0.0000000000563712
 11
4992.839903189
 21
1950.534411655984
 31
0.0000000000563712
  0
LINE
  5
F1AA
330
18
100
AcDbEntity
  8
1DIM
100
AcDbLine
 10
4940.339903189
 20
1950.534411655984
 30
0.0000000000563712
 11
4940.339903189
 21
1940.034411655984
 31
0.0000000000563712
  0
LINE
  5
F1AB
330
18
100
AcDbEntity
  8
1DIM
100
AcDbLine
 10
4887.839903189
 20
1940.034411655984
 30
0.0000000000563712
 11
4992.839903189
 21
1940.034411655984
 31
0.0000000000563712
  0
TEXT
  5
F1AC
330
18
100
AcDbEntity
  8
1TEXT
100
AcDbText
 10
4889.139903189001
 20
1942.568041238628
 30
0.0
 40
6.0
  1
サテンニッケル
 72
     1
 11
4913.939903189001
 21
1942.568041238628
 31
0.0
100
AcDbText
  0
LINE
  5
F1AD
330
18
100
AcDbEntity
  8
1DIM
100
AcDbLine
 10
4887.839903189
 20
1940.034411655984
 30
0.0000000000563712
 11
4887.839903189
 21
1950.534411655984
 31
0.0000000000563712
  0
LINE
  5
F1AE
330
18
100
AcDbEntity
  8
1DIM
100
AcDbLine
 10
4992.839903189
 20
1940.034411655984
 30
0.0000000000563712
 11
4992.839903189
 21
1950.534411655984
 31
0.0000000000563712
  0
TEXT
  5
F1AF
330
18
100
AcDbEntity
  8
1TEXT
100
AcDbText
 10
4941.939903189001
 20
1941.96287618051
 30
0.0
 40
6.0
  1
2-JRT-N-LJ-2
 41
0.6999999999999998
 72
     1
 11
4966.439903189001
 21
1941.96287618051
 31
0.0
100
AcDbText
  0
LINE
  5
F1B0
330
18
100
AcDbEntity
  8
1DIM
100
AcDbLine
 10
4887.839903189
 20
1950.534411655984
 30
0.0000000000563712
 11
4887.839903189
 21
1971.534411655984
 31
0.0000000000563712
  0
LINE
  5
F1B1
330
18
100
AcDbEntity
  8
1DIM
100
AcDbLine
 10
4940.339903189
 20
1940.034411655984
 30
0.0000000000563712
 11
4940.339903189
 21
1929.534411655984
 31
0.0000000000563712
  0
LINE
  5
F1B2
330
18
100
AcDbEntity
  8
1DIM
100
AcDbLine
 10
4887.839903189
 20
1929.534411655984
 30
0.0000000000563712
 11
4992.839903189
 21
1929.534411655984
 31
0.0000000000563712
  0
TEXT
  5
F1B3
330
18
100
AcDbEntity
  8
1TEXT
100
AcDbText
 10
4889.739903189001
 20
1932.068041238628
 30
0.0
 40
6.0
  1
パールブラック
 72
     1
 11
4913.939903189001
 21
1932.068041238628
 31
0.0
100
AcDbText
  0
LINE
  5
F1B4
330
18
100
AcDbEntity
  8
1DIM
100
AcDbLine
 10
4887.839903189
 20
1929.534411655984
 30
0.0000000000563712
 11
4887.839903189
 21
1940.034411655984
 31
0.0000000000563712
  0
LINE
  5
F1B5
330
18
100
AcDbEntity
  8
1DIM
100
AcDbLine
 10
4992.839903189
 20
1929.534411655984
 30
0.0000000000563712
 11
4992.839903189
 21
1940.034411655984
 31
0.0000000000563712
  0
TEXT
  5
F1B6
330
18
100
AcDbEntity
  8
1TEXT
100
AcDbText
 10
4941.726361522334
 20
1931.46287618051
 30
0.0
 40
6.0
  1
2-JRT-GQ-LJ-2
 41
0.65
 72
     1
 11
4966.439903189001
 21
1931.46287618051
 31
0.0
100
AcDbText
  0
LINE
  5
F1B7
330
18
100
AcDbEntity
  8
01
100
AcDbLine
 10
5093.711485466825
 20
1720.035729969087
 30
0.0000000000563712
 11
5116.339770849256
 21
1720.035729969087
 31
0.0000000000563712
  0
LINE
  5
F1B8
330
18
100
AcDbEntity
  8
01
  6
BYBLOCK
100
AcDbLine
 10
5194.840538691573
 20
1970.034411655985
 30
0.0000000001127424
 11
5348.594918846604
 21
1970.034411655985
 31
0.0000000001127424
  0
LINE
  5
F1B9
330
18
100
AcDbEntity
  8
01
100
AcDbLine
 10
5245.839770849256
 20
1975.034411655985
 30
0.0000000001127424
 11
5245.839770849256
 21
1948.534411655985
 31
0.0000000001127424
  0
LINE
  5
F1BA
330
18
100
AcDbEntity
  8
01
100
AcDbLine
 10
5095.839770849256
 20
1840.035729969087
 30
0.0000000000563712
 11
5095.839770849256
 21
1650.035729969087
 31
0.0000000000563712
  0
LINE
  5
F1BB
330
18
100
AcDbEntity
  8
1CENTER
100
AcDbLine
 10
5110.339770849256
 20
1705.035729969087
 30
0.0000000000563712
 11
5110.339770849256
 21
1713.035729969087
 31
0.0000000000563712
  0
LINE
  5
F1BC
330
18
100
AcDbEntity
  8
01
100
AcDbLine
 10
5215.839770849256
 20
1720.035729969087
 30
0.0000000000563712
 11
5275.839770849256
 21
1720.035729969087
 31
0.0000000000563712
  0
LINE
  5
F1BD
330
18
100
AcDbEntity
  8
01
100
AcDbLine
 10
5245.839770849256
 20
1750.035729969087
 30
0.0000000000563712
 11
5245.839770849256
 21
1690.035729969087
 31
0.0000000000563712
  0
LINE
  5
F1BF
330
18
100
AcDbEntity
  8
01
100
AcDbLine
 10
5271.839770849256
 20
1746.535729969085
 30
0.0000000000563712
 11
5219.839770849259
 21
1746.535729969085
 31
0.0000000000563712
  0
LINE
  5
F1C0
330
18
100
AcDbEntity
  8
01
100
AcDbLine
 10
5219.839770849259
 20
1693.535729969085
 30
0.0000000000563712
 11
5271.839770849256
 21
1693.535729969085
 31
0.0000000000563712
  0
LINE
  5
F1C1
330
18
100
AcDbEntity
  8
01
100
AcDbLine
 10
5219.339770849259
 20
1746.035729969085
 30
0.0000000000563712
 11
5219.339770849259
 21
1694.035729969085
 31
0.0000000000563712
  0
ARC
  5
F1C2
330
18
100
AcDbEntity
  8
01
100
AcDbCircle
 10
5219.839770849259
 20
1694.035729969085
 30
0.0000000000563712
 40
0.5
100
AcDbArc
 50
180.0
 51
270.0
  0
ARC
  5
F1C3
330
18
100
AcDbEntity
  8
01
100
AcDbCircle
 10
5219.839770849259
 20
1746.035729969085
 30
0.0000000000563712
 40
0.5
100
AcDbArc
 50
90.0
 51
180.0
  0
LINE
  5
F1C4
330
18
100
AcDbEntity
  8
01
100
AcDbLine
 10
5272.339770849256
 20
1746.035729969085
 30
0.0000000000563712
 11
5272.339770849256
 21
1726.219349877269
 31
0.0000000000563712
  0
LINE
  5
F1C5
330
18
100
AcDbEntity
  8
01
100
AcDbLine
 10
5272.339770849256
 20
1709.035729969087
 30
0.0000000000563712
 11
5272.339770849256
 21
1694.035729969085
 31
0.0000000000563712
  0
ARC
  5
F1C6
330
18
100
AcDbEntity
  8
01
100
AcDbCircle
 10
5271.839770849256
 20
1694.035729969085
 30
0.0000000000563712
 40
0.5
100
AcDbArc
 50
270.0
 51
0.0
  0
ARC
  5
F1C7
330
18
100
AcDbEntity
  8
01
100
AcDbCircle
 10
5271.839770849256
 20
1746.035729969085
 30
0.0000000000563712
 40
0.5
100
AcDbArc
 50
0.0
 51
90.0
  0
LINE
  5
F1C8
330
18
100
AcDbEntity
  8
01
100
AcDbLine
 10
5219.339770849259
 20
1970.034411655985
 30
0.0000000001127424
 11
5272.339770849256
 21
1970.034411655985
 31
0.0000000001127424
  0
LINE
  5
F1C9
330
18
100
AcDbEntity
  8
01
100
AcDbLine
 10
5219.839770849259
 20
1961.534411655985
 30
0.0000000001127424
 11
5271.839770849256
 21
1961.534411655985
 31
0.0000000001127424
  0
LINE
  5
F1CA
330
18
100
AcDbEntity
  8
01
100
AcDbLine
 10
5272.339770849256
 20
1970.034411655985
 30
0.0000000001127424
 11
5272.339770849256
 21
1962.034411655985
 31
0.0000000001127424
  0
LINE
  5
F1CB
330
18
100
AcDbEntity
  8
01
100
AcDbLine
 10
5219.339770849259
 20
1970.034411655985
 30
0.0000000001127424
 11
5219.339770849259
 21
1962.034411655985
 31
0.0000000001127424
  0
ARC
  5
F1CC
330
18
100
AcDbEntity
  8
01
100
AcDbCircle
 10
5219.839770849259
 20
1962.034411655985
 30
0.0000000001127424
 40
0.5
100
AcDbArc
 50
180.0
 51
270.0
  0
ARC
  5
F1CD
330
18
100
AcDbEntity
  8
01
100
AcDbCircle
 10
5271.839770849256
 20
1962.034411655985
 30
0.0000000001127424
 40
0.5
100
AcDbArc
 50
270.0
 51
0.0
  0
LINE
  5
F1CE
330
18
100
AcDbEntity
  8
01
100
AcDbLine
 10
5095.839770849256
 20
1693.535729969088
 30
0.0000000000563712
 11
5095.839770849256
 21
1746.535729969085
 31
0.0000000000563712
  0
LINE
  5
F1CF
330
18
100
AcDbEntity
  8
01
100
AcDbLine
 10
5104.339770849256
 20
1694.035729969088
 30
0.0000000000563712
 11
5104.339770849256
 21
1746.035729969085
 31
0.0000000000563712
  0
LINE
  5
F1D0
330
18
100
AcDbEntity
  8
01
100
AcDbLine
 10
5095.839770849256
 20
1746.535729969085
 30
0.0000000000563712
 11
5103.839770849256
 21
1746.535729969085
 31
0.0000000000563712
  0
LINE
  5
F1D1
330
18
100
AcDbEntity
  8
01
100
AcDbLine
 10
5095.839770849256
 20
1693.535729969088
 30
0.0000000000563712
 11
5103.839770849256
 21
1693.535729969088
 31
0.0000000000563712
  0
ARC
  5
F1D2
330
18
100
AcDbEntity
  8
01
100
AcDbCircle
 10
5103.839770849256
 20
1694.035729969088
 30
0.0000000000563712
 40
0.5
100
AcDbArc
 50
270.0
 51
0.0
  0
ARC
  5
F1D3
330
18
100
AcDbEntity
  8
01
100
AcDbCircle
 10
5103.839770849256
 20
1746.035729969085
 30
0.0000000000563712
 40
0.5
100
AcDbArc
 50
0.0
 51
90.0
  0
LINE
  5
F1D5
330
18
100
AcDbEntity
  8
1CENTER
100
AcDbLine
 10
5110.339770849256
 20
1705.035729969087
 30
0.0000000000563712
 11
5110.339770849256
 21
1713.035729969087
 31
0.0000000000563712
  0
LINE
  5
F1D6
330
18
100
AcDbEntity
  8
01
  6
CONTINUOUS
100
AcDbLine
 10
5159.819871718168
 20
1714.740253801095
 30
0.0000000000563712
 11
5158.847203536168
 21
1711.475033762613
 31
0.0000000000563712
  0
ARC
  5
F1D7
330
18
100
AcDbEntity
  8
01
  6
CONTINUOUS
100
AcDbCircle
 10
5158.861490005474
 20
1715.025743718209
 30
0.0000000000563712
 40
1.000000000000006
100
AcDbArc
 50
343.4118644947874
 51
58.83418778761298
  0
SPLINE
  5
F1D8
330
18
100
AcDbEntity
  8
01
  6
CONTINUOUS
100
AcDbSpline
210
0.0
220
0.0
230
1.0
 70
     8
 71
     3
 72
     8
 73
     4
 74
     0
 42
0.0000000001
 43
0.0000000001
 40
0.0
 40
0.0
 40
0.0
 40
0.0
 40
1.0
 40
1.0
 40
1.0
 40
1.0
 10
5156.256724896555
 20
1711.898455028504
 30
0.0000000000563712
 10
5156.124736320719
 20
1712.005340229367
 30
0.0000000000563712
 10
5155.984655417882
 20
1712.102690261185
 30
0.0000000000563712
 10
5155.835515764402
 20
1712.189448514048
 30
0.0000000000563712
  0
SPLINE
  5
F1D9
330
18
100
AcDbEntity
  8
01
  6
CONTINUOUS
100
AcDbSpline
210
0.0
220
0.0
230
1.0
 70
     8
 71
     3
 72
    14
 73
    10
 74
     0
 42
0.0000000001
 43
0.0000000001
 40
0.0
 40
0.0
 40
0.0
 40
0.0
 40
0.25
 40
0.25
 40
0.5
 40
0.5
 40
0.75
 40
0.75
 40
1.0
 40
1.0
 40
1.0
 40
1.0
 10
5155.835515764425
 20
1712.189448514087
 30
0.0000000000563712
 10
5151.801667806592
 20
1714.419691966381
 30
0.0000000000563712
 10
5147.8207451076
 20
1716.397065637376
 30
0.0000000000563712
 10
5139.633638916681
 20
1719.811855598487
 30
0.0000000000563712
 10
5135.427496464643
 20
1721.249254771179
 30
0.0000000000563712
 10
5126.862818891719
 20
1723.559187781144
 30
0.0000000000563712
 10
5122.504326703382
 20
1724.431710039362
 30
0.0000000000563712
 10
5113.710457928168
 20
1725.596767369201
 30
0.0000000000563712
 10
5109.275125422711
 20
1725.889296600737
 30
0.0000000000563712
 10
5104.83977084849
 20
1725.889295355191
 30
0.0000000000563712
  0
ARC
  5
F1DA
330
18
100
AcDbEntity
  8
01
  6
CONTINUOUS
100
AcDbCircle
 10
5104.646081081821
 20
1624.620189788918
 30
0.0000000000563712
 40
106.4157164499828
100
AcDbArc
 50
59.04723661211696
 51
89.8957145362773
  0
SPLINE
  5
F1DB
330
18
100
AcDbEntity
  8
01
  6
CONTINUOUS
100
AcDbSpline
210
0.0
220
0.0
230
1.0
 70
     8
 71
     3
 72
    20
 73
    16
 74
     0
 42
0.0000000001
 43
0.0000000001
 40
0.0
 40
0.0
 40
0.0
 40
0.0
 40
0.0450185141076617
 40
0.0708537562580309
 40
0.1231444472112413
 40
0.224676505861609
 40
0.2951358743603356
 40
0.3310174624886388
 40
0.4471145593113555
 40
0.5846953166121108
 40
0.7113399750861901
 40
0.784925080953956
 40
0.8574146299694319
 40
0.9290447573420708
 40
1.0
 40
1.0
 40
1.0
 40
1.0
 10
5157.732162193652
 20
1710.461541338275
 30
0.0000000000563712
 10
5157.722551050188
 20
1710.465700597252
 30
0.0000000000563712
 10
5157.707424260027
 20
1710.472246773366
 30
0.0000000000563712
 10
5157.678801070884
 20
1710.489238066375
 30
0.0000000000563712
 10
5157.642082555976
 20
1710.521840942419
 30
0.0000000000563712
 10
5157.599934756767
 20
1710.57968914337
 30
0.0000000000563712
 10
5157.552607902891
 20
1710.647341471867
 30
0.0000000000563712
 10
5157.495516758847
 20
1710.728744075977
 30
0.0000000000563712
 10
5157.395882574909
 20
1710.850071076341
 30
0.0000000000563712
 10
5157.2088720468
 20
1711.043923252529
 30
0.0000000000563712
 10
5156.994416883099
 20
1711.247651822747
 30
0.0000000000563712
 10
5156.794952095755
 20
1711.4282979709
 30
0.0000000000563712
 10
5156.623002364457
 20
1711.580842634021
 30
0.0000000000563712
 10
5156.443647427157
 20
1711.737790940273
 30
0.0000000000563712
 10
5156.3187825533
 20
1711.845136187606
 30
0.0000000000563712
 10
5156.256645621424
 20
1711.898554768146
 30
0.0000000000563712
  0
LINE
  5
F1DC
330
18
100
AcDbEntity
  8
01
  6
CONTINUOUS
100
AcDbLine
 10
5157.80582895107
 20
1710.456552708332
 30
0.0000000000563712
 11
5157.786904911607
 21
1710.457834222997
 31
0.0000000000563712
  0
LINE
  5
F1DD
330
18
100
AcDbEntity
  8
01
  6
CONTINUOUS
100
AcDbLine
 10
5157.786904911607
 20
1710.457834222997
 30
0.0000000000563712
 11
5157.732162193652
 21
1710.461541338275
 31
0.0000000000563712
  0
ARC
  5
F1DE
330
18
100
AcDbEntity
  8
01
  6
CONTINUOUS
100
AcDbCircle
 10
5147.234263447062
 20
1749.061798806315
 30
0.0000000000563712
 40
40.02654238701454
100
AcDbArc
 50
269.7212936630648
 51
285.3143633252261
  0
ARC
  5
F1DF
330
18
100
AcDbEntity
  8
01
  6
CONTINUOUS
100
AcDbCircle
 10
5157.409630967128
 20
1711.903268638286
 30
0.0000000000563712
 40
1.5
100
AcDbArc
 50
285.3169063441978
 51
343.4118644947874
  0
LINE
  5
F1E0
330
18
100
AcDbEntity
  8
01
  6
CONTINUOUS
100
AcDbLine
 10
5104.839770849256
 20
1709.035729969087
 30
0.0000000000563712
 11
5147.039561374615
 21
1709.035729969087
 31
0.0000000000563712
  0
LINE
  5
F1E1
330
18
100
AcDbEntity
  8
01
100
AcDbLine
 10
5104.839770849256
 20
1731.035729969087
 30
0.0000000000563712
 11
5104.839770849256
 21
1709.035729969087
 31
0.0000000000563712
  0
SPLINE
  5
F1E2
330
18
100
AcDbEntity
  8
01
  6
CONTINUOUS
100
AcDbSpline
210
0.0
220
0.0
230
1.0
 70
     8
 71
     3
 72
    13
 73
     9
 74
     0
 42
0.0000000001
 43
0.0000000001
 40
0.0
 40
0.0
 40
0.0
 40
0.0
 40
0.0801923437833644
 40
0.2134552102585882
 40
0.3466553511806543
 40
0.4782293078370131
 40
0.7389542679832329
 40
1.0
 40
1.0
 40
1.0
 40
1.0
 10
5232.406335244716
 20
1710.747278100481
 30
0.0000000000563712
 10
5232.541754440084
 20
1710.693178104528
 30
0.0000000000563712
 10
5232.90221195332
 20
1710.549175255048
 30
0.0000000000563712
 10
5233.365816647038
 20
1710.310133099405
 30
0.0000000000563712
 10
5233.807686799337
 20
1710.047753096195
 30
0.0000000000563712
 10
5234.252230682408
 20
1709.727242200386
 30
0.0000000000563712
 10
5234.573200164854
 20
1709.386799073564
 30
0.0000000000563712
 10
5234.753332953156
 20
1709.255908619317
 30
0.0000000000563712
 10
5234.843454717926
 20
1709.190423158067
 30
0.0000000000563712
  0
SPLINE
  5
F1E3
330
18
100
AcDbEntity
  8
01
100
AcDbSpline
210
0.0
220
0.0
230
1.0
 70
     8
 71
     3
 72
    11
 73
     7
 74
     0
 42
0.0000000001
 43
0.0000000001
 40
0.0
 40
0.0
 40
0.0
 40
0.0
 40
0.2605476402037294
 40
0.5152974989895172
 40
0.7637962208008108
 40
1.0
 40
1.0
 40
1.0
 40
1.0
 10
5230.917925186997
 20
1712.059267704486
 30
0.0000000000563712
 10
5230.9714780994
 20
1711.924451082176
 30
0.0000000000563712
 10
5231.077392249317
 20
1711.657817816014
 30
0.0000000000563712
 10
5231.409467905665
 20
1711.304737592162
 30
0.0000000000563712
 10
5231.847153228766
 20
1710.997686369816
 30
0.0000000000563712
 10
5232.191634920226
 20
1710.845651387602
 30
0.0000000000563712
 10
5232.359506712135
 20
1710.771562152877
 30
0.0000000000563712
  0
ARC
  5
F1E4
330
18
100
AcDbEntity
  8
01
100
AcDbCircle
 10
5367.839770849256
 20
1712.035729969087
 30
0.0000000000563712
 40
3.0
100
AcDbArc
 50
270.0
 51
0.0
  0
LINE
  5
F1E5
330
18
100
AcDbEntity
  8
01
  6
CONTINUOUS
100
AcDbLine
 10
5254.843020849255
 20
1709.035729969087
 30
0.0000000000563712
 11
5367.839770849256
 21
1709.035729969087
 31
0.0000000000563712
  0
SPLINE
  5
F1E6
330
18
100
AcDbEntity
  8
01
100
AcDbSpline
210
0.0
220
0.0
230
1.0
 70
     8
 71
     3
 72
    10
 73
     6
 74
     0
 42
0.0000000001
 43
0.0000000001
 40
0.0
 40
0.0
 40
0.0
 40
0.0
 40
0.1591596332908675
 40
0.8591839902836207
 40
1.0
 40
1.0
 40
1.0
 40
1.0
 10
5230.843838973924
 20
1712.519284787917
 30
0.0000000000563712
 10
5230.842897415474
 20
1712.496233003299
 30
0.0000000000563712
 10
5230.837814644616
 20
1712.371793634593
 30
0.0000000000563712
 10
5230.861575707489
 20
1712.230986206996
 30
0.0000000000563712
 10
5230.904926202144
 20
1712.10843134451
 30
0.0000000000563712
 10
5230.912186133895
 20
1712.087907012675
 30
0.0000000000563712
  0
SPLINE
  5
F1E7
330
18
100
AcDbEntity
  8
01
  6
CONTINUOUS
100
AcDbSpline
210
0.0
220
0.0
230
1.0
 70
     8
 71
     3
 72
    10
 73
     6
 74
     0
 42
0.0000000001
 43
0.0000000001
 40
0.0
 40
0.0
 40
0.0
 40
0.0
 40
0.3918201303123018
 40
0.9940468231634132
 40
1.0
 40
1.0
 40
1.0
 40
1.0
 10
5234.96984327748
 20
1709.156327653297
 30
0.0000000000563712
 10
5235.027609463566
 20
1709.135047123792
 30
0.0000000000563712
 10
5235.174162152724
 20
1709.081058466465
 30
0.0000000000563712
 10
5235.346246255076
 20
1709.037304299285
 30
0.0000000000563712
 10
5235.466728719588
 20
1709.044831315468
 30
0.0000000000563712
 10
5235.467908063813
 20
1709.044904993768
 30
0.0000000000563712
  0
SPLINE
  5
F1E8
330
18
100
AcDbEntity
  8
01
100
AcDbSpline
210
0.0
220
0.0
230
1.0
 70
     8
 71
     3
 72
    18
 73
    14
 74
     0
 42
0.0000000001
 43
0.0000000001
 40
0.0
 40
0.0
 40
0.0
 40
0.0
 40
0.0037411650843013
 40
0.0986297447690057
 40
0.1875761019416629
 40
0.2764162401811492
 40
0.3698493074111531
 40
0.4734010413854489
 40
0.5960753788310015
 40
0.7116695358418624
 40
0.8189026918008349
 40
0.9315067574098522
 40
1.0
 40
1.0
 40
1.0
 40
1.0
 10
5370.838043612501
 20
1724.516002081267
 30
0.0000000000563712
 10
5370.838611996252
 20
1724.520632143995
 30
0.0000000000563712
 10
5370.853596511239
 20
1724.642696232268
 30
0.0000000000563712
 10
5370.796214910953
 20
1724.881376313839
 30
0.0000000000563712
 10
5370.665657474581
 20
1725.189635193196
 30
0.0000000000563712
 10
5370.464219913765
 20
1725.448943459288
 30
0.0000000000563712
 10
5370.21228649681
 20
1725.664009102559
 30
0.0000000000563712
 10
5369.897435812702
 20
1725.847974326379
 30
0.0000000000563712
 10
5369.519794896578
 20
1725.995718765232
 30
0.0000000000563712
 10
5369.090592939408
 20
1726.106045863533
 30
0.0000000000563712
 10
5368.63270691352
 20
1726.178356016072
 30
0.0000000000563712
 10
5368.212103932892
 20
1726.216263013591
 30
0.0000000000563712
 10
5367.941999887025
 20
1726.215542809442
 30
0.0000000000563712
 10
5367.839843195014
 20
1726.215270419322
 30
0.0000000000563712
  0
SPLINE
  5
F1E9
330
18
100
AcDbEntity
  8
01
100
AcDbSpline
210
0.0
220
0.0
230
1.0
 70
     8
 71
     3
 72
    19
 73
    15
 74
     0
 42
0.0000000001
 43
0.0000000001
 40
0.0
 40
0.0
 40
0.0
 40
0.0
 40
0.077318707389703
 40
0.1644064665832291
 40
0.2526742168276733
 40
0.3413076136591857
 40
0.4317419507703862
 40
0.5226255462847058
 40
0.6143891804552037
 40
0.7062465328243186
 40
0.7952834416848785
 40
0.8728355436151866
 40
0.9433313479901454
 40
1.0
 40
1.0
 40
1.0
 40
1.0
 10
5261.839770849256
 20
1726.219349877269
 30
0.0000000000563712
 10
5261.638211802061
 20
1726.222334229091
 30
0.0000000000563712
 10
5261.20929474112
 20
1726.225745505582
 30
0.0000000000563712
 10
5260.561218770445
 20
1726.264000090664
 30
0.0000000000563712
 10
5259.908730272587
 20
1726.326860754169
 30
0.0000000000563712
 10
5259.28582070204
 20
1726.415215285954
 30
0.0000000000563712
 10
5258.703620825239
 20
1726.524163790891
 30
0.0000000000563712
 10
5258.174722527789
 20
1726.651168937958
 30
0.0000000000563712
 10
5257.709531416818
 20
1726.790928705251
 30
0.0000000000563712
 10
5257.324399810906
 20
1726.934853789706
 30
0.0000000000563712
 10
5257.041048917445
 20
1727.069166001836
 30
0.0000000000563712
 10
5256.859950060549
 20
1727.176793683108
 30
0.0000000000563712
 10
5256.764954237175
 20
1727.253195126784
 30
0.0000000000563712
 10
5256.762777874039
 20
1727.256424831273
 30
0.0000000000563712
 10
5256.761808015255
 20
1727.257864093508
 30
0.0000000000563712
  0
LINE
  5
F1EA
330
18
100
AcDbEntity
  8
01
100
AcDbLine
 10
5367.839770849256
 20
1726.219349877269
 30
0.0000000000563712
 11
5261.839770849256
 21
1726.219349877269
 31
0.0000000000563712
  0
SPLINE
  5
F1EB
330
18
100
AcDbEntity
  8
01
100
AcDbSpline
210
0.0
220
0.0
230
1.0
 70
     8
 71
     3
 72
    20
 73
    16
 74
     0
 42
0.0000000001
 43
0.0000000001
 40
0.0
 40
0.0
 40
0.0
 40
0.0
 40
0.124999999999997
 40
0.124999999999997
 40
0.2499999999999939
 40
0.2499999999999939
 40
0.3749999999999909
 40
0.3749999999999909
 40
0.4999999999999879
 40
0.4999999999999879
 40
0.6249999999999849
 40
0.6249999999999849
 40
0.7499999999999818
 40
0.7499999999999818
 40
1.0
 40
1.0
 40
1.0
 40
1.0
 10
5370.839770849256
 20
1716.07497659647
 30
0.0000000000563712
 10
5370.839770849256
 20
1715.988662485373
 30
0.0000000000563712
 10
5370.820559989001
 20
1715.903540860264
 30
0.0000000000563712
 10
5370.74533438895
 20
1715.735607043815
 30
0.0000000000563712
 10
5370.688502765723
 20
1715.651981607924
 30
0.0000000000563712
 10
5370.539388612795
 20
1715.491393114072
 30
0.0000000000563712
 10
5370.448126196054
 20
1715.415017310538
 30
0.0000000000563712
 10
5370.232599471337
 20
1715.270119454278
 30
0.0000000000563712
 10
5370.106720779808
 20
1715.201022367256
 30
0.0000000000563712
 10
5369.830817774931
 20
1715.076614062186
 30
0.0000000000563712
 10
5369.680351216111
 20
1715.020700854485
 30
0.0000000000563712
 10
5369.3539804458
 20
1714.921799640987
 30
0.0000000000563712
 10
5369.177945693325
 20
1714.879081405184
 30
0.0000000000563712
 10
5368.634658644622
 20
1714.776743025203
 30
0.0000000000563712
 10
5368.238846922546
 20
1714.740253801096
 30
0.0000000000563712
 10
5367.839770849256
 20
1714.740253801096
 30
0.0000000000563712
  0
LINE
  5
F1EC
330
18
100
AcDbEntity
  8
01
100
AcDbLine
 10
5370.839770849256
 20
1716.07497659647
 30
0.0000000000563712
 11
5370.839770849256
 21
1713.140364587567
 31
0.0000000000563712
  0
SPLINE
  5
F1ED
330
18
100
AcDbEntity
  8
01
100
AcDbSpline
210
0.0
220
0.0
230
1.0
 70
     8
 71
     3
 72
    20
 73
    16
 74
     0
 42
0.0000000001
 43
0.0000000001
 40
0.0
 40
0.0
 40
0.0
 40
0.0
 40
0.1249999999999996
 40
0.1249999999999996
 40
0.2499999999999991
 40
0.2499999999999991
 40
0.3749999999999987
 40
0.3749999999999987
 40
0.4999999999999982
 40
0.4999999999999982
 40
0.7499999999999992
 40
0.7499999999999992
 40
0.8749999999999996
 40
0.8749999999999996
 40
1.0
 40
1.0
 40
1.0
 40
1.0
 10
5233.839770849256
 20
1714.740253801096
 30
0.0000000000563712
 10
5233.640352699022
 20
1714.740253801096
 30
0.0000000000563712
 10
5233.444301757701
 20
1714.749147457273
 30
0.0000000000563712
 10
5233.058655899033
 20
1714.783959130352
 30
0.0000000000563712
 10
5232.867035375371
 20
1714.810324823133
 30
0.0000000000563712
 10
5232.502983785054
 20
1714.878740185942
 30
0.0000000000563712
 10
5232.330325836661
 20
1714.920553885922
 30
0.0000000000563712
 10
5232.003613100009
 20
1715.019168077393
 30
0.0000000000563712
 10
5231.849952093382
 20
1715.076143268731
 30
0.0000000000563712
 10
5231.436677569303
 20
1715.26224646929
 30
0.0000000000563712
 10
5231.214900388079
 20
1715.411279247073
 30
0.0000000000563712
 10
5230.992412041238
 20
1715.650312119244
 30
0.0000000000563712
 10
5230.935135943373
 20
1715.733882025188
 30
0.0000000000563712
 10
5230.858962391829
 20
1715.903240057756
 30
0.0000000000563712
 10
5230.839770849256
 20
1715.988712105123
 30
0.0000000000563712
 10
5230.839770849256
 20
1716.07497659647
 30
0.0000000000563712
  0
SPLINE
  5
F1EE
330
18
100
AcDbEntity
  8
01
100
AcDbSpline
210
0.0
220
0.0
230
1.0
 70
     8
 71
     3
 72
     8
 73
     4
 74
     0
 42
0.0000000001
 43
0.0000000001
 40
0.0
 40
0.0
 40
0.0
 40
0.0
 40
1.0
 40
1.0
 40
1.0
 40
1.0
 10
5230.839770849256
 20
1712.521421028979
 30
0.0000000000563712
 10
5230.839770849256
 20
1712.425303871307
 30
0.0000000000563712
 10
5230.859712050797
 20
1712.317885323514
 30
0.0000000000563712
 10
5230.897523256797
 20
1712.199916626495
 30
0.0000000000563712
  0
LINE
  5
F1EF
330
18
100
AcDbEntity
  8
01
100
AcDbLine
 10
5230.839770849256
 20
1712.521421028979
 30
0.0000000000563712
 11
5230.839770849256
 21
1716.07497659647
 31
0.0000000000563712
  0
LINE
  5
F1F0
330
18
100
AcDbEntity
  8
01
100
AcDbLine
 10
5367.839770849256
 20
1714.740253801096
 30
0.0000000000563712
 11
5233.839770849256
 21
1714.740253801096
 31
0.0000000000563712
  0
LINE
  5
F1F1
330
18
100
AcDbEntity
  8
01
  6
CONTINUOUS
100
AcDbLine
 10
5255.839770849256
 20
1731.035729969087
 30
0.0000000000563712
 11
5231.839770849256
 21
1731.035729969087
 31
0.0000000000563712
  0
SPLINE
  5
F1F2
330
18
100
AcDbEntity
  8
01
100
AcDbSpline
210
0.0
220
0.0
230
1.0
 70
     8
 71
     3
 72
    16
 73
    12
 74
     0
 42
0.0000000001
 43
0.0000000001
 40
0.0
 40
0.0
 40
0.0
 40
0.0
 40
0.2500000000000044
 40
0.2500000000000044
 40
0.5000000000000089
 40
0.5000000000000089
 40
0.6250000000000048
 40
0.6250000000000048
 40
0.7500000000000007
 40
0.7500000000000007
 40
1.0
 40
1.0
 40
1.0
 40
1.0
 10
5367.839770849256
 20
1710.456549365657
 30
0.0000000000563712
 10
5368.243437713454
 20
1710.456549365657
 30
0.0000000000563712
 10
5368.643448526629
 20
1710.529850609205
 30
0.0000000000563712
 10
5369.374069556279
 20
1710.804747230418
 30
0.0000000000563712
 10
5369.71167255957
 20
1711.010934146041
 30
0.0000000000563712
 10
5370.120972661829
 20
1711.384261784812
 30
0.0000000000563712
 10
5370.241833111484
 20
1711.518679972584
 30
0.0000000000563712
 10
5370.453494104295
 20
1711.806916245061
 30
0.0000000000563712
 10
5370.544904400702
 20
1711.96236899536
 30
0.0000000000563712
 10
5370.764424807274
 20
1712.445274713749
 30
0.0000000000563712
 10
5370.839770849256
 20
1712.792693909262
 30
0.0000000000563712
 10
5370.839770849256
 20
1713.140364587567
 30
0.0000000000563712
  0
LINE
  5
F1F3
330
18
100
AcDbEntity
  8
01
100
AcDbLine
 10
5232.413040618918
 20
1710.76579665086
 30
0.0000000000563712
 11
5232.276296269672
 21
1710.813926024235
 31
0.0000000000563712
  0
SPLINE
  5
F1F4
330
18
100
AcDbEntity
  8
01
100
AcDbSpline
210
0.0
220
0.0
230
1.0
 70
     8
 71
     3
 72
     9
 73
     5
 74
     0
 42
0.0000000001
 43
0.0000000001
 40
0.0
 40
0.0
 40
0.0
 40
0.0
 40
0.4964377885537041
 40
0.9999999999999999
 40
0.9999999999999999
 40
0.9999999999999999
 40
0.9999999999999999
 10
5234.10534627201
 20
1710.456552708332
 30
0.0000000000563712
 10
5234.035377400012
 20
1710.454322107867
 30
0.0000000000563712
 10
5233.894435526507
 20
1710.449828895389
 30
0.0000000000563712
 10
5233.753707792912
 20
1710.45761869138
 30
0.0000000000563712
 10
5233.682842624172
 20
1710.461541338275
 30
0.0000000000563712
  0
LINE
  5
F1F5
330
18
100
AcDbEntity
  8
01
100
AcDbLine
 10
5367.839770849256
 20
1710.456549365657
 30
0.0000000000563712
 11
5234.105445160889
 21
1710.456549365657
 31
0.0000000000563712
  0
LINE
  5
F1F6
330
18
100
AcDbEntity
  8
01
100
AcDbLine
 10
5370.839770849256
 20
1713.140364587567
 30
0.0000000000563712
 11
5370.839770849256
 21
1712.035729969087
 31
0.0000000000563712
  0
LINE
  5
F1F7
330
18
100
AcDbEntity
  8
01
  6
CONTINUOUS
100
AcDbLine
 10
5254.839770849256
 20
1709.035729969087
 30
0.0000000000563712
 11
5235.534142614995
 21
1709.035729969087
 31
0.0000000000563712
  0
SPLINE
  5
F1F8
330
18
100
AcDbEntity
  8
1DIM
100
AcDbSpline
210
0.0
220
0.0
230
1.0
 70
     8
 71
     3
 72
     8
 73
     4
 74
     0
 42
0.0000000001
 43
0.0000000001
 40
0.0
 40
0.0
 40
0.0
 40
0.0
 40
1.0
 40
1.0
 40
1.0
 40
1.0
 10
5235.232022401859
 20
1709.113790440863
 30
0.0000000000563712
 10
5235.346166492953
 20
1709.061851618748
 30
0.0000000000563712
 10
5235.446144352698
 20
1709.035729969087
 30
0.0000000000563712
 10
5235.534142614995
 20
1709.035729969087
 30
0.0000000000563712
  0
LINE
  5
F1F9
330
18
100
AcDbEntity
  8
01
  6
CONTINUOUS
100
AcDbLine
 10
5230.839770849256
 20
1716.07497659647
 30
0.0000000000563712
 11
5230.839770849256
 21
1730.035729969087
 31
0.0000000000563712
  0
ARC
  5
F1FA
330
18
100
AcDbEntity
  8
01
  6
CONTINUOUS
100
AcDbCircle
 10
5231.839770849256
 20
1730.035729969087
 30
0.0000000000563712
 40
1.0
100
AcDbArc
 50
90.0
 51
180.0
  0
LINE
  5
F1FB
330
18
100
AcDbEntity
  8
01
  6
CONTINUOUS
100
AcDbLine
 10
5370.839770849256
 20
1724.515006389348
 30
0.0000000000563712
 11
5370.839770849256
 21
1716.07497659647
 31
0.0000000000563712
  0
LINE
  5
F1FC
330
18
100
AcDbEntity
  8
01
100
AcDbLine
 10
5256.839770849256
 20
1730.035729969087
 30
0.0000000000563712
 11
5256.839770849256
 21
1727.272807840765
 31
0.0000000000563712
  0
ARC
  5
F1FD
330
18
100
AcDbEntity
  8
01
100
AcDbCircle
 10
5255.839770849256
 20
1730.035729969087
 30
0.0000000000563712
 40
1.0
100
AcDbArc
 50
0.0
 51
90.0
  0
SPLINE
  5
F1FE
330
18
100
AcDbEntity
  8
1DIM
100
AcDbSpline
210
0.0
220
0.0
230
1.0
 70
     8
 71
     3
 72
     9
 73
     5
 74
     0
 42
0.0000000001
 43
0.0000000001
 40
0.0
 40
0.0
 40
0.0
 40
0.0
 40
0.8343439945455199
 40
0.9999999999999999
 40
0.9999999999999999
 40
0.9999999999999999
 40
0.9999999999999999
 10
5235.232022401859
 20
1709.113790440863
 30
0.0000000000563712
 10
5235.118045901303
 20
1709.116743761062
 30
0.0000000000563712
 10
5234.981439775651
 20
1709.120283452386
 30
0.0000000000563712
 10
5234.866751981044
 20
1709.18723200872
 30
0.0000000000563712
 10
5234.847753259115
 20
1709.198322439133
 30
0.0000000000563712
  0
SPLINE
  5
F1FF
330
18
100
AcDbEntity
  8
01
100
AcDbSpline
210
0.0
220
0.0
230
1.0
 70
     8
 71
     3
 72
     9
 73
     5
 74
     0
 42
0.0000000001
 43
0.0000000001
 40
0.0
 40
0.0
 40
0.0
 40
0.0
 40
0.5960549951321458
 40
1.0
 40
1.0
 40
1.0
 40
1.0
 10
5233.682842624172
 20
1710.461541338275
 30
0.0000000000563712
 10
5233.419882063792
 20
1710.492363841765
 30
0.0000000000563712
 10
5232.9787137781
 20
1710.544074680097
 30
0.0000000000563712
 10
5232.575796885187
 20
1710.702002497778
 30
0.0000000000563712
 10
5232.413040618918
 20
1710.76579665086
 30
0.0000000000563712
  0
SPLINE
  5
F200
330
18
100
AcDbEntity
  8
01
100
AcDbSpline
210
0.0
220
0.0
230
1.0
 70
     8
 71
     3
 72
     9
 73
     5
 74
     0
 42
0.0000000001
 43
0.0000000001
 40
0.0
 40
0.0
 40
0.0
 40
0.0
 40
0.3786216536163409
 40
1.0
 40
1.0
 40
1.0
 40
1.0
 10
5230.920980970781
 20
1712.060263430957
 30
0.0000000000563712
 10
5230.913703009492
 20
1712.076848316442
 30
0.0000000000563712
 10
5230.8944807563
 20
1712.120651636528
 30
0.0000000000563712
 10
5230.896357246451
 20
1712.16953904775
 30
0.0000000000563712
 10
5230.897523256797
 20
1712.199916626495
 30
0.0000000000563712
  0
ARC
  5
F202
330
18
100
AcDbEntity
  8
01
  6
CONTINUOUS
100
AcDbCircle
 10
5261.839770849256
 20
1938.527256925101
 30
0.0000000001127424
 40
5.0
100
AcDbArc
 50
180.0
 51
270.0
  0
ARC
  5
F203
330
18
100
AcDbEntity
  8
01
  6
CONTINUOUS
100
AcDbCircle
 10
5367.839770849256
 20
1930.527256925101
 30
0.0000000001127424
 40
3.0
100
AcDbArc
 50
0.0
 51
90.0
  0
LINE
  5
F204
330
18
100
AcDbEntity
  8
01
  6
CONTINUOUS
100
AcDbLine
 10
5367.839770849256
 20
1933.527256925101
 30
0.0000000001127424
 11
5261.839770849256
 21
1933.527256925101
 31
0.0000000001127424
  0
LINE
  5
F205
330
18
100
AcDbEntity
  8
01
  6
CONTINUOUS
100
AcDbLine
 10
5233.839770849256
 20
1906.012692499766
 30
0.0000000001127424
 11
5367.839770849256
 21
1906.012692499766
 31
0.0000000001127424
  0
ARC
  5
F206
330
18
100
AcDbEntity
  8
01
  6
CONTINUOUS
100
AcDbCircle
 10
5367.839770849256
 20
1909.012692499766
 30
0.0000000001127424
 40
3.0
100
AcDbArc
 50
270.0
 51
0.0
  0
ARC
  5
F207
330
18
100
AcDbEntity
  8
01
  6
CONTINUOUS
100
AcDbCircle
 10
5233.839770849256
 20
1909.012692499766
 30
0.0000000001127424
 40
3.0
100
AcDbArc
 50
180.0
 51
270.0
  0
LINE
  5
F208
330
18
100
AcDbEntity
  8
01
  6
CONTINUOUS
100
AcDbLine
 10
5255.839770849256
 20
1961.034411655985
 30
0.0000000001127424
 11
5231.839770849256
 21
1961.034411655985
 31
0.0000000001127424
  0
LINE
  5
F209
330
18
100
AcDbEntity
  8
01
  6
CONTINUOUS
100
AcDbLine
 10
5230.839770849256
 20
1909.212692499766
 30
0.0000000001127424
 11
5230.839770849256
 21
1961.034411655985
 31
0.0000000001127424
  0
LINE
  5
F20A
330
18
100
AcDbEntity
  8
01
  6
CONTINUOUS
100
AcDbLine
 10
5230.839770849256
 20
1961.034411655985
 30
0.0000000001127424
 11
5231.839770849256
 21
1961.034411655985
 31
0.0000000001127424
  0
LINE
  5
F20B
330
18
100
AcDbEntity
  8
01
  6
CONTINUOUS
100
AcDbLine
 10
5256.839770849256
 20
1961.034411655985
 30
0.0000000001127424
 11
5256.839770849256
 21
1935.773716661094
 31
0.0000000001127424
  0
LINE
  5
F20C
330
18
100
AcDbEntity
  8
01
  6
CONTINUOUS
100
AcDbLine
 10
5255.839770849256
 20
1961.034411655985
 30
0.0000000001127424
 11
5256.839770849256
 21
1961.034411655985
 31
0.0000000001127424
  0
SPLINE
  5
F20D
330
18
100
AcDbEntity
  8
01
  6
CONTINUOUS
100
AcDbSpline
210
0.0
220
0.0
230
1.0
 70
     8
 71
     3
 72
    22
 73
    18
 74
     0
 42
0.0000000001
 43
0.0000000001
 40
0.0
 40
0.0
 40
0.0
 40
0.0
 40
0.125
 40
0.125
 40
0.25
 40
0.25
 40
0.375
 40
0.375
 40
0.5
 40
0.5
 40
0.625
 40
0.625
 40
0.75
 40
0.75
 40
0.875
 40
0.875
 40
1.0
 40
1.0
 40
1.0
 40
1.0
 10
5256.839770849256
 20
1935.773716661094
 30
0.0000000001127424
 10
5256.839770849256
 20
1935.431081232126
 30
0.0000000001127424
 10
5256.870545919093
 20
1935.092724869154
 30
0.0000000001127424
 10
5256.991164015792
 20
1934.424142329276
 30
0.0000000001127424
 10
5257.082159434995
 20
1934.091745549234
 30
0.0000000001127424
 10
5257.318405104506
 20
1933.455064602291
 30
0.0000000001127424
 10
5257.463597144191
 20
1933.148747310113
 30
0.0000000001127424
 10
5257.809440420655
 20
1932.560620929581
 30
0.0000000001127424
 10
5258.010451892342
 20
1932.279548462647
 30
0.0000000001127424
 10
5258.456361874085
 20
1931.763796027933
 30
0.0000000001127424
 10
5258.703649005947
 20
1931.525511877732
 30
0.0000000001127424
 10
5259.246368446293
 20
1931.09781405943
 30
0.0000000001127424
 10
5259.535269417702
 20
1930.91326869037
 30
0.0000000001127424
 10
5260.150583281822
 20
1930.606863056606
 30
0.0000000001127424
 10
5260.480483372961
 20
1930.484937293773
 30
0.0000000001127424
 10
5261.148763201614
 20
1930.323244651307
 30
0.0000000001127424
 10
5261.490270468321
 20
1930.281168786375
 30
0.0000000001127424
 10
5261.839770849256
 20
1930.281168786375
 30
0.0000000001127424
  0
SPLINE
  5
F20E
330
18
100
AcDbEntity
  8
01
  6
CONTINUOUS
100
AcDbSpline
210
0.0
220
0.0
230
1.0
 70
     8
 71
     3
 72
    20
 73
    16
 74
     0
 42
0.0000000001
 43
0.0000000001
 40
0.0
 40
0.0
 40
0.0
 40
0.0
 40
0.1250000000000056
 40
0.1250000000000056
 40
0.2500000000000112
 40
0.2500000000000112
 40
0.5000000000000075
 40
0.5000000000000075
 40
0.6250000000000057
 40
0.6250000000000057
 40
0.7500000000000038
 40
0.7500000000000038
 40
0.875000000000002
 40
0.875000000000002
 40
1.0
 40
1.0
 40
1.0
 40
1.0
 10
5367.839770849256
 20
1930.281168786375
 30
0.0000000001127424
 10
5368.044618120432
 20
1930.281168786375
 30
0.0000000001127424
 10
5368.245814570684
 20
1930.261061611196
 30
0.0000000001127424
 10
5368.641218923369
 20
1930.182416733937
 30
0.0000000001127424
 10
5368.837158016035
 20
1930.122845595631
 30
0.0000000001127424
 10
5369.390546311244
 20
1929.893421159535
 30
0.0000000001127424
 10
5369.72493201565
 20
1929.668315111607
 30
0.0000000001127424
 10
5370.133412941008
 20
1929.260779673189
 30
0.0000000001127424
 10
5370.256352210316
 20
1929.111142057633
 30
0.0000000001127424
 10
5370.466326251926
 20
1928.79794626096
 30
0.0000000001127424
 10
5370.55424662059
 20
1928.634014371683
 30
0.0000000001127424
 10
5370.696800625083
 20
1928.29218755696
 30
0.0000000001127424
 10
5370.750677919496
 20
1928.115113742838
 30
0.0000000001127424
 10
5370.821814861976
 20
1927.760444388512
 30
0.0000000001127424
 10
5370.839770849256
 20
1927.581299910947
 30
0.0000000001127424
 10
5370.839770849256
 20
1927.400415249005
 30
0.0000000001127424
  0
LINE
  5
F20F
330
18
100
AcDbEntity
  8
01
  6
CONTINUOUS
100
AcDbLine
 10
5261.839770849256
 20
1930.281168786375
 30
0.0000000001127424
 11
5367.839770849256
 21
1930.281168786375
 31
0.0000000001127424
  0
LINE
  5
F210
330
18
100
AcDbEntity
  8
01
  6
CONTINUOUS
100
AcDbLine
 10
5370.839770849256
 20
1930.527256925101
 30
0.0000000001127424
 11
5370.839770849256
 21
1927.400415249005
 31
0.0000000001127424
  0
LINE
  5
F211
330
18
100
AcDbEntity
  8
01
  6
CONTINUOUS
100
AcDbLine
 10
5370.839770849256
 20
1927.400415249005
 30
0.0000000001127424
 11
5370.839770849256
 21
1909.012692499766
 31
0.0000000001127424
  0
LINE
  5
F216
330
18
100
AcDbEntity
  8
1CENTER
100
AcDbLine
 10
5041.340003528745
 20
1705.035729969087
 30
0.0000000000563712
 11
5041.340003528745
 21
1713.035729969087
 31
0.0000000000563712
  0
LINE
  5
F217
330
18
100
AcDbEntity
  8
1CENTER
100
AcDbLine
 10
5041.340003528745
 20
1705.035729969087
 30
0.0000000000563712
 11
5041.340003528745
 21
1713.035729969087
 31
0.0000000000563712
  0
LINE
  5
F218
330
18
100
AcDbEntity
  8
01
  6
CONTINUOUS
100
AcDbLine
 10
4991.859902659831
 20
1714.740253801095
 30
0.0000000000563712
 11
4992.832570841832
 21
1711.475033762613
 31
0.0000000000563712
  0
ARC
  5
F219
330
18
100
AcDbEntity
  8
01
  6
CONTINUOUS
100
AcDbCircle
 10
4992.818284372526
 20
1715.025743718209
 30
0.0000000000563712
 40
1.000000000000006
100
AcDbArc
 50
121.1658122123887
 51
196.5881355052063
  0
SPLINE
  5
F21A
330
18
100
AcDbEntity
  8
01
  6
CONTINUOUS
100
AcDbSpline
210
0.0
220
0.0
230
1.0
 70
     8
 71
     3
 72
     8
 73
     4
 74
     0
 42
0.0000000001
 43
0.0000000001
 40
0.0
 40
0.0
 40
0.0
 40
0.0
 40
1.0
 40
1.0
 40
1.0
 40
1.0
 10
4995.423049481446
 20
1711.898455028504
 30
0.0000000000563712
 10
4995.55503805728
 20
1712.005340229367
 30
0.0000000000563712
 10
4995.695118960119
 20
1712.102690261185
 30
0.0000000000563712
 10
4995.844258613599
 20
1712.189448514048
 30
0.0000000000563712
  0
SPLINE
  5
F21B
330
18
100
AcDbEntity
  8
01
  6
CONTINUOUS
100
AcDbSpline
210
0.0
220
0.0
230
1.0
 70
     8
 71
     3
 72
    14
 73
    10
 74
     0
 42
0.0000000001
 43
0.0000000001
 40
0.0
 40
0.0
 40
0.0
 40
0.0
 40
0.25
 40
0.25
 40
0.5
 40
0.5
 40
0.75
 40
0.75
 40
1.0
 40
1.0
 40
1.0
 40
1.0
 10
4995.844258613575
 20
1712.189448514087
 30
0.0000000000563712
 10
4999.878106571407
 20
1714.419691966381
 30
0.0000000000563712
 10
5003.859029270399
 20
1716.397065637376
 30
0.0000000000563712
 10
5012.046135461318
 20
1719.811855598487
 30
0.0000000000563712
 10
5016.252277913356
 20
1721.249254771179
 30
0.0000000000563712
 10
5024.81695548628
 20
1723.559187781144
 30
0.0000000000563712
 10
5029.175447674617
 20
1724.431710039362
 30
0.0000000000563712
 10
5037.969316449831
 20
1725.596767369201
 30
0.0000000000563712
 10
5042.404648955287
 20
1725.889296600737
 30
0.0000000000563712
 10
5046.840003529509
 20
1725.889295355191
 30
0.0000000000563712
  0
ARC
  5
F21C
330
18
100
AcDbEntity
  8
01
  6
CONTINUOUS
100
AcDbCircle
 10
5047.033693296179
 20
1624.620189788918
 30
0.0000000000563712
 40
106.4157164499828
100
AcDbArc
 50
90.1042854637227
 51
120.9527633878897
  0
SPLINE
  5
F21D
330
18
100
AcDbEntity
  8
01
  6
CONTINUOUS
100
AcDbSpline
210
0.0
220
0.0
230
1.0
 70
     8
 71
     3
 72
    20
 73
    16
 74
     0
 42
0.0000000001
 43
0.0000000001
 40
0.0
 40
0.0
 40
0.0
 40
0.0
 40
0.0450185141076617
 40
0.0708537562580309
 40
0.1231444472112413
 40
0.224676505861609
 40
0.2951358743603356
 40
0.3310174624886388
 40
0.4471145593113555
 40
0.5846953166121108
 40
0.7113399750861901
 40
0.784925080953956
 40
0.8574146299694319
 40
0.9290447573420708
 40
1.0
 40
1.0
 40
1.0
 40
1.0
 10
4993.947612184349
 20
1710.461541338275
 30
0.0000000000563712
 10
4993.957223327812
 20
1710.465700597252
 30
0.0000000000563712
 10
4993.972350117974
 20
1710.472246773366
 30
0.0000000000563712
 10
4994.000973307117
 20
1710.489238066375
 30
0.0000000000563712
 10
4994.037691822024
 20
1710.521840942419
 30
0.0000000000563712
 10
4994.079839621234
 20
1710.57968914337
 30
0.0000000000563712
 10
4994.127166475108
 20
1710.647341471867
 30
0.0000000000563712
 10
4994.184257619154
 20
1710.728744075977
 30
0.0000000000563712
 10
4994.28389180309
 20
1710.850071076341
 30
0.0000000000563712
 10
4994.470902331199
 20
1711.043923252529
 30
0.0000000000563712
 10
4994.685357494902
 20
1711.247651822747
 30
0.0000000000563712
 10
4994.884822282245
 20
1711.4282979709
 30
0.0000000000563712
 10
4995.056772013544
 20
1711.580842634021
 30
0.0000000000563712
 10
4995.236126950842
 20
1711.737790940273
 30
0.0000000000563712
 10
4995.3609918247
 20
1711.845136187606
 30
0.0000000000563712
 10
4995.423128756576
 20
1711.898554768146
 30
0.0000000000563712
  0
LINE
  5
F21E
330
18
100
AcDbEntity
  8
01
  6
CONTINUOUS
100
AcDbLine
 10
4993.873945426931
 20
1710.456552708332
 30
0.0000000000563712
 11
4993.892869466394
 21
1710.457834222997
 31
0.0000000000563712
  0
LINE
  5
F21F
330
18
100
AcDbEntity
  8
01
  6
CONTINUOUS
100
AcDbLine
 10
4993.892869466394
 20
1710.457834222997
 30
0.0000000000563712
 11
4993.947612184349
 21
1710.461541338275
 31
0.0000000000563712
  0
ARC
  5
F220
330
18
100
AcDbEntity
  8
01
  6
CONTINUOUS
100
AcDbCircle
 10
5004.445510930938
 20
1749.061798806315
 30
0.0000000000563712
 40
40.02654238701454
100
AcDbArc
 50
254.6856366747722
 51
270.2787063368831
  0
ARC
  5
F221
330
18
100
AcDbEntity
  8
01
  6
CONTINUOUS
100
AcDbCircle
 10
4994.270143410873
 20
1711.903268638286
 30
0.0000000000563712
 40
1.5
100
AcDbArc
 50
196.5881355052063
 51
254.6830936558023
  0
LINE
  5
F222
330
18
100
AcDbEntity
  8
01
  6
CONTINUOUS
100
AcDbLine
 10
5046.840003528743
 20
1709.035729969087
 30
0.0000000000563712
 11
5004.640213003384
 21
1709.035729969087
 31
0.0000000000563712
  0
LINE
  5
F223
330
18
100
AcDbEntity
  8
01
100
AcDbLine
 10
5046.840003528743
 20
1731.035729969087
 30
0.0000000000563712
 11
5046.840003528743
 21
1709.035729969087
 31
0.0000000000563712
  0
SPLINE
  5
F224
330
18
100
AcDbEntity
  8
01
  6
CONTINUOUS
100
AcDbSpline
210
0.0
220
0.0
230
1.0
 70
     8
 71
     3
 72
    13
 73
     9
 74
     0
 42
0.0000000001
 43
0.0000000001
 40
0.0
 40
0.0
 40
0.0
 40
0.0
 40
0.0801923437833644
 40
0.2134552102585882
 40
0.3466553511806543
 40
0.4782293078370131
 40
0.7389542679832329
 40
1.0
 40
1.0
 40
1.0
 40
1.0
 10
4919.273439133285
 20
1710.747278100481
 30
0.0000000000563712
 10
4919.138019937915
 20
1710.693178104528
 30
0.0000000000563712
 10
4918.777562424679
 20
1710.549175255048
 30
0.0000000000563712
 10
4918.313957730963
 20
1710.310133099405
 30
0.0000000000563712
 10
4917.872087578664
 20
1710.047753096195
 30
0.0000000000563712
 10
4917.42754369559
 20
1709.727242200386
 30
0.0000000000563712
 10
4917.106574213147
 20
1709.386799073564
 30
0.0000000000563712
 10
4916.926441424843
 20
1709.255908619317
 30
0.0000000000563712
 10
4916.836319660073
 20
1709.190423158067
 30
0.0000000000563712
  0
SPLINE
  5
F225
330
18
100
AcDbEntity
  8
01
100
AcDbSpline
210
0.0
220
0.0
230
1.0
 70
     8
 71
     3
 72
    11
 73
     7
 74
     0
 42
0.0000000001
 43
0.0000000001
 40
0.0
 40
0.0
 40
0.0
 40
0.0
 40
0.2605476402037294
 40
0.5152974989895172
 40
0.7637962208008108
 40
1.0
 40
1.0
 40
1.0
 40
1.0
 10
4920.761849191003
 20
1712.059267704486
 30
0.0000000000563712
 10
4920.708296278599
 20
1711.924451082176
 30
0.0000000000563712
 10
4920.602382128682
 20
1711.657817816014
 30
0.0000000000563712
 10
4920.270306472336
 20
1711.304737592162
 30
0.0000000000563712
 10
4919.832621149235
 20
1710.997686369816
 30
0.0000000000563712
 10
4919.488139457775
 20
1710.845651387602
 30
0.0000000000563712
 10
4919.320267665866
 20
1710.771562152877
 30
0.0000000000563712
  0
ARC
  5
F226
330
18
100
AcDbEntity
  8
01
100
AcDbCircle
 10
4783.840003528745
 20
1712.035729969087
 30
0.0000000000563712
 40
3.0
100
AcDbArc
 50
180.0
 51
270.0
  0
LINE
  5
F227
330
18
100
AcDbEntity
  8
01
  6
CONTINUOUS
100
AcDbLine
 10
4896.836753528745
 20
1709.035729969087
 30
0.0000000000563712
 11
4783.840003528745
 21
1709.035729969087
 31
0.0000000000563712
  0
SPLINE
  5
F228
330
18
100
AcDbEntity
  8
01
100
AcDbSpline
210
0.0
220
0.0
230
1.0
 70
     8
 71
     3
 72
    10
 73
     6
 74
     0
 42
0.0000000001
 43
0.0000000001
 40
0.0
 40
0.0
 40
0.0
 40
0.0
 40
0.1591596332908675
 40
0.8591839902836207
 40
1.0
 40
1.0
 40
1.0
 40
1.0
 10
4920.835935404077
 20
1712.519284787917
 30
0.0000000000563712
 10
4920.836876962525
 20
1712.496233003299
 30
0.0000000000563712
 10
4920.841959733385
 20
1712.371793634593
 30
0.0000000000563712
 10
4920.818198670511
 20
1712.230986206996
 30
0.0000000000563712
 10
4920.774848175855
 20
1712.10843134451
 30
0.0000000000563712
 10
4920.767588244104
 20
1712.087907012675
 30
0.0000000000563712
  0
SPLINE
  5
F229
330
18
100
AcDbEntity
  8
01
  6
CONTINUOUS
100
AcDbSpline
210
0.0
220
0.0
230
1.0
 70
     8
 71
     3
 72
    10
 73
     6
 74
     0
 42
0.0000000001
 43
0.0000000001
 40
0.0
 40
0.0
 40
0.0
 40
0.0
 40
0.3918201303123018
 40
0.9940468231634132
 40
1.0
 40
1.0
 40
1.0
 40
1.0
 10
4916.709931100519
 20
1709.156327653297
 30
0.0000000000563712
 10
4916.652164914434
 20
1709.135047123792
 30
0.0000000000563712
 10
4916.505612225275
 20
1709.081058466465
 30
0.0000000000563712
 10
4916.333528122925
 20
1709.037304299285
 30
0.0000000000563712
 10
4916.213045658413
 20
1709.044831315468
 30
0.0000000000563712
 10
4916.211866314186
 20
1709.044904993768
 30
0.0000000000563712
  0
SPLINE
  5
F22A
330
18
100
AcDbEntity
  8
01
100
AcDbSpline
210
0.0
220
0.0
230
1.0
 70
     8
 71
     3
 72
    18
 73
    14
 74
     0
 42
0.0000000001
 43
0.0000000001
 40
0.0
 40
0.0
 40
0.0
 40
0.0
 40
0.0037411650843013
 40
0.0986297447690057
 40
0.1875761019416629
 40
0.2764162401811492
 40
0.3698493074111531
 40
0.4734010413854489
 40
0.5960753788310015
 40
0.7116695358418624
 40
0.8189026918008349
 40
0.9315067574098522
 40
1.0
 40
1.0
 40
1.0
 40
1.0
 10
4780.841730765498
 20
1724.516002081267
 30
0.0000000000563712
 10
4780.841162381748
 20
1724.520632143995
 30
0.0000000000563712
 10
4780.826177866762
 20
1724.642696232268
 30
0.0000000000563712
 10
4780.883559467045
 20
1724.881376313839
 30
0.0000000000563712
 10
4781.01411690342
 20
1725.189635193196
 30
0.0000000000563712
 10
4781.215554464236
 20
1725.448943459288
 30
0.0000000000563712
 10
4781.467487881191
 20
1725.664009102559
 30
0.0000000000563712
 10
4781.782338565299
 20
1725.847974326379
 30
0.0000000000563712
 10
4782.159979481421
 20
1725.995718765232
 30
0.0000000000563712
 10
4782.589181438592
 20
1726.106045863533
 30
0.0000000000563712
 10
4783.047067464478
 20
1726.178356016072
 30
0.0000000000563712
 10
4783.467670445109
 20
1726.216263013591
 30
0.0000000000563712
 10
4783.737774490974
 20
1726.215542809442
 30
0.0000000000563712
 10
4783.839931182987
 20
1726.215270419322
 30
0.0000000000563712
  0
SPLINE
  5
F22B
330
18
100
AcDbEntity
  8
01
100
AcDbSpline
210
0.0
220
0.0
230
1.0
 70
     8
 71
     3
 72
    19
 73
    15
 74
     0
 42
0.0000000001
 43
0.0000000001
 40
0.0
 40
0.0
 40
0.0
 40
0.0
 40
0.077318707389703
 40
0.1644064665832291
 40
0.2526742168276733
 40
0.3413076136591857
 40
0.4317419507703862
 40
0.5226255462847058
 40
0.6143891804552037
 40
0.7062465328243186
 40
0.7952834416848785
 40
0.8728355436151866
 40
0.9433313479901454
 40
1.0
 40
1.0
 40
1.0
 40
1.0
 10
4889.840003528745
 20
1726.219349877269
 30
0.0000000000563712
 10
4890.04156257594
 20
1726.222334229091
 30
0.0000000000563712
 10
4890.470479636879
 20
1726.225745505582
 30
0.0000000000563712
 10
4891.118555607556
 20
1726.264000090664
 30
0.0000000000563712
 10
4891.771044105411
 20
1726.326860754169
 30
0.0000000000563712
 10
4892.393953675961
 20
1726.415215285954
 30
0.0000000000563712
 10
4892.976153552761
 20
1726.524163790891
 30
0.0000000000563712
 10
4893.50505185021
 20
1726.651168937958
 30
0.0000000000563712
 10
4893.970242961181
 20
1726.790928705251
 30
0.0000000000563712
 10
4894.355374567094
 20
1726.934853789706
 30
0.0000000000563712
 10
4894.638725460556
 20
1727.069166001836
 30
0.0000000000563712
 10
4894.81982431745
 20
1727.176793683108
 30
0.0000000000563712
 10
4894.914820140826
 20
1727.253195126784
 30
0.0000000000563712
 10
4894.91699650396
 20
1727.256424831273
 30
0.0000000000563712
 10
4894.917966362746
 20
1727.257864093508
 30
0.0000000000563712
  0
LINE
  5
F22C
330
18
100
AcDbEntity
  8
01
100
AcDbLine
 10
4783.840003528745
 20
1726.219349877269
 30
0.0000000000563712
 11
4889.840003528745
 21
1726.219349877269
 31
0.0000000000563712
  0
SPLINE
  5
F22D
330
18
100
AcDbEntity
  8
01
100
AcDbSpline
210
0.0
220
0.0
230
1.0
 70
     8
 71
     3
 72
    20
 73
    16
 74
     0
 42
0.0000000001
 43
0.0000000001
 40
0.0
 40
0.0
 40
0.0
 40
0.0
 40
0.124999999999997
 40
0.124999999999997
 40
0.2499999999999939
 40
0.2499999999999939
 40
0.3749999999999909
 40
0.3749999999999909
 40
0.4999999999999879
 40
0.4999999999999879
 40
0.6249999999999849
 40
0.6249999999999849
 40
0.7499999999999818
 40
0.7499999999999818
 40
1.0
 40
1.0
 40
1.0
 40
1.0
 10
4780.840003528745
 20
1716.07497659647
 30
0.0000000000563712
 10
4780.840003528745
 20
1715.988662485373
 30
0.0000000000563712
 10
4780.859214388998
 20
1715.903540860264
 30
0.0000000000563712
 10
4780.934439989051
 20
1715.735607043815
 30
0.0000000000563712
 10
4780.991271612278
 20
1715.651981607924
 30
0.0000000000563712
 10
4781.140385765204
 20
1715.491393114072
 30
0.0000000000563712
 10
4781.231648181947
 20
1715.415017310538
 30
0.0000000000563712
 10
4781.447174906662
 20
1715.270119454278
 30
0.0000000000563712
 10
4781.573053598191
 20
1715.201022367256
 30
0.0000000000563712
 10
4781.848956603069
 20
1715.076614062186
 30
0.0000000000563712
 10
4781.999423161888
 20
1715.020700854485
 30
0.0000000000563712
 10
4782.325793932201
 20
1714.921799640987
 30
0.0000000000563712
 10
4782.501828684673
 20
1714.879081405184
 30
0.0000000000563712
 10
4783.045115733379
 20
1714.776743025203
 30
0.0000000000563712
 10
4783.440927455455
 20
1714.740253801096
 30
0.0000000000563712
 10
4783.840003528745
 20
1714.740253801096
 30
0.0000000000563712
  0
LINE
  5
F22E
330
18
100
AcDbEntity
  8
01
100
AcDbLine
 10
4780.840003528745
 20
1716.07497659647
 30
0.0000000000563712
 11
4780.840003528745
 21
1713.140364587567
 31
0.0000000000563712
  0
SPLINE
  5
F22F
330
18
100
AcDbEntity
  8
01
100
AcDbSpline
210
0.0
220
0.0
230
1.0
 70
     8
 71
     3
 72
    20
 73
    16
 74
     0
 42
0.0000000001
 43
0.0000000001
 40
0.0
 40
0.0
 40
0.0
 40
0.0
 40
0.1249999999999996
 40
0.1249999999999996
 40
0.2499999999999991
 40
0.2499999999999991
 40
0.3749999999999987
 40
0.3749999999999987
 40
0.4999999999999982
 40
0.4999999999999982
 40
0.7499999999999992
 40
0.7499999999999992
 40
0.8749999999999996
 40
0.8749999999999996
 40
1.0
 40
1.0
 40
1.0
 40
1.0
 10
4917.840003528745
 20
1714.740253801096
 30
0.0000000000563712
 10
4918.039421678979
 20
1714.740253801096
 30
0.0000000000563712
 10
4918.235472620299
 20
1714.749147457273
 30
0.0000000000563712
 10
4918.621118478968
 20
1714.783959130352
 30
0.0000000000563712
 10
4918.812739002627
 20
1714.810324823133
 30
0.0000000000563712
 10
4919.176790592946
 20
1714.878740185942
 30
0.0000000000563712
 10
4919.349448541339
 20
1714.920553885922
 30
0.0000000000563712
 10
4919.67616127799
 20
1715.019168077393
 30
0.0000000000563712
 10
4919.829822284617
 20
1715.076143268731
 30
0.0000000000563712
 10
4920.243096808697
 20
1715.26224646929
 30
0.0000000000563712
 10
4920.464873989922
 20
1715.411279247073
 30
0.0000000000563712
 10
4920.687362336761
 20
1715.650312119244
 30
0.0000000000563712
 10
4920.744638434628
 20
1715.733882025188
 30
0.0000000000563712
 10
4920.820811986172
 20
1715.903240057756
 30
0.0000000000563712
 10
4920.840003528745
 20
1715.988712105123
 30
0.0000000000563712
 10
4920.840003528745
 20
1716.07497659647
 30
0.0000000000563712
  0
SPLINE
  5
F230
330
18
100
AcDbEntity
  8
01
100
AcDbSpline
210
0.0
220
0.0
230
1.0
 70
     8
 71
     3
 72
     8
 73
     4
 74
     0
 42
0.0000000001
 43
0.0000000001
 40
0.0
 40
0.0
 40
0.0
 40
0.0
 40
1.0
 40
1.0
 40
1.0
 40
1.0
 10
4920.840003528745
 20
1712.521421028979
 30
0.0000000000563712
 10
4920.840003528745
 20
1712.425303871307
 30
0.0000000000563712
 10
4920.820062327202
 20
1712.317885323514
 30
0.0000000000563712
 10
4920.782251121202
 20
1712.199916626495
 30
0.0000000000563712
  0
LINE
  5
F231
330
18
100
AcDbEntity
  8
01
100
AcDbLine
 10
4920.840003528745
 20
1712.521421028979
 30
0.0000000000563712
 11
4920.840003528745
 21
1716.07497659647
 31
0.0000000000563712
  0
LINE
  5
F232
330
18
100
AcDbEntity
  8
01
100
AcDbLine
 10
4783.840003528745
 20
1714.740253801096
 30
0.0000000000563712
 11
4917.840003528745
 21
1714.740253801096
 31
0.0000000000563712
  0
LINE
  5
F233
330
18
100
AcDbEntity
  8
01
  6
CONTINUOUS
100
AcDbLine
 10
4895.840003528745
 20
1731.035729969087
 30
0.0000000000563712
 11
4919.840003528745
 21
1731.035729969087
 31
0.0000000000563712
  0
SPLINE
  5
F234
330
18
100
AcDbEntity
  8
01
100
AcDbSpline
210
0.0
220
0.0
230
1.0
 70
     8
 71
     3
 72
    16
 73
    12
 74
     0
 42
0.0000000001
 43
0.0000000001
 40
0.0
 40
0.0
 40
0.0
 40
0.0
 40
0.2500000000000044
 40
0.2500000000000044
 40
0.5000000000000089
 40
0.5000000000000089
 40
0.6250000000000048
 40
0.6250000000000048
 40
0.7500000000000007
 40
0.7500000000000007
 40
1.0
 40
1.0
 40
1.0
 40
1.0
 10
4783.840003528745
 20
1710.456549365657
 30
0.0000000000563712
 10
4783.436336664545
 20
1710.456549365657
 30
0.0000000000563712
 10
4783.03632585137
 20
1710.529850609205
 30
0.0000000000563712
 10
4782.30570482172
 20
1710.804747230418
 30
0.0000000000563712
 10
4781.968101818429
 20
1711.010934146041
 30
0.0000000000563712
 10
4781.558801716172
 20
1711.384261784812
 30
0.0000000000563712
 10
4781.437941266515
 20
1711.518679972584
 30
0.0000000000563712
 10
4781.226280273706
 20
1711.806916245061
 30
0.0000000000563712
 10
4781.134869977299
 20
1711.96236899536
 30
0.0000000000563712
 10
4780.915349570727
 20
1712.445274713749
 30
0.0000000000563712
 10
4780.840003528745
 20
1712.792693909262
 30
0.0000000000563712
 10
4780.840003528745
 20
1713.140364587567
 30
0.0000000000563712
  0
LINE
  5
F235
330
18
100
AcDbEntity
  8
01
100
AcDbLine
 10
4919.266733759083
 20
1710.76579665086
 30
0.0000000000563712
 11
4919.403478108326
 21
1710.813926024235
 31
0.0000000000563712
  0
SPLINE
  5
F236
330
18
100
AcDbEntity
  8
01
100
AcDbSpline
210
0.0
220
0.0
230
1.0
 70
     8
 71
     3
 72
     9
 73
     5
 74
     0
 42
0.0000000001
 43
0.0000000001
 40
0.0
 40
0.0
 40
0.0
 40
0.0
 40
0.4964377885537041
 40
0.9999999999999999
 40
0.9999999999999999
 40
0.9999999999999999
 40
0.9999999999999999
 10
4917.574428105989
 20
1710.456552708332
 30
0.0000000000563712
 10
4917.644396977987
 20
1710.454322107867
 30
0.0000000000563712
 10
4917.785338851494
 20
1710.449828895389
 30
0.0000000000563712
 10
4917.926066585087
 20
1710.45761869138
 30
0.0000000000563712
 10
4917.996931753829
 20
1710.461541338275
 30
0.0000000000563712
  0
LINE
  5
F237
330
18
100
AcDbEntity
  8
01
100
AcDbLine
 10
4783.840003528745
 20
1710.456549365657
 30
0.0000000000563712
 11
4917.57432921711
 21
1710.456549365657
 31
0.0000000000563712
  0
LINE
  5
F238
330
18
100
AcDbEntity
  8
01
100
AcDbLine
 10
4780.840003528745
 20
1713.140364587567
 30
0.0000000000563712
 11
4780.840003528745
 21
1712.035729969087
 31
0.0000000000563712
  0
LINE
  5
F239
330
18
100
AcDbEntity
  8
01
  6
CONTINUOUS
100
AcDbLine
 10
4896.840003528745
 20
1709.035729969087
 30
0.0000000000563712
 11
4916.145631763005
 21
1709.035729969087
 31
0.0000000000563712
  0
SPLINE
  5
F23A
330
18
100
AcDbEntity
  8
1DIM
100
AcDbSpline
210
0.0
220
0.0
230
1.0
 70
     8
 71
     3
 72
     8
 73
     4
 74
     0
 42
0.0000000001
 43
0.0000000001
 40
0.0
 40
0.0
 40
0.0
 40
0.0
 40
1.0
 40
1.0
 40
1.0
 40
1.0
 10
4916.447751976142
 20
1709.113790440863
 30
0.0000000000563712
 10
4916.333607885048
 20
1709.061851618748
 30
0.0000000000563712
 10
4916.233630025301
 20
1709.035729969087
 30
0.0000000000563712
 10
4916.145631763005
 20
1709.035729969087
 30
0.0000000000563712
  0
LINE
  5
F23B
330
18
100
AcDbEntity
  8
01
  6
CONTINUOUS
100
AcDbLine
 10
4920.840003528745
 20
1716.07497659647
 30
0.0000000000563712
 11
4920.840003528745
 21
1730.035729969087
 31
0.0000000000563712
  0
ARC
  5
F23C
330
18
100
AcDbEntity
  8
01
  6
CONTINUOUS
100
AcDbCircle
 10
4919.840003528745
 20
1730.035729969087
 30
0.0000000000563712
 40
1.0
100
AcDbArc
 50
0.0
 51
90.0
  0
LINE
  5
F23D
330
18
100
AcDbEntity
  8
01
  6
CONTINUOUS
100
AcDbLine
 10
4780.840003528745
 20
1724.515006389348
 30
0.0000000000563712
 11
4780.840003528745
 21
1716.07497659647
 31
0.0000000000563712
  0
LINE
  5
F23E
330
18
100
AcDbEntity
  8
01
100
AcDbLine
 10
4894.840003528745
 20
1730.035729969087
 30
0.0000000000563712
 11
4894.840003528745
 21
1727.272807840765
 31
0.0000000000563712
  0
ARC
  5
F23F
330
18
100
AcDbEntity
  8
01
100
AcDbCircle
 10
4895.840003528745
 20
1730.035729969087
 30
0.0000000000563712
 40
1.0
100
AcDbArc
 50
90.0
 51
180.0
  0
SPLINE
  5
F240
330
18
100
AcDbEntity
  8
1DIM
100
AcDbSpline
210
0.0
220
0.0
230
1.0
 70
     8
 71
     3
 72
     9
 73
     5
 74
     0
 42
0.0000000001
 43
0.0000000001
 40
0.0
 40
0.0
 40
0.0
 40
0.0
 40
0.8343439945455199
 40
0.9999999999999999
 40
0.9999999999999999
 40
0.9999999999999999
 40
0.9999999999999999
 10
4916.447751976142
 20
1709.113790440863
 30
0.0000000000563712
 10
4916.561728476698
 20
1709.116743761062
 30
0.0000000000563712
 10
4916.698334602348
 20
1709.120283452386
 30
0.0000000000563712
 10
4916.813022396955
 20
1709.18723200872
 30
0.0000000000563712
 10
4916.832021118884
 20
1709.198322439133
 30
0.0000000000563712
  0
SPLINE
  5
F241
330
18
100
AcDbEntity
  8
01
100
AcDbSpline
210
0.0
220
0.0
230
1.0
 70
     8
 71
     3
 72
     9
 73
     5
 74
     0
 42
0.0000000001
 43
0.0000000001
 40
0.0
 40
0.0
 40
0.0
 40
0.0
 40
0.5960549951321458
 40
1.0
 40
1.0
 40
1.0
 40
1.0
 10
4917.996931753829
 20
1710.461541338275
 30
0.0000000000563712
 10
4918.259892314209
 20
1710.492363841765
 30
0.0000000000563712
 10
4918.7010605999
 20
1710.544074680097
 30
0.0000000000563712
 10
4919.103977492814
 20
1710.702002497778
 30
0.0000000000563712
 10
4919.266733759083
 20
1710.76579665086
 30
0.0000000000563712
  0
SPLINE
  5
F242
330
18
100
AcDbEntity
  8
01
100
AcDbSpline
210
0.0
220
0.0
230
1.0
 70
     8
 71
     3
 72
     9
 73
     5
 74
     0
 42
0.0000000001
 43
0.0000000001
 40
0.0
 40
0.0
 40
0.0
 40
0.0
 40
0.3786216536163409
 40
1.0
 40
1.0
 40
1.0
 40
1.0
 10
4920.75879340722
 20
1712.060263430957
 30
0.0000000000563712
 10
4920.766071368509
 20
1712.076848316442
 30
0.0000000000563712
 10
4920.785293621699
 20
1712.120651636528
 30
0.0000000000563712
 10
4920.783417131548
 20
1712.16953904775
 30
0.0000000000563712
 10
4920.782251121202
 20
1712.199916626495
 30
0.0000000000563712
  0
LINE
  5
F243
330
18
100
AcDbEntity
  8
01
100
AcDbLine
 10
4879.840003528745
 20
1746.535729969085
 30
0.0000000000563712
 11
4931.840003528741
 21
1746.535729969085
 31
0.0000000000563712
  0
LINE
  5
F244
330
18
100
AcDbEntity
  8
01
100
AcDbLine
 10
4931.840003528741
 20
1693.535729969085
 30
0.0000000000563712
 11
4879.840003528745
 21
1693.535729969085
 31
0.0000000000563712
  0
LINE
  5
F245
330
18
100
AcDbEntity
  8
01
100
AcDbLine
 10
4932.340003528741
 20
1746.035729969085
 30
0.0000000000563712
 11
4932.340003528741
 21
1694.035729969085
 31
0.0000000000563712
  0
ARC
  5
F246
330
18
100
AcDbEntity
  8
01
100
AcDbCircle
 10
4931.840003528741
 20
1694.035729969085
 30
0.0000000000563712
 40
0.5
100
AcDbArc
 50
270.0
 51
0.0
  0
ARC
  5
F247
330
18
100
AcDbEntity
  8
01
100
AcDbCircle
 10
4931.840003528741
 20
1746.035729969085
 30
0.0000000000563712
 40
0.5
100
AcDbArc
 50
0.0
 51
90.0
  0
LINE
  5
F248
330
18
100
AcDbEntity
  8
01
100
AcDbLine
 10
4879.340003528745
 20
1746.035729969085
 30
0.0000000000563712
 11
4879.340003528745
 21
1726.219349877269
 31
0.0000000000563712
  0
LINE
  5
F249
330
18
100
AcDbEntity
  8
01
100
AcDbLine
 10
4879.340003528745
 20
1709.035729969087
 30
0.0000000000563712
 11
4879.340003528745
 21
1694.035729969085
 31
0.0000000000563712
  0
ARC
  5
F24A
330
18
100
AcDbEntity
  8
01
100
AcDbCircle
 10
4879.840003528745
 20
1694.035729969085
 30
0.0000000000563712
 40
0.5
100
AcDbArc
 50
180.0
 51
270.0
  0
ARC
  5
F24B
330
18
100
AcDbEntity
  8
01
100
AcDbCircle
 10
4879.840003528745
 20
1746.035729969085
 30
0.0000000000563712
 40
0.5
100
AcDbArc
 50
90.0
 51
180.0
  0
ARC
  5
F591
330
18
100
AcDbEntity
  8
01
  6
CONTINUOUS
100
AcDbCircle
 10
5261.839770849256
 20
2041.541566384809
 30
0.0000000001127424
 40
5.0
100
AcDbArc
 50
90.0
 51
180.0
  0
ARC
  5
F592
330
18
100
AcDbEntity
  8
01
  6
CONTINUOUS
100
AcDbCircle
 10
5367.839770849256
 20
2049.541566384809
 30
0.0000000001127424
 40
3.0
100
AcDbArc
 50
270.0
 51
0.0
  0
LINE
  5
F593
330
18
100
AcDbEntity
  8
01
  6
CONTINUOUS
100
AcDbLine
 10
5367.839770849256
 20
2046.541566384809
 30
0.0000000001127424
 11
5261.839770849256
 21
2046.541566384809
 31
0.0000000001127424
  0
LINE
  5
F594
330
18
100
AcDbEntity
  8
01
  6
CONTINUOUS
100
AcDbLine
 10
5233.839770849256
 20
2074.056130810145
 30
0.0000000001127424
 11
5367.839770849256
 21
2074.056130810145
 31
0.0000000001127424
  0
ARC
  5
F595
330
18
100
AcDbEntity
  8
01
  6
CONTINUOUS
100
AcDbCircle
 10
5367.839770849256
 20
2071.056130810145
 30
0.0000000001127424
 40
3.0
100
AcDbArc
 50
0.0
 51
90.0
  0
ARC
  5
F596
330
18
100
AcDbEntity
  8
01
  6
CONTINUOUS
100
AcDbCircle
 10
5233.839770849256
 20
2071.056130810145
 30
0.0000000001127424
 40
3.0
100
AcDbArc
 50
90.0
 51
180.0
  0
LINE
  5
F597
330
18
100
AcDbEntity
  8
01
  6
CONTINUOUS
100
AcDbLine
 10
5255.839770849256
 20
2019.034411653926
 30
0.0000000001127424
 11
5248.33989915386
 21
2019.034411653926
 31
0.0000000001127424
  0
LINE
  5
F598
330
18
100
AcDbEntity
  8
01
  6
CONTINUOUS
100
AcDbLine
 10
5243.339899153858
 20
2019.034411653926
 30
0.0000000001127424
 11
5231.839770849256
 21
2019.034411653926
 31
0.0000000001127424
  0
LINE
  5
F599
330
18
100
AcDbEntity
  8
01
  6
CONTINUOUS
100
AcDbLine
 10
5230.839770849256
 20
2070.856130810145
 30
0.0000000001127424
 11
5230.839770849256
 21
2019.034411653926
 31
0.0000000001127424
  0
LINE
  5
F59A
330
18
100
AcDbEntity
  8
01
  6
CONTINUOUS
100
AcDbLine
 10
5230.839770849256
 20
2019.034411653926
 30
0.0000000001127424
 11
5231.839770849256
 21
2019.034411653926
 31
0.0000000001127424
  0
LINE
  5
F59B
330
18
100
AcDbEntity
  8
01
  6
CONTINUOUS
100
AcDbLine
 10
5256.839770849256
 20
2019.034411653926
 30
0.0000000001127424
 11
5256.839770849256
 21
2044.295106648817
 31
0.0000000001127424
  0
LINE
  5
F59C
330
18
100
AcDbEntity
  8
01
  6
CONTINUOUS
100
AcDbLine
 10
5255.839770849256
 20
2019.034411653926
 30
0.0000000001127424
 11
5256.839770849256
 21
2019.034411653926
 31
0.0000000001127424
  0
SPLINE
  5
F59D
330
18
100
AcDbEntity
  8
01
  6
CONTINUOUS
100
AcDbSpline
210
0.0
220
0.0
230
1.0
 70
     8
 71
     3
 72
    22
 73
    18
 74
     0
 42
0.0000000001
 43
0.0000000001
 40
0.0
 40
0.0
 40
0.0
 40
0.0
 40
0.125
 40
0.125
 40
0.25
 40
0.25
 40
0.375
 40
0.375
 40
0.5
 40
0.5
 40
0.625
 40
0.625
 40
0.75
 40
0.75
 40
0.875
 40
0.875
 40
1.0
 40
1.0
 40
1.0
 40
1.0
 10
5256.839770849256
 20
2044.295106648817
 30
0.0000000001127424
 10
5256.839770849256
 20
2044.637742077784
 30
0.0000000001127424
 10
5256.870545919093
 20
2044.976098440757
 30
0.0000000001127424
 10
5256.991164015792
 20
2045.644680980635
 30
0.0000000001127424
 10
5257.082159434995
 20
2045.977077760677
 30
0.0000000001127424
 10
5257.318405104506
 20
2046.61375870762
 30
0.0000000001127424
 10
5257.463597144191
 20
2046.920075999798
 30
0.0000000001127424
 10
5257.809440420655
 20
2047.50820238033
 30
0.0000000001127424
 10
5258.010451892342
 20
2047.789274847264
 30
0.0000000001127424
 10
5258.456361874085
 20
2048.305027281978
 30
0.0000000001127424
 10
5258.703649005947
 20
2048.543311432179
 30
0.0000000001127424
 10
5259.246368446293
 20
2048.971009250481
 30
0.0000000001127424
 10
5259.535269417702
 20
2049.15555461954
 30
0.0000000001127424
 10
5260.150583281822
 20
2049.461960253305
 30
0.0000000001127424
 10
5260.480483372961
 20
2049.583886016138
 30
0.0000000001127424
 10
5261.148763201614
 20
2049.745578658604
 30
0.0000000001127424
 10
5261.490270468321
 20
2049.787654523536
 30
0.0000000001127424
 10
5261.839770849256
 20
2049.787654523536
 30
0.0000000001127424
  0
SPLINE
  5
F59E
330
18
100
AcDbEntity
  8
01
  6
CONTINUOUS
100
AcDbSpline
210
0.0
220
0.0
230
1.0
 70
     8
 71
     3
 72
    20
 73
    16
 74
     0
 42
0.0000000001
 43
0.0000000001
 40
0.0
 40
0.0
 40
0.0
 40
0.0
 40
0.1250000000000056
 40
0.1250000000000056
 40
0.2500000000000112
 40
0.2500000000000112
 40
0.5000000000000075
 40
0.5000000000000075
 40
0.6250000000000057
 40
0.6250000000000057
 40
0.7500000000000038
 40
0.7500000000000038
 40
0.875000000000002
 40
0.875000000000002
 40
1.0
 40
1.0
 40
1.0
 40
1.0
 10
5367.839770849256
 20
2049.787654523536
 30
0.0000000001127424
 10
5368.044618120432
 20
2049.787654523536
 30
0.0000000001127424
 10
5368.245814570684
 20
2049.807761698715
 30
0.0000000001127424
 10
5368.641218923369
 20
2049.886406575974
 30
0.0000000001127424
 10
5368.837158016035
 20
2049.94597771428
 30
0.0000000001127424
 10
5369.390546311244
 20
2050.175402150376
 30
0.0000000001127424
 10
5369.72493201565
 20
2050.400508198304
 30
0.0000000001127424
 10
5370.133412941008
 20
2050.808043636722
 30
0.0000000001127424
 10
5370.256352210316
 20
2050.957681252278
 30
0.0000000001127424
 10
5370.466326251926
 20
2051.270877048951
 30
0.0000000001127424
 10
5370.55424662059
 20
2051.434808938227
 30
0.0000000001127424
 10
5370.696800625083
 20
2051.776635752951
 30
0.0000000001127424
 10
5370.750677919496
 20
2051.953709567073
 30
0.0000000001127424
 10
5370.821814861976
 20
2052.308378921398
 30
0.0000000001127424
 10
5370.839770849256
 20
2052.487523398964
 30
0.0000000001127424
 10
5370.839770849256
 20
2052.668408060906
 30
0.0000000001127424
  0
LINE
  5
F59F
330
18
100
AcDbEntity
  8
01
  6
CONTINUOUS
100
AcDbLine
 10
5261.839770849256
 20
2049.787654523536
 30
0.0000000001127424
 11
5367.839770849256
 21
2049.787654523536
 31
0.0000000001127424
  0
LINE
  5
F5A0
330
18
100
AcDbEntity
  8
01
  6
CONTINUOUS
100
AcDbLine
 10
5370.839770849256
 20
2049.541566384809
 30
0.0000000001127424
 11
5370.839770849256
 21
2052.668408060906
 31
0.0000000001127424
  0
LINE
  5
F5A1
330
18
100
AcDbEntity
  8
01
  6
CONTINUOUS
100
AcDbLine
 10
5370.839770849256
 20
2052.668408060906
 30
0.0000000001127424
 11
5370.839770849256
 21
2071.056130810145
 31
0.0000000001127424
  0
LINE
  5
FD1F
330
18
100
AcDbEntity
  8
01
100
AcDbLine
 10
5055.839887189002
 20
1795.534411655985
 30
0.0
 11
5055.839887189002
 21
1827.334411655984
 31
0.0
1001
ACAD
1000
DSTYLE
1002
{
1070
    40
1040
1.3
1070
    45
1040
0.5
1070
   341
1005
0
1002
}
  0
LINE
  5
FD20
330
18
100
AcDbEntity
  8
01
100
AcDbLine
 10
5033.839501623283
 20
1780.034406655986
 30
0.0
 11
5033.839501623283
 21
1827.334411655984
 31
0.0
1001
ACAD
1000
DSTYLE
1002
{
1070
    40
1040
1.3
1070
    45
1040
0.5
1070
   341
1005
0
1002
}
  0
LINE
  5
FD21
330
18
100
AcDbEntity
  8
01
100
AcDbLine
 10
5053.239887189002
 20
1826.034411655985
 30
0.0
 11
5036.439501623283
 21
1826.034411655985
 31
0.0
1001
ACAD
1000
DSTYLE
1002
{
1070
    40
1040
1.3
1070
    45
1040
0.5
1070
   341
1005
0
1002
}
  0
LINE
  5
FD25
330
18
100
AcDbEntity
  8
01
100
AcDbLine
 10
5095.839887189002
 20
1795.534411655985
 30
0.0
 11
5095.839887189002
 21
1827.334411655984
 31
0.0
1001
ACAD
1000
DSTYLE
1002
{
1070
    40
1040
1.3
1070
    45
1040
0.5
1070
   271
1070
     1
1070
   341
1005
0
1002
}
  0
LINE
  5
FD26
330
18
100
AcDbEntity
  8
01
100
AcDbLine
 10
5104.008470877962
 20
1770.034413223677
 30
0.0
 11
5104.008470877962
 21
1827.334411655984
 31
0.0
1001
ACAD
1000
DSTYLE
1002
{
1070
    40
1040
1.3
1070
    45
1040
0.5
1070
   271
1070
     1
1070
   341
1005
0
1002
}
  0
LINE
  5
FD27
330
18
100
AcDbEntity
  8
01
100
AcDbLine
 10
5098.439887189003
 20
1826.034411655985
 30
0.0
 11
5101.408470877962
 21
1826.034411655985
 31
0.0
1001
ACAD
1000
DSTYLE
1002
{
1070
    40
1040
1.3
1070
    45
1040
0.5
1070
   271
1070
     1
1070
   341
1005
0
1002
}
  0
LINE
  5
FD2B
330
18
100
AcDbEntity
  8
01
100
AcDbLine
 10
4885.839898544085
 20
1795.034411655985
 30
0.0
 11
4885.839898544085
 21
1804.334411655984
 31
0.0
1001
ACAD
1000
DSTYLE
1002
{
1070
     3
1000
□<>
1070
    40
1040
1.3
1070
    45
1040
0.5
1070
   271
1070
     1
1070
   272
1070
     2
1002
}
  0
LINE
  5
FD2C
330
18
100
AcDbEntity
  8
01
100
AcDbLine
 10
4925.839898544085
 20
1795.034411655984
 30
0.0
 11
4925.839898544085
 21
1804.334411655984
 31
0.0
1001
ACAD
1000
DSTYLE
1002
{
1070
     3
1000
□<>
1070
    40
1040
1.3
1070
    45
1040
0.5
1070
   271
1070
     1
1070
   272
1070
     2
1002
}
  0
LINE
  5
FD2D
330
18
100
AcDbEntity
  8
01
100
AcDbLine
 10
4888.439898544086
 20
1803.034411655985
 30
0.0
 11
4923.239898544085
 21
1803.034411655985
 31
0.0
1001
ACAD
1000
DSTYLE
1002
{
1070
     3
1000
□<>
1070
    40
1040
1.3
1070
    45
1040
0.5
1070
   271
1070
     1
1070
   272
1070
     2
1002
}
  0
LINE
  5
FD31
330
18
100
AcDbEntity
  8
01
100
AcDbLine
 10
5225.839778526799
 20
1795.034411655985
 30
0.0
 11
5225.839778526799
 21
1804.334411655984
 31
0.0
1001
ACAD
1000
DSTYLE
1002
{
1070
     3
1000
□<>
1070
    40
1040
1.3
1070
    45
1040
0.5
1070
   271
1070
     1
1070
   272
1070
     2
1002
}
  0
LINE
  5
FD32
330
18
100
AcDbEntity
  8
01
100
AcDbLine
 10
5265.839778526799
 20
1795.034411655984
 30
0.0
 11
5265.839778526799
 21
1804.334411655984
 31
0.0
1001
ACAD
1000
DSTYLE
1002
{
1070
     3
1000
□<>
1070
    40
1040
1.3
1070
    45
1040
0.5
1070
   271
1070
     1
1070
   272
1070
     2
1002
}
  0
LINE
  5
FD33
330
18
100
AcDbEntity
  8
01
100
AcDbLine
 10
5228.439778526799
 20
1803.034411655985
 30
0.0
 11
5263.239778526799
 21
1803.034411655985
 31
0.0
1001
ACAD
1000
DSTYLE
1002
{
1070
     3
1000
□<>
1070
    40
1040
1.3
1070
    45
1040
0.5
1070
   271
1070
     1
1070
   272
1070
     2
1002
}
  0
TEXT
  5
FD37
330
18
100
AcDbEntity
  8
01
  6
CONTINUOUS
100
AcDbText
 10
5156.842931942274
 20
1932.617744988289
 30
0.0000000000563712
 40
4.55
  1
材質：亜鉛ダイキャスト
100
AcDbText
  0
TEXT
  5
FD38
330
18
100
AcDbEntity
  8
01
  6
CONTINUOUS
100
AcDbText
 10
5167.156265275607
 20
1925.034411654956
 30
0.0000000000563712
 40
4.55
  1
仕上げ：各種メッキ
100
AcDbText
  0
LINE
  5
FD39
330
18
100
AcDbEntity
  8
01
100
AcDbLine
 10
5183.839770849256
 20
1748.034410957853
 30
0.0
 11
5183.839770849256
 21
1850.755903740672
 31
0.0
1001
ACAD
1000
DSTYLE
1002
{
1070
    40
1040
1.3
1070
    45
1040
0.5
1002
}
  0
LINE
  5
FD3A
330
18
100
AcDbEntity
  8
01
100
AcDbLine
 10
5194.839770849256
 20
1805.905729007142
 30
0.0
 11
5194.839770849256
 21
1850.755903740672
 31
0.0
1001
ACAD
1000
DSTYLE
1002
{
1070
    40
1040
1.3
1070
    45
1040
0.5
1002
}
  0
LINE
  5
FD3B
330
18
100
AcDbEntity
  8
01
100
AcDbLine
 10
5186.439770849256
 20
1849.455903740672
 30
0.0
 11
5192.239770849255
 21
1849.455903740672
 31
0.0
1001
ACAD
1000
DSTYLE
1002
{
1070
    40
1040
1.3
1070
    45
1040
0.5
1002
}
  0
LINE
  5
FD3F
330
18
100
AcDbEntity
  8
01
100
AcDbLine
 10
5263.839770849256
 20
1778.027039148376
 30
0.0
 11
5292.139770849256
 21
1778.027039148376
 31
0.0
1001
ACAD
1000
DSTYLE
1002
{
1070
    40
1040
1.3
1070
    45
1040
0.5
1002
}
  0
LINE
  5
FD40
330
18
100
AcDbEntity
  8
01
100
AcDbLine
 10
5263.839770849256
 20
1704.034411655984
 30
0.0
 11
5292.139770849256
 21
1704.034411655984
 31
0.0
1001
ACAD
1000
DSTYLE
1002
{
1070
    40
1040
1.3
1070
    45
1040
0.5
1002
}
  0
LINE
  5
FD41
330
18
100
AcDbEntity
  8
01
100
AcDbLine
 10
5290.839770849256
 20
1775.427039148376
 30
0.0
 11
5290.839770849256
 21
1706.634411655984
 31
0.0
1001
ACAD
1000
DSTYLE
1002
{
1070
    40
1040
1.3
1070
    45
1040
0.5
1002
}
  0
LINE
  5
FD45
330
18
100
AcDbEntity
  8
01
100
AcDbLine
 10
5263.839770849256
 20
1778.027039148376
 30
0.0
 11
5263.839770849256
 21
1860.83577120872
 31
0.0
1001
ACAD
1000
DSTYLE
1002
{
1070
    40
1040
1.3
1070
    45
1040
0.5
1002
}
  0
LINE
  5
FD46
330
18
100
AcDbEntity
  8
01
100
AcDbLine
 10
5194.839770849256
 20
1805.905729007142
 30
0.0
 11
5194.839770849256
 21
1860.83577120872
 31
0.0
1001
ACAD
1000
DSTYLE
1002
{
1070
    40
1040
1.3
1070
    45
1040
0.5
1002
}
  0
LINE
  5
FD47
330
18
100
AcDbEntity
  8
01
100
AcDbLine
 10
5261.239770849255
 20
1859.53577120872
 30
0.0
 11
5197.439770849256
 21
1859.53577120872
 31
0.0
1001
ACAD
1000
DSTYLE
1002
{
1070
    40
1040
1.3
1070
    45
1040
0.5
1002
}
  0
LINE
  5
FD4B
330
18
100
AcDbEntity
  8
01
100
AcDbLine
 10
5194.839770849256
 20
1805.905729007142
 30
0.0
 11
5194.839770849256
 21
1850.755903740672
 31
0.0
1001
ACAD
1000
DSTYLE
1002
{
1070
    40
1040
1.3
1070
    45
1040
0.5
1002
}
  0
LINE
  5
FD4C
330
18
100
AcDbEntity
  8
01
100
AcDbLine
 10
5245.839770849256
 20
1770.034411655984
 30
0.0
 11
5245.839770849256
 21
1850.755903740672
 31
0.0
1001
ACAD
1000
DSTYLE
1002
{
1070
    40
1040
1.3
1070
    45
1040
0.5
1002
}
  0
LINE
  5
FD4D
330
18
100
AcDbEntity
  8
01
100
AcDbLine
 10
5197.439770849256
 20
1849.455903740672
 30
0.0
 11
5243.239770849255
 21
1849.455903740672
 31
0.0
1001
ACAD
1000
DSTYLE
1002
{
1070
    40
1040
1.3
1070
    45
1040
0.5
1002
}
  0
LINE
  5
FD51
330
18
100
AcDbEntity
  8
01
100
AcDbLine
 10
5081.714912596906
 20
1798.034411655983
 30
0.0
 11
5162.001043765114
 21
1798.034411655983
 31
0.0
1001
ACAD
1000
DSTYLE
1002
{
1070
    40
1040
1.3
1070
    45
1040
0.5
1002
}
  0
LINE
  5
FD52
330
18
100
AcDbEntity
  8
01
100
AcDbLine
 10
5081.714912596906
 20
1684.034411655983
 30
0.0
 11
5162.001043765114
 21
1684.034411655983
 31
0.0
1001
ACAD
1000
DSTYLE
1002
{
1070
    40
1040
1.3
1070
    45
1040
0.5
1002
}
  0
LINE
  5
FD53
330
18
100
AcDbEntity
  8
01
100
AcDbLine
 10
5160.701043765113
 20
1795.434411655983
 30
0.0
 11
5160.701043765113
 21
1686.634411655983
 31
0.0
1001
ACAD
1000
DSTYLE
1002
{
1070
    40
1040
1.3
1070
    45
1040
0.5
1002
}
  0
LINE
  5
FD57
330
18
100
AcDbEntity
  8
01
100
AcDbLine
 10
5082.31297299367
 20
1805.933966511567
 30
0.0
 11
5171.365377931338
 21
1805.933966511567
 31
0.0
1001
ACAD
1000
DSTYLE
1002
{
1070
    40
1040
1.3
1070
    45
1040
0.5
1002
}
  0
LINE
  5
FD58
330
18
100
AcDbEntity
  8
01
100
AcDbLine
 10
5082.239887189
 20
1676.134411655984
 30
0.0
 11
5171.365377931338
 21
1676.134411655984
 31
0.0
1001
ACAD
1000
DSTYLE
1002
{
1070
    40
1040
1.3
1070
    45
1040
0.5
1002
}
  0
LINE
  5
FD59
330
18
100
AcDbEntity
  8
01
100
AcDbLine
 10
5170.065377931338
 20
1803.333966511567
 30
0.0
 11
5170.065377931338
 21
1678.734411655983
 31
0.0
1001
ACAD
1000
DSTYLE
1002
{
1070
    40
1040
1.3
1070
    45
1040
0.5
1002
}
  0
LINE
  5
FD5D
330
18
100
AcDbEntity
  8
01
100
AcDbLine
 10
5063.339887189
 20
1800.034411655984
 30
0.0
 11
5063.339887189
 21
1850.755903740672
 31
0.0
1001
ACAD
1000
DSTYLE
1002
{
1070
    40
1040
1.3
1070
    45
1040
0.5
1002
}
  0
LINE
  5
FD5E
330
18
100
AcDbEntity
  8
01
100
AcDbLine
 10
5088.339887189
 20
1800.034411655984
 30
0.0
 11
5088.339887189
 21
1850.755903740672
 31
0.0
1001
ACAD
1000
DSTYLE
1002
{
1070
    40
1040
1.3
1070
    45
1040
0.5
1002
}
  0
LINE
  5
FD5F
330
18
100
AcDbEntity
  8
01
100
AcDbLine
 10
5065.939887189001
 20
1849.455903740672
 30
0.0
 11
5085.739887189
 21
1849.455903740672
 31
0.0
1001
ACAD
1000
DSTYLE
1002
{
1070
    40
1040
1.3
1070
    45
1040
0.5
1002
}
  0
LINE
  5
FD63
330
18
100
AcDbEntity
  8
01
100
AcDbLine
 10
5219.839770849259
 20
1746.535729969085
 30
0.0
 11
5209.539770849256
 21
1746.535729969085
 31
0.0
1001
ACAD
1000
DSTYLE
1002
{
1070
     3
1000
□<>
1070
    40
1040
1.3
1070
    45
1040
0.5
1002
}
  0
LINE
  5
FD64
330
18
100
AcDbEntity
  8
01
100
AcDbLine
 10
5219.839770849259
 20
1693.535729969085
 30
0.0
 11
5209.539770849256
 21
1693.535729969085
 31
0.0
1001
ACAD
1000
DSTYLE
1002
{
1070
     3
1000
□<>
1070
    40
1040
1.3
1070
    45
1040
0.5
1002
}
  0
LINE
  5
FD65
330
18
100
AcDbEntity
  8
01
100
AcDbLine
 10
5210.839770849256
 20
1743.935729969086
 30
0.0
 11
5210.839770849256
 21
1696.135729969085
 31
0.0
1001
ACAD
1000
DSTYLE
1002
{
1070
     3
1000
□<>
1070
    40
1040
1.3
1070
    45
1040
0.5
1002
}
  0
LINE
  5
FD69
330
18
100
AcDbEntity
  8
01
  6
BYBLOCK
100
AcDbLine
 10
5053.239887189002
 20
1826.731079549985
 30
0.0
 11
5055.839887189002
 21
1826.034411655985
 31
0.0
  0
LINE
  5
FD6A
330
18
100
AcDbEntity
  8
01
  6
BYBLOCK
100
AcDbLine
 10
5055.839887189002
 20
1826.034411655985
 30
0.0
 11
5053.239887189002
 21
1825.337743761984
 31
0.0
  0
LINE
  5
FD6B
330
18
100
AcDbEntity
  8
01
  6
BYBLOCK
100
AcDbLine
 10
5055.839887189002
 20
1826.034411655985
 30
0.0
 11
5053.239887189002
 21
1826.034411655985
 31
0.0
  0
LINE
  5
FD6C
330
18
100
AcDbEntity
  8
01
  6
BYBLOCK
100
AcDbLine
 10
5036.439501623283
 20
1825.337743761984
 30
0.0
 11
5033.839501623283
 21
1826.034411655985
 31
0.0
  0
LINE
  5
FD6D
330
18
100
AcDbEntity
  8
01
  6
BYBLOCK
100
AcDbLine
 10
5033.839501623283
 20
1826.034411655985
 30
0.0
 11
5036.439501623283
 21
1826.731079549985
 31
0.0
  0
LINE
  5
FD6E
330
18
100
AcDbEntity
  8
01
  6
BYBLOCK
100
AcDbLine
 10
5033.839501623283
 20
1826.034411655985
 30
0.0
 11
5036.439501623283
 21
1826.034411655985
 31
0.0
  0
TEXT
  5
FD6F
330
18
100
AcDbEntity
  8
01
  6
CONTINUOUS
100
AcDbText
 10
5041.048027739475
 20
1826.944411655985
 30
0.0
 40
4.55
  1
22
100
AcDbText
1001
ACAD
1000
DSTYLE
1002
{
1070
    40
1040
1.3
1070
    45
1040
0.5
1070
   341
1005
0
1002
}
  0
LINE
  5
FD70
330
18
100
AcDbEntity
  8
01
  6
BYBLOCK
100
AcDbLine
 10
5098.439887189003
 20
1825.337743761984
 30
0.0
 11
5095.839887189002
 21
1826.034411655985
 31
0.0
  0
LINE
  5
FD71
330
18
100
AcDbEntity
  8
01
  6
BYBLOCK
100
AcDbLine
 10
5095.839887189002
 20
1826.034411655985
 30
0.0
 11
5098.439887189003
 21
1826.731079549985
 31
0.0
  0
LINE
  5
FD72
330
18
100
AcDbEntity
  8
01
  6
BYBLOCK
100
AcDbLine
 10
5095.839887189002
 20
1826.034411655985
 30
0.0
 11
5098.439887189003
 21
1826.034411655985
 31
0.0
  0
LINE
  5
FD73
330
18
100
AcDbEntity
  8
01
  6
BYBLOCK
100
AcDbLine
 10
5101.408470877962
 20
1826.731079549985
 30
0.0
 11
5104.008470877962
 21
1826.034411655985
 31
0.0
  0
LINE
  5
FD74
330
18
100
AcDbEntity
  8
01
  6
BYBLOCK
100
AcDbLine
 10
5104.008470877962
 20
1826.034411655985
 30
0.0
 11
5101.408470877962
 21
1825.337743761984
 31
0.0
  0
LINE
  5
FD75
330
18
100
AcDbEntity
  8
01
  6
BYBLOCK
100
AcDbLine
 10
5104.008470877962
 20
1826.034411655985
 30
0.0
 11
5101.408470877962
 21
1826.034411655985
 31
0.0
  0
TEXT
  5
FD76
330
18
100
AcDbEntity
  8
01
  6
CONTINUOUS
100
AcDbText
 10
5098.407512366815
 20
1826.944411655985
 30
0.0
 40
4.55
  1
8
100
AcDbText
1001
ACAD
1000
DSTYLE
1002
{
1070
    40
1040
1.3
1070
    45
1040
0.5
1070
   271
1070
     1
1070
   341
1005
0
1002
}
  0
LINE
  5
FD77
330
18
100
AcDbEntity
  8
01
  6
BYBLOCK
100
AcDbLine
 10
4888.439898544086
 20
1802.337743761984
 30
0.0
 11
4885.839898544085
 21
1803.034411655985
 31
0.0
  0
LINE
  5
FD78
330
18
100
AcDbEntity
  8
01
  6
BYBLOCK
100
AcDbLine
 10
4885.839898544085
 20
1803.034411655985
 30
0.0
 11
4888.439898544086
 21
1803.731079549985
 31
0.0
  0
LINE
  5
FD79
330
18
100
AcDbEntity
  8
01
  6
BYBLOCK
100
AcDbLine
 10
4885.839898544085
 20
1803.034411655985
 30
0.0
 11
4888.439898544086
 21
1803.034411655985
 31
0.0
  0
LINE
  5
FD7A
330
18
100
AcDbEntity
  8
01
  6
BYBLOCK
100
AcDbLine
 10
4923.239898544085
 20
1803.731079549985
 30
0.0
 11
4925.839898544085
 21
1803.034411655985
 31
0.0
  0
LINE
  5
FD7B
330
18
100
AcDbEntity
  8
01
  6
BYBLOCK
100
AcDbLine
 10
4925.839898544085
 20
1803.034411655985
 30
0.0
 11
4923.239898544085
 21
1802.337743761984
 31
0.0
  0
LINE
  5
FD7C
330
18
100
AcDbEntity
  8
01
  6
BYBLOCK
100
AcDbLine
 10
4925.839898544085
 20
1803.034411655985
 30
0.0
 11
4923.239898544085
 21
1803.034411655985
 31
0.0
  0
TEXT
  5
FD7D
330
18
100
AcDbEntity
  8
01
  6
CONTINUOUS
100
AcDbText
 10
4899.450940210752
 20
1803.944411655985
 30
0.0
 40
4.55
  1
□40
100
AcDbText
1001
ACAD
1000
DSTYLE
1002
{
1070
     3
1000
□<>
1070
    40
1040
1.3
1070
    45
1040
0.5
1070
   271
1070
     1
1070
   272
1070
     2
1002
}
  0
LINE
  5
FD7E
330
18
100
AcDbEntity
  8
01
  6
BYBLOCK
100
AcDbLine
 10
5228.439778526799
 20
1802.337743761984
 30
0.0
 11
5225.839778526799
 21
1803.034411655985
 31
0.0
  0
LINE
  5
FD7F
330
18
100
AcDbEntity
  8
01
  6
BYBLOCK
100
AcDbLine
 10
5225.839778526799
 20
1803.034411655985
 30
0.0
 11
5228.439778526799
 21
1803.731079549985
 31
0.0
  0
LINE
  5
FD80
330
18
100
AcDbEntity
  8
01
  6
BYBLOCK
100
AcDbLine
 10
5225.839778526799
 20
1803.034411655985
 30
0.0
 11
5228.439778526799
 21
1803.034411655985
 31
0.0
  0
LINE
  5
FD81
330
18
100
AcDbEntity
  8
01
  6
BYBLOCK
100
AcDbLine
 10
5263.239778526799
 20
1803.731079549985
 30
0.0
 11
5265.839778526799
 21
1803.034411655985
 31
0.0
  0
LINE
  5
FD82
330
18
100
AcDbEntity
  8
01
  6
BYBLOCK
100
AcDbLine
 10
5265.839778526799
 20
1803.034411655985
 30
0.0
 11
5263.239778526799
 21
1802.337743761984
 31
0.0
  0
LINE
  5
FD83
330
18
100
AcDbEntity
  8
01
  6
BYBLOCK
100
AcDbLine
 10
5265.839778526799
 20
1803.034411655985
 30
0.0
 11
5263.239778526799
 21
1803.034411655985
 31
0.0
  0
TEXT
  5
FD84
330
18
100
AcDbEntity
  8
01
  6
CONTINUOUS
100
AcDbText
 10
5239.450820193466
 20
1803.944411655985
 30
0.0
 40
4.55
  1
□40
100
AcDbText
1001
ACAD
1000
DSTYLE
1002
{
1070
     3
1000
□<>
1070
    40
1040
1.3
1070
    45
1040
0.5
1070
   271
1070
     1
1070
   272
1070
     2
1002
}
  0
LINE
  5
FD85
330
18
100
AcDbEntity
  8
01
  6
BYBLOCK
100
AcDbLine
 10
5186.439770849256
 20
1848.759235846672
 30
0.0
 11
5183.839770849256
 21
1849.455903740672
 31
0.0
  0
LINE
  5
FD86
330
18
100
AcDbEntity
  8
01
  6
BYBLOCK
100
AcDbLine
 10
5183.839770849256
 20
1849.455903740672
 30
0.0
 11
5186.439770849256
 21
1850.152571634672
 31
0.0
  0
LINE
  5
FD87
330
18
100
AcDbEntity
  8
01
  6
BYBLOCK
100
AcDbLine
 10
5183.839770849256
 20
1849.455903740672
 30
0.0
 11
5186.439770849256
 21
1849.455903740672
 31
0.0
  0
LINE
  5
FD88
330
18
100
AcDbEntity
  8
01
  6
BYBLOCK
100
AcDbLine
 10
5192.239770849255
 20
1850.152571634672
 30
0.0
 11
5194.839770849256
 21
1849.455903740672
 31
0.0
  0
LINE
  5
FD89
330
18
100
AcDbEntity
  8
01
  6
BYBLOCK
100
AcDbLine
 10
5194.839770849256
 20
1849.455903740672
 30
0.0
 11
5192.239770849255
 21
1848.759235846672
 31
0.0
  0
LINE
  5
FD8A
330
18
100
AcDbEntity
  8
01
  6
BYBLOCK
100
AcDbLine
 10
5194.839770849256
 20
1849.455903740672
 30
0.0
 11
5192.239770849255
 21
1849.455903740672
 31
0.0
  0
TEXT
  5
FD8B
330
18
100
AcDbEntity
  8
01
  6
CONTINUOUS
100
AcDbText
 10
5187.064770849256
 20
1850.365903740672
 30
0.0
 40
4.55
  1
11
100
AcDbText
1001
ACAD
1000
DSTYLE
1002
{
1070
    40
1040
1.3
1070
    45
1040
0.5
1002
}
  0
LINE
  5
FD8C
330
18
100
AcDbEntity
  8
01
  6
BYBLOCK
100
AcDbLine
 10
5290.143102955256
 20
1775.427039148376
 30
0.0
 11
5290.839770849256
 21
1778.027039148376
 31
0.0
  0
LINE
  5
FD8D
330
18
100
AcDbEntity
  8
01
  6
BYBLOCK
100
AcDbLine
 10
5290.839770849256
 20
1778.027039148376
 30
0.0
 11
5291.536438743256
 21
1775.427039148376
 31
0.0
  0
LINE
  5
FD8E
330
18
100
AcDbEntity
  8
01
  6
BYBLOCK
100
AcDbLine
 10
5290.839770849256
 20
1778.027039148376
 30
0.0
 11
5290.839770849256
 21
1775.427039148376
 31
0.0
  0
LINE
  5
FD8F
330
18
100
AcDbEntity
  8
01
  6
BYBLOCK
100
AcDbLine
 10
5291.536438743256
 20
1706.634411655984
 30
0.0
 11
5290.839770849256
 21
1704.034411655984
 31
0.0
  0
LINE
  5
FD90
330
18
100
AcDbEntity
  8
01
  6
BYBLOCK
100
AcDbLine
 10
5290.839770849256
 20
1704.034411655984
 30
0.0
 11
5290.143102955256
 21
1706.634411655984
 31
0.0
  0
LINE
  5
FD91
330
18
100
AcDbEntity
  8
01
  6
BYBLOCK
100
AcDbLine
 10
5290.839770849256
 20
1704.034411655984
 30
0.0
 11
5290.839770849256
 21
1706.634411655984
 31
0.0
  0
TEXT
  5
FD92
330
18
100
AcDbEntity
  8
01
  6
CONTINUOUS
100
AcDbText
 10
5289.929770849256
 20
1759.005755742002
 30
0.0
 40
4.55
  1
74
 50
90.0
100
AcDbText
1001
ACAD
1000
DSTYLE
1002
{
1070
    40
1040
1.3
1070
    45
1040
0.5
1002
}
  0
LINE
  5
FD93
330
18
100
AcDbEntity
  8
01
  6
BYBLOCK
100
AcDbLine
 10
5261.239770849255
 20
1860.23243910272
 30
0.0
 11
5263.839770849256
 21
1859.53577120872
 31
0.0
  0
LINE
  5
FD94
330
18
100
AcDbEntity
  8
01
  6
BYBLOCK
100
AcDbLine
 10
5263.839770849256
 20
1859.53577120872
 30
0.0
 11
5261.239770849255
 21
1858.83910331472
 31
0.0
  0
LINE
  5
FD95
330
18
100
AcDbEntity
  8
01
  6
BYBLOCK
100
AcDbLine
 10
5263.839770849256
 20
1859.53577120872
 30
0.0
 11
5261.239770849255
 21
1859.53577120872
 31
0.0
  0
LINE
  5
FD96
330
18
100
AcDbEntity
  8
01
  6
BYBLOCK
100
AcDbLine
 10
5197.439770849256
 20
1858.83910331472
 30
0.0
 11
5194.839770849256
 21
1859.53577120872
 31
0.0
  0
LINE
  5
FD97
330
18
100
AcDbEntity
  8
01
  6
BYBLOCK
100
AcDbLine
 10
5194.839770849256
 20
1859.53577120872
 30
0.0
 11
5197.439770849256
 21
1860.23243910272
 31
0.0
  0
LINE
  5
FD98
330
18
100
AcDbEntity
  8
01
  6
BYBLOCK
100
AcDbLine
 10
5194.839770849256
 20
1859.53577120872
 30
0.0
 11
5197.439770849256
 21
1859.53577120872
 31
0.0
  0
TEXT
  5
FD99
330
18
100
AcDbEntity
  8
01
  6
CONTINUOUS
100
AcDbText
 10
5225.531252330738
 20
1860.44577120872
 30
0.0
 40
4.55
  1
69
100
AcDbText
1001
ACAD
1000
DSTYLE
1002
{
1070
    40
1040
1.3
1070
    45
1040
0.5
1002
}
  0
LINE
  5
FD9A
330
18
100
AcDbEntity
  8
01
  6
BYBLOCK
100
AcDbLine
 10
5197.439770849256
 20
1848.759235846672
 30
0.0
 11
5194.839770849256
 21
1849.455903740672
 31
0.0
  0
LINE
  5
FD9B
330
18
100
AcDbEntity
  8
01
  6
BYBLOCK
100
AcDbLine
 10
5194.839770849256
 20
1849.455903740672
 30
0.0
 11
5197.439770849256
 21
1850.152571634672
 31
0.0
  0
LINE
  5
FD9C
330
18
100
AcDbEntity
  8
01
  6
BYBLOCK
100
AcDbLine
 10
5194.839770849256
 20
1849.455903740672
 30
0.0
 11
5197.439770849256
 21
1849.455903740672
 31
0.0
  0
LINE
  5
FD9D
330
18
100
AcDbEntity
  8
01
  6
BYBLOCK
100
AcDbLine
 10
5243.239770849255
 20
1850.152571634672
 30
0.0
 11
5245.839770849256
 21
1849.455903740672
 31
0.0
  0
LINE
  5
FD9E
330
18
100
AcDbEntity
  8
01
  6
BYBLOCK
100
AcDbLine
 10
5245.839770849256
 20
1849.455903740672
 30
0.0
 11
5243.239770849255
 21
1848.759235846672
 31
0.0
  0
LINE
  5
FD9F
330
18
100
AcDbEntity
  8
01
  6
BYBLOCK
100
AcDbLine
 10
5245.839770849256
 20
1849.455903740672
 30
0.0
 11
5243.239770849255
 21
1849.455903740672
 31
0.0
  0
TEXT
  5
FDA0
330
18
100
AcDbEntity
  8
01
  6
CONTINUOUS
100
AcDbText
 10
5217.290638904811
 20
1850.365903740672
 30
0.0
 40
4.55
  1
51
100
AcDbText
1001
ACAD
1000
DSTYLE
1002
{
1070
    40
1040
1.3
1070
    45
1040
0.5
1002
}
  0
LINE
  5
FDA1
330
18
100
AcDbEntity
  8
01
  6
BYBLOCK
100
AcDbLine
 10
5160.004375871114
 20
1795.434411655983
 30
0.0
 11
5160.701043765113
 21
1798.034411655983
 31
0.0
  0
LINE
  5
FDA2
330
18
100
AcDbEntity
  8
01
  6
BYBLOCK
100
AcDbLine
 10
5160.701043765113
 20
1798.034411655983
 30
0.0
 11
5161.397711659113
 21
1795.434411655983
 31
0.0
  0
LINE
  5
FDA3
330
18
100
AcDbEntity
  8
01
  6
BYBLOCK
100
AcDbLine
 10
5160.701043765113
 20
1798.034411655983
 30
0.0
 11
5160.701043765113
 21
1795.434411655983
 31
0.0
  0
LINE
  5
FDA4
330
18
100
AcDbEntity
  8
01
  6
BYBLOCK
100
AcDbLine
 10
5161.397711659113
 20
1686.634411655983
 30
0.0
 11
5160.701043765113
 21
1684.034411655983
 31
0.0
  0
LINE
  5
FDA5
330
18
100
AcDbEntity
  8
01
  6
BYBLOCK
100
AcDbLine
 10
5160.701043765113
 20
1684.034411655983
 30
0.0
 11
5160.004375871114
 21
1686.634411655983
 31
0.0
  0
LINE
  5
FDA6
330
18
100
AcDbEntity
  8
01
  6
BYBLOCK
100
AcDbLine
 10
5160.701043765113
 20
1684.034411655983
 30
0.0
 11
5160.701043765113
 21
1686.634411655983
 31
0.0
  0
TEXT
  5
FDA7
330
18
100
AcDbEntity
  8
01
  6
CONTINUOUS
100
AcDbText
 10
5159.791043765113
 20
1765.617434003905
 30
0.0
 40
4.55
  1
114
 50
90.0
100
AcDbText
1001
ACAD
1000
DSTYLE
1002
{
1070
    40
1040
1.3
1070
    45
1040
0.5
1002
}
  0
LINE
  5
FDA8
330
18
100
AcDbEntity
  8
01
  6
BYBLOCK
100
AcDbLine
 10
5169.368710037338
 20
1803.333966511567
 30
0.0
 11
5170.065377931338
 21
1805.933966511567
 31
0.0
  0
LINE
  5
FDA9
330
18
100
AcDbEntity
  8
01
  6
BYBLOCK
100
AcDbLine
 10
5170.065377931338
 20
1805.933966511567
 30
0.0
 11
5170.762045825338
 21
1803.333966511567
 31
0.0
  0
LINE
  5
FDAA
330
18
100
AcDbEntity
  8
01
  6
BYBLOCK
100
AcDbLine
 10
5170.065377931338
 20
1805.933966511567
 30
0.0
 11
5170.065377931338
 21
1803.333966511567
 31
0.0
  0
LINE
  5
FDAB
330
18
100
AcDbEntity
  8
01
  6
BYBLOCK
100
AcDbLine
 10
5170.762045825338
 20
1678.734411655983
 30
0.0
 11
5170.065377931338
 21
1676.134411655984
 31
0.0
  0
LINE
  5
FDAC
330
18
100
AcDbEntity
  8
01
  6
BYBLOCK
100
AcDbLine
 10
5170.065377931338
 20
1676.134411655984
 30
0.0
 11
5169.368710037338
 21
1678.734411655983
 31
0.0
  0
LINE
  5
FDAD
330
18
100
AcDbEntity
  8
01
  6
BYBLOCK
100
AcDbLine
 10
5170.065377931338
 20
1676.134411655984
 30
0.0
 11
5170.065377931338
 21
1678.734411655983
 31
0.0
  0
TEXT
  5
FDAE
330
18
100
AcDbEntity
  8
01
  6
CONTINUOUS
100
AcDbText
 10
5169.155377931337
 20
1764.832870001097
 30
0.0
 40
4.55
  1
130
 50
90.0
100
AcDbText
1001
ACAD
1000
DSTYLE
1002
{
1070
    40
1040
1.3
1070
    45
1040
0.5
1002
}
  0
LINE
  5
FDAF
330
18
100
AcDbEntity
  8
01
  6
BYBLOCK
100
AcDbLine
 10
5065.939887189001
 20
1848.759235846672
 30
0.0
 11
5063.339887189
 21
1849.455903740672
 31
0.0
  0
LINE
  5
FDB0
330
18
100
AcDbEntity
  8
01
  6
BYBLOCK
100
AcDbLine
 10
5063.339887189
 20
1849.455903740672
 30
0.0
 11
5065.939887189001
 21
1850.152571634672
 31
0.0
  0
LINE
  5
FDB1
330
18
100
AcDbEntity
  8
01
  6
BYBLOCK
100
AcDbLine
 10
5063.339887189
 20
1849.455903740672
 30
0.0
 11
5065.939887189001
 21
1849.455903740672
 31
0.0
  0
LINE
  5
FDB2
330
18
100
AcDbEntity
  8
01
  6
BYBLOCK
100
AcDbLine
 10
5085.739887189
 20
1850.152571634672
 30
0.0
 11
5088.339887189
 21
1849.455903740672
 31
0.0
  0
LINE
  5
FDB3
330
18
100
AcDbEntity
  8
01
  6
BYBLOCK
100
AcDbLine
 10
5088.339887189
 20
1849.455903740672
 30
0.0
 11
5085.739887189
 21
1848.759235846672
 31
0.0
  0
LINE
  5
FDB4
330
18
100
AcDbEntity
  8
01
  6
BYBLOCK
100
AcDbLine
 10
5088.339887189
 20
1849.455903740672
 30
0.0
 11
5085.739887189
 21
1849.455903740672
 31
0.0
  0
TEXT
  5
FDB5
330
18
100
AcDbEntity
  8
01
  6
CONTINUOUS
100
AcDbText
 10
5072.048220522333
 20
1850.365903740672
 30
0.0
 40
4.55
  1
25
100
AcDbText
1001
ACAD
1000
DSTYLE
1002
{
1070
    40
1040
1.3
1070
    45
1040
0.5
1002
}
  0
LINE
  5
FDB6
330
18
100
AcDbEntity
  8
01
  6
BYBLOCK
100
AcDbLine
 10
5210.143102955256
 20
1743.935729969086
 30
0.0
 11
5210.839770849256
 21
1746.535729969085
 31
0.0
  0
LINE
  5
FDB7
330
18
100
AcDbEntity
  8
01
  6
BYBLOCK
100
AcDbLine
 10
5210.839770849256
 20
1746.535729969085
 30
0.0
 11
5211.536438743256
 21
1743.935729969086
 31
0.0
  0
LINE
  5
FDB8
330
18
100
AcDbEntity
  8
01
  6
BYBLOCK
100
AcDbLine
 10
5210.839770849256
 20
1746.535729969085
 30
0.0
 11
5210.839770849256
 21
1743.935729969086
 31
0.0
  0
LINE
  5
FDB9
330
18
100
AcDbEntity
  8
01
  6
BYBLOCK
100
AcDbLine
 10
5211.536438743256
 20
1696.135729969085
 30
0.0
 11
5210.839770849256
 21
1693.535729969085
 31
0.0
  0
LINE
  5
FDBA
330
18
100
AcDbEntity
  8
01
  6
BYBLOCK
100
AcDbLine
 10
5210.839770849256
 20
1693.535729969085
 30
0.0
 11
5210.143102955256
 21
1696.135729969085
 31
0.0
  0
LINE
  5
FDBB
330
18
100
AcDbEntity
  8
01
  6
BYBLOCK
100
AcDbLine
 10
5210.839770849256
 20
1693.535729969085
 30
0.0
 11
5210.839770849256
 21
1696.135729969085
 31
0.0
  0
TEXT
  5
FDBC
330
18
100
AcDbEntity
  8
01
  6
CONTINUOUS
100
AcDbText
 10
5209.929770849255
 20
1712.006852062489
 30
0.0
 40
4.55
  1
□53
 50
90.0
100
AcDbText
1001
ACAD
1000
DSTYLE
1002
{
1070
     3
1000
□<>
1070
    40
1040
1.3
1070
    45
1040
0.5
1002
}
  0
LINE
  5
FDBD
330
18
100
AcDbEntity
  8
1DIM
100
AcDbLine
 10
4875.839891189
 20
1720.034411655984
 30
0.0
 11
4860.846038786712
 21
1720.034411655984
 31
0.0
1001
ACAD
1000
DSTYLE
1002
{
1070
    40
1040
1.3
1070
    45
1040
0.5
1070
   341
1005
0
1002
}
  0
LINE
  5
FDBE
330
18
100
AcDbEntity
  8
1DIM
100
AcDbLine
 10
4883.339883189001
 20
1775.534411655985
 30
0.0
 11
4860.846038786712
 21
1775.534411655985
 31
0.0
1001
ACAD
1000
DSTYLE
1002
{
1070
    40
1040
1.3
1070
    45
1040
0.5
1070
   341
1005
0
1002
}
  0
LINE
  5
FDBF
330
18
100
AcDbEntity
  8
1DIM
100
AcDbLine
 10
4862.146038786712
 20
1722.634411655984
 30
0.0
 11
4862.146038786712
 21
1772.934411655985
 31
0.0
1001
ACAD
1000
DSTYLE
1002
{
1070
    40
1040
1.3
1070
    45
1040
0.5
1070
   341
1005
0
1002
}
  0
SOLID
  5
FDC3
330
18
100
AcDbEntity
  8
1DIM
100
AcDbTrace
 10
5243.209620204002
 20
1943.98365460104
 30
0.0000000000563712
 11
5245.580372089316
 21
1945.135745429081
 31
0.0000000000563712
 12
5243.711420033924
 22
1943.277037277589
 32
0.0000000000563712
 13
5243.711420033924
 23
1943.277037277589
 33
0.0000000000563712
1001
ACAD
1000
DSTYLE
1002
{
1070
    40
1040
1.3
1070
    45
1040
0.5
1002
}
  0
LINE
  5
FDC4
330
18
100
AcDbEntity
  8
1DIM
100
AcDbLine
 10
5243.460520118962
 20
1943.630345939315
 30
0.0000000000563712
 11
5215.992931942274
 21
1924.124411654955
 31
0.0000000000563712
1001
ACAD
1000
DSTYLE
1002
{
1070
    40
1040
1.3
1070
    45
1040
0.5
1002
}
  0
LINE
  5
FDC5
330
18
100
AcDbEntity
  8
1DIM
100
AcDbLine
 10
5262.240655031315
 20
1999.534411654955
 30
0.0
 11
5282.801045791029
 21
1999.534411654955
 31
0.0
1001
ACAD
1000
DSTYLE
1002
{
1070
    45
1040
0.5
1070
    40
1040
1.3
1002
}
  0
LINE
  5
FDC6
330
18
100
AcDbEntity
  8
1DIM
100
AcDbLine
 10
5263.840655031316
 20
1980.734411654955
 30
0.0
 11
5282.801045791029
 21
1980.734411654955
 31
0.0
1001
ACAD
1000
DSTYLE
1002
{
1070
    45
1040
0.5
1070
    40
1040
1.3
1002
}
  0
LINE
  5
FDC7
330
18
100
AcDbEntity
  8
1DIM
100
AcDbLine
 10
5281.501045791028
 20
1996.934411654956
 30
0.0
 11
5281.501045791028
 21
1983.334411654955
 31
0.0
1001
ACAD
1000
DSTYLE
1002
{
1070
    45
1040
0.5
1070
    40
1040
1.3
1002
}
  0
LINE
  5
FDCB
330
18
100
AcDbEntity
  8
1DIM
100
AcDbLine
 10
5367.839770849256
 20
1709.035729969087
 30
0.0
 11
5402.139770849256
 21
1709.035729969087
 31
0.0
1001
ACAD
1000
DSTYLE
1002
{
1070
    40
1040
1.3
1070
    45
1040
0.5
1002
}
  0
LINE
  5
FDCC
330
18
100
AcDbEntity
  8
1DIM
100
AcDbLine
 10
5367.839770849256
 20
1726.219349877269
 30
0.0
 11
5402.139770849256
 21
1726.219349877269
 31
0.0
1001
ACAD
1000
DSTYLE
1002
{
1070
    40
1040
1.3
1070
    45
1040
0.5
1002
}
  0
LINE
  5
FDCD
330
18
100
AcDbEntity
  8
1DIM
100
AcDbLine
 10
5400.839770849256
 20
1711.635729969087
 30
0.0
 11
5400.839770849256
 21
1723.61934987727
 31
0.0
1001
ACAD
1000
DSTYLE
1002
{
1070
    40
1040
1.3
1070
    45
1040
0.5
1002
}
  0
LINE
  5
FDD1
330
18
100
AcDbEntity
  8
1DIM
100
AcDbLine
 10
5245.839770849256
 20
1948.534411655985
 30
0.0000000001127424
 11
5245.839770849256
 21
1883.734411655985
 31
0.0000000001127424
1001
ACAD
1000
DSTYLE
1002
{
1070
    40
1040
1.3
1070
    45
1040
0.5
1002
}
  0
LINE
  5
FDD2
330
18
100
AcDbEntity
  8
1DIM
100
AcDbLine
 10
5370.839770849256
 20
1910.034411655985
 30
0.0000000001127424
 11
5370.839770849256
 21
1883.734411655985
 31
0.0000000001127424
1001
ACAD
1000
DSTYLE
1002
{
1070
    40
1040
1.3
1070
    45
1040
0.5
1002
}
  0
LINE
  5
FDD3
330
18
100
AcDbEntity
  8
1DIM
100
AcDbLine
 10
5248.439770849256
 20
1885.034411655985
 30
0.0000000001127424
 11
5368.239770849255
 21
1885.034411655985
 31
0.0000000001127424
1001
ACAD
1000
DSTYLE
1002
{
1070
    40
1040
1.3
1070
    45
1040
0.5
1002
}
  0
LINE
  5
FDD7
330
18
100
AcDbEntity
  8
1DIM
100
AcDbLine
 10
5230.858985568851
 20
1908.689356211967
 30
0.0000000001127424
 11
5230.858985568851
 21
1873.734411655985
 31
0.0000000001127424
1001
ACAD
1000
DSTYLE
1002
{
1070
    40
1040
1.3
1070
    45
1040
0.5
1002
}
  0
LINE
  5
FDD8
330
18
100
AcDbEntity
  8
1DIM
100
AcDbLine
 10
5370.839770849256
 20
1910.034411655985
 30
0.0000000001127424
 11
5370.839770849256
 21
1873.734411655985
 31
0.0000000001127424
1001
ACAD
1000
DSTYLE
1002
{
1070
    40
1040
1.3
1070
    45
1040
0.5
1002
}
  0
LINE
  5
FDD9
330
18
100
AcDbEntity
  8
1DIM
100
AcDbLine
 10
5233.458985568852
 20
1875.034411655985
 30
0.0000000001127424
 11
5368.239770849255
 21
1875.034411655985
 31
0.0000000001127424
1001
ACAD
1000
DSTYLE
1002
{
1070
    40
1040
1.3
1070
    45
1040
0.5
1002
}
  0
LINE
  5
FDDD
330
18
100
AcDbEntity
  8
1DIM
100
AcDbLine
 10
5367.395458219851
 20
1933.527256925101
 30
0.0000000001127424
 11
5402.139770849256
 21
1933.527256925101
 31
0.0000000001127424
1001
ACAD
1000
DSTYLE
1002
{
1070
    40
1040
1.3
1070
    45
1040
0.5
1002
}
  0
LINE
  5
FDDE
330
18
100
AcDbEntity
  8
1DIM
100
AcDbLine
 10
5348.594918846604
 20
1970.034411655985
 30
0.0000000001127424
 11
5402.139770849256
 21
1970.034411655985
 31
0.0000000001127424
1001
ACAD
1000
DSTYLE
1002
{
1070
    40
1040
1.3
1070
    45
1040
0.5
1002
}
  0
LINE
  5
FDDF
330
18
100
AcDbEntity
  8
1DIM
100
AcDbLine
 10
5400.839770849256
 20
1936.127256925101
 30
0.0000000001127424
 11
5400.839770849256
 21
1967.434411655985
 31
0.0000000001127424
1001
ACAD
1000
DSTYLE
1002
{
1070
    40
1040
1.3
1070
    45
1040
0.5
1002
}
  0
LINE
  5
FDE3
330
18
100
AcDbEntity
  8
1DIM
100
AcDbLine
 10
5367.839770849256
 20
1906.012692499766
 30
0.0000000001127424
 11
5412.139770849256
 21
1906.012692499766
 31
0.0000000001127424
1001
ACAD
1000
DSTYLE
1002
{
1070
    40
1040
1.3
1070
    45
1040
0.5
1002
}
  0
LINE
  5
FDE4
330
18
100
AcDbEntity
  8
1DIM
100
AcDbLine
 10
5348.594918846604
 20
1970.034411655985
 30
0.0000000001127424
 11
5412.139770849256
 21
1970.034411655985
 31
0.0000000001127424
1001
ACAD
1000
DSTYLE
1002
{
1070
    40
1040
1.3
1070
    45
1040
0.5
1002
}
  0
LINE
  5
FDE5
330
18
100
AcDbEntity
  8
1DIM
100
AcDbLine
 10
5410.839770849256
 20
1908.612692499766
 30
0.0000000001127424
 11
5410.839770849256
 21
1967.434411655985
 31
0.0000000001127424
1001
ACAD
1000
DSTYLE
1002
{
1070
    40
1040
1.3
1070
    45
1040
0.5
1002
}
  0
LINE
  5
FDE9
330
18
100
AcDbEntity
  8
0
  6
BYBLOCK
100
AcDbLine
 10
4862.842706680712
 20
1722.634411655984
 30
0.0
 11
4862.146038786712
 21
1720.034411655984
 31
0.0
  0
LINE
  5
FDEA
330
18
100
AcDbEntity
  8
0
  6
BYBLOCK
100
AcDbLine
 10
4862.146038786712
 20
1720.034411655984
 30
0.0
 11
4861.449370892712
 21
1722.634411655984
 31
0.0
  0
LINE
  5
FDEB
330
18
100
AcDbEntity
  8
0
  6
BYBLOCK
100
AcDbLine
 10
4862.146038786712
 20
1720.034411655984
 30
0.0
 11
4862.146038786712
 21
1722.634411655984
 31
0.0
  0
LINE
  5
FDEC
330
18
100
AcDbEntity
  8
0
  6
BYBLOCK
100
AcDbLine
 10
4861.449370892712
 20
1772.934411655985
 30
0.0
 11
4862.146038786712
 21
1775.534411655985
 31
0.0
  0
LINE
  5
FDED
330
18
100
AcDbEntity
  8
0
  6
BYBLOCK
100
AcDbLine
 10
4862.146038786712
 20
1775.534411655985
 30
0.0
 11
4862.842706680712
 21
1772.934411655985
 31
0.0
  0
LINE
  5
FDEE
330
18
100
AcDbEntity
  8
0
  6
BYBLOCK
100
AcDbLine
 10
4862.146038786712
 20
1775.534411655985
 30
0.0
 11
4862.146038786712
 21
1772.934411655985
 31
0.0
  0
TEXT
  5
FDEF
330
18
100
AcDbEntity
  8
1DIM
  6
CONTINUOUS
100
AcDbText
 10
4861.236038786712
 20
1740.927814433763
 30
0.0
 40
4.55
  1
55.5
 50
90.0
100
AcDbText
1001
ACAD
1000
DSTYLE
1002
{
1070
    40
1040
1.3
1070
    45
1040
0.5
1070
   341
1005
0
1002
}
  0
LINE
  5
FDF0
330
18
100
AcDbEntity
  8
0
  6
BYBLOCK
100
AcDbLine
 10
5280.804377897029
 20
1996.934411654956
 30
0.0
 11
5281.501045791028
 21
1999.534411654955
 31
0.0
  0
LINE
  5
FDF1
330
18
100
AcDbEntity
  8
0
  6
BYBLOCK
100
AcDbLine
 10
5281.501045791028
 20
1999.534411654955
 30
0.0
 11
5282.197713685028
 21
1996.934411654956
 31
0.0
  0
LINE
  5
FDF2
330
18
100
AcDbEntity
  8
0
  6
BYBLOCK
100
AcDbLine
 10
5281.501045791028
 20
1999.534411654955
 30
0.0
 11
5281.501045791028
 21
1996.934411654956
 31
0.0
  0
LINE
  5
FDF3
330
18
100
AcDbEntity
  8
0
  6
BYBLOCK
100
AcDbLine
 10
5282.197713685028
 20
1983.334411654955
 30
0.0
 11
5281.501045791028
 21
1980.734411654955
 31
0.0
  0
LINE
  5
FDF4
330
18
100
AcDbEntity
  8
0
  6
BYBLOCK
100
AcDbLine
 10
5281.501045791028
 20
1980.734411654955
 30
0.0
 11
5280.804377897029
 21
1983.334411654955
 31
0.0
  0
LINE
  5
FDF5
330
18
100
AcDbEntity
  8
0
  6
BYBLOCK
100
AcDbLine
 10
5281.501045791028
 20
1980.734411654955
 30
0.0
 11
5281.501045791028
 21
1983.334411654955
 31
0.0
  0
TEXT
  5
FDF6
330
18
100
AcDbEntity
  8
1DIM
  6
CONTINUOUS
100
AcDbText
 10
5280.591045791029
 20
1987.100025080881
 30
0.0
 40
4.55
  1
19
 50
90.0
100
AcDbText
1001
ACAD
1000
DSTYLE
1002
{
1070
    45
1040
0.5
1070
    40
1040
1.3
1002
}
  0
LINE
  5
FDF7
330
18
100
AcDbEntity
  8
0
  6
BYBLOCK
100
AcDbLine
 10
5401.536438743256
 20
1711.635729969087
 30
0.0
 11
5400.839770849256
 21
1709.035729969087
 31
0.0
  0
LINE
  5
FDF8
330
18
100
AcDbEntity
  8
0
  6
BYBLOCK
100
AcDbLine
 10
5400.839770849256
 20
1709.035729969087
 30
0.0
 11
5400.143102955256
 21
1711.635729969087
 31
0.0
  0
LINE
  5
FDF9
330
18
100
AcDbEntity
  8
0
  6
BYBLOCK
100
AcDbLine
 10
5400.839770849256
 20
1709.035729969087
 30
0.0
 11
5400.839770849256
 21
1711.635729969087
 31
0.0
  0
LINE
  5
FDFA
330
18
100
AcDbEntity
  8
0
  6
BYBLOCK
100
AcDbLine
 10
5400.143102955256
 20
1723.61934987727
 30
0.0
 11
5400.839770849256
 21
1726.219349877269
 31
0.0
  0
LINE
  5
FDFB
330
18
100
AcDbEntity
  8
0
  6
BYBLOCK
100
AcDbLine
 10
5400.839770849256
 20
1726.219349877269
 30
0.0
 11
5401.536438743256
 21
1723.61934987727
 31
0.0
  0
LINE
  5
FDFC
330
18
100
AcDbEntity
  8
0
  6
BYBLOCK
100
AcDbLine
 10
5400.839770849256
 20
1726.219349877269
 30
0.0
 11
5400.839770849256
 21
1723.61934987727
 31
0.0
  0
TEXT
  5
FDFD
330
18
100
AcDbEntity
  8
1DIM
  6
CONTINUOUS
100
AcDbText
 10
5399.929770849255
 20
1714.594206589845
 30
0.0
 40
4.55
  1
17
 50
90.0
100
AcDbText
1001
ACAD
1000
DSTYLE
1002
{
1070
    40
1040
1.3
1070
    45
1040
0.5
1002
}
  0
LINE
  5
FDFE
330
18
100
AcDbEntity
  8
0
  6
BYBLOCK
100
AcDbLine
 10
5248.439770849256
 20
1884.337743761984
 30
0.0000000001127424
 11
5245.839770849256
 21
1885.034411655985
 31
0.0000000001127424
  0
LINE
  5
FDFF
330
18
100
AcDbEntity
  8
0
  6
BYBLOCK
100
AcDbLine
 10
5245.839770849256
 20
1885.034411655985
 30
0.0000000001127424
 11
5248.439770849256
 21
1885.731079549985
 31
0.0000000001127424
  0
LINE
  5
FE00
330
18
100
AcDbEntity
  8
0
  6
BYBLOCK
100
AcDbLine
 10
5245.839770849256
 20
1885.034411655985
 30
0.0000000001127424
 11
5248.439770849256
 21
1885.034411655985
 31
0.0000000001127424
  0
LINE
  5
FE01
330
18
100
AcDbEntity
  8
0
  6
BYBLOCK
100
AcDbLine
 10
5368.239770849255
 20
1885.731079549985
 30
0.0000000001127424
 11
5370.839770849256
 21
1885.034411655985
 31
0.0000000001127424
  0
LINE
  5
FE02
330
18
100
AcDbEntity
  8
0
  6
BYBLOCK
100
AcDbLine
 10
5370.839770849256
 20
1885.034411655985
 30
0.0000000001127424
 11
5368.239770849255
 21
1884.337743761984
 31
0.0000000001127424
  0
LINE
  5
FE03
330
18
100
AcDbEntity
  8
0
  6
BYBLOCK
100
AcDbLine
 10
5370.839770849256
 20
1885.034411655985
 30
0.0000000001127424
 11
5368.239770849255
 21
1885.034411655985
 31
0.0000000001127424
  0
TEXT
  5
FE04
330
18
100
AcDbEntity
  8
1DIM
  6
CONTINUOUS
100
AcDbText
 10
5303.031437515922
 20
1885.944411655985
 30
0.0000000001127424
 40
4.55
  1
125
100
AcDbText
1001
ACAD
1000
DSTYLE
1002
{
1070
    40
1040
1.3
1070
    45
1040
0.5
1002
}
  0
LINE
  5
FE05
330
18
100
AcDbEntity
  8
0
  6
BYBLOCK
100
AcDbLine
 10
5233.458985568852
 20
1874.337743761984
 30
0.0000000001127424
 11
5230.858985568851
 21
1875.034411655985
 31
0.0000000001127424
  0
LINE
  5
FE06
330
18
100
AcDbEntity
  8
0
  6
BYBLOCK
100
AcDbLine
 10
5230.858985568851
 20
1875.034411655985
 30
0.0000000001127424
 11
5233.458985568852
 21
1875.731079549985
 31
0.0000000001127424
  0
LINE
  5
FE07
330
18
100
AcDbEntity
  8
0
  6
BYBLOCK
100
AcDbLine
 10
5230.858985568851
 20
1875.034411655985
 30
0.0000000001127424
 11
5233.458985568852
 21
1875.034411655985
 31
0.0000000001127424
  0
LINE
  5
FE08
330
18
100
AcDbEntity
  8
0
  6
BYBLOCK
100
AcDbLine
 10
5368.239770849255
 20
1875.731079549985
 30
0.0000000001127424
 11
5370.839770849256
 21
1875.034411655985
 31
0.0000000001127424
  0
LINE
  5
FE09
330
18
100
AcDbEntity
  8
0
  6
BYBLOCK
100
AcDbLine
 10
5370.839770849256
 20
1875.034411655985
 30
0.0000000001127424
 11
5368.239770849255
 21
1874.337743761984
 31
0.0000000001127424
  0
LINE
  5
FE0A
330
18
100
AcDbEntity
  8
0
  6
BYBLOCK
100
AcDbLine
 10
5370.839770849256
 20
1875.034411655985
 30
0.0000000001127424
 11
5368.239770849255
 21
1875.034411655985
 31
0.0000000001127424
  0
TEXT
  5
FE0B
330
18
100
AcDbEntity
  8
1DIM
  6
CONTINUOUS
100
AcDbText
 10
5295.82541987572
 20
1875.944411655985
 30
0.0000000001127424
 40
4.55
  1
140
100
AcDbText
1001
ACAD
1000
DSTYLE
1002
{
1070
    40
1040
1.3
1070
    45
1040
0.5
1002
}
  0
LINE
  5
FE0C
330
18
100
AcDbEntity
  8
0
  6
BYBLOCK
100
AcDbLine
 10
5401.536438743256
 20
1936.127256925101
 30
0.0000000001127424
 11
5400.839770849256
 21
1933.527256925101
 31
0.0000000001127424
  0
LINE
  5
FE0D
330
18
100
AcDbEntity
  8
0
  6
BYBLOCK
100
AcDbLine
 10
5400.839770849256
 20
1933.527256925101
 30
0.0000000001127424
 11
5400.143102955256
 21
1936.127256925101
 31
0.0000000001127424
  0
LINE
  5
FE0E
330
18
100
AcDbEntity
  8
0
  6
BYBLOCK
100
AcDbLine
 10
5400.839770849256
 20
1933.527256925101
 30
0.0000000001127424
 11
5400.839770849256
 21
1936.127256925101
 31
0.0000000001127424
  0
LINE
  5
FE0F
330
18
100
AcDbEntity
  8
0
  6
BYBLOCK
100
AcDbLine
 10
5400.143102955256
 20
1967.434411655985
 30
0.0000000001127424
 11
5400.839770849256
 21
1970.034411655985
 31
0.0000000001127424
  0
LINE
  5
FE10
330
18
100
AcDbEntity
  8
0
  6
BYBLOCK
100
AcDbLine
 10
5400.839770849256
 20
1970.034411655985
 30
0.0000000001127424
 11
5401.536438743256
 21
1967.434411655985
 31
0.0000000001127424
  0
LINE
  5
FE11
330
18
100
AcDbEntity
  8
0
  6
BYBLOCK
100
AcDbLine
 10
5400.839770849256
 20
1970.034411655985
 30
0.0000000001127424
 11
5400.839770849256
 21
1967.434411655985
 31
0.0000000001127424
  0
TEXT
  5
FE12
330
18
100
AcDbEntity
  8
1DIM
  6
CONTINUOUS
100
AcDbText
 10
5399.929770849255
 20
1944.940035679432
 30
0.0000000001127424
 40
4.55
  1
36.5
 50
90.0
100
AcDbText
1001
ACAD
1000
DSTYLE
1002
{
1070
    40
1040
1.3
1070
    45
1040
0.5
1002
}
  0
LINE
  5
FE13
330
18
100
AcDbEntity
  8
0
  6
BYBLOCK
100
AcDbLine
 10
5411.536438743256
 20
1908.612692499766
 30
0.0000000001127424
 11
5410.839770849256
 21
1906.012692499766
 31
0.0000000001127424
  0
LINE
  5
FE14
330
18
100
AcDbEntity
  8
0
  6
BYBLOCK
100
AcDbLine
 10
5410.839770849256
 20
1906.012692499766
 30
0.0000000001127424
 11
5410.143102955256
 21
1908.612692499766
 31
0.0000000001127424
  0
LINE
  5
FE15
330
18
100
AcDbEntity
  8
0
  6
BYBLOCK
100
AcDbLine
 10
5410.839770849256
 20
1906.012692499766
 30
0.0000000001127424
 11
5410.839770849256
 21
1908.612692499766
 31
0.0000000001127424
  0
LINE
  5
FE16
330
18
100
AcDbEntity
  8
0
  6
BYBLOCK
100
AcDbLine
 10
5410.143102955256
 20
1967.434411655985
 30
0.0000000001127424
 11
5410.839770849256
 21
1970.034411655985
 31
0.0000000001127424
  0
LINE
  5
FE17
330
18
100
AcDbEntity
  8
0
  6
BYBLOCK
100
AcDbLine
 10
5410.839770849256
 20
1970.034411655985
 30
0.0000000001127424
 11
5411.536438743256
 21
1967.434411655985
 31
0.0000000001127424
  0
LINE
  5
FE18
330
18
100
AcDbEntity
  8
0
  6
BYBLOCK
100
AcDbLine
 10
5410.839770849256
 20
1970.034411655985
 30
0.0000000001127424
 11
5410.839770849256
 21
1967.434411655985
 31
0.0000000001127424
  0
TEXT
  5
FE19
330
18
100
AcDbEntity
  8
1DIM
  6
CONTINUOUS
100
AcDbText
 10
5409.929770849256
 20
1934.216086800098
 30
0.0000000001127424
 40
4.55
  1
64
 50
90.0
100
AcDbText
1001
ACAD
1000
DSTYLE
1002
{
1070
    40
1040
1.3
1070
    45
1040
0.5
1002
}
  0
VIEWPORT
  5
57
330
15
100
AcDbEntity
 67
     1
  8
0
100
AcDbViewport
 68
     1
 10
0.0
 20
0.0
 30
0.0
 40
555.8298653610772
 41
297.0
 68
     1
 69
     1
1001
ACAD
1000
MVIEW
1002
{
1070
    16
1010
0.0
1020
0.0
1030
0.0
1010
0.0
1020
0.0
1030
1.0
1040
0.0
1040
297.0
1040
5.728000000000009
1040
25.339
1040
50.0
1040
0.0
1040
0.0
1070
    16
1070
   100
1070
     0
1070
     1
1070
     0
1070
     0
1070
     0
1070
     0
1040
0.0
1040
0.0
1040
0.0
1040
10.0
1040
10.0
1040
10.0
1040
10.0
1070
     0
1002
{
1002
}
1002
}
  0
ENDSEC
  0
SECTION
  2
OBJECTS
  0
DICTIONARY
  5
C
330
0
100
AcDbDictionary
  3
ACAD_CIP_PREVIOUS_PRODUCT_INFO
350
AEA8
  3
ACAD_COLOR
350
18D
  3
ACAD_GROUP
350
D
  3
ACAD_LAYOUT
350
18E
  3
ACAD_MATERIAL
350
18C
  3
ACAD_MLEADERSTYLE
350
9583
  3
ACAD_MLINESTYLE
350
1B
  3
ACAD_PLOTSETTINGS
350
18F
  3
ACAD_SCALELIST
350
9561
  3
ACAD_VISUALSTYLE
350
9550
  3
ACDBHEADERROUNDTRIPXREC
350
FE1A
  3
ACDBVARIABLEDICTIONARY
350
37
  3
CONTENTDICTIONARY
350
D8
  3
DRAWINGVARIABLESDICT
350
20
  3
DWGPROPS
350
FE1D
1001
ACAD
1000
TREAT_AS_HARD
1070
     0
  0
DICTIONARY
  5
96D9
330
2
100
AcDbDictionary
  3
ACAD_LAYERSTATES
360
96DA
1001
ACAD
1000
TREAT_AS_HARD
1070
     1
  0
DICTIONARY
  5
9593
330
E
100
AcDbDictionary
  3
ADSK_XREC_LAYER_RECONCILED
360
9594
1001
ACAD
1000
TREAT_AS_HARD
1070
     1
  0
DICTIONARY
  5
9595
330
29
100
AcDbDictionary
  3
ADSK_XREC_LAYER_RECONCILED
360
9596
1001
ACAD
1000
TREAT_AS_HARD
1070
     1
  0
DICTIONARY
  5
9597
330
31
100
AcDbDictionary
  3
ADSK_XREC_LAYER_RECONCILED
360
9598
1001
ACAD
1000
TREAT_AS_HARD
1070
     1
  0
DICTIONARY
  5
959D
330
243
100
AcDbDictionary
  3
ADSK_XREC_LAYER_RECONCILED
360
959E
1001
ACAD
1000
TREAT_AS_HARD
1070
     1
  0
DICTIONARY
  5
95A3
330
24E
100
AcDbDictionary
  3
ADSK_XREC_LAYER_RECONCILED
360
95A4
1001
ACAD
1000
TREAT_AS_HARD
1070
     1
  0
DICTIONARY
  5
95AF
330
2C05
100
AcDbDictionary
  3
ADSK_XREC_LAYER_RECONCILED
360
95B0
1001
ACAD
1000
TREAT_AS_HARD
1070
     1
  0
DICTIONARY
  5
88F
330
18
100
AcDbDictionary
  3
ACAD_SORTENTS
360
890
1001
ACAD
1000
TREAT_AS_HARD
1070
     1
  0
XRECORD
  5
AEA8
102
{ACAD_REACTORS
330
C
102
}
330
C
100
AcDbXrecord
300
ACDLT
300
2012
300
ACDLT_F_S
  0
DICTIONARY
  5
18D
102
{ACAD_REACTORS
330
C
102
}
330
C
100
AcDbDictionary
1001
ACAD
1000
TREAT_AS_HARD
1070
     0
  0
DICTIONARY
  5
D
102
{ACAD_REACTORS
330
C
102
}
330
C
100
AcDbDictionary
1001
ACAD
1000
TREAT_AS_HARD
1070
     0
  0
DICTIONARY
  5
18E
102
{ACAD_REACTORS
330
C
102
}
330
C
100
AcDbDictionary
1001
ACAD
1000
TREAT_AS_HARD
1070
     0
  0
DICTIONARY
  5
18C
102
{ACAD_REACTORS
330
C
102
}
330
C
100
AcDbDictionary
  3
BYBLOCK
350
9540
  3
BYLAYER
350
9538
  3
GLOBAL
350
9548
1001
ACAD
1000
TREAT_AS_HARD
1070
     0
  0
DICTIONARY
  5
9583
102
{ACAD_REACTORS
330
C
102
}
330
C
100
AcDbDictionary
  3
STANDARD
350
9584
1001
ACAD
1000
TREAT_AS_HARD
1070
     0
  0
DICTIONARY
  5
1B
102
{ACAD_REACTORS
330
C
102
}
330
C
100
AcDbDictionary
  3
STANDARD
350
1C
1001
ACAD
1000
TREAT_AS_HARD
1070
     0
  0
DICTIONARY
  5
18F
102
{ACAD_REACTORS
330
C
102
}
330
C
100
AcDbDictionary
1001
ACAD
1000
TREAT_AS_HARD
1070
     0
  0
DICTIONARY
  5
9561
102
{ACAD_REACTORS
330
C
102
}
330
C
100
AcDbDictionary
  3
A0
350
9562
  3
A1
350
9563
  3
A2
350
9564
  3
A3
350
9565
  3
A4
350
9566
  3
A5
350
9567
  3
A6
350
9568
  3
A7
350
9569
  3
A8
350
956A
  3
A9
350
956B
  3
B0
350
956C
  3
B1
350
956D
  3
B2
350
956E
  3
B3
350
956F
  3
B4
350
9570
  3
B5
350
9571
  3
B6
350
9572
  3
B7
350
9573
  3
B8
350
9574
  3
B9
350
9575
  3
C0
350
9576
  3
C1
350
9577
  3
C2
350
9578
  3
C3
350
9579
  3
C4
350
957A
  3
C5
350
957B
  3
C6
350
957C
  3
C7
350
957D
  3
C8
350
957E
  3
C9
350
957F
  3
D0
350
9580
  3
D1
350
9581
  3
D2
350
9582
1001
ACAD
1000
TREAT_AS_HARD
1070
     0
  0
DICTIONARY
  5
9550
102
{ACAD_REACTORS
330
C
102
}
330
C
100
AcDbDictionary
  3
2DWIREFRAME
350
9556
  3
3D_HIDDEN
350
9558
  3
3DWIREFRAME
350
9557
  3
BASIC
350
9555
  3
BRIGHTEN
350
955C
  3
COLORCHANGE
350
9560
  3
CONCEPTUAL
350
9559
  3
DIM
350
955B
  3
EDGECOLOROFF
350
A211
  3
FACEPATTERN
350
955F
  3
FLAT
350
9551
  3
FLATWITHEDGES
350
9552
  3
GOURAUD
350
9553
  3
GOURAUDWITHEDGES
350
9554
  3
HIDDEN
350
A260
  3
JITTEROFF
350
A20F
  3
LINEPATTERN
350
955E
  3
MODELING
350
A266
  3
OVERHANGOFF
350
A210
  3
REALISTIC
350
955A
  3
SHADED
350
A265
  3
SHADED_WITH_EDGES
350
A264
  3
SHADES_OF_GRAY
350
A261
  3
SKETCHY
350
A262
  3
THICKEN
350
955D
  3
WIREFRAME
350
A25F
  3
X-RAY
350
A263
1001
ACAD
1000
TREAT_AS_HARD
1070
     0
  0
DICTIONARY
  5
FE1A
102
{ACAD_REACTORS
330
C
102
}
330
C
100
AcDbDictionary
  3
COLORDICT
350
FE1B
  3
MATERIALDICT
350
FE1C
1001
ACAD
1000
TREAT_AS_HARD
1070
     0
  0
DICTIONARY
  5
37
102
{ACAD_REACTORS
330
C
102
}
330
C
100
AcDbDictionary
  3
CANNOSCALE
350
AAE0
  3
CMLEADERSTYLE
350
9627
  3
CTABLESTYLE
350
29E
  3
DIMADEC
350
38
  3
DIMASSOC
350
1CE
  3
HIDETEXT
350
704E
  3
INDEXCTL
350
962A
  3
INTERSECTIONCOLOR
350
7052
  3
INTERSECTIONDISPLAY
350
7051
  3
MSLTSCALE
350
AB30
  3
OBSCOLOR
350
704F
  3
OBSLTYPE
350
7050
  3
PROJECTNAME
350
1CF
  3
SORTENTS
350
9629
  3
XCLIPFRAME
350
FC81
1001
ACAD
1000
TREAT_AS_HARD
1070
     0
  0
DICTIONARY
  5
D8
102
{ACAD_REACTORS
330
C
102
}
330
C
100
AcDbDictionary
1001
ACAD
1000
TREAT_AS_HARD
1070
     0
  0
DICTIONARY
  5
20
102
{ACAD_REACTORS
330
C
102
}
330
C
100
AcDbDictionary
1001
DRAWINGVARIABLESXDATA
1000
POLARANG
1000
0.261799387799149410000000
1000
POLARMODE
1000
1
1000
POLARSTYLE
1000
1
1001
ACAD
1000
TREAT_AS_HARD
1070
     0
  0
XRECORD
  5
FE1D
102
{ACAD_REACTORS
330
C
102
}
330
C
100
AcDbXrecord
  1
DWGPROPS COOKIE
  2

  3

  4

  6

  7

  8
3684
  9

300
=
301
=
302
=
303
=
304
=
305
=
306
=
307
=
308
=
309
=
 40
0.0
 41
2451318.246352917
 42
2458159.060577662
  1

 90
        0
  0
DICTIONARY
  5
96DA
102
{ACAD_REACTORS
330
96D9
102
}
330
96D9
100
AcDbDictionary
1001
ACAD
1000
TREAT_AS_HARD
1070
     0
  0
ACAD_PROXY_OBJECT
  5
9594
102
{ACAD_REACTORS
330
9593
102
}
330
9593
100
AcDbZombieObject
 90
      499
 91
      514
 93
       34
310
40C8804040
  0
ACAD_PROXY_OBJECT
  5
9596
102
{ACAD_REACTORS
330
9595
102
}
330
9595
100
AcDbZombieObject
 90
      499
 91
      514
 93
       34
310
40C8804040
  0
ACAD_PROXY_OBJECT
  5
9598
102
{ACAD_REACTORS
330
9597
102
}
330
9597
100
AcDbZombieObject
 90
      499
 91
      514
 93
       34
310
40C8804040
  0
ACAD_PROXY_OBJECT
  5
959E
102
{ACAD_REACTORS
330
959D
102
}
330
959D
100
AcDbZombieObject
 90
      499
 91
      514
 93
       34
310
40C8804040
  0
ACAD_PROXY_OBJECT
  5
95A4
102
{ACAD_REACTORS
330
95A3
102
}
330
95A3
100
AcDbZombieObject
 90
      499
 91
      514
 93
       34
310
40C8804040
  0
ACAD_PROXY_OBJECT
  5
95B0
102
{ACAD_REACTORS
330
95AF
102
}
330
95AF
100
AcDbZombieObject
 90
      499
 91
      514
 93
       34
310
40C8804040
  0
SORTENTSTABLE
  5
890
102
{ACAD_REACTORS
330
88F
102
}
330
88F
100
AcDbSortentsTable
330
18
331
0
  5
EF2E
331
EF08
  5
EF3C
331
EF09
  5
EF3D
331
EF0A
  5
EF3E
331
EF0B
  5
EF3F
331
EF0C
  5
EF40
331
EF0D
  5
EF41
331
EF0E
  5
EF42
331
EF0F
  5
EF43
331
EF10
  5
EF44
331
EF11
  5
EF45
331
EF12
  5
EF46
331
EF13
  5
EF47
331
EF14
  5
EF48
331
EF15
  5
EF49
331
EF16
  5
EF4A
331
EF17
  5
EF4B
331
EF18
  5
EF4C
331
EF19
  5
EF4D
331
EF1A
  5
EF4E
331
EF1B
  5
EF4F
331
EF1C
  5
EF50
331
EF1D
  5
EF51
331
EF1E
  5
EF52
331
EF1F
  5
EF53
331
EF20
  5
EF54
331
EF21
  5
EF55
331
EF22
  5
EF56
331
EF23
  5
EF57
331
EF24
  5
EF58
331
EF25
  5
EF59
331
EF26
  5
EF5A
331
EF27
  5
EF5B
331
EF28
  5
EF5C
331
EF29
  5
EF5D
331
EF2A
  5
EF5E
331
EF2B
  5
EF5F
331
EF2C
  5
EF60
331
EF2D
  5
EF61
331
EF2E
  5
EF62
331
EF2F
  5
EF63
331
EF30
  5
EF64
331
EF31
  5
EF65
331
EF32
  5
EF66
331
EF33
  5
EF67
331
EF34
  5
EF68
331
EF35
  5
EF69
331
EF36
  5
EF6A
331
EF37
  5
EF6B
331
EF38
  5
EF6C
331
EF39
  5
EF6D
331
EF3A
  5
EF6E
331
EF3B
  5
EF6F
331
EF3C
  5
F0EB
331
EF3D
  5
F0ED
331
EF3E
  5
F0EE
331
EF3F
  5
F0EF
331
EF40
  5
F0F3
331
EF41
  5
F0F4
331
EF42
  5
F0F5
331
EF43
  5
F0F6
331
EF44
  5
F0F7
331
EF45
  5
F0F8
331
EF46
  5
F0F9
331
EF47
  5
F0FA
331
EF48
  5
F0FB
331
EF49
  5
F0FC
331
EF4A
  5
F0FD
331
EF4B
  5
F0FE
331
EF4C
  5
F0FF
331
EF4D
  5
F100
331
EF4E
  5
F101
331
EF4F
  5
F102
331
EF50
  5
F103
331
EF51
  5
F107
331
EF52
  5
F108
331
EF53
  5
F109
331
EF54
  5
F10A
331
EF55
  5
F10B
331
EF56
  5
F10C
331
EF57
  5
F110
331
EF58
  5
F111
331
EF59
  5
F112
331
EF5A
  5
F113
331
EF5B
  5
F114
331
EF5C
  5
F115
331
EF5D
  5
F119
331
EF5E
  5
F11A
331
EF5F
  5
F11B
331
EF60
  5
F11F
331
EF61
  5
F120
331
EF62
  5
F121
331
EF63
  5
F125
331
EF64
  5
F126
331
EF65
  5
F127
331
EF66
  5
F128
331
EF67
  5
F129
331
EF68
  5
F12A
331
EF69
  5
F12B
331
EF6A
  5
F12C
331
EF6B
  5
F12D
331
EF6C
  5
F12E
331
EF6D
  5
F12F
331
EF6E
  5
F130
331
EF6F
  5
F132
331
0
  5
F131
331
F0ED
  5
F14B
331
F0EE
  5
F14C
331
F0EF
  5
F14D
331
F0F3
  5
F16F
331
F0F4
  5
F170
331
F0F5
  5
F171
331
F0F6
  5
F172
331
F0F7
  5
F173
331
F0F8
  5
F174
331
F0F9
  5
F175
331
F0FA
  5
F176
331
F0FB
  5
F177
331
F0FC
  5
F178
331
F0FD
  5
F179
331
F0FE
  5
F17A
331
F0FF
  5
F17B
331
F100
  5
F17C
331
F101
  5
F17D
331
F102
  5
F17E
331
F103
  5
F17F
331
F104
  5
F180
331
F105
  5
F181
331
F106
  5
F182
331
F107
  5
F183
331
F108
  5
F184
331
F109
  5
F185
331
F10A
  5
F186
331
F10B
  5
F187
331
F10C
  5
F188
331
F10D
  5
F189
331
F10E
  5
F18A
331
F10F
  5
F18B
331
F110
  5
F18C
331
F111
  5
F18D
331
F112
  5
F18E
331
F113
  5
F18F
331
F114
  5
F193
331
F115
  5
F194
331
F116
  5
F195
331
F117
  5
F199
331
F118
  5
F19A
331
F119
  5
F19B
331
F11A
  5
F19F
331
F11B
  5
F1A0
331
F11C
  5
F1A1
331
F11D
  5
F1A2
331
F11E
  5
F1A3
331
F11F
  5
F1A4
331
F120
  5
F1A5
331
F121
  5
F1A6
331
F122
  5
F1A7
331
F123
  5
F1A8
331
F124
  5
F1AA
331
F125
  5
F1AB
331
F126
  5
F1AC
331
F127
  5
F1AD
331
F128
  5
F1AE
331
F129
  5
F1AF
331
F12A
  5
F1B0
331
F12B
  5
F1B1
331
F12C
  5
F1B2
331
F12D
  5
F1B3
331
F12E
  5
F1B4
331
F12F
  5
F1B8
331
F130
  5
F1B9
331
F131
  5
F1BA
331
F132
  5
F1BB
331
0
  5
F1A9
331
F134
  5
F1C7
331
F135
  5
F1C8
331
F136
  5
F1C9
331
F137
  5
F1CA
331
F138
  5
F1CB
331
F139
  5
F1CC
331
F13A
  5
F1CD
331
F13B
  5
F1CE
331
F13C
  5
F1CF
331
F13D
  5
F1D0
331
F13E
  5
F1D1
331
F13F
  5
F1D2
331
F140
  5
F1D3
331
F141
  5
F1D5
331
F142
  5
F1D6
331
F143
  5
F1D7
331
F144
  5
F1D8
331
F145
  5
F1D9
331
F146
  5
F1DA
331
F147
  5
F1DB
331
F148
  5
F1DC
331
F149
  5
F1DD
331
F14A
  5
F1DE
331
F14B
  5
F1DF
331
F14C
  5
F1E0
331
F14D
  5
F1E1
331
F14E
  5
F1E2
331
F14F
  5
F1E3
331
F150
  5
F1E4
331
F151
  5
F1E5
331
F152
  5
F1E6
331
F153
  5
F1E7
331
F154
  5
F1E8
331
F155
  5
F1E9
331
F156
  5
F1EA
331
F157
  5
F1EB
331
F15B
  5
F20D
331
F15C
  5
F20E
331
F15D
  5
F20F
331
F15E
  5
F210
331
F15F
  5
F211
331
F160
  5
F212
331
F161
  5
F213
331
F162
  5
F214
331
F163
  5
F215
331
F164
  5
F216
331
F165
  5
F217
331
F166
  5
F218
331
F167
  5
F219
331
F168
  5
F21A
331
F169
  5
F21B
331
F16A
  5
F21C
331
F16B
  5
F21D
331
F16C
  5
F21E
331
F16D
  5
F21F
331
F16E
  5
F220
331
F16F
  5
F221
331
F170
  5
F222
331
F171
  5
F223
331
F172
  5
F224
331
F173
  5
F225
331
F174
  5
F226
331
F175
  5
F227
331
F176
  5
F228
331
F177
  5
F229
331
F178
  5
F22A
331
F179
  5
F22B
331
F17A
  5
F22C
331
F17B
  5
F22D
331
F17C
  5
F22E
331
F17D
  5
F22F
331
F17E
  5
F230
331
F17F
  5
F231
331
F180
  5
F232
331
F181
  5
F233
331
F182
  5
F234
331
F183
  5
F235
331
F184
  5
F236
331
F185
  5
F237
331
F186
  5
F238
331
F187
  5
F239
331
F188
  5
F23A
331
F189
  5
F23B
331
F18A
  5
F23C
331
F18B
  5
F23D
331
F18C
  5
F23E
331
F18D
  5
F23F
331
F18E
  5
F240
331
F18F
  5
F241
331
F190
  5
F242
331
F191
  5
F243
331
F192
  5
F244
331
F193
  5
F245
331
F194
  5
F246
331
F195
  5
F247
331
F196
  5
F248
331
F197
  5
F249
331
F198
  5
F24A
331
F199
  5
F24B
331
F19A
  5
F591
331
F19B
  5
F592
331
F19C
  5
F593
331
F19D
  5
F594
331
F19E
  5
F595
331
F19F
  5
F596
331
F1A0
  5
F597
331
F1A1
  5
F598
331
F1A2
  5
F599
331
F1A3
  5
F59A
331
F1A4
  5
F59B
331
F1A5
  5
F59C
331
F1A6
  5
F59D
331
F1A7
  5
F59E
331
F1A8
  5
F59F
331
F1A9
  5
F5A0
331
F1AA
  5
F5A1
331
F1AB
  5
FD1F
331
F1AC
  5
FD20
331
F1AD
  5
FD21
331
F1AE
  5
FD22
331
F1AF
  5
FD23
331
F1B0
  5
FD24
331
F1B1
  5
FD25
331
F1B2
  5
FD26
331
F1B3
  5
FD27
331
F1B4
  5
FD28
331
F1B5
  5
FD29
331
F1B6
  5
FD2A
331
F1B7
  5
FD2B
331
F1B8
  5
FD2C
331
F1B9
  5
FD2D
331
F1BA
  5
FD2E
331
F1BB
  5
FD2F
331
F1BC
  5
FD30
331
F1BD
  5
FD31
331
F1BF
  5
FD3C
331
F1C0
  5
FD3D
331
F1C1
  5
FD3E
331
F1C2
  5
FD3F
331
F1C3
  5
FD40
331
F1C4
  5
FD41
331
F1C5
  5
FD42
331
F1C6
  5
FD43
331
F1C7
  5
FD44
331
F1C8
  5
FD45
331
F1C9
  5
FD46
331
F1CA
  5
FD47
331
F1CB
  5
FD48
331
F1CC
  5
FD49
331
F1CD
  5
FD4A
331
F1CE
  5
FD4B
331
F1CF
  5
FD4C
331
F1D0
  5
FD4D
331
F1D1
  5
FD4E
331
F1D2
  5
FD4F
331
F1D3
  5
FD50
331
F1D5
  5
FD51
331
F1D6
  5
FD52
331
F1D7
  5
FD53
331
F1D8
  5
FD54
331
F1D9
  5
FD55
331
F1DA
  5
FD56
331
F1DB
  5
FD57
331
F1DC
  5
FD58
331
F1DD
  5
FD59
331
F1DE
  5
FD5A
331
F1DF
  5
FD5B
331
F1E0
  5
FD5C
331
F1E1
  5
FD5D
331
F1E2
  5
FD5E
331
F1E3
  5
FD5F
331
F1E4
  5
FD60
331
F1E5
  5
FD62
331
F1E6
  5
FD63
331
F1E7
  5
FD64
331
F1E8
  5
FD65
331
F1E9
  5
FD66
331
F1EA
  5
FD67
331
F1EB
  5
FD68
331
F1EC
  5
FD69
331
F1ED
  5
FD6A
331
F1EE
  5
FD6B
331
F1EF
  5
FD6C
331
F1F0
  5
FD6D
331
F1F1
  5
FD6E
331
F1F2
  5
FD6F
331
F1F3
  5
FD70
331
F1F4
  5
FD71
331
F1F5
  5
FD76
331
F1F6
  5
FD7A
331
F1F7
  5
FD7B
331
F1F8
  5
FD7C
331
F1F9
  5
FD7D
331
F1FA
  5
FD7E
331
F1FB
  5
FD7F
331
F1FC
  5
FD80
331
F1FD
  5
FD81
331
F1FE
  5
FD82
331
F1FF
  5
FD83
331
F200
  5
FD84
331
0
  5
FD61
331
F202
  5
FD92
331
F203
  5
FD96
331
F204
  5
FD97
331
F205
  5
FD98
331
F206
  5
FD9C
331
F207
  5
FD9D
331
F208
  5
FD9E
331
F209
  5
FDA2
331
F20A
  5
FDA3
331
F20B
  5
FDA4
331
F20C
  5
FDA5
331
F20D
  5
FDA6
331
F20E
  5
FDA7
331
F20F
  5
FDA8
331
F210
  5
FDA9
331
F211
  5
FDAA
331
0
  5
FD72
331
0
  5
FD73
331
0
  5
FD74
331
0
  5
FD75
331
F216
  5
FDD3
331
F217
  5
FDD4
331
F218
  5
FDD5
331
F219
  5
FDD6
331
F21A
  5
FDD7
331
F21B
  5
FDD8
331
F21C
  5
FDD9
331
F21D
  5
FDDA
331
F21E
  5
FDDB
331
F21F
  5
FDDC
331
F220
  5
FDDD
331
F221
  5
FDDE
331
F222
  5
FDDF
331
F223
  5
FDE0
331
F224
  5
FDE1
331
F225
  5
FDE2
331
F226
  5
FDE3
331
F227
  5
FDE4
331
F228
  5
FDE5
331
F229
  5
FDE6
331
F22A
  5
FDE7
331
F22B
  5
FDE8
331
F22C
  5
FDE9
331
F22D
  5
FDEA
331
F22E
  5
FDEB
331
F22F
  5
FDEC
331
F230
  5
FDED
331
F231
  5
FDEE
331
F232
  5
FDEF
331
F233
  5
FDF0
331
F234
  5
FDF1
331
F235
  5
FDF2
331
F236
  5
FDF3
331
F237
  5
FDF4
331
F238
  5
FDF5
331
F239
  5
FDF6
331
F23A
  5
FDF7
331
F23B
  5
FDF8
331
F23C
  5
FDF9
331
F23D
  5
FDFA
331
F23E
  5
FDFB
331
F23F
  5
FDFC
331
F240
  5
FDFD
331
F241
  5
FDFE
331
F242
  5
FDFF
331
F243
  5
FE00
331
F244
  5
FE01
331
F245
  5
FE02
331
F246
  5
FE03
331
F247
  5
FE04
331
F248
  5
FE05
331
F249
  5
FE06
331
F24A
  5
FE07
331
F24B
  5
FE08
331
F591
  5
FE09
331
F592
  5
FE0A
331
F593
  5
FE0B
331
F594
  5
FE0C
331
F595
  5
FE0D
331
F596
  5
FE0E
331
F597
  5
FE0F
331
F598
  5
FE10
331
F599
  5
FE11
331
F59A
  5
FE12
331
F59B
  5
FE13
331
F59C
  5
FE14
331
F59D
  5
FE15
331
F59E
  5
FE16
331
F59F
  5
FE17
331
F5A0
  5
FE18
331
F5A1
  5
FE19
331
FD1F
  5
EE75
331
FD20
  5
EF08
331
FD21
  5
EF09
331
0
  5
EF0A
331
0
  5
EF0B
331
0
  5
EF0C
331
FD25
  5
EF1A
331
FD26
  5
EF1B
331
FD27
  5
EF1C
331
0
  5
EF10
331
0
  5
EF11
331
0
  5
EF12
331
FD2B
  5
EF24
331
FD2C
  5
EF25
331
FD2D
  5
EF26
331
0
  5
EF16
331
0
  5
EF17
331
0
  5
EF18
331
FD31
  5
F133
331
FD32
  5
F134
331
FD33
  5
F135
331
0
  5
F104
331
0
  5
F105
331
0
  5
F106
331
FD37
  5
F13D
331
FD38
  5
F13E
331
FD39
  5
F141
331
FD3A
  5
F142
331
FD3B
  5
F143
331
0
  5
F10D
331
0
  5
F10E
331
0
  5
F10F
331
FD3F
  5
F14E
331
FD40
  5
F14F
331
FD41
  5
F150
331
0
  5
F116
331
0
  5
F117
331
0
  5
F118
331
FD45
  5
F15B
331
FD46
  5
F15C
331
FD47
  5
F15D
331
0
  5
F11C
331
0
  5
F11D
331
0
  5
F11E
331
FD4B
  5
F165
331
FD4C
  5
F166
331
FD4D
  5
F167
331
0
  5
F122
331
0
  5
F123
331
0
  5
F124
331
FD51
  5
F1EC
331
FD52
  5
F1ED
331
FD53
  5
F1EE
331
0
  5
F190
331
0
  5
F191
331
0
  5
F192
331
FD57
  5
F1F6
331
FD58
  5
F1F7
331
FD59
  5
F1F8
331
0
  5
F196
331
0
  5
F197
331
0
  5
F198
331
FD5D
  5
F200
331
FD5E
  5
F201
331
FD5F
  5
F202
331
0
  5
F19C
331
0
  5
F19D
331
0
  5
F19E
331
FD63
  5
FD32
331
FD64
  5
FD33
331
FD65
  5
FD34
331
0
  5
F207
331
0
  5
F208
331
0
  5
F209
331
FD69
  5
EF0D
331
FD6A
  5
EF0E
331
FD6B
  5
EF0F
331
FD6C
  5
EF13
331
FD6D
  5
EF14
331
FD6E
  5
EF15
331
FD6F
  5
EF19
331
FD70
  5
EF1D
331
FD71
  5
EF1E
331
FD72
  5
EF1F
331
FD73
  5
EF20
331
FD74
  5
EF21
331
FD75
  5
EF22
331
FD76
  5
EF23
331
FD77
  5
EF27
331
FD78
  5
EF28
331
FD79
  5
EF29
331
FD7A
  5
EF2A
331
FD7B
  5
EF2B
331
FD7C
  5
EF2C
331
FD7D
  5
EF2D
331
FD7E
  5
F136
331
FD7F
  5
F137
331
FD80
  5
F138
331
FD81
  5
F139
331
FD82
  5
F13A
331
FD83
  5
F13B
331
FD84
  5
F13C
331
FD85
  5
F144
331
FD86
  5
F145
331
FD87
  5
F146
331
FD88
  5
F147
331
FD89
  5
F148
331
FD8A
  5
F149
331
FD8B
  5
F14A
331
FD8C
  5
F151
331
FD8D
  5
F152
331
FD8E
  5
F153
331
FD8F
  5
F154
331
FD90
  5
F155
331
FD91
  5
F156
331
FD92
  5
F157
331
FD93
  5
F15E
331
FD94
  5
F15F
331
FD95
  5
F160
331
FD96
  5
F161
331
FD97
  5
F162
331
FD98
  5
F163
331
FD99
  5
F164
331
FD9A
  5
F168
331
FD9B
  5
F169
331
FD9C
  5
F16A
331
FD9D
  5
F16B
331
FD9E
  5
F16C
331
FD9F
  5
F16D
331
FDA0
  5
F16E
331
FDA1
  5
F1EF
331
FDA2
  5
F1F0
331
FDA3
  5
F1F1
331
FDA4
  5
F1F2
331
FDA5
  5
F1F3
331
FDA6
  5
F1F4
331
FDA7
  5
F1F5
331
FDA8
  5
F1F9
331
FDA9
  5
F1FA
331
FDAA
  5
F1FB
331
FDAB
  5
F1FC
331
FDAC
  5
F1FD
331
FDAD
  5
F1FE
331
FDAE
  5
F1FF
331
FDAF
  5
F203
331
FDB0
  5
F204
331
FDB1
  5
F205
331
FDB2
  5
F206
331
FDB3
  5
F20A
331
FDB4
  5
F20B
331
FDB5
  5
F20C
331
FDB6
  5
FD35
331
FDB7
  5
FD36
331
FDB8
  5
FD37
331
FDB9
  5
FD38
331
FDBA
  5
FD39
331
FDBB
  5
FD3A
331
FDBC
  5
FD3B
331
FDBD
  5
EF2F
331
FDBE
  5
EF30
331
FDBF
  5
EF31
331
0
  5
EF32
331
0
  5
EF33
331
0
  5
EF34
331
FDC3
  5
F13F
331
FDC4
  5
F140
331
FDC5
  5
F1BC
331
FDC6
  5
F1BD
331
FDC7
  5
F1BF
331
0
  5
F1B5
331
0
  5
F1B6
331
0
  5
F1B7
331
FDCB
  5
FD85
331
FDCC
  5
FD86
331
FDCD
  5
FD87
331
0
  5
FD77
331
0
  5
FD78
331
0
  5
FD79
331
FDD1
  5
FDAB
331
FDD2
  5
FDAC
331
FDD3
  5
FDAD
331
0
  5
FD8D
331
0
  5
FD8E
331
0
  5
FD8F
331
FDD7
  5
FDB5
331
FDD8
  5
FDB6
331
FDD9
  5
FDB7
331
0
  5
FD93
331
0
  5
FD94
331
0
  5
FD95
331
FDDD
  5
FDBF
331
FDDE
  5
FDC0
331
FDDF
  5
FDC1
331
0
  5
FD99
331
0
  5
FD9A
331
0
  5
FD9B
331
FDE3
  5
FDC9
331
FDE4
  5
FDCA
331
FDE5
  5
FDCB
331
0
  5
FD9F
331
0
  5
FDA0
331
0
  5
FDA1
331
FDE9
  5
EF35
331
FDEA
  5
EF36
331
FDEB
  5
EF37
331
FDEC
  5
EF38
331
FDED
  5
EF39
331
FDEE
  5
EF3A
331
FDEF
  5
EF3B
331
FDF0
  5
F1C0
331
FDF1
  5
F1C1
331
FDF2
  5
F1C2
331
FDF3
  5
F1C3
331
FDF4
  5
F1C4
331
FDF5
  5
F1C5
331
FDF6
  5
F1C6
331
FDF7
  5
FD88
331
FDF8
  5
FD89
331
FDF9
  5
FD8A
331
FDFA
  5
FD8B
331
FDFB
  5
FD8C
331
FDFC
  5
FD90
331
FDFD
  5
FD91
331
FDFE
  5
FDAE
331
FDFF
  5
FDAF
331
FE00
  5
FDB0
331
FE01
  5
FDB1
331
FE02
  5
FDB2
331
FE03
  5
FDB3
331
FE04
  5
FDB4
331
FE05
  5
FDB8
331
FE06
  5
FDB9
331
FE07
  5
FDBA
331
FE08
  5
FDBB
331
FE09
  5
FDBC
331
FE0A
  5
FDBD
331
FE0B
  5
FDBE
331
FE0C
  5
FDC2
331
FE0D
  5
FDC3
331
FE0E
  5
FDC4
331
FE0F
  5
FDC5
331
FE10
  5
FDC6
331
FE11
  5
FDC7
331
FE12
  5
FDC8
331
FE13
  5
FDCC
331
FE14
  5
FDCD
331
FE15
  5
FDCE
331
FE16
  5
FDCF
331
FE17
  5
FDD0
331
FE18
  5
FDD1
331
FE19
  5
FDD2
  0
MATERIAL
  5
9540
102
{ACAD_REACTORS
330
18C
102
}
102
{ACAD_XDICTIONARY
360
FFB8
102
}
330
18C
100
AcDbMaterial
  1
BYBLOCK
 72
     0
 73
     2
 43
0.0208333333333333
 43
0.0
 43
0.0
 43
0.0
 43
0.0
 43
0.0208333333333333
 43
0.0
 43
0.0
 43
0.0
 43
0.0
 43
1.0
 43
0.0
 43
0.0
 43
0.0
 43
0.0
 43
1.0
 77
     0
 78
     2
 47
0.0208333333333333
 47
0.0
 47
0.0
 47
0.0
 47
0.0
 47
0.0208333333333333
 47
0.0
 47
0.0
 47
0.0
 47
0.0
 47
1.0
 47
0.0
 47
0.0
 47
0.0
 47
0.0
 47
1.0
171
     0
172
     2
 49
0.0208333333333333
 49
0.0
 49
0.0
 49
0.0
 49
0.0
 49
0.0208333333333333
 49
0.0
 49
0.0
 49
0.0
 49
0.0
 49
1.0
 49
0.0
 49
0.0
 49
0.0
 49
0.0
 49
1.0
175
     0
176
     2
142
0.0208333333333333
142
0.0
142
0.0
142
0.0
142
0.0
142
0.0208333333333333
142
0.0
142
0.0
142
0.0
142
0.0
142
1.0
142
0.0
142
0.0
142
0.0
142
0.0
142
1.0
179
     0
270
     2
144
0.0208333333333333
144
0.0
144
0.0
144
0.0
144
0.0
144
0.0208333333333333
144
0.0
144
0.0
144
0.0
144
0.0
144
1.0
144
0.0
144
0.0
144
0.0
144
0.0
144
1.0
274
     2
147
0.0208333333333333
147
0.0
147
0.0
147
0.0
147
0.0
147
0.0208333333333333
147
0.0
147
0.0
147
0.0
147
0.0
147
1.0
147
0.0
147
0.0
147
0.0
147
0.0
147
1.0
  0
MATERIAL
  5
9538
102
{ACAD_REACTORS
330
18C
102
}
102
{ACAD_XDICTIONARY
360
FFBA
102
}
330
18C
100
AcDbMaterial
  1
BYLAYER
 72
     0
 73
     2
 43
0.0208333333333333
 43
0.0
 43
0.0
 43
0.0
 43
0.0
 43
0.0208333333333333
 43
0.0
 43
0.0
 43
0.0
 43
0.0
 43
1.0
 43
0.0
 43
0.0
 43
0.0
 43
0.0
 43
1.0
 77
     0
 78
     2
 47
0.0208333333333333
 47
0.0
 47
0.0
 47
0.0
 47
0.0
 47
0.0208333333333333
 47
0.0
 47
0.0
 47
0.0
 47
0.0
 47
1.0
 47
0.0
 47
0.0
 47
0.0
 47
0.0
 47
1.0
171
     0
172
     2
 49
0.0208333333333333
 49
0.0
 49
0.0
 49
0.0
 49
0.0
 49
0.0208333333333333
 49
0.0
 49
0.0
 49
0.0
 49
0.0
 49
1.0
 49
0.0
 49
0.0
 49
0.0
 49
0.0
 49
1.0
175
     0
176
     2
142
0.0208333333333333
142
0.0
142
0.0
142
0.0
142
0.0
142
0.0208333333333333
142
0.0
142
0.0
142
0.0
142
0.0
142
1.0
142
0.0
142
0.0
142
0.0
142
0.0
142
1.0
179
     0
270
     2
144
0.0208333333333333
144
0.0
144
0.0
144
0.0
144
0.0
144
0.0208333333333333
144
0.0
144
0.0
144
0.0
144
0.0
144
1.0
144
0.0
144
0.0
144
0.0
144
0.0
144
1.0
274
     2
147
0.0208333333333333
147
0.0
147
0.0
147
0.0
147
0.0
147
0.0208333333333333
147
0.0
147
0.0
147
0.0
147
0.0
147
1.0
147
0.0
147
0.0
147
0.0
147
0.0
147
1.0
  0
MATERIAL
  5
9548
102
{ACAD_REACTORS
330
18C
102
}
102
{ACAD_XDICTIONARY
360
FFBC
102
}
330
18C
100
AcDbMaterial
  1
GLOBAL
 72
     0
 73
     2
 43
0.0208333333333333
 43
0.0
 43
0.0
 43
0.0
 43
0.0
 43
0.0208333333333333
 43
0.0
 43
0.0
 43
0.0
 43
0.0
 43
1.0
 43
0.0
 43
0.0
 43
0.0
 43
0.0
 43
1.0
 77
     0
 78
     2
 47
0.0208333333333333
 47
0.0
 47
0.0
 47
0.0
 47
0.0
 47
0.0208333333333333
 47
0.0
 47
0.0
 47
0.0
 47
0.0
 47
1.0
 47
0.0
 47
0.0
 47
0.0
 47
0.0
 47
1.0
171
     0
172
     2
 49
0.0208333333333333
 49
0.0
 49
0.0
 49
0.0
 49
0.0
 49
0.0208333333333333
 49
0.0
 49
0.0
 49
0.0
 49
0.0
 49
1.0
 49
0.0
 49
0.0
 49
0.0
 49
0.0
 49
1.0
175
     0
176
     2
142
0.0208333333333333
142
0.0
142
0.0
142
0.0
142
0.0
142
0.0208333333333333
142
0.0
142
0.0
142
0.0
142
0.0
142
1.0
142
0.0
142
0.0
142
0.0
142
0.0
142
1.0
179
     0
270
     2
144
0.0208333333333333
144
0.0
144
0.0
144
0.0
144
0.0
144
0.0208333333333333
144
0.0
144
0.0
144
0.0
144
0.0
144
1.0
144
0.0
144
0.0
144
0.0
144
0.0
144
1.0
274
     2
147
0.0208333333333333
147
0.0
147
0.0
147
0.0
147
0.0
147
0.0208333333333333
147
0.0
147
0.0
147
0.0
147
0.0
147
1.0
147
0.0
147
0.0
147
0.0
147
0.0
147
1.0
  0
ACAD_PROXY_OBJECT
  5
9584
102
{ACAD_REACTORS
330
9583
102
}
330
9583
100
AcDbZombieObject
 90
      499
 91
      511
 93
      610
310
40901902A4063FBFFFFFE000000000000002040AD7A3703D0AD73F4214DD185B99185C990000000000000104090141901A00000000000004100000000000000041025764000000000000300FC0
340
12
340
0
340
F
340
0
 94
        0
1001
ACAD_MLEADERVER
1070
     2
  0
MLINESTYLE
  5
1C
102
{ACAD_REACTORS
330
1B
102
}
330
1B
100
AcDbMlineStyle
  2
STANDARD
 70
     0
  3

 62
   256
 51
90.0
 52
90.0
 71
     2
 49
0.5
 62
   256
  6
BYLAYER
 49
-0.5
 62
   256
  6
BYLAYER
  0
ACAD_PROXY_OBJECT
  5
9562
102
{ACAD_REACTORS
330
9561
102
}
330
9561
100
AcDbZombieObject
 90
      499
 91
      510
 93
       41
310
903313A31580
  0
ACAD_PROXY_OBJECT
  5
9563
102
{ACAD_REACTORS
330
9561
102
}
330
9561
100
AcDbZombieObject
 90
      499
 91
      510
 93
      105
310
903313A324000000000000004000
  0
ACAD_PROXY_OBJECT
  5
9564
102
{ACAD_REACTORS
330
9561
102
}
330
9561
100
AcDbZombieObject
 90
      499
 91
      510
 93
      105
310
903313A344000000000000104000
  0
ACAD_PROXY_OBJECT
  5
9565
102
{ACAD_REACTORS
330
9561
102
}
330
9561
100
AcDbZombieObject
 90
      499
 91
      510
 93
      105
310
903313A354000000000000144000
  0
ACAD_PROXY_OBJECT
  5
9566
102
{ACAD_REACTORS
330
9561
102
}
330
9561
100
AcDbZombieObject
 90
      499
 91
      510
 93
      105
310
903313A384000000000000204000
  0
ACAD_PROXY_OBJECT
  5
9567
102
{ACAD_REACTORS
330
9561
102
}
330
9561
100
AcDbZombieObject
 90
      499
 91
      510
 93
      113
310
904313A31304000000000000244000
  0
ACAD_PROXY_OBJECT
  5
9568
102
{ACAD_REACTORS
330
9561
102
}
330
9561
100
AcDbZombieObject
 90
      499
 91
      510
 93
      113
310
904313A31364000000000000304000
  0
ACAD_PROXY_OBJECT
  5
9569
102
{ACAD_REACTORS
330
9561
102
}
330
9561
100
AcDbZombieObject
 90
      499
 91
      510
 93
      113
310
904313A32304000000000000344000
  0
ACAD_PROXY_OBJECT
  5
956A
102
{ACAD_REACTORS
330
9561
102
}
330
9561
100
AcDbZombieObject
 90
      499
 91
      510
 93
      113
310
904313A333040000000000003E4000
  0
ACAD_PROXY_OBJECT
  5
956B
102
{ACAD_REACTORS
330
9561
102
}
330
9561
100
AcDbZombieObject
 90
      499
 91
      510
 93
      113
310
904313A34304000000000000444000
  0
ACAD_PROXY_OBJECT
  5
956C
102
{ACAD_REACTORS
330
9561
102
}
330
9561
100
AcDbZombieObject
 90
      499
 91
      510
 93
      113
310
904313A35304000000000000494000
  0
ACAD_PROXY_OBJECT
  5
956D
102
{ACAD_REACTORS
330
9561
102
}
330
9561
100
AcDbZombieObject
 90
      499
 91
      510
 93
      121
310
905313A3130304000000000000594000
  0
ACAD_PROXY_OBJECT
  5
956E
102
{ACAD_REACTORS
330
9561
102
}
330
9561
100
AcDbZombieObject
 90
      499
 91
      510
 93
      105
310
903323A310000000000000010100
  0
ACAD_PROXY_OBJECT
  5
956F
102
{ACAD_REACTORS
330
9561
102
}
330
9561
100
AcDbZombieObject
 90
      499
 91
      510
 93
      105
310
903343A310000000000000410100
  0
ACAD_PROXY_OBJECT
  5
9570
102
{ACAD_REACTORS
330
9561
102
}
330
9561
100
AcDbZombieObject
 90
      499
 91
      510
 93
      105
310
903383A310000000000000810100
  0
ACAD_PROXY_OBJECT
  5
9571
102
{ACAD_REACTORS
330
9561
102
}
330
9561
100
AcDbZombieObject
 90
      499
 91
      510
 93
      113
310
90431303A310000000000000910100
  0
ACAD_PROXY_OBJECT
  5
9572
102
{ACAD_REACTORS
330
9561
102
}
330
9561
100
AcDbZombieObject
 90
      499
 91
      510
 93
      121
310
9053130303A310000000000001650100
  0
ACAD_PROXY_OBJECT
  5
9573
102
{ACAD_REACTORS
330
9561
102
}
330
9561
100
AcDbZombieObject
 90
      499
 91
      510
 93
      257
310
90E312F31323822203D2031272D3022000000000000200FC000000000000284000
  0
ACAD_PROXY_OBJECT
  5
9574
102
{ACAD_REACTORS
330
9561
102
}
330
9561
100
AcDbZombieObject
 90
      499
 91
      510
 93
      249
310
90D312F363422203D2031272D3022000000000000240FC000000000000284000
  0
ACAD_PROXY_OBJECT
  5
9575
102
{ACAD_REACTORS
330
9561
102
}
330
9561
100
AcDbZombieObject
 90
      499
 91
      510
 93
      249
310
90D312F333222203D2031272D3022000000000000280FC000000000000284000
  0
ACAD_PROXY_OBJECT
  5
9576
102
{ACAD_REACTORS
330
9561
102
}
330
9561
100
AcDbZombieObject
 90
      499
 91
      510
 93
      249
310
90D312F313622203D2031272D30220000000000002C0FC000000000000284000
  0
ACAD_PROXY_OBJECT
  5
9577
102
{ACAD_REACTORS
330
9561
102
}
330
9561
100
AcDbZombieObject
 90
      499
 91
      510
 93
      249
310
90D332F333222203D2031272D30220000000000002E0FC000000000000284000
  0
ACAD_PROXY_OBJECT
  5
9578
102
{ACAD_REACTORS
330
9561
102
}
330
9561
100
AcDbZombieObject
 90
      499
 91
      510
 93
      241
310
90C312F3822203D2031272D3022000000000000300FC000000000000284000
  0
ACAD_PROXY_OBJECT
  5
9579
102
{ACAD_REACTORS
330
9561
102
}
330
9561
100
AcDbZombieObject
 90
      499
 91
      510
 93
      249
310
90D332F313622203D2031272D3022000000000000320FC000000000000284000
  0
ACAD_PROXY_OBJECT
  5
957A
102
{ACAD_REACTORS
330
9561
102
}
330
9561
100
AcDbZombieObject
 90
      499
 91
      510
 93
      241
310
90C312F3422203D2031272D3022000000000000340FC000000000000284000
  0
ACAD_PROXY_OBJECT
  5
957B
102
{ACAD_REACTORS
330
9561
102
}
330
9561
100
AcDbZombieObject
 90
      499
 91
      510
 93
      241
310
90C332F3822203D2031272D3022000000000000360FC000000000000284000
  0
ACAD_PROXY_OBJECT
  5
957C
102
{ACAD_REACTORS
330
9561
102
}
330
9561
100
AcDbZombieObject
 90
      499
 91
      510
 93
      241
310
90C312F3222203D2031272D3022000000000000380FC000000000000284000
  0
ACAD_PROXY_OBJECT
  5
957D
102
{ACAD_REACTORS
330
9561
102
}
330
9561
100
AcDbZombieObject
 90
      499
 91
      510
 93
      241
310
90C332F3422203D2031272D30220000000000003A0FC000000000000284000
  0
ACAD_PROXY_OBJECT
  5
957E
102
{ACAD_REACTORS
330
9561
102
}
330
9561
100
AcDbZombieObject
 90
      499
 91
      510
 93
      161
310
90A3122203D2031272D30224000000000000284000
  0
ACAD_PROXY_OBJECT
  5
957F
102
{ACAD_REACTORS
330
9561
102
}
330
9561
100
AcDbZombieObject
 90
      499
 91
      510
 93
      257
310
90E312D312F3222203D2031272D30220000000000003E0FC000000000000284000
  0
ACAD_PROXY_OBJECT
  5
9580
102
{ACAD_REACTORS
330
9561
102
}
330
9561
100
AcDbZombieObject
 90
      499
 91
      510
 93
      225
310
90A3322203D2031272D302200000000000002100000000000000284000
  0
ACAD_PROXY_OBJECT
  5
9581
102
{ACAD_REACTORS
330
9561
102
}
330
9561
100
AcDbZombieObject
 90
      499
 91
      510
 93
      225
310
90A3622203D2031272D302200000000000006100000000000000284000
  0
ACAD_PROXY_OBJECT
  5
9582
102
{ACAD_REACTORS
330
9561
102
}
330
9561
100
AcDbZombieObject
 90
      499
 91
      510
 93
      249
310
90D31272D3022203D2031272D30220000000000000A100000000000000284000
  0
ACAD_PROXY_OBJECT
  5
9556
102
{ACAD_REACTORS
330
9550
102
}
330
9550
100
AcDbZombieObject
 90
      499
 91
      509
 93
      436
310
42CC9915DA5C99599C985B595049028333333333333E3BF0000000000000FB0107901411070040501600405405064090741402480A0340
1001
ACAD
1000
AcDbSavedByObjectVersion
1070
     0
  0
ACAD_PROXY_OBJECT
  5
9558
102
{ACAD_REACTORS
330
9550
102
}
330
9550
100
AcDbZombieObject
 90
      499
 91
      509
 93
      500
310
424CD108121A5919195B90640502408333333333333E3BF0000000000000FB01079024090700405020000000000001110200405405064090740C02480A0340
1001
ACAD
1000
AcDbSavedByObjectVersion
1070
     0
  0
ACAD_PROXY_OBJECT
  5
9557
102
{ACAD_REACTORS
330
9550
102
}
330
9550
100
AcDbZombieObject
 90
      499
 91
      509
 93
      436
310
42CCD915DA5C99599C985B595059028333333333333E3BF0000000000000FB0107901411070040501600405405064090741402480A0340
1001
ACAD
1000
AcDbSavedByObjectVersion
1070
     0
  0
ACAD_PROXY_OBJECT
  5
9555
102
{ACAD_REACTORS
330
9550
102
}
330
9550
100
AcDbZombieObject
 90
      499
 91
      509
 93
      388
310
4150985CDA58D07406404333333333333E3BF0000000000000FB0107A41107004050150841D405064090741402480A0350
1001
ACAD
1000
AcDbSavedByObjectVersion
1070
     0
  0
ACAD_PROXY_OBJECT
  5
955C
102
{ACAD_REACTORS
330
9550
102
}
330
9550
100
AcDbZombieObject
 90
      499
 91
      509
 93
      428
310
42109C9A59DA1D195B90C409028333333333333E3BF0000000000000FB010790141107004050150841D405064090741402480A029950
1001
ACAD
1000
AcDbSavedByObjectVersion
1070
     0
  0
ACAD_PROXY_OBJECT
  5
9560
102
{ACAD_REACTORS
330
9550
102
}
330
9550
100
AcDbZombieObject
 90
      499
 91
      509
 93
      452
310
42D0DBDB1BDC90DA185B99D95104090240C333333333333E3BF0000000000000FB0108901411070040501508421405064090741402480A0350
1001
ACAD
1000
AcDbSavedByObjectVersion
1070
     0
  0
ACAD_PROXY_OBJECT
  5
9559
102
{ACAD_REACTORS
330
9550
102
}
330
9550
100
AcDbZombieObject
 90
      499
 91
      509
 93
      500
310
4290DBDB98D95C1D1D585B10940D028333333333333E3BF0000000000000FB0107902409070040501000000000000111010841D405064090740C02480A0340
1001
ACAD
1000
AcDbSavedByObjectVersion
1070
     0
  0
ACAD_PROXY_OBJECT
  5
955B
102
{ACAD_REACTORS
330
9550
102
}
330
9550
100
AcDbZombieObject
 90
      499
 91
      509
 93
      412
310
40D11A5B50B409028333333333333E3BF0000000000000FB010790141107004050150841D405064090741402480A02677FFFFFD0
1001
ACAD
1000
AcDbSavedByObjectVersion
1070
     0
  0
ACAD_PROXY_OBJECT
  5
A211
102
{ACAD_REACTORS
330
9550
102
}
330
9550
100
AcDbZombieObject
 90
      499
 91
      509
 93
      452
310
43115919D950DBDB1BDC93D999916409028333333333333E3BF0000000000000FB010790141107004050150841D405064090741402480A0350
1001
ACAD
1000
AcDbSavedByObjectVersion
1070
     0
  0
ACAD_PROXY_OBJECT
  5
955F
102
{ACAD_REACTORS
330
9550
102
}
330
9550
100
AcDbZombieObject
 90
      499
 91
      509
 93
      444
310
42D19858D95C185D1D195C9B90F409028333333333333E3BF0000000000000FB010790141107004050150841D405064090741402480A0350
1001
ACAD
1000
AcDbSavedByObjectVersion
1070
     0
  0
ACAD_PROXY_OBJECT
  5
9551
102
{ACAD_REACTORS
330
9550
102
}
330
9550
100
AcDbZombieObject
 90
      499
 91
      509
 93
      388
310
41119B185D240901404333333333333E3BF0000000000000F9010740A41107004050150841D405064090741402480A1B50
1001
ACAD
1000
AcDbSavedByObjectVersion
1070
     0
  0
ACAD_PROXY_OBJECT
  5
9552
102
{ACAD_REACTORS
330
9550
102
}
330
9550
100
AcDbZombieObject
 90
      499
 91
      509
 93
      476
310
43519B185D15DA5D1A115919D95CD0140901404333333333333E3BF0000000000000F9010740901411070040501600405405064090741402480A1B50
1001
ACAD
1000
AcDbSavedByObjectVersion
1070
     0
  0
ACAD_PROXY_OBJECT
  5
9553
102
{ACAD_REACTORS
330
9550
102
}
330
9550
100
AcDbZombieObject
 90
      499
 91
      509
 93
      412
310
41D1DBDD5C985D5910240902404333333333333E3BF0000000000000F9010740A411070040501641D405064090741402480A1B50
1001
ACAD
1000
AcDbSavedByObjectVersion
1070
     0
  0
ACAD_PROXY_OBJECT
  5
9554
102
{ACAD_REACTORS
330
9550
102
}
330
9550
100
AcDbZombieObject
 90
      499
 91
      509
 93
      500
310
4411DBDD5C985D5915DA5D1A115919D95CD0340902404333333333333E3BF0000000000000F9010740901411070040501600405405064090741402480A1B50
1001
ACAD
1000
AcDbSavedByObjectVersion
1070
     0
  0
ACAD_PROXY_OBJECT
  5
A260
102
{ACAD_REACTORS
330
9550
102
}
330
9550
100
AcDbZombieObject
 90
      499
 91
      509
 93
      476
310
41921A5919195B90640502408333333333333E3BF0000000000000FB01079024090700405020000000000001110200405405064090740C02480A0340
1001
ACAD
1000
AcDbSavedByObjectVersion
1070
     0
  0
ACAD_PROXY_OBJECT
  5
A20F
102
{ACAD_REACTORS
330
9550
102
}
330
9550
100
AcDbZombieObject
 90
      499
 91
      509
 93
      428
310
42529A5D1D195C93D999914409028333333333333E3BF0000000000000FB010790141107004050150A41D405064090741402480A0350
1001
ACAD
1000
AcDbSavedByObjectVersion
1070
     0
  0
ACAD_PROXY_OBJECT
  5
955E
102
{ACAD_REACTORS
330
9550
102
}
330
9550
100
AcDbZombieObject
 90
      499
 91
      509
 93
      444
310
42D31A5B995C185D1D195C9B90E409028333333333333E3BF0000000000000FB010790141107004050750841D405064090741402483A0350
1001
ACAD
1000
AcDbSavedByObjectVersion
1070
     0
  0
ACAD_PROXY_OBJECT
  5
A266
102
{ACAD_REACTORS
330
9550
102
}
330
9550
100
AcDbZombieObject
 90
      499
 91
      509
 93
      484
310
42135BD9195B1A5B99D0A409028333333333333E3BF0000000000000F901074090290700405010000000000201990108421405064090741402480A1B40
1001
ACAD
1000
AcDbSavedByObjectVersion
1070
     0
  0
ACAD_PROXY_OBJECT
  5
A210
102
{ACAD_REACTORS
330
9550
102
}
330
9550
100
AcDbZombieObject
 90
      499
 91
      509
 93
      444
310
42D3DD995C9A185B99D3D999915409028333333333333E3BF0000000000000FB010790141107004050150941D405064090741402480A0350
1001
ACAD
1000
AcDbSavedByObjectVersion
1070
     0
  0
ACAD_PROXY_OBJECT
  5
955A
102
{ACAD_REACTORS
330
9550
102
}
330
9550
100
AcDbZombieObject
 90
      499
 91
      509
 93
      420
310
425499585B1A5CDD1A58D08409028333333333333E3BF0000000000000FB01079019070040501508421405064090741402480A1B40
1001
ACAD
1000
AcDbSavedByObjectVersion
1070
     0
  0
ACAD_PROXY_OBJECT
  5
A265
102
{ACAD_REACTORS
330
9550
102
}
330
9550
100
AcDbZombieObject
 90
      499
 91
      509
 93
      420
310
4194DA1859195911B40902404333333333333E3BF0000000000000F9010740A41107004050150800405405064090840C02480A0B40
1001
ACAD
1000
AcDbSavedByObjectVersion
1070
     0
  0
ACAD_PROXY_OBJECT
  5
A264
102
{ACAD_REACTORS
330
9550
102
}
330
9550
100
AcDbZombieObject
 90
      499
 91
      509
 93
      516
310
4454DA18591959081DDA5D1A08195919D95CD1A40902404333333333333E3BF0000000000000F901074090142907004050250800405405064090740C02480A0B40
1001
ACAD
1000
AcDbSavedByObjectVersion
1070
     0
  0
ACAD_PROXY_OBJECT
  5
A261
102
{ACAD_REACTORS
330
9550
102
}
330
9550
100
AcDbZombieObject
 90
      499
 91
      509
 93
      532
310
4394DA1859195CC81BD98811DC985E5174090240C333333333333E3BF0000000000000FB01079024090741D01000000000000111010841D405064090740C02480A0340
1001
ACAD
1000
AcDbSavedByObjectVersion
1070
     0
  0
ACAD_PROXY_OBJECT
  5
A262
102
{ACAD_REACTORS
330
9550
102
}
330
9550
100
AcDbZombieObject
 90
      499
 91
      509
 93
      476
310
41D4DAD95D18DA1E51840502408333333333333E3BF0000000000000FB01079024090741D01000000000000111010B41D405064090741802480A0340
1001
ACAD
1000
AcDbSavedByObjectVersion
1070
     0
  0
ACAD_PROXY_OBJECT
  5
955D
102
{ACAD_REACTORS
330
9550
102
}
330
9550
100
AcDbZombieObject
 90
      499
 91
      509
 93
      412
310
41D51A1A58DAD95B90D409028333333333333E3BF0000000000000FB010790141107004050150C41D405064090741402480A0350
1001
ACAD
1000
AcDbSavedByObjectVersion
1070
     0
  0
ACAD_PROXY_OBJECT
  5
A25F
102
{ACAD_REACTORS
330
9550
102
}
330
9550
100
AcDbZombieObject
 90
      499
 91
      509
 93
      420
310
4255DA5C99599C985B595059028333333333333E3BF0000000000000FB0107901411070040501600405405064090740C02480A0340
1001
ACAD
1000
AcDbSavedByObjectVersion
1070
     0
  0
ACAD_PROXY_OBJECT
  5
A263
102
{ACAD_REACTORS
330
9550
102
}
330
9550
100
AcDbZombieObject
 90
      499
 91
      509
 93
      404
310
41560B54985E51940902404000000000000E03F0000000000000FB010740501907004050150841D405064090740C02480A1B40
1001
ACAD
1000
AcDbSavedByObjectVersion
1070
     0
  0
XRECORD
  5
FE1B
102
{ACAD_REACTORS
330
FE1A
102
}
330
FE1A
100
AcDbXrecord
340
18D
  0
XRECORD
  5
FE1C
102
{ACAD_REACTORS
330
FE1A
102
}
330
FE1A
100
AcDbXrecord
340
18C
  0
DICTIONARYVAR
  5
AAE0
102
{ACAD_REACTORS
330
37
102
}
330
37
100
DictionaryVariables
280
     0
  1
1:1
  0
DICTIONARYVAR
  5
9627
102
{ACAD_REACTORS
330
37
102
}
330
37
100
DictionaryVariables
280
     0
  1
Standard
  0
DICTIONARYVAR
  5
29E
102
{ACAD_REACTORS
330
37
102
}
330
37
100
DictionaryVariables
280
     0
  1
Standard
  0
DICTIONARYVAR
  5
38
102
{ACAD_REACTORS
330
37
102
}
330
37
100
DictionaryVariables
280
     0
  1
-1
  0
DICTIONARYVAR
  5
1CE
102
{ACAD_REACTORS
330
37
102
}
330
37
100
DictionaryVariables
280
     0
  1
2
  0
DICTIONARYVAR
  5
704E
102
{ACAD_REACTORS
330
37
102
}
330
37
100
DictionaryVariables
280
     0
  1
1
  0
DICTIONARYVAR
  5
962A
102
{ACAD_REACTORS
330
37
102
}
330
37
100
DictionaryVariables
280
     0
  1
0
  0
DICTIONARYVAR
  5
7052
102
{ACAD_REACTORS
330
37
102
}
330
37
100
DictionaryVariables
280
     0
  1
8
  0
DICTIONARYVAR
  5
7051
102
{ACAD_REACTORS
330
37
102
}
330
37
100
DictionaryVariables
280
     0
  1
1
  0
DICTIONARYVAR
  5
AB30
102
{ACAD_REACTORS
330
37
102
}
330
37
100
DictionaryVariables
280
     0
  1
0
  0
DICTIONARYVAR
  5
704F
102
{ACAD_REACTORS
330
37
102
}
330
37
100
DictionaryVariables
280
     0
  1
8
  0
DICTIONARYVAR
  5
7050
102
{ACAD_REACTORS
330
37
102
}
330
37
100
DictionaryVariables
280
     0
  1
2
  0
DICTIONARYVAR
  5
1CF
102
{ACAD_REACTORS
330
37
102
}
330
37
100
DictionaryVariables
280
     0
  1

  0
DICTIONARYVAR
  5
9629
102
{ACAD_REACTORS
330
37
102
}
330
37
100
DictionaryVariables
280
     0
  1
127
  0
DICTIONARYVAR
  5
FC81
102
{ACAD_REACTORS
330
37
102
}
330
37
100
DictionaryVariables
280
     0
  1
2
  0
DICTIONARY
  5
FFB8
330
9540
100
AcDbDictionary
  3
ACAD_XREC_ROUNDTRIP
360
FFB9
1001
ACAD
1000
TREAT_AS_HARD
1070
     1
  0
DICTIONARY
  5
FFBA
330
9538
100
AcDbDictionary
  3
ACAD_XREC_ROUNDTRIP
360
FFBB
1001
ACAD
1000
TREAT_AS_HARD
1070
     1
  0
DICTIONARY
  5
FFBC
330
9548
100
AcDbDictionary
  3
ACAD_XREC_ROUNDTRIP
360
FFBD
1001
ACAD
1000
TREAT_AS_HARD
1070
     1
  0
XRECORD
  5
FFB9
102
{ACAD_REACTORS
330
FFB8
102
}
330
FFB8
100
AcDbXrecord
102
MATERIAL
148
0.0
149
0.0
149
0.0
 93
        0
 94
      127
282
     0
 72
     0
 77
     0
171
     0
175
     0
179
     0
273
     0
  0
XRECORD
  5
FFBB
102
{ACAD_REACTORS
330
FFBA
102
}
330
FFBA
100
AcDbXrecord
102
MATERIAL
148
0.0
149
0.0
149
0.0
 93
        0
 94
      127
282
     0
 72
     0
 77
     0
171
     0
175
     0
179
     0
273
     0
  0
XRECORD
  5
FFBD
102
{ACAD_REACTORS
330
FFBC
102
}
330
FFBC
100
AcDbXrecord
102
MATERIAL
148
0.0
149
0.0
149
0.0
 93
        0
 94
      127
282
     0
 72
     0
 77
     0
171
     0
175
     0
179
     0
273
     0
  0
ENDSEC
  0
EOF
