  0
SECTION
  2
HEADER
  9
$ACADVER
  1
AC1012
  9
$DWGCODEPAGE
  3
ansi_932
  9
$INSBASE
 10
0.0
 20
0.0
 30
0.0
  9
$EXTMIN
 10
4710.472957359048
 20
-372.9022699669281
 30
-0.0000000001127424
  9
$EXTMAX
 10
5377.711433786748
 20
48.79773003204366
 30
0.000000000112646
  9
$LIMMIN
 10
0.0
 20
0.0
  9
$LIMMAX
 10
420.0
 20
297.0
  9
$ORTHOMODE
 70
     0
  9
$REGENMODE
 70
     1
  9
$FILLMODE
 70
     1
  9
$QTEXTMODE
 70
     0
  9
$MIRRTEXT
 70
     0
  9
$DRAGMODE
 70
     2
  9
$LTSCALE
 40
0.5
  9
$OSMODE
 70
 16383
  9
$ATTMODE
 70
     1
  9
$TEXTSIZE
 40
4.0
  9
$TRACEWID
 40
1.0
  9
$TEXTSTYLE
  7
STANDARD
  9
$CLAYER
  8
1TEXT
  9
$CELTYPE
  6
BYLAYER
  9
$CECOLOR
 62
   256
  9
$CELTSCALE
 40
1.0
  9
$DELOBJ
 70
     1
  9
$DISPSILH
 70
     0
  9
$DIMSCALE
 40
1.0
  9
$DIMASZ
 40
2.0
  9
$DIMEXO
 40
0.0
  9
$DIMDLI
 40
7.0
  9
$DIMRND
 40
0.0
  9
$DIMDLE
 40
0.0
  9
$DIMEXE
 40
1.0
  9
$DIMTP
 40
0.0
  9
$DIMTM
 40
0.0
  9
$DIMTXT
 40
3.5
  9
$DIMCEN
 40
0.0
  9
$DIMTSZ
 40
0.0
  9
$DIMTOL
 70
     0
  9
$DIMLIM
 70
     0
  9
$DIMTIH
 70
     0
  9
$DIMTOH
 70
     0
  9
$DIMSE1
 70
     0
  9
$DIMSE2
 70
     0
  9
$DIMTAD
 70
     1
  9
$DIMZIN
 70
     8
  9
$DIMBLK
  1

  9
$DIMASO
 70
     1
  9
$DIMSHO
 70
     1
  9
$DIMPOST
  1
 
  9
$DIMAPOST
  1

  9
$DIMALT
 70
     0
  9
$DIMALTD
 70
     2
  9
$DIMALTF
 40
25.4
  9
$DIMLFAC
 40
1.0
  9
$DIMTOFL
 70
     1
  9
$DIMTVP
 40
0.0
  9
$DIMTIX
 70
     0
  9
$DIMSOXD
 70
     0
  9
$DIMSAH
 70
     1
  9
$DIMBLK1
  1
OPEN30
  9
$DIMBLK2
  1
OPEN30
  9
$DIMSTYLE
  2
NEWX10
  9
$DIMCLRD
 70
   256
  9
$DIMCLRE
 70
   256
  9
$DIMCLRT
 70
   201
  9
$DIMTFAC
 40
0.7
  9
$DIMGAP
 40
0.7
  9
$DIMJUST
 70
     0
  9
$DIMSD1
 70
     0
  9
$DIMSD2
 70
     0
  9
$DIMTOLJ
 70
     1
  9
$DIMTZIN
 70
     8
  9
$DIMALTZ
 70
     0
  9
$DIMALTTZ
 70
     0
  9
$DIMFIT
 70
     2
  9
$DIMUPT
 70
     0
  9
$DIMUNIT
 70
     2
  9
$DIMDEC
 70
     2
  9
$DIMTDEC
 70
     4
  9
$DIMALTU
 70
     2
  9
$DIMALTTD
 70
     2
  9
$DIMTXSTY
  7
STANDARD
  9
$DIMAUNIT
 70
     0
  9
$LUNITS
 70
     2
  9
$LUPREC
 70
     4
  9
$SKETCHINC
 40
1.0
  9
$FILLETRAD
 40
0.0
  9
$AUNITS
 70
     0
  9
$AUPREC
 70
     2
  9
$MENU
  1
acad
  9
$ELEVATION
 40
0.0
  9
$PELEVATION
 40
0.0
  9
$THICKNESS
 40
0.0
  9
$LIMCHECK
 70
     0
  9
$CHAMFERA
 40
10.0
  9
$CHAMFERB
 40
10.0
  9
$CHAMFERC
 40
20.0
  9
$CHAMFERD
 40
0.0
  9
$SKPOLY
 70
     0
  9
$TDCREATE
 40
2451318.621352917
  9
$TDUPDATE
 40
2458726.382575845
  9
$TDINDWG
 40
1.5253431829
  9
$TDUSRTIMER
 40
1.5253431829
  9
$USRTIMER
 70
     1
  9
$ANGBASE
 50
0.0
  9
$ANGDIR
 70
     0
  9
$PDMODE
 70
     0
  9
$PDSIZE
 40
0.0
  9
$PLINEWID
 40
0.0
  9
$COORDS
 70
     2
  9
$SPLFRAME
 70
     0
  9
$SPLINETYPE
 70
     6
  9
$SPLINESEGS
 70
     8
  9
$ATTDIA
 70
     0
  9
$ATTREQ
 70
     1
  9
$HANDLING
 70
     1
  9
$HANDSEED
  5
CFC4
  9
$SURFTAB1
 70
     6
  9
$SURFTAB2
 70
     6
  9
$SURFTYPE
 70
     6
  9
$SURFU
 70
     6
  9
$SURFV
 70
     6
  9
$UCSNAME
  2

  9
$UCSORG
 10
0.0
 20
0.0
 30
0.0
  9
$UCSXDIR
 10
1.0
 20
0.0
 30
0.0
  9
$UCSYDIR
 10
0.0
 20
1.0
 30
0.0
  9
$PUCSNAME
  2

  9
$PUCSORG
 10
0.0
 20
0.0
 30
0.0
  9
$PUCSXDIR
 10
1.0
 20
0.0
 30
0.0
  9
$PUCSYDIR
 10
0.0
 20
1.0
 30
0.0
  9
$USERI1
 70
     0
  9
$USERI2
 70
     0
  9
$USERI3
 70
     0
  9
$USERI4
 70
     0
  9
$USERI5
 70
     0
  9
$USERR1
 40
0.0
  9
$USERR2
 40
0.0
  9
$USERR3
 40
0.0
  9
$USERR4
 40
0.0
  9
$USERR5
 40
0.0
  9
$WORLDVIEW
 70
     1
  9
$SHADEDGE
 70
     3
  9
$SHADEDIF
 70
    70
  9
$TILEMODE
 70
     1
  9
$MAXACTVP
 70
    48
  9
$PINSBASE
 10
0.0
 20
0.0
 30
0.0
  9
$PLIMCHECK
 70
     0
  9
$PEXTMIN
 10
1.000000000000000E+20
 20
1.000000000000000E+20
 30
1.000000000000000E+20
  9
$PEXTMAX
 10
-1.000000000000000E+20
 20
-1.000000000000000E+20
 30
-1.000000000000000E+20
  9
$PLIMMIN
 10
0.0
 20
0.0
  9
$PLIMMAX
 10
420.0
 20
297.0
  9
$UNITMODE
 70
     0
  9
$VISRETAIN
 70
     1
  9
$PLINEGEN
 70
     0
  9
$PSLTSCALE
 70
     1
  9
$TREEDEPTH
 70
  3020
  9
$PICKSTYLE
 70
     1
  9
$CMLSTYLE
  2
STANDARD
  9
$CMLJUST
 70
     0
  9
$CMLSCALE
 40
20.0
  9
$SAVEIMAGES
 70
     1
  0
ENDSEC
  0
SECTION
  2
CLASSES
  0
CLASS
  1
DICTIONARYVAR
  2
AcDbDictionaryVar
  3
ObjectDBX Classes
 90
        0
280
     0
281
     0
  0
CLASS
  1
IDBUFFER
  2
AcDbIdBuffer
  3
ObjectDBX Classes
 90
    32768
280
     0
281
     0
  0
CLASS
  1
LWPOLYLINE
  2
AcDbPolyline
  3
ObjectDBX Classes
 90
    32768
280
     0
281
     1
  0
CLASS
  1
ACDBDICTIONARYWDFLT
  2
AcDbDictionaryWithDefault
  3
ObjectDBX Classes
 90
    32768
280
     0
281
     0
  0
CLASS
  1
ACDBPLACEHOLDER
  2
AcDbPlaceHolder
  3
ObjectDBX Classes
 90
        0
280
     0
281
     0
  0
CLASS
  1
LAYOUT
  2
AcDbLayout
  3
ObjectDBX Classes
 90
        0
280
     0
281
     0
  0
CLASS
  1
TABLESTYLE
  2
AcDbTableStyle
  3
ObjectDBX Classes
 90
     4095
280
     0
281
     0
  0
CLASS
  1
SORTENTSTABLE
  2
AcDbSortentsTable
  3
ObjectDBX Classes
 90
    32768
280
     0
281
     0
  0
CLASS
  1
MATERIAL
  2
AcDbMaterial
  3
ObjectDBX Classes
 90
     1153
280
     0
281
     0
  0
CLASS
  1
VISUALSTYLE
  2
AcDbVisualStyle
  3
ObjectDBX Classes
 90
     4095
280
     0
281
     0
  0
CLASS
  1
SCALE
  2
AcDbScale
  3
ObjectDBX Classes
 90
     1153
280
     0
281
     0
  0
CLASS
  1
MLEADERSTYLE
  2
AcDbMLeaderStyle
  3
ACDB_MLEADERSTYLE_CLASS
 90
     4095
280
     0
281
     0
  0
CLASS
  1
CELLSTYLEMAP
  2
AcDbCellStyleMap
  3
ObjectDBX Classes
 90
     1152
280
     0
281
     0
  0
CLASS
  1
SUN
  2
AcDbSun
  3
SCENEOE
 90
     1153
280
     0
281
     0
  0
CLASS
  1
XRECORD
  2
AcDbXrecord
  3
ObjectDBX Classes
 90
    32768
280
     0
281
     0
  0
CLASS
  1
HATCH
  2
AcDbHatch
  3
ObjectDBX Classes
 90
    32768
280
     0
281
     1
  0
ENDSEC
  0
SECTION
  2
TABLES
  0
TABLE
  2
VPORT
  5
8
330
0
100
AcDbSymbolTable
 70
     1
  0
VPORT
  5
952D
330
8
100
AcDbSymbolTableRecord
100
AcDbViewportTableRecord
  2
*ACTIVE
 70
     0
 10
0.0
 20
0.0
 11
1.0
 21
1.0
 12
5044.092195572898
 22
-162.0522699674422
 13
0.0
 23
0.0
 14
10.0
 24
10.0
 15
10.0
 25
10.0
 16
0.0
 26
0.0
 36
1.0
 17
0.0
 27
0.0
 37
0.0
 40
452.7726315778434
 41
2.152122641509434
 42
50.0
 43
0.0
 44
0.0
 50
0.0
 51
0.0
 71
    16
 72
   100
 73
     1
 74
     1
 75
     0
 76
     0
 77
     0
 78
     0
1001
ACAD_NAV_VCDISPLAY
1070
     3
  0
ENDTAB
  0
TABLE
  2
LTYPE
  5
5
330
0
100
AcDbSymbolTable
 70
     3
  0
LTYPE
  5
12
330
5
100
AcDbSymbolTableRecord
100
AcDbLinetypeTableRecord
  2
BYBLOCK
 70
     0
  3

 72
    65
 73
     0
 40
0.0
  0
LTYPE
  5
13
330
5
100
AcDbSymbolTableRecord
100
AcDbLinetypeTableRecord
  2
BYLAYER
 70
     0
  3

 72
    65
 73
     0
 40
0.0
  0
LTYPE
  5
14
330
5
100
AcDbSymbolTableRecord
100
AcDbLinetypeTableRecord
  2
CONTINUOUS
 70
     0
  3
Solid line
 72
    65
 73
     0
 40
0.0
  0
LTYPE
  5
2C03
330
5
100
AcDbSymbolTableRecord
100
AcDbLinetypeTableRecord
  2
HIDDEN
 70
     0
  3
Hidden __ __ __ __ __ __ __ __ __ __ __ __ __ _
 72
    65
 73
     2
 40
9.524999999999999
 49
6.35
 74
     0
 49
-3.175
 74
     0
  0
LTYPE
  5
9837
330
5
100
AcDbSymbolTableRecord
100
AcDbLinetypeTableRecord
  2
CENTER2
 70
     0
  3
Center (.5x) ___ _ ___ _ ___ _ ___ _ ___ _ ___
 72
    65
 73
     4
 40
28.575
 49
19.05
 74
     0
 49
-3.175
 74
     0
 49
3.175
 74
     0
 49
-3.175
 74
     0
  0
ENDTAB
  0
TABLE
  2
LAYER
  5
2
102
{ACAD_XDICTIONARY
360
96D9
102
}
330
0
100
AcDbSymbolTable
 70
     6
  0
LAYER
  5
E
102
{ACAD_XDICTIONARY
360
9593
102
}
330
2
100
AcDbSymbolTableRecord
100
AcDbLayerTableRecord
  2
0
 70
     0
 62
     7
  6
CONTINUOUS
  0
LAYER
  5
29
102
{ACAD_XDICTIONARY
360
9595
102
}
330
2
100
AcDbSymbolTableRecord
100
AcDbLayerTableRecord
  2
1CENTER
 70
     0
 62
     7
  6
CENTER2
  0
LAYER
  5
31
102
{ACAD_XDICTIONARY
360
9597
102
}
330
2
100
AcDbSymbolTableRecord
100
AcDbLayerTableRecord
  2
1TEXT
 70
     0
 62
     7
  6
CONTINUOUS
  0
LAYER
  5
243
102
{ACAD_XDICTIONARY
360
959D
102
}
330
2
100
AcDbSymbolTableRecord
100
AcDbLayerTableRecord
  2
01
 70
     0
 62
     1
  6
CONTINUOUS
  0
LAYER
  5
24E
102
{ACAD_XDICTIONARY
360
95A3
102
}
330
2
100
AcDbSymbolTableRecord
100
AcDbLayerTableRecord
  2
1DIM
 70
     0
 62
     7
  6
CONTINUOUS
  0
LAYER
  5
2C05
102
{ACAD_XDICTIONARY
360
95AF
102
}
330
2
100
AcDbSymbolTableRecord
100
AcDbLayerTableRecord
  2
1HIDDEN
 70
     0
 62
     7
  6
HIDDEN
  0
ENDTAB
  0
TABLE
  2
STYLE
  5
3
330
0
100
AcDbSymbolTable
 70
     1
  0
STYLE
  5
F
330
3
100
AcDbSymbolTableRecord
100
AcDbTextStyleTableRecord
  2
STANDARD
 70
     0
 40
0.0
 41
1.0
 50
0.0
 71
     0
 42
4.0
  3
txt.shx
  4
extfont.shx
  0
ENDTAB
  0
TABLE
  2
VIEW
  5
6
330
0
100
AcDbSymbolTable
 70
     0
  0
ENDTAB
  0
TABLE
  2
UCS
  5
7
330
0
100
AcDbSymbolTable
 70
     0
  0
ENDTAB
  0
TABLE
  2
APPID
  5
9
330
0
100
AcDbSymbolTable
 70
    14
  0
APPID
  5
10
330
9
100
AcDbSymbolTableRecord
100
AcDbRegAppTableRecord
  2
ACAD
 70
     0
  0
APPID
  5
21
330
9
100
AcDbSymbolTableRecord
100
AcDbRegAppTableRecord
  2
DRAWINGVARIABLESXDATA
 70
     0
  0
APPID
  5
64
330
9
100
AcDbSymbolTableRecord
100
AcDbRegAppTableRecord
  2
CONTENTTABDATA
 70
     0
  0
APPID
  5
65
330
9
100
AcDbSymbolTableRecord
100
AcDbRegAppTableRecord
  2
CONTENTCURRENTTAB
 70
     0
  0
APPID
  5
66
330
9
100
AcDbSymbolTableRecord
100
AcDbRegAppTableRecord
  2
CONTENTBLOCKDESCRIPTION
 70
     0
  0
APPID
  5
67
330
9
100
AcDbSymbolTableRecord
100
AcDbRegAppTableRecord
  2
CONTENTBLOCKICON
 70
     0
  0
APPID
  5
68
330
9
100
AcDbSymbolTableRecord
100
AcDbRegAppTableRecord
  2
CONTENTLONGBLOCKNAME
 70
     0
  0
APPID
  5
2AE
330
9
100
AcDbSymbolTableRecord
100
AcDbRegAppTableRecord
  2
ACAD_PSEXT
 70
     0
  0
APPID
  5
9585
330
9
100
AcDbSymbolTableRecord
100
AcDbRegAppTableRecord
  2
ACAD_MLEADERVER
 70
     0
  0
APPID
  5
A2E3
330
9
100
AcDbSymbolTableRecord
100
AcDbRegAppTableRecord
  2
ACADANNOTATIVE
 70
     0
  0
APPID
  5
A2E4
330
9
100
AcDbSymbolTableRecord
100
AcDbRegAppTableRecord
  2
ACDBBLOCKREPETAG
 70
     0
  0
APPID
  5
AD6E
330
9
100
AcDbSymbolTableRecord
100
AcDbRegAppTableRecord
  2
ACAD_EXEMPT_FROM_CAD_STAND
 70
     0
  0
APPID
  5
AD77
330
9
100
AcDbSymbolTableRecord
100
AcDbRegAppTableRecord
  2
ACAD_NAV_VCDISPLAY
 70
     0
  0
APPID
  5
ADC3
330
9
100
AcDbSymbolTableRecord
100
AcDbRegAppTableRecord
  2
ACAECLAYERSTANDARD
 70
     0
  0
ENDTAB
  0
TABLE
  2
DIMSTYLE
  5
A
330
0
100
AcDbSymbolTable
 70
     1
  0
DIMSTYLE
105
48
330
A
100
AcDbSymbolTableRecord
100
AcDbDimStyleTableRecord
  2
NEWX10
 70
     0
  3
 
  4

  5

  6
OPEN30
  7
OPEN30
 40
1.0
 41
2.0
 42
0.0
 43
7.0
 44
1.0
 45
0.0
 46
0.0
 47
0.0
 48
0.0
140
3.5
141
0.0
142
0.0
143
25.4
144
1.0
145
0.0
146
0.7
147
0.7
 71
     0
 72
     0
 73
     0
 74
     0
 75
     0
 76
     0
 77
     1
 78
     8
170
     0
171
     2
172
     1
173
     1
174
     0
175
     0
176
   256
177
   256
178
   201
179
     2
270
     2
271
     2
272
     4
273
     2
274
     2
340
F
275
     0
280
     0
281
     0
282
     0
283
     1
284
     8
285
     0
286
     0
287
     2
288
     0
  0
ENDTAB
  0
TABLE
  2
BLOCK_RECORD
  5
1
330
0
100
AcDbSymbolTable
 70
     8
  0
BLOCK_RECORD
  5
18
102
{ACAD_XDICTIONARY
360
88F
102
}
330
1
100
AcDbSymbolTableRecord
100
AcDbBlockTableRecord
  2
*MODEL_SPACE
  0
BLOCK_RECORD
  5
15
102
{ACAD_XDICTIONARY
360
CC6C
102
}
330
1
100
AcDbSymbolTableRecord
100
AcDbBlockTableRecord
  2
*PAPER_SPACE
  0
BLOCK_RECORD
  5
42
330
1
100
AcDbSymbolTableRecord
100
AcDbBlockTableRecord
  2
_OPEN30
  0
BLOCK_RECORD
  5
A333
330
1
100
AcDbSymbolTableRecord
100
AcDbBlockTableRecord
  2
A3WAKUKAWAJUN2017_HYOUDAI_
  0
BLOCK_RECORD
  5
CE24
330
1
100
AcDbSymbolTableRecord
100
AcDbBlockTableRecord
  2
*X26
  0
BLOCK_RECORD
  5
CE72
330
1
100
AcDbSymbolTableRecord
100
AcDbBlockTableRecord
  2
*X27
  0
BLOCK_RECORD
  5
CEC4
330
1
100
AcDbSymbolTableRecord
100
AcDbBlockTableRecord
  2
*X28
  0
BLOCK_RECORD
  5
CF15
330
1
100
AcDbSymbolTableRecord
100
AcDbBlockTableRecord
  2
*X29
  0
BLOCK_RECORD
  5
CF52
330
1
100
AcDbSymbolTableRecord
100
AcDbBlockTableRecord
  2
*X30
  0
BLOCK_RECORD
  5
CF92
330
1
100
AcDbSymbolTableRecord
100
AcDbBlockTableRecord
  2
*X31
  0
ENDTAB
  0
ENDSEC
  0
SECTION
  2
BLOCKS
  0
BLOCK
  5
19
330
18
100
AcDbEntity
  8
0
100
AcDbBlockBegin
  2
*MODEL_SPACE
 70
     0
 10
0.0
 20
0.0
 30
0.0
  3
*MODEL_SPACE
  1

  0
ENDBLK
  5
1A
330
18
100
AcDbEntity
  8
0
100
AcDbBlockEnd
  0
BLOCK
  5
16
330
15
100
AcDbEntity
 67
     1
  8
0
100
AcDbBlockBegin
  2
*PAPER_SPACE
 70
     0
 10
0.0
 20
0.0
 30
0.0
  3
*PAPER_SPACE
  1

  0
ENDBLK
  5
17
330
15
100
AcDbEntity
 67
     1
  8
0
100
AcDbBlockEnd
  0
BLOCK
  5
43
330
42
100
AcDbEntity
  8
0
100
AcDbBlockBegin
  2
_OPEN30
 70
     0
 10
0.0
 20
0.0
 30
0.0
  3
_OPEN30
  1

  0
LINE
  5
44
330
42
100
AcDbEntity
  8
0
  6
BYBLOCK
 62
     0
100
AcDbLine
 10
-1.0
 20
0.26794919
 30
0.0
 11
0.0
 21
0.0
 31
0.0
  0
LINE
  5
45
330
42
100
AcDbEntity
  8
0
  6
BYBLOCK
 62
     0
100
AcDbLine
 10
0.0
 20
0.0
 30
0.0
 11
-1.0
 21
-0.26794919
 31
0.0
  0
LINE
  5
46
330
42
100
AcDbEntity
  8
0
  6
BYBLOCK
 62
     0
100
AcDbLine
 10
0.0
 20
0.0
 30
0.0
 11
-1.0
 21
0.0
 31
0.0
  0
ENDBLK
  5
47
330
42
100
AcDbEntity
  8
0
100
AcDbBlockEnd
  0
BLOCK
  5
AA56
330
A333
100
AcDbEntity
  8
0
100
AcDbBlockBegin
  2
A3WAKUKAWAJUN2017_HYOUDAI_
 70
     0
 10
0.0
 20
0.0
 30
0.0
  3
A3WAKUKAWAJUN2017_HYOUDAI_
  1

  0
LINE
  5
A335
330
A333
100
AcDbEntity
  8
0
100
AcDbLine
 10
13.26299999998673
 20
-0.0001000000000317
 30
0.0
 11
9.236999999990758
 21
8.999899999990987
 31
0.0
1001
ACAD
1000
ASC_BOUNDS
1002
{
1070
    19
1005
A376
1002
}
  0
LINE
  5
A336
330
A333
100
AcDbEntity
  8
0
100
AcDbLine
 10
5.657999999994331
 20
0.9999999999989768
 30
0.0
 11
9.236999999990758
 21
8.999999999991019
 31
0.0
1001
ACAD
1000
ASC_BOUNDS
1002
{
1070
    19
1005
A376
1002
}
  0
LINE
  5
A337
330
A333
100
AcDbEntity
  8
0
100
AcDbLine
 10
18.59199999998134
 20
-0.2368999999997641
 30
0.0
 11
16.46099999998353
 21
5.432899999994561
 31
0.0
1001
ACAD
1000
ASC_BOUNDS
1002
{
1070
    19
1005
A377
1002
}
  0
LINE
  5
A338
330
A333
100
AcDbEntity
  8
0
100
AcDbLine
 10
18.59199999998134
 20
-0.2368999999997641
 30
0.0
 11
22.38199999997767
 21
8.763099999991255
 31
0.0
1001
ACAD
1000
ASC_BOUNDS
1002
{
1070
    19
1005
A377
1002
}
  0
LINE
  5
A339
330
A333
100
AcDbEntity
  8
0
100
AcDbLine
 10
14.32899999998563
 20
-0.2368999999997641
 30
0.0
 11
16.46099999998353
 21
5.432899999994561
 31
0.0
1001
ACAD
1000
ASC_BOUNDS
1002
{
1070
    19
1005
A377
1002
}
  0
LINE
  5
A33A
330
A333
100
AcDbEntity
  8
0
100
AcDbLine
 10
14.32899999998563
 20
-0.2368999999997641
 30
0.0
 11
10.53899999998941
 21
8.763099999991255
 31
0.0
1001
ACAD
1000
ASC_BOUNDS
1002
{
1070
    19
1005
A377
1002
}
  0
LINE
  5
A33B
330
A333
100
AcDbEntity
  8
0
100
AcDbLine
 10
19.53899999998043
 20
-0.0001000000000317
 30
0.0
 11
23.56599999997638
 21
8.999899999990987
 31
0.0
1001
ACAD
1000
ASC_BOUNDS
1002
{
1070
    19
1005
A378
1002
}
  0
LINE
  5
A33C
330
A333
100
AcDbEntity
  8
0
100
AcDbLine
 10
26.97358892824991
 20
1.383099999991202
 30
0.0
 11
23.56599999997638
 21
8.999899999990987
 31
0.0
1001
ACAD
1000
ASC_BOUNDS
1002
{
1070
    19
1005
A378
1002
}
  0
LINE
  5
A33D
330
A333
100
AcDbEntity
  8
0
100
AcDbLine
 10
5.657999999994331
 20
0.9999999999989768
 30
0.0
 11
3.181999999996833
 21
4.668599999995308
 31
0.0
1001
ACAD
1000
ASC_BOUNDS
1002
{
1070
    19
1005
A376
1002
}
  0
LINE
  5
A33E
330
A333
100
AcDbEntity
  8
0
100
AcDbLine
 10
4.617999999995391
 20
-0.0001000000000317
 30
0.0
 11
1.420999999998571
 21
4.736799999995242
 31
0.0
1001
ACAD
1000
ASC_BOUNDS
1002
{
1070
    19
1005
A376
1002
}
  0
LINE
  5
A33F
330
A333
100
AcDbEntity
  8
0
100
AcDbLine
 10
1.420999999998571
 20
8.763099999991255
 30
0.0
 11
1.420999999998571
 21
0.0
 31
0.0
1001
ACAD
1000
ASC_BOUNDS
1002
{
1070
    19
1005
A37B
1002
}
  0
LINE
  5
A340
330
A333
100
AcDbEntity
  8
0
100
AcDbLine
 10
0.0
 20
8.763099999991255
 30
0.0
 11
0.0
 21
0.0
 31
0.0
1001
ACAD
1000
ASC_BOUNDS
1002
{
1070
    19
1005
A37B
1002
}
  0
LINE
  5
A341
330
A333
100
AcDbEntity
  8
0
100
AcDbLine
 10
6.766999999993232
 20
-0.0001000000000317
 30
0.0
 11
7.826999999992154
 21
2.368399999997621
 31
0.0
1001
ACAD
1000
ASC_BOUNDS
1002
{
1070
    19
1005
A376
1002
}
  0
LINE
  5
A342
330
A333
100
AcDbEntity
  8
0
100
AcDbLine
 10
0.0
 20
0.0
 30
0.0
 11
1.420999999998571
 21
0.0
 31
0.0
1001
ACAD
1000
ASC_BOUNDS
1002
{
1070
    19
1005
A37B
1002
}
  0
LINE
  5
A343
330
A333
100
AcDbEntity
  8
0
100
AcDbLine
 10
4.617999999995391
 20
0.0
 30
0.0
 11
6.766999999993232
 21
0.0
 31
0.0
1001
ACAD
1000
ASC_BOUNDS
1002
{
1070
    19
1005
A376
1002
}
  0
LINE
  5
A344
330
A333
100
AcDbEntity
  8
0
100
AcDbLine
 10
11.70599999998831
 20
-0.0001000000000317
 30
0.0
 11
10.64699999998936
 21
2.368399999997621
 31
0.0
1001
ACAD
1000
ASC_BOUNDS
1002
{
1070
    19
1005
A376
1002
}
  0
LINE
  5
A345
330
A333
100
AcDbEntity
  8
0
100
AcDbLine
 10
7.826999999992154
 20
2.368399999997621
 30
0.0
 11
10.64699999998936
 21
2.368399999997621
 31
0.0
1001
ACAD
1000
ASC_BOUNDS
1002
{
1070
    19
1005
A376
1002
}
  0
LINE
  5
A346
330
A333
100
AcDbEntity
  8
0
100
AcDbLine
 10
11.70599999998831
 20
0.0
 30
0.0
 11
13.26299999998673
 21
0.0
 31
0.0
1001
ACAD
1000
ASC_BOUNDS
1002
{
1070
    19
1005
A376
1002
}
  0
LINE
  5
A347
330
A333
100
AcDbEntity
  8
0
100
AcDbLine
 10
22.15599999997789
 20
2.368399999997621
 30
0.0
 11
24.97599999997499
 21
2.368399999997621
 31
0.0
1001
ACAD
1000
ASC_BOUNDS
1002
{
1070
    19
1005
A378
1002
}
  0
LINE
  5
A348
330
A333
100
AcDbEntity
  8
0
100
AcDbLine
 10
19.53899999998043
 20
0.0
 30
0.0
 11
21.09599999997886
 21
0.0
 31
0.0
1001
ACAD
1000
ASC_BOUNDS
1002
{
1070
    19
1005
A378
1002
}
  0
LINE
  5
A349
330
A333
100
AcDbEntity
  8
0
100
AcDbLine
 10
21.09599999997886
 20
-0.0001000000000317
 30
0.0
 11
22.15599999997789
 21
2.368399999997621
 31
0.0
1001
ACAD
1000
ASC_BOUNDS
1002
{
1070
    19
1005
A378
1002
}
  0
LINE
  5
A34A
330
A333
100
AcDbEntity
  8
0
100
AcDbLine
 10
26.02015566812236
 20
0.0330999999912365
 30
0.0
 11
24.97599999997499
 21
2.368399999997621
 31
0.0
1001
ACAD
1000
ASC_BOUNDS
1002
{
1070
    19
1005
A378
1002
}
  0
LINE
  5
A34B
330
A333
100
AcDbEntity
  8
0
100
AcDbLine
 10
14.32399999998563
 20
3.315799999996671
 30
0.0
 11
16.46099999998353
 21
8.999899999990987
 31
0.0
1001
ACAD
1000
ASC_BOUNDS
1002
{
1070
    19
1005
A377
1002
}
  0
LINE
  5
A34C
330
A333
100
AcDbEntity
  8
0
100
AcDbLine
 10
6.432999999993513
 20
8.763099999991255
 30
0.0
 11
3.181999999996833
 21
4.668599999995308
 31
0.0
1001
ACAD
1000
ASC_BOUNDS
1002
{
1070
    19
1005
A376
1002
}
  0
LINE
  5
A34D
330
A333
100
AcDbEntity
  8
0
100
AcDbLine
 10
4.617999999995391
 20
8.763099999991255
 30
0.0
 11
1.420999999998571
 21
4.736799999995242
 31
0.0
1001
ACAD
1000
ASC_BOUNDS
1002
{
1070
    19
1005
A376
1002
}
  0
LINE
  5
A34E
330
A333
100
AcDbEntity
  8
0
100
AcDbLine
 10
0.0
 20
8.763099999991255
 30
0.0
 11
1.420999999998571
 21
8.763099999991255
 31
0.0
1001
ACAD
1000
ASC_BOUNDS
1002
{
1070
    19
1005
A37B
1002
}
  0
LINE
  5
A34F
330
A333
100
AcDbEntity
  8
0
100
AcDbLine
 10
4.617999999995391
 20
8.763099999991255
 30
0.0
 11
6.432999999993513
 21
8.763099999991255
 31
0.0
1001
ACAD
1000
ASC_BOUNDS
1002
{
1070
    19
1005
A376
1002
}
  0
LINE
  5
A350
330
A333
100
AcDbEntity
  8
0
100
AcDbLine
 10
14.32399999998563
 20
3.315799999996671
 30
0.0
 11
12.02999999998792
 21
8.763099999991255
 31
0.0
1001
ACAD
1000
ASC_BOUNDS
1002
{
1070
    19
1005
A377
1002
}
  0
LINE
  5
A351
330
A333
100
AcDbEntity
  8
0
100
AcDbLine
 10
10.06399999998996
 20
3.670999999996297
 30
0.0
 11
9.236999999990758
 21
5.5200999999945
 31
0.0
1001
ACAD
1000
ASC_BOUNDS
1002
{
1070
    19
1005
A376
1002
}
  0
LINE
  5
A352
330
A333
100
AcDbEntity
  8
0
100
AcDbLine
 10
8.409999999991555
 20
3.670999999996297
 30
0.0
 11
9.236999999990758
 21
5.5200999999945
 31
0.0
1001
ACAD
1000
ASC_BOUNDS
1002
{
1070
    19
1005
A376
1002
}
  0
LINE
  5
A353
330
A333
100
AcDbEntity
  8
0
100
AcDbLine
 10
8.409999999991555
 20
3.670999999996297
 30
0.0
 11
10.06399999998996
 21
3.670999999996297
 31
0.0
1001
ACAD
1000
ASC_BOUNDS
1002
{
1070
    19
1005
A376
1002
}
  0
LINE
  5
A354
330
A333
100
AcDbEntity
  8
0
100
AcDbLine
 10
10.53899999998941
 20
8.763099999991255
 30
0.0
 11
12.02999999998792
 21
8.763099999991255
 31
0.0
1001
ACAD
1000
ASC_BOUNDS
1002
{
1070
    19
1005
A377
1002
}
  0
LINE
  5
A355
330
A333
100
AcDbEntity
  8
0
100
AcDbLine
 10
22.7389999999773
 20
3.670999999996297
 30
0.0
 11
23.56599999997638
 21
5.5200999999945
 31
0.0
1001
ACAD
1000
ASC_BOUNDS
1002
{
1070
    19
1005
A378
1002
}
  0
LINE
  5
A356
330
A333
100
AcDbEntity
  8
0
100
AcDbLine
 10
22.7389999999773
 20
3.670999999996297
 30
0.0
 11
24.39299999997559
 21
3.670999999996297
 31
0.0
1001
ACAD
1000
ASC_BOUNDS
1002
{
1070
    19
1005
A378
1002
}
  0
LINE
  5
A357
330
A333
100
AcDbEntity
  8
0
100
AcDbLine
 10
18.59799999998143
 20
3.315799999996671
 30
0.0
 11
20.89099999997916
 21
8.763099999991255
 31
0.0
1001
ACAD
1000
ASC_BOUNDS
1002
{
1070
    19
1005
A377
1002
}
  0
LINE
  5
A358
330
A333
100
AcDbEntity
  8
0
100
AcDbLine
 10
18.59799999998143
 20
3.315799999996671
 30
0.0
 11
16.46099999998353
 21
8.999899999990987
 31
0.0
1001
ACAD
1000
ASC_BOUNDS
1002
{
1070
    19
1005
A377
1002
}
  0
LINE
  5
A359
330
A333
100
AcDbEntity
  8
0
100
AcDbLine
 10
20.89099999997916
 20
8.763099999991255
 30
0.0
 11
22.38199999997767
 21
8.763099999991255
 31
0.0
1001
ACAD
1000
ASC_BOUNDS
1002
{
1070
    19
1005
A377
1002
}
  0
LINE
  5
A35A
330
A333
100
AcDbEntity
  8
0
100
AcDbLine
 10
24.39299999997559
 20
3.670999999996297
 30
0.0
 11
23.56599999997638
 21
5.5200999999945
 31
0.0
1001
ACAD
1000
ASC_BOUNDS
1002
{
1070
    19
1005
A378
1002
}
  0
LINE
  5
A35B
330
A333
100
AcDbEntity
  8
0
100
AcDbLine
 10
44.99999999995498
 20
-0.2368999999997641
 30
0.0
 11
40.02599999995994
 21
5.341799999994635
 31
0.0
1001
ACAD
1000
ASC_BOUNDS
1002
{
1070
    19
1005
A37A
1002
}
  0
LINE
  5
A35C
330
A333
100
AcDbEntity
  8
0
100
AcDbLine
 10
40.02599999995994
 20
5.341799999994635
 30
0.0
 11
40.02599999995994
 21
0.0
 31
0.0
1001
ACAD
1000
ASC_BOUNDS
1002
{
1070
    19
1005
A37A
1002
}
  0
LINE
  5
A35D
330
A333
100
AcDbEntity
  8
0
100
AcDbLine
 10
38.60499999996136
 20
8.999999999991019
 30
0.0
 11
38.60499999996136
 21
0.0
 31
0.0
1001
ACAD
1000
ASC_BOUNDS
1002
{
1070
    19
1005
A37A
1002
}
  0
LINE
  5
A35E
330
A333
100
AcDbEntity
  8
0
100
AcDbLine
 10
44.99999999995498
 20
8.763099999991255
 30
0.0
 11
44.99999999995498
 21
-0.2368999999997641
 31
0.0
1001
ACAD
1000
ASC_BOUNDS
1002
{
1070
    19
1005
A37A
1002
}
  0
LINE
  5
A35F
330
A333
100
AcDbEntity
  8
0
100
AcDbLine
 10
38.60499999996136
 20
0.0
 30
0.0
 11
40.02599999995994
 21
0.0
 31
0.0
1001
ACAD
1000
ASC_BOUNDS
1002
{
1070
    19
1005
A37A
1002
}
  0
LINE
  5
A360
330
A333
100
AcDbEntity
  8
0
100
AcDbLine
 10
43.57899999995641
 20
3.421199999996588
 30
0.0
 11
38.60499999996136
 21
8.999899999990987
 31
0.0
1001
ACAD
1000
ASC_BOUNDS
1002
{
1070
    19
1005
A37A
1002
}
  0
LINE
  5
A361
330
A333
100
AcDbEntity
  8
0
100
AcDbLine
 10
43.57899999995641
 20
8.763099999991255
 30
0.0
 11
43.57899999995641
 21
3.421199999996588
 31
0.0
1001
ACAD
1000
ASC_BOUNDS
1002
{
1070
    19
1005
A37A
1002
}
  0
LINE
  5
A362
330
A333
100
AcDbEntity
  8
0
100
AcDbLine
 10
43.57899999995641
 20
8.763099999991255
 30
0.0
 11
44.99999999995498
 21
8.763099999991255
 31
0.0
1001
ACAD
1000
ASC_BOUNDS
1002
{
1070
    19
1005
A37A
1002
}
  0
LINE
  5
A363
330
A333
100
AcDbEntity
  8
0
100
AcDbLine
 10
37.67199999996831
 20
8.763099999991255
 30
0.0
 11
36.23199999996837
 21
8.763099999991255
 31
0.0
  0
LINE
  5
A364
330
A333
100
AcDbEntity
  8
0
100
AcDbLine
 10
31.64199999996833
 20
8.763099999991255
 30
0.0
 11
31.64199999996833
 21
2.481619422925121
 31
0.0
  0
LINE
  5
A365
330
A333
100
AcDbEntity
  8
0
100
AcDbLine
 10
37.67199999996831
 20
8.763099999991255
 30
0.0
 11
37.67199999996831
 21
2.481619422925121
 31
0.0
  0
LINE
  5
A366
330
A333
100
AcDbEntity
  8
0
100
AcDbLine
 10
36.23199999996837
 20
8.763099999991255
 30
0.0
 11
36.23199999996837
 21
2.481619422925064
 31
0.0
  0
LINE
  5
A367
330
A333
100
AcDbEntity
  8
0
100
AcDbLine
 10
33.08199999996839
 20
8.763099999991255
 30
0.0
 11
33.08199999996839
 21
2.481619422925121
 31
0.0
  0
ARC
  5
A368
330
A333
100
AcDbEntity
  8
0
100
AcDbCircle
 10
34.65699999996832
 20
3.183099999991214
 30
0.0
 40
3.420000000000007
100
AcDbArc
 50
240.0000000000255
 51
299.9999999999766
  0
ARC
  5
A369
330
A333
100
AcDbEntity
  8
0
100
AcDbCircle
 10
34.65699999996832
 20
3.183099999991214
 30
0.0
 40
1.97999999999999
100
AcDbArc
 50
240.000000000026
 51
299.9999999999703
  0
LINE
  5
A36A
330
A333
100
AcDbEntity
  8
0
100
AcDbLine
 10
33.08199999996828
 20
8.763099999991255
 30
0.0
 11
31.64199999996833
 21
8.763099999991255
 31
0.0
  0
ARC
  5
A36B
330
A333
100
AcDbEntity
  8
0
100
AcDbCircle
 10
35.06199999996829
 20
2.481619422925064
 30
0.0
 40
1.17
100
AcDbArc
 50
299.9999999999699
 51
0.0
  0
ARC
  5
A36C
330
A333
100
AcDbEntity
  8
0
100
AcDbCircle
 10
34.25199999996835
 20
2.481619422925121
 30
0.0
 40
1.17
100
AcDbArc
 50
180.0
 51
240.0000000000238
  0
ARC
  5
A36D
330
A333
100
AcDbEntity
  8
0
100
AcDbCircle
 10
35.06199999996841
 20
2.481619422925121
 30
0.0
 40
2.61
100
AcDbArc
 50
299.9999999999756
 51
0.0
  0
ARC
  5
A36E
330
A333
100
AcDbEntity
  8
0
100
AcDbCircle
 10
34.25199999996835
 20
2.481619422925121
 30
0.0
 40
2.61
100
AcDbArc
 50
180.0
 51
240.0000000000244
  0
LINE
  5
A36F
330
A333
100
AcDbEntity
  8
0
100
AcDbLine
 10
29.30199999996933
 20
8.763099999991255
 30
0.0
 11
30.74199999996927
 21
8.763099999991255
 31
0.0
1001
ACAD
1000
ASC_BOUNDS
1002
{
1070
    19
1005
A378
1002
}
  0
LINE
  5
A370
330
A333
100
AcDbEntity
  8
0
100
AcDbLine
 10
30.74199999996927
 20
8.763099999991255
 30
0.0
 11
30.74199999996927
 21
2.373099999991211
 31
0.0
1001
ACAD
1000
ASC_BOUNDS
1002
{
1070
    19
1005
A378
1002
}
  0
LINE
  5
A371
330
A333
100
AcDbEntity
  8
0
100
AcDbLine
 10
26.02015566812236
 20
0.0330999999912365
 30
0.0
 11
28.40199999996923
 21
0.0330999999912365
 31
0.0
1001
ACAD
1000
ASC_BOUNDS
1002
{
1070
    19
1005
A378
1002
}
  0
LINE
  5
A372
330
A333
100
AcDbEntity
  8
0
100
AcDbLine
 10
29.30199999996933
 20
8.763099999991255
 30
0.0
 11
29.30199999996933
 21
2.283099999991236
 31
0.0
1001
ACAD
1000
ASC_BOUNDS
1002
{
1070
    19
1005
A378
1002
}
  0
LINE
  5
A373
330
A333
100
AcDbEntity
  8
0
100
AcDbLine
 10
26.97358892824991
 20
1.383099999991202
 30
0.0
 11
28.40199999996923
 21
1.383099999991202
 31
0.0
1001
ACAD
1000
ASC_BOUNDS
1002
{
1070
    19
1005
A378
1002
}
  0
ARC
  5
A374
330
A333
100
AcDbEntity
  8
0
100
AcDbCircle
 10
28.40199999996923
 20
2.283099999991236
 30
0.0
 40
0.9
100
AcDbArc
 50
270.0
 51
0.0
1001
ACAD
1000
ASC_BOUNDS
1002
{
1070
    19
1005
A378
1002
}
  0
ARC
  5
A375
330
A333
100
AcDbEntity
  8
0
100
AcDbCircle
 10
28.40199999996923
 20
2.373099999991211
 30
0.0
 40
2.34
100
AcDbArc
 50
270.0
 51
0.0
1001
ACAD
1000
ASC_BOUNDS
1002
{
1070
    19
1005
A378
1002
}
  0
INSERT
  5
A376
330
A333
100
AcDbEntity
  8
0
100
AcDbBlockReference
  2
*X26
 10
0.0
 20
0.0
 30
0.0
1001
ACAD
1000
HATCH
1002
{
1070
    19
1000
ANSI37
1040
0.15
1040
0.0
1000
ASC_BOUNDS
1070
     2
1070
     2
1070
    12
1005
A335
1005
A336
1005
A33D
1005
A34C
1005
A34F
1005
A34D
1005
A33E
1005
A343
1005
A341
1005
A345
1005
A344
1005
A346
1070
     2
1070
     3
1005
A351
1005
A353
1005
A352
1000
ASC_SEEDPOINT
1011
3.614004224891801
1021
2.996669441146025
1031
0.0
1000
R14_HATCH_DATA
1000
A376
1011
1.0
1021
0.0
1031
0.0
1011
0.0
1021
1.0
1031
0.0
1011
0.0
1021
0.0
1031
1.0
1040
0.0
1010
0.0
1020
0.0
1030
1.0
1000
ANSI37
1070
     0
1070
     1
1071
        2
1071
        7
1070
     0
1070
     1
1071
       17
1040
13.26299999998673
1040
-0.0001000000000317
1040
9.236999999990758
1040
8.999899999990987
1040
9.236999999990758
1040
8.999999999991019
1040
5.657999999994331
1040
0.9999999999989768
1040
3.181999999996833
1040
4.668599999995308
1040
6.432999999993513
1040
8.763099999991255
1040
4.617999999995391
1040
8.763099999991255
1040
1.420999999998571
1040
4.736799999995242
1040
4.617999999995391
1040
-0.0001000000000317
1040
4.617999999995391
1040
0.0
1040
6.766999999993232
1040
0.0
1040
6.766999999993232
1040
-0.0001000000000317
1040
7.826999999992154
1040
2.368399999997621
1040
10.64699999998936
1040
2.368399999997621
1040
11.70599999998831
1040
-0.0001000000000317
1040
11.70599999998831
1040
0.0
1040
13.26299999998673
1040
0.0
1071
       12
1005
A335
1005
A336
1005
A33D
1005
A34C
1005
A34F
1005
A34D
1005
A33E
1005
A343
1005
A341
1005
A345
1005
A344
1005
A346
1071
       22
1070
     0
1070
     1
1071
        3
1040
9.236999999990758
1040
5.5200999999945
1040
10.06399999998996
1040
3.670999999996297
1040
8.409999999991555
1040
3.670999999996297
1071
        3
1005
A351
1005
A353
1005
A352
1070
     0
1070
     1
1040
0.0
1040
0.15
1070
     0
1070
     2
1040
0.7853981633974483
1040
49.29960901727088
1040
-10.17736998311392
1040
-0.3367596045400932
1040
0.3367596045400932
1070
     0
1040
2.356194490192345
1040
49.29960901727088
1040
-10.17736998311392
1040
-0.3367596045400932
1040
-0.3367596045400932
1070
     0
1040
0.0110235143455945
1071
        2
1040
3.614004224891801
1040
2.996669441146025
1040
0.0
1040
3.614004224891801
1040
2.996669441146025
1040
0.0
1002
}
  0
INSERT
  5
A377
330
A333
100
AcDbEntity
  8
0
100
AcDbBlockReference
  2
*X27
 10
0.0
 20
0.0
 30
0.0
1001
ACAD
1000
HATCH
1002
{
1070
    19
1000
ANSI37
1040
0.15
1040
0.0
1000
ASC_BOUNDS
1070
     1
1070
     2
1070
    10
1005
A337
1005
A338
1005
A359
1005
A357
1005
A358
1005
A34B
1005
A350
1005
A354
1005
A33A
1005
A339
1000
ASC_SEEDPOINT
1011
14.73245321214324
1021
2.798246178283421
1031
0.0
1000
R14_HATCH_DATA
1000
A377
1011
1.0
1021
0.0
1031
0.0
1011
0.0
1021
1.0
1031
0.0
1011
0.0
1021
0.0
1031
1.0
1040
0.0
1010
0.0
1020
0.0
1030
1.0
1000
ANSI37
1070
     0
1070
     1
1071
        1
1071
        7
1070
     0
1070
     1
1071
       10
1040
16.46099999998353
1040
5.432899999994561
1040
18.59199999998134
1040
-0.2368999999997641
1040
22.38199999997767
1040
8.763099999991255
1040
20.89099999997916
1040
8.763099999991255
1040
18.59799999998143
1040
3.315799999996671
1040
16.46099999998353
1040
8.999899999990987
1040
14.32399999998563
1040
3.315799999996671
1040
12.02999999998792
1040
8.763099999991255
1040
10.53899999998941
1040
8.763099999991255
1040
14.32899999998563
1040
-0.2368999999997641
1071
       10
1005
A337
1005
A338
1005
A359
1005
A357
1005
A358
1005
A34B
1005
A350
1005
A354
1005
A33A
1005
A339
1070
     0
1070
     1
1040
0.0
1040
0.15
1070
     0
1070
     2
1040
0.7853981633974483
1040
49.29960901727088
1040
-10.17736998311392
1040
-0.3367596045400932
1040
0.3367596045400932
1070
     0
1040
2.356194490192345
1040
49.29960901727088
1040
-10.17736998311392
1040
-0.3367596045400932
1040
-0.3367596045400932
1070
     0
1040
0.0110235143455945
1071
        1
1040
14.73245321214324
1040
2.798246178283421
1040
0.0
1002
}
  0
INSERT
  5
A378
330
A333
100
AcDbEntity
  8
0
100
AcDbBlockReference
  2
*X28
 10
0.0
 20
0.0
 30
0.0
1001
ACAD
1000
HATCH
1002
{
1070
    19
1000
ANSI37
1040
0.15
1040
0.0
1000
ASC_BOUNDS
1070
     2
1070
     2
1070
    13
1005
A33B
1005
A348
1005
A349
1005
A347
1005
A34A
1005
A371
1005
A375
1005
A370
1005
A36F
1005
A372
1005
A374
1005
A373
1005
A33C
1070
     2
1070
     3
1005
A355
1005
A35A
1005
A356
1000
ASC_SEEDPOINT
1011
21.97929957367762
1021
3.294304244259308
1031
0.0
1000
R14_HATCH_DATA
1000
A378
1011
1.0
1021
0.0
1031
0.0
1011
0.0
1021
1.0
1031
0.0
1011
0.0
1021
0.0
1031
1.0
1040
0.0
1010
0.0
1020
0.0
1030
1.0
1000
ANSI37
1070
     0
1070
     1
1071
        2
1071
        7
1070
     1
1070
     1
1071
       15
1040
23.56599999997638
1040
8.999899999990987
1040
0.0
1040
19.53899999998043
1040
-0.0001000000000317
1040
0.0
1040
19.53899999998043
1040
0.0
1040
0.0
1040
21.09599999997886
1040
0.0
1040
0.0
1040
21.09599999997886
1040
-0.0001000000000317
1040
0.0
1040
22.15599999997789
1040
2.368399999997621
1040
0.0
1040
24.97599999997499
1040
2.368399999997621
1040
0.0
1040
26.02015566812236
1040
0.0330999999912365
1040
0.0
1040
28.40199999996923
1040
0.0330999999912365
1040
0.414213562373095
1040
30.74199999996923
1040
2.373099999991211
1040
0.0
1040
30.74199999996927
1040
8.763099999991255
1040
0.0
1040
29.30199999996933
1040
8.763099999991255
1040
0.0
1040
29.30199999996933
1040
2.283099999991236
1040
-0.414213562373095
1040
28.40199999996923
1040
1.383099999991237
1040
0.0
1040
26.97358892824991
1040
1.383099999991202
1040
0.0
1071
       13
1005
A33B
1005
A348
1005
A349
1005
A347
1005
A34A
1005
A371
1005
A375
1005
A370
1005
A36F
1005
A372
1005
A374
1005
A373
1005
A33C
1071
       22
1070
     0
1070
     1
1071
        3
1040
22.7389999999773
1040
3.670999999996297
1040
23.56599999997638
1040
5.5200999999945
1040
24.39299999997559
1040
3.670999999996297
1071
        3
1005
A355
1005
A35A
1005
A356
1070
     0
1070
     1
1040
0.0
1040
0.15
1070
     0
1070
     2
1040
0.7853981633974483
1040
49.29960901727088
1040
-10.17736998311392
1040
-0.3367596045400932
1040
0.3367596045400932
1070
     0
1040
2.356194490192345
1040
49.29960901727088
1040
-10.17736998311392
1040
-0.3367596045400932
1040
-0.3367596045400932
1070
     0
1040
0.0110235143455945
1071
        2
1040
21.97929957367762
1040
3.294304244259308
1040
0.0
1040
21.97929957367762
1040
3.294304244259308
1040
0.0
1002
}
  0
INSERT
  5
A379
330
A333
100
AcDbEntity
  8
0
100
AcDbBlockReference
  2
*X29
 10
0.0
 20
0.0
 30
0.0
1001
ACAD
1000
HATCH
1002
{
1070
    19
1000
ANSI37
1040
0.15
1040
0.0
1000
R14_HATCH_DATA
1000
A379
1011
1.0
1021
0.0
1031
0.0
1011
0.0
1021
1.0
1031
0.0
1011
0.0
1021
0.0
1031
1.0
1040
0.0
1010
0.0
1020
0.0
1030
1.0
1000
ANSI37
1070
     0
1070
     1
1071
        1
1071
        7
1070
     1
1070
     1
1071
       12
1040
31.64199999996833
1040
2.481619422925121
1040
0.2679491924310942
1040
32.94699999997067
1040
0.2212931190493919
1040
0.2679491924301353
1040
36.36699999995983
1040
0.2212931190459813
1040
0.2679491924321411
1040
37.67199999996831
1040
2.481619422928361
1040
0.0
1040
37.67199999996831
1040
8.763099999991255
1040
0.0
1040
36.23199999996837
1040
8.763099999991255
1040
0.0
1040
36.23199999996837
1040
2.481619422925064
1040
-0.2679491924310291
1040
35.64699999996708
1040
1.468369700498386
1040
-0.267949192430519
1040
33.66699999997093
1040
1.468369700497703
1040
-0.267949192431809
1040
33.08199999996839
1040
2.481619422926997
1040
0.0
1040
33.08199999996839
1040
8.763099999991255
1040
0.0
1040
31.64199999996833
1040
8.763099999991255
1040
0.0
1071
        0
1070
     0
1070
     1
1040
0.0
1040
0.15
1070
     0
1070
     2
1040
0.7853981633974483
1040
49.29960901727088
1040
-10.17736998311392
1040
-0.3367596045400932
1040
0.3367596045400932
1070
     0
1040
2.356194490192345
1040
49.29960901727088
1040
-10.17736998311392
1040
-0.3367596045400932
1040
-0.3367596045400932
1070
     0
1040
0.0110235143455945
1071
        1
1040
32.30357378967278
1040
3.988785755459219
1040
0.0
1002
}
  0
INSERT
  5
A37A
330
A333
100
AcDbEntity
  8
0
100
AcDbBlockReference
  2
*X30
 10
0.0
 20
0.0
 30
0.0
1001
ACAD
1000
HATCH
1002
{
1070
    19
1000
ANSI37
1040
0.15
1040
0.0
1000
ASC_BOUNDS
1070
     1
1070
     2
1070
     8
1005
A35B
1005
A35E
1005
A362
1005
A361
1005
A360
1005
A35D
1005
A35F
1005
A35C
1000
ASC_SEEDPOINT
1011
39.74896370716704
1021
4.484843821435049
1031
0.0
1000
R14_HATCH_DATA
1000
A37A
1011
1.0
1021
0.0
1031
0.0
1011
0.0
1021
1.0
1031
0.0
1011
0.0
1021
0.0
1031
1.0
1040
0.0
1010
0.0
1020
0.0
1030
1.0
1000
ANSI37
1070
     0
1070
     1
1071
        1
1071
        7
1070
     0
1070
     1
1071
        9
1040
40.02599999995994
1040
5.341799999994635
1040
44.99999999995498
1040
-0.2368999999997641
1040
44.99999999995498
1040
8.763099999991255
1040
43.57899999995641
1040
8.763099999991255
1040
43.57899999995641
1040
3.421199999996588
1040
38.60499999996136
1040
8.999899999990987
1040
38.60499999996136
1040
8.999999999991019
1040
38.60499999996136
1040
0.0
1040
40.02599999995994
1040
0.0
1071
        8
1005
A35B
1005
A35E
1005
A362
1005
A361
1005
A360
1005
A35D
1005
A35F
1005
A35C
1070
     0
1070
     1
1040
0.0
1040
0.15
1070
     0
1070
     2
1040
0.7853981633974483
1040
49.29960901727088
1040
-10.17736998311392
1040
-0.3367596045400932
1040
0.3367596045400932
1070
     0
1040
2.356194490192345
1040
49.29960901727088
1040
-10.17736998311392
1040
-0.3367596045400932
1040
-0.3367596045400932
1070
     0
1040
0.0110235143455945
1071
        1
1040
39.74896370716704
1040
4.484843821435049
1040
0.0
1002
}
  0
INSERT
  5
A37B
330
A333
100
AcDbEntity
  8
0
100
AcDbBlockReference
  2
*X31
 10
0.0
 20
0.0
 30
0.0
1001
ACAD
1000
HATCH
1002
{
1070
    19
1000
ANSI37
1040
0.15
1040
0.0
1000
ASC_BOUNDS
1070
     1
1070
     2
1070
     4
1005
A33F
1005
A34E
1005
A340
1005
A342
1000
ASC_SEEDPOINT
1011
1.079051535452663
1021
4.148538732891836
1031
0.0
1000
R14_HATCH_DATA
1000
A37B
1011
1.0
1021
0.0
1031
0.0
1011
0.0
1021
1.0
1031
0.0
1011
0.0
1021
0.0
1031
1.0
1040
0.0
1010
0.0
1020
0.0
1030
1.0
1000
ANSI37
1070
     0
1070
     1
1071
        1
1071
        7
1070
     0
1070
     1
1071
        4
1040
1.420999999998571
1040
0.0
1040
1.420999999998571
1040
8.763099999991255
1040
0.0
1040
8.763099999991255
1040
0.0
1040
0.0
1071
        4
1005
A33F
1005
A34E
1005
A340
1005
A342
1070
     0
1070
     1
1040
0.0
1040
0.15
1070
     0
1070
     2
1040
0.7853981633974483
1040
49.29960901727088
1040
-10.17736998311392
1040
-0.3367596045400932
1040
0.3367596045400932
1070
     0
1040
2.356194490192345
1040
49.29960901727088
1040
-10.17736998311392
1040
-0.3367596045400932
1040
-0.3367596045400932
1070
     0
1040
0.0053004257112761
1071
        1
1040
1.079051535452663
1040
4.148538732891836
1040
0.0
1002
}
  0
ENDBLK
  5
AA57
330
A333
100
AcDbEntity
  8
0
100
AcDbBlockEnd
  0
BLOCK
  5
CFB2
330
CE24
100
AcDbEntity
  8
0
100
AcDbBlockBegin
  2
*X26
 70
     1
 10
0.0
 20
0.0
 30
0.0
  3
*X26
  1

  0
LINE
  5
CE25
330
CE24
100
AcDbEntity
  8
0
  6
CONTINUOUS
100
AcDbLine
 10
3.418023043697893
 20
7.251849696850613
 30
0.0
 11
4.929273346838536
 21
8.763099999991255
 31
0.0
  0
LINE
  5
CE26
330
CE24
100
AcDbEntity
  8
0
  6
CONTINUOUS
100
AcDbLine
 10
1.483656411257782
 20
4.643963855330318
 30
0.0
 11
5.60279255591872
 21
8.763099999991255
 31
0.0
  0
LINE
  5
CE27
330
CE24
100
AcDbEntity
  8
0
  6
CONTINUOUS
100
AcDbLine
 10
1.755053947328235
 20
4.241842182320584
 30
0.0
 11
6.276311764998907
 21
8.763099999991255
 31
0.0
  0
LINE
  5
CE28
330
CE24
100
AcDbEntity
  8
0
  6
CONTINUOUS
100
AcDbLine
 10
2.026451483398688
 20
3.839720509310849
 30
0.0
 11
4.441040904851878
 21
6.254309930764039
 31
0.0
  0
LINE
  5
CE29
330
CE24
100
AcDbEntity
  8
0
  6
CONTINUOUS
100
AcDbLine
 10
2.297849019469139
 20
3.437598836301114
 30
0.0
 11
3.321765168359338
 21
4.461514985191313
 31
0.0
  0
LINE
  5
CE2A
330
CE24
100
AcDbEntity
  8
0
  6
CONTINUOUS
100
AcDbLine
 10
2.569246555539591
 20
3.03547716329138
 30
0.0
 11
3.593163397972743
 21
4.059394005724531
 31
0.0
  0
LINE
  5
CE2B
330
CE24
100
AcDbEntity
  8
0
  6
CONTINUOUS
100
AcDbLine
 10
2.840644091610043
 20
2.633355490281646
 30
0.0
 11
3.864561627586149
 21
3.657273026257751
 31
0.0
  0
LINE
  5
CE2C
330
CE24
100
AcDbEntity
  8
0
  6
CONTINUOUS
100
AcDbLine
 10
3.112041627680496
 20
2.231233817271911
 30
0.0
 11
4.135959857199554
 21
3.25515204679097
 31
0.0
  0
LINE
  5
CE2D
330
CE24
100
AcDbEntity
  8
0
  6
CONTINUOUS
100
AcDbLine
 10
3.383439163750948
 20
1.829112144262177
 30
0.0
 11
4.40735808681296
 21
2.853031067324189
 31
0.0
  0
LINE
  5
CE2E
330
CE24
100
AcDbEntity
  8
0
  6
CONTINUOUS
100
AcDbLine
 10
3.654836699821399
 20
1.426990471252442
 30
0.0
 11
4.678756316426365
 21
2.450910087857407
 31
0.0
  0
LINE
  5
CE2F
330
CE24
100
AcDbEntity
  8
0
  6
CONTINUOUS
100
AcDbLine
 10
3.926234235891853
 20
1.024868798242709
 30
0.0
 11
4.95015454603977
 21
2.048789108390626
 31
0.0
  0
LINE
  5
CE30
330
CE24
100
AcDbEntity
  8
0
  6
CONTINUOUS
100
AcDbLine
 10
4.197631771962304
 20
0.6227471252329737
 30
0.0
 11
5.221552775653176
 21
1.646668128923846
 31
0.0
  0
LINE
  5
CE31
330
CE24
100
AcDbEntity
  8
0
  6
CONTINUOUS
100
AcDbLine
 10
8.715877546767851
 20
7.835069736359266
 30
0.0
 11
9.435953450375058
 21
8.555145639966472
 31
0.0
  0
LINE
  5
CE32
330
CE24
100
AcDbEntity
  8
0
  6
CONTINUOUS
100
AcDbLine
 10
8.170620868422267
 20
6.616293848933497
 30
0.0
 11
9.644120833743461
 21
8.08979381425469
 31
0.0
  0
LINE
  5
CE33
330
CE24
100
AcDbEntity
  8
0
  6
CONTINUOUS
100
AcDbLine
 10
7.625364190076684
 20
5.397517961507727
 30
0.0
 11
9.852288217111864
 21
7.624441988542907
 31
0.0
  0
LINE
  5
CE34
330
CE24
100
AcDbEntity
  8
0
  6
CONTINUOUS
100
AcDbLine
 10
7.080107511731101
 20
4.178742074081957
 30
0.0
 11
10.06045560048027
 21
7.159090162831124
 31
0.0
  0
LINE
  5
CE35
330
CE24
100
AcDbEntity
  8
0
  6
CONTINUOUS
100
AcDbLine
 10
6.534850833385518
 20
2.959966186656187
 30
0.0
 11
10.26862298384867
 21
6.693738337119342
 31
0.0
  0
LINE
  5
CE36
330
CE24
100
AcDbEntity
  8
0
  6
CONTINUOUS
100
AcDbLine
 10
4.469029308032756
 20
0.2206254522232385
 30
0.0
 11
5.492951005266582
 21
1.244547149457064
 31
0.0
  0
LINE
  5
CE37
330
CE24
100
AcDbEntity
  8
0
  6
CONTINUOUS
100
AcDbLine
 10
5.989594155039935
 20
1.741190299230417
 30
0.0
 11
8.806950407233131
 21
4.558546551423613
 31
0.0
  0
LINE
  5
CE38
330
CE24
100
AcDbEntity
  8
0
  6
CONTINUOUS
100
AcDbLine
 10
9.401251593263643
 20
5.152847737454126
 30
0.0
 11
10.47679036721708
 21
6.228386511407559
 31
0.0
  0
LINE
  5
CE39
330
CE24
100
AcDbEntity
  8
0
  6
CONTINUOUS
100
AcDbLine
 10
4.921837203428691
 20
-0.0000858614610131
 30
0.0
 11
8.592923064886001
 21
3.670999999996297
 31
0.0
  0
LINE
  5
CE3A
330
CE24
100
AcDbEntity
  8
0
  6
CONTINUOUS
100
AcDbLine
 10
9.609390446785305
 20
4.6874673818956
 30
0.0
 11
10.68495775058548
 21
5.763034685695775
 31
0.0
  0
LINE
  5
CE3B
330
CE24
100
AcDbEntity
  8
0
  6
CONTINUOUS
100
AcDbLine
 10
5.595387755019432
 20
-0.0000545189504582
 30
0.0
 11
7.716137258923768
 21
2.120694984953879
 31
0.0
  0
LINE
  5
CE3C
330
CE24
100
AcDbEntity
  8
0
  6
CONTINUOUS
100
AcDbLine
 10
6.268938306610172
 20
-0.000023176439905
 30
0.0
 11
7.170485805526503
 21
0.9015243224764267
 31
0.0
  0
LINE
  5
CE3D
330
CE24
100
AcDbEntity
  8
0
  6
CONTINUOUS
100
AcDbLine
 10
7.963842273967511
 20
2.368399999997621
 30
0.0
 11
9.266442273966188
 21
3.670999999996297
 31
0.0
  0
LINE
  5
CE3E
330
CE24
100
AcDbEntity
  8
0
  6
CONTINUOUS
100
AcDbLine
 10
8.637361483047696
 20
2.368399999997621
 30
0.0
 11
9.939961483046375
 21
3.670999999996297
 31
0.0
  0
LINE
  5
CE3F
330
CE24
100
AcDbEntity
  8
0
  6
CONTINUOUS
100
AcDbLine
 10
9.817529300306965
 20
4.222087026337075
 30
0.0
 11
10.89312513395388
 21
5.297682859983993
 31
0.0
  0
LINE
  5
CE40
330
CE24
100
AcDbEntity
  8
0
  6
CONTINUOUS
100
AcDbLine
 10
10.02566815382863
 20
3.756706670778549
 30
0.0
 11
11.10129251732229
 21
4.832331034272211
 31
0.0
  0
LINE
  5
CE41
330
CE24
100
AcDbEntity
  8
0
  6
CONTINUOUS
100
AcDbLine
 10
9.310880692127883
 20
2.368399999997621
 30
0.0
 11
11.30945990069069
 21
4.366979208560428
 31
0.0
  0
LINE
  5
CE42
330
CE24
100
AcDbEntity
  8
0
  6
CONTINUOUS
100
AcDbLine
 10
9.98439990120807
 20
2.36839999999762
 30
0.0
 11
11.5176272840591
 21
3.901627382848645
 31
0.0
  0
LINE
  5
CE43
330
CE24
100
AcDbEntity
  8
0
  6
CONTINUOUS
100
AcDbLine
 10
10.65037369446246
 20
2.36085458417182
 30
0.0
 11
11.7257946674275
 21
3.436275557136862
 31
0.0
  0
LINE
  5
CE44
330
CE24
100
AcDbEntity
  8
0
  6
CONTINUOUS
100
AcDbLine
 10
10.85847197087848
 20
1.895433651507656
 30
0.0
 11
11.9339620507959
 21
2.97092373142508
 31
0.0
  0
LINE
  5
CE45
330
CE24
100
AcDbEntity
  8
0
  6
CONTINUOUS
100
AcDbLine
 10
11.0665702472945
 20
1.430012718843491
 30
0.0
 11
12.14212943416431
 21
2.505571905713296
 31
0.0
  0
LINE
  5
CE46
330
CE24
100
AcDbEntity
  8
0
  6
CONTINUOUS
100
AcDbLine
 10
11.27466852371052
 20
0.9645917861793256
 30
0.0
 11
12.35029681753271
 21
2.040220080001513
 31
0.0
  0
LINE
  5
CE47
330
CE24
100
AcDbEntity
  8
0
  6
CONTINUOUS
100
AcDbLine
 10
11.48276680012654
 20
0.4991708535151611
 30
0.0
 11
12.55846420090111
 21
1.57486825428973
 31
0.0
  0
LINE
  5
CE48
330
CE24
100
AcDbEntity
  8
0
  6
CONTINUOUS
100
AcDbLine
 10
11.69086507654257
 20
0.0337499208509957
 30
0.0
 11
12.76663158426952
 21
1.109516428577947
 31
0.0
  0
LINE
  5
CE49
330
CE24
100
AcDbEntity
  8
0
  6
CONTINUOUS
100
AcDbLine
 10
12.33057447873954
 20
-0.0000598860322123
 30
0.0
 11
12.97479896763792
 21
0.6441646028661663
 31
0.0
  0
LINE
  5
CE4A
330
CE24
100
AcDbEntity
  8
0
  6
CONTINUOUS
100
AcDbLine
 10
13.00413694809395
 20
-0.0000166257579952
 30
0.0
 11
13.18296635100632
 21
0.1788127771543824
 31
0.0
  0
LINE
  5
CE4B
330
CE24
100
AcDbEntity
  8
0
  6
CONTINUOUS
100
AcDbLine
 10
4.772852165289667
 20
-0.000092794222212
 30
0.0
 11
4.296495091028902
 21
0.4762642800385528
 31
0.0
  0
LINE
  5
CE4C
330
CE24
100
AcDbEntity
  8
0
  6
CONTINUOUS
100
AcDbLine
 10
5.446340034776103
 20
-0.0000614546284616
 30
0.0
 11
2.898195908335625
 21
2.548082671812017
 31
0.0
  0
LINE
  5
CE4D
330
CE24
100
AcDbEntity
  8
0
  6
CONTINUOUS
100
AcDbLine
 10
6.119827904262539
 20
-0.0000301150347113
 30
0.0
 11
1.499896725642348
 21
4.61990106358548
 31
0.0
  0
LINE
  5
CE4E
330
CE24
100
AcDbEntity
  8
0
  6
CONTINUOUS
100
AcDbLine
 10
6.775136745476159
 20
0.0181802528318542
 30
0.0
 11
5.699826040202669
 21
1.093490958105344
 31
0.0
  0
LINE
  5
CE4F
330
CE24
100
AcDbEntity
  8
0
  6
CONTINUOUS
100
AcDbLine
 10
6.983376846288489
 20
0.4834593610997118
 30
0.0
 11
5.908008617934405
 21
1.558827589453796
 31
0.0
  0
LINE
  5
CE50
330
CE24
100
AcDbEntity
  8
0
  6
CONTINUOUS
100
AcDbLine
 10
5.377063484962296
 20
1.416253513345719
 30
0.0
 11
1.702276957014131
 21
5.091040041293883
 31
0.0
  0
LINE
  5
CE51
330
CE24
100
AcDbEntity
  8
0
  6
CONTINUOUS
100
AcDbLine
 10
3.978745891735324
 20
3.488090315652877
 30
0.0
 11
2.000373521109399
 21
5.466462686278803
 31
0.0
  0
LINE
  5
CE52
330
CE24
100
AcDbEntity
  8
0
  6
CONTINUOUS
100
AcDbLine
 10
7.191616947100819
 20
0.948738469367568
 30
0.0
 11
6.11619119566614
 21
2.024164220802247
 31
0.0
  0
LINE
  5
CE53
330
CE24
100
AcDbEntity
  8
0
  6
CONTINUOUS
100
AcDbLine
 10
7.399857047913149
 20
1.414017577635424
 30
0.0
 11
6.324373773397875
 21
2.489500852150698
 31
0.0
  0
LINE
  5
CE54
330
CE24
100
AcDbEntity
  8
0
  6
CONTINUOUS
100
AcDbLine
 10
7.608097148725479
 20
1.879296685903281
 30
0.0
 11
6.53255635112961
 21
2.95483748349915
 31
0.0
  0
LINE
  5
CE55
330
CE24
100
AcDbEntity
  8
0
  6
CONTINUOUS
100
AcDbLine
 10
7.816337249537808
 20
2.344575794171138
 30
0.0
 11
6.740738928861345
 21
3.420174114847601
 31
0.0
  0
LINE
  5
CE56
330
CE24
100
AcDbEntity
  8
0
  6
CONTINUOUS
100
AcDbLine
 10
3.310241080789734
 20
4.830114335678653
 30
0.0
 11
2.298470085204666
 21
5.84188533126372
 31
0.0
  0
LINE
  5
CE57
330
CE24
100
AcDbEntity
  8
0
  6
CONTINUOUS
100
AcDbLine
 10
3.60832983563551
 20
5.205544789913063
 30
0.0
 11
2.596566649299935
 21
6.217307976248638
 31
0.0
  0
LINE
  5
CE58
330
CE24
100
AcDbEntity
  8
0
  6
CONTINUOUS
100
AcDbLine
 10
3.906418590481286
 20
5.580975244147473
 30
0.0
 11
2.894663213395203
 21
6.592730621233557
 31
0.0
  0
LINE
  5
CE59
330
CE24
100
AcDbEntity
  8
0
  6
CONTINUOUS
100
AcDbLine
 10
4.204507345327062
 20
5.956405698381884
 30
0.0
 11
3.192759777490472
 21
6.968153266218474
 31
0.0
  0
LINE
  5
CE5A
330
CE24
100
AcDbEntity
  8
0
  6
CONTINUOUS
100
AcDbLine
 10
8.466032252791512
 20
2.368399999997621
 30
0.0
 11
6.948921506593081
 21
3.885510746196053
 31
0.0
  0
LINE
  5
CE5B
330
CE24
100
AcDbEntity
  8
0
  6
CONTINUOUS
100
AcDbLine
 10
9.139551461871699
 20
2.36839999999762
 30
0.0
 11
7.157104084324816
 21
4.350847377544504
 31
0.0
  0
LINE
  5
CE5C
330
CE24
100
AcDbEntity
  8
0
  6
CONTINUOUS
100
AcDbLine
 10
4.502596100172839
 20
6.331836152616295
 30
0.0
 11
3.49085634158574
 21
7.343575911203393
 31
0.0
  0
LINE
  5
CE5D
330
CE24
100
AcDbEntity
  8
0
  6
CONTINUOUS
100
AcDbLine
 10
4.800684855018615
 20
6.707266606850705
 30
0.0
 11
3.788952905681008
 21
7.718998556188312
 31
0.0
  0
LINE
  5
CE5E
330
CE24
100
AcDbEntity
  8
0
  6
CONTINUOUS
100
AcDbLine
 10
12.18154012887317
 20
-0.0000694579236642
 30
0.0
 11
11.32140332908496
 21
0.8600673418645499
 31
0.0
  0
LINE
  5
CE5F
330
CE24
100
AcDbEntity
  8
0
  6
CONTINUOUS
100
AcDbLine
 10
12.85501608323566
 20
-0.0000262032059659
 30
0.0
 11
10.77672456435345
 21
2.078265315676246
 31
0.0
  0
LINE
  5
CE60
330
CE24
100
AcDbEntity
  8
0
  6
CONTINUOUS
100
AcDbLine
 10
9.813070670951886
 20
2.36839999999762
 30
0.0
 11
8.51047067095321
 21
3.670999999996297
 31
0.0
  0
LINE
  5
CE61
330
CE24
100
AcDbEntity
  8
0
  6
CONTINUOUS
100
AcDbLine
 10
10.48658988003207
 20
2.36839999999762
 30
0.0
 11
9.183989880033396
 21
3.670999999996297
 31
0.0
  0
LINE
  5
CE62
330
CE24
100
AcDbEntity
  8
0
  6
CONTINUOUS
100
AcDbLine
 10
8.441048632286794
 20
3.740422038662712
 30
0.0
 11
7.365286662056551
 21
4.816184008892956
 31
0.0
  0
LINE
  5
CE63
330
CE24
100
AcDbEntity
  8
0
  6
CONTINUOUS
100
AcDbLine
 10
8.649187485808454
 20
4.205802394221237
 30
0.0
 11
7.573469239788285
 21
5.281520640241407
 31
0.0
  0
LINE
  5
CE64
330
CE24
100
AcDbEntity
  8
0
  6
CONTINUOUS
100
AcDbLine
 10
5.098773609864391
 20
7.082697061085115
 30
0.0
 11
4.087049469776277
 21
8.09442120117323
 31
0.0
  0
LINE
  5
CE65
330
CE24
100
AcDbEntity
  8
0
  6
CONTINUOUS
100
AcDbLine
 10
5.396862364710167
 20
7.458127515319526
 30
0.0
 11
4.385146033871544
 21
8.469843846158149
 31
0.0
  0
LINE
  5
CE66
330
CE24
100
AcDbEntity
  8
0
  6
CONTINUOUS
100
AcDbLine
 10
13.04801363231285
 20
0.4804954567970334
 30
0.0
 11
9.85750908911358
 21
3.670999999996297
 31
0.0
  0
LINE
  5
CE67
330
CE24
100
AcDbEntity
  8
0
  6
CONTINUOUS
100
AcDbLine
 10
8.857326339330116
 20
4.671182749779763
 30
0.0
 11
7.781651817520021
 21
5.746857271589858
 31
0.0
  0
LINE
  5
CE68
330
CE24
100
AcDbEntity
  8
0
  6
CONTINUOUS
100
AcDbLine
 10
5.694951119555943
 20
7.833557969553937
 30
0.0
 11
4.765409089118624
 21
8.763099999991255
 31
0.0
  0
LINE
  5
CE69
330
CE24
100
AcDbEntity
  8
0
  6
CONTINUOUS
100
AcDbLine
 10
12.50286117236978
 20
1.699167125820288
 30
0.0
 11
9.68611877250287
 21
4.515909525687196
 31
0.0
  0
LINE
  5
CE6A
330
CE24
100
AcDbEntity
  8
0
  6
CONTINUOUS
100
AcDbLine
 10
9.065465192851777
 20
5.136563105338288
 30
0.0
 11
7.989834395251757
 21
6.21219390293831
 31
0.0
  0
LINE
  5
CE6B
330
CE24
100
AcDbEntity
  8
0
  6
CONTINUOUS
100
AcDbLine
 10
5.993039874401719
 20
8.208988423788346
 30
0.0
 11
5.43892829819881
 21
8.763099999991255
 31
0.0
  0
LINE
  5
CE6C
330
CE24
100
AcDbEntity
  8
0
  6
CONTINUOUS
100
AcDbLine
 10
11.95770871242671
 20
2.917838794843543
 30
0.0
 11
8.19801697298349
 21
6.677530534286761
 31
0.0
  0
LINE
  5
CE6D
330
CE24
100
AcDbEntity
  8
0
  6
CONTINUOUS
100
AcDbLine
 10
6.291128629247495
 20
8.584418878022756
 30
0.0
 11
6.112447507278997
 21
8.763099999991255
 31
0.0
  0
LINE
  5
CE6E
330
CE24
100
AcDbEntity
  8
0
  6
CONTINUOUS
100
AcDbLine
 10
11.41255625248364
 20
4.136510463866797
 30
0.0
 11
8.406199550715227
 21
7.142867165635211
 31
0.0
  0
LINE
  5
CE6F
330
CE24
100
AcDbEntity
  8
0
  6
CONTINUOUS
100
AcDbLine
 10
10.86740379254057
 20
5.355182132890051
 30
0.0
 11
8.614382128446962
 21
7.608203796983664
 31
0.0
  0
LINE
  5
CE70
330
CE24
100
AcDbEntity
  8
0
  6
CONTINUOUS
100
AcDbLine
 10
10.3222513325975
 20
6.573853801913305
 30
0.0
 11
8.822564706178696
 21
8.073540428332114
 31
0.0
  0
LINE
  5
CE71
330
CE24
100
AcDbEntity
  8
0
  6
CONTINUOUS
100
AcDbLine
 10
9.777098872654436
 20
7.792525470936562
 30
0.0
 11
9.030747283910433
 21
8.538877059680566
 31
0.0
  0
ENDBLK
  5
CFB3
330
CE24
100
AcDbEntity
  8
0
100
AcDbBlockEnd
  0
BLOCK
  5
CFB4
330
CE72
100
AcDbEntity
  8
0
100
AcDbBlockBegin
  2
*X27
 70
     1
 10
0.0
 20
0.0
 30
0.0
  3
*X27
  1

  0
LINE
  5
CE73
330
CE72
100
AcDbEntity
  8
0
  6
CONTINUOUS
100
AcDbLine
 10
10.67292308101235
 20
8.445076852443387
 30
0.0
 11
10.99094622856022
 21
8.763099999991255
 31
0.0
  0
LINE
  5
CE74
330
CE72
100
AcDbEntity
  8
0
  6
CONTINUOUS
100
AcDbLine
 10
10.87250383178748
 20
7.971138394138331
 30
0.0
 11
11.6644654376404
 21
8.763099999991255
 31
0.0
  0
LINE
  5
CE75
330
CE72
100
AcDbEntity
  8
0
  6
CONTINUOUS
100
AcDbLine
 10
11.07208458256261
 20
7.497199935833273
 30
0.0
 11
12.12126590876355
 21
8.546381262034211
 31
0.0
  0
LINE
  5
CE76
330
CE72
100
AcDbEntity
  8
0
  6
CONTINUOUS
100
AcDbLine
 10
11.27166533333774
 20
7.023261477528216
 30
0.0
 11
12.32085164573666
 21
8.072447789927136
 31
0.0
  0
LINE
  5
CE77
330
CE72
100
AcDbEntity
  8
0
  6
CONTINUOUS
100
AcDbLine
 10
11.47124608411287
 20
6.549323019223158
 30
0.0
 11
12.52043738270977
 21
7.59851431782006
 31
0.0
  0
LINE
  5
CE78
330
CE72
100
AcDbEntity
  8
0
  6
CONTINUOUS
100
AcDbLine
 10
11.670826834888
 20
6.075384560918101
 30
0.0
 11
12.72002311968288
 21
7.124580845712984
 31
0.0
  0
LINE
  5
CE79
330
CE72
100
AcDbEntity
  8
0
  6
CONTINUOUS
100
AcDbLine
 10
11.87040758566313
 20
5.601446102613043
 30
0.0
 11
12.91960885665599
 21
6.650647373605907
 31
0.0
  0
LINE
  5
CE7A
330
CE72
100
AcDbEntity
  8
0
  6
CONTINUOUS
100
AcDbLine
 10
12.06998833643825
 20
5.127507644307986
 30
0.0
 11
13.1191945936291
 21
6.176713901498832
 31
0.0
  0
LINE
  5
CE7B
330
CE72
100
AcDbEntity
  8
0
  6
CONTINUOUS
100
AcDbLine
 10
12.26956908721338
 20
4.65356918600293
 30
0.0
 11
13.31878033060221
 21
5.702780429391757
 31
0.0
  0
LINE
  5
CE7C
330
CE72
100
AcDbEntity
  8
0
  6
CONTINUOUS
100
AcDbLine
 10
12.46914983798851
 20
4.179630727697873
 30
0.0
 11
13.51836606757532
 21
5.228846957284683
 31
0.0
  0
LINE
  5
CE7D
330
CE72
100
AcDbEntity
  8
0
  6
CONTINUOUS
100
AcDbLine
 10
12.66873058876364
 20
3.705692269392816
 30
0.0
 11
13.71795180454843
 21
4.754913485177607
 31
0.0
  0
LINE
  5
CE7E
330
CE72
100
AcDbEntity
  8
0
  6
CONTINUOUS
100
AcDbLine
 10
12.86831133953877
 20
3.231753811087759
 30
0.0
 11
13.91753754152154
 21
4.280980013070531
 31
0.0
  0
LINE
  5
CE7F
330
CE72
100
AcDbEntity
  8
0
  6
CONTINUOUS
100
AcDbLine
 10
13.0678920903139
 20
2.757815352782702
 30
0.0
 11
14.11712327849465
 21
3.807046540963456
 31
0.0
  0
LINE
  5
CE80
330
CE72
100
AcDbEntity
  8
0
  6
CONTINUOUS
100
AcDbLine
 10
13.26747284108903
 20
2.283876894477644
 30
0.0
 11
14.31670901546777
 21
3.333113068856379
 31
0.0
  0
LINE
  5
CE81
330
CE72
100
AcDbEntity
  8
0
  6
CONTINUOUS
100
AcDbLine
 10
16.36767838827179
 20
8.751678487061342
 30
0.0
 11
16.50332410898388
 21
8.887324207773432
 31
0.0
  0
LINE
  5
CE82
330
CE72
100
AcDbEntity
  8
0
  6
CONTINUOUS
100
AcDbLine
 10
15.96190732182191
 20
7.67238821153127
 30
0.0
 11
16.68735328004734
 21
8.397834169756699
 31
0.0
  0
LINE
  5
CE83
330
CE72
100
AcDbEntity
  8
0
  6
CONTINUOUS
100
AcDbLine
 10
15.55613625537202
 20
6.593097936001196
 30
0.0
 11
16.87138245111079
 21
7.908344131739965
 31
0.0
  0
LINE
  5
CE84
330
CE72
100
AcDbEntity
  8
0
  6
CONTINUOUS
100
AcDbLine
 10
15.15036518892213
 20
5.513807660471122
 30
0.0
 11
17.05541162217424
 21
7.418854093723231
 31
0.0
  0
LINE
  5
CE85
330
CE72
100
AcDbEntity
  8
0
  6
CONTINUOUS
100
AcDbLine
 10
14.74459412247225
 20
4.434517384941048
 30
0.0
 11
17.2394407932377
 21
6.929364055706499
 31
0.0
  0
LINE
  5
CE86
330
CE72
100
AcDbEntity
  8
0
  6
CONTINUOUS
100
AcDbLine
 10
14.33882305602236
 20
3.355227109410975
 30
0.0
 11
17.42346996430115
 21
6.439874017689766
 31
0.0
  0
LINE
  5
CE87
330
CE72
100
AcDbEntity
  8
0
  6
CONTINUOUS
100
AcDbLine
 10
13.46705359186416
 20
1.809938436172586
 30
0.0
 11
16.0819338255367
 21
4.424818669845129
 31
0.0
  0
LINE
  5
CE88
330
CE72
100
AcDbEntity
  8
0
  6
CONTINUOUS
100
AcDbLine
 10
16.63283254238972
 20
4.975717386698149
 30
0.0
 11
17.60749913536461
 21
5.950383979673033
 31
0.0
  0
LINE
  5
CE89
330
CE72
100
AcDbEntity
  8
0
  6
CONTINUOUS
100
AcDbLine
 10
13.66663434263929
 20
1.335999977867529
 30
0.0
 11
15.67604797733754
 21
3.345413612565779
 31
0.0
  0
LINE
  5
CE8A
330
CE72
100
AcDbEntity
  8
0
  6
CONTINUOUS
100
AcDbLine
 10
13.86621509341442
 20
0.8620615195624723
 30
0.0
 11
15.27016212913838
 21
2.26600855528643
 31
0.0
  0
LINE
  5
CE8B
330
CE72
100
AcDbEntity
  8
0
  6
CONTINUOUS
100
AcDbLine
 10
16.81682257348267
 20
4.486188208710908
 30
0.0
 11
17.79152830642806
 21
5.460893941656299
 31
0.0
  0
LINE
  5
CE8C
330
CE72
100
AcDbEntity
  8
0
  6
CONTINUOUS
100
AcDbLine
 10
17.00081260457561
 20
3.996659030723667
 30
0.0
 11
17.97555747749151
 21
4.971403903639565
 31
0.0
  0
LINE
  5
CE8D
330
CE72
100
AcDbEntity
  8
0
  6
CONTINUOUS
100
AcDbLine
 10
20.74362343514722
 20
8.412989070375462
 30
0.0
 11
21.09373436476302
 21
8.763099999991256
 31
0.0
  0
LINE
  5
CE8E
330
CE72
100
AcDbEntity
  8
0
  6
CONTINUOUS
100
AcDbLine
 10
20.25401257174777
 20
7.249858997895826
 30
0.0
 11
21.7672535738432
 21
8.763099999991255
 31
0.0
  0
LINE
  5
CE8F
330
CE72
100
AcDbEntity
  8
0
  6
CONTINUOUS
100
AcDbLine
 10
14.06579584418955
 20
0.3881230612574149
 30
0.0
 11
14.86427628093921
 21
1.186603498007082
 31
0.0
  0
LINE
  5
CE90
330
CE72
100
AcDbEntity
  8
0
  6
CONTINUOUS
100
AcDbLine
 10
14.26537659496467
 20
-0.0858153970476412
 30
0.0
 11
14.45839043274005
 21
0.1071984407277329
 31
0.0
  0
LINE
  5
CE91
330
CE72
100
AcDbEntity
  8
0
  6
CONTINUOUS
100
AcDbLine
 10
17.18480263566856
 20
3.507129852736426
 30
0.0
 11
18.15958664855496
 21
4.481913865622833
 31
0.0
  0
LINE
  5
CE92
330
CE72
100
AcDbEntity
  8
0
  6
CONTINUOUS
100
AcDbLine
 10
17.3687926667615
 20
3.017600674749186
 30
0.0
 11
18.34361581961842
 21
3.9924238276061
 31
0.0
  0
LINE
  5
CE93
330
CE72
100
AcDbEntity
  8
0
  6
CONTINUOUS
100
AcDbLine
 10
19.76440170834832
 20
6.086728925416191
 30
0.0
 11
22.33924590259489
 21
8.661573119662755
 31
0.0
  0
LINE
  5
CE94
330
CE72
100
AcDbEntity
  8
0
  6
CONTINUOUS
100
AcDbLine
 10
19.27479084494887
 20
4.923598852936555
 30
0.0
 11
21.84929622842713
 21
7.498104236414807
 31
0.0
  0
LINE
  5
CE95
330
CE72
100
AcDbEntity
  8
0
  6
CONTINUOUS
100
AcDbLine
 10
17.55278269785445
 20
2.528071496761945
 30
0.0
 11
18.52764499068187
 21
3.502933789589366
 31
0.0
  0
LINE
  5
CE96
330
CE72
100
AcDbEntity
  8
0
  6
CONTINUOUS
100
AcDbLine
 10
18.78517998154942
 20
3.760468780456919
 30
0.0
 11
21.35934655425936
 21
6.33463535316686
 31
0.0
  0
LINE
  5
CE97
330
CE72
100
AcDbEntity
  8
0
  6
CONTINUOUS
100
AcDbLine
 10
17.73677272894739
 20
2.038542318774704
 30
0.0
 11
20.8693968800916
 21
5.171166469918914
 31
0.0
  0
LINE
  5
CE98
330
CE72
100
AcDbEntity
  8
0
  6
CONTINUOUS
100
AcDbLine
 10
17.92076276004034
 20
1.549013140787464
 30
0.0
 11
20.37944720592384
 21
4.007697586670968
 31
0.0
  0
LINE
  5
CE99
330
CE72
100
AcDbEntity
  8
0
  6
CONTINUOUS
100
AcDbLine
 10
18.10475279113329
 20
1.059483962800223
 30
0.0
 11
19.88949753175608
 21
2.84422870342302
 31
0.0
  0
LINE
  5
CE9A
330
CE72
100
AcDbEntity
  8
0
  6
CONTINUOUS
100
AcDbLine
 10
18.28874282222623
 20
0.5699547848129822
 30
0.0
 11
19.39954785758832
 21
1.680759820175074
 31
0.0
  0
LINE
  5
CE9B
330
CE72
100
AcDbEntity
  8
0
  6
CONTINUOUS
100
AcDbLine
 10
18.47273285331918
 20
0.0804256068257416
 30
0.0
 11
18.90959818342056
 21
0.517290936927127
 31
0.0
  0
LINE
  5
CE9C
330
CE72
100
AcDbEntity
  8
0
  6
CONTINUOUS
100
AcDbLine
 10
14.3590401358224
 20
-0.1570118376323384
 30
0.0
 11
14.24903296539946
 21
-0.0470046672093929
 31
0.0
  0
LINE
  5
CE9D
330
CE72
100
AcDbEntity
  8
0
  6
CONTINUOUS
100
AcDbLine
 10
14.54309291258661
 20
0.332454594683643
 30
0.0
 11
13.75908329123172
 21
1.116464216038529
 31
0.0
  0
LINE
  5
CE9E
330
CE72
100
AcDbEntity
  8
0
  6
CONTINUOUS
100
AcDbLine
 10
14.72714568935081
 20
0.8219210269996244
 30
0.0
 11
13.26913361706399
 21
2.27993309928645
 31
0.0
  0
LINE
  5
CE9F
330
CE72
100
AcDbEntity
  8
0
  6
CONTINUOUS
100
AcDbLine
 10
14.91119846611502
 20
1.311387459315606
 30
0.0
 11
12.77918394289625
 21
3.443401982534371
 31
0.0
  0
LINE
  5
CEA0
330
CE72
100
AcDbEntity
  8
0
  6
CONTINUOUS
100
AcDbLine
 10
15.09525124287922
 20
1.800853891631587
 30
0.0
 11
12.28923426872852
 21
4.606870865782293
 31
0.0
  0
LINE
  5
CEA1
330
CE72
100
AcDbEntity
  8
0
  6
CONTINUOUS
100
AcDbLine
 10
15.27930401964343
 20
2.290320323947569
 30
0.0
 11
11.79928459456078
 21
5.770339749030213
 31
0.0
  0
LINE
  5
CEA2
330
CE72
100
AcDbEntity
  8
0
  6
CONTINUOUS
100
AcDbLine
 10
15.46335679640763
 20
2.77978675626355
 30
0.0
 11
14.48885470994921
 21
3.754288842721972
 31
0.0
  0
LINE
  5
CEA3
330
CE72
100
AcDbEntity
  8
0
  6
CONTINUOUS
100
AcDbLine
 10
13.88507249233704
 20
4.358071060334137
 30
0.0
 11
11.30933492039305
 21
6.933808632278135
 31
0.0
  0
LINE
  5
CEA4
330
CE72
100
AcDbEntity
  8
0
  6
CONTINUOUS
100
AcDbLine
 10
18.75840522805855
 20
0.1582575336928151
 30
0.0
 11
18.25383727664818
 21
0.6628254851031863
 31
0.0
  0
LINE
  5
CEA5
330
CE72
100
AcDbEntity
  8
0
  6
CONTINUOUS
100
AcDbLine
 10
15.64740957317184
 20
3.269253188579531
 30
0.0
 11
14.67288388101266
 21
4.243778880738705
 31
0.0
  0
LINE
  5
CEA6
330
CE72
100
AcDbEntity
  8
0
  6
CONTINUOUS
100
AcDbLine
 10
13.39509276772158
 20
5.521569994029786
 30
0.0
 11
10.81938524622531
 21
8.097277515526056
 31
0.0
  0
LINE
  5
CEA7
330
CE72
100
AcDbEntity
  8
0
  6
CONTINUOUS
100
AcDbLine
 10
18.95798597883369
 20
0.6321959919978686
 30
0.0
 11
17.84825644852853
 21
1.741925522303024
 31
0.0
  0
LINE
  5
CEA8
330
CE72
100
AcDbEntity
  8
0
  6
CONTINUOUS
100
AcDbLine
 10
19.15756672960882
 20
1.106134450302922
 30
0.0
 11
17.44267562040888
 21
2.821025559502861
 31
0.0
  0
LINE
  5
CEA9
330
CE72
100
AcDbEntity
  8
0
  6
CONTINUOUS
100
AcDbLine
 10
15.83146234993604
 20
3.758719620895513
 30
0.0
 11
14.85691305207612
 21
4.733268918755439
 31
0.0
  0
LINE
  5
CEAA
330
CE72
100
AcDbEntity
  8
0
  6
CONTINUOUS
100
AcDbLine
 10
16.01551512670025
 20
4.248186053211494
 30
0.0
 11
15.04094222313957
 21
5.222758956772172
 31
0.0
  0
LINE
  5
CEAB
330
CE72
100
AcDbEntity
  8
0
  6
CONTINUOUS
100
AcDbLine
 10
12.90511304310612
 20
6.685068927725435
 30
0.0
 11
10.8270819708403
 21
8.763099999991255
 31
0.0
  0
LINE
  5
CEAC
330
CE72
100
AcDbEntity
  8
0
  6
CONTINUOUS
100
AcDbLine
 10
12.41513331849066
 20
7.848567861421083
 30
0.0
 11
11.50060117992049
 21
8.763099999991255
 31
0.0
  0
LINE
  5
CEAD
330
CE72
100
AcDbEntity
  8
0
  6
CONTINUOUS
100
AcDbLine
 10
19.35714748038395
 20
1.580072908607975
 30
0.0
 11
17.03709479228923
 21
3.900125596702697
 31
0.0
  0
LINE
  5
CEAE
330
CE72
100
AcDbEntity
  8
0
  6
CONTINUOUS
100
AcDbLine
 10
19.55672823115909
 20
2.054011366913028
 30
0.0
 11
16.63151396416958
 21
4.979225633902534
 31
0.0
  0
LINE
  5
CEAF
330
CE72
100
AcDbEntity
  8
0
  6
CONTINUOUS
100
AcDbLine
 10
16.19956790346445
 20
4.737652485527476
 30
0.0
 11
15.22497139420302
 21
5.712248994788904
 31
0.0
  0
LINE
  5
CEB0
330
CE72
100
AcDbEntity
  8
0
  6
CONTINUOUS
100
AcDbLine
 10
16.38362068022866
 20
5.227118917843457
 30
0.0
 11
15.40900056526648
 21
6.201739032805637
 31
0.0
  0
LINE
  5
CEB1
330
CE72
100
AcDbEntity
  8
0
  6
CONTINUOUS
100
AcDbLine
 10
19.75630898193422
 20
2.527949825218081
 30
0.0
 11
18.70774536448286
 21
3.576513442669441
 31
0.0
  0
LINE
  5
CEB2
330
CE72
100
AcDbEntity
  8
0
  6
CONTINUOUS
100
AcDbLine
 10
19.95588973270936
 20
3.001888283523134
 30
0.0
 11
18.90726987211446
 21
4.050508144118028
 31
0.0
  0
LINE
  5
CEB3
330
CE72
100
AcDbEntity
  8
0
  6
CONTINUOUS
100
AcDbLine
 10
20.15547048348449
 20
3.475826741828186
 30
0.0
 11
19.10679437974606
 21
4.524502845566614
 31
0.0
  0
LINE
  5
CEB4
330
CE72
100
AcDbEntity
  8
0
  6
CONTINUOUS
100
AcDbLine
 10
20.35505123425962
 20
3.94976520013324
 30
0.0
 11
19.30631888737766
 21
4.998497547015201
 31
0.0
  0
LINE
  5
CEB5
330
CE72
100
AcDbEntity
  8
0
  6
CONTINUOUS
100
AcDbLine
 10
20.55463198503475
 20
4.423703658438292
 30
0.0
 11
19.50584339500926
 21
5.472492248463787
 31
0.0
  0
LINE
  5
CEB6
330
CE72
100
AcDbEntity
  8
0
  6
CONTINUOUS
100
AcDbLine
 10
18.37481191085755
 20
3.909446896294752
 30
0.0
 11
15.59302973632993
 21
6.691229070822371
 31
0.0
  0
LINE
  5
CEB7
330
CE72
100
AcDbEntity
  8
0
  6
CONTINUOUS
100
AcDbLine
 10
17.96904084440766
 20
4.988737171824825
 30
0.0
 11
15.77705890739338
 21
7.180719108839104
 31
0.0
  0
LINE
  5
CEB8
330
CE72
100
AcDbEntity
  8
0
  6
CONTINUOUS
100
AcDbLine
 10
17.56326977795777
 20
6.068027447354899
 30
0.0
 11
15.96108807845684
 21
7.670209146855838
 31
0.0
  0
LINE
  5
CEB9
330
CE72
100
AcDbEntity
  8
0
  6
CONTINUOUS
100
AcDbLine
 10
17.15749871150789
 20
7.147317722884972
 30
0.0
 11
16.14511724952029
 21
8.15969918487257
 31
0.0
  0
LINE
  5
CEBA
330
CE72
100
AcDbEntity
  8
0
  6
CONTINUOUS
100
AcDbLine
 10
16.751727645058
 20
8.226607998415046
 30
0.0
 11
16.32914642058374
 21
8.649189222889303
 31
0.0
  0
LINE
  5
CEBB
330
CE72
100
AcDbEntity
  8
0
  6
CONTINUOUS
100
AcDbLine
 10
20.75421273580989
 20
4.897642116743345
 30
0.0
 11
19.70536790264086
 21
5.946486949912374
 31
0.0
  0
LINE
  5
CEBC
330
CE72
100
AcDbEntity
  8
0
  6
CONTINUOUS
100
AcDbLine
 10
20.95379348658502
 20
5.371580575048398
 30
0.0
 11
19.90489241027246
 21
6.42048165136096
 31
0.0
  0
LINE
  5
CEBD
330
CE72
100
AcDbEntity
  8
0
  6
CONTINUOUS
100
AcDbLine
 10
21.15337423736015
 20
5.845519033353452
 30
0.0
 11
20.10441691790406
 21
6.894476352809547
 31
0.0
  0
LINE
  5
CEBE
330
CE72
100
AcDbEntity
  8
0
  6
CONTINUOUS
100
AcDbLine
 10
21.35295498813529
 20
6.319457491658505
 30
0.0
 11
20.30394142553566
 21
7.368471054258134
 31
0.0
  0
LINE
  5
CEBF
330
CE72
100
AcDbEntity
  8
0
  6
CONTINUOUS
100
AcDbLine
 10
21.55253573891042
 20
6.793395949963558
 30
0.0
 11
20.50346593316726
 21
7.842465755706721
 31
0.0
  0
LINE
  5
CEC0
330
CE72
100
AcDbEntity
  8
0
  6
CONTINUOUS
100
AcDbLine
 10
21.75211648968556
 20
7.267334408268612
 30
0.0
 11
20.70299044079886
 21
8.316460457155308
 31
0.0
  0
LINE
  5
CEC1
330
CE72
100
AcDbEntity
  8
0
  6
CONTINUOUS
100
AcDbLine
 10
21.95169724046069
 20
7.741272866573663
 30
0.0
 11
20.9298701070431
 21
8.763099999991256
 31
0.0
  0
LINE
  5
CEC2
330
CE72
100
AcDbEntity
  8
0
  6
CONTINUOUS
100
AcDbLine
 10
22.15127799123582
 20
8.215211324878716
 30
0.0
 11
21.60338931612328
 21
8.763099999991256
 31
0.0
  0
LINE
  5
CEC3
330
CE72
100
AcDbEntity
  8
0
  6
CONTINUOUS
100
AcDbLine
 10
22.35085874201096
 20
8.689149783183769
 30
0.0
 11
22.27690852520347
 21
8.763099999991255
 31
0.0
  0
ENDBLK
  5
CFB5
330
CE72
100
AcDbEntity
  8
0
100
AcDbBlockEnd
  0
BLOCK
  5
CFB6
330
CEC4
100
AcDbEntity
  8
0
100
AcDbBlockBegin
  2
*X28
 70
     1
 10
0.0
 20
0.0
 30
0.0
  3
*X28
  1

  0
LINE
  5
CEC5
330
CEC4
100
AcDbEntity
  8
0
  6
CONTINUOUS
100
AcDbLine
 10
23.19462913593892
 20
8.169917934846424
 30
0.0
 11
23.70775465517246
 21
8.683043454079957
 31
0.0
  0
LINE
  5
CEC6
330
CEC4
100
AcDbEntity
  8
0
  6
CONTINUOUS
100
AcDbLine
 10
22.64923161835078
 20
6.951001208178088
 30
0.0
 11
23.9159364069932
 21
8.217705996820516
 31
0.0
  0
LINE
  5
CEC7
330
CEC4
100
AcDbEntity
  8
0
  6
CONTINUOUS
100
AcDbLine
 10
22.10383410076263
 20
5.732084481509751
 30
0.0
 11
24.12411815881395
 21
7.752368539561078
 31
0.0
  0
LINE
  5
CEC8
330
CEC4
100
AcDbEntity
  8
0
  6
CONTINUOUS
100
AcDbLine
 10
21.55843658317447
 20
4.513167754841414
 30
0.0
 11
24.3322999106347
 21
7.287031082301639
 31
0.0
  0
LINE
  5
CEC9
330
CEC4
100
AcDbEntity
  8
0
  6
CONTINUOUS
100
AcDbLine
 10
21.01303906558632
 20
3.294251028173077
 30
0.0
 11
24.54048166245544
 21
6.821693625042199
 31
0.0
  0
LINE
  5
CECA
330
CEC4
100
AcDbEntity
  8
0
  6
CONTINUOUS
100
AcDbLine
 10
20.46764154799817
 20
2.075334301504738
 30
0.0
 11
23.28571549467848
 21
4.89340824818505
 31
0.0
  0
LINE
  5
CECB
330
CEC4
100
AcDbEntity
  8
0
  6
CONTINUOUS
100
AcDbLine
 10
19.92224403041002
 20
0.8564175748364002
 30
0.0
 11
22.74075865492779
 21
3.674932199354171
 31
0.0
  0
LINE
  5
CECC
330
CEC4
100
AcDbEntity
  8
0
  6
CONTINUOUS
100
AcDbLine
 10
23.67305085490148
 20
5.280743608408048
 30
0.0
 11
24.74866341427619
 21
6.356356167782759
 31
0.0
  0
LINE
  5
CECD
330
CEC4
100
AcDbEntity
  8
0
  6
CONTINUOUS
100
AcDbLine
 10
23.88118970842314
 20
4.815363252849522
 30
0.0
 11
24.95684516609694
 21
5.89101871052332
 31
0.0
  0
LINE
  5
CECE
330
CEC4
100
AcDbEntity
  8
0
  6
CONTINUOUS
100
AcDbLine
 10
19.73925852647308
 20
-0.0000871381807288
 30
0.0
 11
23.4103456646501
 21
3.670999999996297
 31
0.0
  0
LINE
  5
CECF
330
CEC4
100
AcDbEntity
  8
0
  6
CONTINUOUS
100
AcDbLine
 10
24.0893285619448
 20
4.349982897290997
 30
0.0
 11
25.16502691791769
 21
5.42568125326388
 31
0.0
  0
LINE
  5
CED0
330
CEC4
100
AcDbEntity
  8
0
  6
CONTINUOUS
100
AcDbLine
 10
20.41282099582748
 20
-0.0000438779065108
 30
0.0
 11
21.64944178675636
 21
1.236576913022366
 31
0.0
  0
LINE
  5
CED1
330
CEC4
100
AcDbEntity
  8
0
  6
CONTINUOUS
100
AcDbLine
 10
22.78126487373161
 20
2.36839999999762
 30
0.0
 11
24.08386487373029
 21
3.670999999996297
 31
0.0
  0
LINE
  5
CED2
330
CEC4
100
AcDbEntity
  8
0
  6
CONTINUOUS
100
AcDbLine
 10
24.29746741546646
 20
3.884602541732471
 30
0.0
 11
25.37320866973843
 21
4.960343796004441
 31
0.0
  0
LINE
  5
CED3
330
CEC4
100
AcDbEntity
  8
0
  6
CONTINUOUS
100
AcDbLine
 10
21.08638346518189
 20
-0.0000006176322938
 30
0.0
 11
21.10379033335899
 21
0.0174062505448083
 31
0.0
  0
LINE
  5
CED4
330
CEC4
100
AcDbEntity
  8
0
  6
CONTINUOUS
100
AcDbLine
 10
23.4547840828118
 20
2.36839999999762
 30
0.0
 11
25.58139042155918
 21
4.495006338745002
 31
0.0
  0
LINE
  5
CED5
330
CEC4
100
AcDbEntity
  8
0
  6
CONTINUOUS
100
AcDbLine
 10
29.30199999996933
 20
8.215615917155148
 30
0.0
 11
29.84948408280543
 21
8.763099999991255
 31
0.0
  0
LINE
  5
CED6
330
CEC4
100
AcDbEntity
  8
0
  6
CONTINUOUS
100
AcDbLine
 10
24.12830329189199
 20
2.36839999999762
 30
0.0
 11
25.78957217337993
 21
4.029668881485562
 31
0.0
  0
LINE
  5
CED7
330
CEC4
100
AcDbEntity
  8
0
  6
CONTINUOUS
100
AcDbLine
 10
29.30199999996933
 20
7.54209670807496
 30
0.0
 11
30.52300329188562
 21
8.763099999991255
 31
0.0
  0
LINE
  5
CED8
330
CEC4
100
AcDbEntity
  8
0
  6
CONTINUOUS
100
AcDbLine
 10
24.80182250097217
 20
2.36839999999762
 30
0.0
 11
25.99775392520067
 21
3.564331424226122
 31
0.0
  0
LINE
  5
CED9
330
CEC4
100
AcDbEntity
  8
0
  6
CONTINUOUS
100
AcDbLine
 10
29.30199999996933
 20
6.868577498994774
 30
0.0
 11
30.74199999996926
 21
8.308577498994712
 31
0.0
  0
LINE
  5
CEDA
330
CEC4
100
AcDbEntity
  8
0
  6
CONTINUOUS
100
AcDbLine
 10
25.13028238392013
 20
2.023340673865392
 30
0.0
 11
26.20593567702142
 21
3.098993966966683
 31
0.0
  0
LINE
  5
CEDB
330
CEC4
100
AcDbEntity
  8
0
  6
CONTINUOUS
100
AcDbLine
 10
25.33838066033617
 20
1.557919741201244
 30
0.0
 11
26.41411742884217
 21
2.633656509707244
 31
0.0
  0
LINE
  5
CEDC
330
CEC4
100
AcDbEntity
  8
0
  6
CONTINUOUS
100
AcDbLine
 10
25.54647893675221
 20
1.092498808537098
 30
0.0
 11
26.62229918066291
 21
2.168319052447804
 31
0.0
  0
LINE
  5
CEDD
330
CEC4
100
AcDbEntity
  8
0
  6
CONTINUOUS
100
AcDbLine
 10
25.75457721316825
 20
0.62707787587295
 30
0.0
 11
26.83048093248366
 21
1.702981595188365
 31
0.0
  0
LINE
  5
CEDE
330
CEC4
100
AcDbEntity
  8
0
  6
CONTINUOUS
100
AcDbLine
 10
29.30199999996933
 20
6.195058289914587
 30
0.0
 11
30.74199999996926
 21
7.635058289914522
 31
0.0
  0
LINE
  5
CEDF
330
CEC4
100
AcDbEntity
  8
0
  6
CONTINUOUS
100
AcDbLine
 10
29.30199999996933
 20
5.521539080834401
 30
0.0
 11
30.74199999996926
 21
6.961539080834331
 31
0.0
  0
LINE
  5
CEE0
330
CEC4
100
AcDbEntity
  8
0
  6
CONTINUOUS
100
AcDbLine
 10
29.30199999996933
 20
4.848019871754214
 30
0.0
 11
30.74199999996925
 21
6.288019871754143
 31
0.0
  0
LINE
  5
CEE1
330
CEC4
100
AcDbEntity
  8
0
  6
CONTINUOUS
100
AcDbLine
 10
29.30199999996933
 20
4.174500662674028
 30
0.0
 11
30.74199999996925
 21
5.614500662673953
 31
0.0
  0
LINE
  5
CEE2
330
CEC4
100
AcDbEntity
  8
0
  6
CONTINUOUS
100
AcDbLine
 10
25.96267548958429
 20
0.1616569432088024
 30
0.0
 11
27.18411854636669
 21
1.383099999991207
 31
0.0
  0
LINE
  5
CEE3
330
CEC4
100
AcDbEntity
  8
0
  6
CONTINUOUS
100
AcDbLine
 10
29.30199999996933
 20
3.500981453593841
 30
0.0
 11
30.74199999996925
 21
4.940981453593762
 31
0.0
  0
LINE
  5
CEE4
330
CEC4
100
AcDbEntity
  8
0
  6
CONTINUOUS
100
AcDbLine
 10
26.50763775544691
 20
0.0330999999912356
 30
0.0
 11
27.85763775544689
 21
1.383099999991223
 31
0.0
  0
LINE
  5
CEE5
330
CEC4
100
AcDbEntity
  8
0
  6
CONTINUOUS
100
AcDbLine
 10
29.30199999996933
 20
2.827462244513656
 30
0.0
 11
30.74199999996925
 21
4.267462244513574
 31
0.0
  0
LINE
  5
CEE6
330
CEC4
100
AcDbEntity
  8
0
  6
CONTINUOUS
100
AcDbLine
 10
27.18115696452709
 20
0.0330999999912356
 30
0.0
 11
28.55073879889363
 21
1.402681834357775
 31
0.0
  0
LINE
  5
CEE7
330
CEC4
100
AcDbEntity
  8
0
  6
CONTINUOUS
100
AcDbLine
 10
29.28241816560272
 20
2.134361201066866
 30
0.0
 11
30.74199999996924
 21
3.593943035433383
 31
0.0
  0
LINE
  5
CEE8
330
CEC4
100
AcDbEntity
  8
0
  6
CONTINUOUS
100
AcDbLine
 10
27.85467617360728
 20
0.0330999999912356
 30
0.0
 11
30.74199999996924
 21
2.920423826353195
 31
0.0
  0
LINE
  5
CEE9
330
CEC4
100
AcDbEntity
  8
0
  6
CONTINUOUS
100
AcDbLine
 10
28.53897559587887
 20
0.0438802131826428
 30
0.0
 11
30.73121978677781
 21
2.236124404081585
 31
0.0
  0
LINE
  5
CEEA
330
CEC4
100
AcDbEntity
  8
0
  6
CONTINUOUS
100
AcDbLine
 10
29.45140055588722
 20
0.2827859641107988
 30
0.0
 11
30.49231403584965
 21
1.323699444073236
 31
0.0
  0
LINE
  5
CEEB
330
CEC4
100
AcDbEntity
  8
0
  6
CONTINUOUS
100
AcDbLine
 10
19.59027867740337
 20
-0.0000967065718083
 30
0.0
 11
19.55485265190471
 21
0.035329318926844
 31
0.0
  0
LINE
  5
CEEC
330
CEC4
100
AcDbEntity
  8
0
  6
CONTINUOUS
100
AcDbLine
 10
20.26375463176586
 20
-0.0000534518541091
 30
0.0
 11
19.76305575737534
 21
0.5006454225364014
 31
0.0
  0
LINE
  5
CEED
330
CEC4
100
AcDbEntity
  8
0
  6
CONTINUOUS
100
AcDbLine
 10
20.93723058612834
 20
-0.0000101971364099
 30
0.0
 11
19.97125886284597
 21
0.965961526145958
 31
0.0
  0
LINE
  5
CEEE
330
CEC4
100
AcDbEntity
  8
0
  6
CONTINUOUS
100
AcDbLine
 10
21.25514828313686
 20
0.355591314935257
 30
0.0
 11
20.1794619683166
 21
1.431277629755512
 31
0.0
  0
LINE
  5
CEEF
330
CEC4
100
AcDbEntity
  8
0
  6
CONTINUOUS
100
AcDbLine
 10
21.46338838394921
 20
0.8208704232030986
 30
0.0
 11
20.38766507378723
 21
1.896593733365069
 31
0.0
  0
LINE
  5
CEF0
330
CEC4
100
AcDbEntity
  8
0
  6
CONTINUOUS
100
AcDbLine
 10
21.67162848476155
 20
1.28614953147094
 30
0.0
 11
20.59586817925786
 21
2.361909836974626
 31
0.0
  0
LINE
  5
CEF1
330
CEC4
100
AcDbEntity
  8
0
  6
CONTINUOUS
100
AcDbLine
 10
21.8798685855739
 20
1.751428639738782
 30
0.0
 11
20.80407128472849
 21
2.827225940584183
 31
0.0
  0
LINE
  5
CEF2
330
CEC4
100
AcDbEntity
  8
0
  6
CONTINUOUS
100
AcDbLine
 10
22.08810868638624
 20
2.216707748006623
 30
0.0
 11
21.01227439019912
 21
3.292542044193739
 31
0.0
  0
LINE
  5
CEF3
330
CEC4
100
AcDbEntity
  8
0
  6
CONTINUOUS
100
AcDbLine
 10
22.60993564347543
 20
2.36839999999762
 30
0.0
 11
21.22047749566975
 21
3.757858147803296
 31
0.0
  0
LINE
  5
CEF4
330
CEC4
100
AcDbEntity
  8
0
  6
CONTINUOUS
100
AcDbLine
 10
23.28345485255561
 20
2.36839999999762
 30
0.0
 11
21.42868060114038
 21
4.223174251412853
 31
0.0
  0
LINE
  5
CEF5
330
CEC4
100
AcDbEntity
  8
0
  6
CONTINUOUS
100
AcDbLine
 10
26.29227406164219
 20
0.0330999999912356
 30
0.0
 11
25.80009199592872
 21
0.5252820657046957
 31
0.0
  0
LINE
  5
CEF6
330
CEC4
100
AcDbEntity
  8
0
  6
CONTINUOUS
100
AcDbLine
 10
23.9569740616358
 20
2.36839999999762
 30
0.0
 11
21.63688370661101
 21
4.688490355022409
 31
0.0
  0
LINE
  5
CEF7
330
CEC4
100
AcDbEntity
  8
0
  6
CONTINUOUS
100
AcDbLine
 10
26.96579327072237
 20
0.0330999999912356
 30
0.0
 11
25.2554132311971
 21
1.743480039516508
 31
0.0
  0
LINE
  5
CEF8
330
CEC4
100
AcDbEntity
  8
0
  6
CONTINUOUS
100
AcDbLine
 10
24.63049327071599
 20
2.36839999999762
 30
0.0
 11
23.32789327071731
 21
3.670999999996297
 31
0.0
  0
LINE
  5
CEF9
330
CEC4
100
AcDbEntity
  8
0
  6
CONTINUOUS
100
AcDbLine
 10
22.92098674744635
 20
4.077906523267254
 30
0.0
 11
21.84508681208164
 21
5.153806458631966
 31
0.0
  0
LINE
  5
CEFA
330
CEC4
100
AcDbEntity
  8
0
  6
CONTINUOUS
100
AcDbLine
 10
27.63931247980256
 20
0.0330999999912356
 30
0.0
 11
24.0014124797975
 21
3.670999999996297
 31
0.0
  0
LINE
  5
CEFB
330
CEC4
100
AcDbEntity
  8
0
  6
CONTINUOUS
100
AcDbLine
 10
23.129125600968
 20
4.5432868788258
 30
0.0
 11
22.05328991755227
 21
5.619122562241522
 31
0.0
  0
LINE
  5
CEFC
330
CEC4
100
AcDbEntity
  8
0
  6
CONTINUOUS
100
AcDbLine
 10
28.31283168888275
 20
0.0330999999912356
 30
0.0
 11
24.16488385994816
 21
4.181047828925828
 31
0.0
  0
LINE
  5
CEFD
330
CEC4
100
AcDbEntity
  8
0
  6
CONTINUOUS
100
AcDbLine
 10
23.33726445448964
 20
5.008667234384345
 30
0.0
 11
22.2614930230229
 21
6.084438665851079
 31
0.0
  0
LINE
  5
CEFE
330
CEC4
100
AcDbEntity
  8
0
  6
CONTINUOUS
100
AcDbLine
 10
28.92085740005492
 20
0.0985934978992438
 30
0.0
 11
27.63635089796295
 21
1.383099999991217
 31
0.0
  0
LINE
  5
CEFF
330
CEC4
100
AcDbEntity
  8
0
  6
CONTINUOUS
100
AcDbLine
 10
26.43704649509776
 20
2.582404402856405
 30
0.0
 11
23.61992702019732
 21
5.399523877756844
 31
0.0
  0
LINE
  5
CF00
330
CEC4
100
AcDbEntity
  8
0
  6
CONTINUOUS
100
AcDbLine
 10
23.54540330801128
 20
5.47404758994289
 30
0.0
 11
22.46969612849353
 21
6.549754769460635
 31
0.0
  0
LINE
  5
CF01
330
CEC4
100
AcDbEntity
  8
0
  6
CONTINUOUS
100
AcDbLine
 10
29.42225615078443
 20
0.2707139562499279
 30
0.0
 11
28.30987010704312
 21
1.383099999991234
 31
0.0
  0
LINE
  5
CF02
330
CEC4
100
AcDbEntity
  8
0
  6
CONTINUOUS
100
AcDbLine
 10
25.89179548232307
 20
3.801174624711282
 30
0.0
 11
22.67789923396416
 21
7.015070873070191
 31
0.0
  0
LINE
  5
CF03
330
CEC4
100
AcDbEntity
  8
0
  6
CONTINUOUS
100
AcDbLine
 10
29.83624534690007
 20
0.5302439692144705
 30
0.0
 11
28.85811781497101
 21
1.508371501143527
 31
0.0
  0
LINE
  5
CF04
330
CEC4
100
AcDbEntity
  8
0
  6
CONTINUOUS
100
AcDbLine
 10
25.34654446954838
 20
5.01994484656616
 30
0.0
 11
22.88610233943479
 21
7.480386976679748
 31
0.0
  0
LINE
  5
CF05
330
CEC4
100
AcDbEntity
  8
0
  6
CONTINUOUS
100
AcDbLine
 10
30.17865975401872
 20
0.8613487711760022
 30
0.0
 11
29.18888744090175
 21
1.851121084292977
 31
0.0
  0
LINE
  5
CF06
330
CEC4
100
AcDbEntity
  8
0
  6
CONTINUOUS
100
AcDbLine
 10
24.80129345677369
 20
6.238715068421037
 30
0.0
 11
23.09430544490542
 21
7.945703080289305
 31
0.0
  0
LINE
  5
CF07
330
CEC4
100
AcDbEntity
  8
0
  6
CONTINUOUS
100
AcDbLine
 10
30.45496647202376
 20
1.258561262251155
 30
0.0
 11
29.30199999996933
 21
2.411527734305588
 31
0.0
  0
LINE
  5
CF08
330
CEC4
100
AcDbEntity
  8
0
  6
CONTINUOUS
100
AcDbLine
 10
24.256042443999
 20
7.457485290275915
 30
0.0
 11
23.30250855037605
 21
8.411019183898862
 31
0.0
  0
LINE
  5
CF09
330
CEC4
100
AcDbEntity
  8
0
  6
CONTINUOUS
100
AcDbLine
 10
30.64868582078271
 20
1.738361122572387
 30
0.0
 11
29.30199999996933
 21
3.085046943385775
 31
0.0
  0
LINE
  5
CF0A
330
CEC4
100
AcDbEntity
  8
0
  6
CONTINUOUS
100
AcDbLine
 10
23.71079143122431
 20
8.676255512130794
 30
0.0
 11
23.51071165584668
 21
8.876335287508416
 31
0.0
  0
LINE
  5
CF0B
330
CEC4
100
AcDbEntity
  8
0
  6
CONTINUOUS
100
AcDbLine
 10
30.73802122914428
 20
2.322544923291007
 30
0.0
 11
29.30199999996933
 21
3.758566152465961
 31
0.0
  0
LINE
  5
CF0C
330
CEC4
100
AcDbEntity
  8
0
  6
CONTINUOUS
100
AcDbLine
 10
30.74199999996924
 20
2.992085361546236
 30
0.0
 11
29.30199999996933
 21
4.432085361546148
 31
0.0
  0
LINE
  5
CF0D
330
CEC4
100
AcDbEntity
  8
0
  6
CONTINUOUS
100
AcDbLine
 10
30.74199999996924
 20
3.665604570626419
 30
0.0
 11
29.30199999996933
 21
5.105604570626333
 31
0.0
  0
LINE
  5
CF0E
330
CEC4
100
AcDbEntity
  8
0
  6
CONTINUOUS
100
AcDbLine
 10
30.74199999996925
 20
4.339123779706602
 30
0.0
 11
29.30199999996933
 21
5.77912377970652
 31
0.0
  0
LINE
  5
CF0F
330
CEC4
100
AcDbEntity
  8
0
  6
CONTINUOUS
100
AcDbLine
 10
30.74199999996925
 20
5.012642988786785
 30
0.0
 11
29.30199999996933
 21
6.452642988786707
 31
0.0
  0
LINE
  5
CF10
330
CEC4
100
AcDbEntity
  8
0
  6
CONTINUOUS
100
AcDbLine
 10
30.74199999996925
 20
5.68616219786697
 30
0.0
 11
29.30199999996933
 21
7.126162197866894
 31
0.0
  0
LINE
  5
CF11
330
CEC4
100
AcDbEntity
  8
0
  6
CONTINUOUS
100
AcDbLine
 10
30.74199999996925
 20
6.359681406947153
 30
0.0
 11
29.30199999996933
 21
7.799681406947081
 31
0.0
  0
LINE
  5
CF12
330
CEC4
100
AcDbEntity
  8
0
  6
CONTINUOUS
100
AcDbLine
 10
30.74199999996926
 20
7.033200616027337
 30
0.0
 11
29.30199999996933
 21
8.473200616027269
 31
0.0
  0
LINE
  5
CF13
330
CEC4
100
AcDbEntity
  8
0
  6
CONTINUOUS
100
AcDbLine
 10
30.74199999996926
 20
7.706719825107518
 30
0.0
 11
29.68561982508552
 21
8.763099999991255
 31
0.0
  0
LINE
  5
CF14
330
CEC4
100
AcDbEntity
  8
0
  6
CONTINUOUS
100
AcDbLine
 10
30.74199999996926
 20
8.380239034187703
 30
0.0
 11
30.35913903416571
 21
8.763099999991255
 31
0.0
  0
ENDBLK
  5
CFB7
330
CEC4
100
AcDbEntity
  8
0
100
AcDbBlockEnd
  0
BLOCK
  5
CFB8
330
CF15
100
AcDbEntity
  8
0
100
AcDbBlockBegin
  2
*X29
 70
     1
 10
0.0
 20
0.0
 30
0.0
  3
*X29
  1

  0
LINE
  5
CF16
330
CF15
100
AcDbEntity
  8
0
  6
CONTINUOUS
100
AcDbLine
 10
31.64199999996833
 20
8.535058289913598
 30
0.0
 11
31.87004171004599
 21
8.763099999991255
 31
0.0
  0
LINE
  5
CF17
330
CF15
100
AcDbEntity
  8
0
  6
CONTINUOUS
100
AcDbLine
 10
31.64199999996833
 20
7.861539080833412
 30
0.0
 11
32.54356091912618
 21
8.763099999991255
 31
0.0
  0
LINE
  5
CF18
330
CF15
100
AcDbEntity
  8
0
  6
CONTINUOUS
100
AcDbLine
 10
31.64199999996833
 20
7.188019871753226
 30
0.0
 11
33.08199999996839
 21
8.628019871753281
 31
0.0
  0
LINE
  5
CF19
330
CF15
100
AcDbEntity
  8
0
  6
CONTINUOUS
100
AcDbLine
 10
31.64199999996833
 20
6.51450066267304
 30
0.0
 11
33.08199999996839
 21
7.954500662673095
 31
0.0
  0
LINE
  5
CF1A
330
CF15
100
AcDbEntity
  8
0
  6
CONTINUOUS
100
AcDbLine
 10
31.64199999996833
 20
5.840981453592853
 30
0.0
 11
33.08199999996839
 21
7.280981453592908
 31
0.0
  0
LINE
  5
CF1B
330
CF15
100
AcDbEntity
  8
0
  6
CONTINUOUS
100
AcDbLine
 10
31.64199999996833
 20
5.167462244512667
 30
0.0
 11
33.08199999996839
 21
6.607462244512721
 31
0.0
  0
LINE
  5
CF1C
330
CF15
100
AcDbEntity
  8
0
  6
CONTINUOUS
100
AcDbLine
 10
31.64199999996833
 20
4.493943035432481
 30
0.0
 11
33.08199999996839
 21
5.933943035432535
 31
0.0
  0
LINE
  5
CF1D
330
CF15
100
AcDbEntity
  8
0
  6
CONTINUOUS
100
AcDbLine
 10
31.64199999996833
 20
3.820423826352293
 30
0.0
 11
33.08199999996839
 21
5.260423826352348
 31
0.0
  0
LINE
  5
CF1E
330
CF15
100
AcDbEntity
  8
0
  6
CONTINUOUS
100
AcDbLine
 10
31.64199999996833
 20
3.146904617272106
 30
0.0
 11
33.08199999996839
 21
4.586904617272161
 31
0.0
  0
LINE
  5
CF1F
330
CF15
100
AcDbEntity
  8
0
  6
CONTINUOUS
100
AcDbLine
 10
36.23199999996837
 20
8.410423826352325
 30
0.0
 11
36.5846761736073
 21
8.763099999991255
 31
0.0
  0
LINE
  5
CF20
330
CF15
100
AcDbEntity
  8
0
  6
CONTINUOUS
100
AcDbLine
 10
36.23199999996837
 20
7.73690461727214
 30
0.0
 11
37.25819538268748
 21
8.763099999991255
 31
0.0
  0
LINE
  5
CF21
330
CF15
100
AcDbEntity
  8
0
  6
CONTINUOUS
100
AcDbLine
 10
31.64257403601376
 20
2.473959444237348
 30
0.0
 11
33.08199999996839
 21
3.913385408191974
 31
0.0
  0
LINE
  5
CF22
330
CF15
100
AcDbEntity
  8
0
  6
CONTINUOUS
100
AcDbLine
 10
36.23199999996837
 20
7.063385408191953
 30
0.0
 11
37.67199999996831
 21
8.503385408191894
 31
0.0
  0
LINE
  5
CF23
330
CF15
100
AcDbEntity
  8
0
  6
CONTINUOUS
100
AcDbLine
 10
31.72013636841932
 20
1.87800256756272
 30
0.0
 11
33.08199999996839
 21
3.239866199111788
 31
0.0
  0
LINE
  5
CF24
330
CF15
100
AcDbEntity
  8
0
  6
CONTINUOUS
100
AcDbLine
 10
36.23199999996837
 20
6.389866199111767
 30
0.0
 11
37.67199999996831
 21
7.829866199111708
 31
0.0
  0
LINE
  5
CF25
330
CF15
100
AcDbEntity
  8
0
  6
CONTINUOUS
100
AcDbLine
 10
31.89042734314753
 20
1.374774333210744
 30
0.0
 11
33.08199999996839
 21
2.566346990031601
 31
0.0
  0
LINE
  5
CF26
330
CF15
100
AcDbEntity
  8
0
  6
CONTINUOUS
100
AcDbLine
 10
36.23199999996837
 20
5.71634699003158
 30
0.0
 11
37.67199999996831
 21
7.156346990031521
 31
0.0
  0
LINE
  5
CF27
330
CF15
100
AcDbEntity
  8
0
  6
CONTINUOUS
100
AcDbLine
 10
32.14210568064475
 20
0.952933461627778
 30
0.0
 11
33.18745552475986
 21
1.998283305742888
 31
0.0
  0
LINE
  5
CF28
330
CF15
100
AcDbEntity
  8
0
  6
CONTINUOUS
100
AcDbLine
 10
36.23199999996837
 20
5.042827780951393
 30
0.0
 11
37.67199999996831
 21
6.482827780951334
 31
0.0
  0
LINE
  5
CF29
330
CF15
100
AcDbEntity
  8
0
  6
CONTINUOUS
100
AcDbLine
 10
32.45820639400955
 20
0.5955149659123915
 30
0.0
 11
33.47242681921943
 21
1.60973539112227
 31
0.0
  0
LINE
  5
CF2A
330
CF15
100
AcDbEntity
  8
0
  6
CONTINUOUS
100
AcDbLine
 10
36.23199999996837
 20
4.369308571871207
 30
0.0
 11
37.67199999996831
 21
5.809308571871147
 31
0.0
  0
LINE
  5
CF2B
330
CF15
100
AcDbEntity
  8
0
  6
CONTINUOUS
100
AcDbLine
 10
32.83432456621412
 20
0.2981139290367771
 30
0.0
 11
33.89722476612215
 21
1.361014128944803
 31
0.0
  0
LINE
  5
CF2C
330
CF15
100
AcDbEntity
  8
0
  6
CONTINUOUS
100
AcDbLine
 10
36.23199999996837
 20
3.69578936279102
 30
0.0
 11
37.67199999996831
 21
5.135789362790962
 31
0.0
  0
LINE
  5
CF2D
330
CF15
100
AcDbEntity
  8
0
  6
CONTINUOUS
100
AcDbLine
 10
33.2711633111245
 20
0.0614334648669672
 30
0.0
 11
34.43247338014423
 21
1.222743533886696
 31
0.0
  0
LINE
  5
CF2E
330
CF15
100
AcDbEntity
  8
0
  6
CONTINUOUS
100
AcDbLine
 10
36.23199999996837
 20
3.022270153710834
 30
0.0
 11
37.67199999996831
 21
4.462270153710775
 31
0.0
  0
LINE
  5
CF2F
330
CF15
100
AcDbEntity
  8
0
  6
CONTINUOUS
100
AcDbLine
 10
33.76515245874577
 20
-0.1180965965919523
 30
0.0
 11
35.1587445516215
 21
1.27549549628378
 31
0.0
  0
LINE
  5
CF30
330
CF15
100
AcDbEntity
  8
0
  6
CONTINUOUS
100
AcDbLine
 10
36.21639478609585
 20
2.333145730758136
 30
0.0
 11
37.67199999996831
 21
3.788750944630588
 31
0.0
  0
LINE
  5
CF31
330
CF15
100
AcDbEntity
  8
0
  6
CONTINUOUS
100
AcDbLine
 10
34.34060583368432
 20
-0.2161624307335863
 30
0.0
 11
37.67199999996831
 21
3.115231735550401
 31
0.0
  0
LINE
  5
CF32
330
CF15
100
AcDbEntity
  8
0
  6
CONTINUOUS
100
AcDbLine
 10
35.01698193613905
 20
-0.2133055373590427
 30
0.0
 11
37.66876712070525
 21
2.438479647207154
 31
0.0
  0
LINE
  5
CF33
330
CF15
100
AcDbEntity
  8
0
  6
CONTINUOUS
100
AcDbLine
 10
35.90743367693304
 20
0.0036269943547609
 30
0.0
 11
37.51723902192366
 21
1.613432339345381
 31
0.0
  0
LINE
  5
CF34
330
CF15
100
AcDbEntity
  8
0
  6
CONTINUOUS
100
AcDbLine
 10
32.55309425579761
 20
0.5074718966376706
 30
0.0
 11
32.27784730925847
 21
0.7827188431768102
 31
0.0
  0
LINE
  5
CF35
330
CF15
100
AcDbEntity
  8
0
  6
CONTINUOUS
100
AcDbLine
 10
33.87496468909684
 20
-0.1408793275813673
 30
0.0
 11
31.67993083278052
 21
2.054154528734943
 31
0.0
  0
LINE
  5
CF36
330
CF15
100
AcDbEntity
  8
0
  6
CONTINUOUS
100
AcDbLine
 10
34.64362813207632
 20
-0.2360235614806649
 30
0.0
 11
31.64199999996833
 21
2.765604570627322
 31
0.0
  0
LINE
  5
CF37
330
CF15
100
AcDbEntity
  8
0
  6
CONTINUOUS
100
AcDbLine
 10
35.25801106796118
 20
-0.1768872882853429
 30
0.0
 11
31.64199999996833
 21
3.439123779707508
 31
0.0
  0
LINE
  5
CF38
330
CF15
100
AcDbEntity
  8
0
  6
CONTINUOUS
100
AcDbLine
 10
35.79065650332146
 20
-0.0360135145654361
 30
0.0
 11
34.54143210838231
 21
1.213210880373721
 31
0.0
  0
LINE
  5
CF39
330
CF15
100
AcDbEntity
  8
0
  6
CONTINUOUS
100
AcDbLine
 10
33.08199999996839
 20
2.67264298878764
 30
0.0
 11
31.64199999996833
 21
4.112642988787695
 31
0.0
  0
LINE
  5
CF3A
330
CF15
100
AcDbEntity
  8
0
  6
CONTINUOUS
100
AcDbLine
 10
36.25975597779143
 20
0.1684062200447833
 30
0.0
 11
35.15395110240023
 21
1.274211095435983
 31
0.0
  0
LINE
  5
CF3B
330
CF15
100
AcDbEntity
  8
0
  6
CONTINUOUS
100
AcDbLine
 10
33.08199999996839
 20
3.346162197867826
 30
0.0
 11
31.64199999996833
 21
4.786162197867881
 31
0.0
  0
LINE
  5
CF3C
330
CF15
100
AcDbEntity
  8
0
  6
CONTINUOUS
100
AcDbLine
 10
36.67226329638774
 20
0.4294181105286579
 30
0.0
 11
35.63766478748767
 21
1.464016619428737
 31
0.0
  0
LINE
  5
CF3D
330
CF15
100
AcDbEntity
  8
0
  6
CONTINUOUS
100
AcDbLine
 10
33.08199999996839
 20
4.019681406948012
 30
0.0
 11
31.64199999996833
 21
5.459681406948068
 31
0.0
  0
LINE
  5
CF3E
330
CF15
100
AcDbEntity
  8
0
  6
CONTINUOUS
100
AcDbLine
 10
37.01677749710036
 20
0.7584231188962329
 30
0.0
 11
35.99563422741351
 21
1.779566388583076
 31
0.0
  0
LINE
  5
CF3F
330
CF15
100
AcDbEntity
  8
0
  6
CONTINUOUS
100
AcDbLine
 10
33.08199999996839
 20
4.693200616028199
 30
0.0
 11
31.64199999996833
 21
6.133200616028255
 31
0.0
  0
LINE
  5
CF40
330
CF15
100
AcDbEntity
  8
0
  6
CONTINUOUS
100
AcDbLine
 10
37.29859977568887
 20
1.1501200493879
 30
0.0
 11
36.20680593341555
 21
2.241913891661226
 31
0.0
  0
LINE
  5
CF41
330
CF15
100
AcDbEntity
  8
0
  6
CONTINUOUS
100
AcDbLine
 10
33.08199999996839
 20
5.366719825108386
 30
0.0
 11
31.64199999996833
 21
6.80671982510844
 31
0.0
  0
LINE
  5
CF42
330
CF15
100
AcDbEntity
  8
0
  6
CONTINUOUS
100
AcDbLine
 10
37.5148623517228
 20
1.607376682434161
 30
0.0
 11
36.23199999996837
 21
2.890239034188594
 31
0.0
  0
LINE
  5
CF43
330
CF15
100
AcDbEntity
  8
0
  6
CONTINUOUS
100
AcDbLine
 10
33.08199999996839
 20
6.040239034188573
 30
0.0
 11
31.64199999996833
 21
7.480239034188627
 31
0.0
  0
LINE
  5
CF44
330
CF15
100
AcDbEntity
  8
0
  6
CONTINUOUS
100
AcDbLine
 10
37.64705163358367
 20
2.148706609653477
 30
0.0
 11
36.23199999996837
 21
3.56375824326878
 31
0.0
  0
LINE
  5
CF45
330
CF15
100
AcDbEntity
  8
0
  6
CONTINUOUS
100
AcDbLine
 10
33.08199999996839
 20
6.713758243268758
 30
0.0
 11
31.64199999996833
 21
8.153758243268815
 31
0.0
  0
LINE
  5
CF46
330
CF15
100
AcDbEntity
  8
0
  6
CONTINUOUS
100
AcDbLine
 10
37.67199999996831
 20
2.797277452349026
 30
0.0
 11
36.23199999996837
 21
4.237277452348967
 31
0.0
  0
LINE
  5
CF47
330
CF15
100
AcDbEntity
  8
0
  6
CONTINUOUS
100
AcDbLine
 10
37.67199999996831
 20
3.470796661429213
 30
0.0
 11
36.23199999996837
 21
4.910796661429154
 31
0.0
  0
LINE
  5
CF48
330
CF15
100
AcDbEntity
  8
0
  6
CONTINUOUS
100
AcDbLine
 10
37.67199999996831
 20
4.144315870509399
 30
0.0
 11
36.23199999996837
 21
5.58431587050934
 31
0.0
  0
LINE
  5
CF49
330
CF15
100
AcDbEntity
  8
0
  6
CONTINUOUS
100
AcDbLine
 10
33.08199999996839
 20
7.387277452348945
 30
0.0
 11
31.70617745232608
 21
8.763099999991255
 31
0.0
  0
LINE
  5
CF4A
330
CF15
100
AcDbEntity
  8
0
  6
CONTINUOUS
100
AcDbLine
 10
33.08199999996839
 20
8.060796661429132
 30
0.0
 11
32.37969666140626
 21
8.763099999991255
 31
0.0
  0
LINE
  5
CF4B
330
CF15
100
AcDbEntity
  8
0
  6
CONTINUOUS
100
AcDbLine
 10
33.08199999996839
 20
8.734315870509318
 30
0.0
 11
33.05321587048645
 21
8.763099999991255
 31
0.0
  0
LINE
  5
CF4C
330
CF15
100
AcDbEntity
  8
0
  6
CONTINUOUS
100
AcDbLine
 10
37.67199999996831
 20
4.817835079589585
 30
0.0
 11
36.23199999996837
 21
6.257835079589526
 31
0.0
  0
LINE
  5
CF4D
330
CF15
100
AcDbEntity
  8
0
  6
CONTINUOUS
100
AcDbLine
 10
37.67199999996831
 20
5.491354288669771
 30
0.0
 11
36.23199999996837
 21
6.931354288669713
 31
0.0
  0
LINE
  5
CF4E
330
CF15
100
AcDbEntity
  8
0
  6
CONTINUOUS
100
AcDbLine
 10
37.67199999996831
 20
6.164873497749958
 30
0.0
 11
36.23199999996837
 21
7.6048734977499
 31
0.0
  0
LINE
  5
CF4F
330
CF15
100
AcDbEntity
  8
0
  6
CONTINUOUS
100
AcDbLine
 10
37.67199999996831
 20
6.838392706830144
 30
0.0
 11
36.23199999996837
 21
8.278392706830086
 31
0.0
  0
LINE
  5
CF50
330
CF15
100
AcDbEntity
  8
0
  6
CONTINUOUS
100
AcDbLine
 10
37.67199999996831
 20
7.511911915910332
 30
0.0
 11
36.42081191588738
 21
8.763099999991255
 31
0.0
  0
LINE
  5
CF51
330
CF15
100
AcDbEntity
  8
0
  6
CONTINUOUS
100
AcDbLine
 10
37.67199999996831
 20
8.185431124990519
 30
0.0
 11
37.09433112496757
 21
8.763099999991255
 31
0.0
  0
ENDBLK
  5
CFB9
330
CF15
100
AcDbEntity
  8
0
100
AcDbBlockEnd
  0
BLOCK
  5
CFBA
330
CF52
100
AcDbEntity
  8
0
100
AcDbBlockBegin
  2
*X30
 70
     1
 10
0.0
 20
0.0
 30
0.0
  3
*X30
  1

  0
LINE
  5
CF53
330
CF52
100
AcDbEntity
  8
0
  6
CONTINUOUS
100
AcDbLine
 10
38.60499999996136
 20
8.762866199104765
 30
0.0
 11
38.71672554182345
 21
8.874591740966855
 31
0.0
  0
LINE
  5
CF54
330
CF52
100
AcDbEntity
  8
0
  6
CONTINUOUS
100
AcDbLine
 10
38.60499999996136
 20
8.089346990024577
 30
0.0
 11
39.03418785440363
 21
8.518534844466847
 31
0.0
  0
LINE
  5
CF55
330
CF52
100
AcDbEntity
  8
0
  6
CONTINUOUS
100
AcDbLine
 10
38.60499999996136
 20
7.41582778094439
 30
0.0
 11
39.35165016698382
 21
8.16247794796684
 31
0.0
  0
LINE
  5
CF56
330
CF52
100
AcDbEntity
  8
0
  6
CONTINUOUS
100
AcDbLine
 10
38.60499999996136
 20
6.742308571864204
 30
0.0
 11
39.66911247956399
 21
7.806421051466834
 31
0.0
  0
LINE
  5
CF57
330
CF52
100
AcDbEntity
  8
0
  6
CONTINUOUS
100
AcDbLine
 10
38.60499999996136
 20
6.068789362784018
 30
0.0
 11
39.98657479214418
 21
7.450364154966827
 31
0.0
  0
LINE
  5
CF58
330
CF52
100
AcDbEntity
  8
0
  6
CONTINUOUS
100
AcDbLine
 10
38.60499999996136
 20
5.395270153703832
 30
0.0
 11
40.30403710472435
 21
7.09430725846682
 31
0.0
  0
LINE
  5
CF59
330
CF52
100
AcDbEntity
  8
0
  6
CONTINUOUS
100
AcDbLine
 10
38.60499999996136
 20
4.721750944623645
 30
0.0
 11
40.62149941730453
 21
6.738250361966813
 31
0.0
  0
LINE
  5
CF5A
330
CF52
100
AcDbEntity
  8
0
  6
CONTINUOUS
100
AcDbLine
 10
38.60499999996136
 20
4.048231735543458
 30
0.0
 11
40.93896172988471
 21
6.382193465466806
 31
0.0
  0
LINE
  5
CF5B
330
CF52
100
AcDbEntity
  8
0
  6
CONTINUOUS
100
AcDbLine
 10
38.60499999996136
 20
3.374712526463272
 30
0.0
 11
40.02599999995994
 21
4.795712526461843
 31
0.0
  0
LINE
  5
CF5C
330
CF52
100
AcDbEntity
  8
0
  6
CONTINUOUS
100
AcDbLine
 10
38.60499999996136
 20
2.701193317383085
 30
0.0
 11
40.02599999995994
 21
4.122193317381657
 31
0.0
  0
LINE
  5
CF5D
330
CF52
100
AcDbEntity
  8
0
  6
CONTINUOUS
100
AcDbLine
 10
40.28339754687704
 20
5.053110073378947
 30
0.0
 11
41.25642404246489
 21
6.026136568966799
 31
0.0
  0
LINE
  5
CF5E
330
CF52
100
AcDbEntity
  8
0
  6
CONTINUOUS
100
AcDbLine
 10
40.60085985945722
 20
4.697053176878939
 30
0.0
 11
41.57388635504507
 21
5.670079672466793
 31
0.0
  0
LINE
  5
CF5F
330
CF52
100
AcDbEntity
  8
0
  6
CONTINUOUS
100
AcDbLine
 10
43.57899999995641
 20
8.348712526458318
 30
0.0
 11
43.99338747348935
 21
8.763099999991255
 31
0.0
  0
LINE
  5
CF60
330
CF52
100
AcDbEntity
  8
0
  6
CONTINUOUS
100
AcDbLine
 10
43.57899999995641
 20
7.675193317378131
 30
0.0
 11
44.66690668256953
 21
8.763099999991255
 31
0.0
  0
LINE
  5
CF61
330
CF52
100
AcDbEntity
  8
0
  6
CONTINUOUS
100
AcDbLine
 10
38.60499999996136
 20
2.027674108302898
 30
0.0
 11
40.02599999995994
 21
3.44867410830147
 31
0.0
  0
LINE
  5
CF62
330
CF52
100
AcDbEntity
  8
0
  6
CONTINUOUS
100
AcDbLine
 10
38.60499999996136
 20
1.354154899222712
 30
0.0
 11
40.02599999995994
 21
2.775154899221284
 31
0.0
  0
LINE
  5
CF63
330
CF52
100
AcDbEntity
  8
0
  6
CONTINUOUS
100
AcDbLine
 10
38.60499999996136
 20
0.6806356901425255
 30
0.0
 11
40.02599999995994
 21
2.101635690141098
 31
0.0
  0
LINE
  5
CF64
330
CF52
100
AcDbEntity
  8
0
  6
CONTINUOUS
100
AcDbLine
 10
38.60499999996136
 20
0.0071164810623383
 30
0.0
 11
40.02599999995994
 21
1.428116481060911
 31
0.0
  0
LINE
  5
CF65
330
CF52
100
AcDbEntity
  8
0
  6
CONTINUOUS
100
AcDbLine
 10
40.9183221720374
 20
4.340996280378933
 30
0.0
 11
41.89134866762525
 21
5.314022775966786
 31
0.0
  0
LINE
  5
CF66
330
CF52
100
AcDbEntity
  8
0
  6
CONTINUOUS
100
AcDbLine
 10
41.23578448461758
 20
3.984939383878926
 30
0.0
 11
42.20881098020543
 21
4.957965879466778
 31
0.0
  0
LINE
  5
CF67
330
CF52
100
AcDbEntity
  8
0
  6
CONTINUOUS
100
AcDbLine
 10
41.55324679719776
 20
3.628882487378919
 30
0.0
 11
42.52627329278561
 21
4.601908982966772
 31
0.0
  0
LINE
  5
CF68
330
CF52
100
AcDbEntity
  8
0
  6
CONTINUOUS
100
AcDbLine
 10
41.87070910977793
 20
3.272825590878912
 30
0.0
 11
42.84373560536579
 21
4.245852086466765
 31
0.0
  0
LINE
  5
CF69
330
CF52
100
AcDbEntity
  8
0
  6
CONTINUOUS
100
AcDbLine
 10
43.57899999995641
 20
7.001674108297943
 30
0.0
 11
44.99999999995498
 21
8.422674108296516
 31
0.0
  0
LINE
  5
CF6A
330
CF52
100
AcDbEntity
  8
0
  6
CONTINUOUS
100
AcDbLine
 10
43.57899999995641
 20
6.328154899217758
 30
0.0
 11
44.99999999995498
 21
7.749154899216329
 31
0.0
  0
LINE
  5
CF6B
330
CF52
100
AcDbEntity
  8
0
  6
CONTINUOUS
100
AcDbLine
 10
43.57899999995641
 20
5.654635690137571
 30
0.0
 11
44.99999999995498
 21
7.075635690136142
 31
0.0
  0
LINE
  5
CF6C
330
CF52
100
AcDbEntity
  8
0
  6
CONTINUOUS
100
AcDbLine
 10
43.57899999995641
 20
4.981116481057384
 30
0.0
 11
44.99999999995498
 21
6.402116481055955
 31
0.0
  0
LINE
  5
CF6D
330
CF52
100
AcDbEntity
  8
0
  6
CONTINUOUS
100
AcDbLine
 10
39.27140272797921
 20
-0.0000000000000009
 30
0.0
 11
40.02599999995994
 21
0.7545972719807246
 31
0.0
  0
LINE
  5
CF6E
330
CF52
100
AcDbEntity
  8
0
  6
CONTINUOUS
100
AcDbLine
 10
39.9449219370594
 20
-0.0000000000000009
 30
0.0
 11
40.02599999995994
 21
0.0810780629005379
 31
0.0
  0
LINE
  5
CF6F
330
CF52
100
AcDbEntity
  8
0
  6
CONTINUOUS
100
AcDbLine
 10
42.18817142235812
 20
2.916768694378905
 30
0.0
 11
43.16119791794597
 21
3.889795189966758
 31
0.0
  0
LINE
  5
CF70
330
CF52
100
AcDbEntity
  8
0
  6
CONTINUOUS
100
AcDbLine
 10
42.50563373493829
 20
2.560711797878898
 30
0.0
 11
43.47866023052615
 21
3.533738293466751
 31
0.0
  0
LINE
  5
CF71
330
CF52
100
AcDbEntity
  8
0
  6
CONTINUOUS
100
AcDbLine
 10
43.57899999995641
 20
4.307597271977198
 30
0.0
 11
44.99999999995498
 21
5.728597271975769
 31
0.0
  0
LINE
  5
CF72
330
CF52
100
AcDbEntity
  8
0
  6
CONTINUOUS
100
AcDbLine
 10
43.57899999995641
 20
3.634078062897011
 30
0.0
 11
44.99999999995498
 21
5.055078062895582
 31
0.0
  0
LINE
  5
CF73
330
CF52
100
AcDbEntity
  8
0
  6
CONTINUOUS
100
AcDbLine
 10
42.82309604751848
 20
2.204654901378891
 30
0.0
 11
44.99999999995498
 21
4.381558853815395
 31
0.0
  0
LINE
  5
CF74
330
CF52
100
AcDbEntity
  8
0
  6
CONTINUOUS
100
AcDbLine
 10
43.14055836009865
 20
1.848598004878885
 30
0.0
 11
44.99999999995498
 21
3.70803964473521
 31
0.0
  0
LINE
  5
CF75
330
CF52
100
AcDbEntity
  8
0
  6
CONTINUOUS
100
AcDbLine
 10
43.45802067267883
 20
1.492541108378878
 30
0.0
 11
44.99999999995498
 21
3.034520435655023
 31
0.0
  0
LINE
  5
CF76
330
CF52
100
AcDbEntity
  8
0
  6
CONTINUOUS
100
AcDbLine
 10
43.77548298525902
 20
1.136484211878871
 30
0.0
 11
44.99999999995498
 21
2.361001226574837
 31
0.0
  0
LINE
  5
CF77
330
CF52
100
AcDbEntity
  8
0
  6
CONTINUOUS
100
AcDbLine
 10
44.09294529783919
 20
0.7804273153788639
 30
0.0
 11
44.99999999995498
 21
1.687482017494649
 31
0.0
  0
LINE
  5
CF78
330
CF52
100
AcDbEntity
  8
0
  6
CONTINUOUS
100
AcDbLine
 10
44.41040761041938
 20
0.4243704188788566
 30
0.0
 11
44.99999999995498
 21
1.013962808414463
 31
0.0
  0
LINE
  5
CF79
330
CF52
100
AcDbEntity
  8
0
  6
CONTINUOUS
100
AcDbLine
 10
44.72786992299955
 20
0.0683135223788494
 30
0.0
 11
44.99999999995498
 21
0.340443599334276
 31
0.0
  0
LINE
  5
CF7A
330
CF52
100
AcDbEntity
  8
0
  6
CONTINUOUS
100
AcDbLine
 10
39.12223903415696
 20
-0.0000000000000009
 30
0.0
 11
38.60499999996136
 21
0.5172390341955961
 31
0.0
  0
LINE
  5
CF7B
330
CF52
100
AcDbEntity
  8
0
  6
CONTINUOUS
100
AcDbLine
 10
39.79575824323715
 20
-0.0000000000000009
 30
0.0
 11
38.60499999996136
 21
1.190758243275783
 31
0.0
  0
LINE
  5
CF7C
330
CF52
100
AcDbEntity
  8
0
  6
CONTINUOUS
100
AcDbLine
 10
40.02599999995994
 20
0.443277452357397
 30
0.0
 11
38.60499999996136
 21
1.864277452355969
 31
0.0
  0
LINE
  5
CF7D
330
CF52
100
AcDbEntity
  8
0
  6
CONTINUOUS
100
AcDbLine
 10
40.02599999995994
 20
1.116796661437583
 30
0.0
 11
38.60499999996136
 21
2.537796661436155
 31
0.0
  0
LINE
  5
CF7E
330
CF52
100
AcDbEntity
  8
0
  6
CONTINUOUS
100
AcDbLine
 10
40.02599999995994
 20
1.79031587051777
 30
0.0
 11
38.60499999996136
 21
3.211315870516341
 31
0.0
  0
LINE
  5
CF7F
330
CF52
100
AcDbEntity
  8
0
  6
CONTINUOUS
100
AcDbLine
 10
40.02599999995994
 20
2.463835079597956
 30
0.0
 11
38.60499999996136
 21
3.884835079596527
 31
0.0
  0
LINE
  5
CF80
330
CF52
100
AcDbEntity
  8
0
  6
CONTINUOUS
100
AcDbLine
 10
40.02599999995994
 20
3.137354288678143
 30
0.0
 11
38.60499999996136
 21
4.558354288676714
 31
0.0
  0
LINE
  5
CF81
330
CF52
100
AcDbEntity
  8
0
  6
CONTINUOUS
100
AcDbLine
 10
40.02599999995994
 20
3.810873497758329
 30
0.0
 11
38.60499999996136
 21
5.2318734977569
 31
0.0
  0
LINE
  5
CF82
330
CF52
100
AcDbEntity
  8
0
  6
CONTINUOUS
100
AcDbLine
 10
40.02599999995994
 20
4.484392706838515
 30
0.0
 11
38.60499999996136
 21
5.905392706837086
 31
0.0
  0
LINE
  5
CF83
330
CF52
100
AcDbEntity
  8
0
  6
CONTINUOUS
100
AcDbLine
 10
44.99999999995498
 20
0.183911915923658
 30
0.0
 11
41.53858364506288
 21
3.64532827081576
 31
0.0
  0
LINE
  5
CF84
330
CF52
100
AcDbEntity
  8
0
  6
CONTINUOUS
100
AcDbLine
 10
40.02599999995994
 20
5.157911915918703
 30
0.0
 11
38.60499999996136
 21
6.578911915917274
 31
0.0
  0
LINE
  5
CF85
330
CF52
100
AcDbEntity
  8
0
  6
CONTINUOUS
100
AcDbLine
 10
44.99999999995498
 20
0.8574311250038447
 30
0.0
 11
38.60499999996136
 21
7.25243112499746
 31
0.0
  0
LINE
  5
CF86
330
CF52
100
AcDbEntity
  8
0
  6
CONTINUOUS
100
AcDbLine
 10
44.99999999995498
 20
1.530950334084031
 30
0.0
 11
38.60499999996136
 21
7.925950334077647
 31
0.0
  0
LINE
  5
CF87
330
CF52
100
AcDbEntity
  8
0
  6
CONTINUOUS
100
AcDbLine
 10
44.99999999995498
 20
2.204469543164218
 30
0.0
 11
43.57899999995641
 21
3.625469543162789
 31
0.0
  0
LINE
  5
CF88
330
CF52
100
AcDbEntity
  8
0
  6
CONTINUOUS
100
AcDbLine
 10
41.89876730984767
 20
5.305702233271528
 30
0.0
 11
38.60499999996136
 21
8.599469543157834
 31
0.0
  0
LINE
  5
CF89
330
CF52
100
AcDbEntity
  8
0
  6
CONTINUOUS
100
AcDbLine
 10
44.99999999995498
 20
2.877988752244405
 30
0.0
 11
43.57899999995641
 21
4.298988752242975
 31
0.0
  0
LINE
  5
CF8A
330
CF52
100
AcDbEntity
  8
0
  6
CONTINUOUS
100
AcDbLine
 10
44.99999999995498
 20
3.551507961324591
 30
0.0
 11
43.57899999995641
 21
4.972507961323163
 31
0.0
  0
LINE
  5
CF8B
330
CF52
100
AcDbEntity
  8
0
  6
CONTINUOUS
100
AcDbLine
 10
44.99999999995498
 20
4.225027170404777
 30
0.0
 11
43.57899999995641
 21
5.646027170403348
 31
0.0
  0
LINE
  5
CF8C
330
CF52
100
AcDbEntity
  8
0
  6
CONTINUOUS
100
AcDbLine
 10
44.99999999995498
 20
4.898546379484964
 30
0.0
 11
43.57899999995641
 21
6.319546379483535
 31
0.0
  0
LINE
  5
CF8D
330
CF52
100
AcDbEntity
  8
0
  6
CONTINUOUS
100
AcDbLine
 10
44.99999999995498
 20
5.572065588565151
 30
0.0
 11
43.57899999995641
 21
6.993065588563722
 31
0.0
  0
LINE
  5
CF8E
330
CF52
100
AcDbEntity
  8
0
  6
CONTINUOUS
100
AcDbLine
 10
44.99999999995498
 20
6.245584797645336
 30
0.0
 11
43.57899999995641
 21
7.666584797643908
 31
0.0
  0
LINE
  5
CF8F
330
CF52
100
AcDbEntity
  8
0
  6
CONTINUOUS
100
AcDbLine
 10
44.99999999995498
 20
6.919104006725522
 30
0.0
 11
43.57899999995641
 21
8.340104006724093
 31
0.0
  0
LINE
  5
CF90
330
CF52
100
AcDbEntity
  8
0
  6
CONTINUOUS
100
AcDbLine
 10
44.99999999995498
 20
7.592623215805709
 30
0.0
 11
43.82952321576943
 21
8.763099999991255
 31
0.0
  0
LINE
  5
CF91
330
CF52
100
AcDbEntity
  8
0
  6
CONTINUOUS
100
AcDbLine
 10
44.99999999995498
 20
8.266142424885896
 30
0.0
 11
44.50304242484962
 21
8.763099999991255
 31
0.0
  0
ENDBLK
  5
CFBB
330
CF52
100
AcDbEntity
  8
0
100
AcDbBlockEnd
  0
BLOCK
  5
CFBC
330
CF92
100
AcDbEntity
  8
0
100
AcDbBlockBegin
  2
*X31
 70
     1
 10
0.0
 20
0.0
 30
0.0
  3
*X31
  1

  0
LINE
  5
CF93
330
CF92
100
AcDbEntity
  8
0
  6
CONTINUOUS
100
AcDbLine
 10
0.0
 20
8.548461116714023
 30
0.0
 11
0.2146388832772324
 21
8.763099999991255
 31
0.0
  0
LINE
  5
CF94
330
CF92
100
AcDbEntity
  8
0
  6
CONTINUOUS
100
AcDbLine
 10
-0.0000000000000002
 20
7.874941907633837
 30
0.0
 11
0.8881580923574184
 21
8.763099999991255
 31
0.0
  0
LINE
  5
CF95
330
CF92
100
AcDbEntity
  8
0
  6
CONTINUOUS
100
AcDbLine
 10
0.0
 20
7.20142269855365
 30
0.0
 11
1.420999999998572
 21
8.622422698552223
 31
0.0
  0
LINE
  5
CF96
330
CF92
100
AcDbEntity
  8
0
  6
CONTINUOUS
100
AcDbLine
 10
-0.0000000000000001
 20
6.527903489473465
 30
0.0
 11
1.420999999998571
 21
7.948903489472036
 31
0.0
  0
LINE
  5
CF97
330
CF92
100
AcDbEntity
  8
0
  6
CONTINUOUS
100
AcDbLine
 10
-0.0000000000000002
 20
5.854384280393278
 30
0.0
 11
1.420999999998571
 21
7.275384280391849
 31
0.0
  0
LINE
  5
CF98
330
CF92
100
AcDbEntity
  8
0
  6
CONTINUOUS
100
AcDbLine
 10
-0.0000000000000002
 20
5.180865071313091
 30
0.0
 11
1.420999999998571
 21
6.601865071311663
 31
0.0
  0
LINE
  5
CF99
330
CF92
100
AcDbEntity
  8
0
  6
CONTINUOUS
100
AcDbLine
 10
0.0
 20
4.507345862232905
 30
0.0
 11
1.420999999998571
 21
5.928345862231477
 31
0.0
  0
LINE
  5
CF9A
330
CF92
100
AcDbEntity
  8
0
  6
CONTINUOUS
100
AcDbLine
 10
-0.0000000000000003
 20
3.833826653152718
 30
0.0
 11
1.420999999998571
 21
5.25482665315129
 31
0.0
  0
LINE
  5
CF9B
330
CF92
100
AcDbEntity
  8
0
  6
CONTINUOUS
100
AcDbLine
 10
-0.0000000000000002
 20
3.160307444072532
 30
0.0
 11
1.420999999998571
 21
4.581307444071103
 31
0.0
  0
LINE
  5
CF9C
330
CF92
100
AcDbEntity
  8
0
  6
CONTINUOUS
100
AcDbLine
 10
-0.0000000000000001
 20
2.486788234992345
 30
0.0
 11
1.420999999998571
 21
3.907788234990917
 31
0.0
  0
LINE
  5
CF9D
330
CF92
100
AcDbEntity
  8
0
  6
CONTINUOUS
100
AcDbLine
 10
-0.0000000000000006
 20
1.813269025912159
 30
0.0
 11
1.420999999998571
 21
3.234269025910731
 31
0.0
  0
LINE
  5
CF9E
330
CF92
100
AcDbEntity
  8
0
  6
CONTINUOUS
100
AcDbLine
 10
0.0
 20
1.139749816831973
 30
0.0
 11
1.420999999998571
 21
2.560749816830544
 31
0.0
  0
LINE
  5
CF9F
330
CF92
100
AcDbEntity
  8
0
  6
CONTINUOUS
100
AcDbLine
 10
0.0000000000000002
 20
0.466230607751787
 30
0.0
 11
1.420999999998571
 21
1.887230607750358
 31
0.0
  0
LINE
  5
CFA0
330
CF92
100
AcDbEntity
  8
0
  6
CONTINUOUS
100
AcDbLine
 10
0.2072886013284003
 20
-0.0000000000000009
 30
0.0
 11
1.420999999998571
 21
1.213711398670171
 31
0.0
  0
LINE
  5
CFA1
330
CF92
100
AcDbEntity
  8
0
  6
CONTINUOUS
100
AcDbLine
 10
0.8808078104085864
 20
-0.0000000000000009
 30
0.0
 11
1.420999999998571
 21
0.5401921895899839
 31
0.0
  0
LINE
  5
CFA2
330
CF92
100
AcDbEntity
  8
0
  6
CONTINUOUS
100
AcDbLine
 10
0.0581249075061505
 20
-0.0000000000000009
 30
0.0
 11
-0.0000000000000002
 21
0.0581249075061496
 31
0.0
  0
LINE
  5
CFA3
330
CF92
100
AcDbEntity
  8
0
  6
CONTINUOUS
100
AcDbLine
 10
0.7316441165863372
 20
-0.0000000000000009
 30
0.0
 11
-0.0000000000000002
 21
0.7316441165863363
 31
0.0
  0
LINE
  5
CFA4
330
CF92
100
AcDbEntity
  8
0
  6
CONTINUOUS
100
AcDbLine
 10
1.405163325666523
 20
-0.0000000000000009
 30
0.0
 11
-0.0000000000000002
 21
1.405163325666523
 31
0.0
  0
LINE
  5
CFA5
330
CF92
100
AcDbEntity
  8
0
  6
CONTINUOUS
100
AcDbLine
 10
1.420999999998572
 20
0.6576825347481381
 30
0.0
 11
-0.0000000000000001
 21
2.07868253474671
 31
0.0
  0
LINE
  5
CFA6
330
CF92
100
AcDbEntity
  8
0
  6
CONTINUOUS
100
AcDbLine
 10
1.420999999998571
 20
1.331201743828324
 30
0.0
 11
-0.0000000000000001
 21
2.752201743826896
 31
0.0
  0
LINE
  5
CFA7
330
CF92
100
AcDbEntity
  8
0
  6
CONTINUOUS
100
AcDbLine
 10
1.420999999998571
 20
2.004720952908511
 30
0.0
 11
-0.0000000000000002
 21
3.425720952907082
 31
0.0
  0
LINE
  5
CFA8
330
CF92
100
AcDbEntity
  8
0
  6
CONTINUOUS
100
AcDbLine
 10
1.420999999998571
 20
2.678240161988697
 30
0.0
 11
-0.0000000000000001
 21
4.099240161987269
 31
0.0
  0
LINE
  5
CFA9
330
CF92
100
AcDbEntity
  8
0
  6
CONTINUOUS
100
AcDbLine
 10
1.420999999998572
 20
3.351759371068884
 30
0.0
 11
0.0
 21
4.772759371067455
 31
0.0
  0
LINE
  5
CFAA
330
CF92
100
AcDbEntity
  8
0
  6
CONTINUOUS
100
AcDbLine
 10
1.420999999998571
 20
4.02527858014907
 30
0.0
 11
-0.0000000000000003
 21
5.446278580147642
 31
0.0
  0
LINE
  5
CFAB
330
CF92
100
AcDbEntity
  8
0
  6
CONTINUOUS
100
AcDbLine
 10
1.420999999998571
 20
4.698797789229257
 30
0.0
 11
0.0
 21
6.119797789227828
 31
0.0
  0
LINE
  5
CFAC
330
CF92
100
AcDbEntity
  8
0
  6
CONTINUOUS
100
AcDbLine
 10
1.420999999998571
 20
5.372316998309444
 30
0.0
 11
-0.0000000000000001
 21
6.793316998308015
 31
0.0
  0
LINE
  5
CFAD
330
CF92
100
AcDbEntity
  8
0
  6
CONTINUOUS
100
AcDbLine
 10
1.420999999998572
 20
6.045836207389629
 30
0.0
 11
-0.0000000000000004
 21
7.466836207388202
 31
0.0
  0
LINE
  5
CFAE
330
CF92
100
AcDbEntity
  8
0
  6
CONTINUOUS
100
AcDbLine
 10
1.420999999998571
 20
6.719355416469816
 30
0.0
 11
0.0
 21
8.140355416468388
 31
0.0
  0
LINE
  5
CFAF
330
CF92
100
AcDbEntity
  8
0
  6
CONTINUOUS
100
AcDbLine
 10
1.420999999998571
 20
7.392874625550003
 30
0.0
 11
0.0507746255573185
 21
8.763099999991255
 31
0.0
  0
LINE
  5
CFB0
330
CF92
100
AcDbEntity
  8
0
  6
CONTINUOUS
100
AcDbLine
 10
1.420999999998571
 20
8.06639383463019
 30
0.0
 11
0.7242938346375052
 21
8.763099999991255
 31
0.0
  0
LINE
  5
CFB1
330
CF92
100
AcDbEntity
  8
0
  6
CONTINUOUS
100
AcDbLine
 10
1.420999999998571
 20
8.739913043710375
 30
0.0
 11
1.397813043717691
 21
8.763099999991255
 31
0.0
  0
ENDBLK
  5
CFBD
330
CF92
100
AcDbEntity
  8
0
100
AcDbBlockEnd
  0
ENDSEC
  0
SECTION
  2
ENTITIES
  0
LINE
  5
AE2E
330
18
100
AcDbEntity
  8
01
100
AcDbLine
 10
5034.139554797974
 20
-302.9009516538244
 30
0.0000000000563712
 11
5056.767840180404
 21
-302.9009516538244
 31
0.0000000000563712
  0
LINE
  5
AE2F
330
18
100
AcDbEntity
  8
01
  6
BYBLOCK
100
AcDbLine
 10
5135.268724362464
 20
-52.90226996795627
 30
0.0000000000563712
 11
5289.023104517495
 21
-52.90226996795627
 31
0.0000000000563712
  0
LINE
  5
AE37
330
18
100
AcDbEntity
  8
01
100
AcDbLine
 10
5036.267840180404
 20
-182.9009516538244
 30
0.0000000000563712
 11
5036.267840180404
 21
-372.9009516538244
 31
0.0000000000563712
  0
LINE
  5
AE39
330
18
100
AcDbEntity
  8
01
100
AcDbLine
 10
5156.267840180404
 20
-302.9009516538244
 30
0.0000000000563712
 11
5216.267840180404
 21
-302.9009516538244
 31
0.0000000000563712
  0
LINE
  5
AE3A
330
18
100
AcDbEntity
  8
01
100
AcDbLine
 10
5186.267840180404
 20
-272.9009516538244
 30
0.0000000000563712
 11
5186.267840180404
 21
-332.9009516538244
 31
0.0000000000563712
  0
LINE
  5
B873
330
18
100
AcDbEntity
  8
01
100
AcDbLine
 10
5130.267840180404
 20
-224.9022699669276
 30
0.0000000000563712
 11
5144.267840180404
 21
-224.9022699669276
 31
0.0000000000563712
  0
LINE
  5
B874
330
18
100
AcDbEntity
  8
01
100
AcDbLine
 10
5135.268724362464
 20
-12.90226996795627
 30
0.0000000000563712
 11
5289.023104517497
 21
-12.90226996795627
 31
0.0000000000563712
  0
LINE
  5
B875
330
18
100
AcDbEntity
  8
01
  6
BYBLOCK
100
AcDbLine
 10
5135.268724362464
 20
-12.90226996795627
 30
0.0000000000563712
 11
5135.268724362464
 21
-52.90226996795627
 31
0.0000000000563712
  0
LINE
  5
B879
330
18
100
AcDbEntity
  8
01
100
AcDbLine
 10
5186.267956520149
 20
-17.90226996898491
 30
0.0000000000563712
 11
5186.267956520149
 21
13.01581022026403
 31
0.0000000000563712
  0
LINE
  5
B87D
330
18
100
AcDbEntity
  8
01
  6
BYBLOCK
100
AcDbLine
 10
5136.767840180404
 20
-217.0022699669275
 30
0.0000000000563712
 11
5136.767840180404
 21
-346.8022699669275
 31
0.0000000000563712
  0
LINE
  5
B87E
330
18
100
AcDbEntity
  8
01
  6
BYBLOCK
100
AcDbLine
 10
5136.767840180404
 20
-345.9022699669276
 30
0.0000000000563712
 11
5139.267840180404
 21
-345.9022699669276
 31
0.0000000000563712
  0
LINE
  5
B87F
330
18
100
AcDbEntity
  8
01
  6
BYBLOCK
100
AcDbLine
 10
5139.267840180404
 20
-345.9022699669276
 30
0.0000000000563712
 11
5139.267840180404
 21
-329.3993262417753
 31
0.0000000000563712
  0
LINE
  5
B880
330
18
100
AcDbEntity
  8
01
  6
BYBLOCK
100
AcDbLine
 10
5135.267840180404
 20
-217.0022699669275
 30
0.0000000000563712
 11
5135.267840180404
 21
-346.8022699669275
 31
0.0000000000563712
  0
LINE
  5
B881
330
18
100
AcDbEntity
  8
01
  6
BYBLOCK
100
AcDbLine
 10
5135.267840180404
 20
-346.8022699669275
 30
0.0000000000563712
 11
5136.767840180404
 21
-346.8022699669275
 31
0.0000000000563712
  0
LINE
  5
B882
330
18
100
AcDbEntity
  8
01
  6
BYBLOCK
100
AcDbLine
 10
5136.767840180404
 20
-217.9022699669276
 30
0.0000000000563712
 11
5139.267840180404
 21
-217.9022699669276
 31
0.0000000000563712
  0
LINE
  5
B883
330
18
100
AcDbEntity
  8
01
  6
BYBLOCK
100
AcDbLine
 10
5135.267840180404
 20
-217.0022699669275
 30
0.0000000000563712
 11
5136.767840180404
 21
-217.0022699669275
 31
0.0000000000563712
  0
LINE
  5
B884
330
18
100
AcDbEntity
  8
01
  6
BYBLOCK
100
AcDbLine
 10
5136.767840180404
 20
-241.9022699669276
 30
0.0000000000563712
 11
5137.967840180403
 21
-241.9022699669276
 31
0.0000000000563712
  0
ARC
  5
B885
330
18
100
AcDbEntity
  8
1HIDDEN
100
AcDbCircle
 10
5203.267840180404
 20
-245.9022699669276
 30
0.0000000000563712
 40
1.0
100
AcDbArc
 50
0.0
 51
90.0
  0
LINE
  5
B886
330
18
100
AcDbEntity
  8
01
  6
BYBLOCK
100
AcDbLine
 10
5137.967840180403
 20
-236.2022699669274
 30
0.0000000000563712
 11
5137.967840180403
 21
-327.6022699669275
 31
0.0000000000563712
  0
LINE
  5
B887
330
18
100
AcDbEntity
  8
01
  6
BYBLOCK
100
AcDbLine
 10
5138.067840180403
 20
-345.9022699669276
 30
0.0000000000563712
 11
5138.067840180403
 21
-329.3022699669275
 31
0.0000000000563712
  0
LINE
  5
B888
330
18
100
AcDbEntity
  8
01
  6
BYBLOCK
100
AcDbLine
 10
5138.067840180403
 20
-329.3022699669275
 30
0.0000000000563712
 11
5137.11931204298
 21
-328.3537418295036
 31
0.0000000000563712
  0
LINE
  5
B889
330
18
100
AcDbEntity
  8
01
  6
BYBLOCK
100
AcDbLine
 10
5138.916368317827
 20
-328.5507981043513
 30
0.0000000000563712
 11
5137.967840180403
 21
-327.6022699669275
 31
0.0000000000563712
  0
ARC
  5
B88A
330
18
100
AcDbEntity
  8
01
  6
BYBLOCK
100
AcDbCircle
 10
5138.067840180403
 20
-329.3993262417753
 30
0.0000000000563712
 40
1.2
100
AcDbArc
 50
0.0
 51
45.00000000004836
  0
ARC
  5
B88B
330
18
100
AcDbEntity
  8
01
  6
BYBLOCK
100
AcDbCircle
 10
5137.967840180403
 20
-327.5052136920797
 30
0.0000000000563712
 40
1.2
100
AcDbArc
 50
180.0
 51
225.0000000000484
  0
LINE
  5
B88C
330
18
100
AcDbEntity
  8
01
  6
BYBLOCK
100
AcDbLine
 10
5139.267840180404
 20
-217.9022699669276
 30
0.0000000000563712
 11
5139.267840180404
 21
-234.4052136920798
 31
0.0000000000563712
  0
LINE
  5
B88D
330
18
100
AcDbEntity
  8
01
  6
BYBLOCK
100
AcDbLine
 10
5138.067840180403
 20
-217.9022699669276
 30
0.0000000000563712
 11
5138.067840180403
 21
-234.5022699669275
 31
0.0000000000563712
  0
LINE
  5
B88E
330
18
100
AcDbEntity
  8
01
  6
BYBLOCK
100
AcDbLine
 10
5138.067840180403
 20
-234.5022699669275
 30
0.0000000000563712
 11
5137.11931204298
 21
-235.4507981043514
 31
0.0000000000563712
  0
LINE
  5
B88F
330
18
100
AcDbEntity
  8
01
  6
BYBLOCK
100
AcDbLine
 10
5138.916368317827
 20
-235.2537418295037
 30
0.0000000000563712
 11
5137.967840180403
 21
-236.2022699669276
 31
0.0000000000563712
  0
ARC
  5
B890
330
18
100
AcDbEntity
  8
01
  6
BYBLOCK
100
AcDbCircle
 10
5138.067840180403
 20
-234.4052136920798
 30
0.0000000000563712
 40
1.2
100
AcDbArc
 50
314.9999999999516
 51
0.0
  0
ARC
  5
B891
330
18
100
AcDbEntity
  8
01
  6
BYBLOCK
100
AcDbCircle
 10
5137.967840180403
 20
-236.2993262417754
 30
0.0000000000563712
 40
1.2
100
AcDbArc
 50
134.9999999999516
 51
180.0
  0
CIRCLE
  5
B892
330
18
100
AcDbEntity
  8
1HIDDEN
100
AcDbCircle
 10
5186.267840180404
 20
-252.9022699669276
 30
0.0000000000563712
 40
4.75
  0
LINE
  5
B893
330
18
100
AcDbEntity
  8
01
  6
BYBLOCK
100
AcDbLine
 10
5137.967840180403
 20
-318.9022699669279
 30
0.0000000000563712
 11
5203.267727840659
 21
-318.9022699669276
 31
0.0000000000563712
  0
ARC
  5
B894
330
18
100
AcDbEntity
  8
01
  6
BYBLOCK
100
AcDbCircle
 10
5138.368724362464
 20
-29.34101942495636
 30
0.0000000000563712
 40
1.6
100
AcDbArc
 50
115.9444797720213
 51
180.0
  0
ARC
  5
B895
330
18
100
AcDbEntity
  8
01
  6
BYBLOCK
100
AcDbCircle
 10
5138.368724362464
 20
-36.46352051095619
 30
0.0000000000563712
 40
1.6
100
AcDbArc
 50
180.0
 51
244.0555202279787
  0
ARC
  5
B896
330
18
100
AcDbEntity
  8
01
  6
BYBLOCK
100
AcDbCircle
 10
5137.668724362464
 20
-37.74101942495622
 30
0.0000000000563712
 40
1.6
100
AcDbArc
 50
0.0
 51
64.05552022797873
  0
ARC
  5
B897
330
18
100
AcDbEntity
  8
01
  6
BYBLOCK
100
AcDbCircle
 10
5137.668724362464
 20
-28.06352051095632
 30
0.0000000000563712
 40
1.6
100
AcDbArc
 50
295.9444797720212
 51
0.0
  0
LINE
  5
B898
330
18
100
AcDbEntity
  8
01
  6
BYBLOCK
100
AcDbLine
 10
5139.268724362464
 20
-28.06352051095632
 30
0.0000000000563712
 11
5139.268724362464
 21
-20.70226996795623
 31
0.0000000000563712
  0
LINE
  5
B899
330
18
100
AcDbEntity
  8
01
  6
BYBLOCK
100
AcDbLine
 10
5138.368724362464
 20
-36.30226996795636
 30
0.0000000000563712
 11
5138.368724362464
 21
-29.50226996795618
 31
0.0000000000563712
  0
LINE
  5
B89A
330
18
100
AcDbEntity
  8
01
  6
BYBLOCK
100
AcDbLine
 10
5139.268724362464
 20
-44.90226996795627
 30
0.0000000000563712
 11
5139.268724362464
 21
-37.74101942495622
 31
0.0000000000563712
  0
LINE
  5
B89B
330
18
100
AcDbEntity
  8
01
  6
BYBLOCK
100
AcDbLine
 10
5137.668724362464
 20
-27.90226996795627
 30
0.0000000000563712
 11
5137.668724362464
 21
-20.70226996795623
 31
0.0000000000563712
  0
LINE
  5
B89C
330
18
100
AcDbEntity
  8
01
  6
BYBLOCK
100
AcDbLine
 10
5137.668724362464
 20
-37.90226996795627
 30
0.0000000000563712
 11
5137.668724362464
 21
-45.00226996795618
 31
0.0000000000563712
  0
ARC
  5
B89D
330
18
100
AcDbEntity
  8
01
  6
BYBLOCK
100
AcDbCircle
 10
5202.668724362464
 20
-25.00226996795618
 30
0.0000000000563712
 40
1.6
100
AcDbArc
 50
0.0
 51
90.0
  0
LINE
  5
B89E
330
18
100
AcDbEntity
  8
01
  6
BYBLOCK
100
AcDbLine
 10
5136.768724362464
 20
-20.50226996795618
 30
0.0000000000563712
 11
5136.768724362464
 21
-45.30226996795614
 31
0.0000000000563712
  0
LINE
  5
B89F
330
18
100
AcDbEntity
  8
01
  6
BYBLOCK
100
AcDbLine
 10
5202.668724362464
 20
-23.40226996795627
 30
0.0000000000563712
 11
5139.268724362464
 21
-23.40226996795627
 31
0.0000000000563712
  0
LINE
  5
B8A0
330
18
100
AcDbEntity
  8
01
  6
BYBLOCK
100
AcDbLine
 10
5202.668724362464
 20
-40.60226996795632
 30
0.0000000000563712
 11
5202.668724362464
 21
-23.40226996795627
 31
0.0000000000563712
  0
LINE
  5
B8A1
330
18
100
AcDbEntity
  8
01
  6
BYBLOCK
100
AcDbLine
 10
5204.268724362464
 20
-42.20226996795623
 30
0.0000000000563712
 11
5204.268724362464
 21
-25.00226996795618
 31
0.0000000000563712
  0
LINE
  5
B8A2
330
18
100
AcDbEntity
  8
01
  6
BYBLOCK
100
AcDbLine
 10
5136.768724362464
 20
-20.70226996795623
 30
0.0000000000563712
 11
5139.268724362464
 21
-20.70226996795623
 31
0.0000000000563712
  0
LINE
  5
B8A3
330
18
100
AcDbEntity
  8
01
  6
BYBLOCK
100
AcDbLine
 10
5139.268724362464
 20
-44.90226996795627
 30
0.0000000000563712
 11
5137.668724362464
 21
-44.90226996795627
 31
0.0000000000563712
  0
LINE
  5
B8A4
330
18
100
AcDbEntity
  8
01
  6
BYBLOCK
100
AcDbLine
 10
5137.668724362464
 20
-45.00226996795618
 30
0.0000000000563712
 11
5136.768724362464
 21
-45.00226996795618
 31
0.0000000000563712
  0
ARC
  5
B8A5
330
18
100
AcDbEntity
  8
01
  6
BYBLOCK
100
AcDbCircle
 10
5133.969319289863
 20
-38.60226996795564
 30
0.0000000000563712
 40
0.3000000000000051
100
AcDbArc
 50
232.8678058729399
 51
270.0
  0
LINE
  5
B8A6
330
18
100
AcDbEntity
  8
01
  6
BYBLOCK
100
AcDbLine
 10
5134.768724362464
 20
-38.90226996795559
 30
0.0000000000563712
 11
5133.969319289863
 21
-38.90226996795559
 31
0.0000000000563712
  0
LINE
  5
B8A7
330
18
100
AcDbEntity
  8
01
  6
BYBLOCK
100
AcDbLine
 10
5124.368724362464
 20
-29.22928110175144
 30
0.0000000000563712
 11
5124.368724362464
 21
-29.39990315730051
 31
0.0000000000563712
  0
ARC
  5
B8A8
330
18
100
AcDbEntity
  8
01
  6
BYBLOCK
100
AcDbCircle
 10
5124.668724362464
 20
-29.39990315730051
 30
0.0000000000563712
 40
0.3
100
AcDbArc
 50
180.0
 51
217.740529562962
  0
ARC
  5
B8A9
330
18
100
AcDbEntity
  8
01
  6
BYBLOCK
100
AcDbCircle
 10
5163.971024961747
 20
1.020799786640282
 30
0.0000000000563712
 40
50.00000000000002
100
AcDbArc
 50
217.7405295629796
 51
232.8678058729912
  0
LINE
  5
B8AA
330
18
100
AcDbEntity
  8
01
  6
BYBLOCK
100
AcDbLine
 10
5124.168724362464
 20
-28.10226996795609
 30
0.0000000000563712
 11
5124.168724362464
 21
-27.40226996795627
 31
0.0000000000563712
  0
ARC
  5
B8AB
330
18
100
AcDbEntity
  8
01
  6
BYBLOCK
100
AcDbCircle
 10
5124.668724362464
 20
-27.40226996795627
 30
0.0000000000563712
 40
0.5000000000000142
100
AcDbArc
 50
90.0
 51
180.0
  0
LINE
  5
B8AC
330
18
100
AcDbEntity
  8
01
  6
BYBLOCK
100
AcDbLine
 10
5134.768724362464
 20
-26.90226996795627
 30
0.0000000000563712
 11
5124.668724362464
 21
-26.90226996795627
 31
0.0000000000563712
  0
LINE
  5
B8AD
330
18
100
AcDbEntity
  8
01
  6
BYBLOCK
100
AcDbLine
 10
5124.168724362464
 20
-28.48094962439654
 30
0.0000000000563712
 11
5124.168724362464
 21
-28.10226996795609
 31
0.0000000000563712
  0
SPLINE
  5
B8AE
330
18
100
AcDbEntity
  8
01
  6
BYBLOCK
100
AcDbSpline
210
0.0
220
0.0
230
1.0
 70
     8
 71
     3
 72
     8
 73
     4
 74
     0
 42
0.0000000001
 43
0.0000000001
 40
0.0
 40
0.0
 40
0.0
 40
0.0
 40
1.0
 40
1.0
 40
1.0
 40
1.0
 10
5124.194456903728
 20
-28.75760005384564
 30
0.0000000000563712
 10
5124.176989017617
 20
-28.66451385796518
 30
0.0000000000563712
 10
5124.168724362464
 20
-28.57124784707366
 30
0.0000000000563712
 10
5124.168724362464
 20
-28.48094962439609
 30
0.0000000000563712
  0
ARC
  5
B8AF
330
18
100
AcDbEntity
  8
01
  6
BYBLOCK
100
AcDbCircle
 10
5125.668724362464
 20
-28.48094962439654
 30
0.0000000000563712
 40
1.499999999999998
100
AcDbArc
 50
190.628112987605
 51
225.000000000046
  0
LINE
  5
B8B0
330
18
100
AcDbEntity
  8
01
  6
BYBLOCK
100
AcDbLine
 10
5135.268724362464
 20
-26.05226996795614
 30
0.0000000000563712
 11
5134.768724362464
 21
-26.05226996795614
 31
0.0000000000563712
  0
LINE
  5
B8B1
330
18
100
AcDbEntity
  8
01
  6
BYBLOCK
100
AcDbLine
 10
5134.768724362464
 20
-39.75226996795618
 30
0.0000000000563712
 11
5135.268724362464
 21
-39.75226996795618
 31
0.0000000000563712
  0
LINE
  5
B8B2
330
18
100
AcDbEntity
  8
01
  6
BYBLOCK
100
AcDbLine
 10
5134.768724362464
 20
-39.75226996795618
 30
0.0000000000563712
 11
5134.768724362464
 21
-26.05226996795614
 31
0.0000000000563712
  0
LINE
  5
B8B3
330
18
100
AcDbEntity
  8
01
  6
BYBLOCK
100
AcDbLine
 10
5135.268724362464
 20
-20.50226996795618
 30
0.0000000000563712
 11
5136.768724362464
 21
-20.50226996795618
 31
0.0000000000563712
  0
LINE
  5
B8B4
330
18
100
AcDbEntity
  8
01
  6
BYBLOCK
100
AcDbLine
 10
5135.268724362464
 20
-45.30226996795614
 30
0.0000000000563712
 11
5136.768724362464
 21
-45.30226996795614
 31
0.0000000000563712
  0
LINE
  5
B8B5
330
18
100
AcDbEntity
  8
01
  6
BYBLOCK
100
AcDbLine
 10
5135.268724362464
 20
-45.30226996795614
 30
0.0000000000563712
 11
5135.268724362464
 21
-20.50226996795618
 31
0.0000000000563712
  0
LINE
  5
B8B6
330
18
100
AcDbEntity
  8
01
  6
BYBLOCK
100
AcDbLine
 10
5204.268724362464
 20
-40.60226996795632
 30
0.0000000000563712
 11
5139.268724362464
 21
-40.60226996795632
 31
0.0000000000563712
  0
LINE
  5
B8B7
330
18
100
AcDbEntity
  8
01
  6
BYBLOCK
100
AcDbLine
 10
5204.268724362464
 20
-42.20226996795623
 30
0.0000000000563712
 11
5153.868724362464
 21
-42.20226996795623
 31
0.0000000000563712
  0
LINE
  5
B8B8
330
18
100
AcDbEntity
  8
01
  6
BYBLOCK
100
AcDbLine
 10
5156.705982662666
 20
-42.20226996795623
 30
0.0000000000563712
 11
5139.268724362464
 21
-42.20226996795623
 31
0.0000000000563712
  0
LINE
  5
B8B9
330
18
100
AcDbEntity
  8
01
  6
BYBLOCK
100
AcDbLine
 10
5133.822277753057
 20
-38.75582335854961
 30
0.0000000000563712
 11
5124.608064190683
 21
-29.54160979617654
 31
0.0000000000563712
  0
ARC
  5
B8BA
330
18
100
AcDbEntity
  8
01
  6
BYBLOCK
100
AcDbCircle
 10
5134.17583114365
 20
-38.40226996795627
 30
0.0000000000563712
 40
0.5
100
AcDbArc
 50
224.9999999999908
 51
270.0
  0
LINE
  5
B8BB
330
18
100
AcDbEntity
  8
01
  6
BYBLOCK
100
AcDbLine
 10
5134.768724362464
 20
-38.90226996795627
 30
0.0000000000563712
 11
5134.17583114365
 21
-38.90226996795627
 31
0.0000000000563712
  0
LINE
  5
B8C1
330
18
100
AcDbEntity
  8
01
  6
BYBLOCK
100
AcDbLine
 10
5124.267840180404
 20
-271.8705996999115
 30
0.0000000000563712
 11
5124.267840180404
 21
-289.9339402339174
 31
0.0000000000563712
  0
LINE
  5
B8C2
330
18
100
AcDbEntity
  8
01
  6
BYBLOCK
100
AcDbLine
 10
5128.560733399217
 20
-270.9022699669144
 30
0.0000000000563712
 11
5135.267840180404
 21
-270.9022699669144
 31
0.0000000000563712
  0
LINE
  5
B8C3
330
18
100
AcDbEntity
  8
01
  6
BYBLOCK
100
AcDbLine
 10
5128.560733399217
 20
-290.9022699669144
 30
0.0000000000563712
 11
5135.267840180404
 21
-290.9022699669144
 31
0.0000000000563712
  0
LINE
  5
B8C4
330
18
100
AcDbEntity
  8
01
  6
BYBLOCK
100
AcDbLine
 10
5134.060733399217
 20
-275.6522699669144
 30
0.0000000000563712
 11
5134.060733399217
 21
-286.1522699669144
 31
0.0000000000563712
  0
ARC
  5
B8C5
330
18
100
AcDbEntity
  8
01
  6
BYBLOCK
100
AcDbCircle
 10
5128.560733399217
 20
-280.9022699669144
 30
0.0000000000563712
 40
10.00000000000009
100
AcDbArc
 50
53.13010235414377
 51
115.4224671781405
  0
ARC
  5
B8C6
330
18
100
AcDbEntity
  8
01
  6
BYBLOCK
100
AcDbCircle
 10
5128.560733399217
 20
-280.9022699669142
 30
0.0000000000563712
 40
10.00000000000009
100
AcDbArc
 50
244.5775328218595
 51
306.8698976458562
  0
LINE
  5
B8C7
330
18
100
AcDbEntity
  8
01
  6
BYBLOCK
100
AcDbLine
 10
5134.560733399217
 20
-272.9022699669144
 30
0.0000000000563712
 11
5134.560733399217
 21
-288.9022699669144
 31
0.0000000000563712
  0
LINE
  5
B8C8
330
18
100
AcDbEntity
  8
01
  6
BYBLOCK
100
AcDbLine
 10
5124.267840180404
 20
-275.6522699669144
 30
0.0000000000563712
 11
5134.060733399217
 21
-275.6522699669144
 31
0.0000000000563712
  0
LINE
  5
B8C9
330
18
100
AcDbEntity
  8
01
  6
BYBLOCK
100
AcDbLine
 10
5124.267840180404
 20
-286.1522699669144
 30
0.0000000000563712
 11
5134.060733399217
 21
-286.1522699669144
 31
0.0000000000563712
  0
LINE
  5
B8CA
330
18
100
AcDbEntity
  8
01
  6
BYBLOCK
100
AcDbLine
 10
5009.867956520149
 20
-217.0022699669282
 30
0.0000000000563712
 11
5022.667956520148
 21
-217.0022699669282
 31
0.0000000000563712
  0
LINE
  5
B8CB
330
18
100
AcDbEntity
  8
01
  6
BYBLOCK
100
AcDbLine
 10
5009.867956520149
 20
-346.8022699669282
 30
0.0000000000563712
 11
5022.667956520148
 21
-346.8022699669282
 31
0.0000000000563712
  0
LINE
  5
B8CC
330
18
100
AcDbEntity
  8
01
  6
BYBLOCK
100
AcDbLine
 10
5003.867956520149
 20
-223.0022699669282
 30
0.0000000000563712
 11
5003.867956520149
 21
-340.8022699669282
 31
0.0000000000563712
  0
LINE
  5
B8CD
330
18
100
AcDbEntity
  8
01
  6
BYBLOCK
100
AcDbLine
 10
5028.667956520148
 20
-223.0022699669282
 30
0.0000000000563712
 11
5028.667956520148
 21
-340.8022699669282
 31
0.0000000000563712
  0
ARC
  5
B8CE
330
18
100
AcDbEntity
  8
01
  6
BYBLOCK
100
AcDbCircle
 10
5009.867956520149
 20
-340.8022699669282
 30
0.0000000000563712
 40
6.0
100
AcDbArc
 50
180.0
 51
270.0
  0
ARC
  5
B8CF
330
18
100
AcDbEntity
  8
01
  6
BYBLOCK
100
AcDbCircle
 10
5022.667956520148
 20
-340.8022699669282
 30
0.0000000000563712
 40
6.0
100
AcDbArc
 50
270.0
 51
0.0
  0
ARC
  5
B8D0
330
18
100
AcDbEntity
  8
01
  6
BYBLOCK
100
AcDbCircle
 10
5009.867956520149
 20
-223.0022699669282
 30
0.0000000000563712
 40
6.0
100
AcDbArc
 50
90.0
 51
180.0
  0
ARC
  5
B8D1
330
18
100
AcDbEntity
  8
01
  6
BYBLOCK
100
AcDbCircle
 10
5022.667956520148
 20
-223.0022699669282
 30
0.0000000000563712
 40
6.0
100
AcDbArc
 50
0.0
 51
90.0
  0
CIRCLE
  5
B8D2
330
18
100
AcDbEntity
  8
01
  6
BYBLOCK
100
AcDbCircle
 10
5016.267956520149
 20
-338.9022699669281
 30
0.0000000000563712
 40
2.75
  0
CIRCLE
  5
B8D3
330
18
100
AcDbEntity
  8
01
  6
BYBLOCK
100
AcDbCircle
 10
5016.267956520149
 20
-338.9022699669281
 30
0.0000000000563712
 40
4.25
  0
CIRCLE
  5
B8D4
330
18
100
AcDbEntity
  8
01
  6
BYBLOCK
100
AcDbCircle
 10
5016.267956520149
 20
-224.9022699669283
 30
0.0000000000563712
 40
2.75
  0
CIRCLE
  5
B8D5
330
18
100
AcDbEntity
  8
01
  6
BYBLOCK
100
AcDbCircle
 10
5016.267956520149
 20
-224.9022699669283
 30
0.0000000000563712
 40
4.25
  0
LINE
  5
B8D6
330
18
100
AcDbEntity
  8
1CENTER
100
AcDbLine
 10
5022.142981928055
 20
-338.9022699669283
 30
0.0000000000563712
 11
5010.392931112243
 21
-338.9022699669283
 31
0.0000000000563712
  0
LINE
  5
B8D7
330
18
100
AcDbEntity
  8
1CENTER
100
AcDbLine
 10
5016.267956520149
 20
-333.0272445590219
 30
0.0000000000563712
 11
5016.267956520149
 21
-344.7772953748345
 31
0.0000000000563712
  0
LINE
  5
B8D8
330
18
100
AcDbEntity
  8
1CENTER
100
AcDbLine
 10
5022.142981928055
 20
-224.9022699669283
 30
0.0000000000563712
 11
5010.392931112243
 21
-224.9022699669283
 31
0.0000000000563712
  0
LINE
  5
B8D9
330
18
100
AcDbEntity
  8
1CENTER
100
AcDbLine
 10
5016.267956520149
 20
-219.0272445590219
 30
0.0000000000563712
 11
5016.267956520149
 21
-230.7772953748345
 31
0.0000000000563712
  0
ARC
  5
B8DA
330
18
100
AcDbEntity
  8
01
  6
BYBLOCK
100
AcDbCircle
 10
5016.267956520149
 20
-280.9022699669281
 30
0.0000000000563712
 40
10.15
100
AcDbArc
 50
231.9925780701383
 51
308.0074219298617
  0
LINE
  5
B8DB
330
18
100
AcDbEntity
  8
01
  6
BYBLOCK
100
AcDbLine
 10
5010.017956520149
 20
-272.9047703576753
 30
0.0000000000563712
 11
5010.017956520149
 21
-288.8997695761809
 31
0.0000000000563712
  0
LINE
  5
B8DC
330
18
100
AcDbEntity
  8
01
  6
BYBLOCK
100
AcDbLine
 10
5022.517956520149
 20
-272.9047703576753
 30
0.0000000000563712
 11
5022.517956520149
 21
-288.8997695761809
 31
0.0000000000563712
  0
ARC
  5
B8DD
330
18
100
AcDbEntity
  8
01
  6
BYBLOCK
100
AcDbCircle
 10
5016.267956520149
 20
-280.9022699669281
 30
0.0000000000563712
 40
10.15
100
AcDbArc
 50
51.99257807013829
 51
128.0074219298617
  0
LINE
  5
B8DE
330
18
100
AcDbEntity
  8
01
  6
BYBLOCK
100
AcDbLine
 10
5011.767956520149
 20
-275.6522699669281
 30
0.0000000000563712
 11
5011.767956520149
 21
-286.1522699669281
 31
0.0000000000563712
  0
LINE
  5
B8DF
330
18
100
AcDbEntity
  8
01
  6
BYBLOCK
100
AcDbLine
 10
5021.767956520149
 20
-275.6522699669281
 30
0.0000000000563712
 11
5021.767956520149
 21
-286.1522699669281
 31
0.0000000000563712
  0
LINE
  5
B8E0
330
18
100
AcDbEntity
  8
01
  6
BYBLOCK
100
AcDbLine
 10
5012.267956520149
 20
-271.5736848652098
 30
0.0000000000563712
 11
5012.267956520149
 21
-275.6522699669283
 31
0.0000000000563712
  0
LINE
  5
B8E1
330
18
100
AcDbEntity
  8
01
  6
BYBLOCK
100
AcDbLine
 10
5010.767956520149
 20
-275.6522699669283
 30
0.0000000000563712
 11
5010.767956520149
 21
-286.1522699669281
 31
0.0000000000563712
  0
LINE
  5
B8E2
330
18
100
AcDbEntity
  8
01
  6
BYBLOCK
100
AcDbLine
 10
5012.267956520149
 20
-286.1522699669281
 30
0.0000000000563712
 11
5012.267956520149
 21
-290.2308550686464
 31
0.0000000000563712
  0
LINE
  5
B8E3
330
18
100
AcDbEntity
  8
01
  6
BYBLOCK
100
AcDbLine
 10
5010.767956520149
 20
-275.6522699669281
 30
0.0000000000563712
 11
5021.767956520149
 21
-275.6522699669281
 31
0.0000000000563712
  0
LINE
  5
B8E4
330
18
100
AcDbEntity
  8
01
  6
BYBLOCK
100
AcDbLine
 10
5010.767956520149
 20
-286.1522699669281
 30
0.0000000000563712
 11
5021.767956520149
 21
-286.1522699669281
 31
0.0000000000563712
  0
LINE
  5
B8E8
330
18
100
AcDbEntity
  8
01
100
AcDbLine
 10
4996.268072859892
 20
-182.9022699669279
 30
0.0000000000563712
 11
4996.268072859892
 21
-372.9022699669281
 31
0.0000000000563712
  0
LINE
  5
B8F3
330
18
100
AcDbEntity
  8
01
100
AcDbLine
 10
4998.396358242324
 20
-302.9022699669281
 30
0.0000000000563712
 11
4975.768072859892
 21
-302.9022699669281
 31
0.0000000000563712
  0
LINE
  5
B8F9
330
18
100
AcDbEntity
  8
01
100
AcDbLine
 10
5130.267840180692
 20
-338.9022699666389
 30
0.0000000000563712
 11
5144.267840180692
 21
-338.9022699666389
 31
0.0000000000563712
  0
LINE
  5
B8FA
330
18
100
AcDbEntity
  8
01
100
AcDbLine
 10
5197.579728447945
 20
-252.9022699669276
 30
0.0000000000563712
 11
5174.955951912862
 21
-252.9022699669276
 31
0.0000000000563712
  0
LINE
  5
B8FB
330
18
100
AcDbEntity
  8
01
100
AcDbLine
 10
5186.267840180404
 20
-241.5903816993859
 30
0.0000000000563712
 11
5186.267840180404
 21
-264.2141582344693
 31
0.0000000000563712
  0
LINE
  5
B8FC
330
18
100
AcDbEntity
  8
01
  6
BYBLOCK
100
AcDbLine
 10
4908.268072859893
 20
-271.8705996999115
 30
0.0000000000563712
 11
4908.268072859893
 21
-289.9339402339174
 31
0.0000000000563712
  0
LINE
  5
B8FD
330
18
100
AcDbEntity
  8
01
  6
BYBLOCK
100
AcDbLine
 10
4903.97517964108
 20
-270.9022699669144
 30
0.0000000000563712
 11
4897.268072859893
 21
-270.9022699669144
 31
0.0000000000563712
  0
LINE
  5
B8FE
330
18
100
AcDbEntity
  8
01
  6
BYBLOCK
100
AcDbLine
 10
4903.97517964108
 20
-290.9022699669144
 30
0.0000000000563712
 11
4897.268072859893
 21
-290.9022699669144
 31
0.0000000000563712
  0
ARC
  5
B8FF
330
18
100
AcDbEntity
  8
01
  6
BYBLOCK
100
AcDbCircle
 10
4903.97517964108
 20
-280.9022699669144
 30
0.0000000000563712
 40
10.00000000000009
100
AcDbArc
 50
64.57753282185949
 51
90.0
  0
LINE
  5
B900
330
18
100
AcDbEntity
  8
01
  6
CONTINUOUS
100
AcDbLine
 10
4907.768072859893
 20
-289.2170641597452
 30
0.0000000000563712
 11
4897.268072859893
 21
-289.2170641597452
 31
0.0000000000563712
  0
ARC
  5
B901
330
18
100
AcDbEntity
  8
01
  6
CONTINUOUS
100
AcDbCircle
 10
4907.806653106807
 20
-288.7549249289384
 30
0.0000000000563712
 40
0.4637468103423796
100
AcDbArc
 50
265.2279066161985
 51
354.2577450626174
  0
LINE
  5
B902
330
18
100
AcDbEntity
  8
01
  6
CONTINUOUS
100
AcDbLine
 10
4908.268072859893
 20
-273.4189551933664
 30
0.0000000000563712
 11
4908.268072859893
 21
-288.3855847404623
 31
0.0000000000563712
  0
ARC
  5
B903
330
18
100
AcDbEntity
  8
01
  6
CONTINUOUS
100
AcDbCircle
 10
4907.806653106807
 20
-273.04961500489
 30
0.0000000000563712
 40
0.4637468103423387
100
AcDbArc
 50
5.742254937382608
 51
94.77209338380148
  0
ARC
  5
B904
330
18
100
AcDbEntity
  8
01
  6
BYBLOCK
100
AcDbCircle
 10
4903.97517964108
 20
-280.9022699669142
 30
0.0000000000563712
 40
10.00000000000009
100
AcDbArc
 50
270.0
 51
295.4224671781406
  0
LINE
  5
B905
330
18
100
AcDbEntity
  8
01
  6
CONTINUOUS
100
AcDbLine
 10
4897.268072859893
 20
-272.5874757740833
 30
0.0000000000563712
 11
4907.768072859893
 21
-272.5874757740833
 31
0.0000000000563712
  0
LINE
  5
B911
330
18
100
AcDbEntity
  8
01
100
AcDbLine
 10
4876.268072859893
 20
-302.9022699669276
 30
0.0000000000563712
 11
4816.268072859893
 21
-302.9022699669276
 31
0.0000000000563712
  0
LINE
  5
B912
330
18
100
AcDbEntity
  8
01
100
AcDbLine
 10
4846.268072859893
 20
-272.9022699669276
 30
0.0000000000563712
 11
4846.268072859893
 21
-332.9022699669276
 31
0.0000000000563712
  0
LINE
  5
B919
330
18
100
AcDbEntity
  8
01
100
AcDbLine
 10
5156.267840180404
 20
-302.9022699669276
 30
0.0000000000563712
 11
5216.267840180404
 21
-302.9022699669276
 31
0.0000000000563712
  0
LINE
  5
B91A
330
18
100
AcDbEntity
  8
01
100
AcDbLine
 10
5186.267840180404
 20
-272.9022699669276
 30
0.0000000000563712
 11
5186.267840180404
 21
-332.9022699669276
 31
0.0000000000563712
  0
LINE
  5
B920
330
18
100
AcDbEntity
  8
1HIDDEN
100
AcDbLine
 10
5204.267840180404
 20
-245.9022699669276
 30
0.0000000000563712
 11
5204.267840180404
 21
-267.4022697628004
 31
0.0000000000563712
  0
LINE
  5
B921
330
18
100
AcDbEntity
  8
01
  6
BYBLOCK
100
AcDbLine
 10
5137.967840180403
 20
-244.9022699669276
 30
0.0000000000563712
 11
5166.267840180406
 21
-244.9022699669276
 31
0.0000000000563712
  0
LINE
  5
B922
330
18
100
AcDbEntity
  8
1HIDDEN
100
AcDbLine
 10
5166.267840180406
 20
-244.9022699669276
 30
0.0000000000563712
 11
5203.267840180404
 21
-244.9022699669276
 31
0.0000000000563712
  0
LINE
  5
B923
330
18
100
AcDbEntity
  8
01
  6
BYBLOCK
100
AcDbLine
 10
5204.267840180406
 20
-267.4022697628004
 30
0.0000000000563712
 11
5204.267840180406
 21
-288.4009516538246
 31
0.0000000000563712
  0
LINE
  5
B924
330
18
100
AcDbEntity
  8
01
100
AcDbLine
 10
4902.268072859893
 20
-224.9022699669276
 30
0.0000000000563712
 11
4888.268072859893
 21
-224.9022699669276
 31
0.0000000000563712
  0
LINE
  5
B925
330
18
100
AcDbEntity
  8
01
  6
BYBLOCK
100
AcDbLine
 10
4895.768072859893
 20
-217.0022699669275
 30
0.0000000000563712
 11
4895.768072859893
 21
-346.8022699669275
 31
0.0000000000563712
  0
LINE
  5
B926
330
18
100
AcDbEntity
  8
01
  6
BYBLOCK
100
AcDbLine
 10
4895.768072859893
 20
-345.9022699669276
 30
0.0000000000563712
 11
4893.268072859893
 21
-345.9022699669276
 31
0.0000000000563712
  0
LINE
  5
B927
330
18
100
AcDbEntity
  8
01
  6
BYBLOCK
100
AcDbLine
 10
4893.268072859893
 20
-345.9022699669276
 30
0.0000000000563712
 11
4893.268072859893
 21
-329.3993262417753
 31
0.0000000000563712
  0
LINE
  5
B928
330
18
100
AcDbEntity
  8
01
  6
BYBLOCK
100
AcDbLine
 10
4897.268072859893
 20
-217.0022699669275
 30
0.0000000000563712
 11
4897.268072859893
 21
-346.8022699669275
 31
0.0000000000563712
  0
LINE
  5
B929
330
18
100
AcDbEntity
  8
01
  6
BYBLOCK
100
AcDbLine
 10
4897.268072859893
 20
-346.8022699669275
 30
0.0000000000563712
 11
4895.768072859893
 21
-346.8022699669275
 31
0.0000000000563712
  0
LINE
  5
B92A
330
18
100
AcDbEntity
  8
01
  6
BYBLOCK
100
AcDbLine
 10
4895.768072859893
 20
-217.9022699669276
 30
0.0000000000563712
 11
4893.268072859893
 21
-217.9022699669276
 31
0.0000000000563712
  0
LINE
  5
B92B
330
18
100
AcDbEntity
  8
01
  6
BYBLOCK
100
AcDbLine
 10
4897.268072859893
 20
-217.0022699669275
 30
0.0000000000563712
 11
4895.768072859893
 21
-217.0022699669275
 31
0.0000000000563712
  0
LINE
  5
B92C
330
18
100
AcDbEntity
  8
01
  6
BYBLOCK
100
AcDbLine
 10
4895.768072859893
 20
-241.9022699669276
 30
0.0000000000563712
 11
4894.568072859893
 21
-241.9022699669276
 31
0.0000000000563712
  0
LINE
  5
B92E
330
18
100
AcDbEntity
  8
01
  6
BYBLOCK
100
AcDbLine
 10
4894.568072859893
 20
-236.2022699669274
 30
0.0000000000563712
 11
4894.568072859893
 21
-327.6022699669275
 31
0.0000000000563712
  0
LINE
  5
B92F
330
18
100
AcDbEntity
  8
01
  6
BYBLOCK
100
AcDbLine
 10
4894.468072859892
 20
-345.9022699669276
 30
0.0000000000563712
 11
4894.468072859892
 21
-329.3022699669275
 31
0.0000000000563712
  0
LINE
  5
B930
330
18
100
AcDbEntity
  8
01
  6
BYBLOCK
100
AcDbLine
 10
4894.468072859892
 20
-329.3022699669275
 30
0.0000000000563712
 11
4895.416600997318
 21
-328.3537418295036
 31
0.0000000000563712
  0
LINE
  5
B931
330
18
100
AcDbEntity
  8
01
  6
BYBLOCK
100
AcDbLine
 10
4893.619544722469
 20
-328.5507981043513
 30
0.0000000000563712
 11
4894.568072859893
 21
-327.6022699669275
 31
0.0000000000563712
  0
ARC
  5
B932
330
18
100
AcDbEntity
  8
01
  6
BYBLOCK
100
AcDbCircle
 10
4894.468072859892
 20
-329.3993262417753
 30
0.0000000000563712
 40
1.2
100
AcDbArc
 50
134.9999999999516
 51
180.0
  0
ARC
  5
B933
330
18
100
AcDbEntity
  8
01
  6
BYBLOCK
100
AcDbCircle
 10
4894.568072859893
 20
-327.5052136920797
 30
0.0000000000563712
 40
1.2
100
AcDbArc
 50
314.9999999999516
 51
0.0
  0
LINE
  5
B934
330
18
100
AcDbEntity
  8
01
  6
BYBLOCK
100
AcDbLine
 10
4893.268072859893
 20
-217.9022699669276
 30
0.0000000000563712
 11
4893.268072859893
 21
-234.4052136920798
 31
0.0000000000563712
  0
LINE
  5
B935
330
18
100
AcDbEntity
  8
01
  6
BYBLOCK
100
AcDbLine
 10
4894.468072859892
 20
-217.9022699669276
 30
0.0000000000563712
 11
4894.468072859892
 21
-234.5022699669275
 31
0.0000000000563712
  0
LINE
  5
B936
330
18
100
AcDbEntity
  8
01
  6
BYBLOCK
100
AcDbLine
 10
4894.468072859892
 20
-234.5022699669275
 30
0.0000000000563712
 11
4895.416600997318
 21
-235.4507981043514
 31
0.0000000000563712
  0
LINE
  5
B937
330
18
100
AcDbEntity
  8
01
  6
BYBLOCK
100
AcDbLine
 10
4893.619544722469
 20
-235.2537418295037
 30
0.0000000000563712
 11
4894.568072859893
 21
-236.2022699669276
 31
0.0000000000563712
  0
ARC
  5
B938
330
18
100
AcDbEntity
  8
01
  6
BYBLOCK
100
AcDbCircle
 10
4894.468072859892
 20
-234.4052136920798
 30
0.0000000000563712
 40
1.2
100
AcDbArc
 50
180.0
 51
225.0000000000484
  0
ARC
  5
B939
330
18
100
AcDbEntity
  8
01
  6
BYBLOCK
100
AcDbCircle
 10
4894.568072859893
 20
-236.2993262417754
 30
0.0000000000563712
 40
1.2
100
AcDbArc
 50
0.0
 51
45.00000000004836
  0
LINE
  5
B93B
330
18
100
AcDbEntity
  8
01
  6
BYBLOCK
100
AcDbLine
 10
4895.768072859893
 20
-318.9022699669278
 30
0.0000000000563712
 11
4829.267960520145
 21
-318.9022699669271
 31
0.0000000000563712
  0
LINE
  5
B940
330
18
100
AcDbEntity
  8
01
  6
BYBLOCK
100
AcDbLine
 10
4908.268072859893
 20
-271.8705996999115
 30
0.0000000000563712
 11
4908.268072859893
 21
-289.9339402339174
 31
0.0000000000563712
  0
LINE
  5
B941
330
18
100
AcDbEntity
  8
01
  6
BYBLOCK
100
AcDbLine
 10
4903.97517964108
 20
-270.9022699669144
 30
0.0000000000563712
 11
4897.268072859893
 21
-270.9022699669144
 31
0.0000000000563712
  0
LINE
  5
B942
330
18
100
AcDbEntity
  8
01
  6
BYBLOCK
100
AcDbLine
 10
4903.97517964108
 20
-290.9022699669144
 30
0.0000000000563712
 11
4897.268072859893
 21
-290.9022699669144
 31
0.0000000000563712
  0
LINE
  5
B943
330
18
100
AcDbEntity
  8
01
100
AcDbLine
 10
4902.268072859606
 20
-338.9022699666389
 30
0.0000000000563712
 11
4888.268072859606
 21
-338.9022699666389
 31
0.0000000000563712
  0
LINE
  5
B944
330
18
100
AcDbEntity
  8
01
100
AcDbLine
 10
4876.268072859893
 20
-302.9022699669276
 30
0.0000000000563712
 11
4816.268072859893
 21
-302.9022699669276
 31
0.0000000000563712
  0
LINE
  5
B945
330
18
100
AcDbEntity
  8
01
100
AcDbLine
 10
4846.268072859893
 20
-272.9022699669276
 30
0.0000000000563712
 11
4846.268072859893
 21
-332.9022699669276
 31
0.0000000000563712
  0
LINE
  5
B947
330
18
100
AcDbEntity
  8
01
  6
BYBLOCK
100
AcDbLine
 10
4894.568072859893
 20
-244.9022699669276
 30
0.0000000000563712
 11
4866.268072859892
 21
-244.9022699669276
 31
0.0000000000563712
  0
LINE
  5
B949
330
18
100
AcDbEntity
  8
01
  6
BYBLOCK
100
AcDbLine
 10
4828.26807285989
 20
-267.4022697628004
 30
0.0000000000563712
 11
4828.267960520145
 21
-288.4009516538246
 31
0.0000000000563712
  0
TEXT
  5
B94A
330
18
100
AcDbEntity
  8
1TEXT
100
AcDbText
 10
4710.472957359048
 20
24.40124368475335
 30
0.0
 40
20.0
  1
2-JTT-X-LJ-2
100
AcDbText
  0
LINE
  5
BD3F
330
18
100
AcDbEntity
  8
01
100
AcDbLine
 10
4833.267952520149
 20
-252.9022699669272
 30
0.0000000000563712
 11
4859.267952520149
 21
-252.9022699669272
 31
0.0000000000563712
  0
LINE
  5
BD40
330
18
100
AcDbEntity
  8
01
100
AcDbLine
 10
4868.767952520149
 20
-247.4022699669272
 30
0.0000000000563712
 11
4823.767952520149
 21
-247.4022699669272
 31
0.0000000000563712
  0
LINE
  5
BD41
330
18
100
AcDbEntity
  8
01
100
AcDbLine
 10
4846.267952520149
 20
-224.9022699669272
 30
0.0000000000563712
 11
4846.267952520149
 21
-269.9022699669272
 31
0.0000000000563712
  0
LINE
  5
BD51
330
18
100
AcDbEntity
  8
01
100
AcDbLine
 10
5166.767956263793
 20
-6.602269967955635
 30
0.0000000000563712
 11
5205.767956263793
 21
-6.602269967955408
 31
0.0000000000563712
  0
LINE
  5
BD52
330
18
100
AcDbEntity
  8
01
100
AcDbLine
 10
5206.267956263793
 20
-12.90226996795559
 30
0.0000000000563712
 11
5166.267956263793
 21
-12.90226996795604
 31
0.0000000000563712
  0
LINE
  5
BD53
330
18
100
AcDbEntity
  8
01
100
AcDbLine
 10
5206.267956263793
 20
-12.90226996795559
 30
0.0000000000563712
 11
5206.267956263793
 21
-7.102269967955408
 31
0.0000000000563712
  0
ARC
  5
BD54
330
18
100
AcDbEntity
  8
01
100
AcDbCircle
 10
5205.767956263793
 20
-7.102269967955635
 30
0.0000000000563712
 40
0.5
100
AcDbArc
 50
0.0
 51
90.0
  0
LINE
  5
BD55
330
18
100
AcDbEntity
  8
01
100
AcDbLine
 10
5166.267956263793
 20
-12.90226996795604
 30
0.0000000000563712
 11
5166.267956263793
 21
-7.102269967955635
 31
0.0000000000563712
  0
ARC
  5
BD56
330
18
100
AcDbEntity
  8
01
100
AcDbCircle
 10
5166.767956263793
 20
-7.102269967955635
 30
0.0000000000563712
 40
0.5
100
AcDbArc
 50
90.0
 51
180.0
  0
LINE
  5
BD57
330
18
100
AcDbEntity
  8
01
100
AcDbLine
 10
5182.767968485006
 20
-5.402273301155901
 30
0.0000000000563885
 11
5177.017968485001
 21
-5.402273301154992
 31
0.0000000000563885
  0
LINE
  5
BD58
330
18
100
AcDbEntity
  8
01
100
AcDbLine
 10
5183.767968485008
 20
8.097749643050747
 30
0.0000000000563885
 11
5183.767968485006
 21
-4.402273301155901
 31
0.0000000000563885
  0
LINE
  5
BD59
330
18
100
AcDbEntity
  8
01
100
AcDbLine
 10
5188.767968485008
 20
8.097749643048928
 30
0.0000000000563885
 11
5188.767968485008
 21
-4.402273301154082
 31
0.0000000000563885
  0
ARC
  5
BD5A
330
18
100
AcDbEntity
  8
01
100
AcDbCircle
 10
5187.767968485009
 20
8.097749643050747
 30
0.0000000000563885
 40
1.0
100
AcDbArc
 50
0.0000000000521102
 51
90.0
  0
ARC
  5
BD5B
330
18
100
AcDbEntity
  8
01
100
AcDbCircle
 10
5184.767968485009
 20
8.097749643050747
 30
0.0000000000563885
 40
1.0
100
AcDbArc
 50
90.0
 51
180.0
  0
LINE
  5
BD5C
330
18
100
AcDbEntity
  8
01
100
AcDbLine
 10
5187.767968485008
 20
9.097749643052566
 30
0.0000000000563885
 11
5184.76796848501
 21
9.097749643052566
 31
0.0000000000563885
  0
LINE
  5
BD5D
330
18
100
AcDbEntity
  8
01
100
AcDbLine
 10
5195.517968485
 20
-5.402273301154082
 30
0.0000000000563885
 11
5189.767968485008
 21
-5.402273301154082
 31
0.0000000000563885
  0
ARC
  5
BD5E
330
18
100
AcDbEntity
  8
01
100
AcDbCircle
 10
5189.767968485009
 20
-4.402273301154082
 30
0.0000000000563885
 40
1.0
100
AcDbArc
 50
180.0
 51
270.0
  0
ARC
  5
BD5F
330
18
100
AcDbEntity
  8
01
100
AcDbCircle
 10
5182.767968485007
 20
-4.402273301155901
 30
0.0000000000563885
 40
1.0
100
AcDbArc
 50
270.0
 51
0.0
  0
LINE
  5
BD60
330
18
100
AcDbEntity
  8
01
100
AcDbLine
 10
5176.517968485001
 20
-5.902273301154537
 30
0.000000000112646
 11
5176.517968485001
 21
-6.602269967955408
 31
0.0000000001126239
  0
ARC
  5
BD61
330
18
100
AcDbEntity
  8
01
100
AcDbCircle
 10
5177.017968485001
 20
-5.902273301154537
 30
0.000000000112646
 40
0.5
100
AcDbArc
 50
90.0
 51
180.0
  0
LINE
  5
BD62
330
18
100
AcDbEntity
  8
01
100
AcDbLine
 10
5196.017968485001
 20
-5.902273301154537
 30
0.000000000112646
 11
5196.017968485001
 21
-6.602269967955408
 31
0.0000000001126239
  0
ARC
  5
BD63
330
18
100
AcDbEntity
  8
01
100
AcDbCircle
 10
5195.517968485
 20
-5.902273301154537
 30
0.000000000112646
 40
0.5
100
AcDbArc
 50
0.0
 51
90.0
  0
LINE
  5
BD65
330
18
100
AcDbEntity
  8
01
100
AcDbLine
 10
5205.767956131587
 20
-59.20226996795873
 30
0.0000000000563712
 11
5166.767956131587
 21
-59.2022699679535
 31
0.0000000000563712
  0
LINE
  5
BD66
330
18
100
AcDbEntity
  8
01
100
AcDbLine
 10
5166.267956131587
 20
-52.90226996795309
 30
0.0000000000563712
 11
5206.267956131587
 21
-52.90226996795855
 31
0.0000000000563712
  0
LINE
  5
BD67
330
18
100
AcDbEntity
  8
01
100
AcDbLine
 10
5166.267956131587
 20
-52.90226996795309
 30
0.0000000000563712
 11
5166.267956131587
 21
-58.70226996795327
 31
0.0000000000563712
  0
ARC
  5
BD68
330
18
100
AcDbEntity
  8
01
100
AcDbCircle
 10
5166.767956131587
 20
-58.70226996795304
 30
0.0000000000563712
 40
0.5
100
AcDbArc
 50
179.9999999999739
 51
270.0
  0
LINE
  5
BD69
330
18
100
AcDbEntity
  8
01
100
AcDbLine
 10
5206.267956131587
 20
-52.90226996795855
 30
0.0000000000563712
 11
5206.267956131587
 21
-58.70226996795873
 31
0.0000000000563712
  0
ARC
  5
BD6A
330
18
100
AcDbEntity
  8
01
100
AcDbCircle
 10
5205.767956131587
 20
-58.70226996795873
 30
0.0000000000563712
 40
0.5
100
AcDbArc
 50
270.0
 51
0.0
  0
ARC
  5
BD6B
330
18
100
AcDbEntity
  8
01
100
AcDbCircle
 10
5186.267946589442
 20
-55.05227534583105
 30
0.0000000000562575
 40
6.0
100
AcDbArc
 50
234.3146660000084
 51
256.8165180000151
  0
LINE
  5
BD6C
330
18
100
AcDbEntity
  8
01
100
AcDbLine
 10
5182.767946589442
 20
-59.92567534583122
 30
0.0000000000562575
 11
5182.767946589442
 21
-59.20226996795577
 31
0.0000000000562575
  0
LINE
  5
BD6D
330
18
100
AcDbEntity
  8
01
100
AcDbLine
 10
5189.767946589442
 20
-59.92567534583122
 30
0.0000000000562575
 11
5189.767946589442
 21
-59.20226996795668
 31
0.0000000000562575
  0
LINE
  5
BD6E
330
18
100
AcDbEntity
  8
01
100
AcDbLine
 10
5187.267946589442
 20
-60.60282380523358
 30
0.0000000000562575
 11
5187.267946589442
 21
-59.20226996795623
 31
0.0000000000562575
  0
ARC
  5
BD6F
330
18
100
AcDbEntity
  8
01
100
AcDbCircle
 10
5184.967943589443
 20
-60.60204534583113
 30
0.0000000000562575
 40
0.30000001
100
AcDbArc
 50
256.8165179999081
 51
0.0
  0
ARC
  5
BD70
330
18
100
AcDbEntity
  8
01
100
AcDbCircle
 10
5187.567945589442
 20
-60.60204534583113
 30
0.0000000000562575
 40
0.30000001
100
AcDbArc
 50
179.9999969999697
 51
283.1834800000209
  0
LINE
  5
BD71
330
18
100
AcDbEntity
  8
01
100
AcDbLine
 10
5185.267946589442
 20
-60.60204534583113
 30
0.0000000000562575
 11
5185.267946589442
 21
-59.202269967956
 31
0.0000000000562575
  0
ARC
  5
BD72
330
18
100
AcDbEntity
  8
01
100
AcDbCircle
 10
5186.267946589442
 20
-55.05227534583105
 30
0.0000000000562575
 40
6.0
100
AcDbArc
 50
283.1834825033478
 51
305.6853299999979
  0
LINE
  5
BD73
330
18
100
AcDbEntity
  8
1CENTER
100
AcDbLine
 10
4846.267952520149
 20
-258.9022699669272
 30
0.0000000000563712
 11
4846.267952520149
 21
-246.9022699669272
 31
0.0000000000563712
  0
LINE
  5
BD74
330
18
100
AcDbEntity
  8
1CENTER
100
AcDbLine
 10
4840.267952520149
 20
-252.9022699669272
 30
0.0000000000563712
 11
4852.267952520149
 21
-252.9022699669272
 31
0.0000000000563712
  0
LINE
  5
BD75
330
18
100
AcDbEntity
  8
01
100
AcDbLine
 10
4865.767952520147
 20
-227.4022699669272
 30
0.0000000000563712
 11
4826.767952520147
 21
-227.4022699669274
 31
0.0000000000563712
  0
ARC
  5
BD76
330
18
100
AcDbEntity
  8
01
100
AcDbCircle
 10
4826.767952520147
 20
-227.9022699669274
 30
0.0000000000563712
 40
0.5
100
AcDbArc
 50
90.0
 51
180.0
  0
LINE
  5
BD77
330
18
100
AcDbEntity
  8
01
100
AcDbLine
 10
4865.767952520147
 20
-267.4022699669272
 30
0.0000000000563712
 11
4826.767952520147
 21
-267.4022699669276
 31
0.0000000000563712
  0
ARC
  5
BD78
330
18
100
AcDbEntity
  8
01
100
AcDbCircle
 10
4865.767952520147
 20
-266.9022699669272
 30
0.0000000000563712
 40
0.5
100
AcDbArc
 50
270.0
 51
0.0
  0
LINE
  5
BD79
330
18
100
AcDbEntity
  8
01
100
AcDbLine
 10
4866.267952520147
 20
-266.9022699669272
 30
0.0000000000563712
 11
4866.267952520147
 21
-227.9022699669272
 31
0.0000000000563712
  0
ARC
  5
BD7A
330
18
100
AcDbEntity
  8
01
100
AcDbCircle
 10
4865.767952520147
 20
-227.9022699669272
 30
0.0000000000563712
 40
0.5
100
AcDbArc
 50
0.0
 51
90.0
  0
LINE
  5
BD7B
330
18
100
AcDbEntity
  8
01
100
AcDbLine
 10
4826.267952520147
 20
-266.9022699669276
 30
0.0000000000563712
 11
4826.267952520147
 21
-227.9022699669274
 31
0.0000000000563712
  0
ARC
  5
BD7C
330
18
100
AcDbEntity
  8
01
100
AcDbCircle
 10
4826.767952520147
 20
-266.9022699669276
 30
0.0000000000563712
 40
0.5
100
AcDbArc
 50
180.0
 51
270.0
  0
ARC
  5
BD7D
330
18
100
AcDbEntity
  8
01
100
AcDbCircle
 10
4848.267952520149
 20
-243.8710740328329
 30
0.0000000000563712
 40
0.5000000000000013
100
AcDbArc
 50
0.0
 51
77.51311018581177
  0
ARC
  5
BD7E
330
18
100
AcDbEntity
  8
01
100
AcDbCircle
 10
4844.267952520149
 20
-261.9334659010215
 30
0.0000000000563712
 40
0.5000000000000029
100
AcDbArc
 50
180.0
 51
257.5131101858651
  0
ARC
  5
BD7F
330
18
100
AcDbEntity
  8
01
100
AcDbCircle
 10
4848.267952520149
 20
-261.9334659010215
 30
0.0000000000563712
 40
0.5000000000000013
100
AcDbArc
 50
282.4868898141883
 51
0.0
  0
ARC
  5
BD80
330
18
100
AcDbEntity
  8
01
100
AcDbCircle
 10
4846.267952520149
 20
-252.9022699669272
 30
0.0000000000563712
 40
9.749999999999995
100
AcDbArc
 50
77.5131101858651
 51
102.4868898141349
  0
ARC
  5
BD81
330
18
100
AcDbEntity
  8
01
100
AcDbCircle
 10
4844.267952520149
 20
-243.8710740328329
 30
0.0000000000563712
 40
0.5000000000000029
100
AcDbArc
 50
102.4868898141348
 51
180.0
  0
ARC
  5
BD82
330
18
100
AcDbEntity
  8
01
100
AcDbCircle
 10
4846.267952520149
 20
-252.9022699669272
 30
0.0000000000563712
 40
9.75
100
AcDbArc
 50
257.5131101858651
 51
282.4868898141349
  0
LINE
  5
BD83
330
18
100
AcDbEntity
  8
01
100
AcDbLine
 10
4848.767952520149
 20
-243.8710740328329
 30
0.0000000000563712
 11
4848.767952520149
 21
-261.9334659010215
 31
0.0000000000563712
  0
LINE
  5
BD84
330
18
100
AcDbEntity
  8
01
100
AcDbLine
 10
4843.767952520149
 20
-261.9334659010215
 30
0.0000000000563712
 11
4843.767952520149
 21
-243.8710740328329
 31
0.0000000000563712
  0
SPLINE
  5
BD85
330
18
100
AcDbEntity
  8
01
100
AcDbSpline
210
0.0
220
0.0
230
1.0
 70
     8
 71
     3
 72
    18
 73
    14
 74
     0
 42
0.0000000001
 43
0.0000000001
 40
0.0
 40
0.0
 40
0.0
 40
0.0
 40
0.2500000000000002
 40
0.2500000000000002
 40
0.375
 40
0.375
 40
0.4999999999999998
 40
0.4999999999999998
 40
0.6249999999999996
 40
0.6249999999999996
 40
0.7499999999999993
 40
0.7499999999999993
 40
1.0
 40
1.0
 40
1.0
 40
1.0
 10
4849.957141709339
 20
-261.9273673695245
 30
0.0000000000563712
 10
4849.763880652063
 20
-262.0063666945612
 30
0.0000000000563712
 10
4849.571559040336
 20
-262.0776342291308
 30
0.0000000000563712
 10
4849.292233581876
 20
-262.1718913403042
 30
0.0000000000563712
 10
4849.202740439368
 20
-262.2005245654921
 30
0.0000000000563712
 10
4849.031463231576
 20
-262.2528596412926
 30
0.0000000000563712
 10
4848.948813818406
 20
-262.2767918062134
 30
0.0000000000563712
 10
4848.797340678965
 20
-262.3187912225601
 30
0.0000000000563712
 10
4848.728669108009
 20
-262.3368530901193
 30
0.0000000000563712
 10
4848.606301133748
 20
-262.3679242282801
 30
0.0000000000563712
 10
4848.552460897132
 20
-262.380955760887
 30
0.0000000000563712
 10
4848.423106609902
 20
-262.4115108656474
 30
0.0000000000563712
 10
4848.376060628258
 20
-262.4216386542157
 30
0.0000000000563712
 10
4848.376060628258
 20
-262.4216386542157
 30
0.0000000000563712
  0
SPLINE
  5
BD86
330
18
100
AcDbEntity
  8
01
100
AcDbSpline
210
0.0
220
0.0
230
1.0
 70
     8
 71
     3
 72
    18
 73
    14
 74
     0
 42
0.0000000001
 43
0.0000000001
 40
0.0
 40
0.0
 40
0.0
 40
0.0
 40
0.2500000000000002
 40
0.2500000000000002
 40
0.3750000000000002
 40
0.3750000000000002
 40
0.5000000000000002
 40
0.5000000000000002
 40
0.6250000000000002
 40
0.6250000000000002
 40
0.7500000000000001
 40
0.7500000000000001
 40
1.0
 40
1.0
 40
1.0
 40
1.0
 10
4842.578763330961
 20
-243.8771725643298
 30
0.0000000000563712
 10
4842.772024388238
 20
-243.7981732392932
 30
0.0000000000563712
 10
4842.964345999964
 20
-243.7269057047238
 30
0.0000000000563712
 10
4843.243671458424
 20
-243.6326485935501
 30
0.0000000000563712
 10
4843.333164600932
 20
-243.6040153683623
 30
0.0000000000563712
 10
4843.504441808724
 20
-243.5516802925617
 30
0.0000000000563712
 10
4843.587091221894
 20
-243.527748127641
 30
0.0000000000563712
 10
4843.738564361334
 20
-243.4857487112945
 30
0.0000000000563712
 10
4843.80723593229
 20
-243.467686843735
 30
0.0000000000563712
 10
4843.929603906551
 20
-243.4366157055742
 30
0.0000000000563712
 10
4843.983444143169
 20
-243.4235841729674
 30
0.0000000000563712
 10
4844.112798430398
 20
-243.3930290682069
 30
0.0000000000563712
 10
4844.159844412042
 20
-243.3829012796386
 30
0.0000000000563712
 10
4844.159844412042
 20
-243.3829012796386
 30
0.0000000000563712
  0
SPLINE
  5
BD87
330
18
100
AcDbEntity
  8
01
100
AcDbSpline
210
0.0
220
0.0
230
1.0
 70
     8
 71
     3
 72
    16
 73
    12
 74
     0
 42
0.0000000001
 43
0.0000000001
 40
0.0
 40
0.0
 40
0.0
 40
0.0
 40
0.1249999999999998
 40
0.1249999999999998
 40
0.2499999999999997
 40
0.2499999999999997
 40
0.4999999999999998
 40
0.4999999999999998
 40
0.7499999999999999
 40
0.7499999999999999
 40
1.0
 40
1.0
 40
1.0
 40
1.0
 10
4844.159844412042
 20
-262.4216386542157
 30
0.0000000000563712
 10
4844.159844412042
 20
-262.4216386542157
 30
0.0000000000563712
 10
4844.148428889916
 20
-262.4191306982248
 30
0.0000000000563712
 10
4844.103995833574
 20
-262.4091259170646
 30
0.0000000000563712
 10
4844.070300233021
 20
-262.401469252015
 30
0.0000000000563712
 10
4843.940952911559
 20
-262.3709247474824
 30
0.0000000000563712
 10
4843.814497031252
 20
-262.3398245937053
 30
0.0000000000563712
 10
4843.513550830257
 20
-262.2564215853338
 30
0.0000000000563712
 10
4843.336757395489
 20
-262.2032726558111
 30
0.0000000000563712
 10
4842.967061123487
 20
-262.0785803292076
 30
0.0000000000563712
 10
4842.771989965251
 20
-262.0063526234769
 30
0.0000000000563712
 10
4842.578763330961
 20
-261.9273673695245
 30
0.0000000000563712
  0
SPLINE
  5
BD88
330
18
100
AcDbEntity
  8
01
100
AcDbSpline
210
0.0
220
0.0
230
1.0
 70
     8
 71
     3
 72
    16
 73
    12
 74
     0
 42
0.0000000001
 43
0.0000000001
 40
0.0
 40
0.0
 40
0.0
 40
0.0
 40
0.1249999999999997
 40
0.1249999999999997
 40
0.2499999999999993
 40
0.2499999999999993
 40
0.4999999999999996
 40
0.4999999999999996
 40
0.7499999999999998
 40
0.7499999999999998
 40
1.0
 40
1.0
 40
1.0
 40
1.0
 10
4848.376060628258
 20
-243.3829012796386
 30
0.0000000000563712
 10
4848.376060628258
 20
-243.3829012796386
 30
0.0000000000563712
 10
4848.387476150385
 20
-243.3854092356298
 30
0.0000000000563712
 10
4848.431909206725
 20
-243.39541401679
 30
0.0000000000563712
 10
4848.465604807279
 20
-243.4030706818396
 30
0.0000000000563712
 10
4848.59495212874
 20
-243.4336151863722
 30
0.0000000000563712
 10
4848.721408009047
 20
-243.464715340149
 30
0.0000000000563712
 10
4849.022354210043
 20
-243.5481183485206
 30
0.0000000000563712
 10
4849.199147644811
 20
-243.6012672780432
 30
0.0000000000563712
 10
4849.568843916813
 20
-243.7259596046467
 30
0.0000000000563712
 10
4849.763915075048
 20
-243.7981873103774
 30
0.0000000000563712
 10
4849.957141709339
 20
-243.8771725643298
 30
0.0000000000563712
  0
ARC
  5
BD89
330
18
100
AcDbEntity
  8
01
100
AcDbCircle
 10
4846.267952520149
 20
-252.9022699669272
 30
0.0000000000563712
 40
9.750000000000005
100
AcDbArc
 50
112.2332717982969
 51
247.7667282017031
  0
ARC
  5
BD8A
330
18
100
AcDbEntity
  8
01
100
AcDbCircle
 10
4846.267952520149
 20
-252.9022699669272
 30
0.0000000000563712
 40
9.750000000000009
100
AcDbArc
 50
292.2332717982969
 51
67.76672820170309
  0
CIRCLE
  5
BD8B
330
18
100
AcDbEntity
  8
01
100
AcDbCircle
 10
4846.267952520149
 20
-252.9022699669272
 30
0.0000000000563712
 40
10.3
  0
LINE
  5
BD8C
330
18
100
AcDbEntity
  8
01
100
AcDbLine
 10
5042.567956520152
 20
-266.9022651027374
 30
0.0000000000563712
 11
5042.567956520152
 21
-227.9022651027378
 31
0.0000000000563712
  0
LINE
  5
BD8D
330
18
100
AcDbEntity
  8
01
100
AcDbLine
 10
5036.267956520152
 20
-227.4022651027374
 30
0.0000000000563712
 11
5036.267956520147
 21
-267.4022651027376
 31
0.0000000000563712
  0
LINE
  5
BD8E
330
18
100
AcDbEntity
  8
01
100
AcDbLine
 10
5036.267956520147
 20
-267.4022651027376
 30
0.0000000000563712
 11
5042.067956520152
 21
-267.4022651027374
 31
0.0000000000563712
  0
ARC
  5
BD8F
330
18
100
AcDbEntity
  8
01
100
AcDbCircle
 10
5042.067956520152
 20
-266.9022651027374
 30
0.0000000000563712
 40
0.5
100
AcDbArc
 50
270.0
 51
0.0
  0
LINE
  5
BD90
330
18
100
AcDbEntity
  8
01
100
AcDbLine
 10
5036.267956520152
 20
-227.4022651027374
 30
0.0000000000563712
 11
5042.067956520152
 21
-227.4022651027378
 31
0.0000000000563712
  0
ARC
  5
BD91
330
18
100
AcDbEntity
  8
01
100
AcDbCircle
 10
5042.067956520152
 20
-227.9022651027378
 30
0.0000000000563712
 40
0.5
100
AcDbArc
 50
0.0
 51
90.0
  0
LINE
  5
BD92
330
18
100
AcDbEntity
  8
01
100
AcDbLine
 10
4989.967956520151
 20
-266.9022699669272
 30
0.0000000000563712
 11
4989.967956520151
 21
-227.9022699669276
 31
0.0000000000563712
  0
LINE
  5
BD93
330
18
100
AcDbEntity
  8
01
100
AcDbLine
 10
4996.267956520152
 20
-227.4022699669272
 30
0.0000000000563712
 11
4996.267956520147
 21
-267.4022699669274
 31
0.0000000000563712
  0
LINE
  5
BD94
330
18
100
AcDbEntity
  8
01
100
AcDbLine
 10
4996.267956520147
 20
-267.4022699669274
 30
0.0000000000563712
 11
4990.467956520151
 21
-267.4022699669272
 31
0.0000000000563712
  0
ARC
  5
BD95
330
18
100
AcDbEntity
  8
01
100
AcDbCircle
 10
4990.467956520151
 20
-266.9022699669272
 30
0.0000000000563712
 40
0.5
100
AcDbArc
 50
180.0
 51
270.0
  0
LINE
  5
BD96
330
18
100
AcDbEntity
  8
01
100
AcDbLine
 10
4996.267956520152
 20
-227.4022699669272
 30
0.0000000000563712
 11
4990.467956520151
 21
-227.4022699669276
 31
0.0000000000563712
  0
ARC
  5
BD97
330
18
100
AcDbEntity
  8
01
100
AcDbCircle
 10
4990.467956520151
 20
-227.9022699669276
 30
0.0000000000563712
 40
0.5
100
AcDbArc
 50
90.0
 51
180.0
  0
SPLINE
  5
BD98
330
18
100
AcDbEntity
  8
01
100
AcDbSpline
210
0.0
220
0.0
230
1.0
 70
    24
 71
     1
 72
     4
 73
     2
 74
     0
 42
0.0000000001
 43
0.0000000001
 40
0.1160848018737504
 40
0.1160848018737504
 40
1.0
 40
1.0
 10
4989.967956520151
 20
-262.6522699669345
 30
0.0000000000563712
 10
4975.267931709139
 20
-262.6522699669345
 30
0.0000000000563712
  0
SPLINE
  5
BD99
330
18
100
AcDbEntity
  8
01
100
AcDbSpline
210
0.0
220
0.0
230
1.0
 70
    24
 71
     1
 72
     4
 73
     2
 74
     0
 42
0.0000000001
 43
0.0000000001
 40
0.0
 40
0.0
 40
0.8839151981262495
 40
0.8839151981262495
 10
4975.267931709139
 20
-243.1522699669345
 30
0.0000000000563712
 10
4989.967956520151
 20
-243.1522699669345
 30
0.0000000000563712
  0
ARC
  5
BD9A
330
18
100
AcDbEntity
  8
01
100
AcDbCircle
 10
4975.267931709139
 20
-261.6522699669345
 30
0.0000000000563712
 40
1.0
100
AcDbArc
 50
180.0
 51
270.0
  0
ARC
  5
BD9B
330
18
100
AcDbEntity
  8
01
100
AcDbCircle
 10
4975.267931709139
 20
-244.1522699669345
 30
0.0000000000563712
 40
1.0
100
AcDbArc
 50
90.0
 51
180.0
  0
LINE
  5
BD9C
330
18
100
AcDbEntity
  8
01
100
AcDbLine
 10
4988.767931709139
 20
-244.3399980721626
 30
0.0000000000563712
 11
4988.767931709139
 21
-261.4645418617063
 31
0.0000000000563712
  0
SPLINE
  5
BD9D
330
18
100
AcDbEntity
  8
01
100
AcDbSpline
210
0.0
220
0.0
230
1.0
 70
     8
 71
     3
 72
    14
 73
    10
 74
     0
 42
0.0000000001
 43
0.0000000001
 40
0.0
 40
0.0
 40
0.0
 40
0.0
 40
0.25
 40
0.25
 40
0.5
 40
0.5
 40
0.75
 40
0.75
 40
1.0
 40
1.0
 40
1.0
 40
1.0
 10
4987.767931709139
 20
-243.8710740328402
 30
0.0000000000563712
 10
4987.907899386892
 20
-243.8710740328402
 30
0.0000000000563712
 10
4988.046320661038
 20
-243.8807099881469
 30
0.0000000000563712
 10
4988.296371000993
 20
-243.9197908970887
 30
0.0000000000563712
 10
4988.408688563822
 20
-243.9495970319624
 30
0.0000000000563712
 10
4988.589735934908
 20
-244.0305167687463
 30
0.0000000000563712
 10
4988.657536571212
 20
-244.0809063049378
 30
0.0000000000563712
 10
4988.747155487756
 20
-244.2002758939527
 30
0.0000000000563712
 10
4988.767931709139
 20
-244.2670753446641
 30
0.0000000000563712
 10
4988.767931709139
 20
-244.3399980721626
 30
0.0000000000563712
  0
SPLINE
  5
BD9E
330
18
100
AcDbEntity
  8
01
100
AcDbSpline
210
0.0
220
0.0
230
1.0
 70
     8
 71
     3
 72
    14
 73
    10
 74
     0
 42
0.0000000001
 43
0.0000000001
 40
0.0
 40
0.0
 40
0.0
 40
0.0
 40
0.25
 40
0.25
 40
0.5
 40
0.5
 40
0.75
 40
0.75
 40
1.0
 40
1.0
 40
1.0
 40
1.0
 10
4988.767931709139
 20
-261.4645418617063
 30
0.0000000000563712
 10
4988.767931709139
 20
-261.5374585488407
 30
0.0000000000563712
 10
4988.746571301879
 20
-261.6052432447016
 30
0.0000000000563712
 10
4988.657432110203
 20
-261.7235701186653
 30
0.0000000000563712
 10
4988.588499480049
 20
-261.7746829734333
 30
0.0000000000563712
 10
4988.408452039682
 20
-261.8549405655872
 30
0.0000000000563712
 10
4988.295746366186
 20
-261.8849033852937
 30
0.0000000000563712
 10
4988.045175752568
 20
-261.9239517608278
 30
0.0000000000563712
 10
4987.907789603249
 20
-261.9334659010287
 30
0.0000000000563712
 10
4987.767931709139
 20
-261.9334659010287
 30
0.0000000000563712
  0
LINE
  5
BD9F
330
18
100
AcDbEntity
  8
01
100
AcDbLine
 10
4987.767931709139
 20
-261.9334659010287
 30
0.0000000000563712
 11
4975.267931709139
 21
-261.9334659010287
 31
0.0000000000563712
  0
LINE
  5
BDA0
330
18
100
AcDbEntity
  8
01
100
AcDbLine
 10
4975.267931709139
 20
-243.8710740328402
 30
0.0000000000563712
 11
4987.767931709139
 21
-243.8710740328402
 31
0.0000000000563712
  0
SPLINE
  5
BDA1
330
18
100
AcDbEntity
  8
01
100
AcDbSpline
210
0.0
220
0.0
230
1.0
 70
     8
 71
     3
 72
    14
 73
    10
 74
     0
 42
0.0000000001
 43
0.0000000001
 40
0.0
 40
0.0
 40
0.0
 40
0.0
 40
0.2500000000000001
 40
0.2500000000000001
 40
0.5000000000000002
 40
0.5000000000000002
 40
0.7500000000000003
 40
0.7500000000000003
 40
1.0
 40
1.0
 40
1.0
 40
1.0
 10
4975.267931709139
 20
-243.8710740328402
 30
0.0000000000563712
 10
4975.130722794212
 20
-243.8710740328402
 30
0.0000000000563712
 10
4974.9957192487
 20
-243.8824488429354
 30
0.0000000000563712
 10
4974.748382790047
 20
-243.9254037102558
 30
0.0000000000563712
 10
4974.637881360683
 20
-243.9566480373603
 30
0.0000000000563712
 10
4974.455687687154
 20
-244.0338335547513
 30
0.0000000000563712
 10
4974.386694584769
 20
-244.0781741700109
 30
0.0000000000563712
 10
4974.291927046283
 20
-244.1761558213891
 30
0.0000000000563712
 10
4974.267931709139
 20
-244.2286492444059
 30
0.0000000000563712
 10
4974.267931709139
 20
-244.281800142151
 30
0.0000000000563712
  0
SPLINE
  5
BDA2
330
18
100
AcDbEntity
  8
01
100
AcDbSpline
210
0.0
220
0.0
230
1.0
 70
     8
 71
     3
 72
    14
 73
    10
 74
     0
 42
0.0000000001
 43
0.0000000001
 40
0.0
 40
0.0
 40
0.0
 40
0.0
 40
0.2500000000000001
 40
0.2500000000000001
 40
0.5000000000000002
 40
0.5000000000000002
 40
0.7500000000000003
 40
0.7500000000000003
 40
1.0
 40
1.0
 40
1.0
 40
1.0
 10
4975.267931709139
 20
-261.9334659010287
 30
0.0000000000563712
 10
4975.130722794212
 20
-261.9334659010287
 30
0.0000000000563712
 10
4974.9957192487
 20
-261.9220910909335
 30
0.0000000000563712
 10
4974.748382790047
 20
-261.8791362236132
 30
0.0000000000563712
 10
4974.637881360683
 20
-261.8478918965086
 30
0.0000000000563712
 10
4974.455687687154
 20
-261.7707063791174
 30
0.0000000000563712
 10
4974.386694584769
 20
-261.726365763858
 30
0.0000000000563712
 10
4974.291927046283
 20
-261.6283841124796
 30
0.0000000000563712
 10
4974.267931709139
 20
-261.575890689463
 30
0.0000000000563712
 10
4974.267931709139
 20
-261.5227397917179
 30
0.0000000000563712
  0
LINE
  5
BDA3
330
18
100
AcDbEntity
  8
01
100
AcDbLine
 10
4974.267931709139
 20
-244.281800142151
 30
0.0000000000563712
 11
4974.267931709139
 21
-261.5227397917179
 31
0.0000000000563712
  0
LINE
  5
BDA4
330
18
100
AcDbEntity
  8
01
100
AcDbLine
 10
4974.267931709139
 20
-261.5227397917179
 30
0.0000000000563712
 11
4974.267931709139
 21
-261.6522699669345
 31
0.0000000000563712
  0
LINE
  5
BDA5
330
18
100
AcDbEntity
  8
01
100
AcDbLine
 10
5043.309940209112
 20
-249.4022686459889
 30
0.0000000001126251
 11
5042.567956520151
 21
-249.4022686459891
 31
0.0000000001126251
  0
LINE
  5
BDA6
330
18
100
AcDbEntity
  8
01
100
AcDbLine
 10
5043.309940209112
 20
-256.4022686459889
 30
0.0000000001126251
 11
5042.567956520151
 21
-256.4022686459889
 31
0.0000000001126251
  0
ARC
  5
BDA7
330
18
100
AcDbEntity
  8
01
100
AcDbCircle
 10
5038.436540209112
 20
-252.9022686459889
 30
0.0000000001126251
 40
6.0
100
AcDbArc
 50
324.3146699999901
 51
35.68533471264652
  0
LINE
  5
BDA8
330
18
100
AcDbEntity
  8
1CENTER
100
AcDbLine
 10
5186.267848180407
 20
-258.9022693669272
 30
0.0000000000563712
 11
5186.267848180407
 21
-246.9022693669272
 31
0.0000000000563712
  0
LINE
  5
BDA9
330
18
100
AcDbEntity
  8
1CENTER
100
AcDbLine
 10
5180.267848180407
 20
-252.9022693669272
 30
0.0000000000563712
 11
5192.267848180407
 21
-252.9022693669272
 31
0.0000000000563712
  0
LINE
  5
BDAA
330
18
100
AcDbEntity
  8
01
100
AcDbLine
 10
5166.767848180409
 20
-227.4022691627993
 30
0.0000000000563712
 11
5205.767848180409
 21
-227.4022691627995
 31
0.0000000000563712
  0
ARC
  5
BDAB
330
18
100
AcDbEntity
  8
01
100
AcDbCircle
 10
5205.767848180409
 20
-227.9022691627995
 30
0.0000000000563712
 40
0.5
100
AcDbArc
 50
0.0
 51
90.0
  0
LINE
  5
BDAC
330
18
100
AcDbEntity
  8
01
100
AcDbLine
 10
5166.767848180409
 20
-267.4022691627993
 30
0.0000000000563712
 11
5205.767848180409
 21
-267.4022691627997
 31
0.0000000000563712
  0
ARC
  5
BDAD
330
18
100
AcDbEntity
  8
01
100
AcDbCircle
 10
5166.767848180409
 20
-266.9022691627993
 30
0.0000000000563712
 40
0.5
100
AcDbArc
 50
180.0
 51
270.0
  0
LINE
  5
BDAE
330
18
100
AcDbEntity
  8
01
100
AcDbLine
 10
5166.267848180409
 20
-266.9022691627993
 30
0.0000000000563712
 11
5166.267848180409
 21
-227.9022691627993
 31
0.0000000000563712
  0
ARC
  5
BDAF
330
18
100
AcDbEntity
  8
01
100
AcDbCircle
 10
5166.767848180409
 20
-227.9022691627993
 30
0.0000000000563712
 40
0.5
100
AcDbArc
 50
90.0
 51
180.0
  0
LINE
  5
BDB0
330
18
100
AcDbEntity
  8
01
100
AcDbLine
 10
5206.267848180409
 20
-266.9022691627997
 30
0.0000000000563712
 11
5206.267848180409
 21
-227.9022691627995
 31
0.0000000000563712
  0
ARC
  5
BDB1
330
18
100
AcDbEntity
  8
01
100
AcDbCircle
 10
5205.767848180409
 20
-266.9022691627997
 30
0.0000000000563712
 40
0.5
100
AcDbArc
 50
270.0
 51
0.0
  0
CIRCLE
  5
BDB2
330
18
100
AcDbEntity
  8
01
100
AcDbCircle
 10
5186.267848502866
 20
-252.9022689586714
 30
0.0000000000563712
 40
3.75
  0
CIRCLE
  5
BDB3
330
18
100
AcDbEntity
  8
01
100
AcDbCircle
 10
5186.267848502866
 20
-252.9022691627993
 30
0.0000000000563712
 40
3.5000005
  0
LINE
  5
BDB4
330
18
100
AcDbEntity
  8
01
100
AcDbLine
 10
5187.267848502866
 20
-256.2563719627992
 30
0.0000000000563712
 11
5187.267848502866
 21
-249.5481651627993
 31
0.0000000000563712
  0
LINE
  5
BDB5
330
18
100
AcDbEntity
  8
01
100
AcDbLine
 10
5185.267848502866
 20
-256.2563719627992
 30
0.0000000000563712
 11
5185.267848502866
 21
-249.5481651627993
 31
0.0000000000563712
  0
LINE
  5
BDB6
330
18
100
AcDbEntity
  8
01
100
AcDbLine
 10
5163.767848180407
 20
-247.4022699669272
 30
0.0000000000563712
 11
5208.767848180407
 21
-247.4022699669272
 31
0.0000000000563712
  0
LINE
  5
BDB7
330
18
100
AcDbEntity
  8
01
100
AcDbLine
 10
5186.267848180407
 20
-224.9022699669272
 30
0.0000000000563712
 11
5186.267848180407
 21
-269.9022699669272
 31
0.0000000000563712
  0
LINE
  5
BFEB
330
18
100
AcDbEntity
  8
01
100
AcDbLine
 10
4876.267960520148
 20
-302.9022699669276
 30
0.0000000000563712
 11
4816.267960520148
 21
-302.9022699669276
 31
0.0000000000563712
  0
LINE
  5
BFEC
330
18
100
AcDbEntity
  8
01
100
AcDbLine
 10
5156.267840180404
 20
-302.9022699669276
 30
0.0000000000563712
 11
5216.267840180404
 21
-302.9022699669276
 31
0.0000000000563712
  0
LINE
  5
BFED
330
18
100
AcDbEntity
  8
01
100
AcDbLine
 10
5186.267840180404
 20
-272.9022699669276
 30
0.0000000000563712
 11
5186.267840180404
 21
-332.9022699669276
 31
0.0000000000563712
  0
LINE
  5
C043
330
18
100
AcDbEntity
  8
01
100
AcDbLine
 10
4876.268072859893
 20
-302.9022699669276
 30
0.0000000000563712
 11
4816.268072859893
 21
-302.9022699669276
 31
0.0000000000563712
  0
LINE
  5
C058
330
18
100
AcDbEntity
  8
01
100
AcDbLine
 10
4876.268072859893
 20
-302.9022699669276
 30
0.0000000000563712
 11
4816.268072859893
 21
-302.9022699669276
 31
0.0000000000563712
  0
LINE
  5
C06F
330
18
100
AcDbEntity
  8
01
100
AcDbLine
 10
4876.268072859893
 20
-302.9022699669276
 30
0.0000000000563712
 11
4816.268072859893
 21
-302.9022699669276
 31
0.0000000000563712
  0
LINE
  5
C070
330
18
100
AcDbEntity
  8
01
100
AcDbLine
 10
4876.268072859893
 20
-302.9022699669276
 30
0.0000000000563712
 11
4816.268072859893
 21
-302.9022699669276
 31
0.0000000000563712
  0
LINE
  5
C3A2
330
18
100
AcDbEntity
  8
1CENTER
100
AcDbLine
 10
5186.267956520147
 20
-113.2589870366432
 30
0.0000000000563712
 11
5186.267956520147
 21
-52.83392630757623
 31
0.0000000000563712
  0
LINE
  5
C779
330
18
100
AcDbEntity
  8
1DIM
100
AcDbLine
 10
4714.171039779107
 20
-26.12660248111047
 30
-0.0000000000563712
 11
4871.671039779107
 21
-26.12660248111047
 31
-0.0000000000563712
  0
TEXT
  5
C77A
330
18
100
AcDbEntity
  8
1TEXT
100
AcDbText
 10
4768.171039779107
 20
-34.09297289846677
 30
-0.0000000001127424
 40
6.0
  1
ダークブラウン
 72
     1
 11
4792.771039779107
 21
-34.09297289846677
 31
-0.0000000001127424
100
AcDbText
  0
TEXT
  5
C77B
330
18
100
AcDbEntity
  8
1TEXT
100
AcDbText
 10
4768.871039779107
 20
-2.876602481110467
 30
-0.0000000001127424
 40
6.0
  1
表面処理：握り
 72
     1
 11
4792.771039779107
 21
-2.876602481110467
 31
-0.0000000001127424
100
AcDbText
  0
TEXT
  5
C77C
330
18
100
AcDbEntity
  8
1TEXT
100
AcDbText
 10
4767.871039779107
 20
-13.12953547039729
 30
-0.0000000001127424
 40
6.0
  1
ライトブラウン
 72
     1
 11
4792.771039779107
 21
-13.12953547039729
 31
-0.0000000001127424
100
AcDbText
  0
LINE
  5
C77D
330
18
100
AcDbEntity
  8
1DIM
100
AcDbLine
 10
4714.171039779107
 20
5.373397518889533
 30
-0.0000000000563712
 11
4871.671039779107
 21
5.373397518889533
 31
-0.0000000000563712
  0
LINE
  5
C77E
330
18
100
AcDbEntity
  8
1DIM
100
AcDbLine
 10
4714.171039779107
 20
-5.126602481110467
 30
-0.0000000000563712
 11
4871.671039779107
 21
-5.126602481110467
 31
-0.0000000000563712
  0
LINE
  5
C77F
330
18
100
AcDbEntity
  8
1DIM
100
AcDbLine
 10
4766.671039779107
 20
-15.62660248111047
 30
-0.0000000000563712
 11
4871.671039779107
 21
-15.62660248111047
 31
-0.0000000000563712
  0
LINE
  5
C780
330
18
100
AcDbEntity
  8
1DIM
100
AcDbLine
 10
4766.671039779107
 20
-15.62660248111047
 30
-0.0000000000563712
 11
4871.671039779107
 21
-15.62660248111047
 31
-0.0000000000563712
  0
LINE
  5
C781
330
18
100
AcDbEntity
  8
1DIM
100
AcDbLine
 10
4819.171039779107
 20
5.373397518889533
 30
-0.0000000000563712
 11
4819.171039779107
 21
-46.69833570354971
 31
-0.0000000000563712
  0
TEXT
  5
C782
330
18
100
AcDbEntity
  8
1TEXT
100
AcDbText
 10
4822.471039779107
 20
-13.69813795658433
 30
-0.0000000001127424
 40
6.0
  1
2-JTT-N4-LJ-2
 41
0.6
 72
     1
 11
4845.271039779107
 21
-13.69813795658433
 31
-0.0000000001127424
100
AcDbText
  0
TEXT
  5
C783
330
18
100
AcDbEntity
  8
1TEXT
100
AcDbText
 10
4834.971039779107
 20
-2.876602481110467
 30
-0.0000000001127424
 40
6.0
  1
コード
 72
     1
 11
4845.271039779107
 21
-2.876602481110467
 31
-0.0000000001127424
100
AcDbText
  0
LINE
  5
C784
330
18
100
AcDbEntity
  8
1DIM
100
AcDbLine
 10
4766.671039779107
 20
-36.62660248111047
 30
-0.0000000000563712
 11
4871.671039779107
 21
-36.62660248111047
 31
-0.0000000000563712
  0
TEXT
  5
C785
330
18
100
AcDbEntity
  8
1TEXT
100
AcDbText
 10
4768.171039779107
 20
-23.59297289846677
 30
-0.0000000001127424
 40
6.0
  1
ダークブラウン
 72
     1
 11
4792.771039779107
 21
-23.59297289846677
 31
-0.0000000001127424
100
AcDbText
  0
LINE
  5
C786
330
18
100
AcDbEntity
  8
1DIM
100
AcDbLine
 10
4766.671039779107
 20
-47.12660248111047
 30
-0.0000000000563712
 11
4766.671039779107
 21
5.373397518889533
 31
-0.0000000000563712
  0
LINE
  5
C787
330
18
100
AcDbEntity
  8
1DIM
100
AcDbLine
 10
4871.671039779107
 20
-46.69833570354971
 30
-0.0000000000563712
 11
4871.671039779107
 21
5.373397518889533
 31
-0.0000000000563712
  0
TEXT
  5
C788
330
18
100
AcDbEntity
  8
1TEXT
100
AcDbText
 10
4819.458539779107
 20
-34.69813795658433
 30
-0.0000000001127424
 40
6.0
  1
2-JTT-0036-LJ-2
 41
0.6
 72
     1
 11
4845.271039779107
 21
-34.69813795658433
 31
-0.0000000001127424
100
AcDbText
  0
TEXT
  5
C789
330
18
100
AcDbEntity
  8
1TEXT
100
AcDbText
 10
4822.458539779107
 20
-24.19813795658433
 30
-0.0000000001127424
 40
6.0
  1
2-JTT-N6-LJ-2
 41
0.6
 72
     1
 11
4845.271039779107
 21
-24.19813795658433
 31
-0.0000000001127424
100
AcDbText
  0
TEXT
  5
C85E
330
18
100
AcDbEntity
  8
1TEXT
100
AcDbText
 10
4715.871039779107
 20
-39.34297289846677
 30
-0.0000000001127424
 40
6.0
  1
マットブラック
 72
     1
 11
4740.271039779107
 21
-39.34297289846677
 31
-0.0000000001127424
100
AcDbText
  0
TEXT
  5
C85F
330
18
100
AcDbEntity
  8
1TEXT
100
AcDbText
 10
4715.571039779107
 20
-2.876602481110467
 30
-0.0000000001127424
 40
6.0
  1
表面処理：本体
 72
     1
 11
4740.271039779107
 21
-2.876602481110467
 31
-0.0000000001127424
100
AcDbText
  0
LINE
  5
C860
330
18
100
AcDbEntity
  8
1DIM
100
AcDbLine
 10
4766.671039779107
 20
5.373397518889533
 30
-0.0000000000563712
 11
4766.671039779107
 21
-47.12660248111047
 31
-0.0000000000563712
  0
LINE
  5
C862
330
18
100
AcDbEntity
  8
1DIM
100
AcDbLine
 10
4714.171039779107
 20
-47.12660248111047
 30
-0.0000000000563712
 11
4714.171039779107
 21
5.373397518889533
 31
-0.0000000000563712
  0
TEXT
  5
C863
330
18
100
AcDbEntity
  8
1TEXT
100
AcDbText
 10
4715.471039779107
 20
-18.34297289846677
 30
-0.0000000001127424
 40
6.0
  1
サテンニッケル
 72
     1
 11
4740.271039779107
 21
-18.34297289846677
 31
-0.0000000001127424
100
AcDbText
  0
LINE
  5
C8F7
330
18
100
AcDbEntity
  8
01
100
AcDbLine
 10
5204.267727840659
 20
-288.4009516538246
 30
0.0000000000563712
 11
5204.267727840659
 21
-317.4009516538246
 31
0.0000000000563712
  0
ARC
  5
C8F8
330
18
100
AcDbEntity
  8
01
100
AcDbCircle
 10
5203.267727840659
 20
-317.9022699669276
 30
0.0000000000563712
 40
1.0
100
AcDbArc
 50
270.0
 51
0.0
  0
LINE
  5
C8F9
330
18
100
AcDbEntity
  8
01
100
AcDbLine
 10
4876.267960520148
 20
-302.9022699669276
 30
0.0000000000563712
 11
4816.267960520148
 21
-302.9022699669276
 31
0.0000000000563712
  0
LINE
  5
C8FA
330
18
100
AcDbEntity
  8
01
100
AcDbLine
 10
4846.267960520148
 20
-272.9022699669276
 30
0.0000000000563712
 11
4846.267960520148
 21
-332.9022699669276
 31
0.0000000000563712
  0
ARC
  5
C8FB
330
18
100
AcDbEntity
  8
01
100
AcDbCircle
 10
4829.267960520145
 20
-317.9022699669271
 30
0.0000000000563712
 40
1.0
100
AcDbArc
 50
180.0
 51
270.0
  0
LINE
  5
C8FC
330
18
100
AcDbEntity
  8
01
100
AcDbLine
 10
4876.267960520148
 20
-302.9022699669276
 30
0.0000000000563712
 11
4816.267960520148
 21
-302.9022699669276
 31
0.0000000000563712
  0
LINE
  5
C8FD
330
18
100
AcDbEntity
  8
01
100
AcDbLine
 10
4846.267960520148
 20
-272.9022699669276
 30
0.0000000000563712
 11
4846.267960520148
 21
-332.9022699669276
 31
0.0000000000563712
  0
LINE
  5
C8FE
330
18
100
AcDbEntity
  8
01
100
AcDbLine
 10
4876.267848180403
 20
-302.9009516538244
 30
0.0000000000563712
 11
4816.267848180403
 21
-302.9009516538244
 31
0.0000000000563712
  0
LINE
  5
C8FF
330
18
100
AcDbEntity
  8
01
100
AcDbLine
 10
4876.267960520148
 20
-302.9009516538244
 30
0.0000000000563712
 11
4816.267960520148
 21
-302.9009516538244
 31
0.0000000000563712
  0
LINE
  5
C900
330
18
100
AcDbEntity
  8
01
100
AcDbLine
 10
4876.267960520148
 20
-302.9009516538244
 30
0.0000000000563712
 11
4816.267960520148
 21
-302.9009516538244
 31
0.0000000000563712
  0
LINE
  5
C901
330
18
100
AcDbEntity
  8
01
100
AcDbLine
 10
4876.267960520148
 20
-302.9009516538244
 30
0.0000000000563712
 11
4816.267960520148
 21
-302.9009516538244
 31
0.0000000000563712
  0
LINE
  5
C902
330
18
100
AcDbEntity
  8
01
100
AcDbLine
 10
4876.267960520148
 20
-302.9009516538244
 30
0.0000000000563712
 11
4816.267960520148
 21
-302.9009516538244
 31
0.0000000000563712
  0
ARC
  5
C903
330
18
100
AcDbEntity
  8
01
  6
CONTINUOUS
100
AcDbCircle
 10
5163.267727840659
 20
-307.9009516538246
 30
0.0000000000563712
 40
1.000000000000028
100
AcDbArc
 50
180.0
 51
270.0
  0
LINE
  5
C904
330
18
100
AcDbEntity
  8
01
  6
CONTINUOUS
100
AcDbLine
 10
5162.267727840659
 20
-307.9009516538246
 30
0.0000000000563712
 11
5162.267727840659
 21
-297.9009516538246
 31
0.0000000000563712
  0
ARC
  5
C905
330
18
100
AcDbEntity
  8
01
  6
CONTINUOUS
100
AcDbCircle
 10
5316.267727840659
 20
-307.9009516538246
 30
0.0000000000563712
 40
1.000000000000007
100
AcDbArc
 50
270.0
 51
0.0
  0
LINE
  5
C906
330
18
100
AcDbEntity
  8
01
  6
CONTINUOUS
100
AcDbLine
 10
5316.267727840659
 20
-308.9009516538246
 30
0.0000000000563712
 11
5163.267727840659
 21
-308.9009516538246
 31
0.0000000000563712
  0
LINE
  5
C907
330
18
100
AcDbEntity
  8
01
  6
CONTINUOUS
100
AcDbLine
 10
5317.267727840659
 20
-297.9009516538246
 30
0.0000000000563712
 11
5317.267727840659
 21
-307.9009516538246
 31
0.0000000000563712
  0
LINE
  5
C908
330
18
100
AcDbEntity
  8
01
  6
CONTINUOUS
100
AcDbLine
 10
5163.267727840659
 20
-296.9009516538246
 30
0.0000000000563712
 11
5316.267727840659
 21
-296.9009516538246
 31
0.0000000000563712
  0
ARC
  5
C909
330
18
100
AcDbEntity
  8
01
  6
CONTINUOUS
100
AcDbCircle
 10
5163.267727840659
 20
-297.9009516538246
 30
0.0000000000563712
 40
1.0
100
AcDbArc
 50
90.0
 51
180.0
  0
ARC
  5
C90A
330
18
100
AcDbEntity
  8
01
  6
CONTINUOUS
100
AcDbCircle
 10
5316.267727840659
 20
-297.9009516538246
 30
0.0000000000563712
 40
1.000000000000007
100
AcDbArc
 50
0.0
 51
90.0
  0
ARC
  5
C90B
330
18
100
AcDbEntity
  8
01
  6
CONTINUOUS
100
AcDbCircle
 10
5163.267727840659
 20
-316.4009516538246
 30
0.0000000000563712
 40
1.0
100
AcDbArc
 50
180.0
 51
270.0
  0
ARC
  5
C90C
330
18
100
AcDbEntity
  8
01
  6
CONTINUOUS
100
AcDbCircle
 10
5209.267727840659
 20
-316.4009516538246
 30
0.0000000000563712
 40
1.0
100
AcDbArc
 50
270.0
 51
0.0
  0
LINE
  5
C90D
330
18
100
AcDbEntity
  8
01
  6
CONTINUOUS
100
AcDbLine
 10
5162.267727840659
 20
-316.4009516538246
 30
0.0000000000563712
 11
5162.267727840659
 21
-310.1009516538245
 31
0.0000000000563712
  0
LINE
  5
C90E
330
18
100
AcDbEntity
  8
01
  6
CONTINUOUS
100
AcDbLine
 10
5210.267727840659
 20
-310.1009516538245
 30
0.0000000000563712
 11
5210.267727840659
 21
-316.4009516538246
 31
0.0000000000563712
  0
LINE
  5
C90F
330
18
100
AcDbEntity
  8
01
  6
CONTINUOUS
100
AcDbLine
 10
5209.267727840659
 20
-317.4009516538246
 30
0.0000000000563712
 11
5163.267727840659
 21
-317.4009516538246
 31
0.0000000000563712
  0
ARC
  5
C910
330
18
100
AcDbEntity
  8
01
  6
CONTINUOUS
100
AcDbCircle
 10
5163.267727840659
 20
-310.1009516538245
 30
0.0000000000563712
 40
1.0
100
AcDbArc
 50
90.0
 51
180.0
  0
LINE
  5
C911
330
18
100
AcDbEntity
  8
01
  6
CONTINUOUS
100
AcDbLine
 10
5163.267727840659
 20
-309.1009516538245
 30
0.0000000000563712
 11
5209.267727840659
 21
-309.1009516538245
 31
0.0000000000563712
  0
ARC
  5
C912
330
18
100
AcDbEntity
  8
01
  6
CONTINUOUS
100
AcDbCircle
 10
5209.267727840659
 20
-310.1009516538245
 30
0.0000000000563712
 40
1.0
100
AcDbArc
 50
0.0
 51
90.0
  0
ARC
  5
C913
330
18
100
AcDbEntity
  8
01
  6
CONTINUOUS
100
AcDbCircle
 10
5163.267727840659
 20
-295.7009516538245
 30
0.0000000000563712
 40
1.0
100
AcDbArc
 50
180.0
 51
270.0
  0
LINE
  5
C914
330
18
100
AcDbEntity
  8
01
  6
CONTINUOUS
100
AcDbLine
 10
5210.267727840659
 20
-289.4009516538246
 30
0.0000000000563712
 11
5210.267727840659
 21
-295.7009516538245
 31
0.0000000000563712
  0
ARC
  5
C915
330
18
100
AcDbEntity
  8
01
  6
CONTINUOUS
100
AcDbCircle
 10
5209.267727840659
 20
-295.7009516538245
 30
0.0000000000563712
 40
1.0
100
AcDbArc
 50
270.0
 51
0.0
  0
LINE
  5
C916
330
18
100
AcDbEntity
  8
01
  6
CONTINUOUS
100
AcDbLine
 10
5209.267727840659
 20
-296.7009516538245
 30
0.0000000000563712
 11
5163.267727840659
 21
-296.7009516538245
 31
0.0000000000563712
  0
LINE
  5
C917
330
18
100
AcDbEntity
  8
01
  6
CONTINUOUS
100
AcDbLine
 10
5162.267727840659
 20
-295.7009516538245
 30
0.0000000000563712
 11
5162.267727840659
 21
-289.4009516538246
 31
0.0000000000563712
  0
ARC
  5
C918
330
18
100
AcDbEntity
  8
01
  6
CONTINUOUS
100
AcDbCircle
 10
5209.267727840659
 20
-289.4009516538246
 30
0.0000000000563712
 40
1.0
100
AcDbArc
 50
0.0
 51
90.0
  0
ARC
  5
C919
330
18
100
AcDbEntity
  8
01
  6
CONTINUOUS
100
AcDbCircle
 10
5163.267727840659
 20
-289.4009516538246
 30
0.0000000000563712
 40
1.0
100
AcDbArc
 50
90.0
 51
180.0
  0
LINE
  5
C91A
330
18
100
AcDbEntity
  8
01
  6
CONTINUOUS
100
AcDbLine
 10
5163.267727840659
 20
-288.4009516538246
 30
0.0000000000563712
 11
5209.267727840659
 21
-288.4009516538246
 31
0.0000000000563712
  0
LINE
  5
C91B
330
18
100
AcDbEntity
  8
01
  6
CONTINUOUS
100
AcDbLine
 10
5210.267727840659
 20
-310.1009516538245
 30
0.0000000000563712
 11
5210.267727840659
 21
-308.9009516538244
 31
0.0000000000563712
  0
LINE
  5
C91C
330
18
100
AcDbEntity
  8
01
  6
CONTINUOUS
100
AcDbLine
 10
5162.267727840659
 20
-308.1009516538245
 30
0.0000000000563712
 11
5162.267727840659
 21
-310.1009516538245
 31
0.0000000000563712
  0
LINE
  5
C91D
330
18
100
AcDbEntity
  8
01
  6
CONTINUOUS
100
AcDbLine
 10
5162.267727840659
 20
-295.7009516538245
 30
0.0000000000563712
 11
5162.267727840659
 21
-297.7009516538245
 31
0.0000000000563712
  0
LINE
  5
C91E
330
18
100
AcDbEntity
  8
01
  6
CONTINUOUS
100
AcDbLine
 10
5210.267727840659
 20
-296.9009516538244
 30
0.0000000000563712
 11
5210.267727840659
 21
-295.7009516538245
 31
0.0000000000563712
  0
LINE
  5
C91F
330
18
100
AcDbEntity
  8
01
  6
CONTINUOUS
100
AcDbLine
 10
5162.267727840659
 20
-308.1009516538245
 30
0.0000000000563712
 11
5162.267727840659
 21
-307.9009516538244
 31
0.0000000000563712
  0
LINE
  5
C920
330
18
100
AcDbEntity
  8
01
  6
CONTINUOUS
100
AcDbLine
 10
5162.267727840659
 20
-297.9009516538244
 30
0.0000000000563712
 11
5162.267727840659
 21
-297.7009516538245
 31
0.0000000000563712
  0
LINE
  5
C921
330
18
100
AcDbEntity
  8
01
  6
CONTINUOUS
100
AcDbLine
 10
5209.267727840659
 20
-308.9009516538244
 30
0.0000000000563712
 11
5209.267727840659
 21
-309.1009516538245
 31
0.0000000000563712
  0
LINE
  5
C922
330
18
100
AcDbEntity
  8
01
  6
CONTINUOUS
100
AcDbLine
 10
5162.287931943545
 20
-308.1009516538245
 30
0.0000000000563712
 11
5162.267727840659
 21
-308.1009516538245
 31
0.0000000000563712
  0
LINE
  5
C923
330
18
100
AcDbEntity
  8
01
  6
CONTINUOUS
100
AcDbLine
 10
5163.267727840659
 20
-308.9009516538244
 30
0.0000000000563712
 11
5163.267727840659
 21
-309.1009516538245
 31
0.0000000000563712
  0
LINE
  5
C924
330
18
100
AcDbEntity
  8
01
  6
CONTINUOUS
100
AcDbLine
 10
5163.267727840659
 20
-296.7009516538245
 30
0.0000000000563712
 11
5163.267727840659
 21
-296.9009516538244
 31
0.0000000000563712
  0
LINE
  5
C925
330
18
100
AcDbEntity
  8
01
  6
CONTINUOUS
100
AcDbLine
 10
5162.267727840659
 20
-297.7009516538245
 30
0.0000000000563712
 11
5162.287931943545
 21
-297.7009516538245
 31
0.0000000000563712
  0
LINE
  5
C926
330
18
100
AcDbEntity
  8
01
  6
CONTINUOUS
100
AcDbLine
 10
5209.267727840659
 20
-296.7009516538245
 30
0.0000000000563712
 11
5209.267727840659
 21
-296.9009516538244
 31
0.0000000000563712
  0
LINE
  5
C928
330
18
100
AcDbEntity
  8
01
  6
CONTINUOUS
100
AcDbLine
 10
5042.467727840659
 20
-290.6022699669279
 30
0.0000000000563712
 11
5042.067727840659
 21
-290.6022699669279
 31
0.0000000000563712
  0
LINE
  5
C929
330
18
100
AcDbEntity
  8
01
  6
CONTINUOUS
100
AcDbLine
 10
5041.767727840659
 20
-290.9022699669281
 30
0.0000000000563712
 11
5041.767727840659
 21
-291.4022699669281
 31
0.0000000000563712
  0
ARC
  5
C92A
330
18
100
AcDbEntity
  8
01
  6
CONTINUOUS
100
AcDbCircle
 10
5042.067727840659
 20
-290.9022699669281
 30
0.0000000000563712
 40
0.3000000000000114
100
AcDbArc
 50
90.0
 51
180.0
  0
LINE
  5
C92B
330
18
100
AcDbEntity
  8
01
  6
CONTINUOUS
100
AcDbLine
 10
5041.767727840659
 20
-288.4022699669272
 30
0.0000000000563712
 11
5041.767727840659
 21
-314.4022699669281
 31
0.0000000000563712
  0
LINE
  5
C92C
330
18
100
AcDbEntity
  8
01
  6
CONTINUOUS
100
AcDbLine
 10
5041.767727840659
 20
-314.4022699669281
 30
0.0000000000563712
 11
5041.767727840659
 21
-314.9022699669281
 31
0.0000000000563712
  0
ARC
  5
C92D
330
18
100
AcDbEntity
  8
01
  6
CONTINUOUS
100
AcDbCircle
 10
5042.067727840659
 20
-314.9022699669281
 30
0.0000000000563712
 40
0.3000000000000398
100
AcDbArc
 50
180.0
 51
270.0
  0
LINE
  5
C92E
330
18
100
AcDbEntity
  8
01
  6
CONTINUOUS
100
AcDbLine
 10
5042.467727840659
 20
-315.2022699669274
 30
0.0000000000563712
 11
5042.067727840659
 21
-315.2022699669274
 31
0.0000000000563712
  0
LINE
  5
C92F
330
18
100
AcDbEntity
  8
01
  6
CONTINUOUS
100
AcDbLine
 10
5097.967727840659
 20
-307.9022699669281
 30
0.0000000000563712
 11
5097.967727840659
 21
-297.9022699669281
 31
0.0000000000563712
  0
LINE
  5
C930
330
18
100
AcDbEntity
  8
01
  6
CONTINUOUS
100
AcDbLine
 10
5070.967727840659
 20
-297.9022699669281
 30
0.0000000000563712
 11
5070.967727840659
 21
-307.9022699669281
 31
0.0000000000563712
  0
LINE
  5
C931
330
18
100
AcDbEntity
  8
01
  6
CONTINUOUS
100
AcDbLine
 10
5096.967727840659
 20
-296.9022699669281
 30
0.0000000000563712
 11
5071.967727840659
 21
-296.9022699669281
 31
0.0000000000563712
  0
ARC
  5
C932
330
18
100
AcDbEntity
  8
01
  6
CONTINUOUS
100
AcDbCircle
 10
5096.967727840659
 20
-297.9022699669281
 30
0.0000000000563712
 40
1.0
100
AcDbArc
 50
0.0
 51
90.0
  0
ARC
  5
C933
330
18
100
AcDbEntity
  8
01
  6
CONTINUOUS
100
AcDbCircle
 10
5071.967727840659
 20
-297.9022699669281
 30
0.0000000000563712
 40
1.0
100
AcDbArc
 50
90.0
 51
180.0
  0
LINE
  5
C934
330
18
100
AcDbEntity
  8
01
  6
CONTINUOUS
100
AcDbLine
 10
5071.967727840659
 20
-308.9022699669281
 30
0.0000000000563712
 11
5096.967727840659
 21
-308.9022699669281
 31
0.0000000000563712
  0
ARC
  5
C935
330
18
100
AcDbEntity
  8
01
  6
CONTINUOUS
100
AcDbCircle
 10
5096.967727840659
 20
-307.9022699669281
 30
0.0000000000563712
 40
1.0
100
AcDbArc
 50
270.0
 51
0.0
  0
ARC
  5
C936
330
18
100
AcDbEntity
  8
01
  6
CONTINUOUS
100
AcDbCircle
 10
5071.967727840659
 20
-307.9022699669281
 30
0.0000000000563712
 40
1.0
100
AcDbArc
 50
180.0
 51
270.0
  0
ARC
  5
C937
330
18
100
AcDbEntity
  8
01
  6
CONTINUOUS
100
AcDbCircle
 10
5086.967727840659
 20
-289.4022699669281
 30
0.0000000000563712
 40
1.000000000000028
100
AcDbArc
 50
0.0
 51
90.0
  0
LINE
  5
C938
330
18
100
AcDbEntity
  8
01
  6
CONTINUOUS
100
AcDbLine
 10
5086.967727840659
 20
-288.4022699669272
 30
0.0000000000563712
 11
5042.467727840659
 21
-288.4022699669281
 31
0.0000000000563712
  0
LINE
  5
C939
330
18
100
AcDbEntity
  8
01
  6
CONTINUOUS
100
AcDbLine
 10
5042.467727840659
 20
-288.4022699669281
 30
0.0000000000563712
 11
5042.467727840659
 21
-289.4022699669281
 31
0.0000000000563712
  0
LINE
  5
C93A
330
18
100
AcDbEntity
  8
01
  6
CONTINUOUS
100
AcDbLine
 10
5042.467727840659
 20
-289.4022699669281
 30
0.0000000000563712
 11
5042.467727840659
 21
-316.4022699669281
 31
0.0000000000563712
  0
LINE
  5
C93B
330
18
100
AcDbEntity
  8
01
  6
CONTINUOUS
100
AcDbLine
 10
5087.967727840659
 20
-295.7022699669274
 30
0.0000000000563712
 11
5087.967727840659
 21
-289.4022699669281
 31
0.0000000000563712
  0
ARC
  5
C93C
330
18
100
AcDbEntity
  8
01
  6
CONTINUOUS
100
AcDbCircle
 10
5086.967727840659
 20
-295.7022699669274
 30
0.0000000000563712
 40
1.0
100
AcDbArc
 50
270.0
 51
0.0
  0
ARC
  5
C93D
330
18
100
AcDbEntity
  8
01
  6
CONTINUOUS
100
AcDbCircle
 10
5071.967727840659
 20
-297.7022699669274
 30
0.0000000000563712
 40
1.0
100
AcDbArc
 50
90.0
 51
180.0
  0
LINE
  5
C93E
330
18
100
AcDbEntity
  8
01
  6
CONTINUOUS
100
AcDbLine
 10
5071.967727840659
 20
-296.7022699669274
 30
0.0000000000563712
 11
5086.967727840659
 21
-296.7022699669274
 31
0.0000000000563712
  0
LINE
  5
C93F
330
18
100
AcDbEntity
  8
01
  6
CONTINUOUS
100
AcDbLine
 10
5070.967727840659
 20
-308.1022699669279
 30
0.0000000000563712
 11
5070.967727840659
 21
-297.7022699669274
 31
0.0000000000563712
  0
ARC
  5
C940
330
18
100
AcDbEntity
  8
01
  6
CONTINUOUS
100
AcDbCircle
 10
5071.967727840659
 20
-308.1022699669279
 30
0.0000000000563712
 40
1.0
100
AcDbArc
 50
180.0
 51
270.0
  0
ARC
  5
C941
330
18
100
AcDbEntity
  8
01
  6
CONTINUOUS
100
AcDbCircle
 10
5086.967727840659
 20
-310.1022699669279
 30
0.0000000000563712
 40
1.0
100
AcDbArc
 50
0.0
 51
90.0
  0
LINE
  5
C942
330
18
100
AcDbEntity
  8
01
  6
CONTINUOUS
100
AcDbLine
 10
5086.967727840659
 20
-309.1022699669279
 30
0.0000000000563712
 11
5071.967727840659
 21
-309.1022699669279
 31
0.0000000000563712
  0
LINE
  5
C943
330
18
100
AcDbEntity
  8
01
  6
CONTINUOUS
100
AcDbLine
 10
5087.967727840659
 20
-316.4022699669281
 30
0.0000000000563712
 11
5087.967727840659
 21
-310.1022699669279
 31
0.0000000000563712
  0
ARC
  5
C944
330
18
100
AcDbEntity
  8
01
  6
CONTINUOUS
100
AcDbCircle
 10
5086.967727840659
 20
-316.4022699669281
 30
0.0000000000563712
 40
1.0
100
AcDbArc
 50
270.0
 51
0.0
  0
LINE
  5
C945
330
18
100
AcDbEntity
  8
01
  6
CONTINUOUS
100
AcDbLine
 10
5042.467727840659
 20
-317.4022699669281
 30
0.0000000000563712
 11
5086.967727840659
 21
-317.4022699669281
 31
0.0000000000563712
  0
LINE
  5
C946
330
18
100
AcDbEntity
  8
01
  6
CONTINUOUS
100
AcDbLine
 10
5042.467727840659
 20
-316.4022699669281
 30
0.0000000000563712
 11
5042.467727840659
 21
-317.4022699669281
 31
0.0000000000563712
  0
LINE
  5
C948
330
18
100
AcDbEntity
  8
01
100
AcDbLine
 10
5041.767727840659
 20
-314.9022699669281
 30
0.0000000000563712
 11
5041.767727840659
 21
-317.4022699669272
 31
0.0000000000563712
  0
LINE
  5
C949
330
18
100
AcDbEntity
  8
01
100
AcDbLine
 10
5036.267727840659
 20
-288.4022699669272
 30
0.0000000000563712
 11
5036.267727840659
 21
-317.402269966929
 31
0.0000000000563712
  0
LINE
  5
C94A
330
18
100
AcDbEntity
  8
01
100
AcDbLine
 10
5041.767727840659
 20
-317.402269966929
 30
0.0000000000563712
 11
5036.267727840659
 21
-317.402269966929
 31
0.0000000000563712
  0
LINE
  5
C94B
330
18
100
AcDbEntity
  8
01
100
AcDbLine
 10
5041.767727840659
 20
-288.4022699669272
 30
0.0000000000563712
 11
5036.267727840659
 21
-288.4022699669272
 31
0.0000000000563712
  0
LINE
  5
C94C
330
18
100
AcDbEntity
  8
01
  6
CONTINUOUS
100
AcDbLine
 10
4990.067960520149
 20
-290.6022699669279
 30
0.0000000000563712
 11
4990.467960520148
 21
-290.6022699669279
 31
0.0000000000563712
  0
LINE
  5
C94D
330
18
100
AcDbEntity
  8
01
  6
CONTINUOUS
100
AcDbLine
 10
4990.767960520148
 20
-290.9022699669281
 30
0.0000000000563712
 11
4990.767960520148
 21
-291.4022699669281
 31
0.0000000000563712
  0
ARC
  5
C94E
330
18
100
AcDbEntity
  8
01
  6
CONTINUOUS
100
AcDbCircle
 10
4990.467960520148
 20
-290.9022699669281
 30
0.0000000000563712
 40
0.3000000000000114
100
AcDbArc
 50
0.0
 51
90.0
  0
LINE
  5
C94F
330
18
100
AcDbEntity
  8
01
  6
CONTINUOUS
100
AcDbLine
 10
4990.767960520148
 20
-288.4022699669272
 30
0.0000000000563712
 11
4990.767960520148
 21
-314.4022699669281
 31
0.0000000000563712
  0
LINE
  5
C950
330
18
100
AcDbEntity
  8
01
  6
CONTINUOUS
100
AcDbLine
 10
4990.767960520148
 20
-314.4022699669281
 30
0.0000000000563712
 11
4990.767960520148
 21
-314.9022699669281
 31
0.0000000000563712
  0
ARC
  5
C951
330
18
100
AcDbEntity
  8
01
  6
CONTINUOUS
100
AcDbCircle
 10
4990.467960520148
 20
-314.9022699669281
 30
0.0000000000563712
 40
0.3000000000000398
100
AcDbArc
 50
270.0
 51
0.0
  0
LINE
  5
C952
330
18
100
AcDbEntity
  8
01
  6
CONTINUOUS
100
AcDbLine
 10
4990.067960520149
 20
-315.2022699669274
 30
0.0000000000563712
 11
4990.467960520148
 21
-315.2022699669274
 31
0.0000000000563712
  0
LINE
  5
C953
330
18
100
AcDbEntity
  8
01
  6
CONTINUOUS
100
AcDbLine
 10
4934.567960520149
 20
-307.9022699669281
 30
0.0000000000563712
 11
4934.567960520149
 21
-297.9022699669281
 31
0.0000000000563712
  0
LINE
  5
C954
330
18
100
AcDbEntity
  8
01
  6
CONTINUOUS
100
AcDbLine
 10
4961.567960520149
 20
-297.9022699669281
 30
0.0000000000563712
 11
4961.567960520149
 21
-307.9022699669281
 31
0.0000000000563712
  0
LINE
  5
C955
330
18
100
AcDbEntity
  8
01
  6
CONTINUOUS
100
AcDbLine
 10
4935.567960520149
 20
-296.9022699669281
 30
0.0000000000563712
 11
4960.567960520149
 21
-296.9022699669281
 31
0.0000000000563712
  0
ARC
  5
C956
330
18
100
AcDbEntity
  8
01
  6
CONTINUOUS
100
AcDbCircle
 10
4935.567960520149
 20
-297.9022699669281
 30
0.0000000000563712
 40
1.0
100
AcDbArc
 50
90.0
 51
180.0
  0
ARC
  5
C957
330
18
100
AcDbEntity
  8
01
  6
CONTINUOUS
100
AcDbCircle
 10
4960.567960520149
 20
-297.9022699669281
 30
0.0000000000563712
 40
1.0
100
AcDbArc
 50
0.0
 51
90.0
  0
LINE
  5
C958
330
18
100
AcDbEntity
  8
01
  6
CONTINUOUS
100
AcDbLine
 10
4960.567960520149
 20
-308.9022699669281
 30
0.0000000000563712
 11
4935.567960520149
 21
-308.9022699669281
 31
0.0000000000563712
  0
ARC
  5
C959
330
18
100
AcDbEntity
  8
01
  6
CONTINUOUS
100
AcDbCircle
 10
4935.567960520149
 20
-307.9022699669281
 30
0.0000000000563712
 40
1.0
100
AcDbArc
 50
180.0
 51
270.0
  0
ARC
  5
C95A
330
18
100
AcDbEntity
  8
01
  6
CONTINUOUS
100
AcDbCircle
 10
4960.567960520149
 20
-307.9022699669281
 30
0.0000000000563712
 40
1.0
100
AcDbArc
 50
270.0
 51
0.0
  0
ARC
  5
C95B
330
18
100
AcDbEntity
  8
01
  6
CONTINUOUS
100
AcDbCircle
 10
4945.567960520149
 20
-289.4022699669281
 30
0.0000000000563712
 40
1.000000000000028
100
AcDbArc
 50
90.0
 51
180.0
  0
LINE
  5
C95C
330
18
100
AcDbEntity
  8
01
  6
CONTINUOUS
100
AcDbLine
 10
4945.567960520149
 20
-288.4022699669272
 30
0.0000000000563712
 11
4990.067960520149
 21
-288.4022699669281
 31
0.0000000000563712
  0
LINE
  5
C95D
330
18
100
AcDbEntity
  8
01
  6
CONTINUOUS
100
AcDbLine
 10
4990.067960520149
 20
-288.4022699669281
 30
0.0000000000563712
 11
4990.067960520149
 21
-289.4022699669281
 31
0.0000000000563712
  0
LINE
  5
C95E
330
18
100
AcDbEntity
  8
01
  6
CONTINUOUS
100
AcDbLine
 10
4990.067960520149
 20
-289.4022699669281
 30
0.0000000000563712
 11
4990.067960520149
 21
-316.4022699669281
 31
0.0000000000563712
  0
LINE
  5
C95F
330
18
100
AcDbEntity
  8
01
  6
CONTINUOUS
100
AcDbLine
 10
4944.567960520149
 20
-295.7022699669274
 30
0.0000000000563712
 11
4944.567960520149
 21
-289.4022699669281
 31
0.0000000000563712
  0
ARC
  5
C960
330
18
100
AcDbEntity
  8
01
  6
CONTINUOUS
100
AcDbCircle
 10
4945.567960520149
 20
-295.7022699669274
 30
0.0000000000563712
 40
1.0
100
AcDbArc
 50
180.0
 51
270.0
  0
ARC
  5
C961
330
18
100
AcDbEntity
  8
01
  6
CONTINUOUS
100
AcDbCircle
 10
4960.567960520149
 20
-297.7022699669274
 30
0.0000000000563712
 40
1.0
100
AcDbArc
 50
0.0
 51
90.0
  0
LINE
  5
C962
330
18
100
AcDbEntity
  8
01
  6
CONTINUOUS
100
AcDbLine
 10
4960.567960520149
 20
-296.7022699669274
 30
0.0000000000563712
 11
4945.567960520149
 21
-296.7022699669274
 31
0.0000000000563712
  0
LINE
  5
C963
330
18
100
AcDbEntity
  8
01
  6
CONTINUOUS
100
AcDbLine
 10
4961.567960520149
 20
-308.1022699669279
 30
0.0000000000563712
 11
4961.567960520149
 21
-297.7022699669274
 31
0.0000000000563712
  0
ARC
  5
C964
330
18
100
AcDbEntity
  8
01
  6
CONTINUOUS
100
AcDbCircle
 10
4960.567960520149
 20
-308.1022699669279
 30
0.0000000000563712
 40
1.0
100
AcDbArc
 50
270.0
 51
0.0
  0
ARC
  5
C965
330
18
100
AcDbEntity
  8
01
  6
CONTINUOUS
100
AcDbCircle
 10
4945.567960520149
 20
-310.1022699669279
 30
0.0000000000563712
 40
1.0
100
AcDbArc
 50
90.0
 51
180.0
  0
LINE
  5
C966
330
18
100
AcDbEntity
  8
01
  6
CONTINUOUS
100
AcDbLine
 10
4945.567960520149
 20
-309.1022699669279
 30
0.0000000000563712
 11
4960.567960520149
 21
-309.1022699669279
 31
0.0000000000563712
  0
LINE
  5
C967
330
18
100
AcDbEntity
  8
01
  6
CONTINUOUS
100
AcDbLine
 10
4944.567960520149
 20
-316.4022699669281
 30
0.0000000000563712
 11
4944.567960520149
 21
-310.1022699669279
 31
0.0000000000563712
  0
ARC
  5
C968
330
18
100
AcDbEntity
  8
01
  6
CONTINUOUS
100
AcDbCircle
 10
4945.567960520149
 20
-316.4022699669281
 30
0.0000000000563712
 40
1.0
100
AcDbArc
 50
180.0
 51
270.0
  0
LINE
  5
C969
330
18
100
AcDbEntity
  8
01
  6
CONTINUOUS
100
AcDbLine
 10
4990.067960520149
 20
-317.4022699669281
 30
0.0000000000563712
 11
4945.567960520149
 21
-317.4022699669281
 31
0.0000000000563712
  0
LINE
  5
C96A
330
18
100
AcDbEntity
  8
01
  6
CONTINUOUS
100
AcDbLine
 10
4990.067960520149
 20
-316.4022699669281
 30
0.0000000000563712
 11
4990.067960520149
 21
-317.4022699669281
 31
0.0000000000563712
  0
LINE
  5
C96B
330
18
100
AcDbEntity
  8
01
100
AcDbLine
 10
4990.767960520148
 20
-314.9022699669281
 30
0.0000000000563712
 11
4990.767960520148
 21
-317.4022699669272
 31
0.0000000000563712
  0
LINE
  5
C96C
330
18
100
AcDbEntity
  8
01
100
AcDbLine
 10
4996.267960520148
 20
-288.4022699669272
 30
0.0000000000563712
 11
4996.267960520148
 21
-317.402269966929
 31
0.0000000000563712
  0
LINE
  5
C96D
330
18
100
AcDbEntity
  8
01
100
AcDbLine
 10
4990.767960520148
 20
-317.402269966929
 30
0.0000000000563712
 11
4996.267960520148
 21
-317.402269966929
 31
0.0000000000563712
  0
LINE
  5
C96E
330
18
100
AcDbEntity
  8
01
100
AcDbLine
 10
4990.767960520148
 20
-288.4022699669272
 30
0.0000000000563712
 11
4996.267960520148
 21
-288.4022699669272
 31
0.0000000000563712
  0
LINE
  5
C96F
330
18
100
AcDbEntity
  8
01
100
AcDbLine
 10
5204.267727840659
 20
-317.4009516538246
 30
0.0000000000563712
 11
5204.267727840659
 21
-317.9022699669276
 31
0.0000000000563712
  0
ARC
  5
C971
330
18
100
AcDbEntity
  8
01
  6
CONTINUOUS
100
AcDbCircle
 10
4869.267848180403
 20
-307.9009516538246
 30
0.0000000000563712
 40
1.000000000000028
100
AcDbArc
 50
270.0
 51
0.0
  0
LINE
  5
C972
330
18
100
AcDbEntity
  8
01
  6
CONTINUOUS
100
AcDbLine
 10
4870.267848180403
 20
-307.9009516538246
 30
0.0000000000563712
 11
4870.267848180403
 21
-297.9009516538246
 31
0.0000000000563712
  0
ARC
  5
C973
330
18
100
AcDbEntity
  8
01
  6
CONTINUOUS
100
AcDbCircle
 10
4716.267848180403
 20
-307.9009516538246
 30
0.0000000000563712
 40
1.000000000000007
100
AcDbArc
 50
180.0
 51
270.0
  0
LINE
  5
C974
330
18
100
AcDbEntity
  8
01
  6
CONTINUOUS
100
AcDbLine
 10
4716.267848180403
 20
-308.9009516538246
 30
0.0000000000563712
 11
4869.267848180403
 21
-308.9009516538246
 31
0.0000000000563712
  0
LINE
  5
C975
330
18
100
AcDbEntity
  8
01
  6
CONTINUOUS
100
AcDbLine
 10
4715.267848180403
 20
-297.9009516538246
 30
0.0000000000563712
 11
4715.267848180403
 21
-307.9009516538246
 31
0.0000000000563712
  0
LINE
  5
C976
330
18
100
AcDbEntity
  8
01
  6
CONTINUOUS
100
AcDbLine
 10
4869.267848180403
 20
-296.9009516538246
 30
0.0000000000563712
 11
4716.267848180403
 21
-296.9009516538246
 31
0.0000000000563712
  0
ARC
  5
C977
330
18
100
AcDbEntity
  8
01
  6
CONTINUOUS
100
AcDbCircle
 10
4869.267848180403
 20
-297.9009516538246
 30
0.0000000000563712
 40
1.0
100
AcDbArc
 50
0.0
 51
90.0
  0
ARC
  5
C978
330
18
100
AcDbEntity
  8
01
  6
CONTINUOUS
100
AcDbCircle
 10
4716.267848180403
 20
-297.9009516538246
 30
0.0000000000563712
 40
1.000000000000007
100
AcDbArc
 50
90.0
 51
180.0
  0
ARC
  5
C979
330
18
100
AcDbEntity
  8
01
  6
CONTINUOUS
100
AcDbCircle
 10
4869.267848180403
 20
-316.4009516538246
 30
0.0000000000563712
 40
1.0
100
AcDbArc
 50
270.0
 51
0.0
  0
ARC
  5
C97A
330
18
100
AcDbEntity
  8
01
  6
CONTINUOUS
100
AcDbCircle
 10
4823.267848180403
 20
-316.4009516538246
 30
0.0000000000563712
 40
1.0
100
AcDbArc
 50
180.0
 51
270.0
  0
LINE
  5
C97B
330
18
100
AcDbEntity
  8
01
  6
CONTINUOUS
100
AcDbLine
 10
4870.267848180403
 20
-316.4009516538246
 30
0.0000000000563712
 11
4870.267848180403
 21
-310.1009516538245
 31
0.0000000000563712
  0
LINE
  5
C97C
330
18
100
AcDbEntity
  8
01
  6
CONTINUOUS
100
AcDbLine
 10
4822.267848180403
 20
-310.1009516538245
 30
0.0000000000563712
 11
4822.267848180403
 21
-316.4009516538246
 31
0.0000000000563712
  0
LINE
  5
C97D
330
18
100
AcDbEntity
  8
01
  6
CONTINUOUS
100
AcDbLine
 10
4823.267848180403
 20
-317.4009516538246
 30
0.0000000000563712
 11
4869.267848180403
 21
-317.4009516538246
 31
0.0000000000563712
  0
ARC
  5
C97E
330
18
100
AcDbEntity
  8
01
  6
CONTINUOUS
100
AcDbCircle
 10
4869.267848180403
 20
-310.1009516538245
 30
0.0000000000563712
 40
1.0
100
AcDbArc
 50
0.0
 51
90.0
  0
LINE
  5
C97F
330
18
100
AcDbEntity
  8
01
  6
CONTINUOUS
100
AcDbLine
 10
4869.267848180403
 20
-309.1009516538245
 30
0.0000000000563712
 11
4823.267848180403
 21
-309.1009516538245
 31
0.0000000000563712
  0
ARC
  5
C980
330
18
100
AcDbEntity
  8
01
  6
CONTINUOUS
100
AcDbCircle
 10
4823.267848180403
 20
-310.1009516538245
 30
0.0000000000563712
 40
1.0
100
AcDbArc
 50
90.0
 51
180.0
  0
ARC
  5
C981
330
18
100
AcDbEntity
  8
01
  6
CONTINUOUS
100
AcDbCircle
 10
4869.267848180403
 20
-295.7009516538245
 30
0.0000000000563712
 40
1.0
100
AcDbArc
 50
270.0
 51
0.0
  0
LINE
  5
C982
330
18
100
AcDbEntity
  8
01
  6
CONTINUOUS
100
AcDbLine
 10
4822.267848180403
 20
-289.4009516538246
 30
0.0000000000563712
 11
4822.267848180403
 21
-295.7009516538245
 31
0.0000000000563712
  0
ARC
  5
C983
330
18
100
AcDbEntity
  8
01
  6
CONTINUOUS
100
AcDbCircle
 10
4823.267848180403
 20
-295.7009516538245
 30
0.0000000000563712
 40
1.0
100
AcDbArc
 50
180.0
 51
270.0
  0
LINE
  5
C984
330
18
100
AcDbEntity
  8
01
  6
CONTINUOUS
100
AcDbLine
 10
4823.267848180403
 20
-296.7009516538245
 30
0.0000000000563712
 11
4869.267848180403
 21
-296.7009516538245
 31
0.0000000000563712
  0
LINE
  5
C985
330
18
100
AcDbEntity
  8
01
  6
CONTINUOUS
100
AcDbLine
 10
4870.267848180403
 20
-295.7009516538245
 30
0.0000000000563712
 11
4870.267848180403
 21
-289.4009516538246
 31
0.0000000000563712
  0
ARC
  5
C986
330
18
100
AcDbEntity
  8
01
  6
CONTINUOUS
100
AcDbCircle
 10
4823.267848180403
 20
-289.4009516538246
 30
0.0000000000563712
 40
1.0
100
AcDbArc
 50
90.0
 51
180.0
  0
ARC
  5
C987
330
18
100
AcDbEntity
  8
01
  6
CONTINUOUS
100
AcDbCircle
 10
4869.267848180403
 20
-289.4009516538246
 30
0.0000000000563712
 40
1.0
100
AcDbArc
 50
0.0
 51
90.0
  0
LINE
  5
C988
330
18
100
AcDbEntity
  8
01
  6
CONTINUOUS
100
AcDbLine
 10
4869.267848180403
 20
-288.4009516538246
 30
0.0000000000563712
 11
4823.267848180403
 21
-288.4009516538246
 31
0.0000000000563712
  0
LINE
  5
C989
330
18
100
AcDbEntity
  8
01
  6
CONTINUOUS
100
AcDbLine
 10
4822.267848180403
 20
-310.1009516538245
 30
0.0000000000563712
 11
4822.267848180403
 21
-308.9009516538244
 31
0.0000000000563712
  0
LINE
  5
C98A
330
18
100
AcDbEntity
  8
01
  6
CONTINUOUS
100
AcDbLine
 10
4870.267848180403
 20
-308.1009516538245
 30
0.0000000000563712
 11
4870.267848180403
 21
-310.1009516538245
 31
0.0000000000563712
  0
LINE
  5
C98B
330
18
100
AcDbEntity
  8
01
  6
CONTINUOUS
100
AcDbLine
 10
4870.267848180403
 20
-295.7009516538245
 30
0.0000000000563712
 11
4870.267848180403
 21
-297.7009516538245
 31
0.0000000000563712
  0
LINE
  5
C98C
330
18
100
AcDbEntity
  8
01
  6
CONTINUOUS
100
AcDbLine
 10
4822.267848180403
 20
-296.9009516538244
 30
0.0000000000563712
 11
4822.267848180403
 21
-295.7009516538245
 31
0.0000000000563712
  0
LINE
  5
C98D
330
18
100
AcDbEntity
  8
01
  6
CONTINUOUS
100
AcDbLine
 10
4870.267848180403
 20
-308.1009516538245
 30
0.0000000000563712
 11
4870.267848180403
 21
-307.9009516538244
 31
0.0000000000563712
  0
LINE
  5
C98E
330
18
100
AcDbEntity
  8
01
  6
CONTINUOUS
100
AcDbLine
 10
4870.267848180403
 20
-297.9009516538244
 30
0.0000000000563712
 11
4870.267848180403
 21
-297.7009516538245
 31
0.0000000000563712
  0
LINE
  5
C98F
330
18
100
AcDbEntity
  8
01
  6
CONTINUOUS
100
AcDbLine
 10
4823.267848180403
 20
-308.9009516538244
 30
0.0000000000563712
 11
4823.267848180403
 21
-309.1009516538245
 31
0.0000000000563712
  0
LINE
  5
C990
330
18
100
AcDbEntity
  8
01
  6
CONTINUOUS
100
AcDbLine
 10
4870.247644077517
 20
-308.1009516538245
 30
0.0000000000563712
 11
4870.267848180403
 21
-308.1009516538245
 31
0.0000000000563712
  0
LINE
  5
C991
330
18
100
AcDbEntity
  8
01
  6
CONTINUOUS
100
AcDbLine
 10
4869.267848180403
 20
-308.9009516538244
 30
0.0000000000563712
 11
4869.267848180403
 21
-309.1009516538245
 31
0.0000000000563712
  0
LINE
  5
C992
330
18
100
AcDbEntity
  8
01
  6
CONTINUOUS
100
AcDbLine
 10
4869.267848180403
 20
-296.7009516538245
 30
0.0000000000563712
 11
4869.267848180403
 21
-296.9009516538244
 31
0.0000000000563712
  0
LINE
  5
C993
330
18
100
AcDbEntity
  8
01
  6
CONTINUOUS
100
AcDbLine
 10
4870.267848180403
 20
-297.7009516538245
 30
0.0000000000563712
 11
4870.247644077517
 21
-297.7009516538245
 31
0.0000000000563712
  0
LINE
  5
C994
330
18
100
AcDbEntity
  8
01
  6
CONTINUOUS
100
AcDbLine
 10
4823.267848180403
 20
-296.7009516538245
 30
0.0000000000563712
 11
4823.267848180403
 21
-296.9009516538244
 31
0.0000000000563712
  0
LINE
  5
C995
330
18
100
AcDbEntity
  8
1HIDDEN
100
AcDbLine
 10
4828.267960520145
 20
-288.4009516538246
 30
0.0000000000563712
 11
4828.267960520145
 21
-317.4009516538246
 31
0.0000000000563712
  0
LINE
  5
C996
330
18
100
AcDbEntity
  8
01
100
AcDbLine
 10
4828.267960520145
 20
-317.4009516538246
 30
0.0000000000563712
 11
4828.267960520145
 21
-317.9022699669271
 31
0.0000000000563712
  0
LINE
  5
C999
330
18
100
AcDbEntity
  8
01
  6
CONTINUOUS
100
AcDbLine
 10
5207.267844180402
 20
-58.40226996795627
 30
0.0000000000563712
 11
5207.767844180402
 21
-58.40226996795627
 31
0.0000000000563712
  0
ARC
  5
C99A
330
18
100
AcDbEntity
  8
01
  6
CONTINUOUS
100
AcDbCircle
 10
5207.767844180402
 20
-58.70226996795623
 30
0.0000000000563712
 40
0.2999999999999972
100
AcDbArc
 50
0.0
 51
90.0
  0
LINE
  5
C99B
330
18
100
AcDbEntity
  8
01
  6
CONTINUOUS
100
AcDbLine
 10
5208.067844180401
 20
-59.1022699679562
 30
0.0000000000563712
 11
5208.067844180401
 21
-58.70226996795623
 31
0.0000000000563712
  0
LINE
  5
C99C
330
18
100
AcDbEntity
  8
01
  6
CONTINUOUS
100
AcDbLine
 10
5165.267844180402
 20
-58.40226996795627
 30
0.0000000000563712
 11
5166.267956131587
 21
-58.40226996795627
 31
0.0000000000563712
  0
LINE
  5
C99D
330
18
100
AcDbEntity
  8
01
  6
CONTINUOUS
100
AcDbLine
 10
5164.767844180402
 20
-58.40226996795627
 30
0.0000000000563712
 11
5165.267844180402
 21
-58.40226996795627
 31
0.0000000000563712
  0
ARC
  5
C99E
330
18
100
AcDbEntity
  8
01
  6
CONTINUOUS
100
AcDbCircle
 10
5164.767844180402
 20
-58.70226996795623
 30
0.0000000000563712
 40
0.3000000000000114
100
AcDbArc
 50
90.0
 51
180.0
  0
LINE
  5
C99F
330
18
100
AcDbEntity
  8
01
  6
CONTINUOUS
100
AcDbLine
 10
5164.467844180402
 20
-59.1022699679562
 30
0.0000000000563712
 11
5164.467844180402
 21
-58.70226996795623
 31
0.0000000000563712
  0
LINE
  5
C9A0
330
18
100
AcDbEntity
  8
01
  6
CONTINUOUS
100
AcDbLine
 10
5316.267844180402
 20
-114.6022699679562
 30
0.0000000000563712
 11
5163.267844180402
 21
-114.6022699679562
 31
0.0000000000563712
  0
LINE
  5
C9A1
330
18
100
AcDbEntity
  8
01
  6
CONTINUOUS
100
AcDbLine
 10
5210.267844180402
 20
-87.6022699679562
 30
0.0000000000563712
 11
5316.267844180402
 21
-87.6022699679562
 31
0.0000000000563712
  0
LINE
  5
C9A2
330
18
100
AcDbEntity
  8
01
  6
CONTINUOUS
100
AcDbLine
 10
5162.267844180402
 20
-113.6022699679562
 30
0.0000000000563712
 11
5162.267844180402
 21
-103.6022699679562
 31
0.0000000000563712
  0
ARC
  5
C9A3
330
18
100
AcDbEntity
  8
01
  6
CONTINUOUS
100
AcDbCircle
 10
5163.267844180402
 20
-113.6022699679562
 30
0.0000000000563712
 40
1.0
100
AcDbArc
 50
180.0
 51
270.0
  0
ARC
  5
C9A4
330
18
100
AcDbEntity
  8
01
  6
CONTINUOUS
100
AcDbCircle
 10
5316.267844180402
 20
-113.6022699679562
 30
0.0000000000563712
 40
1.0
100
AcDbArc
 50
270.0
 51
0.0
  0
LINE
  5
C9A5
330
18
100
AcDbEntity
  8
01
  6
CONTINUOUS
100
AcDbLine
 10
5317.267844180402
 20
-88.6022699679562
 30
0.0000000000563712
 11
5317.267844180402
 21
-113.6022699679562
 31
0.0000000000563712
  0
ARC
  5
C9A6
330
18
100
AcDbEntity
  8
01
  6
CONTINUOUS
100
AcDbCircle
 10
5316.267844180402
 20
-88.6022699679562
 30
0.0000000000563712
 40
1.0
100
AcDbArc
 50
0.0
 51
90.0
  0
LINE
  5
C9A7
330
18
100
AcDbEntity
  8
01
  6
CONTINUOUS
100
AcDbLine
 10
5162.267844180402
 20
-103.6022699679562
 30
0.0000000000563712
 11
5162.267844180402
 21
-59.1022699679562
 31
0.0000000000563712
  0
LINE
  5
C9A8
330
18
100
AcDbEntity
  8
01
  6
CONTINUOUS
100
AcDbLine
 10
5162.267844180402
 20
-59.1022699679562
 30
0.0000000000563712
 11
5163.267844180402
 21
-59.1022699679562
 31
0.0000000000563712
  0
ARC
  5
C9A9
330
18
100
AcDbEntity
  8
01
  6
CONTINUOUS
100
AcDbCircle
 10
5163.267844180402
 20
-103.6022699679562
 30
0.0000000000563712
 40
1.0
100
AcDbArc
 50
180.0
 51
270.0
  0
ARC
  5
C9AA
330
18
100
AcDbEntity
  8
01
  6
CONTINUOUS
100
AcDbCircle
 10
5209.267844180402
 20
-103.6022699679562
 30
0.0000000000563712
 40
1.0
100
AcDbArc
 50
270.0
 51
0.0
  0
LINE
  5
C9AB
330
18
100
AcDbEntity
  8
01
  6
CONTINUOUS
100
AcDbLine
 10
5210.267844180402
 20
-59.1022699679562
 30
0.0000000000563712
 11
5210.267844180402
 21
-103.6022699679562
 31
0.0000000000563712
  0
LINE
  5
C9AC
330
18
100
AcDbEntity
  8
01
  6
CONTINUOUS
100
AcDbLine
 10
5209.267844180402
 20
-59.1022699679562
 30
0.0000000000563712
 11
5210.267844180402
 21
-59.1022699679562
 31
0.0000000000563712
  0
LINE
  5
C9AD
330
18
100
AcDbEntity
  8
01
  6
CONTINUOUS
100
AcDbLine
 10
5163.267844180402
 20
-59.1022699679562
 30
0.0000000000563712
 11
5166.467956131592
 21
-59.10226996795621
 31
0.0000000000563712
  0
LINE
  5
C9AE
330
18
100
AcDbEntity
  8
01
  6
CONTINUOUS
100
AcDbLine
 10
5209.267844180402
 20
-104.6022699679562
 30
0.0000000000563712
 11
5163.267844180402
 21
-104.6022699679562
 31
0.0000000000563712
  0
LINE
  5
C9B1
330
18
100
AcDbEntity
  8
01
  6
CONTINUOUS
100
AcDbLine
 10
5162.267844180402
 20
-58.40226996795627
 30
0.0000000000563712
 11
5166.267956131588
 21
-58.40226996795627
 31
0.0000000000563712
  0
LINE
  5
C9B2
330
18
100
AcDbEntity
  8
01
  6
CONTINUOUS
100
AcDbLine
 10
5162.267844180402
 20
-52.90226996795627
 30
0.0000000000563712
 11
5210.267844180402
 21
-52.90226996795627
 31
0.0000000000563712
  0
LINE
  5
C9B3
330
18
100
AcDbEntity
  8
01
100
AcDbLine
 10
5162.267844180402
 20
-58.40226996795627
 30
0.0000000000563712
 11
5162.267844180402
 21
-52.90226996795627
 31
0.0000000000563712
  0
LINE
  5
C9B4
330
18
100
AcDbEntity
  8
01
100
AcDbLine
 10
5210.267844180402
 20
-58.40226996795627
 30
0.0000000000563712
 11
5210.267844180402
 21
-52.90226996795627
 31
0.0000000000563712
  0
LINE
  5
C9B9
330
18
100
AcDbEntity
  8
01
  6
CONTINUOUS
100
AcDbLine
 10
5207.267844180402
 20
-7.402269967956272
 30
0.0000000000563712
 11
5207.767844180402
 21
-7.402269967956272
 31
0.0000000000563712
  0
ARC
  5
C9BA
330
18
100
AcDbEntity
  8
01
  6
CONTINUOUS
100
AcDbCircle
 10
5207.767844180402
 20
-7.102269967956317
 30
0.0000000000563712
 40
0.2999999999999972
100
AcDbArc
 50
270.0
 51
0.0
  0
LINE
  5
C9BB
330
18
100
AcDbEntity
  8
01
  6
CONTINUOUS
100
AcDbLine
 10
5208.067844180401
 20
-6.70226996795634
 30
0.0000000000563712
 11
5208.067844180401
 21
-7.102269967956317
 31
0.0000000000563712
  0
LINE
  5
C9BC
330
18
100
AcDbEntity
  8
01
  6
CONTINUOUS
100
AcDbLine
 10
5165.267844180402
 20
-7.402269967956272
 30
0.0000000000563712
 11
5166.267956263793
 21
-7.402269967956272
 31
0.0000000000563712
  0
LINE
  5
C9BD
330
18
100
AcDbEntity
  8
01
  6
CONTINUOUS
100
AcDbLine
 10
5164.767844180402
 20
-7.402269967956272
 30
0.0000000000563712
 11
5165.267844180402
 21
-7.402269967956272
 31
0.0000000000563712
  0
ARC
  5
C9BE
330
18
100
AcDbEntity
  8
01
  6
CONTINUOUS
100
AcDbCircle
 10
5164.767844180402
 20
-7.102269967956317
 30
0.0000000000563712
 40
0.3000000000000114
100
AcDbArc
 50
180.0
 51
270.0
  0
LINE
  5
C9BF
330
18
100
AcDbEntity
  8
01
  6
CONTINUOUS
100
AcDbLine
 10
5164.467844180402
 20
-6.70226996795634
 30
0.0000000000563712
 11
5164.467844180402
 21
-7.102269967956317
 31
0.0000000000563712
  0
LINE
  5
C9C0
330
18
100
AcDbEntity
  8
01
  6
CONTINUOUS
100
AcDbLine
 10
5316.267844180402
 20
48.79773003204366
 30
0.0000000000563712
 11
5163.267844180402
 21
48.79773003204366
 31
0.0000000000563712
  0
LINE
  5
C9C1
330
18
100
AcDbEntity
  8
01
  6
CONTINUOUS
100
AcDbLine
 10
5210.267844180402
 20
21.79773003204366
 30
0.0000000000563712
 11
5316.267844180402
 21
21.79773003204366
 31
0.0000000000563712
  0
LINE
  5
C9C2
330
18
100
AcDbEntity
  8
01
  6
CONTINUOUS
100
AcDbLine
 10
5162.267844180402
 20
47.79773003204366
 30
0.0000000000563712
 11
5162.267844180402
 21
37.79773003204366
 31
0.0000000000563712
  0
ARC
  5
C9C3
330
18
100
AcDbEntity
  8
01
  6
CONTINUOUS
100
AcDbCircle
 10
5163.267844180402
 20
47.79773003204366
 30
0.0000000000563712
 40
1.0
100
AcDbArc
 50
90.0
 51
180.0
  0
ARC
  5
C9C4
330
18
100
AcDbEntity
  8
01
  6
CONTINUOUS
100
AcDbCircle
 10
5316.267844180402
 20
47.79773003204366
 30
0.0000000000563712
 40
1.0
100
AcDbArc
 50
0.0
 51
90.0
  0
LINE
  5
C9C5
330
18
100
AcDbEntity
  8
01
  6
CONTINUOUS
100
AcDbLine
 10
5317.267844180402
 20
22.79773003204366
 30
0.0000000000563712
 11
5317.267844180402
 21
47.79773003204366
 31
0.0000000000563712
  0
ARC
  5
C9C6
330
18
100
AcDbEntity
  8
01
  6
CONTINUOUS
100
AcDbCircle
 10
5316.267844180402
 20
22.79773003204366
 30
0.0000000000563712
 40
1.0
100
AcDbArc
 50
270.0
 51
0.0
  0
LINE
  5
C9C7
330
18
100
AcDbEntity
  8
01
  6
CONTINUOUS
100
AcDbLine
 10
5162.267844180402
 20
37.79773003204366
 30
0.0000000000563712
 11
5162.267844180402
 21
-6.70226996795634
 31
0.0000000000563712
  0
LINE
  5
C9C8
330
18
100
AcDbEntity
  8
01
  6
CONTINUOUS
100
AcDbLine
 10
5162.267844180402
 20
-6.70226996795634
 30
0.0000000000563712
 11
5163.267844180402
 21
-6.70226996795634
 31
0.0000000000563712
  0
ARC
  5
C9C9
330
18
100
AcDbEntity
  8
01
  6
CONTINUOUS
100
AcDbCircle
 10
5163.267844180402
 20
37.79773003204366
 30
0.0000000000563712
 40
1.0
100
AcDbArc
 50
90.0
 51
180.0
  0
ARC
  5
C9CA
330
18
100
AcDbEntity
  8
01
  6
CONTINUOUS
100
AcDbCircle
 10
5209.267844180402
 20
37.79773003204366
 30
0.0000000000563712
 40
1.0
100
AcDbArc
 50
0.0
 51
90.0
  0
LINE
  5
C9CB
330
18
100
AcDbEntity
  8
01
  6
CONTINUOUS
100
AcDbLine
 10
5210.267844180402
 20
-6.70226996795634
 30
0.0000000000563712
 11
5210.267844180402
 21
37.79773003204366
 31
0.0000000000563712
  0
LINE
  5
C9CC
330
18
100
AcDbEntity
  8
01
  6
CONTINUOUS
100
AcDbLine
 10
5209.267844180402
 20
-6.70226996795634
 30
0.0000000000563712
 11
5210.267844180402
 21
-6.70226996795634
 31
0.0000000000563712
  0
LINE
  5
C9CD
330
18
100
AcDbEntity
  8
01
  6
CONTINUOUS
100
AcDbLine
 10
5163.267844180402
 20
-6.70226996795634
 30
0.0000000000563712
 11
5166.467956263792
 21
-6.70226996795634
 31
0.0000000000563712
  0
LINE
  5
C9CE
330
18
100
AcDbEntity
  8
01
  6
CONTINUOUS
100
AcDbLine
 10
5209.267844180402
 20
38.79773003204366
 30
0.0000000000563712
 11
5163.267844180402
 21
38.79773003204366
 31
0.0000000000563712
  0
LINE
  5
C9CF
330
18
100
AcDbEntity
  8
01
  6
CONTINUOUS
100
AcDbLine
 10
5162.267844180402
 20
-7.402269967956272
 30
0.0000000000563712
 11
5166.267956263793
 21
-7.402269967956272
 31
0.0000000000563712
  0
LINE
  5
C9D0
330
18
100
AcDbEntity
  8
01
  6
CONTINUOUS
100
AcDbLine
 10
5162.267844180402
 20
-12.90226996795627
 30
0.0000000000563712
 11
5210.267844180402
 21
-12.90226996795627
 31
0.0000000000563712
  0
LINE
  5
C9D1
330
18
100
AcDbEntity
  8
01
100
AcDbLine
 10
5162.267844180402
 20
-7.402269967956272
 30
0.0000000000563712
 11
5162.267844180402
 21
-12.90226996795627
 31
0.0000000000563712
  0
LINE
  5
C9D2
330
18
100
AcDbEntity
  8
01
100
AcDbLine
 10
5210.267844180402
 20
-7.402269967956272
 30
0.0000000000563712
 11
5210.267844180402
 21
-12.90226996795627
 31
0.0000000000563712
  0
LINE
  5
CA6F
330
18
100
AcDbEntity
  8
01
  6
CONTINUOUS
100
AcDbLine
 10
5206.267956131587
 20
-58.40226996795628
 30
0.0000000000563712
 11
5210.267844180402
 21
-58.40226996795627
 31
0.0000000000563712
  0
LINE
  5
CA70
330
18
100
AcDbEntity
  8
01
  6
CONTINUOUS
100
AcDbLine
 10
5206.267956131587
 20
-58.40226996795626
 30
0.0000000000563712
 11
5207.267844180402
 21
-58.40226996795627
 31
0.0000000000563712
  0
LINE
  5
CA71
330
18
100
AcDbEntity
  8
01
  6
CONTINUOUS
100
AcDbLine
 10
5206.067956131591
 20
-59.1022699679562
 30
0.0000000000563712
 11
5209.267844180402
 21
-59.1022699679562
 31
0.0000000000563712
  0
LINE
  5
CA72
330
18
100
AcDbEntity
  8
01
  6
CONTINUOUS
100
AcDbLine
 10
5206.067956263794
 20
-6.702269967956339
 30
0.0000000000563712
 11
5209.267844180402
 21
-6.70226996795634
 31
0.0000000000563712
  0
LINE
  5
CA73
330
18
100
AcDbEntity
  8
01
  6
CONTINUOUS
100
AcDbLine
 10
5206.267956263793
 20
-7.402269967956272
 30
0.0000000000563712
 11
5210.267844180402
 21
-7.402269967956272
 31
0.0000000000563712
  0
LINE
  5
CA74
330
18
100
AcDbEntity
  8
01
  6
CONTINUOUS
100
AcDbLine
 10
5206.267956263794
 20
-7.402269967956272
 30
0.0000000000563712
 11
5207.267844180402
 21
-7.402269967956272
 31
0.0000000000563712
  0
TEXT
  5
CC3A
330
18
100
AcDbEntity
  8
1TEXT
100
AcDbText
 10
4767.871039779107
 20
-44.59297289846677
 30
-0.0000000001127424
 40
6.0
  1
ライトブラウン
 72
     1
 11
4792.771039779107
 21
-44.59297289846677
 31
-0.0000000001127424
100
AcDbText
  0
LINE
  5
CC3B
330
18
100
AcDbEntity
  8
1DIM
100
AcDbLine
 10
4714.171039779107
 20
-47.12660248111047
 30
-0.0000000000563712
 11
4871.671039779107
 21
-47.12660248111047
 31
-0.0000000000563712
  0
TEXT
  5
CC3C
330
18
100
AcDbEntity
  8
1TEXT
100
AcDbText
 10
4819.471039779107
 20
-45.19813795658433
 30
-0.0000000001127424
 40
6.0
  1
2-JTT-0034-LJ-2
 41
0.6
 72
     1
 11
4845.271039779107
 21
-45.19813795658433
 31
-0.0000000001127424
100
AcDbText
  0
LINE
  5
CD1F
330
18
100
AcDbEntity
  8
01
100
AcDbLine
 10
5124.267840180404
 20
-274.9022706650589
 30
0.0000000000563712
 11
5124.267840180404
 21
-172.1807778822396
 31
0.0000000000563712
1001
ACAD
1000
DSTYLE
1002
{
1070
    40
1040
1.3
1070
    45
1040
0.5
1002
}
  0
LINE
  5
CD20
330
18
100
AcDbEntity
  8
01
100
AcDbLine
 10
5135.267840180404
 20
-217.03095261577
 30
0.0000000000563712
 11
5135.267840180404
 21
-172.1807778822396
 31
0.0000000000563712
1001
ACAD
1000
DSTYLE
1002
{
1070
    40
1040
1.3
1070
    45
1040
0.5
1002
}
  0
LINE
  5
CD21
330
18
100
AcDbEntity
  8
01
100
AcDbLine
 10
5126.867840180405
 20
-173.4807778822396
 30
0.0000000000563712
 11
5132.667840180404
 21
-173.4807778822396
 31
0.0000000000563712
1001
ACAD
1000
DSTYLE
1002
{
1070
    40
1040
1.3
1070
    45
1040
0.5
1002
}
  0
LINE
  5
CD25
330
18
100
AcDbEntity
  8
01
100
AcDbLine
 10
5204.267840180404
 20
-244.9096424745358
 30
0.0000000000563712
 11
5232.567840180404
 21
-244.9096424745358
 31
0.0000000000563712
1001
ACAD
1000
DSTYLE
1002
{
1070
    40
1040
1.3
1070
    45
1040
0.5
1002
}
  0
LINE
  5
CD26
330
18
100
AcDbEntity
  8
01
100
AcDbLine
 10
5204.267840180404
 20
-318.9022699669281
 30
0.0000000000563712
 11
5232.567840180404
 21
-318.9022699669281
 31
0.0000000000563712
1001
ACAD
1000
DSTYLE
1002
{
1070
    40
1040
1.3
1070
    45
1040
0.5
1002
}
  0
LINE
  5
CD27
330
18
100
AcDbEntity
  8
01
100
AcDbLine
 10
5231.267840180404
 20
-247.5096424745358
 30
0.0000000000563712
 11
5231.267840180404
 21
-316.3022699669281
 31
0.0000000000563712
1001
ACAD
1000
DSTYLE
1002
{
1070
    40
1040
1.3
1070
    45
1040
0.5
1002
}
  0
LINE
  5
CD2B
330
18
100
AcDbEntity
  8
01
100
AcDbLine
 10
5204.267840180404
 20
-244.9096424745358
 30
0.0000000000563712
 11
5204.267840180404
 21
-162.1009104141914
 31
0.0000000000563712
1001
ACAD
1000
DSTYLE
1002
{
1070
    40
1040
1.3
1070
    45
1040
0.5
1002
}
  0
LINE
  5
CD2C
330
18
100
AcDbEntity
  8
01
100
AcDbLine
 10
5135.267840180404
 20
-217.03095261577
 30
0.0000000000563712
 11
5135.267840180404
 21
-162.1009104141914
 31
0.0000000000563712
1001
ACAD
1000
DSTYLE
1002
{
1070
    40
1040
1.3
1070
    45
1040
0.5
1002
}
  0
LINE
  5
CD2D
330
18
100
AcDbEntity
  8
01
100
AcDbLine
 10
5201.667840180404
 20
-163.4009104141915
 30
0.0000000000563712
 11
5137.867840180405
 21
-163.4009104141915
 31
0.0000000000563712
1001
ACAD
1000
DSTYLE
1002
{
1070
    40
1040
1.3
1070
    45
1040
0.5
1002
}
  0
LINE
  5
CD31
330
18
100
AcDbEntity
  8
01
100
AcDbLine
 10
5022.142981928055
 20
-224.9022699669283
 30
0.0000000000563712
 11
5102.429113096262
 21
-224.9022699669283
 31
0.0000000000563712
1001
ACAD
1000
DSTYLE
1002
{
1070
    40
1040
1.3
1070
    45
1040
0.5
1002
}
  0
LINE
  5
CD32
330
18
100
AcDbEntity
  8
01
100
AcDbLine
 10
5022.142981928055
 20
-338.9022699669283
 30
0.0000000000563712
 11
5102.429113096262
 21
-338.9022699669283
 31
0.0000000000563712
1001
ACAD
1000
DSTYLE
1002
{
1070
    40
1040
1.3
1070
    45
1040
0.5
1002
}
  0
LINE
  5
CD33
330
18
100
AcDbEntity
  8
01
100
AcDbLine
 10
5101.129113096262
 20
-227.5022699669283
 30
0.0000000000563712
 11
5101.129113096262
 21
-336.3022699669283
 31
0.0000000000563712
1001
ACAD
1000
DSTYLE
1002
{
1070
    40
1040
1.3
1070
    45
1040
0.5
1002
}
  0
LINE
  5
CD37
330
18
100
AcDbEntity
  8
01
100
AcDbLine
 10
5022.741042324818
 20
-217.0027151113447
 30
0.0000000000563712
 11
5111.793447262487
 21
-217.0027151113448
 31
0.0000000000563712
1001
ACAD
1000
DSTYLE
1002
{
1070
    40
1040
1.3
1070
    45
1040
0.5
1002
}
  0
LINE
  5
CD38
330
18
100
AcDbEntity
  8
01
100
AcDbLine
 10
5022.667956520148
 20
-346.8022699669282
 30
0.0000000000563712
 11
5111.793447262487
 21
-346.8022699669282
 31
0.0000000000563712
1001
ACAD
1000
DSTYLE
1002
{
1070
    40
1040
1.3
1070
    45
1040
0.5
1002
}
  0
LINE
  5
CD39
330
18
100
AcDbEntity
  8
01
100
AcDbLine
 10
5110.493447262486
 20
-219.6027151113448
 30
0.0000000000563712
 11
5110.493447262486
 21
-344.2022699669282
 31
0.0000000000563712
1001
ACAD
1000
DSTYLE
1002
{
1070
    40
1040
1.3
1070
    45
1040
0.5
1002
}
  0
LINE
  5
CD3D
330
18
100
AcDbEntity
  8
01
100
AcDbLine
 10
5003.767956520149
 20
-222.9022699669281
 30
0.0000000000563712
 11
5003.767956520149
 21
-172.1807778822399
 31
0.0000000000563712
1001
ACAD
1000
DSTYLE
1002
{
1070
    40
1040
1.3
1070
    45
1040
0.5
1002
}
  0
LINE
  5
CD3E
330
18
100
AcDbEntity
  8
01
100
AcDbLine
 10
5028.767956520149
 20
-222.9022699669281
 30
0.0000000000563712
 11
5028.767956520149
 21
-172.1807778822399
 31
0.0000000000563712
1001
ACAD
1000
DSTYLE
1002
{
1070
    40
1040
1.3
1070
    45
1040
0.5
1002
}
  0
LINE
  5
CD3F
330
18
100
AcDbEntity
  8
01
100
AcDbLine
 10
5006.367956520149
 20
-173.4807778822399
 30
0.0000000000563712
 11
5026.167956520148
 21
-173.4807778822399
 31
0.0000000000563712
1001
ACAD
1000
DSTYLE
1002
{
1070
    40
1040
1.3
1070
    45
1040
0.5
1002
}
  0
LINE
  5
CD43
330
18
100
AcDbEntity
  8
01
100
AcDbLine
 10
4996.267956520151
 20
-227.4022699669272
 30
0.0000000000563712
 11
4996.267956520151
 21
-195.6022699669272
 31
0.0000000000563712
1001
ACAD
1000
DSTYLE
1002
{
1070
    40
1040
1.3
1070
    45
1040
0.5
1070
   341
1005
0
1002
}
  0
LINE
  5
CD44
330
18
100
AcDbEntity
  8
01
100
AcDbLine
 10
4974.267570954431
 20
-242.9022749669261
 30
0.0000000000563712
 11
4974.267570954431
 21
-195.6022699669272
 31
0.0000000000563712
1001
ACAD
1000
DSTYLE
1002
{
1070
    40
1040
1.3
1070
    45
1040
0.5
1070
   341
1005
0
1002
}
  0
LINE
  5
CD45
330
18
100
AcDbEntity
  8
01
100
AcDbLine
 10
4993.66795652015
 20
-196.9022699669272
 30
0.0000000000563712
 11
4976.867570954431
 21
-196.9022699669272
 31
0.0000000000563712
1001
ACAD
1000
DSTYLE
1002
{
1070
    40
1040
1.3
1070
    45
1040
0.5
1070
   341
1005
0
1002
}
  0
LINE
  5
CD49
330
18
100
AcDbEntity
  8
01
100
AcDbLine
 10
5036.267956520151
 20
-227.4022699669272
 30
0.0000000000563712
 11
5036.267956520151
 21
-195.6022699669272
 31
0.0000000000563712
1001
ACAD
1000
DSTYLE
1002
{
1070
    40
1040
1.3
1070
    45
1040
0.5
1070
   271
1070
     1
1070
   341
1005
0
1002
}
  0
LINE
  5
CD4A
330
18
100
AcDbEntity
  8
01
100
AcDbLine
 10
5044.436540209112
 20
-252.902268399235
 30
0.0000000000563712
 11
5044.436540209112
 21
-195.6022699669272
 31
0.0000000000563712
1001
ACAD
1000
DSTYLE
1002
{
1070
    40
1040
1.3
1070
    45
1040
0.5
1070
   271
1070
     1
1070
   341
1005
0
1002
}
  0
LINE
  5
CD4B
330
18
100
AcDbEntity
  8
01
100
AcDbLine
 10
5038.867956520151
 20
-196.9022699669272
 30
0.0000000000563712
 11
5041.836540209111
 21
-196.9022699669272
 31
0.0000000000563712
1001
ACAD
1000
DSTYLE
1002
{
1070
    40
1040
1.3
1070
    45
1040
0.5
1070
   271
1070
     1
1070
   341
1005
0
1002
}
  0
LINE
  5
CD4F
330
18
100
AcDbEntity
  8
01
100
AcDbLine
 10
4826.267967875234
 20
-227.9022699669272
 30
0.0000000000563712
 11
4826.267967875234
 21
-218.6022699669272
 31
0.0000000000563712
1001
ACAD
1000
DSTYLE
1002
{
1070
     3
1000
□<>
1070
    40
1040
1.3
1070
    45
1040
0.5
1070
   271
1070
     1
1070
   272
1070
     2
1002
}
  0
LINE
  5
CD50
330
18
100
AcDbEntity
  8
01
100
AcDbLine
 10
4866.267967875234
 20
-227.9022699669276
 30
0.0000000000563712
 11
4866.267967875234
 21
-218.6022699669272
 31
0.0000000000563712
1001
ACAD
1000
DSTYLE
1002
{
1070
     3
1000
□<>
1070
    40
1040
1.3
1070
    45
1040
0.5
1070
   271
1070
     1
1070
   272
1070
     2
1002
}
  0
LINE
  5
CD51
330
18
100
AcDbEntity
  8
01
100
AcDbLine
 10
4828.867967875234
 20
-219.9022699669272
 30
0.0000000000563712
 11
4863.667967875233
 21
-219.9022699669272
 31
0.0000000000563712
1001
ACAD
1000
DSTYLE
1002
{
1070
     3
1000
□<>
1070
    40
1040
1.3
1070
    45
1040
0.5
1070
   271
1070
     1
1070
   272
1070
     2
1002
}
  0
LINE
  5
CD55
330
18
100
AcDbEntity
  8
01
100
AcDbLine
 10
5166.267847857947
 20
-227.9022699669272
 30
0.0000000000563712
 11
5166.267847857947
 21
-218.6022699669272
 31
0.0000000000563712
1001
ACAD
1000
DSTYLE
1002
{
1070
     3
1000
□<>
1070
    40
1040
1.3
1070
    45
1040
0.5
1070
   271
1070
     1
1070
   272
1070
     2
1002
}
  0
LINE
  5
CD56
330
18
100
AcDbEntity
  8
01
100
AcDbLine
 10
5206.267847857947
 20
-227.9022699669276
 30
0.0000000000563712
 11
5206.267847857947
 21
-218.6022699669272
 31
0.0000000000563712
1001
ACAD
1000
DSTYLE
1002
{
1070
     3
1000
□<>
1070
    40
1040
1.3
1070
    45
1040
0.5
1070
   271
1070
     1
1070
   272
1070
     2
1002
}
  0
LINE
  5
CD57
330
18
100
AcDbEntity
  8
01
100
AcDbLine
 10
5168.867847857948
 20
-219.9022699669272
 30
0.0000000000563712
 11
5203.667847857947
 21
-219.9022699669272
 31
0.0000000000563712
1001
ACAD
1000
DSTYLE
1002
{
1070
     3
1000
□<>
1070
    40
1040
1.3
1070
    45
1040
0.5
1070
   271
1070
     1
1070
   272
1070
     2
1002
}
  0
LINE
  5
CD5B
330
18
100
AcDbEntity
  8
01
  6
BYBLOCK
100
AcDbLine
 10
5126.867840180405
 20
-174.1774457762396
 30
0.0000000000563712
 11
5124.267840180404
 21
-173.4807778822396
 31
0.0000000000563712
  0
LINE
  5
CD5C
330
18
100
AcDbEntity
  8
01
  6
BYBLOCK
100
AcDbLine
 10
5124.267840180404
 20
-173.4807778822396
 30
0.0000000000563712
 11
5126.867840180405
 21
-172.7841099882396
 31
0.0000000000563712
  0
LINE
  5
CD5D
330
18
100
AcDbEntity
  8
01
  6
BYBLOCK
100
AcDbLine
 10
5124.267840180404
 20
-173.4807778822396
 30
0.0000000000563712
 11
5126.867840180405
 21
-173.4807778822396
 31
0.0000000000563712
  0
LINE
  5
CD5E
330
18
100
AcDbEntity
  8
01
  6
BYBLOCK
100
AcDbLine
 10
5132.667840180404
 20
-172.7841099882396
 30
0.0000000000563712
 11
5135.267840180404
 21
-173.4807778822396
 31
0.0000000000563712
  0
LINE
  5
CD5F
330
18
100
AcDbEntity
  8
01
  6
BYBLOCK
100
AcDbLine
 10
5135.267840180404
 20
-173.4807778822396
 30
0.0000000000563712
 11
5132.667840180404
 21
-174.1774457762396
 31
0.0000000000563712
  0
LINE
  5
CD60
330
18
100
AcDbEntity
  8
01
  6
BYBLOCK
100
AcDbLine
 10
5135.267840180404
 20
-173.4807778822396
 30
0.0000000000563712
 11
5132.667840180404
 21
-173.4807778822396
 31
0.0000000000563712
  0
TEXT
  5
CD61
330
18
100
AcDbEntity
  8
01
  6
CONTINUOUS
100
AcDbText
 10
5127.492840180405
 20
-172.5707778822396
 30
0.0000000000563712
 40
4.55
  1
11
100
AcDbText
1001
ACAD
1000
DSTYLE
1002
{
1070
    40
1040
1.3
1070
    45
1040
0.5
1002
}
  0
LINE
  5
CD62
330
18
100
AcDbEntity
  8
01
  6
BYBLOCK
100
AcDbLine
 10
5230.571172286404
 20
-247.5096424745358
 30
0.0000000000563712
 11
5231.267840180404
 21
-244.9096424745358
 31
0.0000000000563712
  0
LINE
  5
CD63
330
18
100
AcDbEntity
  8
01
  6
BYBLOCK
100
AcDbLine
 10
5231.267840180404
 20
-244.9096424745358
 30
0.0000000000563712
 11
5231.964508074404
 21
-247.5096424745358
 31
0.0000000000563712
  0
LINE
  5
CD64
330
18
100
AcDbEntity
  8
01
  6
BYBLOCK
100
AcDbLine
 10
5231.267840180404
 20
-244.9096424745358
 30
0.0000000000563712
 11
5231.267840180404
 21
-247.5096424745358
 31
0.0000000000563712
  0
LINE
  5
CD65
330
18
100
AcDbEntity
  8
01
  6
BYBLOCK
100
AcDbLine
 10
5231.964508074404
 20
-316.3022699669281
 30
0.0000000000563712
 11
5231.267840180404
 21
-318.9022699669281
 31
0.0000000000563712
  0
LINE
  5
CD66
330
18
100
AcDbEntity
  8
01
  6
BYBLOCK
100
AcDbLine
 10
5231.267840180404
 20
-318.9022699669281
 30
0.0000000000563712
 11
5230.571172286404
 21
-316.3022699669281
 31
0.0000000000563712
  0
LINE
  5
CD67
330
18
100
AcDbEntity
  8
01
  6
BYBLOCK
100
AcDbLine
 10
5231.267840180404
 20
-318.9022699669281
 30
0.0000000000563712
 11
5231.267840180404
 21
-316.3022699669281
 31
0.0000000000563712
  0
TEXT
  5
CD68
330
18
100
AcDbEntity
  8
01
  6
CONTINUOUS
100
AcDbText
 10
5230.357840180403
 20
-263.9309258809099
 30
0.0000000000563712
 40
4.55
  1
74
 50
90.0
100
AcDbText
1001
ACAD
1000
DSTYLE
1002
{
1070
    40
1040
1.3
1070
    45
1040
0.5
1002
}
  0
LINE
  5
CD69
330
18
100
AcDbEntity
  8
01
  6
BYBLOCK
100
AcDbLine
 10
5201.667840180404
 20
-162.7042425201915
 30
0.0000000000563712
 11
5204.267840180404
 21
-163.4009104141915
 31
0.0000000000563712
  0
LINE
  5
CD6A
330
18
100
AcDbEntity
  8
01
  6
BYBLOCK
100
AcDbLine
 10
5204.267840180404
 20
-163.4009104141915
 30
0.0000000000563712
 11
5201.667840180404
 21
-164.0975783081915
 31
0.0000000000563712
  0
LINE
  5
CD6B
330
18
100
AcDbEntity
  8
01
  6
BYBLOCK
100
AcDbLine
 10
5204.267840180404
 20
-163.4009104141915
 30
0.0000000000563712
 11
5201.667840180404
 21
-163.4009104141915
 31
0.0000000000563712
  0
LINE
  5
CD6C
330
18
100
AcDbEntity
  8
01
  6
BYBLOCK
100
AcDbLine
 10
5137.867840180405
 20
-164.0975783081915
 30
0.0000000000563712
 11
5135.267840180404
 21
-163.4009104141915
 31
0.0000000000563712
  0
LINE
  5
CD6D
330
18
100
AcDbEntity
  8
01
  6
BYBLOCK
100
AcDbLine
 10
5135.267840180404
 20
-163.4009104141915
 30
0.0000000000563712
 11
5137.867840180405
 21
-162.7042425201915
 31
0.0000000000563712
  0
LINE
  5
CD6E
330
18
100
AcDbEntity
  8
01
  6
BYBLOCK
100
AcDbLine
 10
5135.267840180404
 20
-163.4009104141915
 30
0.0000000000563712
 11
5137.867840180405
 21
-163.4009104141915
 31
0.0000000000563712
  0
TEXT
  5
CD6F
330
18
100
AcDbEntity
  8
01
  6
CONTINUOUS
100
AcDbText
 10
5165.959321661886
 20
-162.4909104141915
 30
0.0000000000563712
 40
4.55
  1
69
100
AcDbText
1001
ACAD
1000
DSTYLE
1002
{
1070
    40
1040
1.3
1070
    45
1040
0.5
1002
}
  0
LINE
  5
CD70
330
18
100
AcDbEntity
  8
01
  6
BYBLOCK
100
AcDbLine
 10
5100.432445202262
 20
-227.5022699669283
 30
0.0000000000563712
 11
5101.129113096262
 21
-224.9022699669283
 31
0.0000000000563712
  0
LINE
  5
CD71
330
18
100
AcDbEntity
  8
01
  6
BYBLOCK
100
AcDbLine
 10
5101.129113096262
 20
-224.9022699669283
 30
0.0000000000563712
 11
5101.825780990262
 21
-227.5022699669283
 31
0.0000000000563712
  0
LINE
  5
CD72
330
18
100
AcDbEntity
  8
01
  6
BYBLOCK
100
AcDbLine
 10
5101.129113096262
 20
-224.9022699669283
 30
0.0000000000563712
 11
5101.129113096262
 21
-227.5022699669283
 31
0.0000000000563712
  0
LINE
  5
CD73
330
18
100
AcDbEntity
  8
01
  6
BYBLOCK
100
AcDbLine
 10
5101.825780990262
 20
-336.3022699669283
 30
0.0000000000563712
 11
5101.129113096262
 21
-338.9022699669283
 31
0.0000000000563712
  0
LINE
  5
CD74
330
18
100
AcDbEntity
  8
01
  6
BYBLOCK
100
AcDbLine
 10
5101.129113096262
 20
-338.9022699669283
 30
0.0000000000563712
 11
5100.432445202262
 21
-336.3022699669283
 31
0.0000000000563712
  0
LINE
  5
CD75
330
18
100
AcDbEntity
  8
01
  6
BYBLOCK
100
AcDbLine
 10
5101.129113096262
 20
-338.9022699669283
 30
0.0000000000563712
 11
5101.129113096262
 21
-336.3022699669283
 31
0.0000000000563712
  0
TEXT
  5
CD76
330
18
100
AcDbEntity
  8
01
  6
CONTINUOUS
100
AcDbText
 10
5100.219113096262
 20
-257.319247619007
 30
0.0000000000563712
 40
4.55
  1
114
 50
90.0
100
AcDbText
1001
ACAD
1000
DSTYLE
1002
{
1070
    40
1040
1.3
1070
    45
1040
0.5
1002
}
  0
LINE
  5
CD77
330
18
100
AcDbEntity
  8
01
  6
BYBLOCK
100
AcDbLine
 10
5109.796779368487
 20
-219.6027151113448
 30
0.0000000000563712
 11
5110.493447262486
 21
-217.0027151113448
 31
0.0000000000563712
  0
LINE
  5
CD78
330
18
100
AcDbEntity
  8
01
  6
BYBLOCK
100
AcDbLine
 10
5110.493447262486
 20
-217.0027151113448
 30
0.0000000000563712
 11
5111.190115156486
 21
-219.6027151113448
 31
0.0000000000563712
  0
LINE
  5
CD79
330
18
100
AcDbEntity
  8
01
  6
BYBLOCK
100
AcDbLine
 10
5110.493447262486
 20
-217.0027151113448
 30
0.0000000000563712
 11
5110.493447262486
 21
-219.6027151113448
 31
0.0000000000563712
  0
LINE
  5
CD7A
330
18
100
AcDbEntity
  8
01
  6
BYBLOCK
100
AcDbLine
 10
5111.190115156486
 20
-344.2022699669282
 30
0.0000000000563712
 11
5110.493447262486
 21
-346.8022699669282
 31
0.0000000000563712
  0
LINE
  5
CD7B
330
18
100
AcDbEntity
  8
01
  6
BYBLOCK
100
AcDbLine
 10
5110.493447262486
 20
-346.8022699669282
 30
0.0000000000563712
 11
5109.796779368487
 21
-344.2022699669282
 31
0.0000000000563712
  0
LINE
  5
CD7C
330
18
100
AcDbEntity
  8
01
  6
BYBLOCK
100
AcDbLine
 10
5110.493447262486
 20
-346.8022699669282
 30
0.0000000000563712
 11
5110.493447262486
 21
-344.2022699669282
 31
0.0000000000563712
  0
TEXT
  5
CD7D
330
18
100
AcDbEntity
  8
01
  6
CONTINUOUS
100
AcDbText
 10
5109.583447262486
 20
-258.1038116218142
 30
0.0000000000563712
 40
4.55
  1
130
 50
90.0
100
AcDbText
1001
ACAD
1000
DSTYLE
1002
{
1070
    40
1040
1.3
1070
    45
1040
0.5
1002
}
  0
LINE
  5
CD7E
330
18
100
AcDbEntity
  8
01
  6
BYBLOCK
100
AcDbLine
 10
5006.367956520149
 20
-174.1774457762399
 30
0.0000000000563712
 11
5003.767956520149
 21
-173.4807778822399
 31
0.0000000000563712
  0
LINE
  5
CD7F
330
18
100
AcDbEntity
  8
01
  6
BYBLOCK
100
AcDbLine
 10
5003.767956520149
 20
-173.4807778822399
 30
0.0000000000563712
 11
5006.367956520149
 21
-172.7841099882399
 31
0.0000000000563712
  0
LINE
  5
CD80
330
18
100
AcDbEntity
  8
01
  6
BYBLOCK
100
AcDbLine
 10
5003.767956520149
 20
-173.4807778822399
 30
0.0000000000563712
 11
5006.367956520149
 21
-173.4807778822399
 31
0.0000000000563712
  0
LINE
  5
CD81
330
18
100
AcDbEntity
  8
01
  6
BYBLOCK
100
AcDbLine
 10
5026.167956520148
 20
-172.7841099882399
 30
0.0000000000563712
 11
5028.767956520149
 21
-173.4807778822399
 31
0.0000000000563712
  0
LINE
  5
CD82
330
18
100
AcDbEntity
  8
01
  6
BYBLOCK
100
AcDbLine
 10
5028.767956520149
 20
-173.4807778822399
 30
0.0000000000563712
 11
5026.167956520148
 21
-174.1774457762399
 31
0.0000000000563712
  0
LINE
  5
CD83
330
18
100
AcDbEntity
  8
01
  6
BYBLOCK
100
AcDbLine
 10
5028.767956520149
 20
-173.4807778822399
 30
0.0000000000563712
 11
5026.167956520148
 21
-173.4807778822399
 31
0.0000000000563712
  0
TEXT
  5
CD84
330
18
100
AcDbEntity
  8
01
  6
CONTINUOUS
100
AcDbText
 10
5012.476289853482
 20
-172.5707778822399
 30
0.0000000000563712
 40
4.55
  1
25
100
AcDbText
1001
ACAD
1000
DSTYLE
1002
{
1070
    40
1040
1.3
1070
    45
1040
0.5
1002
}
  0
LINE
  5
CD85
330
18
100
AcDbEntity
  8
01
  6
BYBLOCK
100
AcDbLine
 10
4993.66795652015
 20
-196.2056020729272
 30
0.0000000000563712
 11
4996.267956520151
 21
-196.9022699669272
 31
0.0000000000563712
  0
LINE
  5
CD86
330
18
100
AcDbEntity
  8
01
  6
BYBLOCK
100
AcDbLine
 10
4996.267956520151
 20
-196.9022699669272
 30
0.0000000000563712
 11
4993.66795652015
 21
-197.5989378609272
 31
0.0000000000563712
  0
LINE
  5
CD87
330
18
100
AcDbEntity
  8
01
  6
BYBLOCK
100
AcDbLine
 10
4996.267956520151
 20
-196.9022699669272
 30
0.0000000000563712
 11
4993.66795652015
 21
-196.9022699669272
 31
0.0000000000563712
  0
LINE
  5
CD88
330
18
100
AcDbEntity
  8
01
  6
BYBLOCK
100
AcDbLine
 10
4976.867570954431
 20
-197.5989378609272
 30
0.0000000000563712
 11
4974.267570954431
 21
-196.9022699669272
 31
0.0000000000563712
  0
LINE
  5
CD89
330
18
100
AcDbEntity
  8
01
  6
BYBLOCK
100
AcDbLine
 10
4974.267570954431
 20
-196.9022699669272
 30
0.0000000000563712
 11
4976.867570954431
 21
-196.2056020729272
 31
0.0000000000563712
  0
LINE
  5
CD8A
330
18
100
AcDbEntity
  8
01
  6
BYBLOCK
100
AcDbLine
 10
4974.267570954431
 20
-196.9022699669272
 30
0.0000000000563712
 11
4976.867570954431
 21
-196.9022699669272
 31
0.0000000000563712
  0
TEXT
  5
CD8B
330
18
100
AcDbEntity
  8
01
  6
CONTINUOUS
100
AcDbText
 10
4981.476097070624
 20
-195.9922699669272
 30
0.0000000000563712
 40
4.55
  1
22
100
AcDbText
1001
ACAD
1000
DSTYLE
1002
{
1070
    40
1040
1.3
1070
    45
1040
0.5
1070
   341
1005
0
1002
}
  0
LINE
  5
CD8C
330
18
100
AcDbEntity
  8
01
  6
BYBLOCK
100
AcDbLine
 10
5038.867956520151
 20
-197.5989378609272
 30
0.0000000000563712
 11
5036.267956520151
 21
-196.9022699669272
 31
0.0000000000563712
  0
LINE
  5
CD8D
330
18
100
AcDbEntity
  8
01
  6
BYBLOCK
100
AcDbLine
 10
5036.267956520151
 20
-196.9022699669272
 30
0.0000000000563712
 11
5038.867956520151
 21
-196.2056020729272
 31
0.0000000000563712
  0
LINE
  5
CD8E
330
18
100
AcDbEntity
  8
01
  6
BYBLOCK
100
AcDbLine
 10
5036.267956520151
 20
-196.9022699669272
 30
0.0000000000563712
 11
5038.867956520151
 21
-196.9022699669272
 31
0.0000000000563712
  0
LINE
  5
CD8F
330
18
100
AcDbEntity
  8
01
  6
BYBLOCK
100
AcDbLine
 10
5041.836540209111
 20
-196.2056020729272
 30
0.0000000000563712
 11
5044.436540209112
 21
-196.9022699669272
 31
0.0000000000563712
  0
LINE
  5
CD90
330
18
100
AcDbEntity
  8
01
  6
BYBLOCK
100
AcDbLine
 10
5044.436540209112
 20
-196.9022699669272
 30
0.0000000000563712
 11
5041.836540209111
 21
-197.5989378609272
 31
0.0000000000563712
  0
LINE
  5
CD91
330
18
100
AcDbEntity
  8
01
  6
BYBLOCK
100
AcDbLine
 10
5044.436540209112
 20
-196.9022699669272
 30
0.0000000000563712
 11
5041.836540209111
 21
-196.9022699669272
 31
0.0000000000563712
  0
TEXT
  5
CD92
330
18
100
AcDbEntity
  8
01
  6
CONTINUOUS
100
AcDbText
 10
5038.835581697965
 20
-195.9922699669272
 30
0.0000000000563712
 40
4.55
  1
8
100
AcDbText
1001
ACAD
1000
DSTYLE
1002
{
1070
    40
1040
1.3
1070
    45
1040
0.5
1070
   271
1070
     1
1070
   341
1005
0
1002
}
  0
LINE
  5
CD93
330
18
100
AcDbEntity
  8
01
  6
BYBLOCK
100
AcDbLine
 10
4828.867967875234
 20
-220.5989378609272
 30
0.0000000000563712
 11
4826.267967875234
 21
-219.9022699669272
 31
0.0000000000563712
  0
LINE
  5
CD94
330
18
100
AcDbEntity
  8
01
  6
BYBLOCK
100
AcDbLine
 10
4826.267967875234
 20
-219.9022699669272
 30
0.0000000000563712
 11
4828.867967875234
 21
-219.2056020729272
 31
0.0000000000563712
  0
LINE
  5
CD95
330
18
100
AcDbEntity
  8
01
  6
BYBLOCK
100
AcDbLine
 10
4826.267967875234
 20
-219.9022699669272
 30
0.0000000000563712
 11
4828.867967875234
 21
-219.9022699669272
 31
0.0000000000563712
  0
LINE
  5
CD96
330
18
100
AcDbEntity
  8
01
  6
BYBLOCK
100
AcDbLine
 10
4863.667967875233
 20
-219.2056020729272
 30
0.0000000000563712
 11
4866.267967875234
 21
-219.9022699669272
 31
0.0000000000563712
  0
LINE
  5
CD97
330
18
100
AcDbEntity
  8
01
  6
BYBLOCK
100
AcDbLine
 10
4866.267967875234
 20
-219.9022699669272
 30
0.0000000000563712
 11
4863.667967875233
 21
-220.5989378609272
 31
0.0000000000563712
  0
LINE
  5
CD98
330
18
100
AcDbEntity
  8
01
  6
BYBLOCK
100
AcDbLine
 10
4866.267967875234
 20
-219.9022699669272
 30
0.0000000000563712
 11
4863.667967875233
 21
-219.9022699669272
 31
0.0000000000563712
  0
TEXT
  5
CD99
330
18
100
AcDbEntity
  8
01
  6
CONTINUOUS
100
AcDbText
 10
4839.879009541901
 20
-218.9922699669272
 30
0.0000000000563712
 40
4.55
  1
□40
100
AcDbText
1001
ACAD
1000
DSTYLE
1002
{
1070
     3
1000
□<>
1070
    40
1040
1.3
1070
    45
1040
0.5
1070
   271
1070
     1
1070
   272
1070
     2
1002
}
  0
LINE
  5
CD9A
330
18
100
AcDbEntity
  8
01
  6
BYBLOCK
100
AcDbLine
 10
5168.867847857948
 20
-220.5989378609272
 30
0.0000000000563712
 11
5166.267847857947
 21
-219.9022699669272
 31
0.0000000000563712
  0
LINE
  5
CD9B
330
18
100
AcDbEntity
  8
01
  6
BYBLOCK
100
AcDbLine
 10
5166.267847857947
 20
-219.9022699669272
 30
0.0000000000563712
 11
5168.867847857948
 21
-219.2056020729272
 31
0.0000000000563712
  0
LINE
  5
CD9C
330
18
100
AcDbEntity
  8
01
  6
BYBLOCK
100
AcDbLine
 10
5166.267847857947
 20
-219.9022699669272
 30
0.0000000000563712
 11
5168.867847857948
 21
-219.9022699669272
 31
0.0000000000563712
  0
LINE
  5
CD9D
330
18
100
AcDbEntity
  8
01
  6
BYBLOCK
100
AcDbLine
 10
5203.667847857947
 20
-219.2056020729272
 30
0.0000000000563712
 11
5206.267847857947
 21
-219.9022699669272
 31
0.0000000000563712
  0
LINE
  5
CD9E
330
18
100
AcDbEntity
  8
01
  6
BYBLOCK
100
AcDbLine
 10
5206.267847857947
 20
-219.9022699669272
 30
0.0000000000563712
 11
5203.667847857947
 21
-220.5989378609272
 31
0.0000000000563712
  0
LINE
  5
CD9F
330
18
100
AcDbEntity
  8
01
  6
BYBLOCK
100
AcDbLine
 10
5206.267847857947
 20
-219.9022699669272
 30
0.0000000000563712
 11
5203.667847857947
 21
-219.9022699669272
 31
0.0000000000563712
  0
TEXT
  5
CDA0
330
18
100
AcDbEntity
  8
01
  6
CONTINUOUS
100
AcDbText
 10
5179.878889524614
 20
-218.9922699669272
 30
0.0000000000563712
 40
4.55
  1
□40
100
AcDbText
1001
ACAD
1000
DSTYLE
1002
{
1070
     3
1000
□<>
1070
    40
1040
1.3
1070
    45
1040
0.5
1070
   271
1070
     1
1070
   272
1070
     2
1002
}
  0
LINE
  5
CDA1
330
18
100
AcDbEntity
  8
1DIM
100
AcDbLine
 10
5202.668724362464
 20
-23.40226996795627
 30
0.0000000000563712
 11
5223.229115122177
 21
-23.40226996795628
 31
0.0000000000563712
1001
ACAD
1000
DSTYLE
1002
{
1070
    45
1040
0.5
1070
    40
1040
1.3
1002
}
  0
LINE
  5
CDA2
330
18
100
AcDbEntity
  8
1DIM
100
AcDbLine
 10
5204.268724362464
 20
-42.20226996795623
 30
0.0000000000563712
 11
5223.229115122177
 21
-42.20226996795623
 31
0.0000000000563712
1001
ACAD
1000
DSTYLE
1002
{
1070
    45
1040
0.5
1070
    40
1040
1.3
1002
}
  0
LINE
  5
CDA3
330
18
100
AcDbEntity
  8
1DIM
100
AcDbLine
 10
5221.929115122177
 20
-26.00226996795628
 30
0.0000000000563712
 11
5221.929115122177
 21
-39.60226996795623
 31
0.0000000000563712
1001
ACAD
1000
DSTYLE
1002
{
1070
    45
1040
0.5
1070
    40
1040
1.3
1002
}
  0
LINE
  5
CDA7
330
18
100
AcDbEntity
  8
1DIM
100
AcDbLine
 10
4816.267960520148
 20
-302.9022699669274
 30
0.0000000000563712
 11
4801.27410811786
 21
-302.9022699669274
 31
0.0000000000563712
1001
ACAD
1000
DSTYLE
1002
{
1070
    40
1040
1.3
1070
    45
1040
0.5
1070
   341
1005
0
1002
}
  0
LINE
  5
CDA8
330
18
100
AcDbEntity
  8
1DIM
100
AcDbLine
 10
4823.767952520149
 20
-247.4022699669272
 30
0.0000000000563712
 11
4801.27410811786
 21
-247.4022699669272
 31
0.0000000000563712
1001
ACAD
1000
DSTYLE
1002
{
1070
    40
1040
1.3
1070
    45
1040
0.5
1070
   341
1005
0
1002
}
  0
LINE
  5
CDA9
330
18
100
AcDbEntity
  8
1DIM
100
AcDbLine
 10
4802.57410811786
 20
-300.3022699669274
 30
0.0000000000563712
 11
4802.57410811786
 21
-250.0022699669272
 31
0.0000000000563712
1001
ACAD
1000
DSTYLE
1002
{
1070
    40
1040
1.3
1070
    45
1040
0.5
1070
   341
1005
0
1002
}
  0
LINE
  5
CDAD
330
18
100
AcDbEntity
  8
1DIM
100
AcDbLine
 10
5316.267727840659
 20
-296.9009516538246
 30
0.0
 11
5332.537454417416
 21
-296.9009516538246
 31
0.0
  0
LINE
  5
CDAE
330
18
100
AcDbEntity
  8
1DIM
100
AcDbLine
 10
5316.267727840659
 20
-308.9009516538246
 30
0.0
 11
5332.537454417416
 21
-308.9009516538246
 31
0.0
  0
LINE
  5
CDAF
330
18
100
AcDbEntity
  8
1DIM
100
AcDbLine
 10
5331.537454417416
 20
-298.9009516538246
 30
0.0
 11
5331.537454417416
 21
-306.9009516538246
 31
0.0
  0
LINE
  5
CDB3
330
18
100
AcDbEntity
  8
1DIM
100
AcDbLine
 10
5163.267727840659
 20
-288.4009516538246
 30
0.0
 11
5149.423089922693
 21
-288.4009516538246
 31
0.0
  0
LINE
  5
CDB4
330
18
100
AcDbEntity
  8
1DIM
100
AcDbLine
 10
5163.267727840659
 20
-317.4009516538246
 30
0.0
 11
5149.423089922693
 21
-317.4009516538246
 31
0.0
  0
LINE
  5
CDB5
330
18
100
AcDbEntity
  8
1DIM
100
AcDbLine
 10
5150.423089922693
 20
-290.4009516538246
 30
0.0
 11
5150.423089922693
 21
-315.4009516538246
 31
0.0
  0
LINE
  5
CDB9
330
18
100
AcDbEntity
  8
1DIM
100
AcDbLine
 10
5162.267727840659
 20
-289.4009516538246
 30
0.0
 11
5162.267727840659
 21
-278.1040405070739
 31
0.0
  0
LINE
  5
CDBA
330
18
100
AcDbEntity
  8
1DIM
100
AcDbLine
 10
5210.267727840659
 20
-289.4009516538246
 30
0.0
 11
5210.267727840659
 21
-278.1040405070739
 31
0.0
  0
LINE
  5
CDBB
330
18
100
AcDbEntity
  8
1DIM
100
AcDbLine
 10
5164.267727840659
 20
-279.1040405070739
 30
0.0
 11
5208.267727840659
 21
-279.1040405070739
 31
0.0
  0
LINE
  5
CDBF
330
18
100
AcDbEntity
  8
1DIM
100
AcDbLine
 10
5289.02299217775
 20
-52.90226996795695
 30
0.0
 11
5357.693670955676
 21
-52.90226996795698
 31
0.0
1001
ACAD
1000
DSTYLE
1002
{
1070
    40
1040
1.0
1002
}
  0
LINE
  5
CDC0
330
18
100
AcDbEntity
  8
1DIM
100
AcDbLine
 10
5316.267844180402
 20
-114.6022699679562
 30
0.0
 11
5357.693670955676
 21
-114.6022699679562
 31
0.0
1001
ACAD
1000
DSTYLE
1002
{
1070
    40
1040
1.0
1002
}
  0
LINE
  5
CDC1
330
18
100
AcDbEntity
  8
1DIM
100
AcDbLine
 10
5356.693670955676
 20
-54.90226996795698
 30
0.0
 11
5356.693670955676
 21
-112.6022699679562
 31
0.0
1001
ACAD
1000
DSTYLE
1002
{
1070
    40
1040
1.0
1002
}
  0
LINE
  5
CDC5
330
18
100
AcDbEntity
  8
1DIM
100
AcDbLine
 10
5316.267844180402
 20
-87.6022699679562
 30
0.0
 11
5343.985263287498
 21
-87.6022699679562
 31
0.0
1001
ACAD
1000
DSTYLE
1002
{
1070
    40
1040
1.0
1002
}
  0
LINE
  5
CDC6
330
18
100
AcDbEntity
  8
1DIM
100
AcDbLine
 10
5289.02299217775
 20
-52.90226996795695
 30
0.0
 11
5343.985263287498
 21
-52.90226996795697
 31
0.0
1001
ACAD
1000
DSTYLE
1002
{
1070
    40
1040
1.0
1002
}
  0
LINE
  5
CDC7
330
18
100
AcDbEntity
  8
1DIM
100
AcDbLine
 10
5342.985263287498
 20
-85.6022699679562
 30
0.0
 11
5342.985263287498
 21
-54.90226996795697
 31
0.0
1001
ACAD
1000
DSTYLE
1002
{
1070
    40
1040
1.0
1002
}
  0
LINE
  5
CDCB
330
18
100
AcDbEntity
  8
1DIM
100
AcDbLine
 10
5162.267844180402
 20
-113.6022699679562
 30
0.0
 11
5162.267844180402
 21
-142.208650941018
 31
0.0
1001
ACAD
1000
DSTYLE
1002
{
1070
    40
1040
1.0
1002
}
  0
LINE
  5
CDCC
330
18
100
AcDbEntity
  8
1DIM
100
AcDbLine
 10
5317.267844180402
 20
-113.6022699679562
 30
0.0
 11
5317.267844180402
 21
-142.208650941018
 31
0.0
1001
ACAD
1000
DSTYLE
1002
{
1070
    40
1040
1.0
1002
}
  0
LINE
  5
CDCD
330
18
100
AcDbEntity
  8
1DIM
100
AcDbLine
 10
5164.267844180402
 20
-141.208650941018
 30
0.0
 11
5315.267844180402
 21
-141.208650941018
 31
0.0
1001
ACAD
1000
DSTYLE
1002
{
1070
    40
1040
1.0
1002
}
  0
LINE
  5
CDD1
330
18
100
AcDbEntity
  8
1DIM
100
AcDbLine
 10
5186.267844180402
 20
-117.1931869083236
 30
0.0
 11
5186.267844180402
 21
-129.7176555694949
 31
0.0
1001
ACAD
1000
DSTYLE
1002
{
1070
    40
1040
1.0
1002
}
  0
LINE
  5
CDD2
330
18
100
AcDbEntity
  8
1DIM
100
AcDbLine
 10
5317.267844180402
 20
-113.6022699679562
 30
0.0
 11
5317.267844180402
 21
-129.7176555694949
 31
0.0
1001
ACAD
1000
DSTYLE
1002
{
1070
    40
1040
1.0
1002
}
  0
LINE
  5
CDD3
330
18
100
AcDbEntity
  8
1DIM
100
AcDbLine
 10
5188.267844180402
 20
-128.7176555694949
 30
0.0
 11
5315.267844180402
 21
-128.7176555694949
 31
0.0
1001
ACAD
1000
DSTYLE
1002
{
1070
    40
1040
1.0
1002
}
  0
SOLID
  5
CDD7
330
18
100
AcDbEntity
  8
1DIM
100
AcDbTrace
 10
5164.587169525676
 20
-83.88283002850022
 30
0.0000000000563712
 11
5166.621685687936
 21
-82.20696554612823
 31
0.0000000000563712
 12
5165.240666988188
 22
-84.45208583883507
 32
0.0000000000563712
 13
5165.240666988188
 23
-84.45208583883507
 33
0.0000000000563712
1001
ACAD
1000
DSTYLE
1002
{
1070
    40
1040
1.3
1002
}
  0
LINE
  5
CDD8
330
18
100
AcDbEntity
  8
1DIM
100
AcDbLine
 10
5164.913918256932
 20
-84.16745793366765
 30
0.0000000000563712
 11
5149.052406494093
 21
-102.3762447399722
 31
0.0000000000563712
1001
ACAD
1000
DSTYLE
1002
{
1070
    40
1040
1.3
1002
}
  0
LINE
  5
CDD9
330
18
100
AcDbEntity
  8
1DIM
100
AcDbLine
 10
5149.052406494093
 20
-102.3762447399722
 30
0.0000000000563712
 11
5087.605739827426
 21
-102.3762447399722
 31
0.0000000000563712
1001
ACAD
1000
DSTYLE
1002
{
1070
    40
1040
1.3
1002
}
  0
TEXT
  5
CDDA
330
18
100
AcDbEntity
  8
1HIDDEN
  6
CONTINUOUS
100
AcDbText
 10
5087.302406494093
 20
-93.88291140663885
 30
0.0000000000563712
 40
4.55
  1
材質：亜鉛ダイキャスト
100
AcDbText
1001
ACADANNOTATIVE
1000
AnnotativeData
1002
{
1070
     1
1070
     0
1002
}
  0
TEXT
  5
CDDB
330
18
100
AcDbEntity
  8
1HIDDEN
  6
CONTINUOUS
100
AcDbText
 10
5097.312406494093
 20
-101.4662447399722
 30
0.0000000000563712
 40
4.55
  1
仕上げ：各種仕上げ
100
AcDbText
1001
ACADANNOTATIVE
1000
AnnotativeData
1002
{
1070
     1
1070
     0
1002
}
  0
SOLID
  5
CDDC
330
18
100
AcDbEntity
  8
1DIM
100
AcDbTrace
 10
5306.684640961752
 20
-112.7555985097775
 30
0.0000000000563712
 11
5305.280923222211
 21
-110.5246000146019
 31
0.0000000000563712
 12
5307.332331406698
 22
-112.179744189106
 32
0.0000000000563712
 13
5307.332331406698
 23
-112.179744189106
 33
0.0000000000563712
1001
ACAD
1000
DSTYLE
1002
{
1070
    40
1040
1.3
1002
}
  0
LINE
  5
CDDD
330
18
100
AcDbEntity
  8
1DIM
100
AcDbLine
 10
5307.008486184225
 20
-112.4676713494418
 30
0.0000000000563712
 11
5326.123100453413
 21
-133.9667772458046
 31
0.0000000000563712
1001
ACAD
1000
DSTYLE
1002
{
1070
    40
1040
1.3
1002
}
  0
LINE
  5
CDDE
330
18
100
AcDbEntity
  8
1DIM
100
AcDbLine
 10
5326.123100453413
 20
-133.9667772458046
 30
0.0000000000563712
 11
5377.711433786747
 21
-133.9667772458046
 31
0.0000000000563712
1001
ACAD
1000
DSTYLE
1002
{
1070
    40
1040
1.3
1002
}
  0
TEXT
  5
CDDF
330
18
100
AcDbEntity
  8
1DIM
  6
CONTINUOUS
100
AcDbText
 10
5329.32976712008
 20
-125.4734439124712
 30
0.0000000000563712
 40
4.55
  1
材質：強化木
100
AcDbText
  0
TEXT
  5
CDE0
330
18
100
AcDbEntity
  8
1DIM
  6
CONTINUOUS
100
AcDbText
 10
5329.481433786746
 20
-133.0567772458046
 30
0.0000000000563712
 40
4.55
  1
仕上げ：各種仕上げ
100
AcDbText
  0
LINE
  5
CDE1
330
18
100
AcDbEntity
  8
0
  6
BYBLOCK
100
AcDbLine
 10
5221.232447228177
 20
-26.00226996795628
 30
0.0000000000563712
 11
5221.929115122177
 21
-23.40226996795628
 31
0.0000000000563712
  0
LINE
  5
CDE2
330
18
100
AcDbEntity
  8
0
  6
BYBLOCK
100
AcDbLine
 10
5221.929115122177
 20
-23.40226996795628
 30
0.0000000000563712
 11
5222.625783016177
 21
-26.00226996795628
 31
0.0000000000563712
  0
LINE
  5
CDE3
330
18
100
AcDbEntity
  8
0
  6
BYBLOCK
100
AcDbLine
 10
5221.929115122177
 20
-23.40226996795628
 30
0.0000000000563712
 11
5221.929115122177
 21
-26.00226996795628
 31
0.0000000000563712
  0
LINE
  5
CDE4
330
18
100
AcDbEntity
  8
0
  6
BYBLOCK
100
AcDbLine
 10
5222.625783016177
 20
-39.60226996795623
 30
0.0000000000563712
 11
5221.929115122177
 21
-42.20226996795623
 31
0.0000000000563712
  0
LINE
  5
CDE5
330
18
100
AcDbEntity
  8
0
  6
BYBLOCK
100
AcDbLine
 10
5221.929115122177
 20
-42.20226996795623
 30
0.0000000000563712
 11
5221.232447228177
 21
-39.60226996795623
 31
0.0000000000563712
  0
LINE
  5
CDE6
330
18
100
AcDbEntity
  8
0
  6
BYBLOCK
100
AcDbLine
 10
5221.929115122177
 20
-42.20226996795623
 30
0.0000000000563712
 11
5221.929115122177
 21
-39.60226996795623
 31
0.0000000000563712
  0
TEXT
  5
CDE7
330
18
100
AcDbEntity
  8
1DIM
  6
CONTINUOUS
100
AcDbText
 10
5221.019115122176
 20
-35.83665654203014
 30
0.0000000000563712
 40
4.55
  1
19
 50
90.0
100
AcDbText
1001
ACAD
1000
DSTYLE
1002
{
1070
    45
1040
0.5
1070
    40
1040
1.3
1002
}
  0
LINE
  5
CDE8
330
18
100
AcDbEntity
  8
0
  6
BYBLOCK
100
AcDbLine
 10
4803.27077601186
 20
-300.3022699669274
 30
0.0000000000563712
 11
4802.57410811786
 21
-302.9022699669274
 31
0.0000000000563712
  0
LINE
  5
CDE9
330
18
100
AcDbEntity
  8
0
  6
BYBLOCK
100
AcDbLine
 10
4802.57410811786
 20
-302.9022699669274
 30
0.0000000000563712
 11
4801.877440223861
 21
-300.3022699669274
 31
0.0000000000563712
  0
LINE
  5
CDEA
330
18
100
AcDbEntity
  8
0
  6
BYBLOCK
100
AcDbLine
 10
4802.57410811786
 20
-302.9022699669274
 30
0.0000000000563712
 11
4802.57410811786
 21
-300.3022699669274
 31
0.0000000000563712
  0
LINE
  5
CDEB
330
18
100
AcDbEntity
  8
0
  6
BYBLOCK
100
AcDbLine
 10
4801.877440223861
 20
-250.0022699669272
 30
0.0000000000563712
 11
4802.57410811786
 21
-247.4022699669272
 31
0.0000000000563712
  0
LINE
  5
CDEC
330
18
100
AcDbEntity
  8
0
  6
BYBLOCK
100
AcDbLine
 10
4802.57410811786
 20
-247.4022699669272
 30
0.0000000000563712
 11
4803.27077601186
 21
-250.0022699669272
 31
0.0000000000563712
  0
LINE
  5
CDED
330
18
100
AcDbEntity
  8
0
  6
BYBLOCK
100
AcDbLine
 10
4802.57410811786
 20
-247.4022699669272
 30
0.0000000000563712
 11
4802.57410811786
 21
-250.0022699669272
 31
0.0000000000563712
  0
TEXT
  5
CDEE
330
18
100
AcDbEntity
  8
1DIM
  6
CONTINUOUS
100
AcDbText
 10
4801.66410811786
 20
-282.008867189149
 30
0.0000000000563712
 40
4.55
  1
55.5
 50
90.0
100
AcDbText
1001
ACAD
1000
DSTYLE
1002
{
1070
    40
1040
1.3
1070
    45
1040
0.5
1070
   341
1005
0
1002
}
  0
LINE
  5
CDEF
330
18
100
AcDbEntity
  8
0
  6
BYBLOCK
100
AcDbLine
 10
5331.001556037416
 20
-298.9009516538246
 30
0.0
 11
5331.537454417416
 21
-296.9009516538246
 31
0.0
  0
LINE
  5
CDF0
330
18
100
AcDbEntity
  8
0
  6
BYBLOCK
100
AcDbLine
 10
5331.537454417416
 20
-296.9009516538246
 30
0.0
 11
5332.073352797415
 21
-298.9009516538246
 31
0.0
  0
LINE
  5
CDF1
330
18
100
AcDbEntity
  8
0
  6
BYBLOCK
100
AcDbLine
 10
5331.537454417416
 20
-296.9009516538246
 30
0.0
 11
5331.537454417416
 21
-298.9009516538246
 31
0.0
  0
LINE
  5
CDF2
330
18
100
AcDbEntity
  8
0
  6
BYBLOCK
100
AcDbLine
 10
5332.073352797415
 20
-306.9009516538246
 30
0.0
 11
5331.537454417416
 21
-308.9009516538246
 31
0.0
  0
LINE
  5
CDF3
330
18
100
AcDbEntity
  8
0
  6
BYBLOCK
100
AcDbLine
 10
5331.537454417416
 20
-308.9009516538246
 30
0.0
 11
5331.001556037416
 21
-306.9009516538246
 31
0.0
  0
LINE
  5
CDF4
330
18
100
AcDbEntity
  8
0
  6
BYBLOCK
100
AcDbLine
 10
5331.537454417416
 20
-308.9009516538246
 30
0.0
 11
5331.537454417416
 21
-306.9009516538246
 31
0.0
  0
TEXT
  5
CDF5
330
18
100
AcDbEntity
  8
1DIM
  6
CONTINUOUS
100
AcDbText
 10
5330.837454417416
 20
-305.2342849871566
 30
0.0
 40
3.5
  1
12
 50
90.0
100
AcDbText
  0
LINE
  5
CDF6
330
18
100
AcDbEntity
  8
0
  6
BYBLOCK
100
AcDbLine
 10
5149.887191542693
 20
-290.4009516538246
 30
0.0
 11
5150.423089922693
 21
-288.4009516538246
 31
0.0
  0
LINE
  5
CDF7
330
18
100
AcDbEntity
  8
0
  6
BYBLOCK
100
AcDbLine
 10
5150.423089922693
 20
-288.4009516538246
 30
0.0
 11
5150.958988302693
 21
-290.4009516538246
 31
0.0
  0
LINE
  5
CDF8
330
18
100
AcDbEntity
  8
0
  6
BYBLOCK
100
AcDbLine
 10
5150.423089922693
 20
-288.4009516538246
 30
0.0
 11
5150.423089922693
 21
-290.4009516538246
 31
0.0
  0
LINE
  5
CDF9
330
18
100
AcDbEntity
  8
0
  6
BYBLOCK
100
AcDbLine
 10
5150.958988302693
 20
-315.4009516538246
 30
0.0
 11
5150.423089922693
 21
-317.4009516538246
 31
0.0
  0
LINE
  5
CDFA
330
18
100
AcDbEntity
  8
0
  6
BYBLOCK
100
AcDbLine
 10
5150.423089922693
 20
-317.4009516538246
 30
0.0
 11
5149.887191542693
 21
-315.4009516538246
 31
0.0
  0
LINE
  5
CDFB
330
18
100
AcDbEntity
  8
0
  6
BYBLOCK
100
AcDbLine
 10
5150.423089922693
 20
-317.4009516538246
 30
0.0
 11
5150.423089922693
 21
-315.4009516538246
 31
0.0
  0
TEXT
  5
CDFC
330
18
100
AcDbEntity
  8
1DIM
  6
CONTINUOUS
100
AcDbText
 10
5149.723089922693
 20
-305.818428505675
 30
0.0
 40
3.5
  1
29
 50
90.0
100
AcDbText
  0
LINE
  5
CDFD
330
18
100
AcDbEntity
  8
0
  6
BYBLOCK
100
AcDbLine
 10
5164.267727840659
 20
-279.6399388870739
 30
0.0
 11
5162.267727840659
 21
-279.1040405070739
 31
0.0
  0
LINE
  5
CDFE
330
18
100
AcDbEntity
  8
0
  6
BYBLOCK
100
AcDbLine
 10
5162.267727840659
 20
-279.1040405070739
 30
0.0
 11
5164.267727840659
 21
-278.5681421270739
 31
0.0
  0
LINE
  5
CDFF
330
18
100
AcDbEntity
  8
0
  6
BYBLOCK
100
AcDbLine
 10
5162.267727840659
 20
-279.1040405070739
 30
0.0
 11
5164.267727840659
 21
-279.1040405070739
 31
0.0
  0
LINE
  5
CE00
330
18
100
AcDbEntity
  8
0
  6
BYBLOCK
100
AcDbLine
 10
5208.267727840659
 20
-278.5681421270739
 30
0.0
 11
5210.267727840659
 21
-279.1040405070739
 31
0.0
  0
LINE
  5
CE01
330
18
100
AcDbEntity
  8
0
  6
BYBLOCK
100
AcDbLine
 10
5210.267727840659
 20
-279.1040405070739
 30
0.0
 11
5208.267727840659
 21
-279.6399388870739
 31
0.0
  0
LINE
  5
CE02
330
18
100
AcDbEntity
  8
0
  6
BYBLOCK
100
AcDbLine
 10
5210.267727840659
 20
-279.1040405070739
 30
0.0
 11
5208.267727840659
 21
-279.1040405070739
 31
0.0
  0
TEXT
  5
CE03
330
18
100
AcDbEntity
  8
1DIM
  6
CONTINUOUS
100
AcDbText
 10
5176.424817877368
 20
-278.4040405070739
 30
0.0
 40
3.5
  1
48
100
AcDbText
  0
LINE
  5
CE04
330
18
100
AcDbEntity
  8
0
  6
BYBLOCK
100
AcDbLine
 10
5356.157772575676
 20
-54.90226996795698
 30
0.0
 11
5356.693670955676
 21
-52.90226996795698
 31
0.0
  0
LINE
  5
CE05
330
18
100
AcDbEntity
  8
0
  6
BYBLOCK
100
AcDbLine
 10
5356.693670955676
 20
-52.90226996795698
 30
0.0
 11
5357.229569335675
 21
-54.90226996795698
 31
0.0
  0
LINE
  5
CE06
330
18
100
AcDbEntity
  8
0
  6
BYBLOCK
100
AcDbLine
 10
5356.693670955676
 20
-52.90226996795698
 30
0.0
 11
5356.693670955676
 21
-54.90226996795698
 31
0.0
  0
LINE
  5
CE07
330
18
100
AcDbEntity
  8
0
  6
BYBLOCK
100
AcDbLine
 10
5357.229569335675
 20
-112.6022699679562
 30
0.0
 11
5356.693670955676
 21
-114.6022699679562
 31
0.0
  0
LINE
  5
CE08
330
18
100
AcDbEntity
  8
0
  6
BYBLOCK
100
AcDbLine
 10
5356.693670955676
 20
-114.6022699679562
 30
0.0
 11
5356.157772575676
 21
-112.6022699679562
 31
0.0
  0
LINE
  5
CE09
330
18
100
AcDbEntity
  8
0
  6
BYBLOCK
100
AcDbLine
 10
5356.693670955676
 20
-114.6022699679562
 30
0.0
 11
5356.693670955676
 21
-112.6022699679562
 31
0.0
  0
TEXT
  5
CE0A
330
18
100
AcDbEntity
  8
1DIM
  6
CONTINUOUS
100
AcDbText
 10
5355.993670955676
 20
-89.72719490795862
 30
0.0
 40
3.5
  1
59
 50
90.0
100
AcDbText
1001
ACAD
1000
DSTYLE
1002
{
1070
    40
1040
1.0
1002
}
  0
LINE
  5
CE0B
330
18
100
AcDbEntity
  8
0
  6
BYBLOCK
100
AcDbLine
 10
5343.521161667498
 20
-85.6022699679562
 30
0.0
 11
5342.985263287498
 21
-87.6022699679562
 31
0.0
  0
LINE
  5
CE0C
330
18
100
AcDbEntity
  8
0
  6
BYBLOCK
100
AcDbLine
 10
5342.985263287498
 20
-87.6022699679562
 30
0.0
 11
5342.449364907498
 21
-85.6022699679562
 31
0.0
  0
LINE
  5
CE0D
330
18
100
AcDbEntity
  8
0
  6
BYBLOCK
100
AcDbLine
 10
5342.985263287498
 20
-87.6022699679562
 30
0.0
 11
5342.985263287498
 21
-85.6022699679562
 31
0.0
  0
LINE
  5
CE0E
330
18
100
AcDbEntity
  8
0
  6
BYBLOCK
100
AcDbLine
 10
5342.449364907498
 20
-54.90226996795697
 30
0.0
 11
5342.985263287498
 21
-52.90226996795697
 31
0.0
  0
LINE
  5
CE0F
330
18
100
AcDbEntity
  8
0
  6
BYBLOCK
100
AcDbLine
 10
5342.985263287498
 20
-52.90226996795697
 30
0.0
 11
5343.521161667498
 21
-54.90226996795697
 31
0.0
  0
LINE
  5
CE10
330
18
100
AcDbEntity
  8
0
  6
BYBLOCK
100
AcDbLine
 10
5342.985263287498
 20
-52.90226996795697
 30
0.0
 11
5342.985263287498
 21
-54.90226996795697
 31
0.0
  0
TEXT
  5
CE11
330
18
100
AcDbEntity
  8
1DIM
  6
CONTINUOUS
100
AcDbText
 10
5342.285263287498
 20
-78.22582869595044
 30
0.0
 40
3.5
  1
40.5
 50
90.0
100
AcDbText
1001
ACAD
1000
DSTYLE
1002
{
1070
    40
1040
1.0
1002
}
  0
LINE
  5
CE12
330
18
100
AcDbEntity
  8
0
  6
BYBLOCK
100
AcDbLine
 10
5164.267844180402
 20
-141.744549321018
 30
0.0
 11
5162.267844180402
 21
-141.208650941018
 31
0.0
  0
LINE
  5
CE13
330
18
100
AcDbEntity
  8
0
  6
BYBLOCK
100
AcDbLine
 10
5162.267844180402
 20
-141.208650941018
 30
0.0
 11
5164.267844180402
 21
-140.6727525610181
 31
0.0
  0
LINE
  5
CE14
330
18
100
AcDbEntity
  8
0
  6
BYBLOCK
100
AcDbLine
 10
5162.267844180402
 20
-141.208650941018
 30
0.0
 11
5164.267844180402
 21
-141.208650941018
 31
0.0
  0
LINE
  5
CE15
330
18
100
AcDbEntity
  8
0
  6
BYBLOCK
100
AcDbLine
 10
5315.267844180402
 20
-140.6727525610181
 30
0.0
 11
5317.267844180402
 21
-141.208650941018
 31
0.0
  0
LINE
  5
CE16
330
18
100
AcDbEntity
  8
0
  6
BYBLOCK
100
AcDbLine
 10
5317.267844180402
 20
-141.208650941018
 30
0.0
 11
5315.267844180402
 21
-141.744549321018
 31
0.0
  0
LINE
  5
CE17
330
18
100
AcDbEntity
  8
0
  6
BYBLOCK
100
AcDbLine
 10
5317.267844180402
 20
-141.208650941018
 30
0.0
 11
5315.267844180402
 21
-141.208650941018
 31
0.0
  0
TEXT
  5
CE18
330
18
100
AcDbEntity
  8
1DIM
  6
CONTINUOUS
100
AcDbText
 10
5235.672358069291
 20
-140.5086509410181
 30
0.0
 40
3.5
  1
155
100
AcDbText
1001
ACAD
1000
DSTYLE
1002
{
1070
    40
1040
1.0
1002
}
  0
LINE
  5
CE19
330
18
100
AcDbEntity
  8
0
  6
BYBLOCK
100
AcDbLine
 10
5188.267844180402
 20
-129.2535539494949
 30
0.0
 11
5186.267844180402
 21
-128.7176555694949
 31
0.0
  0
LINE
  5
CE1A
330
18
100
AcDbEntity
  8
0
  6
BYBLOCK
100
AcDbLine
 10
5186.267844180402
 20
-128.7176555694949
 30
0.0
 11
5188.267844180402
 21
-128.1817571894949
 31
0.0
  0
LINE
  5
CE1B
330
18
100
AcDbEntity
  8
0
  6
BYBLOCK
100
AcDbLine
 10
5186.267844180402
 20
-128.7176555694949
 30
0.0
 11
5188.267844180402
 21
-128.7176555694949
 31
0.0
  0
LINE
  5
CE1C
330
18
100
AcDbEntity
  8
0
  6
BYBLOCK
100
AcDbLine
 10
5315.267844180402
 20
-128.1817571894949
 30
0.0
 11
5317.267844180402
 21
-128.7176555694949
 31
0.0
  0
LINE
  5
CE1D
330
18
100
AcDbEntity
  8
0
  6
BYBLOCK
100
AcDbLine
 10
5317.267844180402
 20
-128.7176555694949
 30
0.0
 11
5315.267844180402
 21
-129.2535539494949
 31
0.0
  0
LINE
  5
CE1E
330
18
100
AcDbEntity
  8
0
  6
BYBLOCK
100
AcDbLine
 10
5317.267844180402
 20
-128.7176555694949
 30
0.0
 11
5315.267844180402
 21
-128.7176555694949
 31
0.0
  0
TEXT
  5
CE1F
330
18
100
AcDbEntity
  8
1DIM
  6
CONTINUOUS
100
AcDbText
 10
5248.267844180402
 20
-128.0176555694949
 30
0.0
 40
3.5
  1
131
100
AcDbText
1001
ACAD
1000
DSTYLE
1002
{
1070
    40
1040
1.0
1002
}
  0
VIEWPORT
  5
57
330
15
100
AcDbEntity
 67
     1
  8
0
100
AcDbViewport
 68
     1
 10
0.0
 20
0.0
 30
0.0
 40
639.1804245283018
 41
297.0
 68
     1
 69
     1
1001
ACAD
1000
MVIEW
1002
{
1070
    16
1010
0.0
1020
0.0
1030
0.0
1010
0.0
1020
0.0
1030
1.0
1040
0.0
1040
297.0
1040
5.728000000000009
1040
25.339
1040
50.0
1040
0.0
1040
0.0
1070
    16
1070
   100
1070
     0
1070
     1
1070
     0
1070
     0
1070
     0
1070
     0
1040
0.0
1040
0.0
1040
0.0
1040
10.0
1040
10.0
1040
10.0
1040
10.0
1070
     0
1002
{
1002
}
1002
}
  0
ENDSEC
  0
SECTION
  2
OBJECTS
  0
DICTIONARY
  5
C
330
0
100
AcDbDictionary
  3
ACAD_CIP_PREVIOUS_PRODUCT_INFO
350
AD5D
  3
ACAD_COLOR
350
18D
  3
ACAD_GROUP
350
D
  3
ACAD_LAYOUT
350
18E
  3
ACAD_MATERIAL
350
18C
  3
ACAD_MLEADERSTYLE
350
9583
  3
ACAD_MLINESTYLE
350
1B
  3
ACAD_PLOTSETTINGS
350
18F
  3
ACAD_SCALELIST
350
9561
  3
ACAD_VISUALSTYLE
350
9550
  3
ACDBHEADERROUNDTRIPXREC
350
CE20
  3
ACDBVARIABLEDICTIONARY
350
37
  3
AEC_PROPERTY_SET_DEFS
350
AE18
  3
CONTENTDICTIONARY
350
D8
  3
DRAWINGVARIABLESDICT
350
20
  3
DWGPROPS
350
CE23
1001
ACAD
1000
TREAT_AS_HARD
1070
     0
  0
DICTIONARY
  5
96D9
330
2
100
AcDbDictionary
  3
ACAD_LAYERSTATES
360
96DA
1001
ACAD
1000
TREAT_AS_HARD
1070
     1
  0
DICTIONARY
  5
9593
330
E
100
AcDbDictionary
  3
ADSK_XREC_LAYER_RECONCILED
360
9594
1001
ACAD
1000
TREAT_AS_HARD
1070
     1
  0
DICTIONARY
  5
9595
330
29
100
AcDbDictionary
  3
ADSK_XREC_LAYER_RECONCILED
360
9596
1001
ACAD
1000
TREAT_AS_HARD
1070
     1
  0
DICTIONARY
  5
9597
330
31
100
AcDbDictionary
  3
ADSK_XREC_LAYER_RECONCILED
360
9598
1001
ACAD
1000
TREAT_AS_HARD
1070
     1
  0
DICTIONARY
  5
959D
330
243
100
AcDbDictionary
  3
ADSK_XREC_LAYER_RECONCILED
360
959E
1001
ACAD
1000
TREAT_AS_HARD
1070
     1
  0
DICTIONARY
  5
95A3
330
24E
100
AcDbDictionary
  3
ADSK_XREC_LAYER_RECONCILED
360
95A4
1001
ACAD
1000
TREAT_AS_HARD
1070
     1
  0
DICTIONARY
  5
95AF
330
2C05
100
AcDbDictionary
  3
ADSK_XREC_LAYER_RECONCILED
360
95B0
1001
ACAD
1000
TREAT_AS_HARD
1070
     1
  0
DICTIONARY
  5
88F
330
18
100
AcDbDictionary
  3
ACAD_SORTENTS
360
890
1001
ACAD
1000
TREAT_AS_HARD
1070
     1
  0
DICTIONARY
  5
CC6C
330
15
100
AcDbDictionary
  3
ACAD_SORTENTS
360
CC6D
1001
ACAD
1000
TREAT_AS_HARD
1070
     1
  0
XRECORD
  5
AD5D
102
{ACAD_REACTORS
330
C
102
}
330
C
100
AcDbXrecord
300
ACDLT
300
2012
300
ACDLT_F_S
  0
DICTIONARY
  5
18D
102
{ACAD_REACTORS
330
C
102
}
330
C
100
AcDbDictionary
1001
ACAD
1000
TREAT_AS_HARD
1070
     0
  0
DICTIONARY
  5
D
102
{ACAD_REACTORS
330
C
102
}
330
C
100
AcDbDictionary
1001
ACAD
1000
TREAT_AS_HARD
1070
     0
  0
DICTIONARY
  5
18E
102
{ACAD_REACTORS
330
C
102
}
330
C
100
AcDbDictionary
1001
ACAD
1000
TREAT_AS_HARD
1070
     0
  0
DICTIONARY
  5
18C
102
{ACAD_REACTORS
330
C
102
}
330
C
100
AcDbDictionary
  3
BYBLOCK
350
9540
  3
BYLAYER
350
9538
  3
GLOBAL
350
9548
1001
ACAD
1000
TREAT_AS_HARD
1070
     0
  0
DICTIONARY
  5
9583
102
{ACAD_REACTORS
330
C
102
}
330
C
100
AcDbDictionary
  3
STANDARD
350
9584
1001
ACAD
1000
TREAT_AS_HARD
1070
     0
  0
DICTIONARY
  5
1B
102
{ACAD_REACTORS
330
C
102
}
330
C
100
AcDbDictionary
  3
STANDARD
350
1C
1001
ACAD
1000
TREAT_AS_HARD
1070
     0
  0
DICTIONARY
  5
18F
102
{ACAD_REACTORS
330
C
102
}
330
C
100
AcDbDictionary
1001
ACAD
1000
TREAT_AS_HARD
1070
     0
  0
DICTIONARY
  5
9561
102
{ACAD_REACTORS
330
C
102
}
330
C
100
AcDbDictionary
  3
A0
350
9562
  3
A1
350
9563
  3
A2
350
9564
  3
A3
350
9565
  3
A4
350
9566
  3
A5
350
9567
  3
A6
350
9568
  3
A7
350
9569
  3
A8
350
956A
  3
A9
350
956B
  3
B0
350
956C
  3
B1
350
956D
  3
B2
350
956E
  3
B3
350
956F
  3
B4
350
9570
  3
B5
350
9571
  3
B6
350
9572
  3
B7
350
9573
  3
B8
350
9574
  3
B9
350
9575
  3
C0
350
9576
  3
C1
350
9577
  3
C2
350
9578
  3
C3
350
9579
  3
C4
350
957A
  3
C5
350
957B
  3
C6
350
957C
  3
C7
350
957D
  3
C8
350
957E
  3
C9
350
957F
  3
D0
350
9580
  3
D1
350
9581
  3
D2
350
9582
1001
ACAD
1000
TREAT_AS_HARD
1070
     0
  0
DICTIONARY
  5
9550
102
{ACAD_REACTORS
330
C
102
}
330
C
100
AcDbDictionary
  3
2DWIREFRAME
350
9556
  3
3D_HIDDEN
350
9558
  3
3DWIREFRAME
350
9557
  3
BASIC
350
9555
  3
BRIGHTEN
350
955C
  3
COLORCHANGE
350
9560
  3
CONCEPTUAL
350
9559
  3
DIM
350
955B
  3
EDGECOLOROFF
350
A211
  3
FACEPATTERN
350
955F
  3
FLAT
350
9551
  3
FLATWITHEDGES
350
9552
  3
GOURAUD
350
9553
  3
GOURAUDWITHEDGES
350
9554
  3
HIDDEN
350
A260
  3
JITTEROFF
350
A20F
  3
LINEPATTERN
350
955E
  3
MODELING
350
A266
  3
OVERHANGOFF
350
A210
  3
REALISTIC
350
955A
  3
SHADED
350
A265
  3
SHADED_WITH_EDGES
350
A264
  3
SHADES_OF_GRAY
350
A261
  3
SKETCHY
350
A262
  3
THICKEN
350
955D
  3
WIREFRAME
350
A25F
  3
X-RAY
350
A263
1001
ACAD
1000
TREAT_AS_HARD
1070
     0
  0
DICTIONARY
  5
CE20
102
{ACAD_REACTORS
330
C
102
}
330
C
100
AcDbDictionary
  3
COLORDICT
350
CE21
  3
MATERIALDICT
350
CE22
1001
ACAD
1000
TREAT_AS_HARD
1070
     0
  0
DICTIONARY
  5
37
102
{ACAD_REACTORS
330
C
102
}
330
C
100
AcDbDictionary
  3
CANNOSCALE
350
AAE0
  3
CMLEADERSTYLE
350
9627
  3
CTABLESTYLE
350
29E
  3
DIMADEC
350
38
  3
DIMASSOC
350
1CE
  3
HIDETEXT
350
704E
  3
INDEXCTL
350
962A
  3
INTERSECTIONCOLOR
350
7052
  3
INTERSECTIONDISPLAY
350
7051
  3
MSLTSCALE
350
AB30
  3
OBSCOLOR
350
704F
  3
OBSLTYPE
350
7050
  3
PROJECTNAME
350
1CF
  3
SORTENTS
350
9629
  3
XCLIPFRAME
350
CC84
1001
ACAD
1000
TREAT_AS_HARD
1070
     0
  0
DICTIONARY
  5
AE18
102
{ACAD_REACTORS
330
C
102
}
330
C
100
AcDbDictionary
1001
ACAD
1000
TREAT_AS_HARD
1070
     0
  0
DICTIONARY
  5
D8
102
{ACAD_REACTORS
330
C
102
}
330
C
100
AcDbDictionary
1001
ACAD
1000
TREAT_AS_HARD
1070
     0
  0
DICTIONARY
  5
20
102
{ACAD_REACTORS
330
C
102
}
330
C
100
AcDbDictionary
1001
DRAWINGVARIABLESXDATA
1000
POLARANG
1000
0.261799387799149410000000
1000
POLARMODE
1000
1
1000
POLARSTYLE
1000
1
1001
ACAD
1000
TREAT_AS_HARD
1070
     0
  0
XRECORD
  5
CE23
102
{ACAD_REACTORS
330
C
102
}
330
C
100
AcDbXrecord
  1
DWGPROPS COOKIE
  2

  3

  4

  6

  7

  8
3684
  9

300
=
301
=
302
=
303
=
304
=
305
=
306
=
307
=
308
=
309
=
 40
0.0
 41
2451318.246352917
 42
2458726.007575845
  1

 90
        0
  0
DICTIONARY
  5
96DA
102
{ACAD_REACTORS
330
96D9
102
}
330
96D9
100
AcDbDictionary
1001
ACAD
1000
TREAT_AS_HARD
1070
     0
  0
ACAD_PROXY_OBJECT
  5
9594
102
{ACAD_REACTORS
330
9593
102
}
330
9593
100
AcDbZombieObject
 90
      499
 91
      514
 93
       34
310
40C8804040
  0
ACAD_PROXY_OBJECT
  5
9596
102
{ACAD_REACTORS
330
9595
102
}
330
9595
100
AcDbZombieObject
 90
      499
 91
      514
 93
       34
310
40C8804040
  0
ACAD_PROXY_OBJECT
  5
9598
102
{ACAD_REACTORS
330
9597
102
}
330
9597
100
AcDbZombieObject
 90
      499
 91
      514
 93
       34
310
40C8804040
  0
ACAD_PROXY_OBJECT
  5
959E
102
{ACAD_REACTORS
330
959D
102
}
330
959D
100
AcDbZombieObject
 90
      499
 91
      514
 93
       34
310
40C8804040
  0
ACAD_PROXY_OBJECT
  5
95A4
102
{ACAD_REACTORS
330
95A3
102
}
330
95A3
100
AcDbZombieObject
 90
      499
 91
      514
 93
       34
310
40C8804040
  0
ACAD_PROXY_OBJECT
  5
95B0
102
{ACAD_REACTORS
330
95AF
102
}
330
95AF
100
AcDbZombieObject
 90
      499
 91
      514
 93
       34
310
40C8804040
  0
SORTENTSTABLE
  5
890
102
{ACAD_REACTORS
330
88F
102
}
330
88F
100
AcDbSortentsTable
330
18
331
0
  5
B874
331
B873
  5
B88B
331
B874
  5
B88C
331
B875
  5
B890
331
0
  5
B878
331
0
  5
B87A
331
B879
  5
B8A5
331
B87D
  5
B8A6
331
B87E
  5
B8A7
331
B87F
  5
B8A8
331
B880
  5
B8A9
331
B881
  5
B8AA
331
B882
  5
B8AB
331
B883
  5
B8AC
331
B884
  5
B8AD
331
B885
  5
B8AE
331
B886
  5
B8AF
331
B887
  5
B8B0
331
B888
  5
B8B1
331
B889
  5
B8B2
331
B88A
  5
B8B3
331
B88B
  5
B8B4
331
B88C
  5
B8B5
331
B88D
  5
B8B6
331
B88E
  5
B8B7
331
B88F
  5
B8B8
331
B890
  5
B8B9
331
B891
  5
B8BA
331
B892
  5
B8BB
331
B893
  5
B8BC
331
B894
  5
B8BD
331
B895
  5
B8C2
331
B896
  5
B8C3
331
B897
  5
B8C4
331
B898
  5
B8C5
331
B899
  5
B8C6
331
B89A
  5
B8C7
331
B89B
  5
B8C8
331
B89C
  5
B8C9
331
B89D
  5
B8CA
331
B89E
  5
B8CB
331
B89F
  5
B8CC
331
B8A0
  5
B8CD
331
B8A1
  5
B8CE
331
B8A2
  5
B8CF
331
B8A3
  5
B8D0
331
B8A4
  5
B8D1
331
B8A5
  5
B8D2
331
B8A6
  5
B8D3
331
B8A7
  5
B8D4
331
B8A8
  5
B8D5
331
B8A9
  5
B8D6
331
B8AA
  5
B8D7
331
B8AB
  5
B8D8
331
B8AC
  5
B8D9
331
B8AD
  5
B8DA
331
B8AE
  5
B8DB
331
B8AF
  5
B8DC
331
B8B0
  5
B8DD
331
B8B1
  5
B8DE
331
B8B2
  5
B8DF
331
B8B3
  5
B8E0
331
B8B4
  5
B8E1
331
B8B5
  5
B8E2
331
B8B6
  5
B8E3
331
B8B7
  5
B8E4
331
B8B8
  5
B8E5
331
B8B9
  5
B8E6
331
B8BA
  5
B8EE
331
B8BB
  5
B8FA
331
0
  5
B8FB
331
B8C1
  5
B914
331
B8C2
  5
B921
331
B8C3
  5
B922
331
B8C4
  5
B923
331
B8C5
  5
B924
331
B8C6
  5
B928
331
B8C7
  5
B929
331
B8C8
  5
B92A
331
B8C9
  5
B92E
331
B8CA
  5
B930
331
B8CB
  5
B931
331
B8CC
  5
B935
331
B8CD
  5
B936
331
B8CE
  5
B937
331
B8CF
  5
B938
331
B8D0
  5
B939
331
B8D1
  5
B93A
331
B8D2
  5
B93B
331
B8D3
  5
B93C
331
B8D4
  5
B942
331
B8D5
  5
B943
331
B8D6
  5
B944
331
B8D7
  5
B945
331
B8D8
  5
B946
331
B8D9
  5
B947
331
B8DA
  5
B949
331
B8DB
  5
B94B
331
B8DC
  5
BAA0
331
B8DD
  5
BAA5
331
B8DE
  5
BD43
331
B8DF
  5
BD44
331
B8E0
  5
BD45
331
B8E1
  5
BD54
331
B8E2
  5
BD55
331
B8E3
  5
BD56
331
B8E4
  5
BD57
331
0
  5
B8E7
331
0
  5
B8E8
331
0
  5
B8E9
331
B8E8
  5
BD77
331
B8F3
  5
BD78
331
B8F9
  5
BD79
331
B8FA
  5
BD7A
331
B8FB
  5
BD7B
331
B8FC
  5
BD7F
331
B8FD
  5
BD80
331
B8FE
  5
BD81
331
B8FF
  5
BD85
331
B900
  5
BD86
331
B901
  5
BD87
331
B902
  5
BD8B
331
B903
  5
BD8C
331
B904
  5
BD8D
331
B905
  5
BD8E
331
B911
  5
BD8F
331
B912
  5
BD90
331
B919
  5
BD91
331
B91A
  5
BD92
331
B920
  5
BD93
331
B921
  5
BD94
331
B922
  5
BD95
331
B923
  5
BD96
331
B924
  5
BD97
331
B925
  5
BD98
331
B926
  5
BD99
331
B927
  5
BD9A
331
B928
  5
BD9B
331
B929
  5
BD9C
331
B92A
  5
BD9D
331
B92B
  5
BD9E
331
B92C
  5
BD9F
331
B92E
  5
BDA0
331
B92F
  5
BDA1
331
B930
  5
BDA2
331
B931
  5
BDA3
331
B932
  5
BDA4
331
B933
  5
BDA5
331
B934
  5
BDA6
331
B935
  5
BDA7
331
B936
  5
BDA8
331
B937
  5
BDA9
331
B938
  5
BDAA
331
B939
  5
BDAB
331
B93B
  5
BDAC
331
B940
  5
BDAD
331
B941
  5
BDAE
331
B942
  5
BDAF
331
B943
  5
BDB0
331
B944
  5
BDB1
331
B945
  5
BDB2
331
B947
  5
BDB3
331
B949
  5
BDB4
331
B94A
  5
BDB5
331
BD3F
  5
BDB6
331
BD40
  5
BDB7
331
BD41
  5
BDB8
331
0
  5
BD46
331
0
  5
BD4F
331
0
  5
BD50
331
0
  5
C77F
331
BD51
  5
C902
331
BD52
  5
C903
331
BD53
  5
C904
331
BD54
  5
C905
331
BD55
  5
C906
331
BD56
  5
C907
331
BD57
  5
C908
331
BD58
  5
C909
331
BD59
  5
C90A
331
BD5A
  5
C90B
331
BD5B
  5
C90C
331
BD5C
  5
C90D
331
BD5D
  5
C90E
331
BD5E
  5
C90F
331
BD5F
  5
C910
331
BD60
  5
C911
331
BD61
  5
C915
331
BD62
  5
C916
331
BD63
  5
C917
331
BD65
  5
C918
331
BD66
  5
C919
331
BD67
  5
C91A
331
BD68
  5
C91B
331
BD69
  5
C91C
331
BD6A
  5
C91D
331
BD6B
  5
C91E
331
BD6C
  5
C91F
331
BD6D
  5
C920
331
BD6E
  5
C921
331
BD6F
  5
C922
331
BD70
  5
C923
331
BD71
  5
C924
331
BD72
  5
C925
331
BD73
  5
C926
331
BD74
  5
C927
331
BD75
  5
C928
331
BD76
  5
C929
331
BD77
  5
C92A
331
BD78
  5
C92B
331
BD79
  5
C92C
331
BD7A
  5
C92D
331
BD7B
  5
C92E
331
BD7C
  5
C92F
331
BD7D
  5
C930
331
BD7E
  5
C931
331
BD7F
  5
C932
331
BD80
  5
C933
331
BD81
  5
C934
331
BD82
  5
C935
331
BD83
  5
C936
331
BD84
  5
C937
331
BD85
  5
C938
331
BD86
  5
C939
331
BD87
  5
C93A
331
BD88
  5
C93B
331
BD89
  5
C93C
331
BD8A
  5
C93D
331
BD8B
  5
C93E
331
BD8C
  5
C93F
331
BD8D
  5
C940
331
BD8E
  5
C941
331
BD8F
  5
C942
331
BD90
  5
C943
331
BD91
  5
C944
331
BD92
  5
C945
331
BD93
  5
C946
331
BD94
  5
C947
331
BD95
  5
C948
331
BD96
  5
C949
331
BD97
  5
C94A
331
BD98
  5
C94B
331
BD99
  5
C94C
331
BD9A
  5
C94D
331
BD9B
  5
C94E
331
BD9C
  5
C94F
331
BD9D
  5
C950
331
BD9E
  5
C951
331
BD9F
  5
C952
331
BDA0
  5
C953
331
BDA1
  5
C954
331
BDA2
  5
C955
331
BDA3
  5
C956
331
BDA4
  5
C957
331
BDA5
  5
C958
331
BDA6
  5
C959
331
BDA7
  5
C95A
331
BDA8
  5
C95B
331
BDA9
  5
C95C
331
BDAA
  5
C95D
331
BDAB
  5
C95E
331
BDAC
  5
C95F
331
BDAD
  5
C960
331
BDAE
  5
C961
331
BDAF
  5
C962
331
BDB0
  5
C963
331
BDB1
  5
C964
331
BDB2
  5
C965
331
BDB3
  5
C966
331
BDB4
  5
C967
331
BDB5
  5
C968
331
BDB6
  5
C969
331
BDB7
  5
C96A
331
0
  5
BFEB
331
BFEB
  5
C975
331
BFEC
  5
C976
331
BFED
  5
C977
331
C043
  5
C978
331
C058
  5
C979
331
C06F
  5
C97A
331
C070
  5
C97B
331
C3A2
  5
C97C
331
C779
  5
C97D
331
C77A
  5
C97E
331
C77B
  5
C97F
331
C77C
  5
C980
331
C77D
  5
C981
331
C77E
  5
C982
331
C77F
  5
C983
331
C780
  5
C984
331
C781
  5
C985
331
C782
  5
C986
331
C783
  5
C987
331
C784
  5
C988
331
C785
  5
C989
331
C786
  5
C98A
331
C787
  5
C98B
331
C788
  5
C98C
331
C789
  5
C98D
331
C85E
  5
C98E
331
C85F
  5
C98F
331
C860
  5
C990
331
C862
  5
C991
331
C863
  5
C992
331
C8F7
  5
C993
331
C8F8
  5
C994
331
C8F9
  5
C995
331
C8FA
  5
C996
331
C8FB
  5
C997
331
C8FC
  5
C998
331
C8FD
  5
C999
331
C8FE
  5
C99A
331
C8FF
  5
C99B
331
C900
  5
C99C
331
C901
  5
C99D
331
C902
  5
C99E
331
C903
  5
C99F
331
C904
  5
C9A0
331
C905
  5
C9A1
331
C906
  5
C9A2
331
C907
  5
C9A3
331
C908
  5
C9A4
331
C909
  5
C9A5
331
C90A
  5
C9A6
331
C90B
  5
C9A7
331
C90C
  5
C9A8
331
C90D
  5
C9AA
331
C90E
  5
C9AB
331
C90F
  5
C9AC
331
C910
  5
C9AD
331
C911
  5
C9AE
331
C912
  5
C9AF
331
C913
  5
C9B0
331
C914
  5
C9B1
331
C915
  5
C9B2
331
C916
  5
C9B3
331
C917
  5
C9B4
331
C918
  5
C9B5
331
C919
  5
C9B6
331
C91A
  5
C9B7
331
C91B
  5
C9B8
331
C91C
  5
C9BC
331
C91D
  5
C9BD
331
C91E
  5
C9BE
331
C91F
  5
C9BF
331
C920
  5
C9C0
331
C921
  5
C9C1
331
C922
  5
C9C2
331
C923
  5
C9C3
331
C924
  5
C9C4
331
C925
  5
C9C5
331
C926
  5
C9C6
331
0
  5
C9A9
331
C928
  5
C9D2
331
C929
  5
CA6F
331
C92A
  5
CA70
331
C92B
  5
CA71
331
C92C
  5
CA72
331
C92D
  5
CA73
331
C92E
  5
CA74
331
C92F
  5
CC3A
331
C930
  5
CC3B
331
C931
  5
CC3C
331
C932
  5
CD1F
331
C933
  5
CD20
331
C934
  5
CD21
331
C935
  5
CD25
331
C936
  5
CD26
331
C937
  5
CD27
331
C938
  5
CD28
331
C939
  5
CD29
331
C93A
  5
CD2A
331
C93B
  5
CD2B
331
C93C
  5
CD2C
331
C93D
  5
CD2D
331
C93E
  5
CD2E
331
C93F
  5
CD2F
331
C940
  5
CD30
331
C941
  5
CD31
331
C942
  5
CD32
331
C943
  5
CD33
331
C944
  5
CD34
331
C945
  5
CD36
331
C946
  5
CD37
331
0
  5
C9C9
331
C948
  5
CD42
331
C949
  5
CD43
331
C94A
  5
CD44
331
C94B
  5
CD45
331
C94C
  5
CD46
331
C94D
  5
CD47
331
C94E
  5
CD48
331
C94F
  5
CD49
331
C950
  5
CD4A
331
C951
  5
CD4B
331
C952
  5
CD4C
331
C953
  5
CD4D
331
C954
  5
CD4E
331
C955
  5
CD4F
331
C956
  5
CD50
331
C957
  5
CD54
331
C958
  5
CD55
331
C959
  5
CD56
331
C95A
  5
CD57
331
C95B
  5
CD58
331
C95C
  5
CD59
331
C95D
  5
CD5A
331
C95E
  5
CD5B
331
C95F
  5
CD5E
331
C960
  5
CD5F
331
C961
  5
CD60
331
C962
  5
CD61
331
C963
  5
CD62
331
C964
  5
CD63
331
C965
  5
CD64
331
C966
  5
CD65
331
C967
  5
CD66
331
C968
  5
CD67
331
C969
  5
CD68
331
C96A
  5
CD69
331
C96B
  5
CD6A
331
C96C
  5
CD6B
331
C96D
  5
CD6C
331
C96E
  5
CD6D
331
C96F
  5
CD6E
331
0
  5
CD35
331
C971
  5
CD7B
331
C972
  5
CD7C
331
C973
  5
CD81
331
C974
  5
CD82
331
C975
  5
CD83
331
C976
  5
CD84
331
C977
  5
CD88
331
C978
  5
CD89
331
C979
  5
CD8A
331
C97A
  5
CD8E
331
C97B
  5
CD8F
331
C97C
  5
CD90
331
C97D
  5
CD91
331
C97E
  5
CD92
331
C97F
  5
CD93
331
C980
  5
CD94
331
C981
  5
CD95
331
C982
  5
CD96
331
C983
  5
CD97
331
C984
  5
CD98
331
C985
  5
CD99
331
C986
  5
CD9A
331
C987
  5
CD9B
331
C988
  5
CD9C
331
C989
  5
CD9D
331
C98A
  5
CD9E
331
C98B
  5
CD9F
331
C98C
  5
CDA0
331
C98D
  5
CDA1
331
C98E
  5
CDA2
331
C98F
  5
CDA3
331
C990
  5
CDA4
331
C991
  5
CDA5
331
C992
  5
CDA6
331
C993
  5
CDA7
331
C994
  5
CDA8
331
C995
  5
CDAC
331
C996
  5
CDAD
331
0
  5
CD5C
331
0
  5
CD5D
331
C999
  5
CDC5
331
C99A
  5
CDC6
331
C99B
  5
CDC7
331
C99C
  5
CDC8
331
C99D
  5
CDCA
331
C99E
  5
CDCB
331
C99F
  5
CDCC
331
C9A0
  5
CDCD
331
C9A1
  5
CDCE
331
C9A2
  5
CDCF
331
C9A3
  5
CDD0
331
C9A4
  5
CDD1
331
C9A5
  5
CDD2
331
C9A6
  5
CDD3
331
C9A7
  5
CDD4
331
C9A8
  5
CDD5
331
C9A9
  5
CDD6
331
C9AA
  5
CDD7
331
C9AB
  5
CDD8
331
C9AC
  5
CDD9
331
C9AD
  5
CDDA
331
C9AE
  5
CDDC
331
0
  5
CD76
331
0
  5
CD77
331
C9B1
  5
CDF1
331
C9B2
  5
CDF3
331
C9B3
  5
CDF4
331
C9B4
  5
CDF5
331
0
  5
CD7D
331
0
  5
CD7E
331
0
  5
CD7F
331
0
  5
CD80
331
C9B9
  5
CE00
331
C9BA
  5
CE01
331
C9BB
  5
CE02
331
C9BC
  5
CE03
331
C9BD
  5
CE05
331
C9BE
  5
CE06
331
C9BF
  5
CE07
331
C9C0
  5
CE08
331
C9C1
  5
CE09
331
C9C2
  5
CE0A
331
C9C3
  5
CE0B
331
C9C4
  5
CE0C
331
C9C5
  5
CE0D
331
C9C6
  5
CE0E
331
C9C7
  5
CE0F
331
C9C8
  5
CE10
331
C9C9
  5
CE11
331
C9CA
  5
CE12
331
C9CB
  5
CE13
331
C9CC
  5
CE14
331
C9CD
  5
CE15
331
C9CE
  5
CE17
331
C9CF
  5
CE18
331
C9D0
  5
CE1A
331
C9D1
  5
CE1B
331
C9D2
  5
CE1C
331
CA6F
  5
CDF2
331
CA70
  5
CDC9
331
CA71
  5
CDDB
331
CA72
  5
CE16
331
CA73
  5
CE19
331
CA74
  5
CE04
331
CC3A
  5
CE1D
331
CC3B
  5
CE1E
331
CC3C
  5
CE1F
331
CD1F
  5
B875
331
CD20
  5
B876
331
CD21
  5
B877
331
0
  5
B87E
331
0
  5
B87F
331
0
  5
B880
331
CD25
  5
B891
331
CD26
  5
B892
331
CD27
  5
B893
331
0
  5
B887
331
0
  5
B888
331
0
  5
B889
331
CD2B
  5
B89B
331
CD2C
  5
B89C
331
CD2D
  5
B89D
331
0
  5
B88D
331
0
  5
B88E
331
0
  5
B88F
331
CD31
  5
BD58
331
CD32
  5
BD59
331
CD33
  5
BD5A
331
0
  5
B925
331
0
  5
B926
331
0
  5
B927
331
CD37
  5
BD62
331
CD38
  5
BD63
331
CD39
  5
BD64
331
0
  5
B92B
331
0
  5
B92C
331
0
  5
B92D
331
CD3D
  5
BD6D
331
CD3E
  5
BD6E
331
CD3F
  5
BD6F
331
0
  5
B932
331
0
  5
B933
331
0
  5
B934
331
CD43
  5
BDB9
331
CD44
  5
BDBA
331
CD45
  5
BDC4
331
0
  5
BD7C
331
0
  5
BD7D
331
0
  5
BD7E
331
CD49
  5
C3A2
331
CD4A
  5
C779
331
CD4B
  5
C77A
331
0
  5
BD82
331
0
  5
BD83
331
0
  5
BD84
331
CD4F
  5
C783
331
CD50
  5
C784
331
CD51
  5
C785
331
0
  5
BD88
331
0
  5
BD89
331
0
  5
BD8A
331
CD55
  5
C96B
331
CD56
  5
C96C
331
CD57
  5
C96D
331
0
  5
C912
331
0
  5
C913
331
0
  5
C914
331
CD5B
  5
B881
331
CD5C
  5
B882
331
CD5D
  5
B883
331
CD5E
  5
B884
331
CD5F
  5
B885
331
CD60
  5
B886
331
CD61
  5
B88A
331
CD62
  5
B894
331
CD63
  5
B895
331
CD64
  5
B896
331
CD65
  5
B897
331
CD66
  5
B898
331
CD67
  5
B899
331
CD68
  5
B89A
331
CD69
  5
B89E
331
CD6A
  5
B89F
331
CD6B
  5
B8A0
331
CD6C
  5
B8A1
331
CD6D
  5
B8A2
331
CD6E
  5
B8A3
331
CD6F
  5
B8A4
331
CD70
  5
BD5B
331
CD71
  5
BD5C
331
CD72
  5
BD5D
331
CD73
  5
BD5E
331
CD74
  5
BD5F
331
CD75
  5
BD60
331
CD76
  5
BD61
331
CD77
  5
BD65
331
CD78
  5
BD66
331
CD79
  5
BD68
331
CD7A
  5
BD69
331
CD7B
  5
BD6A
331
CD7C
  5
BD6B
331
CD7D
  5
BD6C
331
CD7E
  5
BD70
331
CD7F
  5
BD71
331
CD80
  5
BD72
331
CD81
  5
BD73
331
CD82
  5
BD74
331
CD83
  5
BD75
331
CD84
  5
BD76
331
CD85
  5
BFEC
331
CD86
  5
BFED
331
CD87
  5
BFEE
331
CD88
  5
C044
331
CD89
  5
C059
331
CD8A
  5
C070
331
CD8B
  5
C071
331
CD8C
  5
C77B
331
CD8D
  5
C77C
331
CD8E
  5
C77D
331
CD8F
  5
C77E
331
CD90
  5
C780
331
CD91
  5
C781
331
CD92
  5
C782
331
CD93
  5
C786
331
CD94
  5
C787
331
CD95
  5
C788
331
CD96
  5
C860
331
CD97
  5
C862
331
CD98
  5
C863
331
CD99
  5
C8F7
331
CD9A
  5
C96E
331
CD9B
  5
C96F
331
CD9C
  5
C970
331
CD9D
  5
C971
331
CD9E
  5
C972
331
CD9F
  5
C973
331
CDA0
  5
C974
331
CDA1
  5
B8FC
331
CDA2
  5
B8FD
331
CDA3
  5
B8FE
331
0
  5
B8FF
331
0
  5
B900
331
0
  5
B901
331
CDA7
  5
C8F8
331
CDA8
  5
C8F9
331
CDA9
  5
C8FA
331
0
  5
C789
331
0
  5
C85E
331
0
  5
C85F
331
CDAD
  5
C9C7
331
CDAE
  5
C9C8
331
CDAF
  5
C9CA
331
0
  5
C9B9
331
0
  5
C9BA
331
0
  5
C9BB
331
CDB3
  5
CD38
331
CDB4
  5
CD39
331
CDB5
  5
CD3A
331
0
  5
CD22
331
0
  5
CD23
331
0
  5
CD24
331
CDB9
  5
CD6F
331
CDBA
  5
CD70
331
CDBB
  5
CD71
331
0
  5
CD51
331
0
  5
CD52
331
0
  5
CD53
331
CDBF
  5
CDAE
331
CDC0
  5
CDB2
331
CDC1
  5
CDB3
331
0
  5
CD85
331
0
  5
CD86
331
0
  5
CD87
331
CDC5
  5
CDBB
331
CDC6
  5
CDBC
331
CDC7
  5
CDBD
331
0
  5
CD8B
331
0
  5
CD8C
331
0
  5
CD8D
331
CDCB
  5
CDDD
331
CDCC
  5
CDDE
331
CDCD
  5
CDDF
331
0
  5
CDA9
331
0
  5
CDAA
331
0
  5
CDAB
331
CDD1
  5
CDE7
331
CDD2
  5
CDE8
331
CDD3
  5
CDE9
331
0
  5
CDAF
331
0
  5
CDB0
331
0
  5
CDB1
331
CDD7
  5
CDF6
331
CDD8
  5
CDF7
331
CDD9
  5
CDF8
331
CDDA
  5
CDF9
331
CDDB
  5
CDFA
331
CDDC
  5
CDFB
331
CDDD
  5
CDFC
331
CDDE
  5
CDFD
331
CDDF
  5
CDFE
331
CDE0
  5
CDFF
331
CDE1
  5
B902
331
CDE2
  5
B903
331
CDE3
  5
B904
331
CDE4
  5
B905
331
CDE5
  5
B906
331
CDE6
  5
B907
331
CDE7
  5
B913
331
CDE8
  5
C8FB
331
CDE9
  5
C8FC
331
CDEA
  5
C8FD
331
CDEB
  5
C8FE
331
CDEC
  5
C8FF
331
CDED
  5
C900
331
CDEE
  5
C901
331
CDEF
  5
C9CB
331
CDF0
  5
C9CC
331
CDF1
  5
C9CD
331
CDF2
  5
C9CE
331
CDF3
  5
C9CF
331
CDF4
  5
C9D0
331
CDF5
  5
C9D1
331
CDF6
  5
CD3B
331
CDF7
  5
CD3C
331
CDF8
  5
CD3D
331
CDF9
  5
CD3E
331
CDFA
  5
CD3F
331
CDFB
  5
CD40
331
CDFC
  5
CD41
331
CDFD
  5
CD72
331
CDFE
  5
CD73
331
CDFF
  5
CD74
331
CE00
  5
CD75
331
CE01
  5
CD78
331
CE02
  5
CD79
331
CE03
  5
CD7A
331
CE04
  5
CDB4
331
CE05
  5
CDB5
331
CE06
  5
CDB6
331
CE07
  5
CDB7
331
CE08
  5
CDB8
331
CE09
  5
CDB9
331
CE0A
  5
CDBA
331
CE0B
  5
CDBE
331
CE0C
  5
CDBF
331
CE0D
  5
CDC0
331
CE0E
  5
CDC1
331
CE0F
  5
CDC2
331
CE10
  5
CDC3
331
CE11
  5
CDC4
331
CE12
  5
CDE0
331
CE13
  5
CDE1
331
CE14
  5
CDE2
331
CE15
  5
CDE3
331
CE16
  5
CDE4
331
CE17
  5
CDE5
331
CE18
  5
CDE6
331
CE19
  5
CDEA
331
CE1A
  5
CDEB
331
CE1B
  5
CDEC
331
CE1C
  5
CDED
331
CE1D
  5
CDEE
331
CE1E
  5
CDEF
331
CE1F
  5
CDF0
  0
SORTENTSTABLE
  5
CC6D
102
{ACAD_REACTORS
330
CC6C
102
}
330
CC6C
100
AcDbSortentsTable
330
15
331
0
  5
AA65
331
57
  5
57
331
0
  5
1FC
331
0
  5
200
331
0
  5
208
331
0
  5
6A9
331
0
  5
AA5E
331
0
  5
AA5F
331
0
  5
AA60
331
0
  5
AA61
331
0
  5
AA62
331
0
  5
AA63
331
0
  5
AA64
331
0
  5
AA6C
331
0
  5
AA6D
331
0
  5
AA6E
331
0
  5
AA6F
331
0
  5
AA73
331
0
  5
AA79
331
0
  5
AA80
331
0
  5
AA88
331
0
  5
CC66
331
0
  5
CC67
331
0
  5
CC68
331
0
  5
CC69
331
0
  5
CC6A
331
0
  5
CC6B
331
0
  5
AA66
331
0
  5
AA67
331
0
  5
AA68
331
0
  5
AA69
331
0
  5
AA6A
331
0
  5
AA6B
  0
MATERIAL
  5
9540
102
{ACAD_REACTORS
330
18C
102
}
102
{ACAD_XDICTIONARY
360
CFBE
102
}
330
18C
100
AcDbMaterial
  1
BYBLOCK
 72
     0
 73
     2
 43
0.0208333333333333
 43
0.0
 43
0.0
 43
0.0
 43
0.0
 43
0.0208333333333333
 43
0.0
 43
0.0
 43
0.0
 43
0.0
 43
1.0
 43
0.0
 43
0.0
 43
0.0
 43
0.0
 43
1.0
 77
     0
 78
     2
 47
0.0208333333333333
 47
0.0
 47
0.0
 47
0.0
 47
0.0
 47
0.0208333333333333
 47
0.0
 47
0.0
 47
0.0
 47
0.0
 47
1.0
 47
0.0
 47
0.0
 47
0.0
 47
0.0
 47
1.0
171
     0
172
     2
 49
0.0208333333333333
 49
0.0
 49
0.0
 49
0.0
 49
0.0
 49
0.0208333333333333
 49
0.0
 49
0.0
 49
0.0
 49
0.0
 49
1.0
 49
0.0
 49
0.0
 49
0.0
 49
0.0
 49
1.0
175
     0
176
     2
142
0.0208333333333333
142
0.0
142
0.0
142
0.0
142
0.0
142
0.0208333333333333
142
0.0
142
0.0
142
0.0
142
0.0
142
1.0
142
0.0
142
0.0
142
0.0
142
0.0
142
1.0
179
     0
270
     2
144
0.0208333333333333
144
0.0
144
0.0
144
0.0
144
0.0
144
0.0208333333333333
144
0.0
144
0.0
144
0.0
144
0.0
144
1.0
144
0.0
144
0.0
144
0.0
144
0.0
144
1.0
274
     2
147
0.0208333333333333
147
0.0
147
0.0
147
0.0
147
0.0
147
0.0208333333333333
147
0.0
147
0.0
147
0.0
147
0.0
147
1.0
147
0.0
147
0.0
147
0.0
147
0.0
147
1.0
  0
MATERIAL
  5
9538
102
{ACAD_REACTORS
330
18C
102
}
102
{ACAD_XDICTIONARY
360
CFC0
102
}
330
18C
100
AcDbMaterial
  1
BYLAYER
 72
     0
 73
     2
 43
0.0208333333333333
 43
0.0
 43
0.0
 43
0.0
 43
0.0
 43
0.0208333333333333
 43
0.0
 43
0.0
 43
0.0
 43
0.0
 43
1.0
 43
0.0
 43
0.0
 43
0.0
 43
0.0
 43
1.0
 77
     0
 78
     2
 47
0.0208333333333333
 47
0.0
 47
0.0
 47
0.0
 47
0.0
 47
0.0208333333333333
 47
0.0
 47
0.0
 47
0.0
 47
0.0
 47
1.0
 47
0.0
 47
0.0
 47
0.0
 47
0.0
 47
1.0
171
     0
172
     2
 49
0.0208333333333333
 49
0.0
 49
0.0
 49
0.0
 49
0.0
 49
0.0208333333333333
 49
0.0
 49
0.0
 49
0.0
 49
0.0
 49
1.0
 49
0.0
 49
0.0
 49
0.0
 49
0.0
 49
1.0
175
     0
176
     2
142
0.0208333333333333
142
0.0
142
0.0
142
0.0
142
0.0
142
0.0208333333333333
142
0.0
142
0.0
142
0.0
142
0.0
142
1.0
142
0.0
142
0.0
142
0.0
142
0.0
142
1.0
179
     0
270
     2
144
0.0208333333333333
144
0.0
144
0.0
144
0.0
144
0.0
144
0.0208333333333333
144
0.0
144
0.0
144
0.0
144
0.0
144
1.0
144
0.0
144
0.0
144
0.0
144
0.0
144
1.0
274
     2
147
0.0208333333333333
147
0.0
147
0.0
147
0.0
147
0.0
147
0.0208333333333333
147
0.0
147
0.0
147
0.0
147
0.0
147
1.0
147
0.0
147
0.0
147
0.0
147
0.0
147
1.0
  0
MATERIAL
  5
9548
102
{ACAD_REACTORS
330
18C
102
}
102
{ACAD_XDICTIONARY
360
CFC2
102
}
330
18C
100
AcDbMaterial
  1
GLOBAL
 72
     0
 73
     2
 43
0.0208333333333333
 43
0.0
 43
0.0
 43
0.0
 43
0.0
 43
0.0208333333333333
 43
0.0
 43
0.0
 43
0.0
 43
0.0
 43
1.0
 43
0.0
 43
0.0
 43
0.0
 43
0.0
 43
1.0
 77
     0
 78
     2
 47
0.0208333333333333
 47
0.0
 47
0.0
 47
0.0
 47
0.0
 47
0.0208333333333333
 47
0.0
 47
0.0
 47
0.0
 47
0.0
 47
1.0
 47
0.0
 47
0.0
 47
0.0
 47
0.0
 47
1.0
171
     0
172
     2
 49
0.0208333333333333
 49
0.0
 49
0.0
 49
0.0
 49
0.0
 49
0.0208333333333333
 49
0.0
 49
0.0
 49
0.0
 49
0.0
 49
1.0
 49
0.0
 49
0.0
 49
0.0
 49
0.0
 49
1.0
175
     0
176
     2
142
0.0208333333333333
142
0.0
142
0.0
142
0.0
142
0.0
142
0.0208333333333333
142
0.0
142
0.0
142
0.0
142
0.0
142
1.0
142
0.0
142
0.0
142
0.0
142
0.0
142
1.0
179
     0
270
     2
144
0.0208333333333333
144
0.0
144
0.0
144
0.0
144
0.0
144
0.0208333333333333
144
0.0
144
0.0
144
0.0
144
0.0
144
1.0
144
0.0
144
0.0
144
0.0
144
0.0
144
1.0
274
     2
147
0.0208333333333333
147
0.0
147
0.0
147
0.0
147
0.0
147
0.0208333333333333
147
0.0
147
0.0
147
0.0
147
0.0
147
1.0
147
0.0
147
0.0
147
0.0
147
0.0
147
1.0
  0
ACAD_PROXY_OBJECT
  5
9584
102
{ACAD_REACTORS
330
9583
102
}
330
9583
100
AcDbZombieObject
 90
      499
 91
      511
 93
      610
310
40901902A4063FBFFFFFE000000000000002040AD7A3703D0AD73F4214DD185B99185C990000000000000104090141901A00000000000004100000000000000041025764000000000000300FC0
340
12
340
0
340
F
340
0
 94
        0
1001
ACAD_MLEADERVER
1070
     2
  0
MLINESTYLE
  5
1C
102
{ACAD_REACTORS
330
1B
102
}
330
1B
100
AcDbMlineStyle
  2
STANDARD
 70
     0
  3

 62
   256
 51
90.0
 52
90.0
 71
     2
 49
0.5
 62
   256
  6
BYLAYER
 49
-0.5
 62
   256
  6
BYLAYER
  0
ACAD_PROXY_OBJECT
  5
9562
102
{ACAD_REACTORS
330
9561
102
}
330
9561
100
AcDbZombieObject
 90
      499
 91
      510
 93
       41
310
903313A31580
  0
ACAD_PROXY_OBJECT
  5
9563
102
{ACAD_REACTORS
330
9561
102
}
330
9561
100
AcDbZombieObject
 90
      499
 91
      510
 93
      105
310
903313A324000000000000004000
  0
ACAD_PROXY_OBJECT
  5
9564
102
{ACAD_REACTORS
330
9561
102
}
330
9561
100
AcDbZombieObject
 90
      499
 91
      510
 93
      105
310
903313A344000000000000104000
  0
ACAD_PROXY_OBJECT
  5
9565
102
{ACAD_REACTORS
330
9561
102
}
330
9561
100
AcDbZombieObject
 90
      499
 91
      510
 93
      105
310
903313A354000000000000144000
  0
ACAD_PROXY_OBJECT
  5
9566
102
{ACAD_REACTORS
330
9561
102
}
330
9561
100
AcDbZombieObject
 90
      499
 91
      510
 93
      105
310
903313A384000000000000204000
  0
ACAD_PROXY_OBJECT
  5
9567
102
{ACAD_REACTORS
330
9561
102
}
330
9561
100
AcDbZombieObject
 90
      499
 91
      510
 93
      113
310
904313A31304000000000000244000
  0
ACAD_PROXY_OBJECT
  5
9568
102
{ACAD_REACTORS
330
9561
102
}
330
9561
100
AcDbZombieObject
 90
      499
 91
      510
 93
      113
310
904313A31364000000000000304000
  0
ACAD_PROXY_OBJECT
  5
9569
102
{ACAD_REACTORS
330
9561
102
}
330
9561
100
AcDbZombieObject
 90
      499
 91
      510
 93
      113
310
904313A32304000000000000344000
  0
ACAD_PROXY_OBJECT
  5
956A
102
{ACAD_REACTORS
330
9561
102
}
330
9561
100
AcDbZombieObject
 90
      499
 91
      510
 93
      113
310
904313A333040000000000003E4000
  0
ACAD_PROXY_OBJECT
  5
956B
102
{ACAD_REACTORS
330
9561
102
}
330
9561
100
AcDbZombieObject
 90
      499
 91
      510
 93
      113
310
904313A34304000000000000444000
  0
ACAD_PROXY_OBJECT
  5
956C
102
{ACAD_REACTORS
330
9561
102
}
330
9561
100
AcDbZombieObject
 90
      499
 91
      510
 93
      113
310
904313A35304000000000000494000
  0
ACAD_PROXY_OBJECT
  5
956D
102
{ACAD_REACTORS
330
9561
102
}
330
9561
100
AcDbZombieObject
 90
      499
 91
      510
 93
      121
310
905313A3130304000000000000594000
  0
ACAD_PROXY_OBJECT
  5
956E
102
{ACAD_REACTORS
330
9561
102
}
330
9561
100
AcDbZombieObject
 90
      499
 91
      510
 93
      105
310
903323A310000000000000010100
  0
ACAD_PROXY_OBJECT
  5
956F
102
{ACAD_REACTORS
330
9561
102
}
330
9561
100
AcDbZombieObject
 90
      499
 91
      510
 93
      105
310
903343A310000000000000410100
  0
ACAD_PROXY_OBJECT
  5
9570
102
{ACAD_REACTORS
330
9561
102
}
330
9561
100
AcDbZombieObject
 90
      499
 91
      510
 93
      105
310
903383A310000000000000810100
  0
ACAD_PROXY_OBJECT
  5
9571
102
{ACAD_REACTORS
330
9561
102
}
330
9561
100
AcDbZombieObject
 90
      499
 91
      510
 93
      113
310
90431303A310000000000000910100
  0
ACAD_PROXY_OBJECT
  5
9572
102
{ACAD_REACTORS
330
9561
102
}
330
9561
100
AcDbZombieObject
 90
      499
 91
      510
 93
      121
310
9053130303A310000000000001650100
  0
ACAD_PROXY_OBJECT
  5
9573
102
{ACAD_REACTORS
330
9561
102
}
330
9561
100
AcDbZombieObject
 90
      499
 91
      510
 93
      257
310
90E312F31323822203D2031272D3022000000000000200FC000000000000284000
  0
ACAD_PROXY_OBJECT
  5
9574
102
{ACAD_REACTORS
330
9561
102
}
330
9561
100
AcDbZombieObject
 90
      499
 91
      510
 93
      249
310
90D312F363422203D2031272D3022000000000000240FC000000000000284000
  0
ACAD_PROXY_OBJECT
  5
9575
102
{ACAD_REACTORS
330
9561
102
}
330
9561
100
AcDbZombieObject
 90
      499
 91
      510
 93
      249
310
90D312F333222203D2031272D3022000000000000280FC000000000000284000
  0
ACAD_PROXY_OBJECT
  5
9576
102
{ACAD_REACTORS
330
9561
102
}
330
9561
100
AcDbZombieObject
 90
      499
 91
      510
 93
      249
310
90D312F313622203D2031272D30220000000000002C0FC000000000000284000
  0
ACAD_PROXY_OBJECT
  5
9577
102
{ACAD_REACTORS
330
9561
102
}
330
9561
100
AcDbZombieObject
 90
      499
 91
      510
 93
      249
310
90D332F333222203D2031272D30220000000000002E0FC000000000000284000
  0
ACAD_PROXY_OBJECT
  5
9578
102
{ACAD_REACTORS
330
9561
102
}
330
9561
100
AcDbZombieObject
 90
      499
 91
      510
 93
      241
310
90C312F3822203D2031272D3022000000000000300FC000000000000284000
  0
ACAD_PROXY_OBJECT
  5
9579
102
{ACAD_REACTORS
330
9561
102
}
330
9561
100
AcDbZombieObject
 90
      499
 91
      510
 93
      249
310
90D332F313622203D2031272D3022000000000000320FC000000000000284000
  0
ACAD_PROXY_OBJECT
  5
957A
102
{ACAD_REACTORS
330
9561
102
}
330
9561
100
AcDbZombieObject
 90
      499
 91
      510
 93
      241
310
90C312F3422203D2031272D3022000000000000340FC000000000000284000
  0
ACAD_PROXY_OBJECT
  5
957B
102
{ACAD_REACTORS
330
9561
102
}
330
9561
100
AcDbZombieObject
 90
      499
 91
      510
 93
      241
310
90C332F3822203D2031272D3022000000000000360FC000000000000284000
  0
ACAD_PROXY_OBJECT
  5
957C
102
{ACAD_REACTORS
330
9561
102
}
330
9561
100
AcDbZombieObject
 90
      499
 91
      510
 93
      241
310
90C312F3222203D2031272D3022000000000000380FC000000000000284000
  0
ACAD_PROXY_OBJECT
  5
957D
102
{ACAD_REACTORS
330
9561
102
}
330
9561
100
AcDbZombieObject
 90
      499
 91
      510
 93
      241
310
90C332F3422203D2031272D30220000000000003A0FC000000000000284000
  0
ACAD_PROXY_OBJECT
  5
957E
102
{ACAD_REACTORS
330
9561
102
}
330
9561
100
AcDbZombieObject
 90
      499
 91
      510
 93
      161
310
90A3122203D2031272D30224000000000000284000
  0
ACAD_PROXY_OBJECT
  5
957F
102
{ACAD_REACTORS
330
9561
102
}
330
9561
100
AcDbZombieObject
 90
      499
 91
      510
 93
      257
310
90E312D312F3222203D2031272D30220000000000003E0FC000000000000284000
  0
ACAD_PROXY_OBJECT
  5
9580
102
{ACAD_REACTORS
330
9561
102
}
330
9561
100
AcDbZombieObject
 90
      499
 91
      510
 93
      225
310
90A3322203D2031272D302200000000000002100000000000000284000
  0
ACAD_PROXY_OBJECT
  5
9581
102
{ACAD_REACTORS
330
9561
102
}
330
9561
100
AcDbZombieObject
 90
      499
 91
      510
 93
      225
310
90A3622203D2031272D302200000000000006100000000000000284000
  0
ACAD_PROXY_OBJECT
  5
9582
102
{ACAD_REACTORS
330
9561
102
}
330
9561
100
AcDbZombieObject
 90
      499
 91
      510
 93
      249
310
90D31272D3022203D2031272D30220000000000000A100000000000000284000
  0
ACAD_PROXY_OBJECT
  5
9556
102
{ACAD_REACTORS
330
9550
102
}
330
9550
100
AcDbZombieObject
 90
      499
 91
      509
 93
      436
310
42CC9915DA5C99599C985B595049028333333333333E3BF0000000000000FB0107901411070040501600405405064090741402480A0340
1001
ACAD
1000
AcDbSavedByObjectVersion
1070
     0
  0
ACAD_PROXY_OBJECT
  5
9558
102
{ACAD_REACTORS
330
9550
102
}
330
9550
100
AcDbZombieObject
 90
      499
 91
      509
 93
      500
310
424CD108121A5919195B90640502408333333333333E3BF0000000000000FB01079024090700405020000000000001110200405405064090740C02480A0340
1001
ACAD
1000
AcDbSavedByObjectVersion
1070
     0
  0
ACAD_PROXY_OBJECT
  5
9557
102
{ACAD_REACTORS
330
9550
102
}
330
9550
100
AcDbZombieObject
 90
      499
 91
      509
 93
      436
310
42CCD915DA5C99599C985B595059028333333333333E3BF0000000000000FB0107901411070040501600405405064090741402480A0340
1001
ACAD
1000
AcDbSavedByObjectVersion
1070
     0
  0
ACAD_PROXY_OBJECT
  5
9555
102
{ACAD_REACTORS
330
9550
102
}
330
9550
100
AcDbZombieObject
 90
      499
 91
      509
 93
      388
310
4150985CDA58D07406404333333333333E3BF0000000000000FB0107A41107004050150841D405064090741402480A0350
1001
ACAD
1000
AcDbSavedByObjectVersion
1070
     0
  0
ACAD_PROXY_OBJECT
  5
955C
102
{ACAD_REACTORS
330
9550
102
}
330
9550
100
AcDbZombieObject
 90
      499
 91
      509
 93
      428
310
42109C9A59DA1D195B90C409028333333333333E3BF0000000000000FB010790141107004050150841D405064090741402480A029950
1001
ACAD
1000
AcDbSavedByObjectVersion
1070
     0
  0
ACAD_PROXY_OBJECT
  5
9560
102
{ACAD_REACTORS
330
9550
102
}
330
9550
100
AcDbZombieObject
 90
      499
 91
      509
 93
      452
310
42D0DBDB1BDC90DA185B99D95104090240C333333333333E3BF0000000000000FB0108901411070040501508421405064090741402480A0350
1001
ACAD
1000
AcDbSavedByObjectVersion
1070
     0
  0
ACAD_PROXY_OBJECT
  5
9559
102
{ACAD_REACTORS
330
9550
102
}
330
9550
100
AcDbZombieObject
 90
      499
 91
      509
 93
      500
310
4290DBDB98D95C1D1D585B10940D028333333333333E3BF0000000000000FB0107902409070040501000000000000111010841D405064090740C02480A0340
1001
ACAD
1000
AcDbSavedByObjectVersion
1070
     0
  0
ACAD_PROXY_OBJECT
  5
955B
102
{ACAD_REACTORS
330
9550
102
}
330
9550
100
AcDbZombieObject
 90
      499
 91
      509
 93
      412
310
40D11A5B50B409028333333333333E3BF0000000000000FB010790141107004050150841D405064090741402480A02677FFFFFD0
1001
ACAD
1000
AcDbSavedByObjectVersion
1070
     0
  0
ACAD_PROXY_OBJECT
  5
A211
102
{ACAD_REACTORS
330
9550
102
}
330
9550
100
AcDbZombieObject
 90
      499
 91
      509
 93
      452
310
43115919D950DBDB1BDC93D999916409028333333333333E3BF0000000000000FB010790141107004050150841D405064090741402480A0350
1001
ACAD
1000
AcDbSavedByObjectVersion
1070
     0
  0
ACAD_PROXY_OBJECT
  5
955F
102
{ACAD_REACTORS
330
9550
102
}
330
9550
100
AcDbZombieObject
 90
      499
 91
      509
 93
      444
310
42D19858D95C185D1D195C9B90F409028333333333333E3BF0000000000000FB010790141107004050150841D405064090741402480A0350
1001
ACAD
1000
AcDbSavedByObjectVersion
1070
     0
  0
ACAD_PROXY_OBJECT
  5
9551
102
{ACAD_REACTORS
330
9550
102
}
330
9550
100
AcDbZombieObject
 90
      499
 91
      509
 93
      388
310
41119B185D240901404333333333333E3BF0000000000000F9010740A41107004050150841D405064090741402480A1B50
1001
ACAD
1000
AcDbSavedByObjectVersion
1070
     0
  0
ACAD_PROXY_OBJECT
  5
9552
102
{ACAD_REACTORS
330
9550
102
}
330
9550
100
AcDbZombieObject
 90
      499
 91
      509
 93
      476
310
43519B185D15DA5D1A115919D95CD0140901404333333333333E3BF0000000000000F9010740901411070040501600405405064090741402480A1B50
1001
ACAD
1000
AcDbSavedByObjectVersion
1070
     0
  0
ACAD_PROXY_OBJECT
  5
9553
102
{ACAD_REACTORS
330
9550
102
}
330
9550
100
AcDbZombieObject
 90
      499
 91
      509
 93
      412
310
41D1DBDD5C985D5910240902404333333333333E3BF0000000000000F9010740A411070040501641D405064090741402480A1B50
1001
ACAD
1000
AcDbSavedByObjectVersion
1070
     0
  0
ACAD_PROXY_OBJECT
  5
9554
102
{ACAD_REACTORS
330
9550
102
}
330
9550
100
AcDbZombieObject
 90
      499
 91
      509
 93
      500
310
4411DBDD5C985D5915DA5D1A115919D95CD0340902404333333333333E3BF0000000000000F9010740901411070040501600405405064090741402480A1B50
1001
ACAD
1000
AcDbSavedByObjectVersion
1070
     0
  0
ACAD_PROXY_OBJECT
  5
A260
102
{ACAD_REACTORS
330
9550
102
}
330
9550
100
AcDbZombieObject
 90
      499
 91
      509
 93
      476
310
41921A5919195B90640502408333333333333E3BF0000000000000FB01079024090700405020000000000001110200405405064090740C02480A0340
1001
ACAD
1000
AcDbSavedByObjectVersion
1070
     0
  0
ACAD_PROXY_OBJECT
  5
A20F
102
{ACAD_REACTORS
330
9550
102
}
330
9550
100
AcDbZombieObject
 90
      499
 91
      509
 93
      428
310
42529A5D1D195C93D999914409028333333333333E3BF0000000000000FB010790141107004050150A41D405064090741402480A0350
1001
ACAD
1000
AcDbSavedByObjectVersion
1070
     0
  0
ACAD_PROXY_OBJECT
  5
955E
102
{ACAD_REACTORS
330
9550
102
}
330
9550
100
AcDbZombieObject
 90
      499
 91
      509
 93
      444
310
42D31A5B995C185D1D195C9B90E409028333333333333E3BF0000000000000FB010790141107004050750841D405064090741402483A0350
1001
ACAD
1000
AcDbSavedByObjectVersion
1070
     0
  0
ACAD_PROXY_OBJECT
  5
A266
102
{ACAD_REACTORS
330
9550
102
}
330
9550
100
AcDbZombieObject
 90
      499
 91
      509
 93
      484
310
42135BD9195B1A5B99D0A409028333333333333E3BF0000000000000F901074090290700405010000000000201990108421405064090741402480A1B40
1001
ACAD
1000
AcDbSavedByObjectVersion
1070
     0
  0
ACAD_PROXY_OBJECT
  5
A210
102
{ACAD_REACTORS
330
9550
102
}
330
9550
100
AcDbZombieObject
 90
      499
 91
      509
 93
      444
310
42D3DD995C9A185B99D3D999915409028333333333333E3BF0000000000000FB010790141107004050150941D405064090741402480A0350
1001
ACAD
1000
AcDbSavedByObjectVersion
1070
     0
  0
ACAD_PROXY_OBJECT
  5
955A
102
{ACAD_REACTORS
330
9550
102
}
330
9550
100
AcDbZombieObject
 90
      499
 91
      509
 93
      420
310
425499585B1A5CDD1A58D08409028333333333333E3BF0000000000000FB01079019070040501508421405064090741402480A1B40
1001
ACAD
1000
AcDbSavedByObjectVersion
1070
     0
  0
ACAD_PROXY_OBJECT
  5
A265
102
{ACAD_REACTORS
330
9550
102
}
330
9550
100
AcDbZombieObject
 90
      499
 91
      509
 93
      420
310
4194DA1859195911B40902404333333333333E3BF0000000000000F9010740A41107004050150800405405064090840C02480A0B40
1001
ACAD
1000
AcDbSavedByObjectVersion
1070
     0
  0
ACAD_PROXY_OBJECT
  5
A264
102
{ACAD_REACTORS
330
9550
102
}
330
9550
100
AcDbZombieObject
 90
      499
 91
      509
 93
      516
310
4454DA18591959081DDA5D1A08195919D95CD1A40902404333333333333E3BF0000000000000F901074090142907004050250800405405064090740C02480A0B40
1001
ACAD
1000
AcDbSavedByObjectVersion
1070
     0
  0
ACAD_PROXY_OBJECT
  5
A261
102
{ACAD_REACTORS
330
9550
102
}
330
9550
100
AcDbZombieObject
 90
      499
 91
      509
 93
      532
310
4394DA1859195CC81BD98811DC985E5174090240C333333333333E3BF0000000000000FB01079024090741D01000000000000111010841D405064090740C02480A0340
1001
ACAD
1000
AcDbSavedByObjectVersion
1070
     0
  0
ACAD_PROXY_OBJECT
  5
A262
102
{ACAD_REACTORS
330
9550
102
}
330
9550
100
AcDbZombieObject
 90
      499
 91
      509
 93
      476
310
41D4DAD95D18DA1E51840502408333333333333E3BF0000000000000FB01079024090741D01000000000000111010B41D405064090741802480A0340
1001
ACAD
1000
AcDbSavedByObjectVersion
1070
     0
  0
ACAD_PROXY_OBJECT
  5
955D
102
{ACAD_REACTORS
330
9550
102
}
330
9550
100
AcDbZombieObject
 90
      499
 91
      509
 93
      412
310
41D51A1A58DAD95B90D409028333333333333E3BF0000000000000FB010790141107004050150C41D405064090741402480A0350
1001
ACAD
1000
AcDbSavedByObjectVersion
1070
     0
  0
ACAD_PROXY_OBJECT
  5
A25F
102
{ACAD_REACTORS
330
9550
102
}
330
9550
100
AcDbZombieObject
 90
      499
 91
      509
 93
      420
310
4255DA5C99599C985B595059028333333333333E3BF0000000000000FB0107901411070040501600405405064090740C02480A0340
1001
ACAD
1000
AcDbSavedByObjectVersion
1070
     0
  0
ACAD_PROXY_OBJECT
  5
A263
102
{ACAD_REACTORS
330
9550
102
}
330
9550
100
AcDbZombieObject
 90
      499
 91
      509
 93
      404
310
41560B54985E51940902404000000000000E03F0000000000000FB010740501907004050150841D405064090740C02480A1B40
1001
ACAD
1000
AcDbSavedByObjectVersion
1070
     0
  0
XRECORD
  5
CE21
102
{ACAD_REACTORS
330
CE20
102
}
330
CE20
100
AcDbXrecord
340
18D
  0
XRECORD
  5
CE22
102
{ACAD_REACTORS
330
CE20
102
}
330
CE20
100
AcDbXrecord
340
18C
  0
DICTIONARYVAR
  5
AAE0
102
{ACAD_REACTORS
330
37
102
}
330
37
100
DictionaryVariables
280
     0
  1
1:1
  0
DICTIONARYVAR
  5
9627
102
{ACAD_REACTORS
330
37
102
}
330
37
100
DictionaryVariables
280
     0
  1
Standard
  0
DICTIONARYVAR
  5
29E
102
{ACAD_REACTORS
330
37
102
}
330
37
100
DictionaryVariables
280
     0
  1
Standard
  0
DICTIONARYVAR
  5
38
102
{ACAD_REACTORS
330
37
102
}
330
37
100
DictionaryVariables
280
     0
  1
-1
  0
DICTIONARYVAR
  5
1CE
102
{ACAD_REACTORS
330
37
102
}
330
37
100
DictionaryVariables
280
     0
  1
2
  0
DICTIONARYVAR
  5
704E
102
{ACAD_REACTORS
330
37
102
}
330
37
100
DictionaryVariables
280
     0
  1
1
  0
DICTIONARYVAR
  5
962A
102
{ACAD_REACTORS
330
37
102
}
330
37
100
DictionaryVariables
280
     0
  1
0
  0
DICTIONARYVAR
  5
7052
102
{ACAD_REACTORS
330
37
102
}
330
37
100
DictionaryVariables
280
     0
  1
8
  0
DICTIONARYVAR
  5
7051
102
{ACAD_REACTORS
330
37
102
}
330
37
100
DictionaryVariables
280
     0
  1
1
  0
DICTIONARYVAR
  5
AB30
102
{ACAD_REACTORS
330
37
102
}
330
37
100
DictionaryVariables
280
     0
  1
0
  0
DICTIONARYVAR
  5
704F
102
{ACAD_REACTORS
330
37
102
}
330
37
100
DictionaryVariables
280
     0
  1
8
  0
DICTIONARYVAR
  5
7050
102
{ACAD_REACTORS
330
37
102
}
330
37
100
DictionaryVariables
280
     0
  1
2
  0
DICTIONARYVAR
  5
1CF
102
{ACAD_REACTORS
330
37
102
}
330
37
100
DictionaryVariables
280
     0
  1

  0
DICTIONARYVAR
  5
9629
102
{ACAD_REACTORS
330
37
102
}
330
37
100
DictionaryVariables
280
     0
  1
127
  0
DICTIONARYVAR
  5
CC84
102
{ACAD_REACTORS
330
37
102
}
330
37
100
DictionaryVariables
280
     0
  1
2
  0
DICTIONARY
  5
CFBE
330
9540
100
AcDbDictionary
  3
ACAD_XREC_ROUNDTRIP
360
CFBF
1001
ACAD
1000
TREAT_AS_HARD
1070
     1
  0
DICTIONARY
  5
CFC0
330
9538
100
AcDbDictionary
  3
ACAD_XREC_ROUNDTRIP
360
CFC1
1001
ACAD
1000
TREAT_AS_HARD
1070
     1
  0
DICTIONARY
  5
CFC2
330
9548
100
AcDbDictionary
  3
ACAD_XREC_ROUNDTRIP
360
CFC3
1001
ACAD
1000
TREAT_AS_HARD
1070
     1
  0
XRECORD
  5
CFBF
102
{ACAD_REACTORS
330
CFBE
102
}
330
CFBE
100
AcDbXrecord
102
MATERIAL
148
0.0
149
0.0
149
0.0
 93
        0
 94
      127
282
     0
 72
     0
 77
     0
171
     0
175
     0
179
     0
273
     0
  0
XRECORD
  5
CFC1
102
{ACAD_REACTORS
330
CFC0
102
}
330
CFC0
100
AcDbXrecord
102
MATERIAL
148
0.0
149
0.0
149
0.0
 93
        0
 94
      127
282
     0
 72
     0
 77
     0
171
     0
175
     0
179
     0
273
     0
  0
XRECORD
  5
CFC3
102
{ACAD_REACTORS
330
CFC2
102
}
330
CFC2
100
AcDbXrecord
102
MATERIAL
148
0.0
149
0.0
149
0.0
 93
        0
 94
      127
282
     0
 72
     0
 77
     0
171
     0
175
     0
179
     0
273
     0
  0
ENDSEC
  0
EOF
