  0
SECTION
  2
HEADER
  9
$ACADVER
  1
AC1009
  9
$INSBASE
 10
0.0
 20
0.0
 30
0.0
  9
$EXTMIN
 10
5277.1738795902838
 20
789.32930145677926
 30
-0.0000000001125151
  9
$EXTMAX
 10
5890.4739879300278
 20
1246.12930145365
 30
0.0000000000795227
  9
$LIMMIN
 10
0.0
 20
0.0
  9
$LIMMAX
 10
420.0
 20
297.0
  9
$ORTHOMODE
 70
     0
  9
$REGENMODE
 70
     1
  9
$FILLMODE
 70
     1
  9
$QTEXTMODE
 70
     0
  9
$MIRRTEXT
 70
     0
  9
$DRAGMODE
 70
     2
  9
$LTSCALE
 40
0.5
  9
$OSMODE
 70
  2175
  9
$ATTMODE
 70
     1
  9
$TEXTSIZE
 40
4.0
  9
$TRACEWID
 40
1.0
  9
$TEXTSTYLE
  7
STANDARD
  9
$CLAYER
  8
1TEXT
  9
$CELTYPE
  6
BYLAYER
  9
$CECOLOR
 62
   256
  9
$DIMSCALE
 40
1.0
  9
$DIMASZ
 40
2.0
  9
$DIMEXO
 40
0.0
  9
$DIMDLI
 40
7.0
  9
$DIMRND
 40
0.0
  9
$DIMDLE
 40
0.0
  9
$DIMEXE
 40
1.0
  9
$DIMTP
 40
0.0
  9
$DIMTM
 40
0.0
  9
$DIMTXT
 40
3.5
  9
$DIMCEN
 40
0.0
  9
$DIMTSZ
 40
0.0
  9
$DIMTOL
 70
     0
  9
$DIMLIM
 70
     0
  9
$DIMTIH
 70
     0
  9
$DIMTOH
 70
     0
  9
$DIMSE1
 70
     0
  9
$DIMSE2
 70
     0
  9
$DIMTAD
 70
     1
  9
$DIMZIN
 70
     8
  9
$DIMBLK
  1

  9
$DIMASO
 70
     1
  9
$DIMSHO
 70
     1
  9
$DIMPOST
  1
 
  9
$DIMAPOST
  1

  9
$DIMALT
 70
     0
  9
$DIMALTD
 70
     2
  9
$DIMALTF
 40
25.399999999999999
  9
$DIMLFAC
 40
1.0
  9
$DIMTOFL
 70
     1
  9
$DIMTVP
 40
0.0
  9
$DIMTIX
 70
     0
  9
$DIMSOXD
 70
     0
  9
$DIMSAH
 70
     1
  9
$DIMBLK1
  1
OPEN30
  9
$DIMBLK2
  1
OPEN30
  9
$DIMSTYLE
  2
NEWX10
  9
$DIMCLRD
 70
   256
  9
$DIMCLRE
 70
   256
  9
$DIMCLRT
 70
   201
  9
$DIMTFAC
 40
0.7
  9
$DIMGAP
 40
0.7
  9
$LUNITS
 70
     2
  9
$LUPREC
 70
     4
  9
$SKETCHINC
 40
1.0
  9
$FILLETRAD
 40
0.0
  9
$AUNITS
 70
     0
  9
$AUPREC
 70
     2
  9
$MENU
  1
acad
  9
$ELEVATION
 40
0.0
  9
$PELEVATION
 40
0.0
  9
$THICKNESS
 40
0.0
  9
$LIMCHECK
 70
     0
  9
$BLIPMODE
 70
     0
  9
$CHAMFERA
 40
10.0
  9
$CHAMFERB
 40
10.0
  9
$SKPOLY
 70
     0
  9
$TDCREATE
 40
2451318.621352917
  9
$TDUPDATE
 40
2456339.7962192479
  9
$TDINDWG
 40
1.090080787
  9
$TDUSRTIMER
 40
1.090080787
  9
$USRTIMER
 70
     1
  9
$ANGBASE
 50
0.0
  9
$ANGDIR
 70
     0
  9
$PDMODE
 70
     0
  9
$PDSIZE
 40
0.0
  9
$PLINEWID
 40
0.0
  9
$COORDS
 70
     0
  9
$SPLFRAME
 70
     0
  9
$SPLINETYPE
 70
     6
  9
$SPLINESEGS
 70
     8
  9
$ATTDIA
 70
     0
  9
$ATTREQ
 70
     1
  9
$HANDLING
 70
     1
  9
$HANDSEED
  5
1CE67
  9
$SURFTAB1
 70
     6
  9
$SURFTAB2
 70
     6
  9
$SURFTYPE
 70
     6
  9
$SURFU
 70
     6
  9
$SURFV
 70
     6
  9
$UCSNAME
  2

  9
$UCSORG
 10
0.0
 20
0.0
 30
0.0
  9
$UCSXDIR
 10
1.0
 20
0.0
 30
0.0
  9
$UCSYDIR
 10
0.0
 20
1.0
 30
0.0
  9
$PUCSNAME
  2

  9
$PUCSORG
 10
0.0
 20
0.0
 30
0.0
  9
$PUCSXDIR
 10
1.0
 20
0.0
 30
0.0
  9
$PUCSYDIR
 10
0.0
 20
1.0
 30
0.0
  9
$USERI1
 70
     0
  9
$USERI2
 70
     0
  9
$USERI3
 70
     0
  9
$USERI4
 70
     0
  9
$USERI5
 70
     0
  9
$USERR1
 40
0.0
  9
$USERR2
 40
0.0
  9
$USERR3
 40
0.0
  9
$USERR4
 40
0.0
  9
$USERR5
 40
0.0
  9
$WORLDVIEW
 70
     1
  9
$SHADEDGE
 70
     3
  9
$SHADEDIF
 70
    70
  9
$TILEMODE
 70
     1
  9
$MAXACTVP
 70
    48
  9
$PLIMCHECK
 70
     0
  9
$PEXTMIN
 10
1.0000000000000000E+020
 20
1.0000000000000000E+020
 30
1.0000000000000000E+020
  9
$PEXTMAX
 10
-1.0000000000000000E+020
 20
-1.0000000000000000E+020
 30
-1.0000000000000000E+020
  9
$PLIMMIN
 10
0.0
 20
0.0
  9
$PLIMMAX
 10
420.0
 20
297.0
  9
$UNITMODE
 70
     0
  9
$VISRETAIN
 70
     1
  9
$PLINEGEN
 70
     0
  9
$PSLTSCALE
 70
     1
  0
ENDSEC
  0
SECTION
  2
TABLES
  0
TABLE
  2
VPORT
 70
     1
  0
VPORT
  2
*ACTIVE
 70
     0
 10
0.0
 20
0.0
 11
1.0
 21
1.0
 12
5583.8239337601563
 22
1017.7293014602139
 13
0.0
 23
0.0
 14
10.0
 24
10.0
 15
10.0
 25
10.0
 16
0.0
 26
0.0
 36
1.0
 17
0.0
 27
0.0
 37
0.0
 40
484.64824330682973
 41
1.492734478203434
 42
50.0
 43
0.0
 44
0.0
 50
0.0
 51
0.0
 71
     0
 72
  1000
 73
     1
 74
     1
 75
     0
 76
     0
 77
     0
 78
     0
  0
ENDTAB
  0
TABLE
  2
LTYPE
 70
    14
  0
LTYPE
  2
CONTINUOUS
 70
     0
  3
Solid line
 72
    65
 73
     0
 40
0.0
  0
LTYPE
  2
XREF1|CENTER2
 70
    48
  3
Center (.5x) ___ _ ___ _ ___ _ ___ _ ___ _ ___
 72
    65
 73
     4
 40
28.574999999999999
 49
19.050000000000001
 49
-3.1749999999999989
 49
3.1749999999999989
 49
-3.1749999999999989
  0
LTYPE
  2
A3WAKUDAKE|CENTER2
 70
    48
  3
Center (.5x) ___ _ ___ _ ___ _ ___ _ ___ _ ___
 72
    65
 73
     4
 40
28.574999999999999
 49
19.050000000000001
 49
-3.1749999999999989
 49
3.1749999999999989
 49
-3.1749999999999989
  0
ENDTAB
  0
TABLE
  2
LAYER
 70
    45
  0
LAYER
  2
0
 70
     0
 62
     7
  6
CONTINUOUS
  0
LAYER
  2
1TEXT
 70
     0
 62
     7
  6
CONTINUOUS
  0
LAYER
  2
01
 70
     0
 62
     1
  6
CONTINUOUS
  0
LAYER
  2
A3WAKUDAKE|THICK
 70
    48
 62
     7
  6
CONTINUOUS
  0
LAYER
  2
A3WAKUDAKE|POINT
 70
    48
 62
     7
  6
CONTINUOUS
  0
LAYER
  2
A3WAKUDAKE|1CENTER
 70
    48
 62
     7
  6
A3WAKUDAKE|CENTER2
  0
LAYER
  2
A3WAKUDAKE|0-6
 70
    48
 62
     7
  6
CONTINUOUS
  0
LAYER
  2
A3WAKUDAKE|1DIM
 70
    48
 62
     7
  6
CONTINUOUS
  0
LAYER
  2
XREF1|1CENTER
 70
    48
 62
     7
  6
XREF1|CENTER2
  0
ENDTAB
  0
TABLE
  2
STYLE
 70
    20
  0
STYLE
  2
STANDARD
 70
     0
 40
0.0
 41
1.0
 50
0.0
 71
     0
 42
4.0
  3
romans.shx
  4
extfont2.shx
  0
ENDTAB
  0
TABLE
  2
VIEW
 70
     5
  0
ENDTAB
  0
TABLE
  2
UCS
 70
     0
  0
ENDTAB
  0
TABLE
  2
APPID
 70
    11
  0
APPID
  2
ACAD
 70
     0
  0
APPID
  2
DRAWINGVARIABLESXDATA
 70
     0
  0
APPID
  2
CONTENTTABDATA
 70
     0
  0
APPID
  2
CONTENTCURRENTTAB
 70
     0
  0
APPID
  2
CONTENTBLOCKDESCRIPTION
 70
     0
  0
APPID
  2
CONTENTBLOCKICON
 70
     0
  0
APPID
  2
CONTENTLONGBLOCKNAME
 70
     0
  0
APPID
  2
ACAD_PSEXT
 70
     0
  0
APPID
  2
ACAD_MLEADERVER
 70
     0
  0
APPID
  2
ACAD_EXEMPT_FROM_CAD_STANDARDS
 70
     0
  0
APPID
  2
ACAECLAYERSTANDARD
 70
     0
  0
ENDTAB
  0
TABLE
  2
DIMSTYLE
 70
     7
  0
DIMSTYLE
  2
NEWX10
 70
     0
  3
 
  4

  5

  6
OPEN30
  7
OPEN30
 40
1.0
 41
2.0
 42
0.0
 43
7.0
 44
1.0
 45
0.0
 46
0.0
 47
0.0
 48
0.0
140
3.5
141
0.0
142
0.0
143
25.399999999999999
144
1.0
145
0.0
146
0.7
147
0.7
 71
     0
 72
     0
 73
     0
 74
     0
 75
     0
 76
     0
 77
     1
 78
     8
170
     0
171
     2
172
     1
173
     1
174
     0
175
     0
176
   256
177
   256
178
   201
  0
ENDTAB
  0
ENDSEC
  0
SECTION
  2
BLOCKS
  0
BLOCK
  8
0
  2
$MODEL_SPACE
 70
     0
 10
0.0
 20
0.0
 30
0.0
  3
$MODEL_SPACE
  1

  0
ENDBLK
  5
1A
  8
0
  0
BLOCK
 67
     1
  8
0
  2
$PAPER_SPACE
 70
     0
 10
0.0
 20
0.0
 30
0.0
  3
$PAPER_SPACE
  1

  0
ENDBLK
  5
17
 67
     1
  8
0
  0
BLOCK
  8
0
  2
_OPEN30
 70
     0
 10
0.0
 20
0.0
 30
0.0
  3
_OPEN30
  1

  0
LINE
  5
44
  8
0
  6
BYBLOCK
 62
     0
 10
-1.0
 20
0.26794919
 30
0.0
 11
0.0
 21
0.0
 31
0.0
  0
LINE
  5
45
  8
0
  6
BYBLOCK
 62
     0
 10
0.0
 20
0.0
 30
0.0
 11
-1.0
 21
-0.26794919
 31
0.0
  0
LINE
  5
46
  8
0
  6
BYBLOCK
 62
     0
 10
0.0
 20
0.0
 30
0.0
 11
-1.0
 21
0.0
 31
0.0
  0
ENDBLK
  5
47
  8
0
  0
BLOCK
  8
0
  2
XREF1
 70
    36
 10
0.0
 20
0.0
 30
0.0
  3
XREF1
  1
D:\ACLT\FORMAT\KAWAJUN(9)図面用.dwg
  0
ENDBLK
  5
5D
  8
0
  0
BLOCK
  8
0
  2
A3WAKUDAKE
 70
    36
 10
0.0
 20
0.0
 30
0.0
  3
A3WAKUDAKE
  1
D:\ACLT\FORMAT\A3WAKUdake.dwg
  0
ENDBLK
  5
6A0
  8
0
  0
BLOCK
  8
0
  2
*U59
 70
     1
 10
0.0
 20
0.0
 30
0.0
  3
*U59
  1

  0
TEXT
  5
1C9C6
  8
1TEXT
 62
   201
 10
5790.763871590284
 20
903.80430145678008
 30
0.0
 40
4.5499999999999989
  1
132
 50
90.0
  0
ENDBLK
  5
1C9C8
  8
0
  0
BLOCK
  8
0
  2
*U60
 70
     1
 10
0.0
 20
0.0
 30
0.0
  3
*U60
  1

  0
TEXT
  5
1C9CA
  8
1TEXT
 62
   201
 10
5666.5735556591453
 20
1025.539301456779
 30
0.0
 40
4.5499999999999989
  1
11
  0
ENDBLK
  5
1C9CC
  8
0
  0
BLOCK
  8
0
  2
*U61
 70
     1
 10
0.0
 20
0.0
 30
0.0
  3
*U61
  1

  0
TEXT
  5
1C9CE
  8
1TEXT
 62
   201
 10
5718.8405382569508
 20
1035.539301456779
 30
0.0
 40
4.5499999999999989
  1
76.5
  0
ENDBLK
  5
1C9D0
  8
0
  0
BLOCK
  8
0
  2
*U62
 70
     1
 10
0.0
 20
0.0
 30
0.0
  3
*U62
  1

  0
TEXT
  5
1C9D2
  8
1TEXT
 62
   201
 10
5709.9905382569495
 20
1025.539301456779
 30
0.0
 40
4.5499999999999989
  1
51
  0
ENDBLK
  5
1C9D4
  8
0
  0
BLOCK
  8
0
  2
*U63
 70
     1
 10
0.0
 20
0.0
 30
0.0
  3
*U63
  1

  0
TEXT
  5
1C9D6
  8
1TEXT
 62
   201
 10
5566.0155422569487
 20
1025.539301456779
 30
0.0
 40
4.5499999999999989
  1
18
  0
ENDBLK
  5
1C9D8
  8
0
  0
BLOCK
  8
0
  2
*U64
 70
     1
 10
0.0
 20
0.0
 30
0.0
  3
*U64
  1

  0
TEXT
  5
1C9DA
  8
1TEXT
 62
   201
 10
5614.2674666268413
 20
905.4996948343852
 30
0.0
 40
4.5499999999999989
  1
174
 50
90.0
  0
ENDBLK
  5
1C9DC
  8
0
  0
BLOCK
  8
0
  2
*U65
 70
     1
 10
0.0
 20
0.0
 30
0.0
  3
*U65
  1

  0
TEXT
  5
1C9DE
  8
1TEXT
 62
   201
 10
5629.7638755902844
 20
904.65729593430285
 30
0.0
 40
4.5499999999999989
  1
196
 50
90.0
  0
ENDBLK
  5
1C9E0
  8
0
  0
BLOCK
  8
0
  2
*U66
 70
     1
 10
0.0
 20
0.0
 30
0.0
  3
*U66
  1

  0
TEXT
  5
1C9E2
  8
1TEXT
 62
   201
 10
5777.8604698867293
 20
1129.4209953802069
 30
0.0
 40
4.5499999999999989
  1
14.2
 50
90.0
  0
ENDBLK
  5
1C9E4
  8
0
  0
BLOCK
  8
0
  2
*U67
 70
     1
 10
0.0
 20
0.0
 30
0.0
  3
*U67
  1

  0
TEXT
  5
1C9E6
  8
1TEXT
 62
   201
 10
5531.3405438755453
 20
791.53930145677907
 30
0.0
 40
4.5499999999999989
  1
23.5
  0
ENDBLK
  5
1C9E8
  8
0
  0
BLOCK
  8
0
  2
*U68
 70
     1
 10
0.0
 20
0.0
 30
0.0
  3
*U68
  1

  0
TEXT
  5
1C9EA
  8
1TEXT
 62
   201
 10
5362.2638795902831
 20
906.29596812344676
 30
0.0
 40
4.5499999999999989
  1
90
 50
90.0
  0
ENDBLK
  5
1C9EC
  8
0
  0
BLOCK
  8
0
  2
*U69
 70
     1
 10
0.0
 20
0.0
 30
0.0
  3
*U69
  1

  0
TEXT
  5
1C9EE
  8
1TEXT
 62
   201
 10
5731.9805382569511
 20
901.03930145677907
 30
0.0
 40
4.5499999999999989
  1
\U+03C642
  0
ENDBLK
  5
1C9F0
  8
0
  0
BLOCK
  8
0
  2
*U70
 70
     1
 10
0.0
 20
0.0
 30
0.0
  3
*U70
  1

  0
TEXT
  5
1C9F2
  8
1TEXT
 62
   201
 10
5703.263871590284
 20
947.09622216129105
 30
0.0
 40
4.5499999999999989
  1
\U+03C650
 50
90.0
  0
ENDBLK
  5
1C9F4
  8
0
  0
BLOCK
  8
0
  2
*U71
 70
     1
 10
0.0
 20
0.0
 30
0.0
  3
*U71
  1

  0
TEXT
  5
1C9F6
  8
1TEXT
 62
   201
 10
5878.2639880623474
 20
1125.29596812659
 30
0.0
 40
4.5499999999999989
  1
35
 50
90.0
  0
ENDBLK
  5
1C9F8
  8
0
  0
BLOCK
  8
0
  2
*U72
 70
     1
 10
0.0
 20
0.0
 30
0.0
  3
*U72
  1

  0
TEXT
  5
1C9FA
  8
1TEXT
 62
   201
 10
5888.2639880623474
 20
1113.4043014583449
 30
0.0
 40
4.5499999999999989
  1
59
 50
90.0
  0
ENDBLK
  5
1C9FC
  8
0
  0
BLOCK
  8
0
  2
*U73
 70
     1
 10
0.0
 20
0.0
 30
0.0
  3
*U73
  1

  0
TEXT
  5
1C9FE
  8
1TEXT
 62
   201
 10
5789.3489880623483
 20
1064.039301459911
 30
0.0
 40
4.5499999999999989
  1
136
  0
ENDBLK
  5
1CA00
  8
0
  0
BLOCK
  8
0
  2
*U74
 70
     1
 10
0.0
 20
0.0
 30
0.0
  3
*U74
  1

  0
TEXT
  5
1CA02
  8
1TEXT
 62
   201
 10
5794.8489880623483
 20
1074.039301459911
 30
0.0
 40
4.5499999999999989
  1
125
  0
ENDBLK
  5
1CA04
  8
0
  0
BLOCK
  8
0
  2
*U75
 70
     1
 10
0.0
 20
0.0
 30
0.0
  3
*U75
  1

  0
TEXT
  5
1CA06
  8
1TEXT
 62
   201
 10
5593.1655688444071
 20
791.53930145677907
 30
0.0
 40
4.5499999999999989
  1
9
  0
ENDBLK
  5
1CA08
  8
0
  0
BLOCK
  8
0
  2
*U76
 70
     1
 10
0.0
 20
0.0
 30
0.0
  3
*U76
  1

  0
TEXT
  5
1CA10
  8
1TEXT
 62
   201
 10
6987.0921640315837
 20
1129.4209953802069
 30
0.0
 40
4.5499999999999989
  1
14.2
 50
90.0
  0
ENDBLK
  5
1CA12
  8
0
  0
BLOCK
  8
0
  2
*U77
 70
     1
 10
0.0
 20
0.0
 30
0.0
  3
*U77
  1

  0
TEXT
  5
1CA14
  8
1TEXT
 62
   201
 10
6740.5722380204006
 20
791.5393014567793
 30
0.0
 40
4.5499999999999989
  1
23.5
  0
ENDBLK
  5
1CA16
  8
0
  0
BLOCK
  8
0
  2
*U78
 70
     1
 10
0.0
 20
0.0
 30
0.0
  3
*U78
  1

  0
TEXT
  5
1CA18
  8
1TEXT
 62
   201
 10
6802.3972629892633
 20
791.5393014567793
 30
0.0
 40
4.5499999999999989
  1
9
  0
ENDBLK
  5
1CA1A
  8
0
  0
BLOCK
  8
0
  2
*U79
 70
     1
 10
0.0
 20
0.0
 30
0.0
  3
*U79
  1

  0
TEXT
  5
1CA1C
  8
1TEXT
 62
   201
 10
6571.4955737351393
 20
906.29596812344698
 30
0.0
 40
4.5499999999999989
  1
90
 50
90.0
  0
ENDBLK
  5
1CA1E
  8
0
  0
BLOCK
  8
0
  2
*U80
 70
     1
 10
0.0
 20
0.0
 30
0.0
  3
*U80
  1

  0
TEXT
  5
1CA20
  8
1TEXT
 62
   201
 10
6999.9955657351402
 20
903.80430145678042
 30
0.0
 40
4.5499999999999989
  1
132
 50
90.0
  0
ENDBLK
  5
1CA22
  8
0
  0
BLOCK
  8
0
  2
*U81
 70
     1
 10
0.0
 20
0.0
 30
0.0
  3
*U81
  1

  0
TEXT
  5
1CA24
  8
1TEXT
 62
   201
 10
6875.8052498039997
 20
1025.539301456779
 30
0.0
 40
4.5499999999999989
  1
11
  0
ENDBLK
  5
1CA26
  8
0
  0
BLOCK
  8
0
  2
*U82
 70
     1
 10
0.0
 20
0.0
 30
0.0
  3
*U82
  1

  0
TEXT
  5
1CA28
  8
1TEXT
 62
   201
 10
6928.072232401807
 20
1035.539301456779
 30
0.0
 40
4.5499999999999989
  1
76.5
  0
ENDBLK
  5
1CA2A
  8
0
  0
BLOCK
  8
0
  2
*U83
 70
     1
 10
0.0
 20
0.0
 30
0.0
  3
*U83
  1

  0
TEXT
  5
1CA2C
  8
1TEXT
 62
   201
 10
6919.2222324018057
 20
1025.539301456779
 30
0.0
 40
4.5499999999999989
  1
51
  0
ENDBLK
  5
1CA2E
  8
0
  0
BLOCK
  8
0
  2
*U84
 70
     1
 10
0.0
 20
0.0
 30
0.0
  3
*U84
  1

  0
TEXT
  5
1CA30
  8
1TEXT
 62
   201
 10
6775.2472364018058
 20
1025.539301456779
 30
0.0
 40
4.5499999999999989
  1
18
  0
ENDBLK
  5
1CA32
  8
0
  0
BLOCK
  8
0
  2
*U85
 70
     1
 10
0.0
 20
0.0
 30
0.0
  3
*U85
  1

  0
TEXT
  5
1CA34
  8
1TEXT
 62
   201
 10
6823.4991607716956
 20
905.49969483438542
 30
0.0
 40
4.5499999999999989
  1
174
 50
90.0
  0
ENDBLK
  5
1CA36
  8
0
  0
BLOCK
  8
0
  2
*U86
 70
     1
 10
0.0
 20
0.0
 30
0.0
  3
*U86
  1

  0
TEXT
  5
1CA38
  8
1TEXT
 62
   201
 10
6838.9955697351388
 20
904.65729593430308
 30
0.0
 40
4.5499999999999989
  1
196
 50
90.0
  0
ENDBLK
  5
1CA3A
  8
0
  0
BLOCK
  8
0
  2
*U87
 70
     1
 10
0.0
 20
0.0
 30
0.0
  3
*U87
  1

  0
TEXT
  5
1CA3C
  8
1TEXT
 62
   201
 10
7087.4956820748839
 20
1125.29596812659
 30
0.0
 40
4.5499999999999989
  1
35
 50
90.0
  0
ENDBLK
  5
1CA3E
  8
0
  0
BLOCK
  8
0
  2
*U88
 70
     1
 10
0.0
 20
0.0
 30
0.0
  3
*U88
  1

  0
TEXT
  5
1CA40
  8
1TEXT
 62
   201
 10
7097.4956820748839
 20
1113.404301458346
 30
0.0
 40
4.5499999999999989
  1
59
 50
90.0
  0
ENDBLK
  5
1CA42
  8
0
  0
BLOCK
  8
0
  2
*U89
 70
     1
 10
0.0
 20
0.0
 30
0.0
  3
*U89
  1

  0
TEXT
  5
1CA44
  8
1TEXT
 62
   201
 10
7004.0806820748849
 20
1074.039301459911
 30
0.0
 40
4.5499999999999989
  1
125
  0
ENDBLK
  5
1CA46
  8
0
  0
BLOCK
  8
0
  2
*U90
 70
     1
 10
0.0
 20
0.0
 30
0.0
  3
*U90
  1

  0
TEXT
  5
1CA48
  8
1TEXT
 62
   201
 10
6998.580682074884
 20
1064.039301459911
 30
0.0
 40
4.5499999999999989
  1
136
  0
ENDBLK
  5
1CA4A
  8
0
  0
BLOCK
  8
0
  2
*U91
 70
     1
 10
0.0
 20
0.0
 30
0.0
  3
*U91
  1

  0
TEXT
  5
1CA4C
  8
1TEXT
 62
   201
 10
6944.072232401807
 20
901.03930145677919
 30
0.0
 40
4.5499999999999989
  1
53
  0
ENDBLK
  5
1CA4E
  8
0
  0
BLOCK
  8
0
  2
*U92
 70
     1
 10
0.0
 20
0.0
 30
0.0
  3
*U92
  1

  0
TEXT
  5
1CA50
  8
1TEXT
 62
   201
 10
6986.4955657351402
 20
861.2959681234471
 30
0.0
 40
4.5499999999999989
  1
42
 50
90.0
  0
ENDBLK
  5
1CA52
  8
0
  0
BLOCK
  8
0
  2
*U93
 70
     1
 10
0.0
 20
0.0
 30
0.0
  3
*U93
  1

  0
TEXT
  5
1CA54
  8
1TEXT
 62
   201
 10
6912.4955657351411
 20
947.24788882795804
 30
0.0
 40
4.5499999999999989
  1
□53
 50
90.0
  0
ENDBLK
  5
1CA56
  8
0
  0
ENDSEC
  0
SECTION
  2
ENTITIES
  0
TEXT
  5
17252
  8
01
 10
5384.1738915902833
 20
1150.6293014567721
 30
0.0
 40
20.0
  1
2-K9T-X-LM-2
  0
TEXT
  5
1726B
  8
01
 10
5405.4908668349217
 20
1126.278342836255
 30
0.0
 40
6.0
  1
材質：真鍮
 72
     1
 11
5422.6908668349224
 21
1126.278342836255
 31
0.0
  0
LINE
  5
17F61
  8
01
 10
5384.1738915902833
 20
1089.1293014567721
 30
0.0
 11
5494.1738915902833
 21
1089.1293014567721
 31
0.0
  0
TEXT
  5
17F62
  8
01
 10
5396.6738915902824
 20
1112.3793014567721
 30
0.0
 40
6.0
  1
表面処理
 72
     1
 11
5410.2738915902819
 21
1112.3793014567721
 31
0.0
  0
TEXT
  5
17F63
  8
01
 10
5396.6738915902824
 20
1102.126368467485
 30
0.0
 40
6.0
  1
クローム
 72
     1
 11
5410.2738915902819
 21
1102.126368467485
 31
0.0
  0
LINE
  5
17F64
  8
01
 10
5384.1738915902833
 20
1120.6293014567721
 30
0.0
 11
5494.1738915902833
 21
1120.6293014567721
 31
0.0
  0
LINE
  5
17F65
  8
01
 10
5384.1738915902833
 20
1110.1293014567721
 30
0.0
 11
5494.1738915902833
 21
1110.1293014567721
 31
0.0
  0
LINE
  5
17F66
  8
01
 10
5384.1738915902833
 20
1099.6293014567721
 30
0.0
 11
5494.1738915902833
 21
1099.6293014567721
 31
0.0
  0
LINE
  5
17F67
  8
01
 10
5384.1738915902833
 20
1099.6293014567721
 30
0.0
 11
5494.1738915902833
 21
1099.6293014567721
 31
0.0
  0
LINE
  5
17F68
  8
01
 10
5436.6738915902843
 20
1120.6293014567721
 30
0.0
 11
5436.6738915902852
 21
1068.1293014567721
 31
0.0
  0
TEXT
  5
17F69
  8
01
 10
5438.9738915902844
 20
1101.557765981298
 30
0.0
 40
6.0
  1
2-K9T-C-LM-2
 41
0.7
 72
     1
 11
5465.2738915902837
 21
1101.557765981298
 31
0.0
  0
TEXT
  5
17F6A
  8
01
 10
5455.2738915902828
 20
1112.3793014567721
 30
0.0
 40
6.0
  1
コード
 72
     1
 11
5465.2738915902828
 21
1112.3793014567721
 31
0.0
  0
LINE
  5
17F6B
  8
01
 10
5384.1738915902833
 20
1078.6293014567721
 30
0.0
 11
5494.1738915902833
 21
1078.6293014567721
 31
0.0
  0
TEXT
  5
17F6C
  8
01
 10
5385.8738915902832
 20
1081.1629310394151
 30
0.0
 40
6.0
  1
パールブラック
 72
     1
 11
5410.2738915902819
 21
1081.1629310394151
 31
0.0
  0
LINE
  5
17F6D
  8
01
 10
5384.1738915902843
 20
1068.1293014567721
 30
0.0
 11
5384.1738915902833
 21
1120.6293014567721
 31
0.0
  0
LINE
  5
17F6E
  8
01
 10
5494.1738915902852
 20
1068.1293014567721
 30
0.0
 11
5494.1738915902833
 21
1120.6293014567721
 31
0.0
  0
TEXT
  5
17F6F
  8
01
 10
5438.8096058759993
 20
1080.557765981298
 30
0.0
 40
6.0
  1
2-K9T-GQ-LM-2
 41
0.65
 72
     1
 11
5465.2738915902837
 21
1080.557765981298
 31
0.0
  0
TEXT
  5
17F70
  8
01
 10
5385.8738915902832
 20
1091.6629310394151
 30
0.0
 40
6.0
  1
サテンニッケル
 72
     1
 11
5410.2738915902819
 21
1091.6629310394151
 31
0.0
  0
TEXT
  5
17F71
  8
01
 10
5438.8738915902841
 20
1091.057765981298
 30
0.0
 40
6.0
  1
2-K9T-N-LM-2
 41
0.7
 72
     1
 11
5465.2738915902837
 21
1091.057765981298
 31
0.0
  0
LINE
  5
17F72
  8
01
 10
5384.1738915902833
 20
1068.1293014567721
 30
0.0
 11
5494.1738915902833
 21
1068.1293014567721
 31
0.0
  0
TEXT
  5
17F74
  8
01
 10
5439.3667487331404
 20
1070.057765981298
 30
0.0
 40
6.0
  1
2-K9T-JC-LM-2
 41
0.65
 72
     1
 11
5465.2738915902837
 21
1070.057765981298
 31
0.0
  0
TEXT
  5
1B62E
  8
01
 10
5384.9112632780043
 20
1070.2069643131031
 30
0.0
 40
6.0
  1
サテンクローム+クローム
 41
0.6
 72
     1
 11
5410.4198347065758
 21
1070.2069643131031
 31
0.0
  0
LINE
  5
1C3F1
  8
01
 10
5688.1747557723438
 20
1187.1293014567791
 30
0.0
 11
5688.1747557723438
 21
1147.1293014567791
 31
0.0
  0
LINE
  5
1C3F2
  8
01
 10
5739.1739879300294
 20
1217.1293014567791
 30
0.0
 11
5739.1739879300294
 21
1182.12930145678
 31
0.0
  0
LINE
  5
1C3F3
  8
01
 10
5688.1747557723438
 20
1147.1293014567791
 30
0.0
 11
5841.9291359273757
 21
1147.1293014567791
 31
0.0
  0
LINE
  5
1C3F4
  8
01
 10
5688.1747557723438
 20
1187.1293014567791
 30
0.0
 11
5841.9291359273757
 21
1187.1293014567791
 31
0.0
  0
LINE
  5
1C3F5
  8
01
  6
BYBLOCK
 10
5691.3738715902828
 20
991.54078998135708
 30
0.0
 11
5691.3738715902828
 21
829.71781293220022
 31
0.0
  0
LINE
  5
1C3F6
  8
01
  6
BYBLOCK
 10
5691.8738715902837
 20
1007.629301456779
 30
0.0
 11
5691.8738715902837
 21
992.6293014567791
 31
0.0
  0
ARC
  5
1C3F7
  8
01
  6
BYBLOCK
 10
5690.6738715902839
 20
992.6293014567791
 30
0.0
 40
1.1999999999999991
 50
324.7356103172184
 51
0.0
  0
LINE
  5
1C3F8
  8
01
  6
BYBLOCK
 10
5690.1738715902839
 20
1007.629301456779
 30
0.0
 11
5690.1738715902839
 21
922.1293014567791
 31
0.0
  0
ARC
  5
1C3F9
  8
01
  6
BYBLOCK
 10
5691.3738715902828
 20
991.54078998135708
 30
0.0
 40
1.1999999999999991
 50
144.73561031729281
 51
180.0
  0
LINE
  5
1C3FA
  8
01
  6
BYBLOCK
 10
5690.6738715902839
 20
1007.629301456779
 30
0.0
 11
5690.6738715902839
 21
992.6293014567791
 31
0.0
  0
LINE
  5
1C3FB
  8
01
  6
BYBLOCK
 10
5691.5002223258107
 20
844.62930145677933
 30
0.0
 11
5764.6738715902839
 21
844.62930145677933
 31
0.0
  0
LINE
  5
1C3FC
  8
01
  6
BYBLOCK
 10
5691.5002223258107
 20
976.6293014567791
 30
0.0
 11
5712.6738715902839
 21
976.6293014567791
 31
0.0
  0
LINE
  5
1C3FD
  8
01
  6
BYBLOCK
 10
5677.8002223258109
 20
899.6293014567791
 30
0.0
 11
5688.3002223258109
 21
899.6293014567791
 31
0.0
  0
ARC
  5
1C3FE
  8
01
  6
BYBLOCK
 10
5677.8002223258109
 20
900.6293014567791
 30
0.0
 40
1.0
 50
180.0
 51
270.0
  0
LINE
  5
1C3FF
  8
01
  6
BYBLOCK
 10
5677.8002223258109
 20
921.62930145677922
 30
0.0
 11
5688.3002223258109
 21
921.62930145677922
 31
0.0
  0
ARC
  5
1C400
  8
01
  6
BYBLOCK
 10
5677.8002223258109
 20
920.62930145677922
 30
0.0
 40
1.0
 50
90.0
 51
180.0
  0
LINE
  5
1C401
  8
01
  6
BYBLOCK
 10
5690.1738715902839
 20
813.62930145677922
 30
0.0
 11
5691.8738715902837
 21
813.62930145677922
 31
0.0
  0
LINE
  5
1C402
  8
01
  6
BYBLOCK
 10
5690.1738715902839
 20
1007.629301456779
 30
0.0
 11
5691.8738715902837
 21
1007.629301456779
 31
0.0
  0
LINE
  5
1C403
  8
01
  6
BYBLOCK
 10
5690.3940756931706
 20
992.23361030438446
 30
0.0
 11
5690.6738715902839
 21
992.6293014567791
 31
0.0
  0
LINE
  5
1C404
  8
01
  6
BYBLOCK
 10
5691.3738715902828
 20
991.54078998135708
 30
0.0
 11
5691.6536674873969
 21
991.93648113375093
 31
0.0
  0
LINE
  5
1C405
  8
01
  6
BYBLOCK
 10
5691.8738715902837
 20
813.62930145677922
 30
0.0
 11
5691.8738715902837
 21
828.62930145677922
 31
0.0
  0
ARC
  5
1C406
  8
01
  6
BYBLOCK
 10
5690.6738715902839
 20
828.62930145677922
 30
0.0
 40
1.1999999999999991
 50
0.0
 51
35.264389682781527
  0
ARC
  5
1C407
  8
01
  6
BYBLOCK
 10
5691.3738715902828
 20
829.71781293220022
 30
0.0
 40
1.1999999999999991
 50
180.0
 51
234.31466528736911
  0
LINE
  5
1C408
  8
01
  6
BYBLOCK
 10
5690.6738715902839
 20
813.62930145677922
 30
0.0
 11
5690.6738715902839
 21
828.7431334977183
 31
0.0
  0
LINE
  5
1C409
  8
01
  6
BYBLOCK
 10
5691.3738715902828
 20
829.71781293220022
 30
0.0
 11
5691.6536674873969
 21
829.32212177980637
 31
0.0
  0
LINE
  5
1C40A
  8
01
  6
BYBLOCK
 10
5676.8002223258109
 20
920.62930145677922
 30
0.0
 11
5676.8002223258109
 21
900.6293014567791
 31
0.0
  0
LINE
  5
1C40B
  8
01
  6
BYBLOCK
 10
5688.1738715902839
 20
812.62930145677922
 30
0.0
 11
5688.1738715902839
 21
1008.629301456779
 31
0.0
  0
LINE
  5
1C40C
  8
01
  6
BYBLOCK
 10
5690.1738715902839
 20
812.62930145677922
 30
0.0
 11
5690.1738715902839
 21
1008.629301456779
 31
0.0
  0
LINE
  5
1C40D
  8
01
  6
BYBLOCK
 10
5764.673871590282
 20
886.6293014567791
 30
0.0
 11
5764.6738715902839
 21
929.12930145677717
 31
0.0
  0
LINE
  5
1C40E
  8
01
  6
BYBLOCK
 10
5690.1738715902839
 20
1008.629301456779
 30
0.0
 11
5688.1738715902839
 21
1008.629301456779
 31
0.0
  0
LINE
  5
1C40F
  8
01
  6
BYBLOCK
 10
5690.1738715902839
 20
812.62930145677922
 30
0.0
 11
5688.1738715902839
 21
812.62930145677922
 31
0.0
  0
LINE
  5
1C410
  8
01
 10
5698.6998179036746
 20
997.62930145677899
 30
0.0
 11
5684.8473622188894
 21
997.62930145677899
 31
0.0
  0
LINE
  5
1C411
  8
01
 10
5685.4029701378113
 20
823.62930145677922
 30
0.0
 11
5694.4029701378122
 21
823.62930145677922
 31
0.0
  0
LINE
  5
1C412
  8
01
 10
5739.1738715902839
 20
985.6293014567791
 30
0.0
 11
5739.1738715902839
 21
925.6293014567791
 31
0.0
  0
LINE
  5
1C413
  8
01
  6
BYBLOCK
 10
5561.6738755902834
 20
999.6293014567791
 30
0.0
 11
5561.6738755902834
 21
821.62930145677831
 31
0.0
  0
LINE
  5
1C414
  8
01
  6
BYBLOCK
 10
5579.6738755902843
 20
999.6293014567791
 30
0.0
 11
5579.6738755902843
 21
821.62930145677831
 31
0.0
  0
ARC
  5
1C415
  8
01
  6
BYBLOCK
 10
5570.6738755902843
 20
999.6293014567791
 30
0.0
 40
8.9999999999997051
 50
0.0
 51
180.0
  0
ARC
  5
1C416
  8
01
  6
BYBLOCK
 10
5570.6738755902843
 20
821.62930145677831
 30
0.0
 40
8.9999999999997051
 50
180.0
 51
0.0
  0
LINE
  5
1C417
  8
01
  6
BYBLOCK
 10
5576.0238755902838
 20
899.52930145677885
 30
0.0
 11
5565.3238755902839
 21
899.52930145677885
 31
0.0
  0
LINE
  5
1C418
  8
01
  6
BYBLOCK
 10
5576.0238755902838
 20
921.72930145677856
 30
0.0
 11
5565.3238755902839
 21
921.72930145677856
 31
0.0
  0
LINE
  5
1C419
  8
01
  6
BYBLOCK
 10
5576.0238755902838
 20
921.72930145677856
 30
0.0
 11
5576.0238755902838
 21
899.52930145677885
 31
0.0
  0
LINE
  5
1C41A
  8
01
  6
BYBLOCK
 10
5565.3238755902839
 20
921.72930145677856
 30
0.0
 11
5565.3238755902839
 21
899.52930145677885
 31
0.0
  0
CIRCLE
  5
1C41B
  8
01
  6
BYBLOCK
 10
5570.6738755902843
 20
823.62930145677922
 30
0.0
 40
4.25
  0
CIRCLE
  5
1C41C
  8
01
  6
BYBLOCK
 10
5570.6738755902843
 20
823.62930145677922
 30
0.0
 40
2.7499999999996021
  0
CIRCLE
  5
1C41D
  8
01
  6
BYBLOCK
 10
5570.6738755902843
 20
997.62930145677899
 30
0.0
 40
4.25
  0
CIRCLE
  5
1C41E
  8
01
  6
BYBLOCK
 10
5570.6738755902843
 20
997.62930145677899
 30
0.0
 40
2.7499999999996021
  0
LINE
  5
1C41F
  8
01
 10
5563.5478481282562
 20
997.62930145677899
 30
0.0
 11
5577.9598153798606
 21
997.62930145677899
 31
0.0
  0
LINE
  5
1C420
  8
01
 10
5563.9146379234226
 20
823.62930145677831
 30
0.0
 11
5578.0790058455232
 21
823.62930145677831
 31
0.0
  0
LINE
  5
1C421
  8
01
  6
BYBLOCK
 10
5449.9738795902831
 20
991.54078998135708
 30
0.0
 11
5449.9738795902831
 21
829.71781293220022
 31
0.0
  0
LINE
  5
1C422
  8
01
  6
BYBLOCK
 10
5449.4738795902831
 20
1007.629301456779
 30
0.0
 11
5449.4738795902831
 21
992.6293014567791
 31
0.0
  0
ARC
  5
1C423
  8
01
  6
BYBLOCK
 10
5450.6738795902829
 20
992.6293014567791
 30
0.0
 40
1.1999999999999991
 50
180.0
 51
215.26438968278151
  0
LINE
  5
1C424
  8
01
  6
BYBLOCK
 10
5451.1738795902829
 20
1007.629301456779
 30
0.0
 11
5451.1738795902829
 21
922.1293014567791
 31
0.0
  0
ARC
  5
1C425
  8
01
  6
BYBLOCK
 10
5449.9738795902831
 20
991.54078998135708
 30
0.0
 40
1.1999999999999991
 50
0.0
 51
35.264389682707119
  0
LINE
  5
1C426
  8
01
  6
BYBLOCK
 10
5450.6738795902829
 20
1007.629301456779
 30
0.0
 11
5450.6738795902829
 21
992.6293014567791
 31
0.0
  0
LINE
  5
1C427
  8
01
  6
BYBLOCK
 10
5449.8475288547552
 20
844.62930145677933
 30
0.0
 11
5376.6738795902829
 21
844.62930145677933
 31
0.0
  0
LINE
  5
1C428
  8
01
  6
BYBLOCK
 10
5449.8475288547552
 20
976.6293014567791
 30
0.0
 11
5428.6738795902811
 21
976.6293014567791
 31
0.0
  0
LINE
  5
1C429
  8
01
  6
BYBLOCK
 10
5463.5475288547559
 20
899.6293014567791
 30
0.0
 11
5453.0475288547568
 21
899.6293014567791
 31
0.0
  0
ARC
  5
1C42A
  8
01
  6
BYBLOCK
 10
5463.5475288547559
 20
900.6293014567791
 30
0.0
 40
1.0
 50
270.0
 51
0.0
  0
LINE
  5
1C42B
  8
01
  6
BYBLOCK
 10
5463.5475288547559
 20
921.62930145677922
 30
0.0
 11
5453.0475288547568
 21
921.62930145677922
 31
0.0
  0
ARC
  5
1C42C
  8
01
  6
BYBLOCK
 10
5463.5475288547559
 20
920.62930145677922
 30
0.0
 40
1.0
 50
0.0
 51
90.0
  0
LINE
  5
1C42D
  8
01
  6
BYBLOCK
 10
5451.1738795902829
 20
813.62930145677922
 30
0.0
 11
5449.4738795902831
 21
813.62930145677922
 31
0.0
  0
LINE
  5
1C42E
  8
01
  6
BYBLOCK
 10
5451.1738795902829
 20
1007.629301456779
 30
0.0
 11
5449.4738795902831
 21
1007.629301456779
 31
0.0
  0
LINE
  5
1C42F
  8
01
  6
BYBLOCK
 10
5450.9536754873961
 20
992.23361030438446
 30
0.0
 11
5450.6738795902829
 21
992.6293014567791
 31
0.0
  0
LINE
  5
1C430
  8
01
  6
BYBLOCK
 10
5449.9738795902831
 20
991.54078998135708
 30
0.0
 11
5449.6940836931699
 21
991.93648113375093
 31
0.0
  0
LINE
  5
1C431
  8
01
  6
BYBLOCK
 10
5449.4738795902831
 20
813.62930145677922
 30
0.0
 11
5449.4738795902831
 21
828.62930145677922
 31
0.0
  0
ARC
  5
1C432
  8
01
  6
BYBLOCK
 10
5450.6738795902829
 20
828.62930145677922
 30
0.0
 40
1.1999999999999991
 50
144.7356103172184
 51
180.0
  0
ARC
  5
1C433
  8
01
  6
BYBLOCK
 10
5449.9738795902831
 20
829.71781293220022
 30
0.0
 40
1.1999999999999991
 50
305.68533471263089
 51
0.0
  0
LINE
  5
1C434
  8
01
  6
BYBLOCK
 10
5450.6738795902829
 20
813.62930145677922
 30
0.0
 11
5450.6738795902829
 21
828.7431334977183
 31
0.0
  0
LINE
  5
1C435
  8
01
  6
BYBLOCK
 10
5449.9738795902831
 20
829.71781293220022
 30
0.0
 11
5449.6940836931699
 21
829.32212177980637
 31
0.0
  0
LINE
  5
1C436
  8
01
  6
BYBLOCK
 10
5464.5475288547559
 20
920.62930145677922
 30
0.0
 11
5464.5475288547559
 21
900.6293014567791
 31
0.0
  0
LINE
  5
1C437
  8
01
  6
BYBLOCK
 10
5453.1738795902829
 20
812.62930145677922
 30
0.0
 11
5453.1738795902829
 21
1008.629301456779
 31
0.0
  0
LINE
  5
1C438
  8
01
  6
BYBLOCK
 10
5451.1738795902829
 20
812.62930145677922
 30
0.0
 11
5451.1738795902829
 21
1008.629301456779
 31
0.0
  0
LINE
  5
1C439
  8
01
  6
BYBLOCK
 10
5376.6738795902811
 20
886.62930145678104
 30
0.0
 11
5376.6738795902802
 21
929.12930145677717
 31
0.0
  0
LINE
  5
1C43A
  8
01
  6
BYBLOCK
 10
5451.1738795902829
 20
1008.629301456779
 30
0.0
 11
5453.1738795902829
 21
1008.629301456779
 31
0.0
  0
LINE
  5
1C43B
  8
01
  6
BYBLOCK
 10
5451.1738795902829
 20
812.62930145677922
 30
0.0
 11
5453.1738795902829
 21
812.62930145677922
 31
0.0
  0
LINE
  5
1C43C
  8
01
 10
5442.6479332768913
 20
997.62930145677899
 30
0.0
 11
5456.5003889616783
 21
997.62930145677899
 31
0.0
  0
LINE
  5
1C43D
  8
01
 10
5455.9447810427564
 20
823.62930145677922
 30
0.0
 11
5446.9447810427564
 21
823.62930145677922
 31
0.0
  0
LINE
  5
1C43E
  8
01
 10
5432.1738795902829
 20
955.62930145677922
 30
0.0
 11
5372.1738795902829
 21
955.62930145677922
 31
0.0
  0
LINE
  5
1C43F
  8
01
 10
5402.173879590282
 20
985.6293014567791
 30
0.0
 11
5402.173879590282
 21
925.6293014567791
 31
0.0
  0
LINE
  5
1C444
  8
01
 10
5590.6738755902834
 20
1014.363311542552
 30
0.0
 11
5590.6738755902834
 21
803.33587453172652
 31
0.0
  0
LINE
  5
1C445
  8
01
 10
5550.6738755902843
 20
1014.363311542552
 30
0.0
 11
5550.6738755902843
 21
803.33587453172652
 31
0.0
  0
LINE
  5
1C449
  8
01
 10
5691.8747557723427
 20
1174.229301456779
 30
0.0
 11
5764.6747557723429
 21
1174.229301456779
 31
0.0
  0
LINE
  5
1C44A
  8
01
 10
5690.1747557723438
 20
1175.229301456779
 30
0.0
 11
5691.3747557723436
 21
1175.229301456779
 31
0.0
  0
LINE
  5
1C44B
  8
01
 10
5691.8747557723427
 20
1160.029301456779
 30
0.0
 11
5764.6747557723429
 21
1160.029301456779
 31
0.0
  0
LINE
  5
1C44C
  8
01
 10
5690.1747557723438
 20
1159.029301456779
 30
0.0
 11
5691.8747557723427
 21
1159.029301456779
 31
0.0
  0
LINE
  5
1C44D
  8
01
 10
5691.3747557723436
 20
1164.0263577316259
 30
0.0
 11
5691.3747557723436
 21
1170.2322451819321
 31
0.0
  0
LINE
  5
1C44E
  8
01
 10
5690.1747557723438
 20
1159.029301456779
 30
0.0
 11
5690.1747557723438
 21
1175.229301456779
 31
0.0
  0
ARC
  5
1C44F
  8
01
 10
5691.3747557723427
 20
1172.2322451819321
 30
0.0
 40
1.1999999999999991
 50
135.00000000000949
 51
180.0
  0
ARC
  5
1C450
  8
01
 10
5691.3747557723427
 20
1170.2322451819321
 30
0.0
 40
1.1999999999999991
 50
135.00000000000949
 51
180.0
  0
ARC
  5
1C451
  8
01
 10
5691.3747557723427
 20
1162.0263577316271
 30
0.0
 40
1.1999999999999991
 50
180.0
 51
224.99999999999051
  0
LINE
  5
1C452
  8
01
 10
5690.6747557723438
 20
1159.029301456779
 30
0.0
 11
5690.6747557723438
 21
1163.029301456779
 31
0.0
  0
LINE
  5
1C453
  8
01
 10
5691.8747557723427
 20
1159.029301456779
 30
0.0
 11
5691.8747557723427
 21
1163.029301456779
 31
0.0
  0
ARC
  5
1C454
  8
01
 10
5690.6747557723438
 20
1163.029301456779
 30
0.0
 40
1.1999999999999991
 50
0.0
 51
44.9999999999905
  0
LINE
  5
1C455
  8
01
 10
5690.6747557723438
 20
1161.029301456779
 30
0.0
 11
5690.5262276349204
 21
1161.1778295942031
 31
0.0
  0
LINE
  5
1C456
  8
01
 10
5690.6747557723438
 20
1175.229301456779
 30
0.0
 11
5690.6747557723438
 21
1171.229301456779
 31
0.0
  0
LINE
  5
1C457
  8
01
 10
5691.8747557723427
 20
1175.229301456779
 30
0.0
 11
5691.8747557723427
 21
1171.229301456779
 31
0.0
  0
ARC
  5
1C458
  8
01
 10
5690.6747557723438
 20
1171.229301456779
 30
0.0
 40
1.1999999999999991
 50
315.00000000000949
 51
0.0
  0
LINE
  5
1C459
  8
01
 10
5691.8747557723427
 20
1175.229301456779
 30
0.0
 11
5690.6747557723438
 21
1175.229301456779
 31
0.0
  0
LINE
  5
1C45A
  8
01
 10
5690.6747557723438
 20
1173.229301456779
 30
0.0
 11
5690.5262276349204
 21
1173.0807733193551
 31
0.0
  0
LINE
  5
1C45B
  8
01
 10
5690.6747557723438
 20
1163.029301456779
 30
0.0
 11
5690.5262276349204
 21
1163.1778295942031
 31
0.0
  0
ARC
  5
1C45C
  8
01
 10
5691.3747557723427
 20
1164.0263577316271
 30
0.0
 40
1.1999999999999991
 50
180.0
 51
224.99999999999051
  0
LINE
  5
1C45D
  8
01
 10
5691.523283909768
 20
1163.8778295942029
 30
0.0
 11
5691.3747557723427
 21
1164.0263577316271
 31
0.0
  0
LINE
  5
1C45E
  8
01
 10
5690.6747557723438
 20
1171.229301456779
 30
0.0
 11
5690.5262276349204
 21
1171.0807733193551
 31
0.0
  0
LINE
  5
1C45F
  8
01
 10
5691.523283909768
 20
1170.3807733193551
 30
0.0
 11
5691.3747557723427
 21
1170.2322451819321
 31
0.0
  0
LINE
  5
1C460
  8
01
 10
5764.6747557723429
 20
1160.029301456779
 30
0.0
 11
5764.6747557723429
 21
1174.229301456779
 31
0.0
  0
LINE
  5
1C461
  8
01
 10
5690.1747557723438
 20
1176.1293014567791
 30
0.0
 11
5690.1747557723438
 21
1158.1293014567791
 31
0.0
  0
LINE
  5
1C462
  8
01
 10
5688.1747557723438
 20
1176.1293014567791
 30
0.0
 11
5688.1747557723438
 21
1158.1293014567791
 31
0.0
  0
LINE
  5
1C463
  8
01
 10
5690.1747557723438
 20
1176.1293014567791
 30
0.0
 11
5688.1747557723438
 21
1176.1293014567791
 31
0.0
  0
LINE
  5
1C464
  8
01
 10
5690.1747557723438
 20
1158.1293014567791
 30
0.0
 11
5688.1747557723438
 21
1158.1293014567791
 31
0.0
  0
LINE
  5
1C465
  8
01
 10
5688.1747557723438
 20
1161.779301456779
 30
0.0
 11
5676.8011065078717
 21
1161.779301456779
 31
0.0
  0
LINE
  5
1C466
  8
01
 10
5688.1747557723438
 20
1172.479301456779
 30
0.0
 11
5687.3011065078717
 21
1172.479301456779
 31
0.0
  0
LINE
  5
1C467
  8
01
 10
5676.8011065078717
 20
1161.779301456779
 30
0.0
 11
5676.8011065078717
 21
1163.779301456779
 31
0.0
  0
LINE
  5
1C468
  8
01
 10
5676.8011065078717
 20
1163.779301456779
 30
0.0
 11
5687.3011065078717
 21
1172.479301456779
 31
0.0
  0
LINE
  5
1C46D
  8
01
 10
5739.1738715902839
 20
859.6293014567791
 30
0.0
 11
5739.1738715902839
 21
871.62930145677922
 31
0.0
  0
LINE
  5
1C46E
  8
01
 10
5733.1738715902839
 20
865.62930145677922
 30
0.0
 11
5745.1738715902839
 21
865.62930145677922
 31
0.0
  0
LINE
  5
1C46F
  8
01
 10
5743.5613545674387
 20
866.6293014567791
 30
0.0
 11
5734.7863886131281
 21
866.6293014567791
 31
0.0
  0
LINE
  5
1C470
  8
01
 10
5743.5613545674387
 20
864.62930145677922
 30
0.0
 11
5734.7863886131281
 21
864.62930145677922
 31
0.0
  0
CIRCLE
  5
1C471
  8
01
 10
5739.1738715902839
 20
865.62930145677922
 30
-0.0000000000562575
 40
4.5000007638701609
  0
LINE
  5
1C473
  8
01
 10
5739.1739879300294
 20
1150.4293014567791
 30
0.0
 11
5739.1739879300303
 21
1119.233588997954
 31
0.0
  0
LINE
  5
1C487
  8
01
 10
5708.8565457915965
 20
955.62930145677922
 30
0.0
 11
5763.0683554521256
 21
955.62930145677922
 31
0.0
  0
LINE
  5
1C488
  8
01
 10
5764.6738715902811
 20
976.62930145677933
 30
0.0
 11
5712.6738715902857
 21
976.62930145677933
 31
0.0
  0
POINT
  5
1C48A
  8
01
 10
5739.1415240152564
 20
1083.1293014567809
 30
0.0
 50
360.0
  0
LINE
  5
1C48B
  8
01
 10
5864.1739879300294
 20
1111.129301463066
 30
-0.0000000000000568
 11
5864.1739879300294
 21
1089.1293014599089
 31
-0.0000000000000568
  0
LINE
  5
1C48C
  8
01
 10
5728.1739879300294
 20
1138.1293014567791
 30
0.0
 11
5728.1739879300267
 21
1089.12930145991
 31
0.0
  0
ARC
  5
1C48D
  8
01
 10
5729.1739879300276
 20
1089.12930145991
 30
-0.0000000000000568
 40
1.0
 50
180.0
 51
270.0
  0
LINE
  5
1C48E
  8
01
 10
5750.1739879300294
 20
1138.1293014567791
 30
0.0
 11
5750.1739879300294
 21
1114.1293014630639
 31
0.0000000000000044
  0
LINE
  5
1C48F
  8
01
 10
5728.1739879300294
 20
1138.1293014567791
 30
0.0
 11
5750.1739879300294
 21
1138.1293014567791
 31
0.0
  0
LINE
  5
1C490
  8
01
 10
5729.1739879300276
 20
1088.12930145991
 30
-0.0000000000000568
 11
5863.1739879300294
 21
1088.129301459908
 31
-0.0000000000000568
  0
ARC
  5
1C491
  8
01
 10
5863.1739879300294
 20
1089.1293014599089
 30
-0.0000000000000568
 40
1.0
 50
270.0
 51
0.0
  0
LINE
  5
1C492
  8
01
 10
5863.1739879300294
 20
1112.129301463066
 30
-0.0000000000000568
 11
5752.1739879300276
 21
1112.129301463066
 31
-0.0000000000000558
  0
ARC
  5
1C493
  8
01
 10
5863.1739879300294
 20
1111.129301463066
 30
-0.000000000000042
 40
1.0
 50
0.0
 51
90.0
  0
ARC
  5
1C494
  8
01
 10
5752.1739879300276
 20
1114.1293014630639
 30
0.0000000000136305
 40
2.0
 50
180.0
 51
270.0
  0
LINE
  5
1C495
  8
01
 10
5748.1739879300276
 20
1138.1293014567791
 30
0.0
 11
5748.1739879300267
 21
1113.39181323048
 31
0.0000000000000275
  0
LINE
  5
1C496
  8
01
 10
5864.1739879300294
 20
1091.629301459908
 30
0.0
 11
5751.4532844979594
 21
1109.606310199986
 31
0.0000000000000303
  0
ARC
  5
1C497
  8
01
 10
5752.1739879300276
 20
1113.5419205151759
 30
-0.000000000006261
 40
4.0
 50
180.0
 51
260.9386214172348
  0
LINE
  5
1C49C
  8
01
 10
5864.1739879300294
 20
1223.1293014504929
 30
-0.0000000000000568
 11
5864.1739879300294
 21
1245.12930145365
 31
-0.0000000000000568
  0
LINE
  5
1C49D
  8
01
 10
5728.1739879300294
 20
1196.12930145678
 30
0.0
 11
5728.1739879300267
 21
1245.1293014536491
 31
0.0
  0
ARC
  5
1C49E
  8
01
 10
5729.1739879300276
 20
1245.1293014536491
 30
-0.0000000000000568
 40
1.0
 50
90.0
 51
180.0
  0
LINE
  5
1C49F
  8
01
 10
5750.1739879300294
 20
1196.12930145678
 30
0.0
 11
5750.1739879300294
 21
1220.129301450494
 31
0.0000000000000044
  0
LINE
  5
1C4A0
  8
01
 10
5728.1739879300294
 20
1196.12930145678
 30
0.0
 11
5750.1739879300294
 21
1196.12930145678
 31
0.0
  0
LINE
  5
1C4A1
  8
01
 10
5729.1739879300276
 20
1246.1293014536479
 30
-0.0000000000000568
 11
5863.1739879300294
 21
1246.12930145365
 31
-0.0000000000000568
  0
ARC
  5
1C4A2
  8
01
 10
5863.1739879300294
 20
1245.12930145365
 30
-0.0000000000000568
 40
1.0
 50
0.0
 51
90.0
  0
LINE
  5
1C4A3
  8
01
 10
5863.1739879300294
 20
1222.1293014504929
 30
-0.0000000000000568
 11
5752.1739879300276
 21
1222.1293014504929
 31
-0.0000000000000558
  0
ARC
  5
1C4A4
  8
01
 10
5863.1739879300294
 20
1223.1293014504929
 30
-0.000000000000042
 40
1.0
 50
270.0
 51
0.0
  0
ARC
  5
1C4A5
  8
01
 10
5752.1739879300276
 20
1220.129301450494
 30
0.0000000000136305
 40
2.0
 50
90.0
 51
180.0
  0
LINE
  5
1C4A6
  8
01
 10
5748.1739879300276
 20
1196.12930145678
 30
0.0
 11
5748.1739879300267
 21
1220.8667896830791
 31
0.0000000000000275
  0
LINE
  5
1C4A7
  8
01
 10
5864.1739879300294
 20
1242.62930145365
 30
0.0
 11
5751.4532844979594
 21
1224.6522927135729
 31
0.0000000000000303
  0
ARC
  5
1C4A8
  8
01
 10
5752.1739879300276
 20
1220.7166823983821
 30
-0.000000000006261
 40
4.0
 50
99.061378582765144
 51
180.0
  0
LINE
  5
1C4A9
  8
01
 10
5764.6738715902811
 20
976.62930145677933
 30
0.0
 11
5764.6738715902884
 21
929.1293014567774
 31
0.0
  0
LINE
  5
1C4AA
  8
01
 10
5748.1738715902829
 20
966.6293014567791
 30
0.0
 11
5729.1738715902829
 21
966.6293014567791
 31
0.0
  0
LINE
  5
1C4AB
  8
01
 10
5863.1738715902829
 20
951.6293014567791
 30
0.0
 11
5729.1738715902829
 21
951.6293014567791
 31
0.0
  0
ARC
  5
1C4AC
  8
01
 10
5729.1738715902829
 20
952.6293014567791
 30
0.0
 40
1.0
 50
180.0
 51
270.0
  0
LINE
  5
1C4AD
  8
01
 10
5863.1738715902829
 20
960.62930145677933
 30
0.0
 11
5729.1738715902829
 21
960.62930145677933
 31
0.0
  0
LINE
  5
1C4AE
  8
01
 10
5748.1738715902829
 20
944.6293014567791
 30
0.0
 11
5729.1738715902829
 21
944.6293014567791
 31
0.0
  0
ARC
  5
1C4AF
  8
01
 10
5748.1738715902829
 20
946.62930145677899
 30
0.0
 40
2.0
 50
270.0
 51
0.0
  0
LINE
  5
1C4B0
  8
01
 10
5728.1738715902829
 20
965.62930145677922
 30
0.0
 11
5728.1738715902829
 21
945.6293014567791
 31
0.0
  0
ARC
  5
1C4B1
  8
01
 10
5729.1738715902829
 20
959.6293014567791
 30
0.0
 40
1.0
 50
90.0
 51
180.0
  0
ARC
  5
1C4B2
  8
01
 10
5729.1738715902829
 20
965.62930145677922
 30
0.0
 40
1.0
 50
90.0
 51
180.0
  0
ARC
  5
1C4B3
  8
01
 10
5729.1738715902829
 20
945.6293014567791
 30
0.0
 40
1.0
 50
180.0
 51
270.0
  0
LINE
  5
1C4B4
  8
01
 10
5750.1738715902829
 20
964.21508789440588
 30
0.0
 11
5750.1738715902829
 21
963.46688766403588
 31
0.0
  0
LINE
  5
1C4B5
  8
01
 10
5748.1738715902829
 20
966.6293014567791
 30
0.0
 11
5749.8809783714696
 21
964.92219467559255
 31
0.0
  0
LINE
  5
1C4B6
  8
01
 10
5864.1738715902829
 20
949.57941858901563
 30
0.0
 11
5864.1738715902829
 21
960.07028351243594
 31
0.0
  0
ARC
  5
1C4B7
  8
01
 10
5863.1738715902829
 20
952.6293014567791
 30
0.0
 40
1.0
 50
270.0
 51
0.0
  0
ARC
  5
1C4B8
  8
01
 10
5863.1738715902829
 20
949.57941858901563
 30
0.0000000000112557
 40
1.0
 50
270.0
 51
0.0
  0
ARC
  5
1C4B9
  8
01
 10
5863.1738715902829
 20
959.6293014567791
 30
0.0
 40
1.0
 50
0.0
 51
90.0
  0
LINE
  5
1C4BA
  8
01
 10
5750.1738715902829
 20
948.07023914621504
 30
0.0
 11
5750.1738715902829
 21
946.62930145677899
 31
0.0
  0
LINE
  5
1C4BB
  8
01
 10
5748.1738715902829
 20
948.07023914621504
 30
0.0
 11
5748.1738715902829
 21
944.6293014567791
 31
0.0
  0
POLYLINE
  5
1C4BC
  8
01
 10
5750.1738715902829
 20
948.57941858901563
 30
0.0000000000082766
 66
     1
 70
     8
  0
VERTEX
  8
01
  5
1CA57
 10
5750.17
 20
948.579
 30
8.27660e-012
  70
    32
  0
VERTEX
  8
01
  5
1CA58
 10
5750.15
 20
948.579
 30
8.27660e-012
  70
    32
  0
VERTEX
  8
01
  5
1CA59
 10
5750.12
 20
948.579
 30
8.27660e-012
  70
    32
  0
VERTEX
  8
01
  5
1CA5A
 10
5750.10
 20
948.579
 30
8.27660e-012
  70
    32
  0
VERTEX
  8
01
  5
1CA5B
 10
5750.08
 20
948.579
 30
8.27660e-012
  70
    32
  0
VERTEX
  8
01
  5
1CA5C
 10
5750.05
 20
948.578
 30
8.27660e-012
  70
    32
  0
VERTEX
  8
01
  5
1CA5D
 10
5750.03
 20
948.578
 30
8.27660e-012
  70
    32
  0
VERTEX
  8
01
  5
1CA5E
 10
5750.00
 20
948.578
 30
8.27660e-012
  70
    32
  0
VERTEX
  8
01
  5
1CA5F
 10
5749.98
 20
948.577
 30
8.27660e-012
  70
    32
  0
VERTEX
  8
01
  5
1CA60
 10
5749.95
 20
948.576
 30
8.27660e-012
  70
    32
  0
VERTEX
  8
01
  5
1CA61
 10
5749.93
 20
948.576
 30
8.27660e-012
  70
    32
  0
VERTEX
  8
01
  5
1CA62
 10
5749.90
 20
948.575
 30
8.27660e-012
  70
    32
  0
VERTEX
  8
01
  5
1CA63
 10
5749.88
 20
948.574
 30
8.27660e-012
  70
    32
  0
VERTEX
  8
01
  5
1CA64
 10
5749.86
 20
948.573
 30
8.27660e-012
  70
    32
  0
VERTEX
  8
01
  5
1CA65
 10
5749.83
 20
948.572
 30
8.27660e-012
  70
    32
  0
VERTEX
  8
01
  5
1CA66
 10
5749.81
 20
948.571
 30
8.27660e-012
  70
    32
  0
VERTEX
  8
01
  5
1CA67
 10
5749.78
 20
948.570
 30
8.27660e-012
  70
    32
  0
VERTEX
  8
01
  5
1CA68
 10
5749.76
 20
948.569
 30
8.27660e-012
  70
    32
  0
VERTEX
  8
01
  5
1CA69
 10
5749.74
 20
948.567
 30
8.27660e-012
  70
    32
  0
VERTEX
  8
01
  5
1CA6A
 10
5749.71
 20
948.566
 30
8.27660e-012
  70
    32
  0
VERTEX
  8
01
  5
1CA6B
 10
5749.69
 20
948.564
 30
8.27660e-012
  70
    32
  0
VERTEX
  8
01
  5
1CA6C
 10
5749.66
 20
948.563
 30
8.27660e-012
  70
    32
  0
VERTEX
  8
01
  5
1CA6D
 10
5749.64
 20
948.561
 30
8.27660e-012
  70
    32
  0
VERTEX
  8
01
  5
1CA6E
 10
5749.62
 20
948.560
 30
8.27660e-012
  70
    32
  0
VERTEX
  8
01
  5
1CA6F
 10
5749.59
 20
948.558
 30
8.27660e-012
  70
    32
  0
VERTEX
  8
01
  5
1CA70
 10
5749.57
 20
948.556
 30
8.27660e-012
  70
    32
  0
VERTEX
  8
01
  5
1CA71
 10
5749.55
 20
948.554
 30
8.27660e-012
  70
    32
  0
VERTEX
  8
01
  5
1CA72
 10
5749.52
 20
948.552
 30
8.27660e-012
  70
    32
  0
VERTEX
  8
01
  5
1CA73
 10
5749.50
 20
948.550
 30
8.27660e-012
  70
    32
  0
VERTEX
  8
01
  5
1CA74
 10
5749.48
 20
948.548
 30
8.27660e-012
  70
    32
  0
VERTEX
  8
01
  5
1CA75
 10
5749.45
 20
948.546
 30
8.27660e-012
  70
    32
  0
VERTEX
  8
01
  5
1CA76
 10
5749.43
 20
948.544
 30
8.27660e-012
  70
    32
  0
VERTEX
  8
01
  5
1CA77
 10
5749.41
 20
948.541
 30
8.27660e-012
  70
    32
  0
VERTEX
  8
01
  5
1CA78
 10
5749.39
 20
948.539
 30
8.27660e-012
  70
    32
  0
VERTEX
  8
01
  5
1CA79
 10
5749.36
 20
948.537
 30
8.27660e-012
  70
    32
  0
VERTEX
  8
01
  5
1CA7A
 10
5749.34
 20
948.534
 30
8.27660e-012
  70
    32
  0
VERTEX
  8
01
  5
1CA7B
 10
5749.32
 20
948.531
 30
8.27660e-012
  70
    32
  0
VERTEX
  8
01
  5
1CA7C
 10
5749.30
 20
948.529
 30
8.27660e-012
  70
    32
  0
VERTEX
  8
01
  5
1CA7D
 10
5749.27
 20
948.526
 30
8.27660e-012
  70
    32
  0
VERTEX
  8
01
  5
1CA7E
 10
5749.25
 20
948.523
 30
8.27660e-012
  70
    32
  0
VERTEX
  8
01
  5
1CA7F
 10
5749.23
 20
948.520
 30
8.27660e-012
  70
    32
  0
VERTEX
  8
01
  5
1CA80
 10
5749.21
 20
948.517
 30
8.27660e-012
  70
    32
  0
VERTEX
  8
01
  5
1CA81
 10
5749.19
 20
948.514
 30
8.27660e-012
  70
    32
  0
VERTEX
  8
01
  5
1CA82
 10
5749.17
 20
948.511
 30
8.27660e-012
  70
    32
  0
VERTEX
  8
01
  5
1CA83
 10
5749.15
 20
948.508
 30
8.27660e-012
  70
    32
  0
VERTEX
  8
01
  5
1CA84
 10
5749.12
 20
948.505
 30
8.27660e-012
  70
    32
  0
VERTEX
  8
01
  5
1CA85
 10
5749.10
 20
948.502
 30
8.27660e-012
  70
    32
  0
VERTEX
  8
01
  5
1CA86
 10
5749.08
 20
948.499
 30
8.27660e-012
  70
    32
  0
VERTEX
  8
01
  5
1CA87
 10
5749.06
 20
948.495
 30
8.27660e-012
  70
    32
  0
VERTEX
  8
01
  5
1CA88
 10
5749.04
 20
948.492
 30
8.27660e-012
  70
    32
  0
VERTEX
  8
01
  5
1CA89
 10
5749.02
 20
948.488
 30
8.27660e-012
  70
    32
  0
VERTEX
  8
01
  5
1CA8A
 10
5749.00
 20
948.485
 30
8.27660e-012
  70
    32
  0
VERTEX
  8
01
  5
1CA8B
 10
5748.98
 20
948.481
 30
8.27660e-012
  70
    32
  0
VERTEX
  8
01
  5
1CA8C
 10
5748.96
 20
948.477
 30
8.27660e-012
  70
    32
  0
VERTEX
  8
01
  5
1CA8D
 10
5748.94
 20
948.474
 30
8.27660e-012
  70
    32
  0
VERTEX
  8
01
  5
1CA8E
 10
5748.92
 20
948.470
 30
8.27660e-012
  70
    32
  0
VERTEX
  8
01
  5
1CA8F
 10
5748.91
 20
948.466
 30
8.27660e-012
  70
    32
  0
VERTEX
  8
01
  5
1CA90
 10
5748.89
 20
948.462
 30
8.27660e-012
  70
    32
  0
VERTEX
  8
01
  5
1CA91
 10
5748.87
 20
948.458
 30
8.27660e-012
  70
    32
  0
VERTEX
  8
01
  5
1CA92
 10
5748.85
 20
948.454
 30
8.27660e-012
  70
    32
  0
VERTEX
  8
01
  5
1CA93
 10
5748.83
 20
948.450
 30
8.27660e-012
  70
    32
  0
VERTEX
  8
01
  5
1CA94
 10
5748.81
 20
948.446
 30
8.27660e-012
  70
    32
  0
VERTEX
  8
01
  5
1CA95
 10
5748.79
 20
948.442
 30
8.27660e-012
  70
    32
  0
VERTEX
  8
01
  5
1CA96
 10
5748.78
 20
948.437
 30
8.27660e-012
  70
    32
  0
VERTEX
  8
01
  5
1CA97
 10
5748.76
 20
948.433
 30
8.27660e-012
  70
    32
  0
VERTEX
  8
01
  5
1CA98
 10
5748.74
 20
948.429
 30
8.27660e-012
  70
    32
  0
VERTEX
  8
01
  5
1CA99
 10
5748.73
 20
948.424
 30
8.27660e-012
  70
    32
  0
VERTEX
  8
01
  5
1CA9A
 10
5748.71
 20
948.420
 30
8.27660e-012
  70
    32
  0
VERTEX
  8
01
  5
1CA9B
 10
5748.69
 20
948.415
 30
8.27660e-012
  70
    32
  0
VERTEX
  8
01
  5
1CA9C
 10
5748.68
 20
948.411
 30
8.27660e-012
  70
    32
  0
VERTEX
  8
01
  5
1CA9D
 10
5748.66
 20
948.406
 30
8.27660e-012
  70
    32
  0
VERTEX
  8
01
  5
1CA9E
 10
5748.64
 20
948.401
 30
8.27660e-012
  70
    32
  0
VERTEX
  8
01
  5
1CA9F
 10
5748.63
 20
948.397
 30
8.27660e-012
  70
    32
  0
VERTEX
  8
01
  5
1CAA0
 10
5748.61
 20
948.392
 30
8.27660e-012
  70
    32
  0
VERTEX
  8
01
  5
1CAA1
 10
5748.60
 20
948.387
 30
8.27660e-012
  70
    32
  0
VERTEX
  8
01
  5
1CAA2
 10
5748.58
 20
948.382
 30
8.27660e-012
  70
    32
  0
VERTEX
  8
01
  5
1CAA3
 10
5748.57
 20
948.377
 30
8.27660e-012
  70
    32
  0
VERTEX
  8
01
  5
1CAA4
 10
5748.55
 20
948.372
 30
8.27660e-012
  70
    32
  0
VERTEX
  8
01
  5
1CAA5
 10
5748.54
 20
948.367
 30
8.27660e-012
  70
    32
  0
VERTEX
  8
01
  5
1CAA6
 10
5748.52
 20
948.362
 30
8.27660e-012
  70
    32
  0
VERTEX
  8
01
  5
1CAA7
 10
5748.51
 20
948.357
 30
8.27660e-012
  70
    32
  0
VERTEX
  8
01
  5
1CAA8
 10
5748.50
 20
948.352
 30
8.27660e-012
  70
    32
  0
VERTEX
  8
01
  5
1CAA9
 10
5748.48
 20
948.347
 30
8.27660e-012
  70
    32
  0
VERTEX
  8
01
  5
1CAAA
 10
5748.47
 20
948.342
 30
8.27660e-012
  70
    32
  0
VERTEX
  8
01
  5
1CAAB
 10
5748.46
 20
948.336
 30
8.27660e-012
  70
    32
  0
VERTEX
  8
01
  5
1CAAC
 10
5748.45
 20
948.331
 30
8.27660e-012
  70
    32
  0
VERTEX
  8
01
  5
1CAAD
 10
5748.43
 20
948.326
 30
8.27660e-012
  70
    32
  0
VERTEX
  8
01
  5
1CAAE
 10
5748.42
 20
948.321
 30
8.27660e-012
  70
    32
  0
VERTEX
  8
01
  5
1CAAF
 10
5748.41
 20
948.315
 30
8.27660e-012
  70
    32
  0
VERTEX
  8
01
  5
1CAB0
 10
5748.40
 20
948.310
 30
8.27660e-012
  70
    32
  0
VERTEX
  8
01
  5
1CAB1
 10
5748.39
 20
948.304
 30
8.27660e-012
  70
    32
  0
VERTEX
  8
01
  5
1CAB2
 10
5748.38
 20
948.299
 30
8.27660e-012
  70
    32
  0
VERTEX
  8
01
  5
1CAB3
 10
5748.37
 20
948.293
 30
8.27660e-012
  70
    32
  0
VERTEX
  8
01
  5
1CAB4
 10
5748.36
 20
948.288
 30
8.27660e-012
  70
    32
  0
VERTEX
  8
01
  5
1CAB5
 10
5748.35
 20
948.282
 30
8.27660e-012
  70
    32
  0
VERTEX
  8
01
  5
1CAB6
 10
5748.34
 20
948.276
 30
8.27660e-012
  70
    32
  0
VERTEX
  8
01
  5
1CAB7
 10
5748.33
 20
948.271
 30
8.27660e-012
  70
    32
  0
VERTEX
  8
01
  5
1CAB8
 10
5748.32
 20
948.265
 30
8.27660e-012
  70
    32
  0
VERTEX
  8
01
  5
1CAB9
 10
5748.31
 20
948.259
 30
8.27660e-012
  70
    32
  0
VERTEX
  8
01
  5
1CABA
 10
5748.30
 20
948.254
 30
8.27660e-012
  70
    32
  0
VERTEX
  8
01
  5
1CABB
 10
5748.29
 20
948.248
 30
8.27660e-012
  70
    32
  0
VERTEX
  8
01
  5
1CABC
 10
5748.28
 20
948.242
 30
8.27660e-012
  70
    32
  0
VERTEX
  8
01
  5
1CABD
 10
5748.27
 20
948.236
 30
8.27660e-012
  70
    32
  0
VERTEX
  8
01
  5
1CABE
 10
5748.27
 20
948.230
 30
8.27660e-012
  70
    32
  0
VERTEX
  8
01
  5
1CABF
 10
5748.26
 20
948.225
 30
8.27660e-012
  70
    32
  0
VERTEX
  8
01
  5
1CAC0
 10
5748.25
 20
948.219
 30
8.27660e-012
  70
    32
  0
VERTEX
  8
01
  5
1CAC1
 10
5748.25
 20
948.213
 30
8.27660e-012
  70
    32
  0
VERTEX
  8
01
  5
1CAC2
 10
5748.24
 20
948.207
 30
8.27660e-012
  70
    32
  0
VERTEX
  8
01
  5
1CAC3
 10
5748.23
 20
948.201
 30
8.27660e-012
  70
    32
  0
VERTEX
  8
01
  5
1CAC4
 10
5748.23
 20
948.195
 30
8.27660e-012
  70
    32
  0
VERTEX
  8
01
  5
1CAC5
 10
5748.22
 20
948.189
 30
8.27660e-012
  70
    32
  0
VERTEX
  8
01
  5
1CAC6
 10
5748.22
 20
948.183
 30
8.27660e-012
  70
    32
  0
VERTEX
  8
01
  5
1CAC7
 10
5748.21
 20
948.177
 30
8.27660e-012
  70
    32
  0
VERTEX
  8
01
  5
1CAC8
 10
5748.21
 20
948.171
 30
8.27660e-012
  70
    32
  0
VERTEX
  8
01
  5
1CAC9
 10
5748.20
 20
948.165
 30
8.27660e-012
  70
    32
  0
VERTEX
  8
01
  5
1CACA
 10
5748.20
 20
948.159
 30
8.27660e-012
  70
    32
  0
VERTEX
  8
01
  5
1CACB
 10
5748.20
 20
948.153
 30
8.27660e-012
  70
    32
  0
VERTEX
  8
01
  5
1CACC
 10
5748.19
 20
948.147
 30
8.27660e-012
  70
    32
  0
VERTEX
  8
01
  5
1CACD
 10
5748.19
 20
948.141
 30
8.27660e-012
  70
    32
  0
VERTEX
  8
01
  5
1CACE
 10
5748.19
 20
948.135
 30
8.27660e-012
  70
    32
  0
VERTEX
  8
01
  5
1CACF
 10
5748.18
 20
948.128
 30
8.27660e-012
  70
    32
  0
VERTEX
  8
01
  5
1CAD0
 10
5748.18
 20
948.122
 30
8.27660e-012
  70
    32
  0
VERTEX
  8
01
  5
1CAD1
 10
5748.18
 20
948.116
 30
8.27660e-012
  70
    32
  0
VERTEX
  8
01
  5
1CAD2
 10
5748.18
 20
948.110
 30
8.27660e-012
  70
    32
  0
VERTEX
  8
01
  5
1CAD3
 10
5748.18
 20
948.104
 30
8.27660e-012
  70
    32
  0
VERTEX
  8
01
  5
1CAD4
 10
5748.18
 20
948.098
 30
8.27660e-012
  70
    32
  0
VERTEX
  8
01
  5
1CAD5
 10
5748.17
 20
948.092
 30
8.27660e-012
  70
    32
  0
VERTEX
  8
01
  5
1CAD6
 10
5748.17
 20
948.086
 30
8.27660e-012
  70
    32
  0
VERTEX
  8
01
  5
1CAD7
 10
5748.17
 20
948.079
 30
8.27660e-012
  70
    32
  0
SEQEND
  8
01
  5
1CAD8
  0
POLYLINE
  5
1C4BD
  8
01
 10
5752.1738715902829
 20
948.57941858901563
 30
0.0000000000041383
 66
     1
 70
     8
  0
VERTEX
  8
01
  5
1CAD9
 10
5752.17
 20
948.579
 30
4.13830e-012
  70
    32
  0
VERTEX
  8
01
  5
1CADA
 10
5752.15
 20
948.579
 30
4.13830e-012
  70
    32
  0
VERTEX
  8
01
  5
1CADB
 10
5752.12
 20
948.579
 30
4.13830e-012
  70
    32
  0
VERTEX
  8
01
  5
1CADC
 10
5752.10
 20
948.579
 30
4.13830e-012
  70
    32
  0
VERTEX
  8
01
  5
1CADD
 10
5752.08
 20
948.579
 30
4.13830e-012
  70
    32
  0
VERTEX
  8
01
  5
1CADE
 10
5752.05
 20
948.578
 30
4.13830e-012
  70
    32
  0
VERTEX
  8
01
  5
1CADF
 10
5752.03
 20
948.578
 30
4.13830e-012
  70
    32
  0
VERTEX
  8
01
  5
1CAE0
 10
5752.00
 20
948.578
 30
4.13830e-012
  70
    32
  0
VERTEX
  8
01
  5
1CAE1
 10
5751.98
 20
948.577
 30
4.13830e-012
  70
    32
  0
VERTEX
  8
01
  5
1CAE2
 10
5751.95
 20
948.576
 30
4.13830e-012
  70
    32
  0
VERTEX
  8
01
  5
1CAE3
 10
5751.93
 20
948.576
 30
4.13830e-012
  70
    32
  0
VERTEX
  8
01
  5
1CAE4
 10
5751.90
 20
948.575
 30
4.13830e-012
  70
    32
  0
VERTEX
  8
01
  5
1CAE5
 10
5751.88
 20
948.574
 30
4.13830e-012
  70
    32
  0
VERTEX
  8
01
  5
1CAE6
 10
5751.86
 20
948.573
 30
4.13830e-012
  70
    32
  0
VERTEX
  8
01
  5
1CAE7
 10
5751.83
 20
948.572
 30
4.13830e-012
  70
    32
  0
VERTEX
  8
01
  5
1CAE8
 10
5751.81
 20
948.571
 30
4.13830e-012
  70
    32
  0
VERTEX
  8
01
  5
1CAE9
 10
5751.78
 20
948.570
 30
4.13830e-012
  70
    32
  0
VERTEX
  8
01
  5
1CAEA
 10
5751.76
 20
948.569
 30
4.13830e-012
  70
    32
  0
VERTEX
  8
01
  5
1CAEB
 10
5751.74
 20
948.567
 30
4.13830e-012
  70
    32
  0
VERTEX
  8
01
  5
1CAEC
 10
5751.71
 20
948.566
 30
4.13830e-012
  70
    32
  0
VERTEX
  8
01
  5
1CAED
 10
5751.69
 20
948.564
 30
4.13830e-012
  70
    32
  0
VERTEX
  8
01
  5
1CAEE
 10
5751.66
 20
948.563
 30
4.13830e-012
  70
    32
  0
VERTEX
  8
01
  5
1CAEF
 10
5751.64
 20
948.561
 30
4.13830e-012
  70
    32
  0
VERTEX
  8
01
  5
1CAF0
 10
5751.62
 20
948.560
 30
4.13830e-012
  70
    32
  0
VERTEX
  8
01
  5
1CAF1
 10
5751.59
 20
948.558
 30
4.13830e-012
  70
    32
  0
VERTEX
  8
01
  5
1CAF2
 10
5751.57
 20
948.556
 30
4.13830e-012
  70
    32
  0
VERTEX
  8
01
  5
1CAF3
 10
5751.55
 20
948.554
 30
4.13830e-012
  70
    32
  0
VERTEX
  8
01
  5
1CAF4
 10
5751.52
 20
948.552
 30
4.13830e-012
  70
    32
  0
VERTEX
  8
01
  5
1CAF5
 10
5751.50
 20
948.550
 30
4.13830e-012
  70
    32
  0
VERTEX
  8
01
  5
1CAF6
 10
5751.48
 20
948.548
 30
4.13830e-012
  70
    32
  0
VERTEX
  8
01
  5
1CAF7
 10
5751.45
 20
948.546
 30
4.13830e-012
  70
    32
  0
VERTEX
  8
01
  5
1CAF8
 10
5751.43
 20
948.544
 30
4.13830e-012
  70
    32
  0
VERTEX
  8
01
  5
1CAF9
 10
5751.41
 20
948.541
 30
4.13830e-012
  70
    32
  0
VERTEX
  8
01
  5
1CAFA
 10
5751.39
 20
948.539
 30
4.13830e-012
  70
    32
  0
VERTEX
  8
01
  5
1CAFB
 10
5751.36
 20
948.537
 30
4.13830e-012
  70
    32
  0
VERTEX
  8
01
  5
1CAFC
 10
5751.34
 20
948.534
 30
4.13830e-012
  70
    32
  0
VERTEX
  8
01
  5
1CAFD
 10
5751.32
 20
948.531
 30
4.13830e-012
  70
    32
  0
VERTEX
  8
01
  5
1CAFE
 10
5751.30
 20
948.529
 30
4.13830e-012
  70
    32
  0
VERTEX
  8
01
  5
1CAFF
 10
5751.27
 20
948.526
 30
4.13830e-012
  70
    32
  0
VERTEX
  8
01
  5
1CB00
 10
5751.25
 20
948.523
 30
4.13830e-012
  70
    32
  0
VERTEX
  8
01
  5
1CB01
 10
5751.23
 20
948.520
 30
4.13830e-012
  70
    32
  0
VERTEX
  8
01
  5
1CB02
 10
5751.21
 20
948.517
 30
4.13830e-012
  70
    32
  0
VERTEX
  8
01
  5
1CB03
 10
5751.19
 20
948.514
 30
4.13830e-012
  70
    32
  0
VERTEX
  8
01
  5
1CB04
 10
5751.17
 20
948.511
 30
4.13830e-012
  70
    32
  0
VERTEX
  8
01
  5
1CB05
 10
5751.15
 20
948.508
 30
4.13830e-012
  70
    32
  0
VERTEX
  8
01
  5
1CB06
 10
5751.12
 20
948.505
 30
4.13830e-012
  70
    32
  0
VERTEX
  8
01
  5
1CB07
 10
5751.10
 20
948.502
 30
4.13830e-012
  70
    32
  0
VERTEX
  8
01
  5
1CB08
 10
5751.08
 20
948.499
 30
4.13830e-012
  70
    32
  0
VERTEX
  8
01
  5
1CB09
 10
5751.06
 20
948.495
 30
4.13830e-012
  70
    32
  0
VERTEX
  8
01
  5
1CB0A
 10
5751.04
 20
948.492
 30
4.13830e-012
  70
    32
  0
VERTEX
  8
01
  5
1CB0B
 10
5751.02
 20
948.488
 30
4.13830e-012
  70
    32
  0
VERTEX
  8
01
  5
1CB0C
 10
5751.00
 20
948.485
 30
4.13830e-012
  70
    32
  0
VERTEX
  8
01
  5
1CB0D
 10
5750.98
 20
948.481
 30
4.13830e-012
  70
    32
  0
VERTEX
  8
01
  5
1CB0E
 10
5750.96
 20
948.477
 30
4.13830e-012
  70
    32
  0
VERTEX
  8
01
  5
1CB0F
 10
5750.94
 20
948.474
 30
4.13830e-012
  70
    32
  0
VERTEX
  8
01
  5
1CB10
 10
5750.92
 20
948.470
 30
4.13830e-012
  70
    32
  0
VERTEX
  8
01
  5
1CB11
 10
5750.91
 20
948.466
 30
4.13830e-012
  70
    32
  0
VERTEX
  8
01
  5
1CB12
 10
5750.89
 20
948.462
 30
4.13830e-012
  70
    32
  0
VERTEX
  8
01
  5
1CB13
 10
5750.87
 20
948.458
 30
4.13830e-012
  70
    32
  0
VERTEX
  8
01
  5
1CB14
 10
5750.85
 20
948.454
 30
4.13830e-012
  70
    32
  0
VERTEX
  8
01
  5
1CB15
 10
5750.83
 20
948.450
 30
4.13830e-012
  70
    32
  0
VERTEX
  8
01
  5
1CB16
 10
5750.81
 20
948.446
 30
4.13830e-012
  70
    32
  0
VERTEX
  8
01
  5
1CB17
 10
5750.79
 20
948.442
 30
4.13830e-012
  70
    32
  0
VERTEX
  8
01
  5
1CB18
 10
5750.78
 20
948.437
 30
4.13830e-012
  70
    32
  0
VERTEX
  8
01
  5
1CB19
 10
5750.76
 20
948.433
 30
4.13830e-012
  70
    32
  0
VERTEX
  8
01
  5
1CB1A
 10
5750.74
 20
948.429
 30
4.13830e-012
  70
    32
  0
VERTEX
  8
01
  5
1CB1B
 10
5750.73
 20
948.424
 30
4.13830e-012
  70
    32
  0
VERTEX
  8
01
  5
1CB1C
 10
5750.71
 20
948.420
 30
4.13830e-012
  70
    32
  0
VERTEX
  8
01
  5
1CB1D
 10
5750.69
 20
948.415
 30
4.13830e-012
  70
    32
  0
VERTEX
  8
01
  5
1CB1E
 10
5750.68
 20
948.411
 30
4.13830e-012
  70
    32
  0
VERTEX
  8
01
  5
1CB1F
 10
5750.66
 20
948.406
 30
4.13830e-012
  70
    32
  0
VERTEX
  8
01
  5
1CB20
 10
5750.64
 20
948.401
 30
4.13830e-012
  70
    32
  0
VERTEX
  8
01
  5
1CB21
 10
5750.63
 20
948.397
 30
4.13830e-012
  70
    32
  0
VERTEX
  8
01
  5
1CB22
 10
5750.61
 20
948.392
 30
4.13830e-012
  70
    32
  0
VERTEX
  8
01
  5
1CB23
 10
5750.60
 20
948.387
 30
4.13830e-012
  70
    32
  0
VERTEX
  8
01
  5
1CB24
 10
5750.58
 20
948.382
 30
4.13830e-012
  70
    32
  0
VERTEX
  8
01
  5
1CB25
 10
5750.57
 20
948.377
 30
4.13830e-012
  70
    32
  0
VERTEX
  8
01
  5
1CB26
 10
5750.55
 20
948.372
 30
4.13830e-012
  70
    32
  0
VERTEX
  8
01
  5
1CB27
 10
5750.54
 20
948.367
 30
4.13830e-012
  70
    32
  0
VERTEX
  8
01
  5
1CB28
 10
5750.52
 20
948.362
 30
4.13830e-012
  70
    32
  0
VERTEX
  8
01
  5
1CB29
 10
5750.51
 20
948.357
 30
4.13830e-012
  70
    32
  0
VERTEX
  8
01
  5
1CB2A
 10
5750.50
 20
948.352
 30
4.13830e-012
  70
    32
  0
VERTEX
  8
01
  5
1CB2B
 10
5750.48
 20
948.347
 30
4.13830e-012
  70
    32
  0
VERTEX
  8
01
  5
1CB2C
 10
5750.47
 20
948.342
 30
4.13830e-012
  70
    32
  0
VERTEX
  8
01
  5
1CB2D
 10
5750.46
 20
948.336
 30
4.13830e-012
  70
    32
  0
VERTEX
  8
01
  5
1CB2E
 10
5750.45
 20
948.331
 30
4.13830e-012
  70
    32
  0
VERTEX
  8
01
  5
1CB2F
 10
5750.43
 20
948.326
 30
4.13830e-012
  70
    32
  0
VERTEX
  8
01
  5
1CB30
 10
5750.42
 20
948.321
 30
4.13830e-012
  70
    32
  0
VERTEX
  8
01
  5
1CB31
 10
5750.41
 20
948.315
 30
4.13830e-012
  70
    32
  0
VERTEX
  8
01
  5
1CB32
 10
5750.40
 20
948.310
 30
4.13830e-012
  70
    32
  0
VERTEX
  8
01
  5
1CB33
 10
5750.39
 20
948.304
 30
4.13830e-012
  70
    32
  0
VERTEX
  8
01
  5
1CB34
 10
5750.38
 20
948.299
 30
4.13830e-012
  70
    32
  0
VERTEX
  8
01
  5
1CB35
 10
5750.37
 20
948.293
 30
4.13830e-012
  70
    32
  0
VERTEX
  8
01
  5
1CB36
 10
5750.36
 20
948.288
 30
4.13830e-012
  70
    32
  0
VERTEX
  8
01
  5
1CB37
 10
5750.35
 20
948.282
 30
4.13830e-012
  70
    32
  0
VERTEX
  8
01
  5
1CB38
 10
5750.34
 20
948.276
 30
4.13830e-012
  70
    32
  0
VERTEX
  8
01
  5
1CB39
 10
5750.33
 20
948.271
 30
4.13830e-012
  70
    32
  0
VERTEX
  8
01
  5
1CB3A
 10
5750.32
 20
948.265
 30
4.13830e-012
  70
    32
  0
VERTEX
  8
01
  5
1CB3B
 10
5750.31
 20
948.259
 30
4.13830e-012
  70
    32
  0
VERTEX
  8
01
  5
1CB3C
 10
5750.30
 20
948.254
 30
4.13830e-012
  70
    32
  0
VERTEX
  8
01
  5
1CB3D
 10
5750.29
 20
948.248
 30
4.13830e-012
  70
    32
  0
VERTEX
  8
01
  5
1CB3E
 10
5750.28
 20
948.242
 30
4.13830e-012
  70
    32
  0
VERTEX
  8
01
  5
1CB3F
 10
5750.27
 20
948.236
 30
4.13830e-012
  70
    32
  0
VERTEX
  8
01
  5
1CB40
 10
5750.27
 20
948.230
 30
4.13830e-012
  70
    32
  0
VERTEX
  8
01
  5
1CB41
 10
5750.26
 20
948.225
 30
4.13830e-012
  70
    32
  0
VERTEX
  8
01
  5
1CB42
 10
5750.25
 20
948.219
 30
4.13830e-012
  70
    32
  0
VERTEX
  8
01
  5
1CB43
 10
5750.25
 20
948.213
 30
4.13830e-012
  70
    32
  0
VERTEX
  8
01
  5
1CB44
 10
5750.24
 20
948.207
 30
4.13830e-012
  70
    32
  0
VERTEX
  8
01
  5
1CB45
 10
5750.23
 20
948.201
 30
4.13830e-012
  70
    32
  0
VERTEX
  8
01
  5
1CB46
 10
5750.23
 20
948.195
 30
4.13830e-012
  70
    32
  0
VERTEX
  8
01
  5
1CB47
 10
5750.22
 20
948.189
 30
4.13830e-012
  70
    32
  0
VERTEX
  8
01
  5
1CB48
 10
5750.22
 20
948.183
 30
4.13830e-012
  70
    32
  0
VERTEX
  8
01
  5
1CB49
 10
5750.21
 20
948.177
 30
4.13830e-012
  70
    32
  0
VERTEX
  8
01
  5
1CB4A
 10
5750.21
 20
948.171
 30
4.13830e-012
  70
    32
  0
VERTEX
  8
01
  5
1CB4B
 10
5750.20
 20
948.165
 30
4.13830e-012
  70
    32
  0
VERTEX
  8
01
  5
1CB4C
 10
5750.20
 20
948.159
 30
4.13830e-012
  70
    32
  0
VERTEX
  8
01
  5
1CB4D
 10
5750.20
 20
948.153
 30
4.13830e-012
  70
    32
  0
VERTEX
  8
01
  5
1CB4E
 10
5750.19
 20
948.147
 30
4.13830e-012
  70
    32
  0
VERTEX
  8
01
  5
1CB4F
 10
5750.19
 20
948.141
 30
4.13830e-012
  70
    32
  0
VERTEX
  8
01
  5
1CB50
 10
5750.19
 20
948.135
 30
4.13830e-012
  70
    32
  0
VERTEX
  8
01
  5
1CB51
 10
5750.18
 20
948.128
 30
4.13830e-012
  70
    32
  0
VERTEX
  8
01
  5
1CB52
 10
5750.18
 20
948.122
 30
4.13830e-012
  70
    32
  0
VERTEX
  8
01
  5
1CB53
 10
5750.18
 20
948.116
 30
4.13830e-012
  70
    32
  0
VERTEX
  8
01
  5
1CB54
 10
5750.18
 20
948.110
 30
4.13830e-012
  70
    32
  0
VERTEX
  8
01
  5
1CB55
 10
5750.18
 20
948.104
 30
4.13830e-012
  70
    32
  0
VERTEX
  8
01
  5
1CB56
 10
5750.18
 20
948.098
 30
4.13830e-012
  70
    32
  0
VERTEX
  8
01
  5
1CB57
 10
5750.17
 20
948.092
 30
4.13830e-012
  70
    32
  0
VERTEX
  8
01
  5
1CB58
 10
5750.17
 20
948.086
 30
4.13830e-012
  70
    32
  0
VERTEX
  8
01
  5
1CB59
 10
5750.17
 20
948.079
 30
4.13830e-012
  70
    32
  0
SEQEND
  8
01
  5
1CB5A
  0
LINE
  5
1C4BE
  8
01
 10
5863.1738715902829
 20
951.62930145678274
 30
0.0
 11
5729.1738715902829
 21
951.62930145678274
 31
0.0
  0
LINE
  5
1C4BF
  8
01
 10
5750.1738715902829
 20
948.57941858901563
 30
0.0000000000041383
 11
5863.1738715902829
 21
948.57941858901563
 31
0.0000000000041436
  0
LINE
  5
1C4C0
  8
01
 10
5748.1738715902829
 20
966.6293014567791
 30
0.0
 11
5748.1738715902829
 21
963.96688766403577
 31
0.0
  0
LINE
  5
1C4C1
  8
01
 10
5750.1738715902829
 20
963.46688766403588
 30
0.0
 11
5863.1950737197303
 21
961.07005872202365
 31
0.0
  0
ARC
  5
1C4C2
  8
01
 10
5863.1738715902829
 20
960.07028351243594
 30
0.0
 40
1.0
 50
0.0
 51
88.785116433218676
  0
LINE
  5
1C4C3
  8
01
 10
5750.1738715902829
 20
964.21508789440588
 30
0.0
 11
5750.1738715902829
 21
963.46688766403588
 31
0.0
  0
ARC
  5
1C4C4
  8
01
 10
5749.1738715902829
 20
964.21508789440588
 30
0.0
 40
1.0
 50
0.0
 51
44.9999999999905
  0
POLYLINE
  5
1C4C5
  8
01
 10
5748.1738715902829
 20
963.96688766403577
 30
0.0
 66
     1
 70
     8
  0
VERTEX
  8
01
  5
1CB5B
 10
5748.17
 20
963.967
 30
0.000000
  70
    32
  0
VERTEX
  8
01
  5
1CB5C
 10
5748.17
 20
963.961
 30
0.000000
  70
    32
  0
VERTEX
  8
01
  5
1CB5D
 10
5748.17
 20
963.955
 30
0.000000
  70
    32
  0
VERTEX
  8
01
  5
1CB5E
 10
5748.18
 20
963.948
 30
0.000000
  70
    32
  0
VERTEX
  8
01
  5
1CB5F
 10
5748.18
 20
963.942
 30
0.000000
  70
    32
  0
VERTEX
  8
01
  5
1CB60
 10
5748.18
 20
963.936
 30
0.000000
  70
    32
  0
VERTEX
  8
01
  5
1CB61
 10
5748.18
 20
963.930
 30
0.000000
  70
    32
  0
VERTEX
  8
01
  5
1CB62
 10
5748.18
 20
963.924
 30
0.000000
  70
    32
  0
VERTEX
  8
01
  5
1CB63
 10
5748.18
 20
963.918
 30
0.000000
  70
    32
  0
VERTEX
  8
01
  5
1CB64
 10
5748.19
 20
963.912
 30
0.000000
  70
    32
  0
VERTEX
  8
01
  5
1CB65
 10
5748.19
 20
963.906
 30
0.000000
  70
    32
  0
VERTEX
  8
01
  5
1CB66
 10
5748.19
 20
963.900
 30
0.000000
  70
    32
  0
VERTEX
  8
01
  5
1CB67
 10
5748.20
 20
963.894
 30
0.000000
  70
    32
  0
VERTEX
  8
01
  5
1CB68
 10
5748.20
 20
963.887
 30
0.000000
  70
    32
  0
VERTEX
  8
01
  5
1CB69
 10
5748.20
 20
963.881
 30
0.000000
  70
    32
  0
VERTEX
  8
01
  5
1CB6A
 10
5748.21
 20
963.875
 30
0.000000
  70
    32
  0
VERTEX
  8
01
  5
1CB6B
 10
5748.21
 20
963.869
 30
0.000000
  70
    32
  0
VERTEX
  8
01
  5
1CB6C
 10
5748.22
 20
963.863
 30
0.000000
  70
    32
  0
VERTEX
  8
01
  5
1CB6D
 10
5748.22
 20
963.857
 30
0.000000
  70
    32
  0
VERTEX
  8
01
  5
1CB6E
 10
5748.23
 20
963.851
 30
0.000000
  70
    32
  0
VERTEX
  8
01
  5
1CB6F
 10
5748.23
 20
963.845
 30
0.000000
  70
    32
  0
VERTEX
  8
01
  5
1CB70
 10
5748.24
 20
963.839
 30
0.000000
  70
    32
  0
VERTEX
  8
01
  5
1CB71
 10
5748.25
 20
963.834
 30
0.000000
  70
    32
  0
VERTEX
  8
01
  5
1CB72
 10
5748.25
 20
963.828
 30
0.000000
  70
    32
  0
VERTEX
  8
01
  5
1CB73
 10
5748.26
 20
963.822
 30
0.000000
  70
    32
  0
VERTEX
  8
01
  5
1CB74
 10
5748.27
 20
963.816
 30
0.000000
  70
    32
  0
VERTEX
  8
01
  5
1CB75
 10
5748.27
 20
963.810
 30
0.000000
  70
    32
  0
VERTEX
  8
01
  5
1CB76
 10
5748.28
 20
963.804
 30
0.000000
  70
    32
  0
VERTEX
  8
01
  5
1CB77
 10
5748.29
 20
963.798
 30
0.000000
  70
    32
  0
VERTEX
  8
01
  5
1CB78
 10
5748.30
 20
963.793
 30
0.000000
  70
    32
  0
VERTEX
  8
01
  5
1CB79
 10
5748.31
 20
963.787
 30
0.000000
  70
    32
  0
VERTEX
  8
01
  5
1CB7A
 10
5748.32
 20
963.781
 30
0.000000
  70
    32
  0
VERTEX
  8
01
  5
1CB7B
 10
5748.33
 20
963.776
 30
0.000000
  70
    32
  0
VERTEX
  8
01
  5
1CB7C
 10
5748.34
 20
963.770
 30
0.000000
  70
    32
  0
VERTEX
  8
01
  5
1CB7D
 10
5748.35
 20
963.764
 30
0.000000
  70
    32
  0
VERTEX
  8
01
  5
1CB7E
 10
5748.36
 20
963.759
 30
0.000000
  70
    32
  0
VERTEX
  8
01
  5
1CB7F
 10
5748.37
 20
963.753
 30
0.000000
  70
    32
  0
VERTEX
  8
01
  5
1CB80
 10
5748.38
 20
963.748
 30
0.000000
  70
    32
  0
VERTEX
  8
01
  5
1CB81
 10
5748.39
 20
963.742
 30
0.000000
  70
    32
  0
VERTEX
  8
01
  5
1CB82
 10
5748.40
 20
963.737
 30
0.000000
  70
    32
  0
VERTEX
  8
01
  5
1CB83
 10
5748.41
 20
963.731
 30
0.000000
  70
    32
  0
VERTEX
  8
01
  5
1CB84
 10
5748.42
 20
963.726
 30
0.000000
  70
    32
  0
VERTEX
  8
01
  5
1CB85
 10
5748.43
 20
963.720
 30
0.000000
  70
    32
  0
VERTEX
  8
01
  5
1CB86
 10
5748.45
 20
963.715
 30
0.000000
  70
    32
  0
VERTEX
  8
01
  5
1CB87
 10
5748.46
 20
963.710
 30
0.000000
  70
    32
  0
VERTEX
  8
01
  5
1CB88
 10
5748.47
 20
963.705
 30
0.000000
  70
    32
  0
VERTEX
  8
01
  5
1CB89
 10
5748.48
 20
963.699
 30
0.000000
  70
    32
  0
VERTEX
  8
01
  5
1CB8A
 10
5748.50
 20
963.694
 30
0.000000
  70
    32
  0
VERTEX
  8
01
  5
1CB8B
 10
5748.51
 20
963.689
 30
0.000000
  70
    32
  0
VERTEX
  8
01
  5
1CB8C
 10
5748.52
 20
963.684
 30
0.000000
  70
    32
  0
VERTEX
  8
01
  5
1CB8D
 10
5748.54
 20
963.679
 30
0.000000
  70
    32
  0
VERTEX
  8
01
  5
1CB8E
 10
5748.55
 20
963.674
 30
0.000000
  70
    32
  0
VERTEX
  8
01
  5
1CB8F
 10
5748.57
 20
963.669
 30
0.000000
  70
    32
  0
VERTEX
  8
01
  5
1CB90
 10
5748.58
 20
963.664
 30
0.000000
  70
    32
  0
VERTEX
  8
01
  5
1CB91
 10
5748.60
 20
963.659
 30
0.000000
  70
    32
  0
VERTEX
  8
01
  5
1CB92
 10
5748.61
 20
963.654
 30
0.000000
  70
    32
  0
VERTEX
  8
01
  5
1CB93
 10
5748.63
 20
963.650
 30
0.000000
  70
    32
  0
VERTEX
  8
01
  5
1CB94
 10
5748.64
 20
963.645
 30
0.000000
  70
    32
  0
VERTEX
  8
01
  5
1CB95
 10
5748.66
 20
963.640
 30
0.000000
  70
    32
  0
VERTEX
  8
01
  5
1CB96
 10
5748.68
 20
963.636
 30
0.000000
  70
    32
  0
VERTEX
  8
01
  5
1CB97
 10
5748.69
 20
963.631
 30
0.000000
  70
    32
  0
VERTEX
  8
01
  5
1CB98
 10
5748.71
 20
963.627
 30
0.000000
  70
    32
  0
VERTEX
  8
01
  5
1CB99
 10
5748.73
 20
963.622
 30
0.000000
  70
    32
  0
VERTEX
  8
01
  5
1CB9A
 10
5748.74
 20
963.618
 30
0.000000
  70
    32
  0
VERTEX
  8
01
  5
1CB9B
 10
5748.76
 20
963.613
 30
0.000000
  70
    32
  0
VERTEX
  8
01
  5
1CB9C
 10
5748.78
 20
963.609
 30
0.000000
  70
    32
  0
VERTEX
  8
01
  5
1CB9D
 10
5748.79
 20
963.605
 30
0.000000
  70
    32
  0
VERTEX
  8
01
  5
1CB9E
 10
5748.81
 20
963.601
 30
0.000000
  70
    32
  0
VERTEX
  8
01
  5
1CB9F
 10
5748.83
 20
963.596
 30
0.000000
  70
    32
  0
VERTEX
  8
01
  5
1CBA0
 10
5748.85
 20
963.592
 30
0.000000
  70
    32
  0
VERTEX
  8
01
  5
1CBA1
 10
5748.87
 20
963.588
 30
0.000000
  70
    32
  0
VERTEX
  8
01
  5
1CBA2
 10
5748.89
 20
963.584
 30
0.000000
  70
    32
  0
VERTEX
  8
01
  5
1CBA3
 10
5748.91
 20
963.580
 30
0.000000
  70
    32
  0
VERTEX
  8
01
  5
1CBA4
 10
5748.92
 20
963.577
 30
0.000000
  70
    32
  0
VERTEX
  8
01
  5
1CBA5
 10
5748.94
 20
963.573
 30
0.000000
  70
    32
  0
VERTEX
  8
01
  5
1CBA6
 10
5748.96
 20
963.569
 30
0.000000
  70
    32
  0
VERTEX
  8
01
  5
1CBA7
 10
5748.98
 20
963.565
 30
0.000000
  70
    32
  0
VERTEX
  8
01
  5
1CBA8
 10
5749.00
 20
963.562
 30
0.000000
  70
    32
  0
VERTEX
  8
01
  5
1CBA9
 10
5749.02
 20
963.558
 30
0.000000
  70
    32
  0
VERTEX
  8
01
  5
1CBAA
 10
5749.04
 20
963.555
 30
0.000000
  70
    32
  0
VERTEX
  8
01
  5
1CBAB
 10
5749.06
 20
963.551
 30
0.000000
  70
    32
  0
VERTEX
  8
01
  5
1CBAC
 10
5749.08
 20
963.548
 30
0.000000
  70
    32
  0
VERTEX
  8
01
  5
1CBAD
 10
5749.10
 20
963.544
 30
0.000000
  70
    32
  0
VERTEX
  8
01
  5
1CBAE
 10
5749.12
 20
963.541
 30
0.000000
  70
    32
  0
VERTEX
  8
01
  5
1CBAF
 10
5749.15
 20
963.538
 30
0.000000
  70
    32
  0
VERTEX
  8
01
  5
1CBB0
 10
5749.17
 20
963.535
 30
0.000000
  70
    32
  0
VERTEX
  8
01
  5
1CBB1
 10
5749.19
 20
963.532
 30
0.000000
  70
    32
  0
VERTEX
  8
01
  5
1CBB2
 10
5749.21
 20
963.529
 30
0.000000
  70
    32
  0
VERTEX
  8
01
  5
1CBB3
 10
5749.23
 20
963.526
 30
0.000000
  70
    32
  0
VERTEX
  8
01
  5
1CBB4
 10
5749.25
 20
963.523
 30
0.000000
  70
    32
  0
VERTEX
  8
01
  5
1CBB5
 10
5749.27
 20
963.520
 30
0.000000
  70
    32
  0
VERTEX
  8
01
  5
1CBB6
 10
5749.30
 20
963.518
 30
0.000000
  70
    32
  0
VERTEX
  8
01
  5
1CBB7
 10
5749.32
 20
963.515
 30
0.000000
  70
    32
  0
VERTEX
  8
01
  5
1CBB8
 10
5749.34
 20
963.512
 30
0.000000
  70
    32
  0
VERTEX
  8
01
  5
1CBB9
 10
5749.36
 20
963.510
 30
0.000000
  70
    32
  0
VERTEX
  8
01
  5
1CBBA
 10
5749.39
 20
963.507
 30
0.000000
  70
    32
  0
VERTEX
  8
01
  5
1CBBB
 10
5749.41
 20
963.505
 30
0.000000
  70
    32
  0
VERTEX
  8
01
  5
1CBBC
 10
5749.43
 20
963.503
 30
0.000000
  70
    32
  0
VERTEX
  8
01
  5
1CBBD
 10
5749.45
 20
963.500
 30
0.000000
  70
    32
  0
VERTEX
  8
01
  5
1CBBE
 10
5749.48
 20
963.498
 30
0.000000
  70
    32
  0
VERTEX
  8
01
  5
1CBBF
 10
5749.50
 20
963.496
 30
0.000000
  70
    32
  0
VERTEX
  8
01
  5
1CBC0
 10
5749.52
 20
963.494
 30
0.000000
  70
    32
  0
VERTEX
  8
01
  5
1CBC1
 10
5749.55
 20
963.492
 30
0.000000
  70
    32
  0
VERTEX
  8
01
  5
1CBC2
 10
5749.57
 20
963.490
 30
0.000000
  70
    32
  0
VERTEX
  8
01
  5
1CBC3
 10
5749.59
 20
963.488
 30
0.000000
  70
    32
  0
VERTEX
  8
01
  5
1CBC4
 10
5749.62
 20
963.487
 30
0.000000
  70
    32
  0
VERTEX
  8
01
  5
1CBC5
 10
5749.64
 20
963.485
 30
0.000000
  70
    32
  0
VERTEX
  8
01
  5
1CBC6
 10
5749.66
 20
963.483
 30
0.000000
  70
    32
  0
VERTEX
  8
01
  5
1CBC7
 10
5749.69
 20
963.482
 30
0.000000
  70
    32
  0
VERTEX
  8
01
  5
1CBC8
 10
5749.71
 20
963.480
 30
0.000000
  70
    32
  0
VERTEX
  8
01
  5
1CBC9
 10
5749.74
 20
963.479
 30
0.000000
  70
    32
  0
VERTEX
  8
01
  5
1CBCA
 10
5749.76
 20
963.478
 30
0.000000
  70
    32
  0
VERTEX
  8
01
  5
1CBCB
 10
5749.78
 20
963.476
 30
0.000000
  70
    32
  0
VERTEX
  8
01
  5
1CBCC
 10
5749.81
 20
963.475
 30
0.000000
  70
    32
  0
VERTEX
  8
01
  5
1CBCD
 10
5749.83
 20
963.474
 30
0.000000
  70
    32
  0
VERTEX
  8
01
  5
1CBCE
 10
5749.86
 20
963.473
 30
0.000000
  70
    32
  0
VERTEX
  8
01
  5
1CBCF
 10
5749.88
 20
963.472
 30
0.000000
  70
    32
  0
VERTEX
  8
01
  5
1CBD0
 10
5749.90
 20
963.471
 30
0.000000
  70
    32
  0
VERTEX
  8
01
  5
1CBD1
 10
5749.93
 20
963.471
 30
0.000000
  70
    32
  0
VERTEX
  8
01
  5
1CBD2
 10
5749.95
 20
963.470
 30
0.000000
  70
    32
  0
VERTEX
  8
01
  5
1CBD3
 10
5749.98
 20
963.469
 30
0.000000
  70
    32
  0
VERTEX
  8
01
  5
1CBD4
 10
5750.00
 20
963.469
 30
0.000000
  70
    32
  0
VERTEX
  8
01
  5
1CBD5
 10
5750.03
 20
963.468
 30
0.000000
  70
    32
  0
VERTEX
  8
01
  5
1CBD6
 10
5750.05
 20
963.468
 30
0.000000
  70
    32
  0
VERTEX
  8
01
  5
1CBD7
 10
5750.08
 20
963.467
 30
0.000000
  70
    32
  0
VERTEX
  8
01
  5
1CBD8
 10
5750.10
 20
963.467
 30
0.000000
  70
    32
  0
VERTEX
  8
01
  5
1CBD9
 10
5750.12
 20
963.467
 30
0.000000
  70
    32
  0
VERTEX
  8
01
  5
1CBDA
 10
5750.15
 20
963.467
 30
0.000000
  70
    32
  0
VERTEX
  8
01
  5
1CBDB
 10
5750.17
 20
963.467
 30
0.000000
  70
    32
  0
SEQEND
  8
01
  5
1CBDC
  0
POLYLINE
  5
1C4C6
  8
01
 10
5735.9238715902829
 20
945.39930145681012
 30
0.0
 66
     1
 70
     8
  0
VERTEX
  8
01
  5
1CBDD
 10
5735.92
 20
945.399
 30
0.000000
  70
    32
  0
VERTEX
  8
01
  5
1CBDE
 10
5735.93
 20
945.377
 30
0.000000
  70
    32
  0
VERTEX
  8
01
  5
1CBDF
 10
5735.94
 20
945.355
 30
0.000000
  70
    32
  0
VERTEX
  8
01
  5
1CBE0
 10
5735.96
 20
945.333
 30
0.000000
  70
    32
  0
VERTEX
  8
01
  5
1CBE1
 10
5735.99
 20
945.312
 30
0.000000
  70
    32
  0
VERTEX
  8
01
  5
1CBE2
 10
5736.02
 20
945.290
 30
0.000000
  70
    32
  0
VERTEX
  8
01
  5
1CBE3
 10
5736.06
 20
945.269
 30
0.000000
  70
    32
  0
VERTEX
  8
01
  5
1CBE4
 10
5736.11
 20
945.248
 30
0.000000
  70
    32
  0
VERTEX
  8
01
  5
1CBE5
 10
5736.17
 20
945.227
 30
0.000000
  70
    32
  0
VERTEX
  8
01
  5
1CBE6
 10
5736.24
 20
945.207
 30
0.000000
  70
    32
  0
VERTEX
  8
01
  5
1CBE7
 10
5736.31
 20
945.187
 30
0.000000
  70
    32
  0
VERTEX
  8
01
  5
1CBE8
 10
5736.39
 20
945.168
 30
0.000000
  70
    32
  0
VERTEX
  8
01
  5
1CBE9
 10
5736.47
 20
945.149
 30
0.000000
  70
    32
  0
VERTEX
  8
01
  5
1CBEA
 10
5736.56
 20
945.131
 30
0.000000
  70
    32
  0
VERTEX
  8
01
  5
1CBEB
 10
5736.66
 20
945.114
 30
0.000000
  70
    32
  0
VERTEX
  8
01
  5
1CBEC
 10
5736.77
 20
945.097
 30
0.000000
  70
    32
  0
VERTEX
  8
01
  5
1CBED
 10
5736.88
 20
945.081
 30
0.000000
  70
    32
  0
VERTEX
  8
01
  5
1CBEE
 10
5736.99
 20
945.066
 30
0.000000
  70
    32
  0
VERTEX
  8
01
  5
1CBEF
 10
5737.11
 20
945.051
 30
0.000000
  70
    32
  0
VERTEX
  8
01
  5
1CBF0
 10
5737.24
 20
945.038
 30
0.000000
  70
    32
  0
VERTEX
  8
01
  5
1CBF1
 10
5737.37
 20
945.025
 30
0.000000
  70
    32
  0
VERTEX
  8
01
  5
1CBF2
 10
5737.50
 20
945.013
 30
0.000000
  70
    32
  0
VERTEX
  8
01
  5
1CBF3
 10
5737.64
 20
945.002
 30
0.000000
  70
    32
  0
VERTEX
  8
01
  5
1CBF4
 10
5737.78
 20
944.993
 30
0.000000
  70
    32
  0
VERTEX
  8
01
  5
1CBF5
 10
5737.93
 20
944.984
 30
0.000000
  70
    32
  0
VERTEX
  8
01
  5
1CBF6
 10
5738.08
 20
944.976
 30
0.000000
  70
    32
  0
VERTEX
  8
01
  5
1CBF7
 10
5738.23
 20
944.969
 30
0.000000
  70
    32
  0
VERTEX
  8
01
  5
1CBF8
 10
5738.38
 20
944.963
 30
0.000000
  70
    32
  0
VERTEX
  8
01
  5
1CBF9
 10
5738.54
 20
944.958
 30
0.000000
  70
    32
  0
VERTEX
  8
01
  5
1CBFA
 10
5738.70
 20
944.954
 30
0.000000
  70
    32
  0
VERTEX
  8
01
  5
1CBFB
 10
5738.86
 20
944.951
 30
0.000000
  70
    32
  0
VERTEX
  8
01
  5
1CBFC
 10
5739.01
 20
944.950
 30
0.000000
  70
    32
  0
VERTEX
  8
01
  5
1CBFD
 10
5739.17
 20
944.949
 30
0.000000
  70
    32
  0
VERTEX
  8
01
  5
1CBFE
 10
5739.33
 20
944.950
 30
0.000000
  70
    32
  0
VERTEX
  8
01
  5
1CBFF
 10
5739.49
 20
944.951
 30
0.000000
  70
    32
  0
VERTEX
  8
01
  5
1CC00
 10
5739.65
 20
944.954
 30
0.000000
  70
    32
  0
VERTEX
  8
01
  5
1CC01
 10
5739.81
 20
944.958
 30
0.000000
  70
    32
  0
VERTEX
  8
01
  5
1CC02
 10
5739.96
 20
944.963
 30
0.000000
  70
    32
  0
VERTEX
  8
01
  5
1CC03
 10
5740.12
 20
944.969
 30
0.000000
  70
    32
  0
VERTEX
  8
01
  5
1CC04
 10
5740.27
 20
944.976
 30
0.000000
  70
    32
  0
VERTEX
  8
01
  5
1CC05
 10
5740.42
 20
944.984
 30
0.000000
  70
    32
  0
VERTEX
  8
01
  5
1CC06
 10
5740.56
 20
944.993
 30
0.000000
  70
    32
  0
VERTEX
  8
01
  5
1CC07
 10
5740.71
 20
945.002
 30
0.000000
  70
    32
  0
VERTEX
  8
01
  5
1CC08
 10
5740.84
 20
945.013
 30
0.000000
  70
    32
  0
VERTEX
  8
01
  5
1CC09
 10
5740.98
 20
945.025
 30
0.000000
  70
    32
  0
VERTEX
  8
01
  5
1CC0A
 10
5741.11
 20
945.038
 30
0.000000
  70
    32
  0
VERTEX
  8
01
  5
1CC0B
 10
5741.24
 20
945.051
 30
0.000000
  70
    32
  0
VERTEX
  8
01
  5
1CC0C
 10
5741.36
 20
945.066
 30
0.000000
  70
    32
  0
VERTEX
  8
01
  5
1CC0D
 10
5741.47
 20
945.081
 30
0.000000
  70
    32
  0
VERTEX
  8
01
  5
1CC0E
 10
5741.58
 20
945.097
 30
0.000000
  70
    32
  0
VERTEX
  8
01
  5
1CC0F
 10
5741.69
 20
945.114
 30
0.000000
  70
    32
  0
VERTEX
  8
01
  5
1CC10
 10
5741.78
 20
945.131
 30
0.000000
  70
    32
  0
VERTEX
  8
01
  5
1CC11
 10
5741.88
 20
945.149
 30
0.000000
  70
    32
  0
VERTEX
  8
01
  5
1CC12
 10
5741.96
 20
945.168
 30
0.000000
  70
    32
  0
VERTEX
  8
01
  5
1CC13
 10
5742.04
 20
945.187
 30
0.000000
  70
    32
  0
VERTEX
  8
01
  5
1CC14
 10
5742.11
 20
945.207
 30
0.000000
  70
    32
  0
VERTEX
  8
01
  5
1CC15
 10
5742.18
 20
945.227
 30
0.000000
  70
    32
  0
VERTEX
  8
01
  5
1CC16
 10
5742.23
 20
945.248
 30
0.000000
  70
    32
  0
VERTEX
  8
01
  5
1CC17
 10
5742.28
 20
945.269
 30
0.000000
  70
    32
  0
VERTEX
  8
01
  5
1CC18
 10
5742.33
 20
945.290
 30
0.000000
  70
    32
  0
VERTEX
  8
01
  5
1CC19
 10
5742.36
 20
945.312
 30
0.000000
  70
    32
  0
VERTEX
  8
01
  5
1CC1A
 10
5742.39
 20
945.333
 30
0.000000
  70
    32
  0
VERTEX
  8
01
  5
1CC1B
 10
5742.41
 20
945.355
 30
0.000000
  70
    32
  0
VERTEX
  8
01
  5
1CC1C
 10
5742.42
 20
945.377
 30
0.000000
  70
    32
  0
VERTEX
  8
01
  5
1CC1D
 10
5742.42
 20
945.399
 30
0.000000
  70
    32
  0
VERTEX
  8
01
  5
1CC1E
 10
5742.42
 20
945.421
 30
0.000000
  70
    32
  0
VERTEX
  8
01
  5
1CC1F
 10
5742.41
 20
945.443
 30
0.000000
  70
    32
  0
VERTEX
  8
01
  5
1CC20
 10
5742.39
 20
945.465
 30
0.000000
  70
    32
  0
VERTEX
  8
01
  5
1CC21
 10
5742.36
 20
945.487
 30
0.000000
  70
    32
  0
VERTEX
  8
01
  5
1CC22
 10
5742.33
 20
945.509
 30
0.000000
  70
    32
  0
VERTEX
  8
01
  5
1CC23
 10
5742.28
 20
945.530
 30
0.000000
  70
    32
  0
VERTEX
  8
01
  5
1CC24
 10
5742.23
 20
945.551
 30
0.000000
  70
    32
  0
VERTEX
  8
01
  5
1CC25
 10
5742.18
 20
945.572
 30
0.000000
  70
    32
  0
VERTEX
  8
01
  5
1CC26
 10
5742.11
 20
945.592
 30
0.000000
  70
    32
  0
VERTEX
  8
01
  5
1CC27
 10
5742.04
 20
945.611
 30
0.000000
  70
    32
  0
VERTEX
  8
01
  5
1CC28
 10
5741.96
 20
945.631
 30
0.000000
  70
    32
  0
VERTEX
  8
01
  5
1CC29
 10
5741.88
 20
945.649
 30
0.000000
  70
    32
  0
VERTEX
  8
01
  5
1CC2A
 10
5741.78
 20
945.667
 30
0.000000
  70
    32
  0
VERTEX
  8
01
  5
1CC2B
 10
5741.69
 20
945.685
 30
0.000000
  70
    32
  0
VERTEX
  8
01
  5
1CC2C
 10
5741.58
 20
945.702
 30
0.000000
  70
    32
  0
VERTEX
  8
01
  5
1CC2D
 10
5741.47
 20
945.717
 30
0.000000
  70
    32
  0
VERTEX
  8
01
  5
1CC2E
 10
5741.36
 20
945.733
 30
0.000000
  70
    32
  0
VERTEX
  8
01
  5
1CC2F
 10
5741.24
 20
945.747
 30
0.000000
  70
    32
  0
VERTEX
  8
01
  5
1CC30
 10
5741.11
 20
945.761
 30
0.000000
  70
    32
  0
VERTEX
  8
01
  5
1CC31
 10
5740.98
 20
945.773
 30
0.000000
  70
    32
  0
VERTEX
  8
01
  5
1CC32
 10
5740.84
 20
945.785
 30
0.000000
  70
    32
  0
VERTEX
  8
01
  5
1CC33
 10
5740.71
 20
945.796
 30
0.000000
  70
    32
  0
VERTEX
  8
01
  5
1CC34
 10
5740.56
 20
945.806
 30
0.000000
  70
    32
  0
VERTEX
  8
01
  5
1CC35
 10
5740.42
 20
945.815
 30
0.000000
  70
    32
  0
VERTEX
  8
01
  5
1CC36
 10
5740.27
 20
945.823
 30
0.000000
  70
    32
  0
VERTEX
  8
01
  5
1CC37
 10
5740.12
 20
945.830
 30
0.000000
  70
    32
  0
VERTEX
  8
01
  5
1CC38
 10
5739.96
 20
945.836
 30
0.000000
  70
    32
  0
VERTEX
  8
01
  5
1CC39
 10
5739.81
 20
945.841
 30
0.000000
  70
    32
  0
VERTEX
  8
01
  5
1CC3A
 10
5739.65
 20
945.844
 30
0.000000
  70
    32
  0
VERTEX
  8
01
  5
1CC3B
 10
5739.49
 20
945.847
 30
0.000000
  70
    32
  0
VERTEX
  8
01
  5
1CC3C
 10
5739.33
 20
945.849
 30
0.000000
  70
    32
  0
VERTEX
  8
01
  5
1CC3D
 10
5739.17
 20
945.849
 30
0.000000
  70
    32
  0
VERTEX
  8
01
  5
1CC3E
 10
5739.01
 20
945.849
 30
0.000000
  70
    32
  0
VERTEX
  8
01
  5
1CC3F
 10
5738.86
 20
945.847
 30
0.000000
  70
    32
  0
VERTEX
  8
01
  5
1CC40
 10
5738.70
 20
945.844
 30
0.000000
  70
    32
  0
VERTEX
  8
01
  5
1CC41
 10
5738.54
 20
945.841
 30
0.000000
  70
    32
  0
VERTEX
  8
01
  5
1CC42
 10
5738.38
 20
945.836
 30
0.000000
  70
    32
  0
VERTEX
  8
01
  5
1CC43
 10
5738.23
 20
945.830
 30
0.000000
  70
    32
  0
VERTEX
  8
01
  5
1CC44
 10
5738.08
 20
945.823
 30
0.000000
  70
    32
  0
VERTEX
  8
01
  5
1CC45
 10
5737.93
 20
945.815
 30
0.000000
  70
    32
  0
VERTEX
  8
01
  5
1CC46
 10
5737.78
 20
945.806
 30
0.000000
  70
    32
  0
VERTEX
  8
01
  5
1CC47
 10
5737.64
 20
945.796
 30
0.000000
  70
    32
  0
VERTEX
  8
01
  5
1CC48
 10
5737.50
 20
945.785
 30
0.000000
  70
    32
  0
VERTEX
  8
01
  5
1CC49
 10
5737.37
 20
945.773
 30
0.000000
  70
    32
  0
VERTEX
  8
01
  5
1CC4A
 10
5737.24
 20
945.761
 30
0.000000
  70
    32
  0
VERTEX
  8
01
  5
1CC4B
 10
5737.11
 20
945.747
 30
0.000000
  70
    32
  0
VERTEX
  8
01
  5
1CC4C
 10
5736.99
 20
945.733
 30
0.000000
  70
    32
  0
VERTEX
  8
01
  5
1CC4D
 10
5736.88
 20
945.717
 30
0.000000
  70
    32
  0
VERTEX
  8
01
  5
1CC4E
 10
5736.77
 20
945.702
 30
0.000000
  70
    32
  0
VERTEX
  8
01
  5
1CC4F
 10
5736.66
 20
945.685
 30
0.000000
  70
    32
  0
VERTEX
  8
01
  5
1CC50
 10
5736.56
 20
945.667
 30
0.000000
  70
    32
  0
VERTEX
  8
01
  5
1CC51
 10
5736.47
 20
945.649
 30
0.000000
  70
    32
  0
VERTEX
  8
01
  5
1CC52
 10
5736.39
 20
945.631
 30
0.000000
  70
    32
  0
VERTEX
  8
01
  5
1CC53
 10
5736.31
 20
945.611
 30
0.000000
  70
    32
  0
VERTEX
  8
01
  5
1CC54
 10
5736.24
 20
945.592
 30
0.000000
  70
    32
  0
VERTEX
  8
01
  5
1CC55
 10
5736.17
 20
945.572
 30
0.000000
  70
    32
  0
VERTEX
  8
01
  5
1CC56
 10
5736.11
 20
945.551
 30
0.000000
  70
    32
  0
VERTEX
  8
01
  5
1CC57
 10
5736.06
 20
945.530
 30
0.000000
  70
    32
  0
VERTEX
  8
01
  5
1CC58
 10
5736.02
 20
945.509
 30
0.000000
  70
    32
  0
VERTEX
  8
01
  5
1CC59
 10
5735.99
 20
945.487
 30
0.000000
  70
    32
  0
VERTEX
  8
01
  5
1CC5A
 10
5735.96
 20
945.465
 30
0.000000
  70
    32
  0
VERTEX
  8
01
  5
1CC5B
 10
5735.94
 20
945.443
 30
0.000000
  70
    32
  0
VERTEX
  8
01
  5
1CC5C
 10
5735.93
 20
945.421
 30
0.000000
  70
    32
  0
VERTEX
  8
01
  5
1CC5D
 10
5735.92
 20
945.399
 30
0.000000
  70
    32
  0
SEQEND
  8
01
  5
1CC5E
  0
LINE
  5
1C4C7
  8
01
 10
5393.1738795902838
 20
966.6293014567791
 30
0.0
 11
5412.1738795902838
 21
966.6293014567791
 31
0.0
  0
LINE
  5
1C4C8
  8
01
 10
5278.1738795902829
 20
951.6293014567791
 30
0.0
 11
5412.1738795902838
 21
951.6293014567791
 31
0.0
  0
ARC
  5
1C4C9
  8
01
 10
5412.1738795902838
 20
952.6293014567791
 30
0.0
 40
1.0
 50
270.0
 51
0.0
  0
LINE
  5
1C4CA
  8
01
 10
5278.1738795902829
 20
960.62930145677933
 30
0.0
 11
5412.1738795902838
 21
960.62930145677933
 31
0.0
  0
LINE
  5
1C4CB
  8
01
 10
5393.1738795902838
 20
944.6293014567791
 30
0.0
 11
5412.1738795902838
 21
944.6293014567791
 31
0.0
  0
ARC
  5
1C4CC
  8
01
 10
5393.1738795902838
 20
946.62930145677899
 30
0.0
 40
2.0
 50
180.0
 51
270.0
  0
LINE
  5
1C4CD
  8
01
 10
5413.1738795902838
 20
965.62930145677922
 30
0.0
 11
5413.1738795902838
 21
945.6293014567791
 31
0.0
  0
ARC
  5
1C4CE
  8
01
 10
5412.1738795902838
 20
959.6293014567791
 30
0.0
 40
1.0
 50
0.0
 51
90.0
  0
ARC
  5
1C4CF
  8
01
 10
5412.1738795902838
 20
965.62930145677922
 30
0.0
 40
1.0
 50
0.0
 51
90.0
  0
ARC
  5
1C4D0
  8
01
 10
5412.1738795902838
 20
945.6293014567791
 30
0.0
 40
1.0
 50
270.0
 51
0.0
  0
LINE
  5
1C4D1
  8
01
 10
5391.1738795902838
 20
964.21508789440588
 30
0.0
 11
5391.1738795902838
 21
963.46688766403588
 31
0.0
  0
LINE
  5
1C4D2
  8
01
 10
5393.1738795902838
 20
966.6293014567791
 30
0.0
 11
5391.4667728090972
 21
964.92219467559255
 31
0.0
  0
LINE
  5
1C4D3
  8
01
 10
5277.1738795902838
 20
949.57941858901563
 30
0.0
 11
5277.1738795902838
 21
960.07028351243594
 31
0.0
  0
ARC
  5
1C4D4
  8
01
 10
5278.1738795902829
 20
952.6293014567791
 30
0.0
 40
1.0
 50
180.0
 51
270.0
  0
ARC
  5
1C4D5
  8
01
 10
5278.1738795902829
 20
949.57941858901563
 30
0.0000000000112557
 40
1.0
 50
180.0
 51
270.0
  0
ARC
  5
1C4D6
  8
01
 10
5278.1738795902829
 20
959.6293014567791
 30
0.0
 40
1.0
 50
90.0
 51
180.0
  0
LINE
  5
1C4D7
  8
01
 10
5391.1738795902838
 20
948.07023914621504
 30
0.0
 11
5391.1738795902838
 21
946.62930145677899
 31
0.0
  0
LINE
  5
1C4D8
  8
01
 10
5393.1738795902838
 20
948.07023914621504
 30
0.0
 11
5393.1738795902838
 21
944.6293014567791
 31
0.0
  0
POLYLINE
  5
1C4D9
  8
01
 10
5391.1738795902838
 20
948.57941858901563
 30
0.0000000000082766
 66
     1
 70
     8
  0
VERTEX
  8
01
  5
1CC5F
 10
5391.17
 20
948.579
 30
8.27660e-012
  70
    32
  0
VERTEX
  8
01
  5
1CC60
 10
5391.20
 20
948.579
 30
8.27660e-012
  70
    32
  0
VERTEX
  8
01
  5
1CC61
 10
5391.22
 20
948.579
 30
8.27660e-012
  70
    32
  0
VERTEX
  8
01
  5
1CC62
 10
5391.25
 20
948.579
 30
8.27660e-012
  70
    32
  0
VERTEX
  8
01
  5
1CC63
 10
5391.27
 20
948.579
 30
8.27660e-012
  70
    32
  0
VERTEX
  8
01
  5
1CC64
 10
5391.30
 20
948.578
 30
8.27660e-012
  70
    32
  0
VERTEX
  8
01
  5
1CC65
 10
5391.32
 20
948.578
 30
8.27660e-012
  70
    32
  0
VERTEX
  8
01
  5
1CC66
 10
5391.35
 20
948.578
 30
8.27660e-012
  70
    32
  0
VERTEX
  8
01
  5
1CC67
 10
5391.37
 20
948.577
 30
8.27660e-012
  70
    32
  0
VERTEX
  8
01
  5
1CC68
 10
5391.39
 20
948.576
 30
8.27660e-012
  70
    32
  0
VERTEX
  8
01
  5
1CC69
 10
5391.42
 20
948.576
 30
8.27660e-012
  70
    32
  0
VERTEX
  8
01
  5
1CC6A
 10
5391.44
 20
948.575
 30
8.27660e-012
  70
    32
  0
VERTEX
  8
01
  5
1CC6B
 10
5391.47
 20
948.574
 30
8.27660e-012
  70
    32
  0
VERTEX
  8
01
  5
1CC6C
 10
5391.49
 20
948.573
 30
8.27660e-012
  70
    32
  0
VERTEX
  8
01
  5
1CC6D
 10
5391.52
 20
948.572
 30
8.27660e-012
  70
    32
  0
VERTEX
  8
01
  5
1CC6E
 10
5391.54
 20
948.571
 30
8.27660e-012
  70
    32
  0
VERTEX
  8
01
  5
1CC6F
 10
5391.56
 20
948.570
 30
8.27660e-012
  70
    32
  0
VERTEX
  8
01
  5
1CC70
 10
5391.59
 20
948.569
 30
8.27660e-012
  70
    32
  0
VERTEX
  8
01
  5
1CC71
 10
5391.61
 20
948.567
 30
8.27660e-012
  70
    32
  0
VERTEX
  8
01
  5
1CC72
 10
5391.64
 20
948.566
 30
8.27660e-012
  70
    32
  0
VERTEX
  8
01
  5
1CC73
 10
5391.66
 20
948.564
 30
8.27660e-012
  70
    32
  0
VERTEX
  8
01
  5
1CC74
 10
5391.68
 20
948.563
 30
8.27660e-012
  70
    32
  0
VERTEX
  8
01
  5
1CC75
 10
5391.71
 20
948.561
 30
8.27660e-012
  70
    32
  0
VERTEX
  8
01
  5
1CC76
 10
5391.73
 20
948.560
 30
8.27660e-012
  70
    32
  0
VERTEX
  8
01
  5
1CC77
 10
5391.75
 20
948.558
 30
8.27660e-012
  70
    32
  0
VERTEX
  8
01
  5
1CC78
 10
5391.78
 20
948.556
 30
8.27660e-012
  70
    32
  0
VERTEX
  8
01
  5
1CC79
 10
5391.80
 20
948.554
 30
8.27660e-012
  70
    32
  0
VERTEX
  8
01
  5
1CC7A
 10
5391.82
 20
948.552
 30
8.27660e-012
  70
    32
  0
VERTEX
  8
01
  5
1CC7B
 10
5391.85
 20
948.550
 30
8.27660e-012
  70
    32
  0
VERTEX
  8
01
  5
1CC7C
 10
5391.87
 20
948.548
 30
8.27660e-012
  70
    32
  0
VERTEX
  8
01
  5
1CC7D
 10
5391.89
 20
948.546
 30
8.27660e-012
  70
    32
  0
VERTEX
  8
01
  5
1CC7E
 10
5391.92
 20
948.544
 30
8.27660e-012
  70
    32
  0
VERTEX
  8
01
  5
1CC7F
 10
5391.94
 20
948.541
 30
8.27660e-012
  70
    32
  0
VERTEX
  8
01
  5
1CC80
 10
5391.96
 20
948.539
 30
8.27660e-012
  70
    32
  0
VERTEX
  8
01
  5
1CC81
 10
5391.98
 20
948.537
 30
8.27660e-012
  70
    32
  0
VERTEX
  8
01
  5
1CC82
 10
5392.01
 20
948.534
 30
8.27660e-012
  70
    32
  0
VERTEX
  8
01
  5
1CC83
 10
5392.03
 20
948.531
 30
8.27660e-012
  70
    32
  0
VERTEX
  8
01
  5
1CC84
 10
5392.05
 20
948.529
 30
8.27660e-012
  70
    32
  0
VERTEX
  8
01
  5
1CC85
 10
5392.07
 20
948.526
 30
8.27660e-012
  70
    32
  0
VERTEX
  8
01
  5
1CC86
 10
5392.09
 20
948.523
 30
8.27660e-012
  70
    32
  0
VERTEX
  8
01
  5
1CC87
 10
5392.12
 20
948.520
 30
8.27660e-012
  70
    32
  0
VERTEX
  8
01
  5
1CC88
 10
5392.14
 20
948.517
 30
8.27660e-012
  70
    32
  0
VERTEX
  8
01
  5
1CC89
 10
5392.16
 20
948.514
 30
8.27660e-012
  70
    32
  0
VERTEX
  8
01
  5
1CC8A
 10
5392.18
 20
948.511
 30
8.27660e-012
  70
    32
  0
VERTEX
  8
01
  5
1CC8B
 10
5392.20
 20
948.508
 30
8.27660e-012
  70
    32
  0
VERTEX
  8
01
  5
1CC8C
 10
5392.22
 20
948.505
 30
8.27660e-012
  70
    32
  0
VERTEX
  8
01
  5
1CC8D
 10
5392.24
 20
948.502
 30
8.27660e-012
  70
    32
  0
VERTEX
  8
01
  5
1CC8E
 10
5392.26
 20
948.499
 30
8.27660e-012
  70
    32
  0
VERTEX
  8
01
  5
1CC8F
 10
5392.29
 20
948.495
 30
8.27660e-012
  70
    32
  0
VERTEX
  8
01
  5
1CC90
 10
5392.31
 20
948.492
 30
8.27660e-012
  70
    32
  0
VERTEX
  8
01
  5
1CC91
 10
5392.33
 20
948.488
 30
8.27660e-012
  70
    32
  0
VERTEX
  8
01
  5
1CC92
 10
5392.35
 20
948.485
 30
8.27660e-012
  70
    32
  0
VERTEX
  8
01
  5
1CC93
 10
5392.37
 20
948.481
 30
8.27660e-012
  70
    32
  0
VERTEX
  8
01
  5
1CC94
 10
5392.38
 20
948.477
 30
8.27660e-012
  70
    32
  0
VERTEX
  8
01
  5
1CC95
 10
5392.40
 20
948.474
 30
8.27660e-012
  70
    32
  0
VERTEX
  8
01
  5
1CC96
 10
5392.42
 20
948.470
 30
8.27660e-012
  70
    32
  0
VERTEX
  8
01
  5
1CC97
 10
5392.44
 20
948.466
 30
8.27660e-012
  70
    32
  0
VERTEX
  8
01
  5
1CC98
 10
5392.46
 20
948.462
 30
8.27660e-012
  70
    32
  0
VERTEX
  8
01
  5
1CC99
 10
5392.48
 20
948.458
 30
8.27660e-012
  70
    32
  0
VERTEX
  8
01
  5
1CC9A
 10
5392.50
 20
948.454
 30
8.27660e-012
  70
    32
  0
VERTEX
  8
01
  5
1CC9B
 10
5392.52
 20
948.450
 30
8.27660e-012
  70
    32
  0
VERTEX
  8
01
  5
1CC9C
 10
5392.54
 20
948.446
 30
8.27660e-012
  70
    32
  0
VERTEX
  8
01
  5
1CC9D
 10
5392.55
 20
948.442
 30
8.27660e-012
  70
    32
  0
VERTEX
  8
01
  5
1CC9E
 10
5392.57
 20
948.437
 30
8.27660e-012
  70
    32
  0
VERTEX
  8
01
  5
1CC9F
 10
5392.59
 20
948.433
 30
8.27660e-012
  70
    32
  0
VERTEX
  8
01
  5
1CCA0
 10
5392.61
 20
948.429
 30
8.27660e-012
  70
    32
  0
VERTEX
  8
01
  5
1CCA1
 10
5392.62
 20
948.424
 30
8.27660e-012
  70
    32
  0
VERTEX
  8
01
  5
1CCA2
 10
5392.64
 20
948.420
 30
8.27660e-012
  70
    32
  0
VERTEX
  8
01
  5
1CCA3
 10
5392.66
 20
948.415
 30
8.27660e-012
  70
    32
  0
VERTEX
  8
01
  5
1CCA4
 10
5392.67
 20
948.411
 30
8.27660e-012
  70
    32
  0
VERTEX
  8
01
  5
1CCA5
 10
5392.69
 20
948.406
 30
8.27660e-012
  70
    32
  0
VERTEX
  8
01
  5
1CCA6
 10
5392.70
 20
948.401
 30
8.27660e-012
  70
    32
  0
VERTEX
  8
01
  5
1CCA7
 10
5392.72
 20
948.397
 30
8.27660e-012
  70
    32
  0
VERTEX
  8
01
  5
1CCA8
 10
5392.74
 20
948.392
 30
8.27660e-012
  70
    32
  0
VERTEX
  8
01
  5
1CCA9
 10
5392.75
 20
948.387
 30
8.27660e-012
  70
    32
  0
VERTEX
  8
01
  5
1CCAA
 10
5392.77
 20
948.382
 30
8.27660e-012
  70
    32
  0
VERTEX
  8
01
  5
1CCAB
 10
5392.78
 20
948.377
 30
8.27660e-012
  70
    32
  0
VERTEX
  8
01
  5
1CCAC
 10
5392.79
 20
948.372
 30
8.27660e-012
  70
    32
  0
VERTEX
  8
01
  5
1CCAD
 10
5392.81
 20
948.367
 30
8.27660e-012
  70
    32
  0
VERTEX
  8
01
  5
1CCAE
 10
5392.82
 20
948.362
 30
8.27660e-012
  70
    32
  0
VERTEX
  8
01
  5
1CCAF
 10
5392.84
 20
948.357
 30
8.27660e-012
  70
    32
  0
VERTEX
  8
01
  5
1CCB0
 10
5392.85
 20
948.352
 30
8.27660e-012
  70
    32
  0
VERTEX
  8
01
  5
1CCB1
 10
5392.86
 20
948.347
 30
8.27660e-012
  70
    32
  0
VERTEX
  8
01
  5
1CCB2
 10
5392.88
 20
948.342
 30
8.27660e-012
  70
    32
  0
VERTEX
  8
01
  5
1CCB3
 10
5392.89
 20
948.336
 30
8.27660e-012
  70
    32
  0
VERTEX
  8
01
  5
1CCB4
 10
5392.90
 20
948.331
 30
8.27660e-012
  70
    32
  0
VERTEX
  8
01
  5
1CCB5
 10
5392.91
 20
948.326
 30
8.27660e-012
  70
    32
  0
VERTEX
  8
01
  5
1CCB6
 10
5392.93
 20
948.321
 30
8.27660e-012
  70
    32
  0
VERTEX
  8
01
  5
1CCB7
 10
5392.94
 20
948.315
 30
8.27660e-012
  70
    32
  0
VERTEX
  8
01
  5
1CCB8
 10
5392.95
 20
948.310
 30
8.27660e-012
  70
    32
  0
VERTEX
  8
01
  5
1CCB9
 10
5392.96
 20
948.304
 30
8.27660e-012
  70
    32
  0
VERTEX
  8
01
  5
1CCBA
 10
5392.97
 20
948.299
 30
8.27660e-012
  70
    32
  0
VERTEX
  8
01
  5
1CCBB
 10
5392.98
 20
948.293
 30
8.27660e-012
  70
    32
  0
VERTEX
  8
01
  5
1CCBC
 10
5392.99
 20
948.288
 30
8.27660e-012
  70
    32
  0
VERTEX
  8
01
  5
1CCBD
 10
5393.00
 20
948.282
 30
8.27660e-012
  70
    32
  0
VERTEX
  8
01
  5
1CCBE
 10
5393.01
 20
948.276
 30
8.27660e-012
  70
    32
  0
VERTEX
  8
01
  5
1CCBF
 10
5393.02
 20
948.271
 30
8.27660e-012
  70
    32
  0
VERTEX
  8
01
  5
1CCC0
 10
5393.03
 20
948.265
 30
8.27660e-012
  70
    32
  0
VERTEX
  8
01
  5
1CCC1
 10
5393.04
 20
948.259
 30
8.27660e-012
  70
    32
  0
VERTEX
  8
01
  5
1CCC2
 10
5393.05
 20
948.254
 30
8.27660e-012
  70
    32
  0
VERTEX
  8
01
  5
1CCC3
 10
5393.06
 20
948.248
 30
8.27660e-012
  70
    32
  0
VERTEX
  8
01
  5
1CCC4
 10
5393.07
 20
948.242
 30
8.27660e-012
  70
    32
  0
VERTEX
  8
01
  5
1CCC5
 10
5393.07
 20
948.236
 30
8.27660e-012
  70
    32
  0
VERTEX
  8
01
  5
1CCC6
 10
5393.08
 20
948.230
 30
8.27660e-012
  70
    32
  0
VERTEX
  8
01
  5
1CCC7
 10
5393.09
 20
948.225
 30
8.27660e-012
  70
    32
  0
VERTEX
  8
01
  5
1CCC8
 10
5393.09
 20
948.219
 30
8.27660e-012
  70
    32
  0
VERTEX
  8
01
  5
1CCC9
 10
5393.10
 20
948.213
 30
8.27660e-012
  70
    32
  0
VERTEX
  8
01
  5
1CCCA
 10
5393.11
 20
948.207
 30
8.27660e-012
  70
    32
  0
VERTEX
  8
01
  5
1CCCB
 10
5393.11
 20
948.201
 30
8.27660e-012
  70
    32
  0
VERTEX
  8
01
  5
1CCCC
 10
5393.12
 20
948.195
 30
8.27660e-012
  70
    32
  0
VERTEX
  8
01
  5
1CCCD
 10
5393.13
 20
948.189
 30
8.27660e-012
  70
    32
  0
VERTEX
  8
01
  5
1CCCE
 10
5393.13
 20
948.183
 30
8.27660e-012
  70
    32
  0
VERTEX
  8
01
  5
1CCCF
 10
5393.14
 20
948.177
 30
8.27660e-012
  70
    32
  0
VERTEX
  8
01
  5
1CCD0
 10
5393.14
 20
948.171
 30
8.27660e-012
  70
    32
  0
VERTEX
  8
01
  5
1CCD1
 10
5393.14
 20
948.165
 30
8.27660e-012
  70
    32
  0
VERTEX
  8
01
  5
1CCD2
 10
5393.15
 20
948.159
 30
8.27660e-012
  70
    32
  0
VERTEX
  8
01
  5
1CCD3
 10
5393.15
 20
948.153
 30
8.27660e-012
  70
    32
  0
VERTEX
  8
01
  5
1CCD4
 10
5393.16
 20
948.147
 30
8.27660e-012
  70
    32
  0
VERTEX
  8
01
  5
1CCD5
 10
5393.16
 20
948.141
 30
8.27660e-012
  70
    32
  0
VERTEX
  8
01
  5
1CCD6
 10
5393.16
 20
948.135
 30
8.27660e-012
  70
    32
  0
VERTEX
  8
01
  5
1CCD7
 10
5393.16
 20
948.128
 30
8.27660e-012
  70
    32
  0
VERTEX
  8
01
  5
1CCD8
 10
5393.17
 20
948.122
 30
8.27660e-012
  70
    32
  0
VERTEX
  8
01
  5
1CCD9
 10
5393.17
 20
948.116
 30
8.27660e-012
  70
    32
  0
VERTEX
  8
01
  5
1CCDA
 10
5393.17
 20
948.110
 30
8.27660e-012
  70
    32
  0
VERTEX
  8
01
  5
1CCDB
 10
5393.17
 20
948.104
 30
8.27660e-012
  70
    32
  0
VERTEX
  8
01
  5
1CCDC
 10
5393.17
 20
948.098
 30
8.27660e-012
  70
    32
  0
VERTEX
  8
01
  5
1CCDD
 10
5393.17
 20
948.092
 30
8.27660e-012
  70
    32
  0
VERTEX
  8
01
  5
1CCDE
 10
5393.17
 20
948.086
 30
8.27660e-012
  70
    32
  0
VERTEX
  8
01
  5
1CCDF
 10
5393.17
 20
948.079
 30
8.27660e-012
  70
    32
  0
SEQEND
  8
01
  5
1CCE0
  0
POLYLINE
  5
1C4DA
  8
01
 10
5389.1738795902838
 20
948.57941858901563
 30
0.0000000000041383
 66
     1
 70
     8
  0
VERTEX
  8
01
  5
1CCE1
 10
5389.17
 20
948.579
 30
4.13830e-012
  70
    32
  0
VERTEX
  8
01
  5
1CCE2
 10
5389.20
 20
948.579
 30
4.13830e-012
  70
    32
  0
VERTEX
  8
01
  5
1CCE3
 10
5389.22
 20
948.579
 30
4.13830e-012
  70
    32
  0
VERTEX
  8
01
  5
1CCE4
 10
5389.25
 20
948.579
 30
4.13830e-012
  70
    32
  0
VERTEX
  8
01
  5
1CCE5
 10
5389.27
 20
948.579
 30
4.13830e-012
  70
    32
  0
VERTEX
  8
01
  5
1CCE6
 10
5389.30
 20
948.578
 30
4.13830e-012
  70
    32
  0
VERTEX
  8
01
  5
1CCE7
 10
5389.32
 20
948.578
 30
4.13830e-012
  70
    32
  0
VERTEX
  8
01
  5
1CCE8
 10
5389.35
 20
948.578
 30
4.13830e-012
  70
    32
  0
VERTEX
  8
01
  5
1CCE9
 10
5389.37
 20
948.577
 30
4.13830e-012
  70
    32
  0
VERTEX
  8
01
  5
1CCEA
 10
5389.39
 20
948.576
 30
4.13830e-012
  70
    32
  0
VERTEX
  8
01
  5
1CCEB
 10
5389.42
 20
948.576
 30
4.13830e-012
  70
    32
  0
VERTEX
  8
01
  5
1CCEC
 10
5389.44
 20
948.575
 30
4.13830e-012
  70
    32
  0
VERTEX
  8
01
  5
1CCED
 10
5389.47
 20
948.574
 30
4.13830e-012
  70
    32
  0
VERTEX
  8
01
  5
1CCEE
 10
5389.49
 20
948.573
 30
4.13830e-012
  70
    32
  0
VERTEX
  8
01
  5
1CCEF
 10
5389.52
 20
948.572
 30
4.13830e-012
  70
    32
  0
VERTEX
  8
01
  5
1CCF0
 10
5389.54
 20
948.571
 30
4.13830e-012
  70
    32
  0
VERTEX
  8
01
  5
1CCF1
 10
5389.56
 20
948.570
 30
4.13830e-012
  70
    32
  0
VERTEX
  8
01
  5
1CCF2
 10
5389.59
 20
948.569
 30
4.13830e-012
  70
    32
  0
VERTEX
  8
01
  5
1CCF3
 10
5389.61
 20
948.567
 30
4.13830e-012
  70
    32
  0
VERTEX
  8
01
  5
1CCF4
 10
5389.64
 20
948.566
 30
4.13830e-012
  70
    32
  0
VERTEX
  8
01
  5
1CCF5
 10
5389.66
 20
948.564
 30
4.13830e-012
  70
    32
  0
VERTEX
  8
01
  5
1CCF6
 10
5389.68
 20
948.563
 30
4.13830e-012
  70
    32
  0
VERTEX
  8
01
  5
1CCF7
 10
5389.71
 20
948.561
 30
4.13830e-012
  70
    32
  0
VERTEX
  8
01
  5
1CCF8
 10
5389.73
 20
948.560
 30
4.13830e-012
  70
    32
  0
VERTEX
  8
01
  5
1CCF9
 10
5389.75
 20
948.558
 30
4.13830e-012
  70
    32
  0
VERTEX
  8
01
  5
1CCFA
 10
5389.78
 20
948.556
 30
4.13830e-012
  70
    32
  0
VERTEX
  8
01
  5
1CCFB
 10
5389.80
 20
948.554
 30
4.13830e-012
  70
    32
  0
VERTEX
  8
01
  5
1CCFC
 10
5389.82
 20
948.552
 30
4.13830e-012
  70
    32
  0
VERTEX
  8
01
  5
1CCFD
 10
5389.85
 20
948.550
 30
4.13830e-012
  70
    32
  0
VERTEX
  8
01
  5
1CCFE
 10
5389.87
 20
948.548
 30
4.13830e-012
  70
    32
  0
VERTEX
  8
01
  5
1CCFF
 10
5389.89
 20
948.546
 30
4.13830e-012
  70
    32
  0
VERTEX
  8
01
  5
1CD00
 10
5389.92
 20
948.544
 30
4.13830e-012
  70
    32
  0
VERTEX
  8
01
  5
1CD01
 10
5389.94
 20
948.541
 30
4.13830e-012
  70
    32
  0
VERTEX
  8
01
  5
1CD02
 10
5389.96
 20
948.539
 30
4.13830e-012
  70
    32
  0
VERTEX
  8
01
  5
1CD03
 10
5389.98
 20
948.537
 30
4.13830e-012
  70
    32
  0
VERTEX
  8
01
  5
1CD04
 10
5390.01
 20
948.534
 30
4.13830e-012
  70
    32
  0
VERTEX
  8
01
  5
1CD05
 10
5390.03
 20
948.531
 30
4.13830e-012
  70
    32
  0
VERTEX
  8
01
  5
1CD06
 10
5390.05
 20
948.529
 30
4.13830e-012
  70
    32
  0
VERTEX
  8
01
  5
1CD07
 10
5390.07
 20
948.526
 30
4.13830e-012
  70
    32
  0
VERTEX
  8
01
  5
1CD08
 10
5390.09
 20
948.523
 30
4.13830e-012
  70
    32
  0
VERTEX
  8
01
  5
1CD09
 10
5390.12
 20
948.520
 30
4.13830e-012
  70
    32
  0
VERTEX
  8
01
  5
1CD0A
 10
5390.14
 20
948.517
 30
4.13830e-012
  70
    32
  0
VERTEX
  8
01
  5
1CD0B
 10
5390.16
 20
948.514
 30
4.13830e-012
  70
    32
  0
VERTEX
  8
01
  5
1CD0C
 10
5390.18
 20
948.511
 30
4.13830e-012
  70
    32
  0
VERTEX
  8
01
  5
1CD0D
 10
5390.20
 20
948.508
 30
4.13830e-012
  70
    32
  0
VERTEX
  8
01
  5
1CD0E
 10
5390.22
 20
948.505
 30
4.13830e-012
  70
    32
  0
VERTEX
  8
01
  5
1CD0F
 10
5390.24
 20
948.502
 30
4.13830e-012
  70
    32
  0
VERTEX
  8
01
  5
1CD10
 10
5390.26
 20
948.499
 30
4.13830e-012
  70
    32
  0
VERTEX
  8
01
  5
1CD11
 10
5390.29
 20
948.495
 30
4.13830e-012
  70
    32
  0
VERTEX
  8
01
  5
1CD12
 10
5390.31
 20
948.492
 30
4.13830e-012
  70
    32
  0
VERTEX
  8
01
  5
1CD13
 10
5390.33
 20
948.488
 30
4.13830e-012
  70
    32
  0
VERTEX
  8
01
  5
1CD14
 10
5390.35
 20
948.485
 30
4.13830e-012
  70
    32
  0
VERTEX
  8
01
  5
1CD15
 10
5390.37
 20
948.481
 30
4.13830e-012
  70
    32
  0
VERTEX
  8
01
  5
1CD16
 10
5390.38
 20
948.477
 30
4.13830e-012
  70
    32
  0
VERTEX
  8
01
  5
1CD17
 10
5390.40
 20
948.474
 30
4.13830e-012
  70
    32
  0
VERTEX
  8
01
  5
1CD18
 10
5390.42
 20
948.470
 30
4.13830e-012
  70
    32
  0
VERTEX
  8
01
  5
1CD19
 10
5390.44
 20
948.466
 30
4.13830e-012
  70
    32
  0
VERTEX
  8
01
  5
1CD1A
 10
5390.46
 20
948.462
 30
4.13830e-012
  70
    32
  0
VERTEX
  8
01
  5
1CD1B
 10
5390.48
 20
948.458
 30
4.13830e-012
  70
    32
  0
VERTEX
  8
01
  5
1CD1C
 10
5390.50
 20
948.454
 30
4.13830e-012
  70
    32
  0
VERTEX
  8
01
  5
1CD1D
 10
5390.52
 20
948.450
 30
4.13830e-012
  70
    32
  0
VERTEX
  8
01
  5
1CD1E
 10
5390.54
 20
948.446
 30
4.13830e-012
  70
    32
  0
VERTEX
  8
01
  5
1CD1F
 10
5390.55
 20
948.442
 30
4.13830e-012
  70
    32
  0
VERTEX
  8
01
  5
1CD20
 10
5390.57
 20
948.437
 30
4.13830e-012
  70
    32
  0
VERTEX
  8
01
  5
1CD21
 10
5390.59
 20
948.433
 30
4.13830e-012
  70
    32
  0
VERTEX
  8
01
  5
1CD22
 10
5390.61
 20
948.429
 30
4.13830e-012
  70
    32
  0
VERTEX
  8
01
  5
1CD23
 10
5390.62
 20
948.424
 30
4.13830e-012
  70
    32
  0
VERTEX
  8
01
  5
1CD24
 10
5390.64
 20
948.420
 30
4.13830e-012
  70
    32
  0
VERTEX
  8
01
  5
1CD25
 10
5390.66
 20
948.415
 30
4.13830e-012
  70
    32
  0
VERTEX
  8
01
  5
1CD26
 10
5390.67
 20
948.411
 30
4.13830e-012
  70
    32
  0
VERTEX
  8
01
  5
1CD27
 10
5390.69
 20
948.406
 30
4.13830e-012
  70
    32
  0
VERTEX
  8
01
  5
1CD28
 10
5390.70
 20
948.401
 30
4.13830e-012
  70
    32
  0
VERTEX
  8
01
  5
1CD29
 10
5390.72
 20
948.397
 30
4.13830e-012
  70
    32
  0
VERTEX
  8
01
  5
1CD2A
 10
5390.74
 20
948.392
 30
4.13830e-012
  70
    32
  0
VERTEX
  8
01
  5
1CD2B
 10
5390.75
 20
948.387
 30
4.13830e-012
  70
    32
  0
VERTEX
  8
01
  5
1CD2C
 10
5390.77
 20
948.382
 30
4.13830e-012
  70
    32
  0
VERTEX
  8
01
  5
1CD2D
 10
5390.78
 20
948.377
 30
4.13830e-012
  70
    32
  0
VERTEX
  8
01
  5
1CD2E
 10
5390.79
 20
948.372
 30
4.13830e-012
  70
    32
  0
VERTEX
  8
01
  5
1CD2F
 10
5390.81
 20
948.367
 30
4.13830e-012
  70
    32
  0
VERTEX
  8
01
  5
1CD30
 10
5390.82
 20
948.362
 30
4.13830e-012
  70
    32
  0
VERTEX
  8
01
  5
1CD31
 10
5390.84
 20
948.357
 30
4.13830e-012
  70
    32
  0
VERTEX
  8
01
  5
1CD32
 10
5390.85
 20
948.352
 30
4.13830e-012
  70
    32
  0
VERTEX
  8
01
  5
1CD33
 10
5390.86
 20
948.347
 30
4.13830e-012
  70
    32
  0
VERTEX
  8
01
  5
1CD34
 10
5390.88
 20
948.342
 30
4.13830e-012
  70
    32
  0
VERTEX
  8
01
  5
1CD35
 10
5390.89
 20
948.336
 30
4.13830e-012
  70
    32
  0
VERTEX
  8
01
  5
1CD36
 10
5390.90
 20
948.331
 30
4.13830e-012
  70
    32
  0
VERTEX
  8
01
  5
1CD37
 10
5390.91
 20
948.326
 30
4.13830e-012
  70
    32
  0
VERTEX
  8
01
  5
1CD38
 10
5390.93
 20
948.321
 30
4.13830e-012
  70
    32
  0
VERTEX
  8
01
  5
1CD39
 10
5390.94
 20
948.315
 30
4.13830e-012
  70
    32
  0
VERTEX
  8
01
  5
1CD3A
 10
5390.95
 20
948.310
 30
4.13830e-012
  70
    32
  0
VERTEX
  8
01
  5
1CD3B
 10
5390.96
 20
948.304
 30
4.13830e-012
  70
    32
  0
VERTEX
  8
01
  5
1CD3C
 10
5390.97
 20
948.299
 30
4.13830e-012
  70
    32
  0
VERTEX
  8
01
  5
1CD3D
 10
5390.98
 20
948.293
 30
4.13830e-012
  70
    32
  0
VERTEX
  8
01
  5
1CD3E
 10
5390.99
 20
948.288
 30
4.13830e-012
  70
    32
  0
VERTEX
  8
01
  5
1CD3F
 10
5391.00
 20
948.282
 30
4.13830e-012
  70
    32
  0
VERTEX
  8
01
  5
1CD40
 10
5391.01
 20
948.276
 30
4.13830e-012
  70
    32
  0
VERTEX
  8
01
  5
1CD41
 10
5391.02
 20
948.271
 30
4.13830e-012
  70
    32
  0
VERTEX
  8
01
  5
1CD42
 10
5391.03
 20
948.265
 30
4.13830e-012
  70
    32
  0
VERTEX
  8
01
  5
1CD43
 10
5391.04
 20
948.259
 30
4.13830e-012
  70
    32
  0
VERTEX
  8
01
  5
1CD44
 10
5391.05
 20
948.254
 30
4.13830e-012
  70
    32
  0
VERTEX
  8
01
  5
1CD45
 10
5391.06
 20
948.248
 30
4.13830e-012
  70
    32
  0
VERTEX
  8
01
  5
1CD46
 10
5391.07
 20
948.242
 30
4.13830e-012
  70
    32
  0
VERTEX
  8
01
  5
1CD47
 10
5391.07
 20
948.236
 30
4.13830e-012
  70
    32
  0
VERTEX
  8
01
  5
1CD48
 10
5391.08
 20
948.230
 30
4.13830e-012
  70
    32
  0
VERTEX
  8
01
  5
1CD49
 10
5391.09
 20
948.225
 30
4.13830e-012
  70
    32
  0
VERTEX
  8
01
  5
1CD4A
 10
5391.09
 20
948.219
 30
4.13830e-012
  70
    32
  0
VERTEX
  8
01
  5
1CD4B
 10
5391.10
 20
948.213
 30
4.13830e-012
  70
    32
  0
VERTEX
  8
01
  5
1CD4C
 10
5391.11
 20
948.207
 30
4.13830e-012
  70
    32
  0
VERTEX
  8
01
  5
1CD4D
 10
5391.11
 20
948.201
 30
4.13830e-012
  70
    32
  0
VERTEX
  8
01
  5
1CD4E
 10
5391.12
 20
948.195
 30
4.13830e-012
  70
    32
  0
VERTEX
  8
01
  5
1CD4F
 10
5391.13
 20
948.189
 30
4.13830e-012
  70
    32
  0
VERTEX
  8
01
  5
1CD50
 10
5391.13
 20
948.183
 30
4.13830e-012
  70
    32
  0
VERTEX
  8
01
  5
1CD51
 10
5391.14
 20
948.177
 30
4.13830e-012
  70
    32
  0
VERTEX
  8
01
  5
1CD52
 10
5391.14
 20
948.171
 30
4.13830e-012
  70
    32
  0
VERTEX
  8
01
  5
1CD53
 10
5391.14
 20
948.165
 30
4.13830e-012
  70
    32
  0
VERTEX
  8
01
  5
1CD54
 10
5391.15
 20
948.159
 30
4.13830e-012
  70
    32
  0
VERTEX
  8
01
  5
1CD55
 10
5391.15
 20
948.153
 30
4.13830e-012
  70
    32
  0
VERTEX
  8
01
  5
1CD56
 10
5391.16
 20
948.147
 30
4.13830e-012
  70
    32
  0
VERTEX
  8
01
  5
1CD57
 10
5391.16
 20
948.141
 30
4.13830e-012
  70
    32
  0
VERTEX
  8
01
  5
1CD58
 10
5391.16
 20
948.135
 30
4.13830e-012
  70
    32
  0
VERTEX
  8
01
  5
1CD59
 10
5391.16
 20
948.128
 30
4.13830e-012
  70
    32
  0
VERTEX
  8
01
  5
1CD5A
 10
5391.17
 20
948.122
 30
4.13830e-012
  70
    32
  0
VERTEX
  8
01
  5
1CD5B
 10
5391.17
 20
948.116
 30
4.13830e-012
  70
    32
  0
VERTEX
  8
01
  5
1CD5C
 10
5391.17
 20
948.110
 30
4.13830e-012
  70
    32
  0
VERTEX
  8
01
  5
1CD5D
 10
5391.17
 20
948.104
 30
4.13830e-012
  70
    32
  0
VERTEX
  8
01
  5
1CD5E
 10
5391.17
 20
948.098
 30
4.13830e-012
  70
    32
  0
VERTEX
  8
01
  5
1CD5F
 10
5391.17
 20
948.092
 30
4.13830e-012
  70
    32
  0
VERTEX
  8
01
  5
1CD60
 10
5391.17
 20
948.086
 30
4.13830e-012
  70
    32
  0
VERTEX
  8
01
  5
1CD61
 10
5391.17
 20
948.079
 30
4.13830e-012
  70
    32
  0
SEQEND
  8
01
  5
1CD62
  0
LINE
  5
1C4DB
  8
01
 10
5278.1738795902829
 20
951.62930145678274
 30
0.0
 11
5412.1738795902838
 21
951.62930145678274
 31
0.0
  0
LINE
  5
1C4DC
  8
01
 10
5391.1738795902838
 20
948.57941858901563
 30
0.0000000000041383
 11
5278.1738795902829
 21
948.57941858901563
 31
0.0000000000041436
  0
LINE
  5
1C4DD
  8
01
 10
5393.1738795902838
 20
966.6293014567791
 30
0.0
 11
5393.1738795902838
 21
963.96688766403577
 31
0.0
  0
LINE
  5
1C4DE
  8
01
 10
5391.1738795902838
 20
963.46688766403588
 30
0.0
 11
5278.1526774608374
 21
961.07005872202365
 31
0.0
  0
ARC
  5
1C4DF
  8
01
 10
5278.1738795902829
 20
960.07028351243594
 30
0.0
 40
1.0
 50
91.21488356683345
 51
180.0
  0
LINE
  5
1C4E0
  8
01
 10
5391.1738795902838
 20
964.21508789440588
 30
0.0
 11
5391.1738795902838
 21
963.46688766403588
 31
0.0
  0
ARC
  5
1C4E1
  8
01
 10
5392.1738795902838
 20
964.21508789440588
 30
0.0
 40
1.0
 50
135.00000000000949
 51
180.0
  0
POLYLINE
  5
1C4E2
  8
01
 10
5393.1738795902838
 20
963.96688766403577
 30
0.0
 66
     1
 70
     8
  0
VERTEX
  8
01
  5
1CD63
 10
5393.17
 20
963.967
 30
0.000000
  70
    32
  0
VERTEX
  8
01
  5
1CD64
 10
5393.17
 20
963.961
 30
0.000000
  70
    32
  0
VERTEX
  8
01
  5
1CD65
 10
5393.17
 20
963.955
 30
0.000000
  70
    32
  0
VERTEX
  8
01
  5
1CD66
 10
5393.17
 20
963.948
 30
0.000000
  70
    32
  0
VERTEX
  8
01
  5
1CD67
 10
5393.17
 20
963.942
 30
0.000000
  70
    32
  0
VERTEX
  8
01
  5
1CD68
 10
5393.17
 20
963.936
 30
0.000000
  70
    32
  0
VERTEX
  8
01
  5
1CD69
 10
5393.17
 20
963.930
 30
0.000000
  70
    32
  0
VERTEX
  8
01
  5
1CD6A
 10
5393.17
 20
963.924
 30
0.000000
  70
    32
  0
VERTEX
  8
01
  5
1CD6B
 10
5393.16
 20
963.918
 30
0.000000
  70
    32
  0
VERTEX
  8
01
  5
1CD6C
 10
5393.16
 20
963.912
 30
0.000000
  70
    32
  0
VERTEX
  8
01
  5
1CD6D
 10
5393.16
 20
963.906
 30
0.000000
  70
    32
  0
VERTEX
  8
01
  5
1CD6E
 10
5393.16
 20
963.900
 30
0.000000
  70
    32
  0
VERTEX
  8
01
  5
1CD6F
 10
5393.15
 20
963.894
 30
0.000000
  70
    32
  0
VERTEX
  8
01
  5
1CD70
 10
5393.15
 20
963.887
 30
0.000000
  70
    32
  0
VERTEX
  8
01
  5
1CD71
 10
5393.14
 20
963.881
 30
0.000000
  70
    32
  0
VERTEX
  8
01
  5
1CD72
 10
5393.14
 20
963.875
 30
0.000000
  70
    32
  0
VERTEX
  8
01
  5
1CD73
 10
5393.14
 20
963.869
 30
0.000000
  70
    32
  0
VERTEX
  8
01
  5
1CD74
 10
5393.13
 20
963.863
 30
0.000000
  70
    32
  0
VERTEX
  8
01
  5
1CD75
 10
5393.13
 20
963.857
 30
0.000000
  70
    32
  0
VERTEX
  8
01
  5
1CD76
 10
5393.12
 20
963.851
 30
0.000000
  70
    32
  0
VERTEX
  8
01
  5
1CD77
 10
5393.11
 20
963.845
 30
0.000000
  70
    32
  0
VERTEX
  8
01
  5
1CD78
 10
5393.11
 20
963.839
 30
0.000000
  70
    32
  0
VERTEX
  8
01
  5
1CD79
 10
5393.10
 20
963.834
 30
0.000000
  70
    32
  0
VERTEX
  8
01
  5
1CD7A
 10
5393.09
 20
963.828
 30
0.000000
  70
    32
  0
VERTEX
  8
01
  5
1CD7B
 10
5393.09
 20
963.822
 30
0.000000
  70
    32
  0
VERTEX
  8
01
  5
1CD7C
 10
5393.08
 20
963.816
 30
0.000000
  70
    32
  0
VERTEX
  8
01
  5
1CD7D
 10
5393.07
 20
963.810
 30
0.000000
  70
    32
  0
VERTEX
  8
01
  5
1CD7E
 10
5393.07
 20
963.804
 30
0.000000
  70
    32
  0
VERTEX
  8
01
  5
1CD7F
 10
5393.06
 20
963.798
 30
0.000000
  70
    32
  0
VERTEX
  8
01
  5
1CD80
 10
5393.05
 20
963.793
 30
0.000000
  70
    32
  0
VERTEX
  8
01
  5
1CD81
 10
5393.04
 20
963.787
 30
0.000000
  70
    32
  0
VERTEX
  8
01
  5
1CD82
 10
5393.03
 20
963.781
 30
0.000000
  70
    32
  0
VERTEX
  8
01
  5
1CD83
 10
5393.02
 20
963.776
 30
0.000000
  70
    32
  0
VERTEX
  8
01
  5
1CD84
 10
5393.01
 20
963.770
 30
0.000000
  70
    32
  0
VERTEX
  8
01
  5
1CD85
 10
5393.00
 20
963.764
 30
0.000000
  70
    32
  0
VERTEX
  8
01
  5
1CD86
 10
5392.99
 20
963.759
 30
0.000000
  70
    32
  0
VERTEX
  8
01
  5
1CD87
 10
5392.98
 20
963.753
 30
0.000000
  70
    32
  0
VERTEX
  8
01
  5
1CD88
 10
5392.97
 20
963.748
 30
0.000000
  70
    32
  0
VERTEX
  8
01
  5
1CD89
 10
5392.96
 20
963.742
 30
0.000000
  70
    32
  0
VERTEX
  8
01
  5
1CD8A
 10
5392.95
 20
963.737
 30
0.000000
  70
    32
  0
VERTEX
  8
01
  5
1CD8B
 10
5392.94
 20
963.731
 30
0.000000
  70
    32
  0
VERTEX
  8
01
  5
1CD8C
 10
5392.93
 20
963.726
 30
0.000000
  70
    32
  0
VERTEX
  8
01
  5
1CD8D
 10
5392.91
 20
963.720
 30
0.000000
  70
    32
  0
VERTEX
  8
01
  5
1CD8E
 10
5392.90
 20
963.715
 30
0.000000
  70
    32
  0
VERTEX
  8
01
  5
1CD8F
 10
5392.89
 20
963.710
 30
0.000000
  70
    32
  0
VERTEX
  8
01
  5
1CD90
 10
5392.88
 20
963.705
 30
0.000000
  70
    32
  0
VERTEX
  8
01
  5
1CD91
 10
5392.86
 20
963.699
 30
0.000000
  70
    32
  0
VERTEX
  8
01
  5
1CD92
 10
5392.85
 20
963.694
 30
0.000000
  70
    32
  0
VERTEX
  8
01
  5
1CD93
 10
5392.84
 20
963.689
 30
0.000000
  70
    32
  0
VERTEX
  8
01
  5
1CD94
 10
5392.82
 20
963.684
 30
0.000000
  70
    32
  0
VERTEX
  8
01
  5
1CD95
 10
5392.81
 20
963.679
 30
0.000000
  70
    32
  0
VERTEX
  8
01
  5
1CD96
 10
5392.79
 20
963.674
 30
0.000000
  70
    32
  0
VERTEX
  8
01
  5
1CD97
 10
5392.78
 20
963.669
 30
0.000000
  70
    32
  0
VERTEX
  8
01
  5
1CD98
 10
5392.77
 20
963.664
 30
0.000000
  70
    32
  0
VERTEX
  8
01
  5
1CD99
 10
5392.75
 20
963.659
 30
0.000000
  70
    32
  0
VERTEX
  8
01
  5
1CD9A
 10
5392.74
 20
963.654
 30
0.000000
  70
    32
  0
VERTEX
  8
01
  5
1CD9B
 10
5392.72
 20
963.650
 30
0.000000
  70
    32
  0
VERTEX
  8
01
  5
1CD9C
 10
5392.70
 20
963.645
 30
0.000000
  70
    32
  0
VERTEX
  8
01
  5
1CD9D
 10
5392.69
 20
963.640
 30
0.000000
  70
    32
  0
VERTEX
  8
01
  5
1CD9E
 10
5392.67
 20
963.636
 30
0.000000
  70
    32
  0
VERTEX
  8
01
  5
1CD9F
 10
5392.66
 20
963.631
 30
0.000000
  70
    32
  0
VERTEX
  8
01
  5
1CDA0
 10
5392.64
 20
963.627
 30
0.000000
  70
    32
  0
VERTEX
  8
01
  5
1CDA1
 10
5392.62
 20
963.622
 30
0.000000
  70
    32
  0
VERTEX
  8
01
  5
1CDA2
 10
5392.61
 20
963.618
 30
0.000000
  70
    32
  0
VERTEX
  8
01
  5
1CDA3
 10
5392.59
 20
963.613
 30
0.000000
  70
    32
  0
VERTEX
  8
01
  5
1CDA4
 10
5392.57
 20
963.609
 30
0.000000
  70
    32
  0
VERTEX
  8
01
  5
1CDA5
 10
5392.55
 20
963.605
 30
0.000000
  70
    32
  0
VERTEX
  8
01
  5
1CDA6
 10
5392.54
 20
963.601
 30
0.000000
  70
    32
  0
VERTEX
  8
01
  5
1CDA7
 10
5392.52
 20
963.596
 30
0.000000
  70
    32
  0
VERTEX
  8
01
  5
1CDA8
 10
5392.50
 20
963.592
 30
0.000000
  70
    32
  0
VERTEX
  8
01
  5
1CDA9
 10
5392.48
 20
963.588
 30
0.000000
  70
    32
  0
VERTEX
  8
01
  5
1CDAA
 10
5392.46
 20
963.584
 30
0.000000
  70
    32
  0
VERTEX
  8
01
  5
1CDAB
 10
5392.44
 20
963.580
 30
0.000000
  70
    32
  0
VERTEX
  8
01
  5
1CDAC
 10
5392.42
 20
963.577
 30
0.000000
  70
    32
  0
VERTEX
  8
01
  5
1CDAD
 10
5392.40
 20
963.573
 30
0.000000
  70
    32
  0
VERTEX
  8
01
  5
1CDAE
 10
5392.38
 20
963.569
 30
0.000000
  70
    32
  0
VERTEX
  8
01
  5
1CDAF
 10
5392.37
 20
963.565
 30
0.000000
  70
    32
  0
VERTEX
  8
01
  5
1CDB0
 10
5392.35
 20
963.562
 30
0.000000
  70
    32
  0
VERTEX
  8
01
  5
1CDB1
 10
5392.33
 20
963.558
 30
0.000000
  70
    32
  0
VERTEX
  8
01
  5
1CDB2
 10
5392.31
 20
963.555
 30
0.000000
  70
    32
  0
VERTEX
  8
01
  5
1CDB3
 10
5392.29
 20
963.551
 30
0.000000
  70
    32
  0
VERTEX
  8
01
  5
1CDB4
 10
5392.26
 20
963.548
 30
0.000000
  70
    32
  0
VERTEX
  8
01
  5
1CDB5
 10
5392.24
 20
963.544
 30
0.000000
  70
    32
  0
VERTEX
  8
01
  5
1CDB6
 10
5392.22
 20
963.541
 30
0.000000
  70
    32
  0
VERTEX
  8
01
  5
1CDB7
 10
5392.20
 20
963.538
 30
0.000000
  70
    32
  0
VERTEX
  8
01
  5
1CDB8
 10
5392.18
 20
963.535
 30
0.000000
  70
    32
  0
VERTEX
  8
01
  5
1CDB9
 10
5392.16
 20
963.532
 30
0.000000
  70
    32
  0
VERTEX
  8
01
  5
1CDBA
 10
5392.14
 20
963.529
 30
0.000000
  70
    32
  0
VERTEX
  8
01
  5
1CDBB
 10
5392.12
 20
963.526
 30
0.000000
  70
    32
  0
VERTEX
  8
01
  5
1CDBC
 10
5392.09
 20
963.523
 30
0.000000
  70
    32
  0
VERTEX
  8
01
  5
1CDBD
 10
5392.07
 20
963.520
 30
0.000000
  70
    32
  0
VERTEX
  8
01
  5
1CDBE
 10
5392.05
 20
963.518
 30
0.000000
  70
    32
  0
VERTEX
  8
01
  5
1CDBF
 10
5392.03
 20
963.515
 30
0.000000
  70
    32
  0
VERTEX
  8
01
  5
1CDC0
 10
5392.01
 20
963.512
 30
0.000000
  70
    32
  0
VERTEX
  8
01
  5
1CDC1
 10
5391.98
 20
963.510
 30
0.000000
  70
    32
  0
VERTEX
  8
01
  5
1CDC2
 10
5391.96
 20
963.507
 30
0.000000
  70
    32
  0
VERTEX
  8
01
  5
1CDC3
 10
5391.94
 20
963.505
 30
0.000000
  70
    32
  0
VERTEX
  8
01
  5
1CDC4
 10
5391.92
 20
963.503
 30
0.000000
  70
    32
  0
VERTEX
  8
01
  5
1CDC5
 10
5391.89
 20
963.500
 30
0.000000
  70
    32
  0
VERTEX
  8
01
  5
1CDC6
 10
5391.87
 20
963.498
 30
0.000000
  70
    32
  0
VERTEX
  8
01
  5
1CDC7
 10
5391.85
 20
963.496
 30
0.000000
  70
    32
  0
VERTEX
  8
01
  5
1CDC8
 10
5391.82
 20
963.494
 30
0.000000
  70
    32
  0
VERTEX
  8
01
  5
1CDC9
 10
5391.80
 20
963.492
 30
0.000000
  70
    32
  0
VERTEX
  8
01
  5
1CDCA
 10
5391.78
 20
963.490
 30
0.000000
  70
    32
  0
VERTEX
  8
01
  5
1CDCB
 10
5391.75
 20
963.488
 30
0.000000
  70
    32
  0
VERTEX
  8
01
  5
1CDCC
 10
5391.73
 20
963.487
 30
0.000000
  70
    32
  0
VERTEX
  8
01
  5
1CDCD
 10
5391.71
 20
963.485
 30
0.000000
  70
    32
  0
VERTEX
  8
01
  5
1CDCE
 10
5391.68
 20
963.483
 30
0.000000
  70
    32
  0
VERTEX
  8
01
  5
1CDCF
 10
5391.66
 20
963.482
 30
0.000000
  70
    32
  0
VERTEX
  8
01
  5
1CDD0
 10
5391.64
 20
963.480
 30
0.000000
  70
    32
  0
VERTEX
  8
01
  5
1CDD1
 10
5391.61
 20
963.479
 30
0.000000
  70
    32
  0
VERTEX
  8
01
  5
1CDD2
 10
5391.59
 20
963.478
 30
0.000000
  70
    32
  0
VERTEX
  8
01
  5
1CDD3
 10
5391.56
 20
963.476
 30
0.000000
  70
    32
  0
VERTEX
  8
01
  5
1CDD4
 10
5391.54
 20
963.475
 30
0.000000
  70
    32
  0
VERTEX
  8
01
  5
1CDD5
 10
5391.52
 20
963.474
 30
0.000000
  70
    32
  0
VERTEX
  8
01
  5
1CDD6
 10
5391.49
 20
963.473
 30
0.000000
  70
    32
  0
VERTEX
  8
01
  5
1CDD7
 10
5391.47
 20
963.472
 30
0.000000
  70
    32
  0
VERTEX
  8
01
  5
1CDD8
 10
5391.44
 20
963.471
 30
0.000000
  70
    32
  0
VERTEX
  8
01
  5
1CDD9
 10
5391.42
 20
963.471
 30
0.000000
  70
    32
  0
VERTEX
  8
01
  5
1CDDA
 10
5391.39
 20
963.470
 30
0.000000
  70
    32
  0
VERTEX
  8
01
  5
1CDDB
 10
5391.37
 20
963.469
 30
0.000000
  70
    32
  0
VERTEX
  8
01
  5
1CDDC
 10
5391.35
 20
963.469
 30
0.000000
  70
    32
  0
VERTEX
  8
01
  5
1CDDD
 10
5391.32
 20
963.468
 30
0.000000
  70
    32
  0
VERTEX
  8
01
  5
1CDDE
 10
5391.30
 20
963.468
 30
0.000000
  70
    32
  0
VERTEX
  8
01
  5
1CDDF
 10
5391.27
 20
963.467
 30
0.000000
  70
    32
  0
VERTEX
  8
01
  5
1CDE0
 10
5391.25
 20
963.467
 30
0.000000
  70
    32
  0
VERTEX
  8
01
  5
1CDE1
 10
5391.22
 20
963.467
 30
0.000000
  70
    32
  0
VERTEX
  8
01
  5
1CDE2
 10
5391.20
 20
963.467
 30
0.000000
  70
    32
  0
VERTEX
  8
01
  5
1CDE3
 10
5391.17
 20
963.467
 30
0.000000
  70
    32
  0
SEQEND
  8
01
  5
1CDE4
  0
POLYLINE
  5
1C4E3
  8
01
 10
5405.4238795902838
 20
945.39930145681012
 30
0.0
 66
     1
 70
     8
  0
VERTEX
  8
01
  5
1CDE5
 10
5405.42
 20
945.399
 30
0.000000
  70
    32
  0
VERTEX
  8
01
  5
1CDE6
 10
5405.42
 20
945.377
 30
0.000000
  70
    32
  0
VERTEX
  8
01
  5
1CDE7
 10
5405.41
 20
945.355
 30
0.000000
  70
    32
  0
VERTEX
  8
01
  5
1CDE8
 10
5405.39
 20
945.333
 30
0.000000
  70
    32
  0
VERTEX
  8
01
  5
1CDE9
 10
5405.36
 20
945.312
 30
0.000000
  70
    32
  0
VERTEX
  8
01
  5
1CDEA
 10
5405.33
 20
945.290
 30
0.000000
  70
    32
  0
VERTEX
  8
01
  5
1CDEB
 10
5405.28
 20
945.269
 30
0.000000
  70
    32
  0
VERTEX
  8
01
  5
1CDEC
 10
5405.23
 20
945.248
 30
0.000000
  70
    32
  0
VERTEX
  8
01
  5
1CDED
 10
5405.18
 20
945.227
 30
0.000000
  70
    32
  0
VERTEX
  8
01
  5
1CDEE
 10
5405.11
 20
945.207
 30
0.000000
  70
    32
  0
VERTEX
  8
01
  5
1CDEF
 10
5405.04
 20
945.187
 30
0.000000
  70
    32
  0
VERTEX
  8
01
  5
1CDF0
 10
5404.96
 20
945.168
 30
0.000000
  70
    32
  0
VERTEX
  8
01
  5
1CDF1
 10
5404.88
 20
945.149
 30
0.000000
  70
    32
  0
VERTEX
  8
01
  5
1CDF2
 10
5404.78
 20
945.131
 30
0.000000
  70
    32
  0
VERTEX
  8
01
  5
1CDF3
 10
5404.69
 20
945.114
 30
0.000000
  70
    32
  0
VERTEX
  8
01
  5
1CDF4
 10
5404.58
 20
945.097
 30
0.000000
  70
    32
  0
VERTEX
  8
01
  5
1CDF5
 10
5404.47
 20
945.081
 30
0.000000
  70
    32
  0
VERTEX
  8
01
  5
1CDF6
 10
5404.36
 20
945.066
 30
0.000000
  70
    32
  0
VERTEX
  8
01
  5
1CDF7
 10
5404.24
 20
945.051
 30
0.000000
  70
    32
  0
VERTEX
  8
01
  5
1CDF8
 10
5404.11
 20
945.038
 30
0.000000
  70
    32
  0
VERTEX
  8
01
  5
1CDF9
 10
5403.98
 20
945.025
 30
0.000000
  70
    32
  0
VERTEX
  8
01
  5
1CDFA
 10
5403.84
 20
945.013
 30
0.000000
  70
    32
  0
VERTEX
  8
01
  5
1CDFB
 10
5403.71
 20
945.002
 30
0.000000
  70
    32
  0
VERTEX
  8
01
  5
1CDFC
 10
5403.56
 20
944.993
 30
0.000000
  70
    32
  0
VERTEX
  8
01
  5
1CDFD
 10
5403.42
 20
944.984
 30
0.000000
  70
    32
  0
VERTEX
  8
01
  5
1CDFE
 10
5403.27
 20
944.976
 30
0.000000
  70
    32
  0
VERTEX
  8
01
  5
1CDFF
 10
5403.12
 20
944.969
 30
0.000000
  70
    32
  0
VERTEX
  8
01
  5
1CE00
 10
5402.96
 20
944.963
 30
0.000000
  70
    32
  0
VERTEX
  8
01
  5
1CE01
 10
5402.81
 20
944.958
 30
0.000000
  70
    32
  0
VERTEX
  8
01
  5
1CE02
 10
5402.65
 20
944.954
 30
0.000000
  70
    32
  0
VERTEX
  8
01
  5
1CE03
 10
5402.49
 20
944.951
 30
0.000000
  70
    32
  0
VERTEX
  8
01
  5
1CE04
 10
5402.33
 20
944.950
 30
0.000000
  70
    32
  0
VERTEX
  8
01
  5
1CE05
 10
5402.17
 20
944.949
 30
0.000000
  70
    32
  0
VERTEX
  8
01
  5
1CE06
 10
5402.01
 20
944.950
 30
0.000000
  70
    32
  0
VERTEX
  8
01
  5
1CE07
 10
5401.86
 20
944.951
 30
0.000000
  70
    32
  0
VERTEX
  8
01
  5
1CE08
 10
5401.70
 20
944.954
 30
0.000000
  70
    32
  0
VERTEX
  8
01
  5
1CE09
 10
5401.54
 20
944.958
 30
0.000000
  70
    32
  0
VERTEX
  8
01
  5
1CE0A
 10
5401.38
 20
944.963
 30
0.000000
  70
    32
  0
VERTEX
  8
01
  5
1CE0B
 10
5401.23
 20
944.969
 30
0.000000
  70
    32
  0
VERTEX
  8
01
  5
1CE0C
 10
5401.08
 20
944.976
 30
0.000000
  70
    32
  0
VERTEX
  8
01
  5
1CE0D
 10
5400.93
 20
944.984
 30
0.000000
  70
    32
  0
VERTEX
  8
01
  5
1CE0E
 10
5400.78
 20
944.993
 30
0.000000
  70
    32
  0
VERTEX
  8
01
  5
1CE0F
 10
5400.64
 20
945.002
 30
0.000000
  70
    32
  0
VERTEX
  8
01
  5
1CE10
 10
5400.50
 20
945.013
 30
0.000000
  70
    32
  0
VERTEX
  8
01
  5
1CE11
 10
5400.37
 20
945.025
 30
0.000000
  70
    32
  0
VERTEX
  8
01
  5
1CE12
 10
5400.24
 20
945.038
 30
0.000000
  70
    32
  0
VERTEX
  8
01
  5
1CE13
 10
5400.11
 20
945.051
 30
0.000000
  70
    32
  0
VERTEX
  8
01
  5
1CE14
 10
5399.99
 20
945.066
 30
0.000000
  70
    32
  0
VERTEX
  8
01
  5
1CE15
 10
5399.88
 20
945.081
 30
0.000000
  70
    32
  0
VERTEX
  8
01
  5
1CE16
 10
5399.77
 20
945.097
 30
0.000000
  70
    32
  0
VERTEX
  8
01
  5
1CE17
 10
5399.66
 20
945.114
 30
0.000000
  70
    32
  0
VERTEX
  8
01
  5
1CE18
 10
5399.56
 20
945.131
 30
0.000000
  70
    32
  0
VERTEX
  8
01
  5
1CE19
 10
5399.47
 20
945.149
 30
0.000000
  70
    32
  0
VERTEX
  8
01
  5
1CE1A
 10
5399.39
 20
945.168
 30
0.000000
  70
    32
  0
VERTEX
  8
01
  5
1CE1B
 10
5399.31
 20
945.187
 30
0.000000
  70
    32
  0
VERTEX
  8
01
  5
1CE1C
 10
5399.24
 20
945.207
 30
0.000000
  70
    32
  0
VERTEX
  8
01
  5
1CE1D
 10
5399.17
 20
945.227
 30
0.000000
  70
    32
  0
VERTEX
  8
01
  5
1CE1E
 10
5399.11
 20
945.248
 30
0.000000
  70
    32
  0
VERTEX
  8
01
  5
1CE1F
 10
5399.06
 20
945.269
 30
0.000000
  70
    32
  0
VERTEX
  8
01
  5
1CE20
 10
5399.02
 20
945.290
 30
0.000000
  70
    32
  0
VERTEX
  8
01
  5
1CE21
 10
5398.99
 20
945.312
 30
0.000000
  70
    32
  0
VERTEX
  8
01
  5
1CE22
 10
5398.96
 20
945.333
 30
0.000000
  70
    32
  0
VERTEX
  8
01
  5
1CE23
 10
5398.94
 20
945.355
 30
0.000000
  70
    32
  0
VERTEX
  8
01
  5
1CE24
 10
5398.93
 20
945.377
 30
0.000000
  70
    32
  0
VERTEX
  8
01
  5
1CE25
 10
5398.92
 20
945.399
 30
0.000000
  70
    32
  0
VERTEX
  8
01
  5
1CE26
 10
5398.93
 20
945.421
 30
0.000000
  70
    32
  0
VERTEX
  8
01
  5
1CE27
 10
5398.94
 20
945.443
 30
0.000000
  70
    32
  0
VERTEX
  8
01
  5
1CE28
 10
5398.96
 20
945.465
 30
0.000000
  70
    32
  0
VERTEX
  8
01
  5
1CE29
 10
5398.99
 20
945.487
 30
0.000000
  70
    32
  0
VERTEX
  8
01
  5
1CE2A
 10
5399.02
 20
945.509
 30
0.000000
  70
    32
  0
VERTEX
  8
01
  5
1CE2B
 10
5399.06
 20
945.530
 30
0.000000
  70
    32
  0
VERTEX
  8
01
  5
1CE2C
 10
5399.11
 20
945.551
 30
0.000000
  70
    32
  0
VERTEX
  8
01
  5
1CE2D
 10
5399.17
 20
945.572
 30
0.000000
  70
    32
  0
VERTEX
  8
01
  5
1CE2E
 10
5399.24
 20
945.592
 30
0.000000
  70
    32
  0
VERTEX
  8
01
  5
1CE2F
 10
5399.31
 20
945.611
 30
0.000000
  70
    32
  0
VERTEX
  8
01
  5
1CE30
 10
5399.39
 20
945.631
 30
0.000000
  70
    32
  0
VERTEX
  8
01
  5
1CE31
 10
5399.47
 20
945.649
 30
0.000000
  70
    32
  0
VERTEX
  8
01
  5
1CE32
 10
5399.56
 20
945.667
 30
0.000000
  70
    32
  0
VERTEX
  8
01
  5
1CE33
 10
5399.66
 20
945.685
 30
0.000000
  70
    32
  0
VERTEX
  8
01
  5
1CE34
 10
5399.77
 20
945.702
 30
0.000000
  70
    32
  0
VERTEX
  8
01
  5
1CE35
 10
5399.88
 20
945.717
 30
0.000000
  70
    32
  0
VERTEX
  8
01
  5
1CE36
 10
5399.99
 20
945.733
 30
0.000000
  70
    32
  0
VERTEX
  8
01
  5
1CE37
 10
5400.11
 20
945.747
 30
0.000000
  70
    32
  0
VERTEX
  8
01
  5
1CE38
 10
5400.24
 20
945.761
 30
0.000000
  70
    32
  0
VERTEX
  8
01
  5
1CE39
 10
5400.37
 20
945.773
 30
0.000000
  70
    32
  0
VERTEX
  8
01
  5
1CE3A
 10
5400.50
 20
945.785
 30
0.000000
  70
    32
  0
VERTEX
  8
01
  5
1CE3B
 10
5400.64
 20
945.796
 30
0.000000
  70
    32
  0
VERTEX
  8
01
  5
1CE3C
 10
5400.78
 20
945.806
 30
0.000000
  70
    32
  0
VERTEX
  8
01
  5
1CE3D
 10
5400.93
 20
945.815
 30
0.000000
  70
    32
  0
VERTEX
  8
01
  5
1CE3E
 10
5401.08
 20
945.823
 30
0.000000
  70
    32
  0
VERTEX
  8
01
  5
1CE3F
 10
5401.23
 20
945.830
 30
0.000000
  70
    32
  0
VERTEX
  8
01
  5
1CE40
 10
5401.38
 20
945.836
 30
0.000000
  70
    32
  0
VERTEX
  8
01
  5
1CE41
 10
5401.54
 20
945.841
 30
0.000000
  70
    32
  0
VERTEX
  8
01
  5
1CE42
 10
5401.70
 20
945.844
 30
0.000000
  70
    32
  0
VERTEX
  8
01
  5
1CE43
 10
5401.86
 20
945.847
 30
0.000000
  70
    32
  0
VERTEX
  8
01
  5
1CE44
 10
5402.01
 20
945.849
 30
0.000000
  70
    32
  0
VERTEX
  8
01
  5
1CE45
 10
5402.17
 20
945.849
 30
0.000000
  70
    32
  0
VERTEX
  8
01
  5
1CE46
 10
5402.33
 20
945.849
 30
0.000000
  70
    32
  0
VERTEX
  8
01
  5
1CE47
 10
5402.49
 20
945.847
 30
0.000000
  70
    32
  0
VERTEX
  8
01
  5
1CE48
 10
5402.65
 20
945.844
 30
0.000000
  70
    32
  0
VERTEX
  8
01
  5
1CE49
 10
5402.81
 20
945.841
 30
0.000000
  70
    32
  0
VERTEX
  8
01
  5
1CE4A
 10
5402.96
 20
945.836
 30
0.000000
  70
    32
  0
VERTEX
  8
01
  5
1CE4B
 10
5403.12
 20
945.830
 30
0.000000
  70
    32
  0
VERTEX
  8
01
  5
1CE4C
 10
5403.27
 20
945.823
 30
0.000000
  70
    32
  0
VERTEX
  8
01
  5
1CE4D
 10
5403.42
 20
945.815
 30
0.000000
  70
    32
  0
VERTEX
  8
01
  5
1CE4E
 10
5403.56
 20
945.806
 30
0.000000
  70
    32
  0
VERTEX
  8
01
  5
1CE4F
 10
5403.71
 20
945.796
 30
0.000000
  70
    32
  0
VERTEX
  8
01
  5
1CE50
 10
5403.84
 20
945.785
 30
0.000000
  70
    32
  0
VERTEX
  8
01
  5
1CE51
 10
5403.98
 20
945.773
 30
0.000000
  70
    32
  0
VERTEX
  8
01
  5
1CE52
 10
5404.11
 20
945.761
 30
0.000000
  70
    32
  0
VERTEX
  8
01
  5
1CE53
 10
5404.24
 20
945.747
 30
0.000000
  70
    32
  0
VERTEX
  8
01
  5
1CE54
 10
5404.36
 20
945.733
 30
0.000000
  70
    32
  0
VERTEX
  8
01
  5
1CE55
 10
5404.47
 20
945.717
 30
0.000000
  70
    32
  0
VERTEX
  8
01
  5
1CE56
 10
5404.58
 20
945.702
 30
0.000000
  70
    32
  0
VERTEX
  8
01
  5
1CE57
 10
5404.69
 20
945.685
 30
0.000000
  70
    32
  0
VERTEX
  8
01
  5
1CE58
 10
5404.78
 20
945.667
 30
0.000000
  70
    32
  0
VERTEX
  8
01
  5
1CE59
 10
5404.88
 20
945.649
 30
0.000000
  70
    32
  0
VERTEX
  8
01
  5
1CE5A
 10
5404.96
 20
945.631
 30
0.000000
  70
    32
  0
VERTEX
  8
01
  5
1CE5B
 10
5405.04
 20
945.611
 30
0.000000
  70
    32
  0
VERTEX
  8
01
  5
1CE5C
 10
5405.11
 20
945.592
 30
0.000000
  70
    32
  0
VERTEX
  8
01
  5
1CE5D
 10
5405.18
 20
945.572
 30
0.000000
  70
    32
  0
VERTEX
  8
01
  5
1CE5E
 10
5405.23
 20
945.551
 30
0.000000
  70
    32
  0
VERTEX
  8
01
  5
1CE5F
 10
5405.28
 20
945.530
 30
0.000000
  70
    32
  0
VERTEX
  8
01
  5
1CE60
 10
5405.33
 20
945.509
 30
0.000000
  70
    32
  0
VERTEX
  8
01
  5
1CE61
 10
5405.36
 20
945.487
 30
0.000000
  70
    32
  0
VERTEX
  8
01
  5
1CE62
 10
5405.39
 20
945.465
 30
0.000000
  70
    32
  0
VERTEX
  8
01
  5
1CE63
 10
5405.41
 20
945.443
 30
0.000000
  70
    32
  0
VERTEX
  8
01
  5
1CE64
 10
5405.42
 20
945.421
 30
0.000000
  70
    32
  0
VERTEX
  8
01
  5
1CE65
 10
5405.42
 20
945.399
 30
0.000000
  70
    32
  0
SEQEND
  8
01
  5
1CE66
  0
LINE
  5
1C4E4
  8
01
 10
5520.6738755902834
 20
955.62930145677922
 30
0.0
 11
5555.6738755902834
 21
955.62930145677922
 31
0.0
  0
LINE
  5
1C4E5
  8
01
 10
5585.6738755902834
 20
955.62930145677922
 30
0.0
 11
5620.6738755902834
 21
955.62930145677922
 31
0.0
  0
LINE
  5
1C4E6
  8
01
 10
5588.545590207852
 20
955.62930145677922
 30
0.0
 11
5611.1738755902834
 21
955.62930145677922
 31
0.0
  0
LINE
  5
1C4E7
  8
01
 10
5599.6738755871238
 20
944.62930145803693
 30
0.0
 11
5648.8125234268728
 21
951.50871215582356
 31
-0.0000000000000559
  0
ARC
  5
1C4E8
  8
01
 10
5648.6738755823362
 20
952.49905390249739
 30
0.000000000003587
 40
1.0
 50
277.9696103945497
 51
0.0
  0
LINE
  5
1C4E9
  8
01
 10
5648.7930208029666
 20
960.73500403157334
 30
0.0
 11
5599.6738755886299
 21
966.62930145803705
 31
0.0
  0
LINE
  5
1C4EA
  8
01
 10
5649.6738755823344
 20
959.742127193089
 30
0.0
 11
5649.6738755823353
 21
952.49905390249739
 31
0.0000000000000061
  0
ARC
  5
1C4EB
  8
01
 10
5648.6738755823353
 20
959.742127193089
 30
0.0
 40
1.0
 50
0.0
 51
83.157226586524146
  0
LINE
  5
1C4EC
  8
01
 10
5599.6738755919359
 20
944.62930145803602
 30
0.0
 11
5599.6738755886299
 21
966.62930145803705
 31
0.0
  0
LINE
  5
1C4ED
  8
01
 10
5605.1738755902834
 20
939.23604421960772
 30
0.0
 11
5605.1738755902834
 21
951.23604421960783
 31
0.0
  0
LINE
  5
1C4EE
  8
01
 10
5541.673875593443
 20
944.62930145803693
 30
0.0
 11
5492.5352277536931
 21
951.50871215582356
 31
-0.0000000000000559
  0
ARC
  5
1C4EF
  8
01
 10
5492.6738755982324
 20
952.49905390249739
 30
0.000000000003587
 40
1.0
 50
180.0
 51
262.03038960545018
  0
LINE
  5
1C4F0
  8
01
 10
5492.5547303775993
 20
960.73500403157334
 30
0.0
 11
5541.6738755919368
 21
966.62930145803705
 31
0.0
  0
LINE
  5
1C4F1
  8
01
 10
5491.6738755982324
 20
959.742127193089
 30
0.0
 11
5491.6738755982306
 21
952.49905390249739
 31
0.0000000000000061
  0
ARC
  5
1C4F2
  8
01
 10
5492.6738755982324
 20
959.742127193089
 30
0.0
 40
1.0
 50
96.842773413475882
 51
180.0
  0
LINE
  5
1C4F3
  8
01
 10
5541.6738755886299
 20
944.62930145803602
 30
0.0
 11
5541.6738755919368
 21
966.62930145803705
 31
0.0
  0
LINE
  5
1C4F4
  8
01
 10
5536.1738755902834
 20
939.23604421960772
 30
0.0
 11
5536.1738755902834
 21
951.23604421960783
 31
0.0
  0
LINE
  5
1C4F5
  8
01
 10
5570.6738755902843
 20
1004.835285082581
 30
0.0
 11
5570.6738755902843
 21
990.42331783097677
 31
0.0
  0
LINE
  5
1C4F6
  8
01
 10
5570.6738755902843
 20
830.83528508258144
 30
0.0
 11
5570.6738755902843
 21
816.42331783097688
 31
0.0
  0
LINE
  5
1C4F7
  8
01
 10
5540.9146252582541
 20
865.62930145678115
 30
0.0
 11
5552.9146252582541
 21
865.62930145678115
 31
0.0
  0
LINE
  5
1C4F8
  8
01
 10
5588.1236042879027
 20
865.62930145678115
 30
-0.0000000001125151
 11
5600.1236042879027
 21
865.62930145678115
 31
-0.0000000001125151
  0
LINE
  5
1C4F9
  8
01
 10
5590.673862865865
 20
886.77927477280923
 30
0.0
 11
5590.6738963147436
 21
844.47927473501306
 31
0.0
  0
LINE
  5
1C4FA
  8
01
 10
5590.673862865865
 20
886.77927477280923
 30
0.0
 11
5598.6826862043781
 21
886.63794893122599
 31
0.0
  0
ARC
  5
1C4FB
  8
01
 10
5598.6738644438674
 20
886.13802676074215
 30
0.0
 40
0.5
 50
0.0000453068554882
 51
88.989048254533827
  0
LINE
  5
1C4FC
  8
01
 10
5599.1738644438656
 20
886.1380271561186
 30
0.0
 11
5599.1738968785994
 21
845.12053539914007
 31
0.0
  0
LINE
  5
1C4FD
  8
01
 10
5598.6827194297393
 20
844.6206132426089
 30
0.0
 11
5590.6738963147436
 21
844.47927473501306
 31
0.0
  0
ARC
  5
1C4FE
  8
01
 10
5598.6738968785976
 20
845.12053539914007
 30
0.0
 40
0.5
 50
271.01104235916142
 51
0.0000453068554882
  0
LINE
  5
1C4FF
  8
01
 10
5599.7739325794237
 20
866.62930157043616
 30
0.0000000000562575
 11
5599.7739324810727
 21
868.87928846841362
 31
0.0000000000562575
  0
LINE
  5
1C500
  8
01
 10
5599.7739326668452
 20
864.62930157043616
 30
0.0000000000562575
 11
5599.7739327651971
 21
862.37928846841555
 31
0.0000000000562575
  0
LINE
  5
1C501
  8
01
 10
5599.7739325794237
 20
866.62930157043616
 30
0.0000000000562575
 11
5599.1738798704619
 21
866.62930154420724
 31
0.0000000000562575
  0
LINE
  5
1C502
  8
01
 10
5599.7739326668452
 20
864.62930157043616
 30
0.0000000000562575
 11
5599.1738814519686
 21
864.62930154420724
 31
0.0000000000562575
  0
ARC
  5
1C503
  8
01
 10
5598.7738420502619
 20
862.37930095518016
 30
0.0000000199720635
 40
1.0
210
0.0000000000027512
220
0.0000000000052287
230
1.0
 50
293.5807982271221
 51
359.99928456082131
  0
ARC
  5
1C504
  8
01
 10
5598.7739170891264
 20
868.87930095518209
 30
0.0000006116313514
 40
1.0
210
0.0000000001084106
220
0.0000000000052273
230
1.0
 50
359.99928456082131
 51
66.424304750198559
  0
LINE
  5
1C505
  8
01
 10
5550.6738963147027
 20
886.77927477280923
 30
0.0
 11
5550.6738628658222
 21
844.47927473501306
 31
0.0
  0
LINE
  5
1C506
  8
01
 10
5550.6738963147027
 20
886.77927477280923
 30
0.0
 11
5542.6650729761886
 21
886.63794893122508
 31
0.0
  0
ARC
  5
1C507
  8
01
 10
5542.6738947367012
 20
886.13802676074124
 30
0.0
 40
0.5
 50
91.010951745466173
 51
179.9999546931445
  0
LINE
  5
1C508
  8
01
 10
5542.1738947367003
 20
886.1380271561186
 30
0.0
 11
5542.1738623019683
 21
845.12053579451663
 31
0.0
  0
LINE
  5
1C509
  8
01
 10
5542.6650397508274
 20
844.62061324260799
 30
0.0
 11
5550.6738628658222
 21
844.47927473501306
 31
0.0
  0
ARC
  5
1C50A
  8
01
 10
5542.6738623019701
 20
845.12053539914007
 30
0.0
 40
0.5
 50
179.9999546931445
 51
268.98895764083858
  0
LINE
  5
1C50B
  8
01
 10
5541.1738824449976
 20
878.12905762614014
 30
0.0000000000562575
 11
5541.1738824449967
 21
853.12905762614014
 31
0.0000000000562575
  0
LINE
  5
1C50C
  8
01
 10
5527.173882827472
 20
878.12905762614014
 30
0.0000000000562575
 11
5527.173882827472
 21
853.12905762614014
 31
0.0000000000562575
  0
LINE
  5
1C50D
  8
01
 10
5527.6738828274729
 20
878.62905762614025
 30
0.0000000000562575
 11
5542.173888798955
 21
878.62905762614025
 31
0.0000000000562575
  0
ARC
  5
1C50E
  8
01
 10
5527.6738828274729
 20
878.12905762614014
 30
0.0000000000562575
 40
0.5
 50
90.0
 51
180.0
  0
LINE
  5
1C50F
  8
01
 10
5527.6738828274729
 20
852.62905762614002
 30
0.0000000000562575
 11
5542.1738682393589
 21
852.62905762614002
 31
0.0000000000562575
  0
ARC
  5
1C510
  8
01
 10
5527.6738828274729
 20
853.12905762614014
 30
0.0000000000562575
 40
0.5
 50
180.0
 51
270.0
  0
ARC
  5
1C511
  8
01
 10
5541.6738824449958
 20
878.12905762614014
 30
0.0000000000562575
 40
0.5
 50
90.0
 51
180.0
  0
ARC
  5
1C512
  8
01
 10
5541.6738824449976
 20
853.12905762614014
 30
0.0000000000562575
 40
0.5
 50
180.0
 51
270.0
  0
LINE
  5
1C513
  8
01
 10
5402.173879590282
 20
859.62930145678115
 30
0.0
 11
5402.173879590282
 21
871.62930145678115
 31
0.0
  0
LINE
  5
1C514
  8
01
 10
5396.1738795902829
 20
865.62930145678115
 30
0.0
 11
5408.173879590282
 21
865.62930145678115
 31
0.0
  0
LINE
  5
1C515
  8
01
 10
5751.6737440993847
 20
1196.6292872511401
 30
0.0
 11
5750.1739879300303
 21
1196.629287251141
 31
0.0
  0
LINE
  5
1C516
  8
01
 10
5728.1739879300267
 20
1196.6292872511419
 30
0.0
 11
5726.6737440993857
 21
1196.6292872511419
 31
0.0
  0
LINE
  5
1C517
  8
01
 10
5752.1737440993857
 20
1196.1292872511419
 30
0.0
 11
5752.1737440993857
 21
1195.6292808971839
 31
0.0
  0
LINE
  5
1C518
  8
01
 10
5726.1737440993847
 20
1196.1292872511419
 30
0.0
 11
5726.1737440993847
 21
1195.62930145678
 31
0.0
  0
ARC
  5
1C519
  8
01
 10
5751.6737440993847
 20
1196.1292872511419
 30
0.0
 40
0.5
 50
0.0
 51
90.0
  0
ARC
  5
1C51A
  8
01
 10
5726.6737440993857
 20
1196.1292872511419
 30
0.0
 40
0.5
 50
90.0
 51
180.0
  0
LINE
  5
1C51B
  8
01
 10
5375.6738795902838
 20
886.12930145678115
 30
0.0
 11
5375.6738795902838
 21
845.12930145678115
 31
0.0
  0
LINE
  5
1C51C
  8
01
 10
5428.6738795902829
 20
845.12930145678115
 30
0.0
 11
5428.6738795902829
 21
886.12930145678195
 31
0.0
  0
ARC
  5
1C51D
  8
01
 10
5428.1738795902829
 20
845.12930145678115
 30
0.0
 40
0.5
 50
270.0
 51
0.0
  0
ARC
  5
1C51E
  8
01
 10
5428.1738795902829
 20
886.12930145678195
 30
0.0
 40
0.5
 50
0.0
 51
90.0
  0
LINE
  5
1C51F
  8
01
 10
5428.1738795902829
 20
844.62930145678104
 30
0.0
 11
5376.1738795902829
 21
844.62930145678104
 31
0.0
  0
ARC
  5
1C520
  8
01
 10
5376.1738795902829
 20
845.12930145678115
 30
0.0
 40
0.5
 50
180.0
 51
270.0
  0
LINE
  5
1C521
  8
01
 10
5428.1738795902829
 20
886.62930145678206
 30
0.0
 11
5376.173879590282
 21
886.62930145678115
 31
0.0
  0
ARC
  5
1C522
  8
01
 10
5376.173879590282
 20
886.12930145678115
 30
0.0
 40
0.5
 50
90.0
 51
180.0
  0
CIRCLE
  5
1C523
  8
01
 10
5402.173879590282
 20
865.62930145678115
 30
0.0
 40
13.50000000000227
  0
ARC
  5
1C524
  8
01
 10
5402.173879590282
 20
865.62930145678115
 30
0.0
 40
13.00000000000227
 50
257.76041684387508
 51
282.23958315612492
  0
LINE
  5
1C525
  8
01
 10
5405.3238795902844
 20
853.41343063231693
 30
0.0
 11
5405.3238795902844
 21
877.84517228124616
 31
0.0
  0
LINE
  5
1C526
  8
01
 10
5399.0238795902824
 20
853.41343063231693
 30
0.0
 11
5399.0238795902824
 21
877.84517228124525
 31
0.0
  0
ARC
  5
1C527
  8
01
 10
5399.5238795902824
 20
853.41343063231693
 30
0.0
 40
0.5
 50
180.0
 51
257.76041684387508
  0
ARC
  5
1C528
  8
01
 10
5404.8238795902826
 20
853.41343063231693
 30
0.0
 40
0.5
 50
282.23958315612492
 51
0.0
  0
ARC
  5
1C529
  8
01
 10
5399.5238795902824
 20
877.84517228124525
 30
0.0
 40
0.5
 50
102.23958315612489
 51
180.0
  0
ARC
  5
1C52A
  8
01
 10
5404.8238795902826
 20
877.84517228124525
 30
0.0
 40
0.5
 50
0.0000000000521102
 51
77.760416843875063
  0
ARC
  5
1C52B
  8
01
 10
5402.173879590282
 20
865.62930145678115
 30
0.0
 40
13.00000000000227
 50
77.760416843875063
 51
102.23958315612489
  0
LINE
  5
1C52C
  8
01
 10
5712.6739879300294
 20
1147.1293014567791
 30
0.0
 11
5765.6739879300267
 21
1147.1293014567791
 31
0.0
  0
LINE
  5
1C52D
  8
01
 10
5713.1739879300303
 20
1138.6293014567791
 30
0.0
 11
5765.1739879300258
 21
1138.6293014567791
 31
0.0
  0
LINE
  5
1C52E
  8
01
 10
5765.6739879300267
 20
1147.1293014567791
 30
0.0
 11
5765.6739879300267
 21
1139.1293014567791
 31
0.0
  0
LINE
  5
1C52F
  8
01
 10
5712.6739879300294
 20
1147.1293014567791
 30
0.0
 11
5712.6739879300294
 21
1139.1293014567791
 31
0.0
  0
ARC
  5
1C530
  8
01
 10
5713.1739879300303
 20
1139.1293014567791
 30
0.0
 40
0.5
 50
180.0
 51
270.0
  0
ARC
  5
1C531
  8
01
 10
5765.1739879300258
 20
1139.1293014567791
 30
0.0
 40
0.5
 50
270.0
 51
0.0
  0
LINE
  5
1C532
  8
01
 10
5590.6738755902834
 20
929.12930145678195
 30
0.0
 11
5590.6738755902834
 21
982.1293014567791
 31
0.0
  0
LINE
  5
1C533
  8
01
 10
5599.1738755902843
 20
929.62930145678206
 30
0.0
 11
5599.1738755902843
 21
981.62930145677899
 31
0.0
  0
LINE
  5
1C534
  8
01
 10
5590.6738755902834
 20
982.1293014567791
 30
0.0
 11
5598.6738755902834
 21
982.1293014567791
 31
0.0
  0
LINE
  5
1C535
  8
01
 10
5590.6738755902834
 20
929.12930145678195
 30
0.0
 11
5598.6738755902834
 21
929.12930145678195
 31
0.0
  0
ARC
  5
1C536
  8
01
 10
5598.6738755902834
 20
929.62930145678206
 30
0.0
 40
0.5
 50
270.0
 51
0.0
  0
ARC
  5
1C537
  8
01
 10
5598.6738755902834
 20
981.62930145677899
 30
0.0
 40
0.5
 50
0.0
 51
90.0
  0
LINE
  5
1C538
  8
01
 10
5428.173879590282
 20
982.12930145677728
 30
0.0
 11
5376.1738795902847
 21
982.12930145677728
 31
0.0
  0
LINE
  5
1C539
  8
01
 10
5376.1738795902847
 20
929.1293014567774
 30
0.0
 11
5428.1738795902829
 21
929.1293014567774
 31
0.0
  0
LINE
  5
1C53A
  8
01
 10
5375.6738795902838
 20
981.62930145677717
 30
0.0
 11
5375.6738795902866
 21
963.13818076744292
 31
0.0
  0
LINE
  5
1C53B
  8
01
 10
5375.6738795902838
 20
948.57941858901563
 30
0.0
 11
5375.6738795902838
 21
929.6293014567774
 31
0.0
  0
ARC
  5
1C53C
  8
01
 10
5376.1738795902847
 20
929.6293014567774
 30
0.0
 40
0.5
 50
180.0
 51
270.0
  0
ARC
  5
1C53D
  8
01
 10
5376.1738795902847
 20
981.62930145677717
 30
0.0
 40
0.5
 50
90.0
 51
180.0
  0
LINE
  5
1C53E
  8
01
 10
5428.673879590282
 20
981.62930145677717
 30
0.0
 11
5428.6738795902829
 21
929.6293014567774
 31
0.0
  0
ARC
  5
1C53F
  8
01
 10
5428.1738795902829
 20
929.6293014567774
 30
0.0
 40
0.5
 50
270.0
 51
0.0
  0
ARC
  5
1C540
  8
01
 10
5428.173879590282
 20
981.62930145677717
 30
0.0
 40
0.5
 50
0.0
 51
90.0
  0
LINE
  5
1C541
  8
01
 10
5550.6738755902843
 20
929.12930145678195
 30
0.0
 11
5550.6738755902843
 21
982.1293014567791
 31
0.0
  0
LINE
  5
1C542
  8
01
 10
5542.1738755902834
 20
929.62930145678206
 30
0.0
 11
5542.1738755902834
 21
981.62930145677899
 31
0.0
  0
LINE
  5
1C543
  8
01
 10
5550.6738755902843
 20
982.1293014567791
 30
0.0
 11
5542.6738755902834
 21
982.1293014567791
 31
0.0
  0
LINE
  5
1C544
  8
01
 10
5550.6738755902843
 20
929.12930145678195
 30
0.0
 11
5542.6738755902834
 21
929.12930145678195
 31
0.0
  0
ARC
  5
1C545
  8
01
 10
5542.6738755902834
 20
929.62930145678206
 30
0.0
 40
0.5
 50
180.0
 51
270.0
  0
ARC
  5
1C546
  8
01
 10
5542.6738755902834
 20
981.62930145677899
 30
0.0
 40
0.5
 50
90.0
 51
180.0
  0
LINE
  5
1C547
  8
01
 10
5739.1738715902839
 20
859.6293014567791
 30
-0.0000000000562575
 11
5739.1738715902839
 21
871.62930145677922
 31
-0.0000000000562575
  0
LINE
  5
1C548
  8
01
 10
5733.1738715902839
 20
865.62930145677922
 30
-0.0000000000562575
 11
5745.1738715902839
 21
865.62930145677922
 31
-0.0000000000562575
  0
LINE
  5
1C549
  8
01
 10
5712.6738715902839
 20
886.12930145677922
 30
-0.0000000000562575
 11
5712.6738715902839
 21
845.12930145677922
 31
-0.0000000000562575
  0
LINE
  5
1C54A
  8
01
 10
5765.6738715902829
 20
845.12930145677922
 30
-0.0000000000562575
 11
5765.6738715902829
 21
886.12930145677922
 31
-0.0000000000562575
  0
ARC
  5
1C54B
  8
01
 10
5765.1738715902839
 20
845.12930145677922
 30
-0.0000000000562575
 40
0.5
 50
270.0
 51
0.0
  0
ARC
  5
1C54C
  8
01
 10
5765.1738715902839
 20
886.12930145677922
 30
-0.0000000000562575
 40
0.5
 50
0.0
 51
90.0
  0
LINE
  5
1C54D
  8
01
 10
5765.1738715902839
 20
844.62930145677933
 30
-0.0000000000562575
 11
5713.1738715902848
 21
844.62930145677933
 31
-0.0000000000562575
  0
ARC
  5
1C54E
  8
01
 10
5713.1738715902848
 20
845.12930145677922
 30
-0.0000000000562575
 40
0.5
 50
180.0
 51
270.0
  0
LINE
  5
1C54F
  8
01
 10
5765.1738715902839
 20
886.62930145677922
 30
-0.0000000000562575
 11
5713.1738715902839
 21
886.62930145677922
 31
-0.0000000000562575
  0
ARC
  5
1C550
  8
01
 10
5713.1738715902839
 20
886.12930145677922
 30
-0.0000000000562575
 40
0.5
 50
90.0
 51
180.0
  0
LINE
  5
1C551
  8
01
 10
5743.5613545674387
 20
864.62930145677922
 30
-0.0000000000562575
 11
5734.7863886131281
 21
864.62930145677922
 31
-0.0000000000562575
  0
CIRCLE
  5
1C552
  8
01
 10
5739.1738715902839
 20
865.62930145677922
 30
-0.0000000001125151
 40
4.5000007638701609
  0
LINE
  5
1C555
  8
01
 10
5743.5613545674387
 20
866.6293014567791
 30
-0.0000000000562575
 11
5734.7863886131281
 21
866.6293014567791
 31
-0.0000000000562575
  0
LINE
  5
1C557
  8
01
 10
5765.1738715902829
 20
982.12930145677728
 30
0.0
 11
5713.1738715902848
 21
982.12930145677728
 31
0.0
  0
LINE
  5
1C558
  8
01
 10
5713.1738715902848
 20
929.1293014567774
 30
0.0
 11
5765.1738715902839
 21
929.1293014567774
 31
0.0
  0
LINE
  5
1C559
  8
01
 10
5712.6738715902857
 20
981.62930145677717
 30
0.0
 11
5712.6738715902857
 21
929.6293014567774
 31
0.0
  0
ARC
  5
1C55A
  8
01
 10
5713.1738715902848
 20
929.6293014567774
 30
0.0
 40
0.5
 50
180.0
 51
270.0
  0
ARC
  5
1C55B
  8
01
 10
5713.1738715902848
 20
981.62930145677717
 30
0.0
 40
0.5
 50
90.0
 51
180.0
  0
LINE
  5
1C55C
  8
01
 10
5765.6738715902829
 20
981.62930145677717
 30
0.0
 11
5765.6738715902829
 21
963.13818076744269
 31
0.0
  0
LINE
  5
1C55D
  8
01
 10
5765.6738715902829
 20
948.57941858901563
 30
0.0
 11
5765.6738715902829
 21
929.6293014567774
 31
0.0
  0
ARC
  5
1C55E
  8
01
 10
5765.1738715902839
 20
929.6293014567774
 30
0.0
 40
0.5
 50
270.0
 51
0.0
  0
ARC
  5
1C55F
  8
01
 10
5765.1738715902829
 20
981.62930145677717
 30
0.0
 40
0.5
 50
0.0
 51
90.0
  0
LINE
  5
1C561
  8
01
 10
5712.6739879300294
 20
1187.12930145678
 30
0.0
 11
5765.6739879300267
 21
1187.12930145678
 31
0.0
  0
LINE
  5
1C562
  8
01
 10
5713.1739879300303
 20
1195.62930145678
 30
0.0
 11
5765.1739879300258
 21
1195.62930145678
 31
0.0
  0
LINE
  5
1C563
  8
01
 10
5765.6739879300267
 20
1187.12930145678
 30
0.0
 11
5765.6739879300267
 21
1195.12930145678
 31
0.0
  0
LINE
  5
1C564
  8
01
 10
5712.6739879300294
 20
1187.12930145678
 30
0.0
 11
5712.6739879300294
 21
1195.12930145678
 31
0.0
  0
ARC
  5
1C565
  8
01
 10
5713.1739879300303
 20
1195.12930145678
 30
0.0
 40
0.5
 50
90.0
 51
180.0
  0
ARC
  5
1C566
  8
01
 10
5765.1739879300258
 20
1195.12930145678
 30
0.0
 40
0.5
 50
0.0
 51
90.0
  0
LINE
  5
1C567
  8
01
 10
5764.673871590282
 20
886.6293014567791
 30
0.0
 11
5764.6738715902839
 21
844.62930145677933
 31
0.0
  0
LINE
  5
1C88D
  8
01
 10
5713.1738715902848
 20
982.12930145677728
 30
0.0
 11
5702.8738715902837
 21
982.12930145677728
 31
0.0
  0
LINE
  5
1C88E
  8
01
 10
5713.1738715902848
 20
929.1293014567774
 30
0.0
 11
5702.8738715902837
 21
929.1293014567774
 31
0.0
  0
LINE
  5
1C88F
  8
01
 10
5704.1738715902839
 20
979.52930145677726
 30
0.0
 11
5704.1738715902839
 21
931.72930145677731
 31
0.0
  0
LINE
  5
1C893
  8
01
 10
5765.1738715902839
 20
886.62930145677922
 30
-0.0000000000562575
 11
5779.4738715902831
 21
886.62930145677922
 31
-0.0000000000562575
  0
LINE
  5
1C894
  8
01
 10
5764.6738715902839
 20
844.62930145677933
 30
-0.0000000000562575
 11
5779.4738715902831
 21
844.62930145677933
 31
-0.0000000000562575
  0
LINE
  5
1C895
  8
01
 10
5778.1738715902839
 20
884.02930145677908
 30
-0.0000000000562575
 11
5778.1738715902839
 21
847.22930145677924
 31
-0.0000000000562575
  0
LINE
  5
1C899
  8
01
 10
5712.6738715902839
 20
886.12930145677922
 30
-0.0000000000562575
 11
5712.6738715902839
 21
901.42930145677917
 31
-0.0000000000562575
  0
LINE
  5
1C89A
  8
01
 10
5765.6738715902829
 20
886.12930145677922
 30
-0.0000000000562575
 11
5765.6738715902829
 21
901.42930145677917
 31
-0.0000000000562575
  0
LINE
  5
1C89B
  8
01
 10
5715.2738715902842
 20
900.12930145677922
 30
-0.0000000000562575
 11
5763.0738715902826
 21
900.12930145677922
 31
-0.0000000000562575
  0
LINE
  5
1C89F
  8
01
 10
5728.1739879300267
 20
1089.12930145991
 30
0.0
 11
5728.1739879300267
 21
1061.8293014599101
 31
0.0
  0
LINE
  5
1C8A0
  8
01
 10
5864.1739879300267
 20
1088.12930145991
 30
0.0
 11
5864.1739879300267
 21
1061.8293014599101
 31
0.0
  0
LINE
  5
1C8A1
  8
01
 10
5730.7739879300279
 20
1063.12930145991
 30
0.0
 11
5861.5739879300272
 21
1063.12930145991
 31
0.0
  0
LINE
  5
1C8A5
  8
01
 10
5739.1739879300294
 20
1125.6293014567791
 30
0.0
 11
5739.1739879300294
 21
1071.8293014599101
 31
0.0
  0
LINE
  5
1C8A6
  8
01
 10
5864.1739879300267
 20
1088.12930145991
 30
0.0
 11
5864.1739879300267
 21
1071.8293014599101
 31
0.0
  0
LINE
  5
1C8A7
  8
01
 10
5741.7739879300289
 20
1073.12930145991
 30
0.0
 11
5861.5739879300272
 21
1073.12930145991
 31
0.0
  0
LINE
  5
1C8AB
  8
01
 10
5841.9291359273757
 20
1147.1293014567791
 30
0.0
 11
5890.4739879300278
 21
1147.1293014567791
 31
0.0
  0
LINE
  5
1C8AC
  8
01
 10
5864.1739879300267
 20
1088.12930145991
 30
0.0
 11
5890.4739879300278
 21
1088.12930145991
 31
0.0
  0
LINE
  5
1C8AD
  8
01
 10
5889.1739879300267
 20
1144.529301456779
 30
0.0
 11
5889.1739879300267
 21
1090.7293014599099
 31
0.0
  0
LINE
  5
1C8B1
  8
01
 10
5841.9291359273757
 20
1147.1293014567791
 30
0.0
 11
5880.4739879300269
 21
1147.1293014567791
 31
0.0
  0
LINE
  5
1C8B2
  8
01
 10
5863.1739879300294
 20
1112.129301463066
 30
0.0
 11
5880.4739879300269
 21
1112.129301463066
 31
0.0
  0
LINE
  5
1C8B3
  8
01
 10
5879.1739879300276
 20
1144.529301456779
 30
0.0
 11
5879.1739879300276
 21
1114.7293014630659
 31
0.0
  0
LINE
  5
1C8B7
  8
01
 10
5372.1738795902829
 20
955.62930145677922
 30
0.0
 11
5361.8738795902827
 21
955.62930145677922
 31
0.0
  0
LINE
  5
1C8B8
  8
01
 10
5396.1738795902829
 20
865.62930145677922
 30
0.0
 11
5361.8738795902827
 21
865.62930145677933
 31
0.0
  0
LINE
  5
1C8B9
  8
01
 10
5363.1738795902829
 20
953.02930145677919
 30
0.0
 11
5363.1738795902829
 21
868.22930145677935
 31
0.0
  0
LINE
  5
1C8BD
  8
01
 10
5590.6738755902834
 20
803.33587453172652
 30
0.0
 11
5590.6738755902834
 21
789.32930145677926
 31
0.0
  0
LINE
  5
1C8BE
  8
01
 10
5599.7739287651966
 20
862.37928846841351
 30
0.0
 11
5599.7739287651966
 21
789.32930145677926
 31
0.0
  0
LINE
  5
1C8BF
  8
01
 10
5593.2738755902838
 20
790.62930145677922
 30
0.0
 11
5597.1739287651963
 21
790.62930145677922
 31
0.0
  0
LINE
  5
1C8C3
  8
01
 10
5550.6738755902843
 20
803.33587453172652
 30
0.0000000000562575
 11
5550.6738755902843
 21
789.32930145677926
 31
0.0000000000562575
  0
LINE
  5
1C8C4
  8
01
 10
5527.1738788274733
 20
853.12905762613809
 30
0.0000000000562575
 11
5527.1738788274733
 21
789.32930145677926
 31
0.0000000000562575
  0
LINE
  5
1C8C5
  8
01
 10
5548.073875590283
 20
790.62930145677922
 30
0.0000000000562575
 11
5529.7738788274728
 21
790.62930145677922
 31
0.0000000000562575
  0
LINE
  5
1C8C9
  8
01
 10
5764.6747557723429
 20
1174.229301456779
 30
0.0
 11
5780.0704698867276
 21
1174.229301456779
 31
0.0
  0
LINE
  5
1C8CA
  8
01
 10
5764.6747557723429
 20
1160.029301456779
 30
0.0
 11
5780.0704698867276
 21
1160.029301456779
 31
0.0
  0
LINE
  5
1C8CB
  8
01
 10
5778.7704698867274
 20
1171.6293014567791
 30
0.0
 11
5778.7704698867274
 21
1162.6293014567791
 31
0.0
  0
LINE
  5
1C8CC
  8
01
 10
5778.7704698867274
 20
1160.029301456779
 30
0.0
 11
5778.7704698867274
 21
1129.8109953802059
 31
0.0
  0
LINE
  5
1C8D0
  8
01
 10
5570.6738755902843
 20
1008.629301456779
 30
0.0
 11
5631.9738755902836
 21
1008.629301456779
 31
0.0
  0
LINE
  5
1C8D1
  8
01
 10
5570.6738755902843
 20
812.62930145677831
 30
0.0
 11
5631.9738755902836
 21
812.62930145677831
 31
0.0
  0
LINE
  5
1C8D2
  8
01
 10
5630.6738755902834
 20
1006.029301456779
 30
0.0
 11
5630.6738755902834
 21
815.22930145677833
 31
0.0
  0
LINE
  5
1C8D6
  8
01
 10
5577.1738755902834
 20
997.62930145677899
 30
0.0
 11
5616.4774666268404
 21
997.62930145677899
 31
0.0
  0
LINE
  5
1C8D7
  8
01
 10
5578.0790058455232
 20
823.62930145677831
 30
0.0
 11
5616.4774666268404
 21
823.62930145677831
 31
0.0
  0
LINE
  5
1C8D8
  8
01
 10
5615.1774666268402
 20
995.02930145677897
 30
0.0
 11
5615.1774666268402
 21
826.22930145677833
 31
0.0
  0
LINE
  5
1C8DC
  8
01
 10
5561.6738755902834
 20
999.6293014567791
 30
0.0
 11
5561.6738755902834
 21
1025.9293014567791
 31
0.0
  0
LINE
  5
1C8DD
  8
01
 10
5579.6738755902843
 20
999.6293014567791
 30
0.0
 11
5579.6738755902843
 21
1025.9293014567791
 31
0.0
  0
LINE
  5
1C8DE
  8
01
 10
5564.2738755902838
 20
1024.6293014567791
 30
0.0
 11
5577.073875590283
 21
1024.6293014567791
 31
0.0
  0
LINE
  5
1C8E2
  8
01
 10
5688.1738715902839
 20
1008.629301456779
 30
0.0
 11
5688.1738715902839
 21
1025.9293014567791
 31
0.0
  0
LINE
  5
1C8E3
  8
01
 10
5739.1738715902839
 20
985.6293014567791
 30
0.0
 11
5739.1738715902839
 21
1025.9293014567791
 31
0.0
  0
LINE
  5
1C8E4
  8
01
 10
5690.7738715902842
 20
1024.6293014567791
 30
0.0
 11
5736.5738715902844
 21
1024.6293014567791
 31
0.0
  0
LINE
  5
1C8E8
  8
01
 10
5764.6738715902839
 20
976.6293014567791
 30
0.0
 11
5764.6738715902839
 21
1035.9293014567791
 31
0.0
  0
LINE
  5
1C8E9
  8
01
 10
5688.1738715902839
 20
1008.629301456779
 30
0.0
 11
5688.1738715902839
 21
1035.9293014567791
 31
0.0
  0
LINE
  5
1C8EA
  8
01
 10
5762.0738715902844
 20
1034.6293014567791
 30
0.0
 11
5690.7738715902842
 21
1034.6293014567791
 31
0.0
  0
LINE
  5
1C8EE
  8
01
 10
5676.8002223258109
 20
920.62930145677922
 30
0.0
 11
5676.8002223258109
 21
1025.9293014567791
 31
0.0
  0
LINE
  5
1C8EF
  8
01
 10
5688.1738715902839
 20
1008.629301456779
 30
0.0
 11
5688.1738715902839
 21
1025.9293014567791
 31
0.0
  0
LINE
  5
1C8F0
  8
01
 10
5685.5738715902844
 20
1024.6293014567791
 30
0.0
 11
5679.4002223258112
 21
1024.6293014567791
 31
0.0
  0
LINE
  5
1C8F1
  8
01
 10
5676.8002223258109
 20
1024.6293014567791
 30
0.0
 11
5666.9635556591438
 21
1024.6293014567791
 31
0.0
  0
LINE
  5
1C8F5
  8
01
 10
5764.6738715902839
 20
976.6293014567791
 30
0.0
 11
5792.973871590284
 21
976.6293014567791
 31
0.0
  0
LINE
  5
1C8F6
  8
01
 10
5764.6738715902839
 20
844.62930145677933
 30
0.0
 11
5792.973871590284
 21
844.62930145677933
 31
0.0
  0
LINE
  5
1C8F7
  8
01
 10
5791.6738715902829
 20
974.02930145677908
 30
0.0
 11
5791.6738715902829
 21
847.22930145677924
 31
0.0
  0
TEXT
  5
1C8FB
  8
01
 10
5790.763871590284
 20
903.80430145678031
 30
0.0
 40
4.5499999999999989
  1
132
 50
90.0
  0
LINE
  5
1C8FC
  8
01
  6
BYBLOCK
 10
5792.3705394842837
 20
847.22930145677924
 30
0.0
 11
5791.6738715902829
 21
844.62930145677933
 31
0.0
  0
LINE
  5
1C8FD
  8
01
  6
BYBLOCK
 10
5791.6738715902829
 20
844.62930145677933
 30
0.0
 11
5790.9772036962841
 21
847.22930145677924
 31
0.0
  0
LINE
  5
1C8FE
  8
01
  6
BYBLOCK
 10
5791.6738715902829
 20
844.62930145677933
 30
0.0
 11
5791.6738715902829
 21
847.22930145677924
 31
0.0
  0
LINE
  5
1C8FF
  8
01
  6
BYBLOCK
 10
5790.9772036962841
 20
974.02930145677908
 30
0.0
 11
5791.6738715902829
 21
976.6293014567791
 31
0.0
  0
LINE
  5
1C900
  8
01
  6
BYBLOCK
 10
5791.6738715902829
 20
976.6293014567791
 30
0.0
 11
5792.3705394842837
 21
974.02930145677908
 31
0.0
  0
LINE
  5
1C901
  8
01
  6
BYBLOCK
 10
5791.6738715902829
 20
976.6293014567791
 30
0.0
 11
5791.6738715902829
 21
974.02930145677908
 31
0.0
  0
TEXT
  5
1C902
  8
01
 10
5666.5735556591453
 20
1025.539301456779
 30
0.0
 40
4.5499999999999989
  1
11
  0
LINE
  5
1C903
  8
01
  6
BYBLOCK
 10
5679.4002223258112
 20
1023.932633562779
 30
0.0
 11
5676.8002223258109
 21
1024.6293014567791
 31
0.0
  0
LINE
  5
1C904
  8
01
  6
BYBLOCK
 10
5676.8002223258109
 20
1024.6293014567791
 30
0.0
 11
5679.4002223258112
 21
1025.3259693507789
 31
0.0
  0
LINE
  5
1C905
  8
01
  6
BYBLOCK
 10
5676.8002223258109
 20
1024.6293014567791
 30
0.0
 11
5679.4002223258112
 21
1024.6293014567791
 31
0.0
  0
LINE
  5
1C906
  8
01
  6
BYBLOCK
 10
5685.5738715902844
 20
1025.3259693507789
 30
0.0
 11
5688.1738715902839
 21
1024.6293014567791
 31
0.0
  0
LINE
  5
1C907
  8
01
  6
BYBLOCK
 10
5688.1738715902839
 20
1024.6293014567791
 30
0.0
 11
5685.5738715902844
 21
1023.932633562779
 31
0.0
  0
LINE
  5
1C908
  8
01
  6
BYBLOCK
 10
5688.1738715902839
 20
1024.6293014567791
 30
0.0
 11
5685.5738715902844
 21
1024.6293014567791
 31
0.0
  0
TEXT
  5
1C909
  8
01
 10
5718.8405382569508
 20
1035.539301456779
 30
0.0
 40
4.5499999999999989
  1
76.5
  0
LINE
  5
1C90A
  8
01
  6
BYBLOCK
 10
5690.7738715902842
 20
1033.9326335627791
 30
0.0
 11
5688.1738715902839
 21
1034.6293014567791
 31
0.0
  0
LINE
  5
1C90B
  8
01
  6
BYBLOCK
 10
5688.1738715902839
 20
1034.6293014567791
 30
0.0
 11
5690.7738715902842
 21
1035.3259693507789
 31
0.0
  0
LINE
  5
1C90C
  8
01
  6
BYBLOCK
 10
5688.1738715902839
 20
1034.6293014567791
 30
0.0
 11
5690.7738715902842
 21
1034.6293014567791
 31
0.0
  0
LINE
  5
1C90D
  8
01
  6
BYBLOCK
 10
5762.0738715902844
 20
1035.3259693507789
 30
0.0
 11
5764.6738715902839
 21
1034.6293014567791
 31
0.0
  0
LINE
  5
1C90E
  8
01
  6
BYBLOCK
 10
5764.6738715902839
 20
1034.6293014567791
 30
0.0
 11
5762.0738715902844
 21
1033.9326335627791
 31
0.0
  0
LINE
  5
1C90F
  8
01
  6
BYBLOCK
 10
5764.6738715902839
 20
1034.6293014567791
 30
0.0
 11
5762.0738715902844
 21
1034.6293014567791
 31
0.0
  0
TEXT
  5
1C910
  8
01
 10
5709.9905382569495
 20
1025.539301456779
 30
0.0
 40
4.5499999999999989
  1
51
  0
LINE
  5
1C911
  8
01
  6
BYBLOCK
 10
5736.5738715902844
 20
1025.3259693507789
 30
0.0
 11
5739.1738715902839
 21
1024.6293014567791
 31
0.0
  0
LINE
  5
1C912
  8
01
  6
BYBLOCK
 10
5739.1738715902839
 20
1024.6293014567791
 30
0.0
 11
5736.5738715902844
 21
1023.932633562779
 31
0.0
  0
LINE
  5
1C913
  8
01
  6
BYBLOCK
 10
5739.1738715902839
 20
1024.6293014567791
 30
0.0
 11
5736.5738715902844
 21
1024.6293014567791
 31
0.0
  0
LINE
  5
1C914
  8
01
  6
BYBLOCK
 10
5690.7738715902842
 20
1023.932633562779
 30
0.0
 11
5688.1738715902839
 21
1024.6293014567791
 31
0.0
  0
LINE
  5
1C915
  8
01
  6
BYBLOCK
 10
5688.1738715902839
 20
1024.6293014567791
 30
0.0
 11
5690.7738715902842
 21
1025.3259693507789
 31
0.0
  0
LINE
  5
1C916
  8
01
  6
BYBLOCK
 10
5688.1738715902839
 20
1024.6293014567791
 30
0.0
 11
5690.7738715902842
 21
1024.6293014567791
 31
0.0
  0
TEXT
  5
1C917
  8
01
 10
5566.0155422569487
 20
1025.539301456779
 30
0.0
 40
4.5499999999999989
  1
18
  0
LINE
  5
1C918
  8
01
  6
BYBLOCK
 10
5577.073875590283
 20
1025.3259693507789
 30
0.0
 11
5579.6738755902843
 21
1024.6293014567791
 31
0.0
  0
LINE
  5
1C919
  8
01
  6
BYBLOCK
 10
5579.6738755902843
 20
1024.6293014567791
 30
0.0
 11
5577.073875590283
 21
1023.932633562779
 31
0.0
  0
LINE
  5
1C91A
  8
01
  6
BYBLOCK
 10
5579.6738755902843
 20
1024.6293014567791
 30
0.0
 11
5577.073875590283
 21
1024.6293014567791
 31
0.0
  0
LINE
  5
1C91B
  8
01
  6
BYBLOCK
 10
5564.2738755902838
 20
1023.932633562779
 30
0.0
 11
5561.6738755902834
 21
1024.6293014567791
 31
0.0
  0
LINE
  5
1C91C
  8
01
  6
BYBLOCK
 10
5561.6738755902834
 20
1024.6293014567791
 30
0.0
 11
5564.2738755902838
 21
1025.3259693507789
 31
0.0
  0
LINE
  5
1C91D
  8
01
  6
BYBLOCK
 10
5561.6738755902834
 20
1024.6293014567791
 30
0.0
 11
5564.2738755902838
 21
1024.6293014567791
 31
0.0
  0
TEXT
  5
1C91E
  8
01
 10
5614.2674666268413
 20
905.49969483438542
 30
0.0
 40
4.5499999999999989
  1
174
 50
90.0
  0
LINE
  5
1C91F
  8
01
  6
BYBLOCK
 10
5615.87413452084
 20
826.22930145677833
 30
0.0
 11
5615.1774666268402
 21
823.62930145677831
 31
0.0
  0
LINE
  5
1C920
  8
01
  6
BYBLOCK
 10
5615.1774666268402
 20
823.62930145677831
 30
0.0
 11
5614.4807987328413
 21
826.22930145677833
 31
0.0
  0
LINE
  5
1C921
  8
01
  6
BYBLOCK
 10
5615.1774666268402
 20
823.62930145677831
 30
0.0
 11
5615.1774666268402
 21
826.22930145677833
 31
0.0
  0
LINE
  5
1C922
  8
01
  6
BYBLOCK
 10
5614.4807987328413
 20
995.02930145677897
 30
0.0
 11
5615.1774666268402
 21
997.62930145677899
 31
0.0
  0
LINE
  5
1C923
  8
01
  6
BYBLOCK
 10
5615.1774666268402
 20
997.62930145677899
 30
0.0
 11
5615.87413452084
 21
995.02930145677897
 31
0.0
  0
LINE
  5
1C924
  8
01
  6
BYBLOCK
 10
5615.1774666268402
 20
997.62930145677899
 30
0.0
 11
5615.1774666268402
 21
995.02930145677897
 31
0.0
  0
TEXT
  5
1C925
  8
01
 10
5629.7638755902844
 20
904.65729593430285
 30
0.0
 40
4.5499999999999989
  1
196
 50
90.0
  0
LINE
  5
1C926
  8
01
  6
BYBLOCK
 10
5631.3705434842832
 20
815.22930145677833
 30
0.0
 11
5630.6738755902834
 21
812.62930145677831
 31
0.0
  0
LINE
  5
1C927
  8
01
  6
BYBLOCK
 10
5630.6738755902834
 20
812.62930145677831
 30
0.0
 11
5629.9772076962836
 21
815.22930145677833
 31
0.0
  0
LINE
  5
1C928
  8
01
  6
BYBLOCK
 10
5630.6738755902834
 20
812.62930145677831
 30
0.0
 11
5630.6738755902834
 21
815.22930145677833
 31
0.0
  0
LINE
  5
1C929
  8
01
  6
BYBLOCK
 10
5629.9772076962836
 20
1006.029301456779
 30
0.0
 11
5630.6738755902834
 21
1008.629301456779
 31
0.0
  0
LINE
  5
1C92A
  8
01
  6
BYBLOCK
 10
5630.6738755902834
 20
1008.629301456779
 30
0.0
 11
5631.3705434842832
 21
1006.029301456779
 31
0.0
  0
LINE
  5
1C92B
  8
01
  6
BYBLOCK
 10
5630.6738755902834
 20
1008.629301456779
 30
0.0
 11
5630.6738755902834
 21
1006.029301456779
 31
0.0
  0
TEXT
  5
1C92C
  8
01
 10
5777.8604698867284
 20
1129.4209953802069
 30
0.0
 40
4.5499999999999989
  1
14.2
 50
90.0
  0
LINE
  5
1C92D
  8
01
  6
BYBLOCK
 10
5779.4671377807272
 20
1162.6293014567791
 30
0.0
 11
5778.7704698867274
 21
1160.029301456779
 31
0.0
  0
LINE
  5
1C92E
  8
01
  6
BYBLOCK
 10
5778.7704698867274
 20
1160.029301456779
 30
0.0
 11
5778.0738019927276
 21
1162.6293014567791
 31
0.0
  0
LINE
  5
1C92F
  8
01
  6
BYBLOCK
 10
5778.7704698867274
 20
1160.029301456779
 30
0.0
 11
5778.7704698867274
 21
1162.6293014567791
 31
0.0
  0
LINE
  5
1C930
  8
01
  6
BYBLOCK
 10
5778.0738019927276
 20
1171.6293014567791
 30
0.0
 11
5778.7704698867274
 21
1174.229301456779
 31
0.0
  0
LINE
  5
1C931
  8
01
  6
BYBLOCK
 10
5778.7704698867274
 20
1174.229301456779
 30
0.0
 11
5779.4671377807272
 21
1171.6293014567791
 31
0.0
  0
LINE
  5
1C932
  8
01
  6
BYBLOCK
 10
5778.7704698867274
 20
1174.229301456779
 30
0.0
 11
5778.7704698867274
 21
1171.6293014567791
 31
0.0
  0
TEXT
  5
1C933
  8
01
 10
5531.3405438755453
 20
791.53930145677919
 30
0.0000000000562575
 40
4.5499999999999989
  1
23.5
  0
LINE
  5
1C934
  8
01
  6
BYBLOCK
 10
5529.7738788274728
 20
789.93263356277907
 30
0.0000000000562575
 11
5527.1738788274733
 21
790.62930145677922
 31
0.0000000000562575
  0
LINE
  5
1C935
  8
01
  6
BYBLOCK
 10
5527.1738788274733
 20
790.62930145677922
 30
0.0000000000562575
 11
5529.7738788274728
 21
791.32596935077925
 31
0.0000000000562575
  0
LINE
  5
1C936
  8
01
  6
BYBLOCK
 10
5527.1738788274733
 20
790.62930145677922
 30
0.0000000000562575
 11
5529.7738788274728
 21
790.62930145677922
 31
0.0000000000562575
  0
LINE
  5
1C937
  8
01
  6
BYBLOCK
 10
5548.073875590283
 20
791.32596935077925
 30
0.0000000000562575
 11
5550.6738755902843
 21
790.62930145677922
 31
0.0000000000562575
  0
LINE
  5
1C938
  8
01
  6
BYBLOCK
 10
5550.6738755902843
 20
790.62930145677922
 30
0.0000000000562575
 11
5548.073875590283
 21
789.93263356277907
 31
0.0000000000562575
  0
LINE
  5
1C939
  8
01
  6
BYBLOCK
 10
5550.6738755902843
 20
790.62930145677922
 30
0.0000000000562575
 11
5548.073875590283
 21
790.62930145677922
 31
0.0000000000562575
  0
TEXT
  5
1C93A
  8
01
 10
5593.1655688444071
 20
791.53930145677919
 30
0.0
 40
4.5499999999999989
  1
9
  0
LINE
  5
1C93B
  8
01
  6
BYBLOCK
 10
5597.1739287651963
 20
791.32596935077925
 30
0.0
 11
5599.7739287651966
 21
790.62930145677922
 31
0.0
  0
LINE
  5
1C93C
  8
01
  6
BYBLOCK
 10
5599.7739287651966
 20
790.62930145677922
 30
0.0
 11
5597.1739287651963
 21
789.93263356277907
 31
0.0
  0
LINE
  5
1C93D
  8
01
  6
BYBLOCK
 10
5599.7739287651966
 20
790.62930145677922
 30
0.0
 11
5597.1739287651963
 21
790.62930145677922
 31
0.0
  0
LINE
  5
1C93E
  8
01
  6
BYBLOCK
 10
5593.2738755902838
 20
789.93263356277907
 30
0.0
 11
5590.6738755902834
 21
790.62930145677922
 31
0.0
  0
LINE
  5
1C93F
  8
01
  6
BYBLOCK
 10
5590.6738755902834
 20
790.62930145677922
 30
0.0
 11
5593.2738755902838
 21
791.32596935077925
 31
0.0
  0
LINE
  5
1C940
  8
01
  6
BYBLOCK
 10
5590.6738755902834
 20
790.62930145677922
 30
0.0
 11
5593.2738755902838
 21
790.62930145677922
 31
0.0
  0
TEXT
  5
1C941
  8
01
 10
5362.2638795902831
 20
906.29596812344687
 30
0.0
 40
4.5499999999999989
  1
90
 50
90.0
  0
LINE
  5
1C942
  8
01
  6
BYBLOCK
 10
5363.8705474842827
 20
868.22930145677935
 30
0.0
 11
5363.1738795902829
 21
865.62930145677933
 31
0.0
  0
LINE
  5
1C943
  8
01
  6
BYBLOCK
 10
5363.1738795902829
 20
865.62930145677933
 30
0.0
 11
5362.4772116962831
 21
868.22930145677935
 31
0.0
  0
LINE
  5
1C944
  8
01
  6
BYBLOCK
 10
5363.1738795902829
 20
865.62930145677933
 30
0.0
 11
5363.1738795902829
 21
868.22930145677935
 31
0.0
  0
LINE
  5
1C945
  8
01
  6
BYBLOCK
 10
5362.4772116962831
 20
953.02930145677919
 30
0.0
 11
5363.1738795902829
 21
955.62930145677922
 31
0.0
  0
LINE
  5
1C946
  8
01
  6
BYBLOCK
 10
5363.1738795902829
 20
955.62930145677922
 30
0.0
 11
5363.8705474842827
 21
953.02930145677919
 31
0.0
  0
LINE
  5
1C947
  8
01
  6
BYBLOCK
 10
5363.1738795902829
 20
955.62930145677922
 30
0.0
 11
5363.1738795902829
 21
953.02930145677919
 31
0.0
  0
TEXT
  5
1C948
  8
01
 10
5878.2639879300277
 20
1125.29596812659
 30
0.0
 40
4.5499999999999989
  1
35
 50
90.0
  0
LINE
  5
1C949
  8
01
  6
BYBLOCK
 10
5879.8706558240283
 20
1114.7293014630659
 30
0.0
 11
5879.1739879300276
 21
1112.129301463066
 31
0.0
  0
LINE
  5
1C94A
  8
01
  6
BYBLOCK
 10
5879.1739879300276
 20
1112.129301463066
 30
0.0
 11
5878.4773200360278
 21
1114.7293014630659
 31
0.0
  0
LINE
  5
1C94B
  8
01
  6
BYBLOCK
 10
5879.1739879300276
 20
1112.129301463066
 30
0.0
 11
5879.1739879300276
 21
1114.7293014630659
 31
0.0
  0
LINE
  5
1C94C
  8
01
  6
BYBLOCK
 10
5878.4773200360278
 20
1144.529301456779
 30
0.0
 11
5879.1739879300276
 21
1147.1293014567791
 31
0.0
  0
LINE
  5
1C94D
  8
01
  6
BYBLOCK
 10
5879.1739879300276
 20
1147.1293014567791
 30
0.0
 11
5879.8706558240283
 21
1144.529301456779
 31
0.0
  0
LINE
  5
1C94E
  8
01
  6
BYBLOCK
 10
5879.1739879300276
 20
1147.1293014567791
 30
0.0
 11
5879.1739879300276
 21
1144.529301456779
 31
0.0
  0
TEXT
  5
1C94F
  8
01
 10
5888.2639879300268
 20
1113.4043014583449
 30
0.0
 40
4.5499999999999989
  1
59
 50
90.0
  0
LINE
  5
1C950
  8
01
  6
BYBLOCK
 10
5889.8706558240283
 20
1090.7293014599099
 30
0.0
 11
5889.1739879300267
 21
1088.12930145991
 31
0.0
  0
LINE
  5
1C951
  8
01
  6
BYBLOCK
 10
5889.1739879300267
 20
1088.12930145991
 30
0.0
 11
5888.4773200360269
 21
1090.7293014599099
 31
0.0
  0
LINE
  5
1C952
  8
01
  6
BYBLOCK
 10
5889.1739879300267
 20
1088.12930145991
 30
0.0
 11
5889.1739879300267
 21
1090.7293014599099
 31
0.0
  0
LINE
  5
1C953
  8
01
  6
BYBLOCK
 10
5888.4773200360269
 20
1144.529301456779
 30
0.0
 11
5889.1739879300267
 21
1147.1293014567791
 31
0.0
  0
LINE
  5
1C954
  8
01
  6
BYBLOCK
 10
5889.1739879300267
 20
1147.1293014567791
 30
0.0
 11
5889.8706558240283
 21
1144.529301456779
 31
0.0
  0
LINE
  5
1C955
  8
01
  6
BYBLOCK
 10
5889.1739879300267
 20
1147.1293014567791
 30
0.0
 11
5889.1739879300267
 21
1144.529301456779
 31
0.0
  0
TEXT
  5
1C956
  8
01
 10
5794.8489879300269
 20
1074.0393014599099
 30
0.0
 40
4.5499999999999989
  1
125
  0
LINE
  5
1C957
  8
01
  6
BYBLOCK
 10
5861.5739879300272
 20
1073.8259693539101
 30
0.0
 11
5864.1739879300267
 21
1073.12930145991
 31
0.0
  0
LINE
  5
1C958
  8
01
  6
BYBLOCK
 10
5864.1739879300267
 20
1073.12930145991
 30
0.0
 11
5861.5739879300272
 21
1072.43263356591
 31
0.0
  0
LINE
  5
1C959
  8
01
  6
BYBLOCK
 10
5864.1739879300267
 20
1073.12930145991
 30
0.0
 11
5861.5739879300272
 21
1073.12930145991
 31
0.0
  0
LINE
  5
1C95A
  8
01
  6
BYBLOCK
 10
5741.7739879300289
 20
1072.43263356591
 30
0.0
 11
5739.1739879300294
 21
1073.12930145991
 31
0.0
  0
LINE
  5
1C95B
  8
01
  6
BYBLOCK
 10
5739.1739879300294
 20
1073.12930145991
 30
0.0
 11
5741.7739879300289
 21
1073.8259693539101
 31
0.0
  0
LINE
  5
1C95C
  8
01
  6
BYBLOCK
 10
5739.1739879300294
 20
1073.12930145991
 30
0.0
 11
5741.7739879300289
 21
1073.12930145991
 31
0.0
  0
TEXT
  5
1C95D
  8
01
 10
5789.3489879300269
 20
1064.0393014599099
 30
0.0
 40
4.5499999999999989
  1
136
  0
LINE
  5
1C95E
  8
01
  6
BYBLOCK
 10
5861.5739879300272
 20
1063.8259693539101
 30
0.0
 11
5864.1739879300267
 21
1063.12930145991
 31
0.0
  0
LINE
  5
1C95F
  8
01
  6
BYBLOCK
 10
5864.1739879300267
 20
1063.12930145991
 30
0.0
 11
5861.5739879300272
 21
1062.43263356591
 31
0.0
  0
LINE
  5
1C960
  8
01
  6
BYBLOCK
 10
5864.1739879300267
 20
1063.12930145991
 30
0.0
 11
5861.5739879300272
 21
1063.12930145991
 31
0.0
  0
LINE
  5
1C961
  8
01
  6
BYBLOCK
 10
5730.7739879300279
 20
1062.43263356591
 30
0.0
 11
5728.1739879300267
 21
1063.12930145991
 31
0.0
  0
LINE
  5
1C962
  8
01
  6
BYBLOCK
 10
5728.1739879300267
 20
1063.12930145991
 30
0.0
 11
5730.7739879300279
 21
1063.8259693539101
 31
0.0
  0
LINE
  5
1C963
  8
01
  6
BYBLOCK
 10
5728.1739879300267
 20
1063.12930145991
 30
0.0
 11
5730.7739879300279
 21
1063.12930145991
 31
0.0
  0
TEXT
  5
1C964
  8
01
 10
5734.8405382569508
 20
901.03930145677919
 30
-0.0000000000562575
 40
4.5499999999999989
  1
53
  0
LINE
  5
1C965
  8
01
  6
BYBLOCK
 10
5763.0738715902826
 20
900.82596935077925
 30
-0.0000000000562575
 11
5765.6738715902829
 21
900.12930145677922
 31
-0.0000000000562575
  0
LINE
  5
1C966
  8
01
  6
BYBLOCK
 10
5765.6738715902829
 20
900.12930145677922
 30
-0.0000000000562575
 11
5763.0738715902826
 21
899.43263356277907
 31
-0.0000000000562575
  0
LINE
  5
1C967
  8
01
  6
BYBLOCK
 10
5765.6738715902829
 20
900.12930145677922
 30
-0.0000000000562575
 11
5763.0738715902826
 21
900.12930145677922
 31
-0.0000000000562575
  0
LINE
  5
1C968
  8
01
  6
BYBLOCK
 10
5715.2738715902842
 20
899.43263356277907
 30
-0.0000000000562575
 11
5712.6738715902839
 21
900.12930145677922
 31
-0.0000000000562575
  0
LINE
  5
1C969
  8
01
  6
BYBLOCK
 10
5712.6738715902839
 20
900.12930145677922
 30
-0.0000000000562575
 11
5715.2738715902842
 21
900.82596935077925
 31
-0.0000000000562575
  0
LINE
  5
1C96A
  8
01
  6
BYBLOCK
 10
5712.6738715902839
 20
900.12930145677922
 30
-0.0000000000562575
 11
5715.2738715902842
 21
900.12930145677922
 31
-0.0000000000562575
  0
TEXT
  5
1C96B
  8
01
 10
5777.263871590284
 20
861.29596812344687
 30
-0.0000000000562575
 40
4.5499999999999989
  1
42
 50
90.0
  0
LINE
  5
1C96C
  8
01
  6
BYBLOCK
 10
5778.8705394842837
 20
847.22930145677924
 30
-0.0000000000562575
 11
5778.1738715902839
 21
844.62930145677933
 31
-0.0000000000562575
  0
LINE
  5
1C96D
  8
01
  6
BYBLOCK
 10
5778.1738715902839
 20
844.62930145677933
 30
-0.0000000000562575
 11
5777.4772036962841
 21
847.22930145677924
 31
-0.0000000000562575
  0
LINE
  5
1C96E
  8
01
  6
BYBLOCK
 10
5778.1738715902839
 20
844.62930145677933
 30
-0.0000000000562575
 11
5778.1738715902839
 21
847.22930145677924
 31
-0.0000000000562575
  0
LINE
  5
1C96F
  8
01
  6
BYBLOCK
 10
5777.4772036962841
 20
884.02930145677908
 30
-0.0000000000562575
 11
5778.1738715902839
 21
886.62930145677922
 31
-0.0000000000562575
  0
LINE
  5
1C970
  8
01
  6
BYBLOCK
 10
5778.1738715902839
 20
886.62930145677922
 30
-0.0000000000562575
 11
5778.8705394842837
 21
884.02930145677908
 31
-0.0000000000562575
  0
LINE
  5
1C971
  8
01
  6
BYBLOCK
 10
5778.1738715902839
 20
886.62930145677922
 30
-0.0000000000562575
 11
5778.1738715902839
 21
884.02930145677908
 31
-0.0000000000562575
  0
TEXT
  5
1C972
  8
01
 10
5703.263871590284
 20
947.24788882795804
 30
0.0
 40
4.5499999999999989
  1
□53
 50
90.0
  0
LINE
  5
1C973
  8
01
  6
BYBLOCK
 10
5704.8705394842837
 20
931.72930145677731
 30
0.0
 11
5704.1738715902839
 21
929.1293014567774
 31
0.0
  0
LINE
  5
1C974
  8
01
  6
BYBLOCK
 10
5704.1738715902839
 20
929.1293014567774
 30
0.0
 11
5703.4772036962841
 21
931.72930145677731
 31
0.0
  0
LINE
  5
1C975
  8
01
  6
BYBLOCK
 10
5704.1738715902839
 20
929.1293014567774
 30
0.0
 11
5704.1738715902839
 21
931.72930145677731
 31
0.0
  0
LINE
  5
1C976
  8
01
  6
BYBLOCK
 10
5703.4772036962841
 20
979.52930145677726
 30
0.0
 11
5704.1738715902839
 21
982.12930145677728
 31
0.0
  0
LINE
  5
1C977
  8
01
  6
BYBLOCK
 10
5704.1738715902839
 20
982.12930145677728
 30
0.0
 11
5704.8705394842837
 21
979.52930145677726
 31
0.0
  0
LINE
  5
1C978
  8
01
  6
BYBLOCK
 10
5704.1738715902839
 20
982.12930145677728
 30
0.0
 11
5704.1738715902839
 21
979.52930145677726
 31
0.0
  0
VIEWPORT
  5
57
 67
     1
  8
0
 10
-12.7314105696436
 20
16.854969883140338
 30
0.0
 40
442.7649462331608
 41
296.61333123761301
 68
     1
 69
     1
1001
ACAD
1000
MVIEW
1002
{
1070
    16
1010
0.0
1020
0.0
1030
0.0
1010
0.0
1020
0.0
1030
1.0
1040
0.0
1040
296.61333123761301
1040
-12.7314105696436
1040
16.854969883140338
1040
50.0
1040
0.0
1040
0.0
1070
     0
1070
   100
1070
     1
1070
     1
1070
     0
1070
     0
1070
     0
1070
     0
1040
0.0
1040
0.0
1040
0.0
1040
10.0
1040
10.0
1040
10.0
1040
10.0
1070
     0
1002
{
1002
}
1002
}
  0
ENDSEC
  0
EOF
