  0
SECTION
  2
HEADER
  9
$ACADVER
  1
AC1009
  9
$INSBASE
 10
0.0
 20
0.0
 30
0.0
  9
$EXTMIN
 10
544.18767216632432
 20
-1472.9126913893799
 30
-0.0000000000001137
  9
$EXTMAX
 10
1150.487781506069
 20
-1063.5767513904091
 30
0.0000000000562575
  9
$LIMMIN
 10
0.0
 20
0.0
  9
$LIMMAX
 10
420.0
 20
297.0
  9
$ORTHOMODE
 70
     0
  9
$REGENMODE
 70
     1
  9
$FILLMODE
 70
     1
  9
$QTEXTMODE
 70
     0
  9
$MIRRTEXT
 70
     0
  9
$DRAGMODE
 70
     2
  9
$LTSCALE
 40
0.5
  9
$OSMODE
 70
  2175
  9
$ATTMODE
 70
     1
  9
$TEXTSIZE
 40
4.0
  9
$TRACEWID
 40
1.0
  9
$TEXTSTYLE
  7
STANDARD
  9
$CLAYER
  8
1TEXT
  9
$CELTYPE
  6
BYLAYER
  9
$CECOLOR
 62
   256
  9
$DIMSCALE
 40
1.0
  9
$DIMASZ
 40
2.0
  9
$DIMEXO
 40
0.0
  9
$DIMDLI
 40
7.0
  9
$DIMRND
 40
0.0
  9
$DIMDLE
 40
0.0
  9
$DIMEXE
 40
1.0
  9
$DIMTP
 40
0.0
  9
$DIMTM
 40
0.0
  9
$DIMTXT
 40
3.5
  9
$DIMCEN
 40
0.0
  9
$DIMTSZ
 40
0.0
  9
$DIMTOL
 70
     0
  9
$DIMLIM
 70
     0
  9
$DIMTIH
 70
     0
  9
$DIMTOH
 70
     0
  9
$DIMSE1
 70
     0
  9
$DIMSE2
 70
     0
  9
$DIMTAD
 70
     1
  9
$DIMZIN
 70
     8
  9
$DIMBLK
  1

  9
$DIMASO
 70
     1
  9
$DIMSHO
 70
     1
  9
$DIMPOST
  1
 
  9
$DIMAPOST
  1

  9
$DIMALT
 70
     0
  9
$DIMALTD
 70
     2
  9
$DIMALTF
 40
25.399999999999999
  9
$DIMLFAC
 40
1.0
  9
$DIMTOFL
 70
     1
  9
$DIMTVP
 40
0.0
  9
$DIMTIX
 70
     0
  9
$DIMSOXD
 70
     0
  9
$DIMSAH
 70
     1
  9
$DIMBLK1
  1
OPEN30
  9
$DIMBLK2
  1
OPEN30
  9
$DIMSTYLE
  2
NEWX10
  9
$DIMCLRD
 70
   256
  9
$DIMCLRE
 70
   256
  9
$DIMCLRT
 70
   201
  9
$DIMTFAC
 40
0.7
  9
$DIMGAP
 40
0.7
  9
$LUNITS
 70
     2
  9
$LUPREC
 70
     4
  9
$SKETCHINC
 40
1.0
  9
$FILLETRAD
 40
0.0
  9
$AUNITS
 70
     0
  9
$AUPREC
 70
     2
  9
$MENU
  1
acad
  9
$ELEVATION
 40
0.0
  9
$PELEVATION
 40
0.0
  9
$THICKNESS
 40
0.0
  9
$LIMCHECK
 70
     0
  9
$BLIPMODE
 70
     0
  9
$CHAMFERA
 40
10.0
  9
$CHAMFERB
 40
10.0
  9
$SKPOLY
 70
     0
  9
$TDCREATE
 40
2451318.621352917
  9
$TDUPDATE
 40
2456015.8227101392
  9
$TDINDWG
 40
0.4777597685
  9
$TDUSRTIMER
 40
0.4777597685
  9
$USRTIMER
 70
     1
  9
$ANGBASE
 50
0.0
  9
$ANGDIR
 70
     0
  9
$PDMODE
 70
     0
  9
$PDSIZE
 40
0.0
  9
$PLINEWID
 40
0.0
  9
$COORDS
 70
     2
  9
$SPLFRAME
 70
     0
  9
$SPLINETYPE
 70
     6
  9
$SPLINESEGS
 70
     8
  9
$ATTDIA
 70
     0
  9
$ATTREQ
 70
     1
  9
$HANDLING
 70
     1
  9
$HANDSEED
  5
E6B2
  9
$SURFTAB1
 70
     6
  9
$SURFTAB2
 70
     6
  9
$SURFTYPE
 70
     6
  9
$SURFU
 70
     6
  9
$SURFV
 70
     6
  9
$UCSNAME
  2

  9
$UCSORG
 10
0.0
 20
0.0
 30
0.0
  9
$UCSXDIR
 10
1.0
 20
0.0
 30
0.0
  9
$UCSYDIR
 10
0.0
 20
1.0
 30
0.0
  9
$PUCSNAME
  2

  9
$PUCSORG
 10
0.0
 20
0.0
 30
0.0
  9
$PUCSXDIR
 10
1.0
 20
0.0
 30
0.0
  9
$PUCSYDIR
 10
0.0
 20
1.0
 30
0.0
  9
$USERI1
 70
     0
  9
$USERI2
 70
     0
  9
$USERI3
 70
     0
  9
$USERI4
 70
     0
  9
$USERI5
 70
     0
  9
$USERR1
 40
0.0
  9
$USERR2
 40
0.0
  9
$USERR3
 40
0.0
  9
$USERR4
 40
0.0
  9
$USERR5
 40
0.0
  9
$WORLDVIEW
 70
     1
  9
$SHADEDGE
 70
     3
  9
$SHADEDIF
 70
    70
  9
$TILEMODE
 70
     1
  9
$MAXACTVP
 70
    48
  9
$PLIMCHECK
 70
     0
  9
$PEXTMIN
 10
1.0000000000000000E+020
 20
1.0000000000000000E+020
 30
1.0000000000000000E+020
  9
$PEXTMAX
 10
-1.0000000000000000E+020
 20
-1.0000000000000000E+020
 30
-1.0000000000000000E+020
  9
$PLIMMIN
 10
0.0
 20
0.0
  9
$PLIMMAX
 10
420.0
 20
297.0
  9
$UNITMODE
 70
     0
  9
$VISRETAIN
 70
     1
  9
$PLINEGEN
 70
     0
  9
$PSLTSCALE
 70
     1
  0
ENDSEC
  0
SECTION
  2
TABLES
  0
TABLE
  2
VPORT
 70
     1
  0
VPORT
  2
*ACTIVE
 70
     0
 10
0.0
 20
0.0
 11
1.0
 21
1.0
 12
847.34717459175511
 22
-1268.25573042879
 13
0.0
 23
0.0
 14
10.0
 24
10.0
 15
10.0
 25
10.0
 16
0.0
 26
0.0
 36
1.0
 17
0.0
 27
0.0
 37
0.0
 40
434.4885900002684
 41
1.5395095367847409
 42
50.0
 43
0.0
 44
0.0
 50
0.0
 51
0.0
 71
     0
 72
   100
 73
     1
 74
     1
 75
     0
 76
     0
 77
     0
 78
     0
  0
ENDTAB
  0
TABLE
  2
LTYPE
 70
    12
  0
LTYPE
  2
CONTINUOUS
 70
     0
  3
Solid line
 72
    65
 73
     0
 40
0.0
  0
LTYPE
  2
XREF1|CENTER2
 70
    48
  3
Center (.5x) ___ _ ___ _ ___ _ ___ _ ___ _ ___
 72
    65
 73
     4
 40
28.574999999999999
 49
19.050000000000001
 49
-3.1749999999999989
 49
3.1749999999999989
 49
-3.1749999999999989
  0
LTYPE
  2
A3WAKUDAKE|CENTER2
 70
    48
  3
Center (.5x) ___ _ ___ _ ___ _ ___ _ ___ _ ___
 72
    65
 73
     4
 40
28.574999999999999
 49
19.050000000000001
 49
-3.1749999999999989
 49
3.1749999999999989
 49
-3.1749999999999989
  0
ENDTAB
  0
TABLE
  2
LAYER
 70
    36
  0
LAYER
  2
0
 70
     0
 62
     7
  6
CONTINUOUS
  0
LAYER
  2
1TEXT
 70
     0
 62
     7
  6
CONTINUOUS
  0
LAYER
  2
01
 70
     0
 62
     1
  6
CONTINUOUS
  0
LAYER
  2
A3WAKUDAKE|THICK
 70
    48
 62
     7
  6
CONTINUOUS
  0
LAYER
  2
A3WAKUDAKE|POINT
 70
    48
 62
     7
  6
CONTINUOUS
  0
LAYER
  2
A3WAKUDAKE|1CENTER
 70
    48
 62
     7
  6
A3WAKUDAKE|CENTER2
  0
LAYER
  2
A3WAKUDAKE|0-6
 70
    48
 62
     7
  6
CONTINUOUS
  0
LAYER
  2
A3WAKUDAKE|1DIM
 70
    48
 62
     7
  6
CONTINUOUS
  0
LAYER
  2
XREF1|1CENTER
 70
    48
 62
     7
  6
XREF1|CENTER2
  0
ENDTAB
  0
TABLE
  2
STYLE
 70
     4
  0
STYLE
  2
STANDARD
 70
     0
 40
0.0
 41
1.0
 50
0.0
 71
     0
 42
4.0
  3
romans.shx
  4
extfont2.shx
  0
ENDTAB
  0
TABLE
  2
VIEW
 70
     5
  0
ENDTAB
  0
TABLE
  2
UCS
 70
     0
  0
ENDTAB
  0
TABLE
  2
APPID
 70
     9
  0
APPID
  2
ACAD
 70
     0
  0
APPID
  2
DRAWINGVARIABLESXDATA
 70
     0
  0
APPID
  2
CONTENTTABDATA
 70
     0
  0
APPID
  2
CONTENTCURRENTTAB
 70
     0
  0
APPID
  2
CONTENTBLOCKDESCRIPTION
 70
     0
  0
APPID
  2
CONTENTBLOCKICON
 70
     0
  0
APPID
  2
CONTENTLONGBLOCKNAME
 70
     0
  0
APPID
  2
ACAD_PSEXT
 70
     0
  0
APPID
  2
ACAD_MLEADERVER
 70
     0
  0
ENDTAB
  0
TABLE
  2
DIMSTYLE
 70
     5
  0
DIMSTYLE
  2
NEWX10
 70
     0
  3
 
  4

  5

  6
OPEN30
  7
OPEN30
 40
1.0
 41
2.0
 42
0.0
 43
7.0
 44
1.0
 45
0.0
 46
0.0
 47
0.0
 48
0.0
140
3.5
141
0.0
142
0.0
143
25.399999999999999
144
1.0
145
0.0
146
0.7
147
0.7
 71
     0
 72
     0
 73
     0
 74
     0
 75
     0
 76
     0
 77
     1
 78
     8
170
     0
171
     2
172
     1
173
     1
174
     0
175
     0
176
   256
177
   256
178
   201
  0
ENDTAB
  0
ENDSEC
  0
SECTION
  2
BLOCKS
  0
BLOCK
  8
0
  2
$MODEL_SPACE
 70
     0
 10
0.0
 20
0.0
 30
0.0
  3
$MODEL_SPACE
  1

  0
ENDBLK
  5
1A
  8
0
  0
BLOCK
 67
     1
  8
0
  2
$PAPER_SPACE
 70
     0
 10
0.0
 20
0.0
 30
0.0
  3
$PAPER_SPACE
  1

  0
ENDBLK
  5
17
 67
     1
  8
0
  0
BLOCK
  8
0
  2
_OPEN30
 70
     0
 10
0.0
 20
0.0
 30
0.0
  3
_OPEN30
  1

  0
LINE
  5
44
  8
0
  6
BYBLOCK
 62
     0
 10
-1.0
 20
0.26794919
 30
0.0
 11
0.0
 21
0.0
 31
0.0
  0
LINE
  5
45
  8
0
  6
BYBLOCK
 62
     0
 10
0.0
 20
0.0
 30
0.0
 11
-1.0
 21
-0.26794919
 31
0.0
  0
LINE
  5
46
  8
0
  6
BYBLOCK
 62
     0
 10
0.0
 20
0.0
 30
0.0
 11
-1.0
 21
0.0
 31
0.0
  0
ENDBLK
  5
47
  8
0
  0
BLOCK
  8
0
  2
XREF1
 70
    36
 10
0.0
 20
0.0
 30
0.0
  3
XREF1
  1
D:\ACLT\FORMAT\KAWAJUN(9)図面用.dwg
  0
ENDBLK
  5
5D
  8
0
  0
BLOCK
  8
0
  2
A3WAKUDAKE
 70
    36
 10
0.0
 20
0.0
 30
0.0
  3
A3WAKUDAKE
  1
D:\ACLT\FORMAT\A3WAKUdake.dwg
  0
ENDBLK
  5
6A0
  8
0
  0
BLOCK
  8
0
  2
*U27
 70
     1
 10
0.0
 20
0.0
 30
0.0
  3
*U27
  1

  0
TEXT
  5
E5A1
  8
1TEXT
 62
   201
 10
1043.3489401080969
 20
-1150.4100847237421
 30
0.0
 40
3.5
  1
20.5
 50
90.0
  0
ENDBLK
  5
E5A3
  8
0
  0
BLOCK
  8
0
  2
*U28
 70
     1
 10
0.0
 20
0.0
 30
0.0
  3
*U28
  1

  0
TEXT
  5
E5A5
  8
1TEXT
 62
   201
 10
3363.5793699269252
 20
-397.31741493210552
 30
0.0
 40
4.5499999999999989
  1
20.5
 50
90.0
  0
ENDBLK
  5
E5A7
  8
0
  0
ENDSEC
  0
SECTION
  2
ENTITIES
  0
LINE
  5
21EB
  8
01
 10
854.18766916632444
 20
-1325.57937138938
 30
0.0
 11
854.18766916632444
 21
-1472.9126913893799
 31
0.0
  0
LINE
  5
21EC
  8
01
 10
814.18766916632433
 20
-1325.57937138938
 30
0.0
 11
814.18766916632433
 21
-1472.9126913893799
 31
0.0
  0
LINE
  5
21ED
  8
01
 10
712.78767516632502
 20
-1332.07675138938
 30
0.0
 11
712.78767516632502
 21
-1355.17672138938
 31
0.0
  0
LINE
  5
21EE
  8
01
 10
711.18766916632444
 20
-1332.07675138938
 30
0.0
 11
711.18766916632444
 21
-1355.07675138938
 31
0.0
  0
LINE
  5
21EF
  8
01
 10
713.58767816632519
 20
-1332.07675138938
 30
0.0
 11
713.58767816632519
 21
-1462.07675138938
 31
0.0
  0
LINE
  5
21F0
  8
01
 10
715.18766916632444
 20
-1332.07675138938
 30
0.0
 11
715.18766916632444
 21
-1462.07675138938
 31
0.0
  0
LINE
  5
21F2
  8
01
 10
712.18766916632444
 20
-1434.0767513893809
 30
0.0
 11
683.39704587862241
 21
-1434.07675138938
 31
0.0
  0
LINE
  5
21F3
  8
01
 10
646.18768516632463
 20
-1370.825428883358
 30
0.0
 11
646.18768516632463
 21
-1400.7273873664581
 31
0.0
  0
LINE
  5
21F4
  8
01
 10
721.18766916632262
 20
-1386.0767513893809
 30
0.0
 11
715.18766916632444
 21
-1386.0767513893809
 31
0.0
  0
LINE
  5
21F5
  8
01
 10
726.18766916632444
 20
-1391.0767513893809
 30
0.0
 11
716.18766916632444
 21
-1391.0767513893809
 31
0.0
  0
POLYLINE
  5
21F6
  8
01
 10
726.18766916632444
 20
-1389.64517138938
 30
0.0
 66
     1
 70
     8
  0
VERTEX
  8
01
  5
E5AE
 10
726.188
 20
-1389.65
 30
0.000000
  70
    32
  0
VERTEX
  8
01
  5
E5AF
 10
726.186
 20
-1389.56
 30
0.000000
  70
    32
  0
VERTEX
  8
01
  5
E5B0
 10
726.182
 20
-1389.47
 30
0.000000
  70
    32
  0
VERTEX
  8
01
  5
E5B1
 10
726.174
 20
-1389.38
 30
0.000000
  70
    32
  0
VERTEX
  8
01
  5
E5B2
 10
726.164
 20
-1389.30
 30
0.000000
  70
    32
  0
VERTEX
  8
01
  5
E5B3
 10
726.150
 20
-1389.21
 30
0.000000
  70
    32
  0
VERTEX
  8
01
  5
E5B4
 10
726.134
 20
-1389.12
 30
0.000000
  70
    32
  0
VERTEX
  8
01
  5
E5B5
 10
726.114
 20
-1389.04
 30
0.000000
  70
    32
  0
VERTEX
  8
01
  5
E5B6
 10
726.092
 20
-1388.95
 30
0.000000
  70
    32
  0
VERTEX
  8
01
  5
E5B7
 10
726.066
 20
-1388.86
 30
0.000000
  70
    32
  0
VERTEX
  8
01
  5
E5B8
 10
726.038
 20
-1388.78
 30
0.000000
  70
    32
  0
VERTEX
  8
01
  5
E5B9
 10
726.007
 20
-1388.69
 30
0.000000
  70
    32
  0
VERTEX
  8
01
  5
E5BA
 10
725.972
 20
-1388.61
 30
0.000000
  70
    32
  0
VERTEX
  8
01
  5
E5BB
 10
725.935
 20
-1388.53
 30
0.000000
  70
    32
  0
VERTEX
  8
01
  5
E5BC
 10
725.895
 20
-1388.44
 30
0.000000
  70
    32
  0
VERTEX
  8
01
  5
E5BD
 10
725.853
 20
-1388.36
 30
0.000000
  70
    32
  0
VERTEX
  8
01
  5
E5BE
 10
725.807
 20
-1388.28
 30
0.000000
  70
    32
  0
VERTEX
  8
01
  5
E5BF
 10
725.759
 20
-1388.20
 30
0.000000
  70
    32
  0
VERTEX
  8
01
  5
E5C0
 10
725.708
 20
-1388.12
 30
0.000000
  70
    32
  0
VERTEX
  8
01
  5
E5C1
 10
725.654
 20
-1388.04
 30
0.000000
  70
    32
  0
VERTEX
  8
01
  5
E5C2
 10
725.597
 20
-1387.96
 30
0.000000
  70
    32
  0
VERTEX
  8
01
  5
E5C3
 10
725.538
 20
-1387.89
 30
0.000000
  70
    32
  0
VERTEX
  8
01
  5
E5C4
 10
725.476
 20
-1387.81
 30
0.000000
  70
    32
  0
VERTEX
  8
01
  5
E5C5
 10
725.412
 20
-1387.74
 30
0.000000
  70
    32
  0
VERTEX
  8
01
  5
E5C6
 10
725.345
 20
-1387.66
 30
0.000000
  70
    32
  0
VERTEX
  8
01
  5
E5C7
 10
725.276
 20
-1387.59
 30
0.000000
  70
    32
  0
VERTEX
  8
01
  5
E5C8
 10
725.204
 20
-1387.52
 30
0.000000
  70
    32
  0
VERTEX
  8
01
  5
E5C9
 10
725.129
 20
-1387.45
 30
0.000000
  70
    32
  0
VERTEX
  8
01
  5
E5CA
 10
725.053
 20
-1387.38
 30
0.000000
  70
    32
  0
VERTEX
  8
01
  5
E5CB
 10
724.974
 20
-1387.31
 30
0.000000
  70
    32
  0
VERTEX
  8
01
  5
E5CC
 10
724.892
 20
-1387.25
 30
0.000000
  70
    32
  0
VERTEX
  8
01
  5
E5CD
 10
724.809
 20
-1387.18
 30
0.000000
  70
    32
  0
VERTEX
  8
01
  5
E5CE
 10
724.723
 20
-1387.12
 30
0.000000
  70
    32
  0
VERTEX
  8
01
  5
E5CF
 10
724.635
 20
-1387.06
 30
0.000000
  70
    32
  0
VERTEX
  8
01
  5
E5D0
 10
724.545
 20
-1387.00
 30
0.000000
  70
    32
  0
VERTEX
  8
01
  5
E5D1
 10
724.454
 20
-1386.94
 30
0.000000
  70
    32
  0
VERTEX
  8
01
  5
E5D2
 10
724.360
 20
-1386.89
 30
0.000000
  70
    32
  0
VERTEX
  8
01
  5
E5D3
 10
724.264
 20
-1386.83
 30
0.000000
  70
    32
  0
VERTEX
  8
01
  5
E5D4
 10
724.166
 20
-1386.78
 30
0.000000
  70
    32
  0
VERTEX
  8
01
  5
E5D5
 10
724.067
 20
-1386.73
 30
0.000000
  70
    32
  0
VERTEX
  8
01
  5
E5D6
 10
723.966
 20
-1386.68
 30
0.000000
  70
    32
  0
VERTEX
  8
01
  5
E5D7
 10
723.863
 20
-1386.63
 30
0.000000
  70
    32
  0
VERTEX
  8
01
  5
E5D8
 10
723.758
 20
-1386.58
 30
0.000000
  70
    32
  0
VERTEX
  8
01
  5
E5D9
 10
723.652
 20
-1386.54
 30
0.000000
  70
    32
  0
VERTEX
  8
01
  5
E5DA
 10
723.545
 20
-1386.50
 30
0.000000
  70
    32
  0
VERTEX
  8
01
  5
E5DB
 10
723.436
 20
-1386.46
 30
0.000000
  70
    32
  0
VERTEX
  8
01
  5
E5DC
 10
723.325
 20
-1386.42
 30
0.000000
  70
    32
  0
VERTEX
  8
01
  5
E5DD
 10
723.214
 20
-1386.38
 30
0.000000
  70
    32
  0
VERTEX
  8
01
  5
E5DE
 10
723.101
 20
-1386.35
 30
0.000000
  70
    32
  0
VERTEX
  8
01
  5
E5DF
 10
722.987
 20
-1386.32
 30
0.000000
  70
    32
  0
VERTEX
  8
01
  5
E5E0
 10
722.872
 20
-1386.29
 30
0.000000
  70
    32
  0
VERTEX
  8
01
  5
E5E1
 10
722.756
 20
-1386.26
 30
0.000000
  70
    32
  0
VERTEX
  8
01
  5
E5E2
 10
722.639
 20
-1386.23
 30
0.000000
  70
    32
  0
VERTEX
  8
01
  5
E5E3
 10
722.521
 20
-1386.21
 30
0.000000
  70
    32
  0
VERTEX
  8
01
  5
E5E4
 10
722.403
 20
-1386.18
 30
0.000000
  70
    32
  0
VERTEX
  8
01
  5
E5E5
 10
722.283
 20
-1386.16
 30
0.000000
  70
    32
  0
VERTEX
  8
01
  5
E5E6
 10
722.163
 20
-1386.15
 30
0.000000
  70
    32
  0
VERTEX
  8
01
  5
E5E7
 10
722.042
 20
-1386.13
 30
0.000000
  70
    32
  0
VERTEX
  8
01
  5
E5E8
 10
721.921
 20
-1386.12
 30
0.000000
  70
    32
  0
VERTEX
  8
01
  5
E5E9
 10
721.800
 20
-1386.10
 30
0.000000
  70
    32
  0
VERTEX
  8
01
  5
E5EA
 10
721.678
 20
-1386.09
 30
0.000000
  70
    32
  0
VERTEX
  8
01
  5
E5EB
 10
721.555
 20
-1386.09
 30
0.000000
  70
    32
  0
VERTEX
  8
01
  5
E5EC
 10
721.433
 20
-1386.08
 30
0.000000
  70
    32
  0
VERTEX
  8
01
  5
E5ED
 10
721.310
 20
-1386.08
 30
0.000000
  70
    32
  0
VERTEX
  8
01
  5
E5EE
 10
721.188
 20
-1386.08
 30
0.000000
  70
    32
  0
VERTEX
  8
01
  5
E5EF
 10
721.065
 20
-1386.08
 30
0.000000
  70
    32
  0
VERTEX
  8
01
  5
E5F0
 10
720.942
 20
-1386.08
 30
0.000000
  70
    32
  0
VERTEX
  8
01
  5
E5F1
 10
720.820
 20
-1386.09
 30
0.000000
  70
    32
  0
VERTEX
  8
01
  5
E5F2
 10
720.698
 20
-1386.09
 30
0.000000
  70
    32
  0
VERTEX
  8
01
  5
E5F3
 10
720.576
 20
-1386.10
 30
0.000000
  70
    32
  0
VERTEX
  8
01
  5
E5F4
 10
720.454
 20
-1386.12
 30
0.000000
  70
    32
  0
VERTEX
  8
01
  5
E5F5
 10
720.333
 20
-1386.13
 30
0.000000
  70
    32
  0
VERTEX
  8
01
  5
E5F6
 10
720.212
 20
-1386.15
 30
0.000000
  70
    32
  0
VERTEX
  8
01
  5
E5F7
 10
720.092
 20
-1386.16
 30
0.000000
  70
    32
  0
VERTEX
  8
01
  5
E5F8
 10
719.973
 20
-1386.18
 30
0.000000
  70
    32
  0
VERTEX
  8
01
  5
E5F9
 10
719.854
 20
-1386.21
 30
0.000000
  70
    32
  0
VERTEX
  8
01
  5
E5FA
 10
719.736
 20
-1386.23
 30
0.000000
  70
    32
  0
VERTEX
  8
01
  5
E5FB
 10
719.619
 20
-1386.26
 30
0.000000
  70
    32
  0
VERTEX
  8
01
  5
E5FC
 10
719.503
 20
-1386.29
 30
0.000000
  70
    32
  0
VERTEX
  8
01
  5
E5FD
 10
719.388
 20
-1386.32
 30
0.000000
  70
    32
  0
VERTEX
  8
01
  5
E5FE
 10
719.274
 20
-1386.35
 30
0.000000
  70
    32
  0
VERTEX
  8
01
  5
E5FF
 10
719.161
 20
-1386.38
 30
0.000000
  70
    32
  0
VERTEX
  8
01
  5
E600
 10
719.050
 20
-1386.42
 30
0.000000
  70
    32
  0
VERTEX
  8
01
  5
E601
 10
718.940
 20
-1386.46
 30
0.000000
  70
    32
  0
VERTEX
  8
01
  5
E602
 10
718.831
 20
-1386.50
 30
0.000000
  70
    32
  0
VERTEX
  8
01
  5
E603
 10
718.723
 20
-1386.54
 30
0.000000
  70
    32
  0
VERTEX
  8
01
  5
E604
 10
718.617
 20
-1386.58
 30
0.000000
  70
    32
  0
VERTEX
  8
01
  5
E605
 10
718.513
 20
-1386.63
 30
0.000000
  70
    32
  0
VERTEX
  8
01
  5
E606
 10
718.410
 20
-1386.68
 30
0.000000
  70
    32
  0
VERTEX
  8
01
  5
E607
 10
718.309
 20
-1386.73
 30
0.000000
  70
    32
  0
VERTEX
  8
01
  5
E608
 10
718.209
 20
-1386.78
 30
0.000000
  70
    32
  0
VERTEX
  8
01
  5
E609
 10
718.112
 20
-1386.83
 30
0.000000
  70
    32
  0
VERTEX
  8
01
  5
E60A
 10
718.016
 20
-1386.89
 30
0.000000
  70
    32
  0
VERTEX
  8
01
  5
E60B
 10
717.922
 20
-1386.94
 30
0.000000
  70
    32
  0
VERTEX
  8
01
  5
E60C
 10
717.830
 20
-1387.00
 30
0.000000
  70
    32
  0
VERTEX
  8
01
  5
E60D
 10
717.740
 20
-1387.06
 30
0.000000
  70
    32
  0
VERTEX
  8
01
  5
E60E
 10
717.652
 20
-1387.12
 30
0.000000
  70
    32
  0
VERTEX
  8
01
  5
E60F
 10
717.566
 20
-1387.18
 30
0.000000
  70
    32
  0
VERTEX
  8
01
  5
E610
 10
717.483
 20
-1387.25
 30
0.000000
  70
    32
  0
VERTEX
  8
01
  5
E611
 10
717.402
 20
-1387.31
 30
0.000000
  70
    32
  0
VERTEX
  8
01
  5
E612
 10
717.323
 20
-1387.38
 30
0.000000
  70
    32
  0
VERTEX
  8
01
  5
E613
 10
717.246
 20
-1387.45
 30
0.000000
  70
    32
  0
VERTEX
  8
01
  5
E614
 10
717.172
 20
-1387.52
 30
0.000000
  70
    32
  0
VERTEX
  8
01
  5
E615
 10
717.100
 20
-1387.59
 30
0.000000
  70
    32
  0
VERTEX
  8
01
  5
E616
 10
717.030
 20
-1387.66
 30
0.000000
  70
    32
  0
VERTEX
  8
01
  5
E617
 10
716.963
 20
-1387.74
 30
0.000000
  70
    32
  0
VERTEX
  8
01
  5
E618
 10
716.899
 20
-1387.81
 30
0.000000
  70
    32
  0
VERTEX
  8
01
  5
E619
 10
716.837
 20
-1387.89
 30
0.000000
  70
    32
  0
VERTEX
  8
01
  5
E61A
 10
716.778
 20
-1387.96
 30
0.000000
  70
    32
  0
VERTEX
  8
01
  5
E61B
 10
716.722
 20
-1388.04
 30
0.000000
  70
    32
  0
VERTEX
  8
01
  5
E61C
 10
716.668
 20
-1388.12
 30
0.000000
  70
    32
  0
VERTEX
  8
01
  5
E61D
 10
716.617
 20
-1388.20
 30
0.000000
  70
    32
  0
VERTEX
  8
01
  5
E61E
 10
716.568
 20
-1388.28
 30
0.000000
  70
    32
  0
VERTEX
  8
01
  5
E61F
 10
716.523
 20
-1388.36
 30
0.000000
  70
    32
  0
VERTEX
  8
01
  5
E620
 10
716.480
 20
-1388.44
 30
0.000000
  70
    32
  0
VERTEX
  8
01
  5
E621
 10
716.440
 20
-1388.53
 30
0.000000
  70
    32
  0
VERTEX
  8
01
  5
E622
 10
716.403
 20
-1388.61
 30
0.000000
  70
    32
  0
VERTEX
  8
01
  5
E623
 10
716.369
 20
-1388.69
 30
0.000000
  70
    32
  0
VERTEX
  8
01
  5
E624
 10
716.338
 20
-1388.78
 30
0.000000
  70
    32
  0
VERTEX
  8
01
  5
E625
 10
716.309
 20
-1388.86
 30
0.000000
  70
    32
  0
VERTEX
  8
01
  5
E626
 10
716.284
 20
-1388.95
 30
0.000000
  70
    32
  0
VERTEX
  8
01
  5
E627
 10
716.261
 20
-1389.04
 30
0.000000
  70
    32
  0
VERTEX
  8
01
  5
E628
 10
716.242
 20
-1389.12
 30
0.000000
  70
    32
  0
VERTEX
  8
01
  5
E629
 10
716.225
 20
-1389.21
 30
0.000000
  70
    32
  0
VERTEX
  8
01
  5
E62A
 10
716.212
 20
-1389.30
 30
0.000000
  70
    32
  0
VERTEX
  8
01
  5
E62B
 10
716.201
 20
-1389.38
 30
0.000000
  70
    32
  0
VERTEX
  8
01
  5
E62C
 10
716.194
 20
-1389.47
 30
0.000000
  70
    32
  0
VERTEX
  8
01
  5
E62D
 10
716.189
 20
-1389.56
 30
0.000000
  70
    32
  0
VERTEX
  8
01
  5
E62E
 10
716.188
 20
-1389.65
 30
0.000000
  70
    32
  0
SEQEND
  8
01
  5
E62F
  0
LINE
  5
21F7
  8
01
 10
721.18766916632444
 20
-1406.0767513893809
 30
0.0
 11
715.18766916632444
 21
-1406.0767513893809
 31
0.0
  0
LINE
  5
21F8
  8
01
 10
726.18766916632444
 20
-1401.07675138938
 30
0.0
 11
716.18766916632444
 21
-1401.07675138938
 31
0.0
  0
POLYLINE
  5
21F9
  8
01
 10
726.18766916632444
 20
-1402.5083313893799
 30
0.0
 66
     1
 70
     8
  0
VERTEX
  8
01
  5
E630
 10
726.188
 20
-1402.51
 30
0.000000
  70
    32
  0
VERTEX
  8
01
  5
E631
 10
726.186
 20
-1402.60
 30
0.000000
  70
    32
  0
VERTEX
  8
01
  5
E632
 10
726.182
 20
-1402.68
 30
0.000000
  70
    32
  0
VERTEX
  8
01
  5
E633
 10
726.174
 20
-1402.77
 30
0.000000
  70
    32
  0
VERTEX
  8
01
  5
E634
 10
726.164
 20
-1402.86
 30
0.000000
  70
    32
  0
VERTEX
  8
01
  5
E635
 10
726.150
 20
-1402.95
 30
0.000000
  70
    32
  0
VERTEX
  8
01
  5
E636
 10
726.134
 20
-1403.03
 30
0.000000
  70
    32
  0
VERTEX
  8
01
  5
E637
 10
726.114
 20
-1403.12
 30
0.000000
  70
    32
  0
VERTEX
  8
01
  5
E638
 10
726.092
 20
-1403.20
 30
0.000000
  70
    32
  0
VERTEX
  8
01
  5
E639
 10
726.066
 20
-1403.29
 30
0.000000
  70
    32
  0
VERTEX
  8
01
  5
E63A
 10
726.038
 20
-1403.38
 30
0.000000
  70
    32
  0
VERTEX
  8
01
  5
E63B
 10
726.007
 20
-1403.46
 30
0.000000
  70
    32
  0
VERTEX
  8
01
  5
E63C
 10
725.972
 20
-1403.54
 30
0.000000
  70
    32
  0
VERTEX
  8
01
  5
E63D
 10
725.935
 20
-1403.63
 30
0.000000
  70
    32
  0
VERTEX
  8
01
  5
E63E
 10
725.895
 20
-1403.71
 30
0.000000
  70
    32
  0
VERTEX
  8
01
  5
E63F
 10
725.853
 20
-1403.79
 30
0.000000
  70
    32
  0
VERTEX
  8
01
  5
E640
 10
725.807
 20
-1403.87
 30
0.000000
  70
    32
  0
VERTEX
  8
01
  5
E641
 10
725.759
 20
-1403.95
 30
0.000000
  70
    32
  0
VERTEX
  8
01
  5
E642
 10
725.708
 20
-1404.03
 30
0.000000
  70
    32
  0
VERTEX
  8
01
  5
E643
 10
725.654
 20
-1404.11
 30
0.000000
  70
    32
  0
VERTEX
  8
01
  5
E644
 10
725.597
 20
-1404.19
 30
0.000000
  70
    32
  0
VERTEX
  8
01
  5
E645
 10
725.538
 20
-1404.27
 30
0.000000
  70
    32
  0
VERTEX
  8
01
  5
E646
 10
725.476
 20
-1404.34
 30
0.000000
  70
    32
  0
VERTEX
  8
01
  5
E647
 10
725.412
 20
-1404.42
 30
0.000000
  70
    32
  0
VERTEX
  8
01
  5
E648
 10
725.345
 20
-1404.49
 30
0.000000
  70
    32
  0
VERTEX
  8
01
  5
E649
 10
725.276
 20
-1404.56
 30
0.000000
  70
    32
  0
VERTEX
  8
01
  5
E64A
 10
725.204
 20
-1404.63
 30
0.000000
  70
    32
  0
VERTEX
  8
01
  5
E64B
 10
725.129
 20
-1404.70
 30
0.000000
  70
    32
  0
VERTEX
  8
01
  5
E64C
 10
725.053
 20
-1404.77
 30
0.000000
  70
    32
  0
VERTEX
  8
01
  5
E64D
 10
724.974
 20
-1404.84
 30
0.000000
  70
    32
  0
VERTEX
  8
01
  5
E64E
 10
724.892
 20
-1404.90
 30
0.000000
  70
    32
  0
VERTEX
  8
01
  5
E64F
 10
724.809
 20
-1404.97
 30
0.000000
  70
    32
  0
VERTEX
  8
01
  5
E650
 10
724.723
 20
-1405.03
 30
0.000000
  70
    32
  0
VERTEX
  8
01
  5
E651
 10
724.635
 20
-1405.09
 30
0.000000
  70
    32
  0
VERTEX
  8
01
  5
E652
 10
724.545
 20
-1405.15
 30
0.000000
  70
    32
  0
VERTEX
  8
01
  5
E653
 10
724.454
 20
-1405.21
 30
0.000000
  70
    32
  0
VERTEX
  8
01
  5
E654
 10
724.360
 20
-1405.27
 30
0.000000
  70
    32
  0
VERTEX
  8
01
  5
E655
 10
724.264
 20
-1405.32
 30
0.000000
  70
    32
  0
VERTEX
  8
01
  5
E656
 10
724.166
 20
-1405.37
 30
0.000000
  70
    32
  0
VERTEX
  8
01
  5
E657
 10
724.067
 20
-1405.43
 30
0.000000
  70
    32
  0
VERTEX
  8
01
  5
E658
 10
723.966
 20
-1405.48
 30
0.000000
  70
    32
  0
VERTEX
  8
01
  5
E659
 10
723.863
 20
-1405.52
 30
0.000000
  70
    32
  0
VERTEX
  8
01
  5
E65A
 10
723.758
 20
-1405.57
 30
0.000000
  70
    32
  0
VERTEX
  8
01
  5
E65B
 10
723.652
 20
-1405.61
 30
0.000000
  70
    32
  0
VERTEX
  8
01
  5
E65C
 10
723.545
 20
-1405.66
 30
0.000000
  70
    32
  0
VERTEX
  8
01
  5
E65D
 10
723.436
 20
-1405.70
 30
0.000000
  70
    32
  0
VERTEX
  8
01
  5
E65E
 10
723.325
 20
-1405.73
 30
0.000000
  70
    32
  0
VERTEX
  8
01
  5
E65F
 10
723.214
 20
-1405.77
 30
0.000000
  70
    32
  0
VERTEX
  8
01
  5
E660
 10
723.101
 20
-1405.81
 30
0.000000
  70
    32
  0
VERTEX
  8
01
  5
E661
 10
722.987
 20
-1405.84
 30
0.000000
  70
    32
  0
VERTEX
  8
01
  5
E662
 10
722.872
 20
-1405.87
 30
0.000000
  70
    32
  0
VERTEX
  8
01
  5
E663
 10
722.756
 20
-1405.90
 30
0.000000
  70
    32
  0
VERTEX
  8
01
  5
E664
 10
722.639
 20
-1405.92
 30
0.000000
  70
    32
  0
VERTEX
  8
01
  5
E665
 10
722.521
 20
-1405.95
 30
0.000000
  70
    32
  0
VERTEX
  8
01
  5
E666
 10
722.403
 20
-1405.97
 30
0.000000
  70
    32
  0
VERTEX
  8
01
  5
E667
 10
722.283
 20
-1405.99
 30
0.000000
  70
    32
  0
VERTEX
  8
01
  5
E668
 10
722.163
 20
-1406.01
 30
0.000000
  70
    32
  0
VERTEX
  8
01
  5
E669
 10
722.042
 20
-1406.02
 30
0.000000
  70
    32
  0
VERTEX
  8
01
  5
E66A
 10
721.921
 20
-1406.04
 30
0.000000
  70
    32
  0
VERTEX
  8
01
  5
E66B
 10
721.800
 20
-1406.05
 30
0.000000
  70
    32
  0
VERTEX
  8
01
  5
E66C
 10
721.678
 20
-1406.06
 30
0.000000
  70
    32
  0
VERTEX
  8
01
  5
E66D
 10
721.555
 20
-1406.07
 30
0.000000
  70
    32
  0
VERTEX
  8
01
  5
E66E
 10
721.433
 20
-1406.07
 30
0.000000
  70
    32
  0
VERTEX
  8
01
  5
E66F
 10
721.310
 20
-1406.08
 30
0.000000
  70
    32
  0
VERTEX
  8
01
  5
E670
 10
721.188
 20
-1406.08
 30
0.000000
  70
    32
  0
VERTEX
  8
01
  5
E671
 10
721.065
 20
-1406.08
 30
0.000000
  70
    32
  0
VERTEX
  8
01
  5
E672
 10
720.942
 20
-1406.07
 30
0.000000
  70
    32
  0
VERTEX
  8
01
  5
E673
 10
720.820
 20
-1406.07
 30
0.000000
  70
    32
  0
VERTEX
  8
01
  5
E674
 10
720.698
 20
-1406.06
 30
0.000000
  70
    32
  0
VERTEX
  8
01
  5
E675
 10
720.576
 20
-1406.05
 30
0.000000
  70
    32
  0
VERTEX
  8
01
  5
E676
 10
720.454
 20
-1406.04
 30
0.000000
  70
    32
  0
VERTEX
  8
01
  5
E677
 10
720.333
 20
-1406.02
 30
0.000000
  70
    32
  0
VERTEX
  8
01
  5
E678
 10
720.212
 20
-1406.01
 30
0.000000
  70
    32
  0
VERTEX
  8
01
  5
E679
 10
720.092
 20
-1405.99
 30
0.000000
  70
    32
  0
VERTEX
  8
01
  5
E67A
 10
719.973
 20
-1405.97
 30
0.000000
  70
    32
  0
VERTEX
  8
01
  5
E67B
 10
719.854
 20
-1405.95
 30
0.000000
  70
    32
  0
VERTEX
  8
01
  5
E67C
 10
719.736
 20
-1405.92
 30
0.000000
  70
    32
  0
VERTEX
  8
01
  5
E67D
 10
719.619
 20
-1405.90
 30
0.000000
  70
    32
  0
VERTEX
  8
01
  5
E67E
 10
719.503
 20
-1405.87
 30
0.000000
  70
    32
  0
VERTEX
  8
01
  5
E67F
 10
719.388
 20
-1405.84
 30
0.000000
  70
    32
  0
VERTEX
  8
01
  5
E680
 10
719.274
 20
-1405.81
 30
0.000000
  70
    32
  0
VERTEX
  8
01
  5
E681
 10
719.161
 20
-1405.77
 30
0.000000
  70
    32
  0
VERTEX
  8
01
  5
E682
 10
719.050
 20
-1405.73
 30
0.000000
  70
    32
  0
VERTEX
  8
01
  5
E683
 10
718.940
 20
-1405.70
 30
0.000000
  70
    32
  0
VERTEX
  8
01
  5
E684
 10
718.831
 20
-1405.66
 30
0.000000
  70
    32
  0
VERTEX
  8
01
  5
E685
 10
718.723
 20
-1405.61
 30
0.000000
  70
    32
  0
VERTEX
  8
01
  5
E686
 10
718.617
 20
-1405.57
 30
0.000000
  70
    32
  0
VERTEX
  8
01
  5
E687
 10
718.513
 20
-1405.52
 30
0.000000
  70
    32
  0
VERTEX
  8
01
  5
E688
 10
718.410
 20
-1405.48
 30
0.000000
  70
    32
  0
VERTEX
  8
01
  5
E689
 10
718.309
 20
-1405.43
 30
0.000000
  70
    32
  0
VERTEX
  8
01
  5
E68A
 10
718.209
 20
-1405.37
 30
0.000000
  70
    32
  0
VERTEX
  8
01
  5
E68B
 10
718.112
 20
-1405.32
 30
0.000000
  70
    32
  0
VERTEX
  8
01
  5
E68C
 10
718.016
 20
-1405.27
 30
0.000000
  70
    32
  0
VERTEX
  8
01
  5
E68D
 10
717.922
 20
-1405.21
 30
0.000000
  70
    32
  0
VERTEX
  8
01
  5
E68E
 10
717.830
 20
-1405.15
 30
0.000000
  70
    32
  0
VERTEX
  8
01
  5
E68F
 10
717.740
 20
-1405.09
 30
0.000000
  70
    32
  0
VERTEX
  8
01
  5
E690
 10
717.652
 20
-1405.03
 30
0.000000
  70
    32
  0
VERTEX
  8
01
  5
E691
 10
717.566
 20
-1404.97
 30
0.000000
  70
    32
  0
VERTEX
  8
01
  5
E692
 10
717.483
 20
-1404.90
 30
0.000000
  70
    32
  0
VERTEX
  8
01
  5
E693
 10
717.402
 20
-1404.84
 30
0.000000
  70
    32
  0
VERTEX
  8
01
  5
E694
 10
717.323
 20
-1404.77
 30
0.000000
  70
    32
  0
VERTEX
  8
01
  5
E695
 10
717.246
 20
-1404.70
 30
0.000000
  70
    32
  0
VERTEX
  8
01
  5
E696
 10
717.172
 20
-1404.63
 30
0.000000
  70
    32
  0
VERTEX
  8
01
  5
E697
 10
717.100
 20
-1404.56
 30
0.000000
  70
    32
  0
VERTEX
  8
01
  5
E698
 10
717.030
 20
-1404.49
 30
0.000000
  70
    32
  0
VERTEX
  8
01
  5
E699
 10
716.963
 20
-1404.42
 30
0.000000
  70
    32
  0
VERTEX
  8
01
  5
E69A
 10
716.899
 20
-1404.34
 30
0.000000
  70
    32
  0
VERTEX
  8
01
  5
E69B
 10
716.837
 20
-1404.27
 30
0.000000
  70
    32
  0
VERTEX
  8
01
  5
E69C
 10
716.778
 20
-1404.19
 30
0.000000
  70
    32
  0
VERTEX
  8
01
  5
E69D
 10
716.722
 20
-1404.11
 30
0.000000
  70
    32
  0
VERTEX
  8
01
  5
E69E
 10
716.668
 20
-1404.03
 30
0.000000
  70
    32
  0
VERTEX
  8
01
  5
E69F
 10
716.617
 20
-1403.95
 30
0.000000
  70
    32
  0
VERTEX
  8
01
  5
E6A0
 10
716.568
 20
-1403.87
 30
0.000000
  70
    32
  0
VERTEX
  8
01
  5
E6A1
 10
716.523
 20
-1403.79
 30
0.000000
  70
    32
  0
VERTEX
  8
01
  5
E6A2
 10
716.480
 20
-1403.71
 30
0.000000
  70
    32
  0
VERTEX
  8
01
  5
E6A3
 10
716.440
 20
-1403.63
 30
0.000000
  70
    32
  0
VERTEX
  8
01
  5
E6A4
 10
716.403
 20
-1403.54
 30
0.000000
  70
    32
  0
VERTEX
  8
01
  5
E6A5
 10
716.369
 20
-1403.46
 30
0.000000
  70
    32
  0
VERTEX
  8
01
  5
E6A6
 10
716.338
 20
-1403.38
 30
0.000000
  70
    32
  0
VERTEX
  8
01
  5
E6A7
 10
716.309
 20
-1403.29
 30
0.000000
  70
    32
  0
VERTEX
  8
01
  5
E6A8
 10
716.284
 20
-1403.20
 30
0.000000
  70
    32
  0
VERTEX
  8
01
  5
E6A9
 10
716.261
 20
-1403.12
 30
0.000000
  70
    32
  0
VERTEX
  8
01
  5
E6AA
 10
716.242
 20
-1403.03
 30
0.000000
  70
    32
  0
VERTEX
  8
01
  5
E6AB
 10
716.225
 20
-1402.95
 30
0.000000
  70
    32
  0
VERTEX
  8
01
  5
E6AC
 10
716.212
 20
-1402.86
 30
0.000000
  70
    32
  0
VERTEX
  8
01
  5
E6AD
 10
716.201
 20
-1402.77
 30
0.000000
  70
    32
  0
VERTEX
  8
01
  5
E6AE
 10
716.194
 20
-1402.68
 30
0.000000
  70
    32
  0
VERTEX
  8
01
  5
E6AF
 10
716.189
 20
-1402.60
 30
0.000000
  70
    32
  0
VERTEX
  8
01
  5
E6B0
 10
716.188
 20
-1402.51
 30
0.000000
  70
    32
  0
SEQEND
  8
01
  5
E6B1
  0
LINE
  5
21FA
  8
01
 10
726.18766916632444
 20
-1389.64517138938
 30
0.0
 11
726.18766916632444
 21
-1402.5083313893811
 31
0.0
  0
LINE
  5
21FB
  8
01
 10
716.18766916632444
 20
-1389.64517138938
 30
0.0
 11
716.18766916632444
 21
-1402.5083313893781
 31
0.0
  0
LINE
  5
21FC
  8
01
 10
712.18765416632471
 20
-1356.07675138938
 30
0.0
 11
711.18765416632482
 21
-1355.07675138938
 31
0.0
  0
LINE
  5
21FD
  8
01
 10
713.58767116632475
 20
-1355.9767713893809
 30
0.0
 11
712.78769016632464
 21
-1355.17679138938
 31
0.0
  0
LINE
  5
21FE
  8
01
 10
713.58767116632475
 20
-1438.1767613893801
 30
0.0
 11
712.78766816632435
 21
-1438.9767413893801
 31
0.0
  0
LINE
  5
21FF
  8
01
 10
712.18761616632457
 20
-1438.0767813893799
 30
0.0
 11
711.18763116632431
 21
-1439.0767813893799
 31
0.0
  0
LINE
  5
2200
  8
01
 10
715.18766916632444
 20
-1462.07675138938
 30
0.0
 11
711.18766916632444
 21
-1462.07675138938
 31
0.0
  0
LINE
  5
2201
  8
01
 10
712.78767516632502
 20
-1462.07675138938
 30
0.0
 11
712.78767516632502
 21
-1438.9767413893801
 31
0.0
  0
LINE
  5
2202
  8
01
 10
711.18766916632444
 20
-1462.07675138938
 30
0.0
 11
711.18766916632444
 21
-1439.07675138938
 31
0.0
  0
LINE
  5
2203
  8
01
 10
712.18766916632444
 20
-1356.07675138938
 30
0.0
 11
712.18766916632444
 21
-1438.07675138938
 31
0.0
  0
LINE
  5
2204
  8
01
 10
715.18766916632444
 20
-1332.07675138938
 30
0.0
 11
711.18766916632444
 21
-1332.07675138938
 31
0.0
  0
LINE
  5
2207
  8
01
 10
821.68766916632444
 20
-1338.07675138938
 30
0.0
 11
821.68766916632444
 21
-1456.0767513893809
 31
0.0
  0
LINE
  5
2208
  8
01
 10
846.68766916632444
 20
-1338.07675138938
 30
0.0
 11
846.68766916632444
 21
-1456.0767513893809
 31
0.0
  0
ARC
  5
2209
  8
01
 10
840.68766916632444
 20
-1456.0767513893809
 30
0.0
 40
6.0
 50
270.0
 51
0.0
  0
ARC
  5
220A
  8
01
 10
827.68766916632433
 20
-1456.0767513893809
 30
0.0
 40
6.0
 50
180.0
 51
270.0
  0
LINE
  5
220B
  8
01
 10
841.93766916632433
 20
-1389.64517138938
 30
0.0
 11
841.93766916632433
 21
-1402.5083313893799
 31
0.0
  0
LINE
  5
220C
  8
01
 10
840.93766916632433
 20
-1391.0767513893809
 30
0.0
 11
840.93766916632433
 21
-1401.07675138938
 31
0.0
  0
LINE
  5
220D
  8
01
 10
827.43766916632444
 20
-1391.0767513893809
 30
0.0
 11
827.43766916632444
 21
-1401.07675138938
 31
0.0
  0
LINE
  5
220E
  8
01
 10
826.43766916632444
 20
-1389.64517138938
 30
0.0
 11
826.43766916632444
 21
-1402.5083313893799
 31
0.0
  0
ARC
  5
220F
  8
01
 10
834.18766916632444
 20
-1395.87674138938
 30
0.0
 40
10.199999999999999
 50
220.5530799999753
 51
319.44692000002459
  0
LINE
  5
2210
  8
01
 10
827.43766916632444
 20
-1401.07675138938
 30
0.0
 11
840.93766916632433
 21
-1401.07675138938
 31
0.0
  0
LINE
  5
2211
  8
01
 10
827.43766916632444
 20
-1391.0767513893809
 30
0.0
 11
840.93766916632433
 21
-1391.0767513893809
 31
0.0
  0
ARC
  5
2212
  8
01
 10
834.18766916632444
 20
-1396.27676138938
 30
0.0
 40
10.199999999999999
 50
40.553083999977588
 51
139.44692000002459
  0
CIRCLE
  5
2213
  8
01
 10
834.18766916632444
 20
-1454.07675138938
 30
0.0
 40
4.5
  0
CIRCLE
  5
2214
  8
01
 10
834.18766916632444
 20
-1454.07675138938
 30
0.0
 40
2.75
  0
LINE
  5
2215
  8
01
 10
827.68766916632433
 20
-1462.07675138938
 30
0.0
 11
840.68766916632444
 21
-1462.07675138938
 31
0.0
  0
ARC
  5
2216
  8
01
 10
840.68766916632444
 20
-1338.07675138938
 30
0.0
 40
6.0
 50
0.0
 51
90.0
  0
ARC
  5
2218
  8
01
 10
827.68766916632433
 20
-1338.07675138938
 30
0.0
 40
6.0
 50
90.0
 51
180.0
  0
LINE
  5
2219
  8
01
 10
827.68766916632433
 20
-1332.07675138938
 30
0.0
 11
840.68766916632444
 21
-1332.07675138938
 31
0.0
  0
CIRCLE
  5
221A
  8
01
 10
834.18766916632444
 20
-1340.07675138938
 30
0.0
 40
4.5
  0
CIRCLE
  5
221B
  8
01
 10
834.18766916632444
 20
-1340.07675138938
 30
0.0
 40
2.75
  0
TEXT
  5
221C
  8
01
 10
649.18768516632463
 20
-1133.07675138938
 30
0.0
 40
20.0
  1
2-KAC-X-LW
  0
LINE
  5
2221
  8
01
 10
955.58767516632429
 20
-1332.07675138938
 30
0.0
 11
955.58767516632429
 21
-1355.17672138938
 31
0.0
  0
LINE
  5
2222
  8
01
 10
957.1876651663249
 20
-1332.07675138938
 30
0.0
 11
957.1876651663249
 21
-1355.07675138938
 31
0.0
  0
LINE
  5
2223
  8
01
 10
954.78767516632513
 20
-1332.07675138938
 30
0.0
 11
954.78767516632513
 21
-1462.07675138938
 31
0.0
  0
LINE
  5
2224
  8
01
 10
953.18766516632502
 20
-1332.07675138938
 30
0.0
 11
953.18766516632502
 21
-1462.07675138938
 31
0.0
  0
LINE
  5
2226
  8
01
 10
956.1876651663249
 20
-1434.0767513893809
 30
0.0
 11
984.97829245402625
 21
-1434.0767513893809
 31
0.0
  0
LINE
  5
2227
  8
01
 10
956.18767516632465
 20
-1356.07675138938
 30
0.0
 11
957.18767516632465
 21
-1355.07675138938
 31
0.0
  0
LINE
  5
2228
  8
01
 10
954.78766516632527
 20
-1355.9767713893809
 30
0.0
 11
955.58767516632429
 21
-1355.17672138938
 31
0.0
  0
LINE
  5
2229
  8
01
 10
946.1876651663249
 20
-1386.0767513893809
 30
0.0
 11
953.18766516632502
 21
-1386.0767513893809
 31
0.0
  0
LINE
  5
222A
  8
01
 10
946.1876651663249
 20
-1406.0767513893809
 30
0.0
 11
953.18766516632502
 21
-1406.0767513893809
 31
0.0
  0
LINE
  5
222B
  8
01
 10
942.26976516632453
 20
-1402.8830213893809
 30
0.0
 11
953.18766516632502
 21
-1402.8830213893809
 31
0.0
  0
LINE
  5
222C
  8
01
 10
942.26976516632453
 20
-1389.27047138938
 30
0.0
 11
953.18766516632502
 21
-1389.27047138938
 31
0.0
  0
LINE
  5
222D
  8
01
 10
942.18766516632479
 20
-1390.0767513893809
 30
0.0
 11
942.18766516632479
 21
-1402.0767513893809
 31
0.0
  0
ARC
  5
222E
  8
01
 10
946.1876651663249
 20
-1402.0767513893809
 30
0.0
 40
4.0
 50
179.999989999999
 51
270.0
  0
ARC
  5
222F
  8
01
 10
946.1876651663249
 20
-1390.0767513893809
 30
0.0
 40
4.0
 50
90.000002999984659
 51
180.00001000000091
  0
LINE
  5
2230
  8
01
 10
954.78766516632527
 20
-1438.1767613893801
 30
0.0
 11
955.58767516632429
 21
-1438.9767413893801
 31
0.0
  0
LINE
  5
2231
  8
01
 10
956.18771516632546
 20
-1438.0767813893799
 30
0.0
 11
957.18769516632415
 21
-1439.07675138938
 31
0.0
  0
LINE
  5
2232
  8
01
 10
948.1876651663249
 20
-1454.07675138938
 30
0.0
 11
962.1876651663249
 21
-1454.07675138938
 31
0.0
  0
LINE
  5
2233
  8
01
 10
953.18766516632502
 20
-1462.07675138938
 30
0.0
 11
957.1876651663249
 21
-1462.07675138938
 31
0.0
  0
LINE
  5
2234
  8
01
 10
955.58767516632429
 20
-1462.07675138938
 30
0.0
 11
955.58767516632429
 21
-1438.9767413893801
 31
0.0
  0
LINE
  5
2235
  8
01
 10
957.1876651663249
 20
-1462.07675138938
 30
0.0
 11
957.1876651663249
 21
-1439.07675138938
 31
0.0
  0
LINE
  5
2236
  8
01
 10
956.1876651663249
 20
-1356.07675138938
 30
0.0
 11
956.1876651663249
 21
-1438.07675138938
 31
0.0
  0
LINE
  5
2239
  8
01
 10
953.18766516632502
 20
-1332.07675138938
 30
0.0
 11
957.1876651663249
 21
-1332.07675138938
 31
0.0
  0
LINE
  5
223A
  8
01
 10
948.1876651663249
 20
-1340.07675138938
 30
0.0
 11
962.1876651663249
 21
-1340.07675138938
 31
0.0
  0
LINE
  5
2244
  8
01
 10
957.18854934838487
 20
-1138.5767513904091
 30
0.0
 11
1023.188549348385
 21
-1138.5767513904091
 31
0.0
  0
LINE
  5
2245
  8
01
 10
957.18854934838487
 20
-1140.1767213904091
 30
0.0
 11
1023.188549348385
 21
-1140.1767213904091
 31
0.0
  0
LINE
  5
2246
  8
01
 10
954.78855934838487
 20
-1157.5767513904091
 30
0.0
 11
1023.188549348385
 21
-1157.5767513904091
 31
0.0
  0
LINE
  5
2247
  8
01
 10
956.38853934838573
 20
-1143.0767513904091
 30
0.0
 11
957.18854934838487
 21
-1142.276731390408
 31
0.0
  0
LINE
  5
2248
  8
01
 10
957.18854934838487
 20
-1137.5767513904091
 30
0.0
 11
957.18854934838487
 21
-1142.276731390408
 31
0.0
  0
LINE
  5
2249
  8
01
 10
954.78855934838487
 20
-1143.0767213904089
 30
0.0
 11
955.58854934838632
 21
-1142.2767613904091
 31
0.0
  0
LINE
  5
224A
  8
01
 10
942.18854934838475
 20
-1155.8267513904091
 30
0.0
 11
953.18854934838475
 21
-1155.8267513904091
 31
0.0
  0
LINE
  5
224B
  8
01
 10
942.18854934838475
 20
-1155.8267513904091
 30
0.0
 11
942.18854934838475
 21
-1153.8267513904091
 31
0.0
  0
LINE
  5
224C
  8
01
 10
953.18854934838475
 20
-1135.5767513904091
 30
0.0
 11
954.78855934838487
 21
-1135.5767513904091
 31
0.0
  0
LINE
  5
224D
  8
01
 10
954.78855934838487
 20
-1135.5767513904091
 30
0.0
 11
954.78855934838487
 21
-1143.0767513904091
 31
0.0
  0
LINE
  5
224E
  8
01
 10
955.58855934838607
 20
-1137.5767513904091
 30
0.0
 11
955.58855934838607
 21
-1142.276731390408
 31
0.0
  0
LINE
  5
224F
  8
01
 10
954.78855934838487
 20
-1137.5767513904091
 30
0.0
 11
957.18854934838487
 21
-1137.5767513904091
 31
0.0
  0
LINE
  5
2250
  8
01
 10
957.18854934838487
 20
-1153.8767413904079
 30
0.0
 11
957.18854934838487
 21
-1157.5767513904091
 31
0.0
  0
LINE
  5
2251
  8
01
 10
956.38855934838534
 20
-1153.0767213904089
 30
0.0
 11
957.18854934838487
 21
-1153.8767413904079
 31
0.0
  0
LINE
  5
2252
  8
01
 10
957.18854934838487
 20
-1155.976741390409
 30
0.0
 11
961.78855934838487
 21
-1155.976741390409
 31
0.0
  0
LINE
  5
2253
  8
01
 10
954.78854934838512
 20
-1153.0767213904089
 30
0.0
 11
955.58855934838607
 21
-1153.8767413904079
 31
0.0
  0
LINE
  5
2254
  8
01
 10
954.78855934838487
 20
-1153.0767513904091
 30
0.0
 11
954.78855934838487
 21
-1160.5767513904091
 31
0.0
  0
LINE
  5
2255
  8
01
 10
953.18854934838475
 20
-1160.5767513904091
 30
0.0
 11
954.78855934838487
 21
-1160.5767513904091
 31
0.0
  0
LINE
  5
2256
  8
01
 10
955.58855934838607
 20
-1153.8767413904079
 30
0.0
 11
955.58855934838607
 21
-1157.5767513904091
 31
0.0
  0
LINE
  5
2257
  8
01
 10
953.18854934838475
 20
-1128.0767513904091
 30
0.0
 11
953.18854934838475
 21
-1168.0767513904091
 31
0.0
  0
LINE
  5
2258
  8
01
 10
961.78855934838487
 20
-1140.1767213904091
 30
0.0
 11
961.78855934838487
 21
-1157.5767513904091
 31
0.0
  0
LINE
  5
2259
  8
01
 10
956.38854934838548
 20
-1143.0767513904091
 30
0.0
 11
956.38854934838548
 21
-1153.0767513904091
 31
0.0
  0
LINE
  5
225A
  8
01
 10
954.78855934838487
 20
-1143.0767513904091
 30
0.0
 11
954.78855934838487
 21
-1153.0767513904091
 31
0.0
  0
ARC
  5
225B
  8
01
 10
985.85804934838507
 20
-1178.1778313904081
 30
0.0
 40
50.0
 50
130.7976899999974
 51
150.85500000002
  0
LINE
  5
225C
  8
01
 10
985.54989789461706
 20
-1182.576782390408
 30
0.0
 11
1001.172534506068
 21
-1182.576782390408
 31
0.0
  0
LINE
  5
225D
  8
01
 10
1021.588549348386
 20
-1140.1767213904091
 30
0.0
 11
1021.588549348386
 21
-1157.5767513904091
 31
0.0
  0
LINE
  5
225E
  8
01
 10
1023.188549348385
 20
-1138.5767513904091
 30
0.0
 11
1023.188549348385
 21
-1157.5767513904091
 31
0.0
  0
LINE
  5
225F
  8
01
 10
985.54989789461706
 20
-1113.5767203904111
 30
0.0
 11
1001.172534506068
 21
-1113.5767203904111
 31
0.0
  0
LINE
  5
2262
  8
01
 10
720.18767316632386
 20
-1454.07675138938
 30
0.0
 11
706.18767316632409
 21
-1454.07675138938
 31
0.0
  0
LINE
  5
2263
  8
01
 10
720.18767316632386
 20
-1340.07675138938
 30
0.0
 11
706.18767316632409
 21
-1340.07675138938
 31
0.0
  0
LINE
  5
2264
  8
01
 10
840.68766916632444
 20
-1340.07675138938
 30
0.0
 11
827.68766916632433
 21
-1340.07675138938
 31
0.0
  0
LINE
  5
2265
  8
01
 10
834.18766916632444
 20
-1333.5767513893809
 30
0.0
 11
834.18766916632444
 21
-1346.57675138938
 31
0.0
  0
LINE
  5
2266
  8
01
 10
840.68766916632444
 20
-1454.07675138938
 30
0.0
 11
827.68766916632433
 21
-1454.07675138938
 31
0.0
  0
LINE
  5
2267
  8
01
 10
834.18766916632444
 20
-1447.57675138938
 30
0.0
 11
834.18766916632444
 21
-1460.5767513893809
 31
0.0
  0
LINE
  5
2268
  8
01
 10
694.1876731663242
 20
-1418.0767513893809
 30
0.0
 11
634.1876731663242
 21
-1418.0767513893809
 31
0.0
  0
LINE
  5
2269
  8
01
 10
664.18767316632409
 20
-1388.0767513893809
 30
0.0
 11
664.18767316632409
 21
-1448.0767513893809
 31
0.0
  0
LINE
  5
226A
  8
01
 10
974.18766516632468
 20
-1418.0767513893809
 30
0.0
 11
1034.187665166324
 21
-1418.0767513893809
 31
0.0
  0
LINE
  5
226B
  8
01
 10
1004.187665166324
 20
-1388.0767513893809
 30
0.0
 11
1004.187665166324
 21
-1448.0767513893809
 31
0.0
  0
POINT
  5
2270
  8
01
 10
868.68766916632433
 20
-1418.0767513893809
 30
0.0
  0
LINE
  5
2271
  8
01
 10
868.28766915632445
 20
-1419.82675138938
 30
0.0
 11
868.28766915632445
 21
-1418.9767513693801
 31
0.0
  0
LINE
  5
2272
  8
01
 10
869.08766917632454
 20
-1419.82675138938
 30
0.0
 11
869.08766917632454
 21
-1418.9767513693801
 31
0.0
  0
LINE
  5
2273
  8
01
 10
867.78766918632448
 20
-1418.4767513993811
 30
0.0
 11
866.93766916632433
 21
-1418.4767513993811
 31
0.0
  0
LINE
  5
2274
  8
01
 10
867.78766918632448
 20
-1417.6767513793809
 30
0.0
 11
866.93766916632433
 21
-1417.6767513793809
 31
0.0
  0
LINE
  5
2275
  8
01
 10
866.93766916632433
 20
-1418.4767513993811
 30
0.0
 11
866.93766916632433
 21
-1417.6767513793809
 31
0.0
  0
LINE
  5
2276
  8
01
 10
869.08766917632454
 20
-1419.82675138938
 30
0.0
 11
868.28766915632445
 21
-1419.82675138938
 31
0.0
  0
LINE
  5
2277
  8
01
 10
869.08766917632454
 20
-1416.32675138938
 30
0.0
 11
869.08766917632454
 21
-1417.176751409381
 31
0.0
  0
LINE
  5
2278
  8
01
 10
868.28766915632445
 20
-1416.32675138938
 30
0.0
 11
868.28766915632445
 21
-1417.176751409381
 31
0.0
  0
LINE
  5
2279
  8
01
 10
869.58766914632417
 20
-1417.6767513793809
 30
0.0
 11
870.43766916632433
 21
-1417.6767513793809
 31
0.0
  0
LINE
  5
227A
  8
01
 10
869.58766914632417
 20
-1418.4767513993811
 30
0.0
 11
870.43766916632433
 21
-1418.4767513993811
 31
0.0
  0
LINE
  5
227B
  8
01
 10
870.43766916632433
 20
-1417.6767513793809
 30
0.0
 11
870.43766916632433
 21
-1418.4767513993811
 31
0.0
  0
LINE
  5
227C
  8
01
 10
868.28766915632445
 20
-1416.32675138938
 30
0.0
 11
869.08766917632454
 21
-1416.32675138938
 31
0.0
  0
CIRCLE
  5
227D
  8
01
 10
868.68766916632433
 20
-1418.0767513893809
 30
0.0
 40
2.5
  0
ARC
  5
227E
  8
01
 10
869.58766914632417
 20
-1417.176751409381
 30
0.0
 40
0.5
 50
179.9999899999998
 51
270.0
  0
ARC
  5
227F
  8
01
 10
869.58766914632417
 20
-1418.9767513693801
 30
0.0
 40
0.5
 50
90.000003000000945
 51
180.0000100000002
  0
ARC
  5
2280
  8
01
 10
867.78766918632448
 20
-1418.9767513693801
 30
0.0
 40
0.5
 50
0.0
 51
90.000003000000945
  0
ARC
  5
2281
  8
01
 10
867.78766918632448
 20
-1417.176751409381
 30
0.0
 40
0.5
 50
270.0
 51
0.0
  0
POINT
  5
2283
  8
01
 10
799.68766916632444
 20
-1418.0767513893809
 30
0.0
 50
180.0
  0
CIRCLE
  5
2284
  8
01
 10
799.68766916632444
 20
-1418.0767513893809
 30
0.0
 40
2.5
  0
LINE
  5
23F2
  8
01
 10
1022.187665166325
 20
-1370.8253852399041
 30
0.0
 11
1022.187665166325
 21
-1400.7273998164831
 31
0.0
  0
LINE
  5
243C
  8
01
 10
651.18766516632331
 20
-1368.0767513893809
 30
0.0
 11
677.18766516632331
 21
-1368.0767513893809
 31
0.0
  0
LINE
  5
243E
  8
01
 10
686.68766516632331
 20
-1362.57675138938
 30
0.0
 11
641.6876651663232
 21
-1362.57675138938
 31
0.0
  0
LINE
  5
243F
  8
01
 10
664.18766516632331
 20
-1340.07675138938
 30
0.0
 11
664.18766516632331
 21
-1385.07675138938
 31
0.0
  0
LINE
  5
2441
  8
01
 10
1017.187673166325
 20
-1368.0767513893809
 30
0.0
 11
991.18767316632545
 21
-1368.0767513893809
 31
0.0
  0
LINE
  5
2442
  8
01
 10
981.68767316632545
 20
-1362.57675138938
 30
0.0
 11
1026.6876731663251
 21
-1362.57675138938
 31
0.0
  0
LINE
  5
2443
  8
01
 10
1004.187673166325
 20
-1340.07675138938
 30
0.0
 11
1004.187673166325
 21
-1385.07675138938
 31
0.0
  0
LINE
  5
597B
  8
01
 10
1004.18778150607
 20
-1098.0767513904091
 30
0.0
 11
1004.18778150607
 21
-1133.0767513904091
 31
0.0
  0
LINE
  5
597C
  8
01
 10
1004.18778150607
 20
-1163.0767513904091
 30
0.0
 11
1004.18778150607
 21
-1198.0767513904091
 31
0.0
  0
LINE
  5
597D
  8
01
 10
784.18766916632455
 20
-1418.0767513893809
 30
0.0
 11
819.18766916632455
 21
-1418.0767513893809
 31
0.0
  0
LINE
  5
597E
  8
01
 10
849.18766916632467
 20
-1418.0767513893809
 30
0.0
 11
884.18766916632455
 21
-1418.0767513893809
 31
0.0
  0
LINE
  5
A5D8
  8
01
 10
953.18854934838475
 20
-1168.0767513904091
 30
0.0
 11
1106.942929503417
 21
-1168.0767513904091
 31
0.0
  0
LINE
  5
A5D9
  8
01
 10
953.18854934838475
 20
-1128.0767513904091
 30
0.0
 11
1106.942929503417
 21
-1128.0767513904091
 31
0.0
  0
LINE
  5
C614
  8
01
 10
649.18768516632406
 20
-1173.57675138938
 30
0.0
 11
806.68768516632406
 21
-1173.5767513893809
 31
0.0
  0
TEXT
  5
C615
  8
01
 10
650.88768516632445
 20
-1171.3267513893809
 30
0.0
 40
6.0
  1
表面処理：脚部
 72
     1
 11
675.28768516632454
 21
-1171.3267513893809
 31
0.0
  0
LINE
  5
C616
  8
01
 10
649.18768516632406
 20
-1163.07675138938
 30
0.0
 11
806.68768516632406
 21
-1163.07675138938
 31
0.0
  0
TEXT
  5
C617
  8
01
 10
770.28768516632454
 20
-1171.3267513893809
 30
0.0
 40
6.0
  1
コード
 72
     1
 11
780.28768516632454
 21
-1171.3267513893809
 31
0.0
  0
TEXT
  5
C618
  8
01
 10
703.38768516632445
 20
-1171.3267513893809
 30
0.0
 40
6.0
  1
表面処理：握り
 72
     1
 11
727.78768516632454
 21
-1171.3267513893809
 31
0.0
  0
TEXT
  5
C619
  8
01
 10
714.18768516632542
 20
-1182.148286864855
 30
0.0
 40
6.0
  1
クローム
 72
     1
 11
727.78768516632545
 21
-1182.148286864855
 31
0.0
  0
LINE
  5
C61A
  8
01
 10
701.68768516632417
 20
-1163.07675138938
 30
0.0
 11
701.68768516632383
 21
-1194.5767513893809
 31
0.0
  0
LINE
  5
C61B
  8
01
 10
754.18768516632315
 20
-1163.07675138938
 30
0.0
 11
754.18768516632554
 21
-1194.5767513893809
 31
0.0
  0
LINE
  5
C61C
  8
01
 10
806.68768516632406
 20
-1163.07675138938
 30
0.0
 11
806.6876851663236
 21
-1194.5767513893809
 31
0.0
  0
LINE
  5
C61D
  8
01
 10
649.18768516632315
 20
-1194.57675138938
 30
0.0
 11
649.18768516632315
 21
-1163.07675138938
 31
0.0
  0
LINE
  5
C620
  8
01
 10
649.18768516632315
 20
-1194.57675138938
 30
0.0
 11
806.68768516632406
 21
-1194.5767513893809
 31
0.0
  0
TEXT
  5
C621
  8
01
 10
758.18768516632451
 20
-1182.148286864855
 30
0.0
 40
6.0
  1
2-KAC-C-LW
 41
0.7
 72
     1
 11
780.28768516632454
 21
-1182.148286864855
 31
0.0
  0
TEXT
  5
C622
  8
01
 10
755.98768516632447
 20
-1192.648286864855
 30
0.0
 40
6.0
  1
2-KAC-CN-LW
 41
0.7
 72
     1
 11
780.28768516632454
 21
-1192.648286864855
 31
0.0
  0
TEXT
  5
C623
  8
01
 10
703.38768516632274
 20
-1192.0431218067361
 30
0.0
 40
6.0
  1
サテンニッケル
 72
     1
 11
727.78768516632272
 21
-1192.0431218067361
 31
0.0
  0
LINE
  5
D537
  8
01
 10
984.97829245402602
 20
-1434.0767513893809
 30
0.0
 11
1022.187665166325
 21
-1434.0767513893809
 31
0.0
  0
LINE
  5
D538
  8
01
 10
1022.187665166325
 20
-1400.7273998164831
 30
0.0
 11
1022.187665166325
 21
-1434.0767513893809
 31
0.0
  0
ARC
  5
D53E
  8
01
 10
1004.187665166324
 20
-1418.0767513893809
 30
0.0
 40
25.0
 50
11.53695973454157
 51
168.4630402654584
  0
ARC
  5
D53F
  8
01
 10
1004.187665166324
 20
-1418.0767513893809
 30
0.0
 40
25.0
 50
191.53695416750779
 51
348.46304583249213
  0
POINT
  5
D549
  8
01
 10
863.18766916632421
 20
-1418.0767513893809
 30
0.0
  0
POINT
  5
D54A
  8
01
 10
863.18766916632421
 20
-1418.0767513893809
 30
0.0
  0
POINT
  5
D54B
  8
01
 10
863.18766916632421
 20
-1418.0767513893809
 30
0.0
  0
LINE
  5
D54C
  8
01
 10
979.18778150606931
 20
-1232.5767513904091
 30
0.0
 11
1123.1877815060691
 21
-1232.5767513904091
 31
0.0
  0
LINE
  5
D54D
  8
01
 10
1016.187781506069
 20
-1210.5767513904091
 30
0.0
 11
1123.1877815060691
 21
-1210.5767513904091
 31
0.0
  0
LINE
  5
D54E
  8
01
 10
979.18778150606931
 20
-1210.5767513904091
 30
0.0
 11
992.1877815060692
 21
-1210.5767513904091
 31
0.0
  0
LINE
  5
D54F
  8
01
 10
978.18778150606943
 20
-1231.5767513904091
 30
0.0
 11
978.18778150606943
 21
-1211.5767513904091
 31
0.0
  0
ARC
  5
D550
  8
01
 10
979.18778150606931
 20
-1231.5767513904091
 30
0.0
 40
1.0
 50
180.0
 51
270.0
  0
ARC
  5
D551
  8
01
 10
979.18778150606931
 20
-1211.5767513904091
 30
0.0
 40
1.0
 50
90.0
 51
180.0
  0
LINE
  5
D552
  8
01
 10
992.1877815060692
 20
-1226.1361383904091
 30
0.0
 11
992.1877815060692
 21
-1177.0767513904091
 31
0.0
  0
LINE
  5
D553
  8
01
 10
1016.187781506069
 20
-1226.1361383904091
 30
0.0
 11
1016.187781506069
 21
-1177.0767513904091
 31
0.0
  0
LINE
  5
D554
  8
01
 10
1015.187781506069
 20
-1227.1361383904091
 30
0.0
 11
993.1877815060692
 21
-1227.1361383904091
 31
0.0
  0
ARC
  5
D555
  8
01
 10
993.1877815060692
 20
-1226.1361383904091
 30
0.0
 40
1.0
 50
180.0
 51
270.0
  0
ARC
  5
D556
  8
01
 10
1015.187781506069
 20
-1226.1361383904091
 30
0.0
 40
1.0
 50
270.0
 51
0.0
  0
LINE
  5
D557
  8
01
 10
1016.187781506069
 20
-1177.0767513904091
 30
0.0
 11
992.1877815060692
 21
-1177.0767513904091
 31
0.0
  0
LINE
  5
D558
  8
01
 10
1124.1877815060691
 20
-1231.5767513904091
 30
0.0
 11
1124.1877815060691
 21
-1211.5767513904091
 31
0.0
  0
ARC
  5
D559
  8
01
 10
1123.1877815060691
 20
-1231.5767513904091
 30
0.0
 40
1.0
 50
270.0
 51
0.0
  0
ARC
  5
D55A
  8
01
 10
1123.1877815060691
 20
-1211.5767513904091
 30
0.0
 40
1.0
 50
0.0
 51
90.0
  0
LINE
  5
D55B
  8
01
 10
979.28899816632429
 20
-1413.0767510893811
 30
0.0
 11
1123.086331166325
 21
-1413.0767510893811
 31
0.0
  0
LINE
  5
D55C
  8
01
 10
979.28899816632429
 20
-1423.0767493093799
 30
0.0
 11
1123.086331166325
 21
-1423.0767493093799
 31
0.0
  0
ARC
  5
D55D
  8
01
 10
1058.1876656663251
 20
-1418.0767513893809
 30
0.0
 40
80.0
 50
177.09770999997869
 51
182.90229000002131
  0
ARC
  5
D55E
  8
01
 10
979.28899816632429
 20
-1422.076749289381
 30
0.0
 40
1.0
 50
182.90229000002131
 51
270.0
  0
ARC
  5
D55F
  8
01
 10
979.28899816632429
 20
-1414.07675138938
 30
0.0
 40
1.0
 50
90.0
 51
177.09772999999561
  0
LINE
  5
D560
  8
01
 10
993.4307521663244
 20
-1430.07673618938
 30
0.0
 11
1014.944573166325
 21
-1430.07673618938
 31
0.0
  0
LINE
  5
D561
  8
01
 10
992.18766516632468
 20
-1423.270736199381
 30
0.0
 11
1016.187665166325
 21
-1423.270736199381
 31
0.0
  0
ARC
  5
D562
  8
01
 10
997.18766516632468
 20
-1422.2707361893811
 30
0.0
 40
1.0
 50
233.70828000004011
 51
270.0
  0
ARC
  5
D563
  8
01
 10
1242.187664166325
 20
-1418.0767513893809
 30
0.0
 40
250.0
 50
181.1459900000043
 51
182.53195999998391
  0
ARC
  5
D564
  8
01
 10
993.4307521663244
 20
-1429.07673618938
 30
0.0
 40
1.0
 50
182.53195999998391
 51
270.0
  0
ARC
  5
D565
  8
01
 10
1011.187665166324
 20
-1422.2707361893811
 30
0.0
 40
1.0
 50
270.0
 51
306.29171000001321
  0
ARC
  5
D566
  8
01
 10
766.18766416632525
 20
-1418.0767513893809
 30
0.0
 40
250.0
 50
357.46804000001612
 51
358.8540099999957
  0
ARC
  5
D567
  8
01
 10
1014.944573166325
 20
-1429.07673618938
 30
0.0
 40
1.0
 50
270.0
 51
357.46804000001612
  0
LINE
  5
D568
  8
01
 10
993.4307521663244
 20
-1406.0767510893811
 30
0.0
 11
1014.944573166325
 21
-1406.0767510893811
 31
0.0
  0
LINE
  5
D569
  8
01
 10
992.18766516632468
 20
-1412.88275108938
 30
0.0
 11
1016.187665166325
 21
-1412.88275108938
 31
0.0
  0
ARC
  5
D56A
  8
01
 10
1242.187664166325
 20
-1418.0767513893809
 30
0.0
 40
250.0
 50
177.468040000016
 51
178.8540099999957
  0
ARC
  5
D56B
  8
01
 10
997.18766516632468
 20
-1413.882751189381
 30
0.0
 40
1.0
 50
90.0
 51
126.2930499999655
  0
ARC
  5
D56C
  8
01
 10
993.4307521663244
 20
-1407.0767510893811
 30
0.0
 40
1.0
 50
90.0
 51
177.4680700000207
  0
ARC
  5
D56D
  8
01
 10
766.18766416632525
 20
-1418.0767513893809
 30
0.0
 40
250.0
 50
1.145991999977229
 51
2.531962700000558
  0
ARC
  5
D56E
  8
01
 10
1011.187665166324
 20
-1413.882751189381
 30
0.0
 40
1.0
 50
53.706952000007071
 51
90.0
  0
ARC
  5
D56F
  8
01
 10
1014.944573166325
 20
-1407.0767510893811
 30
0.0
 40
1.0
 50
2.5319289999982049
 51
90.0
  0
ARC
  5
D570
  8
01
 10
1044.1876661663241
 20
-1418.0767513893809
 30
0.0
 40
80.0
 50
357.09770999997858
 51
2.9022935999826749
  0
ARC
  5
D571
  8
01
 10
1123.086331166325
 20
-1422.076749289381
 30
0.0
 40
1.0
 50
270.0
 51
357.09770999997858
  0
ARC
  5
D572
  8
01
 10
1123.086331166325
 20
-1414.07675138938
 30
0.0
 40
1.0
 50
2.9022656000111282
 51
90.0
  0
LINE
  5
D573
  8
01
 10
912.19634916632401
 20
-1406.0767510893811
 30
0.0
 11
863.18766916632421
 21
-1406.0767510893811
 31
0.0
  0
LINE
  5
D574
  8
01
 10
912.19634916632401
 20
-1430.07673618938
 30
0.0
 11
863.18766916632421
 21
-1430.07673618938
 31
0.0
  0
LINE
  5
D575
  8
01
 10
863.18766916632421
 20
-1430.07673618938
 30
0.0
 11
863.18766916632421
 21
-1406.0767510893811
 31
0.0
  0
LINE
  5
D576
  8
01
 10
889.91334355132085
 20
-1413.135868087413
 30
0.0
 11
917.56814355132099
 21
-1412.8945280874141
 31
0.0
  0
ARC
  5
D577
  8
01
 10
917.57686355132091
 20
-1413.8944897874139
 30
0.0
 40
1.0
 50
3.0346829000177751
 51
90.500085999987206
  0
ARC
  5
D578
  8
01
 10
838.68763355132103
 20
-1418.076748387414
 30
0.0
 40
80.0
 50
356.96533999998258
 51
3.0346557000021042
  0
ARC
  5
D579
  8
01
 10
917.57686355132091
 20
-1422.2590070874139
 30
0.0
 40
1.0
 50
269.49990999998511
 51
356.96533999998258
  0
ARC
  5
D57A
  8
01
 10
889.9220735513212
 20
-1414.135830387414
 30
0.0
 40
1.0
 50
90.500085999987206
 51
179.49996999998339
  0
LINE
  5
D57B
  8
01
 10
888.92212355132085
 20
-1414.127106187414
 30
0.0
 11
888.88765355132125
 21
-1418.076747487414
 31
0.0
  0
LINE
  5
D57C
  8
01
 10
888.92210355132045
 20
-1422.0263941874141
 30
0.0
 11
888.88763355132085
 21
-1418.0767536874141
 31
0.0
  0
ARC
  5
D57D
  8
01
 10
889.9220735513212
 20
-1422.017674087414
 30
0.0
 40
1.0
 50
180.50000000001751
 51
269.49990999998511
  0
LINE
  5
D57E
  8
01
 10
889.91124798489591
 20
-1423.0176154892531
 30
0.0
 11
917.56813355132033
 21
-1423.2589734174139
 31
0.0
  0
LINE
  5
D57F
  8
01
 10
913.2470491663239
 20
-1423.2712507993811
 30
0.0
 11
913.19630916632434
 21
-1429.0854827893811
 31
0.0
  0
ARC
  5
D580
  8
01
 10
912.19634916632401
 20
-1429.07673618938
 30
0.0
 40
1.0
 50
270.0
 51
359.49999999998238
  0
LINE
  5
D581
  8
01
 10
913.24705916632456
 20
-1412.8822370893799
 30
0.0
 11
913.19630916632434
 21
-1407.0680190893811
 31
0.0
  0
ARC
  5
D582
  8
01
 10
912.19634916632401
 20
-1407.0767510893811
 30
0.0
 40
1.0
 50
0.4999762299792074
 51
90.0
  0
LINE
  5
D583
  8
01
 10
889.9133591663234
 20
-1423.06762076938
 30
0.0
 11
901.18766916632433
 21
-1423.1660101430421
 31
0.0
  0
LINE
  5
D584
  8
01
 10
898.1876491663246
 20
-1423.1398294693811
 30
0.0
 11
889.68432916632389
 21
-1423.0656219593809
 31
0.0
  0
LINE
  5
D585
  8
01
 10
888.68766916632433
 20
-1414.087875089381
 30
0.0
 11
888.68766916632433
 21
-1422.0656274893811
 31
0.0
  0
ARC
  5
D586
  8
01
 10
889.68766916632421
 20
-1422.0656274893811
 30
0.0
 40
1.0
 50
180.00001000000091
 51
269.49990999998511
  0
ARC
  5
D587
  8
01
 10
889.68766916632421
 20
-1414.087875089381
 30
0.0
 40
1.0
 50
90.500085999987206
 51
180.0
  0
LINE
  5
D588
  8
01
 10
913.24705916632456
 20
-1412.8822370893799
 30
0.0
 11
889.67893916632454
 21
-1413.0879120893801
 31
0.0
  0
LINE
  5
D589
  8
01
 10
913.2470491663239
 20
-1423.2712507993811
 30
0.0
 11
901.18766916632433
 21
-1423.1660101695661
 31
0.0
  0
ARC
  5
D599
  8
01
 10
664.18767316632375
 20
-1418.0767513893809
 30
0.0
 40
25.0
 50
11.53695973454157
 51
168.46304026545829
  0
ARC
  5
D59A
  8
01
 10
664.18767316632375
 20
-1418.0767513893809
 30
0.0
 40
25.0
 50
191.53695416750779
 51
348.46304583249213
  0
POINT
  5
D5A1
  8
01
 10
805.18766916632421
 20
-1418.0767513893809
 30
0.0
  0
POINT
  5
D5A2
  8
01
 10
805.18766916632421
 20
-1418.0767513893809
 30
0.0
  0
POINT
  5
D5A3
  8
01
 10
805.18766916632421
 20
-1418.0767513893809
 30
0.0
  0
LINE
  5
D5A4
  8
01
 10
689.08634016632413
 20
-1413.0767510893811
 30
0.0
 11
545.2890071663237
 21
-1413.0767510893811
 31
0.0
  0
LINE
  5
D5A5
  8
01
 10
689.08634016632413
 20
-1423.0767493093799
 30
0.0
 11
545.2890071663237
 21
-1423.0767493093799
 31
0.0
  0
ARC
  5
D5A6
  8
01
 10
610.18767266632358
 20
-1418.0767513893809
 30
0.0
 40
80.0
 50
357.09770999997858
 51
2.902290000021297
  0
ARC
  5
D5A7
  8
01
 10
689.08634016632413
 20
-1422.076749289381
 30
0.0
 40
1.0
 50
270.0
 51
357.09770999997858
  0
ARC
  5
D5A8
  8
01
 10
689.08634016632413
 20
-1414.07675138938
 30
0.0
 40
1.0
 50
2.9022700000043482
 51
89.999999999999986
  0
LINE
  5
D5A9
  8
01
 10
674.94458616632392
 20
-1430.07673618938
 30
0.0
 11
653.43076516632345
 21
-1430.07673618938
 31
0.0
  0
LINE
  5
D5AA
  8
01
 10
676.18767316632375
 20
-1423.270736199381
 30
0.0
 11
652.18767316632375
 21
-1423.270736199381
 31
0.0
  0
ARC
  5
D5AB
  8
01
 10
671.18767316632375
 20
-1422.2707361893811
 30
0.0
 40
1.0
 50
270.0
 51
306.29171999995992
  0
ARC
  5
D5AC
  8
01
 10
426.18767416632318
 20
-1418.0767513893809
 30
0.0
 40
250.0
 50
357.46804000001612
 51
358.8540099999957
  0
ARC
  5
D5AD
  8
01
 10
674.94458616632392
 20
-1429.07673618938
 30
0.0
 40
1.0
 50
270.0
 51
357.46804000001612
  0
ARC
  5
D5AE
  8
01
 10
657.18767316632375
 20
-1422.2707361893811
 30
0.0
 40
1.0
 50
233.70828999998679
 51
270.0
  0
ARC
  5
D5AF
  8
01
 10
902.18767416632306
 20
-1418.0767513893809
 30
0.0
 40
250.0
 50
181.14599000000419
 51
182.53195999998391
  0
ARC
  5
D5B0
  8
01
 10
653.43076516632345
 20
-1429.07673618938
 30
0.0
 40
1.0
 50
182.53195999998391
 51
270.0
  0
LINE
  5
D5B1
  8
01
 10
674.94458616632392
 20
-1406.0767510893811
 30
0.0
 11
653.43076516632345
 21
-1406.0767510893811
 31
0.0
  0
LINE
  5
D5B2
  8
01
 10
676.18767316632375
 20
-1412.88275108938
 30
0.0
 11
652.18767316632375
 21
-1412.88275108938
 31
0.0
  0
ARC
  5
D5B3
  8
01
 10
426.18767416632318
 20
-1418.0767513893809
 30
0.0
 40
250.0
 50
1.1459900000042811
 51
2.5319599999839091
  0
ARC
  5
D5B4
  8
01
 10
671.18767316632375
 20
-1413.882751189381
 30
0.0
 40
1.0
 50
53.706950000034453
 51
89.999999999999986
  0
ARC
  5
D5B5
  8
01
 10
674.94458616632392
 20
-1407.0767510893811
 30
0.0
 40
1.0
 50
2.53192999997921
 51
89.999999999999986
  0
ARC
  5
D5B6
  8
01
 10
902.18767416632306
 20
-1418.0767513893809
 30
0.0
 40
250.0
 50
177.46803729999939
 51
178.8540080000227
  0
ARC
  5
D5B7
  8
01
 10
657.18767316632375
 20
-1413.882751189381
 30
0.0
 40
1.0
 50
89.999999999999986
 51
126.29304799999289
  0
ARC
  5
D5B8
  8
01
 10
653.43076516632345
 20
-1407.0767510893811
 30
0.0
 40
1.0
 50
89.999999999999986
 51
177.46807100000169
  0
ARC
  5
D5B9
  8
01
 10
624.18767216632432
 20
-1418.0767513893809
 30
0.0
 40
80.0
 50
177.09770640001719
 51
182.90229000002131
  0
ARC
  5
D5BA
  8
01
 10
545.2890071663237
 20
-1422.076749289381
 30
0.0
 40
1.0
 50
182.90229000002131
 51
270.0
  0
ARC
  5
D5BB
  8
01
 10
545.2890071663237
 20
-1414.07675138938
 30
0.0
 40
1.0
 50
89.999999999999986
 51
177.09773439998881
  0
LINE
  5
D5BC
  8
01
 10
756.17898916632419
 20
-1406.0767510893811
 30
0.0
 11
805.18766916632421
 21
-1406.0767510893811
 31
0.0
  0
LINE
  5
D5BD
  8
01
 10
756.17898916632419
 20
-1430.07673618938
 30
0.0
 11
805.18766916632421
 21
-1430.07673618938
 31
0.0
  0
LINE
  5
D5BE
  8
01
 10
805.18766916632421
 20
-1430.07673618938
 30
0.0
 11
805.18766916632421
 21
-1406.0767510893811
 31
0.0
  0
LINE
  5
D5BF
  8
01
 10
778.46199478132758
 20
-1413.135868087413
 30
0.0
 11
750.80719478132733
 21
-1412.8945280874141
 31
0.0
  0
ARC
  5
D5C0
  8
01
 10
750.7984747813274
 20
-1413.8944897874139
 30
0.0
 40
1.0
 50
89.499914000012765
 51
176.9653170999822
  0
ARC
  5
D5C1
  8
01
 10
829.68770478132728
 20
-1418.076748387414
 30
0.0
 40
80.0
 50
176.96534429999781
 51
183.03466000001731
  0
ARC
  5
D5C2
  8
01
 10
750.7984747813274
 20
-1422.2590070874139
 30
0.0
 40
1.0
 50
183.03466000001731
 51
270.50009000001501
  0
ARC
  5
D5C3
  8
01
 10
778.45326478132711
 20
-1414.135830387414
 30
0.0
 40
1.0
 50
0.5000300000165553
 51
89.499914000012765
  0
LINE
  5
D5C4
  8
01
 10
779.45321478132735
 20
-1414.127106187414
 30
0.0
 11
779.48768478132695
 21
-1418.076747487414
 31
0.0
  0
LINE
  5
D5C5
  8
01
 10
779.45323478132775
 20
-1422.0263941874141
 30
0.0
 11
779.48770478132735
 21
-1418.0767536874141
 31
0.0
  0
ARC
  5
D5C6
  8
01
 10
778.45326478132711
 20
-1422.017674087414
 30
0.0
 40
1.0
 50
270.50009000001501
 51
359.49999999998238
  0
LINE
  5
D5C7
  8
01
 10
778.46409034775252
 20
-1423.0176154892531
 30
0.0
 11
750.80720478132787
 21
-1423.2589734174139
 31
0.0
  0
LINE
  5
D5C8
  8
01
 10
755.12828916632452
 20
-1423.2712507993811
 30
0.0
 11
755.1790291663242
 21
-1429.0854827893811
 31
0.0
  0
ARC
  5
D5C9
  8
01
 10
756.17898916632419
 20
-1429.07673618938
 30
0.0
 40
1.0
 50
180.50000000001751
 51
270.0
  0
LINE
  5
D5CA
  8
01
 10
755.12827916632375
 20
-1412.8822370893799
 30
0.0
 11
755.1790291663242
 21
-1407.0680190893811
 31
0.0
  0
ARC
  5
D5CB
  8
01
 10
756.17898916632419
 20
-1407.0767510893811
 30
0.0
 40
1.0
 50
89.999999999999986
 51
179.5000237700207
  0
LINE
  5
D5CC
  8
01
 10
778.4619791663248
 20
-1423.06762076938
 30
0.0
 11
767.18766916632421
 21
-1423.1660101430421
 31
0.0
  0
LINE
  5
D5CD
  8
01
 10
770.18768916632359
 20
-1423.1398294693811
 30
0.0
 11
778.69100916632442
 21
-1423.0656219593809
 31
0.0
  0
LINE
  5
D5CE
  8
01
 10
779.68766916632421
 20
-1414.087875089381
 30
0.0
 11
779.68766916632421
 21
-1422.0656274893811
 31
0.0
  0
ARC
  5
D5CF
  8
01
 10
778.68766916632421
 20
-1422.0656274893811
 30
0.0
 40
1.0
 50
270.50009000001501
 51
359.999989999999
  0
ARC
  5
D5D0
  8
01
 10
778.68766916632421
 20
-1414.087875089381
 30
0.0
 40
1.0
 50
0.0
 51
89.499914000012765
  0
LINE
  5
D5D1
  8
01
 10
755.12827916632375
 20
-1412.8822370893799
 30
0.0
 11
778.69639916632366
 21
-1413.0879120893801
 31
0.0
  0
LINE
  5
D5D2
  8
01
 10
755.12828916632452
 20
-1423.2712507993811
 30
0.0
 11
767.18766916632421
 21
-1423.1660101695661
 31
0.0
  0
LINE
  5
D8DC
  8
01
 10
979.18778157217128
 20
-1063.5767513904091
 30
0.0
 11
1123.1877815721709
 21
-1063.5767513904091
 31
0.0
  0
LINE
  5
D8DD
  8
01
 10
1016.187781572171
 20
-1085.5767513904091
 30
0.0
 11
1123.1877815721709
 21
-1085.5767513904091
 31
0.0
  0
LINE
  5
D8DE
  8
01
 10
979.18778157217128
 20
-1085.5767513904091
 30
0.0
 11
992.18778157217139
 21
-1085.5767513904091
 31
0.0
  0
LINE
  5
D8DF
  8
01
 10
978.18778157217128
 20
-1064.57675139041
 30
0.0
 11
978.18778157217128
 21
-1084.57675139041
 31
0.0
  0
ARC
  5
D8E0
  8
01
 10
979.18778157217128
 20
-1064.57675139041
 30
0.0
 40
1.0
 50
90.000000000000028
 51
180.0
  0
ARC
  5
D8E1
  8
01
 10
979.18778157217128
 20
-1084.57675139041
 30
0.0
 40
1.0
 50
180.0
 51
270.0
  0
LINE
  5
D8E2
  8
01
 10
992.18778157217139
 20
-1070.0173643904091
 30
0.0
 11
992.18778157217139
 21
-1119.07675139041
 31
0.0
  0
LINE
  5
D8E3
  8
01
 10
1016.187781572171
 20
-1070.0173643904091
 30
0.0
 11
1016.187781572171
 21
-1119.07675139041
 31
0.0
  0
LINE
  5
D8E4
  8
01
 10
1015.187781572171
 20
-1069.0173643904091
 30
0.0
 11
993.18778157217139
 21
-1069.0173643904091
 31
0.0
  0
ARC
  5
D8E5
  8
01
 10
993.18778157217139
 20
-1070.0173643904091
 30
0.0
 40
1.0
 50
90.000000000000028
 51
180.0
  0
ARC
  5
D8E6
  8
01
 10
1015.187781572171
 20
-1070.0173643904091
 30
0.0
 40
1.0
 50
0.0
 51
90.000000000000028
  0
LINE
  5
D8E7
  8
01
 10
1016.187781572171
 20
-1119.07675139041
 30
0.0
 11
1007.49162157783
 21
-1119.07675139041
 31
0.0
  0
LINE
  5
D8E8
  8
01
 10
1124.1877815721709
 20
-1064.57675139041
 30
0.0
 11
1124.1877815721709
 21
-1084.57675139041
 31
0.0
  0
ARC
  5
D8E9
  8
01
 10
1123.1877815721709
 20
-1064.57675139041
 30
0.0
 40
1.0
 50
0.0
 51
90.000000000000028
  0
ARC
  5
D8EA
  8
01
 10
1123.1877815721709
 20
-1084.57675139041
 30
0.0
 40
1.0
 50
270.0
 51
0.0
  0
TEXT
  5
D918
  8
01
 10
661.68768516632394
 20
-1187.3982868648541
 30
0.0
 40
6.0
  1
クローム
 72
     1
 11
675.28768516632397
 21
-1187.3982868648541
 31
0.0
  0
LINE
  5
D91D
  8
01
 10
701.68768516632383
 20
-1184.07675138938
 30
0.0
 11
806.68768516632406
 21
-1184.0767513893809
 31
0.0
  0
LINE
  5
D948
  8
01
 10
1000.883911434307
 20
-1119.07675139041
 30
0.0
 11
992.18778157217139
 21
-1119.07675139041
 31
0.0
  0
LINE
  5
E0AE
  8
01
 10
860.48766916632644
 20
-1382.076751389365
 30
0.0000000000562575
 11
860.48766916632644
 21
-1343.076751389365
 31
0.0000000000562575
  0
LINE
  5
E0AF
  8
01
 10
854.18766916632615
 20
-1342.576751389365
 30
0.0000000000562575
 11
854.18766916632171
 21
-1382.576751389372
 31
0.0000000000562575
  0
LINE
  5
E0B0
  8
01
 10
854.18766916632615
 20
-1382.576751389365
 30
0.0000000000562575
 11
859.98766916632655
 21
-1382.576751389365
 31
0.0000000000562575
  0
ARC
  5
E0B1
  8
01
 10
859.98766916632655
 20
-1382.076751389365
 30
0.0000000000562575
 40
0.5
 50
270.0
 51
0.0
  0
LINE
  5
E0B2
  8
01
 10
854.18766916632615
 20
-1342.576751389365
 30
0.0000000000562575
 11
859.98766916632655
 21
-1342.5767513893661
 31
0.0000000000562575
  0
ARC
  5
E0B3
  8
01
 10
859.98766916632655
 20
-1343.076751389365
 30
0.0000000000562575
 40
0.5
 50
0.0
 51
90.0
  0
LINE
  5
E0B4
  8
01
 10
861.21106916632709
 20
-1364.576750068434
 30
-0.0000000000001137
 11
860.48766916632644
 21
-1364.576750068434
 31
-0.0000000000001137
  0
LINE
  5
E0B5
  8
01
 10
861.21106916632709
 20
-1371.576750068434
 30
-0.0000000000001137
 11
860.48766916632644
 21
-1371.576750068434
 31
-0.0000000000001137
  0
LINE
  5
E0B6
  8
01
 10
807.88766916632642
 20
-1382.076751389372
 30
0.0
 11
807.88766916632642
 21
-1343.0767513893729
 31
0.0
  0
LINE
  5
E0B7
  8
01
 10
814.18766916632717
 20
-1342.576751389372
 30
0.0
 11
814.18766916632171
 21
-1382.576751389372
 31
0.0
  0
LINE
  5
E0B8
  8
01
 10
814.18766916632717
 20
-1382.576751389372
 30
0.0
 11
808.38766916632596
 21
-1382.576751389372
 31
0.0
  0
ARC
  5
E0B9
  8
01
 10
808.38766916632596
 20
-1382.076751389372
 30
0.0
 40
0.5
 50
180.0
 51
270.0
  0
LINE
  5
E0BA
  8
01
 10
814.18766916632717
 20
-1342.576751389372
 30
0.0
 11
808.38766916632596
 21
-1342.5767513893729
 31
0.0
  0
ARC
  5
E0BB
  8
01
 10
808.38766916632596
 20
-1343.0767513893729
 30
0.0
 40
0.5
 50
90.0
 51
180.0
  0
LINE
  5
E0BC
  8
01
 10
793.18728360060481
 20
-1379.0767563893719
 30
0.0
 11
807.88766916632642
 21
-1379.0767563893719
 31
0.0
  0
LINE
  5
E0BD
  8
01
 10
806.68730654481647
 20
-1357.5767563893719
 30
0.0
 11
806.68730654481192
 21
-1378.5767563893719
 31
0.0
  0
LINE
  5
E0BE
  8
01
 10
793.18728360060697
 20
-1357.076756389373
 30
0.0
 11
807.88766916632642
 21
-1357.0767563893719
 31
0.0
  0
ARC
  5
E0BF
  8
01
 10
793.18728360060697
 20
-1358.076756389371
 30
0.0
 40
1.0
 50
90.0
 51
180.0
  0
LINE
  5
E0C0
  8
01
 10
792.1872836006047
 20
-1358.076756389371
 30
0.0
 11
792.1872836006047
 21
-1378.0767563893701
 31
0.0
  0
ARC
  5
E0C1
  8
01
 10
793.18728360060481
 20
-1378.0767563893701
 30
0.0
 40
1.0
 50
180.0
 51
270.0
  0
ARC
  5
E0C2
  8
01
 10
807.18730654481192
 20
-1357.5767563893719
 30
0.0
 40
0.5
 50
90.0
 51
179.99999999997391
  0
ARC
  5
E0C3
  8
01
 10
807.18730654481192
 20
-1378.5767563893719
 30
0.0
 40
0.5
 50
179.99999999997391
 51
270.0
  0
LINE
  5
E0C4
  8
01
 10
855.68766916632535
 20
-1382.576751389372
 30
0.0000000000562575
 11
854.18766916632535
 21
-1382.576751389372
 31
0.0000000000562575
  0
LINE
  5
E0C5
  8
01
 10
812.68766916632796
 20
-1382.5767513893791
 30
0.0
 11
814.18766916632808
 21
-1382.5767513893791
 31
0.0
  0
ARC
  5
E0C6
  8
01
 10
855.42603425408709
 20
-1368.076750100256
 30
-0.0000000000001137
 40
6.7614049222401134
 50
328.82566316459219
 51
31.174340835420569
  0
LINE
  5
E0C7
  8
01
 10
814.18766916632148
 20
-1393.07675138938
 30
0.0
 11
814.1876691663233
 21
-1443.07675138938
 31
0.0
  0
LINE
  5
E0C8
  8
01
 10
805.68766916632137
 20
-1393.5767513893779
 30
0.0
 11
805.68766916632512
 21
-1442.57675138938
 31
0.0
  0
LINE
  5
E0C9
  8
01
 10
814.1876691663233
 20
-1443.07675138938
 30
0.0
 11
806.18766916632501
 21
-1443.07675138938
 31
0.0
  0
ARC
  5
E0CA
  8
01
 10
806.18766916632501
 20
-1442.57675138938
 30
0.0
 40
0.5
 50
180.0
 51
270.0
  0
LINE
  5
E0CB
  8
01
 10
814.18766916632148
 20
-1393.07675138938
 30
0.0
 11
806.18766916632183
 21
-1393.0767513893779
 31
0.0
  0
ARC
  5
E0CC
  8
01
 10
806.18766916632148
 20
-1393.5767513893779
 30
0.0
 40
0.5
 50
89.999999999973952
 51
180.0
  0
LINE
  5
E0CD
  8
01
 10
854.18766916632512
 20
-1393.07675138938
 30
0.0
 11
854.1876691663233
 21
-1443.07675138938
 31
0.0
  0
LINE
  5
E0CE
  8
01
 10
862.68766916632524
 20
-1393.5767513893779
 30
0.0
 11
862.68766916632137
 21
-1442.57675138938
 31
0.0
  0
LINE
  5
E0CF
  8
01
 10
854.1876691663233
 20
-1443.07675138938
 30
0.0
 11
862.18766916632148
 21
-1443.07675138938
 31
0.0
  0
ARC
  5
E0D0
  8
01
 10
862.18766916632148
 20
-1442.57675138938
 30
0.0
 40
0.5
 50
270.0
 51
0.0
  0
LINE
  5
E0D1
  8
01
 10
854.18766916632512
 20
-1393.07675138938
 30
0.0
 11
862.18766916632512
 21
-1393.0767513893779
 31
0.0
  0
ARC
  5
E0D2
  8
01
 10
862.18766916632512
 20
-1393.5767513893779
 30
0.0
 40
0.5
 50
0.0
 51
90.000000000026048
  0
CIRCLE
  5
E0D3
  8
01
 10
664.18767316632454
 20
-1368.0767513893809
 30
0.0
 40
11.30000000000109
  0
LINE
  5
E0D4
  8
01
 10
666.68767316632454
 20
-1357.76899241858
 30
0.0
 11
666.68767316632454
 21
-1378.3845103601809
 31
0.0
  0
LINE
  5
E0D5
  8
01
 10
661.68767316632454
 20
-1357.76899241858
 30
0.0
 11
661.68767316632454
 21
-1378.3845103601809
 31
0.0
  0
ARC
  5
E0D6
  8
01
 10
662.18767316632454
 20
-1357.76899241858
 30
0.0
 40
0.5
 50
100.98058072142879
 51
180.0
  0
ARC
  5
E0D7
  8
01
 10
666.18767316632454
 20
-1357.76899241858
 30
0.0
 40
0.5
 50
0.0
 51
79.019419278571149
  0
ARC
  5
E0D8
  8
01
 10
662.18767316632454
 20
-1378.3845103601809
 30
0.0
 40
0.5
 50
180.0
 51
259.01941927857121
  0
ARC
  5
E0D9
  8
01
 10
666.18767316632454
 20
-1378.3845103601809
 30
0.0
 40
0.5
 50
280.98058072142891
 51
0.0
  0
CIRCLE
  5
E0DA
  8
01
 10
664.18767316632238
 20
-1362.57675138938
 30
0.0
 40
20.000000000000071
  0
CIRCLE
  5
E0DB
  8
01
 10
664.18767316632409
 20
-1368.0767513893809
 30
0.0
 40
11.0
  0
CIRCLE
  5
E0ED
  8
01
 10
1004.1876651663219
 20
-1368.3039201047729
 30
0.0
 40
3.75
  0
CIRCLE
  5
E0EE
  8
01
 10
1004.1876651663219
 20
-1368.3039203089011
 30
0.0
 40
3.5000004999999992
  0
LINE
  5
E0EF
  8
01
 10
1005.1876651663219
 20
-1371.658023108901
 30
0.0
 11
1005.1876651663219
 21
-1364.9498163089011
 31
0.0
  0
LINE
  5
E0F0
  8
01
 10
1003.1876651663219
 20
-1371.658023108901
 30
0.0
 11
1003.1876651663219
 21
-1364.9498163089011
 31
0.0
  0
CIRCLE
  5
E0F1
  8
01
 10
1004.187664843863
 20
-1362.8039203089011
 30
0.0
 40
19.99999999999962
  0
LINE
  5
E0F9
  8
01
 10
984.18778118361024
 20
-1168.07675139041
 30
0.0
 11
984.18778118361024
 21
-1173.876751390409
 31
0.0
  0
LINE
  5
E0FA
  8
01
 10
1024.1877811836091
 20
-1168.07675139041
 30
0.0
 11
1024.1877811836091
 21
-1173.876751390409
 31
0.0
  0
LINE
  5
E0FB
  8
01
 10
984.68778118361035
 20
-1174.376751390409
 30
0.0
 11
1023.687781183609
 21
-1174.376751390409
 31
0.0
  0
ARC
  5
E0FC
  8
01
 10
984.68778118361035
 20
-1173.876751390409
 30
0.0
 40
0.5
 50
180.0
 51
270.0
  0
ARC
  5
E0FD
  8
01
 10
1023.687781183609
 20
-1173.876751390409
 30
0.0
 40
0.5
 50
270.0
 51
0.0
  0
LINE
  5
E0FE
  8
01
 10
1005.187782827006
 20
-1175.7765213904099
 30
-0.0000000000001137
 11
1005.187782827006
 21
-1174.376751390409
 31
-0.0000000000001137
  0
ARC
  5
E0FF
  8
01
 10
1002.887783827006
 20
-1175.7765213904099
 30
-0.0000000000001137
 40
0.30000001
 50
256.8165200000056
 51
0.0000029999846689
  0
ARC
  5
E100
  8
01
 10
1004.187782827006
 20
-1170.2267513904089
 30
-0.0000000000001137
 40
6.0
 50
283.18348199998479
 51
305.68533400000791
  0
ARC
  5
E101
  8
01
 10
1005.487785827006
 20
-1175.7765213904099
 30
-0.0000000000001137
 40
0.30000001
 50
180.0
 51
283.18348199998479
  0
LINE
  5
E102
  8
01
 10
1007.687782827006
 20
-1175.10015139041
 30
-0.0000000000001137
 11
1007.687782827006
 21
-1174.376751390409
 31
-0.0000000000001137
  0
LINE
  5
E103
  8
01
 10
1000.687782827006
 20
-1175.10015139041
 30
-0.0000000000001137
 11
1000.687782827006
 21
-1174.376751390409
 31
-0.0000000000001137
  0
ARC
  5
E104
  8
01
 10
1004.187782827006
 20
-1170.2267513904089
 30
-0.0000000000001137
 40
6.0
 50
234.3146700000031
 51
256.81651749662558
  0
LINE
  5
E105
  8
01
 10
1003.187782827006
 20
-1175.7772998498119
 30
-0.0000000000001137
 11
1003.187782827006
 21
-1174.376751390409
 31
-0.0000000000001137
  0
LINE
  5
E106
  8
01
 10
984.18778118361024
 20
-1128.0767513904091
 30
0.0
 11
984.18778118361024
 21
-1122.2767513904089
 31
0.0
  0
LINE
  5
E107
  8
01
 10
1024.1877811836091
 20
-1128.0767513904091
 30
0.0
 11
1024.1877811836091
 21
-1122.2767513904089
 31
0.0
  0
LINE
  5
E108
  8
01
 10
984.68778118361035
 20
-1121.7767513904089
 30
0.0
 11
1023.687781183609
 21
-1121.7767513904089
 31
0.0
  0
ARC
  5
E109
  8
01
 10
984.68778118361035
 20
-1122.2767513904089
 30
0.0
 40
0.5
 50
90.0
 51
180.0
  0
ARC
  5
E10A
  8
01
 10
1023.687781183609
 20
-1122.2767513904089
 30
0.0
 40
0.5
 50
0.0
 51
90.0
  0
ARC
  5
E10B
  8
01
 10
1007.687781506061
 20
-1119.576774334618
 30
0.0
 40
1.0
 50
180.0
 51
270.0
  0
LINE
  5
E10C
  8
01
 10
1007.6877815060629
 20
-1120.576774334618
 30
0.0
 11
1014.68778650606
 21
-1120.5767743346159
 31
0.0
  0
ARC
  5
E10D
  8
01
 10
1014.68778650606
 20
-1121.0767743346159
 30
0.0
 40
0.5
 50
0.0
 51
90.0
  0
ARC
  5
E10E
  8
01
 10
1000.687781506059
 20
-1119.5767743346159
 30
0.0
 40
1.0
 50
270.0
 51
0.0
  0
ARC
  5
E10F
  8
01
 10
993.68778650606146
 20
-1121.0767743346159
 30
0.0
 40
0.5
 50
90.0
 51
180.0
  0
LINE
  5
E110
  8
01
 10
1001.687781506061
 20
-1107.0767513904129
 30
0.0
 11
1001.687781506061
 21
-1119.5767743346159
 31
0.0
  0
ARC
  5
E111
  8
01
 10
1002.687781506059
 20
-1107.0767513904109
 30
0.0
 40
1.0
 50
90.0
 51
179.9999999999479
  0
LINE
  5
E112
  8
01
 10
1002.687781506061
 20
-1106.07675139041
 30
0.0
 11
1005.68778150606
 21
-1106.07675139041
 31
0.0
  0
ARC
  5
E113
  8
01
 10
1005.68778150606
 20
-1107.0767513904109
 30
0.0
 40
1.0
 50
0.0
 51
90.0
  0
LINE
  5
E114
  8
01
 10
1006.687781506061
 20
-1107.0767513904109
 30
0.0
 11
1006.6877815060629
 21
-1119.576774334618
 31
0.0
  0
LINE
  5
E115
  8
01
 10
993.68778650606146
 20
-1120.5767743346159
 30
0.0
 11
1000.687781506061
 21
-1120.5767743346159
 31
0.0
  0
LINE
  5
E116
  8
01
 10
993.18778650606146
 20
-1121.0767743346159
 30
0.0
 11
993.18778650606146
 21
-1121.7767513904089
 31
0.0
  0
LINE
  5
E117
  8
01
 10
1015.18778650606
 20
-1121.0767743346159
 30
0.0
 11
1015.18778650606
 21
-1121.7767513904089
 31
0.0
  0
LINE
  5
E118
  8
01
 10
979.18778143996576
 20
-1168.0767513904091
 30
0.0
 11
979.18778143996576
 21
-1176.0767513904091
 31
0.0
  0
LINE
  5
E119
  8
01
 10
1029.1877814399661
 20
-1168.0767513904091
 30
0.0
 11
1029.1877814399661
 21
-1176.0767513904091
 31
0.0
  0
LINE
  5
E11A
  8
01
 10
979.18778143996576
 20
-1168.0767513904091
 30
0.0
 11
1029.1877814399661
 21
-1168.0767513904091
 31
0.0
  0
LINE
  5
E11B
  8
01
 10
979.68778143996587
 20
-1176.5767513904091
 30
0.0
 11
1028.6877814399661
 21
-1176.5767513904091
 31
0.0
  0
ARC
  5
E11C
  8
01
 10
979.68778143996587
 20
-1176.0767513904091
 30
0.0
 40
0.5
 50
179.99999999997391
 51
270.0
  0
ARC
  5
E11D
  8
01
 10
1028.6877814399661
 20
-1176.0767513904091
 30
0.0
 40
0.5
 50
270.0
 51
0.0
  0
LINE
  5
E11E
  8
01
 10
979.18778157217184
 20
-1128.0767513904091
 30
0.0
 11
979.18778157217184
 21
-1120.0767513904091
 31
0.0
  0
LINE
  5
E11F
  8
01
 10
1029.1877815721721
 20
-1128.0767513904091
 30
0.0
 11
1029.1877815721721
 21
-1120.0767513904091
 31
0.0
  0
LINE
  5
E120
  8
01
 10
979.18778157217184
 20
-1128.0767513904091
 30
0.0
 11
1029.1877815721721
 21
-1128.0767513904091
 31
0.0
  0
LINE
  5
E121
  8
01
 10
979.68778157217184
 20
-1119.5767513904091
 30
0.0
 11
1001.687781572164
 21
-1119.5767513904091
 31
0.0
  0
LINE
  5
E122
  8
01
 10
1006.687781572166
 20
-1119.5767513904091
 30
0.0
 11
1028.6877815721709
 21
-1119.5767513904091
 31
0.0
  0
ARC
  5
E123
  8
01
 10
979.68778157217184
 20
-1120.0767513904091
 30
0.0
 40
0.5
 50
90.0
 51
180.0
  0
ARC
  5
E124
  8
01
 10
1028.6877815721709
 20
-1120.0767513904091
 30
0.0
 40
0.5
 50
0.0
 51
90.0
  0
LINE
  5
E2BC
  8
01
 10
1022.187665166325
 20
-1359.57675138938
 30
0.0
 11
1022.187665166325
 21
-1371.2945486106671
 31
0.0
  0
LINE
  5
E2BD
  8
01
 10
1001.187665166324
 20
-1359.57675138938
 30
0.0
 11
1007.187665166324
 21
-1359.57675138938
 31
0.0
  0
LINE
  5
E2BE
  8
01
 10
1014.187665166325
 20
-1359.57675138938
 30
0.0
 11
1022.187665166325
 21
-1359.57675138938
 31
0.0
  0
LINE
  5
E2BF
  8
01
 10
1001.187665166324
 20
-1360.57675138938
 30
0.0
 11
1001.187665166324
 21
-1359.57675138938
 31
0.0
  0
LINE
  5
E2C0
  8
01
 10
1007.187665166324
 20
-1360.5767513893809
 30
0.0
 11
1007.187665166324
 21
-1359.57675138938
 31
0.0
  0
ARC
  5
E2C1
  8
01
 10
997.68766516632445
 20
-1360.5767513893809
 30
0.0
 40
3.5
 50
179.99999999998701
 51
0.0000000000130276
  0
ARC
  5
E2C2
  8
01
 10
1010.687665166325
 20
-1360.5767513893809
 30
0.0
 40
3.5
 50
180.0
 51
0.0
  0
CIRCLE
  5
E2C3
  8
01
 10
1004.187665166036
 20
-1368.076751389669
 30
0.0
 40
6.0
  0
LINE
  5
E2C4
  8
01
 10
994.18766516632445
 20
-1359.57675138938
 30
0.0
 11
984.41394491058077
 21
-1359.57675138938
 31
0.0
  0
LINE
  5
E2C5
  8
01
  6
BYBLOCK
 10
984.41394491058077
 20
-1359.57675138938
 30
0.0
 11
956.18766516632468
 21
-1359.57675138938
 31
0.0
  0
LINE
  5
E2C6
  8
01
 10
994.18766516632434
 20
-1360.57675138938
 30
0.0
 11
994.18766516632445
 21
-1359.57675138938
 31
0.0
  0
LINE
  5
E2C7
  8
01
 10
1014.187665166325
 20
-1360.5767513893809
 30
0.0
 11
1014.187665166325
 21
-1359.57675138938
 31
0.0
  0
LINE
  5
E2C8
  8
01
  6
BYBLOCK
 10
683.96138509960645
 20
-1359.57675138938
 30
0.0
 11
712.18767316632375
 21
-1359.57675138938
 31
0.0
  0
LINE
  5
E2C9
  8
01
  6
BYBLOCK
 10
1010.188549348096
 20
-1137.8267513904091
 30
0.0
 11
998.18854934809588
 21
-1137.8267513904091
 31
0.0
  0
LINE
  5
E2CA
  8
01
  6
BYBLOCK
 10
998.18854934809588
 20
-1158.3267513904091
 30
0.0
 11
1010.188549348096
 21
-1158.3267513904091
 31
0.0
  0
LINE
  5
E2CB
  8
01
  6
BYBLOCK
 10
998.18854934809588
 20
-1158.3267513904091
 30
0.0
 11
998.18854934809588
 21
-1157.5767513904091
 31
0.0
  0
LINE
  5
E2CC
  8
01
  6
BYBLOCK
 10
998.18854934809588
 20
-1138.5767513904091
 30
0.0
 11
998.18854934809588
 21
-1137.8267513904091
 31
0.0
  0
LINE
  5
E2CD
  8
01
  6
BYBLOCK
 10
1010.188549348096
 20
-1158.3267513904091
 30
0.0
 11
1010.188549348096
 21
-1157.5767513904091
 31
0.0
  0
LINE
  5
E2CE
  8
01
  6
BYBLOCK
 10
1010.188549348096
 20
-1138.5767513904091
 30
0.0
 11
1010.188549348096
 21
-1137.8267513904091
 31
0.0
  0
TEXT
  5
E43A
  8
01
 10
1053.059884411525
 20
-1189.0159368595771
 30
0.0
 40
4.5499999999999989
  1
材質：亜鉛ダイキャスト
  0
TEXT
  5
E43B
  8
01
 10
1053.059884411525
 20
-1196.5992701929099
 30
0.0
 40
4.5499999999999989
  1
仕上げ：各種メッキ
  0
SOLID
  5
E43C
  8
01
 10
1038.262824668238
 20
-1211.4066785702589
 30
0.0
 11
1036.245656835405
 21
-1213.1033847062661
 31
0.0
 12
1037.603505498028
 22
-1210.844175821017
 32
0.0
 13
1037.603505498028
 23
-1210.844175821017
 33
0.0
1001
ACAD
1000
DSTYLE
1002
{
1070
    40
1040
1.3
1002
}
  0
LINE
  5
E43E
  8
01
 10
1010.188549348096
 20
-1137.8267513904091
 30
0.0
 11
1045.3489401080969
 21
-1137.8267513904091
 31
0.0
  0
LINE
  5
E43F
  8
01
 10
1010.188549348096
 20
-1158.3267513904091
 30
0.0
 11
1045.3489401080969
 21
-1158.3267513904091
 31
0.0
  0
LINE
  5
E440
  8
01
 10
1044.0489401080979
 20
-1140.426751390409
 30
0.0
 11
1044.0489401080979
 21
-1155.7267513904089
 31
0.0
  0
TEXT
  5
E444
  8
01
 10
914.58415959267461
 20
-1198.493418057076
 30
0.0
 40
4.5499999999999989
  1
材質：亜鉛ダイキャスト
  0
TEXT
  5
E445
  8
01
 10
930.96415959267472
 20
-1206.0767513904091
 30
0.0
 40
4.5499999999999989
  1
仕上げ：クローム
  0
SOLID
  5
E446
  8
01
 10
1001.610520805609
 20
-1187.2307395303189
 30
0.0
 11
1003.928266406385
 21
-1185.9754176162839
 31
0.0
 12
1002.142935783176
 22
-1187.91458556765
 32
0.0
 13
1002.142935783176
 23
-1187.91458556765
 33
0.0
1001
ACAD
1000
DSTYLE
1002
{
1070
    40
1040
1.3
1002
}
  0
LINE
  5
E448
  8
01
 10
1022.187665166325
 20
-1359.57675138938
 30
0.0
 11
1050.4876651663251
 21
-1359.57675138938
 31
0.0
  0
LINE
  5
E449
  8
01
 10
1022.187665166325
 20
-1434.0767513893809
 30
0.0
 11
1050.4876651663251
 21
-1434.0767513893809
 31
0.0
  0
LINE
  5
E44A
  8
01
 10
1049.1876651663249
 20
-1362.1767513893799
 30
0.0
 11
1049.1876651663249
 21
-1431.476751389381
 31
0.0
  0
LINE
  5
E44E
  8
01
 10
1123.086331166325
 20
-1413.0767510893811
 30
0.0
 11
1140.4876651663239
 21
-1413.0767510893811
 31
0.0
  0
LINE
  5
E44F
  8
01
 10
1123.086331166325
 20
-1423.0767493093799
 30
0.0
 11
1140.4876651663239
 21
-1423.0767493093799
 31
0.0
  0
LINE
  5
E450
  8
01
 10
1139.1876651663249
 20
-1415.676751089381
 30
0.0
 11
1139.1876651663249
 21
-1420.4767493093809
 31
0.0
  0
LINE
  5
E454
  8
01
 10
1106.9429295034161
 20
-1168.0767513904091
 30
0.0
 11
1150.487781506069
 21
-1168.0767513904091
 31
0.0
  0
LINE
  5
E455
  8
01
 10
1123.1877815060691
 20
-1232.5767513904091
 30
0.0
 11
1150.487781506069
 21
-1232.5767513904091
 31
0.0
  0
LINE
  5
E456
  8
01
 10
1149.1877815060691
 20
-1170.676751390409
 30
0.0
 11
1149.1877815060691
 21
-1229.9767513904089
 31
0.0
  0
LINE
  5
E45A
  8
01
 10
1106.9429295034161
 20
-1168.0767513904091
 30
0.0
 11
1140.487781506069
 21
-1168.0767513904091
 31
0.0
  0
LINE
  5
E45B
  8
01
 10
1123.1877815060691
 20
-1210.5767513904091
 30
0.0
 11
1140.487781506069
 21
-1210.5767513904091
 31
0.0
  0
LINE
  5
E45C
  8
01
 10
1139.1877815060691
 20
-1170.676751390409
 30
0.0
 11
1139.1877815060691
 21
-1207.9767513904089
 31
0.0
  0
LINE
  5
E460
  8
01
 10
978.18778150606943
 20
-1231.5767513904091
 30
0.0
 11
978.18778150606943
 21
-1258.876751390409
 31
0.0
  0
LINE
  5
E461
  8
01
 10
1124.1877815060691
 20
-1231.5767513904091
 30
0.0
 11
1124.1877815060691
 21
-1258.876751390409
 31
0.0
  0
LINE
  5
E462
  8
01
 10
980.78778150606945
 20
-1257.5767513904091
 30
0.0
 11
1121.5877815060689
 21
-1257.5767513904091
 31
0.0
  0
LINE
  5
E466
  8
01
 10
1004.187781506069
 20
-1198.0767513904091
 30
0.0
 11
1004.187781506069
 21
-1248.876751390409
 31
0.0
  0
LINE
  5
E467
  8
01
 10
1124.1877815060691
 20
-1231.5767513904091
 30
0.0
 11
1124.1877815060691
 21
-1248.876751390409
 31
0.0
  0
LINE
  5
E468
  8
01
 10
1006.787781506069
 20
-1247.5767513904091
 30
0.0
 11
1121.5877815060689
 21
-1247.5767513904091
 31
0.0
  0
LINE
  5
E46C
  8
01
 10
1004.187665166324
 20
-1393.07675138938
 30
0.0
 11
967.88766516632438
 21
-1393.07675138938
 31
0.0
  0
LINE
  5
E46D
  8
01
 10
1004.187665166324
 20
-1443.07675138938
 30
0.0
 11
967.88766516632438
 21
-1443.07675138938
 31
0.0
  0
LINE
  5
E46E
  8
01
 10
969.18766516632445
 20
-1395.676751389381
 30
0.0
 11
969.18766516632445
 21
-1440.4767513893801
 31
0.0
  0
LINE
  5
E472
  8
01
 10
840.68766916632444
 20
-1332.07675138938
 30
0.0
 11
895.48766916632417
 21
-1332.07675138938
 31
0.0
  0
LINE
  5
E473
  8
01
 10
840.68766916632444
 20
-1462.07675138938
 30
0.0
 11
895.48766916632417
 21
-1462.07675138938
 31
0.0
  0
LINE
  5
E474
  8
01
 10
894.18766916632421
 20
-1334.6767513893799
 30
0.0
 11
894.18766916632421
 21
-1459.476751389381
 31
0.0
  0
LINE
  5
E478
  8
01
 10
840.68766916632444
 20
-1340.07675138938
 30
0.0
 11
879.99126020288088
 21
-1340.07675138938
 31
0.0
  0
LINE
  5
E479
  8
01
 10
840.68766916632444
 20
-1454.07675138938
 30
0.0
 11
879.99126020288088
 21
-1454.07675138938
 31
0.0
  0
LINE
  5
E47A
  8
01
 10
878.69126020288093
 20
-1342.6767513893799
 30
0.0
 11
878.69126020288093
 21
-1451.476751389381
 31
0.0
  0
LINE
  5
E47E
  8
01
 10
634.18767316632398
 20
-1418.0767513893809
 30
0.0
 11
619.88768516632445
 21
-1418.0767513893809
 31
0.0
  0
LINE
  5
E47F
  8
01
 10
641.6876651663232
 20
-1362.57675138938
 30
0.0
 11
619.88768516632445
 21
-1362.57675138938
 31
0.0
  0
LINE
  5
E480
  8
01
 10
621.1876851663244
 20
-1415.476751389381
 30
0.0
 11
621.1876851663244
 21
-1365.1767513893799
 31
0.0
  0
LINE
  5
E484
  8
01
 10
634.18767316632398
 20
-1418.0767513893809
 30
0.0
 11
629.88768516632445
 21
-1418.0767513893809
 31
0.0
  0
LINE
  5
E485
  8
01
 10
651.18766516632309
 20
-1368.0767513893809
 30
0.0
 11
629.88768516632445
 21
-1368.0767513893809
 31
0.0
  0
LINE
  5
E486
  8
01
 10
631.18768516632429
 20
-1415.476751389381
 30
0.0
 11
631.18768516632429
 21
-1370.6767513893799
 31
0.0
  0
LINE
  5
E48A
  8
01
 10
644.18767316632227
 20
-1362.57675138938
 30
0.0
 11
644.18767316632227
 21
-1333.7767513893809
 31
0.0
  0
LINE
  5
E48B
  8
01
 10
684.1876731663225
 20
-1362.57675138938
 30
0.0
 11
684.1876731663225
 21
-1333.7767513893809
 31
0.0
  0
LINE
  5
E48C
  8
01
 10
646.78767316632218
 20
-1335.0767513893809
 30
0.0
 11
681.58767316632236
 21
-1335.0767513893809
 31
0.0
  0
LINE
  5
E490
  8
01
 10
984.18895502842781
 20
-1362.57675138938
 30
0.0
 11
984.18895502842781
 21
-1333.7767513893809
 31
0.0
  0
LINE
  5
E491
  8
01
 10
1024.1863746592981
 20
-1362.57675138938
 30
0.0
 11
1024.1863746592981
 21
-1333.7767513893809
 31
0.0
  0
LINE
  5
E492
  8
01
 10
986.78895502842784
 20
-1335.0767513893809
 30
0.0
 11
1021.586374659298
 21
-1335.0767513893809
 31
0.0
  0
LINE
  5
E496
  8
01
 10
792.1872836006047
 20
-1358.076756389371
 30
0.0
 11
792.1872836006047
 21
-1310.77675138938
 31
0.0
  0
LINE
  5
E497
  8
01
 10
814.18766916632433
 20
-1325.5793713893811
 30
0.0
 11
814.18766916632433
 21
-1310.77675138938
 31
0.0
  0
LINE
  5
E498
  8
01
 10
794.78728360060484
 20
-1312.07675138938
 30
0.0
 11
811.58766916632419
 21
-1312.07675138938
 31
0.0
  0
LINE
  5
E49C
  8
01
 10
854.18766916632444
 20
-1325.57937138938
 30
0.0
 11
854.18766916632444
 21
-1310.77675138938
 31
0.0
  0
LINE
  5
E49D
  8
01
 10
862.18743917632719
 20
-1368.0767513893809
 30
0.0
 11
862.18743917632719
 21
-1310.77675138938
 31
0.0
  0
LINE
  5
E49E
  8
01
 10
856.78766916632435
 20
-1312.07675138938
 30
0.0
 11
859.58743917632717
 21
-1312.07675138938
 31
0.0
  0
LINE
  5
E4A2
  8
01
 10
800.9867072720009
 20
-1417.3267513893809
 30
0.0
 11
799.68766916632444
 21
-1416.57675138938
 31
0.0
  0
LINE
  5
E4A3
  8
01
 10
799.68766916632444
 20
-1416.57675138938
 30
0.0
 11
798.38863106064775
 21
-1417.3267513893809
 31
0.0
  0
LINE
  5
E4A4
  8
01
 10
798.38863106064775
 20
-1417.3267513893809
 30
0.0
 11
798.38863106064775
 21
-1418.8267513893809
 31
0.0
  0
LINE
  5
E4A5
  8
01
 10
798.38863106064775
 20
-1418.8267513893809
 30
0.0
 11
799.68766916632444
 21
-1419.5767513893809
 31
0.0
  0
LINE
  5
E4A6
  8
01
 10
799.68766916632444
 20
-1419.5767513893809
 30
0.0
 11
800.9867072720009
 21
-1418.8267513893809
 31
0.0
  0
LINE
  5
E4A7
  8
01
 10
800.9867072720009
 20
-1418.8267513893809
 30
0.0
 11
800.9867072720009
 21
-1417.3267513893809
 31
0.0
  0
CIRCLE
  5
E4A8
  8
01
 10
799.68766916632444
 20
-1418.0767513893809
 30
0.0
 40
3.0
  0
CIRCLE
  5
E4A9
  8
01
 10
868.68766916632433
 20
-1418.0767513893809
 30
0.0
 40
3.0
  0
LINE
  5
E4AA
  8
01
 10
953.18766516632502
 20
-1332.07675138938
 30
0.0
 11
953.18766516632502
 21
-1310.77675138938
 31
0.0
  0
LINE
  5
E4AB
  8
01
 10
1004.187673166325
 20
-1340.07675138938
 30
0.0
 11
1004.187673166325
 21
-1310.77675138938
 31
0.0
  0
LINE
  5
E4AC
  8
01
 10
955.78766516632493
 20
-1312.07675138938
 30
0.0
 11
1001.587673166325
 21
-1312.07675138938
 31
0.0
  0
LINE
  5
E4B0
  8
01
 10
1022.187665166325
 20
-1360.0767513893809
 30
0.0
 11
1022.187665166325
 21
-1300.7767513893809
 31
0.0
  0
LINE
  5
E4B1
  8
01
 10
953.18766516632502
 20
-1332.07675138938
 30
0.0
 11
953.18766516632502
 21
-1300.7767513893809
 31
0.0
  0
LINE
  5
E4B2
  8
01
 10
1019.587665166325
 20
-1302.07675138938
 30
0.0
 11
955.78766516632493
 21
-1302.07675138938
 31
0.0
  0
LINE
  5
E4B6
  8
01
 10
942.18766516632479
 20
-1390.0767520875111
 30
0.0
 11
942.18766516632479
 21
-1310.77675138938
 31
0.0
  0
LINE
  5
E4B7
  8
01
 10
953.18766516632502
 20
-1332.07675138938
 30
0.0
 11
953.18766516632502
 21
-1310.77675138938
 31
0.0
  0
LINE
  5
E4B8
  8
01
 10
944.78766516632481
 20
-1312.07675138938
 30
0.0
 11
950.58766516632477
 21
-1312.07675138938
 31
0.0
  0
LINE
  5
E4BC
  8
01
 10
821.68766916632444
 20
-1338.07675138938
 30
0.0
 11
821.68766916632444
 21
-1310.77675138938
 31
0.0
  0
LINE
  5
E4BD
  8
01
 10
846.68766916632444
 20
-1338.07675138938
 30
0.0
 11
846.68766916632444
 21
-1310.77675138938
 31
0.0
  0
LINE
  5
E4BE
  8
01
 10
824.28766916632435
 20
-1312.07675138938
 30
0.0
 11
844.08766916632453
 21
-1312.07675138938
 31
0.0
  0
TEXT
  5
E4C2
  8
01
 10
829.85433583299107
 20
-1311.1667513893799
 30
0.0
 40
4.5499999999999989
  1
25
  0
LINE
  5
E4C3
  8
01
  6
BYBLOCK
 10
844.08766916632453
 20
-1311.3800834953811
 30
0.0
 11
846.68766916632444
 21
-1312.07675138938
 31
0.0
  0
LINE
  5
E4C4
  8
01
  6
BYBLOCK
 10
846.68766916632444
 20
-1312.07675138938
 30
0.0
 11
844.08766916632453
 21
-1312.7734192833809
 31
0.0
  0
LINE
  5
E4C5
  8
01
  6
BYBLOCK
 10
846.68766916632444
 20
-1312.07675138938
 30
0.0
 11
844.08766916632453
 21
-1312.07675138938
 31
0.0
  0
LINE
  5
E4C6
  8
01
  6
BYBLOCK
 10
824.28766916632435
 20
-1312.7734192833809
 30
0.0
 11
821.68766916632444
 21
-1312.07675138938
 31
0.0
  0
LINE
  5
E4C7
  8
01
  6
BYBLOCK
 10
821.68766916632444
 20
-1312.07675138938
 30
0.0
 11
824.28766916632435
 21
-1311.3800834953811
 31
0.0
  0
LINE
  5
E4C8
  8
01
  6
BYBLOCK
 10
821.68766916632444
 20
-1312.07675138938
 30
0.0
 11
824.28766916632435
 21
-1312.07675138938
 31
0.0
  0
TEXT
  5
E4C9
  8
01
 10
943.67933183299158
 20
-1311.1667513893799
 30
0.0
 40
4.5499999999999989
  1
11
  0
LINE
  5
E4CA
  8
01
  6
BYBLOCK
 10
950.58766516632477
 20
-1311.3800834953811
 30
0.0
 11
953.18766516632502
 21
-1312.07675138938
 31
0.0
  0
LINE
  5
E4CB
  8
01
  6
BYBLOCK
 10
953.18766516632502
 20
-1312.07675138938
 30
0.0
 11
950.58766516632477
 21
-1312.7734192833809
 31
0.0
  0
LINE
  5
E4CC
  8
01
  6
BYBLOCK
 10
953.18766516632502
 20
-1312.07675138938
 30
0.0
 11
950.58766516632477
 21
-1312.07675138938
 31
0.0
  0
LINE
  5
E4CD
  8
01
  6
BYBLOCK
 10
944.78766516632481
 20
-1312.7734192833809
 30
0.0
 11
942.18766516632479
 21
-1312.07675138938
 31
0.0
  0
LINE
  5
E4CE
  8
01
  6
BYBLOCK
 10
942.18766516632479
 20
-1312.07675138938
 30
0.0
 11
944.78766516632481
 21
-1311.3800834953811
 31
0.0
  0
LINE
  5
E4CF
  8
01
  6
BYBLOCK
 10
942.18766516632479
 20
-1312.07675138938
 30
0.0
 11
944.78766516632481
 21
-1312.07675138938
 31
0.0
  0
TEXT
  5
E4D0
  8
01
 10
983.35433183299153
 20
-1301.1667513893799
 30
0.0
 40
4.5499999999999989
  1
69
  0
LINE
  5
E4D1
  8
01
  6
BYBLOCK
 10
955.78766516632493
 20
-1302.77341928338
 30
0.0
 11
953.18766516632502
 21
-1302.07675138938
 31
0.0
  0
LINE
  5
E4D2
  8
01
  6
BYBLOCK
 10
953.18766516632502
 20
-1302.07675138938
 30
0.0
 11
955.78766516632493
 21
-1301.3800834953811
 31
0.0
  0
LINE
  5
E4D3
  8
01
  6
BYBLOCK
 10
953.18766516632502
 20
-1302.07675138938
 30
0.0
 11
955.78766516632493
 21
-1302.07675138938
 31
0.0
  0
LINE
  5
E4D4
  8
01
  6
BYBLOCK
 10
1019.587665166325
 20
-1301.3800834953811
 30
0.0
 11
1022.187665166325
 21
-1302.07675138938
 31
0.0
  0
LINE
  5
E4D5
  8
01
  6
BYBLOCK
 10
1022.187665166325
 20
-1302.07675138938
 30
0.0
 11
1019.587665166325
 21
-1302.77341928338
 31
0.0
  0
LINE
  5
E4D6
  8
01
  6
BYBLOCK
 10
1022.187665166325
 20
-1302.07675138938
 30
0.0
 11
1019.587665166325
 21
-1302.07675138938
 31
0.0
  0
TEXT
  5
E4D7
  8
01
 10
975.00433583299196
 20
-1311.1667513893799
 30
0.0
 40
4.5499999999999989
  1
51
  0
LINE
  5
E4D8
  8
01
  6
BYBLOCK
 10
1001.587673166325
 20
-1311.3800834953811
 30
0.0
 11
1004.187673166325
 21
-1312.07675138938
 31
0.0
  0
LINE
  5
E4D9
  8
01
  6
BYBLOCK
 10
1004.187673166325
 20
-1312.07675138938
 30
0.0
 11
1001.587673166325
 21
-1312.7734192833809
 31
0.0
  0
LINE
  5
E4DA
  8
01
  6
BYBLOCK
 10
1004.187673166325
 20
-1312.07675138938
 30
0.0
 11
1001.587673166325
 21
-1312.07675138938
 31
0.0
  0
LINE
  5
E4DB
  8
01
  6
BYBLOCK
 10
955.78766516632493
 20
-1312.7734192833809
 30
0.0
 11
953.18766516632502
 21
-1312.07675138938
 31
0.0
  0
LINE
  5
E4DC
  8
01
  6
BYBLOCK
 10
953.18766516632502
 20
-1312.07675138938
 30
0.0
 11
955.78766516632493
 21
-1311.3800834953811
 31
0.0
  0
LINE
  5
E4DD
  8
01
  6
BYBLOCK
 10
953.18766516632502
 20
-1312.07675138938
 30
0.0
 11
955.78766516632493
 21
-1312.07675138938
 31
0.0
  0
TEXT
  5
E4DE
  8
01
 10
856.02088750465919
 20
-1311.1667513893799
 30
0.0
 40
4.5499999999999989
  1
8
  0
LINE
  5
E4DF
  8
01
  6
BYBLOCK
 10
859.58743917632717
 20
-1311.3800834953811
 30
0.0
 11
862.18743917632719
 21
-1312.07675138938
 31
0.0
  0
LINE
  5
E4E0
  8
01
  6
BYBLOCK
 10
862.18743917632719
 20
-1312.07675138938
 30
0.0
 11
859.58743917632717
 21
-1312.7734192833809
 31
0.0
  0
LINE
  5
E4E1
  8
01
  6
BYBLOCK
 10
862.18743917632719
 20
-1312.07675138938
 30
0.0
 11
859.58743917632717
 21
-1312.07675138938
 31
0.0
  0
LINE
  5
E4E2
  8
01
  6
BYBLOCK
 10
856.78766916632435
 20
-1312.7734192833809
 30
0.0
 11
854.18766916632444
 21
-1312.07675138938
 31
0.0
  0
LINE
  5
E4E3
  8
01
  6
BYBLOCK
 10
854.18766916632444
 20
-1312.07675138938
 30
0.0
 11
856.78766916632435
 21
-1311.3800834953811
 31
0.0
  0
LINE
  5
E4E4
  8
01
  6
BYBLOCK
 10
854.18766916632444
 20
-1312.07675138938
 30
0.0
 11
856.78766916632435
 21
-1312.07675138938
 31
0.0
  0
TEXT
  5
E4E5
  8
01
 10
798.85414305013137
 20
-1311.1667513893799
 30
0.0
 40
4.5499999999999989
  1
22
  0
LINE
  5
E4E6
  8
01
  6
BYBLOCK
 10
811.58766916632419
 20
-1311.3800834953811
 30
0.0
 11
814.18766916632433
 21
-1312.07675138938
 31
0.0
  0
LINE
  5
E4E7
  8
01
  6
BYBLOCK
 10
814.18766916632433
 20
-1312.07675138938
 30
0.0
 11
811.58766916632419
 21
-1312.7734192833809
 31
0.0
  0
LINE
  5
E4E8
  8
01
  6
BYBLOCK
 10
814.18766916632433
 20
-1312.07675138938
 30
0.0
 11
811.58766916632419
 21
-1312.07675138938
 31
0.0
  0
LINE
  5
E4E9
  8
01
  6
BYBLOCK
 10
794.78728360060484
 20
-1312.7734192833809
 30
0.0
 11
792.1872836006047
 21
-1312.07675138938
 31
0.0
  0
LINE
  5
E4EA
  8
01
  6
BYBLOCK
 10
792.1872836006047
 20
-1312.07675138938
 30
0.0
 11
794.78728360060484
 21
-1311.3800834953811
 31
0.0
  0
LINE
  5
E4EB
  8
01
  6
BYBLOCK
 10
792.1872836006047
 20
-1312.07675138938
 30
0.0
 11
794.78728360060484
 21
-1312.07675138938
 31
0.0
  0
TEXT
  5
E4EC
  8
01
 10
996.99433151052983
 20
-1334.1667513893799
 30
0.0
 40
4.5499999999999989
  1
\U+03C640
  0
LINE
  5
E4ED
  8
01
  6
BYBLOCK
 10
1021.586374659298
 20
-1334.3800834953799
 30
0.0
 11
1024.1863746592981
 21
-1335.0767513893809
 31
0.0
  0
LINE
  5
E4EE
  8
01
  6
BYBLOCK
 10
1024.1863746592981
 20
-1335.0767513893809
 30
0.0
 11
1021.586374659298
 21
-1335.7734192833809
 31
0.0
  0
LINE
  5
E4EF
  8
01
  6
BYBLOCK
 10
1024.1863746592981
 20
-1335.0767513893809
 30
0.0
 11
1021.586374659298
 21
-1335.0767513893809
 31
0.0
  0
LINE
  5
E4F0
  8
01
  6
BYBLOCK
 10
986.78895502842784
 20
-1335.7734192833809
 30
0.0
 11
984.18895502842781
 21
-1335.0767513893809
 31
0.0
  0
LINE
  5
E4F1
  8
01
  6
BYBLOCK
 10
984.18895502842781
 20
-1335.0767513893809
 30
0.0
 11
986.78895502842784
 21
-1334.3800834953799
 31
0.0
  0
LINE
  5
E4F2
  8
01
  6
BYBLOCK
 10
984.18895502842781
 20
-1335.0767513893809
 30
0.0
 11
986.78895502842784
 21
-1335.0767513893809
 31
0.0
  0
TEXT
  5
E4F3
  8
01
 10
656.99433983298911
 20
-1334.1667513893799
 30
0.0
 40
4.5499999999999989
  1
\U+03C640
  0
LINE
  5
E4F4
  8
01
  6
BYBLOCK
 10
681.58767316632236
 20
-1334.3800834953799
 30
0.0
 11
684.1876731663225
 21
-1335.0767513893809
 31
0.0
  0
LINE
  5
E4F5
  8
01
  6
BYBLOCK
 10
684.1876731663225
 20
-1335.0767513893809
 30
0.0
 11
681.58767316632236
 21
-1335.7734192833809
 31
0.0
  0
LINE
  5
E4F6
  8
01
  6
BYBLOCK
 10
684.1876731663225
 20
-1335.0767513893809
 30
0.0
 11
681.58767316632236
 21
-1335.0767513893809
 31
0.0
  0
LINE
  5
E4F7
  8
01
  6
BYBLOCK
 10
646.78767316632218
 20
-1335.7734192833809
 30
0.0
 11
644.18767316632227
 21
-1335.0767513893809
 31
0.0
  0
LINE
  5
E4F8
  8
01
  6
BYBLOCK
 10
644.18767316632227
 20
-1335.0767513893809
 30
0.0
 11
646.78767316632218
 21
-1334.3800834953799
 31
0.0
  0
LINE
  5
E4F9
  8
01
  6
BYBLOCK
 10
644.18767316632227
 20
-1335.0767513893809
 30
0.0
 11
646.78767316632218
 21
-1335.0767513893809
 31
0.0
  0
TEXT
  5
E4FA
  8
01
 10
630.27768516632455
 20
-1397.4100847227139
 30
0.0
 40
4.5499999999999989
  1
50
 50
90.0
  0
LINE
  5
E4FB
  8
01
  6
BYBLOCK
 10
630.49101727232437
 20
-1370.6767513893799
 30
0.0
 11
631.18768516632429
 21
-1368.0767513893809
 31
0.0
  0
LINE
  5
E4FC
  8
01
  6
BYBLOCK
 10
631.18768516632429
 20
-1368.0767513893809
 30
0.0
 11
631.88435306032443
 21
-1370.6767513893799
 31
0.0
  0
LINE
  5
E4FD
  8
01
  6
BYBLOCK
 10
631.18768516632429
 20
-1368.0767513893809
 30
0.0
 11
631.18768516632429
 21
-1370.6767513893799
 31
0.0
  0
LINE
  5
E4FE
  8
01
  6
BYBLOCK
 10
631.88435306032443
 20
-1415.476751389381
 30
0.0
 11
631.18768516632429
 21
-1418.0767513893809
 31
0.0
  0
LINE
  5
E4FF
  8
01
  6
BYBLOCK
 10
631.18768516632429
 20
-1418.0767513893809
 30
0.0
 11
630.49101727232437
 21
-1415.476751389381
 31
0.0
  0
LINE
  5
E500
  8
01
  6
BYBLOCK
 10
631.18768516632429
 20
-1418.0767513893809
 30
0.0
 11
631.18768516632429
 21
-1415.476751389381
 31
0.0
  0
TEXT
  5
E501
  8
01
 10
620.27768516632455
 20
-1397.9100847227139
 30
0.0
 40
4.5499999999999989
  1
55.5
 50
90.0
  0
LINE
  5
E502
  8
01
  6
BYBLOCK
 10
620.49101727232426
 20
-1365.1767513893799
 30
0.0
 11
621.1876851663244
 21
-1362.57675138938
 31
0.0
  0
LINE
  5
E503
  8
01
  6
BYBLOCK
 10
621.1876851663244
 20
-1362.57675138938
 30
0.0
 11
621.88435306032443
 21
-1365.1767513893799
 31
0.0
  0
LINE
  5
E504
  8
01
  6
BYBLOCK
 10
621.1876851663244
 20
-1362.57675138938
 30
0.0
 11
621.1876851663244
 21
-1365.1767513893799
 31
0.0
  0
LINE
  5
E505
  8
01
  6
BYBLOCK
 10
621.88435306032443
 20
-1415.476751389381
 30
0.0
 11
621.1876851663244
 21
-1418.0767513893809
 31
0.0
  0
LINE
  5
E506
  8
01
  6
BYBLOCK
 10
621.1876851663244
 20
-1418.0767513893809
 30
0.0
 11
620.49101727232426
 21
-1415.476751389381
 31
0.0
  0
LINE
  5
E507
  8
01
  6
BYBLOCK
 10
621.1876851663244
 20
-1418.0767513893809
 30
0.0
 11
621.1876851663244
 21
-1415.476751389381
 31
0.0
  0
TEXT
  5
E508
  8
01
 10
877.7812602028813
 20
-1386.196364042399
 30
0.0
 40
4.5499999999999989
  1
114
 50
90.0
  0
LINE
  5
E509
  8
01
  6
BYBLOCK
 10
879.38792809688107
 20
-1451.476751389381
 30
0.0
 11
878.69126020288093
 21
-1454.07675138938
 31
0.0
  0
LINE
  5
E50A
  8
01
  6
BYBLOCK
 10
878.69126020288093
 20
-1454.07675138938
 30
0.0
 11
877.99459230888101
 21
-1451.476751389381
 31
0.0
  0
LINE
  5
E50B
  8
01
  6
BYBLOCK
 10
878.69126020288093
 20
-1454.07675138938
 30
0.0
 11
878.69126020288093
 21
-1451.476751389381
 31
0.0
  0
LINE
  5
E50C
  8
01
  6
BYBLOCK
 10
877.99459230888101
 20
-1342.6767513893799
 30
0.0
 11
878.69126020288093
 21
-1340.07675138938
 31
0.0
  0
LINE
  5
E50D
  8
01
  6
BYBLOCK
 10
878.69126020288093
 20
-1340.07675138938
 30
0.0
 11
879.38792809688107
 21
-1342.6767513893799
 31
0.0
  0
LINE
  5
E50E
  8
01
  6
BYBLOCK
 10
878.69126020288093
 20
-1340.07675138938
 30
0.0
 11
878.69126020288093
 21
-1342.6767513893799
 31
0.0
  0
TEXT
  5
E50F
  8
01
 10
893.27766916632436
 20
-1386.0880307090661
 30
0.0
 40
4.5499999999999989
  1
130
 50
90.0
  0
LINE
  5
E510
  8
01
  6
BYBLOCK
 10
894.88433706032424
 20
-1459.476751389381
 30
0.0
 11
894.18766916632421
 21
-1462.07675138938
 31
0.0
  0
LINE
  5
E511
  8
01
  6
BYBLOCK
 10
894.18766916632421
 20
-1462.07675138938
 30
0.0
 11
893.49100127232407
 21
-1459.476751389381
 31
0.0
  0
LINE
  5
E512
  8
01
  6
BYBLOCK
 10
894.18766916632421
 20
-1462.07675138938
 30
0.0
 11
894.18766916632421
 21
-1459.476751389381
 31
0.0
  0
LINE
  5
E513
  8
01
  6
BYBLOCK
 10
893.49100127232407
 20
-1334.6767513893799
 30
0.0
 11
894.18766916632421
 21
-1332.07675138938
 31
0.0
  0
LINE
  5
E514
  8
01
  6
BYBLOCK
 10
894.18766916632421
 20
-1332.07675138938
 30
0.0
 11
894.88433706032424
 21
-1334.6767513893799
 31
0.0
  0
LINE
  5
E515
  8
01
  6
BYBLOCK
 10
894.18766916632421
 20
-1332.07675138938
 30
0.0
 11
894.18766916632421
 21
-1334.6767513893799
 31
0.0
  0
TEXT
  5
E516
  8
01
 10
968.2776651663246
 20
-1426.6098306848689
 30
0.0
 40
4.5499999999999989
  1
\U+03C650
 50
90.0
  0
LINE
  5
E517
  8
01
  6
BYBLOCK
 10
969.88433306032437
 20
-1440.4767513893801
 30
0.0
 11
969.18766516632445
 21
-1443.07675138938
 31
0.0
  0
LINE
  5
E518
  8
01
  6
BYBLOCK
 10
969.18766516632445
 20
-1443.07675138938
 30
0.0
 11
968.49099727232453
 21
-1440.4767513893801
 31
0.0
  0
LINE
  5
E519
  8
01
  6
BYBLOCK
 10
969.18766516632445
 20
-1443.07675138938
 30
0.0
 11
969.18766516632445
 21
-1440.4767513893801
 31
0.0
  0
LINE
  5
E51A
  8
01
  6
BYBLOCK
 10
968.49099727232453
 20
-1395.676751389381
 30
0.0
 11
969.18766516632445
 21
-1393.07675138938
 31
0.0
  0
LINE
  5
E51B
  8
01
  6
BYBLOCK
 10
969.18766516632445
 20
-1393.07675138938
 30
0.0
 11
969.88433306032437
 21
-1395.676751389381
 31
0.0
  0
LINE
  5
E51C
  8
01
  6
BYBLOCK
 10
969.18766516632445
 20
-1393.07675138938
 30
0.0
 11
969.18766516632445
 21
-1395.676751389381
 31
0.0
  0
TEXT
  5
E51D
  8
01
 10
1057.362781506069
 20
-1246.666751390409
 30
0.0
 40
4.5499999999999989
  1
120
  0
LINE
  5
E51E
  8
01
  6
BYBLOCK
 10
1121.5877815060689
 20
-1246.880083496409
 30
0.0
 11
1124.1877815060691
 21
-1247.5767513904091
 31
0.0
  0
LINE
  5
E51F
  8
01
  6
BYBLOCK
 10
1124.1877815060691
 20
-1247.5767513904091
 30
0.0
 11
1121.5877815060689
 21
-1248.2734192844091
 31
0.0
  0
LINE
  5
E520
  8
01
  6
BYBLOCK
 10
1124.1877815060691
 20
-1247.5767513904091
 30
0.0
 11
1121.5877815060689
 21
-1247.5767513904091
 31
0.0
  0
LINE
  5
E521
  8
01
  6
BYBLOCK
 10
1006.787781506069
 20
-1248.2734192844091
 30
0.0
 11
1004.187781506069
 21
-1247.5767513904091
 31
0.0
  0
LINE
  5
E522
  8
01
  6
BYBLOCK
 10
1004.187781506069
 20
-1247.5767513904091
 30
0.0
 11
1006.787781506069
 21
-1246.880083496409
 31
0.0
  0
LINE
  5
E523
  8
01
  6
BYBLOCK
 10
1004.187781506069
 20
-1247.5767513904091
 30
0.0
 11
1006.787781506069
 21
-1247.5767513904091
 31
0.0
  0
TEXT
  5
E524
  8
01
 10
1044.362781506069
 20
-1256.666751390409
 30
0.0
 40
4.5499999999999989
  1
146
  0
LINE
  5
E525
  8
01
  6
BYBLOCK
 10
1121.5877815060689
 20
-1256.880083496409
 30
0.0
 11
1124.1877815060691
 21
-1257.5767513904091
 31
0.0
  0
LINE
  5
E526
  8
01
  6
BYBLOCK
 10
1124.1877815060691
 20
-1257.5767513904091
 30
0.0
 11
1121.5877815060689
 21
-1258.2734192844091
 31
0.0
  0
LINE
  5
E527
  8
01
  6
BYBLOCK
 10
1124.1877815060691
 20
-1257.5767513904091
 30
0.0
 11
1121.5877815060689
 21
-1257.5767513904091
 31
0.0
  0
LINE
  5
E528
  8
01
  6
BYBLOCK
 10
980.78778150606945
 20
-1258.2734192844091
 30
0.0
 11
978.18778150606943
 21
-1257.5767513904091
 31
0.0
  0
LINE
  5
E529
  8
01
  6
BYBLOCK
 10
978.18778150606943
 20
-1257.5767513904091
 30
0.0
 11
980.78778150606945
 21
-1256.880083496409
 31
0.0
  0
LINE
  5
E52A
  8
01
  6
BYBLOCK
 10
978.18778150606943
 20
-1257.5767513904091
 30
0.0
 11
980.78778150606945
 21
-1257.5767513904091
 31
0.0
  0
TEXT
  5
E52B
  8
01
 10
1138.277781506069
 20
-1196.9100847237421
 30
0.0
 40
4.5499999999999989
  1
42.5
 50
90.0
  0
LINE
  5
E52C
  8
01
  6
BYBLOCK
 10
1139.8844494000689
 20
-1207.9767513904089
 30
0.0
 11
1139.1877815060691
 21
-1210.5767513904091
 31
0.0
  0
LINE
  5
E52D
  8
01
  6
BYBLOCK
 10
1139.1877815060691
 20
-1210.5767513904091
 30
0.0
 11
1138.4911136120691
 21
-1207.9767513904089
 31
0.0
  0
LINE
  5
E52E
  8
01
  6
BYBLOCK
 10
1139.1877815060691
 20
-1210.5767513904091
 30
0.0
 11
1139.1877815060691
 21
-1207.9767513904089
 31
0.0
  0
LINE
  5
E52F
  8
01
  6
BYBLOCK
 10
1138.4911136120691
 20
-1170.676751390409
 30
0.0
 11
1139.1877815060691
 21
-1168.0767513904091
 31
0.0
  0
LINE
  5
E530
  8
01
  6
BYBLOCK
 10
1139.1877815060691
 20
-1168.0767513904091
 30
0.0
 11
1139.8844494000689
 21
-1170.676751390409
 31
0.0
  0
LINE
  5
E531
  8
01
  6
BYBLOCK
 10
1139.1877815060691
 20
-1168.0767513904091
 30
0.0
 11
1139.1877815060691
 21
-1170.676751390409
 31
0.0
  0
TEXT
  5
E532
  8
01
 10
1148.277781506069
 20
-1208.0184180570759
 30
0.0
 40
4.5499999999999989
  1
64.5
 50
90.0
  0
LINE
  5
E533
  8
01
  6
BYBLOCK
 10
1149.8844494000689
 20
-1229.9767513904089
 30
0.0
 11
1149.1877815060691
 21
-1232.5767513904091
 31
0.0
  0
LINE
  5
E534
  8
01
  6
BYBLOCK
 10
1149.1877815060691
 20
-1232.5767513904091
 30
0.0
 11
1148.4911136120691
 21
-1229.9767513904089
 31
0.0
  0
LINE
  5
E535
  8
01
  6
BYBLOCK
 10
1149.1877815060691
 20
-1232.5767513904091
 30
0.0
 11
1149.1877815060691
 21
-1229.9767513904089
 31
0.0
  0
LINE
  5
E536
  8
01
  6
BYBLOCK
 10
1148.4911136120691
 20
-1170.676751390409
 30
0.0
 11
1149.1877815060691
 21
-1168.0767513904091
 31
0.0
  0
LINE
  5
E537
  8
01
  6
BYBLOCK
 10
1149.1877815060691
 20
-1168.0767513904091
 30
0.0
 11
1149.8844494000689
 21
-1170.676751390409
 31
0.0
  0
LINE
  5
E538
  8
01
  6
BYBLOCK
 10
1149.1877815060691
 20
-1168.0767513904091
 30
0.0
 11
1149.1877815060691
 21
-1170.676751390409
 31
0.0
  0
TEXT
  5
E539
  8
01
 10
1138.2776651663251
 20
-1422.735083532714
 30
0.0
 40
4.5499999999999989
  1
10
 50
90.0
  0
LINE
  5
E53A
  8
01
  6
BYBLOCK
 10
1139.884333060324
 20
-1420.4767493093809
 30
0.0
 11
1139.1876651663249
 21
-1423.0767493093799
 31
0.0
  0
LINE
  5
E53B
  8
01
  6
BYBLOCK
 10
1139.1876651663249
 20
-1423.0767493093799
 30
0.0
 11
1138.490997272324
 21
-1420.4767493093809
 31
0.0
  0
LINE
  5
E53C
  8
01
  6
BYBLOCK
 10
1139.1876651663249
 20
-1423.0767493093799
 30
0.0
 11
1139.1876651663249
 21
-1420.4767493093809
 31
0.0
  0
LINE
  5
E53D
  8
01
  6
BYBLOCK
 10
1138.490997272324
 20
-1415.676751089381
 30
0.0
 11
1139.1876651663249
 21
-1413.0767510893811
 31
0.0
  0
LINE
  5
E53E
  8
01
  6
BYBLOCK
 10
1139.1876651663249
 20
-1413.0767510893811
 30
0.0
 11
1139.884333060324
 21
-1415.676751089381
 31
0.0
  0
LINE
  5
E53F
  8
01
  6
BYBLOCK
 10
1139.1876651663249
 20
-1413.0767510893811
 30
0.0
 11
1139.1876651663249
 21
-1415.676751089381
 31
0.0
  0
TEXT
  5
E540
  8
01
 10
1048.2776651663251
 20
-1404.4100847227139
 30
0.0
 40
4.5499999999999989
  1
74.5
 50
90.0
  0
LINE
  5
E541
  8
01
  6
BYBLOCK
 10
1049.884333060324
 20
-1431.476751389381
 30
0.0
 11
1049.1876651663249
 21
-1434.0767513893809
 31
0.0
  0
LINE
  5
E542
  8
01
  6
BYBLOCK
 10
1049.1876651663249
 20
-1434.0767513893809
 30
0.0
 11
1048.490997272324
 21
-1431.476751389381
 31
0.0
  0
LINE
  5
E543
  8
01
  6
BYBLOCK
 10
1049.1876651663249
 20
-1434.0767513893809
 30
0.0
 11
1049.1876651663249
 21
-1431.476751389381
 31
0.0
  0
LINE
  5
E544
  8
01
  6
BYBLOCK
 10
1048.490997272324
 20
-1362.1767513893799
 30
0.0
 11
1049.1876651663249
 21
-1359.57675138938
 31
0.0
  0
LINE
  5
E545
  8
01
  6
BYBLOCK
 10
1049.1876651663249
 20
-1359.57675138938
 30
0.0
 11
1049.884333060324
 21
-1362.1767513893799
 31
0.0
  0
LINE
  5
E546
  8
01
  6
BYBLOCK
 10
1049.1876651663249
 20
-1359.57675138938
 30
0.0
 11
1049.1876651663249
 21
-1362.1767513893799
 31
0.0
  0
LINE
  5
E547
  8
01
 10
1001.876728294392
 20
-1187.5726625489849
 30
0.0
 11
976.94082625934129
 21
-1206.9867513904089
 31
0.0
1001
ACAD
1000
DSTYLE
1002
{
1070
    40
1040
1.3
1002
}
  0
LINE
  5
E548
  8
01
 10
976.94082625934129
 20
-1206.9867513904089
 30
0.0
 11
973.43082625934142
 21
-1206.9867513904089
 31
0.0
1001
ACAD
1000
DSTYLE
1002
{
1070
    40
1040
1.3
1002
}
  0
TEXT
  5
E549
  8
01
 10
1043.1389401080969
 20
-1155.6600847237421
 30
0.0
 40
4.5499999999999989
  1
20.5
 50
90.0
  0
LINE
  5
E54A
  8
01
  6
BYBLOCK
 10
1044.7456080020979
 20
-1155.7267513904089
 30
0.0
 11
1044.0489401080979
 21
-1158.3267513904091
 31
0.0
  0
LINE
  5
E54B
  8
01
  6
BYBLOCK
 10
1044.0489401080979
 20
-1158.3267513904091
 30
0.0
 11
1043.352272214097
 21
-1155.7267513904089
 31
0.0
  0
LINE
  5
E54C
  8
01
  6
BYBLOCK
 10
1044.0489401080979
 20
-1158.3267513904091
 30
0.0
 11
1044.0489401080979
 21
-1155.7267513904089
 31
0.0
  0
LINE
  5
E54D
  8
01
  6
BYBLOCK
 10
1043.352272214097
 20
-1140.426751390409
 30
0.0
 11
1044.0489401080979
 21
-1137.8267513904091
 31
0.0
  0
LINE
  5
E54E
  8
01
  6
BYBLOCK
 10
1044.0489401080979
 20
-1137.8267513904091
 30
0.0
 11
1044.7456080020979
 21
-1140.426751390409
 31
0.0
  0
LINE
  5
E54F
  8
01
  6
BYBLOCK
 10
1044.0489401080979
 20
-1137.8267513904091
 30
0.0
 11
1044.0489401080979
 21
-1140.426751390409
 31
0.0
  0
LINE
  5
E550
  8
01
 10
1037.933165083133
 20
-1211.1254271956379
 30
0.0
 11
1049.5498844115259
 21
-1197.5092701929109
 31
0.0
1001
ACAD
1000
DSTYLE
1002
{
1070
    40
1040
1.3
1002
}
  0
LINE
  5
E551
  8
01
 10
1049.5498844115259
 20
-1197.5092701929109
 30
0.0
 11
1053.059884411525
 21
-1197.5092701929109
 31
0.0
1001
ACAD
1000
DSTYLE
1002
{
1070
    40
1040
1.3
1002
}
  0
VIEWPORT
  5
57
 67
     1
  8
0
 10
10.301416158199199
 20
17.565658765306811
 30
0.0
 40
436.77985297763468
 41
283.71363901379101
 68
     1
 69
     1
1001
ACAD
1000
MVIEW
1002
{
1070
    16
1010
0.0
1020
0.0
1030
0.0
1010
0.0
1020
0.0
1030
1.0
1040
0.0
1040
283.71363901379101
1040
10.301416158199199
1040
17.565658765306811
1040
50.0
1040
0.0
1040
0.0
1070
     0
1070
   100
1070
     1
1070
     1
1070
     0
1070
     0
1070
     0
1070
     0
1040
0.0
1040
0.0
1040
0.0
1040
10.0
1040
10.0
1040
10.0
1040
10.0
1070
     0
1002
{
1002
}
1002
}
  0
ENDSEC
  0
EOF
