  0
SECTION
  2
HEADER
  9
$ACADVER
  1
AC1009
  9
$INSBASE
 10
0.0
 20
0.0
 30
0.0
  9
$EXTMIN
 10
539.18767316632409
 20
-1468.070021597744
 30
-0.0000000000001137
  9
$EXTMAX
 10
1155.48778150607
 20
-1062.234081598772
 30
0.0000000000562575
  9
$LIMMIN
 10
0.0
 20
0.0
  9
$LIMMAX
 10
420.0
 20
297.0
  9
$ORTHOMODE
 70
     0
  9
$REGENMODE
 70
     1
  9
$FILLMODE
 70
     1
  9
$QTEXTMODE
 70
     0
  9
$MIRRTEXT
 70
     0
  9
$DRAGMODE
 70
     2
  9
$LTSCALE
 40
0.5
  9
$OSMODE
 70
  2175
  9
$ATTMODE
 70
     1
  9
$TEXTSIZE
 40
4.0
  9
$TRACEWID
 40
1.0
  9
$TEXTSTYLE
  7
STANDARD
  9
$CLAYER
  8
1TEXT
  9
$CELTYPE
  6
BYLAYER
  9
$CECOLOR
 62
   256
  9
$DIMSCALE
 40
1.0
  9
$DIMASZ
 40
2.0
  9
$DIMEXO
 40
0.0
  9
$DIMDLI
 40
7.0
  9
$DIMRND
 40
0.0
  9
$DIMDLE
 40
0.0
  9
$DIMEXE
 40
1.0
  9
$DIMTP
 40
0.0
  9
$DIMTM
 40
0.0
  9
$DIMTXT
 40
3.5
  9
$DIMCEN
 40
0.0
  9
$DIMTSZ
 40
0.0
  9
$DIMTOL
 70
     0
  9
$DIMLIM
 70
     0
  9
$DIMTIH
 70
     0
  9
$DIMTOH
 70
     0
  9
$DIMSE1
 70
     0
  9
$DIMSE2
 70
     0
  9
$DIMTAD
 70
     1
  9
$DIMZIN
 70
     8
  9
$DIMBLK
  1

  9
$DIMASO
 70
     1
  9
$DIMSHO
 70
     1
  9
$DIMPOST
  1
 
  9
$DIMAPOST
  1

  9
$DIMALT
 70
     0
  9
$DIMALTD
 70
     2
  9
$DIMALTF
 40
25.399999999999999
  9
$DIMLFAC
 40
1.0
  9
$DIMTOFL
 70
     1
  9
$DIMTVP
 40
0.0
  9
$DIMTIX
 70
     0
  9
$DIMSOXD
 70
     0
  9
$DIMSAH
 70
     1
  9
$DIMBLK1
  1
OPEN30
  9
$DIMBLK2
  1
OPEN30
  9
$DIMSTYLE
  2
NEWX10
  9
$DIMCLRD
 70
   256
  9
$DIMCLRE
 70
   256
  9
$DIMCLRT
 70
   201
  9
$DIMTFAC
 40
0.7
  9
$DIMGAP
 40
0.7
  9
$LUNITS
 70
     2
  9
$LUPREC
 70
     4
  9
$SKETCHINC
 40
1.0
  9
$FILLETRAD
 40
0.0
  9
$AUNITS
 70
     0
  9
$AUPREC
 70
     2
  9
$MENU
  1
acad
  9
$ELEVATION
 40
0.0
  9
$PELEVATION
 40
0.0
  9
$THICKNESS
 40
0.0
  9
$LIMCHECK
 70
     0
  9
$BLIPMODE
 70
     0
  9
$CHAMFERA
 40
10.0
  9
$CHAMFERB
 40
10.0
  9
$SKPOLY
 70
     0
  9
$TDCREATE
 40
2451318.621352917
  9
$TDUPDATE
 40
2456015.822382269
  9
$TDINDWG
 40
0.6410722801
  9
$TDUSRTIMER
 40
0.6410722801
  9
$USRTIMER
 70
     1
  9
$ANGBASE
 50
0.0
  9
$ANGDIR
 70
     0
  9
$PDMODE
 70
     0
  9
$PDSIZE
 40
0.0
  9
$PLINEWID
 40
0.0
  9
$COORDS
 70
     2
  9
$SPLFRAME
 70
     0
  9
$SPLINETYPE
 70
     6
  9
$SPLINESEGS
 70
     8
  9
$ATTDIA
 70
     0
  9
$ATTREQ
 70
     1
  9
$HANDLING
 70
     1
  9
$HANDSEED
  5
DE05
  9
$SURFTAB1
 70
     6
  9
$SURFTAB2
 70
     6
  9
$SURFTYPE
 70
     6
  9
$SURFU
 70
     6
  9
$SURFV
 70
     6
  9
$UCSNAME
  2

  9
$UCSORG
 10
0.0
 20
0.0
 30
0.0
  9
$UCSXDIR
 10
1.0
 20
0.0
 30
0.0
  9
$UCSYDIR
 10
0.0
 20
1.0
 30
0.0
  9
$PUCSNAME
  2

  9
$PUCSORG
 10
0.0
 20
0.0
 30
0.0
  9
$PUCSXDIR
 10
1.0
 20
0.0
 30
0.0
  9
$PUCSYDIR
 10
0.0
 20
1.0
 30
0.0
  9
$USERI1
 70
     0
  9
$USERI2
 70
     0
  9
$USERI3
 70
     0
  9
$USERI4
 70
     0
  9
$USERI5
 70
     0
  9
$USERR1
 40
0.0
  9
$USERR2
 40
0.0
  9
$USERR3
 40
0.0
  9
$USERR4
 40
0.0
  9
$USERR5
 40
0.0
  9
$WORLDVIEW
 70
     1
  9
$SHADEDGE
 70
     3
  9
$SHADEDIF
 70
    70
  9
$TILEMODE
 70
     1
  9
$MAXACTVP
 70
    48
  9
$PLIMCHECK
 70
     0
  9
$PEXTMIN
 10
1.0000000000000000E+020
 20
1.0000000000000000E+020
 30
1.0000000000000000E+020
  9
$PEXTMAX
 10
-1.0000000000000000E+020
 20
-1.0000000000000000E+020
 30
-1.0000000000000000E+020
  9
$PLIMMIN
 10
0.0
 20
0.0
  9
$PLIMMAX
 10
420.0
 20
297.0
  9
$UNITMODE
 70
     0
  9
$VISRETAIN
 70
     1
  9
$PLINEGEN
 70
     0
  9
$PSLTSCALE
 70
     1
  0
ENDSEC
  0
SECTION
  2
TABLES
  0
TABLE
  2
VPORT
 70
     1
  0
VPORT
  2
*ACTIVE
 70
     0
 10
0.0
 20
0.0
 11
1.0
 21
1.0
 12
847.32714844512543
 22
-1265.1176692230169
 13
0.0
 23
0.0
 14
10.0
 24
10.0
 15
10.0
 25
10.0
 16
0.0
 26
0.0
 36
1.0
 17
0.0
 27
0.0
 37
0.0
 40
430.87033160110832
 41
1.5395095367847409
 42
50.0
 43
0.0
 44
0.0
 50
0.0
 51
0.0
 71
     0
 72
   100
 73
     1
 74
     1
 75
     0
 76
     0
 77
     0
 78
     0
  0
ENDTAB
  0
TABLE
  2
LTYPE
 70
    12
  0
LTYPE
  2
CONTINUOUS
 70
     0
  3
Solid line
 72
    65
 73
     0
 40
0.0
  0
LTYPE
  2
XREF1|CENTER2
 70
    48
  3
Center (.5x) ___ _ ___ _ ___ _ ___ _ ___ _ ___
 72
    65
 73
     4
 40
28.574999999999999
 49
19.050000000000001
 49
-3.1749999999999989
 49
3.1749999999999989
 49
-3.1749999999999989
  0
LTYPE
  2
A3WAKUDAKE|CENTER2
 70
    48
  3
Center (.5x) ___ _ ___ _ ___ _ ___ _ ___ _ ___
 72
    65
 73
     4
 40
28.574999999999999
 49
19.050000000000001
 49
-3.1749999999999989
 49
3.1749999999999989
 49
-3.1749999999999989
  0
ENDTAB
  0
TABLE
  2
LAYER
 70
    36
  0
LAYER
  2
0
 70
     0
 62
     7
  6
CONTINUOUS
  0
LAYER
  2
1TEXT
 70
     0
 62
     7
  6
CONTINUOUS
  0
LAYER
  2
01
 70
     0
 62
     1
  6
CONTINUOUS
  0
LAYER
  2
A3WAKUDAKE|THICK
 70
    48
 62
     7
  6
CONTINUOUS
  0
LAYER
  2
A3WAKUDAKE|POINT
 70
    48
 62
     7
  6
CONTINUOUS
  0
LAYER
  2
A3WAKUDAKE|1CENTER
 70
    48
 62
     7
  6
A3WAKUDAKE|CENTER2
  0
LAYER
  2
A3WAKUDAKE|0-6
 70
    48
 62
     7
  6
CONTINUOUS
  0
LAYER
  2
A3WAKUDAKE|1DIM
 70
    48
 62
     7
  6
CONTINUOUS
  0
LAYER
  2
XREF1|1CENTER
 70
    48
 62
     7
  6
XREF1|CENTER2
  0
ENDTAB
  0
TABLE
  2
STYLE
 70
     4
  0
STYLE
  2
STANDARD
 70
     0
 40
0.0
 41
1.0
 50
0.0
 71
     0
 42
4.0
  3
romans.shx
  4
extfont2.shx
  0
ENDTAB
  0
TABLE
  2
VIEW
 70
     5
  0
ENDTAB
  0
TABLE
  2
UCS
 70
     0
  0
ENDTAB
  0
TABLE
  2
APPID
 70
     9
  0
APPID
  2
ACAD
 70
     0
  0
APPID
  2
DRAWINGVARIABLESXDATA
 70
     0
  0
APPID
  2
CONTENTTABDATA
 70
     0
  0
APPID
  2
CONTENTCURRENTTAB
 70
     0
  0
APPID
  2
CONTENTBLOCKDESCRIPTION
 70
     0
  0
APPID
  2
CONTENTBLOCKICON
 70
     0
  0
APPID
  2
CONTENTLONGBLOCKNAME
 70
     0
  0
APPID
  2
ACAD_PSEXT
 70
     0
  0
APPID
  2
ACAD_MLEADERVER
 70
     0
  0
ENDTAB
  0
TABLE
  2
DIMSTYLE
 70
     5
  0
DIMSTYLE
  2
NEWX10
 70
     0
  3
 
  4

  5

  6
OPEN30
  7
OPEN30
 40
1.0
 41
2.0
 42
0.0
 43
7.0
 44
1.0
 45
0.0
 46
0.0
 47
0.0
 48
0.0
140
3.5
141
0.0
142
0.0
143
25.399999999999999
144
1.0
145
0.0
146
0.7
147
0.7
 71
     0
 72
     0
 73
     0
 74
     0
 75
     0
 76
     0
 77
     1
 78
     8
170
     0
171
     2
172
     1
173
     1
174
     0
175
     0
176
   256
177
   256
178
   201
  0
ENDTAB
  0
ENDSEC
  0
SECTION
  2
BLOCKS
  0
BLOCK
  8
0
  2
$MODEL_SPACE
 70
     0
 10
0.0
 20
0.0
 30
0.0
  3
$MODEL_SPACE
  1

  0
ENDBLK
  5
1A
  8
0
  0
BLOCK
 67
     1
  8
0
  2
$PAPER_SPACE
 70
     0
 10
0.0
 20
0.0
 30
0.0
  3
$PAPER_SPACE
  1

  0
ENDBLK
  5
17
 67
     1
  8
0
  0
BLOCK
  8
0
  2
_OPEN30
 70
     0
 10
0.0
 20
0.0
 30
0.0
  3
_OPEN30
  1

  0
LINE
  5
44
  8
0
  6
BYBLOCK
 62
     0
 10
-1.0
 20
0.26794919
 30
0.0
 11
0.0
 21
0.0
 31
0.0
  0
LINE
  5
45
  8
0
  6
BYBLOCK
 62
     0
 10
0.0
 20
0.0
 30
0.0
 11
-1.0
 21
-0.26794919
 31
0.0
  0
LINE
  5
46
  8
0
  6
BYBLOCK
 62
     0
 10
0.0
 20
0.0
 30
0.0
 11
-1.0
 21
0.0
 31
0.0
  0
ENDBLK
  5
47
  8
0
  0
BLOCK
  8
0
  2
XREF1
 70
    36
 10
0.0
 20
0.0
 30
0.0
  3
XREF1
  1
D:\ACLT\FORMAT\KAWAJUN(9)図面用.dwg
  0
ENDBLK
  5
5D
  8
0
  0
BLOCK
  8
0
  2
A3WAKUDAKE
 70
    36
 10
0.0
 20
0.0
 30
0.0
  3
A3WAKUDAKE
  1
D:\ACLT\FORMAT\A3WAKUdake.dwg
  0
ENDBLK
  5
6A0
  8
0
  0
BLOCK
  8
0
  2
*U27
 70
     1
 10
0.0
 20
0.0
 30
0.0
  3
*U27
  1

  0
TEXT
  5
DCF4
  8
1TEXT
 62
   201
 10
1043.3489401080981
 20
-1145.567414932106
 30
0.0
 40
3.5
  1
20.5
 50
90.0
  0
ENDBLK
  5
DCF6
  8
0
  0
BLOCK
  8
0
  2
*U28
 70
     1
 10
0.0
 20
0.0
 30
0.0
  3
*U28
  1

  0
TEXT
  5
DCF8
  8
1TEXT
 62
   201
 10
3363.5793699269261
 20
-400.81741493210552
 30
0.0
 40
4.5499999999999989
  1
20.5
 50
90.0
  0
ENDBLK
  5
DCFA
  8
0
  0
ENDSEC
  0
SECTION
  2
ENTITIES
  0
LINE
  5
21EB
  8
01
 10
854.18766916632467
 20
-1320.7367015977429
 30
0.0
 11
854.18766916632467
 21
-1468.070021597744
 31
0.0
  0
LINE
  5
21EC
  8
01
 10
814.18766916632467
 20
-1320.7367015977429
 30
0.0
 11
814.18766916632467
 21
-1468.070021597744
 31
0.0
  0
LINE
  5
21ED
  8
01
 10
712.78767516632524
 20
-1327.2340815977441
 30
0.0
 11
712.78767516632524
 21
-1350.3340515977429
 31
0.0
  0
LINE
  5
21EE
  8
01
 10
711.18766916632478
 20
-1327.2340815977441
 30
0.0
 11
711.18766916632478
 21
-1350.2340815977441
 31
0.0
  0
LINE
  5
21EF
  8
01
 10
713.58767816632565
 20
-1327.2340815977441
 30
0.0
 11
713.58767816632565
 21
-1457.2340815977441
 31
0.0
  0
LINE
  5
21F0
  8
01
 10
715.18766916632478
 20
-1327.2340815977441
 30
0.0
 11
715.18766916632478
 21
-1457.2340815977441
 31
0.0
  0
LINE
  5
21F2
  8
01
 10
712.18766916632467
 20
-1429.2340815977441
 30
0.0
 11
683.39704587862275
 21
-1429.2340815977441
 31
0.0
  0
LINE
  5
21F3
  8
01
 10
646.18768516632485
 20
-1365.9827590917209
 30
0.0
 11
646.18768516632485
 21
-1395.884717574821
 31
0.0
  0
LINE
  5
21F4
  8
01
 10
721.18766916632285
 20
-1381.2340815977441
 30
0.0
 11
715.18766916632478
 21
-1381.2340815977441
 31
0.0
  0
LINE
  5
21F5
  8
01
 10
726.18766916632467
 20
-1386.2340815977441
 30
0.0
 11
716.18766916632467
 21
-1386.2340815977441
 31
0.0
  0
POLYLINE
  5
21F6
  8
01
 10
726.18766916632467
 20
-1384.8025015977439
 30
0.0
 66
     1
 70
     8
  0
VERTEX
  8
01
  5
DD01
 10
726.188
 20
-1384.80
 30
0.000000
  70
    32
  0
VERTEX
  8
01
  5
DD02
 10
726.186
 20
-1384.71
 30
0.000000
  70
    32
  0
VERTEX
  8
01
  5
DD03
 10
726.182
 20
-1384.63
 30
0.000000
  70
    32
  0
VERTEX
  8
01
  5
DD04
 10
726.174
 20
-1384.54
 30
0.000000
  70
    32
  0
VERTEX
  8
01
  5
DD05
 10
726.164
 20
-1384.45
 30
0.000000
  70
    32
  0
VERTEX
  8
01
  5
DD06
 10
726.150
 20
-1384.37
 30
0.000000
  70
    32
  0
VERTEX
  8
01
  5
DD07
 10
726.134
 20
-1384.28
 30
0.000000
  70
    32
  0
VERTEX
  8
01
  5
DD08
 10
726.114
 20
-1384.19
 30
0.000000
  70
    32
  0
VERTEX
  8
01
  5
DD09
 10
726.092
 20
-1384.11
 30
0.000000
  70
    32
  0
VERTEX
  8
01
  5
DD0A
 10
726.066
 20
-1384.02
 30
0.000000
  70
    32
  0
VERTEX
  8
01
  5
DD0B
 10
726.038
 20
-1383.94
 30
0.000000
  70
    32
  0
VERTEX
  8
01
  5
DD0C
 10
726.007
 20
-1383.85
 30
0.000000
  70
    32
  0
VERTEX
  8
01
  5
DD0D
 10
725.972
 20
-1383.77
 30
0.000000
  70
    32
  0
VERTEX
  8
01
  5
DD0E
 10
725.935
 20
-1383.68
 30
0.000000
  70
    32
  0
VERTEX
  8
01
  5
DD0F
 10
725.895
 20
-1383.60
 30
0.000000
  70
    32
  0
VERTEX
  8
01
  5
DD10
 10
725.853
 20
-1383.52
 30
0.000000
  70
    32
  0
VERTEX
  8
01
  5
DD11
 10
725.807
 20
-1383.44
 30
0.000000
  70
    32
  0
VERTEX
  8
01
  5
DD12
 10
725.759
 20
-1383.36
 30
0.000000
  70
    32
  0
VERTEX
  8
01
  5
DD13
 10
725.708
 20
-1383.28
 30
0.000000
  70
    32
  0
VERTEX
  8
01
  5
DD14
 10
725.654
 20
-1383.20
 30
0.000000
  70
    32
  0
VERTEX
  8
01
  5
DD15
 10
725.597
 20
-1383.12
 30
0.000000
  70
    32
  0
VERTEX
  8
01
  5
DD16
 10
725.538
 20
-1383.04
 30
0.000000
  70
    32
  0
VERTEX
  8
01
  5
DD17
 10
725.476
 20
-1382.97
 30
0.000000
  70
    32
  0
VERTEX
  8
01
  5
DD18
 10
725.412
 20
-1382.89
 30
0.000000
  70
    32
  0
VERTEX
  8
01
  5
DD19
 10
725.345
 20
-1382.82
 30
0.000000
  70
    32
  0
VERTEX
  8
01
  5
DD1A
 10
725.276
 20
-1382.75
 30
0.000000
  70
    32
  0
VERTEX
  8
01
  5
DD1B
 10
725.204
 20
-1382.68
 30
0.000000
  70
    32
  0
VERTEX
  8
01
  5
DD1C
 10
725.129
 20
-1382.61
 30
0.000000
  70
    32
  0
VERTEX
  8
01
  5
DD1D
 10
725.053
 20
-1382.54
 30
0.000000
  70
    32
  0
VERTEX
  8
01
  5
DD1E
 10
724.974
 20
-1382.47
 30
0.000000
  70
    32
  0
VERTEX
  8
01
  5
DD1F
 10
724.892
 20
-1382.41
 30
0.000000
  70
    32
  0
VERTEX
  8
01
  5
DD20
 10
724.809
 20
-1382.34
 30
0.000000
  70
    32
  0
VERTEX
  8
01
  5
DD21
 10
724.723
 20
-1382.28
 30
0.000000
  70
    32
  0
VERTEX
  8
01
  5
DD22
 10
724.635
 20
-1382.22
 30
0.000000
  70
    32
  0
VERTEX
  8
01
  5
DD23
 10
724.545
 20
-1382.16
 30
0.000000
  70
    32
  0
VERTEX
  8
01
  5
DD24
 10
724.454
 20
-1382.10
 30
0.000000
  70
    32
  0
VERTEX
  8
01
  5
DD25
 10
724.360
 20
-1382.04
 30
0.000000
  70
    32
  0
VERTEX
  8
01
  5
DD26
 10
724.264
 20
-1381.99
 30
0.000000
  70
    32
  0
VERTEX
  8
01
  5
DD27
 10
724.166
 20
-1381.94
 30
0.000000
  70
    32
  0
VERTEX
  8
01
  5
DD28
 10
724.067
 20
-1381.89
 30
0.000000
  70
    32
  0
VERTEX
  8
01
  5
DD29
 10
723.966
 20
-1381.84
 30
0.000000
  70
    32
  0
VERTEX
  8
01
  5
DD2A
 10
723.863
 20
-1381.79
 30
0.000000
  70
    32
  0
VERTEX
  8
01
  5
DD2B
 10
723.758
 20
-1381.74
 30
0.000000
  70
    32
  0
VERTEX
  8
01
  5
DD2C
 10
723.652
 20
-1381.70
 30
0.000000
  70
    32
  0
VERTEX
  8
01
  5
DD2D
 10
723.545
 20
-1381.66
 30
0.000000
  70
    32
  0
VERTEX
  8
01
  5
DD2E
 10
723.436
 20
-1381.62
 30
0.000000
  70
    32
  0
VERTEX
  8
01
  5
DD2F
 10
723.325
 20
-1381.58
 30
0.000000
  70
    32
  0
VERTEX
  8
01
  5
DD30
 10
723.214
 20
-1381.54
 30
0.000000
  70
    32
  0
VERTEX
  8
01
  5
DD31
 10
723.101
 20
-1381.51
 30
0.000000
  70
    32
  0
VERTEX
  8
01
  5
DD32
 10
722.987
 20
-1381.47
 30
0.000000
  70
    32
  0
VERTEX
  8
01
  5
DD33
 10
722.872
 20
-1381.44
 30
0.000000
  70
    32
  0
VERTEX
  8
01
  5
DD34
 10
722.756
 20
-1381.41
 30
0.000000
  70
    32
  0
VERTEX
  8
01
  5
DD35
 10
722.639
 20
-1381.39
 30
0.000000
  70
    32
  0
VERTEX
  8
01
  5
DD36
 10
722.521
 20
-1381.36
 30
0.000000
  70
    32
  0
VERTEX
  8
01
  5
DD37
 10
722.403
 20
-1381.34
 30
0.000000
  70
    32
  0
VERTEX
  8
01
  5
DD38
 10
722.283
 20
-1381.32
 30
0.000000
  70
    32
  0
VERTEX
  8
01
  5
DD39
 10
722.163
 20
-1381.30
 30
0.000000
  70
    32
  0
VERTEX
  8
01
  5
DD3A
 10
722.042
 20
-1381.29
 30
0.000000
  70
    32
  0
VERTEX
  8
01
  5
DD3B
 10
721.921
 20
-1381.27
 30
0.000000
  70
    32
  0
VERTEX
  8
01
  5
DD3C
 10
721.800
 20
-1381.26
 30
0.000000
  70
    32
  0
VERTEX
  8
01
  5
DD3D
 10
721.678
 20
-1381.25
 30
0.000000
  70
    32
  0
VERTEX
  8
01
  5
DD3E
 10
721.555
 20
-1381.24
 30
0.000000
  70
    32
  0
VERTEX
  8
01
  5
DD3F
 10
721.433
 20
-1381.24
 30
0.000000
  70
    32
  0
VERTEX
  8
01
  5
DD40
 10
721.310
 20
-1381.24
 30
0.000000
  70
    32
  0
VERTEX
  8
01
  5
DD41
 10
721.188
 20
-1381.23
 30
0.000000
  70
    32
  0
VERTEX
  8
01
  5
DD42
 10
721.065
 20
-1381.24
 30
0.000000
  70
    32
  0
VERTEX
  8
01
  5
DD43
 10
720.942
 20
-1381.24
 30
0.000000
  70
    32
  0
VERTEX
  8
01
  5
DD44
 10
720.820
 20
-1381.24
 30
0.000000
  70
    32
  0
VERTEX
  8
01
  5
DD45
 10
720.698
 20
-1381.25
 30
0.000000
  70
    32
  0
VERTEX
  8
01
  5
DD46
 10
720.576
 20
-1381.26
 30
0.000000
  70
    32
  0
VERTEX
  8
01
  5
DD47
 10
720.454
 20
-1381.27
 30
0.000000
  70
    32
  0
VERTEX
  8
01
  5
DD48
 10
720.333
 20
-1381.29
 30
0.000000
  70
    32
  0
VERTEX
  8
01
  5
DD49
 10
720.212
 20
-1381.30
 30
0.000000
  70
    32
  0
VERTEX
  8
01
  5
DD4A
 10
720.092
 20
-1381.32
 30
0.000000
  70
    32
  0
VERTEX
  8
01
  5
DD4B
 10
719.973
 20
-1381.34
 30
0.000000
  70
    32
  0
VERTEX
  8
01
  5
DD4C
 10
719.854
 20
-1381.36
 30
0.000000
  70
    32
  0
VERTEX
  8
01
  5
DD4D
 10
719.736
 20
-1381.39
 30
0.000000
  70
    32
  0
VERTEX
  8
01
  5
DD4E
 10
719.619
 20
-1381.41
 30
0.000000
  70
    32
  0
VERTEX
  8
01
  5
DD4F
 10
719.503
 20
-1381.44
 30
0.000000
  70
    32
  0
VERTEX
  8
01
  5
DD50
 10
719.388
 20
-1381.47
 30
0.000000
  70
    32
  0
VERTEX
  8
01
  5
DD51
 10
719.274
 20
-1381.51
 30
0.000000
  70
    32
  0
VERTEX
  8
01
  5
DD52
 10
719.161
 20
-1381.54
 30
0.000000
  70
    32
  0
VERTEX
  8
01
  5
DD53
 10
719.050
 20
-1381.58
 30
0.000000
  70
    32
  0
VERTEX
  8
01
  5
DD54
 10
718.940
 20
-1381.62
 30
0.000000
  70
    32
  0
VERTEX
  8
01
  5
DD55
 10
718.831
 20
-1381.66
 30
0.000000
  70
    32
  0
VERTEX
  8
01
  5
DD56
 10
718.723
 20
-1381.70
 30
0.000000
  70
    32
  0
VERTEX
  8
01
  5
DD57
 10
718.617
 20
-1381.74
 30
0.000000
  70
    32
  0
VERTEX
  8
01
  5
DD58
 10
718.513
 20
-1381.79
 30
0.000000
  70
    32
  0
VERTEX
  8
01
  5
DD59
 10
718.410
 20
-1381.84
 30
0.000000
  70
    32
  0
VERTEX
  8
01
  5
DD5A
 10
718.309
 20
-1381.89
 30
0.000000
  70
    32
  0
VERTEX
  8
01
  5
DD5B
 10
718.209
 20
-1381.94
 30
0.000000
  70
    32
  0
VERTEX
  8
01
  5
DD5C
 10
718.112
 20
-1381.99
 30
0.000000
  70
    32
  0
VERTEX
  8
01
  5
DD5D
 10
718.016
 20
-1382.04
 30
0.000000
  70
    32
  0
VERTEX
  8
01
  5
DD5E
 10
717.922
 20
-1382.10
 30
0.000000
  70
    32
  0
VERTEX
  8
01
  5
DD5F
 10
717.830
 20
-1382.16
 30
0.000000
  70
    32
  0
VERTEX
  8
01
  5
DD60
 10
717.740
 20
-1382.22
 30
0.000000
  70
    32
  0
VERTEX
  8
01
  5
DD61
 10
717.652
 20
-1382.28
 30
0.000000
  70
    32
  0
VERTEX
  8
01
  5
DD62
 10
717.566
 20
-1382.34
 30
0.000000
  70
    32
  0
VERTEX
  8
01
  5
DD63
 10
717.483
 20
-1382.41
 30
0.000000
  70
    32
  0
VERTEX
  8
01
  5
DD64
 10
717.402
 20
-1382.47
 30
0.000000
  70
    32
  0
VERTEX
  8
01
  5
DD65
 10
717.323
 20
-1382.54
 30
0.000000
  70
    32
  0
VERTEX
  8
01
  5
DD66
 10
717.246
 20
-1382.61
 30
0.000000
  70
    32
  0
VERTEX
  8
01
  5
DD67
 10
717.172
 20
-1382.68
 30
0.000000
  70
    32
  0
VERTEX
  8
01
  5
DD68
 10
717.100
 20
-1382.75
 30
0.000000
  70
    32
  0
VERTEX
  8
01
  5
DD69
 10
717.030
 20
-1382.82
 30
0.000000
  70
    32
  0
VERTEX
  8
01
  5
DD6A
 10
716.963
 20
-1382.89
 30
0.000000
  70
    32
  0
VERTEX
  8
01
  5
DD6B
 10
716.899
 20
-1382.97
 30
0.000000
  70
    32
  0
VERTEX
  8
01
  5
DD6C
 10
716.837
 20
-1383.04
 30
0.000000
  70
    32
  0
VERTEX
  8
01
  5
DD6D
 10
716.778
 20
-1383.12
 30
0.000000
  70
    32
  0
VERTEX
  8
01
  5
DD6E
 10
716.722
 20
-1383.20
 30
0.000000
  70
    32
  0
VERTEX
  8
01
  5
DD6F
 10
716.668
 20
-1383.28
 30
0.000000
  70
    32
  0
VERTEX
  8
01
  5
DD70
 10
716.617
 20
-1383.36
 30
0.000000
  70
    32
  0
VERTEX
  8
01
  5
DD71
 10
716.568
 20
-1383.44
 30
0.000000
  70
    32
  0
VERTEX
  8
01
  5
DD72
 10
716.523
 20
-1383.52
 30
0.000000
  70
    32
  0
VERTEX
  8
01
  5
DD73
 10
716.480
 20
-1383.60
 30
0.000000
  70
    32
  0
VERTEX
  8
01
  5
DD74
 10
716.440
 20
-1383.68
 30
0.000000
  70
    32
  0
VERTEX
  8
01
  5
DD75
 10
716.403
 20
-1383.77
 30
0.000000
  70
    32
  0
VERTEX
  8
01
  5
DD76
 10
716.369
 20
-1383.85
 30
0.000000
  70
    32
  0
VERTEX
  8
01
  5
DD77
 10
716.338
 20
-1383.94
 30
0.000000
  70
    32
  0
VERTEX
  8
01
  5
DD78
 10
716.309
 20
-1384.02
 30
0.000000
  70
    32
  0
VERTEX
  8
01
  5
DD79
 10
716.284
 20
-1384.11
 30
0.000000
  70
    32
  0
VERTEX
  8
01
  5
DD7A
 10
716.261
 20
-1384.19
 30
0.000000
  70
    32
  0
VERTEX
  8
01
  5
DD7B
 10
716.242
 20
-1384.28
 30
0.000000
  70
    32
  0
VERTEX
  8
01
  5
DD7C
 10
716.225
 20
-1384.37
 30
0.000000
  70
    32
  0
VERTEX
  8
01
  5
DD7D
 10
716.212
 20
-1384.45
 30
0.000000
  70
    32
  0
VERTEX
  8
01
  5
DD7E
 10
716.201
 20
-1384.54
 30
0.000000
  70
    32
  0
VERTEX
  8
01
  5
DD7F
 10
716.194
 20
-1384.63
 30
0.000000
  70
    32
  0
VERTEX
  8
01
  5
DD80
 10
716.189
 20
-1384.71
 30
0.000000
  70
    32
  0
VERTEX
  8
01
  5
DD81
 10
716.188
 20
-1384.80
 30
0.000000
  70
    32
  0
SEQEND
  8
01
  5
DD82
  0
LINE
  5
21F7
  8
01
 10
721.18766916632467
 20
-1401.2340815977441
 30
0.0
 11
715.18766916632478
 21
-1401.2340815977441
 31
0.0
  0
LINE
  5
21F8
  8
01
 10
726.18766916632467
 20
-1396.2340815977441
 30
0.0
 11
716.18766916632467
 21
-1396.2340815977441
 31
0.0
  0
POLYLINE
  5
21F9
  8
01
 10
726.18766916632467
 20
-1397.6656615977431
 30
0.0
 66
     1
 70
     8
  0
VERTEX
  8
01
  5
DD83
 10
726.188
 20
-1397.67
 30
0.000000
  70
    32
  0
VERTEX
  8
01
  5
DD84
 10
726.186
 20
-1397.75
 30
0.000000
  70
    32
  0
VERTEX
  8
01
  5
DD85
 10
726.182
 20
-1397.84
 30
0.000000
  70
    32
  0
VERTEX
  8
01
  5
DD86
 10
726.174
 20
-1397.93
 30
0.000000
  70
    32
  0
VERTEX
  8
01
  5
DD87
 10
726.164
 20
-1398.02
 30
0.000000
  70
    32
  0
VERTEX
  8
01
  5
DD88
 10
726.150
 20
-1398.10
 30
0.000000
  70
    32
  0
VERTEX
  8
01
  5
DD89
 10
726.134
 20
-1398.19
 30
0.000000
  70
    32
  0
VERTEX
  8
01
  5
DD8A
 10
726.114
 20
-1398.28
 30
0.000000
  70
    32
  0
VERTEX
  8
01
  5
DD8B
 10
726.092
 20
-1398.36
 30
0.000000
  70
    32
  0
VERTEX
  8
01
  5
DD8C
 10
726.066
 20
-1398.45
 30
0.000000
  70
    32
  0
VERTEX
  8
01
  5
DD8D
 10
726.038
 20
-1398.53
 30
0.000000
  70
    32
  0
VERTEX
  8
01
  5
DD8E
 10
726.007
 20
-1398.62
 30
0.000000
  70
    32
  0
VERTEX
  8
01
  5
DD8F
 10
725.972
 20
-1398.70
 30
0.000000
  70
    32
  0
VERTEX
  8
01
  5
DD90
 10
725.935
 20
-1398.79
 30
0.000000
  70
    32
  0
VERTEX
  8
01
  5
DD91
 10
725.895
 20
-1398.87
 30
0.000000
  70
    32
  0
VERTEX
  8
01
  5
DD92
 10
725.853
 20
-1398.95
 30
0.000000
  70
    32
  0
VERTEX
  8
01
  5
DD93
 10
725.807
 20
-1399.03
 30
0.000000
  70
    32
  0
VERTEX
  8
01
  5
DD94
 10
725.759
 20
-1399.11
 30
0.000000
  70
    32
  0
VERTEX
  8
01
  5
DD95
 10
725.708
 20
-1399.19
 30
0.000000
  70
    32
  0
VERTEX
  8
01
  5
DD96
 10
725.654
 20
-1399.27
 30
0.000000
  70
    32
  0
VERTEX
  8
01
  5
DD97
 10
725.597
 20
-1399.35
 30
0.000000
  70
    32
  0
VERTEX
  8
01
  5
DD98
 10
725.538
 20
-1399.42
 30
0.000000
  70
    32
  0
VERTEX
  8
01
  5
DD99
 10
725.476
 20
-1399.50
 30
0.000000
  70
    32
  0
VERTEX
  8
01
  5
DD9A
 10
725.412
 20
-1399.57
 30
0.000000
  70
    32
  0
VERTEX
  8
01
  5
DD9B
 10
725.345
 20
-1399.65
 30
0.000000
  70
    32
  0
VERTEX
  8
01
  5
DD9C
 10
725.276
 20
-1399.72
 30
0.000000
  70
    32
  0
VERTEX
  8
01
  5
DD9D
 10
725.204
 20
-1399.79
 30
0.000000
  70
    32
  0
VERTEX
  8
01
  5
DD9E
 10
725.129
 20
-1399.86
 30
0.000000
  70
    32
  0
VERTEX
  8
01
  5
DD9F
 10
725.053
 20
-1399.93
 30
0.000000
  70
    32
  0
VERTEX
  8
01
  5
DDA0
 10
724.974
 20
-1400.00
 30
0.000000
  70
    32
  0
VERTEX
  8
01
  5
DDA1
 10
724.892
 20
-1400.06
 30
0.000000
  70
    32
  0
VERTEX
  8
01
  5
DDA2
 10
724.809
 20
-1400.13
 30
0.000000
  70
    32
  0
VERTEX
  8
01
  5
DDA3
 10
724.723
 20
-1400.19
 30
0.000000
  70
    32
  0
VERTEX
  8
01
  5
DDA4
 10
724.635
 20
-1400.25
 30
0.000000
  70
    32
  0
VERTEX
  8
01
  5
DDA5
 10
724.545
 20
-1400.31
 30
0.000000
  70
    32
  0
VERTEX
  8
01
  5
DDA6
 10
724.454
 20
-1400.37
 30
0.000000
  70
    32
  0
VERTEX
  8
01
  5
DDA7
 10
724.360
 20
-1400.42
 30
0.000000
  70
    32
  0
VERTEX
  8
01
  5
DDA8
 10
724.264
 20
-1400.48
 30
0.000000
  70
    32
  0
VERTEX
  8
01
  5
DDA9
 10
724.166
 20
-1400.53
 30
0.000000
  70
    32
  0
VERTEX
  8
01
  5
DDAA
 10
724.067
 20
-1400.58
 30
0.000000
  70
    32
  0
VERTEX
  8
01
  5
DDAB
 10
723.966
 20
-1400.63
 30
0.000000
  70
    32
  0
VERTEX
  8
01
  5
DDAC
 10
723.863
 20
-1400.68
 30
0.000000
  70
    32
  0
VERTEX
  8
01
  5
DDAD
 10
723.758
 20
-1400.73
 30
0.000000
  70
    32
  0
VERTEX
  8
01
  5
DDAE
 10
723.652
 20
-1400.77
 30
0.000000
  70
    32
  0
VERTEX
  8
01
  5
DDAF
 10
723.545
 20
-1400.81
 30
0.000000
  70
    32
  0
VERTEX
  8
01
  5
DDB0
 10
723.436
 20
-1400.85
 30
0.000000
  70
    32
  0
VERTEX
  8
01
  5
DDB1
 10
723.325
 20
-1400.89
 30
0.000000
  70
    32
  0
VERTEX
  8
01
  5
DDB2
 10
723.214
 20
-1400.93
 30
0.000000
  70
    32
  0
VERTEX
  8
01
  5
DDB3
 10
723.101
 20
-1400.96
 30
0.000000
  70
    32
  0
VERTEX
  8
01
  5
DDB4
 10
722.987
 20
-1400.99
 30
0.000000
  70
    32
  0
VERTEX
  8
01
  5
DDB5
 10
722.872
 20
-1401.03
 30
0.000000
  70
    32
  0
VERTEX
  8
01
  5
DDB6
 10
722.756
 20
-1401.05
 30
0.000000
  70
    32
  0
VERTEX
  8
01
  5
DDB7
 10
722.639
 20
-1401.08
 30
0.000000
  70
    32
  0
VERTEX
  8
01
  5
DDB8
 10
722.521
 20
-1401.10
 30
0.000000
  70
    32
  0
VERTEX
  8
01
  5
DDB9
 10
722.403
 20
-1401.13
 30
0.000000
  70
    32
  0
VERTEX
  8
01
  5
DDBA
 10
722.283
 20
-1401.15
 30
0.000000
  70
    32
  0
VERTEX
  8
01
  5
DDBB
 10
722.163
 20
-1401.17
 30
0.000000
  70
    32
  0
VERTEX
  8
01
  5
DDBC
 10
722.042
 20
-1401.18
 30
0.000000
  70
    32
  0
VERTEX
  8
01
  5
DDBD
 10
721.921
 20
-1401.20
 30
0.000000
  70
    32
  0
VERTEX
  8
01
  5
DDBE
 10
721.800
 20
-1401.21
 30
0.000000
  70
    32
  0
VERTEX
  8
01
  5
DDBF
 10
721.678
 20
-1401.22
 30
0.000000
  70
    32
  0
VERTEX
  8
01
  5
DDC0
 10
721.555
 20
-1401.22
 30
0.000000
  70
    32
  0
VERTEX
  8
01
  5
DDC1
 10
721.433
 20
-1401.23
 30
0.000000
  70
    32
  0
VERTEX
  8
01
  5
DDC2
 10
721.310
 20
-1401.23
 30
0.000000
  70
    32
  0
VERTEX
  8
01
  5
DDC3
 10
721.188
 20
-1401.23
 30
0.000000
  70
    32
  0
VERTEX
  8
01
  5
DDC4
 10
721.065
 20
-1401.23
 30
0.000000
  70
    32
  0
VERTEX
  8
01
  5
DDC5
 10
720.942
 20
-1401.23
 30
0.000000
  70
    32
  0
VERTEX
  8
01
  5
DDC6
 10
720.820
 20
-1401.22
 30
0.000000
  70
    32
  0
VERTEX
  8
01
  5
DDC7
 10
720.698
 20
-1401.22
 30
0.000000
  70
    32
  0
VERTEX
  8
01
  5
DDC8
 10
720.576
 20
-1401.21
 30
0.000000
  70
    32
  0
VERTEX
  8
01
  5
DDC9
 10
720.454
 20
-1401.20
 30
0.000000
  70
    32
  0
VERTEX
  8
01
  5
DDCA
 10
720.333
 20
-1401.18
 30
0.000000
  70
    32
  0
VERTEX
  8
01
  5
DDCB
 10
720.212
 20
-1401.17
 30
0.000000
  70
    32
  0
VERTEX
  8
01
  5
DDCC
 10
720.092
 20
-1401.15
 30
0.000000
  70
    32
  0
VERTEX
  8
01
  5
DDCD
 10
719.973
 20
-1401.13
 30
0.000000
  70
    32
  0
VERTEX
  8
01
  5
DDCE
 10
719.854
 20
-1401.10
 30
0.000000
  70
    32
  0
VERTEX
  8
01
  5
DDCF
 10
719.736
 20
-1401.08
 30
0.000000
  70
    32
  0
VERTEX
  8
01
  5
DDD0
 10
719.619
 20
-1401.05
 30
0.000000
  70
    32
  0
VERTEX
  8
01
  5
DDD1
 10
719.503
 20
-1401.03
 30
0.000000
  70
    32
  0
VERTEX
  8
01
  5
DDD2
 10
719.388
 20
-1400.99
 30
0.000000
  70
    32
  0
VERTEX
  8
01
  5
DDD3
 10
719.274
 20
-1400.96
 30
0.000000
  70
    32
  0
VERTEX
  8
01
  5
DDD4
 10
719.161
 20
-1400.93
 30
0.000000
  70
    32
  0
VERTEX
  8
01
  5
DDD5
 10
719.050
 20
-1400.89
 30
0.000000
  70
    32
  0
VERTEX
  8
01
  5
DDD6
 10
718.940
 20
-1400.85
 30
0.000000
  70
    32
  0
VERTEX
  8
01
  5
DDD7
 10
718.831
 20
-1400.81
 30
0.000000
  70
    32
  0
VERTEX
  8
01
  5
DDD8
 10
718.723
 20
-1400.77
 30
0.000000
  70
    32
  0
VERTEX
  8
01
  5
DDD9
 10
718.617
 20
-1400.73
 30
0.000000
  70
    32
  0
VERTEX
  8
01
  5
DDDA
 10
718.513
 20
-1400.68
 30
0.000000
  70
    32
  0
VERTEX
  8
01
  5
DDDB
 10
718.410
 20
-1400.63
 30
0.000000
  70
    32
  0
VERTEX
  8
01
  5
DDDC
 10
718.309
 20
-1400.58
 30
0.000000
  70
    32
  0
VERTEX
  8
01
  5
DDDD
 10
718.209
 20
-1400.53
 30
0.000000
  70
    32
  0
VERTEX
  8
01
  5
DDDE
 10
718.112
 20
-1400.48
 30
0.000000
  70
    32
  0
VERTEX
  8
01
  5
DDDF
 10
718.016
 20
-1400.42
 30
0.000000
  70
    32
  0
VERTEX
  8
01
  5
DDE0
 10
717.922
 20
-1400.37
 30
0.000000
  70
    32
  0
VERTEX
  8
01
  5
DDE1
 10
717.830
 20
-1400.31
 30
0.000000
  70
    32
  0
VERTEX
  8
01
  5
DDE2
 10
717.740
 20
-1400.25
 30
0.000000
  70
    32
  0
VERTEX
  8
01
  5
DDE3
 10
717.652
 20
-1400.19
 30
0.000000
  70
    32
  0
VERTEX
  8
01
  5
DDE4
 10
717.566
 20
-1400.13
 30
0.000000
  70
    32
  0
VERTEX
  8
01
  5
DDE5
 10
717.483
 20
-1400.06
 30
0.000000
  70
    32
  0
VERTEX
  8
01
  5
DDE6
 10
717.402
 20
-1400.00
 30
0.000000
  70
    32
  0
VERTEX
  8
01
  5
DDE7
 10
717.323
 20
-1399.93
 30
0.000000
  70
    32
  0
VERTEX
  8
01
  5
DDE8
 10
717.246
 20
-1399.86
 30
0.000000
  70
    32
  0
VERTEX
  8
01
  5
DDE9
 10
717.172
 20
-1399.79
 30
0.000000
  70
    32
  0
VERTEX
  8
01
  5
DDEA
 10
717.100
 20
-1399.72
 30
0.000000
  70
    32
  0
VERTEX
  8
01
  5
DDEB
 10
717.030
 20
-1399.65
 30
0.000000
  70
    32
  0
VERTEX
  8
01
  5
DDEC
 10
716.963
 20
-1399.57
 30
0.000000
  70
    32
  0
VERTEX
  8
01
  5
DDED
 10
716.899
 20
-1399.50
 30
0.000000
  70
    32
  0
VERTEX
  8
01
  5
DDEE
 10
716.837
 20
-1399.42
 30
0.000000
  70
    32
  0
VERTEX
  8
01
  5
DDEF
 10
716.778
 20
-1399.35
 30
0.000000
  70
    32
  0
VERTEX
  8
01
  5
DDF0
 10
716.722
 20
-1399.27
 30
0.000000
  70
    32
  0
VERTEX
  8
01
  5
DDF1
 10
716.668
 20
-1399.19
 30
0.000000
  70
    32
  0
VERTEX
  8
01
  5
DDF2
 10
716.617
 20
-1399.11
 30
0.000000
  70
    32
  0
VERTEX
  8
01
  5
DDF3
 10
716.568
 20
-1399.03
 30
0.000000
  70
    32
  0
VERTEX
  8
01
  5
DDF4
 10
716.523
 20
-1398.95
 30
0.000000
  70
    32
  0
VERTEX
  8
01
  5
DDF5
 10
716.480
 20
-1398.87
 30
0.000000
  70
    32
  0
VERTEX
  8
01
  5
DDF6
 10
716.440
 20
-1398.79
 30
0.000000
  70
    32
  0
VERTEX
  8
01
  5
DDF7
 10
716.403
 20
-1398.70
 30
0.000000
  70
    32
  0
VERTEX
  8
01
  5
DDF8
 10
716.369
 20
-1398.62
 30
0.000000
  70
    32
  0
VERTEX
  8
01
  5
DDF9
 10
716.338
 20
-1398.53
 30
0.000000
  70
    32
  0
VERTEX
  8
01
  5
DDFA
 10
716.309
 20
-1398.45
 30
0.000000
  70
    32
  0
VERTEX
  8
01
  5
DDFB
 10
716.284
 20
-1398.36
 30
0.000000
  70
    32
  0
VERTEX
  8
01
  5
DDFC
 10
716.261
 20
-1398.28
 30
0.000000
  70
    32
  0
VERTEX
  8
01
  5
DDFD
 10
716.242
 20
-1398.19
 30
0.000000
  70
    32
  0
VERTEX
  8
01
  5
DDFE
 10
716.225
 20
-1398.10
 30
0.000000
  70
    32
  0
VERTEX
  8
01
  5
DDFF
 10
716.212
 20
-1398.02
 30
0.000000
  70
    32
  0
VERTEX
  8
01
  5
DE00
 10
716.201
 20
-1397.93
 30
0.000000
  70
    32
  0
VERTEX
  8
01
  5
DE01
 10
716.194
 20
-1397.84
 30
0.000000
  70
    32
  0
VERTEX
  8
01
  5
DE02
 10
716.189
 20
-1397.75
 30
0.000000
  70
    32
  0
VERTEX
  8
01
  5
DE03
 10
716.188
 20
-1397.67
 30
0.000000
  70
    32
  0
SEQEND
  8
01
  5
DE04
  0
LINE
  5
21FA
  8
01
 10
726.18766916632467
 20
-1384.8025015977439
 30
0.0
 11
726.18766916632467
 21
-1397.665661597744
 31
0.0
  0
LINE
  5
21FB
  8
01
 10
716.18766916632467
 20
-1384.8025015977439
 30
0.0
 11
716.18766916632467
 21
-1397.665661597742
 31
0.0
  0
LINE
  5
21FC
  8
01
 10
712.18765416632505
 20
-1351.2340815977441
 30
0.0
 11
711.18765416632505
 21
-1350.2340815977441
 31
0.0
  0
LINE
  5
21FD
  8
01
 10
713.58767116632498
 20
-1351.1341015977439
 30
0.0
 11
712.78769016632486
 21
-1350.334121597743
 31
0.0
  0
LINE
  5
21FE
  8
01
 10
713.58767116632498
 20
-1433.3340915977431
 30
0.0
 11
712.78766816632481
 21
-1434.134071597744
 31
0.0
  0
LINE
  5
21FF
  8
01
 10
712.18761616632503
 20
-1433.2341115977431
 30
0.0
 11
711.18763116632465
 21
-1434.2341115977431
 31
0.0
  0
LINE
  5
2200
  8
01
 10
715.18766916632478
 20
-1457.2340815977441
 30
0.0
 11
711.18766916632478
 21
-1457.2340815977441
 31
0.0
  0
LINE
  5
2201
  8
01
 10
712.78767516632524
 20
-1457.2340815977441
 30
0.0
 11
712.78767516632524
 21
-1434.134071597744
 31
0.0
  0
LINE
  5
2202
  8
01
 10
711.18766916632478
 20
-1457.2340815977441
 30
0.0
 11
711.18766916632478
 21
-1434.2340815977441
 31
0.0
  0
LINE
  5
2203
  8
01
 10
712.18766916632467
 20
-1351.2340815977441
 30
0.0
 11
712.18766916632467
 21
-1433.2340815977441
 31
0.0
  0
LINE
  5
2204
  8
01
 10
715.18766916632478
 20
-1327.2340815977441
 30
0.0
 11
711.18766916632478
 21
-1327.2340815977441
 31
0.0
  0
LINE
  5
2207
  8
01
 10
821.68766916632478
 20
-1333.2340815977441
 30
0.0
 11
821.68766916632478
 21
-1451.2340815977441
 31
0.0
  0
LINE
  5
2208
  8
01
 10
846.68766916632478
 20
-1333.2340815977441
 30
0.0
 11
846.68766916632478
 21
-1451.2340815977441
 31
0.0
  0
ARC
  5
2209
  8
01
 10
840.68766916632478
 20
-1451.2340815977441
 30
0.0
 40
6.0
 50
270.0
 51
0.0
  0
ARC
  5
220A
  8
01
 10
827.68766916632467
 20
-1451.2340815977441
 30
0.0
 40
6.0
 50
180.0
 51
270.0
  0
LINE
  5
220B
  8
01
 10
841.93766916632467
 20
-1384.8025015977439
 30
0.0
 11
841.93766916632467
 21
-1397.6656615977431
 31
0.0
  0
LINE
  5
220C
  8
01
 10
840.93766916632467
 20
-1386.2340815977441
 30
0.0
 11
840.93766916632467
 21
-1396.2340815977441
 31
0.0
  0
LINE
  5
220D
  8
01
 10
827.43766916632467
 20
-1386.2340815977441
 30
0.0
 11
827.43766916632467
 21
-1396.2340815977441
 31
0.0
  0
LINE
  5
220E
  8
01
 10
826.43766916632467
 20
-1384.8025015977439
 30
0.0
 11
826.43766916632467
 21
-1397.6656615977431
 31
0.0
  0
ARC
  5
220F
  8
01
 10
834.18766916632478
 20
-1391.0340715977441
 30
0.0
 40
10.199999999999999
 50
220.5530799999753
 51
319.44692000002459
  0
LINE
  5
2210
  8
01
 10
827.43766916632467
 20
-1396.2340815977441
 30
0.0
 11
840.93766916632467
 21
-1396.2340815977441
 31
0.0
  0
LINE
  5
2211
  8
01
 10
827.43766916632467
 20
-1386.2340815977441
 30
0.0
 11
840.93766916632467
 21
-1386.2340815977441
 31
0.0
  0
ARC
  5
2212
  8
01
 10
834.18766916632478
 20
-1391.4340915977441
 30
0.0
 40
10.199999999999999
 50
40.553083999977588
 51
139.44692000002459
  0
CIRCLE
  5
2213
  8
01
 10
834.18766916632478
 20
-1449.2340815977441
 30
0.0
 40
4.5
  0
CIRCLE
  5
2214
  8
01
 10
834.18766916632478
 20
-1449.2340815977441
 30
0.0
 40
2.75
  0
LINE
  5
2215
  8
01
 10
827.68766916632467
 20
-1457.2340815977441
 30
0.0
 11
840.68766916632478
 21
-1457.2340815977441
 31
0.0
  0
ARC
  5
2216
  8
01
 10
840.68766916632478
 20
-1333.2340815977441
 30
0.0
 40
6.0
 50
0.0
 51
90.0
  0
ARC
  5
2218
  8
01
 10
827.68766916632467
 20
-1333.2340815977441
 30
0.0
 40
6.0
 50
90.0
 51
180.0
  0
LINE
  5
2219
  8
01
 10
827.68766916632467
 20
-1327.2340815977441
 30
0.0
 11
840.68766916632478
 21
-1327.2340815977441
 31
0.0
  0
CIRCLE
  5
221A
  8
01
 10
834.18766916632478
 20
-1335.2340815977441
 30
0.0
 40
4.5
  0
CIRCLE
  5
221B
  8
01
 10
834.18766916632478
 20
-1335.2340815977441
 30
0.0
 40
2.75
  0
LINE
  5
2221
  8
01
 10
955.58767516632463
 20
-1327.2340815977441
 30
0.0
 11
955.58767516632463
 21
-1350.3340515977429
 31
0.0
  0
LINE
  5
2222
  8
01
 10
957.18766516632525
 20
-1327.2340815977441
 30
0.0
 11
957.18766516632525
 21
-1350.2340815977441
 31
0.0
  0
LINE
  5
2223
  8
01
 10
954.78767516632524
 20
-1327.2340815977441
 30
0.0
 11
954.78767516632524
 21
-1457.2340815977441
 31
0.0
  0
LINE
  5
2224
  8
01
 10
953.18766516632513
 20
-1327.2340815977441
 30
0.0
 11
953.18766516632513
 21
-1457.2340815977441
 31
0.0
  0
LINE
  5
2226
  8
01
 10
956.18766516632525
 20
-1429.2340815977441
 30
0.0
 11
984.97829245402647
 21
-1429.2340815977441
 31
0.0
  0
LINE
  5
2227
  8
01
 10
956.18767516632499
 20
-1351.2340815977441
 30
0.0
 11
957.18767516632499
 21
-1350.2340815977441
 31
0.0
  0
LINE
  5
2228
  8
01
 10
954.78766516632572
 20
-1351.1341015977439
 30
0.0
 11
955.58767516632463
 21
-1350.3340515977429
 31
0.0
  0
LINE
  5
2229
  8
01
 10
946.18766516632525
 20
-1381.2340815977441
 30
0.0
 11
953.18766516632513
 21
-1381.2340815977441
 31
0.0
  0
LINE
  5
222A
  8
01
 10
946.18766516632525
 20
-1401.2340815977441
 30
0.0
 11
953.18766516632513
 21
-1401.2340815977441
 31
0.0
  0
LINE
  5
222B
  8
01
 10
942.26976516632487
 20
-1398.0403515977439
 30
0.0
 11
953.18766516632513
 21
-1398.0403515977439
 31
0.0
  0
LINE
  5
222C
  8
01
 10
942.26976516632487
 20
-1384.4278015977429
 30
0.0
 11
953.18766516632513
 21
-1384.4278015977429
 31
0.0
  0
LINE
  5
222D
  8
01
 10
942.18766516632525
 20
-1385.2340815977441
 30
0.0
 11
942.18766516632525
 21
-1397.2340815977441
 31
0.0
  0
ARC
  5
222E
  8
01
 10
946.18766516632525
 20
-1397.2340815977441
 30
0.0
 40
4.0
 50
179.999989999999
 51
270.0
  0
ARC
  5
222F
  8
01
 10
946.18766516632525
 20
-1385.2340815977441
 30
0.0
 40
4.0
 50
90.000002999984659
 51
180.00001000000091
  0
LINE
  5
2230
  8
01
 10
954.78766516632572
 20
-1433.3340915977431
 30
0.0
 11
955.58767516632463
 21
-1434.134071597744
 31
0.0
  0
LINE
  5
2231
  8
01
 10
956.1877151663258
 20
-1433.2341115977431
 30
0.0
 11
957.18769516632449
 21
-1434.2340815977441
 31
0.0
  0
LINE
  5
2232
  8
01
 10
948.18766516632525
 20
-1449.2340815977441
 30
0.0
 11
962.18766516632525
 21
-1449.2340815977441
 31
0.0
  0
LINE
  5
2233
  8
01
 10
953.18766516632513
 20
-1457.2340815977441
 30
0.0
 11
957.18766516632525
 21
-1457.2340815977441
 31
0.0
  0
LINE
  5
2234
  8
01
 10
955.58767516632463
 20
-1457.2340815977441
 30
0.0
 11
955.58767516632463
 21
-1434.134071597744
 31
0.0
  0
LINE
  5
2235
  8
01
 10
957.18766516632525
 20
-1457.2340815977441
 30
0.0
 11
957.18766516632525
 21
-1434.2340815977441
 31
0.0
  0
LINE
  5
2236
  8
01
 10
956.18766516632525
 20
-1351.2340815977441
 30
0.0
 11
956.18766516632525
 21
-1433.2340815977441
 31
0.0
  0
LINE
  5
2239
  8
01
 10
953.18766516632513
 20
-1327.2340815977441
 30
0.0
 11
957.18766516632525
 21
-1327.2340815977441
 31
0.0
  0
LINE
  5
223A
  8
01
 10
948.18766516632525
 20
-1335.2340815977441
 30
0.0
 11
962.18766516632525
 21
-1335.2340815977441
 31
0.0
  0
LINE
  5
2244
  8
01
 10
957.18854934838521
 20
-1133.7340815987729
 30
0.0
 11
1023.188549348385
 21
-1133.7340815987729
 31
0.0
  0
LINE
  5
2245
  8
01
 10
957.18854934838521
 20
-1135.334051598772
 30
0.0
 11
1023.188549348385
 21
-1135.334051598772
 31
0.0
  0
LINE
  5
2246
  8
01
 10
954.78855934838532
 20
-1152.734081598772
 30
0.0
 11
1023.188549348385
 21
-1152.734081598772
 31
0.0
  0
LINE
  5
2247
  8
01
 10
956.38853934838608
 20
-1138.2340815987729
 30
0.0
 11
957.18854934838521
 21
-1137.4340615987719
 31
0.0
  0
LINE
  5
2248
  8
01
 10
957.18854934838521
 20
-1132.734081598772
 30
0.0
 11
957.18854934838521
 21
-1137.4340615987719
 31
0.0
  0
LINE
  5
2249
  8
01
 10
954.78855934838532
 20
-1138.234051598773
 30
0.0
 11
955.58854934838666
 21
-1137.4340915987721
 31
0.0
  0
LINE
  5
224A
  8
01
 10
942.18854934838521
 20
-1150.9840815987729
 30
0.0
 11
953.1885493483851
 21
-1150.9840815987729
 31
0.0
  0
LINE
  5
224B
  8
01
 10
942.18854934838521
 20
-1150.9840815987729
 30
0.0
 11
942.18854934838521
 21
-1148.9840815987729
 31
0.0
  0
LINE
  5
224C
  8
01
 10
953.1885493483851
 20
-1130.734081598772
 30
0.0
 11
954.78855934838532
 21
-1130.734081598772
 31
0.0
  0
LINE
  5
224D
  8
01
 10
954.78855934838532
 20
-1130.734081598772
 30
0.0
 11
954.78855934838532
 21
-1138.2340815987729
 31
0.0
  0
LINE
  5
224E
  8
01
 10
955.58855934838641
 20
-1132.734081598772
 30
0.0
 11
955.58855934838641
 21
-1137.4340615987719
 31
0.0
  0
LINE
  5
224F
  8
01
 10
954.78855934838532
 20
-1132.734081598772
 30
0.0
 11
957.18854934838521
 21
-1132.734081598772
 31
0.0
  0
LINE
  5
2250
  8
01
 10
957.18854934838521
 20
-1149.034071598772
 30
0.0
 11
957.18854934838521
 21
-1152.734081598772
 31
0.0
  0
LINE
  5
2251
  8
01
 10
956.38855934838557
 20
-1148.2340515987721
 30
0.0
 11
957.18854934838521
 21
-1149.034071598772
 31
0.0
  0
LINE
  5
2252
  8
01
 10
957.18854934838521
 20
-1151.1340715987731
 30
0.0
 11
961.78855934838532
 21
-1151.1340715987731
 31
0.0
  0
LINE
  5
2253
  8
01
 10
954.78854934838546
 20
-1148.2340515987721
 30
0.0
 11
955.58855934838641
 21
-1149.034071598772
 31
0.0
  0
LINE
  5
2254
  8
01
 10
954.78855934838532
 20
-1148.2340815987729
 30
0.0
 11
954.78855934838532
 21
-1155.734081598772
 31
0.0
  0
LINE
  5
2255
  8
01
 10
953.1885493483851
 20
-1155.734081598772
 30
0.0
 11
954.78855934838532
 21
-1155.734081598772
 31
0.0
  0
LINE
  5
2256
  8
01
 10
955.58855934838641
 20
-1149.034071598772
 30
0.0
 11
955.58855934838641
 21
-1152.734081598772
 31
0.0
  0
LINE
  5
2257
  8
01
 10
953.1885493483851
 20
-1123.2340815987729
 30
0.0
 11
953.1885493483851
 21
-1163.2340815987729
 31
0.0
  0
LINE
  5
2258
  8
01
 10
961.78855934838532
 20
-1135.334051598772
 30
0.0
 11
961.78855934838532
 21
-1152.734081598772
 31
0.0
  0
LINE
  5
2259
  8
01
 10
956.38854934838594
 20
-1138.2340815987729
 30
0.0
 11
956.38854934838594
 21
-1148.2340815987729
 31
0.0
  0
LINE
  5
225A
  8
01
 10
954.78855934838532
 20
-1138.2340815987729
 30
0.0
 11
954.78855934838532
 21
-1148.2340815987729
 31
0.0
  0
ARC
  5
225B
  8
01
 10
985.85804934838541
 20
-1173.3351615987719
 30
0.0
 40
50.0
 50
130.7976899999974
 51
150.85500000002
  0
LINE
  5
225C
  8
01
 10
985.5498978946174
 20
-1177.7341125987709
 30
0.0
 11
1001.172534506069
 21
-1177.7341125987709
 31
0.0
  0
LINE
  5
225D
  8
01
 10
1021.588549348387
 20
-1135.334051598772
 30
0.0
 11
1021.588549348387
 21
-1152.734081598772
 31
0.0
  0
LINE
  5
225E
  8
01
 10
1023.188549348385
 20
-1133.7340815987729
 30
0.0
 11
1023.188549348385
 21
-1152.734081598772
 31
0.0
  0
LINE
  5
225F
  8
01
 10
985.5498978946174
 20
-1108.734050598774
 30
0.0
 11
1001.172534506069
 21
-1108.734050598774
 31
0.0
  0
LINE
  5
2262
  8
01
 10
720.18767316632432
 20
-1449.2340815977441
 30
0.0
 11
706.18767316632454
 21
-1449.2340815977441
 31
0.0
  0
LINE
  5
2263
  8
01
 10
720.18767316632432
 20
-1335.2340815977441
 30
0.0
 11
706.18767316632454
 21
-1335.2340815977441
 31
0.0
  0
LINE
  5
2264
  8
01
 10
840.68766916632478
 20
-1335.2340815977441
 30
0.0
 11
827.68766916632467
 21
-1335.2340815977441
 31
0.0
  0
LINE
  5
2265
  8
01
 10
834.18766916632478
 20
-1328.7340815977441
 30
0.0
 11
834.18766916632478
 21
-1341.7340815977441
 31
0.0
  0
LINE
  5
2266
  8
01
 10
840.68766916632478
 20
-1449.2340815977441
 30
0.0
 11
827.68766916632467
 21
-1449.2340815977441
 31
0.0
  0
LINE
  5
2267
  8
01
 10
834.18766916632478
 20
-1442.7340815977441
 30
0.0
 11
834.18766916632478
 21
-1455.7340815977441
 31
0.0
  0
LINE
  5
2268
  8
01
 10
694.18767316632454
 20
-1413.2340815977441
 30
0.0
 11
634.18767316632454
 21
-1413.2340815977441
 31
0.0
  0
LINE
  5
2269
  8
01
 10
664.18767316632454
 20
-1383.2340815977441
 30
0.0
 11
664.18767316632454
 21
-1443.2340815977441
 31
0.0
  0
LINE
  5
226A
  8
01
 10
974.18766516632502
 20
-1413.2340815977441
 30
0.0
 11
1034.1876651663249
 21
-1413.2340815977441
 31
0.0
  0
LINE
  5
226B
  8
01
 10
1004.187665166325
 20
-1383.2340815977441
 30
0.0
 11
1004.187665166325
 21
-1443.2340815977441
 31
0.0
  0
POINT
  5
2270
  8
01
 10
868.68766916632467
 20
-1413.2340815977441
 30
0.0
  0
LINE
  5
2271
  8
01
 10
868.28766915632468
 20
-1414.9840815977441
 30
0.0
 11
868.28766915632468
 21
-1414.1340815777439
 31
0.0
  0
LINE
  5
2272
  8
01
 10
869.08766917632477
 20
-1414.9840815977441
 30
0.0
 11
869.08766917632477
 21
-1414.1340815777439
 31
0.0
  0
LINE
  5
2273
  8
01
 10
867.78766918632482
 20
-1413.6340816077441
 30
0.0
 11
866.93766916632467
 21
-1413.6340816077441
 31
0.0
  0
LINE
  5
2274
  8
01
 10
867.78766918632482
 20
-1412.8340815877441
 30
0.0
 11
866.93766916632467
 21
-1412.8340815877441
 31
0.0
  0
LINE
  5
2275
  8
01
 10
866.93766916632467
 20
-1413.6340816077441
 30
0.0
 11
866.93766916632467
 21
-1412.8340815877441
 31
0.0
  0
LINE
  5
2276
  8
01
 10
869.08766917632477
 20
-1414.9840815977441
 30
0.0
 11
868.28766915632468
 21
-1414.9840815977441
 31
0.0
  0
LINE
  5
2277
  8
01
 10
869.08766917632477
 20
-1411.4840815977441
 30
0.0
 11
869.08766917632477
 21
-1412.334081617744
 31
0.0
  0
LINE
  5
2278
  8
01
 10
868.28766915632468
 20
-1411.4840815977441
 30
0.0
 11
868.28766915632468
 21
-1412.334081617744
 31
0.0
  0
LINE
  5
2279
  8
01
 10
869.58766914632452
 20
-1412.8340815877441
 30
0.0
 11
870.43766916632467
 21
-1412.8340815877441
 31
0.0
  0
LINE
  5
227A
  8
01
 10
869.58766914632452
 20
-1413.6340816077441
 30
0.0
 11
870.43766916632467
 21
-1413.6340816077441
 31
0.0
  0
LINE
  5
227B
  8
01
 10
870.43766916632467
 20
-1412.8340815877441
 30
0.0
 11
870.43766916632467
 21
-1413.6340816077441
 31
0.0
  0
LINE
  5
227C
  8
01
 10
868.28766915632468
 20
-1411.4840815977441
 30
0.0
 11
869.08766917632477
 21
-1411.4840815977441
 31
0.0
  0
CIRCLE
  5
227D
  8
01
 10
868.68766916632467
 20
-1413.2340815977441
 30
0.0
 40
2.5
  0
ARC
  5
227E
  8
01
 10
869.58766914632452
 20
-1412.334081617744
 30
0.0
 40
0.5
 50
179.9999899999998
 51
270.0
  0
ARC
  5
227F
  8
01
 10
869.58766914632452
 20
-1414.1340815777439
 30
0.0
 40
0.5
 50
90.000003000000945
 51
180.0000100000002
  0
ARC
  5
2280
  8
01
 10
867.78766918632482
 20
-1414.1340815777439
 30
0.0
 40
0.5
 50
0.0
 51
90.000003000000945
  0
ARC
  5
2281
  8
01
 10
867.78766918632482
 20
-1412.334081617744
 30
0.0
 40
0.5
 50
270.0
 51
0.0
  0
POINT
  5
2283
  8
01
 10
799.68766916632467
 20
-1413.2340815977441
 30
0.0
 50
180.0
  0
CIRCLE
  5
2284
  8
01
 10
799.68766916632467
 20
-1413.2340815977441
 30
0.0
 40
2.5
  0
LINE
  5
23F2
  8
01
 10
1022.187665166325
 20
-1365.9827154482671
 30
0.0
 11
1022.187665166325
 21
-1395.8847300248469
 31
0.0
  0
LINE
  5
243C
  8
01
 10
651.18766516632365
 20
-1363.2340815977441
 30
0.0
 11
677.18766516632365
 21
-1363.2340815977441
 31
0.0
  0
LINE
  5
243E
  8
01
 10
686.68766516632365
 20
-1357.7340815977441
 30
0.0
 11
641.68766516632365
 21
-1357.7340815977441
 31
0.0
  0
LINE
  5
243F
  8
01
 10
664.18766516632365
 20
-1335.2340815977441
 30
0.0
 11
664.18766516632365
 21
-1380.2340815977441
 31
0.0
  0
LINE
  5
2441
  8
01
 10
1017.187673166326
 20
-1363.2340815977441
 30
0.0
 11
991.18767316632591
 21
-1363.2340815977441
 31
0.0
  0
LINE
  5
2442
  8
01
 10
981.68767316632579
 20
-1357.7340815977441
 30
0.0
 11
1026.687673166326
 21
-1357.7340815977441
 31
0.0
  0
LINE
  5
2443
  8
01
 10
1004.187673166326
 20
-1335.2340815977441
 30
0.0
 11
1004.187673166326
 21
-1380.2340815977441
 31
0.0
  0
LINE
  5
597B
  8
01
 10
1004.18778150607
 20
-1093.234081598772
 30
0.0
 11
1004.18778150607
 21
-1128.234081598772
 31
0.0
  0
LINE
  5
597C
  8
01
 10
1004.18778150607
 20
-1158.2340815987729
 30
0.0
 11
1004.18778150607
 21
-1193.234081598772
 31
0.0
  0
LINE
  5
597D
  8
01
 10
784.18766916632501
 20
-1413.2340815977441
 30
0.0
 11
819.18766916632489
 21
-1413.2340815977441
 31
0.0
  0
LINE
  5
597E
  8
01
 10
849.18766916632501
 20
-1413.2340815977441
 30
0.0
 11
884.18766916632501
 21
-1413.2340815977441
 31
0.0
  0
LINE
  5
A5D8
  8
01
 10
953.1885493483851
 20
-1163.2340815987729
 30
0.0
 11
1106.942929503417
 21
-1163.2340815987729
 31
0.0
  0
LINE
  5
A5D9
  8
01
 10
953.1885493483851
 20
-1123.2340815987729
 30
0.0
 11
1106.942929503417
 21
-1123.2340815987729
 31
0.0
  0
ARC
  5
C849
  8
01
 10
1004.187665166325
 20
-1413.2340815977441
 30
0.0
 40
25.0
 50
21.100196024086781
 51
338.89980397591319
  0
LINE
  5
C850
  8
01
 10
914.18766916632467
 20
-1402.2340815977441
 30
0.0
 11
863.18766916632467
 21
-1402.2340815977441
 31
0.0
  0
LINE
  5
C851
  8
01
 10
863.18766916632467
 20
-1420.9840815977441
 30
0.0
 11
863.18766916632467
 21
-1402.2340815977441
 31
0.0
  0
LINE
  5
C852
  8
01
 10
914.18766916632467
 20
-1424.2340815977441
 30
0.0
 11
863.18766916632467
 21
-1424.2340815977441
 31
0.0
  0
LINE
  5
C853
  8
01
 10
863.18766916632467
 20
-1424.2340815977441
 30
0.0
 11
863.18766916632467
 21
-1420.9840815977441
 31
0.0
  0
LINE
  5
C854
  8
01
 10
915.18766916632467
 20
-1423.2340815977441
 30
0.0
 11
915.18766916632467
 21
-1403.2340815977441
 31
0.0
  0
ARC
  5
C855
  8
01
 10
914.18766916632467
 20
-1403.2340815977441
 30
0.0
 40
1.0
 50
0.0
 51
90.0
  0
ARC
  5
C856
  8
01
 10
914.18766916632467
 20
-1423.2340815977441
 30
0.0
 40
1.0
 50
270.0
 51
0.0
  0
LINE
  5
C857
  8
01
 10
1029.1876651663249
 20
-1422.2340815977441
 30
0.0
 11
1029.1876651663249
 21
-1404.2340815977441
 31
0.0
  0
LINE
  5
C858
  8
01
 10
1010.512220486662
 20
-1404.2340815977441
 30
0.0
 11
1029.1876651663249
 21
-1404.2340815977441
 31
0.0
  0
LINE
  5
C859
  8
01
 10
1010.512220486662
 20
-1422.2340815977441
 30
0.0
 11
1029.1876651663249
 21
-1422.2340815977441
 31
0.0
  0
LINE
  5
C85A
  8
01
 10
1129.1876651663249
 20
-1403.2340815977441
 30
0.0
 11
1129.1876651663249
 21
-1423.2340815977441
 31
0.0
  0
LINE
  5
C85B
  8
01
 10
1029.1876651663249
 20
-1423.2340815977441
 30
0.0
 11
1029.1876651663249
 21
-1403.2340815977441
 31
0.0
  0
LINE
  5
C85C
  8
01
 10
1030.1876651663249
 20
-1402.2340815977441
 30
0.0
 11
1128.1876651663249
 21
-1402.2340815977441
 31
0.0
  0
ARC
  5
C85D
  8
01
 10
1030.1876651663249
 20
-1403.2340815977441
 30
0.0
 40
1.0
 50
90.0
 51
180.0
  0
ARC
  5
C85E
  8
01
 10
1128.1876651663249
 20
-1403.2340815977441
 30
0.0
 40
1.0
 50
0.0
 51
90.0
  0
LINE
  5
C85F
  8
01
 10
1030.1876651663249
 20
-1424.2340815977441
 30
0.0
 11
1128.1876651663249
 21
-1424.2340815977441
 31
0.0
  0
ARC
  5
C860
  8
01
 10
1030.1876651663249
 20
-1423.2340815977441
 30
0.0
 40
1.0
 50
180.0
 51
270.0
  0
ARC
  5
C861
  8
01
 10
1128.1876651663249
 20
-1423.2340815977441
 30
0.0
 40
1.0
 50
270.0
 51
0.0
  0
CIRCLE
  5
C862
  8
01
 10
1004.187665166325
 20
-1413.2340815977441
 30
0.0
 40
11.0
  0
LINE
  5
C869
  8
01
 10
993.18778150606977
 20
-1223.2340815987729
 30
0.0
 11
993.18778150606977
 21
-1172.2340815987729
 31
0.0
  0
LINE
  5
C86A
  8
01
 10
1029.1877815060691
 20
-1218.2340815987729
 30
0.0
 11
1029.1877815060691
 21
-1200.2340815987729
 31
0.0
  0
LINE
  5
C86B
  8
01
 10
1011.93778150607
 20
-1172.2340815987729
 30
0.0
 11
993.18778150606977
 21
-1172.2340815987729
 31
0.0
  0
LINE
  5
C86C
  8
01
 10
1015.68778150607
 20
-1200.2340815987729
 30
0.0
 11
1029.1877815060691
 21
-1200.2340815987729
 31
0.0
  0
LINE
  5
C86D
  8
01
 10
1015.18778150607
 20
-1199.734081598772
 30
0.0
 11
1015.18778150607
 21
-1172.2340815987729
 31
0.0
  0
LINE
  5
C86E
  8
01
 10
1015.18778150607
 20
-1172.2340815987729
 30
0.0
 11
1011.93778150607
 21
-1172.2340815987729
 31
0.0
  0
ARC
  5
C86F
  8
01
 10
1015.68778150607
 20
-1199.734081598772
 30
0.0
 40
0.5
 50
180.0
 51
270.0
  0
LINE
  5
C870
  8
01
 10
1014.18778150607
 20
-1224.2340815987729
 30
0.0
 11
994.18778150606965
 21
-1224.2340815987729
 31
0.0
  0
ARC
  5
C871
  8
01
 10
994.18778150606965
 20
-1223.2340815987729
 30
0.0
 40
1.0
 50
180.0
 51
270.0
  0
LINE
  5
C872
  8
01
 10
1015.68778150607
 20
-1218.2340815987729
 30
0.0
 11
1029.1877815060691
 21
-1218.2340815987729
 31
0.0
  0
ARC
  5
C873
  8
01
 10
1015.68778150607
 20
-1218.7340815987729
 30
0.0
 40
0.5
 50
90.0
 51
180.0
  0
LINE
  5
C874
  8
01
 10
1015.18778150607
 20
-1223.2340815987729
 30
0.0
 11
1015.18778150607
 21
-1218.7340815987729
 31
0.0
  0
ARC
  5
C875
  8
01
 10
1014.18778150607
 20
-1223.2340815987729
 30
0.0
 40
1.0
 50
270.0
 51
0.0
  0
LINE
  5
C876
  8
01
 10
1129.18778150607
 20
-1199.234081598772
 30
0.0
 11
1129.18778150607
 21
-1219.2340815987729
 31
0.0
  0
LINE
  5
C877
  8
01
 10
1029.1877815060691
 20
-1219.2340815987729
 30
0.0
 11
1029.1877815060691
 21
-1199.234081598772
 31
0.0
  0
LINE
  5
C878
  8
01
 10
1030.18778150607
 20
-1198.2340815987729
 30
0.0
 11
1128.18778150607
 21
-1198.2340815987729
 31
0.0
  0
ARC
  5
C879
  8
01
 10
1030.18778150607
 20
-1199.234081598772
 30
0.0
 40
1.0
 50
90.0
 51
180.0
  0
ARC
  5
C87A
  8
01
 10
1128.18778150607
 20
-1199.234081598772
 30
0.0
 40
1.0
 50
0.0
 51
90.0
  0
LINE
  5
C87B
  8
01
 10
1030.18778150607
 20
-1220.234081598772
 30
0.0
 11
1128.18778150607
 21
-1220.234081598772
 31
0.0
  0
ARC
  5
C87C
  8
01
 10
1030.18778150607
 20
-1219.2340815987729
 30
0.0
 40
1.0
 50
180.0
 51
270.0
  0
ARC
  5
C87D
  8
01
 10
1128.18778150607
 20
-1219.2340815987729
 30
0.0
 40
1.0
 50
270.0
 51
0.0
  0
ARC
  5
C87E
  8
01
 10
1021.512336826406
 20
-1209.234081598772
 30
0.0
 40
10.999999999999959
 50
125.0968012276096
 51
234.9031987723904
  0
LINE
  5
C889
  8
01
 10
993.18778150606977
 20
-1063.2340815987729
 30
0.0
 11
993.18778150606977
 21
-1114.2340815987729
 31
0.0
  0
LINE
  5
C88A
  8
01
 10
1029.1877815060691
 20
-1068.234081598772
 30
0.0
 11
1029.1877815060691
 21
-1086.2340815987729
 31
0.0
  0
LINE
  5
C88C
  8
01
 10
1015.68778150607
 20
-1086.2340815987729
 30
0.0
 11
1029.1877815060691
 21
-1086.2340815987729
 31
0.0
  0
LINE
  5
C88D
  8
01
 10
1015.18778150607
 20
-1086.734081598772
 30
0.0
 11
1015.18778150607
 21
-1114.2340815987729
 31
0.0
  0
LINE
  5
C88E
  8
01
 10
1015.18778150607
 20
-1114.2340815987729
 30
0.0
 11
1011.93778150607
 21
-1114.2340815987729
 31
0.0
  0
ARC
  5
C88F
  8
01
 10
1015.68778150607
 20
-1086.734081598772
 30
0.0
 40
0.5
 50
90.000000000000028
 51
180.0
  0
LINE
  5
C890
  8
01
 10
1014.18778150607
 20
-1062.234081598772
 30
0.0
 11
994.18778150606965
 21
-1062.234081598772
 31
0.0
  0
ARC
  5
C891
  8
01
 10
994.18778150606965
 20
-1063.2340815987729
 30
0.0
 40
1.0
 50
90.000000000000028
 51
180.0
  0
LINE
  5
C892
  8
01
 10
1015.68778150607
 20
-1068.234081598772
 30
0.0
 11
1029.1877815060691
 21
-1068.234081598772
 31
0.0
  0
ARC
  5
C893
  8
01
 10
1015.68778150607
 20
-1067.7340815987729
 30
0.0
 40
0.5
 50
180.0
 51
270.0
  0
LINE
  5
C894
  8
01
 10
1015.18778150607
 20
-1063.2340815987729
 30
0.0
 11
1015.18778150607
 21
-1067.7340815987729
 31
0.0
  0
ARC
  5
C895
  8
01
 10
1014.18778150607
 20
-1063.2340815987729
 30
0.0
 40
1.0
 50
0.0
 51
90.000000000000028
  0
LINE
  5
C896
  8
01
 10
1129.18778150607
 20
-1087.234081598772
 30
0.0
 11
1129.18778150607
 21
-1067.2340815987729
 31
0.0
  0
LINE
  5
C897
  8
01
 10
1029.1877815060691
 20
-1067.2340815987729
 30
0.0
 11
1029.1877815060691
 21
-1087.234081598772
 31
0.0
  0
LINE
  5
C898
  8
01
 10
1030.18778150607
 20
-1088.234081598772
 30
0.0
 11
1128.18778150607
 21
-1088.234081598772
 31
0.0
  0
ARC
  5
C899
  8
01
 10
1030.18778150607
 20
-1087.234081598772
 30
0.0
 40
1.0
 50
180.0
 51
270.0
  0
ARC
  5
C89A
  8
01
 10
1128.18778150607
 20
-1087.234081598772
 30
0.0
 40
1.0
 50
270.0
 51
0.0
  0
LINE
  5
C89B
  8
01
 10
1030.18778150607
 20
-1066.234081598772
 30
0.0
 11
1128.18778150607
 21
-1066.234081598772
 31
0.0
  0
ARC
  5
C89C
  8
01
 10
1030.18778150607
 20
-1067.2340815987729
 30
0.0
 40
1.0
 50
90.000000000000028
 51
180.0
  0
ARC
  5
C89D
  8
01
 10
1128.18778150607
 20
-1067.2340815987729
 30
0.0
 40
1.0
 50
0.0
 51
90.000000000000028
  0
ARC
  5
C89E
  8
01
 10
1021.512336826406
 20
-1077.234081598772
 30
0.0
 40
10.999999999999959
 50
125.0968012276096
 51
234.9031987723904
  0
ARC
  5
C89F
  8
01
 10
664.18767316632409
 20
-1413.2340815977441
 30
0.0
 40
25.0
 50
201.10019602408681
 51
158.89980397591319
  0
LINE
  5
C8A0
  8
01
 10
639.18767316632409
 20
-1422.2340815977441
 30
0.0
 11
639.18767316632409
 21
-1404.2340815977441
 31
0.0
  0
LINE
  5
C8A1
  8
01
 10
657.86311784598729
 20
-1404.2340815977441
 30
0.0
 11
639.18767316632409
 21
-1404.2340815977441
 31
0.0
  0
LINE
  5
C8A2
  8
01
 10
657.86311784598729
 20
-1422.2340815977441
 30
0.0
 11
639.18767316632409
 21
-1422.2340815977441
 31
0.0
  0
LINE
  5
C8A3
  8
01
 10
539.18767316632409
 20
-1403.2340815977441
 30
0.0
 11
539.18767316632409
 21
-1423.2340815977441
 31
0.0
  0
LINE
  5
C8A4
  8
01
 10
639.18767316632409
 20
-1423.2340815977441
 30
0.0
 11
639.18767316632409
 21
-1403.2340815977441
 31
0.0
  0
LINE
  5
C8A5
  8
01
 10
638.1876731663242
 20
-1402.2340815977441
 30
0.0
 11
540.1876731663242
 21
-1402.2340815977441
 31
0.0
  0
ARC
  5
C8A6
  8
01
 10
638.1876731663242
 20
-1403.2340815977441
 30
0.0
 40
1.0
 50
0.000000000000007
 51
90.0
  0
ARC
  5
C8A7
  8
01
 10
540.1876731663242
 20
-1403.2340815977441
 30
0.0
 40
1.0
 50
90.0
 51
180.0
  0
LINE
  5
C8A8
  8
01
 10
638.1876731663242
 20
-1424.2340815977441
 30
0.0
 11
540.1876731663242
 21
-1424.2340815977441
 31
0.0
  0
ARC
  5
C8A9
  8
01
 10
638.1876731663242
 20
-1423.2340815977441
 30
0.0
 40
1.0
 50
270.0
 51
0.000000000000007
  0
ARC
  5
C8AA
  8
01
 10
540.1876731663242
 20
-1423.2340815977441
 30
0.0
 40
1.0
 50
180.0
 51
270.0
  0
CIRCLE
  5
C8AB
  8
01
 10
664.18767316632409
 20
-1413.2340815977441
 30
0.0
 40
11.0
  0
LINE
  5
C9C5
  8
01
 10
649.18768516632542
 20
-1168.7340815977441
 30
0.0
 11
806.68768516632542
 21
-1168.734081597745
 31
0.0
  0
TEXT
  5
C9C6
  8
01
 10
650.88768516632581
 20
-1166.4840815977441
 30
0.0
 40
6.0
  1
表面処理：脚部
 72
     1
 11
675.28768516632567
 21
-1166.4840815977441
 31
0.0
  0
LINE
  5
C9C7
  8
01
 10
649.18768516632542
 20
-1158.2340815977441
 30
0.0
 11
806.68768516632542
 21
-1158.2340815977441
 31
0.0
  0
TEXT
  5
C9C8
  8
01
 10
770.28768516632567
 20
-1166.4840815977441
 30
0.0
 40
6.0
  1
コード
 72
     1
 11
780.28768516632567
 21
-1166.4840815977441
 31
0.0
  0
TEXT
  5
C9C9
  8
01
 10
703.38768516632581
 20
-1166.4840815977441
 30
0.0
 40
6.0
  1
表面処理：握り
 72
     1
 11
727.78768516632579
 21
-1166.4840815977441
 31
0.0
  0
LINE
  5
C9CA
  8
01
 10
649.18768516632542
 20
-1200.2340815977429
 30
0.0
 11
806.68768516632542
 21
-1200.2340815977441
 31
0.0
  0
TEXT
  5
C9CB
  8
01
 10
703.38768516632672
 20
-1177.3056170732179
 30
0.0
 40
6.0
  1
ライトブラウン
 72
     1
 11
727.7876851663267
 21
-1177.3056170732179
 31
0.0
  0
TEXT
  5
C9CC
  8
01
 10
658.08768516632574
 20
-1187.450924127721
 30
0.0
 40
6.0
  1
本金メッキ
 72
     1
 11
675.28768516632567
 21
-1187.450924127721
 31
0.0
  0
LINE
  5
C9CD
  8
01
 10
701.68768516632542
 20
-1158.2340815977441
 30
0.0
 11
701.68768516632451
 21
-1231.7340815977429
 31
0.0
  0
LINE
  5
C9CE
  8
01
 10
754.18768516632451
 20
-1158.2340815977441
 30
0.0
 11
754.18768516632997
 21
-1231.7340815977429
 31
0.0
  0
LINE
  5
C9CF
  8
01
 10
806.68768516632542
 20
-1158.2340815977441
 30
0.0
 11
806.68768516632451
 21
-1231.7340815977429
 31
0.0
  0
LINE
  5
C9D0
  8
01
 10
649.18768516632451
 20
-1231.734081597742
 30
0.0
 11
649.18768516632451
 21
-1158.2340815977441
 31
0.0
  0
LINE
  5
C9D1
  8
01
 10
701.68768516632542
 20
-1179.2340815977441
 30
0.0
 11
806.68768516632542
 21
-1179.234081597745
 31
0.0
  0
LINE
  5
C9D2
  8
01
 10
701.68768516632542
 20
-1189.7340815977441
 30
0.0
 11
806.68768516632542
 21
-1189.734081597745
 31
0.0
  0
LINE
  5
C9D3
  8
01
 10
649.18768516632542
 20
-1231.7340815977429
 30
0.0
 11
806.68768516632542
 21
-1231.7340815977429
 31
0.0
  0
TEXT
  5
C9D4
  8
01
 10
661.68768516632565
 20
-1218.9509241277201
 30
0.0
 40
6.0
  1
クローム
 72
     1
 11
675.28768516632567
 21
-1218.9509241277201
 31
0.0
  0
LINE
  5
C9D5
  8
01
 10
701.68768516632542
 20
-1210.7340815977429
 30
0.0
 11
806.68768516632542
 21
-1210.7340815977441
 31
0.0
  0
LINE
  5
C9D6
  8
01
 10
701.68768516632542
 20
-1221.2340815977429
 30
0.0
 11
806.68768516632542
 21
-1221.2340815977441
 31
0.0
  0
TEXT
  5
C9D7
  8
01
 10
755.98768516632674
 20
-1177.3056170732191
 30
0.0
 40
6.0
  1
2-KSC-G1-LW
 41
0.7
 72
     1
 11
780.2876851663267
 21
-1177.3056170732191
 31
0.0
  0
TEXT
  5
C9D8
  8
01
 10
755.98768516632674
 20
-1187.8056170732191
 30
0.0
 40
6.0
  1
2-KSC-G2-LW
 41
0.7
 72
     1
 11
780.2876851663267
 21
-1187.8056170732191
 31
0.0
  0
TEXT
  5
C9D9
  8
01
 10
755.98768516632674
 20
-1198.3056170732191
 30
0.0
 40
6.0
  1
2-KSC-G3-LW
 41
0.7
 72
     1
 11
780.2876851663267
 21
-1198.3056170732191
 31
0.0
  0
TEXT
  5
C9DA
  8
01
 10
755.98768516632583
 20
-1208.8056170732179
 30
0.0
 40
6.0
  1
2-KSC-C1-LW
 41
0.7
 72
     1
 11
780.28768516632567
 21
-1208.8056170732179
 31
0.0
  0
TEXT
  5
C9DB
  8
01
 10
755.98768516632583
 20
-1219.3056170732179
 30
0.0
 40
6.0
  1
2-KSC-C2-LW
 41
0.7
 72
     1
 11
780.28768516632567
 21
-1219.3056170732179
 31
0.0
  0
TEXT
  5
C9DC
  8
01
 10
755.98768516632583
 20
-1229.8056170732179
 30
0.0
 40
6.0
  1
2-KSC-C3-LW
 41
0.7
 72
     1
 11
780.28768516632567
 21
-1229.8056170732179
 31
0.0
  0
TEXT
  5
C9DD
  8
01
 10
710.58768516632392
 20
-1187.2004520150999
 30
0.0
 40
6.0
  1
ミディアム
 72
     1
 11
727.78768516632385
 21
-1187.2004520150999
 31
0.0
  0
TEXT
  5
C9DE
  8
01
 10
703.38768516632388
 20
-1197.7004520150999
 30
0.0
 40
6.0
  1
ダークブラウン
 72
     1
 11
727.78768516632385
 21
-1197.7004520150999
 31
0.0
  0
TEXT
  5
C9DF
  8
01
 10
703.38768516632626
 20
-1208.805617073217
 30
0.0
 40
6.0
  1
ライトブラウン
 72
     1
 11
727.78768516632636
 21
-1208.805617073217
 31
0.0
  0
TEXT
  5
C9E0
  8
01
 10
710.58768516632358
 20
-1218.700452015099
 30
0.0
 40
6.0
  1
ミディアム
 72
     1
 11
727.78768516632363
 21
-1218.700452015099
 31
0.0
  0
TEXT
  5
C9E1
  8
01
 10
703.38768516632365
 20
-1229.200452015099
 30
0.0
 40
6.0
  1
ダークブラウン
 72
     1
 11
727.78768516632363
 21
-1229.200452015099
 31
0.0
  0
TEXT
  5
C9FF
  8
01
 10
649.18768516632451
 20
-1128.2340815977441
 30
0.0
 40
20.0
  1
2-KSC-X-LW
  0
LINE
  5
CE80
  8
01
 10
754.18766916632467
 20
-1402.2340815977441
 30
0.0
 11
805.18766916632467
 21
-1402.2340815977441
 31
0.0
  0
LINE
  5
CE81
  8
01
 10
805.18766916632467
 20
-1420.9840815977441
 30
0.0
 11
805.18766916632467
 21
-1402.2340815977441
 31
0.0
  0
LINE
  5
CE82
  8
01
 10
754.18766916632467
 20
-1424.2340815977441
 30
0.0
 11
805.18766916632467
 21
-1424.2340815977441
 31
0.0
  0
LINE
  5
CE83
  8
01
 10
805.18766916632467
 20
-1424.2340815977441
 30
0.0
 11
805.18766916632467
 21
-1420.9840815977441
 31
0.0
  0
LINE
  5
CE84
  8
01
 10
753.18766916632478
 20
-1423.2340815977441
 30
0.0
 11
753.18766916632478
 21
-1403.2340815977441
 31
0.0
  0
ARC
  5
CE85
  8
01
 10
754.18766916632467
 20
-1403.2340815977441
 30
0.0
 40
1.0
 50
90.0
 51
180.0
  0
ARC
  5
CE86
  8
01
 10
754.18766916632467
 20
-1423.2340815977441
 30
0.0
 40
1.0
 50
180.0
 51
270.0
  0
LINE
  5
CEB3
  8
01
 10
984.97829245402647
 20
-1429.2340815977441
 30
0.0
 11
1022.187665166325
 21
-1429.2340815977441
 31
0.0
  0
LINE
  5
CEB4
  8
01
 10
1022.187665166325
 20
-1395.884730024846
 30
0.0
 11
1022.187665166325
 21
-1429.2340815977441
 31
0.0
  0
LINE
  5
D09B
  8
01
 10
1000.883911434307
 20
-1114.2340815987729
 30
0.0
 11
993.18778150606977
 21
-1114.2340815987729
 31
0.0
  0
LINE
  5
D801
  8
01
 10
814.18766916632376
 20
-1388.2340815977441
 30
0.0
 11
814.18766916632558
 21
-1438.2340815977441
 31
0.0
  0
LINE
  5
D802
  8
01
 10
805.68766916632387
 20
-1388.7340815977409
 30
0.0
 11
805.68766916632751
 21
-1437.7340815977441
 31
0.0
  0
LINE
  5
D803
  8
01
 10
814.18766916632558
 20
-1438.2340815977441
 30
0.0
 11
806.18766916632751
 21
-1438.2340815977441
 31
0.0
  0
ARC
  5
D804
  8
01
 10
806.18766916632751
 20
-1437.7340815977441
 30
0.0
 40
0.5
 50
180.0
 51
270.0
  0
LINE
  5
D805
  8
01
 10
814.18766916632376
 20
-1388.2340815977441
 30
0.0
 11
806.18766916632433
 21
-1388.2340815977409
 31
0.0
  0
ARC
  5
D806
  8
01
 10
806.18766916632376
 20
-1388.7340815977409
 30
0.0
 40
0.5
 50
89.999999999973952
 51
180.0
  0
LINE
  5
D807
  8
01
 10
854.1876691663274
 20
-1388.2340815977441
 30
0.0
 11
854.18766916632558
 21
-1438.2340815977441
 31
0.0
  0
LINE
  5
D808
  8
01
 10
862.68766916632751
 20
-1388.7340815977409
 30
0.0
 11
862.68766916632387
 21
-1437.7340815977441
 31
0.0
  0
LINE
  5
D809
  8
01
 10
854.18766916632558
 20
-1438.2340815977441
 30
0.0
 11
862.18766916632387
 21
-1438.2340815977441
 31
0.0
  0
ARC
  5
D80A
  8
01
 10
862.18766916632387
 20
-1437.7340815977441
 30
0.0
 40
0.5
 50
270.0
 51
0.0
  0
LINE
  5
D80B
  8
01
 10
854.1876691663274
 20
-1388.2340815977441
 30
0.0
 11
862.1876691663274
 21
-1388.2340815977409
 31
0.0
  0
ARC
  5
D80C
  8
01
 10
862.1876691663274
 20
-1388.7340815977409
 30
0.0
 40
0.5
 50
0.0
 51
90.000000000026048
  0
LINE
  5
D80D
  8
01
 10
860.48766916632849
 20
-1377.2340815977291
 30
0.0000000000562575
 11
860.48766916632849
 21
-1338.2340815977291
 31
0.0000000000562575
  0
LINE
  5
D80E
  8
01
 10
854.18766916632853
 20
-1337.7340815977279
 30
0.0000000000562575
 11
854.18766916632376
 21
-1377.7340815977359
 31
0.0000000000562575
  0
LINE
  5
D80F
  8
01
 10
854.18766916632853
 20
-1377.7340815977291
 30
0.0000000000562575
 11
859.9876691663286
 21
-1377.7340815977291
 31
0.0000000000562575
  0
ARC
  5
D810
  8
01
 10
859.9876691663286
 20
-1377.2340815977291
 30
0.0000000000562575
 40
0.5
 50
270.0
 51
0.0
  0
LINE
  5
D811
  8
01
 10
854.18766916632853
 20
-1337.7340815977279
 30
0.0000000000562575
 11
859.9876691663286
 21
-1337.7340815977291
 31
0.0000000000562575
  0
ARC
  5
D812
  8
01
 10
859.9876691663286
 20
-1338.2340815977291
 30
0.0000000000562575
 40
0.5
 50
0.0
 51
90.0
  0
LINE
  5
D813
  8
01
 10
861.21106916632925
 20
-1359.7340802767969
 30
-0.0000000000001137
 11
860.48766916632849
 21
-1359.7340802767969
 31
-0.0000000000001137
  0
LINE
  5
D814
  8
01
 10
861.21106916632925
 20
-1366.7340802767969
 30
-0.0000000000001137
 11
860.48766916632849
 21
-1366.7340802767969
 31
-0.0000000000001137
  0
LINE
  5
D815
  8
01
 10
807.88766916632869
 20
-1377.2340815977359
 30
0.0
 11
807.88766916632869
 21
-1338.2340815977359
 31
0.0
  0
LINE
  5
D816
  8
01
 10
814.18766916632933
 20
-1337.7340815977359
 30
0.0
 11
814.18766916632376
 21
-1377.7340815977359
 31
0.0
  0
LINE
  5
D817
  8
01
 10
814.18766916632933
 20
-1377.7340815977359
 30
0.0
 11
808.38766916632835
 21
-1377.7340815977359
 31
0.0
  0
ARC
  5
D818
  8
01
 10
808.38766916632835
 20
-1377.2340815977359
 30
0.0
 40
0.5
 50
180.0
 51
270.0
  0
LINE
  5
D819
  8
01
 10
814.18766916632933
 20
-1337.7340815977359
 30
0.0
 11
808.38766916632835
 21
-1337.7340815977359
 31
0.0
  0
ARC
  5
D81A
  8
01
 10
808.38766916632835
 20
-1338.2340815977359
 30
0.0
 40
0.5
 50
90.0
 51
180.0
  0
LINE
  5
D81B
  8
01
 10
793.18728360060686
 20
-1374.2340865977351
 30
0.0
 11
807.88766916632869
 21
-1374.234086597736
 31
0.0
  0
LINE
  5
D81C
  8
01
 10
806.68730654481863
 20
-1352.734086597736
 30
0.0
 11
806.68730654481396
 21
-1373.734086597736
 31
0.0
  0
LINE
  5
D81D
  8
01
 10
793.18728360060925
 20
-1352.234086597736
 30
0.0
 11
807.88766916632869
 21
-1352.234086597736
 31
0.0
  0
ARC
  5
D81E
  8
01
 10
793.18728360060925
 20
-1353.2340865977351
 30
0.0
 40
1.0
 50
90.0
 51
180.0
  0
LINE
  5
D81F
  8
01
 10
792.18728360060697
 20
-1353.2340865977351
 30
0.0
 11
792.18728360060697
 21
-1373.234086597733
 31
0.0
  0
ARC
  5
D820
  8
01
 10
793.18728360060686
 20
-1373.234086597733
 30
0.0
 40
1.0
 50
180.0
 51
270.0
  0
ARC
  5
D821
  8
01
 10
807.18730654481408
 20
-1352.734086597736
 30
0.0
 40
0.5
 50
90.0
 51
179.99999999997391
  0
ARC
  5
D822
  8
01
 10
807.18730654481408
 20
-1373.734086597736
 30
0.0
 40
0.5
 50
179.99999999997391
 51
270.0
  0
LINE
  5
D823
  8
01
 10
855.68766916632751
 20
-1377.7340815977359
 30
0.0000000000562575
 11
854.1876691663274
 21
-1377.7340815977359
 31
0.0000000000562575
  0
LINE
  5
D824
  8
01
 10
812.68766916633012
 20
-1377.7340815977429
 30
0.0
 11
814.18766916633024
 21
-1377.7340815977429
 31
0.0
  0
ARC
  5
D825
  8
01
 10
855.42603425408936
 20
-1363.2340803086199
 30
-0.0000000000001137
 40
6.7614049222401134
 50
328.82566316459219
 51
31.174340835420569
  0
CIRCLE
  5
D826
  8
01
 10
664.18767316632488
 20
-1363.2340815977441
 30
0.0
 40
11.30000000000109
  0
LINE
  5
D827
  8
01
 10
666.687673166325
 20
-1352.9263226269429
 30
0.0
 11
666.687673166325
 21
-1373.541840568545
 31
0.0
  0
LINE
  5
D828
  8
01
 10
661.687673166325
 20
-1352.9263226269429
 30
0.0
 11
661.687673166325
 21
-1373.541840568545
 31
0.0
  0
ARC
  5
D829
  8
01
 10
662.187673166325
 20
-1352.9263226269429
 30
0.0
 40
0.5
 50
100.98058072142879
 51
180.0
  0
ARC
  5
D82A
  8
01
 10
666.187673166325
 20
-1352.9263226269429
 30
0.0
 40
0.5
 50
0.0
 51
79.019419278571149
  0
ARC
  5
D82B
  8
01
 10
662.187673166325
 20
-1373.541840568545
 30
0.0
 40
0.5
 50
180.0
 51
259.01941927857121
  0
ARC
  5
D82C
  8
01
 10
666.187673166325
 20
-1373.541840568545
 30
0.0
 40
0.5
 50
280.98058072142891
 51
0.0
  0
CIRCLE
  5
D82D
  8
01
 10
664.18767316632272
 20
-1357.7340815977441
 30
0.0
 40
20.000000000000071
  0
CIRCLE
  5
D82E
  8
01
 10
664.18767316632454
 20
-1363.2340815977441
 30
0.0
 40
11.0
  0
CIRCLE
  5
D82F
  8
01
 10
1004.187665166325
 20
-1363.46125031314
 30
0.0
 40
3.75
  0
CIRCLE
  5
D830
  8
01
 10
1004.187665166325
 20
-1363.4612505172679
 30
0.0
 40
3.5000004999999992
  0
LINE
  5
D831
  8
01
 10
1005.187665166325
 20
-1366.8153533172681
 30
0.0
 11
1005.187665166325
 21
-1360.1071465172679
 31
0.0
  0
LINE
  5
D832
  8
01
 10
1003.187665166325
 20
-1366.8153533172681
 30
0.0
 11
1003.187665166325
 21
-1360.1071465172679
 31
0.0
  0
CIRCLE
  5
D833
  8
01
 10
1004.187664843865
 20
-1357.9612505172679
 30
0.0
 40
19.99999999999962
  0
LINE
  5
D834
  8
01
 10
979.1877815060692
 20
-1163.2340815987729
 30
0.0
 11
979.1877815060692
 21
-1171.2340815987729
 31
0.0
  0
LINE
  5
D835
  8
01
 10
1029.1877815060691
 20
-1163.2340815987729
 30
0.0
 11
1029.1877815060691
 21
-1171.2340815987729
 31
0.0
  0
LINE
  5
D836
  8
01
 10
984.18778118361058
 20
-1163.2340815987729
 30
0.0
 11
984.18778118361058
 21
-1169.0340815987729
 31
0.0
  0
LINE
  5
D837
  8
01
 10
1024.1877811836091
 20
-1163.2340815987729
 30
0.0
 11
1024.1877811836091
 21
-1169.0340815987729
 31
0.0
  0
LINE
  5
D838
  8
01
 10
979.1877815060692
 20
-1163.2340815987729
 30
0.0
 11
1029.1877815060691
 21
-1163.2340815987729
 31
0.0
  0
LINE
  5
D839
  8
01
 10
984.68778118361058
 20
-1169.5340815987729
 30
0.0
 11
1023.68778118361
 21
-1169.5340815987729
 31
0.0
  0
LINE
  5
D83A
  8
01
 10
979.6877815060692
 20
-1171.7340815987729
 30
0.0
 11
1028.6877815060691
 21
-1171.7340815987729
 31
0.0
  0
ARC
  5
D83B
  8
01
 10
984.68778118361058
 20
-1169.0340815987729
 30
0.0
 40
0.5
 50
180.0
 51
270.0
  0
ARC
  5
D83C
  8
01
 10
1023.68778118361
 20
-1169.0340815987729
 30
0.0
 40
0.5
 50
270.0
 51
0.0
  0
ARC
  5
D83D
  8
01
 10
979.6877815060692
 20
-1171.2340815987729
 30
0.0
 40
0.5
 50
179.99999999997391
 51
270.0
  0
ARC
  5
D83E
  8
01
 10
1028.6877815060691
 20
-1171.2340815987729
 30
0.0
 40
0.5
 50
270.0
 51
0.0
  0
LINE
  5
D83F
  8
01
 10
1005.187782827006
 20
-1170.9338515987729
 30
-0.0000000000001137
 11
1005.187782827006
 21
-1169.5340815987729
 31
-0.0000000000001137
  0
ARC
  5
D840
  8
01
 10
1002.887783827007
 20
-1170.9338515987729
 30
-0.0000000000001137
 40
0.30000001
 50
256.8165200000056
 51
0.0000029999846689
  0
ARC
  5
D841
  8
01
 10
1004.187782827006
 20
-1165.384081598773
 30
-0.0000000000001137
 40
6.0
 50
283.18348199998479
 51
305.68533400000791
  0
ARC
  5
D842
  8
01
 10
1005.487785827007
 20
-1170.9338515987729
 30
-0.0000000000001137
 40
0.30000001
 50
180.0
 51
283.18348199998479
  0
LINE
  5
D843
  8
01
 10
1007.687782827006
 20
-1170.257481598773
 30
-0.0000000000001137
 11
1007.687782827006
 21
-1169.5340815987729
 31
-0.0000000000001137
  0
LINE
  5
D844
  8
01
 10
1000.687782827006
 20
-1170.257481598773
 30
-0.0000000000001137
 11
1000.687782827006
 21
-1169.5340815987729
 31
-0.0000000000001137
  0
ARC
  5
D845
  8
01
 10
1004.187782827006
 20
-1165.384081598773
 30
-0.0000000000001137
 40
6.0
 50
234.3146700000031
 51
256.81651749662558
  0
LINE
  5
D846
  8
01
 10
1003.187782827006
 20
-1170.9346300581749
 30
-0.0000000000001137
 11
1003.187782827006
 21
-1169.5340815987729
 31
-0.0000000000001137
  0
LINE
  5
D847
  8
01
 10
979.1877815060692
 20
-1123.2340815987729
 30
0.0
 11
979.1877815060692
 21
-1115.2340815987729
 31
0.0
  0
LINE
  5
D848
  8
01
 10
1029.1877815060691
 20
-1123.2340815987729
 30
0.0
 11
1029.1877815060691
 21
-1115.2340815987729
 31
0.0
  0
LINE
  5
D849
  8
01
 10
984.18778118361058
 20
-1123.2340815987729
 30
0.0
 11
984.18778118361058
 21
-1117.434081598773
 31
0.0
  0
LINE
  5
D84A
  8
01
 10
1024.1877811836091
 20
-1123.2340815987729
 30
0.0
 11
1024.1877811836091
 21
-1117.434081598773
 31
0.0
  0
LINE
  5
D84B
  8
01
 10
979.1877815060692
 20
-1123.2340815987729
 30
0.0
 11
1029.1877815060691
 21
-1123.2340815987729
 31
0.0
  0
LINE
  5
D84C
  8
01
 10
984.68778118361058
 20
-1116.934081598773
 30
0.0
 11
1023.68778118361
 21
-1116.934081598773
 31
0.0
  0
LINE
  5
D84D
  8
01
 10
979.6877815060692
 20
-1114.7340815987729
 30
0.0
 11
1001.687781506062
 21
-1114.7340815987729
 31
0.0
  0
LINE
  5
D84E
  8
01
 10
1006.6877815060629
 20
-1114.7340815987729
 30
0.0
 11
1028.6877815060691
 21
-1114.7340815987729
 31
0.0
  0
ARC
  5
D84F
  8
01
 10
984.68778118361058
 20
-1117.434081598773
 30
0.0
 40
0.5
 50
90.0
 51
180.0
  0
ARC
  5
D850
  8
01
 10
1023.68778118361
 20
-1117.434081598773
 30
0.0
 40
0.5
 50
0.0
 51
90.0
  0
ARC
  5
D851
  8
01
 10
979.6877815060692
 20
-1115.2340815987729
 30
0.0
 40
0.5
 50
90.0
 51
180.0
  0
ARC
  5
D852
  8
01
 10
1028.6877815060691
 20
-1115.2340815987729
 30
0.0
 40
0.5
 50
0.0
 51
90.0
  0
ARC
  5
D853
  8
01
 10
1007.687781506062
 20
-1114.734104542981
 30
0.0
 40
1.0
 50
180.0
 51
270.0
  0
LINE
  5
D854
  8
01
 10
1007.687781506064
 20
-1115.7341045429821
 30
0.0
 11
1014.687786506061
 21
-1115.73410454298
 31
0.0
  0
ARC
  5
D855
  8
01
 10
1014.687786506061
 20
-1116.2341045429789
 30
0.0
 40
0.5
 50
0.0
 51
90.0
  0
ARC
  5
D856
  8
01
 10
1000.68778150606
 20
-1114.7341045429789
 30
0.0
 40
1.0
 50
270.0
 51
0.0
  0
ARC
  5
D857
  8
01
 10
993.68778650606168
 20
-1116.2341045429789
 30
0.0
 40
0.5
 50
90.0
 51
180.0
  0
LINE
  5
D858
  8
01
 10
1001.687781506062
 20
-1102.234081598777
 30
0.0
 11
1001.687781506062
 21
-1114.7341045429789
 31
0.0
  0
ARC
  5
D859
  8
01
 10
1002.68778150606
 20
-1102.234081598775
 30
0.0
 40
1.0
 50
90.0
 51
179.9999999999479
  0
LINE
  5
D85A
  8
01
 10
1002.687781506062
 20
-1101.2340815987729
 30
0.0
 11
1005.68778150606
 21
-1101.2340815987729
 31
0.0
  0
ARC
  5
D85B
  8
01
 10
1005.68778150606
 20
-1102.234081598775
 30
0.0
 40
1.0
 50
0.0
 51
90.0
  0
LINE
  5
D85C
  8
01
 10
1006.687781506062
 20
-1102.234081598775
 30
0.0
 11
1006.6877815060629
 21
-1114.734104542981
 31
0.0
  0
LINE
  5
D85D
  8
01
 10
993.68778650606168
 20
-1115.73410454298
 30
0.0
 11
1000.687781506062
 21
-1115.73410454298
 31
0.0
  0
LINE
  5
D85E
  8
01
 10
993.1877865060618
 20
-1116.2341045429789
 30
0.0
 11
993.1877865060618
 21
-1116.934081598773
 31
0.0
  0
LINE
  5
D85F
  8
01
 10
1015.187786506061
 20
-1116.2341045429789
 30
0.0
 11
1015.187786506061
 21
-1116.934081598773
 31
0.0
  0
LINE
  5
D9EA
  8
01
 10
1022.187665166325
 20
-1354.7340815977441
 30
0.0
 11
1022.187665166325
 21
-1366.4518788190301
 31
0.0
  0
LINE
  5
D9EB
  8
01
 10
1001.187665166325
 20
-1354.7340815977441
 30
0.0
 11
1007.187665166325
 21
-1354.7340815977441
 31
0.0
  0
LINE
  5
D9EC
  8
01
 10
1014.187665166325
 20
-1354.7340815977441
 30
0.0
 11
1022.187665166325
 21
-1354.7340815977441
 31
0.0
  0
LINE
  5
D9ED
  8
01
 10
1001.187665166325
 20
-1355.7340815977429
 30
0.0
 11
1001.187665166325
 21
-1354.7340815977441
 31
0.0
  0
LINE
  5
D9EE
  8
01
 10
1007.187665166325
 20
-1355.7340815977441
 30
0.0
 11
1007.187665166325
 21
-1354.7340815977441
 31
0.0
  0
ARC
  5
D9EF
  8
01
 10
997.68766516632525
 20
-1355.7340815977441
 30
0.0
 40
3.5
 50
179.99999999998701
 51
0.0000000000130276
  0
ARC
  5
D9F0
  8
01
 10
1010.687665166325
 20
-1355.7340815977441
 30
0.0
 40
3.5
 50
180.0
 51
0.0
  0
CIRCLE
  5
D9F1
  8
01
 10
1004.187665166036
 20
-1363.2340815980331
 30
0.0
 40
6.0
  0
LINE
  5
D9F2
  8
01
 10
994.18766516632513
 20
-1354.7340815977441
 30
0.0
 11
984.41394491058145
 21
-1354.7340815977441
 31
0.0
  0
LINE
  5
D9F3
  8
01
  6
BYBLOCK
 10
984.41394491058145
 20
-1354.7340815977441
 30
0.0
 11
956.18766516632536
 21
-1354.7340815977441
 31
0.0
  0
LINE
  5
D9F4
  8
01
 10
994.18766516632502
 20
-1355.7340815977429
 30
0.0
 11
994.18766516632513
 21
-1354.7340815977441
 31
0.0
  0
LINE
  5
D9F5
  8
01
 10
1014.187665166325
 20
-1355.7340815977441
 30
0.0
 11
1014.187665166325
 21
-1354.7340815977441
 31
0.0
  0
LINE
  5
D9F6
  8
01
  6
BYBLOCK
 10
683.96138509960736
 20
-1354.7340815977441
 30
0.0
 11
712.18767316632454
 21
-1354.7340815977441
 31
0.0
  0
LINE
  5
D9F7
  8
01
  6
BYBLOCK
 10
1010.188549348097
 20
-1132.9840815987729
 30
0.0
 11
998.18854934809656
 21
-1132.9840815987729
 31
0.0
  0
LINE
  5
D9F8
  8
01
  6
BYBLOCK
 10
998.18854934809656
 20
-1153.4840815987729
 30
0.0
 11
1010.188549348097
 21
-1153.4840815987729
 31
0.0
  0
LINE
  5
D9F9
  8
01
  6
BYBLOCK
 10
998.18854934809656
 20
-1153.4840815987729
 30
0.0
 11
998.18854934809656
 21
-1152.734081598772
 31
0.0
  0
LINE
  5
D9FA
  8
01
  6
BYBLOCK
 10
998.18854934809656
 20
-1133.7340815987729
 30
0.0
 11
998.18854934809656
 21
-1132.9840815987729
 31
0.0
  0
LINE
  5
D9FB
  8
01
  6
BYBLOCK
 10
1010.188549348097
 20
-1153.4840815987729
 30
0.0
 11
1010.188549348097
 21
-1152.734081598772
 31
0.0
  0
LINE
  5
D9FC
  8
01
  6
BYBLOCK
 10
1010.188549348097
 20
-1133.7340815987729
 30
0.0
 11
1010.188549348097
 21
-1132.9840815987729
 31
0.0
  0
TEXT
  5
DB8D
  8
01
 10
1053.0598844115259
 20
-1184.173267067941
 30
0.0
 40
4.5499999999999989
  1
材質：天然木
  0
TEXT
  5
DB8E
  8
01
 10
1053.0598844115259
 20
-1191.756600401274
 30
0.0
 40
4.5499999999999989
  1
仕上げ：各種仕上げ
  0
SOLID
  5
DB8F
  8
01
 10
1038.2628246682391
 20
-1206.5640087786221
 30
0.0
 11
1036.245656835406
 21
-1208.2607149146299
 31
0.0
 12
1037.6035054980291
 22
-1206.0015060293799
 32
0.0
 13
1037.6035054980291
 23
-1206.0015060293799
 33
0.0
1001
ACAD
1000
DSTYLE
1002
{
1070
    40
1040
1.3
1002
}
  0
LINE
  5
DB91
  8
01
 10
1010.188549348097
 20
-1132.9840815987729
 30
0.0
 11
1045.3489401080981
 21
-1132.9840815987729
 31
0.0
  0
LINE
  5
DB92
  8
01
 10
1010.188549348097
 20
-1153.4840815987729
 30
0.0
 11
1045.3489401080981
 21
-1153.4840815987729
 31
0.0
  0
LINE
  5
DB93
  8
01
 10
1044.048940108099
 20
-1135.5840815987719
 30
0.0
 11
1044.048940108099
 21
-1150.884081598773
 31
0.0
  0
TEXT
  5
DB97
  8
01
 10
914.58415959267541
 20
-1193.650748265439
 30
0.0
 40
4.5499999999999989
  1
材質：亜鉛ダイキャスト
  0
TEXT
  5
DB98
  8
01
 10
925.50415959267525
 20
-1201.234081598772
 30
0.0
 40
4.5499999999999989
  1
仕上げ：各種メッキ
  0
SOLID
  5
DB99
  8
01
 10
1001.610520805609
 20
-1182.388069738683
 30
0.0
 11
1003.928266406386
 21
-1181.1327478246469
 31
0.0
 12
1002.142935783176
 22
-1183.0719157760141
 32
0.0
 13
1002.142935783176
 23
-1183.0719157760141
 33
0.0
1001
ACAD
1000
DSTYLE
1002
{
1070
    40
1040
1.3
1002
}
  0
LINE
  5
DB9B
  8
01
 10
1022.187665166325
 20
-1354.7340815977441
 30
0.0
 11
1050.4876651663251
 21
-1354.7340815977441
 31
0.0
  0
LINE
  5
DB9C
  8
01
 10
1022.187665166325
 20
-1429.2340815977441
 30
0.0
 11
1050.4876651663251
 21
-1429.2340815977441
 31
0.0
  0
LINE
  5
DB9D
  8
01
 10
1049.1876651663249
 20
-1357.334081597744
 30
0.0
 11
1049.1876651663249
 21
-1426.6340815977439
 31
0.0
  0
LINE
  5
DBA1
  8
01
 10
1004.187665166325
 20
-1388.234081597745
 30
0.0
 11
967.88766516632461
 21
-1388.234081597745
 31
0.0
  0
LINE
  5
DBA2
  8
01
 10
1004.187665166325
 20
-1438.2340815977441
 30
0.0
 11
967.88766516632461
 21
-1438.2340815977441
 31
0.0
  0
LINE
  5
DBA3
  8
01
 10
969.18766516632456
 20
-1390.8340815977449
 30
0.0
 11
969.18766516632456
 21
-1435.6340815977439
 31
0.0
  0
LINE
  5
DBA7
  8
01
 10
1128.1876651663249
 20
-1402.2340815977441
 30
0.0
 11
1145.48778150607
 21
-1402.2340815977441
 31
0.0
  0
LINE
  5
DBA8
  8
01
 10
1128.1876651663249
 20
-1424.2340815977441
 30
0.0
 11
1145.48778150607
 21
-1424.2340815977441
 31
0.0
  0
LINE
  5
DBA9
  8
01
 10
1144.1877815060709
 20
-1404.834081597744
 30
0.0
 11
1144.1877815060709
 21
-1421.6340815977439
 31
0.0
  0
LINE
  5
DBAD
  8
01
 10
993.18778150606977
 20
-1223.2340815987729
 30
0.0
 11
993.18778150606977
 21
-1250.5340815987729
 31
0.0
  0
LINE
  5
DBAE
  8
01
 10
1129.18778150607
 20
-1219.2340815987729
 30
0.0
 11
1129.18778150607
 21
-1250.5340815987729
 31
0.0
  0
LINE
  5
DBAF
  8
01
 10
995.78778150606968
 20
-1249.2340815987729
 30
0.0
 11
1126.5877815060701
 21
-1249.2340815987729
 31
0.0
  0
LINE
  5
DBB3
  8
01
 10
1004.18778150607
 20
-1183.0252914856201
 30
0.0
 11
1004.18778150607
 21
-1240.5340815987729
 31
0.0
  0
LINE
  5
DBB4
  8
01
 10
1129.18778150607
 20
-1219.2340815987729
 30
0.0
 11
1129.18778150607
 21
-1240.5340815987729
 31
0.0
  0
LINE
  5
DBB5
  8
01
 10
1006.787781506069
 20
-1239.2340815987729
 30
0.0
 11
1126.5877815060701
 21
-1239.2340815987729
 31
0.0
  0
LINE
  5
DBB9
  8
01
 10
1104.297688789228
 20
-1163.2340815987729
 30
0.0
 11
1155.48778150607
 21
-1163.2340815987729
 31
0.0
  0
LINE
  5
DBBA
  8
01
 10
1014.18778150607
 20
-1224.2340815987729
 30
0.0
 11
1155.48778150607
 21
-1224.2340815987729
 31
0.0
  0
LINE
  5
DBBB
  8
01
 10
1154.1877815060691
 20
-1165.8340815987719
 30
0.0
 11
1154.1877815060691
 21
-1221.634081598773
 31
0.0
  0
LINE
  5
DBBF
  8
01
 10
1104.297688789228
 20
-1163.2340815987729
 30
0.0
 11
1145.48778150607
 21
-1163.2340815987729
 31
0.0
  0
LINE
  5
DBC0
  8
01
 10
1128.18778150607
 20
-1198.2340815987729
 30
0.0
 11
1145.48778150607
 21
-1198.2340815987729
 31
0.0
  0
LINE
  5
DBC1
  8
01
 10
1144.18778150607
 20
-1165.8340815987719
 30
0.0
 11
1144.18778150607
 21
-1195.634081598773
 31
0.0
  0
LINE
  5
DBC5
  8
01
 10
840.68766916632478
 20
-1327.2340815977441
 30
0.0
 11
895.48766916632439
 21
-1327.2340815977441
 31
0.0
  0
LINE
  5
DBC6
  8
01
 10
840.68766916632478
 20
-1457.2340815977441
 30
0.0
 11
895.48766916632439
 21
-1457.2340815977441
 31
0.0
  0
LINE
  5
DBC7
  8
01
 10
894.18766916632455
 20
-1329.834081597744
 30
0.0
 11
894.18766916632455
 21
-1454.6340815977439
 31
0.0
  0
LINE
  5
DBCB
  8
01
 10
840.68766916632478
 20
-1335.2340815977441
 30
0.0
 11
879.99126020288134
 21
-1335.2340815977441
 31
0.0
  0
LINE
  5
DBCC
  8
01
 10
840.68766916632478
 20
-1449.2340815977441
 30
0.0
 11
879.99126020288134
 21
-1449.2340815977441
 31
0.0
  0
LINE
  5
DBCD
  8
01
 10
878.69126020288127
 20
-1337.834081597744
 30
0.0
 11
878.69126020288127
 21
-1446.6340815977439
 31
0.0
  0
LINE
  5
DBD1
  8
01
 10
634.1876731663242
 20
-1413.2340815977441
 30
0.0
 11
619.88768516632467
 21
-1413.2340815977441
 31
0.0
  0
LINE
  5
DBD2
  8
01
 10
641.68766516632354
 20
-1357.7340815977441
 30
0.0
 11
619.88768516632467
 21
-1357.7340815977441
 31
0.0
  0
LINE
  5
DBD3
  8
01
 10
621.18768516632474
 20
-1410.6340815977439
 30
0.0
 11
621.18768516632474
 21
-1360.334081597744
 31
0.0
  0
LINE
  5
DBD7
  8
01
 10
634.1876731663242
 20
-1413.2340815977441
 30
0.0
 11
629.88768516632479
 21
-1413.2340815977441
 31
0.0
  0
LINE
  5
DBD8
  8
01
 10
651.18766516632354
 20
-1363.2340815977441
 30
0.0
 11
629.88768516632479
 21
-1363.2340815977441
 31
0.0
  0
LINE
  5
DBD9
  8
01
 10
631.18768516632474
 20
-1410.6340815977439
 30
0.0
 11
631.18768516632474
 21
-1365.834081597744
 31
0.0
  0
LINE
  5
DBDD
  8
01
 10
644.38766616632336
 20
-1357.7340815977441
 30
0.0
 11
644.38766616632336
 21
-1328.9340815977439
 31
0.0
  0
LINE
  5
DBDE
  8
01
 10
683.98766416632338
 20
-1357.7340815977441
 30
0.0
 11
683.98766416632338
 21
-1328.9340815977439
 31
0.0
  0
LINE
  5
DBDF
  8
01
 10
646.98766616632327
 20
-1330.2340815977441
 30
0.0
 11
681.38766416632348
 21
-1330.2340815977441
 31
0.0
  0
LINE
  5
DBE3
  8
01
 10
984.38766616632518
 20
-1357.7340815977441
 30
0.0
 11
984.38766616632518
 21
-1328.9340815977439
 31
0.0
  0
LINE
  5
DBE4
  8
01
 10
1023.987664166325
 20
-1357.7340815977441
 30
0.0
 11
1023.987664166325
 21
-1328.9340815977439
 31
0.0
  0
LINE
  5
DBE5
  8
01
 10
986.98766616632508
 20
-1330.2340815977441
 30
0.0
 11
1021.387664166325
 21
-1330.2340815977441
 31
0.0
  0
LINE
  5
DBE9
  8
01
 10
792.18728360060925
 20
-1353.2340865977351
 30
0.0
 11
792.18728360060925
 21
-1305.9340815977439
 31
0.0
  0
LINE
  5
DBEA
  8
01
 10
814.18766916632467
 20
-1320.7367015977441
 30
0.0
 11
814.18766916632467
 21
-1305.9340815977439
 31
0.0
  0
LINE
  5
DBEB
  8
01
 10
794.78728360060927
 20
-1307.2340815977441
 30
0.0
 11
811.58766916632453
 21
-1307.2340815977441
 31
0.0
  0
LINE
  5
DBEF
  8
01
 10
854.18766916632467
 20
-1320.7367015977429
 30
0.0
 11
854.18766916632467
 21
-1305.9340815977439
 31
0.0
  0
LINE
  5
DBF0
  8
01
 10
862.18743917632946
 20
-1363.2340803086199
 30
0.0
 11
862.18743917632946
 21
-1305.9340815977439
 31
0.0
  0
LINE
  5
DBF1
  8
01
 10
856.78766916632469
 20
-1307.2340815977441
 30
0.0
 11
859.58743917632944
 21
-1307.2340815977441
 31
0.0
  0
LINE
  5
DBF5
  8
01
 10
800.98670727200124
 20
-1412.4840815977441
 30
0.0
 11
799.68766916632467
 21
-1411.7340815977441
 31
0.0
  0
LINE
  5
DBF6
  8
01
 10
799.68766916632467
 20
-1411.7340815977441
 30
0.0
 11
798.38863106064809
 21
-1412.4840815977441
 31
0.0
  0
LINE
  5
DBF7
  8
01
 10
798.38863106064809
 20
-1412.4840815977441
 30
0.0
 11
798.38863106064809
 21
-1413.9840815977441
 31
0.0
  0
LINE
  5
DBF8
  8
01
 10
798.38863106064809
 20
-1413.9840815977441
 30
0.0
 11
799.68766916632467
 21
-1414.7340815977441
 31
0.0
  0
LINE
  5
DBF9
  8
01
 10
799.68766916632467
 20
-1414.7340815977441
 30
0.0
 11
800.98670727200124
 21
-1413.9840815977441
 31
0.0
  0
LINE
  5
DBFA
  8
01
 10
800.98670727200124
 20
-1413.9840815977441
 30
0.0
 11
800.98670727200124
 21
-1412.4840815977441
 31
0.0
  0
CIRCLE
  5
DBFB
  8
01
 10
799.68766916632467
 20
-1413.2340815977441
 30
0.0
 40
3.0
  0
CIRCLE
  5
DBFC
  8
01
 10
868.68766916632467
 20
-1413.2340815977441
 30
0.0
 40
3.0
  0
LINE
  5
DBFD
  8
01
 10
953.18766516632513
 20
-1327.2340815977441
 30
0.0
 11
953.18766516632513
 21
-1305.9340815977439
 31
0.0
  0
LINE
  5
DBFE
  8
01
 10
1004.187673166326
 20
-1335.2340815977441
 30
0.0
 11
1004.187673166326
 21
-1305.9340815977439
 31
0.0
  0
LINE
  5
DBFF
  8
01
 10
955.78766516632527
 20
-1307.2340815977441
 30
0.0
 11
1001.587673166326
 21
-1307.2340815977441
 31
0.0
  0
LINE
  5
DC03
  8
01
 10
1022.187665166325
 20
-1355.2340815977441
 30
0.0
 11
1022.187665166325
 21
-1295.9340815977439
 31
0.0
  0
LINE
  5
DC04
  8
01
 10
953.18766516632513
 20
-1327.2340815977441
 30
0.0
 11
953.18766516632513
 21
-1295.9340815977439
 31
0.0
  0
LINE
  5
DC05
  8
01
 10
1019.587665166325
 20
-1297.2340815977441
 30
0.0
 11
955.78766516632527
 21
-1297.2340815977441
 31
0.0
  0
LINE
  5
DC09
  8
01
 10
942.18766516632525
 20
-1385.2340822958749
 30
0.0
 11
942.18766516632525
 21
-1305.9340815977439
 31
0.0
  0
LINE
  5
DC0A
  8
01
 10
953.18766516632513
 20
-1327.2340815977441
 30
0.0
 11
953.18766516632513
 21
-1305.9340815977439
 31
0.0
  0
LINE
  5
DC0B
  8
01
 10
944.78766516632516
 20
-1307.2340815977441
 30
0.0
 11
950.58766516632522
 21
-1307.2340815977441
 31
0.0
  0
LINE
  5
DC0F
  8
01
 10
821.68766916632478
 20
-1333.2340815977441
 30
0.0
 11
821.68766916632478
 21
-1305.9340815977439
 31
0.0
  0
LINE
  5
DC10
  8
01
 10
846.68766916632478
 20
-1333.2340815977441
 30
0.0
 11
846.68766916632478
 21
-1305.9340815977439
 31
0.0
  0
LINE
  5
DC11
  8
01
 10
824.2876691663248
 20
-1307.2340815977441
 30
0.0
 11
844.08766916632464
 21
-1307.2340815977441
 31
0.0
  0
TEXT
  5
DC15
  8
01
 10
829.85433583299152
 20
-1306.324081597744
 30
0.0
 40
4.5499999999999989
  1
25
  0
LINE
  5
DC16
  8
01
  6
BYBLOCK
 10
844.08766916632464
 20
-1306.5374137037441
 30
0.0
 11
846.68766916632478
 21
-1307.2340815977441
 31
0.0
  0
LINE
  5
DC17
  8
01
  6
BYBLOCK
 10
846.68766916632478
 20
-1307.2340815977441
 30
0.0
 11
844.08766916632464
 21
-1307.9307494917441
 31
0.0
  0
LINE
  5
DC18
  8
01
  6
BYBLOCK
 10
846.68766916632478
 20
-1307.2340815977441
 30
0.0
 11
844.08766916632464
 21
-1307.2340815977441
 31
0.0
  0
LINE
  5
DC19
  8
01
  6
BYBLOCK
 10
824.2876691663248
 20
-1307.9307494917441
 30
0.0
 11
821.68766916632478
 21
-1307.2340815977441
 31
0.0
  0
LINE
  5
DC1A
  8
01
  6
BYBLOCK
 10
821.68766916632478
 20
-1307.2340815977441
 30
0.0
 11
824.2876691663248
 21
-1306.5374137037441
 31
0.0
  0
LINE
  5
DC1B
  8
01
  6
BYBLOCK
 10
821.68766916632478
 20
-1307.2340815977441
 30
0.0
 11
824.2876691663248
 21
-1307.2340815977441
 31
0.0
  0
TEXT
  5
DC1C
  8
01
 10
943.67933183299181
 20
-1306.324081597744
 30
0.0
 40
4.5499999999999989
  1
11
  0
LINE
  5
DC1D
  8
01
  6
BYBLOCK
 10
950.58766516632522
 20
-1306.5374137037441
 30
0.0
 11
953.18766516632513
 21
-1307.2340815977441
 31
0.0
  0
LINE
  5
DC1E
  8
01
  6
BYBLOCK
 10
953.18766516632513
 20
-1307.2340815977441
 30
0.0
 11
950.58766516632522
 21
-1307.9307494917441
 31
0.0
  0
LINE
  5
DC1F
  8
01
  6
BYBLOCK
 10
953.18766516632513
 20
-1307.2340815977441
 30
0.0
 11
950.58766516632522
 21
-1307.2340815977441
 31
0.0
  0
LINE
  5
DC20
  8
01
  6
BYBLOCK
 10
944.78766516632516
 20
-1307.9307494917441
 30
0.0
 11
942.18766516632525
 21
-1307.2340815977441
 31
0.0
  0
LINE
  5
DC21
  8
01
  6
BYBLOCK
 10
942.18766516632525
 20
-1307.2340815977441
 30
0.0
 11
944.78766516632516
 21
-1306.5374137037441
 31
0.0
  0
LINE
  5
DC22
  8
01
  6
BYBLOCK
 10
942.18766516632525
 20
-1307.2340815977441
 30
0.0
 11
944.78766516632516
 21
-1307.2340815977441
 31
0.0
  0
TEXT
  5
DC23
  8
01
 10
983.35433183299187
 20
-1296.324081597744
 30
0.0
 40
4.5499999999999989
  1
69
  0
LINE
  5
DC24
  8
01
  6
BYBLOCK
 10
955.78766516632527
 20
-1297.9307494917441
 30
0.0
 11
953.18766516632513
 21
-1297.2340815977441
 31
0.0
  0
LINE
  5
DC25
  8
01
  6
BYBLOCK
 10
953.18766516632513
 20
-1297.2340815977441
 30
0.0
 11
955.78766516632527
 21
-1296.5374137037441
 31
0.0
  0
LINE
  5
DC26
  8
01
  6
BYBLOCK
 10
953.18766516632513
 20
-1297.2340815977441
 30
0.0
 11
955.78766516632527
 21
-1297.2340815977441
 31
0.0
  0
LINE
  5
DC27
  8
01
  6
BYBLOCK
 10
1019.587665166325
 20
-1296.5374137037441
 30
0.0
 11
1022.187665166325
 21
-1297.2340815977441
 31
0.0
  0
LINE
  5
DC28
  8
01
  6
BYBLOCK
 10
1022.187665166325
 20
-1297.2340815977441
 30
0.0
 11
1019.587665166325
 21
-1297.9307494917441
 31
0.0
  0
LINE
  5
DC29
  8
01
  6
BYBLOCK
 10
1022.187665166325
 20
-1297.2340815977441
 30
0.0
 11
1019.587665166325
 21
-1297.2340815977441
 31
0.0
  0
TEXT
  5
DC2A
  8
01
 10
975.0043358329923
 20
-1306.324081597744
 30
0.0
 40
4.5499999999999989
  1
51
  0
LINE
  5
DC2B
  8
01
  6
BYBLOCK
 10
1001.587673166326
 20
-1306.5374137037441
 30
0.0
 11
1004.187673166326
 21
-1307.2340815977441
 31
0.0
  0
LINE
  5
DC2C
  8
01
  6
BYBLOCK
 10
1004.187673166326
 20
-1307.2340815977441
 30
0.0
 11
1001.587673166326
 21
-1307.9307494917441
 31
0.0
  0
LINE
  5
DC2D
  8
01
  6
BYBLOCK
 10
1004.187673166326
 20
-1307.2340815977441
 30
0.0
 11
1001.587673166326
 21
-1307.2340815977441
 31
0.0
  0
LINE
  5
DC2E
  8
01
  6
BYBLOCK
 10
955.78766516632527
 20
-1307.9307494917441
 30
0.0
 11
953.18766516632513
 21
-1307.2340815977441
 31
0.0
  0
LINE
  5
DC2F
  8
01
  6
BYBLOCK
 10
953.18766516632513
 20
-1307.2340815977441
 30
0.0
 11
955.78766516632527
 21
-1306.5374137037441
 31
0.0
  0
LINE
  5
DC30
  8
01
  6
BYBLOCK
 10
953.18766516632513
 20
-1307.2340815977441
 30
0.0
 11
955.78766516632527
 21
-1307.2340815977441
 31
0.0
  0
TEXT
  5
DC31
  8
01
 10
856.02088750466055
 20
-1306.324081597744
 30
0.0
 40
4.5499999999999989
  1
8
  0
LINE
  5
DC32
  8
01
  6
BYBLOCK
 10
859.58743917632944
 20
-1306.5374137037441
 30
0.0
 11
862.18743917632946
 21
-1307.2340815977441
 31
0.0
  0
LINE
  5
DC33
  8
01
  6
BYBLOCK
 10
862.18743917632946
 20
-1307.2340815977441
 30
0.0
 11
859.58743917632944
 21
-1307.9307494917441
 31
0.0
  0
LINE
  5
DC34
  8
01
  6
BYBLOCK
 10
862.18743917632946
 20
-1307.2340815977441
 30
0.0
 11
859.58743917632944
 21
-1307.2340815977441
 31
0.0
  0
LINE
  5
DC35
  8
01
  6
BYBLOCK
 10
856.78766916632469
 20
-1307.9307494917441
 30
0.0
 11
854.18766916632467
 21
-1307.2340815977441
 31
0.0
  0
LINE
  5
DC36
  8
01
  6
BYBLOCK
 10
854.18766916632467
 20
-1307.2340815977441
 30
0.0
 11
856.78766916632469
 21
-1306.5374137037441
 31
0.0
  0
LINE
  5
DC37
  8
01
  6
BYBLOCK
 10
854.18766916632467
 20
-1307.2340815977441
 30
0.0
 11
856.78766916632469
 21
-1307.2340815977441
 31
0.0
  0
TEXT
  5
DC38
  8
01
 10
798.85414305013364
 20
-1306.324081597744
 30
0.0
 40
4.5499999999999989
  1
22
  0
LINE
  5
DC39
  8
01
  6
BYBLOCK
 10
811.58766916632453
 20
-1306.5374137037441
 30
0.0
 11
814.18766916632467
 21
-1307.2340815977441
 31
0.0
  0
LINE
  5
DC3A
  8
01
  6
BYBLOCK
 10
814.18766916632467
 20
-1307.2340815977441
 30
0.0
 11
811.58766916632453
 21
-1307.9307494917441
 31
0.0
  0
LINE
  5
DC3B
  8
01
  6
BYBLOCK
 10
814.18766916632467
 20
-1307.2340815977441
 30
0.0
 11
811.58766916632453
 21
-1307.2340815977441
 31
0.0
  0
LINE
  5
DC3C
  8
01
  6
BYBLOCK
 10
794.78728360060927
 20
-1307.9307494917441
 30
0.0
 11
792.18728360060925
 21
-1307.2340815977441
 31
0.0
  0
LINE
  5
DC3D
  8
01
  6
BYBLOCK
 10
792.18728360060925
 20
-1307.2340815977441
 30
0.0
 11
794.78728360060927
 21
-1306.5374137037441
 31
0.0
  0
LINE
  5
DC3E
  8
01
  6
BYBLOCK
 10
792.18728360060925
 20
-1307.2340815977441
 30
0.0
 11
794.78728360060927
 21
-1307.2340815977441
 31
0.0
  0
TEXT
  5
DC3F
  8
01
 10
996.99433183299186
 20
-1329.324081597744
 30
0.0
 40
4.5499999999999989
  1
\U+03C640
  0
LINE
  5
DC40
  8
01
  6
BYBLOCK
 10
1021.387664166325
 20
-1329.5374137037441
 30
0.0
 11
1023.987664166325
 21
-1330.2340815977441
 31
0.0
  0
LINE
  5
DC41
  8
01
  6
BYBLOCK
 10
1023.987664166325
 20
-1330.2340815977441
 30
0.0
 11
1021.387664166325
 21
-1330.9307494917441
 31
0.0
  0
LINE
  5
DC42
  8
01
  6
BYBLOCK
 10
1023.987664166325
 20
-1330.2340815977441
 30
0.0
 11
1021.387664166325
 21
-1330.2340815977441
 31
0.0
  0
LINE
  5
DC43
  8
01
  6
BYBLOCK
 10
986.98766616632508
 20
-1330.9307494917441
 30
0.0
 11
984.38766616632518
 21
-1330.2340815977441
 31
0.0
  0
LINE
  5
DC44
  8
01
  6
BYBLOCK
 10
984.38766616632518
 20
-1330.2340815977441
 30
0.0
 11
986.98766616632508
 21
-1329.5374137037441
 31
0.0
  0
LINE
  5
DC45
  8
01
  6
BYBLOCK
 10
984.38766616632518
 20
-1330.2340815977441
 30
0.0
 11
986.98766616632508
 21
-1330.2340815977441
 31
0.0
  0
TEXT
  5
DC46
  8
01
 10
656.99433183299016
 20
-1329.324081597744
 30
0.0
 40
4.5499999999999989
  1
\U+03C640
  0
LINE
  5
DC47
  8
01
  6
BYBLOCK
 10
681.38766416632348
 20
-1329.5374137037441
 30
0.0
 11
683.98766416632338
 21
-1330.2340815977441
 31
0.0
  0
LINE
  5
DC48
  8
01
  6
BYBLOCK
 10
683.98766416632338
 20
-1330.2340815977441
 30
0.0
 11
681.38766416632348
 21
-1330.9307494917441
 31
0.0
  0
LINE
  5
DC49
  8
01
  6
BYBLOCK
 10
683.98766416632338
 20
-1330.2340815977441
 30
0.0
 11
681.38766416632348
 21
-1330.2340815977441
 31
0.0
  0
LINE
  5
DC4A
  8
01
  6
BYBLOCK
 10
646.98766616632327
 20
-1330.9307494917441
 30
0.0
 11
644.38766616632336
 21
-1330.2340815977441
 31
0.0
  0
LINE
  5
DC4B
  8
01
  6
BYBLOCK
 10
644.38766616632336
 20
-1330.2340815977441
 30
0.0
 11
646.98766616632327
 21
-1329.5374137037441
 31
0.0
  0
LINE
  5
DC4C
  8
01
  6
BYBLOCK
 10
644.38766616632336
 20
-1330.2340815977441
 30
0.0
 11
646.98766616632327
 21
-1330.2340815977441
 31
0.0
  0
TEXT
  5
DC4D
  8
01
 10
630.27768516632489
 20
-1392.5674149310771
 30
0.0
 40
4.5499999999999989
  1
50
 50
90.0
  0
LINE
  5
DC4E
  8
01
  6
BYBLOCK
 10
630.4910172723246
 20
-1365.834081597744
 30
0.0
 11
631.18768516632474
 21
-1363.2340815977441
 31
0.0
  0
LINE
  5
DC4F
  8
01
  6
BYBLOCK
 10
631.18768516632474
 20
-1363.2340815977441
 30
0.0
 11
631.88435306032466
 21
-1365.834081597744
 31
0.0
  0
LINE
  5
DC50
  8
01
  6
BYBLOCK
 10
631.18768516632474
 20
-1363.2340815977441
 30
0.0
 11
631.18768516632474
 21
-1365.834081597744
 31
0.0
  0
LINE
  5
DC51
  8
01
  6
BYBLOCK
 10
631.88435306032466
 20
-1410.6340815977439
 30
0.0
 11
631.18768516632474
 21
-1413.2340815977441
 31
0.0
  0
LINE
  5
DC52
  8
01
  6
BYBLOCK
 10
631.18768516632474
 20
-1413.2340815977441
 30
0.0
 11
630.4910172723246
 21
-1410.6340815977439
 31
0.0
  0
LINE
  5
DC53
  8
01
  6
BYBLOCK
 10
631.18768516632474
 20
-1413.2340815977441
 30
0.0
 11
631.18768516632474
 21
-1410.6340815977439
 31
0.0
  0
TEXT
  5
DC54
  8
01
 10
620.277685166325
 20
-1393.0674149310771
 30
0.0
 40
4.5499999999999989
  1
55.5
 50
90.0
  0
LINE
  5
DC55
  8
01
  6
BYBLOCK
 10
620.49101727232471
 20
-1360.334081597744
 30
0.0
 11
621.18768516632474
 21
-1357.7340815977441
 31
0.0
  0
LINE
  5
DC56
  8
01
  6
BYBLOCK
 10
621.18768516632474
 20
-1357.7340815977441
 30
0.0
 11
621.88435306032477
 21
-1360.334081597744
 31
0.0
  0
LINE
  5
DC57
  8
01
  6
BYBLOCK
 10
621.18768516632474
 20
-1357.7340815977441
 30
0.0
 11
621.18768516632474
 21
-1360.334081597744
 31
0.0
  0
LINE
  5
DC58
  8
01
  6
BYBLOCK
 10
621.88435306032477
 20
-1410.6340815977439
 30
0.0
 11
621.18768516632474
 21
-1413.2340815977441
 31
0.0
  0
LINE
  5
DC59
  8
01
  6
BYBLOCK
 10
621.18768516632474
 20
-1413.2340815977441
 30
0.0
 11
620.49101727232471
 21
-1410.6340815977439
 31
0.0
  0
LINE
  5
DC5A
  8
01
  6
BYBLOCK
 10
621.18768516632474
 20
-1413.2340815977441
 30
0.0
 11
621.18768516632474
 21
-1410.6340815977439
 31
0.0
  0
TEXT
  5
DC5B
  8
01
 10
877.78126020288164
 20
-1381.3536942507619
 30
0.0
 40
4.5499999999999989
  1
114
 50
90.0
  0
LINE
  5
DC5C
  8
01
  6
BYBLOCK
 10
879.38792809688141
 20
-1446.6340815977439
 30
0.0
 11
878.69126020288127
 21
-1449.2340815977441
 31
0.0
  0
LINE
  5
DC5D
  8
01
  6
BYBLOCK
 10
878.69126020288127
 20
-1449.2340815977441
 30
0.0
 11
877.99459230888135
 21
-1446.6340815977439
 31
0.0
  0
LINE
  5
DC5E
  8
01
  6
BYBLOCK
 10
878.69126020288127
 20
-1449.2340815977441
 30
0.0
 11
878.69126020288127
 21
-1446.6340815977439
 31
0.0
  0
LINE
  5
DC5F
  8
01
  6
BYBLOCK
 10
877.99459230888135
 20
-1337.834081597744
 30
0.0
 11
878.69126020288127
 21
-1335.2340815977441
 31
0.0
  0
LINE
  5
DC60
  8
01
  6
BYBLOCK
 10
878.69126020288127
 20
-1335.2340815977441
 30
0.0
 11
879.38792809688141
 21
-1337.834081597744
 31
0.0
  0
LINE
  5
DC61
  8
01
  6
BYBLOCK
 10
878.69126020288127
 20
-1335.2340815977441
 30
0.0
 11
878.69126020288127
 21
-1337.834081597744
 31
0.0
  0
TEXT
  5
DC62
  8
01
 10
893.27766916632481
 20
-1381.245360917429
 30
0.0
 40
4.5499999999999989
  1
130
 50
90.0
  0
LINE
  5
DC63
  8
01
  6
BYBLOCK
 10
894.88433706032447
 20
-1454.6340815977439
 30
0.0
 11
894.18766916632455
 21
-1457.2340815977441
 31
0.0
  0
LINE
  5
DC64
  8
01
  6
BYBLOCK
 10
894.18766916632455
 20
-1457.2340815977441
 30
0.0
 11
893.49100127232452
 21
-1454.6340815977439
 31
0.0
  0
LINE
  5
DC65
  8
01
  6
BYBLOCK
 10
894.18766916632455
 20
-1457.2340815977441
 30
0.0
 11
894.18766916632455
 21
-1454.6340815977439
 31
0.0
  0
LINE
  5
DC66
  8
01
  6
BYBLOCK
 10
893.49100127232452
 20
-1329.834081597744
 30
0.0
 11
894.18766916632455
 21
-1327.2340815977441
 31
0.0
  0
LINE
  5
DC67
  8
01
  6
BYBLOCK
 10
894.18766916632455
 20
-1327.2340815977441
 30
0.0
 11
894.88433706032447
 21
-1329.834081597744
 31
0.0
  0
LINE
  5
DC68
  8
01
  6
BYBLOCK
 10
894.18766916632455
 20
-1327.2340815977441
 30
0.0
 11
894.18766916632455
 21
-1329.834081597744
 31
0.0
  0
TEXT
  5
DC69
  8
01
 10
1143.2777815060699
 20
-1185.067414932106
 30
0.0
 40
4.5499999999999989
  1
35
 50
90.0
  0
LINE
  5
DC6A
  8
01
  6
BYBLOCK
 10
1144.88444940007
 20
-1195.634081598773
 30
0.0
 11
1144.18778150607
 21
-1198.2340815987729
 31
0.0
  0
LINE
  5
DC6B
  8
01
  6
BYBLOCK
 10
1144.18778150607
 20
-1198.2340815987729
 30
0.0
 11
1143.49111361207
 21
-1195.634081598773
 31
0.0
  0
LINE
  5
DC6C
  8
01
  6
BYBLOCK
 10
1144.18778150607
 20
-1198.2340815987729
 30
0.0
 11
1144.18778150607
 21
-1195.634081598773
 31
0.0
  0
LINE
  5
DC6D
  8
01
  6
BYBLOCK
 10
1143.49111361207
 20
-1165.8340815987719
 30
0.0
 11
1144.18778150607
 21
-1163.2340815987729
 31
0.0
  0
LINE
  5
DC6E
  8
01
  6
BYBLOCK
 10
1144.18778150607
 20
-1163.2340815987729
 30
0.0
 11
1144.88444940007
 21
-1165.8340815987719
 31
0.0
  0
LINE
  5
DC6F
  8
01
  6
BYBLOCK
 10
1144.18778150607
 20
-1163.2340815987729
 30
0.0
 11
1144.18778150607
 21
-1165.8340815987719
 31
0.0
  0
TEXT
  5
DC70
  8
01
 10
1153.2777815060699
 20
-1197.525748265439
 30
0.0
 40
4.5499999999999989
  1
61
 50
90.0
  0
LINE
  5
DC71
  8
01
  6
BYBLOCK
 10
1154.88444940007
 20
-1221.634081598773
 30
0.0
 11
1154.1877815060691
 21
-1224.2340815987729
 31
0.0
  0
LINE
  5
DC72
  8
01
  6
BYBLOCK
 10
1154.1877815060691
 20
-1224.2340815987729
 30
0.0
 11
1153.49111361207
 21
-1221.634081598773
 31
0.0
  0
LINE
  5
DC73
  8
01
  6
BYBLOCK
 10
1154.1877815060691
 20
-1224.2340815987729
 30
0.0
 11
1154.1877815060691
 21
-1221.634081598773
 31
0.0
  0
LINE
  5
DC74
  8
01
  6
BYBLOCK
 10
1153.49111361207
 20
-1165.8340815987719
 30
0.0
 11
1154.1877815060691
 21
-1163.2340815987729
 31
0.0
  0
LINE
  5
DC75
  8
01
  6
BYBLOCK
 10
1154.1877815060691
 20
-1163.2340815987729
 30
0.0
 11
1154.88444940007
 21
-1165.8340815987719
 31
0.0
  0
LINE
  5
DC76
  8
01
  6
BYBLOCK
 10
1154.1877815060691
 20
-1163.2340815987729
 30
0.0
 11
1154.1877815060691
 21
-1165.8340815987719
 31
0.0
  0
TEXT
  5
DC77
  8
01
 10
1059.862781506069
 20
-1238.324081598772
 30
0.0
 40
4.5499999999999989
  1
125
  0
LINE
  5
DC78
  8
01
  6
BYBLOCK
 10
1126.5877815060701
 20
-1238.537413704772
 30
0.0
 11
1129.18778150607
 21
-1239.2340815987729
 31
0.0
  0
LINE
  5
DC79
  8
01
  6
BYBLOCK
 10
1129.18778150607
 20
-1239.2340815987729
 30
0.0
 11
1126.5877815060701
 21
-1239.930749492773
 31
0.0
  0
LINE
  5
DC7A
  8
01
  6
BYBLOCK
 10
1129.18778150607
 20
-1239.2340815987729
 30
0.0
 11
1126.5877815060701
 21
-1239.2340815987729
 31
0.0
  0
LINE
  5
DC7B
  8
01
  6
BYBLOCK
 10
1006.787781506069
 20
-1239.930749492773
 30
0.0
 11
1004.18778150607
 21
-1239.2340815987729
 31
0.0
  0
LINE
  5
DC7C
  8
01
  6
BYBLOCK
 10
1004.18778150607
 20
-1239.2340815987729
 30
0.0
 11
1006.787781506069
 21
-1238.537413704772
 31
0.0
  0
LINE
  5
DC7D
  8
01
  6
BYBLOCK
 10
1004.18778150607
 20
-1239.2340815987729
 30
0.0
 11
1006.787781506069
 21
-1239.2340815987729
 31
0.0
  0
TEXT
  5
DC7E
  8
01
 10
1048.862783406069
 20
-1248.3240815987731
 30
0.0
 40
4.5499999999999989
  1
136
  0
LINE
  5
DC7F
  8
01
  6
BYBLOCK
 10
1126.5877815060701
 20
-1248.5374137047729
 30
0.0
 11
1129.18778150607
 21
-1249.2340815987729
 31
0.0
  0
LINE
  5
DC80
  8
01
  6
BYBLOCK
 10
1129.18778150607
 20
-1249.2340815987729
 30
0.0
 11
1126.5877815060701
 21
-1249.9307494927721
 31
0.0
  0
LINE
  5
DC81
  8
01
  6
BYBLOCK
 10
1129.18778150607
 20
-1249.2340815987729
 30
0.0
 11
1126.5877815060701
 21
-1249.2340815987729
 31
0.0
  0
LINE
  5
DC82
  8
01
  6
BYBLOCK
 10
995.78778150606968
 20
-1249.9307494927721
 30
0.0
 11
993.18778150606977
 21
-1249.2340815987729
 31
0.0
  0
LINE
  5
DC83
  8
01
  6
BYBLOCK
 10
993.18778150606977
 20
-1249.2340815987729
 30
0.0
 11
995.78778150606968
 21
-1248.5374137047729
 31
0.0
  0
LINE
  5
DC84
  8
01
  6
BYBLOCK
 10
993.18778150606977
 20
-1249.2340815987729
 30
0.0
 11
995.78778150606968
 21
-1249.2340815987729
 31
0.0
  0
TEXT
  5
DC85
  8
01
 10
1143.2777815060711
 20
-1420.427414931077
 30
0.0
 40
4.5499999999999989
  1
\U+03C622
 50
90.0
  0
LINE
  5
DC86
  8
01
  6
BYBLOCK
 10
1144.8844494000709
 20
-1421.6340815977439
 30
0.0
 11
1144.1877815060709
 21
-1424.2340815977441
 31
0.0
  0
LINE
  5
DC87
  8
01
  6
BYBLOCK
 10
1144.1877815060709
 20
-1424.2340815977441
 30
0.0
 11
1143.49111361207
 21
-1421.6340815977439
 31
0.0
  0
LINE
  5
DC88
  8
01
  6
BYBLOCK
 10
1144.1877815060709
 20
-1424.2340815977441
 30
0.0
 11
1144.1877815060709
 21
-1421.6340815977439
 31
0.0
  0
LINE
  5
DC89
  8
01
  6
BYBLOCK
 10
1143.49111361207
 20
-1404.834081597744
 30
0.0
 11
1144.1877815060709
 21
-1402.2340815977441
 31
0.0
  0
LINE
  5
DC8A
  8
01
  6
BYBLOCK
 10
1144.1877815060709
 20
-1402.2340815977441
 30
0.0
 11
1144.8844494000709
 21
-1404.834081597744
 31
0.0
  0
LINE
  5
DC8B
  8
01
  6
BYBLOCK
 10
1144.1877815060709
 20
-1402.2340815977441
 30
0.0
 11
1144.1877815060709
 21
-1404.834081597744
 31
0.0
  0
TEXT
  5
DC8C
  8
01
 10
968.27766516632505
 20
-1421.767160893233
 30
0.0
 40
4.5499999999999989
  1
\U+03C650
 50
90.0
  0
LINE
  5
DC8D
  8
01
  6
BYBLOCK
 10
969.88433306032471
 20
-1435.6340815977439
 30
0.0
 11
969.18766516632456
 21
-1438.2340815977441
 31
0.0
  0
LINE
  5
DC8E
  8
01
  6
BYBLOCK
 10
969.18766516632456
 20
-1438.2340815977441
 30
0.0
 11
968.49099727232465
 21
-1435.6340815977439
 31
0.0
  0
LINE
  5
DC8F
  8
01
  6
BYBLOCK
 10
969.18766516632456
 20
-1438.2340815977441
 30
0.0
 11
969.18766516632456
 21
-1435.6340815977439
 31
0.0
  0
LINE
  5
DC90
  8
01
  6
BYBLOCK
 10
968.49099727232465
 20
-1390.8340815977449
 30
0.0
 11
969.18766516632456
 21
-1388.234081597745
 31
0.0
  0
LINE
  5
DC91
  8
01
  6
BYBLOCK
 10
969.18766516632456
 20
-1388.234081597745
 30
0.0
 11
969.88433306032471
 21
-1390.8340815977449
 31
0.0
  0
LINE
  5
DC92
  8
01
  6
BYBLOCK
 10
969.18766516632456
 20
-1388.234081597745
 30
0.0
 11
969.18766516632456
 21
-1390.8340815977449
 31
0.0
  0
TEXT
  5
DC93
  8
01
 10
1048.277665166326
 20
-1399.5674149310771
 30
0.0
 40
4.5499999999999989
  1
74.5
 50
90.0
  0
LINE
  5
DC94
  8
01
  6
BYBLOCK
 10
1049.8843330603249
 20
-1426.6340815977439
 30
0.0
 11
1049.1876651663249
 21
-1429.2340815977441
 31
0.0
  0
LINE
  5
DC95
  8
01
  6
BYBLOCK
 10
1049.1876651663249
 20
-1429.2340815977441
 30
0.0
 11
1048.4909972723251
 21
-1426.6340815977439
 31
0.0
  0
LINE
  5
DC96
  8
01
  6
BYBLOCK
 10
1049.1876651663249
 20
-1429.2340815977441
 30
0.0
 11
1049.1876651663249
 21
-1426.6340815977439
 31
0.0
  0
LINE
  5
DC97
  8
01
  6
BYBLOCK
 10
1048.4909972723251
 20
-1357.334081597744
 30
0.0
 11
1049.1876651663249
 21
-1354.7340815977441
 31
0.0
  0
LINE
  5
DC98
  8
01
  6
BYBLOCK
 10
1049.1876651663249
 20
-1354.7340815977441
 30
0.0
 11
1049.8843330603249
 21
-1357.334081597744
 31
0.0
  0
LINE
  5
DC99
  8
01
  6
BYBLOCK
 10
1049.1876651663249
 20
-1354.7340815977441
 30
0.0
 11
1049.1876651663249
 21
-1357.334081597744
 31
0.0
  0
LINE
  5
DC9A
  8
01
 10
1001.876728294393
 20
-1182.7299927573481
 30
0.0
 11
976.94082625934209
 21
-1202.144081598773
 31
0.0
1001
ACAD
1000
DSTYLE
1002
{
1070
    40
1040
1.3
1002
}
  0
LINE
  5
DC9B
  8
01
 10
976.94082625934209
 20
-1202.144081598773
 30
0.0
 11
973.4308262593421
 21
-1202.144081598773
 31
0.0
1001
ACAD
1000
DSTYLE
1002
{
1070
    40
1040
1.3
1002
}
  0
TEXT
  5
DC9C
  8
01
 10
1043.138940108099
 20
-1150.817414932106
 30
0.0
 40
4.5499999999999989
  1
20.5
 50
90.0
  0
LINE
  5
DC9D
  8
01
  6
BYBLOCK
 10
1044.7456080020979
 20
-1150.884081598773
 30
0.0
 11
1044.048940108099
 21
-1153.4840815987729
 31
0.0
  0
LINE
  5
DC9E
  8
01
  6
BYBLOCK
 10
1044.048940108099
 20
-1153.4840815987729
 30
0.0
 11
1043.3522722140981
 21
-1150.884081598773
 31
0.0
  0
LINE
  5
DC9F
  8
01
  6
BYBLOCK
 10
1044.048940108099
 20
-1153.4840815987729
 30
0.0
 11
1044.048940108099
 21
-1150.884081598773
 31
0.0
  0
LINE
  5
DCA0
  8
01
  6
BYBLOCK
 10
1043.3522722140981
 20
-1135.5840815987719
 30
0.0
 11
1044.048940108099
 21
-1132.9840815987729
 31
0.0
  0
LINE
  5
DCA1
  8
01
  6
BYBLOCK
 10
1044.048940108099
 20
-1132.9840815987729
 30
0.0
 11
1044.7456080020979
 21
-1135.5840815987719
 31
0.0
  0
LINE
  5
DCA2
  8
01
  6
BYBLOCK
 10
1044.048940108099
 20
-1132.9840815987729
 30
0.0
 11
1044.048940108099
 21
-1135.5840815987719
 31
0.0
  0
LINE
  5
DCA3
  8
01
 10
1037.9331650831341
 20
-1206.2827574040009
 30
0.0
 11
1049.5498844115259
 21
-1192.6666004012741
 31
0.0
1001
ACAD
1000
DSTYLE
1002
{
1070
    40
1040
1.3
1002
}
  0
LINE
  5
DCA4
  8
01
 10
1049.5498844115259
 20
-1192.6666004012741
 30
0.0
 11
1053.0598844115259
 21
-1192.6666004012741
 31
0.0
1001
ACAD
1000
DSTYLE
1002
{
1070
    40
1040
1.3
1002
}
  0
VIEWPORT
  5
57
 67
     1
  8
0
 10
5.5260668581039454
 20
10.09248672500371
 30
0.0
 40
441.86341528275852
 41
287.01570514826972
 68
     1
 69
     1
1001
ACAD
1000
MVIEW
1002
{
1070
    16
1010
0.0
1020
0.0
1030
0.0
1010
0.0
1020
0.0
1030
1.0
1040
0.0
1040
287.01570514826972
1040
5.5260668581039454
1040
10.09248672500371
1040
50.0
1040
0.0
1040
0.0
1070
     0
1070
   100
1070
     1
1070
     1
1070
     0
1070
     0
1070
     0
1070
     0
1040
0.0
1040
0.0
1040
0.0
1040
10.0
1040
10.0
1040
10.0
1040
10.0
1070
     0
1002
{
1002
}
1002
}
  0
ENDSEC
  0
EOF
