  0
SECTION
  2
HEADER
  9
$ACADVER
  1
AC1012
  9
$DWGCODEPAGE
  3
ansi_932
  9
$INSBASE
 10
0.0
 20
0.0
 30
0.0
  9
$EXTMIN
 10
4282.965630505971
 20
706.1851543608745
 30
0.0
  9
$EXTMAX
 10
4908.967145990128
 20
1132.207434128285
 30
0.0000000001127424
  9
$LIMMIN
 10
0.0
 20
0.0
  9
$LIMMAX
 10
420.0
 20
297.0
  9
$ORTHOMODE
 70
     0
  9
$REGENMODE
 70
     1
  9
$FILLMODE
 70
     1
  9
$QTEXTMODE
 70
     0
  9
$MIRRTEXT
 70
     0
  9
$DRAGMODE
 70
     2
  9
$LTSCALE
 40
0.5
  9
$OSMODE
 70
 16383
  9
$ATTMODE
 70
     1
  9
$TEXTSIZE
 40
4.0
  9
$TRACEWID
 40
1.0
  9
$TEXTSTYLE
  7
STANDARD
  9
$CLAYER
  8
1TEXT
  9
$CELTYPE
  6
BYLAYER
  9
$CECOLOR
 62
   256
  9
$CELTSCALE
 40
1.0
  9
$DELOBJ
 70
     1
  9
$DISPSILH
 70
     0
  9
$DIMSCALE
 40
1.0
  9
$DIMASZ
 40
2.0
  9
$DIMEXO
 40
0.0
  9
$DIMDLI
 40
7.0
  9
$DIMRND
 40
0.0
  9
$DIMDLE
 40
0.0
  9
$DIMEXE
 40
1.0
  9
$DIMTP
 40
0.0
  9
$DIMTM
 40
0.0
  9
$DIMTXT
 40
3.5
  9
$DIMCEN
 40
0.0
  9
$DIMTSZ
 40
0.0
  9
$DIMTOL
 70
     0
  9
$DIMLIM
 70
     0
  9
$DIMTIH
 70
     0
  9
$DIMTOH
 70
     0
  9
$DIMSE1
 70
     0
  9
$DIMSE2
 70
     0
  9
$DIMTAD
 70
     1
  9
$DIMZIN
 70
     8
  9
$DIMBLK
  1

  9
$DIMASO
 70
     1
  9
$DIMSHO
 70
     1
  9
$DIMPOST
  1
 
  9
$DIMAPOST
  1

  9
$DIMALT
 70
     0
  9
$DIMALTD
 70
     2
  9
$DIMALTF
 40
25.4
  9
$DIMLFAC
 40
1.0
  9
$DIMTOFL
 70
     1
  9
$DIMTVP
 40
0.0
  9
$DIMTIX
 70
     0
  9
$DIMSOXD
 70
     0
  9
$DIMSAH
 70
     1
  9
$DIMBLK1
  1
OPEN30
  9
$DIMBLK2
  1
OPEN30
  9
$DIMSTYLE
  2
NEWX10
  9
$DIMCLRD
 70
   256
  9
$DIMCLRE
 70
   256
  9
$DIMCLRT
 70
   201
  9
$DIMTFAC
 40
0.7
  9
$DIMGAP
 40
0.7
  9
$DIMJUST
 70
     0
  9
$DIMSD1
 70
     0
  9
$DIMSD2
 70
     0
  9
$DIMTOLJ
 70
     1
  9
$DIMTZIN
 70
     8
  9
$DIMALTZ
 70
     0
  9
$DIMALTTZ
 70
     0
  9
$DIMFIT
 70
     2
  9
$DIMUPT
 70
     0
  9
$DIMUNIT
 70
     2
  9
$DIMDEC
 70
     2
  9
$DIMTDEC
 70
     4
  9
$DIMALTU
 70
     2
  9
$DIMALTTD
 70
     2
  9
$DIMTXSTY
  7
STANDARD
  9
$DIMAUNIT
 70
     0
  9
$LUNITS
 70
     2
  9
$LUPREC
 70
     4
  9
$SKETCHINC
 40
1.0
  9
$FILLETRAD
 40
0.0
  9
$AUNITS
 70
     0
  9
$AUPREC
 70
     2
  9
$MENU
  1
acad
  9
$ELEVATION
 40
0.0
  9
$PELEVATION
 40
0.0
  9
$THICKNESS
 40
0.0
  9
$LIMCHECK
 70
     0
  9
$CHAMFERA
 40
10.0
  9
$CHAMFERB
 40
10.0
  9
$CHAMFERC
 40
20.0
  9
$CHAMFERD
 40
0.0
  9
$SKPOLY
 70
     0
  9
$TDCREATE
 40
2451318.621352917
  9
$TDUPDATE
 40
2458967.570108808
  9
$TDINDWG
 40
1.4850155208
  9
$TDUSRTIMER
 40
1.4850155208
  9
$USRTIMER
 70
     1
  9
$ANGBASE
 50
0.0
  9
$ANGDIR
 70
     0
  9
$PDMODE
 70
     0
  9
$PDSIZE
 40
0.0
  9
$PLINEWID
 40
0.0
  9
$COORDS
 70
     2
  9
$SPLFRAME
 70
     0
  9
$SPLINETYPE
 70
     6
  9
$SPLINESEGS
 70
     8
  9
$ATTDIA
 70
     0
  9
$ATTREQ
 70
     1
  9
$HANDLING
 70
     1
  9
$HANDSEED
  5
11963
  9
$SURFTAB1
 70
     6
  9
$SURFTAB2
 70
     6
  9
$SURFTYPE
 70
     6
  9
$SURFU
 70
     6
  9
$SURFV
 70
     6
  9
$UCSNAME
  2

  9
$UCSORG
 10
0.0
 20
0.0
 30
0.0
  9
$UCSXDIR
 10
1.0
 20
0.0
 30
0.0
  9
$UCSYDIR
 10
0.0
 20
1.0
 30
0.0
  9
$PUCSNAME
  2

  9
$PUCSORG
 10
0.0
 20
0.0
 30
0.0
  9
$PUCSXDIR
 10
1.0
 20
0.0
 30
0.0
  9
$PUCSYDIR
 10
0.0
 20
1.0
 30
0.0
  9
$USERI1
 70
     0
  9
$USERI2
 70
     0
  9
$USERI3
 70
     0
  9
$USERI4
 70
     0
  9
$USERI5
 70
     0
  9
$USERR1
 40
0.0
  9
$USERR2
 40
0.0
  9
$USERR3
 40
0.0
  9
$USERR4
 40
0.0
  9
$USERR5
 40
0.0
  9
$WORLDVIEW
 70
     1
  9
$SHADEDGE
 70
     3
  9
$SHADEDIF
 70
    70
  9
$TILEMODE
 70
     1
  9
$MAXACTVP
 70
    48
  9
$PINSBASE
 10
0.0
 20
0.0
 30
0.0
  9
$PLIMCHECK
 70
     0
  9
$PEXTMIN
 10
1.000000000000000E+20
 20
1.000000000000000E+20
 30
1.000000000000000E+20
  9
$PEXTMAX
 10
-1.000000000000000E+20
 20
-1.000000000000000E+20
 30
-1.000000000000000E+20
  9
$PLIMMIN
 10
0.0
 20
0.0
  9
$PLIMMAX
 10
420.0
 20
297.0
  9
$UNITMODE
 70
     0
  9
$VISRETAIN
 70
     1
  9
$PLINEGEN
 70
     0
  9
$PSLTSCALE
 70
     1
  9
$TREEDEPTH
 70
  3020
  9
$PICKSTYLE
 70
     0
  9
$CMLSTYLE
  2
STANDARD
  9
$CMLJUST
 70
     0
  9
$CMLSCALE
 40
20.0
  9
$SAVEIMAGES
 70
     1
  0
ENDSEC
  0
SECTION
  2
CLASSES
  0
CLASS
  1
DICTIONARYVAR
  2
AcDbDictionaryVar
  3
ObjectDBX Classes
 90
        0
280
     0
281
     0
  0
CLASS
  1
IDBUFFER
  2
AcDbIdBuffer
  3
ObjectDBX Classes
 90
    32768
280
     0
281
     0
  0
CLASS
  1
LWPOLYLINE
  2
AcDbPolyline
  3
ObjectDBX Classes
 90
    32768
280
     0
281
     1
  0
CLASS
  1
ACDBDICTIONARYWDFLT
  2
AcDbDictionaryWithDefault
  3
ObjectDBX Classes
 90
    32768
280
     0
281
     0
  0
CLASS
  1
ACDBPLACEHOLDER
  2
AcDbPlaceHolder
  3
ObjectDBX Classes
 90
        0
280
     0
281
     0
  0
CLASS
  1
LAYOUT
  2
AcDbLayout
  3
ObjectDBX Classes
 90
        0
280
     0
281
     0
  0
CLASS
  1
TABLESTYLE
  2
AcDbTableStyle
  3
ObjectDBX Classes
 90
     4095
280
     0
281
     0
  0
CLASS
  1
SORTENTSTABLE
  2
AcDbSortentsTable
  3
ObjectDBX Classes
 90
    32768
280
     0
281
     0
  0
CLASS
  1
MATERIAL
  2
AcDbMaterial
  3
ObjectDBX Classes
 90
     1153
280
     0
281
     0
  0
CLASS
  1
VISUALSTYLE
  2
AcDbVisualStyle
  3
ObjectDBX Classes
 90
     4095
280
     0
281
     0
  0
CLASS
  1
SCALE
  2
AcDbScale
  3
ObjectDBX Classes
 90
     1153
280
     0
281
     0
  0
CLASS
  1
MLEADERSTYLE
  2
AcDbMLeaderStyle
  3
ACDB_MLEADERSTYLE_CLASS
 90
     4095
280
     0
281
     0
  0
CLASS
  1
CELLSTYLEMAP
  2
AcDbCellStyleMap
  3
ObjectDBX Classes
 90
     1152
280
     0
281
     0
  0
CLASS
  1
SUN
  2
AcDbSun
  3
SCENEOE
 90
     1153
280
     0
281
     0
  0
CLASS
  1
XRECORD
  2
AcDbXrecord
  3
ObjectDBX Classes
 90
    32768
280
     0
281
     0
  0
CLASS
  1
HATCH
  2
AcDbHatch
  3
ObjectDBX Classes
 90
    32768
280
     0
281
     1
  0
ENDSEC
  0
SECTION
  2
TABLES
  0
TABLE
  2
VPORT
  5
8
330
0
100
AcDbSymbolTable
 70
     1
  0
VPORT
  5
952D
330
8
100
AcDbSymbolTableRecord
100
AcDbViewportTableRecord
  2
*ACTIVE
 70
     0
 10
0.0
 20
0.0
 11
1.0
 21
1.0
 12
4595.966388248049
 22
919.1962942445798
 13
0.0
 23
0.0
 14
10.0
 24
10.0
 15
10.0
 25
10.0
 16
0.0
 26
0.0
 36
1.0
 17
0.0
 27
0.0
 37
0.0
 40
457.4133951186934
 41
1.803066037735849
 42
50.0
 43
0.0
 44
0.0
 50
0.0
 51
0.0
 71
    16
 72
   100
 73
     1
 74
     1
 75
     0
 76
     0
 77
     0
 78
     0
1001
ACAD_NAV_VCDISPLAY
1070
     3
  0
ENDTAB
  0
TABLE
  2
LTYPE
  5
5
330
0
100
AcDbSymbolTable
 70
     3
  0
LTYPE
  5
12
330
5
100
AcDbSymbolTableRecord
100
AcDbLinetypeTableRecord
  2
BYBLOCK
 70
     0
  3

 72
    65
 73
     0
 40
0.0
  0
LTYPE
  5
13
330
5
100
AcDbSymbolTableRecord
100
AcDbLinetypeTableRecord
  2
BYLAYER
 70
     0
  3

 72
    65
 73
     0
 40
0.0
  0
LTYPE
  5
14
330
5
100
AcDbSymbolTableRecord
100
AcDbLinetypeTableRecord
  2
CONTINUOUS
 70
     0
  3
Solid line
 72
    65
 73
     0
 40
0.0
  0
LTYPE
  5
2C03
330
5
100
AcDbSymbolTableRecord
100
AcDbLinetypeTableRecord
  2
HIDDEN
 70
     0
  3
Hidden __ __ __ __ __ __ __ __ __ __ __ __ __ _
 72
    65
 73
     2
 40
9.524999999999999
 49
6.35
 74
     0
 49
-3.175
 74
     0
  0
LTYPE
  5
9837
330
5
100
AcDbSymbolTableRecord
100
AcDbLinetypeTableRecord
  2
CENTER2
 70
     0
  3
Center (.5x) ___ _ ___ _ ___ _ ___ _ ___ _ ___
 72
    65
 73
     4
 40
28.575
 49
19.05
 74
     0
 49
-3.175
 74
     0
 49
3.175
 74
     0
 49
-3.175
 74
     0
  0
ENDTAB
  0
TABLE
  2
LAYER
  5
2
102
{ACAD_XDICTIONARY
360
96D9
102
}
330
0
100
AcDbSymbolTable
 70
     6
  0
LAYER
  5
E
102
{ACAD_XDICTIONARY
360
9593
102
}
330
2
100
AcDbSymbolTableRecord
100
AcDbLayerTableRecord
  2
0
 70
     0
 62
     7
  6
CONTINUOUS
  0
LAYER
  5
29
102
{ACAD_XDICTIONARY
360
9595
102
}
330
2
100
AcDbSymbolTableRecord
100
AcDbLayerTableRecord
  2
1CENTER
 70
     0
 62
     7
  6
CENTER2
  0
LAYER
  5
31
102
{ACAD_XDICTIONARY
360
9597
102
}
330
2
100
AcDbSymbolTableRecord
100
AcDbLayerTableRecord
  2
1TEXT
 70
     0
 62
     7
  6
CONTINUOUS
  0
LAYER
  5
243
102
{ACAD_XDICTIONARY
360
959D
102
}
330
2
100
AcDbSymbolTableRecord
100
AcDbLayerTableRecord
  2
01
 70
     0
 62
     1
  6
CONTINUOUS
  0
LAYER
  5
24E
102
{ACAD_XDICTIONARY
360
95A3
102
}
330
2
100
AcDbSymbolTableRecord
100
AcDbLayerTableRecord
  2
1DIM
 70
     0
 62
     7
  6
CONTINUOUS
  0
LAYER
  5
2C05
102
{ACAD_XDICTIONARY
360
95AF
102
}
330
2
100
AcDbSymbolTableRecord
100
AcDbLayerTableRecord
  2
1HIDDEN
 70
     0
 62
     7
  6
HIDDEN
  0
ENDTAB
  0
TABLE
  2
STYLE
  5
3
330
0
100
AcDbSymbolTable
 70
     1
  0
STYLE
  5
F
330
3
100
AcDbSymbolTableRecord
100
AcDbTextStyleTableRecord
  2
STANDARD
 70
     0
 40
0.0
 41
1.0
 50
0.0
 71
     0
 42
4.0
  3
txt.shx
  4
extfont.shx
  0
ENDTAB
  0
TABLE
  2
VIEW
  5
6
330
0
100
AcDbSymbolTable
 70
     0
  0
ENDTAB
  0
TABLE
  2
UCS
  5
7
330
0
100
AcDbSymbolTable
 70
     0
  0
ENDTAB
  0
TABLE
  2
APPID
  5
9
330
0
100
AcDbSymbolTable
 70
    15
  0
APPID
  5
10
330
9
100
AcDbSymbolTableRecord
100
AcDbRegAppTableRecord
  2
ACAD
 70
     0
  0
APPID
  5
21
330
9
100
AcDbSymbolTableRecord
100
AcDbRegAppTableRecord
  2
DRAWINGVARIABLESXDATA
 70
     0
  0
APPID
  5
64
330
9
100
AcDbSymbolTableRecord
100
AcDbRegAppTableRecord
  2
CONTENTTABDATA
 70
     0
  0
APPID
  5
65
330
9
100
AcDbSymbolTableRecord
100
AcDbRegAppTableRecord
  2
CONTENTCURRENTTAB
 70
     0
  0
APPID
  5
66
330
9
100
AcDbSymbolTableRecord
100
AcDbRegAppTableRecord
  2
CONTENTBLOCKDESCRIPTION
 70
     0
  0
APPID
  5
67
330
9
100
AcDbSymbolTableRecord
100
AcDbRegAppTableRecord
  2
CONTENTBLOCKICON
 70
     0
  0
APPID
  5
68
330
9
100
AcDbSymbolTableRecord
100
AcDbRegAppTableRecord
  2
CONTENTLONGBLOCKNAME
 70
     0
  0
APPID
  5
2AE
330
9
100
AcDbSymbolTableRecord
100
AcDbRegAppTableRecord
  2
ACAD_PSEXT
 70
     0
  0
APPID
  5
9585
330
9
100
AcDbSymbolTableRecord
100
AcDbRegAppTableRecord
  2
ACAD_MLEADERVER
 70
     0
  0
APPID
  5
A2E3
330
9
100
AcDbSymbolTableRecord
100
AcDbRegAppTableRecord
  2
ACADANNOTATIVE
 70
     0
  0
APPID
  5
A2E4
330
9
100
AcDbSymbolTableRecord
100
AcDbRegAppTableRecord
  2
ACDBBLOCKREPETAG
 70
     0
  0
APPID
  5
AEB1
330
9
100
AcDbSymbolTableRecord
100
AcDbRegAppTableRecord
  2
ACAD_NAV_VCDISPLAY
 70
     0
  0
APPID
  5
B6A4
330
9
100
AcDbSymbolTableRecord
100
AcDbRegAppTableRecord
  2
ACAECLAYERSTANDARD
 70
     0
  0
APPID
  5
E1EF
330
9
100
AcDbSymbolTableRecord
100
AcDbRegAppTableRecord
  2
ACAD_EXEMPT_FROM_CAD_STAND
 70
     0
  0
APPID
  5
115AA
330
9
100
AcDbSymbolTableRecord
100
AcDbRegAppTableRecord
  2
ACAD_OBJECT_CHANGE_GUID
 70
     0
  0
ENDTAB
  0
TABLE
  2
DIMSTYLE
  5
A
330
0
100
AcDbSymbolTable
 70
     1
  0
DIMSTYLE
105
48
330
A
100
AcDbSymbolTableRecord
100
AcDbDimStyleTableRecord
  2
NEWX10
 70
     0
  3
 
  4

  5

  6
OPEN30
  7
OPEN30
 40
1.0
 41
2.0
 42
0.0
 43
7.0
 44
1.0
 45
0.0
 46
0.0
 47
0.0
 48
0.0
140
3.5
141
0.0
142
0.0
143
25.4
144
1.0
145
0.0
146
0.7
147
0.7
 71
     0
 72
     0
 73
     0
 74
     0
 75
     0
 76
     0
 77
     1
 78
     8
170
     0
171
     2
172
     1
173
     1
174
     0
175
     0
176
   256
177
   256
178
   201
179
     2
270
     2
271
     2
272
     4
273
     2
274
     2
340
F
275
     0
280
     0
281
     0
282
     0
283
     1
284
     8
285
     0
286
     0
287
     2
288
     0
  0
ENDTAB
  0
TABLE
  2
BLOCK_RECORD
  5
1
330
0
100
AcDbSymbolTable
 70
     8
  0
BLOCK_RECORD
  5
18
102
{ACAD_XDICTIONARY
360
88F
102
}
330
1
100
AcDbSymbolTableRecord
100
AcDbBlockTableRecord
  2
*MODEL_SPACE
  0
BLOCK_RECORD
  5
15
330
1
100
AcDbSymbolTableRecord
100
AcDbBlockTableRecord
  2
*PAPER_SPACE
  0
BLOCK_RECORD
  5
42
330
1
100
AcDbSymbolTableRecord
100
AcDbBlockTableRecord
  2
_OPEN30
  0
BLOCK_RECORD
  5
A333
330
1
100
AcDbSymbolTableRecord
100
AcDbBlockTableRecord
  2
A3WAKUKAWAJUN2017_HYOUDAI_
  0
BLOCK_RECORD
  5
117C3
330
1
100
AcDbSymbolTableRecord
100
AcDbBlockTableRecord
  2
*X229
  0
BLOCK_RECORD
  5
11811
330
1
100
AcDbSymbolTableRecord
100
AcDbBlockTableRecord
  2
*X230
  0
BLOCK_RECORD
  5
11863
330
1
100
AcDbSymbolTableRecord
100
AcDbBlockTableRecord
  2
*X231
  0
BLOCK_RECORD
  5
118B4
330
1
100
AcDbSymbolTableRecord
100
AcDbBlockTableRecord
  2
*X232
  0
BLOCK_RECORD
  5
118F1
330
1
100
AcDbSymbolTableRecord
100
AcDbBlockTableRecord
  2
*X233
  0
BLOCK_RECORD
  5
11931
330
1
100
AcDbSymbolTableRecord
100
AcDbBlockTableRecord
  2
*X234
  0
ENDTAB
  0
ENDSEC
  0
SECTION
  2
BLOCKS
  0
BLOCK
  5
19
330
18
100
AcDbEntity
  8
0
100
AcDbBlockBegin
  2
*MODEL_SPACE
 70
     0
 10
0.0
 20
0.0
 30
0.0
  3
*MODEL_SPACE
  1

  0
ENDBLK
  5
1A
330
18
100
AcDbEntity
  8
0
100
AcDbBlockEnd
  0
BLOCK
  5
16
330
15
100
AcDbEntity
 67
     1
  8
0
100
AcDbBlockBegin
  2
*PAPER_SPACE
 70
     0
 10
0.0
 20
0.0
 30
0.0
  3
*PAPER_SPACE
  1

  0
ENDBLK
  5
17
330
15
100
AcDbEntity
 67
     1
  8
0
100
AcDbBlockEnd
  0
BLOCK
  5
43
330
42
100
AcDbEntity
  8
0
100
AcDbBlockBegin
  2
_OPEN30
 70
     0
 10
0.0
 20
0.0
 30
0.0
  3
_OPEN30
  1

  0
LINE
  5
44
330
42
100
AcDbEntity
  8
0
  6
BYBLOCK
 62
     0
100
AcDbLine
 10
-1.0
 20
0.26794919
 30
0.0
 11
0.0
 21
0.0
 31
0.0
  0
LINE
  5
45
330
42
100
AcDbEntity
  8
0
  6
BYBLOCK
 62
     0
100
AcDbLine
 10
0.0
 20
0.0
 30
0.0
 11
-1.0
 21
-0.26794919
 31
0.0
  0
LINE
  5
46
330
42
100
AcDbEntity
  8
0
  6
BYBLOCK
 62
     0
100
AcDbLine
 10
0.0
 20
0.0
 30
0.0
 11
-1.0
 21
0.0
 31
0.0
  0
ENDBLK
  5
47
330
42
100
AcDbEntity
  8
0
100
AcDbBlockEnd
  0
BLOCK
  5
AA56
330
A333
100
AcDbEntity
  8
0
100
AcDbBlockBegin
  2
A3WAKUKAWAJUN2017_HYOUDAI_
 70
     0
 10
0.0
 20
0.0
 30
0.0
  3
A3WAKUKAWAJUN2017_HYOUDAI_
  1

  0
LINE
  5
A335
330
A333
100
AcDbEntity
  8
0
100
AcDbLine
 10
13.26299999998673
 20
-0.0001000000000317
 30
0.0
 11
9.236999999990758
 21
8.999899999990987
 31
0.0
1001
ACAD
1000
ASC_BOUNDS
1002
{
1070
    19
1005
A376
1002
}
  0
LINE
  5
A336
330
A333
100
AcDbEntity
  8
0
100
AcDbLine
 10
5.657999999994331
 20
0.9999999999989768
 30
0.0
 11
9.236999999990758
 21
8.999999999991019
 31
0.0
1001
ACAD
1000
ASC_BOUNDS
1002
{
1070
    19
1005
A376
1002
}
  0
LINE
  5
A337
330
A333
100
AcDbEntity
  8
0
100
AcDbLine
 10
18.59199999998134
 20
-0.2368999999997641
 30
0.0
 11
16.46099999998353
 21
5.432899999994561
 31
0.0
1001
ACAD
1000
ASC_BOUNDS
1002
{
1070
    19
1005
A377
1002
}
  0
LINE
  5
A338
330
A333
100
AcDbEntity
  8
0
100
AcDbLine
 10
18.59199999998134
 20
-0.2368999999997641
 30
0.0
 11
22.38199999997767
 21
8.763099999991255
 31
0.0
1001
ACAD
1000
ASC_BOUNDS
1002
{
1070
    19
1005
A377
1002
}
  0
LINE
  5
A339
330
A333
100
AcDbEntity
  8
0
100
AcDbLine
 10
14.32899999998563
 20
-0.2368999999997641
 30
0.0
 11
16.46099999998353
 21
5.432899999994561
 31
0.0
1001
ACAD
1000
ASC_BOUNDS
1002
{
1070
    19
1005
A377
1002
}
  0
LINE
  5
A33A
330
A333
100
AcDbEntity
  8
0
100
AcDbLine
 10
14.32899999998563
 20
-0.2368999999997641
 30
0.0
 11
10.53899999998941
 21
8.763099999991255
 31
0.0
1001
ACAD
1000
ASC_BOUNDS
1002
{
1070
    19
1005
A377
1002
}
  0
LINE
  5
A33B
330
A333
100
AcDbEntity
  8
0
100
AcDbLine
 10
19.53899999998043
 20
-0.0001000000000317
 30
0.0
 11
23.56599999997638
 21
8.999899999990987
 31
0.0
1001
ACAD
1000
ASC_BOUNDS
1002
{
1070
    19
1005
A378
1002
}
  0
LINE
  5
A33C
330
A333
100
AcDbEntity
  8
0
100
AcDbLine
 10
26.97358892824991
 20
1.383099999991202
 30
0.0
 11
23.56599999997638
 21
8.999899999990987
 31
0.0
1001
ACAD
1000
ASC_BOUNDS
1002
{
1070
    19
1005
A378
1002
}
  0
LINE
  5
A33D
330
A333
100
AcDbEntity
  8
0
100
AcDbLine
 10
5.657999999994331
 20
0.9999999999989768
 30
0.0
 11
3.181999999996833
 21
4.668599999995308
 31
0.0
1001
ACAD
1000
ASC_BOUNDS
1002
{
1070
    19
1005
A376
1002
}
  0
LINE
  5
A33E
330
A333
100
AcDbEntity
  8
0
100
AcDbLine
 10
4.617999999995391
 20
-0.0001000000000317
 30
0.0
 11
1.420999999998571
 21
4.736799999995242
 31
0.0
1001
ACAD
1000
ASC_BOUNDS
1002
{
1070
    19
1005
A376
1002
}
  0
LINE
  5
A33F
330
A333
100
AcDbEntity
  8
0
100
AcDbLine
 10
1.420999999998571
 20
8.763099999991255
 30
0.0
 11
1.420999999998571
 21
0.0
 31
0.0
1001
ACAD
1000
ASC_BOUNDS
1002
{
1070
    19
1005
A37B
1002
}
  0
LINE
  5
A340
330
A333
100
AcDbEntity
  8
0
100
AcDbLine
 10
0.0
 20
8.763099999991255
 30
0.0
 11
0.0
 21
0.0
 31
0.0
1001
ACAD
1000
ASC_BOUNDS
1002
{
1070
    19
1005
A37B
1002
}
  0
LINE
  5
A341
330
A333
100
AcDbEntity
  8
0
100
AcDbLine
 10
6.766999999993232
 20
-0.0001000000000317
 30
0.0
 11
7.826999999992154
 21
2.368399999997621
 31
0.0
1001
ACAD
1000
ASC_BOUNDS
1002
{
1070
    19
1005
A376
1002
}
  0
LINE
  5
A342
330
A333
100
AcDbEntity
  8
0
100
AcDbLine
 10
0.0
 20
0.0
 30
0.0
 11
1.420999999998571
 21
0.0
 31
0.0
1001
ACAD
1000
ASC_BOUNDS
1002
{
1070
    19
1005
A37B
1002
}
  0
LINE
  5
A343
330
A333
100
AcDbEntity
  8
0
100
AcDbLine
 10
4.617999999995391
 20
0.0
 30
0.0
 11
6.766999999993232
 21
0.0
 31
0.0
1001
ACAD
1000
ASC_BOUNDS
1002
{
1070
    19
1005
A376
1002
}
  0
LINE
  5
A344
330
A333
100
AcDbEntity
  8
0
100
AcDbLine
 10
11.70599999998831
 20
-0.0001000000000317
 30
0.0
 11
10.64699999998936
 21
2.368399999997621
 31
0.0
1001
ACAD
1000
ASC_BOUNDS
1002
{
1070
    19
1005
A376
1002
}
  0
LINE
  5
A345
330
A333
100
AcDbEntity
  8
0
100
AcDbLine
 10
7.826999999992154
 20
2.368399999997621
 30
0.0
 11
10.64699999998936
 21
2.368399999997621
 31
0.0
1001
ACAD
1000
ASC_BOUNDS
1002
{
1070
    19
1005
A376
1002
}
  0
LINE
  5
A346
330
A333
100
AcDbEntity
  8
0
100
AcDbLine
 10
11.70599999998831
 20
0.0
 30
0.0
 11
13.26299999998673
 21
0.0
 31
0.0
1001
ACAD
1000
ASC_BOUNDS
1002
{
1070
    19
1005
A376
1002
}
  0
LINE
  5
A347
330
A333
100
AcDbEntity
  8
0
100
AcDbLine
 10
22.15599999997789
 20
2.368399999997621
 30
0.0
 11
24.97599999997499
 21
2.368399999997621
 31
0.0
1001
ACAD
1000
ASC_BOUNDS
1002
{
1070
    19
1005
A378
1002
}
  0
LINE
  5
A348
330
A333
100
AcDbEntity
  8
0
100
AcDbLine
 10
19.53899999998043
 20
0.0
 30
0.0
 11
21.09599999997886
 21
0.0
 31
0.0
1001
ACAD
1000
ASC_BOUNDS
1002
{
1070
    19
1005
A378
1002
}
  0
LINE
  5
A349
330
A333
100
AcDbEntity
  8
0
100
AcDbLine
 10
21.09599999997886
 20
-0.0001000000000317
 30
0.0
 11
22.15599999997789
 21
2.368399999997621
 31
0.0
1001
ACAD
1000
ASC_BOUNDS
1002
{
1070
    19
1005
A378
1002
}
  0
LINE
  5
A34A
330
A333
100
AcDbEntity
  8
0
100
AcDbLine
 10
26.02015566812236
 20
0.0330999999912365
 30
0.0
 11
24.97599999997499
 21
2.368399999997621
 31
0.0
1001
ACAD
1000
ASC_BOUNDS
1002
{
1070
    19
1005
A378
1002
}
  0
LINE
  5
A34B
330
A333
100
AcDbEntity
  8
0
100
AcDbLine
 10
14.32399999998563
 20
3.315799999996671
 30
0.0
 11
16.46099999998353
 21
8.999899999990987
 31
0.0
1001
ACAD
1000
ASC_BOUNDS
1002
{
1070
    19
1005
A377
1002
}
  0
LINE
  5
A34C
330
A333
100
AcDbEntity
  8
0
100
AcDbLine
 10
6.432999999993513
 20
8.763099999991255
 30
0.0
 11
3.181999999996833
 21
4.668599999995308
 31
0.0
1001
ACAD
1000
ASC_BOUNDS
1002
{
1070
    19
1005
A376
1002
}
  0
LINE
  5
A34D
330
A333
100
AcDbEntity
  8
0
100
AcDbLine
 10
4.617999999995391
 20
8.763099999991255
 30
0.0
 11
1.420999999998571
 21
4.736799999995242
 31
0.0
1001
ACAD
1000
ASC_BOUNDS
1002
{
1070
    19
1005
A376
1002
}
  0
LINE
  5
A34E
330
A333
100
AcDbEntity
  8
0
100
AcDbLine
 10
0.0
 20
8.763099999991255
 30
0.0
 11
1.420999999998571
 21
8.763099999991255
 31
0.0
1001
ACAD
1000
ASC_BOUNDS
1002
{
1070
    19
1005
A37B
1002
}
  0
LINE
  5
A34F
330
A333
100
AcDbEntity
  8
0
100
AcDbLine
 10
4.617999999995391
 20
8.763099999991255
 30
0.0
 11
6.432999999993513
 21
8.763099999991255
 31
0.0
1001
ACAD
1000
ASC_BOUNDS
1002
{
1070
    19
1005
A376
1002
}
  0
LINE
  5
A350
330
A333
100
AcDbEntity
  8
0
100
AcDbLine
 10
14.32399999998563
 20
3.315799999996671
 30
0.0
 11
12.02999999998792
 21
8.763099999991255
 31
0.0
1001
ACAD
1000
ASC_BOUNDS
1002
{
1070
    19
1005
A377
1002
}
  0
LINE
  5
A351
330
A333
100
AcDbEntity
  8
0
100
AcDbLine
 10
10.06399999998996
 20
3.670999999996297
 30
0.0
 11
9.236999999990758
 21
5.5200999999945
 31
0.0
1001
ACAD
1000
ASC_BOUNDS
1002
{
1070
    19
1005
A376
1002
}
  0
LINE
  5
A352
330
A333
100
AcDbEntity
  8
0
100
AcDbLine
 10
8.409999999991555
 20
3.670999999996297
 30
0.0
 11
9.236999999990758
 21
5.5200999999945
 31
0.0
1001
ACAD
1000
ASC_BOUNDS
1002
{
1070
    19
1005
A376
1002
}
  0
LINE
  5
A353
330
A333
100
AcDbEntity
  8
0
100
AcDbLine
 10
8.409999999991555
 20
3.670999999996297
 30
0.0
 11
10.06399999998996
 21
3.670999999996297
 31
0.0
1001
ACAD
1000
ASC_BOUNDS
1002
{
1070
    19
1005
A376
1002
}
  0
LINE
  5
A354
330
A333
100
AcDbEntity
  8
0
100
AcDbLine
 10
10.53899999998941
 20
8.763099999991255
 30
0.0
 11
12.02999999998792
 21
8.763099999991255
 31
0.0
1001
ACAD
1000
ASC_BOUNDS
1002
{
1070
    19
1005
A377
1002
}
  0
LINE
  5
A355
330
A333
100
AcDbEntity
  8
0
100
AcDbLine
 10
22.7389999999773
 20
3.670999999996297
 30
0.0
 11
23.56599999997638
 21
5.5200999999945
 31
0.0
1001
ACAD
1000
ASC_BOUNDS
1002
{
1070
    19
1005
A378
1002
}
  0
LINE
  5
A356
330
A333
100
AcDbEntity
  8
0
100
AcDbLine
 10
22.7389999999773
 20
3.670999999996297
 30
0.0
 11
24.39299999997559
 21
3.670999999996297
 31
0.0
1001
ACAD
1000
ASC_BOUNDS
1002
{
1070
    19
1005
A378
1002
}
  0
LINE
  5
A357
330
A333
100
AcDbEntity
  8
0
100
AcDbLine
 10
18.59799999998143
 20
3.315799999996671
 30
0.0
 11
20.89099999997916
 21
8.763099999991255
 31
0.0
1001
ACAD
1000
ASC_BOUNDS
1002
{
1070
    19
1005
A377
1002
}
  0
LINE
  5
A358
330
A333
100
AcDbEntity
  8
0
100
AcDbLine
 10
18.59799999998143
 20
3.315799999996671
 30
0.0
 11
16.46099999998353
 21
8.999899999990987
 31
0.0
1001
ACAD
1000
ASC_BOUNDS
1002
{
1070
    19
1005
A377
1002
}
  0
LINE
  5
A359
330
A333
100
AcDbEntity
  8
0
100
AcDbLine
 10
20.89099999997916
 20
8.763099999991255
 30
0.0
 11
22.38199999997767
 21
8.763099999991255
 31
0.0
1001
ACAD
1000
ASC_BOUNDS
1002
{
1070
    19
1005
A377
1002
}
  0
LINE
  5
A35A
330
A333
100
AcDbEntity
  8
0
100
AcDbLine
 10
24.39299999997559
 20
3.670999999996297
 30
0.0
 11
23.56599999997638
 21
5.5200999999945
 31
0.0
1001
ACAD
1000
ASC_BOUNDS
1002
{
1070
    19
1005
A378
1002
}
  0
LINE
  5
A35B
330
A333
100
AcDbEntity
  8
0
100
AcDbLine
 10
44.99999999995498
 20
-0.2368999999997641
 30
0.0
 11
40.02599999995994
 21
5.341799999994635
 31
0.0
1001
ACAD
1000
ASC_BOUNDS
1002
{
1070
    19
1005
A37A
1002
}
  0
LINE
  5
A35C
330
A333
100
AcDbEntity
  8
0
100
AcDbLine
 10
40.02599999995994
 20
5.341799999994635
 30
0.0
 11
40.02599999995994
 21
0.0
 31
0.0
1001
ACAD
1000
ASC_BOUNDS
1002
{
1070
    19
1005
A37A
1002
}
  0
LINE
  5
A35D
330
A333
100
AcDbEntity
  8
0
100
AcDbLine
 10
38.60499999996136
 20
8.999999999991019
 30
0.0
 11
38.60499999996136
 21
0.0
 31
0.0
1001
ACAD
1000
ASC_BOUNDS
1002
{
1070
    19
1005
A37A
1002
}
  0
LINE
  5
A35E
330
A333
100
AcDbEntity
  8
0
100
AcDbLine
 10
44.99999999995498
 20
8.763099999991255
 30
0.0
 11
44.99999999995498
 21
-0.2368999999997641
 31
0.0
1001
ACAD
1000
ASC_BOUNDS
1002
{
1070
    19
1005
A37A
1002
}
  0
LINE
  5
A35F
330
A333
100
AcDbEntity
  8
0
100
AcDbLine
 10
38.60499999996136
 20
0.0
 30
0.0
 11
40.02599999995994
 21
0.0
 31
0.0
1001
ACAD
1000
ASC_BOUNDS
1002
{
1070
    19
1005
A37A
1002
}
  0
LINE
  5
A360
330
A333
100
AcDbEntity
  8
0
100
AcDbLine
 10
43.57899999995641
 20
3.421199999996588
 30
0.0
 11
38.60499999996136
 21
8.999899999990987
 31
0.0
1001
ACAD
1000
ASC_BOUNDS
1002
{
1070
    19
1005
A37A
1002
}
  0
LINE
  5
A361
330
A333
100
AcDbEntity
  8
0
100
AcDbLine
 10
43.57899999995641
 20
8.763099999991255
 30
0.0
 11
43.57899999995641
 21
3.421199999996588
 31
0.0
1001
ACAD
1000
ASC_BOUNDS
1002
{
1070
    19
1005
A37A
1002
}
  0
LINE
  5
A362
330
A333
100
AcDbEntity
  8
0
100
AcDbLine
 10
43.57899999995641
 20
8.763099999991255
 30
0.0
 11
44.99999999995498
 21
8.763099999991255
 31
0.0
1001
ACAD
1000
ASC_BOUNDS
1002
{
1070
    19
1005
A37A
1002
}
  0
LINE
  5
A363
330
A333
100
AcDbEntity
  8
0
100
AcDbLine
 10
37.67199999996831
 20
8.763099999991255
 30
0.0
 11
36.23199999996837
 21
8.763099999991255
 31
0.0
  0
LINE
  5
A364
330
A333
100
AcDbEntity
  8
0
100
AcDbLine
 10
31.64199999996833
 20
8.763099999991255
 30
0.0
 11
31.64199999996833
 21
2.481619422925121
 31
0.0
  0
LINE
  5
A365
330
A333
100
AcDbEntity
  8
0
100
AcDbLine
 10
37.67199999996831
 20
8.763099999991255
 30
0.0
 11
37.67199999996831
 21
2.481619422925121
 31
0.0
  0
LINE
  5
A366
330
A333
100
AcDbEntity
  8
0
100
AcDbLine
 10
36.23199999996837
 20
8.763099999991255
 30
0.0
 11
36.23199999996837
 21
2.481619422925064
 31
0.0
  0
LINE
  5
A367
330
A333
100
AcDbEntity
  8
0
100
AcDbLine
 10
33.08199999996839
 20
8.763099999991255
 30
0.0
 11
33.08199999996839
 21
2.481619422925121
 31
0.0
  0
ARC
  5
A368
330
A333
100
AcDbEntity
  8
0
100
AcDbCircle
 10
34.65699999996832
 20
3.183099999991214
 30
0.0
 40
3.420000000000007
100
AcDbArc
 50
240.0000000000255
 51
299.9999999999766
  0
ARC
  5
A369
330
A333
100
AcDbEntity
  8
0
100
AcDbCircle
 10
34.65699999996832
 20
3.183099999991214
 30
0.0
 40
1.97999999999999
100
AcDbArc
 50
240.000000000026
 51
299.9999999999703
  0
LINE
  5
A36A
330
A333
100
AcDbEntity
  8
0
100
AcDbLine
 10
33.08199999996828
 20
8.763099999991255
 30
0.0
 11
31.64199999996833
 21
8.763099999991255
 31
0.0
  0
ARC
  5
A36B
330
A333
100
AcDbEntity
  8
0
100
AcDbCircle
 10
35.06199999996829
 20
2.481619422925064
 30
0.0
 40
1.17
100
AcDbArc
 50
299.9999999999699
 51
0.0
  0
ARC
  5
A36C
330
A333
100
AcDbEntity
  8
0
100
AcDbCircle
 10
34.25199999996835
 20
2.481619422925121
 30
0.0
 40
1.17
100
AcDbArc
 50
180.0
 51
240.0000000000238
  0
ARC
  5
A36D
330
A333
100
AcDbEntity
  8
0
100
AcDbCircle
 10
35.06199999996841
 20
2.481619422925121
 30
0.0
 40
2.61
100
AcDbArc
 50
299.9999999999756
 51
0.0
  0
ARC
  5
A36E
330
A333
100
AcDbEntity
  8
0
100
AcDbCircle
 10
34.25199999996835
 20
2.481619422925121
 30
0.0
 40
2.61
100
AcDbArc
 50
180.0
 51
240.0000000000244
  0
LINE
  5
A36F
330
A333
100
AcDbEntity
  8
0
100
AcDbLine
 10
29.30199999996933
 20
8.763099999991255
 30
0.0
 11
30.74199999996927
 21
8.763099999991255
 31
0.0
1001
ACAD
1000
ASC_BOUNDS
1002
{
1070
    19
1005
A378
1002
}
  0
LINE
  5
A370
330
A333
100
AcDbEntity
  8
0
100
AcDbLine
 10
30.74199999996927
 20
8.763099999991255
 30
0.0
 11
30.74199999996927
 21
2.373099999991211
 31
0.0
1001
ACAD
1000
ASC_BOUNDS
1002
{
1070
    19
1005
A378
1002
}
  0
LINE
  5
A371
330
A333
100
AcDbEntity
  8
0
100
AcDbLine
 10
26.02015566812236
 20
0.0330999999912365
 30
0.0
 11
28.40199999996923
 21
0.0330999999912365
 31
0.0
1001
ACAD
1000
ASC_BOUNDS
1002
{
1070
    19
1005
A378
1002
}
  0
LINE
  5
A372
330
A333
100
AcDbEntity
  8
0
100
AcDbLine
 10
29.30199999996933
 20
8.763099999991255
 30
0.0
 11
29.30199999996933
 21
2.283099999991236
 31
0.0
1001
ACAD
1000
ASC_BOUNDS
1002
{
1070
    19
1005
A378
1002
}
  0
LINE
  5
A373
330
A333
100
AcDbEntity
  8
0
100
AcDbLine
 10
26.97358892824991
 20
1.383099999991202
 30
0.0
 11
28.40199999996923
 21
1.383099999991202
 31
0.0
1001
ACAD
1000
ASC_BOUNDS
1002
{
1070
    19
1005
A378
1002
}
  0
ARC
  5
A374
330
A333
100
AcDbEntity
  8
0
100
AcDbCircle
 10
28.40199999996923
 20
2.283099999991236
 30
0.0
 40
0.9
100
AcDbArc
 50
270.0
 51
0.0
1001
ACAD
1000
ASC_BOUNDS
1002
{
1070
    19
1005
A378
1002
}
  0
ARC
  5
A375
330
A333
100
AcDbEntity
  8
0
100
AcDbCircle
 10
28.40199999996923
 20
2.373099999991211
 30
0.0
 40
2.34
100
AcDbArc
 50
270.0
 51
0.0
1001
ACAD
1000
ASC_BOUNDS
1002
{
1070
    19
1005
A378
1002
}
  0
INSERT
  5
A376
330
A333
100
AcDbEntity
  8
0
100
AcDbBlockReference
  2
*X229
 10
0.0
 20
0.0
 30
0.0
1001
ACAD
1000
HATCH
1002
{
1070
    19
1000
ANSI37
1040
0.15
1040
0.0
1000
ASC_BOUNDS
1070
     2
1070
     2
1070
    12
1005
A335
1005
A336
1005
A33D
1005
A34C
1005
A34F
1005
A34D
1005
A33E
1005
A343
1005
A341
1005
A345
1005
A344
1005
A346
1070
     2
1070
     3
1005
A351
1005
A353
1005
A352
1000
ASC_SEEDPOINT
1011
3.614004224891801
1021
2.996669441146025
1031
0.0
1000
R14_HATCH_DATA
1000
A376
1011
1.0
1021
0.0
1031
0.0
1011
0.0
1021
1.0
1031
0.0
1011
0.0
1021
0.0
1031
1.0
1040
0.0
1010
0.0
1020
0.0
1030
1.0
1000
ANSI37
1070
     0
1070
     1
1071
        2
1071
        7
1070
     0
1070
     1
1071
       17
1040
13.26299999998673
1040
-0.0001000000000317
1040
9.236999999990758
1040
8.999899999990987
1040
9.236999999990758
1040
8.999999999991019
1040
5.657999999994331
1040
0.9999999999989768
1040
3.181999999996833
1040
4.668599999995308
1040
6.432999999993513
1040
8.763099999991255
1040
4.617999999995391
1040
8.763099999991255
1040
1.420999999998571
1040
4.736799999995242
1040
4.617999999995391
1040
-0.0001000000000317
1040
4.617999999995391
1040
0.0
1040
6.766999999993232
1040
0.0
1040
6.766999999993232
1040
-0.0001000000000317
1040
7.826999999992154
1040
2.368399999997621
1040
10.64699999998936
1040
2.368399999997621
1040
11.70599999998831
1040
-0.0001000000000317
1040
11.70599999998831
1040
0.0
1040
13.26299999998673
1040
0.0
1071
       12
1005
A335
1005
A336
1005
A33D
1005
A34C
1005
A34F
1005
A34D
1005
A33E
1005
A343
1005
A341
1005
A345
1005
A344
1005
A346
1071
       22
1070
     0
1070
     1
1071
        3
1040
9.236999999990758
1040
5.5200999999945
1040
10.06399999998996
1040
3.670999999996297
1040
8.409999999991555
1040
3.670999999996297
1071
        3
1005
A351
1005
A353
1005
A352
1070
     0
1070
     1
1040
0.0
1040
0.15
1070
     0
1070
     2
1040
0.7853981633974483
1040
49.29960901727088
1040
-10.17736998311392
1040
-0.3367596045400932
1040
0.3367596045400932
1070
     0
1040
2.356194490192345
1040
49.29960901727088
1040
-10.17736998311392
1040
-0.3367596045400932
1040
-0.3367596045400932
1070
     0
1040
0.0110235143455945
1071
        2
1040
3.614004224891801
1040
2.996669441146025
1040
0.0
1040
3.614004224891801
1040
2.996669441146025
1040
0.0
1002
}
  0
INSERT
  5
A377
330
A333
100
AcDbEntity
  8
0
100
AcDbBlockReference
  2
*X230
 10
0.0
 20
0.0
 30
0.0
1001
ACAD
1000
HATCH
1002
{
1070
    19
1000
ANSI37
1040
0.15
1040
0.0
1000
ASC_BOUNDS
1070
     1
1070
     2
1070
    10
1005
A337
1005
A338
1005
A359
1005
A357
1005
A358
1005
A34B
1005
A350
1005
A354
1005
A33A
1005
A339
1000
ASC_SEEDPOINT
1011
14.73245321214324
1021
2.798246178283421
1031
0.0
1000
R14_HATCH_DATA
1000
A377
1011
1.0
1021
0.0
1031
0.0
1011
0.0
1021
1.0
1031
0.0
1011
0.0
1021
0.0
1031
1.0
1040
0.0
1010
0.0
1020
0.0
1030
1.0
1000
ANSI37
1070
     0
1070
     1
1071
        1
1071
        7
1070
     0
1070
     1
1071
       10
1040
16.46099999998353
1040
5.432899999994561
1040
18.59199999998134
1040
-0.2368999999997641
1040
22.38199999997767
1040
8.763099999991255
1040
20.89099999997916
1040
8.763099999991255
1040
18.59799999998143
1040
3.315799999996671
1040
16.46099999998353
1040
8.999899999990987
1040
14.32399999998563
1040
3.315799999996671
1040
12.02999999998792
1040
8.763099999991255
1040
10.53899999998941
1040
8.763099999991255
1040
14.32899999998563
1040
-0.2368999999997641
1071
       10
1005
A337
1005
A338
1005
A359
1005
A357
1005
A358
1005
A34B
1005
A350
1005
A354
1005
A33A
1005
A339
1070
     0
1070
     1
1040
0.0
1040
0.15
1070
     0
1070
     2
1040
0.7853981633974483
1040
49.29960901727088
1040
-10.17736998311392
1040
-0.3367596045400932
1040
0.3367596045400932
1070
     0
1040
2.356194490192345
1040
49.29960901727088
1040
-10.17736998311392
1040
-0.3367596045400932
1040
-0.3367596045400932
1070
     0
1040
0.0110235143455945
1071
        1
1040
14.73245321214324
1040
2.798246178283421
1040
0.0
1002
}
  0
INSERT
  5
A378
330
A333
100
AcDbEntity
  8
0
100
AcDbBlockReference
  2
*X231
 10
0.0
 20
0.0
 30
0.0
1001
ACAD
1000
HATCH
1002
{
1070
    19
1000
ANSI37
1040
0.15
1040
0.0
1000
ASC_BOUNDS
1070
     2
1070
     2
1070
    13
1005
A33B
1005
A348
1005
A349
1005
A347
1005
A34A
1005
A371
1005
A375
1005
A370
1005
A36F
1005
A372
1005
A374
1005
A373
1005
A33C
1070
     2
1070
     3
1005
A355
1005
A35A
1005
A356
1000
ASC_SEEDPOINT
1011
21.97929957367762
1021
3.294304244259308
1031
0.0
1000
R14_HATCH_DATA
1000
A378
1011
1.0
1021
0.0
1031
0.0
1011
0.0
1021
1.0
1031
0.0
1011
0.0
1021
0.0
1031
1.0
1040
0.0
1010
0.0
1020
0.0
1030
1.0
1000
ANSI37
1070
     0
1070
     1
1071
        2
1071
        7
1070
     1
1070
     1
1071
       15
1040
23.56599999997638
1040
8.999899999990987
1040
0.0
1040
19.53899999998043
1040
-0.0001000000000317
1040
0.0
1040
19.53899999998043
1040
0.0
1040
0.0
1040
21.09599999997886
1040
0.0
1040
0.0
1040
21.09599999997886
1040
-0.0001000000000317
1040
0.0
1040
22.15599999997789
1040
2.368399999997621
1040
0.0
1040
24.97599999997499
1040
2.368399999997621
1040
0.0
1040
26.02015566812236
1040
0.0330999999912365
1040
0.0
1040
28.40199999996923
1040
0.0330999999912365
1040
0.414213562373095
1040
30.74199999996923
1040
2.373099999991211
1040
0.0
1040
30.74199999996927
1040
8.763099999991255
1040
0.0
1040
29.30199999996933
1040
8.763099999991255
1040
0.0
1040
29.30199999996933
1040
2.283099999991236
1040
-0.414213562373095
1040
28.40199999996923
1040
1.383099999991237
1040
0.0
1040
26.97358892824991
1040
1.383099999991202
1040
0.0
1071
       13
1005
A33B
1005
A348
1005
A349
1005
A347
1005
A34A
1005
A371
1005
A375
1005
A370
1005
A36F
1005
A372
1005
A374
1005
A373
1005
A33C
1071
       22
1070
     0
1070
     1
1071
        3
1040
22.7389999999773
1040
3.670999999996297
1040
23.56599999997638
1040
5.5200999999945
1040
24.39299999997559
1040
3.670999999996297
1071
        3
1005
A355
1005
A35A
1005
A356
1070
     0
1070
     1
1040
0.0
1040
0.15
1070
     0
1070
     2
1040
0.7853981633974483
1040
49.29960901727088
1040
-10.17736998311392
1040
-0.3367596045400932
1040
0.3367596045400932
1070
     0
1040
2.356194490192345
1040
49.29960901727088
1040
-10.17736998311392
1040
-0.3367596045400932
1040
-0.3367596045400932
1070
     0
1040
0.0110235143455945
1071
        2
1040
21.97929957367762
1040
3.294304244259308
1040
0.0
1040
21.97929957367762
1040
3.294304244259308
1040
0.0
1002
}
  0
INSERT
  5
A379
330
A333
100
AcDbEntity
  8
0
100
AcDbBlockReference
  2
*X232
 10
0.0
 20
0.0
 30
0.0
1001
ACAD
1000
HATCH
1002
{
1070
    19
1000
ANSI37
1040
0.15
1040
0.0
1000
R14_HATCH_DATA
1000
A379
1011
1.0
1021
0.0
1031
0.0
1011
0.0
1021
1.0
1031
0.0
1011
0.0
1021
0.0
1031
1.0
1040
0.0
1010
0.0
1020
0.0
1030
1.0
1000
ANSI37
1070
     0
1070
     1
1071
        1
1071
        7
1070
     1
1070
     1
1071
       12
1040
31.64199999996833
1040
2.481619422925121
1040
0.2679491924310942
1040
32.94699999997067
1040
0.2212931190493919
1040
0.2679491924301353
1040
36.36699999995983
1040
0.2212931190459813
1040
0.2679491924321411
1040
37.67199999996831
1040
2.481619422928361
1040
0.0
1040
37.67199999996831
1040
8.763099999991255
1040
0.0
1040
36.23199999996837
1040
8.763099999991255
1040
0.0
1040
36.23199999996837
1040
2.481619422925064
1040
-0.2679491924310291
1040
35.64699999996708
1040
1.468369700498386
1040
-0.267949192430519
1040
33.66699999997093
1040
1.468369700497703
1040
-0.267949192431809
1040
33.08199999996839
1040
2.481619422926997
1040
0.0
1040
33.08199999996839
1040
8.763099999991255
1040
0.0
1040
31.64199999996833
1040
8.763099999991255
1040
0.0
1071
        0
1070
     0
1070
     1
1040
0.0
1040
0.15
1070
     0
1070
     2
1040
0.7853981633974483
1040
49.29960901727088
1040
-10.17736998311392
1040
-0.3367596045400932
1040
0.3367596045400932
1070
     0
1040
2.356194490192345
1040
49.29960901727088
1040
-10.17736998311392
1040
-0.3367596045400932
1040
-0.3367596045400932
1070
     0
1040
0.0110235143455945
1071
        1
1040
32.30357378967278
1040
3.988785755459219
1040
0.0
1002
}
  0
INSERT
  5
A37A
330
A333
100
AcDbEntity
  8
0
100
AcDbBlockReference
  2
*X233
 10
0.0
 20
0.0
 30
0.0
1001
ACAD
1000
HATCH
1002
{
1070
    19
1000
ANSI37
1040
0.15
1040
0.0
1000
ASC_BOUNDS
1070
     1
1070
     2
1070
     8
1005
A35B
1005
A35E
1005
A362
1005
A361
1005
A360
1005
A35D
1005
A35F
1005
A35C
1000
ASC_SEEDPOINT
1011
39.74896370716704
1021
4.484843821435049
1031
0.0
1000
R14_HATCH_DATA
1000
A37A
1011
1.0
1021
0.0
1031
0.0
1011
0.0
1021
1.0
1031
0.0
1011
0.0
1021
0.0
1031
1.0
1040
0.0
1010
0.0
1020
0.0
1030
1.0
1000
ANSI37
1070
     0
1070
     1
1071
        1
1071
        7
1070
     0
1070
     1
1071
        9
1040
40.02599999995994
1040
5.341799999994635
1040
44.99999999995498
1040
-0.2368999999997641
1040
44.99999999995498
1040
8.763099999991255
1040
43.57899999995641
1040
8.763099999991255
1040
43.57899999995641
1040
3.421199999996588
1040
38.60499999996136
1040
8.999899999990987
1040
38.60499999996136
1040
8.999999999991019
1040
38.60499999996136
1040
0.0
1040
40.02599999995994
1040
0.0
1071
        8
1005
A35B
1005
A35E
1005
A362
1005
A361
1005
A360
1005
A35D
1005
A35F
1005
A35C
1070
     0
1070
     1
1040
0.0
1040
0.15
1070
     0
1070
     2
1040
0.7853981633974483
1040
49.29960901727088
1040
-10.17736998311392
1040
-0.3367596045400932
1040
0.3367596045400932
1070
     0
1040
2.356194490192345
1040
49.29960901727088
1040
-10.17736998311392
1040
-0.3367596045400932
1040
-0.3367596045400932
1070
     0
1040
0.0110235143455945
1071
        1
1040
39.74896370716704
1040
4.484843821435049
1040
0.0
1002
}
  0
INSERT
  5
A37B
330
A333
100
AcDbEntity
  8
0
100
AcDbBlockReference
  2
*X234
 10
0.0
 20
0.0
 30
0.0
1001
ACAD
1000
HATCH
1002
{
1070
    19
1000
ANSI37
1040
0.15
1040
0.0
1000
ASC_BOUNDS
1070
     1
1070
     2
1070
     4
1005
A33F
1005
A34E
1005
A340
1005
A342
1000
ASC_SEEDPOINT
1011
1.079051535452663
1021
4.148538732891836
1031
0.0
1000
R14_HATCH_DATA
1000
A37B
1011
1.0
1021
0.0
1031
0.0
1011
0.0
1021
1.0
1031
0.0
1011
0.0
1021
0.0
1031
1.0
1040
0.0
1010
0.0
1020
0.0
1030
1.0
1000
ANSI37
1070
     0
1070
     1
1071
        1
1071
        7
1070
     0
1070
     1
1071
        4
1040
1.420999999998571
1040
0.0
1040
1.420999999998571
1040
8.763099999991255
1040
0.0
1040
8.763099999991255
1040
0.0
1040
0.0
1071
        4
1005
A33F
1005
A34E
1005
A340
1005
A342
1070
     0
1070
     1
1040
0.0
1040
0.15
1070
     0
1070
     2
1040
0.7853981633974483
1040
49.29960901727088
1040
-10.17736998311392
1040
-0.3367596045400932
1040
0.3367596045400932
1070
     0
1040
2.356194490192345
1040
49.29960901727088
1040
-10.17736998311392
1040
-0.3367596045400932
1040
-0.3367596045400932
1070
     0
1040
0.0053004257112761
1071
        1
1040
1.079051535452663
1040
4.148538732891836
1040
0.0
1002
}
  0
ENDBLK
  5
AA57
330
A333
100
AcDbEntity
  8
0
100
AcDbBlockEnd
  0
BLOCK
  5
11951
330
117C3
100
AcDbEntity
  8
0
100
AcDbBlockBegin
  2
*X229
 70
     1
 10
0.0
 20
0.0
 30
0.0
  3
*X229
  1

  0
LINE
  5
117C4
330
117C3
100
AcDbEntity
  8
0
  6
CONTINUOUS
100
AcDbLine
 10
3.418023043697893
 20
7.251849696850613
 30
0.0
 11
4.929273346838536
 21
8.763099999991255
 31
0.0
  0
LINE
  5
117C5
330
117C3
100
AcDbEntity
  8
0
  6
CONTINUOUS
100
AcDbLine
 10
1.483656411257782
 20
4.643963855330318
 30
0.0
 11
5.60279255591872
 21
8.763099999991255
 31
0.0
  0
LINE
  5
117C6
330
117C3
100
AcDbEntity
  8
0
  6
CONTINUOUS
100
AcDbLine
 10
1.755053947328235
 20
4.241842182320584
 30
0.0
 11
6.276311764998907
 21
8.763099999991255
 31
0.0
  0
LINE
  5
117C7
330
117C3
100
AcDbEntity
  8
0
  6
CONTINUOUS
100
AcDbLine
 10
2.026451483398688
 20
3.839720509310849
 30
0.0
 11
4.441040904851878
 21
6.254309930764039
 31
0.0
  0
LINE
  5
117C8
330
117C3
100
AcDbEntity
  8
0
  6
CONTINUOUS
100
AcDbLine
 10
2.297849019469139
 20
3.437598836301114
 30
0.0
 11
3.321765168359338
 21
4.461514985191313
 31
0.0
  0
LINE
  5
117C9
330
117C3
100
AcDbEntity
  8
0
  6
CONTINUOUS
100
AcDbLine
 10
2.569246555539591
 20
3.03547716329138
 30
0.0
 11
3.593163397972743
 21
4.059394005724531
 31
0.0
  0
LINE
  5
117CA
330
117C3
100
AcDbEntity
  8
0
  6
CONTINUOUS
100
AcDbLine
 10
2.840644091610043
 20
2.633355490281646
 30
0.0
 11
3.864561627586149
 21
3.657273026257751
 31
0.0
  0
LINE
  5
117CB
330
117C3
100
AcDbEntity
  8
0
  6
CONTINUOUS
100
AcDbLine
 10
3.112041627680496
 20
2.231233817271911
 30
0.0
 11
4.135959857199554
 21
3.25515204679097
 31
0.0
  0
LINE
  5
117CC
330
117C3
100
AcDbEntity
  8
0
  6
CONTINUOUS
100
AcDbLine
 10
3.383439163750948
 20
1.829112144262177
 30
0.0
 11
4.40735808681296
 21
2.853031067324189
 31
0.0
  0
LINE
  5
117CD
330
117C3
100
AcDbEntity
  8
0
  6
CONTINUOUS
100
AcDbLine
 10
3.654836699821399
 20
1.426990471252442
 30
0.0
 11
4.678756316426365
 21
2.450910087857407
 31
0.0
  0
LINE
  5
117CE
330
117C3
100
AcDbEntity
  8
0
  6
CONTINUOUS
100
AcDbLine
 10
3.926234235891853
 20
1.024868798242709
 30
0.0
 11
4.95015454603977
 21
2.048789108390626
 31
0.0
  0
LINE
  5
117CF
330
117C3
100
AcDbEntity
  8
0
  6
CONTINUOUS
100
AcDbLine
 10
4.197631771962304
 20
0.6227471252329737
 30
0.0
 11
5.221552775653176
 21
1.646668128923846
 31
0.0
  0
LINE
  5
117D0
330
117C3
100
AcDbEntity
  8
0
  6
CONTINUOUS
100
AcDbLine
 10
8.715877546767851
 20
7.835069736359266
 30
0.0
 11
9.435953450375058
 21
8.555145639966472
 31
0.0
  0
LINE
  5
117D1
330
117C3
100
AcDbEntity
  8
0
  6
CONTINUOUS
100
AcDbLine
 10
8.170620868422267
 20
6.616293848933497
 30
0.0
 11
9.644120833743461
 21
8.08979381425469
 31
0.0
  0
LINE
  5
117D2
330
117C3
100
AcDbEntity
  8
0
  6
CONTINUOUS
100
AcDbLine
 10
7.625364190076684
 20
5.397517961507727
 30
0.0
 11
9.852288217111864
 21
7.624441988542907
 31
0.0
  0
LINE
  5
117D3
330
117C3
100
AcDbEntity
  8
0
  6
CONTINUOUS
100
AcDbLine
 10
7.080107511731101
 20
4.178742074081957
 30
0.0
 11
10.06045560048027
 21
7.159090162831124
 31
0.0
  0
LINE
  5
117D4
330
117C3
100
AcDbEntity
  8
0
  6
CONTINUOUS
100
AcDbLine
 10
6.534850833385518
 20
2.959966186656187
 30
0.0
 11
10.26862298384867
 21
6.693738337119342
 31
0.0
  0
LINE
  5
117D5
330
117C3
100
AcDbEntity
  8
0
  6
CONTINUOUS
100
AcDbLine
 10
4.469029308032756
 20
0.2206254522232385
 30
0.0
 11
5.492951005266582
 21
1.244547149457064
 31
0.0
  0
LINE
  5
117D6
330
117C3
100
AcDbEntity
  8
0
  6
CONTINUOUS
100
AcDbLine
 10
5.989594155039935
 20
1.741190299230417
 30
0.0
 11
8.806950407233131
 21
4.558546551423613
 31
0.0
  0
LINE
  5
117D7
330
117C3
100
AcDbEntity
  8
0
  6
CONTINUOUS
100
AcDbLine
 10
9.401251593263643
 20
5.152847737454126
 30
0.0
 11
10.47679036721708
 21
6.228386511407559
 31
0.0
  0
LINE
  5
117D8
330
117C3
100
AcDbEntity
  8
0
  6
CONTINUOUS
100
AcDbLine
 10
4.921837203428691
 20
-0.0000858614610131
 30
0.0
 11
8.592923064886001
 21
3.670999999996297
 31
0.0
  0
LINE
  5
117D9
330
117C3
100
AcDbEntity
  8
0
  6
CONTINUOUS
100
AcDbLine
 10
9.609390446785305
 20
4.6874673818956
 30
0.0
 11
10.68495775058548
 21
5.763034685695775
 31
0.0
  0
LINE
  5
117DA
330
117C3
100
AcDbEntity
  8
0
  6
CONTINUOUS
100
AcDbLine
 10
5.595387755019432
 20
-0.0000545189504582
 30
0.0
 11
7.716137258923768
 21
2.120694984953879
 31
0.0
  0
LINE
  5
117DB
330
117C3
100
AcDbEntity
  8
0
  6
CONTINUOUS
100
AcDbLine
 10
6.268938306610172
 20
-0.000023176439905
 30
0.0
 11
7.170485805526503
 21
0.9015243224764267
 31
0.0
  0
LINE
  5
117DC
330
117C3
100
AcDbEntity
  8
0
  6
CONTINUOUS
100
AcDbLine
 10
7.963842273967511
 20
2.368399999997621
 30
0.0
 11
9.266442273966188
 21
3.670999999996297
 31
0.0
  0
LINE
  5
117DD
330
117C3
100
AcDbEntity
  8
0
  6
CONTINUOUS
100
AcDbLine
 10
8.637361483047696
 20
2.368399999997621
 30
0.0
 11
9.939961483046375
 21
3.670999999996297
 31
0.0
  0
LINE
  5
117DE
330
117C3
100
AcDbEntity
  8
0
  6
CONTINUOUS
100
AcDbLine
 10
9.817529300306965
 20
4.222087026337075
 30
0.0
 11
10.89312513395388
 21
5.297682859983993
 31
0.0
  0
LINE
  5
117DF
330
117C3
100
AcDbEntity
  8
0
  6
CONTINUOUS
100
AcDbLine
 10
10.02566815382863
 20
3.756706670778549
 30
0.0
 11
11.10129251732229
 21
4.832331034272211
 31
0.0
  0
LINE
  5
117E0
330
117C3
100
AcDbEntity
  8
0
  6
CONTINUOUS
100
AcDbLine
 10
9.310880692127883
 20
2.368399999997621
 30
0.0
 11
11.30945990069069
 21
4.366979208560428
 31
0.0
  0
LINE
  5
117E1
330
117C3
100
AcDbEntity
  8
0
  6
CONTINUOUS
100
AcDbLine
 10
9.98439990120807
 20
2.36839999999762
 30
0.0
 11
11.5176272840591
 21
3.901627382848645
 31
0.0
  0
LINE
  5
117E2
330
117C3
100
AcDbEntity
  8
0
  6
CONTINUOUS
100
AcDbLine
 10
10.65037369446246
 20
2.36085458417182
 30
0.0
 11
11.7257946674275
 21
3.436275557136862
 31
0.0
  0
LINE
  5
117E3
330
117C3
100
AcDbEntity
  8
0
  6
CONTINUOUS
100
AcDbLine
 10
10.85847197087848
 20
1.895433651507656
 30
0.0
 11
11.9339620507959
 21
2.97092373142508
 31
0.0
  0
LINE
  5
117E4
330
117C3
100
AcDbEntity
  8
0
  6
CONTINUOUS
100
AcDbLine
 10
11.0665702472945
 20
1.430012718843491
 30
0.0
 11
12.14212943416431
 21
2.505571905713296
 31
0.0
  0
LINE
  5
117E5
330
117C3
100
AcDbEntity
  8
0
  6
CONTINUOUS
100
AcDbLine
 10
11.27466852371052
 20
0.9645917861793256
 30
0.0
 11
12.35029681753271
 21
2.040220080001513
 31
0.0
  0
LINE
  5
117E6
330
117C3
100
AcDbEntity
  8
0
  6
CONTINUOUS
100
AcDbLine
 10
11.48276680012654
 20
0.4991708535151611
 30
0.0
 11
12.55846420090111
 21
1.57486825428973
 31
0.0
  0
LINE
  5
117E7
330
117C3
100
AcDbEntity
  8
0
  6
CONTINUOUS
100
AcDbLine
 10
11.69086507654257
 20
0.0337499208509957
 30
0.0
 11
12.76663158426952
 21
1.109516428577947
 31
0.0
  0
LINE
  5
117E8
330
117C3
100
AcDbEntity
  8
0
  6
CONTINUOUS
100
AcDbLine
 10
12.33057447873954
 20
-0.0000598860322123
 30
0.0
 11
12.97479896763792
 21
0.6441646028661663
 31
0.0
  0
LINE
  5
117E9
330
117C3
100
AcDbEntity
  8
0
  6
CONTINUOUS
100
AcDbLine
 10
13.00413694809395
 20
-0.0000166257579952
 30
0.0
 11
13.18296635100632
 21
0.1788127771543824
 31
0.0
  0
LINE
  5
117EA
330
117C3
100
AcDbEntity
  8
0
  6
CONTINUOUS
100
AcDbLine
 10
4.772852165289667
 20
-0.000092794222212
 30
0.0
 11
4.296495091028902
 21
0.4762642800385528
 31
0.0
  0
LINE
  5
117EB
330
117C3
100
AcDbEntity
  8
0
  6
CONTINUOUS
100
AcDbLine
 10
5.446340034776103
 20
-0.0000614546284616
 30
0.0
 11
2.898195908335625
 21
2.548082671812017
 31
0.0
  0
LINE
  5
117EC
330
117C3
100
AcDbEntity
  8
0
  6
CONTINUOUS
100
AcDbLine
 10
6.119827904262539
 20
-0.0000301150347113
 30
0.0
 11
1.499896725642348
 21
4.61990106358548
 31
0.0
  0
LINE
  5
117ED
330
117C3
100
AcDbEntity
  8
0
  6
CONTINUOUS
100
AcDbLine
 10
6.775136745476159
 20
0.0181802528318542
 30
0.0
 11
5.699826040202669
 21
1.093490958105344
 31
0.0
  0
LINE
  5
117EE
330
117C3
100
AcDbEntity
  8
0
  6
CONTINUOUS
100
AcDbLine
 10
6.983376846288489
 20
0.4834593610997118
 30
0.0
 11
5.908008617934405
 21
1.558827589453796
 31
0.0
  0
LINE
  5
117EF
330
117C3
100
AcDbEntity
  8
0
  6
CONTINUOUS
100
AcDbLine
 10
5.377063484962296
 20
1.416253513345719
 30
0.0
 11
1.702276957014131
 21
5.091040041293883
 31
0.0
  0
LINE
  5
117F0
330
117C3
100
AcDbEntity
  8
0
  6
CONTINUOUS
100
AcDbLine
 10
3.978745891735324
 20
3.488090315652877
 30
0.0
 11
2.000373521109399
 21
5.466462686278803
 31
0.0
  0
LINE
  5
117F1
330
117C3
100
AcDbEntity
  8
0
  6
CONTINUOUS
100
AcDbLine
 10
7.191616947100819
 20
0.948738469367568
 30
0.0
 11
6.11619119566614
 21
2.024164220802247
 31
0.0
  0
LINE
  5
117F2
330
117C3
100
AcDbEntity
  8
0
  6
CONTINUOUS
100
AcDbLine
 10
7.399857047913149
 20
1.414017577635424
 30
0.0
 11
6.324373773397875
 21
2.489500852150698
 31
0.0
  0
LINE
  5
117F3
330
117C3
100
AcDbEntity
  8
0
  6
CONTINUOUS
100
AcDbLine
 10
7.608097148725479
 20
1.879296685903281
 30
0.0
 11
6.53255635112961
 21
2.95483748349915
 31
0.0
  0
LINE
  5
117F4
330
117C3
100
AcDbEntity
  8
0
  6
CONTINUOUS
100
AcDbLine
 10
7.816337249537808
 20
2.344575794171138
 30
0.0
 11
6.740738928861345
 21
3.420174114847601
 31
0.0
  0
LINE
  5
117F5
330
117C3
100
AcDbEntity
  8
0
  6
CONTINUOUS
100
AcDbLine
 10
3.310241080789734
 20
4.830114335678653
 30
0.0
 11
2.298470085204666
 21
5.84188533126372
 31
0.0
  0
LINE
  5
117F6
330
117C3
100
AcDbEntity
  8
0
  6
CONTINUOUS
100
AcDbLine
 10
3.60832983563551
 20
5.205544789913063
 30
0.0
 11
2.596566649299935
 21
6.217307976248638
 31
0.0
  0
LINE
  5
117F7
330
117C3
100
AcDbEntity
  8
0
  6
CONTINUOUS
100
AcDbLine
 10
3.906418590481286
 20
5.580975244147473
 30
0.0
 11
2.894663213395203
 21
6.592730621233557
 31
0.0
  0
LINE
  5
117F8
330
117C3
100
AcDbEntity
  8
0
  6
CONTINUOUS
100
AcDbLine
 10
4.204507345327062
 20
5.956405698381884
 30
0.0
 11
3.192759777490472
 21
6.968153266218474
 31
0.0
  0
LINE
  5
117F9
330
117C3
100
AcDbEntity
  8
0
  6
CONTINUOUS
100
AcDbLine
 10
8.466032252791512
 20
2.368399999997621
 30
0.0
 11
6.948921506593081
 21
3.885510746196053
 31
0.0
  0
LINE
  5
117FA
330
117C3
100
AcDbEntity
  8
0
  6
CONTINUOUS
100
AcDbLine
 10
9.139551461871699
 20
2.36839999999762
 30
0.0
 11
7.157104084324816
 21
4.350847377544504
 31
0.0
  0
LINE
  5
117FB
330
117C3
100
AcDbEntity
  8
0
  6
CONTINUOUS
100
AcDbLine
 10
4.502596100172839
 20
6.331836152616295
 30
0.0
 11
3.49085634158574
 21
7.343575911203393
 31
0.0
  0
LINE
  5
117FC
330
117C3
100
AcDbEntity
  8
0
  6
CONTINUOUS
100
AcDbLine
 10
4.800684855018615
 20
6.707266606850705
 30
0.0
 11
3.788952905681008
 21
7.718998556188312
 31
0.0
  0
LINE
  5
117FD
330
117C3
100
AcDbEntity
  8
0
  6
CONTINUOUS
100
AcDbLine
 10
12.18154012887317
 20
-0.0000694579236642
 30
0.0
 11
11.32140332908496
 21
0.8600673418645499
 31
0.0
  0
LINE
  5
117FE
330
117C3
100
AcDbEntity
  8
0
  6
CONTINUOUS
100
AcDbLine
 10
12.85501608323566
 20
-0.0000262032059659
 30
0.0
 11
10.77672456435345
 21
2.078265315676246
 31
0.0
  0
LINE
  5
117FF
330
117C3
100
AcDbEntity
  8
0
  6
CONTINUOUS
100
AcDbLine
 10
9.813070670951886
 20
2.36839999999762
 30
0.0
 11
8.51047067095321
 21
3.670999999996297
 31
0.0
  0
LINE
  5
11800
330
117C3
100
AcDbEntity
  8
0
  6
CONTINUOUS
100
AcDbLine
 10
10.48658988003207
 20
2.36839999999762
 30
0.0
 11
9.183989880033396
 21
3.670999999996297
 31
0.0
  0
LINE
  5
11801
330
117C3
100
AcDbEntity
  8
0
  6
CONTINUOUS
100
AcDbLine
 10
8.441048632286794
 20
3.740422038662712
 30
0.0
 11
7.365286662056551
 21
4.816184008892956
 31
0.0
  0
LINE
  5
11802
330
117C3
100
AcDbEntity
  8
0
  6
CONTINUOUS
100
AcDbLine
 10
8.649187485808454
 20
4.205802394221237
 30
0.0
 11
7.573469239788285
 21
5.281520640241407
 31
0.0
  0
LINE
  5
11803
330
117C3
100
AcDbEntity
  8
0
  6
CONTINUOUS
100
AcDbLine
 10
5.098773609864391
 20
7.082697061085115
 30
0.0
 11
4.087049469776277
 21
8.09442120117323
 31
0.0
  0
LINE
  5
11804
330
117C3
100
AcDbEntity
  8
0
  6
CONTINUOUS
100
AcDbLine
 10
5.396862364710167
 20
7.458127515319526
 30
0.0
 11
4.385146033871544
 21
8.469843846158149
 31
0.0
  0
LINE
  5
11805
330
117C3
100
AcDbEntity
  8
0
  6
CONTINUOUS
100
AcDbLine
 10
13.04801363231285
 20
0.4804954567970334
 30
0.0
 11
9.85750908911358
 21
3.670999999996297
 31
0.0
  0
LINE
  5
11806
330
117C3
100
AcDbEntity
  8
0
  6
CONTINUOUS
100
AcDbLine
 10
8.857326339330116
 20
4.671182749779763
 30
0.0
 11
7.781651817520021
 21
5.746857271589858
 31
0.0
  0
LINE
  5
11807
330
117C3
100
AcDbEntity
  8
0
  6
CONTINUOUS
100
AcDbLine
 10
5.694951119555943
 20
7.833557969553937
 30
0.0
 11
4.765409089118624
 21
8.763099999991255
 31
0.0
  0
LINE
  5
11808
330
117C3
100
AcDbEntity
  8
0
  6
CONTINUOUS
100
AcDbLine
 10
12.50286117236978
 20
1.699167125820288
 30
0.0
 11
9.68611877250287
 21
4.515909525687196
 31
0.0
  0
LINE
  5
11809
330
117C3
100
AcDbEntity
  8
0
  6
CONTINUOUS
100
AcDbLine
 10
9.065465192851777
 20
5.136563105338288
 30
0.0
 11
7.989834395251757
 21
6.21219390293831
 31
0.0
  0
LINE
  5
1180A
330
117C3
100
AcDbEntity
  8
0
  6
CONTINUOUS
100
AcDbLine
 10
5.993039874401719
 20
8.208988423788346
 30
0.0
 11
5.43892829819881
 21
8.763099999991255
 31
0.0
  0
LINE
  5
1180B
330
117C3
100
AcDbEntity
  8
0
  6
CONTINUOUS
100
AcDbLine
 10
11.95770871242671
 20
2.917838794843543
 30
0.0
 11
8.19801697298349
 21
6.677530534286761
 31
0.0
  0
LINE
  5
1180C
330
117C3
100
AcDbEntity
  8
0
  6
CONTINUOUS
100
AcDbLine
 10
6.291128629247495
 20
8.584418878022756
 30
0.0
 11
6.112447507278997
 21
8.763099999991255
 31
0.0
  0
LINE
  5
1180D
330
117C3
100
AcDbEntity
  8
0
  6
CONTINUOUS
100
AcDbLine
 10
11.41255625248364
 20
4.136510463866797
 30
0.0
 11
8.406199550715227
 21
7.142867165635211
 31
0.0
  0
LINE
  5
1180E
330
117C3
100
AcDbEntity
  8
0
  6
CONTINUOUS
100
AcDbLine
 10
10.86740379254057
 20
5.355182132890051
 30
0.0
 11
8.614382128446962
 21
7.608203796983664
 31
0.0
  0
LINE
  5
1180F
330
117C3
100
AcDbEntity
  8
0
  6
CONTINUOUS
100
AcDbLine
 10
10.3222513325975
 20
6.573853801913305
 30
0.0
 11
8.822564706178696
 21
8.073540428332114
 31
0.0
  0
LINE
  5
11810
330
117C3
100
AcDbEntity
  8
0
  6
CONTINUOUS
100
AcDbLine
 10
9.777098872654436
 20
7.792525470936562
 30
0.0
 11
9.030747283910433
 21
8.538877059680566
 31
0.0
  0
ENDBLK
  5
11952
330
117C3
100
AcDbEntity
  8
0
100
AcDbBlockEnd
  0
BLOCK
  5
11953
330
11811
100
AcDbEntity
  8
0
100
AcDbBlockBegin
  2
*X230
 70
     1
 10
0.0
 20
0.0
 30
0.0
  3
*X230
  1

  0
LINE
  5
11812
330
11811
100
AcDbEntity
  8
0
  6
CONTINUOUS
100
AcDbLine
 10
10.67292308101235
 20
8.445076852443387
 30
0.0
 11
10.99094622856022
 21
8.763099999991255
 31
0.0
  0
LINE
  5
11813
330
11811
100
AcDbEntity
  8
0
  6
CONTINUOUS
100
AcDbLine
 10
10.87250383178748
 20
7.971138394138331
 30
0.0
 11
11.6644654376404
 21
8.763099999991255
 31
0.0
  0
LINE
  5
11814
330
11811
100
AcDbEntity
  8
0
  6
CONTINUOUS
100
AcDbLine
 10
11.07208458256261
 20
7.497199935833273
 30
0.0
 11
12.12126590876355
 21
8.546381262034211
 31
0.0
  0
LINE
  5
11815
330
11811
100
AcDbEntity
  8
0
  6
CONTINUOUS
100
AcDbLine
 10
11.27166533333774
 20
7.023261477528216
 30
0.0
 11
12.32085164573666
 21
8.072447789927136
 31
0.0
  0
LINE
  5
11816
330
11811
100
AcDbEntity
  8
0
  6
CONTINUOUS
100
AcDbLine
 10
11.47124608411287
 20
6.549323019223158
 30
0.0
 11
12.52043738270977
 21
7.59851431782006
 31
0.0
  0
LINE
  5
11817
330
11811
100
AcDbEntity
  8
0
  6
CONTINUOUS
100
AcDbLine
 10
11.670826834888
 20
6.075384560918101
 30
0.0
 11
12.72002311968288
 21
7.124580845712984
 31
0.0
  0
LINE
  5
11818
330
11811
100
AcDbEntity
  8
0
  6
CONTINUOUS
100
AcDbLine
 10
11.87040758566313
 20
5.601446102613043
 30
0.0
 11
12.91960885665599
 21
6.650647373605907
 31
0.0
  0
LINE
  5
11819
330
11811
100
AcDbEntity
  8
0
  6
CONTINUOUS
100
AcDbLine
 10
12.06998833643825
 20
5.127507644307986
 30
0.0
 11
13.1191945936291
 21
6.176713901498832
 31
0.0
  0
LINE
  5
1181A
330
11811
100
AcDbEntity
  8
0
  6
CONTINUOUS
100
AcDbLine
 10
12.26956908721338
 20
4.65356918600293
 30
0.0
 11
13.31878033060221
 21
5.702780429391757
 31
0.0
  0
LINE
  5
1181B
330
11811
100
AcDbEntity
  8
0
  6
CONTINUOUS
100
AcDbLine
 10
12.46914983798851
 20
4.179630727697873
 30
0.0
 11
13.51836606757532
 21
5.228846957284683
 31
0.0
  0
LINE
  5
1181C
330
11811
100
AcDbEntity
  8
0
  6
CONTINUOUS
100
AcDbLine
 10
12.66873058876364
 20
3.705692269392816
 30
0.0
 11
13.71795180454843
 21
4.754913485177607
 31
0.0
  0
LINE
  5
1181D
330
11811
100
AcDbEntity
  8
0
  6
CONTINUOUS
100
AcDbLine
 10
12.86831133953877
 20
3.231753811087759
 30
0.0
 11
13.91753754152154
 21
4.280980013070531
 31
0.0
  0
LINE
  5
1181E
330
11811
100
AcDbEntity
  8
0
  6
CONTINUOUS
100
AcDbLine
 10
13.0678920903139
 20
2.757815352782702
 30
0.0
 11
14.11712327849465
 21
3.807046540963456
 31
0.0
  0
LINE
  5
1181F
330
11811
100
AcDbEntity
  8
0
  6
CONTINUOUS
100
AcDbLine
 10
13.26747284108903
 20
2.283876894477644
 30
0.0
 11
14.31670901546777
 21
3.333113068856379
 31
0.0
  0
LINE
  5
11820
330
11811
100
AcDbEntity
  8
0
  6
CONTINUOUS
100
AcDbLine
 10
16.36767838827179
 20
8.751678487061342
 30
0.0
 11
16.50332410898388
 21
8.887324207773432
 31
0.0
  0
LINE
  5
11821
330
11811
100
AcDbEntity
  8
0
  6
CONTINUOUS
100
AcDbLine
 10
15.96190732182191
 20
7.67238821153127
 30
0.0
 11
16.68735328004734
 21
8.397834169756699
 31
0.0
  0
LINE
  5
11822
330
11811
100
AcDbEntity
  8
0
  6
CONTINUOUS
100
AcDbLine
 10
15.55613625537202
 20
6.593097936001196
 30
0.0
 11
16.87138245111079
 21
7.908344131739965
 31
0.0
  0
LINE
  5
11823
330
11811
100
AcDbEntity
  8
0
  6
CONTINUOUS
100
AcDbLine
 10
15.15036518892213
 20
5.513807660471122
 30
0.0
 11
17.05541162217424
 21
7.418854093723231
 31
0.0
  0
LINE
  5
11824
330
11811
100
AcDbEntity
  8
0
  6
CONTINUOUS
100
AcDbLine
 10
14.74459412247225
 20
4.434517384941048
 30
0.0
 11
17.2394407932377
 21
6.929364055706499
 31
0.0
  0
LINE
  5
11825
330
11811
100
AcDbEntity
  8
0
  6
CONTINUOUS
100
AcDbLine
 10
14.33882305602236
 20
3.355227109410975
 30
0.0
 11
17.42346996430115
 21
6.439874017689766
 31
0.0
  0
LINE
  5
11826
330
11811
100
AcDbEntity
  8
0
  6
CONTINUOUS
100
AcDbLine
 10
13.46705359186416
 20
1.809938436172586
 30
0.0
 11
16.0819338255367
 21
4.424818669845129
 31
0.0
  0
LINE
  5
11827
330
11811
100
AcDbEntity
  8
0
  6
CONTINUOUS
100
AcDbLine
 10
16.63283254238972
 20
4.975717386698149
 30
0.0
 11
17.60749913536461
 21
5.950383979673033
 31
0.0
  0
LINE
  5
11828
330
11811
100
AcDbEntity
  8
0
  6
CONTINUOUS
100
AcDbLine
 10
13.66663434263929
 20
1.335999977867529
 30
0.0
 11
15.67604797733754
 21
3.345413612565779
 31
0.0
  0
LINE
  5
11829
330
11811
100
AcDbEntity
  8
0
  6
CONTINUOUS
100
AcDbLine
 10
13.86621509341442
 20
0.8620615195624723
 30
0.0
 11
15.27016212913838
 21
2.26600855528643
 31
0.0
  0
LINE
  5
1182A
330
11811
100
AcDbEntity
  8
0
  6
CONTINUOUS
100
AcDbLine
 10
16.81682257348267
 20
4.486188208710908
 30
0.0
 11
17.79152830642806
 21
5.460893941656299
 31
0.0
  0
LINE
  5
1182B
330
11811
100
AcDbEntity
  8
0
  6
CONTINUOUS
100
AcDbLine
 10
17.00081260457561
 20
3.996659030723667
 30
0.0
 11
17.97555747749151
 21
4.971403903639565
 31
0.0
  0
LINE
  5
1182C
330
11811
100
AcDbEntity
  8
0
  6
CONTINUOUS
100
AcDbLine
 10
20.74362343514722
 20
8.412989070375462
 30
0.0
 11
21.09373436476302
 21
8.763099999991256
 31
0.0
  0
LINE
  5
1182D
330
11811
100
AcDbEntity
  8
0
  6
CONTINUOUS
100
AcDbLine
 10
20.25401257174777
 20
7.249858997895826
 30
0.0
 11
21.7672535738432
 21
8.763099999991255
 31
0.0
  0
LINE
  5
1182E
330
11811
100
AcDbEntity
  8
0
  6
CONTINUOUS
100
AcDbLine
 10
14.06579584418955
 20
0.3881230612574149
 30
0.0
 11
14.86427628093921
 21
1.186603498007082
 31
0.0
  0
LINE
  5
1182F
330
11811
100
AcDbEntity
  8
0
  6
CONTINUOUS
100
AcDbLine
 10
14.26537659496467
 20
-0.0858153970476412
 30
0.0
 11
14.45839043274005
 21
0.1071984407277329
 31
0.0
  0
LINE
  5
11830
330
11811
100
AcDbEntity
  8
0
  6
CONTINUOUS
100
AcDbLine
 10
17.18480263566856
 20
3.507129852736426
 30
0.0
 11
18.15958664855496
 21
4.481913865622833
 31
0.0
  0
LINE
  5
11831
330
11811
100
AcDbEntity
  8
0
  6
CONTINUOUS
100
AcDbLine
 10
17.3687926667615
 20
3.017600674749186
 30
0.0
 11
18.34361581961842
 21
3.9924238276061
 31
0.0
  0
LINE
  5
11832
330
11811
100
AcDbEntity
  8
0
  6
CONTINUOUS
100
AcDbLine
 10
19.76440170834832
 20
6.086728925416191
 30
0.0
 11
22.33924590259489
 21
8.661573119662755
 31
0.0
  0
LINE
  5
11833
330
11811
100
AcDbEntity
  8
0
  6
CONTINUOUS
100
AcDbLine
 10
19.27479084494887
 20
4.923598852936555
 30
0.0
 11
21.84929622842713
 21
7.498104236414807
 31
0.0
  0
LINE
  5
11834
330
11811
100
AcDbEntity
  8
0
  6
CONTINUOUS
100
AcDbLine
 10
17.55278269785445
 20
2.528071496761945
 30
0.0
 11
18.52764499068187
 21
3.502933789589366
 31
0.0
  0
LINE
  5
11835
330
11811
100
AcDbEntity
  8
0
  6
CONTINUOUS
100
AcDbLine
 10
18.78517998154942
 20
3.760468780456919
 30
0.0
 11
21.35934655425936
 21
6.33463535316686
 31
0.0
  0
LINE
  5
11836
330
11811
100
AcDbEntity
  8
0
  6
CONTINUOUS
100
AcDbLine
 10
17.73677272894739
 20
2.038542318774704
 30
0.0
 11
20.8693968800916
 21
5.171166469918914
 31
0.0
  0
LINE
  5
11837
330
11811
100
AcDbEntity
  8
0
  6
CONTINUOUS
100
AcDbLine
 10
17.92076276004034
 20
1.549013140787464
 30
0.0
 11
20.37944720592384
 21
4.007697586670968
 31
0.0
  0
LINE
  5
11838
330
11811
100
AcDbEntity
  8
0
  6
CONTINUOUS
100
AcDbLine
 10
18.10475279113329
 20
1.059483962800223
 30
0.0
 11
19.88949753175608
 21
2.84422870342302
 31
0.0
  0
LINE
  5
11839
330
11811
100
AcDbEntity
  8
0
  6
CONTINUOUS
100
AcDbLine
 10
18.28874282222623
 20
0.5699547848129822
 30
0.0
 11
19.39954785758832
 21
1.680759820175074
 31
0.0
  0
LINE
  5
1183A
330
11811
100
AcDbEntity
  8
0
  6
CONTINUOUS
100
AcDbLine
 10
18.47273285331918
 20
0.0804256068257416
 30
0.0
 11
18.90959818342056
 21
0.517290936927127
 31
0.0
  0
LINE
  5
1183B
330
11811
100
AcDbEntity
  8
0
  6
CONTINUOUS
100
AcDbLine
 10
14.3590401358224
 20
-0.1570118376323384
 30
0.0
 11
14.24903296539946
 21
-0.0470046672093929
 31
0.0
  0
LINE
  5
1183C
330
11811
100
AcDbEntity
  8
0
  6
CONTINUOUS
100
AcDbLine
 10
14.54309291258661
 20
0.332454594683643
 30
0.0
 11
13.75908329123172
 21
1.116464216038529
 31
0.0
  0
LINE
  5
1183D
330
11811
100
AcDbEntity
  8
0
  6
CONTINUOUS
100
AcDbLine
 10
14.72714568935081
 20
0.8219210269996244
 30
0.0
 11
13.26913361706399
 21
2.27993309928645
 31
0.0
  0
LINE
  5
1183E
330
11811
100
AcDbEntity
  8
0
  6
CONTINUOUS
100
AcDbLine
 10
14.91119846611502
 20
1.311387459315606
 30
0.0
 11
12.77918394289625
 21
3.443401982534371
 31
0.0
  0
LINE
  5
1183F
330
11811
100
AcDbEntity
  8
0
  6
CONTINUOUS
100
AcDbLine
 10
15.09525124287922
 20
1.800853891631587
 30
0.0
 11
12.28923426872852
 21
4.606870865782293
 31
0.0
  0
LINE
  5
11840
330
11811
100
AcDbEntity
  8
0
  6
CONTINUOUS
100
AcDbLine
 10
15.27930401964343
 20
2.290320323947569
 30
0.0
 11
11.79928459456078
 21
5.770339749030213
 31
0.0
  0
LINE
  5
11841
330
11811
100
AcDbEntity
  8
0
  6
CONTINUOUS
100
AcDbLine
 10
15.46335679640763
 20
2.77978675626355
 30
0.0
 11
14.48885470994921
 21
3.754288842721972
 31
0.0
  0
LINE
  5
11842
330
11811
100
AcDbEntity
  8
0
  6
CONTINUOUS
100
AcDbLine
 10
13.88507249233704
 20
4.358071060334137
 30
0.0
 11
11.30933492039305
 21
6.933808632278135
 31
0.0
  0
LINE
  5
11843
330
11811
100
AcDbEntity
  8
0
  6
CONTINUOUS
100
AcDbLine
 10
18.75840522805855
 20
0.1582575336928151
 30
0.0
 11
18.25383727664818
 21
0.6628254851031863
 31
0.0
  0
LINE
  5
11844
330
11811
100
AcDbEntity
  8
0
  6
CONTINUOUS
100
AcDbLine
 10
15.64740957317184
 20
3.269253188579531
 30
0.0
 11
14.67288388101266
 21
4.243778880738705
 31
0.0
  0
LINE
  5
11845
330
11811
100
AcDbEntity
  8
0
  6
CONTINUOUS
100
AcDbLine
 10
13.39509276772158
 20
5.521569994029786
 30
0.0
 11
10.81938524622531
 21
8.097277515526056
 31
0.0
  0
LINE
  5
11846
330
11811
100
AcDbEntity
  8
0
  6
CONTINUOUS
100
AcDbLine
 10
18.95798597883369
 20
0.6321959919978686
 30
0.0
 11
17.84825644852853
 21
1.741925522303024
 31
0.0
  0
LINE
  5
11847
330
11811
100
AcDbEntity
  8
0
  6
CONTINUOUS
100
AcDbLine
 10
19.15756672960882
 20
1.106134450302922
 30
0.0
 11
17.44267562040888
 21
2.821025559502861
 31
0.0
  0
LINE
  5
11848
330
11811
100
AcDbEntity
  8
0
  6
CONTINUOUS
100
AcDbLine
 10
15.83146234993604
 20
3.758719620895513
 30
0.0
 11
14.85691305207612
 21
4.733268918755439
 31
0.0
  0
LINE
  5
11849
330
11811
100
AcDbEntity
  8
0
  6
CONTINUOUS
100
AcDbLine
 10
16.01551512670025
 20
4.248186053211494
 30
0.0
 11
15.04094222313957
 21
5.222758956772172
 31
0.0
  0
LINE
  5
1184A
330
11811
100
AcDbEntity
  8
0
  6
CONTINUOUS
100
AcDbLine
 10
12.90511304310612
 20
6.685068927725435
 30
0.0
 11
10.8270819708403
 21
8.763099999991255
 31
0.0
  0
LINE
  5
1184B
330
11811
100
AcDbEntity
  8
0
  6
CONTINUOUS
100
AcDbLine
 10
12.41513331849066
 20
7.848567861421083
 30
0.0
 11
11.50060117992049
 21
8.763099999991255
 31
0.0
  0
LINE
  5
1184C
330
11811
100
AcDbEntity
  8
0
  6
CONTINUOUS
100
AcDbLine
 10
19.35714748038395
 20
1.580072908607975
 30
0.0
 11
17.03709479228923
 21
3.900125596702697
 31
0.0
  0
LINE
  5
1184D
330
11811
100
AcDbEntity
  8
0
  6
CONTINUOUS
100
AcDbLine
 10
19.55672823115909
 20
2.054011366913028
 30
0.0
 11
16.63151396416958
 21
4.979225633902534
 31
0.0
  0
LINE
  5
1184E
330
11811
100
AcDbEntity
  8
0
  6
CONTINUOUS
100
AcDbLine
 10
16.19956790346445
 20
4.737652485527476
 30
0.0
 11
15.22497139420302
 21
5.712248994788904
 31
0.0
  0
LINE
  5
1184F
330
11811
100
AcDbEntity
  8
0
  6
CONTINUOUS
100
AcDbLine
 10
16.38362068022866
 20
5.227118917843457
 30
0.0
 11
15.40900056526648
 21
6.201739032805637
 31
0.0
  0
LINE
  5
11850
330
11811
100
AcDbEntity
  8
0
  6
CONTINUOUS
100
AcDbLine
 10
19.75630898193422
 20
2.527949825218081
 30
0.0
 11
18.70774536448286
 21
3.576513442669441
 31
0.0
  0
LINE
  5
11851
330
11811
100
AcDbEntity
  8
0
  6
CONTINUOUS
100
AcDbLine
 10
19.95588973270936
 20
3.001888283523134
 30
0.0
 11
18.90726987211446
 21
4.050508144118028
 31
0.0
  0
LINE
  5
11852
330
11811
100
AcDbEntity
  8
0
  6
CONTINUOUS
100
AcDbLine
 10
20.15547048348449
 20
3.475826741828186
 30
0.0
 11
19.10679437974606
 21
4.524502845566614
 31
0.0
  0
LINE
  5
11853
330
11811
100
AcDbEntity
  8
0
  6
CONTINUOUS
100
AcDbLine
 10
20.35505123425962
 20
3.94976520013324
 30
0.0
 11
19.30631888737766
 21
4.998497547015201
 31
0.0
  0
LINE
  5
11854
330
11811
100
AcDbEntity
  8
0
  6
CONTINUOUS
100
AcDbLine
 10
20.55463198503475
 20
4.423703658438292
 30
0.0
 11
19.50584339500926
 21
5.472492248463787
 31
0.0
  0
LINE
  5
11855
330
11811
100
AcDbEntity
  8
0
  6
CONTINUOUS
100
AcDbLine
 10
18.37481191085755
 20
3.909446896294752
 30
0.0
 11
15.59302973632993
 21
6.691229070822371
 31
0.0
  0
LINE
  5
11856
330
11811
100
AcDbEntity
  8
0
  6
CONTINUOUS
100
AcDbLine
 10
17.96904084440766
 20
4.988737171824825
 30
0.0
 11
15.77705890739338
 21
7.180719108839104
 31
0.0
  0
LINE
  5
11857
330
11811
100
AcDbEntity
  8
0
  6
CONTINUOUS
100
AcDbLine
 10
17.56326977795777
 20
6.068027447354899
 30
0.0
 11
15.96108807845684
 21
7.670209146855838
 31
0.0
  0
LINE
  5
11858
330
11811
100
AcDbEntity
  8
0
  6
CONTINUOUS
100
AcDbLine
 10
17.15749871150789
 20
7.147317722884972
 30
0.0
 11
16.14511724952029
 21
8.15969918487257
 31
0.0
  0
LINE
  5
11859
330
11811
100
AcDbEntity
  8
0
  6
CONTINUOUS
100
AcDbLine
 10
16.751727645058
 20
8.226607998415046
 30
0.0
 11
16.32914642058374
 21
8.649189222889303
 31
0.0
  0
LINE
  5
1185A
330
11811
100
AcDbEntity
  8
0
  6
CONTINUOUS
100
AcDbLine
 10
20.75421273580989
 20
4.897642116743345
 30
0.0
 11
19.70536790264086
 21
5.946486949912374
 31
0.0
  0
LINE
  5
1185B
330
11811
100
AcDbEntity
  8
0
  6
CONTINUOUS
100
AcDbLine
 10
20.95379348658502
 20
5.371580575048398
 30
0.0
 11
19.90489241027246
 21
6.42048165136096
 31
0.0
  0
LINE
  5
1185C
330
11811
100
AcDbEntity
  8
0
  6
CONTINUOUS
100
AcDbLine
 10
21.15337423736015
 20
5.845519033353452
 30
0.0
 11
20.10441691790406
 21
6.894476352809547
 31
0.0
  0
LINE
  5
1185D
330
11811
100
AcDbEntity
  8
0
  6
CONTINUOUS
100
AcDbLine
 10
21.35295498813529
 20
6.319457491658505
 30
0.0
 11
20.30394142553566
 21
7.368471054258134
 31
0.0
  0
LINE
  5
1185E
330
11811
100
AcDbEntity
  8
0
  6
CONTINUOUS
100
AcDbLine
 10
21.55253573891042
 20
6.793395949963558
 30
0.0
 11
20.50346593316726
 21
7.842465755706721
 31
0.0
  0
LINE
  5
1185F
330
11811
100
AcDbEntity
  8
0
  6
CONTINUOUS
100
AcDbLine
 10
21.75211648968556
 20
7.267334408268612
 30
0.0
 11
20.70299044079886
 21
8.316460457155308
 31
0.0
  0
LINE
  5
11860
330
11811
100
AcDbEntity
  8
0
  6
CONTINUOUS
100
AcDbLine
 10
21.95169724046069
 20
7.741272866573663
 30
0.0
 11
20.9298701070431
 21
8.763099999991256
 31
0.0
  0
LINE
  5
11861
330
11811
100
AcDbEntity
  8
0
  6
CONTINUOUS
100
AcDbLine
 10
22.15127799123582
 20
8.215211324878716
 30
0.0
 11
21.60338931612328
 21
8.763099999991256
 31
0.0
  0
LINE
  5
11862
330
11811
100
AcDbEntity
  8
0
  6
CONTINUOUS
100
AcDbLine
 10
22.35085874201096
 20
8.689149783183769
 30
0.0
 11
22.27690852520347
 21
8.763099999991255
 31
0.0
  0
ENDBLK
  5
11954
330
11811
100
AcDbEntity
  8
0
100
AcDbBlockEnd
  0
BLOCK
  5
11955
330
11863
100
AcDbEntity
  8
0
100
AcDbBlockBegin
  2
*X231
 70
     1
 10
0.0
 20
0.0
 30
0.0
  3
*X231
  1

  0
LINE
  5
11864
330
11863
100
AcDbEntity
  8
0
  6
CONTINUOUS
100
AcDbLine
 10
23.19462913593892
 20
8.169917934846424
 30
0.0
 11
23.70775465517246
 21
8.683043454079957
 31
0.0
  0
LINE
  5
11865
330
11863
100
AcDbEntity
  8
0
  6
CONTINUOUS
100
AcDbLine
 10
22.64923161835078
 20
6.951001208178088
 30
0.0
 11
23.9159364069932
 21
8.217705996820516
 31
0.0
  0
LINE
  5
11866
330
11863
100
AcDbEntity
  8
0
  6
CONTINUOUS
100
AcDbLine
 10
22.10383410076263
 20
5.732084481509751
 30
0.0
 11
24.12411815881395
 21
7.752368539561078
 31
0.0
  0
LINE
  5
11867
330
11863
100
AcDbEntity
  8
0
  6
CONTINUOUS
100
AcDbLine
 10
21.55843658317447
 20
4.513167754841414
 30
0.0
 11
24.3322999106347
 21
7.287031082301639
 31
0.0
  0
LINE
  5
11868
330
11863
100
AcDbEntity
  8
0
  6
CONTINUOUS
100
AcDbLine
 10
21.01303906558632
 20
3.294251028173077
 30
0.0
 11
24.54048166245544
 21
6.821693625042199
 31
0.0
  0
LINE
  5
11869
330
11863
100
AcDbEntity
  8
0
  6
CONTINUOUS
100
AcDbLine
 10
20.46764154799817
 20
2.075334301504738
 30
0.0
 11
23.28571549467848
 21
4.89340824818505
 31
0.0
  0
LINE
  5
1186A
330
11863
100
AcDbEntity
  8
0
  6
CONTINUOUS
100
AcDbLine
 10
19.92224403041002
 20
0.8564175748364002
 30
0.0
 11
22.74075865492779
 21
3.674932199354171
 31
0.0
  0
LINE
  5
1186B
330
11863
100
AcDbEntity
  8
0
  6
CONTINUOUS
100
AcDbLine
 10
23.67305085490148
 20
5.280743608408048
 30
0.0
 11
24.74866341427619
 21
6.356356167782759
 31
0.0
  0
LINE
  5
1186C
330
11863
100
AcDbEntity
  8
0
  6
CONTINUOUS
100
AcDbLine
 10
23.88118970842314
 20
4.815363252849522
 30
0.0
 11
24.95684516609694
 21
5.89101871052332
 31
0.0
  0
LINE
  5
1186D
330
11863
100
AcDbEntity
  8
0
  6
CONTINUOUS
100
AcDbLine
 10
19.73925852647308
 20
-0.0000871381807288
 30
0.0
 11
23.4103456646501
 21
3.670999999996297
 31
0.0
  0
LINE
  5
1186E
330
11863
100
AcDbEntity
  8
0
  6
CONTINUOUS
100
AcDbLine
 10
24.0893285619448
 20
4.349982897290997
 30
0.0
 11
25.16502691791769
 21
5.42568125326388
 31
0.0
  0
LINE
  5
1186F
330
11863
100
AcDbEntity
  8
0
  6
CONTINUOUS
100
AcDbLine
 10
20.41282099582748
 20
-0.0000438779065108
 30
0.0
 11
21.64944178675636
 21
1.236576913022366
 31
0.0
  0
LINE
  5
11870
330
11863
100
AcDbEntity
  8
0
  6
CONTINUOUS
100
AcDbLine
 10
22.78126487373161
 20
2.36839999999762
 30
0.0
 11
24.08386487373029
 21
3.670999999996297
 31
0.0
  0
LINE
  5
11871
330
11863
100
AcDbEntity
  8
0
  6
CONTINUOUS
100
AcDbLine
 10
24.29746741546646
 20
3.884602541732471
 30
0.0
 11
25.37320866973843
 21
4.960343796004441
 31
0.0
  0
LINE
  5
11872
330
11863
100
AcDbEntity
  8
0
  6
CONTINUOUS
100
AcDbLine
 10
21.08638346518189
 20
-0.0000006176322938
 30
0.0
 11
21.10379033335899
 21
0.0174062505448083
 31
0.0
  0
LINE
  5
11873
330
11863
100
AcDbEntity
  8
0
  6
CONTINUOUS
100
AcDbLine
 10
23.4547840828118
 20
2.36839999999762
 30
0.0
 11
25.58139042155918
 21
4.495006338745002
 31
0.0
  0
LINE
  5
11874
330
11863
100
AcDbEntity
  8
0
  6
CONTINUOUS
100
AcDbLine
 10
29.30199999996933
 20
8.215615917155148
 30
0.0
 11
29.84948408280543
 21
8.763099999991255
 31
0.0
  0
LINE
  5
11875
330
11863
100
AcDbEntity
  8
0
  6
CONTINUOUS
100
AcDbLine
 10
24.12830329189199
 20
2.36839999999762
 30
0.0
 11
25.78957217337993
 21
4.029668881485562
 31
0.0
  0
LINE
  5
11876
330
11863
100
AcDbEntity
  8
0
  6
CONTINUOUS
100
AcDbLine
 10
29.30199999996933
 20
7.54209670807496
 30
0.0
 11
30.52300329188562
 21
8.763099999991255
 31
0.0
  0
LINE
  5
11877
330
11863
100
AcDbEntity
  8
0
  6
CONTINUOUS
100
AcDbLine
 10
24.80182250097217
 20
2.36839999999762
 30
0.0
 11
25.99775392520067
 21
3.564331424226122
 31
0.0
  0
LINE
  5
11878
330
11863
100
AcDbEntity
  8
0
  6
CONTINUOUS
100
AcDbLine
 10
29.30199999996933
 20
6.868577498994774
 30
0.0
 11
30.74199999996926
 21
8.308577498994712
 31
0.0
  0
LINE
  5
11879
330
11863
100
AcDbEntity
  8
0
  6
CONTINUOUS
100
AcDbLine
 10
25.13028238392013
 20
2.023340673865392
 30
0.0
 11
26.20593567702142
 21
3.098993966966683
 31
0.0
  0
LINE
  5
1187A
330
11863
100
AcDbEntity
  8
0
  6
CONTINUOUS
100
AcDbLine
 10
25.33838066033617
 20
1.557919741201244
 30
0.0
 11
26.41411742884217
 21
2.633656509707244
 31
0.0
  0
LINE
  5
1187B
330
11863
100
AcDbEntity
  8
0
  6
CONTINUOUS
100
AcDbLine
 10
25.54647893675221
 20
1.092498808537098
 30
0.0
 11
26.62229918066291
 21
2.168319052447804
 31
0.0
  0
LINE
  5
1187C
330
11863
100
AcDbEntity
  8
0
  6
CONTINUOUS
100
AcDbLine
 10
25.75457721316825
 20
0.62707787587295
 30
0.0
 11
26.83048093248366
 21
1.702981595188365
 31
0.0
  0
LINE
  5
1187D
330
11863
100
AcDbEntity
  8
0
  6
CONTINUOUS
100
AcDbLine
 10
29.30199999996933
 20
6.195058289914587
 30
0.0
 11
30.74199999996926
 21
7.635058289914522
 31
0.0
  0
LINE
  5
1187E
330
11863
100
AcDbEntity
  8
0
  6
CONTINUOUS
100
AcDbLine
 10
29.30199999996933
 20
5.521539080834401
 30
0.0
 11
30.74199999996926
 21
6.961539080834331
 31
0.0
  0
LINE
  5
1187F
330
11863
100
AcDbEntity
  8
0
  6
CONTINUOUS
100
AcDbLine
 10
29.30199999996933
 20
4.848019871754214
 30
0.0
 11
30.74199999996925
 21
6.288019871754143
 31
0.0
  0
LINE
  5
11880
330
11863
100
AcDbEntity
  8
0
  6
CONTINUOUS
100
AcDbLine
 10
29.30199999996933
 20
4.174500662674028
 30
0.0
 11
30.74199999996925
 21
5.614500662673953
 31
0.0
  0
LINE
  5
11881
330
11863
100
AcDbEntity
  8
0
  6
CONTINUOUS
100
AcDbLine
 10
25.96267548958429
 20
0.1616569432088024
 30
0.0
 11
27.18411854636669
 21
1.383099999991207
 31
0.0
  0
LINE
  5
11882
330
11863
100
AcDbEntity
  8
0
  6
CONTINUOUS
100
AcDbLine
 10
29.30199999996933
 20
3.500981453593841
 30
0.0
 11
30.74199999996925
 21
4.940981453593762
 31
0.0
  0
LINE
  5
11883
330
11863
100
AcDbEntity
  8
0
  6
CONTINUOUS
100
AcDbLine
 10
26.50763775544691
 20
0.0330999999912356
 30
0.0
 11
27.85763775544689
 21
1.383099999991223
 31
0.0
  0
LINE
  5
11884
330
11863
100
AcDbEntity
  8
0
  6
CONTINUOUS
100
AcDbLine
 10
29.30199999996933
 20
2.827462244513656
 30
0.0
 11
30.74199999996925
 21
4.267462244513574
 31
0.0
  0
LINE
  5
11885
330
11863
100
AcDbEntity
  8
0
  6
CONTINUOUS
100
AcDbLine
 10
27.18115696452709
 20
0.0330999999912356
 30
0.0
 11
28.55073879889363
 21
1.402681834357775
 31
0.0
  0
LINE
  5
11886
330
11863
100
AcDbEntity
  8
0
  6
CONTINUOUS
100
AcDbLine
 10
29.28241816560272
 20
2.134361201066866
 30
0.0
 11
30.74199999996924
 21
3.593943035433383
 31
0.0
  0
LINE
  5
11887
330
11863
100
AcDbEntity
  8
0
  6
CONTINUOUS
100
AcDbLine
 10
27.85467617360728
 20
0.0330999999912356
 30
0.0
 11
30.74199999996924
 21
2.920423826353195
 31
0.0
  0
LINE
  5
11888
330
11863
100
AcDbEntity
  8
0
  6
CONTINUOUS
100
AcDbLine
 10
28.53897559587887
 20
0.0438802131826428
 30
0.0
 11
30.73121978677781
 21
2.236124404081585
 31
0.0
  0
LINE
  5
11889
330
11863
100
AcDbEntity
  8
0
  6
CONTINUOUS
100
AcDbLine
 10
29.45140055588722
 20
0.2827859641107988
 30
0.0
 11
30.49231403584965
 21
1.323699444073236
 31
0.0
  0
LINE
  5
1188A
330
11863
100
AcDbEntity
  8
0
  6
CONTINUOUS
100
AcDbLine
 10
19.59027867740337
 20
-0.0000967065718083
 30
0.0
 11
19.55485265190471
 21
0.035329318926844
 31
0.0
  0
LINE
  5
1188B
330
11863
100
AcDbEntity
  8
0
  6
CONTINUOUS
100
AcDbLine
 10
20.26375463176586
 20
-0.0000534518541091
 30
0.0
 11
19.76305575737534
 21
0.5006454225364014
 31
0.0
  0
LINE
  5
1188C
330
11863
100
AcDbEntity
  8
0
  6
CONTINUOUS
100
AcDbLine
 10
20.93723058612834
 20
-0.0000101971364099
 30
0.0
 11
19.97125886284597
 21
0.965961526145958
 31
0.0
  0
LINE
  5
1188D
330
11863
100
AcDbEntity
  8
0
  6
CONTINUOUS
100
AcDbLine
 10
21.25514828313686
 20
0.355591314935257
 30
0.0
 11
20.1794619683166
 21
1.431277629755512
 31
0.0
  0
LINE
  5
1188E
330
11863
100
AcDbEntity
  8
0
  6
CONTINUOUS
100
AcDbLine
 10
21.46338838394921
 20
0.8208704232030986
 30
0.0
 11
20.38766507378723
 21
1.896593733365069
 31
0.0
  0
LINE
  5
1188F
330
11863
100
AcDbEntity
  8
0
  6
CONTINUOUS
100
AcDbLine
 10
21.67162848476155
 20
1.28614953147094
 30
0.0
 11
20.59586817925786
 21
2.361909836974626
 31
0.0
  0
LINE
  5
11890
330
11863
100
AcDbEntity
  8
0
  6
CONTINUOUS
100
AcDbLine
 10
21.8798685855739
 20
1.751428639738782
 30
0.0
 11
20.80407128472849
 21
2.827225940584183
 31
0.0
  0
LINE
  5
11891
330
11863
100
AcDbEntity
  8
0
  6
CONTINUOUS
100
AcDbLine
 10
22.08810868638624
 20
2.216707748006623
 30
0.0
 11
21.01227439019912
 21
3.292542044193739
 31
0.0
  0
LINE
  5
11892
330
11863
100
AcDbEntity
  8
0
  6
CONTINUOUS
100
AcDbLine
 10
22.60993564347543
 20
2.36839999999762
 30
0.0
 11
21.22047749566975
 21
3.757858147803296
 31
0.0
  0
LINE
  5
11893
330
11863
100
AcDbEntity
  8
0
  6
CONTINUOUS
100
AcDbLine
 10
23.28345485255561
 20
2.36839999999762
 30
0.0
 11
21.42868060114038
 21
4.223174251412853
 31
0.0
  0
LINE
  5
11894
330
11863
100
AcDbEntity
  8
0
  6
CONTINUOUS
100
AcDbLine
 10
26.29227406164219
 20
0.0330999999912356
 30
0.0
 11
25.80009199592872
 21
0.5252820657046957
 31
0.0
  0
LINE
  5
11895
330
11863
100
AcDbEntity
  8
0
  6
CONTINUOUS
100
AcDbLine
 10
23.9569740616358
 20
2.36839999999762
 30
0.0
 11
21.63688370661101
 21
4.688490355022409
 31
0.0
  0
LINE
  5
11896
330
11863
100
AcDbEntity
  8
0
  6
CONTINUOUS
100
AcDbLine
 10
26.96579327072237
 20
0.0330999999912356
 30
0.0
 11
25.2554132311971
 21
1.743480039516508
 31
0.0
  0
LINE
  5
11897
330
11863
100
AcDbEntity
  8
0
  6
CONTINUOUS
100
AcDbLine
 10
24.63049327071599
 20
2.36839999999762
 30
0.0
 11
23.32789327071731
 21
3.670999999996297
 31
0.0
  0
LINE
  5
11898
330
11863
100
AcDbEntity
  8
0
  6
CONTINUOUS
100
AcDbLine
 10
22.92098674744635
 20
4.077906523267254
 30
0.0
 11
21.84508681208164
 21
5.153806458631966
 31
0.0
  0
LINE
  5
11899
330
11863
100
AcDbEntity
  8
0
  6
CONTINUOUS
100
AcDbLine
 10
27.63931247980256
 20
0.0330999999912356
 30
0.0
 11
24.0014124797975
 21
3.670999999996297
 31
0.0
  0
LINE
  5
1189A
330
11863
100
AcDbEntity
  8
0
  6
CONTINUOUS
100
AcDbLine
 10
23.129125600968
 20
4.5432868788258
 30
0.0
 11
22.05328991755227
 21
5.619122562241522
 31
0.0
  0
LINE
  5
1189B
330
11863
100
AcDbEntity
  8
0
  6
CONTINUOUS
100
AcDbLine
 10
28.31283168888275
 20
0.0330999999912356
 30
0.0
 11
24.16488385994816
 21
4.181047828925828
 31
0.0
  0
LINE
  5
1189C
330
11863
100
AcDbEntity
  8
0
  6
CONTINUOUS
100
AcDbLine
 10
23.33726445448964
 20
5.008667234384345
 30
0.0
 11
22.2614930230229
 21
6.084438665851079
 31
0.0
  0
LINE
  5
1189D
330
11863
100
AcDbEntity
  8
0
  6
CONTINUOUS
100
AcDbLine
 10
28.92085740005492
 20
0.0985934978992438
 30
0.0
 11
27.63635089796295
 21
1.383099999991217
 31
0.0
  0
LINE
  5
1189E
330
11863
100
AcDbEntity
  8
0
  6
CONTINUOUS
100
AcDbLine
 10
26.43704649509776
 20
2.582404402856405
 30
0.0
 11
23.61992702019732
 21
5.399523877756844
 31
0.0
  0
LINE
  5
1189F
330
11863
100
AcDbEntity
  8
0
  6
CONTINUOUS
100
AcDbLine
 10
23.54540330801128
 20
5.47404758994289
 30
0.0
 11
22.46969612849353
 21
6.549754769460635
 31
0.0
  0
LINE
  5
118A0
330
11863
100
AcDbEntity
  8
0
  6
CONTINUOUS
100
AcDbLine
 10
29.42225615078443
 20
0.2707139562499279
 30
0.0
 11
28.30987010704312
 21
1.383099999991234
 31
0.0
  0
LINE
  5
118A1
330
11863
100
AcDbEntity
  8
0
  6
CONTINUOUS
100
AcDbLine
 10
25.89179548232307
 20
3.801174624711282
 30
0.0
 11
22.67789923396416
 21
7.015070873070191
 31
0.0
  0
LINE
  5
118A2
330
11863
100
AcDbEntity
  8
0
  6
CONTINUOUS
100
AcDbLine
 10
29.83624534690007
 20
0.5302439692144705
 30
0.0
 11
28.85811781497101
 21
1.508371501143527
 31
0.0
  0
LINE
  5
118A3
330
11863
100
AcDbEntity
  8
0
  6
CONTINUOUS
100
AcDbLine
 10
25.34654446954838
 20
5.01994484656616
 30
0.0
 11
22.88610233943479
 21
7.480386976679748
 31
0.0
  0
LINE
  5
118A4
330
11863
100
AcDbEntity
  8
0
  6
CONTINUOUS
100
AcDbLine
 10
30.17865975401872
 20
0.8613487711760022
 30
0.0
 11
29.18888744090175
 21
1.851121084292977
 31
0.0
  0
LINE
  5
118A5
330
11863
100
AcDbEntity
  8
0
  6
CONTINUOUS
100
AcDbLine
 10
24.80129345677369
 20
6.238715068421037
 30
0.0
 11
23.09430544490542
 21
7.945703080289305
 31
0.0
  0
LINE
  5
118A6
330
11863
100
AcDbEntity
  8
0
  6
CONTINUOUS
100
AcDbLine
 10
30.45496647202376
 20
1.258561262251155
 30
0.0
 11
29.30199999996933
 21
2.411527734305588
 31
0.0
  0
LINE
  5
118A7
330
11863
100
AcDbEntity
  8
0
  6
CONTINUOUS
100
AcDbLine
 10
24.256042443999
 20
7.457485290275915
 30
0.0
 11
23.30250855037605
 21
8.411019183898862
 31
0.0
  0
LINE
  5
118A8
330
11863
100
AcDbEntity
  8
0
  6
CONTINUOUS
100
AcDbLine
 10
30.64868582078271
 20
1.738361122572387
 30
0.0
 11
29.30199999996933
 21
3.085046943385775
 31
0.0
  0
LINE
  5
118A9
330
11863
100
AcDbEntity
  8
0
  6
CONTINUOUS
100
AcDbLine
 10
23.71079143122431
 20
8.676255512130794
 30
0.0
 11
23.51071165584668
 21
8.876335287508416
 31
0.0
  0
LINE
  5
118AA
330
11863
100
AcDbEntity
  8
0
  6
CONTINUOUS
100
AcDbLine
 10
30.73802122914428
 20
2.322544923291007
 30
0.0
 11
29.30199999996933
 21
3.758566152465961
 31
0.0
  0
LINE
  5
118AB
330
11863
100
AcDbEntity
  8
0
  6
CONTINUOUS
100
AcDbLine
 10
30.74199999996924
 20
2.992085361546236
 30
0.0
 11
29.30199999996933
 21
4.432085361546148
 31
0.0
  0
LINE
  5
118AC
330
11863
100
AcDbEntity
  8
0
  6
CONTINUOUS
100
AcDbLine
 10
30.74199999996924
 20
3.665604570626419
 30
0.0
 11
29.30199999996933
 21
5.105604570626333
 31
0.0
  0
LINE
  5
118AD
330
11863
100
AcDbEntity
  8
0
  6
CONTINUOUS
100
AcDbLine
 10
30.74199999996925
 20
4.339123779706602
 30
0.0
 11
29.30199999996933
 21
5.77912377970652
 31
0.0
  0
LINE
  5
118AE
330
11863
100
AcDbEntity
  8
0
  6
CONTINUOUS
100
AcDbLine
 10
30.74199999996925
 20
5.012642988786785
 30
0.0
 11
29.30199999996933
 21
6.452642988786707
 31
0.0
  0
LINE
  5
118AF
330
11863
100
AcDbEntity
  8
0
  6
CONTINUOUS
100
AcDbLine
 10
30.74199999996925
 20
5.68616219786697
 30
0.0
 11
29.30199999996933
 21
7.126162197866894
 31
0.0
  0
LINE
  5
118B0
330
11863
100
AcDbEntity
  8
0
  6
CONTINUOUS
100
AcDbLine
 10
30.74199999996925
 20
6.359681406947153
 30
0.0
 11
29.30199999996933
 21
7.799681406947081
 31
0.0
  0
LINE
  5
118B1
330
11863
100
AcDbEntity
  8
0
  6
CONTINUOUS
100
AcDbLine
 10
30.74199999996926
 20
7.033200616027337
 30
0.0
 11
29.30199999996933
 21
8.473200616027269
 31
0.0
  0
LINE
  5
118B2
330
11863
100
AcDbEntity
  8
0
  6
CONTINUOUS
100
AcDbLine
 10
30.74199999996926
 20
7.706719825107518
 30
0.0
 11
29.68561982508552
 21
8.763099999991255
 31
0.0
  0
LINE
  5
118B3
330
11863
100
AcDbEntity
  8
0
  6
CONTINUOUS
100
AcDbLine
 10
30.74199999996926
 20
8.380239034187703
 30
0.0
 11
30.35913903416571
 21
8.763099999991255
 31
0.0
  0
ENDBLK
  5
11956
330
11863
100
AcDbEntity
  8
0
100
AcDbBlockEnd
  0
BLOCK
  5
11957
330
118B4
100
AcDbEntity
  8
0
100
AcDbBlockBegin
  2
*X232
 70
     1
 10
0.0
 20
0.0
 30
0.0
  3
*X232
  1

  0
LINE
  5
118B5
330
118B4
100
AcDbEntity
  8
0
  6
CONTINUOUS
100
AcDbLine
 10
31.64199999996833
 20
8.535058289913598
 30
0.0
 11
31.87004171004599
 21
8.763099999991255
 31
0.0
  0
LINE
  5
118B6
330
118B4
100
AcDbEntity
  8
0
  6
CONTINUOUS
100
AcDbLine
 10
31.64199999996833
 20
7.861539080833412
 30
0.0
 11
32.54356091912618
 21
8.763099999991255
 31
0.0
  0
LINE
  5
118B7
330
118B4
100
AcDbEntity
  8
0
  6
CONTINUOUS
100
AcDbLine
 10
31.64199999996833
 20
7.188019871753226
 30
0.0
 11
33.08199999996839
 21
8.628019871753281
 31
0.0
  0
LINE
  5
118B8
330
118B4
100
AcDbEntity
  8
0
  6
CONTINUOUS
100
AcDbLine
 10
31.64199999996833
 20
6.51450066267304
 30
0.0
 11
33.08199999996839
 21
7.954500662673095
 31
0.0
  0
LINE
  5
118B9
330
118B4
100
AcDbEntity
  8
0
  6
CONTINUOUS
100
AcDbLine
 10
31.64199999996833
 20
5.840981453592853
 30
0.0
 11
33.08199999996839
 21
7.280981453592908
 31
0.0
  0
LINE
  5
118BA
330
118B4
100
AcDbEntity
  8
0
  6
CONTINUOUS
100
AcDbLine
 10
31.64199999996833
 20
5.167462244512667
 30
0.0
 11
33.08199999996839
 21
6.607462244512721
 31
0.0
  0
LINE
  5
118BB
330
118B4
100
AcDbEntity
  8
0
  6
CONTINUOUS
100
AcDbLine
 10
31.64199999996833
 20
4.493943035432481
 30
0.0
 11
33.08199999996839
 21
5.933943035432535
 31
0.0
  0
LINE
  5
118BC
330
118B4
100
AcDbEntity
  8
0
  6
CONTINUOUS
100
AcDbLine
 10
31.64199999996833
 20
3.820423826352293
 30
0.0
 11
33.08199999996839
 21
5.260423826352348
 31
0.0
  0
LINE
  5
118BD
330
118B4
100
AcDbEntity
  8
0
  6
CONTINUOUS
100
AcDbLine
 10
31.64199999996833
 20
3.146904617272106
 30
0.0
 11
33.08199999996839
 21
4.586904617272161
 31
0.0
  0
LINE
  5
118BE
330
118B4
100
AcDbEntity
  8
0
  6
CONTINUOUS
100
AcDbLine
 10
36.23199999996837
 20
8.410423826352325
 30
0.0
 11
36.5846761736073
 21
8.763099999991255
 31
0.0
  0
LINE
  5
118BF
330
118B4
100
AcDbEntity
  8
0
  6
CONTINUOUS
100
AcDbLine
 10
36.23199999996837
 20
7.73690461727214
 30
0.0
 11
37.25819538268748
 21
8.763099999991255
 31
0.0
  0
LINE
  5
118C0
330
118B4
100
AcDbEntity
  8
0
  6
CONTINUOUS
100
AcDbLine
 10
31.64257403601376
 20
2.473959444237348
 30
0.0
 11
33.08199999996839
 21
3.913385408191974
 31
0.0
  0
LINE
  5
118C1
330
118B4
100
AcDbEntity
  8
0
  6
CONTINUOUS
100
AcDbLine
 10
36.23199999996837
 20
7.063385408191953
 30
0.0
 11
37.67199999996831
 21
8.503385408191894
 31
0.0
  0
LINE
  5
118C2
330
118B4
100
AcDbEntity
  8
0
  6
CONTINUOUS
100
AcDbLine
 10
31.72013636841932
 20
1.87800256756272
 30
0.0
 11
33.08199999996839
 21
3.239866199111788
 31
0.0
  0
LINE
  5
118C3
330
118B4
100
AcDbEntity
  8
0
  6
CONTINUOUS
100
AcDbLine
 10
36.23199999996837
 20
6.389866199111767
 30
0.0
 11
37.67199999996831
 21
7.829866199111708
 31
0.0
  0
LINE
  5
118C4
330
118B4
100
AcDbEntity
  8
0
  6
CONTINUOUS
100
AcDbLine
 10
31.89042734314753
 20
1.374774333210744
 30
0.0
 11
33.08199999996839
 21
2.566346990031601
 31
0.0
  0
LINE
  5
118C5
330
118B4
100
AcDbEntity
  8
0
  6
CONTINUOUS
100
AcDbLine
 10
36.23199999996837
 20
5.71634699003158
 30
0.0
 11
37.67199999996831
 21
7.156346990031521
 31
0.0
  0
LINE
  5
118C6
330
118B4
100
AcDbEntity
  8
0
  6
CONTINUOUS
100
AcDbLine
 10
32.14210568064475
 20
0.952933461627778
 30
0.0
 11
33.18745552475986
 21
1.998283305742888
 31
0.0
  0
LINE
  5
118C7
330
118B4
100
AcDbEntity
  8
0
  6
CONTINUOUS
100
AcDbLine
 10
36.23199999996837
 20
5.042827780951393
 30
0.0
 11
37.67199999996831
 21
6.482827780951334
 31
0.0
  0
LINE
  5
118C8
330
118B4
100
AcDbEntity
  8
0
  6
CONTINUOUS
100
AcDbLine
 10
32.45820639400955
 20
0.5955149659123915
 30
0.0
 11
33.47242681921943
 21
1.60973539112227
 31
0.0
  0
LINE
  5
118C9
330
118B4
100
AcDbEntity
  8
0
  6
CONTINUOUS
100
AcDbLine
 10
36.23199999996837
 20
4.369308571871207
 30
0.0
 11
37.67199999996831
 21
5.809308571871147
 31
0.0
  0
LINE
  5
118CA
330
118B4
100
AcDbEntity
  8
0
  6
CONTINUOUS
100
AcDbLine
 10
32.83432456621412
 20
0.2981139290367771
 30
0.0
 11
33.89722476612215
 21
1.361014128944803
 31
0.0
  0
LINE
  5
118CB
330
118B4
100
AcDbEntity
  8
0
  6
CONTINUOUS
100
AcDbLine
 10
36.23199999996837
 20
3.69578936279102
 30
0.0
 11
37.67199999996831
 21
5.135789362790962
 31
0.0
  0
LINE
  5
118CC
330
118B4
100
AcDbEntity
  8
0
  6
CONTINUOUS
100
AcDbLine
 10
33.2711633111245
 20
0.0614334648669672
 30
0.0
 11
34.43247338014423
 21
1.222743533886696
 31
0.0
  0
LINE
  5
118CD
330
118B4
100
AcDbEntity
  8
0
  6
CONTINUOUS
100
AcDbLine
 10
36.23199999996837
 20
3.022270153710834
 30
0.0
 11
37.67199999996831
 21
4.462270153710775
 31
0.0
  0
LINE
  5
118CE
330
118B4
100
AcDbEntity
  8
0
  6
CONTINUOUS
100
AcDbLine
 10
33.76515245874577
 20
-0.1180965965919523
 30
0.0
 11
35.1587445516215
 21
1.27549549628378
 31
0.0
  0
LINE
  5
118CF
330
118B4
100
AcDbEntity
  8
0
  6
CONTINUOUS
100
AcDbLine
 10
36.21639478609585
 20
2.333145730758136
 30
0.0
 11
37.67199999996831
 21
3.788750944630588
 31
0.0
  0
LINE
  5
118D0
330
118B4
100
AcDbEntity
  8
0
  6
CONTINUOUS
100
AcDbLine
 10
34.34060583368432
 20
-0.2161624307335863
 30
0.0
 11
37.67199999996831
 21
3.115231735550401
 31
0.0
  0
LINE
  5
118D1
330
118B4
100
AcDbEntity
  8
0
  6
CONTINUOUS
100
AcDbLine
 10
35.01698193613905
 20
-0.2133055373590427
 30
0.0
 11
37.66876712070525
 21
2.438479647207154
 31
0.0
  0
LINE
  5
118D2
330
118B4
100
AcDbEntity
  8
0
  6
CONTINUOUS
100
AcDbLine
 10
35.90743367693304
 20
0.0036269943547609
 30
0.0
 11
37.51723902192366
 21
1.613432339345381
 31
0.0
  0
LINE
  5
118D3
330
118B4
100
AcDbEntity
  8
0
  6
CONTINUOUS
100
AcDbLine
 10
32.55309425579761
 20
0.5074718966376706
 30
0.0
 11
32.27784730925847
 21
0.7827188431768102
 31
0.0
  0
LINE
  5
118D4
330
118B4
100
AcDbEntity
  8
0
  6
CONTINUOUS
100
AcDbLine
 10
33.87496468909684
 20
-0.1408793275813673
 30
0.0
 11
31.67993083278052
 21
2.054154528734943
 31
0.0
  0
LINE
  5
118D5
330
118B4
100
AcDbEntity
  8
0
  6
CONTINUOUS
100
AcDbLine
 10
34.64362813207632
 20
-0.2360235614806649
 30
0.0
 11
31.64199999996833
 21
2.765604570627322
 31
0.0
  0
LINE
  5
118D6
330
118B4
100
AcDbEntity
  8
0
  6
CONTINUOUS
100
AcDbLine
 10
35.25801106796118
 20
-0.1768872882853429
 30
0.0
 11
31.64199999996833
 21
3.439123779707508
 31
0.0
  0
LINE
  5
118D7
330
118B4
100
AcDbEntity
  8
0
  6
CONTINUOUS
100
AcDbLine
 10
35.79065650332146
 20
-0.0360135145654361
 30
0.0
 11
34.54143210838231
 21
1.213210880373721
 31
0.0
  0
LINE
  5
118D8
330
118B4
100
AcDbEntity
  8
0
  6
CONTINUOUS
100
AcDbLine
 10
33.08199999996839
 20
2.67264298878764
 30
0.0
 11
31.64199999996833
 21
4.112642988787695
 31
0.0
  0
LINE
  5
118D9
330
118B4
100
AcDbEntity
  8
0
  6
CONTINUOUS
100
AcDbLine
 10
36.25975597779143
 20
0.1684062200447833
 30
0.0
 11
35.15395110240023
 21
1.274211095435983
 31
0.0
  0
LINE
  5
118DA
330
118B4
100
AcDbEntity
  8
0
  6
CONTINUOUS
100
AcDbLine
 10
33.08199999996839
 20
3.346162197867826
 30
0.0
 11
31.64199999996833
 21
4.786162197867881
 31
0.0
  0
LINE
  5
118DB
330
118B4
100
AcDbEntity
  8
0
  6
CONTINUOUS
100
AcDbLine
 10
36.67226329638774
 20
0.4294181105286579
 30
0.0
 11
35.63766478748767
 21
1.464016619428737
 31
0.0
  0
LINE
  5
118DC
330
118B4
100
AcDbEntity
  8
0
  6
CONTINUOUS
100
AcDbLine
 10
33.08199999996839
 20
4.019681406948012
 30
0.0
 11
31.64199999996833
 21
5.459681406948068
 31
0.0
  0
LINE
  5
118DD
330
118B4
100
AcDbEntity
  8
0
  6
CONTINUOUS
100
AcDbLine
 10
37.01677749710036
 20
0.7584231188962329
 30
0.0
 11
35.99563422741351
 21
1.779566388583076
 31
0.0
  0
LINE
  5
118DE
330
118B4
100
AcDbEntity
  8
0
  6
CONTINUOUS
100
AcDbLine
 10
33.08199999996839
 20
4.693200616028199
 30
0.0
 11
31.64199999996833
 21
6.133200616028255
 31
0.0
  0
LINE
  5
118DF
330
118B4
100
AcDbEntity
  8
0
  6
CONTINUOUS
100
AcDbLine
 10
37.29859977568887
 20
1.1501200493879
 30
0.0
 11
36.20680593341555
 21
2.241913891661226
 31
0.0
  0
LINE
  5
118E0
330
118B4
100
AcDbEntity
  8
0
  6
CONTINUOUS
100
AcDbLine
 10
33.08199999996839
 20
5.366719825108386
 30
0.0
 11
31.64199999996833
 21
6.80671982510844
 31
0.0
  0
LINE
  5
118E1
330
118B4
100
AcDbEntity
  8
0
  6
CONTINUOUS
100
AcDbLine
 10
37.5148623517228
 20
1.607376682434161
 30
0.0
 11
36.23199999996837
 21
2.890239034188594
 31
0.0
  0
LINE
  5
118E2
330
118B4
100
AcDbEntity
  8
0
  6
CONTINUOUS
100
AcDbLine
 10
33.08199999996839
 20
6.040239034188573
 30
0.0
 11
31.64199999996833
 21
7.480239034188627
 31
0.0
  0
LINE
  5
118E3
330
118B4
100
AcDbEntity
  8
0
  6
CONTINUOUS
100
AcDbLine
 10
37.64705163358367
 20
2.148706609653477
 30
0.0
 11
36.23199999996837
 21
3.56375824326878
 31
0.0
  0
LINE
  5
118E4
330
118B4
100
AcDbEntity
  8
0
  6
CONTINUOUS
100
AcDbLine
 10
33.08199999996839
 20
6.713758243268758
 30
0.0
 11
31.64199999996833
 21
8.153758243268815
 31
0.0
  0
LINE
  5
118E5
330
118B4
100
AcDbEntity
  8
0
  6
CONTINUOUS
100
AcDbLine
 10
37.67199999996831
 20
2.797277452349026
 30
0.0
 11
36.23199999996837
 21
4.237277452348967
 31
0.0
  0
LINE
  5
118E6
330
118B4
100
AcDbEntity
  8
0
  6
CONTINUOUS
100
AcDbLine
 10
37.67199999996831
 20
3.470796661429213
 30
0.0
 11
36.23199999996837
 21
4.910796661429154
 31
0.0
  0
LINE
  5
118E7
330
118B4
100
AcDbEntity
  8
0
  6
CONTINUOUS
100
AcDbLine
 10
37.67199999996831
 20
4.144315870509399
 30
0.0
 11
36.23199999996837
 21
5.58431587050934
 31
0.0
  0
LINE
  5
118E8
330
118B4
100
AcDbEntity
  8
0
  6
CONTINUOUS
100
AcDbLine
 10
33.08199999996839
 20
7.387277452348945
 30
0.0
 11
31.70617745232608
 21
8.763099999991255
 31
0.0
  0
LINE
  5
118E9
330
118B4
100
AcDbEntity
  8
0
  6
CONTINUOUS
100
AcDbLine
 10
33.08199999996839
 20
8.060796661429132
 30
0.0
 11
32.37969666140626
 21
8.763099999991255
 31
0.0
  0
LINE
  5
118EA
330
118B4
100
AcDbEntity
  8
0
  6
CONTINUOUS
100
AcDbLine
 10
33.08199999996839
 20
8.734315870509318
 30
0.0
 11
33.05321587048645
 21
8.763099999991255
 31
0.0
  0
LINE
  5
118EB
330
118B4
100
AcDbEntity
  8
0
  6
CONTINUOUS
100
AcDbLine
 10
37.67199999996831
 20
4.817835079589585
 30
0.0
 11
36.23199999996837
 21
6.257835079589526
 31
0.0
  0
LINE
  5
118EC
330
118B4
100
AcDbEntity
  8
0
  6
CONTINUOUS
100
AcDbLine
 10
37.67199999996831
 20
5.491354288669771
 30
0.0
 11
36.23199999996837
 21
6.931354288669713
 31
0.0
  0
LINE
  5
118ED
330
118B4
100
AcDbEntity
  8
0
  6
CONTINUOUS
100
AcDbLine
 10
37.67199999996831
 20
6.164873497749958
 30
0.0
 11
36.23199999996837
 21
7.6048734977499
 31
0.0
  0
LINE
  5
118EE
330
118B4
100
AcDbEntity
  8
0
  6
CONTINUOUS
100
AcDbLine
 10
37.67199999996831
 20
6.838392706830144
 30
0.0
 11
36.23199999996837
 21
8.278392706830086
 31
0.0
  0
LINE
  5
118EF
330
118B4
100
AcDbEntity
  8
0
  6
CONTINUOUS
100
AcDbLine
 10
37.67199999996831
 20
7.511911915910332
 30
0.0
 11
36.42081191588738
 21
8.763099999991255
 31
0.0
  0
LINE
  5
118F0
330
118B4
100
AcDbEntity
  8
0
  6
CONTINUOUS
100
AcDbLine
 10
37.67199999996831
 20
8.185431124990519
 30
0.0
 11
37.09433112496757
 21
8.763099999991255
 31
0.0
  0
ENDBLK
  5
11958
330
118B4
100
AcDbEntity
  8
0
100
AcDbBlockEnd
  0
BLOCK
  5
11959
330
118F1
100
AcDbEntity
  8
0
100
AcDbBlockBegin
  2
*X233
 70
     1
 10
0.0
 20
0.0
 30
0.0
  3
*X233
  1

  0
LINE
  5
118F2
330
118F1
100
AcDbEntity
  8
0
  6
CONTINUOUS
100
AcDbLine
 10
38.60499999996136
 20
8.762866199104765
 30
0.0
 11
38.71672554182345
 21
8.874591740966855
 31
0.0
  0
LINE
  5
118F3
330
118F1
100
AcDbEntity
  8
0
  6
CONTINUOUS
100
AcDbLine
 10
38.60499999996136
 20
8.089346990024577
 30
0.0
 11
39.03418785440363
 21
8.518534844466847
 31
0.0
  0
LINE
  5
118F4
330
118F1
100
AcDbEntity
  8
0
  6
CONTINUOUS
100
AcDbLine
 10
38.60499999996136
 20
7.41582778094439
 30
0.0
 11
39.35165016698382
 21
8.16247794796684
 31
0.0
  0
LINE
  5
118F5
330
118F1
100
AcDbEntity
  8
0
  6
CONTINUOUS
100
AcDbLine
 10
38.60499999996136
 20
6.742308571864204
 30
0.0
 11
39.66911247956399
 21
7.806421051466834
 31
0.0
  0
LINE
  5
118F6
330
118F1
100
AcDbEntity
  8
0
  6
CONTINUOUS
100
AcDbLine
 10
38.60499999996136
 20
6.068789362784018
 30
0.0
 11
39.98657479214418
 21
7.450364154966827
 31
0.0
  0
LINE
  5
118F7
330
118F1
100
AcDbEntity
  8
0
  6
CONTINUOUS
100
AcDbLine
 10
38.60499999996136
 20
5.395270153703832
 30
0.0
 11
40.30403710472435
 21
7.09430725846682
 31
0.0
  0
LINE
  5
118F8
330
118F1
100
AcDbEntity
  8
0
  6
CONTINUOUS
100
AcDbLine
 10
38.60499999996136
 20
4.721750944623645
 30
0.0
 11
40.62149941730453
 21
6.738250361966813
 31
0.0
  0
LINE
  5
118F9
330
118F1
100
AcDbEntity
  8
0
  6
CONTINUOUS
100
AcDbLine
 10
38.60499999996136
 20
4.048231735543458
 30
0.0
 11
40.93896172988471
 21
6.382193465466806
 31
0.0
  0
LINE
  5
118FA
330
118F1
100
AcDbEntity
  8
0
  6
CONTINUOUS
100
AcDbLine
 10
38.60499999996136
 20
3.374712526463272
 30
0.0
 11
40.02599999995994
 21
4.795712526461843
 31
0.0
  0
LINE
  5
118FB
330
118F1
100
AcDbEntity
  8
0
  6
CONTINUOUS
100
AcDbLine
 10
38.60499999996136
 20
2.701193317383085
 30
0.0
 11
40.02599999995994
 21
4.122193317381657
 31
0.0
  0
LINE
  5
118FC
330
118F1
100
AcDbEntity
  8
0
  6
CONTINUOUS
100
AcDbLine
 10
40.28339754687704
 20
5.053110073378947
 30
0.0
 11
41.25642404246489
 21
6.026136568966799
 31
0.0
  0
LINE
  5
118FD
330
118F1
100
AcDbEntity
  8
0
  6
CONTINUOUS
100
AcDbLine
 10
40.60085985945722
 20
4.697053176878939
 30
0.0
 11
41.57388635504507
 21
5.670079672466793
 31
0.0
  0
LINE
  5
118FE
330
118F1
100
AcDbEntity
  8
0
  6
CONTINUOUS
100
AcDbLine
 10
43.57899999995641
 20
8.348712526458318
 30
0.0
 11
43.99338747348935
 21
8.763099999991255
 31
0.0
  0
LINE
  5
118FF
330
118F1
100
AcDbEntity
  8
0
  6
CONTINUOUS
100
AcDbLine
 10
43.57899999995641
 20
7.675193317378131
 30
0.0
 11
44.66690668256953
 21
8.763099999991255
 31
0.0
  0
LINE
  5
11900
330
118F1
100
AcDbEntity
  8
0
  6
CONTINUOUS
100
AcDbLine
 10
38.60499999996136
 20
2.027674108302898
 30
0.0
 11
40.02599999995994
 21
3.44867410830147
 31
0.0
  0
LINE
  5
11901
330
118F1
100
AcDbEntity
  8
0
  6
CONTINUOUS
100
AcDbLine
 10
38.60499999996136
 20
1.354154899222712
 30
0.0
 11
40.02599999995994
 21
2.775154899221284
 31
0.0
  0
LINE
  5
11902
330
118F1
100
AcDbEntity
  8
0
  6
CONTINUOUS
100
AcDbLine
 10
38.60499999996136
 20
0.6806356901425255
 30
0.0
 11
40.02599999995994
 21
2.101635690141098
 31
0.0
  0
LINE
  5
11903
330
118F1
100
AcDbEntity
  8
0
  6
CONTINUOUS
100
AcDbLine
 10
38.60499999996136
 20
0.0071164810623383
 30
0.0
 11
40.02599999995994
 21
1.428116481060911
 31
0.0
  0
LINE
  5
11904
330
118F1
100
AcDbEntity
  8
0
  6
CONTINUOUS
100
AcDbLine
 10
40.9183221720374
 20
4.340996280378933
 30
0.0
 11
41.89134866762525
 21
5.314022775966786
 31
0.0
  0
LINE
  5
11905
330
118F1
100
AcDbEntity
  8
0
  6
CONTINUOUS
100
AcDbLine
 10
41.23578448461758
 20
3.984939383878926
 30
0.0
 11
42.20881098020543
 21
4.957965879466778
 31
0.0
  0
LINE
  5
11906
330
118F1
100
AcDbEntity
  8
0
  6
CONTINUOUS
100
AcDbLine
 10
41.55324679719776
 20
3.628882487378919
 30
0.0
 11
42.52627329278561
 21
4.601908982966772
 31
0.0
  0
LINE
  5
11907
330
118F1
100
AcDbEntity
  8
0
  6
CONTINUOUS
100
AcDbLine
 10
41.87070910977793
 20
3.272825590878912
 30
0.0
 11
42.84373560536579
 21
4.245852086466765
 31
0.0
  0
LINE
  5
11908
330
118F1
100
AcDbEntity
  8
0
  6
CONTINUOUS
100
AcDbLine
 10
43.57899999995641
 20
7.001674108297943
 30
0.0
 11
44.99999999995498
 21
8.422674108296516
 31
0.0
  0
LINE
  5
11909
330
118F1
100
AcDbEntity
  8
0
  6
CONTINUOUS
100
AcDbLine
 10
43.57899999995641
 20
6.328154899217758
 30
0.0
 11
44.99999999995498
 21
7.749154899216329
 31
0.0
  0
LINE
  5
1190A
330
118F1
100
AcDbEntity
  8
0
  6
CONTINUOUS
100
AcDbLine
 10
43.57899999995641
 20
5.654635690137571
 30
0.0
 11
44.99999999995498
 21
7.075635690136142
 31
0.0
  0
LINE
  5
1190B
330
118F1
100
AcDbEntity
  8
0
  6
CONTINUOUS
100
AcDbLine
 10
43.57899999995641
 20
4.981116481057384
 30
0.0
 11
44.99999999995498
 21
6.402116481055955
 31
0.0
  0
LINE
  5
1190C
330
118F1
100
AcDbEntity
  8
0
  6
CONTINUOUS
100
AcDbLine
 10
39.27140272797921
 20
-0.0000000000000009
 30
0.0
 11
40.02599999995994
 21
0.7545972719807246
 31
0.0
  0
LINE
  5
1190D
330
118F1
100
AcDbEntity
  8
0
  6
CONTINUOUS
100
AcDbLine
 10
39.9449219370594
 20
-0.0000000000000009
 30
0.0
 11
40.02599999995994
 21
0.0810780629005379
 31
0.0
  0
LINE
  5
1190E
330
118F1
100
AcDbEntity
  8
0
  6
CONTINUOUS
100
AcDbLine
 10
42.18817142235812
 20
2.916768694378905
 30
0.0
 11
43.16119791794597
 21
3.889795189966758
 31
0.0
  0
LINE
  5
1190F
330
118F1
100
AcDbEntity
  8
0
  6
CONTINUOUS
100
AcDbLine
 10
42.50563373493829
 20
2.560711797878898
 30
0.0
 11
43.47866023052615
 21
3.533738293466751
 31
0.0
  0
LINE
  5
11910
330
118F1
100
AcDbEntity
  8
0
  6
CONTINUOUS
100
AcDbLine
 10
43.57899999995641
 20
4.307597271977198
 30
0.0
 11
44.99999999995498
 21
5.728597271975769
 31
0.0
  0
LINE
  5
11911
330
118F1
100
AcDbEntity
  8
0
  6
CONTINUOUS
100
AcDbLine
 10
43.57899999995641
 20
3.634078062897011
 30
0.0
 11
44.99999999995498
 21
5.055078062895582
 31
0.0
  0
LINE
  5
11912
330
118F1
100
AcDbEntity
  8
0
  6
CONTINUOUS
100
AcDbLine
 10
42.82309604751848
 20
2.204654901378891
 30
0.0
 11
44.99999999995498
 21
4.381558853815395
 31
0.0
  0
LINE
  5
11913
330
118F1
100
AcDbEntity
  8
0
  6
CONTINUOUS
100
AcDbLine
 10
43.14055836009865
 20
1.848598004878885
 30
0.0
 11
44.99999999995498
 21
3.70803964473521
 31
0.0
  0
LINE
  5
11914
330
118F1
100
AcDbEntity
  8
0
  6
CONTINUOUS
100
AcDbLine
 10
43.45802067267883
 20
1.492541108378878
 30
0.0
 11
44.99999999995498
 21
3.034520435655023
 31
0.0
  0
LINE
  5
11915
330
118F1
100
AcDbEntity
  8
0
  6
CONTINUOUS
100
AcDbLine
 10
43.77548298525902
 20
1.136484211878871
 30
0.0
 11
44.99999999995498
 21
2.361001226574837
 31
0.0
  0
LINE
  5
11916
330
118F1
100
AcDbEntity
  8
0
  6
CONTINUOUS
100
AcDbLine
 10
44.09294529783919
 20
0.7804273153788639
 30
0.0
 11
44.99999999995498
 21
1.687482017494649
 31
0.0
  0
LINE
  5
11917
330
118F1
100
AcDbEntity
  8
0
  6
CONTINUOUS
100
AcDbLine
 10
44.41040761041938
 20
0.4243704188788566
 30
0.0
 11
44.99999999995498
 21
1.013962808414463
 31
0.0
  0
LINE
  5
11918
330
118F1
100
AcDbEntity
  8
0
  6
CONTINUOUS
100
AcDbLine
 10
44.72786992299955
 20
0.0683135223788494
 30
0.0
 11
44.99999999995498
 21
0.340443599334276
 31
0.0
  0
LINE
  5
11919
330
118F1
100
AcDbEntity
  8
0
  6
CONTINUOUS
100
AcDbLine
 10
39.12223903415696
 20
-0.0000000000000009
 30
0.0
 11
38.60499999996136
 21
0.5172390341955961
 31
0.0
  0
LINE
  5
1191A
330
118F1
100
AcDbEntity
  8
0
  6
CONTINUOUS
100
AcDbLine
 10
39.79575824323715
 20
-0.0000000000000009
 30
0.0
 11
38.60499999996136
 21
1.190758243275783
 31
0.0
  0
LINE
  5
1191B
330
118F1
100
AcDbEntity
  8
0
  6
CONTINUOUS
100
AcDbLine
 10
40.02599999995994
 20
0.443277452357397
 30
0.0
 11
38.60499999996136
 21
1.864277452355969
 31
0.0
  0
LINE
  5
1191C
330
118F1
100
AcDbEntity
  8
0
  6
CONTINUOUS
100
AcDbLine
 10
40.02599999995994
 20
1.116796661437583
 30
0.0
 11
38.60499999996136
 21
2.537796661436155
 31
0.0
  0
LINE
  5
1191D
330
118F1
100
AcDbEntity
  8
0
  6
CONTINUOUS
100
AcDbLine
 10
40.02599999995994
 20
1.79031587051777
 30
0.0
 11
38.60499999996136
 21
3.211315870516341
 31
0.0
  0
LINE
  5
1191E
330
118F1
100
AcDbEntity
  8
0
  6
CONTINUOUS
100
AcDbLine
 10
40.02599999995994
 20
2.463835079597956
 30
0.0
 11
38.60499999996136
 21
3.884835079596527
 31
0.0
  0
LINE
  5
1191F
330
118F1
100
AcDbEntity
  8
0
  6
CONTINUOUS
100
AcDbLine
 10
40.02599999995994
 20
3.137354288678143
 30
0.0
 11
38.60499999996136
 21
4.558354288676714
 31
0.0
  0
LINE
  5
11920
330
118F1
100
AcDbEntity
  8
0
  6
CONTINUOUS
100
AcDbLine
 10
40.02599999995994
 20
3.810873497758329
 30
0.0
 11
38.60499999996136
 21
5.2318734977569
 31
0.0
  0
LINE
  5
11921
330
118F1
100
AcDbEntity
  8
0
  6
CONTINUOUS
100
AcDbLine
 10
40.02599999995994
 20
4.484392706838515
 30
0.0
 11
38.60499999996136
 21
5.905392706837086
 31
0.0
  0
LINE
  5
11922
330
118F1
100
AcDbEntity
  8
0
  6
CONTINUOUS
100
AcDbLine
 10
44.99999999995498
 20
0.183911915923658
 30
0.0
 11
41.53858364506288
 21
3.64532827081576
 31
0.0
  0
LINE
  5
11923
330
118F1
100
AcDbEntity
  8
0
  6
CONTINUOUS
100
AcDbLine
 10
40.02599999995994
 20
5.157911915918703
 30
0.0
 11
38.60499999996136
 21
6.578911915917274
 31
0.0
  0
LINE
  5
11924
330
118F1
100
AcDbEntity
  8
0
  6
CONTINUOUS
100
AcDbLine
 10
44.99999999995498
 20
0.8574311250038447
 30
0.0
 11
38.60499999996136
 21
7.25243112499746
 31
0.0
  0
LINE
  5
11925
330
118F1
100
AcDbEntity
  8
0
  6
CONTINUOUS
100
AcDbLine
 10
44.99999999995498
 20
1.530950334084031
 30
0.0
 11
38.60499999996136
 21
7.925950334077647
 31
0.0
  0
LINE
  5
11926
330
118F1
100
AcDbEntity
  8
0
  6
CONTINUOUS
100
AcDbLine
 10
44.99999999995498
 20
2.204469543164218
 30
0.0
 11
43.57899999995641
 21
3.625469543162789
 31
0.0
  0
LINE
  5
11927
330
118F1
100
AcDbEntity
  8
0
  6
CONTINUOUS
100
AcDbLine
 10
41.89876730984767
 20
5.305702233271528
 30
0.0
 11
38.60499999996136
 21
8.599469543157834
 31
0.0
  0
LINE
  5
11928
330
118F1
100
AcDbEntity
  8
0
  6
CONTINUOUS
100
AcDbLine
 10
44.99999999995498
 20
2.877988752244405
 30
0.0
 11
43.57899999995641
 21
4.298988752242975
 31
0.0
  0
LINE
  5
11929
330
118F1
100
AcDbEntity
  8
0
  6
CONTINUOUS
100
AcDbLine
 10
44.99999999995498
 20
3.551507961324591
 30
0.0
 11
43.57899999995641
 21
4.972507961323163
 31
0.0
  0
LINE
  5
1192A
330
118F1
100
AcDbEntity
  8
0
  6
CONTINUOUS
100
AcDbLine
 10
44.99999999995498
 20
4.225027170404777
 30
0.0
 11
43.57899999995641
 21
5.646027170403348
 31
0.0
  0
LINE
  5
1192B
330
118F1
100
AcDbEntity
  8
0
  6
CONTINUOUS
100
AcDbLine
 10
44.99999999995498
 20
4.898546379484964
 30
0.0
 11
43.57899999995641
 21
6.319546379483535
 31
0.0
  0
LINE
  5
1192C
330
118F1
100
AcDbEntity
  8
0
  6
CONTINUOUS
100
AcDbLine
 10
44.99999999995498
 20
5.572065588565151
 30
0.0
 11
43.57899999995641
 21
6.993065588563722
 31
0.0
  0
LINE
  5
1192D
330
118F1
100
AcDbEntity
  8
0
  6
CONTINUOUS
100
AcDbLine
 10
44.99999999995498
 20
6.245584797645336
 30
0.0
 11
43.57899999995641
 21
7.666584797643908
 31
0.0
  0
LINE
  5
1192E
330
118F1
100
AcDbEntity
  8
0
  6
CONTINUOUS
100
AcDbLine
 10
44.99999999995498
 20
6.919104006725522
 30
0.0
 11
43.57899999995641
 21
8.340104006724093
 31
0.0
  0
LINE
  5
1192F
330
118F1
100
AcDbEntity
  8
0
  6
CONTINUOUS
100
AcDbLine
 10
44.99999999995498
 20
7.592623215805709
 30
0.0
 11
43.82952321576943
 21
8.763099999991255
 31
0.0
  0
LINE
  5
11930
330
118F1
100
AcDbEntity
  8
0
  6
CONTINUOUS
100
AcDbLine
 10
44.99999999995498
 20
8.266142424885896
 30
0.0
 11
44.50304242484962
 21
8.763099999991255
 31
0.0
  0
ENDBLK
  5
1195A
330
118F1
100
AcDbEntity
  8
0
100
AcDbBlockEnd
  0
BLOCK
  5
1195B
330
11931
100
AcDbEntity
  8
0
100
AcDbBlockBegin
  2
*X234
 70
     1
 10
0.0
 20
0.0
 30
0.0
  3
*X234
  1

  0
LINE
  5
11932
330
11931
100
AcDbEntity
  8
0
  6
CONTINUOUS
100
AcDbLine
 10
0.0
 20
8.548461116714023
 30
0.0
 11
0.2146388832772324
 21
8.763099999991255
 31
0.0
  0
LINE
  5
11933
330
11931
100
AcDbEntity
  8
0
  6
CONTINUOUS
100
AcDbLine
 10
-0.0000000000000002
 20
7.874941907633837
 30
0.0
 11
0.8881580923574184
 21
8.763099999991255
 31
0.0
  0
LINE
  5
11934
330
11931
100
AcDbEntity
  8
0
  6
CONTINUOUS
100
AcDbLine
 10
0.0
 20
7.20142269855365
 30
0.0
 11
1.420999999998572
 21
8.622422698552223
 31
0.0
  0
LINE
  5
11935
330
11931
100
AcDbEntity
  8
0
  6
CONTINUOUS
100
AcDbLine
 10
-0.0000000000000001
 20
6.527903489473465
 30
0.0
 11
1.420999999998571
 21
7.948903489472036
 31
0.0
  0
LINE
  5
11936
330
11931
100
AcDbEntity
  8
0
  6
CONTINUOUS
100
AcDbLine
 10
-0.0000000000000002
 20
5.854384280393278
 30
0.0
 11
1.420999999998571
 21
7.275384280391849
 31
0.0
  0
LINE
  5
11937
330
11931
100
AcDbEntity
  8
0
  6
CONTINUOUS
100
AcDbLine
 10
-0.0000000000000002
 20
5.180865071313091
 30
0.0
 11
1.420999999998571
 21
6.601865071311663
 31
0.0
  0
LINE
  5
11938
330
11931
100
AcDbEntity
  8
0
  6
CONTINUOUS
100
AcDbLine
 10
0.0
 20
4.507345862232905
 30
0.0
 11
1.420999999998571
 21
5.928345862231477
 31
0.0
  0
LINE
  5
11939
330
11931
100
AcDbEntity
  8
0
  6
CONTINUOUS
100
AcDbLine
 10
-0.0000000000000003
 20
3.833826653152718
 30
0.0
 11
1.420999999998571
 21
5.25482665315129
 31
0.0
  0
LINE
  5
1193A
330
11931
100
AcDbEntity
  8
0
  6
CONTINUOUS
100
AcDbLine
 10
-0.0000000000000002
 20
3.160307444072532
 30
0.0
 11
1.420999999998571
 21
4.581307444071103
 31
0.0
  0
LINE
  5
1193B
330
11931
100
AcDbEntity
  8
0
  6
CONTINUOUS
100
AcDbLine
 10
-0.0000000000000001
 20
2.486788234992345
 30
0.0
 11
1.420999999998571
 21
3.907788234990917
 31
0.0
  0
LINE
  5
1193C
330
11931
100
AcDbEntity
  8
0
  6
CONTINUOUS
100
AcDbLine
 10
-0.0000000000000006
 20
1.813269025912159
 30
0.0
 11
1.420999999998571
 21
3.234269025910731
 31
0.0
  0
LINE
  5
1193D
330
11931
100
AcDbEntity
  8
0
  6
CONTINUOUS
100
AcDbLine
 10
0.0
 20
1.139749816831973
 30
0.0
 11
1.420999999998571
 21
2.560749816830544
 31
0.0
  0
LINE
  5
1193E
330
11931
100
AcDbEntity
  8
0
  6
CONTINUOUS
100
AcDbLine
 10
0.0000000000000002
 20
0.466230607751787
 30
0.0
 11
1.420999999998571
 21
1.887230607750358
 31
0.0
  0
LINE
  5
1193F
330
11931
100
AcDbEntity
  8
0
  6
CONTINUOUS
100
AcDbLine
 10
0.2072886013284003
 20
-0.0000000000000009
 30
0.0
 11
1.420999999998571
 21
1.213711398670171
 31
0.0
  0
LINE
  5
11940
330
11931
100
AcDbEntity
  8
0
  6
CONTINUOUS
100
AcDbLine
 10
0.8808078104085864
 20
-0.0000000000000009
 30
0.0
 11
1.420999999998571
 21
0.5401921895899839
 31
0.0
  0
LINE
  5
11941
330
11931
100
AcDbEntity
  8
0
  6
CONTINUOUS
100
AcDbLine
 10
0.0581249075061505
 20
-0.0000000000000009
 30
0.0
 11
-0.0000000000000002
 21
0.0581249075061496
 31
0.0
  0
LINE
  5
11942
330
11931
100
AcDbEntity
  8
0
  6
CONTINUOUS
100
AcDbLine
 10
0.7316441165863372
 20
-0.0000000000000009
 30
0.0
 11
-0.0000000000000002
 21
0.7316441165863363
 31
0.0
  0
LINE
  5
11943
330
11931
100
AcDbEntity
  8
0
  6
CONTINUOUS
100
AcDbLine
 10
1.405163325666523
 20
-0.0000000000000009
 30
0.0
 11
-0.0000000000000002
 21
1.405163325666523
 31
0.0
  0
LINE
  5
11944
330
11931
100
AcDbEntity
  8
0
  6
CONTINUOUS
100
AcDbLine
 10
1.420999999998572
 20
0.6576825347481381
 30
0.0
 11
-0.0000000000000001
 21
2.07868253474671
 31
0.0
  0
LINE
  5
11945
330
11931
100
AcDbEntity
  8
0
  6
CONTINUOUS
100
AcDbLine
 10
1.420999999998571
 20
1.331201743828324
 30
0.0
 11
-0.0000000000000001
 21
2.752201743826896
 31
0.0
  0
LINE
  5
11946
330
11931
100
AcDbEntity
  8
0
  6
CONTINUOUS
100
AcDbLine
 10
1.420999999998571
 20
2.004720952908511
 30
0.0
 11
-0.0000000000000002
 21
3.425720952907082
 31
0.0
  0
LINE
  5
11947
330
11931
100
AcDbEntity
  8
0
  6
CONTINUOUS
100
AcDbLine
 10
1.420999999998571
 20
2.678240161988697
 30
0.0
 11
-0.0000000000000001
 21
4.099240161987269
 31
0.0
  0
LINE
  5
11948
330
11931
100
AcDbEntity
  8
0
  6
CONTINUOUS
100
AcDbLine
 10
1.420999999998572
 20
3.351759371068884
 30
0.0
 11
0.0
 21
4.772759371067455
 31
0.0
  0
LINE
  5
11949
330
11931
100
AcDbEntity
  8
0
  6
CONTINUOUS
100
AcDbLine
 10
1.420999999998571
 20
4.02527858014907
 30
0.0
 11
-0.0000000000000003
 21
5.446278580147642
 31
0.0
  0
LINE
  5
1194A
330
11931
100
AcDbEntity
  8
0
  6
CONTINUOUS
100
AcDbLine
 10
1.420999999998571
 20
4.698797789229257
 30
0.0
 11
0.0
 21
6.119797789227828
 31
0.0
  0
LINE
  5
1194B
330
11931
100
AcDbEntity
  8
0
  6
CONTINUOUS
100
AcDbLine
 10
1.420999999998571
 20
5.372316998309444
 30
0.0
 11
-0.0000000000000001
 21
6.793316998308015
 31
0.0
  0
LINE
  5
1194C
330
11931
100
AcDbEntity
  8
0
  6
CONTINUOUS
100
AcDbLine
 10
1.420999999998572
 20
6.045836207389629
 30
0.0
 11
-0.0000000000000004
 21
7.466836207388202
 31
0.0
  0
LINE
  5
1194D
330
11931
100
AcDbEntity
  8
0
  6
CONTINUOUS
100
AcDbLine
 10
1.420999999998571
 20
6.719355416469816
 30
0.0
 11
0.0
 21
8.140355416468388
 31
0.0
  0
LINE
  5
1194E
330
11931
100
AcDbEntity
  8
0
  6
CONTINUOUS
100
AcDbLine
 10
1.420999999998571
 20
7.392874625550003
 30
0.0
 11
0.0507746255573185
 21
8.763099999991255
 31
0.0
  0
LINE
  5
1194F
330
11931
100
AcDbEntity
  8
0
  6
CONTINUOUS
100
AcDbLine
 10
1.420999999998571
 20
8.06639383463019
 30
0.0
 11
0.7242938346375052
 21
8.763099999991255
 31
0.0
  0
LINE
  5
11950
330
11931
100
AcDbEntity
  8
0
  6
CONTINUOUS
100
AcDbLine
 10
1.420999999998571
 20
8.739913043710375
 30
0.0
 11
1.397813043717691
 21
8.763099999991255
 31
0.0
  0
ENDBLK
  5
1195C
330
11931
100
AcDbEntity
  8
0
100
AcDbBlockEnd
  0
ENDSEC
  0
SECTION
  2
ENTITIES
  0
LINE
  5
F909
330
18
100
AcDbEntity
  8
01
100
AcDbLine
 10
4389.667258329873
 20
826.1851543608755
 30
0.0000000000563712
 11
4415.667258329873
 21
826.1851543608755
 31
0.0000000000563712
  0
LINE
  5
F90A
330
18
100
AcDbEntity
  8
01
100
AcDbLine
 10
4425.167258329873
 20
831.6851543608755
 30
0.0000000000563712
 11
4380.167258329873
 21
831.6851543608755
 31
0.0000000000563712
  0
LINE
  5
F90B
330
18
100
AcDbEntity
  8
01
100
AcDbLine
 10
4402.667258329873
 20
854.1851543608755
 30
0.0000000000563712
 11
4402.667258329873
 21
809.1851543608755
 31
0.0000000000563712
  0
LINE
  5
FA46
330
18
100
AcDbEntity
  8
1CENTER
100
AcDbLine
 10
4742.667274294723
 20
1091.521785022481
 30
0.0000000000563712
 11
4742.667274294723
 21
1047.235041308359
 31
0.0000000000563712
  0
LINE
  5
FA47
330
18
100
AcDbEntity
  8
01
100
AcDbLine
 10
4723.167262073517
 20
1072.485154359847
 30
0.0000000000563712
 11
4762.167262073516
 21
1072.485154359847
 31
0.0000000000563712
  0
LINE
  5
FA48
330
18
100
AcDbEntity
  8
01
100
AcDbLine
 10
4762.667262073517
 20
1066.185154359847
 30
0.0000000000563712
 11
4722.667262073517
 21
1066.185154359847
 31
0.0000000000563712
  0
LINE
  5
FA49
330
18
100
AcDbEntity
  8
01
100
AcDbLine
 10
4762.667262073517
 20
1066.185154359847
 30
0.0000000000563712
 11
4762.667262073516
 21
1071.985154359847
 31
0.0000000000563712
  0
ARC
  5
FA4A
330
18
100
AcDbEntity
  8
01
100
AcDbCircle
 10
4762.167262073517
 20
1071.985154359847
 30
0.0000000000563712
 40
0.5
100
AcDbArc
 50
0.0
 51
90.0
  0
LINE
  5
FA4B
330
18
100
AcDbEntity
  8
01
100
AcDbLine
 10
4722.667262073517
 20
1066.185154359847
 30
0.0000000000563712
 11
4722.667262073517
 21
1071.985154359847
 31
0.0000000000563712
  0
ARC
  5
FA4C
330
18
100
AcDbEntity
  8
01
100
AcDbCircle
 10
4723.167262073517
 20
1071.985154359847
 30
0.0000000000563712
 40
0.5
100
AcDbArc
 50
90.0
 51
180.0
  0
LINE
  5
FA4D
330
18
100
AcDbEntity
  8
01
100
AcDbLine
 10
4739.16727429473
 20
1073.685151026647
 30
0.0000000000563885
 11
4733.417274294724
 21
1073.685151026648
 31
0.0000000000563885
  0
LINE
  5
FA4E
330
18
100
AcDbEntity
  8
01
100
AcDbLine
 10
4740.167274294732
 20
1087.185173970853
 30
0.0000000000563885
 11
4740.16727429473
 21
1074.685151026647
 31
0.0000000000563885
  0
LINE
  5
FA4F
330
18
100
AcDbEntity
  8
01
100
AcDbLine
 10
4745.167274294732
 20
1087.185173970852
 30
0.0000000000563885
 11
4745.167274294732
 21
1074.685151026649
 31
0.0000000000563885
  0
ARC
  5
FA50
330
18
100
AcDbEntity
  8
01
100
AcDbCircle
 10
4744.167274294732
 20
1087.185173970853
 30
0.0000000000563885
 40
1.0
100
AcDbArc
 50
0.0000000000521102
 51
90.0
  0
ARC
  5
FA51
330
18
100
AcDbEntity
  8
01
100
AcDbCircle
 10
4741.167274294732
 20
1087.185173970853
 30
0.0000000000563885
 40
1.0
100
AcDbArc
 50
90.0
 51
180.0
  0
LINE
  5
FA52
330
18
100
AcDbEntity
  8
01
100
AcDbLine
 10
4744.167274294732
 20
1088.185173970855
 30
0.0000000000563885
 11
4741.167274294732
 21
1088.185173970855
 31
0.0000000000563885
  0
LINE
  5
FA53
330
18
100
AcDbEntity
  8
01
100
AcDbLine
 10
4751.917274294723
 20
1073.685151026649
 30
0.0000000000563885
 11
4746.167274294732
 21
1073.685151026649
 31
0.0000000000563885
  0
ARC
  5
FA54
330
18
100
AcDbEntity
  8
01
100
AcDbCircle
 10
4746.167274294732
 20
1074.685151026649
 30
0.0000000000563885
 40
1.0
100
AcDbArc
 50
180.0
 51
270.0
  0
ARC
  5
FA55
330
18
100
AcDbEntity
  8
01
100
AcDbCircle
 10
4739.16727429473
 20
1074.685151026647
 30
0.0000000000563885
 40
1.0
100
AcDbArc
 50
270.0
 51
0.0
  0
LINE
  5
FA56
330
18
100
AcDbEntity
  8
01
100
AcDbLine
 10
4732.917274294724
 20
1073.185151026648
 30
0.000000000112646
 11
4732.917274294724
 21
1072.485154359847
 31
0.0000000001126239
  0
ARC
  5
FA57
330
18
100
AcDbEntity
  8
01
100
AcDbCircle
 10
4733.417274294724
 20
1073.185151026648
 30
0.000000000112646
 40
0.5
100
AcDbArc
 50
90.0
 51
180.0
  0
LINE
  5
FA58
330
18
100
AcDbEntity
  8
01
100
AcDbLine
 10
4752.417274294723
 20
1073.185151026648
 30
0.000000000112646
 11
4752.417274294723
 21
1072.485154359847
 31
0.0000000001126239
  0
ARC
  5
FA59
330
18
100
AcDbEntity
  8
01
100
AcDbCircle
 10
4751.917274294723
 20
1073.185151026648
 30
0.000000000112646
 40
0.5
100
AcDbArc
 50
0.0
 51
90.0
  0
LINE
  5
FA5A
330
18
100
AcDbEntity
  8
1CENTER
100
AcDbLine
 10
4742.667249720103
 20
1017.360537971793
 30
0.0000000000563712
 11
4742.667249720103
 21
1029.360537971793
 31
0.0000000000563712
  0
LINE
  5
FA5B
330
18
100
AcDbEntity
  8
01
100
AcDbLine
 10
4762.16726194131
 20
1019.885154359844
 30
0.0000000000563712
 11
4723.16726194131
 21
1019.885154359849
 31
0.0000000000563712
  0
LINE
  5
FA5C
330
18
100
AcDbEntity
  8
01
100
AcDbLine
 10
4722.667261941311
 20
1026.18515435985
 30
0.0000000000563712
 11
4762.667261941311
 21
1026.185154359844
 31
0.0000000000563712
  0
LINE
  5
FA5D
330
18
100
AcDbEntity
  8
01
100
AcDbLine
 10
4722.667261941311
 20
1026.18515435985
 30
0.0000000000563712
 11
4722.66726194131
 21
1020.385154359849
 31
0.0000000000563712
  0
ARC
  5
FA5E
330
18
100
AcDbEntity
  8
01
100
AcDbCircle
 10
4723.16726194131
 20
1020.38515435985
 30
0.0000000000563712
 40
0.5
100
AcDbArc
 50
179.9999999999739
 51
270.0
  0
LINE
  5
FA5F
330
18
100
AcDbEntity
  8
01
100
AcDbLine
 10
4762.667261941311
 20
1026.185154359844
 30
0.0000000000563712
 11
4762.66726194131
 21
1020.385154359844
 31
0.0000000000563712
  0
ARC
  5
FA60
330
18
100
AcDbEntity
  8
01
100
AcDbCircle
 10
4762.16726194131
 20
1020.385154359844
 30
0.0000000000563712
 40
0.5
100
AcDbArc
 50
270.0
 51
0.0
  0
ARC
  5
FA61
330
18
100
AcDbEntity
  8
01
100
AcDbCircle
 10
4742.667252399166
 20
1024.035148981972
 30
0.0000000000562575
 40
6.0
100
AcDbArc
 50
234.3146660000189
 51
256.8165180000145
  0
LINE
  5
FA62
330
18
100
AcDbEntity
  8
01
100
AcDbLine
 10
4739.167252399166
 20
1019.161748981971
 30
0.0000000000562575
 11
4739.167252399165
 21
1019.885154359847
 31
0.0000000000562575
  0
LINE
  5
FA63
330
18
100
AcDbEntity
  8
01
100
AcDbLine
 10
4746.167252399166
 20
1019.161748981971
 30
0.0000000000562575
 11
4746.167252399166
 21
1019.885154359846
 31
0.0000000000562575
  0
LINE
  5
FA64
330
18
100
AcDbEntity
  8
01
100
AcDbLine
 10
4743.667252399166
 20
1018.484600522569
 30
0.0000000000562575
 11
4743.667252399166
 21
1019.885154359846
 31
0.0000000000562575
  0
ARC
  5
FA65
330
18
100
AcDbEntity
  8
01
100
AcDbCircle
 10
4741.367249399165
 20
1018.485378981972
 30
0.0000000000562575
 40
0.30000001
100
AcDbArc
 50
256.8165179999085
 51
0.0
  0
ARC
  5
FA66
330
18
100
AcDbEntity
  8
01
100
AcDbCircle
 10
4743.967251399165
 20
1018.485378981972
 30
0.0000000000562575
 40
0.30000001
100
AcDbArc
 50
179.9999969999697
 51
283.1834799999676
  0
LINE
  5
FA67
330
18
100
AcDbEntity
  8
01
100
AcDbLine
 10
4741.667252399166
 20
1018.485378981972
 30
0.0000000000562575
 11
4741.667252399166
 21
1019.885154359847
 31
0.0000000000562575
  0
ARC
  5
FA68
330
18
100
AcDbEntity
  8
01
100
AcDbCircle
 10
4742.667252399166
 20
1024.035148981972
 30
0.0000000000562575
 40
6.0
100
AcDbArc
 50
283.1834825033476
 51
305.6853299999988
  0
LINE
  5
FA69
330
18
100
AcDbEntity
  8
1CENTER
100
AcDbLine
 10
4402.667258329873
 20
820.1851543608755
 30
0.0000000000563712
 11
4402.667258329873
 21
832.1851543608755
 31
0.0000000000563712
  0
LINE
  5
FA6A
330
18
100
AcDbEntity
  8
1CENTER
100
AcDbLine
 10
4396.667258329873
 20
826.1851543608755
 30
0.0000000000563712
 11
4408.667258329873
 21
826.1851543608755
 31
0.0000000000563712
  0
LINE
  5
FA6B
330
18
100
AcDbEntity
  8
01
100
AcDbLine
 10
4422.167258329871
 20
851.6851543608755
 30
0.0000000000563712
 11
4383.167258329871
 21
851.6851543608752
 31
0.0000000000563712
  0
ARC
  5
FA6C
330
18
100
AcDbEntity
  8
01
100
AcDbCircle
 10
4383.167258329871
 20
851.1851543608752
 30
0.0000000000563712
 40
0.5
100
AcDbArc
 50
90.0
 51
180.0
  0
LINE
  5
FA6D
330
18
100
AcDbEntity
  8
01
100
AcDbLine
 10
4422.167258329871
 20
811.6851543608755
 30
0.0000000000563712
 11
4383.167258329871
 21
811.685154360875
 31
0.0000000000563712
  0
ARC
  5
FA6E
330
18
100
AcDbEntity
  8
01
100
AcDbCircle
 10
4422.167258329871
 20
812.1851543608755
 30
0.0000000000563712
 40
0.5
100
AcDbArc
 50
270.0
 51
0.0
  0
LINE
  5
FA6F
330
18
100
AcDbEntity
  8
01
100
AcDbLine
 10
4422.667258329871
 20
812.1851543608755
 30
0.0000000000563712
 11
4422.667258329871
 21
851.1851543608755
 31
0.0000000000563712
  0
ARC
  5
FA70
330
18
100
AcDbEntity
  8
01
100
AcDbCircle
 10
4422.167258329871
 20
851.1851543608755
 30
0.0000000000563712
 40
0.5
100
AcDbArc
 50
0.0
 51
90.0
  0
LINE
  5
FA71
330
18
100
AcDbEntity
  8
01
100
AcDbLine
 10
4382.667258329871
 20
812.185154360875
 30
0.0000000000563712
 11
4382.667258329871
 21
851.1851543608752
 31
0.0000000000563712
  0
ARC
  5
FA72
330
18
100
AcDbEntity
  8
01
100
AcDbCircle
 10
4383.167258329871
 20
812.185154360875
 30
0.0000000000563712
 40
0.5
100
AcDbArc
 50
180.0
 51
270.0
  0
ARC
  5
FA73
330
18
100
AcDbEntity
  8
01
100
AcDbCircle
 10
4404.667258329873
 20
835.2163502949697
 30
0.0000000000563712
 40
0.5000000000000013
100
AcDbArc
 50
0.0
 51
77.51311018581228
  0
ARC
  5
FA74
330
18
100
AcDbEntity
  8
01
100
AcDbCircle
 10
4400.667258329873
 20
817.1539584267812
 30
0.0000000000563712
 40
0.5000000000000029
100
AcDbArc
 50
180.0
 51
257.5131101858646
  0
ARC
  5
FA75
330
18
100
AcDbEntity
  8
01
100
AcDbCircle
 10
4404.667258329873
 20
817.1539584267812
 30
0.0000000000563712
 40
0.5000000000000013
100
AcDbArc
 50
282.4868898141877
 51
0.0
  0
ARC
  5
FA76
330
18
100
AcDbEntity
  8
01
100
AcDbCircle
 10
4402.667258329873
 20
826.1851543608755
 30
0.0000000000563712
 40
9.749999999999995
100
AcDbArc
 50
77.51311018586458
 51
102.4868898141354
  0
ARC
  5
FA77
330
18
100
AcDbEntity
  8
01
100
AcDbCircle
 10
4400.667258329873
 20
835.2163502949697
 30
0.0000000000563712
 40
0.5000000000000029
100
AcDbArc
 50
102.4868898141354
 51
180.0
  0
ARC
  5
FA78
330
18
100
AcDbEntity
  8
01
100
AcDbCircle
 10
4402.667258329873
 20
826.1851543608755
 30
0.0000000000563712
 40
9.75
100
AcDbArc
 50
257.5131101858646
 51
282.4868898141354
  0
LINE
  5
FA79
330
18
100
AcDbEntity
  8
01
100
AcDbLine
 10
4405.167258329873
 20
835.2163502949697
 30
0.0000000000563712
 11
4405.167258329873
 21
817.1539584267812
 31
0.0000000000563712
  0
LINE
  5
FA7A
330
18
100
AcDbEntity
  8
01
100
AcDbLine
 10
4400.167258329873
 20
817.1539584267812
 30
0.0000000000563712
 11
4400.167258329873
 21
835.2163502949697
 31
0.0000000000563712
  0
SPLINE
  5
FA7B
330
18
100
AcDbEntity
  8
01
100
AcDbSpline
210
0.0
220
0.0
230
1.0
 70
     8
 71
     3
 72
    18
 73
    14
 74
     0
 42
0.0000000001
 43
0.0000000001
 40
0.0
 40
0.0
 40
0.0
 40
0.0
 40
0.2500000000000002
 40
0.2500000000000002
 40
0.375
 40
0.375
 40
0.4999999999999998
 40
0.4999999999999998
 40
0.6249999999999996
 40
0.6249999999999996
 40
0.7499999999999993
 40
0.7499999999999993
 40
1.0
 40
1.0
 40
1.0
 40
1.0
 10
4406.356447519061
 20
817.1600569582781
 30
0.0000000000563712
 10
4406.163186461787
 20
817.0810576332415
 30
0.0000000000563712
 10
4405.970864850058
 20
817.0097900986718
 30
0.0000000000563712
 10
4405.691539391599
 20
816.9155329874984
 30
0.0000000000563712
 10
4405.602046249091
 20
816.8868997623106
 30
0.0000000000563712
 10
4405.430769041299
 20
816.83456468651
 30
0.0000000000563712
 10
4405.348119628128
 20
816.8106325215892
 30
0.0000000000563712
 10
4405.196646488688
 20
816.7686331052425
 30
0.0000000000563712
 10
4405.127974917732
 20
816.7505712376833
 30
0.0000000000563712
 10
4405.005606943472
 20
816.7195000995225
 30
0.0000000000563712
 10
4404.951766706856
 20
816.7064685669156
 30
0.0000000000563712
 10
4404.822412419624
 20
816.6759134621552
 30
0.0000000000563712
 10
4404.775366437982
 20
816.6657856735869
 30
0.0000000000563712
 10
4404.775366437982
 20
816.6657856735869
 30
0.0000000000563712
  0
SPLINE
  5
FA7C
330
18
100
AcDbEntity
  8
01
100
AcDbSpline
210
0.0
220
0.0
230
1.0
 70
     8
 71
     3
 72
    18
 73
    14
 74
     0
 42
0.0000000001
 43
0.0000000001
 40
0.0
 40
0.0
 40
0.0
 40
0.0
 40
0.2500000000000002
 40
0.2500000000000002
 40
0.3750000000000002
 40
0.3750000000000002
 40
0.5000000000000002
 40
0.5000000000000002
 40
0.6250000000000002
 40
0.6250000000000002
 40
0.7500000000000001
 40
0.7500000000000001
 40
1.0
 40
1.0
 40
1.0
 40
1.0
 10
4398.978069140683
 20
835.2102517634728
 30
0.0000000000563712
 10
4399.17133019796
 20
835.2892510885094
 30
0.0000000000563712
 10
4399.363651809687
 20
835.3605186230789
 30
0.0000000000563712
 10
4399.642977268148
 20
835.4547757342525
 30
0.0000000000563712
 10
4399.732470410656
 20
835.4834089594403
 30
0.0000000000563712
 10
4399.903747618448
 20
835.5357440352409
 30
0.0000000000563712
 10
4399.986397031616
 20
835.5596762001617
 30
0.0000000000563712
 10
4400.137870171058
 20
835.6016756165081
 30
0.0000000000563712
 10
4400.206541742014
 20
835.6197374840676
 30
0.0000000000563712
 10
4400.328909716274
 20
835.6508086222284
 30
0.0000000000563712
 10
4400.382749952891
 20
835.6638401548353
 30
0.0000000000563712
 10
4400.512104240122
 20
835.6943952595957
 30
0.0000000000563712
 10
4400.559150221765
 20
835.704523048164
 30
0.0000000000563712
 10
4400.559150221765
 20
835.704523048164
 30
0.0000000000563712
  0
SPLINE
  5
FA7D
330
18
100
AcDbEntity
  8
01
100
AcDbSpline
210
0.0
220
0.0
230
1.0
 70
     8
 71
     3
 72
    16
 73
    12
 74
     0
 42
0.0000000001
 43
0.0000000001
 40
0.0
 40
0.0
 40
0.0
 40
0.0
 40
0.1249999999999998
 40
0.1249999999999998
 40
0.2499999999999997
 40
0.2499999999999997
 40
0.4999999999999998
 40
0.4999999999999998
 40
0.7499999999999999
 40
0.7499999999999999
 40
1.0
 40
1.0
 40
1.0
 40
1.0
 10
4400.559150221765
 20
816.6657856735869
 30
0.0000000000563712
 10
4400.559150221765
 20
816.6657856735869
 30
0.0000000000563712
 10
4400.547734699638
 20
816.6682936295779
 30
0.0000000000563712
 10
4400.503301643297
 20
816.6782984107381
 30
0.0000000000563712
 10
4400.469606042743
 20
816.6859550757877
 30
0.0000000000563712
 10
4400.340258721282
 20
816.7164995803203
 30
0.0000000000563712
 10
4400.213802840975
 20
816.7475997340973
 30
0.0000000000563712
 10
4399.91285663998
 20
816.8310027424689
 30
0.0000000000563712
 10
4399.736063205212
 20
816.8841516719915
 30
0.0000000000563712
 10
4399.366366933209
 20
817.008843998595
 30
0.0000000000563712
 10
4399.171295774975
 20
817.0810717043257
 30
0.0000000000563712
 10
4398.978069140683
 20
817.1600569582781
 30
0.0000000000563712
  0
SPLINE
  5
FA7E
330
18
100
AcDbEntity
  8
01
100
AcDbSpline
210
0.0
220
0.0
230
1.0
 70
     8
 71
     3
 72
    16
 73
    12
 74
     0
 42
0.0000000001
 43
0.0000000001
 40
0.0
 40
0.0
 40
0.0
 40
0.0
 40
0.1249999999999997
 40
0.1249999999999997
 40
0.2499999999999993
 40
0.2499999999999993
 40
0.4999999999999996
 40
0.4999999999999996
 40
0.7499999999999998
 40
0.7499999999999998
 40
1.0
 40
1.0
 40
1.0
 40
1.0
 10
4404.775366437982
 20
835.704523048164
 30
0.0000000000563712
 10
4404.775366437982
 20
835.704523048164
 30
0.0000000000563712
 10
4404.786781960107
 20
835.7020150921728
 30
0.0000000000563712
 10
4404.831215016449
 20
835.6920103110126
 30
0.0000000000563712
 10
4404.864910617001
 20
835.684353645963
 30
0.0000000000563712
 10
4404.994257938464
 20
835.6538091414304
 30
0.0000000000563712
 10
4405.120713818771
 20
835.6227089876536
 30
0.0000000000563712
 10
4405.421660019767
 20
835.5393059792821
 30
0.0000000000563712
 10
4405.598453454533
 20
835.4861570497594
 30
0.0000000000563712
 10
4405.968149726536
 20
835.3614647231559
 30
0.0000000000563712
 10
4406.163220884771
 20
835.2892370174252
 30
0.0000000000563712
 10
4406.356447519061
 20
835.2102517634728
 30
0.0000000000563712
  0
ARC
  5
FA7F
330
18
100
AcDbEntity
  8
01
100
AcDbCircle
 10
4402.667258329873
 20
826.1851543608755
 30
0.0000000000563712
 40
9.750000000000005
100
AcDbArc
 50
112.2332717982963
 51
247.7667282017037
  0
ARC
  5
FA80
330
18
100
AcDbEntity
  8
01
100
AcDbCircle
 10
4402.667258329873
 20
826.1851543608755
 30
0.0000000000563712
 40
9.750000000000009
100
AcDbArc
 50
292.2332717982963
 51
67.7667282017037
  0
CIRCLE
  5
FA81
330
18
100
AcDbEntity
  8
01
100
AcDbCircle
 10
4402.667258329873
 20
826.1851543608755
 30
0.0000000000563712
 40
10.3
  0
LINE
  5
FA82
330
18
100
AcDbEntity
  8
01
100
AcDbLine
 10
4598.967262329874
 20
812.1851592250653
 30
0.0000000000563712
 11
4598.967262329875
 21
851.1851592250648
 31
0.0000000000563712
  0
LINE
  5
FA83
330
18
100
AcDbEntity
  8
01
100
AcDbLine
 10
4592.667262329875
 20
851.6851592250653
 30
0.0000000000563712
 11
4592.667262329871
 21
811.685159225065
 31
0.0000000000563712
  0
LINE
  5
FA84
330
18
100
AcDbEntity
  8
01
100
AcDbLine
 10
4592.667262329871
 20
811.685159225065
 30
0.0000000000563712
 11
4598.467262329875
 21
811.6851592250653
 31
0.0000000000563712
  0
ARC
  5
FA85
330
18
100
AcDbEntity
  8
01
100
AcDbCircle
 10
4598.467262329875
 20
812.1851592250653
 30
0.0000000000563712
 40
0.5
100
AcDbArc
 50
270.0
 51
0.0
  0
LINE
  5
FA86
330
18
100
AcDbEntity
  8
01
100
AcDbLine
 10
4592.667262329875
 20
851.6851592250653
 30
0.0000000000563712
 11
4598.467262329875
 21
851.6851592250648
 31
0.0000000000563712
  0
ARC
  5
FA87
330
18
100
AcDbEntity
  8
01
100
AcDbCircle
 10
4598.467262329875
 20
851.1851592250648
 30
0.0000000000563712
 40
0.5
100
AcDbArc
 50
0.0
 51
90.0
  0
LINE
  5
FA88
330
18
100
AcDbEntity
  8
01
100
AcDbLine
 10
4546.367262329874
 20
812.1851543608755
 30
0.0000000000563712
 11
4546.367262329874
 21
851.185154360875
 31
0.0000000000563712
  0
LINE
  5
FA89
330
18
100
AcDbEntity
  8
01
100
AcDbLine
 10
4552.667262329875
 20
851.6851543608755
 30
0.0000000000563712
 11
4552.66726232987
 21
811.6851543608752
 31
0.0000000000563712
  0
LINE
  5
FA8A
330
18
100
AcDbEntity
  8
01
100
AcDbLine
 10
4552.66726232987
 20
811.6851543608752
 30
0.0000000000563712
 11
4546.867262329874
 21
811.6851543608755
 31
0.0000000000563712
  0
ARC
  5
FA8B
330
18
100
AcDbEntity
  8
01
100
AcDbCircle
 10
4546.867262329874
 20
812.1851543608755
 30
0.0000000000563712
 40
0.5
100
AcDbArc
 50
180.0
 51
270.0
  0
LINE
  5
FA8C
330
18
100
AcDbEntity
  8
01
100
AcDbLine
 10
4552.667262329875
 20
851.6851543608755
 30
0.0000000000563712
 11
4546.867262329874
 21
851.685154360875
 31
0.0000000000563712
  0
ARC
  5
FA8D
330
18
100
AcDbEntity
  8
01
100
AcDbCircle
 10
4546.867262329874
 20
851.185154360875
 30
0.0000000000563712
 40
0.5
100
AcDbArc
 50
90.0
 51
180.0
  0
SPLINE
  5
FA8E
330
18
100
AcDbEntity
  8
01
100
AcDbSpline
210
0.0
220
0.0
230
1.0
 70
    24
 71
     1
 72
     4
 73
     2
 74
     0
 42
0.0000000001
 43
0.0000000001
 40
0.1160848018737504
 40
0.1160848018737504
 40
1.0
 40
1.0
 10
4546.367262329874
 20
816.4351543608682
 30
0.0000000000563712
 10
4531.667237518863
 20
816.4351543608682
 30
0.0000000000563712
  0
SPLINE
  5
FA8F
330
18
100
AcDbEntity
  8
01
100
AcDbSpline
210
0.0
220
0.0
230
1.0
 70
    24
 71
     1
 72
     4
 73
     2
 74
     0
 42
0.0000000001
 43
0.0000000001
 40
0.0
 40
0.0
 40
0.8839151981262495
 40
0.8839151981262495
 10
4531.667237518863
 20
835.9351543608682
 30
0.0000000000563712
 10
4546.367262329874
 20
835.9351543608682
 30
0.0000000000563712
  0
ARC
  5
FA90
330
18
100
AcDbEntity
  8
01
100
AcDbCircle
 10
4531.667237518863
 20
817.4351543608682
 30
0.0000000000563712
 40
1.0
100
AcDbArc
 50
180.0
 51
270.0
  0
ARC
  5
FA91
330
18
100
AcDbEntity
  8
01
100
AcDbCircle
 10
4531.667237518863
 20
834.9351543608682
 30
0.0000000000563712
 40
1.0
100
AcDbArc
 50
90.0
 51
180.0
  0
LINE
  5
FA92
330
18
100
AcDbEntity
  8
01
100
AcDbLine
 10
4545.167237518863
 20
834.74742625564
 30
0.0000000000563712
 11
4545.167237518863
 21
817.6228824660964
 31
0.0000000000563712
  0
SPLINE
  5
FA93
330
18
100
AcDbEntity
  8
01
100
AcDbSpline
210
0.0
220
0.0
230
1.0
 70
     8
 71
     3
 72
    14
 73
    10
 74
     0
 42
0.0000000001
 43
0.0000000001
 40
0.0
 40
0.0
 40
0.0
 40
0.0
 40
0.25
 40
0.25
 40
0.5
 40
0.5
 40
0.75
 40
0.75
 40
1.0
 40
1.0
 40
1.0
 40
1.0
 10
4544.167237518863
 20
835.2163502949625
 30
0.0000000000563712
 10
4544.307205196616
 20
835.2163502949625
 30
0.0000000000563712
 10
4544.445626470761
 20
835.2067143396557
 30
0.0000000000563712
 10
4544.695676810716
 20
835.167633430714
 30
0.0000000000563712
 10
4544.807994373545
 20
835.1378272958402
 30
0.0000000000563712
 10
4544.989041744631
 20
835.0569075590563
 30
0.0000000000563712
 10
4545.056842380935
 20
835.0065180228648
 30
0.0000000000563712
 10
4545.146461297479
 20
834.8871484338499
 30
0.0000000000563712
 10
4545.167237518863
 20
834.8203489831385
 30
0.0000000000563712
 10
4545.167237518863
 20
834.74742625564
 30
0.0000000000563712
  0
SPLINE
  5
FA94
330
18
100
AcDbEntity
  8
01
100
AcDbSpline
210
0.0
220
0.0
230
1.0
 70
     8
 71
     3
 72
    14
 73
    10
 74
     0
 42
0.0000000001
 43
0.0000000001
 40
0.0
 40
0.0
 40
0.0
 40
0.0
 40
0.25
 40
0.25
 40
0.5
 40
0.5
 40
0.75
 40
0.75
 40
1.0
 40
1.0
 40
1.0
 40
1.0
 10
4545.167237518863
 20
817.6228824660964
 30
0.0000000000563712
 10
4545.167237518863
 20
817.5499657789619
 30
0.0000000000563712
 10
4545.145877111601
 20
817.4821810831011
 30
0.0000000000563712
 10
4545.056737919926
 20
817.3638542091373
 30
0.0000000000563712
 10
4544.987805289771
 20
817.3127413543693
 30
0.0000000000563712
 10
4544.807757849405
 20
817.2324837622155
 30
0.0000000000563712
 10
4544.69505217591
 20
817.202520942509
 30
0.0000000000563712
 10
4544.44448156229
 20
817.1634725669749
 30
0.0000000000563712
 10
4544.307095412973
 20
817.1539584267739
 30
0.0000000000563712
 10
4544.167237518863
 20
817.1539584267739
 30
0.0000000000563712
  0
LINE
  5
FA95
330
18
100
AcDbEntity
  8
01
100
AcDbLine
 10
4544.167237518863
 20
817.1539584267739
 30
0.0000000000563712
 11
4531.667237518863
 21
817.1539584267739
 31
0.0000000000563712
  0
LINE
  5
FA96
330
18
100
AcDbEntity
  8
01
100
AcDbLine
 10
4531.667237518863
 20
835.2163502949625
 30
0.0000000000563712
 11
4544.167237518863
 21
835.2163502949625
 31
0.0000000000563712
  0
SPLINE
  5
FA97
330
18
100
AcDbEntity
  8
01
100
AcDbSpline
210
0.0
220
0.0
230
1.0
 70
     8
 71
     3
 72
    14
 73
    10
 74
     0
 42
0.0000000001
 43
0.0000000001
 40
0.0
 40
0.0
 40
0.0
 40
0.0
 40
0.2500000000000001
 40
0.2500000000000001
 40
0.5000000000000002
 40
0.5000000000000002
 40
0.7500000000000003
 40
0.7500000000000003
 40
1.0
 40
1.0
 40
1.0
 40
1.0
 10
4531.667237518863
 20
835.2163502949625
 30
0.0000000000563712
 10
4531.530028603935
 20
835.2163502949625
 30
0.0000000000563712
 10
4531.395025058423
 20
835.2049754848672
 30
0.0000000000563712
 10
4531.14768859977
 20
835.1620206175469
 30
0.0000000000563712
 10
4531.037187170405
 20
835.1307762904423
 30
0.0000000000563712
 10
4530.854993496877
 20
835.0535907730514
 30
0.0000000000563712
 10
4530.786000394492
 20
835.0092501577917
 30
0.0000000000563712
 10
4530.691232856006
 20
834.9112685064135
 30
0.0000000000563712
 10
4530.667237518863
 20
834.8587750833967
 30
0.0000000000563712
 10
4530.667237518863
 20
834.8056241856516
 30
0.0000000000563712
  0
SPLINE
  5
FA98
330
18
100
AcDbEntity
  8
01
100
AcDbSpline
210
0.0
220
0.0
230
1.0
 70
     8
 71
     3
 72
    14
 73
    10
 74
     0
 42
0.0000000001
 43
0.0000000001
 40
0.0
 40
0.0
 40
0.0
 40
0.0
 40
0.2500000000000001
 40
0.2500000000000001
 40
0.5000000000000002
 40
0.5000000000000002
 40
0.7500000000000003
 40
0.7500000000000003
 40
1.0
 40
1.0
 40
1.0
 40
1.0
 10
4531.667237518863
 20
817.1539584267739
 30
0.0000000000563712
 10
4531.530028603935
 20
817.1539584267739
 30
0.0000000000563712
 10
4531.395025058423
 20
817.1653332368692
 30
0.0000000000563712
 10
4531.14768859977
 20
817.2082881041895
 30
0.0000000000563712
 10
4531.037187170405
 20
817.239532431294
 30
0.0000000000563712
 10
4530.854993496877
 20
817.3167179486852
 30
0.0000000000563712
 10
4530.786000394492
 20
817.3610585639447
 30
0.0000000000563712
 10
4530.691232856006
 20
817.4590402153231
 30
0.0000000000563712
 10
4530.667237518863
 20
817.5115336383396
 30
0.0000000000563712
 10
4530.667237518863
 20
817.5646845360848
 30
0.0000000000563712
  0
LINE
  5
FA99
330
18
100
AcDbEntity
  8
01
100
AcDbLine
 10
4530.667237518863
 20
834.8056241856516
 30
0.0000000000563712
 11
4530.667237518863
 21
817.5646845360848
 31
0.0000000000563712
  0
LINE
  5
FA9A
330
18
100
AcDbEntity
  8
01
100
AcDbLine
 10
4530.667237518863
 20
817.5646845360848
 30
0.0000000000563712
 11
4530.667237518863
 21
817.4351543608682
 31
0.0000000000563712
  0
LINE
  5
FA9B
330
18
100
AcDbEntity
  8
01
100
AcDbLine
 10
4599.709246018835
 20
829.6851556818137
 30
0.0000000001126251
 11
4598.967262329874
 21
829.6851556818135
 31
0.0000000001126251
  0
LINE
  5
FA9C
330
18
100
AcDbEntity
  8
01
100
AcDbLine
 10
4599.709246018835
 20
822.6851556818137
 30
0.0000000001126251
 11
4598.967262329874
 21
822.6851556818137
 31
0.0000000001126251
  0
ARC
  5
FA9D
330
18
100
AcDbEntity
  8
01
100
AcDbCircle
 10
4594.835846018835
 20
826.1851556818137
 30
0.0000000001126251
 40
6.0
100
AcDbArc
 50
324.3146699999944
 51
35.68533471265081
  0
LINE
  5
FA9E
330
18
100
AcDbEntity
  8
1CENTER
100
AcDbLine
 10
4742.667153990131
 20
820.1851549608755
 30
0.0000000000563712
 11
4742.667153990131
 21
832.1851549608755
 31
0.0000000000563712
  0
LINE
  5
FA9F
330
18
100
AcDbEntity
  8
1CENTER
100
AcDbLine
 10
4736.667153990131
 20
826.1851549608755
 30
0.0000000000563712
 11
4748.667153990131
 21
826.1851549608755
 31
0.0000000000563712
  0
LINE
  5
FAA0
330
18
100
AcDbEntity
  8
01
100
AcDbLine
 10
4723.167153990133
 20
851.6851551650034
 30
0.0000000000563712
 11
4762.167153990132
 21
851.6851551650032
 31
0.0000000000563712
  0
ARC
  5
FAA1
330
18
100
AcDbEntity
  8
01
100
AcDbCircle
 10
4762.167153990132
 20
851.1851551650032
 30
0.0000000000563712
 40
0.5
100
AcDbArc
 50
0.0
 51
90.0
  0
LINE
  5
FAA2
330
18
100
AcDbEntity
  8
01
100
AcDbLine
 10
4723.167153990132
 20
811.6851551650034
 30
0.0000000000563712
 11
4762.167153990132
 21
811.6851551650029
 31
0.0000000000563712
  0
ARC
  5
FAA3
330
18
100
AcDbEntity
  8
01
100
AcDbCircle
 10
4723.167153990132
 20
812.1851551650034
 30
0.0000000000563712
 40
0.5
100
AcDbArc
 50
180.0
 51
270.0
  0
LINE
  5
FAA4
330
18
100
AcDbEntity
  8
01
100
AcDbLine
 10
4722.667153990132
 20
812.1851551650034
 30
0.0000000000563712
 11
4722.667153990133
 21
851.1851551650034
 31
0.0000000000563712
  0
ARC
  5
FAA5
330
18
100
AcDbEntity
  8
01
100
AcDbCircle
 10
4723.167153990133
 20
851.1851551650034
 30
0.0000000000563712
 40
0.5
100
AcDbArc
 50
90.0
 51
180.0
  0
LINE
  5
FAA6
330
18
100
AcDbEntity
  8
01
100
AcDbLine
 10
4762.667153990132
 20
812.1851551650029
 30
0.0000000000563712
 11
4762.667153990132
 21
851.1851551650032
 31
0.0000000000563712
  0
ARC
  5
FAA7
330
18
100
AcDbEntity
  8
01
100
AcDbCircle
 10
4762.167153990132
 20
812.1851551650029
 30
0.0000000000563712
 40
0.5
100
AcDbArc
 50
270.0
 51
0.0
  0
CIRCLE
  5
FAA8
330
18
100
AcDbEntity
  8
01
100
AcDbCircle
 10
4742.66715431259
 20
826.1851553691313
 30
0.0000000000563712
 40
3.75
  0
CIRCLE
  5
FAA9
330
18
100
AcDbEntity
  8
01
100
AcDbCircle
 10
4742.66715431259
 20
826.1851551650034
 30
0.0000000000563712
 40
3.5000005
  0
LINE
  5
FAAA
330
18
100
AcDbEntity
  8
01
100
AcDbLine
 10
4743.66715431259
 20
822.8310523650034
 30
0.0000000000563712
 11
4743.66715431259
 21
829.5392591650034
 31
0.0000000000563712
  0
LINE
  5
FAAB
330
18
100
AcDbEntity
  8
01
100
AcDbLine
 10
4741.66715431259
 20
822.8310523650034
 30
0.0000000000563712
 11
4741.66715431259
 21
829.5392591650034
 31
0.0000000000563712
  0
LINE
  5
FAAC
330
18
100
AcDbEntity
  8
01
100
AcDbLine
 10
4720.167153990131
 20
831.6851543608755
 30
0.0000000000563712
 11
4765.167153990131
 21
831.6851543608755
 31
0.0000000000563712
  0
LINE
  5
FAAD
330
18
100
AcDbEntity
  8
01
100
AcDbLine
 10
4742.667153990131
 20
854.1851543608755
 30
0.0000000000563712
 11
4742.667153990131
 21
809.1851543608755
 31
0.0000000000563712
  0
LINE
  5
FE61
330
18
100
AcDbEntity
  8
01
100
AcDbLine
 10
4686.667145990128
 20
854.185154360875
 30
0.0000000000563712
 11
4700.667145990128
 21
854.185154360875
 31
0.0000000000563712
  0
LINE
  5
FE62
330
18
100
AcDbEntity
  8
01
100
AcDbLine
 10
4691.668030172188
 20
1066.185154359846
 30
0.0000000000563712
 11
4845.422410327221
 21
1066.185154359846
 31
0.0000000000563712
  0
LINE
  5
FE63
330
18
100
AcDbEntity
  8
01
  6
BYBLOCK
100
AcDbLine
 10
4691.668030172188
 20
1066.185154359846
 30
0.0000000000563712
 11
4691.668030172188
 21
1026.185154359846
 31
0.0000000000563712
  0
LINE
  5
FE67
330
18
100
AcDbEntity
  8
01
100
AcDbLine
 10
4742.667262329873
 20
1061.185154358818
 30
0.0000000000563712
 11
4742.667262329873
 21
1092.103234548067
 31
0.0000000000563712
  0
LINE
  5
FE68
330
18
100
AcDbEntity
  8
01
  6
BYBLOCK
100
AcDbLine
 10
4693.167145990128
 20
862.0851543608751
 30
0.0000000000563712
 11
4693.167145990128
 21
732.2851543608751
 31
0.0000000000563712
  0
LINE
  5
FE69
330
18
100
AcDbEntity
  8
01
  6
BYBLOCK
100
AcDbLine
 10
4693.167145990128
 20
733.185154360875
 30
0.0000000000563712
 11
4695.667145990128
 21
733.185154360875
 31
0.0000000000563712
  0
LINE
  5
FE6A
330
18
100
AcDbEntity
  8
01
  6
BYBLOCK
100
AcDbLine
 10
4695.667145990128
 20
733.185154360875
 30
0.0000000000563712
 11
4695.667145990128
 21
749.6880980860274
 31
0.0000000000563712
  0
LINE
  5
FE6B
330
18
100
AcDbEntity
  8
01
  6
BYBLOCK
100
AcDbLine
 10
4691.667145990128
 20
862.0851543608751
 30
0.0000000000563712
 11
4691.667145990128
 21
732.2851543608751
 31
0.0000000000563712
  0
LINE
  5
FE6C
330
18
100
AcDbEntity
  8
01
  6
BYBLOCK
100
AcDbLine
 10
4691.667145990128
 20
732.2851543608751
 30
0.0000000000563712
 11
4693.167145990128
 21
732.2851543608751
 31
0.0000000000563712
  0
LINE
  5
FE6D
330
18
100
AcDbEntity
  8
01
  6
BYBLOCK
100
AcDbLine
 10
4693.167145990128
 20
861.185154360875
 30
0.0000000000563712
 11
4695.667145990128
 21
861.185154360875
 31
0.0000000000563712
  0
LINE
  5
FE6E
330
18
100
AcDbEntity
  8
01
  6
BYBLOCK
100
AcDbLine
 10
4691.667145990128
 20
862.0851543608751
 30
0.0000000000563712
 11
4693.167145990128
 21
862.0851543608751
 31
0.0000000000563712
  0
LINE
  5
FE6F
330
18
100
AcDbEntity
  8
01
  6
BYBLOCK
100
AcDbLine
 10
4693.167145990128
 20
837.185154360875
 30
0.0000000000563712
 11
4694.367145990127
 21
837.185154360875
 31
0.0000000000563712
  0
ARC
  5
FE70
330
18
100
AcDbEntity
  8
1HIDDEN
100
AcDbCircle
 10
4759.667145990128
 20
833.185154360875
 30
0.0000000000563712
 40
1.0
100
AcDbArc
 50
0.0
 51
90.0
  0
LINE
  5
FE71
330
18
100
AcDbEntity
  8
01
  6
BYBLOCK
100
AcDbLine
 10
4694.367145990127
 20
842.8851543608753
 30
0.0000000000563712
 11
4694.367145990127
 21
751.4851543608752
 31
0.0000000000563712
  0
LINE
  5
FE72
330
18
100
AcDbEntity
  8
01
  6
BYBLOCK
100
AcDbLine
 10
4694.467145990127
 20
733.185154360875
 30
0.0000000000563712
 11
4694.467145990127
 21
749.7851543608751
 31
0.0000000000563712
  0
LINE
  5
FE73
330
18
100
AcDbEntity
  8
01
  6
BYBLOCK
100
AcDbLine
 10
4694.467145990127
 20
749.7851543608751
 30
0.0000000000563712
 11
4693.518617852704
 21
750.733682498299
 31
0.0000000000563712
  0
LINE
  5
FE74
330
18
100
AcDbEntity
  8
01
  6
BYBLOCK
100
AcDbLine
 10
4695.315674127551
 20
750.5366262234513
 30
0.0000000000563712
 11
4694.367145990127
 21
751.4851543608752
 31
0.0000000000563712
  0
ARC
  5
FE75
330
18
100
AcDbEntity
  8
01
  6
BYBLOCK
100
AcDbCircle
 10
4694.467145990127
 20
749.6880980860274
 30
0.0000000000563712
 40
1.2
100
AcDbArc
 50
0.0
 51
45.00000000005527
  0
ARC
  5
FE76
330
18
100
AcDbEntity
  8
01
  6
BYBLOCK
100
AcDbCircle
 10
4694.367145990127
 20
751.582210635723
 30
0.0000000000563712
 40
1.2
100
AcDbArc
 50
180.0
 51
225.0000000000553
  0
LINE
  5
FE77
330
18
100
AcDbEntity
  8
01
  6
BYBLOCK
100
AcDbLine
 10
4695.667145990128
 20
861.185154360875
 30
0.0000000000563712
 11
4695.667145990128
 21
844.6822106357229
 31
0.0000000000563712
  0
LINE
  5
FE78
330
18
100
AcDbEntity
  8
01
  6
BYBLOCK
100
AcDbLine
 10
4694.467145990127
 20
861.185154360875
 30
0.0000000000563712
 11
4694.467145990127
 21
844.5851543608751
 31
0.0000000000563712
  0
LINE
  5
FE79
330
18
100
AcDbEntity
  8
01
  6
BYBLOCK
100
AcDbLine
 10
4694.467145990127
 20
844.5851543608751
 30
0.0000000000563712
 11
4693.518617852704
 21
843.6366262234512
 31
0.0000000000563712
  0
LINE
  5
FE7A
330
18
100
AcDbEntity
  8
01
  6
BYBLOCK
100
AcDbLine
 10
4695.315674127551
 20
843.8336824982989
 30
0.0000000000563712
 11
4694.367145990127
 21
842.885154360875
 31
0.0000000000563712
  0
ARC
  5
FE7B
330
18
100
AcDbEntity
  8
01
  6
BYBLOCK
100
AcDbCircle
 10
4694.467145990127
 20
844.6822106357229
 30
0.0000000000563712
 40
1.2
100
AcDbArc
 50
314.9999999999447
 51
0.0
  0
ARC
  5
FE7C
330
18
100
AcDbEntity
  8
01
  6
BYBLOCK
100
AcDbCircle
 10
4694.367145990127
 20
842.7880980860273
 30
0.0000000000563712
 40
1.2
100
AcDbArc
 50
134.9999999999447
 51
180.0
  0
CIRCLE
  5
FE7D
330
18
100
AcDbEntity
  8
1HIDDEN
100
AcDbCircle
 10
4742.667145990128
 20
826.185154360875
 30
0.0000000000563712
 40
4.75
  0
LINE
  5
FE7E
330
18
100
AcDbEntity
  8
01
  6
BYBLOCK
100
AcDbLine
 10
4694.367145990127
 20
760.1851543608748
 30
0.0000000000563712
 11
4716.167145990132
 21
760.185154360875
 31
0.0000000000563712
  0
ARC
  5
FE7F
330
18
100
AcDbEntity
  8
01
  6
BYBLOCK
100
AcDbCircle
 10
4694.768030172188
 20
1049.746404902846
 30
0.0000000000563712
 40
1.6
100
AcDbArc
 50
115.944479772022
 51
180.0
  0
ARC
  5
FE80
330
18
100
AcDbEntity
  8
01
  6
BYBLOCK
100
AcDbCircle
 10
4694.768030172188
 20
1042.623903816846
 30
0.0000000000563712
 40
1.6
100
AcDbArc
 50
180.0
 51
244.055520227978
  0
ARC
  5
FE81
330
18
100
AcDbEntity
  8
01
  6
BYBLOCK
100
AcDbCircle
 10
4694.068030172188
 20
1041.346404902846
 30
0.0000000000563712
 40
1.6
100
AcDbArc
 50
0.0
 51
64.05552022797804
  0
ARC
  5
FE82
330
18
100
AcDbEntity
  8
01
  6
BYBLOCK
100
AcDbCircle
 10
4694.068030172188
 20
1051.023903816846
 30
0.0000000000563712
 40
1.6
100
AcDbArc
 50
295.944479772022
 51
0.0
  0
LINE
  5
FE83
330
18
100
AcDbEntity
  8
01
  6
BYBLOCK
100
AcDbLine
 10
4695.668030172188
 20
1051.023903816846
 30
0.0000000000563712
 11
4695.668030172188
 21
1058.385154359846
 31
0.0000000000563712
  0
LINE
  5
FE84
330
18
100
AcDbEntity
  8
01
  6
BYBLOCK
100
AcDbLine
 10
4694.768030172188
 20
1042.785154359846
 30
0.0000000000563712
 11
4694.768030172188
 21
1049.585154359846
 31
0.0000000000563712
  0
LINE
  5
FE85
330
18
100
AcDbEntity
  8
01
  6
BYBLOCK
100
AcDbLine
 10
4695.668030172188
 20
1034.185154359846
 30
0.0000000000563712
 11
4695.668030172188
 21
1041.346404902846
 31
0.0000000000563712
  0
LINE
  5
FE86
330
18
100
AcDbEntity
  8
01
  6
BYBLOCK
100
AcDbLine
 10
4694.068030172188
 20
1051.185154359846
 30
0.0000000000563712
 11
4694.068030172188
 21
1058.385154359846
 31
0.0000000000563712
  0
LINE
  5
FE87
330
18
100
AcDbEntity
  8
01
  6
BYBLOCK
100
AcDbLine
 10
4694.068030172188
 20
1041.185154359846
 30
0.0000000000563712
 11
4694.068030172188
 21
1034.085154359846
 31
0.0000000000563712
  0
ARC
  5
FE88
330
18
100
AcDbEntity
  8
01
  6
BYBLOCK
100
AcDbCircle
 10
4759.068030172188
 20
1054.085154359846
 30
0.0000000000563712
 40
1.6
100
AcDbArc
 50
0.0
 51
90.0
  0
LINE
  5
FE89
330
18
100
AcDbEntity
  8
01
  6
BYBLOCK
100
AcDbLine
 10
4693.168030172188
 20
1058.585154359846
 30
0.0000000000563712
 11
4693.168030172188
 21
1033.785154359847
 31
0.0000000000563712
  0
LINE
  5
FE8A
330
18
100
AcDbEntity
  8
01
  6
BYBLOCK
100
AcDbLine
 10
4759.068030172188
 20
1055.685154359846
 30
0.0000000000563712
 11
4695.668030172188
 21
1055.685154359846
 31
0.0000000000563712
  0
LINE
  5
FE8B
330
18
100
AcDbEntity
  8
01
  6
BYBLOCK
100
AcDbLine
 10
4759.068030172188
 20
1038.485154359846
 30
0.0000000000563712
 11
4759.068030172188
 21
1055.685154359846
 31
0.0000000000563712
  0
LINE
  5
FE8C
330
18
100
AcDbEntity
  8
01
  6
BYBLOCK
100
AcDbLine
 10
4760.668030172188
 20
1036.885154359846
 30
0.0000000000563712
 11
4760.668030172188
 21
1054.085154359846
 31
0.0000000000563712
  0
LINE
  5
FE8D
330
18
100
AcDbEntity
  8
01
  6
BYBLOCK
100
AcDbLine
 10
4693.168030172188
 20
1058.385154359846
 30
0.0000000000563712
 11
4695.668030172188
 21
1058.385154359846
 31
0.0000000000563712
  0
LINE
  5
FE8E
330
18
100
AcDbEntity
  8
01
  6
BYBLOCK
100
AcDbLine
 10
4695.668030172188
 20
1034.185154359846
 30
0.0000000000563712
 11
4694.068030172188
 21
1034.185154359846
 31
0.0000000000563712
  0
LINE
  5
FE8F
330
18
100
AcDbEntity
  8
01
  6
BYBLOCK
100
AcDbLine
 10
4694.068030172188
 20
1034.085154359846
 30
0.0000000000563712
 11
4693.168030172188
 21
1034.085154359846
 31
0.0000000000563712
  0
ARC
  5
FE90
330
18
100
AcDbEntity
  8
01
  6
BYBLOCK
100
AcDbCircle
 10
4690.368625099587
 20
1040.485154359847
 30
0.0000000000563712
 40
0.3000000000000051
100
AcDbArc
 50
232.8678058729389
 51
270.0
  0
LINE
  5
FE91
330
18
100
AcDbEntity
  8
01
  6
BYBLOCK
100
AcDbLine
 10
4691.168030172188
 20
1040.185154359847
 30
0.0000000000563712
 11
4690.368625099587
 21
1040.185154359847
 31
0.0000000000563712
  0
LINE
  5
FE92
330
18
100
AcDbEntity
  8
01
  6
BYBLOCK
100
AcDbLine
 10
4680.768030172188
 20
1049.858143226051
 30
0.0000000000563712
 11
4680.768030172188
 21
1049.687521170502
 31
0.0000000000563712
  0
ARC
  5
FE93
330
18
100
AcDbEntity
  8
01
  6
BYBLOCK
100
AcDbCircle
 10
4681.068030172188
 20
1049.687521170502
 30
0.0000000000563712
 40
0.3
100
AcDbArc
 50
180.0
 51
217.7405295629614
  0
ARC
  5
FE94
330
18
100
AcDbEntity
  8
01
  6
BYBLOCK
100
AcDbCircle
 10
4720.370330771471
 20
1080.108224114443
 30
0.0000000000563712
 40
50.00000000000002
100
AcDbArc
 50
217.7405295629665
 51
232.8678058729428
  0
LINE
  5
FE95
330
18
100
AcDbEntity
  8
01
  6
BYBLOCK
100
AcDbLine
 10
4680.568030172188
 20
1050.985154359847
 30
0.0000000000563712
 11
4680.568030172188
 21
1051.685154359846
 31
0.0000000000563712
  0
ARC
  5
FE96
330
18
100
AcDbEntity
  8
01
  6
BYBLOCK
100
AcDbCircle
 10
4681.068030172188
 20
1051.685154359846
 30
0.0000000000563712
 40
0.5000000000000142
100
AcDbArc
 50
90.0
 51
180.0
  0
LINE
  5
FE97
330
18
100
AcDbEntity
  8
01
  6
BYBLOCK
100
AcDbLine
 10
4691.168030172188
 20
1052.185154359846
 30
0.0000000000563712
 11
4681.068030172188
 21
1052.185154359846
 31
0.0000000000563712
  0
LINE
  5
FE98
330
18
100
AcDbEntity
  8
01
  6
BYBLOCK
100
AcDbLine
 10
4680.568030172188
 20
1050.606474703406
 30
0.0000000000563712
 11
4680.568030172188
 21
1050.985154359847
 31
0.0000000000563712
  0
SPLINE
  5
FE99
330
18
100
AcDbEntity
  8
01
  6
BYBLOCK
100
AcDbSpline
210
0.0
220
0.0
230
1.0
 70
     8
 71
     3
 72
     8
 73
     4
 74
     0
 42
0.0000000001
 43
0.0000000001
 40
0.0
 40
0.0
 40
0.0
 40
0.0
 40
1.0
 40
1.0
 40
1.0
 40
1.0
 10
4680.593762713452
 20
1050.329824273957
 30
0.0000000000563712
 10
4680.57629482734
 20
1050.422910469837
 30
0.0000000000563712
 10
4680.568030172188
 20
1050.516176480729
 30
0.0000000000563712
 10
4680.568030172188
 20
1050.606474703407
 30
0.0000000000563712
  0
ARC
  5
FE9A
330
18
100
AcDbEntity
  8
01
  6
BYBLOCK
100
AcDbCircle
 10
4682.068030172188
 20
1050.606474703406
 30
0.0000000000563712
 40
1.499999999999998
100
AcDbArc
 50
190.628112987605
 51
225.0000000000553
  0
LINE
  5
FE9B
330
18
100
AcDbEntity
  8
01
  6
BYBLOCK
100
AcDbLine
 10
4691.668030172188
 20
1053.035154359847
 30
0.0000000000563712
 11
4691.168030172188
 21
1053.035154359847
 31
0.0000000000563712
  0
LINE
  5
FE9C
330
18
100
AcDbEntity
  8
01
  6
BYBLOCK
100
AcDbLine
 10
4691.168030172188
 20
1039.335154359846
 30
0.0000000000563712
 11
4691.668030172188
 21
1039.335154359846
 31
0.0000000000563712
  0
LINE
  5
FE9D
330
18
100
AcDbEntity
  8
01
  6
BYBLOCK
100
AcDbLine
 10
4691.168030172188
 20
1039.335154359846
 30
0.0000000000563712
 11
4691.168030172188
 21
1053.035154359847
 31
0.0000000000563712
  0
LINE
  5
FE9E
330
18
100
AcDbEntity
  8
01
  6
BYBLOCK
100
AcDbLine
 10
4691.668030172188
 20
1058.585154359846
 30
0.0000000000563712
 11
4693.168030172188
 21
1058.585154359846
 31
0.0000000000563712
  0
LINE
  5
FE9F
330
18
100
AcDbEntity
  8
01
  6
BYBLOCK
100
AcDbLine
 10
4691.668030172188
 20
1033.785154359847
 30
0.0000000000563712
 11
4693.168030172188
 21
1033.785154359847
 31
0.0000000000563712
  0
LINE
  5
FEA0
330
18
100
AcDbEntity
  8
01
  6
BYBLOCK
100
AcDbLine
 10
4691.668030172188
 20
1033.785154359847
 30
0.0000000000563712
 11
4691.668030172188
 21
1058.585154359846
 31
0.0000000000563712
  0
LINE
  5
FEA1
330
18
100
AcDbEntity
  8
01
  6
BYBLOCK
100
AcDbLine
 10
4760.668030172188
 20
1038.485154359846
 30
0.0000000000563712
 11
4695.668030172188
 21
1038.485154359846
 31
0.0000000000563712
  0
LINE
  5
FEA2
330
18
100
AcDbEntity
  8
01
  6
BYBLOCK
100
AcDbLine
 10
4760.668030172188
 20
1036.885154359846
 30
0.0000000000563712
 11
4710.268030172188
 21
1036.885154359846
 31
0.0000000000563712
  0
LINE
  5
FEA3
330
18
100
AcDbEntity
  8
01
  6
BYBLOCK
100
AcDbLine
 10
4713.10528847239
 20
1036.885154359846
 30
0.0000000000563712
 11
4695.668030172188
 21
1036.885154359846
 31
0.0000000000563712
  0
LINE
  5
FEA4
330
18
100
AcDbEntity
  8
01
  6
BYBLOCK
100
AcDbLine
 10
4690.221583562781
 20
1040.331600969253
 30
0.0000000000563712
 11
4681.007370000407
 21
1049.545814531626
 31
0.0000000000563712
  0
ARC
  5
FEA5
330
18
100
AcDbEntity
  8
01
  6
BYBLOCK
100
AcDbCircle
 10
4690.575136953374
 20
1040.685154359846
 30
0.0000000000563712
 40
0.5
100
AcDbArc
 50
224.9999999999908
 51
270.0
  0
LINE
  5
FEA6
330
18
100
AcDbEntity
  8
01
  6
BYBLOCK
100
AcDbLine
 10
4691.168030172188
 20
1040.185154359846
 30
0.0000000000563712
 11
4690.575136953374
 21
1040.185154359846
 31
0.0000000000563712
  0
LINE
  5
FEA8
330
18
100
AcDbEntity
  8
01
  6
BYBLOCK
100
AcDbLine
 10
4680.667145990128
 20
807.2168246278911
 30
0.0000000000563712
 11
4680.667145990128
 21
789.1534840938853
 31
0.0000000000563712
  0
LINE
  5
FEA9
330
18
100
AcDbEntity
  8
01
  6
BYBLOCK
100
AcDbLine
 10
4684.960039208941
 20
808.1851543608882
 30
0.0000000000563712
 11
4691.667145990128
 21
808.1851543608882
 31
0.0000000000563712
  0
LINE
  5
FEAA
330
18
100
AcDbEntity
  8
01
  6
BYBLOCK
100
AcDbLine
 10
4684.960039208941
 20
788.1851543608882
 30
0.0000000000563712
 11
4691.667145990128
 21
788.1851543608882
 31
0.0000000000563712
  0
LINE
  5
FEAB
330
18
100
AcDbEntity
  8
01
  6
BYBLOCK
100
AcDbLine
 10
4690.460039208941
 20
803.4351543608882
 30
0.0000000000563712
 11
4690.460039208941
 21
792.9351543608882
 31
0.0000000000563712
  0
ARC
  5
FEAC
330
18
100
AcDbEntity
  8
01
  6
BYBLOCK
100
AcDbCircle
 10
4684.960039208941
 20
798.1851543608882
 30
0.0000000000563712
 40
10.00000000000009
100
AcDbArc
 50
53.13010235413383
 51
115.4224671781395
  0
ARC
  5
FEAD
330
18
100
AcDbEntity
  8
01
  6
BYBLOCK
100
AcDbCircle
 10
4684.960039208941
 20
798.1851543608884
 30
0.0000000000563712
 40
10.00000000000009
100
AcDbArc
 50
244.5775328218606
 51
306.8698976458662
  0
LINE
  5
FEAE
330
18
100
AcDbEntity
  8
01
  6
BYBLOCK
100
AcDbLine
 10
4690.960039208941
 20
806.1851543608882
 30
0.0000000000563712
 11
4690.960039208941
 21
790.1851543608882
 31
0.0000000000563712
  0
LINE
  5
FEAF
330
18
100
AcDbEntity
  8
01
  6
BYBLOCK
100
AcDbLine
 10
4680.667145990128
 20
803.4351543608882
 30
0.0000000000563712
 11
4690.460039208941
 21
803.4351543608882
 31
0.0000000000563712
  0
LINE
  5
FEB0
330
18
100
AcDbEntity
  8
01
  6
BYBLOCK
100
AcDbLine
 10
4680.667145990128
 20
792.9351543608882
 30
0.0000000000563712
 11
4690.460039208941
 21
792.9351543608882
 31
0.0000000000563712
  0
LINE
  5
FEB1
330
18
100
AcDbEntity
  8
01
  6
BYBLOCK
100
AcDbLine
 10
4566.267262329873
 20
862.0851543608744
 30
0.0000000000563712
 11
4579.067262329872
 21
862.0851543608744
 31
0.0000000000563712
  0
LINE
  5
FEB2
330
18
100
AcDbEntity
  8
01
  6
BYBLOCK
100
AcDbLine
 10
4566.267262329873
 20
732.2851543608745
 30
0.0000000000563712
 11
4579.067262329872
 21
732.2851543608745
 31
0.0000000000563712
  0
LINE
  5
FEB3
330
18
100
AcDbEntity
  8
01
  6
BYBLOCK
100
AcDbLine
 10
4560.267262329873
 20
856.0851543608744
 30
0.0000000000563712
 11
4560.267262329873
 21
738.2851543608745
 31
0.0000000000563712
  0
LINE
  5
FEB4
330
18
100
AcDbEntity
  8
01
  6
BYBLOCK
100
AcDbLine
 10
4585.067262329872
 20
856.0851543608744
 30
0.0000000000563712
 11
4585.067262329872
 21
738.2851543608745
 31
0.0000000000563712
  0
ARC
  5
FEB5
330
18
100
AcDbEntity
  8
01
  6
BYBLOCK
100
AcDbCircle
 10
4566.267262329873
 20
738.2851543608745
 30
0.0000000000563712
 40
6.0
100
AcDbArc
 50
180.0
 51
270.0
  0
ARC
  5
FEB6
330
18
100
AcDbEntity
  8
01
  6
BYBLOCK
100
AcDbCircle
 10
4579.067262329872
 20
738.2851543608745
 30
0.0000000000563712
 40
6.0
100
AcDbArc
 50
270.0
 51
0.0
  0
ARC
  5
FEB7
330
18
100
AcDbEntity
  8
01
  6
BYBLOCK
100
AcDbCircle
 10
4566.267262329873
 20
856.0851543608744
 30
0.0000000000563712
 40
6.0
100
AcDbArc
 50
90.0
 51
180.0
  0
ARC
  5
FEB8
330
18
100
AcDbEntity
  8
01
  6
BYBLOCK
100
AcDbCircle
 10
4579.067262329872
 20
856.0851543608744
 30
0.0000000000563712
 40
6.0
100
AcDbArc
 50
0.0
 51
90.0
  0
CIRCLE
  5
FEB9
330
18
100
AcDbEntity
  8
01
  6
BYBLOCK
100
AcDbCircle
 10
4572.667262329873
 20
740.1851543608745
 30
0.0000000000563712
 40
2.75
  0
CIRCLE
  5
FEBA
330
18
100
AcDbEntity
  8
01
  6
BYBLOCK
100
AcDbCircle
 10
4572.667262329873
 20
740.1851543608745
 30
0.0000000000563712
 40
4.25
  0
CIRCLE
  5
FEBB
330
18
100
AcDbEntity
  8
01
  6
BYBLOCK
100
AcDbCircle
 10
4572.667262329873
 20
854.1851543608743
 30
0.0000000000563712
 40
2.75
  0
CIRCLE
  5
FEBC
330
18
100
AcDbEntity
  8
01
  6
BYBLOCK
100
AcDbCircle
 10
4572.667262329873
 20
854.1851543608743
 30
0.0000000000563712
 40
4.25
  0
LINE
  5
FEBD
330
18
100
AcDbEntity
  8
1CENTER
100
AcDbLine
 10
4578.542287737779
 20
740.1851543608743
 30
0.0000000000563712
 11
4566.792236921967
 21
740.1851543608743
 31
0.0000000000563712
  0
LINE
  5
FEBE
330
18
100
AcDbEntity
  8
1CENTER
100
AcDbLine
 10
4572.667262329873
 20
746.0601797687807
 30
0.0000000000563712
 11
4572.667262329873
 21
734.3101289529682
 31
0.0000000000563712
  0
LINE
  5
FEBF
330
18
100
AcDbEntity
  8
1CENTER
100
AcDbLine
 10
4578.542287737779
 20
854.1851543608743
 30
0.0000000000563712
 11
4566.792236921967
 21
854.1851543608743
 31
0.0000000000563712
  0
LINE
  5
FEC0
330
18
100
AcDbEntity
  8
1CENTER
100
AcDbLine
 10
4572.667262329873
 20
860.0601797687807
 30
0.0000000000563712
 11
4572.667262329873
 21
848.3101289529682
 31
0.0000000000563712
  0
ARC
  5
FEC1
330
18
100
AcDbEntity
  8
01
  6
BYBLOCK
100
AcDbCircle
 10
4572.667262329873
 20
798.1851543608745
 30
0.0000000000563712
 40
10.15
100
AcDbArc
 50
231.9925780701392
 51
308.0074219298607
  0
LINE
  5
FEC2
330
18
100
AcDbEntity
  8
01
  6
BYBLOCK
100
AcDbLine
 10
4566.417262329873
 20
806.1826539701274
 30
0.0000000000563712
 11
4566.417262329873
 21
790.1876547516217
 31
0.0000000000563712
  0
LINE
  5
FEC3
330
18
100
AcDbEntity
  8
01
  6
BYBLOCK
100
AcDbLine
 10
4578.917262329873
 20
806.1826539701274
 30
0.0000000000563712
 11
4578.917262329873
 21
790.1876547516217
 31
0.0000000000563712
  0
ARC
  5
FEC4
330
18
100
AcDbEntity
  8
01
  6
BYBLOCK
100
AcDbCircle
 10
4572.667262329873
 20
798.1851543608745
 30
0.0000000000563712
 40
10.15
100
AcDbArc
 50
51.99257807013929
 51
128.0074219298607
  0
LINE
  5
FEC5
330
18
100
AcDbEntity
  8
01
  6
BYBLOCK
100
AcDbLine
 10
4568.167262329873
 20
803.4351543608745
 30
0.0000000000563712
 11
4568.167262329873
 21
792.9351543608745
 31
0.0000000000563712
  0
LINE
  5
FEC6
330
18
100
AcDbEntity
  8
01
  6
BYBLOCK
100
AcDbLine
 10
4578.167262329873
 20
803.4351543608745
 30
0.0000000000563712
 11
4578.167262329873
 21
792.9351543608745
 31
0.0000000000563712
  0
LINE
  5
FEC7
330
18
100
AcDbEntity
  8
01
  6
BYBLOCK
100
AcDbLine
 10
4568.667262329873
 20
807.5137394625929
 30
0.0000000000563712
 11
4568.667262329873
 21
803.4351543608743
 31
0.0000000000563712
  0
LINE
  5
FEC8
330
18
100
AcDbEntity
  8
01
  6
BYBLOCK
100
AcDbLine
 10
4567.167262329873
 20
803.4351543608743
 30
0.0000000000563712
 11
4567.167262329873
 21
792.9351543608745
 31
0.0000000000563712
  0
LINE
  5
FEC9
330
18
100
AcDbEntity
  8
01
  6
BYBLOCK
100
AcDbLine
 10
4568.667262329873
 20
792.9351543608745
 30
0.0000000000563712
 11
4568.667262329873
 21
788.8565692591562
 31
0.0000000000563712
  0
LINE
  5
FECA
330
18
100
AcDbEntity
  8
01
  6
BYBLOCK
100
AcDbLine
 10
4567.167262329873
 20
803.4351543608745
 30
0.0000000000563712
 11
4578.167262329873
 21
803.4351543608745
 31
0.0000000000563712
  0
LINE
  5
FECB
330
18
100
AcDbEntity
  8
01
  6
BYBLOCK
100
AcDbLine
 10
4567.167262329873
 20
792.9351543608745
 30
0.0000000000563712
 11
4578.167262329873
 21
792.9351543608745
 31
0.0000000000563712
  0
LINE
  5
FECF
330
18
100
AcDbEntity
  8
01
100
AcDbLine
 10
4552.667378669616
 20
896.1851543608748
 30
0.0000000000563712
 11
4552.667378669616
 21
706.1851543608745
 31
0.0000000000563712
  0
LINE
  5
FED0
330
18
100
AcDbEntity
  8
01
100
AcDbLine
 10
4552.667378669616
 20
801.1851543608745
 30
0.0000000000563712
 11
4552.667378669616
 21
751.1851543608745
 31
0.0000000000563712
  0
LINE
  5
FED1
330
18
100
AcDbEntity
  8
01
100
AcDbLine
 10
4544.167378669616
 20
752.1851543608745
 30
0.0000000000563712
 11
4544.167378669616
 21
800.1851543608745
 31
0.0000000000563712
  0
LINE
  5
FED2
330
18
100
AcDbEntity
  8
01
100
AcDbLine
 10
4552.667378669616
 20
751.1851543608745
 30
0.0000000000563712
 11
4545.167378669616
 21
751.1851543608745
 31
0.0000000000563712
  0
ARC
  5
FED3
330
18
100
AcDbEntity
  8
01
100
AcDbCircle
 10
4545.167378669616
 20
752.1851543608745
 30
0.0000000000563712
 40
1.0
100
AcDbArc
 50
180.0
 51
270.0
  0
LINE
  5
FED4
330
18
100
AcDbEntity
  8
01
100
AcDbLine
 10
4552.667378669616
 20
801.1851543608745
 30
0.0000000000563712
 11
4545.167378669616
 21
801.1851543608745
 31
0.0000000000563712
  0
ARC
  5
FED5
330
18
100
AcDbEntity
  8
01
100
AcDbCircle
 10
4545.167378669616
 20
800.1851543608745
 30
0.0000000000563712
 40
1.0
100
AcDbArc
 50
90.0
 51
180.0
  0
LINE
  5
FED6
330
18
100
AcDbEntity
  8
01
100
AcDbLine
 10
4554.795664052048
 20
776.1851543608745
 30
0.0000000000563712
 11
4532.167378669616
 21
776.1851543608745
 31
0.0000000000563712
  0
POINT
  5
FED7
330
18
100
AcDbEntity
  8
01
100
AcDbPoint
 10
4538.167262329873
 20
776.1851543608745
 30
0.0000000000563712
 50
180.0
  0
CIRCLE
  5
FED8
330
18
100
AcDbEntity
  8
01
100
AcDbCircle
 10
4538.167262329873
 20
776.1851543608745
 30
0.0000000000563712
 40
2.5
  0
CIRCLE
  5
FED9
330
18
100
AcDbEntity
  8
01
100
AcDbCircle
 10
4538.167262329873
 20
776.1851543608745
 30
0.0000000000563712
 40
3.0
  0
LINE
  5
FEDB
330
18
100
AcDbEntity
  8
1CENTER
100
AcDbLine
 10
4538.167262329873
 20
770.1851543608745
 30
0.0000000000563712
 11
4538.167262329873
 21
782.1851543608745
 31
0.0000000000563712
  0
LINE
  5
FEDC
330
18
100
AcDbEntity
  8
01
100
AcDbLine
 10
4686.667145990416
 20
740.1851543611638
 30
0.0000000000563712
 11
4700.667145990416
 21
740.1851543611638
 31
0.0000000000563712
  0
LINE
  5
FEDD
330
18
100
AcDbEntity
  8
01
100
AcDbLine
 10
4753.979034257669
 20
826.185154360875
 30
0.0000000000563712
 11
4731.355257722586
 21
826.185154360875
 31
0.0000000000563712
  0
LINE
  5
FEDE
330
18
100
AcDbEntity
  8
01
100
AcDbLine
 10
4742.667145990128
 20
837.4970426284167
 30
0.0000000000563712
 11
4742.667145990128
 21
814.8732660933333
 31
0.0000000000563712
  0
LINE
  5
FEDF
330
18
100
AcDbEntity
  8
01
  6
BYBLOCK
100
AcDbLine
 10
4464.667378669617
 20
807.2168246278911
 30
0.0000000000563712
 11
4464.667378669617
 21
789.1534840938853
 31
0.0000000000563712
  0
LINE
  5
FEE0
330
18
100
AcDbEntity
  8
01
  6
BYBLOCK
100
AcDbLine
 10
4460.374485450804
 20
808.1851543608882
 30
0.0000000000563712
 11
4453.667378669617
 21
808.1851543608882
 31
0.0000000000563712
  0
LINE
  5
FEE1
330
18
100
AcDbEntity
  8
01
  6
BYBLOCK
100
AcDbLine
 10
4460.374485450804
 20
788.1851543608882
 30
0.0000000000563712
 11
4453.667378669617
 21
788.1851543608882
 31
0.0000000000563712
  0
ARC
  5
FEE2
330
18
100
AcDbEntity
  8
01
  6
BYBLOCK
100
AcDbCircle
 10
4460.374485450804
 20
798.1851543608882
 30
0.0000000000563712
 40
10.00000000000009
100
AcDbArc
 50
64.57753282186054
 51
90.0
  0
LINE
  5
FEE3
330
18
100
AcDbEntity
  8
01
  6
CONTINUOUS
100
AcDbLine
 10
4464.167378669617
 20
789.8703601680575
 30
0.0000000000563712
 11
4453.667378669617
 21
789.8703601680575
 31
0.0000000000563712
  0
ARC
  5
FEE4
330
18
100
AcDbEntity
  8
01
  6
CONTINUOUS
100
AcDbCircle
 10
4464.205958916531
 20
790.3324993988642
 30
0.0000000000563712
 40
0.4637468103423796
100
AcDbArc
 50
265.2279066161988
 51
354.2577450626268
  0
LINE
  5
FEE5
330
18
100
AcDbEntity
  8
01
  6
CONTINUOUS
100
AcDbLine
 10
4464.667378669617
 20
805.6684691344362
 30
0.0000000000563712
 11
4464.667378669617
 21
790.7018395873404
 31
0.0000000000563712
  0
ARC
  5
FEE6
330
18
100
AcDbEntity
  8
01
  6
CONTINUOUS
100
AcDbCircle
 10
4464.205958916531
 20
806.0378093229126
 30
0.0000000000563712
 40
0.4637468103423387
100
AcDbArc
 50
5.742254937373203
 51
94.77209338380122
  0
ARC
  5
FEE7
330
18
100
AcDbEntity
  8
01
  6
BYBLOCK
100
AcDbCircle
 10
4460.374485450804
 20
798.1851543608884
 30
0.0000000000563712
 40
10.00000000000009
100
AcDbArc
 50
270.0
 51
295.4224671781395
  0
LINE
  5
FEE8
330
18
100
AcDbEntity
  8
01
  6
CONTINUOUS
100
AcDbLine
 10
4453.667378669617
 20
806.4999485537194
 30
0.0000000000563712
 11
4464.167378669617
 21
806.4999485537194
 31
0.0000000000563712
  0
LINE
  5
FEE9
330
18
100
AcDbEntity
  8
01
100
AcDbLine
 10
4760.667145990128
 20
802.6851543608732
 30
0.0000000000563712
 11
4760.667145990128
 21
761.185154360875
 31
0.0000000000563712
  0
ARC
  5
FEEA
330
18
100
AcDbEntity
  8
01
100
AcDbCircle
 10
4759.667145990128
 20
761.185154360875
 30
0.0000000000563712
 40
1.0
100
AcDbArc
 50
270.0
 51
0.0
  0
LINE
  5
FEEB
330
18
100
AcDbEntity
  8
01
100
AcDbLine
 10
4716.167145990132
 20
760.185154360875
 30
0.0000000000563712
 11
4759.667145990128
 21
760.1851543608752
 31
0.0000000000563712
  0
LINE
  5
FEEC
330
18
100
AcDbEntity
  8
01
100
AcDbLine
 10
4432.667378669617
 20
776.185154360875
 30
0.0000000000563712
 11
4372.667378669617
 21
776.185154360875
 31
0.0000000000563712
  0
LINE
  5
FEED
330
18
100
AcDbEntity
  8
01
100
AcDbLine
 10
4402.667378669617
 20
806.185154360875
 30
0.0000000000563712
 11
4402.667378669617
 21
746.185154360875
 31
0.0000000000563712
  0
LINE
  5
FEEE
330
18
100
AcDbEntity
  8
01
100
AcDbLine
 10
4716.167262329875
 20
1066.185154359846
 30
0.0000000000563712
 11
4769.167262329871
 21
1066.185154359846
 31
0.0000000000563712
  0
LINE
  5
FEEF
330
18
100
AcDbEntity
  8
01
100
AcDbLine
 10
4716.667262329875
 20
1074.685154359846
 30
0.0000000000563712
 11
4740.16727429473
 21
1074.685154359846
 31
0.0000000000563712
  0
LINE
  5
FEF0
330
18
100
AcDbEntity
  8
01
100
AcDbLine
 10
4745.167274294732
 20
1074.685154359846
 30
0.0000000000563712
 11
4768.667262329871
 21
1074.685154359846
 31
0.0000000000563712
  0
LINE
  5
FEF1
330
18
100
AcDbEntity
  8
01
100
AcDbLine
 10
4769.167262329871
 20
1066.185154359846
 30
0.0000000000563712
 11
4769.167262329871
 21
1074.185154359846
 31
0.0000000000563712
  0
LINE
  5
FEF2
330
18
100
AcDbEntity
  8
01
100
AcDbLine
 10
4716.167262329875
 20
1066.185154359846
 30
0.0000000000563712
 11
4716.167262329875
 21
1074.185154359846
 31
0.0000000000563712
  0
ARC
  5
FEF3
330
18
100
AcDbEntity
  8
01
100
AcDbCircle
 10
4716.667262329875
 20
1074.185154359846
 30
0.0000000000563712
 40
0.5
100
AcDbArc
 50
90.0
 51
180.0
  0
ARC
  5
FEF4
330
18
100
AcDbEntity
  8
01
100
AcDbCircle
 10
4768.667262329871
 20
1074.185154359846
 30
0.0000000000563712
 40
0.5
100
AcDbArc
 50
0.0
 51
90.0
  0
LINE
  5
FEF5
330
18
100
AcDbEntity
  8
1HIDDEN
100
AcDbLine
 10
4760.667145990128
 20
833.185154360875
 30
0.0000000000563712
 11
4760.667145990128
 21
811.6851545650022
 31
0.0000000000563712
  0
LINE
  5
FEF6
330
18
100
AcDbEntity
  8
01
  6
BYBLOCK
100
AcDbLine
 10
4694.367145990127
 20
834.185154360875
 30
0.0000000000563712
 11
4722.66714599013
 21
834.185154360875
 31
0.0000000000563712
  0
LINE
  5
FEF7
330
18
100
AcDbEntity
  8
1HIDDEN
100
AcDbLine
 10
4722.66714599013
 20
834.185154360875
 30
0.0000000000563712
 11
4759.667145990128
 21
834.185154360875
 31
0.0000000000563712
  0
LINE
  5
FEF8
330
18
100
AcDbEntity
  8
01
  6
BYBLOCK
100
AcDbLine
 10
4760.66714599013
 20
811.6851545650022
 30
0.0000000000563712
 11
4760.66714599013
 21
802.6851543608732
 31
0.0000000000563712
  0
LINE
  5
FEF9
330
18
100
AcDbEntity
  8
01
100
AcDbLine
 10
4458.667378669617
 20
854.185154360875
 30
0.0000000000563712
 11
4444.667378669617
 21
854.185154360875
 31
0.0000000000563712
  0
LINE
  5
FEFA
330
18
100
AcDbEntity
  8
01
  6
BYBLOCK
100
AcDbLine
 10
4452.167378669617
 20
862.0851543608751
 30
0.0000000000563712
 11
4452.167378669617
 21
732.2851543608751
 31
0.0000000000563712
  0
LINE
  5
FEFB
330
18
100
AcDbEntity
  8
01
  6
BYBLOCK
100
AcDbLine
 10
4452.167378669617
 20
733.185154360875
 30
0.0000000000563712
 11
4449.667378669617
 21
733.185154360875
 31
0.0000000000563712
  0
LINE
  5
FEFC
330
18
100
AcDbEntity
  8
01
  6
BYBLOCK
100
AcDbLine
 10
4449.667378669617
 20
733.185154360875
 30
0.0000000000563712
 11
4449.667378669617
 21
749.6880980860274
 31
0.0000000000563712
  0
LINE
  5
FEFD
330
18
100
AcDbEntity
  8
01
  6
BYBLOCK
100
AcDbLine
 10
4453.667378669617
 20
862.0851543608751
 30
0.0000000000563712
 11
4453.667378669617
 21
732.2851543608751
 31
0.0000000000563712
  0
LINE
  5
FEFE
330
18
100
AcDbEntity
  8
01
  6
BYBLOCK
100
AcDbLine
 10
4453.667378669617
 20
732.2851543608751
 30
0.0000000000563712
 11
4452.167378669617
 21
732.2851543608751
 31
0.0000000000563712
  0
LINE
  5
FEFF
330
18
100
AcDbEntity
  8
01
  6
BYBLOCK
100
AcDbLine
 10
4452.167378669617
 20
861.185154360875
 30
0.0000000000563712
 11
4449.667378669617
 21
861.185154360875
 31
0.0000000000563712
  0
LINE
  5
FF00
330
18
100
AcDbEntity
  8
01
  6
BYBLOCK
100
AcDbLine
 10
4453.667378669617
 20
862.0851543608751
 30
0.0000000000563712
 11
4452.167378669617
 21
862.0851543608751
 31
0.0000000000563712
  0
LINE
  5
FF01
330
18
100
AcDbEntity
  8
01
  6
BYBLOCK
100
AcDbLine
 10
4452.167378669617
 20
837.185154360875
 30
0.0000000000563712
 11
4450.967378669617
 21
837.185154360875
 31
0.0000000000563712
  0
LINE
  5
FF02
330
18
100
AcDbEntity
  8
01
  6
BYBLOCK
100
AcDbLine
 10
4450.967378669617
 20
842.8851543608753
 30
0.0000000000563712
 11
4450.967378669617
 21
751.4851543608752
 31
0.0000000000563712
  0
LINE
  5
FF03
330
18
100
AcDbEntity
  8
01
  6
BYBLOCK
100
AcDbLine
 10
4450.867378669616
 20
733.185154360875
 30
0.0000000000563712
 11
4450.867378669616
 21
749.7851543608751
 31
0.0000000000563712
  0
LINE
  5
FF04
330
18
100
AcDbEntity
  8
01
  6
BYBLOCK
100
AcDbLine
 10
4450.867378669616
 20
749.7851543608751
 30
0.0000000000563712
 11
4451.815906807042
 21
750.733682498299
 31
0.0000000000563712
  0
LINE
  5
FF05
330
18
100
AcDbEntity
  8
01
  6
BYBLOCK
100
AcDbLine
 10
4450.018850532193
 20
750.5366262234513
 30
0.0000000000563712
 11
4450.967378669617
 21
751.4851543608752
 31
0.0000000000563712
  0
ARC
  5
FF06
330
18
100
AcDbEntity
  8
01
  6
BYBLOCK
100
AcDbCircle
 10
4450.867378669616
 20
749.6880980860274
 30
0.0000000000563712
 40
1.2
100
AcDbArc
 50
134.9999999999447
 51
180.0
  0
ARC
  5
FF07
330
18
100
AcDbEntity
  8
01
  6
BYBLOCK
100
AcDbCircle
 10
4450.967378669617
 20
751.582210635723
 30
0.0000000000563712
 40
1.2
100
AcDbArc
 50
314.9999999999447
 51
0.0
  0
LINE
  5
FF08
330
18
100
AcDbEntity
  8
01
  6
BYBLOCK
100
AcDbLine
 10
4449.667378669617
 20
861.185154360875
 30
0.0000000000563712
 11
4449.667378669617
 21
844.6822106357229
 31
0.0000000000563712
  0
LINE
  5
FF09
330
18
100
AcDbEntity
  8
01
  6
BYBLOCK
100
AcDbLine
 10
4450.867378669616
 20
861.185154360875
 30
0.0000000000563712
 11
4450.867378669616
 21
844.5851543608751
 31
0.0000000000563712
  0
LINE
  5
FF0A
330
18
100
AcDbEntity
  8
01
  6
BYBLOCK
100
AcDbLine
 10
4450.867378669616
 20
844.5851543608751
 30
0.0000000000563712
 11
4451.815906807042
 21
843.6366262234512
 31
0.0000000000563712
  0
LINE
  5
FF0B
330
18
100
AcDbEntity
  8
01
  6
BYBLOCK
100
AcDbLine
 10
4450.018850532193
 20
843.8336824982989
 30
0.0000000000563712
 11
4450.967378669617
 21
842.885154360875
 31
0.0000000000563712
  0
ARC
  5
FF0C
330
18
100
AcDbEntity
  8
01
  6
BYBLOCK
100
AcDbCircle
 10
4450.867378669616
 20
844.6822106357229
 30
0.0000000000563712
 40
1.2
100
AcDbArc
 50
180.0
 51
225.0000000000553
  0
ARC
  5
FF0D
330
18
100
AcDbEntity
  8
01
  6
BYBLOCK
100
AcDbCircle
 10
4450.967378669617
 20
842.7880980860273
 30
0.0000000000563712
 40
1.2
100
AcDbArc
 50
0.0
 51
45.00000000005527
  0
LINE
  5
FF0E
330
18
100
AcDbEntity
  8
01
  6
BYBLOCK
100
AcDbLine
 10
4450.967378669617
 20
760.1851543608748
 30
0.0000000000563712
 11
4429.167378669614
 21
760.185154360875
 31
0.0000000000563712
  0
LINE
  5
FF0F
330
18
100
AcDbEntity
  8
01
  6
BYBLOCK
100
AcDbLine
 10
4464.667378669617
 20
807.2168246278911
 30
0.0000000000563712
 11
4464.667378669617
 21
789.1534840938853
 31
0.0000000000563712
  0
LINE
  5
FF10
330
18
100
AcDbEntity
  8
01
  6
BYBLOCK
100
AcDbLine
 10
4460.374485450804
 20
808.1851543608882
 30
0.0000000000563712
 11
4453.667378669617
 21
808.1851543608882
 31
0.0000000000563712
  0
LINE
  5
FF11
330
18
100
AcDbEntity
  8
01
  6
BYBLOCK
100
AcDbLine
 10
4460.374485450804
 20
788.1851543608882
 30
0.0000000000563712
 11
4453.667378669617
 21
788.1851543608882
 31
0.0000000000563712
  0
LINE
  5
FF12
330
18
100
AcDbEntity
  8
01
100
AcDbLine
 10
4458.66737866933
 20
740.1851543611638
 30
0.0000000000563712
 11
4444.66737866933
 21
740.1851543611638
 31
0.0000000000563712
  0
LINE
  5
FF13
330
18
100
AcDbEntity
  8
01
  6
BYBLOCK
100
AcDbLine
 10
4450.967378669617
 20
834.185154360875
 30
0.0000000000563712
 11
4422.667378669616
 21
834.185154360875
 31
0.0000000000563712
  0
LINE
  5
FF14
330
18
100
AcDbEntity
  8
01
  6
BYBLOCK
100
AcDbLine
 10
4384.667378669614
 20
811.6851545650022
 30
0.0000000000563712
 11
4384.667378669614
 21
802.6851543608732
 31
0.0000000000563712
  0
TEXT
  5
FF15
330
18
100
AcDbEntity
  8
1TEXT
100
AcDbText
 10
4384.667278329873
 20
1057.685154360875
 30
0.0
 40
20.0
  1
2-KTT-X-LJ-2
100
AcDbText
  0
TEXT
  5
FF16
330
18
100
AcDbEntity
  8
1TEXT
100
AcDbText
 10
4396.867278329873
 20
1019.435154360875
 30
0.0
 40
6.0
  1
表面処理
 72
     1
 11
4410.767278329873
 21
1019.435154360875
 31
0.0
100
AcDbText
  0
TEXT
  5
FF17
330
18
100
AcDbEntity
  8
1TEXT
100
AcDbText
 10
4396.567278329873
 20
1009.182221371588
 30
0.0
 40
6.0
  1
クローム
 72
     1
 11
4410.767278329873
 21
1009.182221371588
 31
0.0
100
AcDbText
  0
LINE
  5
FF18
330
18
100
AcDbEntity
  8
1DIM
100
AcDbLine
 10
4384.667278329873
 20
1027.685154360875
 30
0.0000000000563712
 11
4489.667278329873
 21
1027.685154360875
 31
0.0000000000563712
  0
LINE
  5
FF19
330
18
100
AcDbEntity
  8
1DIM
100
AcDbLine
 10
4384.667278329873
 20
1017.185154360875
 30
0.0000000000563712
 11
4489.667278329873
 21
1017.185154360875
 31
0.0000000000563712
  0
LINE
  5
FF1A
330
18
100
AcDbEntity
  8
1DIM
100
AcDbLine
 10
4384.667278329873
 20
1006.685154360875
 30
0.0000000000563712
 11
4489.667278329873
 21
1006.685154360875
 31
0.0000000000563712
  0
LINE
  5
FF1B
330
18
100
AcDbEntity
  8
1DIM
100
AcDbLine
 10
4384.667278329873
 20
1006.685154360875
 30
0.0000000000563712
 11
4489.667278329873
 21
1006.685154360875
 31
0.0000000000563712
  0
LINE
  5
FF1C
330
18
100
AcDbEntity
  8
1DIM
100
AcDbLine
 10
4437.167278329873
 20
1027.685154360875
 30
0.0000000000563712
 11
4437.167278329873
 21
1006.685154360875
 31
0.0000000000563712
  0
TEXT
  5
FF1D
330
18
100
AcDbEntity
  8
1TEXT
100
AcDbText
 10
4438.767278329873
 20
1008.613618885401
 30
0.0
 40
6.0
  1
2-KTT-C-LJ-2
 41
0.6999999999999998
 72
     1
 11
4463.267278329873
 21
1008.613618885401
 31
0.0
100
AcDbText
  0
TEXT
  5
FF1E
330
18
100
AcDbEntity
  8
1TEXT
100
AcDbText
 10
4452.967278329873
 20
1019.435154360875
 30
0.0
 40
6.0
  1
コード
 72
     1
 11
4463.267278329873
 21
1019.435154360875
 31
0.0
100
AcDbText
  0
LINE
  5
FF1F
330
18
100
AcDbEntity
  8
1DIM
100
AcDbLine
 10
4489.667278329873
 20
1006.685154360875
 30
0.0000000000563712
 11
4489.667278329873
 21
1027.685154360875
 31
0.0000000000563712
  0
LINE
  5
FF20
330
18
100
AcDbEntity
  8
1DIM
100
AcDbLine
 10
4384.667278329873
 20
1006.685154360875
 30
0.0000000000563712
 11
4489.667278329873
 21
1006.685154360875
 31
0.0000000000563712
  0
LINE
  5
FF21
330
18
100
AcDbEntity
  8
1DIM
100
AcDbLine
 10
4437.167278329873
 20
1006.685154360875
 30
0.0000000000563712
 11
4437.167278329873
 21
996.185154360875
 31
0.0000000000563712
  0
LINE
  5
FF22
330
18
100
AcDbEntity
  8
1DIM
100
AcDbLine
 10
4384.667278329873
 20
996.185154360875
 30
0.0000000000563712
 11
4489.667278329873
 21
996.185154360875
 31
0.0000000000563712
  0
TEXT
  5
FF23
330
18
100
AcDbEntity
  8
1TEXT
100
AcDbText
 10
4385.967278329873
 20
998.7187839435187
 30
0.0
 40
6.0
  1
サテンニッケル
 72
     1
 11
4410.767278329873
 21
998.7187839435187
 31
0.0
100
AcDbText
  0
LINE
  5
FF24
330
18
100
AcDbEntity
  8
1DIM
100
AcDbLine
 10
4384.667278329873
 20
996.185154360875
 30
0.0000000000563712
 11
4384.667278329873
 21
1006.685154360875
 31
0.0000000000563712
  0
LINE
  5
FF25
330
18
100
AcDbEntity
  8
1DIM
100
AcDbLine
 10
4489.667278329873
 20
996.185154360875
 30
0.0000000000563712
 11
4489.667278329873
 21
1006.685154360875
 31
0.0000000000563712
  0
TEXT
  5
FF26
330
18
100
AcDbEntity
  8
1TEXT
100
AcDbText
 10
4438.767278329873
 20
998.1136188854011
 30
0.0
 40
6.0
  1
2-KTT-N-LJ-2
 41
0.6999999999999998
 72
     1
 11
4463.267278329873
 21
998.1136188854011
 31
0.0
100
AcDbText
  0
LINE
  5
FF27
330
18
100
AcDbEntity
  8
1DIM
100
AcDbLine
 10
4384.667278329873
 20
1006.685154360875
 30
0.0000000000563712
 11
4384.667278329873
 21
1027.685154360875
 31
0.0000000000563712
  0
POINT
  5
FF2E
330
18
100
AcDbEntity
  8
01
100
AcDbPoint
 10
4607.167145990128
 20
776.185154360875
 30
0.0000000000563712
  0
LINE
  5
FF2F
330
18
100
AcDbEntity
  8
01
100
AcDbLine
 10
4606.767145980129
 20
774.435154360875
 30
0.0000000000563712
 11
4606.767145980129
 21
775.2851543808752
 31
0.0000000000563712
  0
LINE
  5
FF30
330
18
100
AcDbEntity
  8
01
100
AcDbLine
 10
4607.56714600013
 20
774.435154360875
 30
0.0000000000563712
 11
4607.56714600013
 21
775.2851543808752
 31
0.0000000000563712
  0
LINE
  5
FF31
330
18
100
AcDbEntity
  8
01
100
AcDbLine
 10
4606.267146010128
 20
775.7851543508746
 30
0.0000000000563712
 11
4605.417145990128
 21
775.7851543508746
 31
0.0000000000563712
  0
LINE
  5
FF32
330
18
100
AcDbEntity
  8
01
100
AcDbLine
 10
4606.267146010128
 20
776.5851543708745
 30
0.0000000000563712
 11
4605.417145990128
 21
776.5851543708745
 31
0.0000000000563712
  0
LINE
  5
FF33
330
18
100
AcDbEntity
  8
01
100
AcDbLine
 10
4605.417145990128
 20
775.7851543508746
 30
0.0000000000563712
 11
4605.417145990128
 21
776.5851543708745
 31
0.0000000000563712
  0
LINE
  5
FF34
330
18
100
AcDbEntity
  8
01
100
AcDbLine
 10
4607.56714600013
 20
774.435154360875
 30
0.0000000000563712
 11
4606.767145980129
 21
774.435154360875
 31
0.0000000000563712
  0
LINE
  5
FF35
330
18
100
AcDbEntity
  8
01
100
AcDbLine
 10
4607.56714600013
 20
777.935154360875
 30
0.0000000000563712
 11
4607.56714600013
 21
777.0851543408749
 31
0.0000000000563712
  0
LINE
  5
FF36
330
18
100
AcDbEntity
  8
01
100
AcDbLine
 10
4606.767145980129
 20
777.935154360875
 30
0.0000000000563712
 11
4606.767145980129
 21
777.0851543408749
 31
0.0000000000563712
  0
LINE
  5
FF37
330
18
100
AcDbEntity
  8
01
100
AcDbLine
 10
4608.067145970128
 20
776.5851543708745
 30
0.0000000000563712
 11
4608.917145990128
 21
776.5851543708745
 31
0.0000000000563712
  0
LINE
  5
FF38
330
18
100
AcDbEntity
  8
01
100
AcDbLine
 10
4608.067145970128
 20
775.7851543508746
 30
0.0000000000563712
 11
4608.917145990128
 21
775.7851543508746
 31
0.0000000000563712
  0
LINE
  5
FF39
330
18
100
AcDbEntity
  8
01
100
AcDbLine
 10
4608.917145990128
 20
776.5851543708745
 30
0.0000000000563712
 11
4608.917145990128
 21
775.7851543508746
 31
0.0000000000563712
  0
LINE
  5
FF3A
330
18
100
AcDbEntity
  8
01
100
AcDbLine
 10
4606.767145980129
 20
777.935154360875
 30
0.0000000000563712
 11
4607.56714600013
 21
777.935154360875
 31
0.0000000000563712
  0
CIRCLE
  5
FF3B
330
18
100
AcDbEntity
  8
01
100
AcDbCircle
 10
4607.167145990128
 20
776.185154360875
 30
0.0000000000563712
 40
2.5
  0
ARC
  5
FF3C
330
18
100
AcDbEntity
  8
01
100
AcDbCircle
 10
4608.067145970128
 20
777.0851543408749
 30
0.0000000000563712
 40
0.5
100
AcDbArc
 50
179.999989999999
 51
270.0
  0
ARC
  5
FF3D
330
18
100
AcDbEntity
  8
01
100
AcDbCircle
 10
4608.067145970128
 20
775.2851543808752
 30
0.0000000000563712
 40
0.5
100
AcDbArc
 50
90.00000299998466
 51
180.000010000001
  0
ARC
  5
FF3E
330
18
100
AcDbEntity
  8
01
100
AcDbCircle
 10
4606.267146010128
 20
775.2851543808752
 30
0.0000000000563712
 40
0.5
100
AcDbArc
 50
0.0
 51
90.00000299998466
  0
ARC
  5
FF3F
330
18
100
AcDbEntity
  8
01
100
AcDbCircle
 10
4606.267146010128
 20
777.0851543408749
 30
0.0000000000563712
 40
0.5
100
AcDbArc
 50
270.0
 51
0.0
  0
LINE
  5
FF41
330
18
100
AcDbEntity
  8
1CENTER
100
AcDbLine
 10
4607.167145990128
 20
770.185154360875
 30
0.0000000000563712
 11
4607.167145990128
 21
782.185154360875
 31
0.0000000000563712
  0
LINE
  5
FF42
330
18
100
AcDbEntity
  8
01
100
AcDbLine
 10
4590.538860607698
 20
776.185154360875
 30
0.0000000000563712
 11
4613.167145990128
 21
776.185154360875
 31
0.0000000000563712
  0
LINE
  5
FF43
330
18
100
AcDbEntity
  8
01
  6
BYBLOCK
100
AcDbLine
 10
4691.667913832445
 20
1026.183836047772
 30
0.0000000001127424
 11
4845.422293987476
 21
1026.183836047772
 31
0.0000000001127424
  0
LINE
  5
FF44
330
18
100
AcDbEntity
  8
1CENTER
100
AcDbLine
 10
4726.583471226188
 20
1011.683844081025
 30
0.0000000001127424
 11
4734.717143588035
 21
1011.683836047775
 31
0.0000000001127424
  0
LINE
  5
FF45
330
18
100
AcDbEntity
  8
01
100
AcDbLine
 10
4742.667145990128
 20
1031.183836047772
 30
0.0000000001127424
 11
4742.667145990128
 21
1004.683836047772
 31
0.0000000001127424
  0
LINE
  5
FF49
330
18
100
AcDbEntity
  8
01
100
AcDbLine
 10
4592.667145990128
 20
896.185154360875
 30
0.0000000000563712
 11
4592.667145990128
 21
706.185154360875
 31
0.0000000000563712
  0
LINE
  5
FF4A
330
18
100
AcDbEntity
  8
01
100
AcDbLine
 10
4712.667145990128
 20
776.185154360875
 30
0.0000000000563712
 11
4772.667145990128
 21
776.185154360875
 31
0.0000000000563712
  0
LINE
  5
FF4B
330
18
100
AcDbEntity
  8
01
100
AcDbLine
 10
4742.667145990128
 20
806.185154360875
 30
0.0000000000563712
 11
4742.667145990128
 21
746.185154360875
 31
0.0000000000563712
  0
LINE
  5
FF4D
330
18
100
AcDbEntity
  8
01
100
AcDbLine
 10
4768.667145990128
 20
802.6851543608732
 30
0.0000000000563712
 11
4716.667145990132
 21
802.6851543608732
 31
0.0000000000563712
  0
LINE
  5
FF4E
330
18
100
AcDbEntity
  8
01
100
AcDbLine
 10
4716.667145990132
 20
749.6851543608732
 30
0.0000000000563712
 11
4768.667145990128
 21
749.6851543608732
 31
0.0000000000563712
  0
LINE
  5
FF4F
330
18
100
AcDbEntity
  8
01
100
AcDbLine
 10
4716.167145990132
 20
802.1851543608732
 30
0.0000000000563712
 11
4716.167145990132
 21
750.1851543608732
 31
0.0000000000563712
  0
ARC
  5
FF50
330
18
100
AcDbEntity
  8
01
100
AcDbCircle
 10
4716.667145990132
 20
750.1851543608732
 30
0.0000000000563712
 40
0.5
100
AcDbArc
 50
180.0
 51
270.0
  0
ARC
  5
FF51
330
18
100
AcDbEntity
  8
01
100
AcDbCircle
 10
4716.667145990132
 20
802.1851543608732
 30
0.0000000000563712
 40
0.5
100
AcDbArc
 50
90.0
 51
180.0
  0
LINE
  5
FF52
330
18
100
AcDbEntity
  8
01
100
AcDbLine
 10
4769.167145990128
 20
802.1851543608732
 30
0.0000000000563712
 11
4769.167145990128
 21
783.9165823737039
 31
0.0000000000563712
  0
LINE
  5
FF53
330
18
100
AcDbEntity
  8
01
100
AcDbLine
 10
4769.167145990128
 20
768.4537263480045
 30
0.0000000000563712
 11
4769.167145990128
 21
750.1851543608732
 31
0.0000000000563712
  0
ARC
  5
FF54
330
18
100
AcDbEntity
  8
01
100
AcDbCircle
 10
4768.667145990128
 20
750.1851543608732
 30
0.0000000000563712
 40
0.5
100
AcDbArc
 50
270.0
 51
0.0
  0
ARC
  5
FF55
330
18
100
AcDbEntity
  8
01
100
AcDbCircle
 10
4768.667145990128
 20
802.1851543608732
 30
0.0000000000563712
 40
0.5
100
AcDbArc
 50
0.0
 51
90.0
  0
LINE
  5
FF56
330
18
100
AcDbEntity
  8
01
100
AcDbLine
 10
4716.167145990132
 20
1026.183836047772
 30
0.0000000001127424
 11
4769.167145990128
 21
1026.183836047772
 31
0.0000000001127424
  0
LINE
  5
FF57
330
18
100
AcDbEntity
  8
01
100
AcDbLine
 10
4716.667145990132
 20
1017.683836047772
 30
0.0000000001127424
 11
4768.667145990128
 21
1017.683836047772
 31
0.0000000001127424
  0
LINE
  5
FF58
330
18
100
AcDbEntity
  8
01
100
AcDbLine
 10
4769.167145990128
 20
1026.183836047772
 30
0.0000000001127424
 11
4769.167145990128
 21
1018.183836047772
 31
0.0000000001127424
  0
LINE
  5
FF59
330
18
100
AcDbEntity
  8
01
100
AcDbLine
 10
4716.167145990132
 20
1026.183836047772
 30
0.0000000001127424
 11
4716.167145990132
 21
1018.183836047772
 31
0.0000000001127424
  0
ARC
  5
FF5A
330
18
100
AcDbEntity
  8
01
100
AcDbCircle
 10
4716.667145990132
 20
1018.183836047772
 30
0.0000000001127424
 40
0.5
100
AcDbArc
 50
180.0
 51
270.0
  0
ARC
  5
FF5B
330
18
100
AcDbEntity
  8
01
100
AcDbCircle
 10
4768.667145990128
 20
1018.183836047772
 30
0.0000000001127424
 40
0.5
100
AcDbArc
 50
270.0
 51
0.0
  0
LINE
  5
FF5C
330
18
100
AcDbEntity
  8
01
100
AcDbLine
 10
4592.667145990128
 20
749.6851543608759
 30
0.0000000000563712
 11
4592.667145990128
 21
802.6851543608732
 31
0.0000000000563712
  0
LINE
  5
FF5D
330
18
100
AcDbEntity
  8
01
100
AcDbLine
 10
4601.167145990128
 20
750.1851543608759
 30
0.0000000000563712
 11
4601.167145990128
 21
802.1851543608732
 31
0.0000000000563712
  0
LINE
  5
FF5E
330
18
100
AcDbEntity
  8
01
100
AcDbLine
 10
4592.667145990128
 20
802.6851543608732
 30
0.0000000000563712
 11
4600.667145990128
 21
802.6851543608732
 31
0.0000000000563712
  0
LINE
  5
FF5F
330
18
100
AcDbEntity
  8
01
100
AcDbLine
 10
4592.667145990128
 20
749.6851543608759
 30
0.0000000000563712
 11
4600.667145990128
 21
749.6851543608759
 31
0.0000000000563712
  0
ARC
  5
FF60
330
18
100
AcDbEntity
  8
01
100
AcDbCircle
 10
4600.667145990128
 20
750.1851543608759
 30
0.0000000000563712
 40
0.5
100
AcDbArc
 50
270.0
 51
0.0
  0
ARC
  5
FF61
330
18
100
AcDbEntity
  8
01
100
AcDbCircle
 10
4600.667145990128
 20
802.1851543608732
 30
0.0000000000563712
 40
0.5
100
AcDbArc
 50
0.0
 51
90.0
  0
LINE
  5
FF63
330
18
100
AcDbEntity
  8
01
100
AcDbLine
 10
4732.611234268463
 20
778.2325556033406
 30
0.0000000000563712
 11
4860.750997167021
 21
778.2325556033479
 31
0.0000000000563712
  0
LINE
  5
FF64
330
18
100
AcDbEntity
  8
01
100
AcDbLine
 10
4732.663204647737
 20
774.1377531183693
 30
0.0000000000563712
 11
4860.750997167021
 21
774.1377531183693
 31
0.0000000000563712
  0
ARC
  5
FF65
330
18
100
AcDbEntity
  8
01
100
AcDbCircle
 10
4752.7019518016
 20
786.6851543608732
 30
0.0000000000563712
 40
1.5
100
AcDbArc
 50
1.257375080859653
 51
90.0
  0
ARC
  5
FF66
330
18
100
AcDbEntity
  8
01
100
AcDbCircle
 10
4274.317169434935
 20
776.1851543608586
 30
0.0000000000563712
 40
480.0
100
AcDbArc
 50
358.7426249190101
 51
359.0770888513416
  0
ARC
  5
FF67
330
18
100
AcDbEntity
  8
01
100
AcDbCircle
 10
4752.7019518016
 20
765.6851543608659
 30
0.0000000000563712
 40
1.5
100
AcDbArc
 50
270.0
 51
358.7426249191403
  0
ARC
  5
FF68
330
18
100
AcDbEntity
  8
01
100
AcDbCircle
 10
4732.632340178619
 20
765.6851543608659
 30
0.0000000000563712
 40
1.5
100
AcDbArc
 50
181.2573750808596
 51
270.0000000002606
  0
ARC
  5
FF69
330
18
100
AcDbEntity
  8
01
100
AcDbCircle
 10
4732.632340178619
 20
786.6851543608732
 30
0.0000000000563712
 40
1.5
100
AcDbArc
 50
89.99999999973944
 51
178.7426249191404
  0
ARC
  5
FF6A
330
18
100
AcDbEntity
  8
01
100
AcDbCircle
 10
5211.017122545285
 20
776.1851543608586
 30
0.0000000000563712
 40
480.0
100
AcDbArc
 50
178.7426249190101
 51
181.2573750809899
  0
LINE
  5
FF6B
330
18
100
AcDbEntity
  8
01
100
AcDbLine
 10
4860.769557675985
 20
768.4537263480174
 30
0.0000000000563712
 11
4754.254899792619
 21
768.4537263480029
 31
0.0000000000563712
  0
LINE
  5
FF6C
330
18
100
AcDbEntity
  8
01
100
AcDbLine
 10
4860.769557675985
 20
783.9165823736853
 30
0.0000000000563712
 11
4754.254899792619
 21
783.9165823737071
 31
0.0000000000563712
  0
LINE
  5
FF6D
330
18
100
AcDbEntity
  8
01
100
AcDbLine
 10
4732.632340178627
 20
788.1851543608732
 30
0.0000000000563712
 11
4752.7019518016
 21
788.1851543608659
 31
0.0000000000563712
  0
LINE
  5
FF6E
330
18
100
AcDbEntity
  8
01
100
AcDbLine
 10
4752.7019518016
 20
764.1851543608586
 30
0.0000000000563712
 11
4732.632340178627
 21
764.1851543608586
 31
0.0000000000563712
  0
ARC
  5
FF6F
330
18
100
AcDbEntity
  8
01
100
AcDbCircle
 10
4274.317169434935
 20
776.1851543608586
 30
0.0000000000563712
 40
480.0
100
AcDbArc
 50
0.9229111486583993
 51
1.257375080989897
  0
LINE
  5
FF70
330
18
100
AcDbEntity
  8
01
100
AcDbLine
 10
4731.16714599011
 20
777.1842971050951
 30
0.0000000000563712
 11
4731.16714599011
 21
775.1860116166367
 31
0.0000000000563712
  0
LINE
  5
FF71
330
18
100
AcDbEntity
  8
01
100
AcDbLine
 10
4862.217122545304
 20
777.1842971050951
 30
0.0000000000563712
 11
4862.217122545304
 21
775.1860116165494
 31
0.0000000000563712
  0
ELLIPSE
  5
FF72
330
18
100
AcDbEntity
  8
01
100
AcDbEllipse
 10
4860.750997167021
 20
777.1842971050951
 30
0.0000000000563712
 11
1.466125378283323
 21
0.0
 31
0.0
210
0.0
220
0.0
230
1.0
 40
0.7149855761178042
 41
0.0
 42
1.570796326794897
  0
ELLIPSE
  5
FF73
330
18
100
AcDbEntity
  8
01
100
AcDbEllipse
 10
4860.750997167021
 20
775.1860116165494
 30
0.0000000000563712
 11
1.466125378283323
 21
0.0
 31
0.0
210
0.0
220
0.0
230
-1.0
 40
0.7149855761178042
 41
0.0
 42
1.570796326794897
  0
ELLIPSE
  5
FF74
330
18
100
AcDbEntity
  8
01
100
AcDbEllipse
 10
4732.663204647737
 20
777.1842971050951
 30
0.0000000000563712
 11
-1.496058657627145
 21
0.0
 31
0.0
210
0.0
220
0.0
230
1.0
 40
0.7006800788868608
 41
4.71238898038469
 42
6.283185307179586
  0
ELLIPSE
  5
FF75
330
18
100
AcDbEntity
  8
01
100
AcDbEllipse
 10
4732.663204647737
 20
775.1860116166367
 30
0.0000000000563712
 11
-1.496058657627145
 21
0.0
 31
0.0
210
0.0
220
0.0
230
-1.0
 40
0.7006800788868608
 41
4.71238898038469
 42
6.283185307179586
  0
ARC
  5
FF76
330
18
100
AcDbEntity
  8
01
100
AcDbCircle
 10
4860.769557675985
 20
769.9537263480174
 30
0.0000000000563712
 40
1.5
100
AcDbArc
 50
270.0
 51
358.1734270623115
  0
ARC
  5
FF77
330
18
100
AcDbEntity
  8
01
100
AcDbCircle
 10
4860.769557675985
 20
782.4165823737144
 30
0.0000000000563712
 40
1.5
100
AcDbArc
 50
1.826572937688503
 51
90.0
  0
ARC
  5
FF78
330
18
100
AcDbEntity
  8
01
100
AcDbCircle
 10
4665.368894153775
 20
776.1851543608659
 30
0.0000000000563712
 40
197.0
100
AcDbArc
 50
358.1734270624165
 51
1.826572937583505
  0
ARC
  5
FF79
330
18
100
AcDbEntity
  8
01
100
AcDbCircle
 10
4601.667145990128
 20
932.385154361561
 30
0.0000000000563712
 40
168.2
100
AcDbArc
 50
270.0
 51
289.4527672107872
  0
ARC
  5
FF7A
330
18
100
AcDbEntity
  8
01
100
AcDbCircle
 10
4601.667145990128
 20
619.9851543615523
 30
0.0000000000563712
 40
168.2
100
AcDbArc
 50
70.54723278921273
 51
90.0
  0
LINE
  5
FF7B
330
18
100
AcDbEntity
  8
01
100
AcDbLine
 10
4601.667145990128
 20
788.1851543608727
 30
0.0000000000563712
 11
4601.667145990128
 21
764.1851543622406
 31
0.0000000000563712
  0
ARC
  5
FF7C
330
18
100
AcDbEntity
  8
01
100
AcDbCircle
 10
4657.183190764126
 20
775.2009987584906
 30
0.0000000000563712
 40
1.5
100
AcDbArc
 50
289.4527672106225
 51
359.4275238510782
  0
ARC
  5
FF7D
330
18
100
AcDbEntity
  8
01
100
AcDbCircle
 10
4657.183190764126
 20
777.16930996463
 30
0.0000000000563712
 40
1.5
100
AcDbArc
 50
0.5724761489217947
 51
70.54723278926836
  0
ARC
  5
FF7E
330
18
100
AcDbEntity
  8
01
100
AcDbCircle
 10
4558.688107446485
 20
776.185154361382
 30
0.0000000000563712
 40
100.0
100
AcDbArc
 50
359.4275238511564
 51
0.5724761490520638
  0
ARC
  5
FF7F
330
18
100
AcDbEntity
  8
01
100
AcDbCircle
 10
4860.750997167035
 20
961.6628745914077
 30
0.0000000001127424
 40
1.5
100
AcDbArc
 50
270.0
 51
358.7729938891957
  0
ARC
  5
FF80
330
18
100
AcDbEntity
  8
01
100
AcDbCircle
 10
4860.750997167021
 20
983.6831125684057
 30
0.0000000001127424
 40
1.5
100
AcDbArc
 50
1.227006111064828
 51
90.0
  0
ARC
  5
FF81
330
18
100
AcDbEntity
  8
01
100
AcDbCircle
 10
4732.663204647752
 20
961.6628745914077
 30
0.0000000001127424
 40
1.5
100
AcDbArc
 50
180.1507461495316
 51
270.0
  0
ARC
  5
FF82
330
18
100
AcDbEntity
  8
01
100
AcDbCircle
 10
4757.74219549808
 20
988.6831125684203
 30
0.0000000001127424
 40
3.5
100
AcDbArc
 50
179.8492538505465
 51
270.0
  0
LINE
  5
FF83
330
18
100
AcDbEntity
  8
01
100
AcDbLine
 10
4754.317169434949
 20
1017.183836047772
 30
0.0000000001127424
 11
4754.223845787134
 21
981.7133525259069
 31
0.0000000001127424
  0
LINE
  5
FF84
330
18
100
AcDbEntity
  8
01
100
AcDbLine
 10
4731.017122545307
 20
1017.183836047772
 30
0.0000000001127424
 11
4731.163209839438
 21
961.6589280709977
 31
0.0000000001127424
  0
ARC
  5
FF85
330
18
100
AcDbEntity
  8
01
100
AcDbCircle
 10
4346.70554548624
 20
972.6729935795393
 30
0.0000000001127424
 40
515.6633486675555
100
AcDbArc
 50
358.7729938891435
 51
1.227006110960632
  0
LINE
  5
FF86
330
18
100
AcDbEntity
  8
01
100
AcDbLine
 10
4860.750997167035
 20
960.162874591415
 30
0.0000000001127424
 11
4732.663204647752
 21
960.1628745914077
 31
0.0000000001127424
  0
LINE
  5
FF87
330
18
100
AcDbEntity
  8
01
100
AcDbLine
 10
4860.750997167021
 20
985.183112568413
 30
0.0000000001127424
 11
4757.74219549808
 21
985.1831125684203
 31
0.0000000001127424
  0
LINE
  5
FF88
330
18
100
AcDbEntity
  8
01
100
AcDbLine
 10
4754.317169434949
 20
1017.183836047772
 30
0.0000000001127424
 11
4731.017122545307
 21
1017.183836047772
 31
0.0000000001127424
  0
ARC
  5
FF8A
330
18
100
AcDbEntity
  8
01
100
AcDbCircle
 10
4543.667378669617
 20
932.385154361561
 30
0.0000000000563712
 40
168.2
100
AcDbArc
 50
250.5472327892128
 51
270.0
  0
ARC
  5
FF8B
330
18
100
AcDbEntity
  8
01
100
AcDbCircle
 10
4543.667378669617
 20
619.9851543615523
 30
0.0000000000563712
 40
168.2
100
AcDbArc
 50
90.0
 51
109.4527672107873
  0
LINE
  5
FF8C
330
18
100
AcDbEntity
  8
01
100
AcDbLine
 10
4543.667378669617
 20
788.1851543608727
 30
0.0000000000563712
 11
4543.667378669617
 21
764.1851543622406
 31
0.0000000000563712
  0
ARC
  5
FF8D
330
18
100
AcDbEntity
  8
01
100
AcDbCircle
 10
4488.151333895619
 20
775.2009987584906
 30
0.0000000000563712
 40
1.5
100
AcDbArc
 50
180.5724761489218
 51
250.5472327893775
  0
ARC
  5
FF8E
330
18
100
AcDbEntity
  8
01
100
AcDbCircle
 10
4488.151333895619
 20
777.16930996463
 30
0.0000000000563712
 40
1.5
100
AcDbArc
 50
109.4527672107316
 51
179.4275238510782
  0
ARC
  5
FF8F
330
18
100
AcDbEntity
  8
01
100
AcDbCircle
 10
4586.64641721326
 20
776.185154361382
 30
0.0000000000563712
 40
100.0
100
AcDbArc
 50
179.4275238509479
 51
180.5724761488436
  0
LINE
  5
FF90
330
18
100
AcDbEntity
  8
01
100
AcDbLine
 10
4376.667378669617
 20
802.6851543608732
 30
0.0000000000563712
 11
4428.667378669614
 21
802.6851543608732
 31
0.0000000000563712
  0
LINE
  5
FF91
330
18
100
AcDbEntity
  8
01
100
AcDbLine
 10
4428.667378669614
 20
749.6851543608732
 30
0.0000000000563712
 11
4376.667378669617
 21
749.6851543608732
 31
0.0000000000563712
  0
LINE
  5
FF92
330
18
100
AcDbEntity
  8
01
100
AcDbLine
 10
4429.167378669614
 20
802.1851543608732
 30
0.0000000000563712
 11
4429.167378669614
 21
750.1851543608732
 31
0.0000000000563712
  0
ARC
  5
FF93
330
18
100
AcDbEntity
  8
01
100
AcDbCircle
 10
4428.667378669614
 20
750.1851543608732
 30
0.0000000000563712
 40
0.5
100
AcDbArc
 50
270.0
 51
0.0
  0
ARC
  5
FF94
330
18
100
AcDbEntity
  8
01
100
AcDbCircle
 10
4428.667378669614
 20
802.1851543608732
 30
0.0000000000563712
 40
0.5
100
AcDbArc
 50
0.0
 51
90.0
  0
LINE
  5
FF95
330
18
100
AcDbEntity
  8
01
100
AcDbLine
 10
4376.167378669617
 20
802.1851543608732
 30
0.0000000000563712
 11
4376.167378669616
 21
783.9165823737039
 31
0.0000000000563712
  0
LINE
  5
FF96
330
18
100
AcDbEntity
  8
01
100
AcDbLine
 10
4376.167378669617
 20
768.4537263480045
 30
0.0000000000563712
 11
4376.167378669617
 21
750.1851543608732
 31
0.0000000000563712
  0
ARC
  5
FF97
330
18
100
AcDbEntity
  8
01
100
AcDbCircle
 10
4376.667378669617
 20
750.1851543608732
 30
0.0000000000563712
 40
0.5
100
AcDbArc
 50
180.0
 51
270.0
  0
ARC
  5
FF98
330
18
100
AcDbEntity
  8
01
100
AcDbCircle
 10
4376.667378669617
 20
802.1851543608732
 30
0.0000000000563712
 40
0.5
100
AcDbArc
 50
90.0
 51
180.0
  0
LINE
  5
FF99
330
18
100
AcDbEntity
  8
01
100
AcDbLine
 10
4412.723290391283
 20
778.2325556033406
 30
0.0000000000563712
 11
4284.583527492725
 21
778.2325556033479
 31
0.0000000000563712
  0
LINE
  5
FF9A
330
18
100
AcDbEntity
  8
01
100
AcDbLine
 10
4412.671320012008
 20
774.1377531183693
 30
0.0000000000563712
 11
4284.583527492725
 21
774.1377531183693
 31
0.0000000000563712
  0
ARC
  5
FF9B
330
18
100
AcDbEntity
  8
01
100
AcDbCircle
 10
4392.632572858145
 20
786.6851543608732
 30
0.0000000000563712
 40
1.5
100
AcDbArc
 50
90.0
 51
178.7426249191404
  0
ARC
  5
FF9C
330
18
100
AcDbEntity
  8
01
100
AcDbCircle
 10
4871.017355224811
 20
776.1851543608586
 30
0.0000000000563712
 40
480.0
100
AcDbArc
 50
180.9229111486584
 51
181.2573750809899
  0
ARC
  5
FF9D
330
18
100
AcDbEntity
  8
01
100
AcDbCircle
 10
4392.632572858145
 20
765.6851543608659
 30
0.0000000000563712
 40
1.5
100
AcDbArc
 50
181.2573750808596
 51
270.0
  0
ARC
  5
FF9E
330
18
100
AcDbEntity
  8
01
100
AcDbCircle
 10
4412.702184481126
 20
765.6851543608659
 30
0.0000000000563712
 40
1.5
100
AcDbArc
 50
269.9999999997394
 51
358.7426249191403
  0
ARC
  5
FF9F
330
18
100
AcDbEntity
  8
01
100
AcDbCircle
 10
4412.702184481126
 20
786.6851543608732
 30
0.0000000000563712
 40
1.5
100
AcDbArc
 50
1.257375080859653
 51
90.00000000026056
  0
ARC
  5
FFA0
330
18
100
AcDbEntity
  8
01
100
AcDbCircle
 10
3934.31740211446
 20
776.1851543608586
 30
0.0000000000563712
 40
480.0
100
AcDbArc
 50
358.7426249190101
 51
1.257375080989897
  0
LINE
  5
FFA1
330
18
100
AcDbEntity
  8
01
100
AcDbLine
 10
4284.56496698376
 20
768.4537263480174
 30
0.0000000000563712
 11
4391.079624867127
 21
768.4537263480029
 31
0.0000000000563712
  0
LINE
  5
FFA2
330
18
100
AcDbEntity
  8
01
100
AcDbLine
 10
4284.56496698376
 20
783.9165823736853
 30
0.0000000000563712
 11
4391.079624867127
 21
783.9165823737071
 31
0.0000000000563712
  0
LINE
  5
FFA3
330
18
100
AcDbEntity
  8
01
100
AcDbLine
 10
4412.702184481119
 20
788.1851543608732
 30
0.0000000000563712
 11
4392.632572858145
 21
788.1851543608659
 31
0.0000000000563712
  0
LINE
  5
FFA4
330
18
100
AcDbEntity
  8
01
100
AcDbLine
 10
4392.632572858145
 20
764.1851543608586
 30
0.0000000000563712
 11
4412.702184481119
 21
764.1851543608586
 31
0.0000000000563712
  0
ARC
  5
FFA5
330
18
100
AcDbEntity
  8
01
100
AcDbCircle
 10
4871.017355224811
 20
776.1851543608586
 30
0.0000000000563712
 40
480.0
100
AcDbArc
 50
178.7426249190101
 51
179.0770888513416
  0
LINE
  5
FFA6
330
18
100
AcDbEntity
  8
01
100
AcDbLine
 10
4414.167378669636
 20
777.1842971050951
 30
0.0000000000563712
 11
4414.167378669636
 21
775.1860116166367
 31
0.0000000000563712
  0
LINE
  5
FFA7
330
18
100
AcDbEntity
  8
01
100
AcDbLine
 10
4283.117402114442
 20
777.1842971050951
 30
0.0000000000563712
 11
4283.117402114442
 21
775.1860116165494
 31
0.0000000000563712
  0
ELLIPSE
  5
FFA8
330
18
100
AcDbEntity
  8
01
100
AcDbEllipse
 10
4284.583527492725
 20
777.1842971050951
 30
0.0000000000563712
 11
-1.466125378283323
 21
0.0
 31
0.0
210
0.0
220
0.0
230
-1.0
 40
0.7149855761178042
 41
0.0
 42
1.570796326794897
  0
ELLIPSE
  5
FFA9
330
18
100
AcDbEntity
  8
01
100
AcDbEllipse
 10
4284.583527492725
 20
775.1860116165494
 30
0.0000000000563712
 11
-1.466125378283323
 21
0.0
 31
0.0
210
0.0
220
0.0
230
1.0
 40
0.7149855761178042
 41
0.0
 42
1.570796326794897
  0
ELLIPSE
  5
FFAA
330
18
100
AcDbEntity
  8
01
100
AcDbEllipse
 10
4412.671320012008
 20
777.1842971050951
 30
0.0000000000563712
 11
1.496058657627145
 21
0.0
 31
0.0
210
0.0
220
0.0
230
-1.0
 40
0.7006800788868608
 41
4.71238898038469
 42
6.283185307179586
  0
ELLIPSE
  5
FFAB
330
18
100
AcDbEntity
  8
01
100
AcDbEllipse
 10
4412.671320012008
 20
775.1860116166367
 30
0.0000000000563712
 11
1.496058657627145
 21
0.0
 31
0.0
210
0.0
220
0.0
230
1.0
 40
0.7006800788868608
 41
4.71238898038469
 42
6.283185307179586
  0
ARC
  5
FFAC
330
18
100
AcDbEntity
  8
01
100
AcDbCircle
 10
4284.56496698376
 20
769.9537263480174
 30
0.0000000000563712
 40
1.5
100
AcDbArc
 50
181.8265729376885
 51
270.0
  0
ARC
  5
FFAD
330
18
100
AcDbEntity
  8
01
100
AcDbCircle
 10
4284.56496698376
 20
782.4165823737144
 30
0.0000000000563712
 40
1.5
100
AcDbArc
 50
90.0
 51
178.1734270623115
  0
ARC
  5
FFAE
330
18
100
AcDbEntity
  8
01
100
AcDbCircle
 10
4479.965630505971
 20
776.1851543608659
 30
0.0000000000563712
 40
197.0
100
AcDbArc
 50
178.1734270624165
 51
181.8265729375835
  0
LINE
  5
FFAF
330
18
100
AcDbEntity
  8
1CENTER
100
AcDbLine
 10
4726.583471226188
 20
1080.686464638668
 30
0.0000000001127424
 11
4734.717143588035
 21
1080.686472671918
 31
0.0000000001127424
  0
ARC
  5
FFB0
330
18
100
AcDbEntity
  8
01
100
AcDbCircle
 10
4860.750997167035
 20
1130.707434128285
 30
0.0000000001127424
 40
1.5
100
AcDbArc
 50
1.227006110804337
 51
90.0
  0
ARC
  5
FFB1
330
18
100
AcDbEntity
  8
01
100
AcDbCircle
 10
4860.750997167021
 20
1108.687196151287
 30
0.0000000001127424
 40
1.5
100
AcDbArc
 50
270.0
 51
358.7729938889352
  0
ARC
  5
FFB2
330
18
100
AcDbEntity
  8
01
100
AcDbCircle
 10
4732.663204647752
 20
1130.707434128285
 30
0.0000000001127424
 40
1.5
100
AcDbArc
 50
90.0
 51
179.8492538504684
  0
ARC
  5
FFB3
330
18
100
AcDbEntity
  8
01
100
AcDbCircle
 10
4757.74219549808
 20
1103.687196151272
 30
0.0000000001127424
 40
3.5
100
AcDbArc
 50
90.0
 51
180.1507461494535
  0
LINE
  5
FFB4
330
18
100
AcDbEntity
  8
01
100
AcDbLine
 10
4754.317169434949
 20
1075.18647267192
 30
0.0000000001127424
 11
4754.223845787134
 21
1110.656956193786
 31
0.0000000001127424
  0
LINE
  5
FFB5
330
18
100
AcDbEntity
  8
01
100
AcDbLine
 10
4731.017122545307
 20
1075.18647267192
 30
0.0000000001127424
 11
4731.163209839438
 21
1130.711380648695
 31
0.0000000001127424
  0
ARC
  5
FFB6
330
18
100
AcDbEntity
  8
01
100
AcDbCircle
 10
4346.70554548624
 20
1119.697315140153
 30
0.0000000001127424
 40
515.6633486675555
100
AcDbArc
 50
358.7729938890394
 51
1.227006110856435
  0
LINE
  5
FFB7
330
18
100
AcDbEntity
  8
01
100
AcDbLine
 10
4860.750997167035
 20
1132.207434128278
 30
0.0000000001127424
 11
4732.663204647752
 21
1132.207434128285
 31
0.0000000001127424
  0
LINE
  5
FFB8
330
18
100
AcDbEntity
  8
01
100
AcDbLine
 10
4860.750997167021
 20
1107.18719615128
 30
0.0000000001127424
 11
4757.74219549808
 21
1107.187196151272
 31
0.0000000001127424
  0
LINE
  5
FFB9
330
18
100
AcDbEntity
  8
01
100
AcDbLine
 10
4754.317169434949
 20
1075.18647267192
 30
0.0000000001127424
 11
4745.167274294731
 21
1075.186472671921
 31
0.0000000001127424
  0
LINE
  5
FFBA
330
18
100
AcDbEntity
  8
01
100
AcDbLine
 10
4740.16727429473
 20
1075.18647267192
 30
0.0000000001127424
 11
4731.017122545307
 21
1075.18647267192
 31
0.0000000001127424
  0
LINE
  5
116BD
330
18
100
AcDbEntity
  8
01
100
AcDbLine
 10
4552.667262329875
 20
851.6851543608755
 30
0.0
 11
4552.667262329875
 21
883.4851543608754
 31
0.0
1001
ACAD
1000
DSTYLE
1002
{
1070
    40
1040
1.3
1070
    45
1040
0.5
1070
   341
1005
0
1002
}
  0
LINE
  5
116BE
330
18
100
AcDbEntity
  8
01
100
AcDbLine
 10
4530.666876764155
 20
836.1851493608765
 30
0.0
 11
4530.666876764155
 21
883.4851543608754
 31
0.0
1001
ACAD
1000
DSTYLE
1002
{
1070
    40
1040
1.3
1070
    45
1040
0.5
1070
   341
1005
0
1002
}
  0
LINE
  5
116BF
330
18
100
AcDbEntity
  8
01
100
AcDbLine
 10
4550.067262329874
 20
882.1851543608755
 30
0.0
 11
4533.266876764155
 21
882.1851543608755
 31
0.0
1001
ACAD
1000
DSTYLE
1002
{
1070
    40
1040
1.3
1070
    45
1040
0.5
1070
   341
1005
0
1002
}
  0
LINE
  5
116C3
330
18
100
AcDbEntity
  8
01
100
AcDbLine
 10
4592.667262329875
 20
851.6851543608755
 30
0.0
 11
4592.667262329875
 21
883.4851543608754
 31
0.0
1001
ACAD
1000
DSTYLE
1002
{
1070
    40
1040
1.3
1070
    45
1040
0.5
1070
   271
1070
     1
1070
   341
1005
0
1002
}
  0
LINE
  5
116C4
330
18
100
AcDbEntity
  8
01
100
AcDbLine
 10
4600.835846018835
 20
826.1851559285676
 30
0.0
 11
4600.835846018835
 21
883.4851543608754
 31
0.0
1001
ACAD
1000
DSTYLE
1002
{
1070
    40
1040
1.3
1070
    45
1040
0.5
1070
   271
1070
     1
1070
   341
1005
0
1002
}
  0
LINE
  5
116C5
330
18
100
AcDbEntity
  8
01
100
AcDbLine
 10
4595.267262329875
 20
882.1851543608755
 30
0.0
 11
4598.235846018834
 21
882.1851543608755
 31
0.0
1001
ACAD
1000
DSTYLE
1002
{
1070
    40
1040
1.3
1070
    45
1040
0.5
1070
   271
1070
     1
1070
   341
1005
0
1002
}
  0
LINE
  5
116C9
330
18
100
AcDbEntity
  8
01
100
AcDbLine
 10
4382.667273684958
 20
851.1851543608755
 30
0.0
 11
4382.667273684958
 21
860.4851543608754
 31
0.0
1001
ACAD
1000
DSTYLE
1002
{
1070
     3
1000
□<>
1070
    40
1040
1.3
1070
    45
1040
0.5
1070
   271
1070
     1
1070
   272
1070
     2
1002
}
  0
LINE
  5
116CA
330
18
100
AcDbEntity
  8
01
100
AcDbLine
 10
4422.667273684958
 20
851.185154360875
 30
0.0
 11
4422.667273684958
 21
860.4851543608754
 31
0.0
1001
ACAD
1000
DSTYLE
1002
{
1070
     3
1000
□<>
1070
    40
1040
1.3
1070
    45
1040
0.5
1070
   271
1070
     1
1070
   272
1070
     2
1002
}
  0
LINE
  5
116CB
330
18
100
AcDbEntity
  8
01
100
AcDbLine
 10
4385.267273684958
 20
859.1851543608755
 30
0.0
 11
4420.067273684957
 21
859.1851543608755
 31
0.0
1001
ACAD
1000
DSTYLE
1002
{
1070
     3
1000
□<>
1070
    40
1040
1.3
1070
    45
1040
0.5
1070
   271
1070
     1
1070
   272
1070
     2
1002
}
  0
LINE
  5
116CF
330
18
100
AcDbEntity
  8
01
100
AcDbLine
 10
4722.667153667671
 20
851.1851543608755
 30
0.0
 11
4722.667153667671
 21
860.4851543608754
 31
0.0
1001
ACAD
1000
DSTYLE
1002
{
1070
     3
1000
□<>
1070
    40
1040
1.3
1070
    45
1040
0.5
1070
   271
1070
     1
1070
   272
1070
     2
1002
}
  0
LINE
  5
116D0
330
18
100
AcDbEntity
  8
01
100
AcDbLine
 10
4762.667153667671
 20
851.185154360875
 30
0.0
 11
4762.667153667671
 21
860.4851543608754
 31
0.0
1001
ACAD
1000
DSTYLE
1002
{
1070
     3
1000
□<>
1070
    40
1040
1.3
1070
    45
1040
0.5
1070
   271
1070
     1
1070
   272
1070
     2
1002
}
  0
LINE
  5
116D1
330
18
100
AcDbEntity
  8
01
100
AcDbLine
 10
4725.267153667672
 20
859.1851543608755
 30
0.0
 11
4760.067153667671
 21
859.1851543608755
 31
0.0
1001
ACAD
1000
DSTYLE
1002
{
1070
     3
1000
□<>
1070
    40
1040
1.3
1070
    45
1040
0.5
1070
   271
1070
     1
1070
   272
1070
     2
1002
}
  0
TEXT
  5
116D5
330
18
100
AcDbEntity
  8
01
  6
CONTINUOUS
100
AcDbText
 10
4653.670307083146
 20
988.7684876931796
 30
0.0000000000563712
 40
4.55
  1
材質：亜鉛ダイキャスト
100
AcDbText
  0
TEXT
  5
116D6
330
18
100
AcDbEntity
  8
01
  6
CONTINUOUS
100
AcDbText
 10
4663.98364041648
 20
981.1851543598463
 30
0.0000000000563712
 40
4.55
  1
仕上げ：各種メッキ
100
AcDbText
  0
LINE
  5
116D7
330
18
100
AcDbEntity
  8
01
100
AcDbLine
 10
4680.667145990128
 20
804.1851536627437
 30
0.0
 11
4680.667145990128
 21
906.906646445563
 31
0.0
1001
ACAD
1000
DSTYLE
1002
{
1070
    40
1040
1.3
1070
    45
1040
0.5
1002
}
  0
LINE
  5
116D8
330
18
100
AcDbEntity
  8
01
100
AcDbLine
 10
4691.667145990128
 20
862.0564717120326
 30
0.0
 11
4691.667145990128
 21
906.906646445563
 31
0.0
1001
ACAD
1000
DSTYLE
1002
{
1070
    40
1040
1.3
1070
    45
1040
0.5
1002
}
  0
LINE
  5
116D9
330
18
100
AcDbEntity
  8
01
100
AcDbLine
 10
4683.267145990128
 20
905.606646445563
 30
0.0
 11
4689.067145990128
 21
905.606646445563
 31
0.0
1001
ACAD
1000
DSTYLE
1002
{
1070
    40
1040
1.3
1070
    45
1040
0.5
1002
}
  0
LINE
  5
116DD
330
18
100
AcDbEntity
  8
01
100
AcDbLine
 10
4760.667145990128
 20
834.1777818532669
 30
0.0
 11
4788.967145990128
 21
834.1777818532669
 31
0.0
1001
ACAD
1000
DSTYLE
1002
{
1070
    40
1040
1.3
1070
    45
1040
0.5
1002
}
  0
LINE
  5
116DE
330
18
100
AcDbEntity
  8
01
100
AcDbLine
 10
4760.667145990128
 20
760.1851543608745
 30
0.0
 11
4788.967145990128
 21
760.1851543608745
 31
0.0
1001
ACAD
1000
DSTYLE
1002
{
1070
    40
1040
1.3
1070
    45
1040
0.5
1002
}
  0
LINE
  5
116DF
330
18
100
AcDbEntity
  8
01
100
AcDbLine
 10
4787.667145990128
 20
831.5777818532669
 30
0.0
 11
4787.667145990128
 21
762.7851543608746
 31
0.0
1001
ACAD
1000
DSTYLE
1002
{
1070
    40
1040
1.3
1070
    45
1040
0.5
1002
}
  0
LINE
  5
116E3
330
18
100
AcDbEntity
  8
01
100
AcDbLine
 10
4760.667145990128
 20
834.1777818532669
 30
0.0
 11
4760.667145990128
 21
916.9865139136111
 31
0.0
1001
ACAD
1000
DSTYLE
1002
{
1070
    40
1040
1.3
1070
    45
1040
0.5
1002
}
  0
LINE
  5
116E4
330
18
100
AcDbEntity
  8
01
100
AcDbLine
 10
4691.667145990128
 20
862.0564717120326
 30
0.0
 11
4691.667145990128
 21
916.9865139136111
 31
0.0
1001
ACAD
1000
DSTYLE
1002
{
1070
    40
1040
1.3
1070
    45
1040
0.5
1002
}
  0
LINE
  5
116E5
330
18
100
AcDbEntity
  8
01
100
AcDbLine
 10
4758.067145990128
 20
915.6865139136112
 30
0.0
 11
4694.267145990128
 21
915.6865139136112
 31
0.0
1001
ACAD
1000
DSTYLE
1002
{
1070
    40
1040
1.3
1070
    45
1040
0.5
1002
}
  0
LINE
  5
116E9
330
18
100
AcDbEntity
  8
01
100
AcDbLine
 10
4691.667145990128
 20
862.0564717120326
 30
0.0
 11
4691.667145990128
 21
906.906646445563
 31
0.0
1001
ACAD
1000
DSTYLE
1002
{
1070
    40
1040
1.3
1070
    45
1040
0.5
1002
}
  0
LINE
  5
116EA
330
18
100
AcDbEntity
  8
01
100
AcDbLine
 10
4742.667145990128
 20
826.185154360875
 30
0.0
 11
4742.667145990128
 21
906.906646445563
 31
0.0
1001
ACAD
1000
DSTYLE
1002
{
1070
    40
1040
1.3
1070
    45
1040
0.5
1002
}
  0
LINE
  5
116EB
330
18
100
AcDbEntity
  8
01
100
AcDbLine
 10
4694.267145990128
 20
905.606646445563
 30
0.0
 11
4740.067145990128
 21
905.606646445563
 31
0.0
1001
ACAD
1000
DSTYLE
1002
{
1070
    40
1040
1.3
1070
    45
1040
0.5
1002
}
  0
LINE
  5
116EF
330
18
100
AcDbEntity
  8
01
100
AcDbLine
 10
4578.542287737779
 20
854.1851543608743
 30
0.0
 11
4658.828418905986
 21
854.1851543608743
 31
0.0
1001
ACAD
1000
DSTYLE
1002
{
1070
    40
1040
1.3
1070
    45
1040
0.5
1002
}
  0
LINE
  5
116F0
330
18
100
AcDbEntity
  8
01
100
AcDbLine
 10
4578.542287737779
 20
740.1851543608743
 30
0.0
 11
4658.828418905986
 21
740.1851543608743
 31
0.0
1001
ACAD
1000
DSTYLE
1002
{
1070
    40
1040
1.3
1070
    45
1040
0.5
1002
}
  0
LINE
  5
116F1
330
18
100
AcDbEntity
  8
01
100
AcDbLine
 10
4657.528418905986
 20
851.5851543608743
 30
0.0
 11
4657.528418905986
 21
742.7851543608743
 31
0.0
1001
ACAD
1000
DSTYLE
1002
{
1070
    40
1040
1.3
1070
    45
1040
0.5
1002
}
  0
LINE
  5
116F5
330
18
100
AcDbEntity
  8
01
100
AcDbLine
 10
4579.140348134542
 20
862.0847092164579
 30
0.0
 11
4668.192753072211
 21
862.0847092164579
 31
0.0
1001
ACAD
1000
DSTYLE
1002
{
1070
    40
1040
1.3
1070
    45
1040
0.5
1002
}
  0
LINE
  5
116F6
330
18
100
AcDbEntity
  8
01
100
AcDbLine
 10
4579.067262329872
 20
732.2851543608745
 30
0.0
 11
4668.192753072211
 21
732.2851543608745
 31
0.0
1001
ACAD
1000
DSTYLE
1002
{
1070
    40
1040
1.3
1070
    45
1040
0.5
1002
}
  0
LINE
  5
116F7
330
18
100
AcDbEntity
  8
01
100
AcDbLine
 10
4666.89275307221
 20
859.4847092164579
 30
0.0
 11
4666.89275307221
 21
734.8851543608745
 31
0.0
1001
ACAD
1000
DSTYLE
1002
{
1070
    40
1040
1.3
1070
    45
1040
0.5
1002
}
  0
LINE
  5
116FB
330
18
100
AcDbEntity
  8
01
100
AcDbLine
 10
4560.167262329873
 20
856.1851543608745
 30
0.0
 11
4560.167262329873
 21
906.9066464455627
 31
0.0
1001
ACAD
1000
DSTYLE
1002
{
1070
    40
1040
1.3
1070
    45
1040
0.5
1002
}
  0
LINE
  5
116FC
330
18
100
AcDbEntity
  8
01
100
AcDbLine
 10
4585.167262329873
 20
856.1851543608745
 30
0.0
 11
4585.167262329873
 21
906.9066464455627
 31
0.0
1001
ACAD
1000
DSTYLE
1002
{
1070
    40
1040
1.3
1070
    45
1040
0.5
1002
}
  0
LINE
  5
116FD
330
18
100
AcDbEntity
  8
01
100
AcDbLine
 10
4562.767262329873
 20
905.6066464455628
 30
0.0
 11
4582.567262329872
 21
905.6066464455628
 31
0.0
1001
ACAD
1000
DSTYLE
1002
{
1070
    40
1040
1.3
1070
    45
1040
0.5
1002
}
  0
LINE
  5
11701
330
18
100
AcDbEntity
  8
01
100
AcDbLine
 10
4539.46630043555
 20
776.9351543608745
 30
0.0
 11
4538.167262329873
 21
777.6851543608745
 31
0.0
  0
LINE
  5
11702
330
18
100
AcDbEntity
  8
01
100
AcDbLine
 10
4538.167262329873
 20
777.6851543608745
 30
0.0
 11
4536.868224224196
 21
776.9351543608745
 31
0.0
  0
LINE
  5
11703
330
18
100
AcDbEntity
  8
01
100
AcDbLine
 10
4536.868224224196
 20
776.9351543608745
 30
0.0
 11
4536.868224224196
 21
775.4351543608745
 31
0.0
  0
LINE
  5
11704
330
18
100
AcDbEntity
  8
01
100
AcDbLine
 10
4536.868224224196
 20
775.4351543608745
 30
0.0
 11
4538.167262329873
 21
774.6851543608745
 31
0.0
  0
LINE
  5
11705
330
18
100
AcDbEntity
  8
01
100
AcDbLine
 10
4538.167262329873
 20
774.6851543608745
 30
0.0
 11
4539.46630043555
 21
775.4351543608745
 31
0.0
  0
LINE
  5
11706
330
18
100
AcDbEntity
  8
01
100
AcDbLine
 10
4539.46630043555
 20
775.4351543608745
 30
0.0
 11
4539.46630043555
 21
776.9351543608745
 31
0.0
  0
CIRCLE
  5
11707
330
18
100
AcDbEntity
  8
01
100
AcDbCircle
 10
4607.167145990128
 20
776.185154360875
 30
0.0000000000563712
 40
3.0
  0
LINE
  5
11708
330
18
100
AcDbEntity
  8
01
100
AcDbLine
 10
4716.667145990132
 20
802.6851543608732
 30
0.0
 11
4706.367145990128
 21
802.6851543608732
 31
0.0
1001
ACAD
1000
DSTYLE
1002
{
1070
     3
1000
□<>
1070
    40
1040
1.3
1070
    45
1040
0.5
1002
}
  0
LINE
  5
11709
330
18
100
AcDbEntity
  8
01
100
AcDbLine
 10
4716.667145990132
 20
749.6851543608732
 30
0.0
 11
4706.367145990128
 21
749.6851543608732
 31
0.0
1001
ACAD
1000
DSTYLE
1002
{
1070
     3
1000
□<>
1070
    40
1040
1.3
1070
    45
1040
0.5
1002
}
  0
LINE
  5
1170A
330
18
100
AcDbEntity
  8
01
100
AcDbLine
 10
4707.667145990128
 20
800.0851543608732
 30
0.0
 11
4707.667145990128
 21
752.2851543608732
 31
0.0
1001
ACAD
1000
DSTYLE
1002
{
1070
     3
1000
□<>
1070
    40
1040
1.3
1070
    45
1040
0.5
1002
}
  0
LINE
  5
1170E
330
18
100
AcDbEntity
  8
01
  6
BYBLOCK
100
AcDbLine
 10
4550.067262329874
 20
882.8818222548755
 30
0.0
 11
4552.667262329875
 21
882.1851543608755
 31
0.0
  0
LINE
  5
1170F
330
18
100
AcDbEntity
  8
01
  6
BYBLOCK
100
AcDbLine
 10
4552.667262329875
 20
882.1851543608755
 30
0.0
 11
4550.067262329874
 21
881.4884864668754
 31
0.0
  0
LINE
  5
11710
330
18
100
AcDbEntity
  8
01
  6
BYBLOCK
100
AcDbLine
 10
4552.667262329875
 20
882.1851543608755
 30
0.0
 11
4550.067262329874
 21
882.1851543608755
 31
0.0
  0
LINE
  5
11711
330
18
100
AcDbEntity
  8
01
  6
BYBLOCK
100
AcDbLine
 10
4533.266876764155
 20
881.4884864668754
 30
0.0
 11
4530.666876764155
 21
882.1851543608755
 31
0.0
  0
LINE
  5
11712
330
18
100
AcDbEntity
  8
01
  6
BYBLOCK
100
AcDbLine
 10
4530.666876764155
 20
882.1851543608755
 30
0.0
 11
4533.266876764155
 21
882.8818222548755
 31
0.0
  0
LINE
  5
11713
330
18
100
AcDbEntity
  8
01
  6
BYBLOCK
100
AcDbLine
 10
4530.666876764155
 20
882.1851543608755
 30
0.0
 11
4533.266876764155
 21
882.1851543608755
 31
0.0
  0
TEXT
  5
11714
330
18
100
AcDbEntity
  8
01
  6
CONTINUOUS
100
AcDbText
 10
4537.875402880348
 20
883.0951543608754
 30
0.0
 40
4.55
  1
22
100
AcDbText
1001
ACAD
1000
DSTYLE
1002
{
1070
    40
1040
1.3
1070
    45
1040
0.5
1070
   341
1005
0
1002
}
  0
LINE
  5
11715
330
18
100
AcDbEntity
  8
01
  6
BYBLOCK
100
AcDbLine
 10
4595.267262329875
 20
881.4884864668754
 30
0.0
 11
4592.667262329875
 21
882.1851543608755
 31
0.0
  0
LINE
  5
11716
330
18
100
AcDbEntity
  8
01
  6
BYBLOCK
100
AcDbLine
 10
4592.667262329875
 20
882.1851543608755
 30
0.0
 11
4595.267262329875
 21
882.8818222548755
 31
0.0
  0
LINE
  5
11717
330
18
100
AcDbEntity
  8
01
  6
BYBLOCK
100
AcDbLine
 10
4592.667262329875
 20
882.1851543608755
 30
0.0
 11
4595.267262329875
 21
882.1851543608755
 31
0.0
  0
LINE
  5
11718
330
18
100
AcDbEntity
  8
01
  6
BYBLOCK
100
AcDbLine
 10
4598.235846018834
 20
882.8818222548755
 30
0.0
 11
4600.835846018835
 21
882.1851543608755
 31
0.0
  0
LINE
  5
11719
330
18
100
AcDbEntity
  8
01
  6
BYBLOCK
100
AcDbLine
 10
4600.835846018835
 20
882.1851543608755
 30
0.0
 11
4598.235846018834
 21
881.4884864668754
 31
0.0
  0
LINE
  5
1171A
330
18
100
AcDbEntity
  8
01
  6
BYBLOCK
100
AcDbLine
 10
4600.835846018835
 20
882.1851543608755
 30
0.0
 11
4598.235846018834
 21
882.1851543608755
 31
0.0
  0
TEXT
  5
1171B
330
18
100
AcDbEntity
  8
01
  6
CONTINUOUS
100
AcDbText
 10
4595.234887507688
 20
883.0951543608754
 30
0.0
 40
4.55
  1
8
100
AcDbText
1001
ACAD
1000
DSTYLE
1002
{
1070
    40
1040
1.3
1070
    45
1040
0.5
1070
   271
1070
     1
1070
   341
1005
0
1002
}
  0
LINE
  5
1171C
330
18
100
AcDbEntity
  8
01
  6
BYBLOCK
100
AcDbLine
 10
4385.267273684958
 20
858.4884864668754
 30
0.0
 11
4382.667273684958
 21
859.1851543608755
 31
0.0
  0
LINE
  5
1171D
330
18
100
AcDbEntity
  8
01
  6
BYBLOCK
100
AcDbLine
 10
4382.667273684958
 20
859.1851543608755
 30
0.0
 11
4385.267273684958
 21
859.8818222548755
 31
0.0
  0
LINE
  5
1171E
330
18
100
AcDbEntity
  8
01
  6
BYBLOCK
100
AcDbLine
 10
4382.667273684958
 20
859.1851543608755
 30
0.0
 11
4385.267273684958
 21
859.1851543608755
 31
0.0
  0
LINE
  5
1171F
330
18
100
AcDbEntity
  8
01
  6
BYBLOCK
100
AcDbLine
 10
4420.067273684957
 20
859.8818222548755
 30
0.0
 11
4422.667273684958
 21
859.1851543608755
 31
0.0
  0
LINE
  5
11720
330
18
100
AcDbEntity
  8
01
  6
BYBLOCK
100
AcDbLine
 10
4422.667273684958
 20
859.1851543608755
 30
0.0
 11
4420.067273684957
 21
858.4884864668754
 31
0.0
  0
LINE
  5
11721
330
18
100
AcDbEntity
  8
01
  6
BYBLOCK
100
AcDbLine
 10
4422.667273684958
 20
859.1851543608755
 30
0.0
 11
4420.067273684957
 21
859.1851543608755
 31
0.0
  0
TEXT
  5
11722
330
18
100
AcDbEntity
  8
01
  6
CONTINUOUS
100
AcDbText
 10
4396.278315351625
 20
860.0951543608754
 30
0.0
 40
4.55
  1
□40
100
AcDbText
1001
ACAD
1000
DSTYLE
1002
{
1070
     3
1000
□<>
1070
    40
1040
1.3
1070
    45
1040
0.5
1070
   271
1070
     1
1070
   272
1070
     2
1002
}
  0
LINE
  5
11723
330
18
100
AcDbEntity
  8
01
  6
BYBLOCK
100
AcDbLine
 10
4725.267153667672
 20
858.4884864668754
 30
0.0
 11
4722.667153667671
 21
859.1851543608755
 31
0.0
  0
LINE
  5
11724
330
18
100
AcDbEntity
  8
01
  6
BYBLOCK
100
AcDbLine
 10
4722.667153667671
 20
859.1851543608755
 30
0.0
 11
4725.267153667672
 21
859.8818222548755
 31
0.0
  0
LINE
  5
11725
330
18
100
AcDbEntity
  8
01
  6
BYBLOCK
100
AcDbLine
 10
4722.667153667671
 20
859.1851543608755
 30
0.0
 11
4725.267153667672
 21
859.1851543608755
 31
0.0
  0
LINE
  5
11726
330
18
100
AcDbEntity
  8
01
  6
BYBLOCK
100
AcDbLine
 10
4760.067153667671
 20
859.8818222548755
 30
0.0
 11
4762.667153667671
 21
859.1851543608755
 31
0.0
  0
LINE
  5
11727
330
18
100
AcDbEntity
  8
01
  6
BYBLOCK
100
AcDbLine
 10
4762.667153667671
 20
859.1851543608755
 30
0.0
 11
4760.067153667671
 21
858.4884864668754
 31
0.0
  0
LINE
  5
11728
330
18
100
AcDbEntity
  8
01
  6
BYBLOCK
100
AcDbLine
 10
4762.667153667671
 20
859.1851543608755
 30
0.0
 11
4760.067153667671
 21
859.1851543608755
 31
0.0
  0
TEXT
  5
11729
330
18
100
AcDbEntity
  8
01
  6
CONTINUOUS
100
AcDbText
 10
4736.278195334338
 20
860.0951543608754
 30
0.0
 40
4.55
  1
□40
100
AcDbText
1001
ACAD
1000
DSTYLE
1002
{
1070
     3
1000
□<>
1070
    40
1040
1.3
1070
    45
1040
0.5
1070
   271
1070
     1
1070
   272
1070
     2
1002
}
  0
LINE
  5
1172A
330
18
100
AcDbEntity
  8
01
  6
BYBLOCK
100
AcDbLine
 10
4683.267145990128
 20
904.909978551563
 30
0.0
 11
4680.667145990128
 21
905.606646445563
 31
0.0
  0
LINE
  5
1172B
330
18
100
AcDbEntity
  8
01
  6
BYBLOCK
100
AcDbLine
 10
4680.667145990128
 20
905.606646445563
 30
0.0
 11
4683.267145990128
 21
906.303314339563
 31
0.0
  0
LINE
  5
1172C
330
18
100
AcDbEntity
  8
01
  6
BYBLOCK
100
AcDbLine
 10
4680.667145990128
 20
905.606646445563
 30
0.0
 11
4683.267145990128
 21
905.606646445563
 31
0.0
  0
LINE
  5
1172D
330
18
100
AcDbEntity
  8
01
  6
BYBLOCK
100
AcDbLine
 10
4689.067145990128
 20
906.303314339563
 30
0.0
 11
4691.667145990128
 21
905.606646445563
 31
0.0
  0
LINE
  5
1172E
330
18
100
AcDbEntity
  8
01
  6
BYBLOCK
100
AcDbLine
 10
4691.667145990128
 20
905.606646445563
 30
0.0
 11
4689.067145990128
 21
904.909978551563
 31
0.0
  0
LINE
  5
1172F
330
18
100
AcDbEntity
  8
01
  6
BYBLOCK
100
AcDbLine
 10
4691.667145990128
 20
905.606646445563
 30
0.0
 11
4689.067145990128
 21
905.606646445563
 31
0.0
  0
TEXT
  5
11730
330
18
100
AcDbEntity
  8
01
  6
CONTINUOUS
100
AcDbText
 10
4683.892145990128
 20
906.516646445563
 30
0.0
 40
4.55
  1
11
100
AcDbText
1001
ACAD
1000
DSTYLE
1002
{
1070
    40
1040
1.3
1070
    45
1040
0.5
1002
}
  0
LINE
  5
11731
330
18
100
AcDbEntity
  8
01
  6
BYBLOCK
100
AcDbLine
 10
4786.970478096128
 20
831.5777818532669
 30
0.0
 11
4787.667145990128
 21
834.1777818532669
 31
0.0
  0
LINE
  5
11732
330
18
100
AcDbEntity
  8
01
  6
BYBLOCK
100
AcDbLine
 10
4787.667145990128
 20
834.1777818532669
 30
0.0
 11
4788.363813884128
 21
831.5777818532669
 31
0.0
  0
LINE
  5
11733
330
18
100
AcDbEntity
  8
01
  6
BYBLOCK
100
AcDbLine
 10
4787.667145990128
 20
834.1777818532669
 30
0.0
 11
4787.667145990128
 21
831.5777818532669
 31
0.0
  0
LINE
  5
11734
330
18
100
AcDbEntity
  8
01
  6
BYBLOCK
100
AcDbLine
 10
4788.363813884128
 20
762.7851543608746
 30
0.0
 11
4787.667145990128
 21
760.1851543608745
 31
0.0
  0
LINE
  5
11735
330
18
100
AcDbEntity
  8
01
  6
BYBLOCK
100
AcDbLine
 10
4787.667145990128
 20
760.1851543608745
 30
0.0
 11
4786.970478096128
 21
762.7851543608746
 31
0.0
  0
LINE
  5
11736
330
18
100
AcDbEntity
  8
01
  6
BYBLOCK
100
AcDbLine
 10
4787.667145990128
 20
760.1851543608745
 30
0.0
 11
4787.667145990128
 21
762.7851543608746
 31
0.0
  0
TEXT
  5
11737
330
18
100
AcDbEntity
  8
01
  6
CONTINUOUS
100
AcDbText
 10
4786.757145990128
 20
815.1564984468932
 30
0.0
 40
4.55
  1
74
 50
90.0
100
AcDbText
1001
ACAD
1000
DSTYLE
1002
{
1070
    40
1040
1.3
1070
    45
1040
0.5
1002
}
  0
LINE
  5
11738
330
18
100
AcDbEntity
  8
01
  6
BYBLOCK
100
AcDbLine
 10
4758.067145990128
 20
916.3831818076112
 30
0.0
 11
4760.667145990128
 21
915.6865139136112
 31
0.0
  0
LINE
  5
11739
330
18
100
AcDbEntity
  8
01
  6
BYBLOCK
100
AcDbLine
 10
4760.667145990128
 20
915.6865139136112
 30
0.0
 11
4758.067145990128
 21
914.9898460196112
 31
0.0
  0
LINE
  5
1173A
330
18
100
AcDbEntity
  8
01
  6
BYBLOCK
100
AcDbLine
 10
4760.667145990128
 20
915.6865139136112
 30
0.0
 11
4758.067145990128
 21
915.6865139136112
 31
0.0
  0
LINE
  5
1173B
330
18
100
AcDbEntity
  8
01
  6
BYBLOCK
100
AcDbLine
 10
4694.267145990128
 20
914.9898460196112
 30
0.0
 11
4691.667145990128
 21
915.6865139136112
 31
0.0
  0
LINE
  5
1173C
330
18
100
AcDbEntity
  8
01
  6
BYBLOCK
100
AcDbLine
 10
4691.667145990128
 20
915.6865139136112
 30
0.0
 11
4694.267145990128
 21
916.3831818076112
 31
0.0
  0
LINE
  5
1173D
330
18
100
AcDbEntity
  8
01
  6
BYBLOCK
100
AcDbLine
 10
4691.667145990128
 20
915.6865139136112
 30
0.0
 11
4694.267145990128
 21
915.6865139136112
 31
0.0
  0
TEXT
  5
1173E
330
18
100
AcDbEntity
  8
01
  6
CONTINUOUS
100
AcDbText
 10
4722.35862747161
 20
916.5965139136111
 30
0.0
 40
4.55
  1
69
100
AcDbText
1001
ACAD
1000
DSTYLE
1002
{
1070
    40
1040
1.3
1070
    45
1040
0.5
1002
}
  0
LINE
  5
1173F
330
18
100
AcDbEntity
  8
01
  6
BYBLOCK
100
AcDbLine
 10
4694.267145990128
 20
904.909978551563
 30
0.0
 11
4691.667145990128
 21
905.606646445563
 31
0.0
  0
LINE
  5
11740
330
18
100
AcDbEntity
  8
01
  6
BYBLOCK
100
AcDbLine
 10
4691.667145990128
 20
905.606646445563
 30
0.0
 11
4694.267145990128
 21
906.303314339563
 31
0.0
  0
LINE
  5
11741
330
18
100
AcDbEntity
  8
01
  6
BYBLOCK
100
AcDbLine
 10
4691.667145990128
 20
905.606646445563
 30
0.0
 11
4694.267145990128
 21
905.606646445563
 31
0.0
  0
LINE
  5
11742
330
18
100
AcDbEntity
  8
01
  6
BYBLOCK
100
AcDbLine
 10
4740.067145990128
 20
906.303314339563
 30
0.0
 11
4742.667145990128
 21
905.606646445563
 31
0.0
  0
LINE
  5
11743
330
18
100
AcDbEntity
  8
01
  6
BYBLOCK
100
AcDbLine
 10
4742.667145990128
 20
905.606646445563
 30
0.0
 11
4740.067145990128
 21
904.909978551563
 31
0.0
  0
LINE
  5
11744
330
18
100
AcDbEntity
  8
01
  6
BYBLOCK
100
AcDbLine
 10
4742.667145990128
 20
905.606646445563
 30
0.0
 11
4740.067145990128
 21
905.606646445563
 31
0.0
  0
TEXT
  5
11745
330
18
100
AcDbEntity
  8
01
  6
CONTINUOUS
100
AcDbText
 10
4714.118014045684
 20
906.516646445563
 30
0.0
 40
4.55
  1
51
100
AcDbText
1001
ACAD
1000
DSTYLE
1002
{
1070
    40
1040
1.3
1070
    45
1040
0.5
1002
}
  0
LINE
  5
11746
330
18
100
AcDbEntity
  8
01
  6
BYBLOCK
100
AcDbLine
 10
4656.831751011986
 20
851.5851543608743
 30
0.0
 11
4657.528418905986
 21
854.1851543608743
 31
0.0
  0
LINE
  5
11747
330
18
100
AcDbEntity
  8
01
  6
BYBLOCK
100
AcDbLine
 10
4657.528418905986
 20
854.1851543608743
 30
0.0
 11
4658.225086799986
 21
851.5851543608743
 31
0.0
  0
LINE
  5
11748
330
18
100
AcDbEntity
  8
01
  6
BYBLOCK
100
AcDbLine
 10
4657.528418905986
 20
854.1851543608743
 30
0.0
 11
4657.528418905986
 21
851.5851543608743
 31
0.0
  0
LINE
  5
11749
330
18
100
AcDbEntity
  8
01
  6
BYBLOCK
100
AcDbLine
 10
4658.225086799986
 20
742.7851543608743
 30
0.0
 11
4657.528418905986
 21
740.1851543608743
 31
0.0
  0
LINE
  5
1174A
330
18
100
AcDbEntity
  8
01
  6
BYBLOCK
100
AcDbLine
 10
4657.528418905986
 20
740.1851543608743
 30
0.0
 11
4656.831751011986
 21
742.7851543608743
 31
0.0
  0
LINE
  5
1174B
330
18
100
AcDbEntity
  8
01
  6
BYBLOCK
100
AcDbLine
 10
4657.528418905986
 20
740.1851543608743
 30
0.0
 11
4657.528418905986
 21
742.7851543608743
 31
0.0
  0
TEXT
  5
1174C
330
18
100
AcDbEntity
  8
01
  6
CONTINUOUS
100
AcDbText
 10
4656.618418905985
 20
821.7681767087961
 30
0.0
 40
4.55
  1
114
 50
90.0
100
AcDbText
1001
ACAD
1000
DSTYLE
1002
{
1070
    40
1040
1.3
1070
    45
1040
0.5
1002
}
  0
LINE
  5
1174D
330
18
100
AcDbEntity
  8
01
  6
BYBLOCK
100
AcDbLine
 10
4666.196085178211
 20
859.4847092164579
 30
0.0
 11
4666.89275307221
 21
862.0847092164579
 31
0.0
  0
LINE
  5
1174E
330
18
100
AcDbEntity
  8
01
  6
BYBLOCK
100
AcDbLine
 10
4666.89275307221
 20
862.0847092164579
 30
0.0
 11
4667.58942096621
 21
859.4847092164579
 31
0.0
  0
LINE
  5
1174F
330
18
100
AcDbEntity
  8
01
  6
BYBLOCK
100
AcDbLine
 10
4666.89275307221
 20
862.0847092164579
 30
0.0
 11
4666.89275307221
 21
859.4847092164579
 31
0.0
  0
LINE
  5
11750
330
18
100
AcDbEntity
  8
01
  6
BYBLOCK
100
AcDbLine
 10
4667.58942096621
 20
734.8851543608745
 30
0.0
 11
4666.89275307221
 21
732.2851543608745
 31
0.0
  0
LINE
  5
11751
330
18
100
AcDbEntity
  8
01
  6
BYBLOCK
100
AcDbLine
 10
4666.89275307221
 20
732.2851543608745
 30
0.0
 11
4666.196085178211
 21
734.8851543608745
 31
0.0
  0
LINE
  5
11752
330
18
100
AcDbEntity
  8
01
  6
BYBLOCK
100
AcDbLine
 10
4666.89275307221
 20
732.2851543608745
 30
0.0
 11
4666.89275307221
 21
734.8851543608745
 31
0.0
  0
TEXT
  5
11753
330
18
100
AcDbEntity
  8
01
  6
CONTINUOUS
100
AcDbText
 10
4665.98275307221
 20
820.983612705988
 30
0.0
 40
4.55
  1
130
 50
90.0
100
AcDbText
1001
ACAD
1000
DSTYLE
1002
{
1070
    40
1040
1.3
1070
    45
1040
0.5
1002
}
  0
LINE
  5
11754
330
18
100
AcDbEntity
  8
01
  6
BYBLOCK
100
AcDbLine
 10
4562.767262329873
 20
904.9099785515627
 30
0.0
 11
4560.167262329873
 21
905.6066464455628
 31
0.0
  0
LINE
  5
11755
330
18
100
AcDbEntity
  8
01
  6
BYBLOCK
100
AcDbLine
 10
4560.167262329873
 20
905.6066464455628
 30
0.0
 11
4562.767262329873
 21
906.3033143395628
 31
0.0
  0
LINE
  5
11756
330
18
100
AcDbEntity
  8
01
  6
BYBLOCK
100
AcDbLine
 10
4560.167262329873
 20
905.6066464455628
 30
0.0
 11
4562.767262329873
 21
905.6066464455628
 31
0.0
  0
LINE
  5
11757
330
18
100
AcDbEntity
  8
01
  6
BYBLOCK
100
AcDbLine
 10
4582.567262329872
 20
906.3033143395628
 30
0.0
 11
4585.167262329873
 21
905.6066464455628
 31
0.0
  0
LINE
  5
11758
330
18
100
AcDbEntity
  8
01
  6
BYBLOCK
100
AcDbLine
 10
4585.167262329873
 20
905.6066464455628
 30
0.0
 11
4582.567262329872
 21
904.9099785515627
 31
0.0
  0
LINE
  5
11759
330
18
100
AcDbEntity
  8
01
  6
BYBLOCK
100
AcDbLine
 10
4585.167262329873
 20
905.6066464455628
 30
0.0
 11
4582.567262329872
 21
905.6066464455628
 31
0.0
  0
TEXT
  5
1175A
330
18
100
AcDbEntity
  8
01
  6
CONTINUOUS
100
AcDbText
 10
4568.875595663206
 20
906.5166464455627
 30
0.0
 40
4.55
  1
25
100
AcDbText
1001
ACAD
1000
DSTYLE
1002
{
1070
    40
1040
1.3
1070
    45
1040
0.5
1002
}
  0
LINE
  5
1175B
330
18
100
AcDbEntity
  8
01
  6
BYBLOCK
100
AcDbLine
 10
4706.970478096128
 20
800.0851543608732
 30
0.0
 11
4707.667145990128
 21
802.6851543608732
 31
0.0
  0
LINE
  5
1175C
330
18
100
AcDbEntity
  8
01
  6
BYBLOCK
100
AcDbLine
 10
4707.667145990128
 20
802.6851543608732
 30
0.0
 11
4708.363813884128
 21
800.0851543608732
 31
0.0
  0
LINE
  5
1175D
330
18
100
AcDbEntity
  8
01
  6
BYBLOCK
100
AcDbLine
 10
4707.667145990128
 20
802.6851543608732
 30
0.0
 11
4707.667145990128
 21
800.0851543608732
 31
0.0
  0
LINE
  5
1175E
330
18
100
AcDbEntity
  8
01
  6
BYBLOCK
100
AcDbLine
 10
4708.363813884128
 20
752.2851543608732
 30
0.0
 11
4707.667145990128
 21
749.6851543608732
 31
0.0
  0
LINE
  5
1175F
330
18
100
AcDbEntity
  8
01
  6
BYBLOCK
100
AcDbLine
 10
4707.667145990128
 20
749.6851543608732
 30
0.0
 11
4706.970478096128
 21
752.2851543608732
 31
0.0
  0
LINE
  5
11760
330
18
100
AcDbEntity
  8
01
  6
BYBLOCK
100
AcDbLine
 10
4707.667145990128
 20
749.6851543608732
 30
0.0
 11
4707.667145990128
 21
752.2851543608732
 31
0.0
  0
TEXT
  5
11761
330
18
100
AcDbEntity
  8
01
  6
CONTINUOUS
100
AcDbText
 10
4706.757145990127
 20
768.1562764542764
 30
0.0
 40
4.55
  1
□53
 50
90.0
100
AcDbText
1001
ACAD
1000
DSTYLE
1002
{
1070
     3
1000
□<>
1070
    40
1040
1.3
1070
    45
1040
0.5
1002
}
  0
LINE
  5
11762
330
18
100
AcDbEntity
  8
1DIM
100
AcDbLine
 10
4372.667266329872
 20
776.1851543608752
 30
0.0
 11
4357.673413927584
 21
776.1851543608752
 31
0.0
1001
ACAD
1000
DSTYLE
1002
{
1070
    40
1040
1.3
1070
    45
1040
0.5
1070
   341
1005
0
1002
}
  0
LINE
  5
11763
330
18
100
AcDbEntity
  8
1DIM
100
AcDbLine
 10
4380.167258329873
 20
831.6851543608755
 30
0.0
 11
4357.673413927584
 21
831.6851543608755
 31
0.0
1001
ACAD
1000
DSTYLE
1002
{
1070
    40
1040
1.3
1070
    45
1040
0.5
1070
   341
1005
0
1002
}
  0
LINE
  5
11764
330
18
100
AcDbEntity
  8
1DIM
100
AcDbLine
 10
4358.973413927584
 20
778.7851543608753
 30
0.0
 11
4358.973413927584
 21
829.0851543608754
 31
0.0
1001
ACAD
1000
DSTYLE
1002
{
1070
    40
1040
1.3
1070
    45
1040
0.5
1070
   341
1005
0
1002
}
  0
SOLID
  5
11768
330
18
100
AcDbEntity
  8
1DIM
100
AcDbTrace
 10
4740.036995344874
 20
1000.134397305931
 30
0.0000000000563712
 11
4742.407747230189
 21
1001.286488133971
 31
0.0000000000563712
 12
4740.538795174796
 22
999.4277799824799
 32
0.0000000000563712
 13
4740.538795174796
 23
999.4277799824799
 33
0.0000000000563712
1001
ACAD
1000
DSTYLE
1002
{
1070
    40
1040
1.3
1070
    45
1040
0.5
1002
}
  0
LINE
  5
11769
330
18
100
AcDbEntity
  8
1DIM
100
AcDbLine
 10
4740.287895259835
 20
999.7810886442055
 30
0.0000000000563712
 11
4712.820307083146
 21
980.2751543598464
 31
0.0000000000563712
1001
ACAD
1000
DSTYLE
1002
{
1070
    40
1040
1.3
1070
    45
1040
0.5
1002
}
  0
LINE
  5
1176A
330
18
100
AcDbEntity
  8
1DIM
100
AcDbLine
 10
4759.068030172188
 20
1055.685154359846
 30
0.0
 11
4779.628420931901
 21
1055.685154359846
 31
0.0
1001
ACAD
1000
DSTYLE
1002
{
1070
    45
1040
0.5
1070
    40
1040
1.3
1002
}
  0
LINE
  5
1176B
330
18
100
AcDbEntity
  8
1DIM
100
AcDbLine
 10
4760.668030172188
 20
1036.885154359846
 30
0.0
 11
4779.628420931901
 21
1036.885154359846
 31
0.0
1001
ACAD
1000
DSTYLE
1002
{
1070
    45
1040
0.5
1070
    40
1040
1.3
1002
}
  0
LINE
  5
1176C
330
18
100
AcDbEntity
  8
1DIM
100
AcDbLine
 10
4778.328420931901
 20
1053.085154359846
 30
0.0
 11
4778.328420931901
 21
1039.485154359846
 31
0.0
1001
ACAD
1000
DSTYLE
1002
{
1070
    45
1040
0.5
1070
    40
1040
1.3
1002
}
  0
LINE
  5
11770
330
18
100
AcDbEntity
  8
1DIM
100
AcDbLine
 10
4731.017122545307
 20
1017.183836047772
 30
0.0000000001127424
 11
4731.017122545307
 21
929.8838360477723
 31
0.0000000001127424
1001
ACAD
1000
DSTYLE
1002
{
1070
    40
1040
1.3
1070
    45
1040
0.5
1002
}
  0
LINE
  5
11771
330
18
100
AcDbEntity
  8
1DIM
100
AcDbLine
 10
4862.368894153795
 20
972.6729935795393
 30
0.0000000001127424
 11
4862.368894153795
 21
929.8838360477723
 31
0.0000000001127424
1001
ACAD
1000
DSTYLE
1002
{
1070
    40
1040
1.3
1070
    45
1040
0.5
1002
}
  0
LINE
  5
11772
330
18
100
AcDbEntity
  8
1DIM
100
AcDbLine
 10
4733.617122545307
 20
931.1838360477723
 30
0.0000000001127424
 11
4859.768894153794
 21
931.1838360477723
 31
0.0000000001127424
1001
ACAD
1000
DSTYLE
1002
{
1070
    40
1040
1.3
1070
    45
1040
0.5
1002
}
  0
LINE
  5
11776
330
18
100
AcDbEntity
  8
1DIM
100
AcDbLine
 10
4860.750997167021
 20
985.1831125684057
 30
0.0000000001127424
 11
4898.967145990128
 21
985.1831125684056
 31
0.0000000001127424
1001
ACAD
1000
DSTYLE
1002
{
1070
    40
1040
1.3
1070
    45
1040
0.5
1002
}
  0
LINE
  5
11777
330
18
100
AcDbEntity
  8
1DIM
100
AcDbLine
 10
4845.422293987476
 20
1026.183836047772
 30
0.0000000001127424
 11
4898.967145990128
 21
1026.183836047772
 31
0.0000000001127424
1001
ACAD
1000
DSTYLE
1002
{
1070
    40
1040
1.3
1070
    45
1040
0.5
1002
}
  0
LINE
  5
11778
330
18
100
AcDbEntity
  8
1DIM
100
AcDbLine
 10
4897.667145990128
 20
987.7831125684056
 30
0.0000000001127424
 11
4897.667145990128
 21
1023.583836047772
 31
0.0000000001127424
1001
ACAD
1000
DSTYLE
1002
{
1070
    40
1040
1.3
1070
    45
1040
0.5
1002
}
  0
LINE
  5
1177C
330
18
100
AcDbEntity
  8
1DIM
100
AcDbLine
 10
4860.750997167035
 20
960.1628745914077
 30
0.0000000001127424
 11
4908.967145990128
 21
960.1628745914076
 31
0.0000000001127424
1001
ACAD
1000
DSTYLE
1002
{
1070
    40
1040
1.3
1070
    45
1040
0.5
1002
}
  0
LINE
  5
1177D
330
18
100
AcDbEntity
  8
1DIM
100
AcDbLine
 10
4845.422293987476
 20
1026.183836047772
 30
0.0000000001127424
 11
4908.967145990128
 21
1026.183836047772
 31
0.0000000001127424
1001
ACAD
1000
DSTYLE
1002
{
1070
    40
1040
1.3
1070
    45
1040
0.5
1002
}
  0
LINE
  5
1177E
330
18
100
AcDbEntity
  8
1DIM
100
AcDbLine
 10
4907.667145990128
 20
962.7628745914076
 30
0.0000000001127424
 11
4907.667145990128
 21
1023.583836047772
 31
0.0000000001127424
1001
ACAD
1000
DSTYLE
1002
{
1070
    40
1040
1.3
1070
    45
1040
0.5
1002
}
  0
LINE
  5
11782
330
18
100
AcDbEntity
  8
1DIM
100
AcDbLine
 10
4860.769557675985
 20
768.4537263480174
 30
0.0
 11
4898.967145990128
 21
768.4537263480173
 31
0.0
1001
ACAD
1000
DSTYLE
1002
{
1070
    40
1040
1.3
1070
    45
1040
0.5
1002
}
  0
LINE
  5
11783
330
18
100
AcDbEntity
  8
1DIM
100
AcDbLine
 10
4860.769557675985
 20
783.9165823737144
 30
0.0
 11
4898.967145990128
 21
783.9165823737143
 31
0.0
1001
ACAD
1000
DSTYLE
1002
{
1070
    40
1040
1.3
1070
    45
1040
0.5
1002
}
  0
LINE
  5
11784
330
18
100
AcDbEntity
  8
1DIM
100
AcDbLine
 10
4897.667145990128
 20
771.0537263480173
 30
0.0
 11
4897.667145990128
 21
781.3165823737143
 31
0.0
1001
ACAD
1000
DSTYLE
1002
{
1070
    40
1040
1.3
1070
    45
1040
0.5
1002
}
  0
LINE
  5
11788
330
18
100
AcDbEntity
  8
1DIM
100
AcDbLine
 10
4742.667145990128
 20
1004.683836047772
 30
0.0
 11
4742.667145990128
 21
941.148005546678
 31
0.0
1001
ACAD
1000
DSTYLE
1002
{
1070
    40
1040
1.3
1070
   271
1070
     0
1002
}
  0
LINE
  5
11789
330
18
100
AcDbEntity
  8
1DIM
100
AcDbLine
 10
4862.368894153795
 20
972.6729935795393
 30
0.0
 11
4862.368894153795
 21
941.148005546678
 31
0.0
1001
ACAD
1000
DSTYLE
1002
{
1070
    40
1040
1.3
1070
   271
1070
     0
1002
}
  0
LINE
  5
1178A
330
18
100
AcDbEntity
  8
1DIM
100
AcDbLine
 10
4745.267145990128
 20
942.4480055466779
 30
0.0
 11
4859.768894153794
 21
942.4480055466779
 31
0.0
1001
ACAD
1000
DSTYLE
1002
{
1070
    40
1040
1.3
1070
   271
1070
     0
1002
}
  0
LINE
  5
1178E
330
18
100
AcDbEntity
  8
0
  6
BYBLOCK
100
AcDbLine
 10
4359.670081821584
 20
778.7851543608753
 30
0.0
 11
4358.973413927584
 21
776.1851543608752
 31
0.0
  0
LINE
  5
1178F
330
18
100
AcDbEntity
  8
0
  6
BYBLOCK
100
AcDbLine
 10
4358.973413927584
 20
776.1851543608752
 30
0.0
 11
4358.276746033584
 21
778.7851543608753
 31
0.0
  0
LINE
  5
11790
330
18
100
AcDbEntity
  8
0
  6
BYBLOCK
100
AcDbLine
 10
4358.973413927584
 20
776.1851543608752
 30
0.0
 11
4358.973413927584
 21
778.7851543608753
 31
0.0
  0
LINE
  5
11791
330
18
100
AcDbEntity
  8
0
  6
BYBLOCK
100
AcDbLine
 10
4358.276746033584
 20
829.0851543608754
 30
0.0
 11
4358.973413927584
 21
831.6851543608755
 31
0.0
  0
LINE
  5
11792
330
18
100
AcDbEntity
  8
0
  6
BYBLOCK
100
AcDbLine
 10
4358.973413927584
 20
831.6851543608755
 30
0.0
 11
4359.670081821584
 21
829.0851543608754
 31
0.0
  0
LINE
  5
11793
330
18
100
AcDbEntity
  8
0
  6
BYBLOCK
100
AcDbLine
 10
4358.973413927584
 20
831.6851543608755
 30
0.0
 11
4358.973413927584
 21
829.0851543608754
 31
0.0
  0
TEXT
  5
11794
330
18
100
AcDbEntity
  8
1DIM
  6
CONTINUOUS
100
AcDbText
 10
4358.063413927584
 20
797.0785571386541
 30
0.0
 40
4.55
  1
55.5
 50
90.0
100
AcDbText
1001
ACAD
1000
DSTYLE
1002
{
1070
    40
1040
1.3
1070
    45
1040
0.5
1070
   341
1005
0
1002
}
  0
LINE
  5
11795
330
18
100
AcDbEntity
  8
0
  6
BYBLOCK
100
AcDbLine
 10
4777.631753037901
 20
1053.085154359846
 30
0.0
 11
4778.328420931901
 21
1055.685154359846
 31
0.0
  0
LINE
  5
11796
330
18
100
AcDbEntity
  8
0
  6
BYBLOCK
100
AcDbLine
 10
4778.328420931901
 20
1055.685154359846
 30
0.0
 11
4779.025088825901
 21
1053.085154359846
 31
0.0
  0
LINE
  5
11797
330
18
100
AcDbEntity
  8
0
  6
BYBLOCK
100
AcDbLine
 10
4778.328420931901
 20
1055.685154359846
 30
0.0
 11
4778.328420931901
 21
1053.085154359846
 31
0.0
  0
LINE
  5
11798
330
18
100
AcDbEntity
  8
0
  6
BYBLOCK
100
AcDbLine
 10
4779.025088825901
 20
1039.485154359846
 30
0.0
 11
4778.328420931901
 21
1036.885154359846
 31
0.0
  0
LINE
  5
11799
330
18
100
AcDbEntity
  8
0
  6
BYBLOCK
100
AcDbLine
 10
4778.328420931901
 20
1036.885154359846
 30
0.0
 11
4777.631753037901
 21
1039.485154359846
 31
0.0
  0
LINE
  5
1179A
330
18
100
AcDbEntity
  8
0
  6
BYBLOCK
100
AcDbLine
 10
4778.328420931901
 20
1036.885154359846
 30
0.0
 11
4778.328420931901
 21
1039.485154359846
 31
0.0
  0
TEXT
  5
1179B
330
18
100
AcDbEntity
  8
1DIM
  6
CONTINUOUS
100
AcDbText
 10
4777.418420931901
 20
1043.250767785772
 30
0.0
 40
4.55
  1
19
 50
90.0
100
AcDbText
1001
ACAD
1000
DSTYLE
1002
{
1070
    45
1040
0.5
1070
    40
1040
1.3
1002
}
  0
LINE
  5
1179C
330
18
100
AcDbEntity
  8
0
  6
BYBLOCK
100
AcDbLine
 10
4733.617122545307
 20
930.4871681537722
 30
0.0000000001127424
 11
4731.017122545307
 21
931.1838360477723
 31
0.0000000001127424
  0
LINE
  5
1179D
330
18
100
AcDbEntity
  8
0
  6
BYBLOCK
100
AcDbLine
 10
4731.017122545307
 20
931.1838360477723
 30
0.0000000001127424
 11
4733.617122545307
 21
931.8805039417723
 31
0.0000000001127424
  0
LINE
  5
1179E
330
18
100
AcDbEntity
  8
0
  6
BYBLOCK
100
AcDbLine
 10
4731.017122545307
 20
931.1838360477723
 30
0.0000000001127424
 11
4733.617122545307
 21
931.1838360477723
 31
0.0000000001127424
  0
LINE
  5
1179F
330
18
100
AcDbEntity
  8
0
  6
BYBLOCK
100
AcDbLine
 10
4859.768894153794
 20
931.8805039417723
 30
0.0000000001127424
 11
4862.368894153795
 21
931.1838360477723
 31
0.0000000001127424
  0
LINE
  5
117A0
330
18
100
AcDbEntity
  8
0
  6
BYBLOCK
100
AcDbLine
 10
4862.368894153795
 20
931.1838360477723
 30
0.0000000001127424
 11
4859.768894153794
 21
930.4871681537722
 31
0.0000000001127424
  0
LINE
  5
117A1
330
18
100
AcDbEntity
  8
0
  6
BYBLOCK
100
AcDbLine
 10
4862.368894153795
 20
931.1838360477723
 30
0.0000000001127424
 11
4859.768894153794
 21
931.1838360477723
 31
0.0000000001127424
  0
TEXT
  5
117A2
330
18
100
AcDbEntity
  8
1DIM
  6
CONTINUOUS
100
AcDbText
 10
4792.143008349551
 20
932.0938360477722
 30
0.0000000001127424
 40
4.55
  1
131
100
AcDbText
1001
ACAD
1000
DSTYLE
1002
{
1070
    40
1040
1.3
1070
    45
1040
0.5
1002
}
  0
LINE
  5
117A3
330
18
100
AcDbEntity
  8
0
  6
BYBLOCK
100
AcDbLine
 10
4898.363813884128
 20
987.7831125684056
 30
0.0000000001127424
 11
4897.667145990128
 21
985.1831125684056
 31
0.0000000001127424
  0
LINE
  5
117A4
330
18
100
AcDbEntity
  8
0
  6
BYBLOCK
100
AcDbLine
 10
4897.667145990128
 20
985.1831125684056
 30
0.0000000001127424
 11
4896.970478096128
 21
987.7831125684056
 31
0.0000000001127424
  0
LINE
  5
117A5
330
18
100
AcDbEntity
  8
0
  6
BYBLOCK
100
AcDbLine
 10
4897.667145990128
 20
985.1831125684056
 30
0.0000000001127424
 11
4897.667145990128
 21
987.7831125684056
 31
0.0000000001127424
  0
LINE
  5
117A6
330
18
100
AcDbEntity
  8
0
  6
BYBLOCK
100
AcDbLine
 10
4896.970478096128
 20
1023.583836047772
 30
0.0000000001127424
 11
4897.667145990128
 21
1026.183836047772
 31
0.0000000001127424
  0
LINE
  5
117A7
330
18
100
AcDbEntity
  8
0
  6
BYBLOCK
100
AcDbLine
 10
4897.667145990128
 20
1026.183836047772
 30
0.0000000001127424
 11
4898.363813884128
 21
1023.583836047772
 31
0.0000000001127424
  0
LINE
  5
117A8
330
18
100
AcDbEntity
  8
0
  6
BYBLOCK
100
AcDbLine
 10
4897.667145990128
 20
1026.183836047772
 30
0.0000000001127424
 11
4897.667145990128
 21
1023.583836047772
 31
0.0000000001127424
  0
TEXT
  5
117A9
330
18
100
AcDbEntity
  8
1DIM
  6
CONTINUOUS
100
AcDbText
 10
4896.757145990128
 20
1002.650140974756
 30
0.0000000001127424
 40
4.55
  1
41
 50
90.0
100
AcDbText
1001
ACAD
1000
DSTYLE
1002
{
1070
    40
1040
1.3
1070
    45
1040
0.5
1002
}
  0
LINE
  5
117AA
330
18
100
AcDbEntity
  8
0
  6
BYBLOCK
100
AcDbLine
 10
4908.363813884128
 20
962.7628745914076
 30
0.0000000001127424
 11
4907.667145990128
 21
960.1628745914076
 31
0.0000000001127424
  0
LINE
  5
117AB
330
18
100
AcDbEntity
  8
0
  6
BYBLOCK
100
AcDbLine
 10
4907.667145990128
 20
960.1628745914076
 30
0.0000000001127424
 11
4906.970478096128
 21
962.7628745914076
 31
0.0000000001127424
  0
LINE
  5
117AC
330
18
100
AcDbEntity
  8
0
  6
BYBLOCK
100
AcDbLine
 10
4907.667145990128
 20
960.1628745914076
 30
0.0000000001127424
 11
4907.667145990128
 21
962.7628745914076
 31
0.0000000001127424
  0
LINE
  5
117AD
330
18
100
AcDbEntity
  8
0
  6
BYBLOCK
100
AcDbLine
 10
4906.970478096128
 20
1023.583836047772
 30
0.0000000001127424
 11
4907.667145990128
 21
1026.183836047772
 31
0.0000000001127424
  0
LINE
  5
117AE
330
18
100
AcDbEntity
  8
0
  6
BYBLOCK
100
AcDbLine
 10
4907.667145990128
 20
1026.183836047772
 30
0.0000000001127424
 11
4908.363813884128
 21
1023.583836047772
 31
0.0000000001127424
  0
LINE
  5
117AF
330
18
100
AcDbEntity
  8
0
  6
BYBLOCK
100
AcDbLine
 10
4907.667145990128
 20
1026.183836047772
 30
0.0000000001127424
 11
4907.667145990128
 21
1023.583836047772
 31
0.0000000001127424
  0
TEXT
  5
117B0
330
18
100
AcDbEntity
  8
1DIM
  6
CONTINUOUS
100
AcDbText
 10
4906.757145990128
 20
989.3658900418131
 30
0.0000000001127424
 40
4.55
  1
66
 50
90.0
100
AcDbText
1001
ACAD
1000
DSTYLE
1002
{
1070
    40
1040
1.3
1070
    45
1040
0.5
1002
}
  0
LINE
  5
117B1
330
18
100
AcDbEntity
  8
0
  6
BYBLOCK
100
AcDbLine
 10
4898.363813884128
 20
771.0537263480173
 30
0.0
 11
4897.667145990128
 21
768.4537263480173
 31
0.0
  0
LINE
  5
117B2
330
18
100
AcDbEntity
  8
0
  6
BYBLOCK
100
AcDbLine
 10
4897.667145990128
 20
768.4537263480173
 30
0.0
 11
4896.970478096128
 21
771.0537263480173
 31
0.0
  0
LINE
  5
117B3
330
18
100
AcDbEntity
  8
0
  6
BYBLOCK
100
AcDbLine
 10
4897.667145990128
 20
768.4537263480173
 30
0.0
 11
4897.667145990128
 21
771.0537263480173
 31
0.0
  0
LINE
  5
117B4
330
18
100
AcDbEntity
  8
0
  6
BYBLOCK
100
AcDbLine
 10
4896.970478096128
 20
781.3165823737143
 30
0.0
 11
4897.667145990128
 21
783.9165823737143
 31
0.0
  0
LINE
  5
117B5
330
18
100
AcDbEntity
  8
0
  6
BYBLOCK
100
AcDbLine
 10
4897.667145990128
 20
783.9165823737143
 30
0.0
 11
4898.363813884128
 21
781.3165823737143
 31
0.0
  0
LINE
  5
117B6
330
18
100
AcDbEntity
  8
0
  6
BYBLOCK
100
AcDbLine
 10
4897.667145990128
 20
783.9165823737143
 30
0.0
 11
4897.667145990128
 21
781.3165823737143
 31
0.0
  0
TEXT
  5
117B7
330
18
100
AcDbEntity
  8
1DIM
  6
CONTINUOUS
100
AcDbText
 10
4896.757145990128
 20
770.102689083089
 30
0.0
 40
4.55
  1
15.5
 50
90.0
100
AcDbText
1001
ACAD
1000
DSTYLE
1002
{
1070
    40
1040
1.3
1070
    45
1040
0.5
1002
}
  0
LINE
  5
117B8
330
18
100
AcDbEntity
  8
0
  6
BYBLOCK
100
AcDbLine
 10
4745.267145990128
 20
941.7513376526779
 30
0.0
 11
4742.667145990128
 21
942.4480055466779
 31
0.0
  0
LINE
  5
117B9
330
18
100
AcDbEntity
  8
0
  6
BYBLOCK
100
AcDbLine
 10
4742.667145990128
 20
942.4480055466779
 30
0.0
 11
4745.267145990128
 21
943.1446734406779
 31
0.0
  0
LINE
  5
117BA
330
18
100
AcDbEntity
  8
0
  6
BYBLOCK
100
AcDbLine
 10
4742.667145990128
 20
942.4480055466779
 30
0.0
 11
4745.267145990128
 21
942.4480055466779
 31
0.0
  0
LINE
  5
117BB
330
18
100
AcDbEntity
  8
0
  6
BYBLOCK
100
AcDbLine
 10
4859.768894153794
 20
943.1446734406779
 30
0.0
 11
4862.368894153795
 21
942.4480055466779
 31
0.0
  0
LINE
  5
117BC
330
18
100
AcDbEntity
  8
0
  6
BYBLOCK
100
AcDbLine
 10
4862.368894153795
 20
942.4480055466779
 30
0.0
 11
4859.768894153794
 21
941.7513376526779
 31
0.0
  0
LINE
  5
117BD
330
18
100
AcDbEntity
  8
0
  6
BYBLOCK
100
AcDbLine
 10
4862.368894153795
 20
942.4480055466779
 30
0.0
 11
4859.768894153794
 21
942.4480055466779
 31
0.0
  0
TEXT
  5
117BE
330
18
100
AcDbEntity
  8
1DIM
  6
CONTINUOUS
100
AcDbText
 10
4797.494061738628
 20
943.3580055466779
 30
0.0
 40
4.55
  1
120
100
AcDbText
1001
ACAD
1000
DSTYLE
1002
{
1070
    40
1040
1.3
1070
   271
1070
     0
1002
}
  0
VIEWPORT
  5
57
330
15
100
AcDbEntity
 67
     1
  8
0
100
AcDbViewport
 68
     1
 10
0.0
 20
0.0
 30
0.0
 40
535.5106132075471
 41
296.9999999999999
 68
     1
 69
     1
1001
ACAD
1000
MVIEW
1002
{
1070
    16
1010
0.0
1020
0.0
1030
0.0
1010
0.0
1020
0.0
1030
1.0
1040
0.0
1040
296.9999999999999
1040
5.728000000000009
1040
25.339
1040
50.0
1040
0.0
1040
0.0
1070
    16
1070
   100
1070
     0
1070
     1
1070
     0
1070
     0
1070
     0
1070
     0
1040
0.0
1040
0.0
1040
0.0
1040
10.0
1040
10.0
1040
10.0
1040
10.0
1070
     0
1002
{
1002
}
1002
}
  0
ENDSEC
  0
SECTION
  2
OBJECTS
  0
DICTIONARY
  5
C
330
0
100
AcDbDictionary
  3
ACAD_CIP_PREVIOUS_PRODUCT_INFO
350
AEA8
  3
ACAD_COLOR
350
18D
  3
ACAD_GROUP
350
D
  3
ACAD_LAYOUT
350
18E
  3
ACAD_MATERIAL
350
18C
  3
ACAD_MLEADERSTYLE
350
9583
  3
ACAD_MLINESTYLE
350
1B
  3
ACAD_PLOTSETTINGS
350
18F
  3
ACAD_SCALELIST
350
9561
  3
ACAD_VISUALSTYLE
350
9550
  3
ACDBHEADERROUNDTRIPXREC
350
117BF
  3
ACDBVARIABLEDICTIONARY
350
37
  3
CONTENTDICTIONARY
350
D8
  3
DRAWINGVARIABLESDICT
350
20
  3
DWGPROPS
350
117C2
1001
ACAD
1000
TREAT_AS_HARD
1070
     0
  0
DICTIONARY
  5
96D9
330
2
100
AcDbDictionary
  3
ACAD_LAYERSTATES
360
96DA
1001
ACAD
1000
TREAT_AS_HARD
1070
     1
  0
DICTIONARY
  5
9593
330
E
100
AcDbDictionary
  3
ADSK_XREC_LAYER_RECONCILED
360
9594
1001
ACAD
1000
TREAT_AS_HARD
1070
     1
  0
DICTIONARY
  5
9595
330
29
100
AcDbDictionary
  3
ADSK_XREC_LAYER_RECONCILED
360
9596
1001
ACAD
1000
TREAT_AS_HARD
1070
     1
  0
DICTIONARY
  5
9597
330
31
100
AcDbDictionary
  3
ADSK_XREC_LAYER_RECONCILED
360
9598
1001
ACAD
1000
TREAT_AS_HARD
1070
     1
  0
DICTIONARY
  5
959D
330
243
100
AcDbDictionary
  3
ADSK_XREC_LAYER_RECONCILED
360
959E
1001
ACAD
1000
TREAT_AS_HARD
1070
     1
  0
DICTIONARY
  5
95A3
330
24E
100
AcDbDictionary
  3
ADSK_XREC_LAYER_RECONCILED
360
95A4
1001
ACAD
1000
TREAT_AS_HARD
1070
     1
  0
DICTIONARY
  5
95AF
330
2C05
100
AcDbDictionary
  3
ADSK_XREC_LAYER_RECONCILED
360
95B0
1001
ACAD
1000
TREAT_AS_HARD
1070
     1
  0
DICTIONARY
  5
88F
330
18
100
AcDbDictionary
  3
ACAD_SORTENTS
360
890
1001
ACAD
1000
TREAT_AS_HARD
1070
     1
  0
XRECORD
  5
AEA8
102
{ACAD_REACTORS
330
C
102
}
330
C
100
AcDbXrecord
300
ACDLT
300
2012
300
ACDLT_F_S
  0
DICTIONARY
  5
18D
102
{ACAD_REACTORS
330
C
102
}
330
C
100
AcDbDictionary
1001
ACAD
1000
TREAT_AS_HARD
1070
     0
  0
DICTIONARY
  5
D
102
{ACAD_REACTORS
330
C
102
}
330
C
100
AcDbDictionary
1001
ACAD
1000
TREAT_AS_HARD
1070
     0
  0
DICTIONARY
  5
18E
102
{ACAD_REACTORS
330
C
102
}
330
C
100
AcDbDictionary
1001
ACAD
1000
TREAT_AS_HARD
1070
     0
  0
DICTIONARY
  5
18C
102
{ACAD_REACTORS
330
C
102
}
330
C
100
AcDbDictionary
  3
BYBLOCK
350
9540
  3
BYLAYER
350
9538
  3
GLOBAL
350
9548
1001
ACAD
1000
TREAT_AS_HARD
1070
     0
  0
DICTIONARY
  5
9583
102
{ACAD_REACTORS
330
C
102
}
330
C
100
AcDbDictionary
  3
STANDARD
350
9584
1001
ACAD
1000
TREAT_AS_HARD
1070
     0
  0
DICTIONARY
  5
1B
102
{ACAD_REACTORS
330
C
102
}
330
C
100
AcDbDictionary
  3
STANDARD
350
1C
1001
ACAD
1000
TREAT_AS_HARD
1070
     0
  0
DICTIONARY
  5
18F
102
{ACAD_REACTORS
330
C
102
}
330
C
100
AcDbDictionary
1001
ACAD
1000
TREAT_AS_HARD
1070
     0
  0
DICTIONARY
  5
9561
102
{ACAD_REACTORS
330
C
102
}
330
C
100
AcDbDictionary
  3
A0
350
9562
  3
A1
350
9563
  3
A2
350
9564
  3
A3
350
9565
  3
A4
350
9566
  3
A5
350
9567
  3
A6
350
9568
  3
A7
350
9569
  3
A8
350
956A
  3
A9
350
956B
  3
B0
350
956C
  3
B1
350
956D
  3
B2
350
956E
  3
B3
350
956F
  3
B4
350
9570
  3
B5
350
9571
  3
B6
350
9572
  3
B7
350
9573
  3
B8
350
9574
  3
B9
350
9575
  3
C0
350
9576
  3
C1
350
9577
  3
C2
350
9578
  3
C3
350
9579
  3
C4
350
957A
  3
C5
350
957B
  3
C6
350
957C
  3
C7
350
957D
  3
C8
350
957E
  3
C9
350
957F
  3
D0
350
9580
  3
D1
350
9581
  3
D2
350
9582
1001
ACAD
1000
TREAT_AS_HARD
1070
     0
  0
DICTIONARY
  5
9550
102
{ACAD_REACTORS
330
C
102
}
330
C
100
AcDbDictionary
  3
2DWIREFRAME
350
9556
  3
3D_HIDDEN
350
9558
  3
3DWIREFRAME
350
9557
  3
BASIC
350
9555
  3
BRIGHTEN
350
955C
  3
COLORCHANGE
350
9560
  3
CONCEPTUAL
350
9559
  3
DIM
350
955B
  3
EDGECOLOROFF
350
A211
  3
FACEPATTERN
350
955F
  3
FLAT
350
9551
  3
FLATWITHEDGES
350
9552
  3
GOURAUD
350
9553
  3
GOURAUDWITHEDGES
350
9554
  3
HIDDEN
350
A260
  3
JITTEROFF
350
A20F
  3
LINEPATTERN
350
955E
  3
MODELING
350
A266
  3
OVERHANGOFF
350
A210
  3
REALISTIC
350
955A
  3
SHADED
350
A265
  3
SHADED_WITH_EDGES
350
A264
  3
SHADES_OF_GRAY
350
A261
  3
SKETCHY
350
A262
  3
THICKEN
350
955D
  3
WIREFRAME
350
A25F
  3
X-RAY
350
A263
1001
ACAD
1000
TREAT_AS_HARD
1070
     0
  0
DICTIONARY
  5
117BF
102
{ACAD_REACTORS
330
C
102
}
330
C
100
AcDbDictionary
  3
COLORDICT
350
117C0
  3
MATERIALDICT
350
117C1
1001
ACAD
1000
TREAT_AS_HARD
1070
     0
  0
DICTIONARY
  5
37
102
{ACAD_REACTORS
330
C
102
}
330
C
100
AcDbDictionary
  3
CANNOSCALE
350
AAE0
  3
CMLEADERSTYLE
350
9627
  3
CTABLESTYLE
350
29E
  3
DIMADEC
350
38
  3
DIMASSOC
350
1CE
  3
HIDETEXT
350
704E
  3
INDEXCTL
350
962A
  3
INTERSECTIONCOLOR
350
7052
  3
INTERSECTIONDISPLAY
350
7051
  3
MSLTSCALE
350
AB30
  3
OBSCOLOR
350
704F
  3
OBSLTYPE
350
7050
  3
PROJECTNAME
350
1CF
  3
SORTENTS
350
9629
  3
XCLIPFRAME
350
115A9
1001
ACAD
1000
TREAT_AS_HARD
1070
     0
  0
DICTIONARY
  5
D8
102
{ACAD_REACTORS
330
C
102
}
330
C
100
AcDbDictionary
1001
ACAD
1000
TREAT_AS_HARD
1070
     0
  0
DICTIONARY
  5
20
102
{ACAD_REACTORS
330
C
102
}
330
C
100
AcDbDictionary
1001
DRAWINGVARIABLESXDATA
1000
POLARANG
1000
0.261799387799149410000000
1000
POLARMODE
1000
1
1000
POLARSTYLE
1000
1
1001
ACAD
1000
TREAT_AS_HARD
1070
     0
  0
XRECORD
  5
117C2
102
{ACAD_REACTORS
330
C
102
}
330
C
100
AcDbXrecord
  1
DWGPROPS COOKIE
  2

  3

  4

  6

  7

  8
3684
  9

300
=
301
=
302
=
303
=
304
=
305
=
306
=
307
=
308
=
309
=
 40
0.0
 41
2451318.246352917
 42
2458967.195108808
  1

 90
        0
  0
DICTIONARY
  5
96DA
102
{ACAD_REACTORS
330
96D9
102
}
330
96D9
100
AcDbDictionary
1001
ACAD
1000
TREAT_AS_HARD
1070
     0
  0
ACAD_PROXY_OBJECT
  5
9594
102
{ACAD_REACTORS
330
9593
102
}
330
9593
100
AcDbZombieObject
 90
      499
 91
      514
 93
       34
310
40C8804040
  0
ACAD_PROXY_OBJECT
  5
9596
102
{ACAD_REACTORS
330
9595
102
}
330
9595
100
AcDbZombieObject
 90
      499
 91
      514
 93
       34
310
40C8804040
  0
ACAD_PROXY_OBJECT
  5
9598
102
{ACAD_REACTORS
330
9597
102
}
330
9597
100
AcDbZombieObject
 90
      499
 91
      514
 93
       34
310
40C8804040
  0
ACAD_PROXY_OBJECT
  5
959E
102
{ACAD_REACTORS
330
959D
102
}
330
959D
100
AcDbZombieObject
 90
      499
 91
      514
 93
       34
310
40C8804040
  0
ACAD_PROXY_OBJECT
  5
95A4
102
{ACAD_REACTORS
330
95A3
102
}
330
95A3
100
AcDbZombieObject
 90
      499
 91
      514
 93
       34
310
40C8804040
  0
ACAD_PROXY_OBJECT
  5
95B0
102
{ACAD_REACTORS
330
95AF
102
}
330
95AF
100
AcDbZombieObject
 90
      499
 91
      514
 93
       34
310
40C8804040
  0
SORTENTSTABLE
  5
890
102
{ACAD_REACTORS
330
88F
102
}
330
88F
100
AcDbSortentsTable
330
18
331
0
  5
FA6C
331
FA46
  5
FA7A
331
FA47
  5
FA7B
331
FA48
  5
FA7C
331
FA49
  5
FA7D
331
FA4A
  5
FA7E
331
FA4B
  5
FA7F
331
FA4C
  5
FA80
331
FA4D
  5
FA81
331
FA4E
  5
FA82
331
FA4F
  5
FA83
331
FA50
  5
FA84
331
FA51
  5
FA85
331
FA52
  5
FA86
331
FA53
  5
FA87
331
FA54
  5
FA88
331
FA55
  5
FA89
331
FA56
  5
FA8A
331
FA57
  5
FA8B
331
FA58
  5
FA8C
331
FA59
  5
FA8D
331
FA5A
  5
FA8E
331
FA5B
  5
FA8F
331
FA5C
  5
FA90
331
FA5D
  5
FA91
331
FA5E
  5
FA92
331
FA5F
  5
FA93
331
FA60
  5
FA94
331
FA61
  5
FA95
331
FA62
  5
FA96
331
FA63
  5
FA97
331
FA64
  5
FA98
331
FA65
  5
FA99
331
FA66
  5
FA9A
331
FA67
  5
FA9B
331
FA68
  5
FA9C
331
FA69
  5
FA9D
331
FA6A
  5
FA9E
331
FA6B
  5
FA9F
331
FA6C
  5
FAA0
331
FA6D
  5
FAA1
331
FA6E
  5
FAA2
331
FA6F
  5
FAA3
331
FA70
  5
FAA4
331
FA71
  5
FAA5
331
FA72
  5
FAA6
331
FA73
  5
FAA7
331
FA74
  5
FAA8
331
FA75
  5
FAA9
331
FA76
  5
FAAA
331
FA77
  5
FAAB
331
FA78
  5
FAAC
331
FA79
  5
FAAD
331
FA7A
  5
FE5F
331
FA7B
  5
FE61
331
FA7C
  5
FE62
331
FA7D
  5
FE63
331
FA7E
  5
FE67
331
FA7F
  5
FE68
331
FA80
  5
FE69
331
FA81
  5
FE6A
331
FA82
  5
FE6B
331
FA83
  5
FE6C
331
FA84
  5
FE6D
331
FA85
  5
FE6E
331
FA86
  5
FE6F
331
FA87
  5
FE70
331
FA88
  5
FE71
331
FA89
  5
FE72
331
FA8A
  5
FE73
331
FA8B
  5
FE74
331
FA8C
  5
FE75
331
FA8D
  5
FE76
331
FA8E
  5
FE77
331
FA8F
  5
FE7B
331
FA90
  5
FE7C
331
FA91
  5
FE7D
331
FA92
  5
FE7E
331
FA93
  5
FE7F
331
FA94
  5
FE80
331
FA95
  5
FE84
331
FA96
  5
FE85
331
FA97
  5
FE86
331
FA98
  5
FE87
331
FA99
  5
FE88
331
FA9A
  5
FE89
331
FA9B
  5
FE8D
331
FA9C
  5
FE8E
331
FA9D
  5
FE8F
331
FA9E
  5
FE93
331
FA9F
  5
FE94
331
FAA0
  5
FE95
331
FAA1
  5
FE99
331
FAA2
  5
FE9A
331
FAA3
  5
FE9B
331
FAA4
  5
FE9C
331
FAA5
  5
FE9D
331
FAA6
  5
FE9E
331
FAA7
  5
FE9F
331
FAA8
  5
FEA0
331
FAA9
  5
FEA1
331
FAAA
  5
FEA2
331
FAAB
  5
FEA3
331
FAAC
  5
FEA4
331
FAAD
  5
FEA6
331
0
  5
FEA5
331
FE61
  5
FEBF
331
FE62
  5
FEC0
331
FE63
  5
FEC1
331
FE67
  5
FEE4
331
FE68
  5
FEE5
331
FE69
  5
FEE6
331
FE6A
  5
FEE7
331
FE6B
  5
FEE8
331
FE6C
  5
FEE9
331
FE6D
  5
FEEA
331
FE6E
  5
FEEB
331
FE6F
  5
FEEC
331
FE70
  5
FEED
331
FE71
  5
FEEE
331
FE72
  5
FEEF
331
FE73
  5
FEF0
331
FE74
  5
FEF1
331
FE75
  5
FEF2
331
FE76
  5
FEF3
331
FE77
  5
FEF4
331
FE78
  5
FEF5
331
FE79
  5
FEF6
331
FE7A
  5
FEF7
331
FE7B
  5
FEF8
331
FE7C
  5
FEF9
331
FE7D
  5
FEFA
331
FE7E
  5
FEFB
331
FE7F
  5
FEFC
331
FE80
  5
FEFD
331
FE81
  5
FEFE
331
FE82
  5
FEFF
331
FE83
  5
FF00
331
FE84
  5
FF01
331
FE85
  5
FF02
331
FE86
  5
FF03
331
FE87
  5
FF04
331
FE88
  5
FF08
331
FE89
  5
FF09
331
FE8A
  5
FF0A
331
FE8B
  5
FF0E
331
FE8C
  5
FF0F
331
FE8D
  5
FF10
331
FE8E
  5
FF14
331
FE8F
  5
FF15
331
FE90
  5
FF16
331
FE91
  5
FF17
331
FE92
  5
FF18
331
FE93
  5
FF19
331
FE94
  5
FF1A
331
FE95
  5
FF1B
331
FE96
  5
FF1C
331
FE97
  5
FF1D
331
FE98
  5
FF1F
331
FE99
  5
FF20
331
FE9A
  5
FF21
331
FE9B
  5
FF22
331
FE9C
  5
FF23
331
FE9D
  5
FF24
331
FE9E
  5
FF25
331
FE9F
  5
FF26
331
FEA0
  5
FF27
331
FEA1
  5
FF2E
331
FEA2
  5
FF2F
331
FEA3
  5
FF33
331
FEA4
  5
FF34
331
FEA5
  5
FF35
331
FEA6
  5
FF36
331
0
  5
FF1E
331
FEA8
  5
FF42
331
FEA9
  5
FF43
331
FEAA
  5
FF44
331
FEAB
  5
FF45
331
FEAC
  5
FF46
331
FEAD
  5
FF47
331
FEAE
  5
FF48
331
FEAF
  5
FF49
331
FEB0
  5
FF4A
331
FEB1
  5
FF4B
331
FEB2
  5
FF4D
331
FEB3
  5
FF4E
331
FEB4
  5
FF4F
331
FEB5
  5
FF50
331
FEB6
  5
FF51
331
FEB7
  5
FF52
331
FEB8
  5
FF53
331
FEB9
  5
FF54
331
FEBA
  5
FF55
331
FEBB
  5
FF56
331
FEBC
  5
FF57
331
FEBD
  5
FF58
331
FEBE
  5
FF59
331
FEBF
  5
FF5A
331
FEC0
  5
FF5B
331
FEC1
  5
FF5C
331
FEC2
  5
FF5D
331
FEC3
  5
FF5E
331
FEC4
  5
FF5F
331
FEC5
  5
FF60
331
FEC6
  5
FF61
331
FEC7
  5
FF62
331
FEC8
  5
FF63
331
FEC9
  5
FF64
331
FECA
  5
FF65
331
FECB
  5
FF66
331
FECF
  5
FF85
331
FED0
  5
FF86
331
FED1
  5
FF87
331
FED2
  5
FF88
331
FED3
  5
FF89
331
FED4
  5
FF8A
331
FED5
  5
FF8B
331
FED6
  5
FF8C
331
FED7
  5
FF8D
331
FED8
  5
FF8E
331
FED9
  5
FF8F
331
FEDB
  5
FF96
331
FEDC
  5
FF97
331
FEDD
  5
FF98
331
FEDE
  5
FF99
331
FEDF
  5
FF9A
331
FEE0
  5
FF9E
331
FEE1
  5
FF9F
331
FEE2
  5
FFA0
331
FEE3
  5
FFA1
331
FEE4
  5
FFA2
331
FEE5
  5
FFA3
331
FEE6
  5
FFA4
331
FEE7
  5
FFA5
331
FEE8
  5
FFA6
331
FEE9
  5
FFA7
331
FEEA
  5
FFA8
331
FEEB
  5
FFA9
331
FEEC
  5
FFAA
331
FEED
  5
FFAB
331
FEEE
  5
FFAC
331
FEEF
  5
FFAD
331
FEF0
  5
FFAE
331
FEF1
  5
FFAF
331
FEF2
  5
FFB0
331
FEF3
  5
FFB1
331
FEF4
  5
FFB2
331
FEF5
  5
FFB3
331
FEF6
  5
FFB4
331
FEF7
  5
FFB5
331
FEF8
  5
FFB6
331
FEF9
  5
FFB7
331
FEFA
  5
FFB8
331
FEFB
  5
FFB9
331
FEFC
  5
FFBA
331
FEFD
  5
116BD
331
FEFE
  5
116BE
331
FEFF
  5
116BF
331
FF00
  5
116C0
331
FF01
  5
116C1
331
FF02
  5
116C2
331
FF03
  5
116C3
331
FF04
  5
116C4
331
FF05
  5
116C5
331
FF06
  5
116C6
331
FF07
  5
116C7
331
FF08
  5
116C8
331
FF09
  5
116C9
331
FF0A
  5
116CA
331
FF0B
  5
116CB
331
FF0C
  5
116CC
331
FF0D
  5
116CD
331
FF0E
  5
116CE
331
FF0F
  5
116CF
331
FF10
  5
116D0
331
FF11
  5
116D1
331
FF12
  5
116D2
331
FF13
  5
116D3
331
FF14
  5
116D4
331
FF15
  5
116D5
331
FF16
  5
116D6
331
FF17
  5
116D7
331
FF18
  5
116D8
331
FF19
  5
116D9
331
FF1A
  5
116DA
331
FF1B
  5
116DB
331
FF1C
  5
116DC
331
FF1D
  5
116DD
331
FF1E
  5
116DE
331
FF1F
  5
116DF
331
FF20
  5
116E0
331
FF21
  5
116E1
331
FF22
  5
116E2
331
FF23
  5
116E3
331
FF24
  5
116E7
331
FF25
  5
116E8
331
FF26
  5
116E9
331
FF27
  5
116EA
331
FF2E
  5
116EB
331
FF2F
  5
116EC
331
FF30
  5
116ED
331
FF31
  5
116EE
331
FF32
  5
116EF
331
FF33
  5
116F0
331
FF34
  5
116F1
331
FF35
  5
116F2
331
FF36
  5
116F3
331
FF37
  5
116F4
331
FF38
  5
116F5
331
FF39
  5
116F6
331
FF3A
  5
116F7
331
FF3B
  5
116FB
331
FF3C
  5
116FC
331
FF3D
  5
116FD
331
FF3E
  5
11701
331
FF3F
  5
11702
331
FF41
  5
11707
331
FF42
  5
11708
331
FF43
  5
1170A
331
FF44
  5
1170B
331
FF45
  5
1170C
331
0
  5
116E4
331
0
  5
116E5
331
0
  5
116E6
331
FF49
  5
1172B
331
FF4A
  5
1172C
331
FF4B
  5
11731
331
FF4D
  5
1173C
331
FF4E
  5
1173D
331
FF4F
  5
1173E
331
FF50
  5
1173F
331
FF51
  5
11740
331
FF52
  5
11741
331
FF53
  5
11742
331
FF54
  5
11743
331
FF55
  5
11744
331
FF56
  5
11745
331
FF57
  5
11746
331
FF58
  5
11747
331
FF59
  5
11748
331
FF5A
  5
11749
331
FF5B
  5
1174A
331
FF5C
  5
1174B
331
FF5D
  5
1174C
331
FF5E
  5
1174D
331
FF5F
  5
1174E
331
FF60
  5
1174F
331
FF61
  5
11750
331
0
  5
11709
331
FF63
  5
1175E
331
FF64
  5
1175F
331
FF65
  5
11760
331
FF66
  5
11761
331
FF67
  5
11762
331
FF68
  5
11763
331
FF69
  5
11764
331
FF6A
  5
11765
331
FF6B
  5
11766
331
FF6C
  5
11767
331
FF6D
  5
11768
331
FF6E
  5
11769
331
FF6F
  5
1176A
331
FF70
  5
1176B
331
FF71
  5
1176C
331
FF72
  5
1176D
331
FF73
  5
1176E
331
FF74
  5
1176F
331
FF75
  5
11770
331
FF76
  5
11771
331
FF77
  5
11772
331
FF78
  5
11773
331
FF79
  5
11774
331
FF7A
  5
11775
331
FF7B
  5
11776
331
FF7C
  5
11777
331
FF7D
  5
11778
331
FF7E
  5
11779
331
FF7F
  5
1177A
331
FF80
  5
1177B
331
FF81
  5
1177C
331
FF82
  5
1177D
331
FF83
  5
1177E
331
FF84
  5
1177F
331
FF85
  5
11780
331
FF86
  5
11781
331
FF87
  5
11782
331
FF88
  5
11783
331
0
  5
11730
331
FF8A
  5
1178E
331
FF8B
  5
1178F
331
FF8C
  5
11790
331
FF8D
  5
11791
331
FF8E
  5
11792
331
FF8F
  5
11793
331
FF90
  5
11794
331
FF91
  5
11795
331
FF92
  5
11796
331
FF93
  5
11797
331
FF94
  5
11798
331
FF95
  5
11799
331
FF96
  5
1179A
331
FF97
  5
1179B
331
FF98
  5
1179C
331
FF99
  5
1179D
331
FF9A
  5
1179E
331
FF9B
  5
1179F
331
FF9C
  5
117A0
331
FF9D
  5
117A1
331
FF9E
  5
117A2
331
FF9F
  5
117A3
331
FFA0
  5
117A4
331
FFA1
  5
117A5
331
FFA2
  5
117A6
331
FFA3
  5
117A7
331
FFA4
  5
117A8
331
FFA5
  5
117A9
331
FFA6
  5
117AA
331
FFA7
  5
117AB
331
FFA8
  5
117AC
331
FFA9
  5
117AD
331
FFAA
  5
117AE
331
FFAB
  5
117AF
331
FFAC
  5
117B0
331
FFAD
  5
117B1
331
FFAE
  5
117B2
331
FFAF
  5
117B3
331
FFB0
  5
117B4
331
FFB1
  5
117B5
331
FFB2
  5
117B6
331
FFB3
  5
117B7
331
FFB4
  5
117B8
331
FFB5
  5
117B9
331
FFB6
  5
117BA
331
FFB7
  5
117BB
331
FFB8
  5
117BC
331
FFB9
  5
117BD
331
FFBA
  5
117BE
331
116BD
  5
F9AF
331
116BE
  5
FA46
331
116BF
  5
FA47
331
0
  5
FA48
331
0
  5
FA49
331
0
  5
FA4A
331
116C3
  5
FA58
331
116C4
  5
FA59
331
116C5
  5
FA5A
331
0
  5
FA4E
331
0
  5
FA4F
331
0
  5
FA50
331
116C9
  5
FA62
331
116CA
  5
FA63
331
116CB
  5
FA64
331
0
  5
FA54
331
0
  5
FA55
331
0
  5
FA56
331
116CF
  5
FEA7
331
116D0
  5
FEA8
331
116D1
  5
FEA9
331
0
  5
FE78
331
0
  5
FE79
331
0
  5
FE7A
331
116D5
  5
FEB1
331
116D6
  5
FEB2
331
116D7
  5
FEB5
331
116D8
  5
FEB6
331
116D9
  5
FEB7
331
0
  5
FE81
331
0
  5
FE82
331
0
  5
FE83
331
116DD
  5
FEC2
331
116DE
  5
FEC3
331
116DF
  5
FEC4
331
0
  5
FE8A
331
0
  5
FE8B
331
0
  5
FE8C
331
116E3
  5
FECF
331
116E4
  5
FED0
331
116E5
  5
FED1
331
0
  5
FE90
331
0
  5
FE91
331
0
  5
FE92
331
116E9
  5
FED9
331
116EA
  5
FEDB
331
116EB
  5
FEDC
331
0
  5
FE96
331
0
  5
FE97
331
0
  5
FE98
331
116EF
  5
FF67
331
116F0
  5
FF68
331
116F1
  5
FF69
331
0
  5
FF05
331
0
  5
FF06
331
0
  5
FF07
331
116F5
  5
FF71
331
116F6
  5
FF72
331
116F7
  5
FF73
331
0
  5
FF0B
331
0
  5
FF0C
331
0
  5
FF0D
331
116FB
  5
FF7B
331
116FC
  5
FF7C
331
116FD
  5
FF7D
331
0
  5
FF11
331
0
  5
FF12
331
0
  5
FF13
331
11701
  5
FF90
331
11702
  5
FF91
331
11703
  5
FF92
331
11704
  5
FF93
331
11705
  5
FF94
331
11706
  5
FF95
331
11707
  5
11703
331
11708
  5
11732
331
11709
  5
11733
331
1170A
  5
11734
331
0
  5
FF9B
331
0
  5
FF9C
331
0
  5
FF9D
331
1170E
  5
FA4B
331
1170F
  5
FA4C
331
11710
  5
FA4D
331
11711
  5
FA51
331
11712
  5
FA52
331
11713
  5
FA53
331
11714
  5
FA57
331
11715
  5
FA5B
331
11716
  5
FA5C
331
11717
  5
FA5D
331
11718
  5
FA5E
331
11719
  5
FA5F
331
1171A
  5
FA60
331
1171B
  5
FA61
331
1171C
  5
FA65
331
1171D
  5
FA66
331
1171E
  5
FA67
331
1171F
  5
FA68
331
11720
  5
FA69
331
11721
  5
FA6A
331
11722
  5
FA6B
331
11723
  5
FEAA
331
11724
  5
FEAB
331
11725
  5
FEAC
331
11726
  5
FEAD
331
11727
  5
FEAE
331
11728
  5
FEAF
331
11729
  5
FEB0
331
1172A
  5
FEB8
331
1172B
  5
FEB9
331
1172C
  5
FEBA
331
1172D
  5
FEBB
331
1172E
  5
FEBC
331
1172F
  5
FEBD
331
11730
  5
FEBE
331
11731
  5
FEC5
331
11732
  5
FEC6
331
11733
  5
FEC7
331
11734
  5
FEC8
331
11735
  5
FEC9
331
11736
  5
FECA
331
11737
  5
FECB
331
11738
  5
FED2
331
11739
  5
FED3
331
1173A
  5
FED4
331
1173B
  5
FED5
331
1173C
  5
FED6
331
1173D
  5
FED7
331
1173E
  5
FED8
331
1173F
  5
FEDD
331
11740
  5
FEDE
331
11741
  5
FEDF
331
11742
  5
FEE0
331
11743
  5
FEE1
331
11744
  5
FEE2
331
11745
  5
FEE3
331
11746
  5
FF6A
331
11747
  5
FF6B
331
11748
  5
FF6C
331
11749
  5
FF6D
331
1174A
  5
FF6E
331
1174B
  5
FF6F
331
1174C
  5
FF70
331
1174D
  5
FF74
331
1174E
  5
FF75
331
1174F
  5
FF76
331
11750
  5
FF77
331
11751
  5
FF78
331
11752
  5
FF79
331
11753
  5
FF7A
331
11754
  5
FF7E
331
11755
  5
FF7F
331
11756
  5
FF80
331
11757
  5
FF81
331
11758
  5
FF82
331
11759
  5
FF83
331
1175A
  5
FF84
331
1175B
  5
11735
331
1175C
  5
11736
331
1175D
  5
11737
331
1175E
  5
11738
331
1175F
  5
11739
331
11760
  5
1173A
331
11761
  5
1173B
331
11762
  5
FA6D
331
11763
  5
FA6E
331
11764
  5
FA6F
331
0
  5
FA70
331
0
  5
FA71
331
0
  5
FA72
331
11768
  5
FEB3
331
11769
  5
FEB4
331
1176A
  5
FF37
331
1176B
  5
FF38
331
1176C
  5
FF39
331
0
  5
FF30
331
0
  5
FF31
331
0
  5
FF32
331
11770
  5
1170D
331
11771
  5
1170E
331
11772
  5
1170F
331
0
  5
116F8
331
0
  5
116F9
331
0
  5
116FA
331
11776
  5
11717
331
11777
  5
11718
331
11778
  5
11719
331
0
  5
116FE
331
0
  5
116FF
331
0
  5
11700
331
1177C
  5
11721
331
1177D
  5
11722
331
1177E
  5
11723
331
0
  5
11704
331
0
  5
11705
331
0
  5
11706
331
11782
  5
11751
331
11783
  5
11752
331
11784
  5
11753
331
0
  5
1172D
331
0
  5
1172E
331
0
  5
1172F
331
11788
  5
11784
331
11789
  5
11785
331
1178A
  5
11786
331
0
  5
1175A
331
0
  5
1175B
331
0
  5
1175C
331
1178E
  5
FA73
331
1178F
  5
FA74
331
11790
  5
FA75
331
11791
  5
FA76
331
11792
  5
FA77
331
11793
  5
FA78
331
11794
  5
FA79
331
11795
  5
FF3A
331
11796
  5
FF3B
331
11797
  5
FF3C
331
11798
  5
FF3D
331
11799
  5
FF3E
331
1179A
  5
FF3F
331
1179B
  5
FF41
331
1179C
  5
11710
331
1179D
  5
11711
331
1179E
  5
11712
331
1179F
  5
11713
331
117A0
  5
11714
331
117A1
  5
11715
331
117A2
  5
11716
331
117A3
  5
1171A
331
117A4
  5
1171B
331
117A5
  5
1171C
331
117A6
  5
1171D
331
117A7
  5
1171E
331
117A8
  5
1171F
331
117A9
  5
11720
331
117AA
  5
11724
331
117AB
  5
11725
331
117AC
  5
11726
331
117AD
  5
11727
331
117AE
  5
11728
331
117AF
  5
11729
331
117B0
  5
1172A
331
117B1
  5
11754
331
117B2
  5
11755
331
117B3
  5
11756
331
117B4
  5
11757
331
117B5
  5
11758
331
117B6
  5
11759
331
117B7
  5
1175D
331
117B8
  5
11787
331
117B9
  5
11788
331
117BA
  5
11789
331
117BB
  5
1178A
331
117BC
  5
1178B
331
117BD
  5
1178C
331
117BE
  5
1178D
  0
MATERIAL
  5
9540
102
{ACAD_REACTORS
330
18C
102
}
102
{ACAD_XDICTIONARY
360
1195D
102
}
330
18C
100
AcDbMaterial
  1
BYBLOCK
 72
     0
 73
     2
 43
0.0208333333333333
 43
0.0
 43
0.0
 43
0.0
 43
0.0
 43
0.0208333333333333
 43
0.0
 43
0.0
 43
0.0
 43
0.0
 43
1.0
 43
0.0
 43
0.0
 43
0.0
 43
0.0
 43
1.0
 77
     0
 78
     2
 47
0.0208333333333333
 47
0.0
 47
0.0
 47
0.0
 47
0.0
 47
0.0208333333333333
 47
0.0
 47
0.0
 47
0.0
 47
0.0
 47
1.0
 47
0.0
 47
0.0
 47
0.0
 47
0.0
 47
1.0
171
     0
172
     2
 49
0.0208333333333333
 49
0.0
 49
0.0
 49
0.0
 49
0.0
 49
0.0208333333333333
 49
0.0
 49
0.0
 49
0.0
 49
0.0
 49
1.0
 49
0.0
 49
0.0
 49
0.0
 49
0.0
 49
1.0
175
     0
176
     2
142
0.0208333333333333
142
0.0
142
0.0
142
0.0
142
0.0
142
0.0208333333333333
142
0.0
142
0.0
142
0.0
142
0.0
142
1.0
142
0.0
142
0.0
142
0.0
142
0.0
142
1.0
179
     0
270
     2
144
0.0208333333333333
144
0.0
144
0.0
144
0.0
144
0.0
144
0.0208333333333333
144
0.0
144
0.0
144
0.0
144
0.0
144
1.0
144
0.0
144
0.0
144
0.0
144
0.0
144
1.0
274
     2
147
0.0208333333333333
147
0.0
147
0.0
147
0.0
147
0.0
147
0.0208333333333333
147
0.0
147
0.0
147
0.0
147
0.0
147
1.0
147
0.0
147
0.0
147
0.0
147
0.0
147
1.0
  0
MATERIAL
  5
9538
102
{ACAD_REACTORS
330
18C
102
}
102
{ACAD_XDICTIONARY
360
1195F
102
}
330
18C
100
AcDbMaterial
  1
BYLAYER
 72
     0
 73
     2
 43
0.0208333333333333
 43
0.0
 43
0.0
 43
0.0
 43
0.0
 43
0.0208333333333333
 43
0.0
 43
0.0
 43
0.0
 43
0.0
 43
1.0
 43
0.0
 43
0.0
 43
0.0
 43
0.0
 43
1.0
 77
     0
 78
     2
 47
0.0208333333333333
 47
0.0
 47
0.0
 47
0.0
 47
0.0
 47
0.0208333333333333
 47
0.0
 47
0.0
 47
0.0
 47
0.0
 47
1.0
 47
0.0
 47
0.0
 47
0.0
 47
0.0
 47
1.0
171
     0
172
     2
 49
0.0208333333333333
 49
0.0
 49
0.0
 49
0.0
 49
0.0
 49
0.0208333333333333
 49
0.0
 49
0.0
 49
0.0
 49
0.0
 49
1.0
 49
0.0
 49
0.0
 49
0.0
 49
0.0
 49
1.0
175
     0
176
     2
142
0.0208333333333333
142
0.0
142
0.0
142
0.0
142
0.0
142
0.0208333333333333
142
0.0
142
0.0
142
0.0
142
0.0
142
1.0
142
0.0
142
0.0
142
0.0
142
0.0
142
1.0
179
     0
270
     2
144
0.0208333333333333
144
0.0
144
0.0
144
0.0
144
0.0
144
0.0208333333333333
144
0.0
144
0.0
144
0.0
144
0.0
144
1.0
144
0.0
144
0.0
144
0.0
144
0.0
144
1.0
274
     2
147
0.0208333333333333
147
0.0
147
0.0
147
0.0
147
0.0
147
0.0208333333333333
147
0.0
147
0.0
147
0.0
147
0.0
147
1.0
147
0.0
147
0.0
147
0.0
147
0.0
147
1.0
  0
MATERIAL
  5
9548
102
{ACAD_REACTORS
330
18C
102
}
102
{ACAD_XDICTIONARY
360
11961
102
}
330
18C
100
AcDbMaterial
  1
GLOBAL
 72
     0
 73
     2
 43
0.0208333333333333
 43
0.0
 43
0.0
 43
0.0
 43
0.0
 43
0.0208333333333333
 43
0.0
 43
0.0
 43
0.0
 43
0.0
 43
1.0
 43
0.0
 43
0.0
 43
0.0
 43
0.0
 43
1.0
 77
     0
 78
     2
 47
0.0208333333333333
 47
0.0
 47
0.0
 47
0.0
 47
0.0
 47
0.0208333333333333
 47
0.0
 47
0.0
 47
0.0
 47
0.0
 47
1.0
 47
0.0
 47
0.0
 47
0.0
 47
0.0
 47
1.0
171
     0
172
     2
 49
0.0208333333333333
 49
0.0
 49
0.0
 49
0.0
 49
0.0
 49
0.0208333333333333
 49
0.0
 49
0.0
 49
0.0
 49
0.0
 49
1.0
 49
0.0
 49
0.0
 49
0.0
 49
0.0
 49
1.0
175
     0
176
     2
142
0.0208333333333333
142
0.0
142
0.0
142
0.0
142
0.0
142
0.0208333333333333
142
0.0
142
0.0
142
0.0
142
0.0
142
1.0
142
0.0
142
0.0
142
0.0
142
0.0
142
1.0
179
     0
270
     2
144
0.0208333333333333
144
0.0
144
0.0
144
0.0
144
0.0
144
0.0208333333333333
144
0.0
144
0.0
144
0.0
144
0.0
144
1.0
144
0.0
144
0.0
144
0.0
144
0.0
144
1.0
274
     2
147
0.0208333333333333
147
0.0
147
0.0
147
0.0
147
0.0
147
0.0208333333333333
147
0.0
147
0.0
147
0.0
147
0.0
147
1.0
147
0.0
147
0.0
147
0.0
147
0.0
147
1.0
  0
ACAD_PROXY_OBJECT
  5
9584
102
{ACAD_REACTORS
330
9583
102
}
330
9583
100
AcDbZombieObject
 90
      499
 91
      511
 93
      610
310
40901902A4063FBFFFFFE000000000000002040AD7A3703D0AD73F4214DD185B99185C990000000000000104090141901A00000000000004100000000000000041025764000000000000300FC0
340
12
340
0
340
F
340
0
 94
        0
1001
ACAD_MLEADERVER
1070
     2
  0
MLINESTYLE
  5
1C
102
{ACAD_REACTORS
330
1B
102
}
330
1B
100
AcDbMlineStyle
  2
STANDARD
 70
     0
  3

 62
   256
 51
90.0
 52
90.0
 71
     2
 49
0.5
 62
   256
  6
BYLAYER
 49
-0.5
 62
   256
  6
BYLAYER
  0
ACAD_PROXY_OBJECT
  5
9562
102
{ACAD_REACTORS
330
9561
102
}
330
9561
100
AcDbZombieObject
 90
      499
 91
      510
 93
       41
310
903313A31580
  0
ACAD_PROXY_OBJECT
  5
9563
102
{ACAD_REACTORS
330
9561
102
}
330
9561
100
AcDbZombieObject
 90
      499
 91
      510
 93
      105
310
903313A324000000000000004000
  0
ACAD_PROXY_OBJECT
  5
9564
102
{ACAD_REACTORS
330
9561
102
}
330
9561
100
AcDbZombieObject
 90
      499
 91
      510
 93
      105
310
903313A344000000000000104000
  0
ACAD_PROXY_OBJECT
  5
9565
102
{ACAD_REACTORS
330
9561
102
}
330
9561
100
AcDbZombieObject
 90
      499
 91
      510
 93
      105
310
903313A354000000000000144000
  0
ACAD_PROXY_OBJECT
  5
9566
102
{ACAD_REACTORS
330
9561
102
}
330
9561
100
AcDbZombieObject
 90
      499
 91
      510
 93
      105
310
903313A384000000000000204000
  0
ACAD_PROXY_OBJECT
  5
9567
102
{ACAD_REACTORS
330
9561
102
}
330
9561
100
AcDbZombieObject
 90
      499
 91
      510
 93
      113
310
904313A31304000000000000244000
  0
ACAD_PROXY_OBJECT
  5
9568
102
{ACAD_REACTORS
330
9561
102
}
330
9561
100
AcDbZombieObject
 90
      499
 91
      510
 93
      113
310
904313A31364000000000000304000
  0
ACAD_PROXY_OBJECT
  5
9569
102
{ACAD_REACTORS
330
9561
102
}
330
9561
100
AcDbZombieObject
 90
      499
 91
      510
 93
      113
310
904313A32304000000000000344000
  0
ACAD_PROXY_OBJECT
  5
956A
102
{ACAD_REACTORS
330
9561
102
}
330
9561
100
AcDbZombieObject
 90
      499
 91
      510
 93
      113
310
904313A333040000000000003E4000
  0
ACAD_PROXY_OBJECT
  5
956B
102
{ACAD_REACTORS
330
9561
102
}
330
9561
100
AcDbZombieObject
 90
      499
 91
      510
 93
      113
310
904313A34304000000000000444000
  0
ACAD_PROXY_OBJECT
  5
956C
102
{ACAD_REACTORS
330
9561
102
}
330
9561
100
AcDbZombieObject
 90
      499
 91
      510
 93
      113
310
904313A35304000000000000494000
  0
ACAD_PROXY_OBJECT
  5
956D
102
{ACAD_REACTORS
330
9561
102
}
330
9561
100
AcDbZombieObject
 90
      499
 91
      510
 93
      121
310
905313A3130304000000000000594000
  0
ACAD_PROXY_OBJECT
  5
956E
102
{ACAD_REACTORS
330
9561
102
}
330
9561
100
AcDbZombieObject
 90
      499
 91
      510
 93
      105
310
903323A310000000000000010100
  0
ACAD_PROXY_OBJECT
  5
956F
102
{ACAD_REACTORS
330
9561
102
}
330
9561
100
AcDbZombieObject
 90
      499
 91
      510
 93
      105
310
903343A310000000000000410100
  0
ACAD_PROXY_OBJECT
  5
9570
102
{ACAD_REACTORS
330
9561
102
}
330
9561
100
AcDbZombieObject
 90
      499
 91
      510
 93
      105
310
903383A310000000000000810100
  0
ACAD_PROXY_OBJECT
  5
9571
102
{ACAD_REACTORS
330
9561
102
}
330
9561
100
AcDbZombieObject
 90
      499
 91
      510
 93
      113
310
90431303A310000000000000910100
  0
ACAD_PROXY_OBJECT
  5
9572
102
{ACAD_REACTORS
330
9561
102
}
330
9561
100
AcDbZombieObject
 90
      499
 91
      510
 93
      121
310
9053130303A310000000000001650100
  0
ACAD_PROXY_OBJECT
  5
9573
102
{ACAD_REACTORS
330
9561
102
}
330
9561
100
AcDbZombieObject
 90
      499
 91
      510
 93
      257
310
90E312F31323822203D2031272D3022000000000000200FC000000000000284000
  0
ACAD_PROXY_OBJECT
  5
9574
102
{ACAD_REACTORS
330
9561
102
}
330
9561
100
AcDbZombieObject
 90
      499
 91
      510
 93
      249
310
90D312F363422203D2031272D3022000000000000240FC000000000000284000
  0
ACAD_PROXY_OBJECT
  5
9575
102
{ACAD_REACTORS
330
9561
102
}
330
9561
100
AcDbZombieObject
 90
      499
 91
      510
 93
      249
310
90D312F333222203D2031272D3022000000000000280FC000000000000284000
  0
ACAD_PROXY_OBJECT
  5
9576
102
{ACAD_REACTORS
330
9561
102
}
330
9561
100
AcDbZombieObject
 90
      499
 91
      510
 93
      249
310
90D312F313622203D2031272D30220000000000002C0FC000000000000284000
  0
ACAD_PROXY_OBJECT
  5
9577
102
{ACAD_REACTORS
330
9561
102
}
330
9561
100
AcDbZombieObject
 90
      499
 91
      510
 93
      249
310
90D332F333222203D2031272D30220000000000002E0FC000000000000284000
  0
ACAD_PROXY_OBJECT
  5
9578
102
{ACAD_REACTORS
330
9561
102
}
330
9561
100
AcDbZombieObject
 90
      499
 91
      510
 93
      241
310
90C312F3822203D2031272D3022000000000000300FC000000000000284000
  0
ACAD_PROXY_OBJECT
  5
9579
102
{ACAD_REACTORS
330
9561
102
}
330
9561
100
AcDbZombieObject
 90
      499
 91
      510
 93
      249
310
90D332F313622203D2031272D3022000000000000320FC000000000000284000
  0
ACAD_PROXY_OBJECT
  5
957A
102
{ACAD_REACTORS
330
9561
102
}
330
9561
100
AcDbZombieObject
 90
      499
 91
      510
 93
      241
310
90C312F3422203D2031272D3022000000000000340FC000000000000284000
  0
ACAD_PROXY_OBJECT
  5
957B
102
{ACAD_REACTORS
330
9561
102
}
330
9561
100
AcDbZombieObject
 90
      499
 91
      510
 93
      241
310
90C332F3822203D2031272D3022000000000000360FC000000000000284000
  0
ACAD_PROXY_OBJECT
  5
957C
102
{ACAD_REACTORS
330
9561
102
}
330
9561
100
AcDbZombieObject
 90
      499
 91
      510
 93
      241
310
90C312F3222203D2031272D3022000000000000380FC000000000000284000
  0
ACAD_PROXY_OBJECT
  5
957D
102
{ACAD_REACTORS
330
9561
102
}
330
9561
100
AcDbZombieObject
 90
      499
 91
      510
 93
      241
310
90C332F3422203D2031272D30220000000000003A0FC000000000000284000
  0
ACAD_PROXY_OBJECT
  5
957E
102
{ACAD_REACTORS
330
9561
102
}
330
9561
100
AcDbZombieObject
 90
      499
 91
      510
 93
      161
310
90A3122203D2031272D30224000000000000284000
  0
ACAD_PROXY_OBJECT
  5
957F
102
{ACAD_REACTORS
330
9561
102
}
330
9561
100
AcDbZombieObject
 90
      499
 91
      510
 93
      257
310
90E312D312F3222203D2031272D30220000000000003E0FC000000000000284000
  0
ACAD_PROXY_OBJECT
  5
9580
102
{ACAD_REACTORS
330
9561
102
}
330
9561
100
AcDbZombieObject
 90
      499
 91
      510
 93
      225
310
90A3322203D2031272D302200000000000002100000000000000284000
  0
ACAD_PROXY_OBJECT
  5
9581
102
{ACAD_REACTORS
330
9561
102
}
330
9561
100
AcDbZombieObject
 90
      499
 91
      510
 93
      225
310
90A3622203D2031272D302200000000000006100000000000000284000
  0
ACAD_PROXY_OBJECT
  5
9582
102
{ACAD_REACTORS
330
9561
102
}
330
9561
100
AcDbZombieObject
 90
      499
 91
      510
 93
      249
310
90D31272D3022203D2031272D30220000000000000A100000000000000284000
  0
ACAD_PROXY_OBJECT
  5
9556
102
{ACAD_REACTORS
330
9550
102
}
330
9550
100
AcDbZombieObject
 90
      499
 91
      509
 93
      436
310
42CC9915DA5C99599C985B595049028333333333333E3BF0000000000000FB0107901411070040501600405405064090741402480A0340
1001
ACAD
1000
AcDbSavedByObjectVersion
1070
     0
  0
ACAD_PROXY_OBJECT
  5
9558
102
{ACAD_REACTORS
330
9550
102
}
330
9550
100
AcDbZombieObject
 90
      499
 91
      509
 93
      500
310
424CD108121A5919195B90640502408333333333333E3BF0000000000000FB01079024090700405020000000000001110200405405064090740C02480A0340
1001
ACAD
1000
AcDbSavedByObjectVersion
1070
     0
  0
ACAD_PROXY_OBJECT
  5
9557
102
{ACAD_REACTORS
330
9550
102
}
330
9550
100
AcDbZombieObject
 90
      499
 91
      509
 93
      436
310
42CCD915DA5C99599C985B595059028333333333333E3BF0000000000000FB0107901411070040501600405405064090741402480A0340
1001
ACAD
1000
AcDbSavedByObjectVersion
1070
     0
  0
ACAD_PROXY_OBJECT
  5
9555
102
{ACAD_REACTORS
330
9550
102
}
330
9550
100
AcDbZombieObject
 90
      499
 91
      509
 93
      388
310
4150985CDA58D07406404333333333333E3BF0000000000000FB0107A41107004050150841D405064090741402480A0350
1001
ACAD
1000
AcDbSavedByObjectVersion
1070
     0
  0
ACAD_PROXY_OBJECT
  5
955C
102
{ACAD_REACTORS
330
9550
102
}
330
9550
100
AcDbZombieObject
 90
      499
 91
      509
 93
      428
310
42109C9A59DA1D195B90C409028333333333333E3BF0000000000000FB010790141107004050150841D405064090741402480A029950
1001
ACAD
1000
AcDbSavedByObjectVersion
1070
     0
  0
ACAD_PROXY_OBJECT
  5
9560
102
{ACAD_REACTORS
330
9550
102
}
330
9550
100
AcDbZombieObject
 90
      499
 91
      509
 93
      452
310
42D0DBDB1BDC90DA185B99D95104090240C333333333333E3BF0000000000000FB0108901411070040501508421405064090741402480A0350
1001
ACAD
1000
AcDbSavedByObjectVersion
1070
     0
  0
ACAD_PROXY_OBJECT
  5
9559
102
{ACAD_REACTORS
330
9550
102
}
330
9550
100
AcDbZombieObject
 90
      499
 91
      509
 93
      500
310
4290DBDB98D95C1D1D585B10940D028333333333333E3BF0000000000000FB0107902409070040501000000000000111010841D405064090740C02480A0340
1001
ACAD
1000
AcDbSavedByObjectVersion
1070
     0
  0
ACAD_PROXY_OBJECT
  5
955B
102
{ACAD_REACTORS
330
9550
102
}
330
9550
100
AcDbZombieObject
 90
      499
 91
      509
 93
      412
310
40D11A5B50B409028333333333333E3BF0000000000000FB010790141107004050150841D405064090741402480A02677FFFFFD0
1001
ACAD
1000
AcDbSavedByObjectVersion
1070
     0
  0
ACAD_PROXY_OBJECT
  5
A211
102
{ACAD_REACTORS
330
9550
102
}
330
9550
100
AcDbZombieObject
 90
      499
 91
      509
 93
      452
310
43115919D950DBDB1BDC93D999916409028333333333333E3BF0000000000000FB010790141107004050150841D405064090741402480A0350
1001
ACAD
1000
AcDbSavedByObjectVersion
1070
     0
  0
ACAD_PROXY_OBJECT
  5
955F
102
{ACAD_REACTORS
330
9550
102
}
330
9550
100
AcDbZombieObject
 90
      499
 91
      509
 93
      444
310
42D19858D95C185D1D195C9B90F409028333333333333E3BF0000000000000FB010790141107004050150841D405064090741402480A0350
1001
ACAD
1000
AcDbSavedByObjectVersion
1070
     0
  0
ACAD_PROXY_OBJECT
  5
9551
102
{ACAD_REACTORS
330
9550
102
}
330
9550
100
AcDbZombieObject
 90
      499
 91
      509
 93
      388
310
41119B185D240901404333333333333E3BF0000000000000F9010740A41107004050150841D405064090741402480A1B50
1001
ACAD
1000
AcDbSavedByObjectVersion
1070
     0
  0
ACAD_PROXY_OBJECT
  5
9552
102
{ACAD_REACTORS
330
9550
102
}
330
9550
100
AcDbZombieObject
 90
      499
 91
      509
 93
      476
310
43519B185D15DA5D1A115919D95CD0140901404333333333333E3BF0000000000000F9010740901411070040501600405405064090741402480A1B50
1001
ACAD
1000
AcDbSavedByObjectVersion
1070
     0
  0
ACAD_PROXY_OBJECT
  5
9553
102
{ACAD_REACTORS
330
9550
102
}
330
9550
100
AcDbZombieObject
 90
      499
 91
      509
 93
      412
310
41D1DBDD5C985D5910240902404333333333333E3BF0000000000000F9010740A411070040501641D405064090741402480A1B50
1001
ACAD
1000
AcDbSavedByObjectVersion
1070
     0
  0
ACAD_PROXY_OBJECT
  5
9554
102
{ACAD_REACTORS
330
9550
102
}
330
9550
100
AcDbZombieObject
 90
      499
 91
      509
 93
      500
310
4411DBDD5C985D5915DA5D1A115919D95CD0340902404333333333333E3BF0000000000000F9010740901411070040501600405405064090741402480A1B50
1001
ACAD
1000
AcDbSavedByObjectVersion
1070
     0
  0
ACAD_PROXY_OBJECT
  5
A260
102
{ACAD_REACTORS
330
9550
102
}
330
9550
100
AcDbZombieObject
 90
      499
 91
      509
 93
      476
310
41921A5919195B90640502408333333333333E3BF0000000000000FB01079024090700405020000000000001110200405405064090740C02480A0340
1001
ACAD
1000
AcDbSavedByObjectVersion
1070
     0
  0
ACAD_PROXY_OBJECT
  5
A20F
102
{ACAD_REACTORS
330
9550
102
}
330
9550
100
AcDbZombieObject
 90
      499
 91
      509
 93
      428
310
42529A5D1D195C93D999914409028333333333333E3BF0000000000000FB010790141107004050150A41D405064090741402480A0350
1001
ACAD
1000
AcDbSavedByObjectVersion
1070
     0
  0
ACAD_PROXY_OBJECT
  5
955E
102
{ACAD_REACTORS
330
9550
102
}
330
9550
100
AcDbZombieObject
 90
      499
 91
      509
 93
      444
310
42D31A5B995C185D1D195C9B90E409028333333333333E3BF0000000000000FB010790141107004050750841D405064090741402483A0350
1001
ACAD
1000
AcDbSavedByObjectVersion
1070
     0
  0
ACAD_PROXY_OBJECT
  5
A266
102
{ACAD_REACTORS
330
9550
102
}
330
9550
100
AcDbZombieObject
 90
      499
 91
      509
 93
      484
310
42135BD9195B1A5B99D0A409028333333333333E3BF0000000000000F901074090290700405010000000000201990108421405064090741402480A1B40
1001
ACAD
1000
AcDbSavedByObjectVersion
1070
     0
  0
ACAD_PROXY_OBJECT
  5
A210
102
{ACAD_REACTORS
330
9550
102
}
330
9550
100
AcDbZombieObject
 90
      499
 91
      509
 93
      444
310
42D3DD995C9A185B99D3D999915409028333333333333E3BF0000000000000FB010790141107004050150941D405064090741402480A0350
1001
ACAD
1000
AcDbSavedByObjectVersion
1070
     0
  0
ACAD_PROXY_OBJECT
  5
955A
102
{ACAD_REACTORS
330
9550
102
}
330
9550
100
AcDbZombieObject
 90
      499
 91
      509
 93
      420
310
425499585B1A5CDD1A58D08409028333333333333E3BF0000000000000FB01079019070040501508421405064090741402480A1B40
1001
ACAD
1000
AcDbSavedByObjectVersion
1070
     0
  0
ACAD_PROXY_OBJECT
  5
A265
102
{ACAD_REACTORS
330
9550
102
}
330
9550
100
AcDbZombieObject
 90
      499
 91
      509
 93
      420
310
4194DA1859195911B40902404333333333333E3BF0000000000000F9010740A41107004050150800405405064090840C02480A0B40
1001
ACAD
1000
AcDbSavedByObjectVersion
1070
     0
  0
ACAD_PROXY_OBJECT
  5
A264
102
{ACAD_REACTORS
330
9550
102
}
330
9550
100
AcDbZombieObject
 90
      499
 91
      509
 93
      516
310
4454DA18591959081DDA5D1A08195919D95CD1A40902404333333333333E3BF0000000000000F901074090142907004050250800405405064090740C02480A0B40
1001
ACAD
1000
AcDbSavedByObjectVersion
1070
     0
  0
ACAD_PROXY_OBJECT
  5
A261
102
{ACAD_REACTORS
330
9550
102
}
330
9550
100
AcDbZombieObject
 90
      499
 91
      509
 93
      532
310
4394DA1859195CC81BD98811DC985E5174090240C333333333333E3BF0000000000000FB01079024090741D01000000000000111010841D405064090740C02480A0340
1001
ACAD
1000
AcDbSavedByObjectVersion
1070
     0
  0
ACAD_PROXY_OBJECT
  5
A262
102
{ACAD_REACTORS
330
9550
102
}
330
9550
100
AcDbZombieObject
 90
      499
 91
      509
 93
      476
310
41D4DAD95D18DA1E51840502408333333333333E3BF0000000000000FB01079024090741D01000000000000111010B41D405064090741802480A0340
1001
ACAD
1000
AcDbSavedByObjectVersion
1070
     0
  0
ACAD_PROXY_OBJECT
  5
955D
102
{ACAD_REACTORS
330
9550
102
}
330
9550
100
AcDbZombieObject
 90
      499
 91
      509
 93
      412
310
41D51A1A58DAD95B90D409028333333333333E3BF0000000000000FB010790141107004050150C41D405064090741402480A0350
1001
ACAD
1000
AcDbSavedByObjectVersion
1070
     0
  0
ACAD_PROXY_OBJECT
  5
A25F
102
{ACAD_REACTORS
330
9550
102
}
330
9550
100
AcDbZombieObject
 90
      499
 91
      509
 93
      420
310
4255DA5C99599C985B595059028333333333333E3BF0000000000000FB0107901411070040501600405405064090740C02480A0340
1001
ACAD
1000
AcDbSavedByObjectVersion
1070
     0
  0
ACAD_PROXY_OBJECT
  5
A263
102
{ACAD_REACTORS
330
9550
102
}
330
9550
100
AcDbZombieObject
 90
      499
 91
      509
 93
      404
310
41560B54985E51940902404000000000000E03F0000000000000FB010740501907004050150841D405064090740C02480A1B40
1001
ACAD
1000
AcDbSavedByObjectVersion
1070
     0
  0
XRECORD
  5
117C0
102
{ACAD_REACTORS
330
117BF
102
}
330
117BF
100
AcDbXrecord
340
18D
  0
XRECORD
  5
117C1
102
{ACAD_REACTORS
330
117BF
102
}
330
117BF
100
AcDbXrecord
340
18C
  0
DICTIONARYVAR
  5
AAE0
102
{ACAD_REACTORS
330
37
102
}
330
37
100
DictionaryVariables
280
     0
  1
1:1
  0
DICTIONARYVAR
  5
9627
102
{ACAD_REACTORS
330
37
102
}
330
37
100
DictionaryVariables
280
     0
  1
Standard
  0
DICTIONARYVAR
  5
29E
102
{ACAD_REACTORS
330
37
102
}
330
37
100
DictionaryVariables
280
     0
  1
Standard
  0
DICTIONARYVAR
  5
38
102
{ACAD_REACTORS
330
37
102
}
330
37
100
DictionaryVariables
280
     0
  1
-1
  0
DICTIONARYVAR
  5
1CE
102
{ACAD_REACTORS
330
37
102
}
330
37
100
DictionaryVariables
280
     0
  1
2
  0
DICTIONARYVAR
  5
704E
102
{ACAD_REACTORS
330
37
102
}
330
37
100
DictionaryVariables
280
     0
  1
1
  0
DICTIONARYVAR
  5
962A
102
{ACAD_REACTORS
330
37
102
}
330
37
100
DictionaryVariables
280
     0
  1
0
  0
DICTIONARYVAR
  5
7052
102
{ACAD_REACTORS
330
37
102
}
330
37
100
DictionaryVariables
280
     0
  1
8
  0
DICTIONARYVAR
  5
7051
102
{ACAD_REACTORS
330
37
102
}
330
37
100
DictionaryVariables
280
     0
  1
1
  0
DICTIONARYVAR
  5
AB30
102
{ACAD_REACTORS
330
37
102
}
330
37
100
DictionaryVariables
280
     0
  1
0
  0
DICTIONARYVAR
  5
704F
102
{ACAD_REACTORS
330
37
102
}
330
37
100
DictionaryVariables
280
     0
  1
8
  0
DICTIONARYVAR
  5
7050
102
{ACAD_REACTORS
330
37
102
}
330
37
100
DictionaryVariables
280
     0
  1
2
  0
DICTIONARYVAR
  5
1CF
102
{ACAD_REACTORS
330
37
102
}
330
37
100
DictionaryVariables
280
     0
  1

  0
DICTIONARYVAR
  5
9629
102
{ACAD_REACTORS
330
37
102
}
330
37
100
DictionaryVariables
280
     0
  1
127
  0
DICTIONARYVAR
  5
115A9
102
{ACAD_REACTORS
330
37
102
}
330
37
100
DictionaryVariables
280
     0
  1
2
  0
DICTIONARY
  5
1195D
330
9540
100
AcDbDictionary
  3
ACAD_XREC_ROUNDTRIP
360
1195E
1001
ACAD
1000
TREAT_AS_HARD
1070
     1
  0
DICTIONARY
  5
1195F
330
9538
100
AcDbDictionary
  3
ACAD_XREC_ROUNDTRIP
360
11960
1001
ACAD
1000
TREAT_AS_HARD
1070
     1
  0
DICTIONARY
  5
11961
330
9548
100
AcDbDictionary
  3
ACAD_XREC_ROUNDTRIP
360
11962
1001
ACAD
1000
TREAT_AS_HARD
1070
     1
  0
XRECORD
  5
1195E
102
{ACAD_REACTORS
330
1195D
102
}
330
1195D
100
AcDbXrecord
102
MATERIAL
148
0.0
149
0.0
149
0.0
 93
        0
 94
      127
282
     0
 72
     0
 77
     0
171
     0
175
     0
179
     0
273
     0
  0
XRECORD
  5
11960
102
{ACAD_REACTORS
330
1195F
102
}
330
1195F
100
AcDbXrecord
102
MATERIAL
148
0.0
149
0.0
149
0.0
 93
        0
 94
      127
282
     0
 72
     0
 77
     0
171
     0
175
     0
179
     0
273
     0
  0
XRECORD
  5
11962
102
{ACAD_REACTORS
330
11961
102
}
330
11961
100
AcDbXrecord
102
MATERIAL
148
0.0
149
0.0
149
0.0
 93
        0
 94
      127
282
     0
 72
     0
 77
     0
171
     0
175
     0
179
     0
273
     0
  0
ENDSEC
  0
EOF
