  0
SECTION
  2
HEADER
  9
$ACADVER
  1
AC1009
  9
$INSBASE
 10
0.0
 20
0.0
 30
0.0
  9
$EXTMIN
 10
544.93767316632443
 20
7306.5026404491846
 30
-0.0000000000001137
  9
$EXTMAX
 10
1149.73778150607
 20
7710.3385804475438
 30
0.0000000000562575
  9
$LIMMIN
 10
0.0
 20
0.0
  9
$LIMMAX
 10
420.0
 20
297.0
  9
$ORTHOMODE
 70
     0
  9
$REGENMODE
 70
     1
  9
$FILLMODE
 70
     1
  9
$QTEXTMODE
 70
     0
  9
$MIRRTEXT
 70
     0
  9
$DRAGMODE
 70
     2
  9
$LTSCALE
 40
0.5
  9
$OSMODE
 70
  2175
  9
$ATTMODE
 70
     1
  9
$TEXTSIZE
 40
4.0
  9
$TRACEWID
 40
1.0
  9
$TEXTSTYLE
  7
STANDARD
  9
$CLAYER
  8
1TEXT
  9
$CELTYPE
  6
BYLAYER
  9
$CECOLOR
 62
   256
  9
$DIMSCALE
 40
1.0
  9
$DIMASZ
 40
2.0
  9
$DIMEXO
 40
0.0
  9
$DIMDLI
 40
7.0
  9
$DIMRND
 40
0.0
  9
$DIMDLE
 40
0.0
  9
$DIMEXE
 40
1.0
  9
$DIMTP
 40
0.0
  9
$DIMTM
 40
0.0
  9
$DIMTXT
 40
3.5
  9
$DIMCEN
 40
0.0
  9
$DIMTSZ
 40
0.0
  9
$DIMTOL
 70
     0
  9
$DIMLIM
 70
     0
  9
$DIMTIH
 70
     0
  9
$DIMTOH
 70
     0
  9
$DIMSE1
 70
     0
  9
$DIMSE2
 70
     0
  9
$DIMTAD
 70
     1
  9
$DIMZIN
 70
     8
  9
$DIMBLK
  1

  9
$DIMASO
 70
     1
  9
$DIMSHO
 70
     1
  9
$DIMPOST
  1
 
  9
$DIMAPOST
  1

  9
$DIMALT
 70
     0
  9
$DIMALTD
 70
     2
  9
$DIMALTF
 40
25.399999999999999
  9
$DIMLFAC
 40
1.0
  9
$DIMTOFL
 70
     1
  9
$DIMTVP
 40
0.0
  9
$DIMTIX
 70
     0
  9
$DIMSOXD
 70
     0
  9
$DIMSAH
 70
     1
  9
$DIMBLK1
  1
OPEN30
  9
$DIMBLK2
  1
OPEN30
  9
$DIMSTYLE
  2
NEWX10
  9
$DIMCLRD
 70
   256
  9
$DIMCLRE
 70
   256
  9
$DIMCLRT
 70
   201
  9
$DIMTFAC
 40
0.7
  9
$DIMGAP
 40
0.7
  9
$LUNITS
 70
     2
  9
$LUPREC
 70
     4
  9
$SKETCHINC
 40
1.0
  9
$FILLETRAD
 40
1.0
  9
$AUNITS
 70
     0
  9
$AUPREC
 70
     2
  9
$MENU
  1
acad
  9
$ELEVATION
 40
0.0
  9
$PELEVATION
 40
0.0
  9
$THICKNESS
 40
0.0
  9
$LIMCHECK
 70
     0
  9
$BLIPMODE
 70
     0
  9
$CHAMFERA
 40
10.0
  9
$CHAMFERB
 40
10.0
  9
$SKPOLY
 70
     0
  9
$TDCREATE
 40
2451318.621352917
  9
$TDUPDATE
 40
2456015.8215563432
  9
$TDINDWG
 40
0.6396212037
  9
$TDUSRTIMER
 40
0.6396212037
  9
$USRTIMER
 70
     1
  9
$ANGBASE
 50
0.0
  9
$ANGDIR
 70
     0
  9
$PDMODE
 70
     0
  9
$PDSIZE
 40
0.0
  9
$PLINEWID
 40
0.0
  9
$COORDS
 70
     2
  9
$SPLFRAME
 70
     0
  9
$SPLINETYPE
 70
     6
  9
$SPLINESEGS
 70
     8
  9
$ATTDIA
 70
     0
  9
$ATTREQ
 70
     1
  9
$HANDLING
 70
     1
  9
$HANDSEED
  5
17226
  9
$SURFTAB1
 70
     6
  9
$SURFTAB2
 70
     6
  9
$SURFTYPE
 70
     6
  9
$SURFU
 70
     6
  9
$SURFV
 70
     6
  9
$UCSNAME
  2

  9
$UCSORG
 10
0.0
 20
0.0
 30
0.0
  9
$UCSXDIR
 10
1.0
 20
0.0
 30
0.0
  9
$UCSYDIR
 10
0.0
 20
1.0
 30
0.0
  9
$PUCSNAME
  2

  9
$PUCSORG
 10
0.0
 20
0.0
 30
0.0
  9
$PUCSXDIR
 10
1.0
 20
0.0
 30
0.0
  9
$PUCSYDIR
 10
0.0
 20
1.0
 30
0.0
  9
$USERI1
 70
     0
  9
$USERI2
 70
     0
  9
$USERI3
 70
     0
  9
$USERI4
 70
     0
  9
$USERI5
 70
     0
  9
$USERR1
 40
0.0
  9
$USERR2
 40
0.0
  9
$USERR3
 40
0.0
  9
$USERR4
 40
0.0
  9
$USERR5
 40
0.0
  9
$WORLDVIEW
 70
     1
  9
$SHADEDGE
 70
     3
  9
$SHADEDIF
 70
    70
  9
$TILEMODE
 70
     1
  9
$MAXACTVP
 70
    48
  9
$PLIMCHECK
 70
     0
  9
$PEXTMIN
 10
1.0000000000000000E+020
 20
1.0000000000000000E+020
 30
1.0000000000000000E+020
  9
$PEXTMAX
 10
-1.0000000000000000E+020
 20
-1.0000000000000000E+020
 30
-1.0000000000000000E+020
  9
$PLIMMIN
 10
0.0
 20
0.0
  9
$PLIMMAX
 10
420.0
 20
297.0
  9
$UNITMODE
 70
     0
  9
$VISRETAIN
 70
     1
  9
$PLINEGEN
 70
     0
  9
$PSLTSCALE
 70
     1
  0
ENDSEC
  0
SECTION
  2
TABLES
  0
TABLE
  2
VPORT
 70
     1
  0
VPORT
  2
*ACTIVE
 70
     0
 10
0.0
 20
0.0
 11
1.0
 21
1.0
 12
847.32109935611993
 22
7508.5092899884703
 13
0.0
 23
0.0
 14
10.0
 24
10.0
 15
10.0
 25
10.0
 16
0.0
 26
0.0
 36
1.0
 17
0.0
 27
0.0
 37
0.0
 40
428.87182375965489
 41
1.5395095367847409
 42
50.0
 43
0.0
 44
0.0
 50
0.0
 51
0.0
 71
     0
 72
   100
 73
     1
 74
     1
 75
     0
 76
     0
 77
     0
 78
     0
  0
ENDTAB
  0
TABLE
  2
LTYPE
 70
    12
  0
LTYPE
  2
CONTINUOUS
 70
     0
  3
Solid line
 72
    65
 73
     0
 40
0.0
  0
LTYPE
  2
XREF1|CENTER2
 70
    48
  3
Center (.5x) ___ _ ___ _ ___ _ ___ _ ___ _ ___
 72
    65
 73
     4
 40
28.574999999999999
 49
19.050000000000001
 49
-3.1749999999999989
 49
3.1749999999999989
 49
-3.1749999999999989
  0
LTYPE
  2
A3WAKUDAKE|CENTER2
 70
    48
  3
Center (.5x) ___ _ ___ _ ___ _ ___ _ ___ _ ___
 72
    65
 73
     4
 40
28.574999999999999
 49
19.050000000000001
 49
-3.1749999999999989
 49
3.1749999999999989
 49
-3.1749999999999989
  0
ENDTAB
  0
TABLE
  2
LAYER
 70
    36
  0
LAYER
  2
0
 70
     0
 62
     7
  6
CONTINUOUS
  0
LAYER
  2
1TEXT
 70
     0
 62
     7
  6
CONTINUOUS
  0
LAYER
  2
01
 70
     0
 62
     1
  6
CONTINUOUS
  0
LAYER
  2
A3WAKUDAKE|THICK
 70
    48
 62
     7
  6
CONTINUOUS
  0
LAYER
  2
A3WAKUDAKE|POINT
 70
    48
 62
     7
  6
CONTINUOUS
  0
LAYER
  2
A3WAKUDAKE|1CENTER
 70
    48
 62
     7
  6
A3WAKUDAKE|CENTER2
  0
LAYER
  2
A3WAKUDAKE|0-6
 70
    48
 62
     7
  6
CONTINUOUS
  0
LAYER
  2
A3WAKUDAKE|1DIM
 70
    48
 62
     7
  6
CONTINUOUS
  0
LAYER
  2
XREF1|1CENTER
 70
    48
 62
     7
  6
XREF1|CENTER2
  0
ENDTAB
  0
TABLE
  2
STYLE
 70
     4
  0
STYLE
  2
STANDARD
 70
     0
 40
0.0
 41
1.0
 50
0.0
 71
     0
 42
4.0
  3
romans.shx
  4
extfont2.shx
  0
ENDTAB
  0
TABLE
  2
VIEW
 70
     5
  0
ENDTAB
  0
TABLE
  2
UCS
 70
     0
  0
ENDTAB
  0
TABLE
  2
APPID
 70
     9
  0
APPID
  2
ACAD
 70
     0
  0
APPID
  2
DRAWINGVARIABLESXDATA
 70
     0
  0
APPID
  2
CONTENTTABDATA
 70
     0
  0
APPID
  2
CONTENTCURRENTTAB
 70
     0
  0
APPID
  2
CONTENTBLOCKDESCRIPTION
 70
     0
  0
APPID
  2
CONTENTBLOCKICON
 70
     0
  0
APPID
  2
CONTENTLONGBLOCKNAME
 70
     0
  0
APPID
  2
ACAD_PSEXT
 70
     0
  0
APPID
  2
ACAD_MLEADERVER
 70
     0
  0
ENDTAB
  0
TABLE
  2
DIMSTYLE
 70
     5
  0
DIMSTYLE
  2
NEWX10
 70
     0
  3
 
  4

  5

  6
OPEN30
  7
OPEN30
 40
1.0
 41
2.0
 42
0.0
 43
7.0
 44
1.0
 45
0.0
 46
0.0
 47
0.0
 48
0.0
140
3.5
141
0.0
142
0.0
143
25.399999999999999
144
1.0
145
0.0
146
0.7
147
0.7
 71
     0
 72
     0
 73
     0
 74
     0
 75
     0
 76
     0
 77
     1
 78
     8
170
     0
171
     2
172
     1
173
     1
174
     0
175
     0
176
   256
177
   256
178
   201
  0
ENDTAB
  0
ENDSEC
  0
SECTION
  2
BLOCKS
  0
BLOCK
  8
0
  2
$MODEL_SPACE
 70
     0
 10
0.0
 20
0.0
 30
0.0
  3
$MODEL_SPACE
  1

  0
ENDBLK
  5
1A
  8
0
  0
BLOCK
 67
     1
  8
0
  2
$PAPER_SPACE
 70
     0
 10
0.0
 20
0.0
 30
0.0
  3
$PAPER_SPACE
  1

  0
ENDBLK
  5
17
 67
     1
  8
0
  0
BLOCK
  8
0
  2
_OPEN30
 70
     0
 10
0.0
 20
0.0
 30
0.0
  3
_OPEN30
  1

  0
LINE
  5
44
  8
0
  6
BYBLOCK
 62
     0
 10
-1.0
 20
0.26794919
 30
0.0
 11
0.0
 21
0.0
 31
0.0
  0
LINE
  5
45
  8
0
  6
BYBLOCK
 62
     0
 10
0.0
 20
0.0
 30
0.0
 11
-1.0
 21
-0.26794919
 31
0.0
  0
LINE
  5
46
  8
0
  6
BYBLOCK
 62
     0
 10
0.0
 20
0.0
 30
0.0
 11
-1.0
 21
0.0
 31
0.0
  0
ENDBLK
  5
47
  8
0
  0
BLOCK
  8
0
  2
XREF1
 70
    36
 10
0.0
 20
0.0
 30
0.0
  3
XREF1
  1
D:\ACLT\FORMAT\KAWAJUN(9)図面用.dwg
  0
ENDBLK
  5
5D
  8
0
  0
BLOCK
  8
0
  2
A3WAKUDAKE
 70
    36
 10
0.0
 20
0.0
 30
0.0
  3
A3WAKUDAKE
  1
D:\ACLT\FORMAT\A3WAKUdake.dwg
  0
ENDBLK
  5
6A0
  8
0
  0
BLOCK
  8
0
  2
*U27
 70
     1
 10
0.0
 20
0.0
 30
0.0
  3
*U27
  1

  0
TEXT
  5
17115
  8
1TEXT
 62
   201
 10
1043.3489401080969
 20
7629.0052471148229
 30
0.0
 40
3.5
  1
20.5
 50
90.0
  0
ENDBLK
  5
17117
  8
0
  0
BLOCK
  8
0
  2
*U28
 70
     1
 10
0.0
 20
0.0
 30
0.0
  3
*U28
  1

  0
TEXT
  5
17119
  8
1TEXT
 62
   201
 10
5506.9158361993859
 20
-1203.61055353047
 30
0.0
 40
4.5499999999999989
  1
20.5
 50
90.0
  0
ENDBLK
  5
1711B
  8
0
  0
ENDSEC
  0
SECTION
  2
ENTITIES
  0
LINE
  5
14A23
  8
01
 10
854.18766916632455
 20
7453.8359604491861
 30
0.0
 11
854.18766916632455
 21
7306.5026404491846
 31
0.0
  0
LINE
  5
14A24
  8
01
 10
814.18766916632467
 20
7453.8359604491861
 30
0.0
 11
814.18766916632467
 21
7306.5026404491846
 31
0.0
  0
LINE
  5
14A25
  8
01
 10
712.78767516632524
 20
7447.3385804491836
 30
0.0
 11
712.78767516632524
 21
7424.2386104491861
 31
0.0
  0
LINE
  5
14A26
  8
01
 10
711.18766916632467
 20
7447.3385804491836
 30
0.0
 11
711.18766916632467
 21
7424.3385804491854
 31
0.0
  0
LINE
  5
14A27
  8
01
 10
713.58767816632553
 20
7447.3385804491836
 30
0.0
 11
713.58767816632553
 21
7317.3385804491854
 31
0.0
  0
LINE
  5
14A28
  8
01
 10
715.18766916632467
 20
7447.3385804491836
 30
0.0
 11
715.18766916632467
 21
7317.3385804491854
 31
0.0
  0
LINE
  5
14A2A
  8
01
 10
712.18766916632455
 20
7345.3385804491836
 30
0.0
 11
683.39704587862343
 21
7345.3385804491863
 31
0.0
  0
LINE
  5
14A2B
  8
01
 10
646.18768516632485
 20
7408.5899029552083
 30
0.0
 11
646.18768516632485
 21
7378.6879444721062
 31
0.0
  0
LINE
  5
14A2C
  8
01
 10
721.18766916632285
 20
7393.3385804491854
 30
0.0
 11
715.18766916632467
 21
7393.3385804491854
 31
0.0
  0
LINE
  5
14A2D
  8
01
 10
726.18766916632455
 20
7388.3385804491854
 30
0.0
 11
716.18766916632467
 21
7388.3385804491854
 31
0.0
  0
POLYLINE
  5
14A2E
  8
01
 10
726.18766916632455
 20
7389.7701604491849
 30
0.0
 66
     1
 70
     8
  0
VERTEX
  8
01
  5
17122
 10
726.188
 20
7389.77
 30
0.000000
  70
    32
  0
VERTEX
  8
01
  5
17123
 10
726.186
 20
7389.86
 30
0.000000
  70
    32
  0
VERTEX
  8
01
  5
17124
 10
726.182
 20
7389.95
 30
0.000000
  70
    32
  0
VERTEX
  8
01
  5
17125
 10
726.174
 20
7390.03
 30
0.000000
  70
    32
  0
VERTEX
  8
01
  5
17126
 10
726.164
 20
7390.12
 30
0.000000
  70
    32
  0
VERTEX
  8
01
  5
17127
 10
726.150
 20
7390.21
 30
0.000000
  70
    32
  0
VERTEX
  8
01
  5
17128
 10
726.134
 20
7390.29
 30
0.000000
  70
    32
  0
VERTEX
  8
01
  5
17129
 10
726.114
 20
7390.38
 30
0.000000
  70
    32
  0
VERTEX
  8
01
  5
1712A
 10
726.092
 20
7390.47
 30
0.000000
  70
    32
  0
VERTEX
  8
01
  5
1712B
 10
726.066
 20
7390.55
 30
0.000000
  70
    32
  0
VERTEX
  8
01
  5
1712C
 10
726.038
 20
7390.64
 30
0.000000
  70
    32
  0
VERTEX
  8
01
  5
1712D
 10
726.007
 20
7390.72
 30
0.000000
  70
    32
  0
VERTEX
  8
01
  5
1712E
 10
725.972
 20
7390.81
 30
0.000000
  70
    32
  0
VERTEX
  8
01
  5
1712F
 10
725.935
 20
7390.89
 30
0.000000
  70
    32
  0
VERTEX
  8
01
  5
17130
 10
725.895
 20
7390.97
 30
0.000000
  70
    32
  0
VERTEX
  8
01
  5
17131
 10
725.853
 20
7391.05
 30
0.000000
  70
    32
  0
VERTEX
  8
01
  5
17132
 10
725.807
 20
7391.14
 30
0.000000
  70
    32
  0
VERTEX
  8
01
  5
17133
 10
725.759
 20
7391.22
 30
0.000000
  70
    32
  0
VERTEX
  8
01
  5
17134
 10
725.708
 20
7391.30
 30
0.000000
  70
    32
  0
VERTEX
  8
01
  5
17135
 10
725.654
 20
7391.37
 30
0.000000
  70
    32
  0
VERTEX
  8
01
  5
17136
 10
725.597
 20
7391.45
 30
0.000000
  70
    32
  0
VERTEX
  8
01
  5
17137
 10
725.538
 20
7391.53
 30
0.000000
  70
    32
  0
VERTEX
  8
01
  5
17138
 10
725.476
 20
7391.60
 30
0.000000
  70
    32
  0
VERTEX
  8
01
  5
17139
 10
725.412
 20
7391.68
 30
0.000000
  70
    32
  0
VERTEX
  8
01
  5
1713A
 10
725.345
 20
7391.75
 30
0.000000
  70
    32
  0
VERTEX
  8
01
  5
1713B
 10
725.276
 20
7391.82
 30
0.000000
  70
    32
  0
VERTEX
  8
01
  5
1713C
 10
725.204
 20
7391.90
 30
0.000000
  70
    32
  0
VERTEX
  8
01
  5
1713D
 10
725.129
 20
7391.97
 30
0.000000
  70
    32
  0
VERTEX
  8
01
  5
1713E
 10
725.053
 20
7392.03
 30
0.000000
  70
    32
  0
VERTEX
  8
01
  5
1713F
 10
724.974
 20
7392.10
 30
0.000000
  70
    32
  0
VERTEX
  8
01
  5
17140
 10
724.892
 20
7392.17
 30
0.000000
  70
    32
  0
VERTEX
  8
01
  5
17141
 10
724.809
 20
7392.23
 30
0.000000
  70
    32
  0
VERTEX
  8
01
  5
17142
 10
724.723
 20
7392.29
 30
0.000000
  70
    32
  0
VERTEX
  8
01
  5
17143
 10
724.635
 20
7392.35
 30
0.000000
  70
    32
  0
VERTEX
  8
01
  5
17144
 10
724.545
 20
7392.41
 30
0.000000
  70
    32
  0
VERTEX
  8
01
  5
17145
 10
724.454
 20
7392.47
 30
0.000000
  70
    32
  0
VERTEX
  8
01
  5
17146
 10
724.360
 20
7392.53
 30
0.000000
  70
    32
  0
VERTEX
  8
01
  5
17147
 10
724.264
 20
7392.58
 30
0.000000
  70
    32
  0
VERTEX
  8
01
  5
17148
 10
724.166
 20
7392.64
 30
0.000000
  70
    32
  0
VERTEX
  8
01
  5
17149
 10
724.067
 20
7392.69
 30
0.000000
  70
    32
  0
VERTEX
  8
01
  5
1714A
 10
723.966
 20
7392.74
 30
0.000000
  70
    32
  0
VERTEX
  8
01
  5
1714B
 10
723.863
 20
7392.78
 30
0.000000
  70
    32
  0
VERTEX
  8
01
  5
1714C
 10
723.758
 20
7392.83
 30
0.000000
  70
    32
  0
VERTEX
  8
01
  5
1714D
 10
723.652
 20
7392.87
 30
0.000000
  70
    32
  0
VERTEX
  8
01
  5
1714E
 10
723.545
 20
7392.92
 30
0.000000
  70
    32
  0
VERTEX
  8
01
  5
1714F
 10
723.436
 20
7392.96
 30
0.000000
  70
    32
  0
VERTEX
  8
01
  5
17150
 10
723.325
 20
7393.00
 30
0.000000
  70
    32
  0
VERTEX
  8
01
  5
17151
 10
723.214
 20
7393.03
 30
0.000000
  70
    32
  0
VERTEX
  8
01
  5
17152
 10
723.101
 20
7393.07
 30
0.000000
  70
    32
  0
VERTEX
  8
01
  5
17153
 10
722.987
 20
7393.10
 30
0.000000
  70
    32
  0
VERTEX
  8
01
  5
17154
 10
722.872
 20
7393.13
 30
0.000000
  70
    32
  0
VERTEX
  8
01
  5
17155
 10
722.756
 20
7393.16
 30
0.000000
  70
    32
  0
VERTEX
  8
01
  5
17156
 10
722.639
 20
7393.18
 30
0.000000
  70
    32
  0
VERTEX
  8
01
  5
17157
 10
722.521
 20
7393.21
 30
0.000000
  70
    32
  0
VERTEX
  8
01
  5
17158
 10
722.403
 20
7393.23
 30
0.000000
  70
    32
  0
VERTEX
  8
01
  5
17159
 10
722.283
 20
7393.25
 30
0.000000
  70
    32
  0
VERTEX
  8
01
  5
1715A
 10
722.163
 20
7393.27
 30
0.000000
  70
    32
  0
VERTEX
  8
01
  5
1715B
 10
722.042
 20
7393.29
 30
0.000000
  70
    32
  0
VERTEX
  8
01
  5
1715C
 10
721.921
 20
7393.30
 30
0.000000
  70
    32
  0
VERTEX
  8
01
  5
1715D
 10
721.800
 20
7393.31
 30
0.000000
  70
    32
  0
VERTEX
  8
01
  5
1715E
 10
721.678
 20
7393.32
 30
0.000000
  70
    32
  0
VERTEX
  8
01
  5
1715F
 10
721.555
 20
7393.33
 30
0.000000
  70
    32
  0
VERTEX
  8
01
  5
17160
 10
721.433
 20
7393.33
 30
0.000000
  70
    32
  0
VERTEX
  8
01
  5
17161
 10
721.310
 20
7393.34
 30
0.000000
  70
    32
  0
VERTEX
  8
01
  5
17162
 10
721.188
 20
7393.34
 30
0.000000
  70
    32
  0
VERTEX
  8
01
  5
17163
 10
721.065
 20
7393.34
 30
0.000000
  70
    32
  0
VERTEX
  8
01
  5
17164
 10
720.942
 20
7393.33
 30
0.000000
  70
    32
  0
VERTEX
  8
01
  5
17165
 10
720.820
 20
7393.33
 30
0.000000
  70
    32
  0
VERTEX
  8
01
  5
17166
 10
720.698
 20
7393.32
 30
0.000000
  70
    32
  0
VERTEX
  8
01
  5
17167
 10
720.576
 20
7393.31
 30
0.000000
  70
    32
  0
VERTEX
  8
01
  5
17168
 10
720.454
 20
7393.30
 30
0.000000
  70
    32
  0
VERTEX
  8
01
  5
17169
 10
720.333
 20
7393.29
 30
0.000000
  70
    32
  0
VERTEX
  8
01
  5
1716A
 10
720.212
 20
7393.27
 30
0.000000
  70
    32
  0
VERTEX
  8
01
  5
1716B
 10
720.092
 20
7393.25
 30
0.000000
  70
    32
  0
VERTEX
  8
01
  5
1716C
 10
719.973
 20
7393.23
 30
0.000000
  70
    32
  0
VERTEX
  8
01
  5
1716D
 10
719.854
 20
7393.21
 30
0.000000
  70
    32
  0
VERTEX
  8
01
  5
1716E
 10
719.736
 20
7393.18
 30
0.000000
  70
    32
  0
VERTEX
  8
01
  5
1716F
 10
719.619
 20
7393.16
 30
0.000000
  70
    32
  0
VERTEX
  8
01
  5
17170
 10
719.503
 20
7393.13
 30
0.000000
  70
    32
  0
VERTEX
  8
01
  5
17171
 10
719.388
 20
7393.10
 30
0.000000
  70
    32
  0
VERTEX
  8
01
  5
17172
 10
719.274
 20
7393.07
 30
0.000000
  70
    32
  0
VERTEX
  8
01
  5
17173
 10
719.161
 20
7393.03
 30
0.000000
  70
    32
  0
VERTEX
  8
01
  5
17174
 10
719.050
 20
7393.00
 30
0.000000
  70
    32
  0
VERTEX
  8
01
  5
17175
 10
718.940
 20
7392.96
 30
0.000000
  70
    32
  0
VERTEX
  8
01
  5
17176
 10
718.831
 20
7392.92
 30
0.000000
  70
    32
  0
VERTEX
  8
01
  5
17177
 10
718.723
 20
7392.87
 30
0.000000
  70
    32
  0
VERTEX
  8
01
  5
17178
 10
718.617
 20
7392.83
 30
0.000000
  70
    32
  0
VERTEX
  8
01
  5
17179
 10
718.513
 20
7392.78
 30
0.000000
  70
    32
  0
VERTEX
  8
01
  5
1717A
 10
718.410
 20
7392.74
 30
0.000000
  70
    32
  0
VERTEX
  8
01
  5
1717B
 10
718.309
 20
7392.69
 30
0.000000
  70
    32
  0
VERTEX
  8
01
  5
1717C
 10
718.209
 20
7392.64
 30
0.000000
  70
    32
  0
VERTEX
  8
01
  5
1717D
 10
718.112
 20
7392.58
 30
0.000000
  70
    32
  0
VERTEX
  8
01
  5
1717E
 10
718.016
 20
7392.53
 30
0.000000
  70
    32
  0
VERTEX
  8
01
  5
1717F
 10
717.922
 20
7392.47
 30
0.000000
  70
    32
  0
VERTEX
  8
01
  5
17180
 10
717.830
 20
7392.41
 30
0.000000
  70
    32
  0
VERTEX
  8
01
  5
17181
 10
717.740
 20
7392.35
 30
0.000000
  70
    32
  0
VERTEX
  8
01
  5
17182
 10
717.652
 20
7392.29
 30
0.000000
  70
    32
  0
VERTEX
  8
01
  5
17183
 10
717.566
 20
7392.23
 30
0.000000
  70
    32
  0
VERTEX
  8
01
  5
17184
 10
717.483
 20
7392.17
 30
0.000000
  70
    32
  0
VERTEX
  8
01
  5
17185
 10
717.402
 20
7392.10
 30
0.000000
  70
    32
  0
VERTEX
  8
01
  5
17186
 10
717.323
 20
7392.03
 30
0.000000
  70
    32
  0
VERTEX
  8
01
  5
17187
 10
717.246
 20
7391.97
 30
0.000000
  70
    32
  0
VERTEX
  8
01
  5
17188
 10
717.172
 20
7391.90
 30
0.000000
  70
    32
  0
VERTEX
  8
01
  5
17189
 10
717.100
 20
7391.82
 30
0.000000
  70
    32
  0
VERTEX
  8
01
  5
1718A
 10
717.030
 20
7391.75
 30
0.000000
  70
    32
  0
VERTEX
  8
01
  5
1718B
 10
716.963
 20
7391.68
 30
0.000000
  70
    32
  0
VERTEX
  8
01
  5
1718C
 10
716.899
 20
7391.60
 30
0.000000
  70
    32
  0
VERTEX
  8
01
  5
1718D
 10
716.837
 20
7391.53
 30
0.000000
  70
    32
  0
VERTEX
  8
01
  5
1718E
 10
716.778
 20
7391.45
 30
0.000000
  70
    32
  0
VERTEX
  8
01
  5
1718F
 10
716.722
 20
7391.37
 30
0.000000
  70
    32
  0
VERTEX
  8
01
  5
17190
 10
716.668
 20
7391.30
 30
0.000000
  70
    32
  0
VERTEX
  8
01
  5
17191
 10
716.617
 20
7391.22
 30
0.000000
  70
    32
  0
VERTEX
  8
01
  5
17192
 10
716.568
 20
7391.14
 30
0.000000
  70
    32
  0
VERTEX
  8
01
  5
17193
 10
716.523
 20
7391.05
 30
0.000000
  70
    32
  0
VERTEX
  8
01
  5
17194
 10
716.480
 20
7390.97
 30
0.000000
  70
    32
  0
VERTEX
  8
01
  5
17195
 10
716.440
 20
7390.89
 30
0.000000
  70
    32
  0
VERTEX
  8
01
  5
17196
 10
716.403
 20
7390.81
 30
0.000000
  70
    32
  0
VERTEX
  8
01
  5
17197
 10
716.369
 20
7390.72
 30
0.000000
  70
    32
  0
VERTEX
  8
01
  5
17198
 10
716.338
 20
7390.64
 30
0.000000
  70
    32
  0
VERTEX
  8
01
  5
17199
 10
716.309
 20
7390.55
 30
0.000000
  70
    32
  0
VERTEX
  8
01
  5
1719A
 10
716.284
 20
7390.47
 30
0.000000
  70
    32
  0
VERTEX
  8
01
  5
1719B
 10
716.261
 20
7390.38
 30
0.000000
  70
    32
  0
VERTEX
  8
01
  5
1719C
 10
716.242
 20
7390.29
 30
0.000000
  70
    32
  0
VERTEX
  8
01
  5
1719D
 10
716.225
 20
7390.21
 30
0.000000
  70
    32
  0
VERTEX
  8
01
  5
1719E
 10
716.212
 20
7390.12
 30
0.000000
  70
    32
  0
VERTEX
  8
01
  5
1719F
 10
716.201
 20
7390.03
 30
0.000000
  70
    32
  0
VERTEX
  8
01
  5
171A0
 10
716.194
 20
7389.95
 30
0.000000
  70
    32
  0
VERTEX
  8
01
  5
171A1
 10
716.189
 20
7389.86
 30
0.000000
  70
    32
  0
VERTEX
  8
01
  5
171A2
 10
716.188
 20
7389.77
 30
0.000000
  70
    32
  0
SEQEND
  8
01
  5
171A3
  0
LINE
  5
14A2F
  8
01
 10
721.18766916632455
 20
7373.3385804491854
 30
0.0
 11
715.18766916632467
 21
7373.3385804491854
 31
0.0
  0
LINE
  5
14A30
  8
01
 10
726.18766916632455
 20
7378.3385804491854
 30
0.0
 11
716.18766916632467
 21
7378.3385804491854
 31
0.0
  0
POLYLINE
  5
14A31
  8
01
 10
726.18766916632455
 20
7376.907000449185
 30
0.0
 66
     1
 70
     8
  0
VERTEX
  8
01
  5
171A4
 10
726.188
 20
7376.91
 30
0.000000
  70
    32
  0
VERTEX
  8
01
  5
171A5
 10
726.186
 20
7376.82
 30
0.000000
  70
    32
  0
VERTEX
  8
01
  5
171A6
 10
726.182
 20
7376.73
 30
0.000000
  70
    32
  0
VERTEX
  8
01
  5
171A7
 10
726.174
 20
7376.64
 30
0.000000
  70
    32
  0
VERTEX
  8
01
  5
171A8
 10
726.164
 20
7376.56
 30
0.000000
  70
    32
  0
VERTEX
  8
01
  5
171A9
 10
726.150
 20
7376.47
 30
0.000000
  70
    32
  0
VERTEX
  8
01
  5
171AA
 10
726.134
 20
7376.38
 30
0.000000
  70
    32
  0
VERTEX
  8
01
  5
171AB
 10
726.114
 20
7376.30
 30
0.000000
  70
    32
  0
VERTEX
  8
01
  5
171AC
 10
726.092
 20
7376.21
 30
0.000000
  70
    32
  0
VERTEX
  8
01
  5
171AD
 10
726.066
 20
7376.13
 30
0.000000
  70
    32
  0
VERTEX
  8
01
  5
171AE
 10
726.038
 20
7376.04
 30
0.000000
  70
    32
  0
VERTEX
  8
01
  5
171AF
 10
726.007
 20
7375.96
 30
0.000000
  70
    32
  0
VERTEX
  8
01
  5
171B0
 10
725.972
 20
7375.87
 30
0.000000
  70
    32
  0
VERTEX
  8
01
  5
171B1
 10
725.935
 20
7375.79
 30
0.000000
  70
    32
  0
VERTEX
  8
01
  5
171B2
 10
725.895
 20
7375.70
 30
0.000000
  70
    32
  0
VERTEX
  8
01
  5
171B3
 10
725.853
 20
7375.62
 30
0.000000
  70
    32
  0
VERTEX
  8
01
  5
171B4
 10
725.807
 20
7375.54
 30
0.000000
  70
    32
  0
VERTEX
  8
01
  5
171B5
 10
725.759
 20
7375.46
 30
0.000000
  70
    32
  0
VERTEX
  8
01
  5
171B6
 10
725.708
 20
7375.38
 30
0.000000
  70
    32
  0
VERTEX
  8
01
  5
171B7
 10
725.654
 20
7375.30
 30
0.000000
  70
    32
  0
VERTEX
  8
01
  5
171B8
 10
725.597
 20
7375.22
 30
0.000000
  70
    32
  0
VERTEX
  8
01
  5
171B9
 10
725.538
 20
7375.15
 30
0.000000
  70
    32
  0
VERTEX
  8
01
  5
171BA
 10
725.476
 20
7375.07
 30
0.000000
  70
    32
  0
VERTEX
  8
01
  5
171BB
 10
725.412
 20
7375.00
 30
0.000000
  70
    32
  0
VERTEX
  8
01
  5
171BC
 10
725.345
 20
7374.92
 30
0.000000
  70
    32
  0
VERTEX
  8
01
  5
171BD
 10
725.276
 20
7374.85
 30
0.000000
  70
    32
  0
VERTEX
  8
01
  5
171BE
 10
725.204
 20
7374.78
 30
0.000000
  70
    32
  0
VERTEX
  8
01
  5
171BF
 10
725.129
 20
7374.71
 30
0.000000
  70
    32
  0
VERTEX
  8
01
  5
171C0
 10
725.053
 20
7374.64
 30
0.000000
  70
    32
  0
VERTEX
  8
01
  5
171C1
 10
724.974
 20
7374.58
 30
0.000000
  70
    32
  0
VERTEX
  8
01
  5
171C2
 10
724.892
 20
7374.51
 30
0.000000
  70
    32
  0
VERTEX
  8
01
  5
171C3
 10
724.809
 20
7374.45
 30
0.000000
  70
    32
  0
VERTEX
  8
01
  5
171C4
 10
724.723
 20
7374.38
 30
0.000000
  70
    32
  0
VERTEX
  8
01
  5
171C5
 10
724.635
 20
7374.32
 30
0.000000
  70
    32
  0
VERTEX
  8
01
  5
171C6
 10
724.545
 20
7374.26
 30
0.000000
  70
    32
  0
VERTEX
  8
01
  5
171C7
 10
724.454
 20
7374.20
 30
0.000000
  70
    32
  0
VERTEX
  8
01
  5
171C8
 10
724.360
 20
7374.15
 30
0.000000
  70
    32
  0
VERTEX
  8
01
  5
171C9
 10
724.264
 20
7374.09
 30
0.000000
  70
    32
  0
VERTEX
  8
01
  5
171CA
 10
724.166
 20
7374.04
 30
0.000000
  70
    32
  0
VERTEX
  8
01
  5
171CB
 10
724.067
 20
7373.99
 30
0.000000
  70
    32
  0
VERTEX
  8
01
  5
171CC
 10
723.966
 20
7373.94
 30
0.000000
  70
    32
  0
VERTEX
  8
01
  5
171CD
 10
723.863
 20
7373.89
 30
0.000000
  70
    32
  0
VERTEX
  8
01
  5
171CE
 10
723.758
 20
7373.85
 30
0.000000
  70
    32
  0
VERTEX
  8
01
  5
171CF
 10
723.652
 20
7373.80
 30
0.000000
  70
    32
  0
VERTEX
  8
01
  5
171D0
 10
723.545
 20
7373.76
 30
0.000000
  70
    32
  0
VERTEX
  8
01
  5
171D1
 10
723.436
 20
7373.72
 30
0.000000
  70
    32
  0
VERTEX
  8
01
  5
171D2
 10
723.325
 20
7373.68
 30
0.000000
  70
    32
  0
VERTEX
  8
01
  5
171D3
 10
723.214
 20
7373.64
 30
0.000000
  70
    32
  0
VERTEX
  8
01
  5
171D4
 10
723.101
 20
7373.61
 30
0.000000
  70
    32
  0
VERTEX
  8
01
  5
171D5
 10
722.987
 20
7373.58
 30
0.000000
  70
    32
  0
VERTEX
  8
01
  5
171D6
 10
722.872
 20
7373.55
 30
0.000000
  70
    32
  0
VERTEX
  8
01
  5
171D7
 10
722.756
 20
7373.52
 30
0.000000
  70
    32
  0
VERTEX
  8
01
  5
171D8
 10
722.639
 20
7373.49
 30
0.000000
  70
    32
  0
VERTEX
  8
01
  5
171D9
 10
722.521
 20
7373.47
 30
0.000000
  70
    32
  0
VERTEX
  8
01
  5
171DA
 10
722.403
 20
7373.45
 30
0.000000
  70
    32
  0
VERTEX
  8
01
  5
171DB
 10
722.283
 20
7373.43
 30
0.000000
  70
    32
  0
VERTEX
  8
01
  5
171DC
 10
722.163
 20
7373.41
 30
0.000000
  70
    32
  0
VERTEX
  8
01
  5
171DD
 10
722.042
 20
7373.39
 30
0.000000
  70
    32
  0
VERTEX
  8
01
  5
171DE
 10
721.921
 20
7373.38
 30
0.000000
  70
    32
  0
VERTEX
  8
01
  5
171DF
 10
721.800
 20
7373.37
 30
0.000000
  70
    32
  0
VERTEX
  8
01
  5
171E0
 10
721.678
 20
7373.36
 30
0.000000
  70
    32
  0
VERTEX
  8
01
  5
171E1
 10
721.555
 20
7373.35
 30
0.000000
  70
    32
  0
VERTEX
  8
01
  5
171E2
 10
721.433
 20
7373.34
 30
0.000000
  70
    32
  0
VERTEX
  8
01
  5
171E3
 10
721.310
 20
7373.34
 30
0.000000
  70
    32
  0
VERTEX
  8
01
  5
171E4
 10
721.188
 20
7373.34
 30
0.000000
  70
    32
  0
VERTEX
  8
01
  5
171E5
 10
721.065
 20
7373.34
 30
0.000000
  70
    32
  0
VERTEX
  8
01
  5
171E6
 10
720.942
 20
7373.34
 30
0.000000
  70
    32
  0
VERTEX
  8
01
  5
171E7
 10
720.820
 20
7373.35
 30
0.000000
  70
    32
  0
VERTEX
  8
01
  5
171E8
 10
720.698
 20
7373.36
 30
0.000000
  70
    32
  0
VERTEX
  8
01
  5
171E9
 10
720.576
 20
7373.37
 30
0.000000
  70
    32
  0
VERTEX
  8
01
  5
171EA
 10
720.454
 20
7373.38
 30
0.000000
  70
    32
  0
VERTEX
  8
01
  5
171EB
 10
720.333
 20
7373.39
 30
0.000000
  70
    32
  0
VERTEX
  8
01
  5
171EC
 10
720.212
 20
7373.41
 30
0.000000
  70
    32
  0
VERTEX
  8
01
  5
171ED
 10
720.092
 20
7373.43
 30
0.000000
  70
    32
  0
VERTEX
  8
01
  5
171EE
 10
719.973
 20
7373.45
 30
0.000000
  70
    32
  0
VERTEX
  8
01
  5
171EF
 10
719.854
 20
7373.47
 30
0.000000
  70
    32
  0
VERTEX
  8
01
  5
171F0
 10
719.736
 20
7373.49
 30
0.000000
  70
    32
  0
VERTEX
  8
01
  5
171F1
 10
719.619
 20
7373.52
 30
0.000000
  70
    32
  0
VERTEX
  8
01
  5
171F2
 10
719.503
 20
7373.55
 30
0.000000
  70
    32
  0
VERTEX
  8
01
  5
171F3
 10
719.388
 20
7373.58
 30
0.000000
  70
    32
  0
VERTEX
  8
01
  5
171F4
 10
719.274
 20
7373.61
 30
0.000000
  70
    32
  0
VERTEX
  8
01
  5
171F5
 10
719.161
 20
7373.64
 30
0.000000
  70
    32
  0
VERTEX
  8
01
  5
171F6
 10
719.050
 20
7373.68
 30
0.000000
  70
    32
  0
VERTEX
  8
01
  5
171F7
 10
718.940
 20
7373.72
 30
0.000000
  70
    32
  0
VERTEX
  8
01
  5
171F8
 10
718.831
 20
7373.76
 30
0.000000
  70
    32
  0
VERTEX
  8
01
  5
171F9
 10
718.723
 20
7373.80
 30
0.000000
  70
    32
  0
VERTEX
  8
01
  5
171FA
 10
718.617
 20
7373.85
 30
0.000000
  70
    32
  0
VERTEX
  8
01
  5
171FB
 10
718.513
 20
7373.89
 30
0.000000
  70
    32
  0
VERTEX
  8
01
  5
171FC
 10
718.410
 20
7373.94
 30
0.000000
  70
    32
  0
VERTEX
  8
01
  5
171FD
 10
718.309
 20
7373.99
 30
0.000000
  70
    32
  0
VERTEX
  8
01
  5
171FE
 10
718.209
 20
7374.04
 30
0.000000
  70
    32
  0
VERTEX
  8
01
  5
171FF
 10
718.112
 20
7374.09
 30
0.000000
  70
    32
  0
VERTEX
  8
01
  5
17200
 10
718.016
 20
7374.15
 30
0.000000
  70
    32
  0
VERTEX
  8
01
  5
17201
 10
717.922
 20
7374.20
 30
0.000000
  70
    32
  0
VERTEX
  8
01
  5
17202
 10
717.830
 20
7374.26
 30
0.000000
  70
    32
  0
VERTEX
  8
01
  5
17203
 10
717.740
 20
7374.32
 30
0.000000
  70
    32
  0
VERTEX
  8
01
  5
17204
 10
717.652
 20
7374.38
 30
0.000000
  70
    32
  0
VERTEX
  8
01
  5
17205
 10
717.566
 20
7374.45
 30
0.000000
  70
    32
  0
VERTEX
  8
01
  5
17206
 10
717.483
 20
7374.51
 30
0.000000
  70
    32
  0
VERTEX
  8
01
  5
17207
 10
717.402
 20
7374.58
 30
0.000000
  70
    32
  0
VERTEX
  8
01
  5
17208
 10
717.323
 20
7374.64
 30
0.000000
  70
    32
  0
VERTEX
  8
01
  5
17209
 10
717.246
 20
7374.71
 30
0.000000
  70
    32
  0
VERTEX
  8
01
  5
1720A
 10
717.172
 20
7374.78
 30
0.000000
  70
    32
  0
VERTEX
  8
01
  5
1720B
 10
717.100
 20
7374.85
 30
0.000000
  70
    32
  0
VERTEX
  8
01
  5
1720C
 10
717.030
 20
7374.92
 30
0.000000
  70
    32
  0
VERTEX
  8
01
  5
1720D
 10
716.963
 20
7375.00
 30
0.000000
  70
    32
  0
VERTEX
  8
01
  5
1720E
 10
716.899
 20
7375.07
 30
0.000000
  70
    32
  0
VERTEX
  8
01
  5
1720F
 10
716.837
 20
7375.15
 30
0.000000
  70
    32
  0
VERTEX
  8
01
  5
17210
 10
716.778
 20
7375.22
 30
0.000000
  70
    32
  0
VERTEX
  8
01
  5
17211
 10
716.722
 20
7375.30
 30
0.000000
  70
    32
  0
VERTEX
  8
01
  5
17212
 10
716.668
 20
7375.38
 30
0.000000
  70
    32
  0
VERTEX
  8
01
  5
17213
 10
716.617
 20
7375.46
 30
0.000000
  70
    32
  0
VERTEX
  8
01
  5
17214
 10
716.568
 20
7375.54
 30
0.000000
  70
    32
  0
VERTEX
  8
01
  5
17215
 10
716.523
 20
7375.62
 30
0.000000
  70
    32
  0
VERTEX
  8
01
  5
17216
 10
716.480
 20
7375.70
 30
0.000000
  70
    32
  0
VERTEX
  8
01
  5
17217
 10
716.440
 20
7375.79
 30
0.000000
  70
    32
  0
VERTEX
  8
01
  5
17218
 10
716.403
 20
7375.87
 30
0.000000
  70
    32
  0
VERTEX
  8
01
  5
17219
 10
716.369
 20
7375.96
 30
0.000000
  70
    32
  0
VERTEX
  8
01
  5
1721A
 10
716.338
 20
7376.04
 30
0.000000
  70
    32
  0
VERTEX
  8
01
  5
1721B
 10
716.309
 20
7376.13
 30
0.000000
  70
    32
  0
VERTEX
  8
01
  5
1721C
 10
716.284
 20
7376.21
 30
0.000000
  70
    32
  0
VERTEX
  8
01
  5
1721D
 10
716.261
 20
7376.30
 30
0.000000
  70
    32
  0
VERTEX
  8
01
  5
1721E
 10
716.242
 20
7376.38
 30
0.000000
  70
    32
  0
VERTEX
  8
01
  5
1721F
 10
716.225
 20
7376.47
 30
0.000000
  70
    32
  0
VERTEX
  8
01
  5
17220
 10
716.212
 20
7376.56
 30
0.000000
  70
    32
  0
VERTEX
  8
01
  5
17221
 10
716.201
 20
7376.64
 30
0.000000
  70
    32
  0
VERTEX
  8
01
  5
17222
 10
716.194
 20
7376.73
 30
0.000000
  70
    32
  0
VERTEX
  8
01
  5
17223
 10
716.189
 20
7376.82
 30
0.000000
  70
    32
  0
VERTEX
  8
01
  5
17224
 10
716.188
 20
7376.91
 30
0.000000
  70
    32
  0
SEQEND
  8
01
  5
17225
  0
LINE
  5
14A32
  8
01
 10
726.18766916632455
 20
7389.7701604491849
 30
0.0
 11
726.18766916632455
 21
7376.9070004491832
 31
0.0
  0
LINE
  5
14A33
  8
01
 10
716.18766916632467
 20
7389.7701604491849
 30
0.0
 11
716.18766916632467
 21
7376.9070004491859
 31
0.0
  0
LINE
  5
14A34
  8
01
 10
712.18765416632505
 20
7423.3385804491836
 30
0.0
 11
711.18765416632505
 21
7424.3385804491854
 31
0.0
  0
LINE
  5
14A35
  8
01
 10
713.58767116632487
 20
7423.4385604491836
 30
0.0
 11
712.78769016632475
 21
7424.2385404491852
 31
0.0
  0
LINE
  5
14A36
  8
01
 10
713.58767116632487
 20
7341.2385704491853
 30
0.0
 11
712.78766816632469
 21
7340.4385904491846
 31
0.0
  0
LINE
  5
14A37
  8
01
 10
712.18761616632491
 20
7341.3385504491862
 30
0.0
 11
711.18763116632454
 21
7340.3385504491853
 31
0.0
  0
LINE
  5
14A38
  8
01
 10
715.18766916632467
 20
7317.3385804491854
 30
0.0
 11
711.18766916632467
 21
7317.3385804491854
 31
0.0
  0
LINE
  5
14A39
  8
01
 10
712.78767516632524
 20
7317.3385804491854
 30
0.0
 11
712.78767516632524
 21
7340.4385904491846
 31
0.0
  0
LINE
  5
14A3A
  8
01
 10
711.18766916632467
 20
7317.3385804491854
 30
0.0
 11
711.18766916632467
 21
7340.3385804491836
 31
0.0
  0
LINE
  5
14A3B
  8
01
 10
712.18766916632455
 20
7423.3385804491836
 30
0.0
 11
712.18766916632455
 21
7341.3385804491854
 31
0.0
  0
LINE
  5
14A3C
  8
01
 10
715.18766916632467
 20
7447.3385804491836
 30
0.0
 11
711.18766916632467
 21
7447.3385804491836
 31
0.0
  0
LINE
  5
14A3D
  8
01
 10
821.68766916632455
 20
7441.3385804491854
 30
0.0
 11
821.68766916632455
 21
7323.3385804491854
 31
0.0
  0
LINE
  5
14A3E
  8
01
 10
846.68766916632455
 20
7441.3385804491854
 30
0.0
 11
846.68766916632455
 21
7323.3385804491854
 31
0.0
  0
ARC
  5
14A3F
  8
01
 10
840.68766916632455
 20
7323.3385804491854
 30
0.0
 40
6.0
 50
270.0
 51
0.0
  0
ARC
  5
14A40
  8
01
 10
827.68766916632467
 20
7323.3385804491854
 30
0.0
 40
6.0
 50
180.0
 51
270.0
  0
LINE
  5
14A41
  8
01
 10
841.93766916632467
 20
7389.7701604491849
 30
0.0
 11
841.93766916632467
 21
7376.907000449185
 31
0.0
  0
LINE
  5
14A42
  8
01
 10
840.93766916632467
 20
7388.3385804491854
 30
0.0
 11
840.93766916632467
 21
7378.3385804491854
 31
0.0
  0
LINE
  5
14A43
  8
01
 10
827.43766916632455
 20
7388.3385804491854
 30
0.0
 11
827.43766916632455
 21
7378.3385804491854
 31
0.0
  0
LINE
  5
14A44
  8
01
 10
826.43766916632455
 20
7389.7701604491849
 30
0.0
 11
826.43766916632455
 21
7376.907000449185
 31
0.0
  0
ARC
  5
14A45
  8
01
 10
834.18766916632455
 20
7383.5385904491859
 30
0.0
 40
10.199999999999999
 50
220.55307999999039
 51
319.44692000000953
  0
LINE
  5
14A46
  8
01
 10
827.43766916632455
 20
7378.3385804491854
 30
0.0
 11
840.93766916632467
 21
7378.3385804491854
 31
0.0
  0
LINE
  5
14A47
  8
01
 10
827.43766916632455
 20
7388.3385804491854
 30
0.0
 11
840.93766916632467
 21
7388.3385804491854
 31
0.0
  0
ARC
  5
14A48
  8
01
 10
834.18766916632455
 20
7383.138570449185
 30
0.0
 40
10.199999999999999
 50
40.553083999997327
 51
139.4469200000095
  0
CIRCLE
  5
14A49
  8
01
 10
834.18766916632455
 20
7325.3385804491836
 30
0.0
 40
4.5
  0
CIRCLE
  5
14A4A
  8
01
 10
834.18766916632455
 20
7325.3385804491836
 30
0.0
 40
2.75
  0
LINE
  5
14A4B
  8
01
 10
827.68766916632467
 20
7317.3385804491854
 30
0.0
 11
840.68766916632455
 21
7317.3385804491854
 31
0.0
  0
ARC
  5
14A4C
  8
01
 10
840.68766916632455
 20
7441.3385804491854
 30
0.0
 40
6.0
 50
0.0
 51
90.0
  0
ARC
  5
14A4E
  8
01
 10
827.68766916632467
 20
7441.3385804491854
 30
0.0
 40
6.0
 50
90.0
 51
180.0
  0
LINE
  5
14A4F
  8
01
 10
827.68766916632467
 20
7447.3385804491836
 30
0.0
 11
840.68766916632455
 21
7447.3385804491836
 31
0.0
  0
CIRCLE
  5
14A50
  8
01
 10
834.18766916632455
 20
7439.3385804491836
 30
0.0
 40
4.5
  0
CIRCLE
  5
14A51
  8
01
 10
834.18766916632455
 20
7439.3385804491836
 30
0.0
 40
2.75
  0
TEXT
  5
14A52
  8
01
 10
649.18768516632485
 20
7646.3385804491854
 30
0.0
 40
20.0
  1
2-L3C-X-LW
  0
LINE
  5
14A56
  8
01
 10
955.58767516632452
 20
7447.3385804491836
 30
0.0
 11
955.58767516632452
 21
7424.2386104491861
 31
0.0
  0
LINE
  5
14A57
  8
01
 10
957.18766516632502
 20
7447.3385804491836
 30
0.0
 11
957.18766516632502
 21
7424.3385804491854
 31
0.0
  0
LINE
  5
14A58
  8
01
 10
954.78767516632524
 20
7447.3385804491836
 30
0.0
 11
954.78767516632524
 21
7317.3385804491854
 31
0.0
  0
LINE
  5
14A59
  8
01
 10
953.18766516632513
 20
7447.3385804491836
 30
0.0
 11
953.18766516632513
 21
7317.3385804491854
 31
0.0
  0
LINE
  5
14A5B
  8
01
 10
956.18766516632513
 20
7345.3385804491836
 30
0.0
 11
984.97829245402636
 21
7345.3385804491836
 31
0.0
  0
LINE
  5
14A5C
  8
01
 10
956.18767516632477
 20
7423.3385804491836
 30
0.0
 11
957.18767516632477
 21
7424.3385804491854
 31
0.0
  0
LINE
  5
14A5D
  8
01
 10
954.7876651663255
 20
7423.4385604491836
 30
0.0
 11
955.58767516632452
 21
7424.2386104491861
 31
0.0
  0
LINE
  5
14A5E
  8
01
 10
946.18766516632513
 20
7393.3385804491854
 30
0.0
 11
953.18766516632513
 21
7393.3385804491854
 31
0.0
  0
LINE
  5
14A5F
  8
01
 10
946.18766516632513
 20
7373.3385804491854
 30
0.0
 11
953.18766516632513
 21
7373.3385804491854
 31
0.0
  0
LINE
  5
14A60
  8
01
 10
942.26976516632465
 20
7376.5323104491836
 30
0.0
 11
953.18766516632513
 21
7376.5323104491836
 31
0.0
  0
LINE
  5
14A61
  8
01
 10
942.26976516632465
 20
7390.1448604491852
 30
0.0
 11
953.18766516632513
 21
7390.1448604491852
 31
0.0
  0
LINE
  5
14A62
  8
01
 10
942.18766516632525
 20
7389.3385804491836
 30
0.0
 11
942.18766516632525
 21
7377.3385804491854
 31
0.0
  0
ARC
  5
14A63
  8
01
 10
946.18766516632513
 20
7377.3385804491854
 30
0.0
 40
4.0
 50
179.999989999999
 51
270.0
  0
ARC
  5
14A64
  8
01
 10
946.18766516632513
 20
7389.3385804491836
 30
0.0
 40
4.0
 50
90.000002999984645
 51
180.000010000001
  0
LINE
  5
14A65
  8
01
 10
954.7876651663255
 20
7341.2385704491853
 30
0.0
 11
955.58767516632452
 21
7340.4385904491846
 31
0.0
  0
LINE
  5
14A66
  8
01
 10
956.18771516632569
 20
7341.3385504491862
 30
0.0
 11
957.18769516632426
 21
7340.3385804491836
 31
0.0
  0
LINE
  5
14A67
  8
01
 10
948.18766516632513
 20
7325.3385804491836
 30
0.0
 11
962.18766516632513
 21
7325.3385804491836
 31
0.0
  0
LINE
  5
14A68
  8
01
 10
953.18766516632513
 20
7317.3385804491854
 30
0.0
 11
957.18766516632502
 21
7317.3385804491854
 31
0.0
  0
LINE
  5
14A69
  8
01
 10
955.58767516632452
 20
7317.3385804491854
 30
0.0
 11
955.58767516632452
 21
7340.4385904491846
 31
0.0
  0
LINE
  5
14A6A
  8
01
 10
957.18766516632502
 20
7317.3385804491854
 30
0.0
 11
957.18766516632502
 21
7340.3385804491836
 31
0.0
  0
LINE
  5
14A6B
  8
01
 10
956.18766516632513
 20
7423.3385804491836
 30
0.0
 11
956.18766516632513
 21
7341.3385804491854
 31
0.0
  0
LINE
  5
14A6C
  8
01
 10
1022.187665166325
 20
7408.5899465986613
 30
0.0
 11
1022.187665166325
 21
7378.6879320220814
 31
0.0
  0
LINE
  5
14A6E
  8
01
 10
953.18766516632513
 20
7447.3385804491836
 30
0.0
 11
957.18766516632502
 21
7447.3385804491836
 31
0.0
  0
LINE
  5
14A6F
  8
01
 10
948.18766516632513
 20
7439.3385804491836
 30
0.0
 11
962.18766516632513
 21
7439.3385804491836
 31
0.0
  0
LINE
  5
14A71
  8
01
 10
957.1885493483851
 20
7640.838580448155
 30
0.0
 11
1023.188549348385
 21
7640.838580448155
 31
0.0
  0
LINE
  5
14A72
  8
01
 10
957.1885493483851
 20
7639.2386104481566
 30
0.0
 11
1023.188549348385
 21
7639.2386104481566
 31
0.0
  0
LINE
  5
14A73
  8
01
 10
954.78855934838532
 20
7621.838580448155
 30
0.0
 11
1023.188549348385
 21
7621.838580448155
 31
0.0
  0
LINE
  5
14A74
  8
01
 10
956.38853934838608
 20
7636.3385804481568
 30
0.0
 11
957.1885493483851
 21
7637.1386004481574
 31
0.0
  0
LINE
  5
14A75
  8
01
 10
957.1885493483851
 20
7641.8385804481559
 30
0.0
 11
957.1885493483851
 21
7637.1386004481574
 31
0.0
  0
LINE
  5
14A76
  8
01
 10
954.78855934838532
 20
7636.338610448156
 30
0.0
 11
955.58854934838655
 21
7637.1385704481572
 31
0.0
  0
LINE
  5
14A77
  8
01
 10
942.18854934838498
 20
7623.5885804481559
 30
0.0
 11
953.1885493483851
 21
7623.5885804481559
 31
0.0
  0
LINE
  5
14A78
  8
01
 10
942.18854934838498
 20
7623.5885804481559
 30
0.0
 11
942.18854934838498
 21
7625.5885804481559
 31
0.0
  0
LINE
  5
14A79
  8
01
 10
953.1885493483851
 20
7643.838580448155
 30
0.0
 11
954.78855934838532
 21
7643.838580448155
 31
0.0
  0
LINE
  5
14A7A
  8
01
 10
954.78855934838532
 20
7643.838580448155
 30
0.0
 11
954.78855934838532
 21
7636.3385804481568
 31
0.0
  0
LINE
  5
14A7B
  8
01
 10
955.58855934838618
 20
7641.8385804481559
 30
0.0
 11
955.58855934838618
 21
7637.1386004481574
 31
0.0
  0
LINE
  5
14A7C
  8
01
 10
954.78855934838532
 20
7641.8385804481559
 30
0.0
 11
957.1885493483851
 21
7641.8385804481559
 31
0.0
  0
LINE
  5
14A7D
  8
01
 10
957.1885493483851
 20
7625.5385904481573
 30
0.0
 11
957.1885493483851
 21
7621.838580448155
 31
0.0
  0
LINE
  5
14A7E
  8
01
 10
956.38855934838557
 20
7626.3386104481569
 30
0.0
 11
957.1885493483851
 21
7625.5385904481573
 31
0.0
  0
LINE
  5
14A7F
  8
01
 10
957.1885493483851
 20
7623.438590448156
 30
0.0
 11
961.78855934838509
 21
7623.438590448156
 31
0.0
  0
LINE
  5
14A80
  8
01
 10
954.78854934838546
 20
7626.3386104481569
 30
0.0
 11
955.58855934838618
 21
7625.5385904481573
 31
0.0
  0
LINE
  5
14A81
  8
01
 10
954.78855934838532
 20
7626.338580448155
 30
0.0
 11
954.78855934838532
 21
7618.838580448155
 31
0.0
  0
LINE
  5
14A82
  8
01
 10
953.1885493483851
 20
7618.838580448155
 30
0.0
 11
954.78855934838532
 21
7618.838580448155
 31
0.0
  0
LINE
  5
14A83
  8
01
 10
955.58855934838618
 20
7625.5385904481573
 30
0.0
 11
955.58855934838618
 21
7621.838580448155
 31
0.0
  0
LINE
  5
14A84
  8
01
 10
953.1885493483851
 20
7651.3385804481559
 30
0.0
 11
953.1885493483851
 21
7611.3385804481568
 31
0.0
  0
LINE
  5
14A85
  8
01
 10
961.78855934838509
 20
7639.2386104481566
 30
0.0
 11
961.78855934838509
 21
7621.838580448155
 31
0.0
  0
LINE
  5
14A86
  8
01
 10
956.38854934838594
 20
7636.3385804481568
 30
0.0
 11
956.38854934838594
 21
7626.338580448155
 31
0.0
  0
LINE
  5
14A87
  8
01
 10
954.78855934838532
 20
7636.3385804481568
 30
0.0
 11
954.78855934838532
 21
7626.338580448155
 31
0.0
  0
ARC
  5
14A88
  8
01
 10
985.85804934838518
 20
7601.2375004481564
 30
0.0
 40
50.0
 50
130.7976900000059
 51
150.85500000003009
  0
LINE
  5
14A89
  8
01
 10
985.54989789461717
 20
7596.8385494481581
 30
0.0
 11
1001.172534506069
 21
7596.8385494481581
 31
0.0
  0
LINE
  5
14A8A
  8
01
 10
1021.588549348386
 20
7639.2386104481566
 30
0.0
 11
1021.588549348386
 21
7621.838580448155
 31
0.0
  0
LINE
  5
14A8B
  8
01
 10
1023.188549348385
 20
7640.838580448155
 30
0.0
 11
1023.188549348385
 21
7621.838580448155
 31
0.0
  0
LINE
  5
14A8C
  8
01
 10
985.54989789461717
 20
7665.8386114481546
 30
0.0
 11
1001.172534506069
 21
7665.8386114481546
 31
0.0
  0
LINE
  5
14A8D
  8
01
 10
720.1876731663242
 20
7325.3385804491836
 30
0.0
 11
706.18767316632443
 21
7325.3385804491836
 31
0.0
  0
LINE
  5
14A8E
  8
01
 10
720.1876731663242
 20
7439.3385804491836
 30
0.0
 11
706.18767316632443
 21
7439.3385804491836
 31
0.0
  0
LINE
  5
14A8F
  8
01
 10
840.68766916632455
 20
7439.3385804491836
 30
0.0
 11
827.68766916632467
 21
7439.3385804491836
 31
0.0
  0
LINE
  5
14A90
  8
01
 10
834.18766916632455
 20
7445.8385804491836
 30
0.0
 11
834.18766916632455
 21
7432.8385804491836
 31
0.0
  0
LINE
  5
14A91
  8
01
 10
840.68766916632455
 20
7325.3385804491836
 30
0.0
 11
827.68766916632467
 21
7325.3385804491836
 31
0.0
  0
LINE
  5
14A92
  8
01
 10
834.18766916632455
 20
7331.8385804491854
 30
0.0
 11
834.18766916632455
 21
7318.8385804491854
 31
0.0
  0
LINE
  5
14A93
  8
01
 10
694.18767316632443
 20
7361.3385804491836
 30
0.0
 11
634.18767316632443
 21
7361.3385804491836
 31
0.0
  0
LINE
  5
14A94
  8
01
 10
664.18767316632443
 20
7391.3385804491854
 30
0.0
 11
664.18767316632443
 21
7331.3385804491836
 31
0.0
  0
LINE
  5
14A95
  8
01
 10
974.1876651663249
 20
7361.3385804491836
 30
0.0
 11
1034.1876651663249
 21
7361.3385804491836
 31
0.0
  0
LINE
  5
14A96
  8
01
 10
1004.187665166325
 20
7391.3385804491854
 30
0.0
 11
1004.187665166325
 21
7331.3385804491836
 31
0.0
  0
POINT
  5
14A97
  8
01
 10
868.68766916632467
 20
7361.3385804491836
 30
0.0
  0
LINE
  5
14A98
  8
01
 10
868.28766915632468
 20
7359.5885804491836
 30
0.0
 11
868.28766915632468
 21
7360.4385804691838
 31
0.0
  0
LINE
  5
14A99
  8
01
 10
869.08766917632465
 20
7359.5885804491836
 30
0.0
 11
869.08766917632465
 21
7360.4385804691838
 31
0.0
  0
LINE
  5
14A9A
  8
01
 10
867.78766918632482
 20
7360.938580439185
 30
0.0
 11
866.93766916632467
 21
7360.938580439185
 31
0.0
  0
LINE
  5
14A9B
  8
01
 10
867.78766918632482
 20
7361.738580459185
 30
0.0
 11
866.93766916632467
 21
7361.738580459185
 31
0.0
  0
LINE
  5
14A9C
  8
01
 10
866.93766916632467
 20
7360.938580439185
 30
0.0
 11
866.93766916632467
 21
7361.738580459185
 31
0.0
  0
LINE
  5
14A9D
  8
01
 10
869.08766917632465
 20
7359.5885804491836
 30
0.0
 11
868.28766915632468
 21
7359.5885804491836
 31
0.0
  0
LINE
  5
14A9E
  8
01
 10
869.08766917632465
 20
7363.0885804491854
 30
0.0
 11
869.08766917632465
 21
7362.2385804291853
 31
0.0
  0
LINE
  5
14A9F
  8
01
 10
868.28766915632468
 20
7363.0885804491854
 30
0.0
 11
868.28766915632468
 21
7362.2385804291853
 31
0.0
  0
LINE
  5
14AA0
  8
01
 10
869.58766914632452
 20
7361.738580459185
 30
0.0
 11
870.43766916632467
 21
7361.738580459185
 31
0.0
  0
LINE
  5
14AA1
  8
01
 10
869.58766914632452
 20
7360.938580439185
 30
0.0
 11
870.43766916632467
 21
7360.938580439185
 31
0.0
  0
LINE
  5
14AA2
  8
01
 10
870.43766916632467
 20
7361.738580459185
 30
0.0
 11
870.43766916632467
 21
7360.938580439185
 31
0.0
  0
LINE
  5
14AA3
  8
01
 10
868.28766915632468
 20
7363.0885804491854
 30
0.0
 11
869.08766917632465
 21
7363.0885804491854
 31
0.0
  0
CIRCLE
  5
14AA4
  8
01
 10
868.68766916632467
 20
7361.3385804491836
 30
0.0
 40
2.5
  0
ARC
  5
14AA5
  8
01
 10
869.58766914632452
 20
7362.2385804291853
 30
0.0
 40
0.5
 50
179.999989999999
 51
270.0
  0
ARC
  5
14AA6
  8
01
 10
869.58766914632452
 20
7360.4385804691838
 30
0.0
 40
0.5
 50
90.000003000000945
 51
180.000010000001
  0
ARC
  5
14AA7
  8
01
 10
867.78766918632482
 20
7360.4385804691838
 30
0.0
 40
0.5
 50
0.0
 51
90.000003000000945
  0
ARC
  5
14AA8
  8
01
 10
867.78766918632482
 20
7362.2385804291853
 30
0.0
 40
0.5
 50
270.0
 51
0.0
  0
POINT
  5
14AAA
  8
01
 10
799.68766916632455
 20
7361.3385804491836
 30
0.0
 50
180.0
  0
CIRCLE
  5
14AAB
  8
01
 10
799.68766916632455
 20
7361.3385804491836
 30
0.0
 40
2.5
  0
LINE
  5
14AD4
  8
01
 10
651.18766516632354
 20
7411.3385804491836
 30
0.0
 11
677.18766516632354
 21
7411.3385804491836
 31
0.0
  0
LINE
  5
14AD5
  8
01
 10
686.68766516632354
 20
7416.8385804491836
 30
0.0
 11
641.68766516632354
 21
7416.8385804491836
 31
0.0
  0
LINE
  5
14AD6
  8
01
 10
664.18766516632354
 20
7439.3385804491836
 30
0.0
 11
664.18766516632354
 21
7394.3385804491854
 31
0.0
  0
LINE
  5
14AD7
  8
01
 10
1017.187673166326
 20
7411.3385804491836
 30
0.0
 11
991.18767316632568
 21
7411.3385804491836
 31
0.0
  0
LINE
  5
14AD8
  8
01
 10
981.68767316632579
 20
7416.8385804491836
 30
0.0
 11
1026.687673166326
 21
7416.8385804491836
 31
0.0
  0
LINE
  5
14AD9
  8
01
 10
1004.187673166326
 20
7439.3385804491836
 30
0.0
 11
1004.187673166326
 21
7394.3385804491854
 31
0.0
  0
LINE
  5
14AF6
  8
01
 10
1004.18778150607
 20
7681.338580448155
 30
0.0
 11
1004.18778150607
 21
7646.3385804481559
 31
0.0
  0
LINE
  5
14AF7
  8
01
 10
1004.18778150607
 20
7616.3385804481559
 30
0.0
 11
1004.18778150607
 21
7581.338580448155
 31
0.0
  0
LINE
  5
14AF8
  8
01
 10
784.18766916632489
 20
7361.3385804491836
 30
0.0
 11
819.18766916632489
 21
7361.3385804491836
 31
0.0
  0
LINE
  5
14AF9
  8
01
 10
849.18766916632478
 20
7361.3385804491836
 30
0.0
 11
884.18766916632478
 21
7361.3385804491836
 31
0.0
  0
LINE
  5
14B02
  8
01
 10
953.1885493483851
 20
7611.3385804481568
 30
0.0
 11
1106.942929503417
 21
7611.3385804481568
 31
0.0
  0
LINE
  5
14B03
  8
01
 10
953.1885493483851
 20
7651.3385804481559
 30
0.0
 11
1106.942929503417
 21
7651.3385804481559
 31
0.0
  0
ARC
  5
14EFF
  8
01
 10
1122.937665166324
 20
7351.0885804491854
 30
0.0
 40
0.5
 50
270.0
 51
0.0
  0
ARC
  5
14F00
  8
01
 10
1004.187665166325
 20
7361.3385804491836
 30
0.0
 40
25.0
 50
25.467560142485532
 51
334.53243985751448
  0
LINE
  5
14FAF
  8
01
 10
649.18768516632394
 20
7584.8385804491836
 30
0.0
 11
754.18768516632394
 21
7584.8385804491836
 31
0.0
  0
TEXT
  5
14FB0
  8
01
 10
650.88768516632342
 20
7587.3722100318291
 30
0.0
 40
6.0
  1
パールクローム
 72
     1
 11
675.28768516632329
 21
7587.3722100318291
 31
0.0
  0
TEXT
  5
14FB1
  8
01
 10
661.68768516632326
 20
7608.0885804491836
 30
0.0
 40
6.0
  1
表面処理
 72
     1
 11
675.28768516632329
 21
7608.0885804491836
 31
0.0
  0
TEXT
  5
14FB2
  8
01
 10
661.68768516632326
 20
7597.8356474598977
 30
0.0
 40
6.0
  1
クローム
 72
     1
 11
675.28768516632329
 21
7597.8356474598977
 31
0.0
  0
LINE
  5
14FB3
  8
01
 10
649.18768516632394
 20
7616.3385804491854
 30
0.0
 11
754.18768516632394
 21
7616.3385804491854
 31
0.0
  0
LINE
  5
14FB4
  8
01
 10
649.18768516632394
 20
7605.8385804491854
 30
0.0
 11
754.18768516632394
 21
7605.8385804491854
 31
0.0
  0
LINE
  5
14FB5
  8
01
 10
649.18768516632394
 20
7595.3385804491836
 30
0.0
 11
754.18768516632394
 21
7595.3385804491836
 31
0.0
  0
LINE
  5
14FB6
  8
01
 10
649.18768516632394
 20
7595.3385804491836
 30
0.0
 11
754.18768516632394
 21
7595.3385804491836
 31
0.0
  0
LINE
  5
14FB7
  8
01
 10
701.68768516632394
 20
7616.3385804491854
 30
0.0
 11
701.68768516632394
 21
7574.3385804491854
 31
0.0
  0
TEXT
  5
14FB8
  8
01
 10
705.88768516632479
 20
7597.2670449737107
 30
0.0
 40
6.0
  1
2-L3C-C-LW
 41
0.7
 72
     1
 11
727.78768516632465
 21
7597.2670449737107
 31
0.0
  0
TEXT
  5
14FB9
  8
01
 10
717.7876851663234
 20
7608.0885804491836
 30
0.0
 40
6.0
  1
コード
 72
     1
 11
727.7876851663234
 21
7608.0885804491836
 31
0.0
  0
LINE
  5
14FBA
  8
01
 10
649.18768516632394
 20
7574.3385804491854
 30
0.0
 11
754.18768516632394
 21
7574.3385804491854
 31
0.0
  0
TEXT
  5
14FBB
  8
01
 10
650.88768516632342
 20
7576.8722100318291
 30
0.0
 40
6.0
  1
サテンニッケル
 72
     1
 11
675.28768516632329
 21
7576.8722100318291
 31
0.0
  0
LINE
  5
14FBC
  8
01
 10
649.18768516632394
 20
7574.3385804491854
 30
0.0
 11
649.18768516632394
 21
7616.3385804491854
 31
0.0
  0
LINE
  5
14FBD
  8
01
 10
754.18768516632394
 20
7574.3385804491854
 30
0.0
 11
754.18768516632394
 21
7616.3385804491854
 31
0.0
  0
TEXT
  5
14FBE
  8
01
 10
705.88768516632479
 20
7586.7670449737107
 30
0.0
 40
6.0
  1
2-L3C-B-LW
 41
0.7
 72
     1
 11
727.78768516632465
 21
7586.7670449737107
 31
0.0
  0
TEXT
  5
14FBF
  8
01
 10
705.78768516632465
 20
7576.2670449737107
 30
0.0
 40
6.0
  1
2-L3C-N-LW
 41
0.7
 72
     1
 11
727.78768516632465
 21
7576.2670449737107
 31
0.0
  0
LINE
  5
16193
  8
01
 10
863.18766916510879
 20
7350.5885804491827
 30
0.0
 11
863.18766916610753
 21
7372.0885804491809
 31
0.0
  0
LINE
  5
16194
  8
01
 10
913.18766916509969
 20
7351.0885804491827
 30
0.0
 11
913.18766916509969
 21
7371.5885804491818
 31
0.0
  0
LINE
  5
16195
  8
01
 10
863.18766916490881
 20
7350.5885804491827
 30
0.0
 11
912.68766916509981
 21
7350.5885804491827
 31
0.0
  0
ARC
  5
16196
  8
01
 10
912.68766916509981
 20
7351.0885804491827
 30
0.0
 40
0.5
 50
270.0
 51
0.0
  0
LINE
  5
16197
  8
01
 10
863.18766916610753
 20
7372.0885804491809
 30
0.0
 11
912.68766916509981
 21
7372.0885804491809
 31
0.0
  0
ARC
  5
16198
  8
01
 10
912.68766916509981
 20
7371.5885804491818
 30
0.0
 40
0.5
 50
0.0
 51
90.0
  0
LINE
  5
1619E
  8
01
 10
805.18766916754078
 20
7350.5885804491827
 30
0.0
 11
805.18766916654226
 21
7372.0885804491809
 31
0.0
  0
LINE
  5
1619F
  8
01
 10
755.18766916754998
 20
7351.0885804491827
 30
0.0
 11
755.18766916754998
 21
7371.5885804491818
 31
0.0
  0
LINE
  5
161A0
  8
01
 10
805.18766916774098
 20
7350.5885804491827
 30
0.0
 11
755.68766916754987
 21
7350.5885804491827
 31
0.0
  0
ARC
  5
161A1
  8
01
 10
755.68766916754987
 20
7351.0885804491827
 30
0.0
 40
0.5
 50
180.0
 51
270.0
  0
LINE
  5
161A2
  8
01
 10
805.18766916654226
 20
7372.0885804491809
 30
0.0
 11
755.68766916754987
 21
7372.0885804491809
 31
0.0
  0
ARC
  5
161A3
  8
01
 10
755.68766916754987
 20
7371.5885804491818
 30
0.0
 40
0.5
 50
90.0
 51
180.0
  0
LINE
  5
161A9
  8
01
 10
993.93766516632536
 20
7372.0885804491836
 30
0.0
 11
1122.9376651663249
 21
7372.08858044918
 31
0.0
  0
ARC
  5
161AA
  8
01
 10
1122.9376651663249
 20
7371.5885804491809
 30
0.0
 40
0.5
 50
0.0
 51
90.0
  0
LINE
  5
161AB
  8
01
 10
993.93766516632536
 20
7350.5885804491854
 30
0.0
 11
1122.9376651663249
 21
7350.5885804491782
 31
0.0
  0
ARC
  5
161AC
  8
01
 10
1122.9376651663249
 20
7351.0885804491782
 30
0.0
 40
0.5
 50
270.0
 51
0.0
  0
ARC
  5
161AD
  8
01
 10
993.93766516632536
 20
7351.0885804491854
 30
0.0
 40
0.5
 50
180.0
 51
270.0
  0
LINE
  5
161AE
  8
01
 10
993.43766516632525
 20
7371.5885804491827
 30
0.0
 11
993.43766516632525
 21
7351.0885804491854
 31
0.0
  0
ARC
  5
161AF
  8
01
 10
993.93766516632536
 20
7371.5885804491827
 30
0.0
 40
0.5
 50
90.0
 51
180.0
  0
LINE
  5
161B0
  8
01
 10
1123.4376651663249
 20
7351.0885804491782
 30
0.0
 11
1123.4376651663249
 21
7371.5885804491809
 31
0.0
  0
ARC
  5
161B1
  8
01
 10
1004.187665166325
 20
7361.3385804491836
 30
0.0
 40
25.0
 50
25.467560142433751
 51
334.53243985756632
  0
LINE
  5
161B3
  8
01
 10
674.43767316632443
 20
7372.0885804491836
 30
0.0
 11
545.43767316632443
 21
7372.08858044918
 31
0.0
  0
ARC
  5
161B4
  8
01
 10
545.43767316632443
 20
7371.5885804491809
 30
0.0
 40
0.5
 50
90.0
 51
180.0
  0
LINE
  5
161B5
  8
01
 10
674.43767316632443
 20
7350.5885804491854
 30
0.0
 11
545.43767316632443
 21
7350.5885804491782
 31
0.0
  0
ARC
  5
161B6
  8
01
 10
545.43767316632443
 20
7351.0885804491782
 30
0.0
 40
0.5
 50
180.0
 51
270.0
  0
ARC
  5
161B7
  8
01
 10
674.43767316632443
 20
7351.0885804491854
 30
0.0
 40
0.5
 50
270.0
 51
0.0
  0
LINE
  5
161B8
  8
01
 10
674.93767316632443
 20
7371.5885804491827
 30
0.0
 11
674.93767316632443
 21
7351.0885804491854
 31
0.0
  0
ARC
  5
161B9
  8
01
 10
674.43767316632443
 20
7371.5885804491827
 30
0.0
 40
0.5
 50
0.0
 51
90.0
  0
LINE
  5
161BA
  8
01
 10
544.93767316632443
 20
7351.0885804491782
 30
0.0
 11
544.93767316632443
 21
7371.5885804491809
 31
0.0
  0
ARC
  5
161BB
  8
01
 10
664.18767316632443
 20
7361.3385804491836
 30
0.0
 40
25.0
 50
205.46756014243371
 51
154.53243985756629
  0
LINE
  5
161BC
  8
01
 10
1123.43778245607
 20
7562.8385804487662
 30
0.0
 11
1123.43778245607
 21
7552.8385804487671
 31
0.0
  0
LINE
  5
161BD
  8
01
 10
993.93778245607177
 20
7552.3385804487662
 30
0.0
 11
1122.93778245607
 21
7552.3385804487662
 31
0.0
  0
ARC
  5
161BE
  8
01
 10
1122.93778245607
 20
7552.8385804487671
 30
0.0
 40
0.5
 50
270.0
 51
0.0
  0
ARC
  5
161BF
  8
01
 10
993.93778245607177
 20
7552.8385804487671
 30
0.0
 40
0.5
 50
180.0
 51
270.0
  0
LINE
  5
161C0
  8
01
 10
1015.43778245607
 20
7563.3385804487698
 30
0.0
 11
1122.93778245607
 21
7563.3385804487662
 31
0.0
  0
ARC
  5
161C1
  8
01
 10
1015.43778245607
 20
7563.8385804487698
 30
0.0
 40
0.5
 50
180.0
 51
270.0
  0
ARC
  5
161C2
  8
01
 10
1122.93778245607
 20
7562.8385804487662
 30
0.0
 40
0.5
 50
0.0
 51
90.0
  0
LINE
  5
161C3
  8
01
 10
993.43778245606995
 20
7602.3385804487534
 30
0.0
 11
1014.93778245607
 21
7602.3385804475574
 31
0.0
  0
LINE
  5
161C4
  8
01
 10
993.43778245606995
 20
7602.3385804487534
 30
0.0
 11
993.43778245607166
 21
7552.8385804487671
 31
0.0
  0
LINE
  5
161C5
  8
01
 10
1014.93778245607
 20
7602.3385804475574
 30
0.0
 11
1014.93778245607
 21
7563.8385804487698
 31
0.0
  0
LINE
  5
161D0
  8
01
 10
1123.43778245607
 20
7699.8385804475429
 30
0.0
 11
1123.43778245607
 21
7709.8385804475438
 31
0.0
  0
LINE
  5
161D1
  8
01
 10
993.93778245607177
 20
7710.3385804475438
 30
0.0
 11
1122.93778245607
 21
7710.3385804475438
 31
0.0
  0
ARC
  5
161D2
  8
01
 10
1122.93778245607
 20
7709.8385804475438
 30
0.0
 40
0.5
 50
0.0
 51
90.000000000000028
  0
ARC
  5
161D3
  8
01
 10
993.93778245607177
 20
7709.8385804475438
 30
0.0
 40
0.5
 50
90.000000000000028
 51
180.0
  0
LINE
  5
161D4
  8
01
 10
1015.43778245607
 20
7699.3385804475411
 30
0.0
 11
1122.93778245607
 21
7699.3385804475438
 31
0.0
  0
ARC
  5
161D5
  8
01
 10
1015.43778245607
 20
7698.8385804475402
 30
0.0
 40
0.5
 50
90.000000000000028
 51
180.0
  0
ARC
  5
161D6
  8
01
 10
1122.93778245607
 20
7699.8385804475429
 30
0.0
 40
0.5
 50
270.0
 51
0.0
  0
LINE
  5
161D7
  8
01
 10
993.43778245606995
 20
7660.3385804475556
 30
0.0
 11
1001.687781506062
 21
7660.3385804480158
 31
0.0
  0
LINE
  5
161D8
  8
01
 10
993.43778245606995
 20
7660.3385804475556
 30
0.0
 11
993.43778245607166
 21
7709.8385804475438
 31
0.0
  0
LINE
  5
161D9
  8
01
 10
1014.93778245607
 20
7660.3385804487534
 30
0.0
 11
1014.93778245607
 21
7698.8385804475402
 31
0.0
  0
LINE
  5
16BDC
  8
01
 10
814.18766916632376
 20
7386.3385804491836
 30
0.0
 11
814.18766916632558
 21
7336.3385804491836
 31
0.0
  0
LINE
  5
16BDD
  8
01
 10
805.68766916632364
 20
7385.8385804491872
 30
0.0
 11
805.68766916632728
 21
7336.8385804491854
 31
0.0
  0
LINE
  5
16BDE
  8
01
 10
814.18766916632558
 20
7336.3385804491836
 30
0.0
 11
806.1876691663274
 21
7336.3385804491836
 31
0.0
  0
ARC
  5
16BDF
  8
01
 10
806.1876691663274
 20
7336.8385804491854
 30
0.0
 40
0.5
 50
180.0
 51
270.0
  0
LINE
  5
16BE0
  8
01
 10
814.18766916632376
 20
7386.3385804491836
 30
0.0
 11
806.18766916632421
 21
7386.3385804491872
 31
0.0
  0
ARC
  5
16BE1
  8
01
 10
806.18766916632376
 20
7385.8385804491872
 30
0.0
 40
0.5
 50
89.999999999973952
 51
180.0
  0
LINE
  5
16BE2
  8
01
 10
854.1876691663274
 20
7386.3385804491836
 30
0.0
 11
854.18766916632558
 21
7336.3385804491836
 31
0.0
  0
LINE
  5
16BE3
  8
01
 10
862.68766916632728
 20
7385.8385804491872
 30
0.0
 11
862.68766916632376
 21
7336.8385804491854
 31
0.0
  0
LINE
  5
16BE4
  8
01
 10
854.18766916632558
 20
7336.3385804491836
 30
0.0
 11
862.18766916632364
 21
7336.3385804491836
 31
0.0
  0
ARC
  5
16BE5
  8
01
 10
862.18766916632364
 20
7336.8385804491854
 30
0.0
 40
0.5
 50
270.0
 51
0.0
  0
LINE
  5
16BE6
  8
01
 10
854.1876691663274
 20
7386.3385804491836
 30
0.0
 11
862.1876691663274
 21
7386.3385804491872
 31
0.0
  0
ARC
  5
16BE7
  8
01
 10
862.1876691663274
 20
7385.8385804491872
 30
0.0
 40
0.5
 50
0.0
 51
90.000000000026048
  0
LINE
  5
16BE8
  8
01
 10
860.48766916632849
 20
7397.3385804492
 30
0.0000000000562575
 11
860.48766916632849
 21
7436.3385804491991
 31
0.0000000000562575
  0
LINE
  5
16BE9
  8
01
 10
854.18766916632831
 20
7436.8385804492009
 30
0.0000000000562575
 11
854.18766916632364
 21
7396.8385804491927
 31
0.0000000000562575
  0
LINE
  5
16BEA
  8
01
 10
854.18766916632831
 20
7396.8385804492
 30
0.0000000000562575
 11
859.98766916632837
 21
7396.8385804492
 31
0.0000000000562575
  0
ARC
  5
16BEB
  8
01
 10
859.98766916632837
 20
7397.3385804492
 30
0.0000000000562575
 40
0.5
 50
270.0
 51
0.0
  0
LINE
  5
16BEC
  8
01
 10
854.18766916632831
 20
7436.8385804492009
 30
0.0000000000562575
 11
859.98766916632837
 21
7436.8385804491991
 31
0.0000000000562575
  0
ARC
  5
16BED
  8
01
 10
859.98766916632837
 20
7436.3385804491991
 30
0.0000000000562575
 40
0.5
 50
0.0
 51
90.0
  0
LINE
  5
16BEE
  8
01
 10
861.21106916632925
 20
7414.838581770131
 30
-0.0000000000001137
 11
860.48766916632849
 21
7414.838581770131
 31
-0.0000000000001137
  0
LINE
  5
16BEF
  8
01
 10
861.21106916632925
 20
7407.8385817701319
 30
-0.0000000000001137
 11
860.48766916632849
 21
7407.8385817701319
 31
-0.0000000000001137
  0
LINE
  5
16BF0
  8
01
 10
807.88766916632846
 20
7397.3385804491927
 30
0.0
 11
807.88766916632846
 21
7436.3385804491918
 31
0.0
  0
LINE
  5
16BF1
  8
01
 10
814.1876691663291
 20
7436.8385804491918
 30
0.0
 11
814.18766916632376
 21
7396.8385804491927
 31
0.0
  0
LINE
  5
16BF2
  8
01
 10
814.1876691663291
 20
7396.8385804491927
 30
0.0
 11
808.38766916632812
 21
7396.8385804491927
 31
0.0
  0
ARC
  5
16BF3
  8
01
 10
808.38766916632812
 20
7397.3385804491927
 30
0.0
 40
0.5
 50
180.0
 51
270.0
  0
LINE
  5
16BF4
  8
01
 10
814.1876691663291
 20
7436.8385804491918
 30
0.0
 11
808.38766916632812
 21
7436.8385804491918
 31
0.0
  0
ARC
  5
16BF5
  8
01
 10
808.38766916632812
 20
7436.3385804491918
 30
0.0
 40
0.5
 50
90.0
 51
180.0
  0
LINE
  5
16BF6
  8
01
 10
793.18728360060686
 20
7400.3385754491937
 30
0.0
 11
807.88766916632846
 21
7400.3385754491928
 31
0.0
  0
LINE
  5
16BF7
  8
01
 10
806.6873065448184
 20
7421.8385754491928
 30
0.0
 11
806.68730654481396
 21
7400.8385754491919
 31
0.0
  0
LINE
  5
16BF8
  8
01
 10
793.18728360060913
 20
7422.3385754491919
 30
0.0
 11
807.88766916632846
 21
7422.3385754491928
 31
0.0
  0
ARC
  5
16BF9
  8
01
 10
793.18728360060913
 20
7421.3385754491937
 30
0.0
 40
1.0
 50
90.0
 51
180.0
  0
LINE
  5
16BFA
  8
01
 10
792.18728360060675
 20
7421.3385754491937
 30
0.0
 11
792.18728360060675
 21
7401.3385754491956
 31
0.0
  0
ARC
  5
16BFB
  8
01
 10
793.18728360060686
 20
7401.3385754491956
 30
0.0
 40
1.0
 50
180.0
 51
270.0
  0
ARC
  5
16BFC
  8
01
 10
807.18730654481385
 20
7421.8385754491928
 30
0.0
 40
0.5
 50
90.0
 51
179.9999999999479
  0
ARC
  5
16BFD
  8
01
 10
807.18730654481385
 20
7400.8385754491919
 30
0.0
 40
0.5
 50
179.9999999999479
 51
270.0
  0
LINE
  5
16BFE
  8
01
 10
855.68766916632751
 20
7396.8385804491927
 30
0.0000000000562575
 11
854.1876691663274
 21
7396.8385804491927
 31
0.0000000000562575
  0
LINE
  5
16BFF
  8
01
 10
812.68766916633012
 20
7396.8385804491863
 30
0.0
 11
814.18766916633001
 21
7396.8385804491863
 31
0.0
  0
ARC
  5
16C00
  8
01
 10
855.42603425408925
 20
7411.3385817383087
 30
-0.0000000000001137
 40
6.7614049222401134
 50
328.82566316461231
 51
31.17434083544067
  0
CIRCLE
  5
16C01
  8
01
 10
664.18767316632602
 20
7411.3385804491863
 30
0.0
 40
11.30000000000109
  0
LINE
  5
16C02
  8
01
 10
666.68767316632602
 20
7421.6463394199864
 30
0.0
 11
666.68767316632602
 21
7401.0308214783854
 31
0.0
  0
LINE
  5
16C03
  8
01
 10
661.68767316632602
 20
7421.6463394199864
 30
0.0
 11
661.68767316632602
 21
7401.0308214783854
 31
0.0
  0
ARC
  5
16C04
  8
01
 10
662.18767316632602
 20
7421.6463394199864
 30
0.0
 40
0.5
 50
100.98058072142879
 51
180.0
  0
ARC
  5
16C05
  8
01
 10
666.18767316632602
 20
7421.6463394199864
 30
0.0
 40
0.5
 50
0.0
 51
79.019419278571149
  0
ARC
  5
16C06
  8
01
 10
662.18767316632602
 20
7401.0308214783854
 30
0.0
 40
0.5
 50
180.0
 51
259.01941927857121
  0
ARC
  5
16C07
  8
01
 10
666.18767316632602
 20
7401.0308214783854
 30
0.0
 40
0.5
 50
280.98058072142891
 51
0.0
  0
CIRCLE
  5
16C08
  8
01
 10
664.18767316632375
 20
7416.8385804491863
 30
0.0
 40
20.000000000000071
  0
CIRCLE
  5
16C09
  8
01
 10
664.18767316632557
 20
7411.3385804491863
 30
0.0
 40
11.0
  0
CIRCLE
  5
16C0A
  8
01
 10
1004.187665166321
 20
7411.1114117337856
 30
0.0
 40
3.75
  0
CIRCLE
  5
16C0B
  8
01
 10
1004.187665166321
 20
7411.1114115296587
 30
0.0
 40
3.5000004999999992
  0
LINE
  5
16C0C
  8
01
 10
1005.187665166321
 20
7407.7573087296578
 30
0.0
 11
1005.187665166321
 21
7414.4655155296587
 31
0.0
  0
LINE
  5
16C0D
  8
01
 10
1003.187665166321
 20
7407.7573087296578
 30
0.0
 11
1003.187665166321
 21
7414.4655155296587
 31
0.0
  0
CIRCLE
  5
16C0E
  8
01
 10
1004.187664843862
 20
7416.6114115296587
 30
0.0
 40
19.99999999999962
  0
LINE
  5
16C0F
  8
01
 10
979.18778150606897
 20
7611.338580448155
 30
0.0
 11
979.18778150606897
 21
7603.3385804481559
 31
0.0
  0
LINE
  5
16C10
  8
01
 10
1029.1877815060691
 20
7611.338580448155
 30
0.0
 11
1029.1877815060691
 21
7603.3385804481559
 31
0.0
  0
LINE
  5
16C11
  8
01
 10
984.18778118361035
 20
7611.338580448155
 30
0.0
 11
984.18778118361035
 21
7605.5385804481557
 31
0.0
  0
LINE
  5
16C12
  8
01
 10
1024.1877811836091
 20
7611.338580448155
 30
0.0
 11
1024.1877811836091
 21
7605.5385804481557
 31
0.0
  0
LINE
  5
16C13
  8
01
 10
979.18778150606897
 20
7611.338580448155
 30
0.0
 11
1029.1877815060691
 21
7611.338580448155
 31
0.0
  0
LINE
  5
16C14
  8
01
 10
984.68778118361047
 20
7605.0385804481557
 30
0.0
 11
1023.687781183609
 21
7605.0385804481557
 31
0.0
  0
LINE
  5
16C15
  8
01
 10
979.68778150606909
 20
7602.8385804481541
 30
0.0
 11
1028.6877815060691
 21
7602.8385804481541
 31
0.0
  0
ARC
  5
16C16
  8
01
 10
984.68778118361047
 20
7605.5385804481557
 30
0.0
 40
0.5
 50
180.0
 51
270.0
  0
ARC
  5
16C17
  8
01
 10
1023.687781183609
 20
7605.5385804481557
 30
0.0
 40
0.5
 50
270.0
 51
0.0
  0
ARC
  5
16C18
  8
01
 10
979.68778150606909
 20
7603.3385804481559
 30
0.0
 40
0.5
 50
179.9999999999479
 51
270.0
  0
ARC
  5
16C19
  8
01
 10
1028.6877815060691
 20
7603.3385804481559
 30
0.0
 40
0.5
 50
270.0
 51
0.0
  0
LINE
  5
16C1A
  8
01
 10
1005.187782827006
 20
7603.6388104481539
 30
-0.0000000000001137
 11
1005.187782827006
 21
7605.0385804481557
 31
-0.0000000000001137
  0
ARC
  5
16C1B
  8
01
 10
1002.887783827006
 20
7603.6388104481539
 30
-0.0000000000001137
 40
0.30000001
 50
256.8165200000056
 51
0.0000029999846689
  0
ARC
  5
16C1C
  8
01
 10
1004.187782827006
 20
7609.1885804481544
 30
-0.0000000000001137
 40
6.0
 50
283.1834819999919
 51
305.685334000019
  0
ARC
  5
16C1D
  8
01
 10
1005.487785827007
 20
7603.6388104481539
 30
-0.0000000000001137
 40
0.30000001
 50
180.0
 51
283.1834819999919
  0
LINE
  5
16C1E
  8
01
 10
1007.687782827006
 20
7604.3151804481549
 30
-0.0000000000001137
 11
1007.687782827006
 21
7605.0385804481557
 31
-0.0000000000001137
  0
LINE
  5
16C1F
  8
01
 10
1000.687782827006
 20
7604.3151804481549
 30
-0.0000000000001137
 11
1000.687782827006
 21
7605.0385804481557
 31
-0.0000000000001137
  0
ARC
  5
16C20
  8
01
 10
1004.187782827006
 20
7609.1885804481544
 30
-0.0000000000001137
 40
6.0
 50
234.3146699999869
 51
256.81651749662558
  0
LINE
  5
16C21
  8
01
 10
1003.187782827006
 20
7603.638031988753
 30
-0.0000000000001137
 11
1003.187782827006
 21
7605.0385804481557
 31
-0.0000000000001137
  0
LINE
  5
16C22
  8
01
 10
979.18778150606897
 20
7651.3385804481559
 30
0.0
 11
979.18778150606897
 21
7659.3385804481559
 31
0.0
  0
LINE
  5
16C23
  8
01
 10
1029.1877815060691
 20
7651.3385804481559
 30
0.0
 11
1029.1877815060691
 21
7659.3385804481559
 31
0.0
  0
LINE
  5
16C24
  8
01
 10
984.18778118361035
 20
7651.3385804481559
 30
0.0
 11
984.18778118361035
 21
7657.1385804481552
 31
0.0
  0
LINE
  5
16C25
  8
01
 10
1024.1877811836091
 20
7651.3385804481559
 30
0.0
 11
1024.1877811836091
 21
7657.1385804481552
 31
0.0
  0
LINE
  5
16C26
  8
01
 10
979.18778150606897
 20
7651.3385804481559
 30
0.0
 11
1029.1877815060691
 21
7651.3385804481559
 31
0.0
  0
LINE
  5
16C27
  8
01
 10
984.68778118361047
 20
7657.6385804481542
 30
0.0
 11
1023.687781183609
 21
7657.6385804481542
 31
0.0
  0
LINE
  5
16C28
  8
01
 10
979.68778150606909
 20
7659.838580448155
 30
0.0
 11
1001.687781506062
 21
7659.838580448155
 31
0.0
  0
LINE
  5
16C29
  8
01
 10
1006.6877815060629
 20
7659.838580448155
 30
0.0
 11
1028.6877815060691
 21
7659.838580448155
 31
0.0
  0
ARC
  5
16C2A
  8
01
 10
984.68778118361047
 20
7657.1385804481552
 30
0.0
 40
0.5
 50
90.0
 51
180.0
  0
ARC
  5
16C2B
  8
01
 10
1023.687781183609
 20
7657.1385804481552
 30
0.0
 40
0.5
 50
0.0
 51
90.0
  0
ARC
  5
16C2C
  8
01
 10
979.68778150606909
 20
7659.3385804481559
 30
0.0
 40
0.5
 50
90.0
 51
180.0
  0
ARC
  5
16C2D
  8
01
 10
1028.6877815060691
 20
7659.3385804481559
 30
0.0
 40
0.5
 50
0.0
 51
90.0
  0
ARC
  5
16C2E
  8
01
 10
1007.687781506062
 20
7659.8385575039474
 30
0.0
 40
1.0
 50
180.0
 51
270.0
  0
LINE
  5
16C2F
  8
01
 10
1007.687781506064
 20
7658.8385575039474
 30
0.0
 11
1014.687786506061
 21
7658.8385575039483
 31
0.0
  0
ARC
  5
16C30
  8
01
 10
1014.687786506061
 20
7658.3385575039492
 30
0.0
 40
0.5
 50
0.0
 51
90.0
  0
ARC
  5
16C31
  8
01
 10
1000.68778150606
 20
7659.8385575039492
 30
0.0
 40
1.0
 50
270.0
 51
0.0
  0
ARC
  5
16C32
  8
01
 10
993.68778650606168
 20
7658.3385575039492
 30
0.0
 40
0.5
 50
90.0
 51
180.0
  0
LINE
  5
16C33
  8
01
 10
1001.687781506062
 20
7672.3385804481513
 30
0.0
 11
1001.687781506062
 21
7659.8385575039492
 31
0.0
  0
ARC
  5
16C34
  8
01
 10
1002.68778150606
 20
7672.3385804481541
 30
0.0
 40
1.0
 50
90.0
 51
179.9999999999479
  0
LINE
  5
16C35
  8
01
 10
1002.687781506062
 20
7673.3385804481559
 30
0.0
 11
1005.68778150606
 21
7673.3385804481559
 31
0.0
  0
ARC
  5
16C36
  8
01
 10
1005.68778150606
 20
7672.3385804481541
 30
0.0
 40
1.0
 50
0.0
 51
90.0
  0
LINE
  5
16C37
  8
01
 10
1006.687781506061
 20
7672.3385804481541
 30
0.0
 11
1006.6877815060629
 21
7659.8385575039474
 31
0.0
  0
LINE
  5
16C38
  8
01
 10
993.68778650606168
 20
7658.8385575039483
 30
0.0
 11
1000.687781506061
 21
7658.8385575039483
 31
0.0
  0
LINE
  5
16C39
  8
01
 10
993.18778650606157
 20
7658.3385575039492
 30
0.0
 11
993.18778650606157
 21
7657.6385804481542
 31
0.0
  0
LINE
  5
16C3A
  8
01
 10
1015.187786506061
 20
7658.3385575039492
 30
0.0
 11
1015.187786506061
 21
7657.6385804481542
 31
0.0
  0
LINE
  5
16C4D
  8
01
 10
984.97829245402602
 20
7345.3385804491836
 30
0.0
 11
1022.187665166325
 21
7345.3385804491836
 31
0.0
  0
LINE
  5
16C4E
  8
01
 10
1022.187665166325
 20
7378.6879320220814
 30
0.0
 11
1022.187665166325
 21
7345.3385804491836
 31
0.0
  0
LINE
  5
16DA0
  8
01
 10
1006.6877815060629
 20
7660.338580448295
 30
0.0
 11
1014.93778245607
 21
7660.3385804487534
 31
0.0
  0
LINE
  5
16E16
  8
01
 10
1022.187665166325
 20
7419.8385804491854
 30
0.0
 11
1022.187665166325
 21
7408.1207832278988
 31
0.0
  0
LINE
  5
16E17
  8
01
 10
1001.187665166325
 20
7419.8385804491854
 30
0.0
 11
1007.187665166325
 21
7419.8385804491854
 31
0.0
  0
LINE
  5
16E18
  8
01
 10
1014.187665166325
 20
7419.8385804491854
 30
0.0
 11
1022.187665166325
 21
7419.8385804491854
 31
0.0
  0
LINE
  5
16E19
  8
01
 10
1001.187665166325
 20
7418.8385804491863
 30
0.0
 11
1001.187665166325
 21
7419.8385804491854
 31
0.0
  0
LINE
  5
16E1A
  8
01
 10
1007.187665166325
 20
7418.8385804491836
 30
0.0
 11
1007.187665166325
 21
7419.8385804491854
 31
0.0
  0
ARC
  5
16E1B
  8
01
 10
997.68766516632525
 20
7418.8385804491836
 30
0.0
 40
3.5
 50
180.0
 51
0.0
  0
ARC
  5
16E1C
  8
01
 10
1010.687665166325
 20
7418.8385804491836
 30
0.0
 40
3.5
 50
180.0
 51
0.0
  0
CIRCLE
  5
16E1D
  8
01
 10
1004.187665166036
 20
7411.3385804488953
 30
0.0
 40
6.0
  0
LINE
  5
16E1E
  8
01
 10
994.18766516632513
 20
7419.8385804491854
 30
0.0
 11
984.41394491058145
 21
7419.8385804491854
 31
0.0
  0
LINE
  5
16E1F
  8
01
  6
BYBLOCK
 10
984.41394491058145
 20
7419.8385804491854
 30
0.0
 11
956.18766516632525
 21
7419.8385804491854
 31
0.0
  0
LINE
  5
16E20
  8
01
 10
994.18766516632479
 20
7418.8385804491863
 30
0.0
 11
994.18766516632513
 21
7419.8385804491854
 31
0.0
  0
LINE
  5
16E21
  8
01
 10
1014.187665166325
 20
7418.8385804491836
 30
0.0
 11
1014.187665166325
 21
7419.8385804491854
 31
0.0
  0
LINE
  5
16E22
  8
01
  6
BYBLOCK
 10
683.96138509960724
 20
7419.8385804491854
 30
0.0
 11
712.18767316632443
 21
7419.8385804491854
 31
0.0
  0
LINE
  5
16E23
  8
01
  6
BYBLOCK
 10
1010.188549348096
 20
7641.5885804481559
 30
0.0
 11
998.18854934809656
 21
7641.5885804481559
 31
0.0
  0
LINE
  5
16E24
  8
01
  6
BYBLOCK
 10
998.18854934809656
 20
7621.0885804481559
 30
0.0
 11
1010.188549348096
 21
7621.0885804481559
 31
0.0
  0
LINE
  5
16E25
  8
01
  6
BYBLOCK
 10
998.18854934809656
 20
7621.0885804481559
 30
0.0
 11
998.18854934809656
 21
7621.838580448155
 31
0.0
  0
LINE
  5
16E26
  8
01
  6
BYBLOCK
 10
998.18854934809656
 20
7640.838580448155
 30
0.0
 11
998.18854934809656
 21
7641.5885804481559
 31
0.0
  0
LINE
  5
16E27
  8
01
  6
BYBLOCK
 10
1010.188549348096
 20
7621.0885804481559
 30
0.0
 11
1010.188549348096
 21
7621.838580448155
 31
0.0
  0
LINE
  5
16E28
  8
01
  6
BYBLOCK
 10
1010.188549348096
 20
7640.838580448155
 30
0.0
 11
1010.188549348096
 21
7641.5885804481559
 31
0.0
  0
LINE
  5
16FB4
  8
01
 10
1010.188549348096
 20
7641.5885804481559
 30
0.0
 11
1045.3489401080981
 21
7641.5885804481559
 31
0.0
  0
LINE
  5
16FB5
  8
01
 10
1010.188549348096
 20
7621.0885804481559
 30
0.0
 11
1045.3489401080981
 21
7621.0885804481559
 31
0.0
  0
LINE
  5
16FB6
  8
01
 10
1044.0489401080979
 20
7638.9885804481546
 30
0.0
 11
1044.0489401080979
 21
7623.6885804481562
 31
0.0
  0
TEXT
  5
16FBA
  8
01
 10
914.58415959267518
 20
7580.9219137814889
 30
0.0
 40
4.5499999999999989
  1
材質：亜鉛ダイキャスト
  0
TEXT
  5
16FBB
  8
01
 10
925.50415959267525
 20
7573.338580448155
 30
0.0
 40
4.5499999999999989
  1
仕上げ：各種メッキ
  0
SOLID
  5
16FBC
  8
01
 10
1001.610520805609
 20
7592.1845923082456
 30
0.0
 11
1003.928266406386
 21
7593.439914222281
 31
0.0
 12
1002.142935783176
 22
7591.5007462709136
 32
0.0
 13
1002.142935783176
 23
7591.5007462709136
 33
0.0
1001
ACAD
1000
DSTYLE
1002
{
1070
    40
1040
1.3
1002
}
  0
LINE
  5
16FBE
  8
01
 10
1022.187665166325
 20
7419.8385804491854
 30
0.0
 11
1050.4876651663251
 21
7419.8385804491854
 31
0.0
  0
LINE
  5
16FBF
  8
01
 10
1022.187665166325
 20
7345.3385804491836
 30
0.0
 11
1050.4876651663251
 21
7345.3385804491836
 31
0.0
  0
LINE
  5
16FC0
  8
01
 10
1049.1876651663249
 20
7417.2385804491842
 30
0.0
 11
1049.1876651663249
 21
7347.9385804491849
 31
0.0
  0
LINE
  5
16FC4
  8
01
 10
993.43778245606825
 20
7552.8385804485624
 30
0.0
 11
993.43778245606825
 21
7526.0385804485622
 31
0.0
  0
LINE
  5
16FC5
  8
01
 10
1123.43778245607
 20
7552.8385804485624
 30
0.0
 11
1123.43778245607
 21
7526.0385804485622
 31
0.0
  0
LINE
  5
16FC6
  8
01
 10
996.03778245606816
 20
7527.3385804485633
 30
0.0
 11
1120.83778245607
 21
7527.3385804485633
 31
0.0
  0
LINE
  5
16FCA
  8
01
 10
1004.18778150607
 20
7590.838580448155
 30
0.0
 11
1004.18778150607
 21
7536.0385804485632
 31
0.0
  0
LINE
  5
16FCB
  8
01
 10
1123.43778245607
 20
7552.8385804485624
 30
0.0
 11
1123.43778245607
 21
7536.0385804485632
 31
0.0
  0
LINE
  5
16FCC
  8
01
 10
1006.78778150607
 20
7537.3385804485624
 30
0.0
 11
1120.83778245607
 21
7537.3385804485624
 31
0.0
  0
LINE
  5
16FD0
  8
01
 10
1106.942929503417
 20
7611.338580448155
 30
0.0
 11
1149.73778150607
 21
7611.338580448155
 31
0.0
  0
LINE
  5
16FD1
  8
01
 10
1122.93778245607
 20
7552.3385804485624
 30
0.0
 11
1149.73778150607
 21
7552.3385804485624
 31
0.0
  0
LINE
  5
16FD2
  8
01
 10
1148.43778150607
 20
7608.7385804481537
 30
0.0
 11
1148.43778150607
 21
7554.9385804485619
 31
0.0
  0
LINE
  5
16FD6
  8
01
 10
1106.942929503417
 20
7611.338580448155
 30
0.0
 11
1139.73778150607
 21
7611.338580448155
 31
0.0
  0
LINE
  5
16FD7
  8
01
 10
1122.93778245607
 20
7563.3385804487662
 30
0.0
 11
1139.73778150607
 21
7563.3385804487662
 31
0.0
  0
LINE
  5
16FD8
  8
01
 10
1138.43778150607
 20
7608.7385804481537
 30
0.0
 11
1138.43778150607
 21
7565.9385804487674
 31
0.0
  0
LINE
  5
16FDC
  8
01
 10
1122.937665166324
 20
7350.5885804491854
 30
0.0
 11
1139.7376651663251
 21
7350.5885804491854
 31
0.0
  0
LINE
  5
16FDD
  8
01
 10
1122.937665166326
 20
7372.0885804491836
 30
0.0
 11
1139.7376651663251
 21
7372.0885804491836
 31
0.0
  0
LINE
  5
16FDE
  8
01
 10
1138.4376651663249
 20
7353.188580449184
 30
0.0
 11
1138.4376651663249
 21
7369.4885804491851
 31
0.0
  0
LINE
  5
16FE2
  8
01
 10
1004.187665166325
 20
7336.3385804491836
 30
0.0
 11
967.88766516632518
 21
7336.3385804491836
 31
0.0
  0
LINE
  5
16FE3
  8
01
 10
1004.187665166325
 20
7386.3385804491836
 30
0.0
 11
967.88766516632518
 21
7386.3385804491836
 31
0.0
  0
LINE
  5
16FE4
  8
01
 10
969.18766516632513
 20
7338.9385804491849
 30
0.0
 11
969.18766516632513
 21
7383.7385804491842
 31
0.0
  0
LINE
  5
16FE8
  8
01
 10
840.68766916632455
 20
7447.3385804491836
 30
0.0
 11
895.48766916632576
 21
7447.3385804491836
 31
0.0
  0
LINE
  5
16FE9
  8
01
 10
840.68766916632455
 20
7317.3385804491854
 30
0.0
 11
895.48766916632565
 21
7317.3385804491854
 31
0.0
  0
LINE
  5
16FEA
  8
01
 10
894.1876691663258
 20
7444.7385804491842
 30
0.0
 11
894.1876691663258
 21
7319.9385804491858
 31
0.0
  0
LINE
  5
16FEE
  8
01
 10
840.68766916632455
 20
7439.3385804491836
 30
0.0
 11
879.9912602028827
 21
7439.3385804491836
 31
0.0
  0
LINE
  5
16FEF
  8
01
 10
840.68766916632455
 20
7325.3385804491836
 30
0.0
 11
879.99126020288247
 21
7325.3385804491836
 31
0.0
  0
LINE
  5
16FF0
  8
01
 10
878.69126020288275
 20
7436.7385804491842
 30
0.0
 11
878.69126020288252
 21
7327.9385804491849
 31
0.0
  0
LINE
  5
16FF4
  8
01
 10
634.1876731663242
 20
7361.3385804491836
 30
0.0
 11
619.88768516632456
 21
7361.3385804491836
 31
0.0
  0
LINE
  5
16FF5
  8
01
 10
641.68766516632354
 20
7416.8385804491836
 30
0.0
 11
619.88768516632456
 21
7416.8385804491836
 31
0.0
  0
LINE
  5
16FF6
  8
01
 10
621.18768516632463
 20
7363.9385804491849
 30
0.0
 11
621.18768516632463
 21
7414.2385804491832
 31
0.0
  0
LINE
  5
16FFA
  8
01
 10
634.1876731663242
 20
7361.3385804491836
 30
0.0
 11
629.88768516632456
 21
7361.3385804491836
 31
0.0
  0
LINE
  5
16FFB
  8
01
 10
651.18766516632354
 20
7411.3385804491836
 30
0.0
 11
629.88768516632456
 21
7411.3385804491836
 31
0.0
  0
LINE
  5
16FFC
  8
01
 10
631.18768516632463
 20
7363.9385804491849
 30
0.0
 11
631.18768516632463
 21
7408.7385804491851
 31
0.0
  0
LINE
  5
17000
  8
01
 10
644.38766616632324
 20
7416.8385804491836
 30
0.0
 11
644.38766616632324
 21
7445.6385804491838
 31
0.0
  0
LINE
  5
17001
  8
01
 10
683.98766416632327
 20
7416.8385804491836
 30
0.0
 11
683.98766416632327
 21
7445.6385804491838
 31
0.0
  0
LINE
  5
17002
  8
01
 10
646.98766616632315
 20
7444.3385804491854
 30
0.0
 11
681.38766416632336
 21
7444.3385804491854
 31
0.0
  0
LINE
  5
17006
  8
01
 10
984.38766616632495
 20
7416.8385804491836
 30
0.0
 11
984.38766616632495
 21
7445.6385804491838
 31
0.0
  0
LINE
  5
17007
  8
01
 10
1023.987664166325
 20
7416.8385804491836
 30
0.0
 11
1023.987664166325
 21
7445.6385804491838
 31
0.0
  0
LINE
  5
17008
  8
01
 10
986.98766616632508
 20
7444.3385804491854
 30
0.0
 11
1021.387664166325
 21
7444.3385804491854
 31
0.0
  0
LINE
  5
1700C
  8
01
 10
792.18728360060675
 20
7411.3385754491937
 30
0.0
 11
792.18728360060675
 21
7468.6385804491847
 31
0.0
  0
LINE
  5
1700D
  8
01
 10
814.18766916632467
 20
7453.8359604491843
 30
0.0
 11
814.18766916632467
 21
7468.6385804491847
 31
0.0
  0
LINE
  5
1700E
  8
01
 10
794.78728360060688
 20
7467.3385804491836
 30
0.0
 11
811.58766916632453
 21
7467.3385804491836
 31
0.0
  0
LINE
  5
17012
  8
01
 10
854.18766916632455
 20
7453.8359604491861
 30
0.0
 11
854.18766916632455
 21
7468.6385804491847
 31
0.0
  0
LINE
  5
17013
  8
01
 10
862.18743917632935
 20
7411.338581974328
 30
0.0
 11
862.18743917632935
 21
7468.6385804491847
 31
0.0
  0
LINE
  5
17014
  8
01
 10
856.78766916632469
 20
7467.3385804491836
 30
0.0
 11
859.58743917632944
 21
7467.3385804491836
 31
0.0
  0
LINE
  5
17018
  8
01
 10
800.98670727200124
 20
7362.0885804491854
 30
0.0
 11
799.68766916632455
 21
7362.8385804491836
 31
0.0
  0
LINE
  5
17019
  8
01
 10
799.68766916632455
 20
7362.8385804491836
 30
0.0
 11
798.38863106064809
 21
7362.0885804491854
 31
0.0
  0
LINE
  5
1701A
  8
01
 10
798.38863106064809
 20
7362.0885804491854
 30
0.0
 11
798.38863106064809
 21
7360.5885804491854
 31
0.0
  0
LINE
  5
1701B
  8
01
 10
798.38863106064809
 20
7360.5885804491854
 30
0.0
 11
799.68766916632455
 21
7359.8385804491836
 31
0.0
  0
LINE
  5
1701C
  8
01
 10
799.68766916632455
 20
7359.8385804491836
 30
0.0
 11
800.98670727200124
 21
7360.5885804491854
 31
0.0
  0
LINE
  5
1701D
  8
01
 10
800.98670727200124
 20
7360.5885804491854
 30
0.0
 11
800.98670727200124
 21
7362.0885804491854
 31
0.0
  0
CIRCLE
  5
1701E
  8
01
 10
799.68766916632455
 20
7361.3385804491836
 30
0.0
 40
3.0
  0
CIRCLE
  5
1701F
  8
01
 10
868.68766916632467
 20
7361.3385804491836
 30
0.0
 40
3.0
  0
LINE
  5
17020
  8
01
 10
953.18766516632513
 20
7447.3385804491836
 30
0.0
 11
953.18766516632513
 21
7468.6385804491847
 31
0.0
  0
LINE
  5
17021
  8
01
 10
1004.187673166326
 20
7439.3385804491836
 30
0.0
 11
1004.187673166326
 21
7468.6385804491847
 31
0.0
  0
LINE
  5
17022
  8
01
 10
955.78766516632516
 20
7467.3385804491836
 30
0.0
 11
1001.587673166326
 21
7467.3385804491836
 31
0.0
  0
LINE
  5
17026
  8
01
 10
1022.187665166325
 20
7419.3385804491854
 30
0.0
 11
1022.187665166325
 21
7478.6385804491838
 31
0.0
  0
LINE
  5
17027
  8
01
 10
953.18766516632513
 20
7447.3385804491836
 30
0.0
 11
953.18766516632513
 21
7478.6385804491838
 31
0.0
  0
LINE
  5
17028
  8
01
 10
1019.587665166325
 20
7477.3385804491854
 30
0.0
 11
955.78766516632516
 21
7477.3385804491854
 31
0.0
  0
LINE
  5
1702C
  8
01
 10
942.18766516632525
 20
7389.3385797510527
 30
0.0
 11
942.18766516632525
 21
7468.6385804491847
 31
0.0
  0
LINE
  5
1702D
  8
01
 10
953.18766516632513
 20
7447.3385804491836
 30
0.0
 11
953.18766516632513
 21
7468.6385804491847
 31
0.0
  0
LINE
  5
1702E
  8
01
 10
944.78766516632516
 20
7467.3385804491836
 30
0.0
 11
950.58766516632522
 21
7467.3385804491836
 31
0.0
  0
LINE
  5
17032
  8
01
 10
821.68766916632455
 20
7441.3385804491854
 30
0.0
 11
821.68766916632455
 21
7468.6385804491847
 31
0.0
  0
LINE
  5
17033
  8
01
 10
846.68766916632455
 20
7441.3385804491854
 30
0.0
 11
846.68766916632455
 21
7468.6385804491847
 31
0.0
  0
LINE
  5
17034
  8
01
 10
824.28766916632458
 20
7467.3385804491836
 30
0.0
 11
844.08766916632464
 21
7467.3385804491836
 31
0.0
  0
TEXT
  5
17038
  8
01
 10
829.8543358329913
 20
7468.2485804491844
 30
0.0
 40
4.5499999999999989
  1
25
  0
LINE
  5
17039
  8
01
  6
BYBLOCK
 10
844.08766916632464
 20
7468.0352483431843
 30
0.0
 11
846.68766916632455
 21
7467.3385804491836
 31
0.0
  0
LINE
  5
1703A
  8
01
  6
BYBLOCK
 10
846.68766916632455
 20
7467.3385804491836
 30
0.0
 11
844.08766916632464
 21
7466.6419125551856
 31
0.0
  0
LINE
  5
1703B
  8
01
  6
BYBLOCK
 10
846.68766916632455
 20
7467.3385804491836
 30
0.0
 11
844.08766916632464
 21
7467.3385804491836
 31
0.0
  0
LINE
  5
1703C
  8
01
  6
BYBLOCK
 10
824.28766916632458
 20
7466.6419125551856
 30
0.0
 11
821.68766916632455
 21
7467.3385804491836
 31
0.0
  0
LINE
  5
1703D
  8
01
  6
BYBLOCK
 10
821.68766916632455
 20
7467.3385804491836
 30
0.0
 11
824.28766916632458
 21
7468.0352483431843
 31
0.0
  0
LINE
  5
1703E
  8
01
  6
BYBLOCK
 10
821.68766916632455
 20
7467.3385804491836
 30
0.0
 11
824.28766916632458
 21
7467.3385804491836
 31
0.0
  0
TEXT
  5
1703F
  8
01
 10
943.67933183299181
 20
7468.2485804491844
 30
0.0
 40
4.5499999999999989
  1
11
  0
LINE
  5
17040
  8
01
  6
BYBLOCK
 10
950.58766516632522
 20
7468.0352483431843
 30
0.0
 11
953.18766516632513
 21
7467.3385804491836
 31
0.0
  0
LINE
  5
17041
  8
01
  6
BYBLOCK
 10
953.18766516632513
 20
7467.3385804491836
 30
0.0
 11
950.58766516632522
 21
7466.6419125551856
 31
0.0
  0
LINE
  5
17042
  8
01
  6
BYBLOCK
 10
953.18766516632513
 20
7467.3385804491836
 30
0.0
 11
950.58766516632522
 21
7467.3385804491836
 31
0.0
  0
LINE
  5
17043
  8
01
  6
BYBLOCK
 10
944.78766516632516
 20
7466.6419125551856
 30
0.0
 11
942.18766516632525
 21
7467.3385804491836
 31
0.0
  0
LINE
  5
17044
  8
01
  6
BYBLOCK
 10
942.18766516632525
 20
7467.3385804491836
 30
0.0
 11
944.78766516632516
 21
7468.0352483431843
 31
0.0
  0
LINE
  5
17045
  8
01
  6
BYBLOCK
 10
942.18766516632525
 20
7467.3385804491836
 30
0.0
 11
944.78766516632516
 21
7467.3385804491836
 31
0.0
  0
TEXT
  5
17046
  8
01
 10
983.35433183299165
 20
7478.2485804491844
 30
0.0
 40
4.5499999999999989
  1
69
  0
LINE
  5
17047
  8
01
  6
BYBLOCK
 10
955.78766516632516
 20
7476.6419125551847
 30
0.0
 11
953.18766516632513
 21
7477.3385804491854
 31
0.0
  0
LINE
  5
17048
  8
01
  6
BYBLOCK
 10
953.18766516632513
 20
7477.3385804491854
 30
0.0
 11
955.78766516632516
 21
7478.0352483431843
 31
0.0
  0
LINE
  5
17049
  8
01
  6
BYBLOCK
 10
953.18766516632513
 20
7477.3385804491854
 30
0.0
 11
955.78766516632516
 21
7477.3385804491854
 31
0.0
  0
LINE
  5
1704A
  8
01
  6
BYBLOCK
 10
1019.587665166325
 20
7478.0352483431843
 30
0.0
 11
1022.187665166325
 21
7477.3385804491854
 31
0.0
  0
LINE
  5
1704B
  8
01
  6
BYBLOCK
 10
1022.187665166325
 20
7477.3385804491854
 30
0.0
 11
1019.587665166325
 21
7476.6419125551847
 31
0.0
  0
LINE
  5
1704C
  8
01
  6
BYBLOCK
 10
1022.187665166325
 20
7477.3385804491854
 30
0.0
 11
1019.587665166325
 21
7477.3385804491854
 31
0.0
  0
TEXT
  5
1704D
  8
01
 10
975.00433583299207
 20
7468.2485804491844
 30
0.0
 40
4.5499999999999989
  1
51
  0
LINE
  5
1704E
  8
01
  6
BYBLOCK
 10
1001.587673166326
 20
7468.0352483431843
 30
0.0
 11
1004.187673166326
 21
7467.3385804491836
 31
0.0
  0
LINE
  5
1704F
  8
01
  6
BYBLOCK
 10
1004.187673166326
 20
7467.3385804491836
 30
0.0
 11
1001.587673166326
 21
7466.6419125551856
 31
0.0
  0
LINE
  5
17050
  8
01
  6
BYBLOCK
 10
1004.187673166326
 20
7467.3385804491836
 30
0.0
 11
1001.587673166326
 21
7467.3385804491836
 31
0.0
  0
LINE
  5
17051
  8
01
  6
BYBLOCK
 10
955.78766516632516
 20
7466.6419125551856
 30
0.0
 11
953.18766516632513
 21
7467.3385804491836
 31
0.0
  0
LINE
  5
17052
  8
01
  6
BYBLOCK
 10
953.18766516632513
 20
7467.3385804491836
 30
0.0
 11
955.78766516632516
 21
7468.0352483431843
 31
0.0
  0
LINE
  5
17053
  8
01
  6
BYBLOCK
 10
953.18766516632513
 20
7467.3385804491836
 30
0.0
 11
955.78766516632516
 21
7467.3385804491836
 31
0.0
  0
TEXT
  5
17054
  8
01
 10
856.02088750466055
 20
7468.2485804491844
 30
0.0
 40
4.5499999999999989
  1
8
  0
LINE
  5
17055
  8
01
  6
BYBLOCK
 10
859.58743917632944
 20
7468.0352483431843
 30
0.0
 11
862.18743917632935
 21
7467.3385804491836
 31
0.0
  0
LINE
  5
17056
  8
01
  6
BYBLOCK
 10
862.18743917632935
 20
7467.3385804491836
 30
0.0
 11
859.58743917632944
 21
7466.6419125551856
 31
0.0
  0
LINE
  5
17057
  8
01
  6
BYBLOCK
 10
862.18743917632935
 20
7467.3385804491836
 30
0.0
 11
859.58743917632944
 21
7467.3385804491836
 31
0.0
  0
LINE
  5
17058
  8
01
  6
BYBLOCK
 10
856.78766916632469
 20
7466.6419125551856
 30
0.0
 11
854.18766916632455
 21
7467.3385804491836
 31
0.0
  0
LINE
  5
17059
  8
01
  6
BYBLOCK
 10
854.18766916632455
 20
7467.3385804491836
 30
0.0
 11
856.78766916632469
 21
7468.0352483431843
 31
0.0
  0
LINE
  5
1705A
  8
01
  6
BYBLOCK
 10
854.18766916632455
 20
7467.3385804491836
 30
0.0
 11
856.78766916632469
 21
7467.3385804491836
 31
0.0
  0
TEXT
  5
1705B
  8
01
 10
798.85414305013239
 20
7468.2485804491844
 30
0.0
 40
4.5499999999999989
  1
22
  0
LINE
  5
1705C
  8
01
  6
BYBLOCK
 10
811.58766916632453
 20
7468.0352483431843
 30
0.0
 11
814.18766916632467
 21
7467.3385804491836
 31
0.0
  0
LINE
  5
1705D
  8
01
  6
BYBLOCK
 10
814.18766916632467
 20
7467.3385804491836
 30
0.0
 11
811.58766916632453
 21
7466.6419125551856
 31
0.0
  0
LINE
  5
1705E
  8
01
  6
BYBLOCK
 10
814.18766916632467
 20
7467.3385804491836
 30
0.0
 11
811.58766916632453
 21
7467.3385804491836
 31
0.0
  0
LINE
  5
1705F
  8
01
  6
BYBLOCK
 10
794.78728360060688
 20
7466.6419125551856
 30
0.0
 11
792.18728360060675
 21
7467.3385804491836
 31
0.0
  0
LINE
  5
17060
  8
01
  6
BYBLOCK
 10
792.18728360060675
 20
7467.3385804491836
 30
0.0
 11
794.78728360060688
 21
7468.0352483431843
 31
0.0
  0
LINE
  5
17061
  8
01
  6
BYBLOCK
 10
792.18728360060675
 20
7467.3385804491836
 30
0.0
 11
794.78728360060688
 21
7467.3385804491836
 31
0.0
  0
TEXT
  5
17062
  8
01
 10
996.99433183299175
 20
7445.2485804491853
 30
0.0
 40
4.5499999999999989
  1
\U+03C640
  0
LINE
  5
17063
  8
01
  6
BYBLOCK
 10
1021.387664166325
 20
7445.0352483431843
 30
0.0
 11
1023.987664166325
 21
7444.3385804491854
 31
0.0
  0
LINE
  5
17064
  8
01
  6
BYBLOCK
 10
1023.987664166325
 20
7444.3385804491854
 30
0.0
 11
1021.387664166325
 21
7443.6419125551847
 31
0.0
  0
LINE
  5
17065
  8
01
  6
BYBLOCK
 10
1023.987664166325
 20
7444.3385804491854
 30
0.0
 11
1021.387664166325
 21
7444.3385804491854
 31
0.0
  0
LINE
  5
17066
  8
01
  6
BYBLOCK
 10
986.98766616632508
 20
7443.6419125551847
 30
0.0
 11
984.38766616632495
 21
7444.3385804491854
 31
0.0
  0
LINE
  5
17067
  8
01
  6
BYBLOCK
 10
984.38766616632495
 20
7444.3385804491854
 30
0.0
 11
986.98766616632508
 21
7445.0352483431843
 31
0.0
  0
LINE
  5
17068
  8
01
  6
BYBLOCK
 10
984.38766616632495
 20
7444.3385804491854
 30
0.0
 11
986.98766616632508
 21
7444.3385804491854
 31
0.0
  0
TEXT
  5
17069
  8
01
 10
656.99433183299004
 20
7445.2485804491853
 30
0.0
 40
4.5499999999999989
  1
\U+03C640
  0
LINE
  5
1706A
  8
01
  6
BYBLOCK
 10
681.38766416632336
 20
7445.0352483431843
 30
0.0
 11
683.98766416632327
 21
7444.3385804491854
 31
0.0
  0
LINE
  5
1706B
  8
01
  6
BYBLOCK
 10
683.98766416632327
 20
7444.3385804491854
 30
0.0
 11
681.38766416632336
 21
7443.6419125551847
 31
0.0
  0
LINE
  5
1706C
  8
01
  6
BYBLOCK
 10
683.98766416632327
 20
7444.3385804491854
 30
0.0
 11
681.38766416632336
 21
7444.3385804491854
 31
0.0
  0
LINE
  5
1706D
  8
01
  6
BYBLOCK
 10
646.98766616632315
 20
7443.6419125551847
 30
0.0
 11
644.38766616632324
 21
7444.3385804491854
 31
0.0
  0
LINE
  5
1706E
  8
01
  6
BYBLOCK
 10
644.38766616632324
 20
7444.3385804491854
 30
0.0
 11
646.98766616632315
 21
7445.0352483431843
 31
0.0
  0
LINE
  5
1706F
  8
01
  6
BYBLOCK
 10
644.38766616632324
 20
7444.3385804491854
 30
0.0
 11
646.98766616632315
 21
7444.3385804491854
 31
0.0
  0
TEXT
  5
17070
  8
01
 10
630.27768516632352
 20
7382.0052471158524
 30
0.0
 40
4.5499999999999989
  1
50
 50
90.0
  0
LINE
  5
17071
  8
01
  6
BYBLOCK
 10
630.49101727232448
 20
7408.7385804491851
 30
0.0
 11
631.18768516632463
 21
7411.3385804491836
 31
0.0
  0
LINE
  5
17072
  8
01
  6
BYBLOCK
 10
631.18768516632463
 20
7411.3385804491836
 30
0.0
 11
631.88435306032466
 21
7408.7385804491851
 31
0.0
  0
LINE
  5
17073
  8
01
  6
BYBLOCK
 10
631.18768516632463
 20
7411.3385804491836
 30
0.0
 11
631.18768516632463
 21
7408.7385804491851
 31
0.0
  0
LINE
  5
17074
  8
01
  6
BYBLOCK
 10
631.88435306032466
 20
7363.9385804491849
 30
0.0
 11
631.18768516632463
 21
7361.3385804491836
 31
0.0
  0
LINE
  5
17075
  8
01
  6
BYBLOCK
 10
631.18768516632463
 20
7361.3385804491836
 30
0.0
 11
630.49101727232448
 21
7363.9385804491849
 31
0.0
  0
LINE
  5
17076
  8
01
  6
BYBLOCK
 10
631.18768516632463
 20
7361.3385804491836
 30
0.0
 11
631.18768516632463
 21
7363.9385804491849
 31
0.0
  0
TEXT
  5
17077
  8
01
 10
620.27768516632352
 20
7381.5052471158524
 30
0.0
 40
4.5499999999999989
  1
55.5
 50
90.0
  0
LINE
  5
17078
  8
01
  6
BYBLOCK
 10
620.4910172723246
 20
7414.2385804491832
 30
0.0
 11
621.18768516632463
 21
7416.8385804491836
 31
0.0
  0
LINE
  5
17079
  8
01
  6
BYBLOCK
 10
621.18768516632463
 20
7416.8385804491836
 30
0.0
 11
621.88435306032466
 21
7414.2385804491832
 31
0.0
  0
LINE
  5
1707A
  8
01
  6
BYBLOCK
 10
621.18768516632463
 20
7416.8385804491836
 30
0.0
 11
621.18768516632463
 21
7414.2385804491832
 31
0.0
  0
LINE
  5
1707B
  8
01
  6
BYBLOCK
 10
621.88435306032466
 20
7363.9385804491849
 30
0.0
 11
621.18768516632463
 21
7361.3385804491836
 31
0.0
  0
LINE
  5
1707C
  8
01
  6
BYBLOCK
 10
621.18768516632463
 20
7361.3385804491836
 30
0.0
 11
620.4910172723246
 21
7363.9385804491849
 31
0.0
  0
LINE
  5
1707D
  8
01
  6
BYBLOCK
 10
621.18768516632463
 20
7361.3385804491836
 30
0.0
 11
621.18768516632463
 21
7363.9385804491849
 31
0.0
  0
TEXT
  5
1707E
  8
01
 10
877.78126020288153
 20
7393.2189677961651
 30
0.0
 40
4.5499999999999989
  1
114
 50
90.0
  0
LINE
  5
1707F
  8
01
  6
BYBLOCK
 10
879.38792809688266
 20
7327.9385804491849
 30
0.0
 11
878.69126020288252
 21
7325.3385804491836
 31
0.0
  0
LINE
  5
17080
  8
01
  6
BYBLOCK
 10
878.69126020288252
 20
7325.3385804491836
 30
0.0
 11
877.9945923088826
 21
7327.9385804491849
 31
0.0
  0
LINE
  5
17081
  8
01
  6
BYBLOCK
 10
878.69126020288252
 20
7325.3385804491836
 30
0.0
 11
878.69126020288252
 21
7327.9385804491849
 31
0.0
  0
LINE
  5
17082
  8
01
  6
BYBLOCK
 10
877.99459230888283
 20
7436.7385804491842
 30
0.0
 11
878.69126020288275
 21
7439.3385804491836
 31
0.0
  0
LINE
  5
17083
  8
01
  6
BYBLOCK
 10
878.69126020288275
 20
7439.3385804491836
 30
0.0
 11
879.38792809688266
 21
7436.7385804491842
 31
0.0
  0
LINE
  5
17084
  8
01
  6
BYBLOCK
 10
878.69126020288275
 20
7439.3385804491836
 30
0.0
 11
878.69126020288275
 21
7436.7385804491842
 31
0.0
  0
TEXT
  5
17085
  8
01
 10
893.27766916632481
 20
7393.3273011294996
 30
0.0
 40
4.5499999999999989
  1
130
 50
90.0
  0
LINE
  5
17086
  8
01
  6
BYBLOCK
 10
894.88433706032583
 20
7319.9385804491858
 30
0.0
 11
894.1876691663258
 21
7317.3385804491854
 31
0.0
  0
LINE
  5
17087
  8
01
  6
BYBLOCK
 10
894.1876691663258
 20
7317.3385804491854
 30
0.0
 11
893.49100127232566
 21
7319.9385804491858
 31
0.0
  0
LINE
  5
17088
  8
01
  6
BYBLOCK
 10
894.1876691663258
 20
7317.3385804491854
 30
0.0
 11
894.1876691663258
 21
7319.9385804491858
 31
0.0
  0
LINE
  5
17089
  8
01
  6
BYBLOCK
 10
893.49100127232589
 20
7444.7385804491842
 30
0.0
 11
894.1876691663258
 21
7447.3385804491836
 31
0.0
  0
LINE
  5
1708A
  8
01
  6
BYBLOCK
 10
894.1876691663258
 20
7447.3385804491836
 30
0.0
 11
894.88433706032595
 21
7444.7385804491842
 31
0.0
  0
LINE
  5
1708B
  8
01
  6
BYBLOCK
 10
894.1876691663258
 20
7447.3385804491836
 30
0.0
 11
894.1876691663258
 21
7444.7385804491842
 31
0.0
  0
TEXT
  5
1708C
  8
01
 10
968.27766516632414
 20
7354.1452471158509
 30
0.0
 40
4.5499999999999989
  1
\U+03C650
 50
90.0
  0
LINE
  5
1708D
  8
01
  6
BYBLOCK
 10
968.49099727232499
 20
7383.7385804491842
 30
0.0
 11
969.18766516632513
 21
7386.3385804491836
 31
0.0
  0
LINE
  5
1708E
  8
01
  6
BYBLOCK
 10
969.18766516632513
 20
7386.3385804491836
 30
0.0
 11
969.88433306032505
 21
7383.7385804491842
 31
0.0
  0
LINE
  5
1708F
  8
01
  6
BYBLOCK
 10
969.18766516632513
 20
7386.3385804491836
 30
0.0
 11
969.18766516632513
 21
7383.7385804491842
 31
0.0
  0
LINE
  5
17090
  8
01
  6
BYBLOCK
 10
969.88433306032505
 20
7338.9385804491849
 30
0.0
 11
969.18766516632513
 21
7336.3385804491836
 31
0.0
  0
LINE
  5
17091
  8
01
  6
BYBLOCK
 10
969.18766516632513
 20
7336.3385804491836
 30
0.0
 11
968.49099727232499
 21
7338.9385804491849
 31
0.0
  0
LINE
  5
17092
  8
01
  6
BYBLOCK
 10
969.18766516632513
 20
7336.3385804491836
 30
0.0
 11
969.18766516632513
 21
7338.9385804491849
 31
0.0
  0
TEXT
  5
17093
  8
01
 10
1137.5276651663239
 20
7353.7552471158524
 30
0.0
 40
4.5499999999999989
  1
21.5
 50
90.0
  0
LINE
  5
17094
  8
01
  6
BYBLOCK
 10
1137.7409972723251
 20
7369.4885804491851
 30
0.0
 11
1138.4376651663249
 21
7372.0885804491836
 31
0.0
  0
LINE
  5
17095
  8
01
  6
BYBLOCK
 10
1138.4376651663249
 20
7372.0885804491836
 30
0.0
 11
1139.1343330603249
 21
7369.4885804491851
 31
0.0
  0
LINE
  5
17096
  8
01
  6
BYBLOCK
 10
1138.4376651663249
 20
7372.0885804491836
 30
0.0
 11
1138.4376651663249
 21
7369.4885804491851
 31
0.0
  0
LINE
  5
17097
  8
01
  6
BYBLOCK
 10
1139.1343330603249
 20
7353.188580449184
 30
0.0
 11
1138.4376651663249
 21
7350.5885804491854
 31
0.0
  0
LINE
  5
17098
  8
01
  6
BYBLOCK
 10
1138.4376651663249
 20
7350.5885804491854
 30
0.0
 11
1137.7409972723251
 21
7353.188580449184
 31
0.0
  0
LINE
  5
17099
  8
01
  6
BYBLOCK
 10
1138.4376651663249
 20
7350.5885804491854
 30
0.0
 11
1138.4376651663249
 21
7353.188580449184
 31
0.0
  0
TEXT
  5
1709A
  8
01
 10
1137.527781506069
 20
7583.0052471151284
 30
0.0
 40
4.5499999999999989
  1
48
 50
90.0
  0
LINE
  5
1709B
  8
01
  6
BYBLOCK
 10
1139.13444940007
 20
7565.9385804487674
 30
0.0
 11
1138.43778150607
 21
7563.3385804487662
 31
0.0
  0
LINE
  5
1709C
  8
01
  6
BYBLOCK
 10
1138.43778150607
 20
7563.3385804487662
 30
0.0
 11
1137.74111361207
 21
7565.9385804487674
 31
0.0
  0
LINE
  5
1709D
  8
01
  6
BYBLOCK
 10
1138.43778150607
 20
7563.3385804487662
 30
0.0
 11
1138.43778150607
 21
7565.9385804487674
 31
0.0
  0
LINE
  5
1709E
  8
01
  6
BYBLOCK
 10
1137.74111361207
 20
7608.7385804481537
 30
0.0
 11
1138.43778150607
 21
7611.338580448155
 31
0.0
  0
LINE
  5
1709F
  8
01
  6
BYBLOCK
 10
1138.43778150607
 20
7611.338580448155
 30
0.0
 11
1139.13444940007
 21
7608.7385804481537
 31
0.0
  0
LINE
  5
170A0
  8
01
  6
BYBLOCK
 10
1138.43778150607
 20
7611.338580448155
 30
0.0
 11
1138.43778150607
 21
7608.7385804481537
 31
0.0
  0
TEXT
  5
170A1
  8
01
 10
1147.5277815060681
 20
7577.6135804483592
 30
0.0
 40
4.5499999999999989
  1
59
 50
90.0
  0
LINE
  5
170A2
  8
01
  6
BYBLOCK
 10
1149.13444940007
 20
7554.9385804485619
 30
0.0
 11
1148.43778150607
 21
7552.3385804485624
 31
0.0
  0
LINE
  5
170A3
  8
01
  6
BYBLOCK
 10
1148.43778150607
 20
7552.3385804485624
 30
0.0
 11
1147.74111361207
 21
7554.9385804485619
 31
0.0
  0
LINE
  5
170A4
  8
01
  6
BYBLOCK
 10
1148.43778150607
 20
7552.3385804485624
 30
0.0
 11
1148.43778150607
 21
7554.9385804485619
 31
0.0
  0
LINE
  5
170A5
  8
01
  6
BYBLOCK
 10
1147.74111361207
 20
7608.7385804481537
 30
0.0
 11
1148.43778150607
 21
7611.338580448155
 31
0.0
  0
LINE
  5
170A6
  8
01
  6
BYBLOCK
 10
1148.43778150607
 20
7611.338580448155
 30
0.0
 11
1149.13444940007
 21
7608.7385804481537
 31
0.0
  0
LINE
  5
170A7
  8
01
  6
BYBLOCK
 10
1148.43778150607
 20
7611.338580448155
 30
0.0
 11
1148.43778150607
 21
7608.7385804481537
 31
0.0
  0
TEXT
  5
170A8
  8
01
 10
1057.0961153144031
 20
7538.2485804485632
 30
0.0
 40
4.5499999999999989
  1
119
  0
LINE
  5
170A9
  8
01
  6
BYBLOCK
 10
1120.83778245607
 20
7538.0352483425631
 30
0.0
 11
1123.43778245607
 21
7537.3385804485624
 31
0.0
  0
LINE
  5
170AA
  8
01
  6
BYBLOCK
 10
1123.43778245607
 20
7537.3385804485624
 30
0.0
 11
1120.83778245607
 21
7536.6419125545626
 31
0.0
  0
LINE
  5
170AB
  8
01
  6
BYBLOCK
 10
1123.43778245607
 20
7537.3385804485624
 30
0.0
 11
1120.83778245607
 21
7537.3385804485624
 31
0.0
  0
LINE
  5
170AC
  8
01
  6
BYBLOCK
 10
1006.78778150607
 20
7536.6419125545626
 30
0.0
 11
1004.18778150607
 21
7537.3385804485624
 31
0.0
  0
LINE
  5
170AD
  8
01
  6
BYBLOCK
 10
1004.18778150607
 20
7537.3385804485624
 30
0.0
 11
1006.78778150607
 21
7538.0352483425631
 31
0.0
  0
LINE
  5
170AE
  8
01
  6
BYBLOCK
 10
1004.18778150607
 20
7537.3385804485624
 30
0.0
 11
1006.78778150607
 21
7537.3385804485624
 31
0.0
  0
TEXT
  5
170AF
  8
01
 10
1048.8627834060701
 20
7528.2485804485632
 30
0.0
 40
4.5499999999999989
  1
130
  0
LINE
  5
170B0
  8
01
  6
BYBLOCK
 10
1120.83778245607
 20
7528.0352483425631
 30
0.0
 11
1123.43778245607
 21
7527.3385804485633
 31
0.0
  0
LINE
  5
170B1
  8
01
  6
BYBLOCK
 10
1123.43778245607
 20
7527.3385804485633
 30
0.0
 11
1120.83778245607
 21
7526.6419125545626
 31
0.0
  0
LINE
  5
170B2
  8
01
  6
BYBLOCK
 10
1123.43778245607
 20
7527.3385804485633
 30
0.0
 11
1120.83778245607
 21
7527.3385804485633
 31
0.0
  0
LINE
  5
170B3
  8
01
  6
BYBLOCK
 10
996.03778245606816
 20
7526.6419125545626
 30
0.0
 11
993.43778245606825
 21
7527.3385804485633
 31
0.0
  0
LINE
  5
170B4
  8
01
  6
BYBLOCK
 10
993.43778245606825
 20
7527.3385804485633
 30
0.0
 11
996.03778245606816
 21
7528.0352483425631
 31
0.0
  0
LINE
  5
170B5
  8
01
  6
BYBLOCK
 10
993.43778245606825
 20
7527.3385804485633
 30
0.0
 11
996.03778245606816
 21
7527.3385804485633
 31
0.0
  0
TEXT
  5
170B6
  8
01
 10
1048.2776651663239
 20
7375.0052471158506
 30
0.0
 40
4.5499999999999989
  1
74.5
 50
90.0
  0
LINE
  5
170B7
  8
01
  6
BYBLOCK
 10
1049.8843330603249
 20
7347.9385804491849
 30
0.0
 11
1049.1876651663249
 21
7345.3385804491836
 31
0.0
  0
LINE
  5
170B8
  8
01
  6
BYBLOCK
 10
1049.1876651663249
 20
7345.3385804491836
 30
0.0
 11
1048.4909972723251
 21
7347.9385804491849
 31
0.0
  0
LINE
  5
170B9
  8
01
  6
BYBLOCK
 10
1049.1876651663249
 20
7345.3385804491836
 30
0.0
 11
1049.1876651663249
 21
7347.9385804491849
 31
0.0
  0
LINE
  5
170BA
  8
01
  6
BYBLOCK
 10
1048.4909972723251
 20
7417.2385804491842
 30
0.0
 11
1049.1876651663249
 21
7419.8385804491854
 31
0.0
  0
LINE
  5
170BB
  8
01
  6
BYBLOCK
 10
1049.1876651663249
 20
7419.8385804491854
 30
0.0
 11
1049.8843330603249
 21
7417.2385804491842
 31
0.0
  0
LINE
  5
170BC
  8
01
  6
BYBLOCK
 10
1049.1876651663249
 20
7419.8385804491854
 30
0.0
 11
1049.1876651663249
 21
7417.2385804491842
 31
0.0
  0
LINE
  5
170BD
  8
01
 10
1001.876728294393
 20
7591.84266928958
 30
0.0
 11
976.94082625934186
 21
7572.4285804481569
 31
0.0
1001
ACAD
1000
DSTYLE
1002
{
1070
    40
1040
1.3
1002
}
  0
LINE
  5
170BE
  8
01
 10
976.94082625934186
 20
7572.4285804481569
 30
0.0
 11
973.43082625934187
 21
7572.4285804481569
 31
0.0
1001
ACAD
1000
DSTYLE
1002
{
1070
    40
1040
1.3
1002
}
  0
TEXT
  5
170BF
  8
01
 10
1043.1389401080969
 20
7623.7552471148229
 30
0.0
 40
4.5499999999999989
  1
20.5
 50
90.0
  0
LINE
  5
170C0
  8
01
  6
BYBLOCK
 10
1044.7456080020979
 20
7623.6885804481562
 30
0.0
 11
1044.0489401080979
 21
7621.0885804481559
 31
0.0
  0
LINE
  5
170C1
  8
01
  6
BYBLOCK
 10
1044.0489401080979
 20
7621.0885804481559
 30
0.0
 11
1043.3522722140981
 21
7623.6885804481562
 31
0.0
  0
LINE
  5
170C2
  8
01
  6
BYBLOCK
 10
1044.0489401080979
 20
7621.0885804481559
 30
0.0
 11
1044.0489401080979
 21
7623.6885804481562
 31
0.0
  0
LINE
  5
170C3
  8
01
  6
BYBLOCK
 10
1043.3522722140981
 20
7638.9885804481546
 30
0.0
 11
1044.0489401080979
 21
7641.5885804481559
 31
0.0
  0
LINE
  5
170C4
  8
01
  6
BYBLOCK
 10
1044.0489401080979
 20
7641.5885804481559
 30
0.0
 11
1044.7456080020979
 21
7638.9885804481546
 31
0.0
  0
LINE
  5
170C5
  8
01
  6
BYBLOCK
 10
1044.0489401080979
 20
7641.5885804481559
 30
0.0
 11
1044.0489401080979
 21
7638.9885804481546
 31
0.0
  0
VIEWPORT
  5
57
 67
     1
  8
0
 10
10.29867712960651
 20
17.565658765306811
 30
0.0
 40
436.60987287535141
 41
283.60322715974149
 68
     1
 69
     1
1001
ACAD
1000
MVIEW
1002
{
1070
    16
1010
0.0
1020
0.0
1030
0.0
1010
0.0
1020
0.0
1030
1.0
1040
0.0
1040
283.60322715974149
1040
10.29867712960651
1040
17.565658765306811
1040
50.0
1040
0.0
1040
0.0
1070
     0
1070
   100
1070
     1
1070
     1
1070
     0
1070
     0
1070
     0
1070
     0
1040
0.0
1040
0.0
1040
0.0
1040
10.0
1040
10.0
1040
10.0
1040
10.0
1070
     0
1002
{
1002
}
1002
}
  0
ENDSEC
  0
EOF
