  0
SECTION
  2
HEADER
  9
$ACADVER
  1
AC1012
  9
$DWGCODEPAGE
  3
ansi_932
  9
$INSBASE
 10
0.0
 20
0.0
 30
0.0
  9
$EXTMIN
 10
1938.313974305986
 20
-703.8187320008124
 30
0.0
  9
$EXTMAX
 10
2551.614082711812
 20
-284.8187320018351
 30
0.0000000002254849
  9
$LIMMIN
 10
0.0
 20
0.0
  9
$LIMMAX
 10
420.0
 20
297.0
  9
$ORTHOMODE
 70
     0
  9
$REGENMODE
 70
     1
  9
$FILLMODE
 70
     1
  9
$QTEXTMODE
 70
     0
  9
$MIRRTEXT
 70
     0
  9
$DRAGMODE
 70
     2
  9
$LTSCALE
 40
0.5
  9
$OSMODE
 70
 16383
  9
$ATTMODE
 70
     1
  9
$TEXTSIZE
 40
4.0
  9
$TRACEWID
 40
1.0
  9
$TEXTSTYLE
  7
STANDARD
  9
$CLAYER
  8
1TEXT
  9
$CELTYPE
  6
BYLAYER
  9
$CECOLOR
 62
   256
  9
$CELTSCALE
 40
1.0
  9
$DELOBJ
 70
     1
  9
$DISPSILH
 70
     0
  9
$DIMSCALE
 40
1.0
  9
$DIMASZ
 40
2.0
  9
$DIMEXO
 40
0.0
  9
$DIMDLI
 40
7.0
  9
$DIMRND
 40
0.0
  9
$DIMDLE
 40
0.0
  9
$DIMEXE
 40
1.0
  9
$DIMTP
 40
0.0
  9
$DIMTM
 40
0.0
  9
$DIMTXT
 40
3.5
  9
$DIMCEN
 40
0.0
  9
$DIMTSZ
 40
0.0
  9
$DIMTOL
 70
     0
  9
$DIMLIM
 70
     0
  9
$DIMTIH
 70
     0
  9
$DIMTOH
 70
     0
  9
$DIMSE1
 70
     0
  9
$DIMSE2
 70
     0
  9
$DIMTAD
 70
     1
  9
$DIMZIN
 70
     8
  9
$DIMBLK
  1

  9
$DIMASO
 70
     1
  9
$DIMSHO
 70
     1
  9
$DIMPOST
  1
 
  9
$DIMAPOST
  1

  9
$DIMALT
 70
     0
  9
$DIMALTD
 70
     2
  9
$DIMALTF
 40
25.4
  9
$DIMLFAC
 40
1.0
  9
$DIMTOFL
 70
     1
  9
$DIMTVP
 40
0.0
  9
$DIMTIX
 70
     0
  9
$DIMSOXD
 70
     0
  9
$DIMSAH
 70
     1
  9
$DIMBLK1
  1
OPEN30
  9
$DIMBLK2
  1
OPEN30
  9
$DIMSTYLE
  2
NEWX10
  9
$DIMCLRD
 70
   256
  9
$DIMCLRE
 70
   256
  9
$DIMCLRT
 70
   201
  9
$DIMTFAC
 40
0.7
  9
$DIMGAP
 40
0.7
  9
$DIMJUST
 70
     0
  9
$DIMSD1
 70
     0
  9
$DIMSD2
 70
     0
  9
$DIMTOLJ
 70
     1
  9
$DIMTZIN
 70
     8
  9
$DIMALTZ
 70
     0
  9
$DIMALTTZ
 70
     0
  9
$DIMFIT
 70
     2
  9
$DIMUPT
 70
     0
  9
$DIMUNIT
 70
     2
  9
$DIMDEC
 70
     2
  9
$DIMTDEC
 70
     4
  9
$DIMALTU
 70
     2
  9
$DIMALTTD
 70
     2
  9
$DIMTXSTY
  7
STANDARD
  9
$DIMAUNIT
 70
     0
  9
$LUNITS
 70
     2
  9
$LUPREC
 70
     4
  9
$SKETCHINC
 40
1.0
  9
$FILLETRAD
 40
0.0
  9
$AUNITS
 70
     0
  9
$AUPREC
 70
     2
  9
$MENU
  1
acad
  9
$ELEVATION
 40
0.0
  9
$PELEVATION
 40
0.0
  9
$THICKNESS
 40
0.0
  9
$LIMCHECK
 70
     0
  9
$CHAMFERA
 40
10.0
  9
$CHAMFERB
 40
10.0
  9
$CHAMFERC
 40
20.0
  9
$CHAMFERD
 40
0.0
  9
$SKPOLY
 70
     0
  9
$TDCREATE
 40
2451318.621352917
  9
$TDUPDATE
 40
2458808.366803727
  9
$TDINDWG
 40
1.6522235648
  9
$TDUSRTIMER
 40
1.6522235648
  9
$USRTIMER
 70
     1
  9
$ANGBASE
 50
0.0
  9
$ANGDIR
 70
     0
  9
$PDMODE
 70
     0
  9
$PDSIZE
 40
0.0
  9
$PLINEWID
 40
0.0
  9
$COORDS
 70
     2
  9
$SPLFRAME
 70
     0
  9
$SPLINETYPE
 70
     6
  9
$SPLINESEGS
 70
     8
  9
$ATTDIA
 70
     0
  9
$ATTREQ
 70
     1
  9
$HANDLING
 70
     1
  9
$HANDSEED
  5
1BB1D
  9
$SURFTAB1
 70
     6
  9
$SURFTAB2
 70
     6
  9
$SURFTYPE
 70
     6
  9
$SURFU
 70
     6
  9
$SURFV
 70
     6
  9
$UCSNAME
  2

  9
$UCSORG
 10
0.0
 20
0.0
 30
0.0
  9
$UCSXDIR
 10
1.0
 20
0.0
 30
0.0
  9
$UCSYDIR
 10
0.0
 20
1.0
 30
0.0
  9
$PUCSNAME
  2

  9
$PUCSORG
 10
0.0
 20
0.0
 30
0.0
  9
$PUCSXDIR
 10
1.0
 20
0.0
 30
0.0
  9
$PUCSYDIR
 10
0.0
 20
1.0
 30
0.0
  9
$USERI1
 70
     0
  9
$USERI2
 70
     0
  9
$USERI3
 70
     0
  9
$USERI4
 70
     0
  9
$USERI5
 70
     0
  9
$USERR1
 40
0.0
  9
$USERR2
 40
0.0
  9
$USERR3
 40
0.0
  9
$USERR4
 40
0.0
  9
$USERR5
 40
0.0
  9
$WORLDVIEW
 70
     1
  9
$SHADEDGE
 70
     3
  9
$SHADEDIF
 70
    70
  9
$TILEMODE
 70
     1
  9
$MAXACTVP
 70
    48
  9
$PINSBASE
 10
0.0
 20
0.0
 30
0.0
  9
$PLIMCHECK
 70
     0
  9
$PEXTMIN
 10
1.000000000000000E+20
 20
1.000000000000000E+20
 30
1.000000000000000E+20
  9
$PEXTMAX
 10
-1.000000000000000E+20
 20
-1.000000000000000E+20
 30
-1.000000000000000E+20
  9
$PLIMMIN
 10
0.0
 20
0.0
  9
$PLIMMAX
 10
420.0
 20
297.0
  9
$UNITMODE
 70
     0
  9
$VISRETAIN
 70
     1
  9
$PLINEGEN
 70
     0
  9
$PSLTSCALE
 70
     1
  9
$TREEDEPTH
 70
  3020
  9
$PICKSTYLE
 70
     1
  9
$CMLSTYLE
  2
STANDARD
  9
$CMLJUST
 70
     0
  9
$CMLSCALE
 40
20.0
  9
$SAVEIMAGES
 70
     1
  0
ENDSEC
  0
SECTION
  2
CLASSES
  0
CLASS
  1
DICTIONARYVAR
  2
AcDbDictionaryVar
  3
ObjectDBX Classes
 90
        0
280
     0
281
     0
  0
CLASS
  1
IDBUFFER
  2
AcDbIdBuffer
  3
ObjectDBX Classes
 90
    32768
280
     0
281
     0
  0
CLASS
  1
LWPOLYLINE
  2
AcDbPolyline
  3
ObjectDBX Classes
 90
    32768
280
     0
281
     1
  0
CLASS
  1
ACDBDICTIONARYWDFLT
  2
AcDbDictionaryWithDefault
  3
ObjectDBX Classes
 90
    32768
280
     0
281
     0
  0
CLASS
  1
ACDBPLACEHOLDER
  2
AcDbPlaceHolder
  3
ObjectDBX Classes
 90
        0
280
     0
281
     0
  0
CLASS
  1
LAYOUT
  2
AcDbLayout
  3
ObjectDBX Classes
 90
        0
280
     0
281
     0
  0
CLASS
  1
TABLESTYLE
  2
AcDbTableStyle
  3
ObjectDBX Classes
 90
     4095
280
     0
281
     0
  0
CLASS
  1
SORTENTSTABLE
  2
AcDbSortentsTable
  3
ObjectDBX Classes
 90
    32768
280
     0
281
     0
  0
CLASS
  1
MATERIAL
  2
AcDbMaterial
  3
ObjectDBX Classes
 90
     1153
280
     0
281
     0
  0
CLASS
  1
VISUALSTYLE
  2
AcDbVisualStyle
  3
ObjectDBX Classes
 90
     4095
280
     0
281
     0
  0
CLASS
  1
SCALE
  2
AcDbScale
  3
ObjectDBX Classes
 90
     1153
280
     0
281
     0
  0
CLASS
  1
MLEADERSTYLE
  2
AcDbMLeaderStyle
  3
ACDB_MLEADERSTYLE_CLASS
 90
     4095
280
     0
281
     0
  0
CLASS
  1
CELLSTYLEMAP
  2
AcDbCellStyleMap
  3
ObjectDBX Classes
 90
     1152
280
     0
281
     0
  0
CLASS
  1
SUN
  2
AcDbSun
  3
SCENEOE
 90
     1153
280
     0
281
     0
  0
CLASS
  1
XRECORD
  2
AcDbXrecord
  3
ObjectDBX Classes
 90
    32768
280
     0
281
     0
  0
CLASS
  1
HATCH
  2
AcDbHatch
  3
ObjectDBX Classes
 90
    32768
280
     0
281
     1
  0
ENDSEC
  0
SECTION
  2
TABLES
  0
TABLE
  2
VPORT
  5
8
330
0
100
AcDbSymbolTable
 70
     1
  0
VPORT
  5
D991
330
8
100
AcDbSymbolTableRecord
100
AcDbViewportTableRecord
  2
*ACTIVE
 70
     0
 10
0.0
 20
0.0
 11
1.0
 21
1.0
 12
2244.964028508899
 22
-494.3187320013237
 13
0.0
 23
0.0
 14
10.0
 24
10.0
 15
10.0
 25
10.0
 16
0.0
 26
0.0
 36
1.0
 17
0.0
 27
0.0
 37
0.0
 40
449.8736842094282
 41
2.152122641509434
 42
50.0
 43
0.0
 44
0.0
 50
0.0
 51
0.0
 71
    16
 72
   100
 73
     1
 74
     1
 75
     0
 76
     0
 77
     0
 78
     0
1001
ACAD_NAV_VCDISPLAY
1070
     3
  0
ENDTAB
  0
TABLE
  2
LTYPE
  5
5
330
0
100
AcDbSymbolTable
 70
     3
  0
LTYPE
  5
12
330
5
100
AcDbSymbolTableRecord
100
AcDbLinetypeTableRecord
  2
BYBLOCK
 70
     0
  3

 72
    65
 73
     0
 40
0.0
  0
LTYPE
  5
13
330
5
100
AcDbSymbolTableRecord
100
AcDbLinetypeTableRecord
  2
BYLAYER
 70
     0
  3

 72
    65
 73
     0
 40
0.0
  0
LTYPE
  5
14
330
5
100
AcDbSymbolTableRecord
100
AcDbLinetypeTableRecord
  2
CONTINUOUS
 70
     0
  3
Solid line
 72
    65
 73
     0
 40
0.0
  0
LTYPE
  5
2C03
330
5
100
AcDbSymbolTableRecord
100
AcDbLinetypeTableRecord
  2
HIDDEN
 70
     0
  3
Hidden __ __ __ __ __ __ __ __ __ __ __ __ __ _
 72
    65
 73
     2
 40
9.524999999999999
 49
6.35
 74
     0
 49
-3.175
 74
     0
  0
LTYPE
  5
13839
330
5
100
AcDbSymbolTableRecord
100
AcDbLinetypeTableRecord
  2
CENTER2
 70
     0
  3
Center (.5x) ___ _ ___ _ ___ _ ___ _ ___ _ ___
 72
    65
 73
     4
 40
28.575
 49
19.05
 74
     0
 49
-3.175
 74
     0
 49
3.175
 74
     0
 49
-3.175
 74
     0
  0
ENDTAB
  0
TABLE
  2
LAYER
  5
2
102
{ACAD_XDICTIONARY
360
E6A6
102
}
330
0
100
AcDbSymbolTable
 70
     6
  0
LAYER
  5
E
102
{ACAD_XDICTIONARY
360
DA05
102
}
330
2
100
AcDbSymbolTableRecord
100
AcDbLayerTableRecord
  2
0
 70
     0
 62
     7
  6
CONTINUOUS
  0
LAYER
  5
29
102
{ACAD_XDICTIONARY
360
DA07
102
}
330
2
100
AcDbSymbolTableRecord
100
AcDbLayerTableRecord
  2
1CENTER
 70
     0
 62
     7
  6
CENTER2
  0
LAYER
  5
31
102
{ACAD_XDICTIONARY
360
DA09
102
}
330
2
100
AcDbSymbolTableRecord
100
AcDbLayerTableRecord
  2
1TEXT
 70
     0
 62
     7
  6
CONTINUOUS
  0
LAYER
  5
243
102
{ACAD_XDICTIONARY
360
DA0F
102
}
330
2
100
AcDbSymbolTableRecord
100
AcDbLayerTableRecord
  2
01
 70
     0
 62
     1
  6
CONTINUOUS
  0
LAYER
  5
24E
102
{ACAD_XDICTIONARY
360
DA15
102
}
330
2
100
AcDbSymbolTableRecord
100
AcDbLayerTableRecord
  2
1DIM
 70
     0
 62
     7
  6
CONTINUOUS
  0
LAYER
  5
2C05
102
{ACAD_XDICTIONARY
360
DA23
102
}
330
2
100
AcDbSymbolTableRecord
100
AcDbLayerTableRecord
  2
1HIDDEN
 70
     0
 62
     7
  6
HIDDEN
  0
ENDTAB
  0
TABLE
  2
STYLE
  5
3
330
0
100
AcDbSymbolTable
 70
     1
  0
STYLE
  5
F
330
3
100
AcDbSymbolTableRecord
100
AcDbTextStyleTableRecord
  2
STANDARD
 70
     0
 40
0.0
 41
1.0
 50
0.0
 71
     0
 42
4.0
  3
txt.shx
  4
extfont.shx
  0
ENDTAB
  0
TABLE
  2
VIEW
  5
6
330
0
100
AcDbSymbolTable
 70
     0
  0
ENDTAB
  0
TABLE
  2
UCS
  5
7
330
0
100
AcDbSymbolTable
 70
     0
  0
ENDTAB
  0
TABLE
  2
APPID
  5
9
330
0
100
AcDbSymbolTable
 70
    16
  0
APPID
  5
10
330
9
100
AcDbSymbolTableRecord
100
AcDbRegAppTableRecord
  2
ACAD
 70
     0
  0
APPID
  5
21
330
9
100
AcDbSymbolTableRecord
100
AcDbRegAppTableRecord
  2
DRAWINGVARIABLESXDATA
 70
     0
  0
APPID
  5
64
330
9
100
AcDbSymbolTableRecord
100
AcDbRegAppTableRecord
  2
CONTENTTABDATA
 70
     0
  0
APPID
  5
65
330
9
100
AcDbSymbolTableRecord
100
AcDbRegAppTableRecord
  2
CONTENTCURRENTTAB
 70
     0
  0
APPID
  5
66
330
9
100
AcDbSymbolTableRecord
100
AcDbRegAppTableRecord
  2
CONTENTBLOCKDESCRIPTION
 70
     0
  0
APPID
  5
67
330
9
100
AcDbSymbolTableRecord
100
AcDbRegAppTableRecord
  2
CONTENTBLOCKICON
 70
     0
  0
APPID
  5
68
330
9
100
AcDbSymbolTableRecord
100
AcDbRegAppTableRecord
  2
CONTENTLONGBLOCKNAME
 70
     0
  0
APPID
  5
2AE
330
9
100
AcDbSymbolTableRecord
100
AcDbRegAppTableRecord
  2
ACAD_PSEXT
 70
     0
  0
APPID
  5
D9E9
330
9
100
AcDbSymbolTableRecord
100
AcDbRegAppTableRecord
  2
ACAD_MLEADERVER
 70
     0
  0
APPID
  5
19D01
330
9
100
AcDbSymbolTableRecord
100
AcDbRegAppTableRecord
  2
ACADANNOTATIVE
 70
     0
  0
APPID
  5
19D02
330
9
100
AcDbSymbolTableRecord
100
AcDbRegAppTableRecord
  2
ACDBBLOCKREPETAG
 70
     0
  0
APPID
  5
1A67E
330
9
100
AcDbSymbolTableRecord
100
AcDbRegAppTableRecord
  2
ACAD_OBJECT_CHANGE_GUID
 70
     0
  0
APPID
  5
1A897
330
9
100
AcDbSymbolTableRecord
100
AcDbRegAppTableRecord
  2
ACAECLAYERSTANDARD
 70
     0
  0
APPID
  5
1B201
330
9
100
AcDbSymbolTableRecord
100
AcDbRegAppTableRecord
  2
ACAD_NAV_VCDISPLAY
 70
     0
  0
APPID
  5
1B24A
330
9
100
AcDbSymbolTableRecord
100
AcDbRegAppTableRecord
  2
ACLAYERTOOLS
 70
     0
  0
APPID
  5
1B4B4
330
9
100
AcDbSymbolTableRecord
100
AcDbRegAppTableRecord
  2
ACAD_EXEMPT_FROM_CAD_STAND
 70
     0
  0
ENDTAB
  0
TABLE
  2
DIMSTYLE
  5
A
330
0
100
AcDbSymbolTable
 70
     1
  0
DIMSTYLE
105
48
330
A
100
AcDbSymbolTableRecord
100
AcDbDimStyleTableRecord
  2
NEWX10
 70
     0
  3
 
  4

  5

  6
OPEN30
  7
OPEN30
 40
1.0
 41
2.0
 42
0.0
 43
7.0
 44
1.0
 45
0.0
 46
0.0
 47
0.0
 48
0.0
140
3.5
141
0.0
142
0.0
143
25.4
144
1.0
145
0.0
146
0.7
147
0.7
 71
     0
 72
     0
 73
     0
 74
     0
 75
     0
 76
     0
 77
     1
 78
     8
170
     0
171
     2
172
     1
173
     1
174
     0
175
     0
176
   256
177
   256
178
   201
179
     2
270
     2
271
     2
272
     4
273
     2
274
     2
340
F
275
     0
280
     0
281
     0
282
     0
283
     1
284
     8
285
     0
286
     0
287
     2
288
     0
  0
ENDTAB
  0
TABLE
  2
BLOCK_RECORD
  5
1
330
0
100
AcDbSymbolTable
 70
     8
  0
BLOCK_RECORD
  5
18
102
{ACAD_XDICTIONARY
360
88F
102
}
330
1
100
AcDbSymbolTableRecord
100
AcDbBlockTableRecord
  2
*MODEL_SPACE
  0
BLOCK_RECORD
  5
15
330
1
100
AcDbSymbolTableRecord
100
AcDbBlockTableRecord
  2
*PAPER_SPACE
  0
BLOCK_RECORD
  5
42
330
1
100
AcDbSymbolTableRecord
100
AcDbBlockTableRecord
  2
_OPEN30
  0
BLOCK_RECORD
  5
19D51
330
1
100
AcDbSymbolTableRecord
100
AcDbBlockTableRecord
  2
A3WAKUKAWAJUN2017_HYOUDAI_
  0
BLOCK_RECORD
  5
1B97D
330
1
100
AcDbSymbolTableRecord
100
AcDbBlockTableRecord
  2
*X49
  0
BLOCK_RECORD
  5
1B9CB
330
1
100
AcDbSymbolTableRecord
100
AcDbBlockTableRecord
  2
*X50
  0
BLOCK_RECORD
  5
1BA1D
330
1
100
AcDbSymbolTableRecord
100
AcDbBlockTableRecord
  2
*X51
  0
BLOCK_RECORD
  5
1BA6E
330
1
100
AcDbSymbolTableRecord
100
AcDbBlockTableRecord
  2
*X52
  0
BLOCK_RECORD
  5
1BAAB
330
1
100
AcDbSymbolTableRecord
100
AcDbBlockTableRecord
  2
*X53
  0
BLOCK_RECORD
  5
1BAEB
330
1
100
AcDbSymbolTableRecord
100
AcDbBlockTableRecord
  2
*X54
  0
ENDTAB
  0
ENDSEC
  0
SECTION
  2
BLOCKS
  0
BLOCK
  5
19
330
18
100
AcDbEntity
  8
0
100
AcDbBlockBegin
  2
*MODEL_SPACE
 70
     0
 10
0.0
 20
0.0
 30
0.0
  3
*MODEL_SPACE
  1

  0
ENDBLK
  5
1A
330
18
100
AcDbEntity
  8
0
100
AcDbBlockEnd
  0
BLOCK
  5
16
330
15
100
AcDbEntity
 67
     1
  8
0
100
AcDbBlockBegin
  2
*PAPER_SPACE
 70
     0
 10
0.0
 20
0.0
 30
0.0
  3
*PAPER_SPACE
  1

  0
ENDBLK
  5
17
330
15
100
AcDbEntity
 67
     1
  8
0
100
AcDbBlockEnd
  0
BLOCK
  5
43
330
42
100
AcDbEntity
  8
0
100
AcDbBlockBegin
  2
_OPEN30
 70
     0
 10
0.0
 20
0.0
 30
0.0
  3
_OPEN30
  1

  0
LINE
  5
44
330
42
100
AcDbEntity
  8
0
  6
BYBLOCK
 62
     0
100
AcDbLine
 10
-1.0
 20
0.26794919
 30
0.0
 11
0.0
 21
0.0
 31
0.0
  0
LINE
  5
45
330
42
100
AcDbEntity
  8
0
  6
BYBLOCK
 62
     0
100
AcDbLine
 10
0.0
 20
0.0
 30
0.0
 11
-1.0
 21
-0.26794919
 31
0.0
  0
LINE
  5
46
330
42
100
AcDbEntity
  8
0
  6
BYBLOCK
 62
     0
100
AcDbLine
 10
0.0
 20
0.0
 30
0.0
 11
-1.0
 21
0.0
 31
0.0
  0
ENDBLK
  5
47
330
42
100
AcDbEntity
  8
0
100
AcDbBlockEnd
  0
BLOCK
  5
1A474
330
19D51
100
AcDbEntity
  8
0
100
AcDbBlockBegin
  2
A3WAKUKAWAJUN2017_HYOUDAI_
 70
     0
 10
0.0
 20
0.0
 30
0.0
  3
A3WAKUKAWAJUN2017_HYOUDAI_
  1

  0
LINE
  5
19D53
330
19D51
100
AcDbEntity
  8
0
100
AcDbLine
 10
13.26299999998673
 20
-0.0001000000000317
 30
0.0
 11
9.236999999990758
 21
8.999899999990987
 31
0.0
1001
ACAD
1000
ASC_BOUNDS
1002
{
1070
    19
1005
19D94
1002
}
  0
LINE
  5
19D54
330
19D51
100
AcDbEntity
  8
0
100
AcDbLine
 10
5.657999999994331
 20
0.9999999999989768
 30
0.0
 11
9.236999999990758
 21
8.999999999991019
 31
0.0
1001
ACAD
1000
ASC_BOUNDS
1002
{
1070
    19
1005
19D94
1002
}
  0
LINE
  5
19D55
330
19D51
100
AcDbEntity
  8
0
100
AcDbLine
 10
18.59199999998134
 20
-0.2368999999997641
 30
0.0
 11
16.46099999998353
 21
5.432899999994561
 31
0.0
1001
ACAD
1000
ASC_BOUNDS
1002
{
1070
    19
1005
19D95
1002
}
  0
LINE
  5
19D56
330
19D51
100
AcDbEntity
  8
0
100
AcDbLine
 10
18.59199999998134
 20
-0.2368999999997641
 30
0.0
 11
22.38199999997767
 21
8.763099999991255
 31
0.0
1001
ACAD
1000
ASC_BOUNDS
1002
{
1070
    19
1005
19D95
1002
}
  0
LINE
  5
19D57
330
19D51
100
AcDbEntity
  8
0
100
AcDbLine
 10
14.32899999998563
 20
-0.2368999999997641
 30
0.0
 11
16.46099999998353
 21
5.432899999994561
 31
0.0
1001
ACAD
1000
ASC_BOUNDS
1002
{
1070
    19
1005
19D95
1002
}
  0
LINE
  5
19D58
330
19D51
100
AcDbEntity
  8
0
100
AcDbLine
 10
14.32899999998563
 20
-0.2368999999997641
 30
0.0
 11
10.53899999998941
 21
8.763099999991255
 31
0.0
1001
ACAD
1000
ASC_BOUNDS
1002
{
1070
    19
1005
19D95
1002
}
  0
LINE
  5
19D59
330
19D51
100
AcDbEntity
  8
0
100
AcDbLine
 10
19.53899999998043
 20
-0.0001000000000317
 30
0.0
 11
23.56599999997638
 21
8.999899999990987
 31
0.0
1001
ACAD
1000
ASC_BOUNDS
1002
{
1070
    19
1005
19D96
1002
}
  0
LINE
  5
19D5A
330
19D51
100
AcDbEntity
  8
0
100
AcDbLine
 10
26.97358892824991
 20
1.383099999991202
 30
0.0
 11
23.56599999997638
 21
8.999899999990987
 31
0.0
1001
ACAD
1000
ASC_BOUNDS
1002
{
1070
    19
1005
19D96
1002
}
  0
LINE
  5
19D5B
330
19D51
100
AcDbEntity
  8
0
100
AcDbLine
 10
5.657999999994331
 20
0.9999999999989768
 30
0.0
 11
3.181999999996833
 21
4.668599999995308
 31
0.0
1001
ACAD
1000
ASC_BOUNDS
1002
{
1070
    19
1005
19D94
1002
}
  0
LINE
  5
19D5C
330
19D51
100
AcDbEntity
  8
0
100
AcDbLine
 10
4.617999999995391
 20
-0.0001000000000317
 30
0.0
 11
1.420999999998571
 21
4.736799999995242
 31
0.0
1001
ACAD
1000
ASC_BOUNDS
1002
{
1070
    19
1005
19D94
1002
}
  0
LINE
  5
19D5D
330
19D51
100
AcDbEntity
  8
0
100
AcDbLine
 10
1.420999999998571
 20
8.763099999991255
 30
0.0
 11
1.420999999998571
 21
0.0
 31
0.0
1001
ACAD
1000
ASC_BOUNDS
1002
{
1070
    19
1005
19D99
1002
}
  0
LINE
  5
19D5E
330
19D51
100
AcDbEntity
  8
0
100
AcDbLine
 10
0.0
 20
8.763099999991255
 30
0.0
 11
0.0
 21
0.0
 31
0.0
1001
ACAD
1000
ASC_BOUNDS
1002
{
1070
    19
1005
19D99
1002
}
  0
LINE
  5
19D5F
330
19D51
100
AcDbEntity
  8
0
100
AcDbLine
 10
6.766999999993232
 20
-0.0001000000000317
 30
0.0
 11
7.826999999992154
 21
2.368399999997621
 31
0.0
1001
ACAD
1000
ASC_BOUNDS
1002
{
1070
    19
1005
19D94
1002
}
  0
LINE
  5
19D60
330
19D51
100
AcDbEntity
  8
0
100
AcDbLine
 10
0.0
 20
0.0
 30
0.0
 11
1.420999999998571
 21
0.0
 31
0.0
1001
ACAD
1000
ASC_BOUNDS
1002
{
1070
    19
1005
19D99
1002
}
  0
LINE
  5
19D61
330
19D51
100
AcDbEntity
  8
0
100
AcDbLine
 10
4.617999999995391
 20
0.0
 30
0.0
 11
6.766999999993232
 21
0.0
 31
0.0
1001
ACAD
1000
ASC_BOUNDS
1002
{
1070
    19
1005
19D94
1002
}
  0
LINE
  5
19D62
330
19D51
100
AcDbEntity
  8
0
100
AcDbLine
 10
11.70599999998831
 20
-0.0001000000000317
 30
0.0
 11
10.64699999998936
 21
2.368399999997621
 31
0.0
1001
ACAD
1000
ASC_BOUNDS
1002
{
1070
    19
1005
19D94
1002
}
  0
LINE
  5
19D63
330
19D51
100
AcDbEntity
  8
0
100
AcDbLine
 10
7.826999999992154
 20
2.368399999997621
 30
0.0
 11
10.64699999998936
 21
2.368399999997621
 31
0.0
1001
ACAD
1000
ASC_BOUNDS
1002
{
1070
    19
1005
19D94
1002
}
  0
LINE
  5
19D64
330
19D51
100
AcDbEntity
  8
0
100
AcDbLine
 10
11.70599999998831
 20
0.0
 30
0.0
 11
13.26299999998673
 21
0.0
 31
0.0
1001
ACAD
1000
ASC_BOUNDS
1002
{
1070
    19
1005
19D94
1002
}
  0
LINE
  5
19D65
330
19D51
100
AcDbEntity
  8
0
100
AcDbLine
 10
22.15599999997789
 20
2.368399999997621
 30
0.0
 11
24.97599999997499
 21
2.368399999997621
 31
0.0
1001
ACAD
1000
ASC_BOUNDS
1002
{
1070
    19
1005
19D96
1002
}
  0
LINE
  5
19D66
330
19D51
100
AcDbEntity
  8
0
100
AcDbLine
 10
19.53899999998043
 20
0.0
 30
0.0
 11
21.09599999997886
 21
0.0
 31
0.0
1001
ACAD
1000
ASC_BOUNDS
1002
{
1070
    19
1005
19D96
1002
}
  0
LINE
  5
19D67
330
19D51
100
AcDbEntity
  8
0
100
AcDbLine
 10
21.09599999997886
 20
-0.0001000000000317
 30
0.0
 11
22.15599999997789
 21
2.368399999997621
 31
0.0
1001
ACAD
1000
ASC_BOUNDS
1002
{
1070
    19
1005
19D96
1002
}
  0
LINE
  5
19D68
330
19D51
100
AcDbEntity
  8
0
100
AcDbLine
 10
26.02015566812236
 20
0.0330999999912365
 30
0.0
 11
24.97599999997499
 21
2.368399999997621
 31
0.0
1001
ACAD
1000
ASC_BOUNDS
1002
{
1070
    19
1005
19D96
1002
}
  0
LINE
  5
19D69
330
19D51
100
AcDbEntity
  8
0
100
AcDbLine
 10
14.32399999998563
 20
3.315799999996671
 30
0.0
 11
16.46099999998353
 21
8.999899999990987
 31
0.0
1001
ACAD
1000
ASC_BOUNDS
1002
{
1070
    19
1005
19D95
1002
}
  0
LINE
  5
19D6A
330
19D51
100
AcDbEntity
  8
0
100
AcDbLine
 10
6.432999999993513
 20
8.763099999991255
 30
0.0
 11
3.181999999996833
 21
4.668599999995308
 31
0.0
1001
ACAD
1000
ASC_BOUNDS
1002
{
1070
    19
1005
19D94
1002
}
  0
LINE
  5
19D6B
330
19D51
100
AcDbEntity
  8
0
100
AcDbLine
 10
4.617999999995391
 20
8.763099999991255
 30
0.0
 11
1.420999999998571
 21
4.736799999995242
 31
0.0
1001
ACAD
1000
ASC_BOUNDS
1002
{
1070
    19
1005
19D94
1002
}
  0
LINE
  5
19D6C
330
19D51
100
AcDbEntity
  8
0
100
AcDbLine
 10
0.0
 20
8.763099999991255
 30
0.0
 11
1.420999999998571
 21
8.763099999991255
 31
0.0
1001
ACAD
1000
ASC_BOUNDS
1002
{
1070
    19
1005
19D99
1002
}
  0
LINE
  5
19D6D
330
19D51
100
AcDbEntity
  8
0
100
AcDbLine
 10
4.617999999995391
 20
8.763099999991255
 30
0.0
 11
6.432999999993513
 21
8.763099999991255
 31
0.0
1001
ACAD
1000
ASC_BOUNDS
1002
{
1070
    19
1005
19D94
1002
}
  0
LINE
  5
19D6E
330
19D51
100
AcDbEntity
  8
0
100
AcDbLine
 10
14.32399999998563
 20
3.315799999996671
 30
0.0
 11
12.02999999998792
 21
8.763099999991255
 31
0.0
1001
ACAD
1000
ASC_BOUNDS
1002
{
1070
    19
1005
19D95
1002
}
  0
LINE
  5
19D6F
330
19D51
100
AcDbEntity
  8
0
100
AcDbLine
 10
10.06399999998996
 20
3.670999999996297
 30
0.0
 11
9.236999999990758
 21
5.5200999999945
 31
0.0
1001
ACAD
1000
ASC_BOUNDS
1002
{
1070
    19
1005
19D94
1002
}
  0
LINE
  5
19D70
330
19D51
100
AcDbEntity
  8
0
100
AcDbLine
 10
8.409999999991555
 20
3.670999999996297
 30
0.0
 11
9.236999999990758
 21
5.5200999999945
 31
0.0
1001
ACAD
1000
ASC_BOUNDS
1002
{
1070
    19
1005
19D94
1002
}
  0
LINE
  5
19D71
330
19D51
100
AcDbEntity
  8
0
100
AcDbLine
 10
8.409999999991555
 20
3.670999999996297
 30
0.0
 11
10.06399999998996
 21
3.670999999996297
 31
0.0
1001
ACAD
1000
ASC_BOUNDS
1002
{
1070
    19
1005
19D94
1002
}
  0
LINE
  5
19D72
330
19D51
100
AcDbEntity
  8
0
100
AcDbLine
 10
10.53899999998941
 20
8.763099999991255
 30
0.0
 11
12.02999999998792
 21
8.763099999991255
 31
0.0
1001
ACAD
1000
ASC_BOUNDS
1002
{
1070
    19
1005
19D95
1002
}
  0
LINE
  5
19D73
330
19D51
100
AcDbEntity
  8
0
100
AcDbLine
 10
22.7389999999773
 20
3.670999999996297
 30
0.0
 11
23.56599999997638
 21
5.5200999999945
 31
0.0
1001
ACAD
1000
ASC_BOUNDS
1002
{
1070
    19
1005
19D96
1002
}
  0
LINE
  5
19D74
330
19D51
100
AcDbEntity
  8
0
100
AcDbLine
 10
22.7389999999773
 20
3.670999999996297
 30
0.0
 11
24.39299999997559
 21
3.670999999996297
 31
0.0
1001
ACAD
1000
ASC_BOUNDS
1002
{
1070
    19
1005
19D96
1002
}
  0
LINE
  5
19D75
330
19D51
100
AcDbEntity
  8
0
100
AcDbLine
 10
18.59799999998143
 20
3.315799999996671
 30
0.0
 11
20.89099999997916
 21
8.763099999991255
 31
0.0
1001
ACAD
1000
ASC_BOUNDS
1002
{
1070
    19
1005
19D95
1002
}
  0
LINE
  5
19D76
330
19D51
100
AcDbEntity
  8
0
100
AcDbLine
 10
18.59799999998143
 20
3.315799999996671
 30
0.0
 11
16.46099999998353
 21
8.999899999990987
 31
0.0
1001
ACAD
1000
ASC_BOUNDS
1002
{
1070
    19
1005
19D95
1002
}
  0
LINE
  5
19D77
330
19D51
100
AcDbEntity
  8
0
100
AcDbLine
 10
20.89099999997916
 20
8.763099999991255
 30
0.0
 11
22.38199999997767
 21
8.763099999991255
 31
0.0
1001
ACAD
1000
ASC_BOUNDS
1002
{
1070
    19
1005
19D95
1002
}
  0
LINE
  5
19D78
330
19D51
100
AcDbEntity
  8
0
100
AcDbLine
 10
24.39299999997559
 20
3.670999999996297
 30
0.0
 11
23.56599999997638
 21
5.5200999999945
 31
0.0
1001
ACAD
1000
ASC_BOUNDS
1002
{
1070
    19
1005
19D96
1002
}
  0
LINE
  5
19D79
330
19D51
100
AcDbEntity
  8
0
100
AcDbLine
 10
44.99999999995498
 20
-0.2368999999997641
 30
0.0
 11
40.02599999995994
 21
5.341799999994635
 31
0.0
1001
ACAD
1000
ASC_BOUNDS
1002
{
1070
    19
1005
19D98
1002
}
  0
LINE
  5
19D7A
330
19D51
100
AcDbEntity
  8
0
100
AcDbLine
 10
40.02599999995994
 20
5.341799999994635
 30
0.0
 11
40.02599999995994
 21
0.0
 31
0.0
1001
ACAD
1000
ASC_BOUNDS
1002
{
1070
    19
1005
19D98
1002
}
  0
LINE
  5
19D7B
330
19D51
100
AcDbEntity
  8
0
100
AcDbLine
 10
38.60499999996136
 20
8.999999999991019
 30
0.0
 11
38.60499999996136
 21
0.0
 31
0.0
1001
ACAD
1000
ASC_BOUNDS
1002
{
1070
    19
1005
19D98
1002
}
  0
LINE
  5
19D7C
330
19D51
100
AcDbEntity
  8
0
100
AcDbLine
 10
44.99999999995498
 20
8.763099999991255
 30
0.0
 11
44.99999999995498
 21
-0.2368999999997641
 31
0.0
1001
ACAD
1000
ASC_BOUNDS
1002
{
1070
    19
1005
19D98
1002
}
  0
LINE
  5
19D7D
330
19D51
100
AcDbEntity
  8
0
100
AcDbLine
 10
38.60499999996136
 20
0.0
 30
0.0
 11
40.02599999995994
 21
0.0
 31
0.0
1001
ACAD
1000
ASC_BOUNDS
1002
{
1070
    19
1005
19D98
1002
}
  0
LINE
  5
19D7E
330
19D51
100
AcDbEntity
  8
0
100
AcDbLine
 10
43.57899999995641
 20
3.421199999996588
 30
0.0
 11
38.60499999996136
 21
8.999899999990987
 31
0.0
1001
ACAD
1000
ASC_BOUNDS
1002
{
1070
    19
1005
19D98
1002
}
  0
LINE
  5
19D7F
330
19D51
100
AcDbEntity
  8
0
100
AcDbLine
 10
43.57899999995641
 20
8.763099999991255
 30
0.0
 11
43.57899999995641
 21
3.421199999996588
 31
0.0
1001
ACAD
1000
ASC_BOUNDS
1002
{
1070
    19
1005
19D98
1002
}
  0
LINE
  5
19D80
330
19D51
100
AcDbEntity
  8
0
100
AcDbLine
 10
43.57899999995641
 20
8.763099999991255
 30
0.0
 11
44.99999999995498
 21
8.763099999991255
 31
0.0
1001
ACAD
1000
ASC_BOUNDS
1002
{
1070
    19
1005
19D98
1002
}
  0
LINE
  5
19D81
330
19D51
100
AcDbEntity
  8
0
100
AcDbLine
 10
37.67199999996831
 20
8.763099999991255
 30
0.0
 11
36.23199999996837
 21
8.763099999991255
 31
0.0
  0
LINE
  5
19D82
330
19D51
100
AcDbEntity
  8
0
100
AcDbLine
 10
31.64199999996833
 20
8.763099999991255
 30
0.0
 11
31.64199999996833
 21
2.481619422925121
 31
0.0
  0
LINE
  5
19D83
330
19D51
100
AcDbEntity
  8
0
100
AcDbLine
 10
37.67199999996831
 20
8.763099999991255
 30
0.0
 11
37.67199999996831
 21
2.481619422925121
 31
0.0
  0
LINE
  5
19D84
330
19D51
100
AcDbEntity
  8
0
100
AcDbLine
 10
36.23199999996837
 20
8.763099999991255
 30
0.0
 11
36.23199999996837
 21
2.481619422925064
 31
0.0
  0
LINE
  5
19D85
330
19D51
100
AcDbEntity
  8
0
100
AcDbLine
 10
33.08199999996839
 20
8.763099999991255
 30
0.0
 11
33.08199999996839
 21
2.481619422925121
 31
0.0
  0
ARC
  5
19D86
330
19D51
100
AcDbEntity
  8
0
100
AcDbCircle
 10
34.65699999996832
 20
3.183099999991214
 30
0.0
 40
3.420000000000007
100
AcDbArc
 50
240.0000000000255
 51
299.9999999999766
  0
ARC
  5
19D87
330
19D51
100
AcDbEntity
  8
0
100
AcDbCircle
 10
34.65699999996832
 20
3.183099999991214
 30
0.0
 40
1.97999999999999
100
AcDbArc
 50
240.000000000026
 51
299.9999999999703
  0
LINE
  5
19D88
330
19D51
100
AcDbEntity
  8
0
100
AcDbLine
 10
33.08199999996828
 20
8.763099999991255
 30
0.0
 11
31.64199999996833
 21
8.763099999991255
 31
0.0
  0
ARC
  5
19D89
330
19D51
100
AcDbEntity
  8
0
100
AcDbCircle
 10
35.06199999996829
 20
2.481619422925064
 30
0.0
 40
1.17
100
AcDbArc
 50
299.9999999999699
 51
0.0
  0
ARC
  5
19D8A
330
19D51
100
AcDbEntity
  8
0
100
AcDbCircle
 10
34.25199999996835
 20
2.481619422925121
 30
0.0
 40
1.17
100
AcDbArc
 50
180.0
 51
240.0000000000238
  0
ARC
  5
19D8B
330
19D51
100
AcDbEntity
  8
0
100
AcDbCircle
 10
35.06199999996841
 20
2.481619422925121
 30
0.0
 40
2.61
100
AcDbArc
 50
299.9999999999756
 51
0.0
  0
ARC
  5
19D8C
330
19D51
100
AcDbEntity
  8
0
100
AcDbCircle
 10
34.25199999996835
 20
2.481619422925121
 30
0.0
 40
2.61
100
AcDbArc
 50
180.0
 51
240.0000000000244
  0
LINE
  5
19D8D
330
19D51
100
AcDbEntity
  8
0
100
AcDbLine
 10
29.30199999996933
 20
8.763099999991255
 30
0.0
 11
30.74199999996927
 21
8.763099999991255
 31
0.0
1001
ACAD
1000
ASC_BOUNDS
1002
{
1070
    19
1005
19D96
1002
}
  0
LINE
  5
19D8E
330
19D51
100
AcDbEntity
  8
0
100
AcDbLine
 10
30.74199999996927
 20
8.763099999991255
 30
0.0
 11
30.74199999996927
 21
2.373099999991211
 31
0.0
1001
ACAD
1000
ASC_BOUNDS
1002
{
1070
    19
1005
19D96
1002
}
  0
LINE
  5
19D8F
330
19D51
100
AcDbEntity
  8
0
100
AcDbLine
 10
26.02015566812236
 20
0.0330999999912365
 30
0.0
 11
28.40199999996923
 21
0.0330999999912365
 31
0.0
1001
ACAD
1000
ASC_BOUNDS
1002
{
1070
    19
1005
19D96
1002
}
  0
LINE
  5
19D90
330
19D51
100
AcDbEntity
  8
0
100
AcDbLine
 10
29.30199999996933
 20
8.763099999991255
 30
0.0
 11
29.30199999996933
 21
2.283099999991236
 31
0.0
1001
ACAD
1000
ASC_BOUNDS
1002
{
1070
    19
1005
19D96
1002
}
  0
LINE
  5
19D91
330
19D51
100
AcDbEntity
  8
0
100
AcDbLine
 10
26.97358892824991
 20
1.383099999991202
 30
0.0
 11
28.40199999996923
 21
1.383099999991202
 31
0.0
1001
ACAD
1000
ASC_BOUNDS
1002
{
1070
    19
1005
19D96
1002
}
  0
ARC
  5
19D92
330
19D51
100
AcDbEntity
  8
0
100
AcDbCircle
 10
28.40199999996923
 20
2.283099999991236
 30
0.0
 40
0.9
100
AcDbArc
 50
270.0
 51
0.0
1001
ACAD
1000
ASC_BOUNDS
1002
{
1070
    19
1005
19D96
1002
}
  0
ARC
  5
19D93
330
19D51
100
AcDbEntity
  8
0
100
AcDbCircle
 10
28.40199999996923
 20
2.373099999991211
 30
0.0
 40
2.34
100
AcDbArc
 50
270.0
 51
0.0
1001
ACAD
1000
ASC_BOUNDS
1002
{
1070
    19
1005
19D96
1002
}
  0
INSERT
  5
19D94
330
19D51
100
AcDbEntity
  8
0
100
AcDbBlockReference
  2
*X49
 10
0.0
 20
0.0
 30
0.0
1001
ACAD
1000
HATCH
1002
{
1070
    19
1000
ANSI37
1040
0.15
1040
0.0
1000
ASC_BOUNDS
1070
     2
1070
     2
1070
    12
1005
19D53
1005
19D54
1005
19D5B
1005
19D6A
1005
19D6D
1005
19D6B
1005
19D5C
1005
19D61
1005
19D5F
1005
19D63
1005
19D62
1005
19D64
1070
     2
1070
     3
1005
19D6F
1005
19D71
1005
19D70
1000
ASC_SEEDPOINT
1011
3.614004224891801
1021
2.996669441146025
1031
0.0
1000
R14_HATCH_DATA
1000
19D94
1011
1.0
1021
0.0
1031
0.0
1011
0.0
1021
1.0
1031
0.0
1011
0.0
1021
0.0
1031
1.0
1040
0.0
1010
0.0
1020
0.0
1030
1.0
1000
ANSI37
1070
     0
1070
     1
1071
        2
1071
        7
1070
     0
1070
     1
1071
       17
1040
13.26299999998673
1040
-0.0001000000000317
1040
9.236999999990758
1040
8.999899999990987
1040
9.236999999990758
1040
8.999999999991019
1040
5.657999999994331
1040
0.9999999999989768
1040
3.181999999996833
1040
4.668599999995308
1040
6.432999999993513
1040
8.763099999991255
1040
4.617999999995391
1040
8.763099999991255
1040
1.420999999998571
1040
4.736799999995242
1040
4.617999999995391
1040
-0.0001000000000317
1040
4.617999999995391
1040
0.0
1040
6.766999999993232
1040
0.0
1040
6.766999999993232
1040
-0.0001000000000317
1040
7.826999999992154
1040
2.368399999997621
1040
10.64699999998936
1040
2.368399999997621
1040
11.70599999998831
1040
-0.0001000000000317
1040
11.70599999998831
1040
0.0
1040
13.26299999998673
1040
0.0
1071
       12
1005
19D53
1005
19D54
1005
19D5B
1005
19D6A
1005
19D6D
1005
19D6B
1005
19D5C
1005
19D61
1005
19D5F
1005
19D63
1005
19D62
1005
19D64
1071
       22
1070
     0
1070
     1
1071
        3
1040
9.236999999990758
1040
5.5200999999945
1040
10.06399999998996
1040
3.670999999996297
1040
8.409999999991555
1040
3.670999999996297
1071
        3
1005
19D6F
1005
19D71
1005
19D70
1070
     0
1070
     1
1040
0.0
1040
0.15
1070
     0
1070
     2
1040
0.7853981633974483
1040
49.29960901727088
1040
-10.17736998311392
1040
-0.3367596045400932
1040
0.3367596045400932
1070
     0
1040
2.356194490192345
1040
49.29960901727088
1040
-10.17736998311392
1040
-0.3367596045400932
1040
-0.3367596045400932
1070
     0
1040
0.0110235143455945
1071
        2
1040
3.614004224891801
1040
2.996669441146025
1040
0.0
1040
3.614004224891801
1040
2.996669441146025
1040
0.0
1002
}
  0
INSERT
  5
19D95
330
19D51
100
AcDbEntity
  8
0
100
AcDbBlockReference
  2
*X50
 10
0.0
 20
0.0
 30
0.0
1001
ACAD
1000
HATCH
1002
{
1070
    19
1000
ANSI37
1040
0.15
1040
0.0
1000
ASC_BOUNDS
1070
     1
1070
     2
1070
    10
1005
19D55
1005
19D56
1005
19D77
1005
19D75
1005
19D76
1005
19D69
1005
19D6E
1005
19D72
1005
19D58
1005
19D57
1000
ASC_SEEDPOINT
1011
14.73245321214324
1021
2.798246178283421
1031
0.0
1000
R14_HATCH_DATA
1000
19D95
1011
1.0
1021
0.0
1031
0.0
1011
0.0
1021
1.0
1031
0.0
1011
0.0
1021
0.0
1031
1.0
1040
0.0
1010
0.0
1020
0.0
1030
1.0
1000
ANSI37
1070
     0
1070
     1
1071
        1
1071
        7
1070
     0
1070
     1
1071
       10
1040
16.46099999998353
1040
5.432899999994561
1040
18.59199999998134
1040
-0.2368999999997641
1040
22.38199999997767
1040
8.763099999991255
1040
20.89099999997916
1040
8.763099999991255
1040
18.59799999998143
1040
3.315799999996671
1040
16.46099999998353
1040
8.999899999990987
1040
14.32399999998563
1040
3.315799999996671
1040
12.02999999998792
1040
8.763099999991255
1040
10.53899999998941
1040
8.763099999991255
1040
14.32899999998563
1040
-0.2368999999997641
1071
       10
1005
19D55
1005
19D56
1005
19D77
1005
19D75
1005
19D76
1005
19D69
1005
19D6E
1005
19D72
1005
19D58
1005
19D57
1070
     0
1070
     1
1040
0.0
1040
0.15
1070
     0
1070
     2
1040
0.7853981633974483
1040
49.29960901727088
1040
-10.17736998311392
1040
-0.3367596045400932
1040
0.3367596045400932
1070
     0
1040
2.356194490192345
1040
49.29960901727088
1040
-10.17736998311392
1040
-0.3367596045400932
1040
-0.3367596045400932
1070
     0
1040
0.0110235143455945
1071
        1
1040
14.73245321214324
1040
2.798246178283421
1040
0.0
1002
}
  0
INSERT
  5
19D96
330
19D51
100
AcDbEntity
  8
0
100
AcDbBlockReference
  2
*X51
 10
0.0
 20
0.0
 30
0.0
1001
ACAD
1000
HATCH
1002
{
1070
    19
1000
ANSI37
1040
0.15
1040
0.0
1000
ASC_BOUNDS
1070
     2
1070
     2
1070
    13
1005
19D59
1005
19D66
1005
19D67
1005
19D65
1005
19D68
1005
19D8F
1005
19D93
1005
19D8E
1005
19D8D
1005
19D90
1005
19D92
1005
19D91
1005
19D5A
1070
     2
1070
     3
1005
19D73
1005
19D78
1005
19D74
1000
ASC_SEEDPOINT
1011
21.97929957367762
1021
3.294304244259308
1031
0.0
1000
R14_HATCH_DATA
1000
19D96
1011
1.0
1021
0.0
1031
0.0
1011
0.0
1021
1.0
1031
0.0
1011
0.0
1021
0.0
1031
1.0
1040
0.0
1010
0.0
1020
0.0
1030
1.0
1000
ANSI37
1070
     0
1070
     1
1071
        2
1071
        7
1070
     1
1070
     1
1071
       15
1040
23.56599999997638
1040
8.999899999990987
1040
0.0
1040
19.53899999998043
1040
-0.0001000000000317
1040
0.0
1040
19.53899999998043
1040
0.0
1040
0.0
1040
21.09599999997886
1040
0.0
1040
0.0
1040
21.09599999997886
1040
-0.0001000000000317
1040
0.0
1040
22.15599999997789
1040
2.368399999997621
1040
0.0
1040
24.97599999997499
1040
2.368399999997621
1040
0.0
1040
26.02015566812236
1040
0.0330999999912365
1040
0.0
1040
28.40199999996923
1040
0.0330999999912365
1040
0.414213562373095
1040
30.74199999996923
1040
2.373099999991211
1040
0.0
1040
30.74199999996927
1040
8.763099999991255
1040
0.0
1040
29.30199999996933
1040
8.763099999991255
1040
0.0
1040
29.30199999996933
1040
2.283099999991236
1040
-0.414213562373095
1040
28.40199999996923
1040
1.383099999991237
1040
0.0
1040
26.97358892824991
1040
1.383099999991202
1040
0.0
1071
       13
1005
19D59
1005
19D66
1005
19D67
1005
19D65
1005
19D68
1005
19D8F
1005
19D93
1005
19D8E
1005
19D8D
1005
19D90
1005
19D92
1005
19D91
1005
19D5A
1071
       22
1070
     0
1070
     1
1071
        3
1040
22.7389999999773
1040
3.670999999996297
1040
23.56599999997638
1040
5.5200999999945
1040
24.39299999997559
1040
3.670999999996297
1071
        3
1005
19D73
1005
19D78
1005
19D74
1070
     0
1070
     1
1040
0.0
1040
0.15
1070
     0
1070
     2
1040
0.7853981633974483
1040
49.29960901727088
1040
-10.17736998311392
1040
-0.3367596045400932
1040
0.3367596045400932
1070
     0
1040
2.356194490192345
1040
49.29960901727088
1040
-10.17736998311392
1040
-0.3367596045400932
1040
-0.3367596045400932
1070
     0
1040
0.0110235143455945
1071
        2
1040
21.97929957367762
1040
3.294304244259308
1040
0.0
1040
21.97929957367762
1040
3.294304244259308
1040
0.0
1002
}
  0
INSERT
  5
19D97
330
19D51
100
AcDbEntity
  8
0
100
AcDbBlockReference
  2
*X52
 10
0.0
 20
0.0
 30
0.0
1001
ACAD
1000
HATCH
1002
{
1070
    19
1000
ANSI37
1040
0.15
1040
0.0
1000
R14_HATCH_DATA
1000
19D97
1011
1.0
1021
0.0
1031
0.0
1011
0.0
1021
1.0
1031
0.0
1011
0.0
1021
0.0
1031
1.0
1040
0.0
1010
0.0
1020
0.0
1030
1.0
1000
ANSI37
1070
     0
1070
     1
1071
        1
1071
        7
1070
     1
1070
     1
1071
       12
1040
31.64199999996833
1040
2.481619422925121
1040
0.2679491924310942
1040
32.94699999997067
1040
0.2212931190493919
1040
0.2679491924301353
1040
36.36699999995983
1040
0.2212931190459813
1040
0.2679491924321411
1040
37.67199999996831
1040
2.481619422928361
1040
0.0
1040
37.67199999996831
1040
8.763099999991255
1040
0.0
1040
36.23199999996837
1040
8.763099999991255
1040
0.0
1040
36.23199999996837
1040
2.481619422925064
1040
-0.2679491924310291
1040
35.64699999996708
1040
1.468369700498386
1040
-0.267949192430519
1040
33.66699999997093
1040
1.468369700497703
1040
-0.267949192431809
1040
33.08199999996839
1040
2.481619422926997
1040
0.0
1040
33.08199999996839
1040
8.763099999991255
1040
0.0
1040
31.64199999996833
1040
8.763099999991255
1040
0.0
1071
        0
1070
     0
1070
     1
1040
0.0
1040
0.15
1070
     0
1070
     2
1040
0.7853981633974483
1040
49.29960901727088
1040
-10.17736998311392
1040
-0.3367596045400932
1040
0.3367596045400932
1070
     0
1040
2.356194490192345
1040
49.29960901727088
1040
-10.17736998311392
1040
-0.3367596045400932
1040
-0.3367596045400932
1070
     0
1040
0.0110235143455945
1071
        1
1040
32.30357378967278
1040
3.988785755459219
1040
0.0
1002
}
  0
INSERT
  5
19D98
330
19D51
100
AcDbEntity
  8
0
100
AcDbBlockReference
  2
*X53
 10
0.0
 20
0.0
 30
0.0
1001
ACAD
1000
HATCH
1002
{
1070
    19
1000
ANSI37
1040
0.15
1040
0.0
1000
ASC_BOUNDS
1070
     1
1070
     2
1070
     8
1005
19D79
1005
19D7C
1005
19D80
1005
19D7F
1005
19D7E
1005
19D7B
1005
19D7D
1005
19D7A
1000
ASC_SEEDPOINT
1011
39.74896370716704
1021
4.484843821435049
1031
0.0
1000
R14_HATCH_DATA
1000
19D98
1011
1.0
1021
0.0
1031
0.0
1011
0.0
1021
1.0
1031
0.0
1011
0.0
1021
0.0
1031
1.0
1040
0.0
1010
0.0
1020
0.0
1030
1.0
1000
ANSI37
1070
     0
1070
     1
1071
        1
1071
        7
1070
     0
1070
     1
1071
        9
1040
40.02599999995994
1040
5.341799999994635
1040
44.99999999995498
1040
-0.2368999999997641
1040
44.99999999995498
1040
8.763099999991255
1040
43.57899999995641
1040
8.763099999991255
1040
43.57899999995641
1040
3.421199999996588
1040
38.60499999996136
1040
8.999899999990987
1040
38.60499999996136
1040
8.999999999991019
1040
38.60499999996136
1040
0.0
1040
40.02599999995994
1040
0.0
1071
        8
1005
19D79
1005
19D7C
1005
19D80
1005
19D7F
1005
19D7E
1005
19D7B
1005
19D7D
1005
19D7A
1070
     0
1070
     1
1040
0.0
1040
0.15
1070
     0
1070
     2
1040
0.7853981633974483
1040
49.29960901727088
1040
-10.17736998311392
1040
-0.3367596045400932
1040
0.3367596045400932
1070
     0
1040
2.356194490192345
1040
49.29960901727088
1040
-10.17736998311392
1040
-0.3367596045400932
1040
-0.3367596045400932
1070
     0
1040
0.0110235143455945
1071
        1
1040
39.74896370716704
1040
4.484843821435049
1040
0.0
1002
}
  0
INSERT
  5
19D99
330
19D51
100
AcDbEntity
  8
0
100
AcDbBlockReference
  2
*X54
 10
0.0
 20
0.0
 30
0.0
1001
ACAD
1000
HATCH
1002
{
1070
    19
1000
ANSI37
1040
0.15
1040
0.0
1000
ASC_BOUNDS
1070
     1
1070
     2
1070
     4
1005
19D5D
1005
19D6C
1005
19D5E
1005
19D60
1000
ASC_SEEDPOINT
1011
1.079051535452663
1021
4.148538732891836
1031
0.0
1000
R14_HATCH_DATA
1000
19D99
1011
1.0
1021
0.0
1031
0.0
1011
0.0
1021
1.0
1031
0.0
1011
0.0
1021
0.0
1031
1.0
1040
0.0
1010
0.0
1020
0.0
1030
1.0
1000
ANSI37
1070
     0
1070
     1
1071
        1
1071
        7
1070
     0
1070
     1
1071
        4
1040
1.420999999998571
1040
0.0
1040
1.420999999998571
1040
8.763099999991255
1040
0.0
1040
8.763099999991255
1040
0.0
1040
0.0
1071
        4
1005
19D5D
1005
19D6C
1005
19D5E
1005
19D60
1070
     0
1070
     1
1040
0.0
1040
0.15
1070
     0
1070
     2
1040
0.7853981633974483
1040
49.29960901727088
1040
-10.17736998311392
1040
-0.3367596045400932
1040
0.3367596045400932
1070
     0
1040
2.356194490192345
1040
49.29960901727088
1040
-10.17736998311392
1040
-0.3367596045400932
1040
-0.3367596045400932
1070
     0
1040
0.0053004257112761
1071
        1
1040
1.079051535452663
1040
4.148538732891836
1040
0.0
1002
}
  0
ENDBLK
  5
1A475
330
19D51
100
AcDbEntity
  8
0
100
AcDbBlockEnd
  0
BLOCK
  5
1BB0B
330
1B97D
100
AcDbEntity
  8
0
100
AcDbBlockBegin
  2
*X49
 70
     1
 10
0.0
 20
0.0
 30
0.0
  3
*X49
  1

  0
LINE
  5
1B97E
330
1B97D
100
AcDbEntity
  8
0
  6
CONTINUOUS
100
AcDbLine
 10
3.418023043697893
 20
7.251849696850613
 30
0.0
 11
4.929273346838536
 21
8.763099999991255
 31
0.0
  0
LINE
  5
1B97F
330
1B97D
100
AcDbEntity
  8
0
  6
CONTINUOUS
100
AcDbLine
 10
1.483656411257782
 20
4.643963855330318
 30
0.0
 11
5.60279255591872
 21
8.763099999991255
 31
0.0
  0
LINE
  5
1B980
330
1B97D
100
AcDbEntity
  8
0
  6
CONTINUOUS
100
AcDbLine
 10
1.755053947328235
 20
4.241842182320584
 30
0.0
 11
6.276311764998907
 21
8.763099999991255
 31
0.0
  0
LINE
  5
1B981
330
1B97D
100
AcDbEntity
  8
0
  6
CONTINUOUS
100
AcDbLine
 10
2.026451483398688
 20
3.839720509310849
 30
0.0
 11
4.441040904851878
 21
6.254309930764039
 31
0.0
  0
LINE
  5
1B982
330
1B97D
100
AcDbEntity
  8
0
  6
CONTINUOUS
100
AcDbLine
 10
2.297849019469139
 20
3.437598836301114
 30
0.0
 11
3.321765168359338
 21
4.461514985191313
 31
0.0
  0
LINE
  5
1B983
330
1B97D
100
AcDbEntity
  8
0
  6
CONTINUOUS
100
AcDbLine
 10
2.569246555539591
 20
3.03547716329138
 30
0.0
 11
3.593163397972743
 21
4.059394005724531
 31
0.0
  0
LINE
  5
1B984
330
1B97D
100
AcDbEntity
  8
0
  6
CONTINUOUS
100
AcDbLine
 10
2.840644091610043
 20
2.633355490281646
 30
0.0
 11
3.864561627586149
 21
3.657273026257751
 31
0.0
  0
LINE
  5
1B985
330
1B97D
100
AcDbEntity
  8
0
  6
CONTINUOUS
100
AcDbLine
 10
3.112041627680496
 20
2.231233817271911
 30
0.0
 11
4.135959857199554
 21
3.25515204679097
 31
0.0
  0
LINE
  5
1B986
330
1B97D
100
AcDbEntity
  8
0
  6
CONTINUOUS
100
AcDbLine
 10
3.383439163750948
 20
1.829112144262177
 30
0.0
 11
4.40735808681296
 21
2.853031067324189
 31
0.0
  0
LINE
  5
1B987
330
1B97D
100
AcDbEntity
  8
0
  6
CONTINUOUS
100
AcDbLine
 10
3.654836699821399
 20
1.426990471252442
 30
0.0
 11
4.678756316426365
 21
2.450910087857407
 31
0.0
  0
LINE
  5
1B988
330
1B97D
100
AcDbEntity
  8
0
  6
CONTINUOUS
100
AcDbLine
 10
3.926234235891853
 20
1.024868798242709
 30
0.0
 11
4.95015454603977
 21
2.048789108390626
 31
0.0
  0
LINE
  5
1B989
330
1B97D
100
AcDbEntity
  8
0
  6
CONTINUOUS
100
AcDbLine
 10
4.197631771962304
 20
0.6227471252329737
 30
0.0
 11
5.221552775653176
 21
1.646668128923846
 31
0.0
  0
LINE
  5
1B98A
330
1B97D
100
AcDbEntity
  8
0
  6
CONTINUOUS
100
AcDbLine
 10
8.715877546767851
 20
7.835069736359266
 30
0.0
 11
9.435953450375058
 21
8.555145639966472
 31
0.0
  0
LINE
  5
1B98B
330
1B97D
100
AcDbEntity
  8
0
  6
CONTINUOUS
100
AcDbLine
 10
8.170620868422267
 20
6.616293848933497
 30
0.0
 11
9.644120833743461
 21
8.08979381425469
 31
0.0
  0
LINE
  5
1B98C
330
1B97D
100
AcDbEntity
  8
0
  6
CONTINUOUS
100
AcDbLine
 10
7.625364190076684
 20
5.397517961507727
 30
0.0
 11
9.852288217111864
 21
7.624441988542907
 31
0.0
  0
LINE
  5
1B98D
330
1B97D
100
AcDbEntity
  8
0
  6
CONTINUOUS
100
AcDbLine
 10
7.080107511731101
 20
4.178742074081957
 30
0.0
 11
10.06045560048027
 21
7.159090162831124
 31
0.0
  0
LINE
  5
1B98E
330
1B97D
100
AcDbEntity
  8
0
  6
CONTINUOUS
100
AcDbLine
 10
6.534850833385518
 20
2.959966186656187
 30
0.0
 11
10.26862298384867
 21
6.693738337119342
 31
0.0
  0
LINE
  5
1B98F
330
1B97D
100
AcDbEntity
  8
0
  6
CONTINUOUS
100
AcDbLine
 10
4.469029308032756
 20
0.2206254522232385
 30
0.0
 11
5.492951005266582
 21
1.244547149457064
 31
0.0
  0
LINE
  5
1B990
330
1B97D
100
AcDbEntity
  8
0
  6
CONTINUOUS
100
AcDbLine
 10
5.989594155039935
 20
1.741190299230417
 30
0.0
 11
8.806950407233131
 21
4.558546551423613
 31
0.0
  0
LINE
  5
1B991
330
1B97D
100
AcDbEntity
  8
0
  6
CONTINUOUS
100
AcDbLine
 10
9.401251593263643
 20
5.152847737454126
 30
0.0
 11
10.47679036721708
 21
6.228386511407559
 31
0.0
  0
LINE
  5
1B992
330
1B97D
100
AcDbEntity
  8
0
  6
CONTINUOUS
100
AcDbLine
 10
4.921837203428691
 20
-0.0000858614610131
 30
0.0
 11
8.592923064886001
 21
3.670999999996297
 31
0.0
  0
LINE
  5
1B993
330
1B97D
100
AcDbEntity
  8
0
  6
CONTINUOUS
100
AcDbLine
 10
9.609390446785305
 20
4.6874673818956
 30
0.0
 11
10.68495775058548
 21
5.763034685695775
 31
0.0
  0
LINE
  5
1B994
330
1B97D
100
AcDbEntity
  8
0
  6
CONTINUOUS
100
AcDbLine
 10
5.595387755019432
 20
-0.0000545189504582
 30
0.0
 11
7.716137258923768
 21
2.120694984953879
 31
0.0
  0
LINE
  5
1B995
330
1B97D
100
AcDbEntity
  8
0
  6
CONTINUOUS
100
AcDbLine
 10
6.268938306610172
 20
-0.000023176439905
 30
0.0
 11
7.170485805526503
 21
0.9015243224764267
 31
0.0
  0
LINE
  5
1B996
330
1B97D
100
AcDbEntity
  8
0
  6
CONTINUOUS
100
AcDbLine
 10
7.963842273967511
 20
2.368399999997621
 30
0.0
 11
9.266442273966188
 21
3.670999999996297
 31
0.0
  0
LINE
  5
1B997
330
1B97D
100
AcDbEntity
  8
0
  6
CONTINUOUS
100
AcDbLine
 10
8.637361483047696
 20
2.368399999997621
 30
0.0
 11
9.939961483046375
 21
3.670999999996297
 31
0.0
  0
LINE
  5
1B998
330
1B97D
100
AcDbEntity
  8
0
  6
CONTINUOUS
100
AcDbLine
 10
9.817529300306965
 20
4.222087026337075
 30
0.0
 11
10.89312513395388
 21
5.297682859983993
 31
0.0
  0
LINE
  5
1B999
330
1B97D
100
AcDbEntity
  8
0
  6
CONTINUOUS
100
AcDbLine
 10
10.02566815382863
 20
3.756706670778549
 30
0.0
 11
11.10129251732229
 21
4.832331034272211
 31
0.0
  0
LINE
  5
1B99A
330
1B97D
100
AcDbEntity
  8
0
  6
CONTINUOUS
100
AcDbLine
 10
9.310880692127883
 20
2.368399999997621
 30
0.0
 11
11.30945990069069
 21
4.366979208560428
 31
0.0
  0
LINE
  5
1B99B
330
1B97D
100
AcDbEntity
  8
0
  6
CONTINUOUS
100
AcDbLine
 10
9.98439990120807
 20
2.36839999999762
 30
0.0
 11
11.5176272840591
 21
3.901627382848645
 31
0.0
  0
LINE
  5
1B99C
330
1B97D
100
AcDbEntity
  8
0
  6
CONTINUOUS
100
AcDbLine
 10
10.65037369446246
 20
2.36085458417182
 30
0.0
 11
11.7257946674275
 21
3.436275557136862
 31
0.0
  0
LINE
  5
1B99D
330
1B97D
100
AcDbEntity
  8
0
  6
CONTINUOUS
100
AcDbLine
 10
10.85847197087848
 20
1.895433651507656
 30
0.0
 11
11.9339620507959
 21
2.97092373142508
 31
0.0
  0
LINE
  5
1B99E
330
1B97D
100
AcDbEntity
  8
0
  6
CONTINUOUS
100
AcDbLine
 10
11.0665702472945
 20
1.430012718843491
 30
0.0
 11
12.14212943416431
 21
2.505571905713296
 31
0.0
  0
LINE
  5
1B99F
330
1B97D
100
AcDbEntity
  8
0
  6
CONTINUOUS
100
AcDbLine
 10
11.27466852371052
 20
0.9645917861793256
 30
0.0
 11
12.35029681753271
 21
2.040220080001513
 31
0.0
  0
LINE
  5
1B9A0
330
1B97D
100
AcDbEntity
  8
0
  6
CONTINUOUS
100
AcDbLine
 10
11.48276680012654
 20
0.4991708535151611
 30
0.0
 11
12.55846420090111
 21
1.57486825428973
 31
0.0
  0
LINE
  5
1B9A1
330
1B97D
100
AcDbEntity
  8
0
  6
CONTINUOUS
100
AcDbLine
 10
11.69086507654257
 20
0.0337499208509957
 30
0.0
 11
12.76663158426952
 21
1.109516428577947
 31
0.0
  0
LINE
  5
1B9A2
330
1B97D
100
AcDbEntity
  8
0
  6
CONTINUOUS
100
AcDbLine
 10
12.33057447873954
 20
-0.0000598860322123
 30
0.0
 11
12.97479896763792
 21
0.6441646028661663
 31
0.0
  0
LINE
  5
1B9A3
330
1B97D
100
AcDbEntity
  8
0
  6
CONTINUOUS
100
AcDbLine
 10
13.00413694809395
 20
-0.0000166257579952
 30
0.0
 11
13.18296635100632
 21
0.1788127771543824
 31
0.0
  0
LINE
  5
1B9A4
330
1B97D
100
AcDbEntity
  8
0
  6
CONTINUOUS
100
AcDbLine
 10
4.772852165289667
 20
-0.000092794222212
 30
0.0
 11
4.296495091028902
 21
0.4762642800385528
 31
0.0
  0
LINE
  5
1B9A5
330
1B97D
100
AcDbEntity
  8
0
  6
CONTINUOUS
100
AcDbLine
 10
5.446340034776103
 20
-0.0000614546284616
 30
0.0
 11
2.898195908335625
 21
2.548082671812017
 31
0.0
  0
LINE
  5
1B9A6
330
1B97D
100
AcDbEntity
  8
0
  6
CONTINUOUS
100
AcDbLine
 10
6.119827904262539
 20
-0.0000301150347113
 30
0.0
 11
1.499896725642348
 21
4.61990106358548
 31
0.0
  0
LINE
  5
1B9A7
330
1B97D
100
AcDbEntity
  8
0
  6
CONTINUOUS
100
AcDbLine
 10
6.775136745476159
 20
0.0181802528318542
 30
0.0
 11
5.699826040202669
 21
1.093490958105344
 31
0.0
  0
LINE
  5
1B9A8
330
1B97D
100
AcDbEntity
  8
0
  6
CONTINUOUS
100
AcDbLine
 10
6.983376846288489
 20
0.4834593610997118
 30
0.0
 11
5.908008617934405
 21
1.558827589453796
 31
0.0
  0
LINE
  5
1B9A9
330
1B97D
100
AcDbEntity
  8
0
  6
CONTINUOUS
100
AcDbLine
 10
5.377063484962296
 20
1.416253513345719
 30
0.0
 11
1.702276957014131
 21
5.091040041293883
 31
0.0
  0
LINE
  5
1B9AA
330
1B97D
100
AcDbEntity
  8
0
  6
CONTINUOUS
100
AcDbLine
 10
3.978745891735324
 20
3.488090315652877
 30
0.0
 11
2.000373521109399
 21
5.466462686278803
 31
0.0
  0
LINE
  5
1B9AB
330
1B97D
100
AcDbEntity
  8
0
  6
CONTINUOUS
100
AcDbLine
 10
7.191616947100819
 20
0.948738469367568
 30
0.0
 11
6.11619119566614
 21
2.024164220802247
 31
0.0
  0
LINE
  5
1B9AC
330
1B97D
100
AcDbEntity
  8
0
  6
CONTINUOUS
100
AcDbLine
 10
7.399857047913149
 20
1.414017577635424
 30
0.0
 11
6.324373773397875
 21
2.489500852150698
 31
0.0
  0
LINE
  5
1B9AD
330
1B97D
100
AcDbEntity
  8
0
  6
CONTINUOUS
100
AcDbLine
 10
7.608097148725479
 20
1.879296685903281
 30
0.0
 11
6.53255635112961
 21
2.95483748349915
 31
0.0
  0
LINE
  5
1B9AE
330
1B97D
100
AcDbEntity
  8
0
  6
CONTINUOUS
100
AcDbLine
 10
7.816337249537808
 20
2.344575794171138
 30
0.0
 11
6.740738928861345
 21
3.420174114847601
 31
0.0
  0
LINE
  5
1B9AF
330
1B97D
100
AcDbEntity
  8
0
  6
CONTINUOUS
100
AcDbLine
 10
3.310241080789734
 20
4.830114335678653
 30
0.0
 11
2.298470085204666
 21
5.84188533126372
 31
0.0
  0
LINE
  5
1B9B0
330
1B97D
100
AcDbEntity
  8
0
  6
CONTINUOUS
100
AcDbLine
 10
3.60832983563551
 20
5.205544789913063
 30
0.0
 11
2.596566649299935
 21
6.217307976248638
 31
0.0
  0
LINE
  5
1B9B1
330
1B97D
100
AcDbEntity
  8
0
  6
CONTINUOUS
100
AcDbLine
 10
3.906418590481286
 20
5.580975244147473
 30
0.0
 11
2.894663213395203
 21
6.592730621233557
 31
0.0
  0
LINE
  5
1B9B2
330
1B97D
100
AcDbEntity
  8
0
  6
CONTINUOUS
100
AcDbLine
 10
4.204507345327062
 20
5.956405698381884
 30
0.0
 11
3.192759777490472
 21
6.968153266218474
 31
0.0
  0
LINE
  5
1B9B3
330
1B97D
100
AcDbEntity
  8
0
  6
CONTINUOUS
100
AcDbLine
 10
8.466032252791512
 20
2.368399999997621
 30
0.0
 11
6.948921506593081
 21
3.885510746196053
 31
0.0
  0
LINE
  5
1B9B4
330
1B97D
100
AcDbEntity
  8
0
  6
CONTINUOUS
100
AcDbLine
 10
9.139551461871699
 20
2.36839999999762
 30
0.0
 11
7.157104084324816
 21
4.350847377544504
 31
0.0
  0
LINE
  5
1B9B5
330
1B97D
100
AcDbEntity
  8
0
  6
CONTINUOUS
100
AcDbLine
 10
4.502596100172839
 20
6.331836152616295
 30
0.0
 11
3.49085634158574
 21
7.343575911203393
 31
0.0
  0
LINE
  5
1B9B6
330
1B97D
100
AcDbEntity
  8
0
  6
CONTINUOUS
100
AcDbLine
 10
4.800684855018615
 20
6.707266606850705
 30
0.0
 11
3.788952905681008
 21
7.718998556188312
 31
0.0
  0
LINE
  5
1B9B7
330
1B97D
100
AcDbEntity
  8
0
  6
CONTINUOUS
100
AcDbLine
 10
12.18154012887317
 20
-0.0000694579236642
 30
0.0
 11
11.32140332908496
 21
0.8600673418645499
 31
0.0
  0
LINE
  5
1B9B8
330
1B97D
100
AcDbEntity
  8
0
  6
CONTINUOUS
100
AcDbLine
 10
12.85501608323566
 20
-0.0000262032059659
 30
0.0
 11
10.77672456435345
 21
2.078265315676246
 31
0.0
  0
LINE
  5
1B9B9
330
1B97D
100
AcDbEntity
  8
0
  6
CONTINUOUS
100
AcDbLine
 10
9.813070670951886
 20
2.36839999999762
 30
0.0
 11
8.51047067095321
 21
3.670999999996297
 31
0.0
  0
LINE
  5
1B9BA
330
1B97D
100
AcDbEntity
  8
0
  6
CONTINUOUS
100
AcDbLine
 10
10.48658988003207
 20
2.36839999999762
 30
0.0
 11
9.183989880033396
 21
3.670999999996297
 31
0.0
  0
LINE
  5
1B9BB
330
1B97D
100
AcDbEntity
  8
0
  6
CONTINUOUS
100
AcDbLine
 10
8.441048632286794
 20
3.740422038662712
 30
0.0
 11
7.365286662056551
 21
4.816184008892956
 31
0.0
  0
LINE
  5
1B9BC
330
1B97D
100
AcDbEntity
  8
0
  6
CONTINUOUS
100
AcDbLine
 10
8.649187485808454
 20
4.205802394221237
 30
0.0
 11
7.573469239788285
 21
5.281520640241407
 31
0.0
  0
LINE
  5
1B9BD
330
1B97D
100
AcDbEntity
  8
0
  6
CONTINUOUS
100
AcDbLine
 10
5.098773609864391
 20
7.082697061085115
 30
0.0
 11
4.087049469776277
 21
8.09442120117323
 31
0.0
  0
LINE
  5
1B9BE
330
1B97D
100
AcDbEntity
  8
0
  6
CONTINUOUS
100
AcDbLine
 10
5.396862364710167
 20
7.458127515319526
 30
0.0
 11
4.385146033871544
 21
8.469843846158149
 31
0.0
  0
LINE
  5
1B9BF
330
1B97D
100
AcDbEntity
  8
0
  6
CONTINUOUS
100
AcDbLine
 10
13.04801363231285
 20
0.4804954567970334
 30
0.0
 11
9.85750908911358
 21
3.670999999996297
 31
0.0
  0
LINE
  5
1B9C0
330
1B97D
100
AcDbEntity
  8
0
  6
CONTINUOUS
100
AcDbLine
 10
8.857326339330116
 20
4.671182749779763
 30
0.0
 11
7.781651817520021
 21
5.746857271589858
 31
0.0
  0
LINE
  5
1B9C1
330
1B97D
100
AcDbEntity
  8
0
  6
CONTINUOUS
100
AcDbLine
 10
5.694951119555943
 20
7.833557969553937
 30
0.0
 11
4.765409089118624
 21
8.763099999991255
 31
0.0
  0
LINE
  5
1B9C2
330
1B97D
100
AcDbEntity
  8
0
  6
CONTINUOUS
100
AcDbLine
 10
12.50286117236978
 20
1.699167125820288
 30
0.0
 11
9.68611877250287
 21
4.515909525687196
 31
0.0
  0
LINE
  5
1B9C3
330
1B97D
100
AcDbEntity
  8
0
  6
CONTINUOUS
100
AcDbLine
 10
9.065465192851777
 20
5.136563105338288
 30
0.0
 11
7.989834395251757
 21
6.21219390293831
 31
0.0
  0
LINE
  5
1B9C4
330
1B97D
100
AcDbEntity
  8
0
  6
CONTINUOUS
100
AcDbLine
 10
5.993039874401719
 20
8.208988423788346
 30
0.0
 11
5.43892829819881
 21
8.763099999991255
 31
0.0
  0
LINE
  5
1B9C5
330
1B97D
100
AcDbEntity
  8
0
  6
CONTINUOUS
100
AcDbLine
 10
11.95770871242671
 20
2.917838794843543
 30
0.0
 11
8.19801697298349
 21
6.677530534286761
 31
0.0
  0
LINE
  5
1B9C6
330
1B97D
100
AcDbEntity
  8
0
  6
CONTINUOUS
100
AcDbLine
 10
6.291128629247495
 20
8.584418878022756
 30
0.0
 11
6.112447507278997
 21
8.763099999991255
 31
0.0
  0
LINE
  5
1B9C7
330
1B97D
100
AcDbEntity
  8
0
  6
CONTINUOUS
100
AcDbLine
 10
11.41255625248364
 20
4.136510463866797
 30
0.0
 11
8.406199550715227
 21
7.142867165635211
 31
0.0
  0
LINE
  5
1B9C8
330
1B97D
100
AcDbEntity
  8
0
  6
CONTINUOUS
100
AcDbLine
 10
10.86740379254057
 20
5.355182132890051
 30
0.0
 11
8.614382128446962
 21
7.608203796983664
 31
0.0
  0
LINE
  5
1B9C9
330
1B97D
100
AcDbEntity
  8
0
  6
CONTINUOUS
100
AcDbLine
 10
10.3222513325975
 20
6.573853801913305
 30
0.0
 11
8.822564706178696
 21
8.073540428332114
 31
0.0
  0
LINE
  5
1B9CA
330
1B97D
100
AcDbEntity
  8
0
  6
CONTINUOUS
100
AcDbLine
 10
9.777098872654436
 20
7.792525470936562
 30
0.0
 11
9.030747283910433
 21
8.538877059680566
 31
0.0
  0
ENDBLK
  5
1BB0C
330
1B97D
100
AcDbEntity
  8
0
100
AcDbBlockEnd
  0
BLOCK
  5
1BB0D
330
1B9CB
100
AcDbEntity
  8
0
100
AcDbBlockBegin
  2
*X50
 70
     1
 10
0.0
 20
0.0
 30
0.0
  3
*X50
  1

  0
LINE
  5
1B9CC
330
1B9CB
100
AcDbEntity
  8
0
  6
CONTINUOUS
100
AcDbLine
 10
10.67292308101235
 20
8.445076852443387
 30
0.0
 11
10.99094622856022
 21
8.763099999991255
 31
0.0
  0
LINE
  5
1B9CD
330
1B9CB
100
AcDbEntity
  8
0
  6
CONTINUOUS
100
AcDbLine
 10
10.87250383178748
 20
7.971138394138331
 30
0.0
 11
11.6644654376404
 21
8.763099999991255
 31
0.0
  0
LINE
  5
1B9CE
330
1B9CB
100
AcDbEntity
  8
0
  6
CONTINUOUS
100
AcDbLine
 10
11.07208458256261
 20
7.497199935833273
 30
0.0
 11
12.12126590876355
 21
8.546381262034211
 31
0.0
  0
LINE
  5
1B9CF
330
1B9CB
100
AcDbEntity
  8
0
  6
CONTINUOUS
100
AcDbLine
 10
11.27166533333774
 20
7.023261477528216
 30
0.0
 11
12.32085164573666
 21
8.072447789927136
 31
0.0
  0
LINE
  5
1B9D0
330
1B9CB
100
AcDbEntity
  8
0
  6
CONTINUOUS
100
AcDbLine
 10
11.47124608411287
 20
6.549323019223158
 30
0.0
 11
12.52043738270977
 21
7.59851431782006
 31
0.0
  0
LINE
  5
1B9D1
330
1B9CB
100
AcDbEntity
  8
0
  6
CONTINUOUS
100
AcDbLine
 10
11.670826834888
 20
6.075384560918101
 30
0.0
 11
12.72002311968288
 21
7.124580845712984
 31
0.0
  0
LINE
  5
1B9D2
330
1B9CB
100
AcDbEntity
  8
0
  6
CONTINUOUS
100
AcDbLine
 10
11.87040758566313
 20
5.601446102613043
 30
0.0
 11
12.91960885665599
 21
6.650647373605907
 31
0.0
  0
LINE
  5
1B9D3
330
1B9CB
100
AcDbEntity
  8
0
  6
CONTINUOUS
100
AcDbLine
 10
12.06998833643825
 20
5.127507644307986
 30
0.0
 11
13.1191945936291
 21
6.176713901498832
 31
0.0
  0
LINE
  5
1B9D4
330
1B9CB
100
AcDbEntity
  8
0
  6
CONTINUOUS
100
AcDbLine
 10
12.26956908721338
 20
4.65356918600293
 30
0.0
 11
13.31878033060221
 21
5.702780429391757
 31
0.0
  0
LINE
  5
1B9D5
330
1B9CB
100
AcDbEntity
  8
0
  6
CONTINUOUS
100
AcDbLine
 10
12.46914983798851
 20
4.179630727697873
 30
0.0
 11
13.51836606757532
 21
5.228846957284683
 31
0.0
  0
LINE
  5
1B9D6
330
1B9CB
100
AcDbEntity
  8
0
  6
CONTINUOUS
100
AcDbLine
 10
12.66873058876364
 20
3.705692269392816
 30
0.0
 11
13.71795180454843
 21
4.754913485177607
 31
0.0
  0
LINE
  5
1B9D7
330
1B9CB
100
AcDbEntity
  8
0
  6
CONTINUOUS
100
AcDbLine
 10
12.86831133953877
 20
3.231753811087759
 30
0.0
 11
13.91753754152154
 21
4.280980013070531
 31
0.0
  0
LINE
  5
1B9D8
330
1B9CB
100
AcDbEntity
  8
0
  6
CONTINUOUS
100
AcDbLine
 10
13.0678920903139
 20
2.757815352782702
 30
0.0
 11
14.11712327849465
 21
3.807046540963456
 31
0.0
  0
LINE
  5
1B9D9
330
1B9CB
100
AcDbEntity
  8
0
  6
CONTINUOUS
100
AcDbLine
 10
13.26747284108903
 20
2.283876894477644
 30
0.0
 11
14.31670901546777
 21
3.333113068856379
 31
0.0
  0
LINE
  5
1B9DA
330
1B9CB
100
AcDbEntity
  8
0
  6
CONTINUOUS
100
AcDbLine
 10
16.36767838827179
 20
8.751678487061342
 30
0.0
 11
16.50332410898388
 21
8.887324207773432
 31
0.0
  0
LINE
  5
1B9DB
330
1B9CB
100
AcDbEntity
  8
0
  6
CONTINUOUS
100
AcDbLine
 10
15.96190732182191
 20
7.67238821153127
 30
0.0
 11
16.68735328004734
 21
8.397834169756699
 31
0.0
  0
LINE
  5
1B9DC
330
1B9CB
100
AcDbEntity
  8
0
  6
CONTINUOUS
100
AcDbLine
 10
15.55613625537202
 20
6.593097936001196
 30
0.0
 11
16.87138245111079
 21
7.908344131739965
 31
0.0
  0
LINE
  5
1B9DD
330
1B9CB
100
AcDbEntity
  8
0
  6
CONTINUOUS
100
AcDbLine
 10
15.15036518892213
 20
5.513807660471122
 30
0.0
 11
17.05541162217424
 21
7.418854093723231
 31
0.0
  0
LINE
  5
1B9DE
330
1B9CB
100
AcDbEntity
  8
0
  6
CONTINUOUS
100
AcDbLine
 10
14.74459412247225
 20
4.434517384941048
 30
0.0
 11
17.2394407932377
 21
6.929364055706499
 31
0.0
  0
LINE
  5
1B9DF
330
1B9CB
100
AcDbEntity
  8
0
  6
CONTINUOUS
100
AcDbLine
 10
14.33882305602236
 20
3.355227109410975
 30
0.0
 11
17.42346996430115
 21
6.439874017689766
 31
0.0
  0
LINE
  5
1B9E0
330
1B9CB
100
AcDbEntity
  8
0
  6
CONTINUOUS
100
AcDbLine
 10
13.46705359186416
 20
1.809938436172586
 30
0.0
 11
16.0819338255367
 21
4.424818669845129
 31
0.0
  0
LINE
  5
1B9E1
330
1B9CB
100
AcDbEntity
  8
0
  6
CONTINUOUS
100
AcDbLine
 10
16.63283254238972
 20
4.975717386698149
 30
0.0
 11
17.60749913536461
 21
5.950383979673033
 31
0.0
  0
LINE
  5
1B9E2
330
1B9CB
100
AcDbEntity
  8
0
  6
CONTINUOUS
100
AcDbLine
 10
13.66663434263929
 20
1.335999977867529
 30
0.0
 11
15.67604797733754
 21
3.345413612565779
 31
0.0
  0
LINE
  5
1B9E3
330
1B9CB
100
AcDbEntity
  8
0
  6
CONTINUOUS
100
AcDbLine
 10
13.86621509341442
 20
0.8620615195624723
 30
0.0
 11
15.27016212913838
 21
2.26600855528643
 31
0.0
  0
LINE
  5
1B9E4
330
1B9CB
100
AcDbEntity
  8
0
  6
CONTINUOUS
100
AcDbLine
 10
16.81682257348267
 20
4.486188208710908
 30
0.0
 11
17.79152830642806
 21
5.460893941656299
 31
0.0
  0
LINE
  5
1B9E5
330
1B9CB
100
AcDbEntity
  8
0
  6
CONTINUOUS
100
AcDbLine
 10
17.00081260457561
 20
3.996659030723667
 30
0.0
 11
17.97555747749151
 21
4.971403903639565
 31
0.0
  0
LINE
  5
1B9E6
330
1B9CB
100
AcDbEntity
  8
0
  6
CONTINUOUS
100
AcDbLine
 10
20.74362343514722
 20
8.412989070375462
 30
0.0
 11
21.09373436476302
 21
8.763099999991256
 31
0.0
  0
LINE
  5
1B9E7
330
1B9CB
100
AcDbEntity
  8
0
  6
CONTINUOUS
100
AcDbLine
 10
20.25401257174777
 20
7.249858997895826
 30
0.0
 11
21.7672535738432
 21
8.763099999991255
 31
0.0
  0
LINE
  5
1B9E8
330
1B9CB
100
AcDbEntity
  8
0
  6
CONTINUOUS
100
AcDbLine
 10
14.06579584418955
 20
0.3881230612574149
 30
0.0
 11
14.86427628093921
 21
1.186603498007082
 31
0.0
  0
LINE
  5
1B9E9
330
1B9CB
100
AcDbEntity
  8
0
  6
CONTINUOUS
100
AcDbLine
 10
14.26537659496467
 20
-0.0858153970476412
 30
0.0
 11
14.45839043274005
 21
0.1071984407277329
 31
0.0
  0
LINE
  5
1B9EA
330
1B9CB
100
AcDbEntity
  8
0
  6
CONTINUOUS
100
AcDbLine
 10
17.18480263566856
 20
3.507129852736426
 30
0.0
 11
18.15958664855496
 21
4.481913865622833
 31
0.0
  0
LINE
  5
1B9EB
330
1B9CB
100
AcDbEntity
  8
0
  6
CONTINUOUS
100
AcDbLine
 10
17.3687926667615
 20
3.017600674749186
 30
0.0
 11
18.34361581961842
 21
3.9924238276061
 31
0.0
  0
LINE
  5
1B9EC
330
1B9CB
100
AcDbEntity
  8
0
  6
CONTINUOUS
100
AcDbLine
 10
19.76440170834832
 20
6.086728925416191
 30
0.0
 11
22.33924590259489
 21
8.661573119662755
 31
0.0
  0
LINE
  5
1B9ED
330
1B9CB
100
AcDbEntity
  8
0
  6
CONTINUOUS
100
AcDbLine
 10
19.27479084494887
 20
4.923598852936555
 30
0.0
 11
21.84929622842713
 21
7.498104236414807
 31
0.0
  0
LINE
  5
1B9EE
330
1B9CB
100
AcDbEntity
  8
0
  6
CONTINUOUS
100
AcDbLine
 10
17.55278269785445
 20
2.528071496761945
 30
0.0
 11
18.52764499068187
 21
3.502933789589366
 31
0.0
  0
LINE
  5
1B9EF
330
1B9CB
100
AcDbEntity
  8
0
  6
CONTINUOUS
100
AcDbLine
 10
18.78517998154942
 20
3.760468780456919
 30
0.0
 11
21.35934655425936
 21
6.33463535316686
 31
0.0
  0
LINE
  5
1B9F0
330
1B9CB
100
AcDbEntity
  8
0
  6
CONTINUOUS
100
AcDbLine
 10
17.73677272894739
 20
2.038542318774704
 30
0.0
 11
20.8693968800916
 21
5.171166469918914
 31
0.0
  0
LINE
  5
1B9F1
330
1B9CB
100
AcDbEntity
  8
0
  6
CONTINUOUS
100
AcDbLine
 10
17.92076276004034
 20
1.549013140787464
 30
0.0
 11
20.37944720592384
 21
4.007697586670968
 31
0.0
  0
LINE
  5
1B9F2
330
1B9CB
100
AcDbEntity
  8
0
  6
CONTINUOUS
100
AcDbLine
 10
18.10475279113329
 20
1.059483962800223
 30
0.0
 11
19.88949753175608
 21
2.84422870342302
 31
0.0
  0
LINE
  5
1B9F3
330
1B9CB
100
AcDbEntity
  8
0
  6
CONTINUOUS
100
AcDbLine
 10
18.28874282222623
 20
0.5699547848129822
 30
0.0
 11
19.39954785758832
 21
1.680759820175074
 31
0.0
  0
LINE
  5
1B9F4
330
1B9CB
100
AcDbEntity
  8
0
  6
CONTINUOUS
100
AcDbLine
 10
18.47273285331918
 20
0.0804256068257416
 30
0.0
 11
18.90959818342056
 21
0.517290936927127
 31
0.0
  0
LINE
  5
1B9F5
330
1B9CB
100
AcDbEntity
  8
0
  6
CONTINUOUS
100
AcDbLine
 10
14.3590401358224
 20
-0.1570118376323384
 30
0.0
 11
14.24903296539946
 21
-0.0470046672093929
 31
0.0
  0
LINE
  5
1B9F6
330
1B9CB
100
AcDbEntity
  8
0
  6
CONTINUOUS
100
AcDbLine
 10
14.54309291258661
 20
0.332454594683643
 30
0.0
 11
13.75908329123172
 21
1.116464216038529
 31
0.0
  0
LINE
  5
1B9F7
330
1B9CB
100
AcDbEntity
  8
0
  6
CONTINUOUS
100
AcDbLine
 10
14.72714568935081
 20
0.8219210269996244
 30
0.0
 11
13.26913361706399
 21
2.27993309928645
 31
0.0
  0
LINE
  5
1B9F8
330
1B9CB
100
AcDbEntity
  8
0
  6
CONTINUOUS
100
AcDbLine
 10
14.91119846611502
 20
1.311387459315606
 30
0.0
 11
12.77918394289625
 21
3.443401982534371
 31
0.0
  0
LINE
  5
1B9F9
330
1B9CB
100
AcDbEntity
  8
0
  6
CONTINUOUS
100
AcDbLine
 10
15.09525124287922
 20
1.800853891631587
 30
0.0
 11
12.28923426872852
 21
4.606870865782293
 31
0.0
  0
LINE
  5
1B9FA
330
1B9CB
100
AcDbEntity
  8
0
  6
CONTINUOUS
100
AcDbLine
 10
15.27930401964343
 20
2.290320323947569
 30
0.0
 11
11.79928459456078
 21
5.770339749030213
 31
0.0
  0
LINE
  5
1B9FB
330
1B9CB
100
AcDbEntity
  8
0
  6
CONTINUOUS
100
AcDbLine
 10
15.46335679640763
 20
2.77978675626355
 30
0.0
 11
14.48885470994921
 21
3.754288842721972
 31
0.0
  0
LINE
  5
1B9FC
330
1B9CB
100
AcDbEntity
  8
0
  6
CONTINUOUS
100
AcDbLine
 10
13.88507249233704
 20
4.358071060334137
 30
0.0
 11
11.30933492039305
 21
6.933808632278135
 31
0.0
  0
LINE
  5
1B9FD
330
1B9CB
100
AcDbEntity
  8
0
  6
CONTINUOUS
100
AcDbLine
 10
18.75840522805855
 20
0.1582575336928151
 30
0.0
 11
18.25383727664818
 21
0.6628254851031863
 31
0.0
  0
LINE
  5
1B9FE
330
1B9CB
100
AcDbEntity
  8
0
  6
CONTINUOUS
100
AcDbLine
 10
15.64740957317184
 20
3.269253188579531
 30
0.0
 11
14.67288388101266
 21
4.243778880738705
 31
0.0
  0
LINE
  5
1B9FF
330
1B9CB
100
AcDbEntity
  8
0
  6
CONTINUOUS
100
AcDbLine
 10
13.39509276772158
 20
5.521569994029786
 30
0.0
 11
10.81938524622531
 21
8.097277515526056
 31
0.0
  0
LINE
  5
1BA00
330
1B9CB
100
AcDbEntity
  8
0
  6
CONTINUOUS
100
AcDbLine
 10
18.95798597883369
 20
0.6321959919978686
 30
0.0
 11
17.84825644852853
 21
1.741925522303024
 31
0.0
  0
LINE
  5
1BA01
330
1B9CB
100
AcDbEntity
  8
0
  6
CONTINUOUS
100
AcDbLine
 10
19.15756672960882
 20
1.106134450302922
 30
0.0
 11
17.44267562040888
 21
2.821025559502861
 31
0.0
  0
LINE
  5
1BA02
330
1B9CB
100
AcDbEntity
  8
0
  6
CONTINUOUS
100
AcDbLine
 10
15.83146234993604
 20
3.758719620895513
 30
0.0
 11
14.85691305207612
 21
4.733268918755439
 31
0.0
  0
LINE
  5
1BA03
330
1B9CB
100
AcDbEntity
  8
0
  6
CONTINUOUS
100
AcDbLine
 10
16.01551512670025
 20
4.248186053211494
 30
0.0
 11
15.04094222313957
 21
5.222758956772172
 31
0.0
  0
LINE
  5
1BA04
330
1B9CB
100
AcDbEntity
  8
0
  6
CONTINUOUS
100
AcDbLine
 10
12.90511304310612
 20
6.685068927725435
 30
0.0
 11
10.8270819708403
 21
8.763099999991255
 31
0.0
  0
LINE
  5
1BA05
330
1B9CB
100
AcDbEntity
  8
0
  6
CONTINUOUS
100
AcDbLine
 10
12.41513331849066
 20
7.848567861421083
 30
0.0
 11
11.50060117992049
 21
8.763099999991255
 31
0.0
  0
LINE
  5
1BA06
330
1B9CB
100
AcDbEntity
  8
0
  6
CONTINUOUS
100
AcDbLine
 10
19.35714748038395
 20
1.580072908607975
 30
0.0
 11
17.03709479228923
 21
3.900125596702697
 31
0.0
  0
LINE
  5
1BA07
330
1B9CB
100
AcDbEntity
  8
0
  6
CONTINUOUS
100
AcDbLine
 10
19.55672823115909
 20
2.054011366913028
 30
0.0
 11
16.63151396416958
 21
4.979225633902534
 31
0.0
  0
LINE
  5
1BA08
330
1B9CB
100
AcDbEntity
  8
0
  6
CONTINUOUS
100
AcDbLine
 10
16.19956790346445
 20
4.737652485527476
 30
0.0
 11
15.22497139420302
 21
5.712248994788904
 31
0.0
  0
LINE
  5
1BA09
330
1B9CB
100
AcDbEntity
  8
0
  6
CONTINUOUS
100
AcDbLine
 10
16.38362068022866
 20
5.227118917843457
 30
0.0
 11
15.40900056526648
 21
6.201739032805637
 31
0.0
  0
LINE
  5
1BA0A
330
1B9CB
100
AcDbEntity
  8
0
  6
CONTINUOUS
100
AcDbLine
 10
19.75630898193422
 20
2.527949825218081
 30
0.0
 11
18.70774536448286
 21
3.576513442669441
 31
0.0
  0
LINE
  5
1BA0B
330
1B9CB
100
AcDbEntity
  8
0
  6
CONTINUOUS
100
AcDbLine
 10
19.95588973270936
 20
3.001888283523134
 30
0.0
 11
18.90726987211446
 21
4.050508144118028
 31
0.0
  0
LINE
  5
1BA0C
330
1B9CB
100
AcDbEntity
  8
0
  6
CONTINUOUS
100
AcDbLine
 10
20.15547048348449
 20
3.475826741828186
 30
0.0
 11
19.10679437974606
 21
4.524502845566614
 31
0.0
  0
LINE
  5
1BA0D
330
1B9CB
100
AcDbEntity
  8
0
  6
CONTINUOUS
100
AcDbLine
 10
20.35505123425962
 20
3.94976520013324
 30
0.0
 11
19.30631888737766
 21
4.998497547015201
 31
0.0
  0
LINE
  5
1BA0E
330
1B9CB
100
AcDbEntity
  8
0
  6
CONTINUOUS
100
AcDbLine
 10
20.55463198503475
 20
4.423703658438292
 30
0.0
 11
19.50584339500926
 21
5.472492248463787
 31
0.0
  0
LINE
  5
1BA0F
330
1B9CB
100
AcDbEntity
  8
0
  6
CONTINUOUS
100
AcDbLine
 10
18.37481191085755
 20
3.909446896294752
 30
0.0
 11
15.59302973632993
 21
6.691229070822371
 31
0.0
  0
LINE
  5
1BA10
330
1B9CB
100
AcDbEntity
  8
0
  6
CONTINUOUS
100
AcDbLine
 10
17.96904084440766
 20
4.988737171824825
 30
0.0
 11
15.77705890739338
 21
7.180719108839104
 31
0.0
  0
LINE
  5
1BA11
330
1B9CB
100
AcDbEntity
  8
0
  6
CONTINUOUS
100
AcDbLine
 10
17.56326977795777
 20
6.068027447354899
 30
0.0
 11
15.96108807845684
 21
7.670209146855838
 31
0.0
  0
LINE
  5
1BA12
330
1B9CB
100
AcDbEntity
  8
0
  6
CONTINUOUS
100
AcDbLine
 10
17.15749871150789
 20
7.147317722884972
 30
0.0
 11
16.14511724952029
 21
8.15969918487257
 31
0.0
  0
LINE
  5
1BA13
330
1B9CB
100
AcDbEntity
  8
0
  6
CONTINUOUS
100
AcDbLine
 10
16.751727645058
 20
8.226607998415046
 30
0.0
 11
16.32914642058374
 21
8.649189222889303
 31
0.0
  0
LINE
  5
1BA14
330
1B9CB
100
AcDbEntity
  8
0
  6
CONTINUOUS
100
AcDbLine
 10
20.75421273580989
 20
4.897642116743345
 30
0.0
 11
19.70536790264086
 21
5.946486949912374
 31
0.0
  0
LINE
  5
1BA15
330
1B9CB
100
AcDbEntity
  8
0
  6
CONTINUOUS
100
AcDbLine
 10
20.95379348658502
 20
5.371580575048398
 30
0.0
 11
19.90489241027246
 21
6.42048165136096
 31
0.0
  0
LINE
  5
1BA16
330
1B9CB
100
AcDbEntity
  8
0
  6
CONTINUOUS
100
AcDbLine
 10
21.15337423736015
 20
5.845519033353452
 30
0.0
 11
20.10441691790406
 21
6.894476352809547
 31
0.0
  0
LINE
  5
1BA17
330
1B9CB
100
AcDbEntity
  8
0
  6
CONTINUOUS
100
AcDbLine
 10
21.35295498813529
 20
6.319457491658505
 30
0.0
 11
20.30394142553566
 21
7.368471054258134
 31
0.0
  0
LINE
  5
1BA18
330
1B9CB
100
AcDbEntity
  8
0
  6
CONTINUOUS
100
AcDbLine
 10
21.55253573891042
 20
6.793395949963558
 30
0.0
 11
20.50346593316726
 21
7.842465755706721
 31
0.0
  0
LINE
  5
1BA19
330
1B9CB
100
AcDbEntity
  8
0
  6
CONTINUOUS
100
AcDbLine
 10
21.75211648968556
 20
7.267334408268612
 30
0.0
 11
20.70299044079886
 21
8.316460457155308
 31
0.0
  0
LINE
  5
1BA1A
330
1B9CB
100
AcDbEntity
  8
0
  6
CONTINUOUS
100
AcDbLine
 10
21.95169724046069
 20
7.741272866573663
 30
0.0
 11
20.9298701070431
 21
8.763099999991256
 31
0.0
  0
LINE
  5
1BA1B
330
1B9CB
100
AcDbEntity
  8
0
  6
CONTINUOUS
100
AcDbLine
 10
22.15127799123582
 20
8.215211324878716
 30
0.0
 11
21.60338931612328
 21
8.763099999991256
 31
0.0
  0
LINE
  5
1BA1C
330
1B9CB
100
AcDbEntity
  8
0
  6
CONTINUOUS
100
AcDbLine
 10
22.35085874201096
 20
8.689149783183769
 30
0.0
 11
22.27690852520347
 21
8.763099999991255
 31
0.0
  0
ENDBLK
  5
1BB0E
330
1B9CB
100
AcDbEntity
  8
0
100
AcDbBlockEnd
  0
BLOCK
  5
1BB0F
330
1BA1D
100
AcDbEntity
  8
0
100
AcDbBlockBegin
  2
*X51
 70
     1
 10
0.0
 20
0.0
 30
0.0
  3
*X51
  1

  0
LINE
  5
1BA1E
330
1BA1D
100
AcDbEntity
  8
0
  6
CONTINUOUS
100
AcDbLine
 10
23.19462913593892
 20
8.169917934846424
 30
0.0
 11
23.70775465517246
 21
8.683043454079957
 31
0.0
  0
LINE
  5
1BA1F
330
1BA1D
100
AcDbEntity
  8
0
  6
CONTINUOUS
100
AcDbLine
 10
22.64923161835078
 20
6.951001208178088
 30
0.0
 11
23.9159364069932
 21
8.217705996820516
 31
0.0
  0
LINE
  5
1BA20
330
1BA1D
100
AcDbEntity
  8
0
  6
CONTINUOUS
100
AcDbLine
 10
22.10383410076263
 20
5.732084481509751
 30
0.0
 11
24.12411815881395
 21
7.752368539561078
 31
0.0
  0
LINE
  5
1BA21
330
1BA1D
100
AcDbEntity
  8
0
  6
CONTINUOUS
100
AcDbLine
 10
21.55843658317447
 20
4.513167754841414
 30
0.0
 11
24.3322999106347
 21
7.287031082301639
 31
0.0
  0
LINE
  5
1BA22
330
1BA1D
100
AcDbEntity
  8
0
  6
CONTINUOUS
100
AcDbLine
 10
21.01303906558632
 20
3.294251028173077
 30
0.0
 11
24.54048166245544
 21
6.821693625042199
 31
0.0
  0
LINE
  5
1BA23
330
1BA1D
100
AcDbEntity
  8
0
  6
CONTINUOUS
100
AcDbLine
 10
20.46764154799817
 20
2.075334301504738
 30
0.0
 11
23.28571549467848
 21
4.89340824818505
 31
0.0
  0
LINE
  5
1BA24
330
1BA1D
100
AcDbEntity
  8
0
  6
CONTINUOUS
100
AcDbLine
 10
19.92224403041002
 20
0.8564175748364002
 30
0.0
 11
22.74075865492779
 21
3.674932199354171
 31
0.0
  0
LINE
  5
1BA25
330
1BA1D
100
AcDbEntity
  8
0
  6
CONTINUOUS
100
AcDbLine
 10
23.67305085490148
 20
5.280743608408048
 30
0.0
 11
24.74866341427619
 21
6.356356167782759
 31
0.0
  0
LINE
  5
1BA26
330
1BA1D
100
AcDbEntity
  8
0
  6
CONTINUOUS
100
AcDbLine
 10
23.88118970842314
 20
4.815363252849522
 30
0.0
 11
24.95684516609694
 21
5.89101871052332
 31
0.0
  0
LINE
  5
1BA27
330
1BA1D
100
AcDbEntity
  8
0
  6
CONTINUOUS
100
AcDbLine
 10
19.73925852647308
 20
-0.0000871381807288
 30
0.0
 11
23.4103456646501
 21
3.670999999996297
 31
0.0
  0
LINE
  5
1BA28
330
1BA1D
100
AcDbEntity
  8
0
  6
CONTINUOUS
100
AcDbLine
 10
24.0893285619448
 20
4.349982897290997
 30
0.0
 11
25.16502691791769
 21
5.42568125326388
 31
0.0
  0
LINE
  5
1BA29
330
1BA1D
100
AcDbEntity
  8
0
  6
CONTINUOUS
100
AcDbLine
 10
20.41282099582748
 20
-0.0000438779065108
 30
0.0
 11
21.64944178675636
 21
1.236576913022366
 31
0.0
  0
LINE
  5
1BA2A
330
1BA1D
100
AcDbEntity
  8
0
  6
CONTINUOUS
100
AcDbLine
 10
22.78126487373161
 20
2.36839999999762
 30
0.0
 11
24.08386487373029
 21
3.670999999996297
 31
0.0
  0
LINE
  5
1BA2B
330
1BA1D
100
AcDbEntity
  8
0
  6
CONTINUOUS
100
AcDbLine
 10
24.29746741546646
 20
3.884602541732471
 30
0.0
 11
25.37320866973843
 21
4.960343796004441
 31
0.0
  0
LINE
  5
1BA2C
330
1BA1D
100
AcDbEntity
  8
0
  6
CONTINUOUS
100
AcDbLine
 10
21.08638346518189
 20
-0.0000006176322938
 30
0.0
 11
21.10379033335899
 21
0.0174062505448083
 31
0.0
  0
LINE
  5
1BA2D
330
1BA1D
100
AcDbEntity
  8
0
  6
CONTINUOUS
100
AcDbLine
 10
23.4547840828118
 20
2.36839999999762
 30
0.0
 11
25.58139042155918
 21
4.495006338745002
 31
0.0
  0
LINE
  5
1BA2E
330
1BA1D
100
AcDbEntity
  8
0
  6
CONTINUOUS
100
AcDbLine
 10
29.30199999996933
 20
8.215615917155148
 30
0.0
 11
29.84948408280543
 21
8.763099999991255
 31
0.0
  0
LINE
  5
1BA2F
330
1BA1D
100
AcDbEntity
  8
0
  6
CONTINUOUS
100
AcDbLine
 10
24.12830329189199
 20
2.36839999999762
 30
0.0
 11
25.78957217337993
 21
4.029668881485562
 31
0.0
  0
LINE
  5
1BA30
330
1BA1D
100
AcDbEntity
  8
0
  6
CONTINUOUS
100
AcDbLine
 10
29.30199999996933
 20
7.54209670807496
 30
0.0
 11
30.52300329188562
 21
8.763099999991255
 31
0.0
  0
LINE
  5
1BA31
330
1BA1D
100
AcDbEntity
  8
0
  6
CONTINUOUS
100
AcDbLine
 10
24.80182250097217
 20
2.36839999999762
 30
0.0
 11
25.99775392520067
 21
3.564331424226122
 31
0.0
  0
LINE
  5
1BA32
330
1BA1D
100
AcDbEntity
  8
0
  6
CONTINUOUS
100
AcDbLine
 10
29.30199999996933
 20
6.868577498994774
 30
0.0
 11
30.74199999996926
 21
8.308577498994712
 31
0.0
  0
LINE
  5
1BA33
330
1BA1D
100
AcDbEntity
  8
0
  6
CONTINUOUS
100
AcDbLine
 10
25.13028238392013
 20
2.023340673865392
 30
0.0
 11
26.20593567702142
 21
3.098993966966683
 31
0.0
  0
LINE
  5
1BA34
330
1BA1D
100
AcDbEntity
  8
0
  6
CONTINUOUS
100
AcDbLine
 10
25.33838066033617
 20
1.557919741201244
 30
0.0
 11
26.41411742884217
 21
2.633656509707244
 31
0.0
  0
LINE
  5
1BA35
330
1BA1D
100
AcDbEntity
  8
0
  6
CONTINUOUS
100
AcDbLine
 10
25.54647893675221
 20
1.092498808537098
 30
0.0
 11
26.62229918066291
 21
2.168319052447804
 31
0.0
  0
LINE
  5
1BA36
330
1BA1D
100
AcDbEntity
  8
0
  6
CONTINUOUS
100
AcDbLine
 10
25.75457721316825
 20
0.62707787587295
 30
0.0
 11
26.83048093248366
 21
1.702981595188365
 31
0.0
  0
LINE
  5
1BA37
330
1BA1D
100
AcDbEntity
  8
0
  6
CONTINUOUS
100
AcDbLine
 10
29.30199999996933
 20
6.195058289914587
 30
0.0
 11
30.74199999996926
 21
7.635058289914522
 31
0.0
  0
LINE
  5
1BA38
330
1BA1D
100
AcDbEntity
  8
0
  6
CONTINUOUS
100
AcDbLine
 10
29.30199999996933
 20
5.521539080834401
 30
0.0
 11
30.74199999996926
 21
6.961539080834331
 31
0.0
  0
LINE
  5
1BA39
330
1BA1D
100
AcDbEntity
  8
0
  6
CONTINUOUS
100
AcDbLine
 10
29.30199999996933
 20
4.848019871754214
 30
0.0
 11
30.74199999996925
 21
6.288019871754143
 31
0.0
  0
LINE
  5
1BA3A
330
1BA1D
100
AcDbEntity
  8
0
  6
CONTINUOUS
100
AcDbLine
 10
29.30199999996933
 20
4.174500662674028
 30
0.0
 11
30.74199999996925
 21
5.614500662673953
 31
0.0
  0
LINE
  5
1BA3B
330
1BA1D
100
AcDbEntity
  8
0
  6
CONTINUOUS
100
AcDbLine
 10
25.96267548958429
 20
0.1616569432088024
 30
0.0
 11
27.18411854636669
 21
1.383099999991207
 31
0.0
  0
LINE
  5
1BA3C
330
1BA1D
100
AcDbEntity
  8
0
  6
CONTINUOUS
100
AcDbLine
 10
29.30199999996933
 20
3.500981453593841
 30
0.0
 11
30.74199999996925
 21
4.940981453593762
 31
0.0
  0
LINE
  5
1BA3D
330
1BA1D
100
AcDbEntity
  8
0
  6
CONTINUOUS
100
AcDbLine
 10
26.50763775544691
 20
0.0330999999912356
 30
0.0
 11
27.85763775544689
 21
1.383099999991223
 31
0.0
  0
LINE
  5
1BA3E
330
1BA1D
100
AcDbEntity
  8
0
  6
CONTINUOUS
100
AcDbLine
 10
29.30199999996933
 20
2.827462244513656
 30
0.0
 11
30.74199999996925
 21
4.267462244513574
 31
0.0
  0
LINE
  5
1BA3F
330
1BA1D
100
AcDbEntity
  8
0
  6
CONTINUOUS
100
AcDbLine
 10
27.18115696452709
 20
0.0330999999912356
 30
0.0
 11
28.55073879889363
 21
1.402681834357775
 31
0.0
  0
LINE
  5
1BA40
330
1BA1D
100
AcDbEntity
  8
0
  6
CONTINUOUS
100
AcDbLine
 10
29.28241816560272
 20
2.134361201066866
 30
0.0
 11
30.74199999996924
 21
3.593943035433383
 31
0.0
  0
LINE
  5
1BA41
330
1BA1D
100
AcDbEntity
  8
0
  6
CONTINUOUS
100
AcDbLine
 10
27.85467617360728
 20
0.0330999999912356
 30
0.0
 11
30.74199999996924
 21
2.920423826353195
 31
0.0
  0
LINE
  5
1BA42
330
1BA1D
100
AcDbEntity
  8
0
  6
CONTINUOUS
100
AcDbLine
 10
28.53897559587887
 20
0.0438802131826428
 30
0.0
 11
30.73121978677781
 21
2.236124404081585
 31
0.0
  0
LINE
  5
1BA43
330
1BA1D
100
AcDbEntity
  8
0
  6
CONTINUOUS
100
AcDbLine
 10
29.45140055588722
 20
0.2827859641107988
 30
0.0
 11
30.49231403584965
 21
1.323699444073236
 31
0.0
  0
LINE
  5
1BA44
330
1BA1D
100
AcDbEntity
  8
0
  6
CONTINUOUS
100
AcDbLine
 10
19.59027867740337
 20
-0.0000967065718083
 30
0.0
 11
19.55485265190471
 21
0.035329318926844
 31
0.0
  0
LINE
  5
1BA45
330
1BA1D
100
AcDbEntity
  8
0
  6
CONTINUOUS
100
AcDbLine
 10
20.26375463176586
 20
-0.0000534518541091
 30
0.0
 11
19.76305575737534
 21
0.5006454225364014
 31
0.0
  0
LINE
  5
1BA46
330
1BA1D
100
AcDbEntity
  8
0
  6
CONTINUOUS
100
AcDbLine
 10
20.93723058612834
 20
-0.0000101971364099
 30
0.0
 11
19.97125886284597
 21
0.965961526145958
 31
0.0
  0
LINE
  5
1BA47
330
1BA1D
100
AcDbEntity
  8
0
  6
CONTINUOUS
100
AcDbLine
 10
21.25514828313686
 20
0.355591314935257
 30
0.0
 11
20.1794619683166
 21
1.431277629755512
 31
0.0
  0
LINE
  5
1BA48
330
1BA1D
100
AcDbEntity
  8
0
  6
CONTINUOUS
100
AcDbLine
 10
21.46338838394921
 20
0.8208704232030986
 30
0.0
 11
20.38766507378723
 21
1.896593733365069
 31
0.0
  0
LINE
  5
1BA49
330
1BA1D
100
AcDbEntity
  8
0
  6
CONTINUOUS
100
AcDbLine
 10
21.67162848476155
 20
1.28614953147094
 30
0.0
 11
20.59586817925786
 21
2.361909836974626
 31
0.0
  0
LINE
  5
1BA4A
330
1BA1D
100
AcDbEntity
  8
0
  6
CONTINUOUS
100
AcDbLine
 10
21.8798685855739
 20
1.751428639738782
 30
0.0
 11
20.80407128472849
 21
2.827225940584183
 31
0.0
  0
LINE
  5
1BA4B
330
1BA1D
100
AcDbEntity
  8
0
  6
CONTINUOUS
100
AcDbLine
 10
22.08810868638624
 20
2.216707748006623
 30
0.0
 11
21.01227439019912
 21
3.292542044193739
 31
0.0
  0
LINE
  5
1BA4C
330
1BA1D
100
AcDbEntity
  8
0
  6
CONTINUOUS
100
AcDbLine
 10
22.60993564347543
 20
2.36839999999762
 30
0.0
 11
21.22047749566975
 21
3.757858147803296
 31
0.0
  0
LINE
  5
1BA4D
330
1BA1D
100
AcDbEntity
  8
0
  6
CONTINUOUS
100
AcDbLine
 10
23.28345485255561
 20
2.36839999999762
 30
0.0
 11
21.42868060114038
 21
4.223174251412853
 31
0.0
  0
LINE
  5
1BA4E
330
1BA1D
100
AcDbEntity
  8
0
  6
CONTINUOUS
100
AcDbLine
 10
26.29227406164219
 20
0.0330999999912356
 30
0.0
 11
25.80009199592872
 21
0.5252820657046957
 31
0.0
  0
LINE
  5
1BA4F
330
1BA1D
100
AcDbEntity
  8
0
  6
CONTINUOUS
100
AcDbLine
 10
23.9569740616358
 20
2.36839999999762
 30
0.0
 11
21.63688370661101
 21
4.688490355022409
 31
0.0
  0
LINE
  5
1BA50
330
1BA1D
100
AcDbEntity
  8
0
  6
CONTINUOUS
100
AcDbLine
 10
26.96579327072237
 20
0.0330999999912356
 30
0.0
 11
25.2554132311971
 21
1.743480039516508
 31
0.0
  0
LINE
  5
1BA51
330
1BA1D
100
AcDbEntity
  8
0
  6
CONTINUOUS
100
AcDbLine
 10
24.63049327071599
 20
2.36839999999762
 30
0.0
 11
23.32789327071731
 21
3.670999999996297
 31
0.0
  0
LINE
  5
1BA52
330
1BA1D
100
AcDbEntity
  8
0
  6
CONTINUOUS
100
AcDbLine
 10
22.92098674744635
 20
4.077906523267254
 30
0.0
 11
21.84508681208164
 21
5.153806458631966
 31
0.0
  0
LINE
  5
1BA53
330
1BA1D
100
AcDbEntity
  8
0
  6
CONTINUOUS
100
AcDbLine
 10
27.63931247980256
 20
0.0330999999912356
 30
0.0
 11
24.0014124797975
 21
3.670999999996297
 31
0.0
  0
LINE
  5
1BA54
330
1BA1D
100
AcDbEntity
  8
0
  6
CONTINUOUS
100
AcDbLine
 10
23.129125600968
 20
4.5432868788258
 30
0.0
 11
22.05328991755227
 21
5.619122562241522
 31
0.0
  0
LINE
  5
1BA55
330
1BA1D
100
AcDbEntity
  8
0
  6
CONTINUOUS
100
AcDbLine
 10
28.31283168888275
 20
0.0330999999912356
 30
0.0
 11
24.16488385994816
 21
4.181047828925828
 31
0.0
  0
LINE
  5
1BA56
330
1BA1D
100
AcDbEntity
  8
0
  6
CONTINUOUS
100
AcDbLine
 10
23.33726445448964
 20
5.008667234384345
 30
0.0
 11
22.2614930230229
 21
6.084438665851079
 31
0.0
  0
LINE
  5
1BA57
330
1BA1D
100
AcDbEntity
  8
0
  6
CONTINUOUS
100
AcDbLine
 10
28.92085740005492
 20
0.0985934978992438
 30
0.0
 11
27.63635089796295
 21
1.383099999991217
 31
0.0
  0
LINE
  5
1BA58
330
1BA1D
100
AcDbEntity
  8
0
  6
CONTINUOUS
100
AcDbLine
 10
26.43704649509776
 20
2.582404402856405
 30
0.0
 11
23.61992702019732
 21
5.399523877756844
 31
0.0
  0
LINE
  5
1BA59
330
1BA1D
100
AcDbEntity
  8
0
  6
CONTINUOUS
100
AcDbLine
 10
23.54540330801128
 20
5.47404758994289
 30
0.0
 11
22.46969612849353
 21
6.549754769460635
 31
0.0
  0
LINE
  5
1BA5A
330
1BA1D
100
AcDbEntity
  8
0
  6
CONTINUOUS
100
AcDbLine
 10
29.42225615078443
 20
0.2707139562499279
 30
0.0
 11
28.30987010704312
 21
1.383099999991234
 31
0.0
  0
LINE
  5
1BA5B
330
1BA1D
100
AcDbEntity
  8
0
  6
CONTINUOUS
100
AcDbLine
 10
25.89179548232307
 20
3.801174624711282
 30
0.0
 11
22.67789923396416
 21
7.015070873070191
 31
0.0
  0
LINE
  5
1BA5C
330
1BA1D
100
AcDbEntity
  8
0
  6
CONTINUOUS
100
AcDbLine
 10
29.83624534690007
 20
0.5302439692144705
 30
0.0
 11
28.85811781497101
 21
1.508371501143527
 31
0.0
  0
LINE
  5
1BA5D
330
1BA1D
100
AcDbEntity
  8
0
  6
CONTINUOUS
100
AcDbLine
 10
25.34654446954838
 20
5.01994484656616
 30
0.0
 11
22.88610233943479
 21
7.480386976679748
 31
0.0
  0
LINE
  5
1BA5E
330
1BA1D
100
AcDbEntity
  8
0
  6
CONTINUOUS
100
AcDbLine
 10
30.17865975401872
 20
0.8613487711760022
 30
0.0
 11
29.18888744090175
 21
1.851121084292977
 31
0.0
  0
LINE
  5
1BA5F
330
1BA1D
100
AcDbEntity
  8
0
  6
CONTINUOUS
100
AcDbLine
 10
24.80129345677369
 20
6.238715068421037
 30
0.0
 11
23.09430544490542
 21
7.945703080289305
 31
0.0
  0
LINE
  5
1BA60
330
1BA1D
100
AcDbEntity
  8
0
  6
CONTINUOUS
100
AcDbLine
 10
30.45496647202376
 20
1.258561262251155
 30
0.0
 11
29.30199999996933
 21
2.411527734305588
 31
0.0
  0
LINE
  5
1BA61
330
1BA1D
100
AcDbEntity
  8
0
  6
CONTINUOUS
100
AcDbLine
 10
24.256042443999
 20
7.457485290275915
 30
0.0
 11
23.30250855037605
 21
8.411019183898862
 31
0.0
  0
LINE
  5
1BA62
330
1BA1D
100
AcDbEntity
  8
0
  6
CONTINUOUS
100
AcDbLine
 10
30.64868582078271
 20
1.738361122572387
 30
0.0
 11
29.30199999996933
 21
3.085046943385775
 31
0.0
  0
LINE
  5
1BA63
330
1BA1D
100
AcDbEntity
  8
0
  6
CONTINUOUS
100
AcDbLine
 10
23.71079143122431
 20
8.676255512130794
 30
0.0
 11
23.51071165584668
 21
8.876335287508416
 31
0.0
  0
LINE
  5
1BA64
330
1BA1D
100
AcDbEntity
  8
0
  6
CONTINUOUS
100
AcDbLine
 10
30.73802122914428
 20
2.322544923291007
 30
0.0
 11
29.30199999996933
 21
3.758566152465961
 31
0.0
  0
LINE
  5
1BA65
330
1BA1D
100
AcDbEntity
  8
0
  6
CONTINUOUS
100
AcDbLine
 10
30.74199999996924
 20
2.992085361546236
 30
0.0
 11
29.30199999996933
 21
4.432085361546148
 31
0.0
  0
LINE
  5
1BA66
330
1BA1D
100
AcDbEntity
  8
0
  6
CONTINUOUS
100
AcDbLine
 10
30.74199999996924
 20
3.665604570626419
 30
0.0
 11
29.30199999996933
 21
5.105604570626333
 31
0.0
  0
LINE
  5
1BA67
330
1BA1D
100
AcDbEntity
  8
0
  6
CONTINUOUS
100
AcDbLine
 10
30.74199999996925
 20
4.339123779706602
 30
0.0
 11
29.30199999996933
 21
5.77912377970652
 31
0.0
  0
LINE
  5
1BA68
330
1BA1D
100
AcDbEntity
  8
0
  6
CONTINUOUS
100
AcDbLine
 10
30.74199999996925
 20
5.012642988786785
 30
0.0
 11
29.30199999996933
 21
6.452642988786707
 31
0.0
  0
LINE
  5
1BA69
330
1BA1D
100
AcDbEntity
  8
0
  6
CONTINUOUS
100
AcDbLine
 10
30.74199999996925
 20
5.68616219786697
 30
0.0
 11
29.30199999996933
 21
7.126162197866894
 31
0.0
  0
LINE
  5
1BA6A
330
1BA1D
100
AcDbEntity
  8
0
  6
CONTINUOUS
100
AcDbLine
 10
30.74199999996925
 20
6.359681406947153
 30
0.0
 11
29.30199999996933
 21
7.799681406947081
 31
0.0
  0
LINE
  5
1BA6B
330
1BA1D
100
AcDbEntity
  8
0
  6
CONTINUOUS
100
AcDbLine
 10
30.74199999996926
 20
7.033200616027337
 30
0.0
 11
29.30199999996933
 21
8.473200616027269
 31
0.0
  0
LINE
  5
1BA6C
330
1BA1D
100
AcDbEntity
  8
0
  6
CONTINUOUS
100
AcDbLine
 10
30.74199999996926
 20
7.706719825107518
 30
0.0
 11
29.68561982508552
 21
8.763099999991255
 31
0.0
  0
LINE
  5
1BA6D
330
1BA1D
100
AcDbEntity
  8
0
  6
CONTINUOUS
100
AcDbLine
 10
30.74199999996926
 20
8.380239034187703
 30
0.0
 11
30.35913903416571
 21
8.763099999991255
 31
0.0
  0
ENDBLK
  5
1BB10
330
1BA1D
100
AcDbEntity
  8
0
100
AcDbBlockEnd
  0
BLOCK
  5
1BB11
330
1BA6E
100
AcDbEntity
  8
0
100
AcDbBlockBegin
  2
*X52
 70
     1
 10
0.0
 20
0.0
 30
0.0
  3
*X52
  1

  0
LINE
  5
1BA6F
330
1BA6E
100
AcDbEntity
  8
0
  6
CONTINUOUS
100
AcDbLine
 10
31.64199999996833
 20
8.535058289913598
 30
0.0
 11
31.87004171004599
 21
8.763099999991255
 31
0.0
  0
LINE
  5
1BA70
330
1BA6E
100
AcDbEntity
  8
0
  6
CONTINUOUS
100
AcDbLine
 10
31.64199999996833
 20
7.861539080833412
 30
0.0
 11
32.54356091912618
 21
8.763099999991255
 31
0.0
  0
LINE
  5
1BA71
330
1BA6E
100
AcDbEntity
  8
0
  6
CONTINUOUS
100
AcDbLine
 10
31.64199999996833
 20
7.188019871753226
 30
0.0
 11
33.08199999996839
 21
8.628019871753281
 31
0.0
  0
LINE
  5
1BA72
330
1BA6E
100
AcDbEntity
  8
0
  6
CONTINUOUS
100
AcDbLine
 10
31.64199999996833
 20
6.51450066267304
 30
0.0
 11
33.08199999996839
 21
7.954500662673095
 31
0.0
  0
LINE
  5
1BA73
330
1BA6E
100
AcDbEntity
  8
0
  6
CONTINUOUS
100
AcDbLine
 10
31.64199999996833
 20
5.840981453592853
 30
0.0
 11
33.08199999996839
 21
7.280981453592908
 31
0.0
  0
LINE
  5
1BA74
330
1BA6E
100
AcDbEntity
  8
0
  6
CONTINUOUS
100
AcDbLine
 10
31.64199999996833
 20
5.167462244512667
 30
0.0
 11
33.08199999996839
 21
6.607462244512721
 31
0.0
  0
LINE
  5
1BA75
330
1BA6E
100
AcDbEntity
  8
0
  6
CONTINUOUS
100
AcDbLine
 10
31.64199999996833
 20
4.493943035432481
 30
0.0
 11
33.08199999996839
 21
5.933943035432535
 31
0.0
  0
LINE
  5
1BA76
330
1BA6E
100
AcDbEntity
  8
0
  6
CONTINUOUS
100
AcDbLine
 10
31.64199999996833
 20
3.820423826352293
 30
0.0
 11
33.08199999996839
 21
5.260423826352348
 31
0.0
  0
LINE
  5
1BA77
330
1BA6E
100
AcDbEntity
  8
0
  6
CONTINUOUS
100
AcDbLine
 10
31.64199999996833
 20
3.146904617272106
 30
0.0
 11
33.08199999996839
 21
4.586904617272161
 31
0.0
  0
LINE
  5
1BA78
330
1BA6E
100
AcDbEntity
  8
0
  6
CONTINUOUS
100
AcDbLine
 10
36.23199999996837
 20
8.410423826352325
 30
0.0
 11
36.5846761736073
 21
8.763099999991255
 31
0.0
  0
LINE
  5
1BA79
330
1BA6E
100
AcDbEntity
  8
0
  6
CONTINUOUS
100
AcDbLine
 10
36.23199999996837
 20
7.73690461727214
 30
0.0
 11
37.25819538268748
 21
8.763099999991255
 31
0.0
  0
LINE
  5
1BA7A
330
1BA6E
100
AcDbEntity
  8
0
  6
CONTINUOUS
100
AcDbLine
 10
31.64257403601376
 20
2.473959444237348
 30
0.0
 11
33.08199999996839
 21
3.913385408191974
 31
0.0
  0
LINE
  5
1BA7B
330
1BA6E
100
AcDbEntity
  8
0
  6
CONTINUOUS
100
AcDbLine
 10
36.23199999996837
 20
7.063385408191953
 30
0.0
 11
37.67199999996831
 21
8.503385408191894
 31
0.0
  0
LINE
  5
1BA7C
330
1BA6E
100
AcDbEntity
  8
0
  6
CONTINUOUS
100
AcDbLine
 10
31.72013636841932
 20
1.87800256756272
 30
0.0
 11
33.08199999996839
 21
3.239866199111788
 31
0.0
  0
LINE
  5
1BA7D
330
1BA6E
100
AcDbEntity
  8
0
  6
CONTINUOUS
100
AcDbLine
 10
36.23199999996837
 20
6.389866199111767
 30
0.0
 11
37.67199999996831
 21
7.829866199111708
 31
0.0
  0
LINE
  5
1BA7E
330
1BA6E
100
AcDbEntity
  8
0
  6
CONTINUOUS
100
AcDbLine
 10
31.89042734314753
 20
1.374774333210744
 30
0.0
 11
33.08199999996839
 21
2.566346990031601
 31
0.0
  0
LINE
  5
1BA7F
330
1BA6E
100
AcDbEntity
  8
0
  6
CONTINUOUS
100
AcDbLine
 10
36.23199999996837
 20
5.71634699003158
 30
0.0
 11
37.67199999996831
 21
7.156346990031521
 31
0.0
  0
LINE
  5
1BA80
330
1BA6E
100
AcDbEntity
  8
0
  6
CONTINUOUS
100
AcDbLine
 10
32.14210568064475
 20
0.952933461627778
 30
0.0
 11
33.18745552475986
 21
1.998283305742888
 31
0.0
  0
LINE
  5
1BA81
330
1BA6E
100
AcDbEntity
  8
0
  6
CONTINUOUS
100
AcDbLine
 10
36.23199999996837
 20
5.042827780951393
 30
0.0
 11
37.67199999996831
 21
6.482827780951334
 31
0.0
  0
LINE
  5
1BA82
330
1BA6E
100
AcDbEntity
  8
0
  6
CONTINUOUS
100
AcDbLine
 10
32.45820639400955
 20
0.5955149659123915
 30
0.0
 11
33.47242681921943
 21
1.60973539112227
 31
0.0
  0
LINE
  5
1BA83
330
1BA6E
100
AcDbEntity
  8
0
  6
CONTINUOUS
100
AcDbLine
 10
36.23199999996837
 20
4.369308571871207
 30
0.0
 11
37.67199999996831
 21
5.809308571871147
 31
0.0
  0
LINE
  5
1BA84
330
1BA6E
100
AcDbEntity
  8
0
  6
CONTINUOUS
100
AcDbLine
 10
32.83432456621412
 20
0.2981139290367771
 30
0.0
 11
33.89722476612215
 21
1.361014128944803
 31
0.0
  0
LINE
  5
1BA85
330
1BA6E
100
AcDbEntity
  8
0
  6
CONTINUOUS
100
AcDbLine
 10
36.23199999996837
 20
3.69578936279102
 30
0.0
 11
37.67199999996831
 21
5.135789362790962
 31
0.0
  0
LINE
  5
1BA86
330
1BA6E
100
AcDbEntity
  8
0
  6
CONTINUOUS
100
AcDbLine
 10
33.2711633111245
 20
0.0614334648669672
 30
0.0
 11
34.43247338014423
 21
1.222743533886696
 31
0.0
  0
LINE
  5
1BA87
330
1BA6E
100
AcDbEntity
  8
0
  6
CONTINUOUS
100
AcDbLine
 10
36.23199999996837
 20
3.022270153710834
 30
0.0
 11
37.67199999996831
 21
4.462270153710775
 31
0.0
  0
LINE
  5
1BA88
330
1BA6E
100
AcDbEntity
  8
0
  6
CONTINUOUS
100
AcDbLine
 10
33.76515245874577
 20
-0.1180965965919523
 30
0.0
 11
35.1587445516215
 21
1.27549549628378
 31
0.0
  0
LINE
  5
1BA89
330
1BA6E
100
AcDbEntity
  8
0
  6
CONTINUOUS
100
AcDbLine
 10
36.21639478609585
 20
2.333145730758136
 30
0.0
 11
37.67199999996831
 21
3.788750944630588
 31
0.0
  0
LINE
  5
1BA8A
330
1BA6E
100
AcDbEntity
  8
0
  6
CONTINUOUS
100
AcDbLine
 10
34.34060583368432
 20
-0.2161624307335863
 30
0.0
 11
37.67199999996831
 21
3.115231735550401
 31
0.0
  0
LINE
  5
1BA8B
330
1BA6E
100
AcDbEntity
  8
0
  6
CONTINUOUS
100
AcDbLine
 10
35.01698193613905
 20
-0.2133055373590427
 30
0.0
 11
37.66876712070525
 21
2.438479647207154
 31
0.0
  0
LINE
  5
1BA8C
330
1BA6E
100
AcDbEntity
  8
0
  6
CONTINUOUS
100
AcDbLine
 10
35.90743367693304
 20
0.0036269943547609
 30
0.0
 11
37.51723902192366
 21
1.613432339345381
 31
0.0
  0
LINE
  5
1BA8D
330
1BA6E
100
AcDbEntity
  8
0
  6
CONTINUOUS
100
AcDbLine
 10
32.55309425579761
 20
0.5074718966376706
 30
0.0
 11
32.27784730925847
 21
0.7827188431768102
 31
0.0
  0
LINE
  5
1BA8E
330
1BA6E
100
AcDbEntity
  8
0
  6
CONTINUOUS
100
AcDbLine
 10
33.87496468909684
 20
-0.1408793275813673
 30
0.0
 11
31.67993083278052
 21
2.054154528734943
 31
0.0
  0
LINE
  5
1BA8F
330
1BA6E
100
AcDbEntity
  8
0
  6
CONTINUOUS
100
AcDbLine
 10
34.64362813207632
 20
-0.2360235614806649
 30
0.0
 11
31.64199999996833
 21
2.765604570627322
 31
0.0
  0
LINE
  5
1BA90
330
1BA6E
100
AcDbEntity
  8
0
  6
CONTINUOUS
100
AcDbLine
 10
35.25801106796118
 20
-0.1768872882853429
 30
0.0
 11
31.64199999996833
 21
3.439123779707508
 31
0.0
  0
LINE
  5
1BA91
330
1BA6E
100
AcDbEntity
  8
0
  6
CONTINUOUS
100
AcDbLine
 10
35.79065650332146
 20
-0.0360135145654361
 30
0.0
 11
34.54143210838231
 21
1.213210880373721
 31
0.0
  0
LINE
  5
1BA92
330
1BA6E
100
AcDbEntity
  8
0
  6
CONTINUOUS
100
AcDbLine
 10
33.08199999996839
 20
2.67264298878764
 30
0.0
 11
31.64199999996833
 21
4.112642988787695
 31
0.0
  0
LINE
  5
1BA93
330
1BA6E
100
AcDbEntity
  8
0
  6
CONTINUOUS
100
AcDbLine
 10
36.25975597779143
 20
0.1684062200447833
 30
0.0
 11
35.15395110240023
 21
1.274211095435983
 31
0.0
  0
LINE
  5
1BA94
330
1BA6E
100
AcDbEntity
  8
0
  6
CONTINUOUS
100
AcDbLine
 10
33.08199999996839
 20
3.346162197867826
 30
0.0
 11
31.64199999996833
 21
4.786162197867881
 31
0.0
  0
LINE
  5
1BA95
330
1BA6E
100
AcDbEntity
  8
0
  6
CONTINUOUS
100
AcDbLine
 10
36.67226329638774
 20
0.4294181105286579
 30
0.0
 11
35.63766478748767
 21
1.464016619428737
 31
0.0
  0
LINE
  5
1BA96
330
1BA6E
100
AcDbEntity
  8
0
  6
CONTINUOUS
100
AcDbLine
 10
33.08199999996839
 20
4.019681406948012
 30
0.0
 11
31.64199999996833
 21
5.459681406948068
 31
0.0
  0
LINE
  5
1BA97
330
1BA6E
100
AcDbEntity
  8
0
  6
CONTINUOUS
100
AcDbLine
 10
37.01677749710036
 20
0.7584231188962329
 30
0.0
 11
35.99563422741351
 21
1.779566388583076
 31
0.0
  0
LINE
  5
1BA98
330
1BA6E
100
AcDbEntity
  8
0
  6
CONTINUOUS
100
AcDbLine
 10
33.08199999996839
 20
4.693200616028199
 30
0.0
 11
31.64199999996833
 21
6.133200616028255
 31
0.0
  0
LINE
  5
1BA99
330
1BA6E
100
AcDbEntity
  8
0
  6
CONTINUOUS
100
AcDbLine
 10
37.29859977568887
 20
1.1501200493879
 30
0.0
 11
36.20680593341555
 21
2.241913891661226
 31
0.0
  0
LINE
  5
1BA9A
330
1BA6E
100
AcDbEntity
  8
0
  6
CONTINUOUS
100
AcDbLine
 10
33.08199999996839
 20
5.366719825108386
 30
0.0
 11
31.64199999996833
 21
6.80671982510844
 31
0.0
  0
LINE
  5
1BA9B
330
1BA6E
100
AcDbEntity
  8
0
  6
CONTINUOUS
100
AcDbLine
 10
37.5148623517228
 20
1.607376682434161
 30
0.0
 11
36.23199999996837
 21
2.890239034188594
 31
0.0
  0
LINE
  5
1BA9C
330
1BA6E
100
AcDbEntity
  8
0
  6
CONTINUOUS
100
AcDbLine
 10
33.08199999996839
 20
6.040239034188573
 30
0.0
 11
31.64199999996833
 21
7.480239034188627
 31
0.0
  0
LINE
  5
1BA9D
330
1BA6E
100
AcDbEntity
  8
0
  6
CONTINUOUS
100
AcDbLine
 10
37.64705163358367
 20
2.148706609653477
 30
0.0
 11
36.23199999996837
 21
3.56375824326878
 31
0.0
  0
LINE
  5
1BA9E
330
1BA6E
100
AcDbEntity
  8
0
  6
CONTINUOUS
100
AcDbLine
 10
33.08199999996839
 20
6.713758243268758
 30
0.0
 11
31.64199999996833
 21
8.153758243268815
 31
0.0
  0
LINE
  5
1BA9F
330
1BA6E
100
AcDbEntity
  8
0
  6
CONTINUOUS
100
AcDbLine
 10
37.67199999996831
 20
2.797277452349026
 30
0.0
 11
36.23199999996837
 21
4.237277452348967
 31
0.0
  0
LINE
  5
1BAA0
330
1BA6E
100
AcDbEntity
  8
0
  6
CONTINUOUS
100
AcDbLine
 10
37.67199999996831
 20
3.470796661429213
 30
0.0
 11
36.23199999996837
 21
4.910796661429154
 31
0.0
  0
LINE
  5
1BAA1
330
1BA6E
100
AcDbEntity
  8
0
  6
CONTINUOUS
100
AcDbLine
 10
37.67199999996831
 20
4.144315870509399
 30
0.0
 11
36.23199999996837
 21
5.58431587050934
 31
0.0
  0
LINE
  5
1BAA2
330
1BA6E
100
AcDbEntity
  8
0
  6
CONTINUOUS
100
AcDbLine
 10
33.08199999996839
 20
7.387277452348945
 30
0.0
 11
31.70617745232608
 21
8.763099999991255
 31
0.0
  0
LINE
  5
1BAA3
330
1BA6E
100
AcDbEntity
  8
0
  6
CONTINUOUS
100
AcDbLine
 10
33.08199999996839
 20
8.060796661429132
 30
0.0
 11
32.37969666140626
 21
8.763099999991255
 31
0.0
  0
LINE
  5
1BAA4
330
1BA6E
100
AcDbEntity
  8
0
  6
CONTINUOUS
100
AcDbLine
 10
33.08199999996839
 20
8.734315870509318
 30
0.0
 11
33.05321587048645
 21
8.763099999991255
 31
0.0
  0
LINE
  5
1BAA5
330
1BA6E
100
AcDbEntity
  8
0
  6
CONTINUOUS
100
AcDbLine
 10
37.67199999996831
 20
4.817835079589585
 30
0.0
 11
36.23199999996837
 21
6.257835079589526
 31
0.0
  0
LINE
  5
1BAA6
330
1BA6E
100
AcDbEntity
  8
0
  6
CONTINUOUS
100
AcDbLine
 10
37.67199999996831
 20
5.491354288669771
 30
0.0
 11
36.23199999996837
 21
6.931354288669713
 31
0.0
  0
LINE
  5
1BAA7
330
1BA6E
100
AcDbEntity
  8
0
  6
CONTINUOUS
100
AcDbLine
 10
37.67199999996831
 20
6.164873497749958
 30
0.0
 11
36.23199999996837
 21
7.6048734977499
 31
0.0
  0
LINE
  5
1BAA8
330
1BA6E
100
AcDbEntity
  8
0
  6
CONTINUOUS
100
AcDbLine
 10
37.67199999996831
 20
6.838392706830144
 30
0.0
 11
36.23199999996837
 21
8.278392706830086
 31
0.0
  0
LINE
  5
1BAA9
330
1BA6E
100
AcDbEntity
  8
0
  6
CONTINUOUS
100
AcDbLine
 10
37.67199999996831
 20
7.511911915910332
 30
0.0
 11
36.42081191588738
 21
8.763099999991255
 31
0.0
  0
LINE
  5
1BAAA
330
1BA6E
100
AcDbEntity
  8
0
  6
CONTINUOUS
100
AcDbLine
 10
37.67199999996831
 20
8.185431124990519
 30
0.0
 11
37.09433112496757
 21
8.763099999991255
 31
0.0
  0
ENDBLK
  5
1BB12
330
1BA6E
100
AcDbEntity
  8
0
100
AcDbBlockEnd
  0
BLOCK
  5
1BB13
330
1BAAB
100
AcDbEntity
  8
0
100
AcDbBlockBegin
  2
*X53
 70
     1
 10
0.0
 20
0.0
 30
0.0
  3
*X53
  1

  0
LINE
  5
1BAAC
330
1BAAB
100
AcDbEntity
  8
0
  6
CONTINUOUS
100
AcDbLine
 10
38.60499999996136
 20
8.762866199104765
 30
0.0
 11
38.71672554182345
 21
8.874591740966855
 31
0.0
  0
LINE
  5
1BAAD
330
1BAAB
100
AcDbEntity
  8
0
  6
CONTINUOUS
100
AcDbLine
 10
38.60499999996136
 20
8.089346990024577
 30
0.0
 11
39.03418785440363
 21
8.518534844466847
 31
0.0
  0
LINE
  5
1BAAE
330
1BAAB
100
AcDbEntity
  8
0
  6
CONTINUOUS
100
AcDbLine
 10
38.60499999996136
 20
7.41582778094439
 30
0.0
 11
39.35165016698382
 21
8.16247794796684
 31
0.0
  0
LINE
  5
1BAAF
330
1BAAB
100
AcDbEntity
  8
0
  6
CONTINUOUS
100
AcDbLine
 10
38.60499999996136
 20
6.742308571864204
 30
0.0
 11
39.66911247956399
 21
7.806421051466834
 31
0.0
  0
LINE
  5
1BAB0
330
1BAAB
100
AcDbEntity
  8
0
  6
CONTINUOUS
100
AcDbLine
 10
38.60499999996136
 20
6.068789362784018
 30
0.0
 11
39.98657479214418
 21
7.450364154966827
 31
0.0
  0
LINE
  5
1BAB1
330
1BAAB
100
AcDbEntity
  8
0
  6
CONTINUOUS
100
AcDbLine
 10
38.60499999996136
 20
5.395270153703832
 30
0.0
 11
40.30403710472435
 21
7.09430725846682
 31
0.0
  0
LINE
  5
1BAB2
330
1BAAB
100
AcDbEntity
  8
0
  6
CONTINUOUS
100
AcDbLine
 10
38.60499999996136
 20
4.721750944623645
 30
0.0
 11
40.62149941730453
 21
6.738250361966813
 31
0.0
  0
LINE
  5
1BAB3
330
1BAAB
100
AcDbEntity
  8
0
  6
CONTINUOUS
100
AcDbLine
 10
38.60499999996136
 20
4.048231735543458
 30
0.0
 11
40.93896172988471
 21
6.382193465466806
 31
0.0
  0
LINE
  5
1BAB4
330
1BAAB
100
AcDbEntity
  8
0
  6
CONTINUOUS
100
AcDbLine
 10
38.60499999996136
 20
3.374712526463272
 30
0.0
 11
40.02599999995994
 21
4.795712526461843
 31
0.0
  0
LINE
  5
1BAB5
330
1BAAB
100
AcDbEntity
  8
0
  6
CONTINUOUS
100
AcDbLine
 10
38.60499999996136
 20
2.701193317383085
 30
0.0
 11
40.02599999995994
 21
4.122193317381657
 31
0.0
  0
LINE
  5
1BAB6
330
1BAAB
100
AcDbEntity
  8
0
  6
CONTINUOUS
100
AcDbLine
 10
40.28339754687704
 20
5.053110073378947
 30
0.0
 11
41.25642404246489
 21
6.026136568966799
 31
0.0
  0
LINE
  5
1BAB7
330
1BAAB
100
AcDbEntity
  8
0
  6
CONTINUOUS
100
AcDbLine
 10
40.60085985945722
 20
4.697053176878939
 30
0.0
 11
41.57388635504507
 21
5.670079672466793
 31
0.0
  0
LINE
  5
1BAB8
330
1BAAB
100
AcDbEntity
  8
0
  6
CONTINUOUS
100
AcDbLine
 10
43.57899999995641
 20
8.348712526458318
 30
0.0
 11
43.99338747348935
 21
8.763099999991255
 31
0.0
  0
LINE
  5
1BAB9
330
1BAAB
100
AcDbEntity
  8
0
  6
CONTINUOUS
100
AcDbLine
 10
43.57899999995641
 20
7.675193317378131
 30
0.0
 11
44.66690668256953
 21
8.763099999991255
 31
0.0
  0
LINE
  5
1BABA
330
1BAAB
100
AcDbEntity
  8
0
  6
CONTINUOUS
100
AcDbLine
 10
38.60499999996136
 20
2.027674108302898
 30
0.0
 11
40.02599999995994
 21
3.44867410830147
 31
0.0
  0
LINE
  5
1BABB
330
1BAAB
100
AcDbEntity
  8
0
  6
CONTINUOUS
100
AcDbLine
 10
38.60499999996136
 20
1.354154899222712
 30
0.0
 11
40.02599999995994
 21
2.775154899221284
 31
0.0
  0
LINE
  5
1BABC
330
1BAAB
100
AcDbEntity
  8
0
  6
CONTINUOUS
100
AcDbLine
 10
38.60499999996136
 20
0.6806356901425255
 30
0.0
 11
40.02599999995994
 21
2.101635690141098
 31
0.0
  0
LINE
  5
1BABD
330
1BAAB
100
AcDbEntity
  8
0
  6
CONTINUOUS
100
AcDbLine
 10
38.60499999996136
 20
0.0071164810623383
 30
0.0
 11
40.02599999995994
 21
1.428116481060911
 31
0.0
  0
LINE
  5
1BABE
330
1BAAB
100
AcDbEntity
  8
0
  6
CONTINUOUS
100
AcDbLine
 10
40.9183221720374
 20
4.340996280378933
 30
0.0
 11
41.89134866762525
 21
5.314022775966786
 31
0.0
  0
LINE
  5
1BABF
330
1BAAB
100
AcDbEntity
  8
0
  6
CONTINUOUS
100
AcDbLine
 10
41.23578448461758
 20
3.984939383878926
 30
0.0
 11
42.20881098020543
 21
4.957965879466778
 31
0.0
  0
LINE
  5
1BAC0
330
1BAAB
100
AcDbEntity
  8
0
  6
CONTINUOUS
100
AcDbLine
 10
41.55324679719776
 20
3.628882487378919
 30
0.0
 11
42.52627329278561
 21
4.601908982966772
 31
0.0
  0
LINE
  5
1BAC1
330
1BAAB
100
AcDbEntity
  8
0
  6
CONTINUOUS
100
AcDbLine
 10
41.87070910977793
 20
3.272825590878912
 30
0.0
 11
42.84373560536579
 21
4.245852086466765
 31
0.0
  0
LINE
  5
1BAC2
330
1BAAB
100
AcDbEntity
  8
0
  6
CONTINUOUS
100
AcDbLine
 10
43.57899999995641
 20
7.001674108297943
 30
0.0
 11
44.99999999995498
 21
8.422674108296516
 31
0.0
  0
LINE
  5
1BAC3
330
1BAAB
100
AcDbEntity
  8
0
  6
CONTINUOUS
100
AcDbLine
 10
43.57899999995641
 20
6.328154899217758
 30
0.0
 11
44.99999999995498
 21
7.749154899216329
 31
0.0
  0
LINE
  5
1BAC4
330
1BAAB
100
AcDbEntity
  8
0
  6
CONTINUOUS
100
AcDbLine
 10
43.57899999995641
 20
5.654635690137571
 30
0.0
 11
44.99999999995498
 21
7.075635690136142
 31
0.0
  0
LINE
  5
1BAC5
330
1BAAB
100
AcDbEntity
  8
0
  6
CONTINUOUS
100
AcDbLine
 10
43.57899999995641
 20
4.981116481057384
 30
0.0
 11
44.99999999995498
 21
6.402116481055955
 31
0.0
  0
LINE
  5
1BAC6
330
1BAAB
100
AcDbEntity
  8
0
  6
CONTINUOUS
100
AcDbLine
 10
39.27140272797921
 20
-0.0000000000000009
 30
0.0
 11
40.02599999995994
 21
0.7545972719807246
 31
0.0
  0
LINE
  5
1BAC7
330
1BAAB
100
AcDbEntity
  8
0
  6
CONTINUOUS
100
AcDbLine
 10
39.9449219370594
 20
-0.0000000000000009
 30
0.0
 11
40.02599999995994
 21
0.0810780629005379
 31
0.0
  0
LINE
  5
1BAC8
330
1BAAB
100
AcDbEntity
  8
0
  6
CONTINUOUS
100
AcDbLine
 10
42.18817142235812
 20
2.916768694378905
 30
0.0
 11
43.16119791794597
 21
3.889795189966758
 31
0.0
  0
LINE
  5
1BAC9
330
1BAAB
100
AcDbEntity
  8
0
  6
CONTINUOUS
100
AcDbLine
 10
42.50563373493829
 20
2.560711797878898
 30
0.0
 11
43.47866023052615
 21
3.533738293466751
 31
0.0
  0
LINE
  5
1BACA
330
1BAAB
100
AcDbEntity
  8
0
  6
CONTINUOUS
100
AcDbLine
 10
43.57899999995641
 20
4.307597271977198
 30
0.0
 11
44.99999999995498
 21
5.728597271975769
 31
0.0
  0
LINE
  5
1BACB
330
1BAAB
100
AcDbEntity
  8
0
  6
CONTINUOUS
100
AcDbLine
 10
43.57899999995641
 20
3.634078062897011
 30
0.0
 11
44.99999999995498
 21
5.055078062895582
 31
0.0
  0
LINE
  5
1BACC
330
1BAAB
100
AcDbEntity
  8
0
  6
CONTINUOUS
100
AcDbLine
 10
42.82309604751848
 20
2.204654901378891
 30
0.0
 11
44.99999999995498
 21
4.381558853815395
 31
0.0
  0
LINE
  5
1BACD
330
1BAAB
100
AcDbEntity
  8
0
  6
CONTINUOUS
100
AcDbLine
 10
43.14055836009865
 20
1.848598004878885
 30
0.0
 11
44.99999999995498
 21
3.70803964473521
 31
0.0
  0
LINE
  5
1BACE
330
1BAAB
100
AcDbEntity
  8
0
  6
CONTINUOUS
100
AcDbLine
 10
43.45802067267883
 20
1.492541108378878
 30
0.0
 11
44.99999999995498
 21
3.034520435655023
 31
0.0
  0
LINE
  5
1BACF
330
1BAAB
100
AcDbEntity
  8
0
  6
CONTINUOUS
100
AcDbLine
 10
43.77548298525902
 20
1.136484211878871
 30
0.0
 11
44.99999999995498
 21
2.361001226574837
 31
0.0
  0
LINE
  5
1BAD0
330
1BAAB
100
AcDbEntity
  8
0
  6
CONTINUOUS
100
AcDbLine
 10
44.09294529783919
 20
0.7804273153788639
 30
0.0
 11
44.99999999995498
 21
1.687482017494649
 31
0.0
  0
LINE
  5
1BAD1
330
1BAAB
100
AcDbEntity
  8
0
  6
CONTINUOUS
100
AcDbLine
 10
44.41040761041938
 20
0.4243704188788566
 30
0.0
 11
44.99999999995498
 21
1.013962808414463
 31
0.0
  0
LINE
  5
1BAD2
330
1BAAB
100
AcDbEntity
  8
0
  6
CONTINUOUS
100
AcDbLine
 10
44.72786992299955
 20
0.0683135223788494
 30
0.0
 11
44.99999999995498
 21
0.340443599334276
 31
0.0
  0
LINE
  5
1BAD3
330
1BAAB
100
AcDbEntity
  8
0
  6
CONTINUOUS
100
AcDbLine
 10
39.12223903415696
 20
-0.0000000000000009
 30
0.0
 11
38.60499999996136
 21
0.5172390341955961
 31
0.0
  0
LINE
  5
1BAD4
330
1BAAB
100
AcDbEntity
  8
0
  6
CONTINUOUS
100
AcDbLine
 10
39.79575824323715
 20
-0.0000000000000009
 30
0.0
 11
38.60499999996136
 21
1.190758243275783
 31
0.0
  0
LINE
  5
1BAD5
330
1BAAB
100
AcDbEntity
  8
0
  6
CONTINUOUS
100
AcDbLine
 10
40.02599999995994
 20
0.443277452357397
 30
0.0
 11
38.60499999996136
 21
1.864277452355969
 31
0.0
  0
LINE
  5
1BAD6
330
1BAAB
100
AcDbEntity
  8
0
  6
CONTINUOUS
100
AcDbLine
 10
40.02599999995994
 20
1.116796661437583
 30
0.0
 11
38.60499999996136
 21
2.537796661436155
 31
0.0
  0
LINE
  5
1BAD7
330
1BAAB
100
AcDbEntity
  8
0
  6
CONTINUOUS
100
AcDbLine
 10
40.02599999995994
 20
1.79031587051777
 30
0.0
 11
38.60499999996136
 21
3.211315870516341
 31
0.0
  0
LINE
  5
1BAD8
330
1BAAB
100
AcDbEntity
  8
0
  6
CONTINUOUS
100
AcDbLine
 10
40.02599999995994
 20
2.463835079597956
 30
0.0
 11
38.60499999996136
 21
3.884835079596527
 31
0.0
  0
LINE
  5
1BAD9
330
1BAAB
100
AcDbEntity
  8
0
  6
CONTINUOUS
100
AcDbLine
 10
40.02599999995994
 20
3.137354288678143
 30
0.0
 11
38.60499999996136
 21
4.558354288676714
 31
0.0
  0
LINE
  5
1BADA
330
1BAAB
100
AcDbEntity
  8
0
  6
CONTINUOUS
100
AcDbLine
 10
40.02599999995994
 20
3.810873497758329
 30
0.0
 11
38.60499999996136
 21
5.2318734977569
 31
0.0
  0
LINE
  5
1BADB
330
1BAAB
100
AcDbEntity
  8
0
  6
CONTINUOUS
100
AcDbLine
 10
40.02599999995994
 20
4.484392706838515
 30
0.0
 11
38.60499999996136
 21
5.905392706837086
 31
0.0
  0
LINE
  5
1BADC
330
1BAAB
100
AcDbEntity
  8
0
  6
CONTINUOUS
100
AcDbLine
 10
44.99999999995498
 20
0.183911915923658
 30
0.0
 11
41.53858364506288
 21
3.64532827081576
 31
0.0
  0
LINE
  5
1BADD
330
1BAAB
100
AcDbEntity
  8
0
  6
CONTINUOUS
100
AcDbLine
 10
40.02599999995994
 20
5.157911915918703
 30
0.0
 11
38.60499999996136
 21
6.578911915917274
 31
0.0
  0
LINE
  5
1BADE
330
1BAAB
100
AcDbEntity
  8
0
  6
CONTINUOUS
100
AcDbLine
 10
44.99999999995498
 20
0.8574311250038447
 30
0.0
 11
38.60499999996136
 21
7.25243112499746
 31
0.0
  0
LINE
  5
1BADF
330
1BAAB
100
AcDbEntity
  8
0
  6
CONTINUOUS
100
AcDbLine
 10
44.99999999995498
 20
1.530950334084031
 30
0.0
 11
38.60499999996136
 21
7.925950334077647
 31
0.0
  0
LINE
  5
1BAE0
330
1BAAB
100
AcDbEntity
  8
0
  6
CONTINUOUS
100
AcDbLine
 10
44.99999999995498
 20
2.204469543164218
 30
0.0
 11
43.57899999995641
 21
3.625469543162789
 31
0.0
  0
LINE
  5
1BAE1
330
1BAAB
100
AcDbEntity
  8
0
  6
CONTINUOUS
100
AcDbLine
 10
41.89876730984767
 20
5.305702233271528
 30
0.0
 11
38.60499999996136
 21
8.599469543157834
 31
0.0
  0
LINE
  5
1BAE2
330
1BAAB
100
AcDbEntity
  8
0
  6
CONTINUOUS
100
AcDbLine
 10
44.99999999995498
 20
2.877988752244405
 30
0.0
 11
43.57899999995641
 21
4.298988752242975
 31
0.0
  0
LINE
  5
1BAE3
330
1BAAB
100
AcDbEntity
  8
0
  6
CONTINUOUS
100
AcDbLine
 10
44.99999999995498
 20
3.551507961324591
 30
0.0
 11
43.57899999995641
 21
4.972507961323163
 31
0.0
  0
LINE
  5
1BAE4
330
1BAAB
100
AcDbEntity
  8
0
  6
CONTINUOUS
100
AcDbLine
 10
44.99999999995498
 20
4.225027170404777
 30
0.0
 11
43.57899999995641
 21
5.646027170403348
 31
0.0
  0
LINE
  5
1BAE5
330
1BAAB
100
AcDbEntity
  8
0
  6
CONTINUOUS
100
AcDbLine
 10
44.99999999995498
 20
4.898546379484964
 30
0.0
 11
43.57899999995641
 21
6.319546379483535
 31
0.0
  0
LINE
  5
1BAE6
330
1BAAB
100
AcDbEntity
  8
0
  6
CONTINUOUS
100
AcDbLine
 10
44.99999999995498
 20
5.572065588565151
 30
0.0
 11
43.57899999995641
 21
6.993065588563722
 31
0.0
  0
LINE
  5
1BAE7
330
1BAAB
100
AcDbEntity
  8
0
  6
CONTINUOUS
100
AcDbLine
 10
44.99999999995498
 20
6.245584797645336
 30
0.0
 11
43.57899999995641
 21
7.666584797643908
 31
0.0
  0
LINE
  5
1BAE8
330
1BAAB
100
AcDbEntity
  8
0
  6
CONTINUOUS
100
AcDbLine
 10
44.99999999995498
 20
6.919104006725522
 30
0.0
 11
43.57899999995641
 21
8.340104006724093
 31
0.0
  0
LINE
  5
1BAE9
330
1BAAB
100
AcDbEntity
  8
0
  6
CONTINUOUS
100
AcDbLine
 10
44.99999999995498
 20
7.592623215805709
 30
0.0
 11
43.82952321576943
 21
8.763099999991255
 31
0.0
  0
LINE
  5
1BAEA
330
1BAAB
100
AcDbEntity
  8
0
  6
CONTINUOUS
100
AcDbLine
 10
44.99999999995498
 20
8.266142424885896
 30
0.0
 11
44.50304242484962
 21
8.763099999991255
 31
0.0
  0
ENDBLK
  5
1BB14
330
1BAAB
100
AcDbEntity
  8
0
100
AcDbBlockEnd
  0
BLOCK
  5
1BB15
330
1BAEB
100
AcDbEntity
  8
0
100
AcDbBlockBegin
  2
*X54
 70
     1
 10
0.0
 20
0.0
 30
0.0
  3
*X54
  1

  0
LINE
  5
1BAEC
330
1BAEB
100
AcDbEntity
  8
0
  6
CONTINUOUS
100
AcDbLine
 10
0.0
 20
8.548461116714023
 30
0.0
 11
0.2146388832772324
 21
8.763099999991255
 31
0.0
  0
LINE
  5
1BAED
330
1BAEB
100
AcDbEntity
  8
0
  6
CONTINUOUS
100
AcDbLine
 10
-0.0000000000000002
 20
7.874941907633837
 30
0.0
 11
0.8881580923574184
 21
8.763099999991255
 31
0.0
  0
LINE
  5
1BAEE
330
1BAEB
100
AcDbEntity
  8
0
  6
CONTINUOUS
100
AcDbLine
 10
0.0
 20
7.20142269855365
 30
0.0
 11
1.420999999998572
 21
8.622422698552223
 31
0.0
  0
LINE
  5
1BAEF
330
1BAEB
100
AcDbEntity
  8
0
  6
CONTINUOUS
100
AcDbLine
 10
-0.0000000000000001
 20
6.527903489473465
 30
0.0
 11
1.420999999998571
 21
7.948903489472036
 31
0.0
  0
LINE
  5
1BAF0
330
1BAEB
100
AcDbEntity
  8
0
  6
CONTINUOUS
100
AcDbLine
 10
-0.0000000000000002
 20
5.854384280393278
 30
0.0
 11
1.420999999998571
 21
7.275384280391849
 31
0.0
  0
LINE
  5
1BAF1
330
1BAEB
100
AcDbEntity
  8
0
  6
CONTINUOUS
100
AcDbLine
 10
-0.0000000000000002
 20
5.180865071313091
 30
0.0
 11
1.420999999998571
 21
6.601865071311663
 31
0.0
  0
LINE
  5
1BAF2
330
1BAEB
100
AcDbEntity
  8
0
  6
CONTINUOUS
100
AcDbLine
 10
0.0
 20
4.507345862232905
 30
0.0
 11
1.420999999998571
 21
5.928345862231477
 31
0.0
  0
LINE
  5
1BAF3
330
1BAEB
100
AcDbEntity
  8
0
  6
CONTINUOUS
100
AcDbLine
 10
-0.0000000000000003
 20
3.833826653152718
 30
0.0
 11
1.420999999998571
 21
5.25482665315129
 31
0.0
  0
LINE
  5
1BAF4
330
1BAEB
100
AcDbEntity
  8
0
  6
CONTINUOUS
100
AcDbLine
 10
-0.0000000000000002
 20
3.160307444072532
 30
0.0
 11
1.420999999998571
 21
4.581307444071103
 31
0.0
  0
LINE
  5
1BAF5
330
1BAEB
100
AcDbEntity
  8
0
  6
CONTINUOUS
100
AcDbLine
 10
-0.0000000000000001
 20
2.486788234992345
 30
0.0
 11
1.420999999998571
 21
3.907788234990917
 31
0.0
  0
LINE
  5
1BAF6
330
1BAEB
100
AcDbEntity
  8
0
  6
CONTINUOUS
100
AcDbLine
 10
-0.0000000000000006
 20
1.813269025912159
 30
0.0
 11
1.420999999998571
 21
3.234269025910731
 31
0.0
  0
LINE
  5
1BAF7
330
1BAEB
100
AcDbEntity
  8
0
  6
CONTINUOUS
100
AcDbLine
 10
0.0
 20
1.139749816831973
 30
0.0
 11
1.420999999998571
 21
2.560749816830544
 31
0.0
  0
LINE
  5
1BAF8
330
1BAEB
100
AcDbEntity
  8
0
  6
CONTINUOUS
100
AcDbLine
 10
0.0000000000000002
 20
0.466230607751787
 30
0.0
 11
1.420999999998571
 21
1.887230607750358
 31
0.0
  0
LINE
  5
1BAF9
330
1BAEB
100
AcDbEntity
  8
0
  6
CONTINUOUS
100
AcDbLine
 10
0.2072886013284003
 20
-0.0000000000000009
 30
0.0
 11
1.420999999998571
 21
1.213711398670171
 31
0.0
  0
LINE
  5
1BAFA
330
1BAEB
100
AcDbEntity
  8
0
  6
CONTINUOUS
100
AcDbLine
 10
0.8808078104085864
 20
-0.0000000000000009
 30
0.0
 11
1.420999999998571
 21
0.5401921895899839
 31
0.0
  0
LINE
  5
1BAFB
330
1BAEB
100
AcDbEntity
  8
0
  6
CONTINUOUS
100
AcDbLine
 10
0.0581249075061505
 20
-0.0000000000000009
 30
0.0
 11
-0.0000000000000002
 21
0.0581249075061496
 31
0.0
  0
LINE
  5
1BAFC
330
1BAEB
100
AcDbEntity
  8
0
  6
CONTINUOUS
100
AcDbLine
 10
0.7316441165863372
 20
-0.0000000000000009
 30
0.0
 11
-0.0000000000000002
 21
0.7316441165863363
 31
0.0
  0
LINE
  5
1BAFD
330
1BAEB
100
AcDbEntity
  8
0
  6
CONTINUOUS
100
AcDbLine
 10
1.405163325666523
 20
-0.0000000000000009
 30
0.0
 11
-0.0000000000000002
 21
1.405163325666523
 31
0.0
  0
LINE
  5
1BAFE
330
1BAEB
100
AcDbEntity
  8
0
  6
CONTINUOUS
100
AcDbLine
 10
1.420999999998572
 20
0.6576825347481381
 30
0.0
 11
-0.0000000000000001
 21
2.07868253474671
 31
0.0
  0
LINE
  5
1BAFF
330
1BAEB
100
AcDbEntity
  8
0
  6
CONTINUOUS
100
AcDbLine
 10
1.420999999998571
 20
1.331201743828324
 30
0.0
 11
-0.0000000000000001
 21
2.752201743826896
 31
0.0
  0
LINE
  5
1BB00
330
1BAEB
100
AcDbEntity
  8
0
  6
CONTINUOUS
100
AcDbLine
 10
1.420999999998571
 20
2.004720952908511
 30
0.0
 11
-0.0000000000000002
 21
3.425720952907082
 31
0.0
  0
LINE
  5
1BB01
330
1BAEB
100
AcDbEntity
  8
0
  6
CONTINUOUS
100
AcDbLine
 10
1.420999999998571
 20
2.678240161988697
 30
0.0
 11
-0.0000000000000001
 21
4.099240161987269
 31
0.0
  0
LINE
  5
1BB02
330
1BAEB
100
AcDbEntity
  8
0
  6
CONTINUOUS
100
AcDbLine
 10
1.420999999998572
 20
3.351759371068884
 30
0.0
 11
0.0
 21
4.772759371067455
 31
0.0
  0
LINE
  5
1BB03
330
1BAEB
100
AcDbEntity
  8
0
  6
CONTINUOUS
100
AcDbLine
 10
1.420999999998571
 20
4.02527858014907
 30
0.0
 11
-0.0000000000000003
 21
5.446278580147642
 31
0.0
  0
LINE
  5
1BB04
330
1BAEB
100
AcDbEntity
  8
0
  6
CONTINUOUS
100
AcDbLine
 10
1.420999999998571
 20
4.698797789229257
 30
0.0
 11
0.0
 21
6.119797789227828
 31
0.0
  0
LINE
  5
1BB05
330
1BAEB
100
AcDbEntity
  8
0
  6
CONTINUOUS
100
AcDbLine
 10
1.420999999998571
 20
5.372316998309444
 30
0.0
 11
-0.0000000000000001
 21
6.793316998308015
 31
0.0
  0
LINE
  5
1BB06
330
1BAEB
100
AcDbEntity
  8
0
  6
CONTINUOUS
100
AcDbLine
 10
1.420999999998572
 20
6.045836207389629
 30
0.0
 11
-0.0000000000000004
 21
7.466836207388202
 31
0.0
  0
LINE
  5
1BB07
330
1BAEB
100
AcDbEntity
  8
0
  6
CONTINUOUS
100
AcDbLine
 10
1.420999999998571
 20
6.719355416469816
 30
0.0
 11
0.0
 21
8.140355416468388
 31
0.0
  0
LINE
  5
1BB08
330
1BAEB
100
AcDbEntity
  8
0
  6
CONTINUOUS
100
AcDbLine
 10
1.420999999998571
 20
7.392874625550003
 30
0.0
 11
0.0507746255573185
 21
8.763099999991255
 31
0.0
  0
LINE
  5
1BB09
330
1BAEB
100
AcDbEntity
  8
0
  6
CONTINUOUS
100
AcDbLine
 10
1.420999999998571
 20
8.06639383463019
 30
0.0
 11
0.7242938346375052
 21
8.763099999991255
 31
0.0
  0
LINE
  5
1BB0A
330
1BAEB
100
AcDbEntity
  8
0
  6
CONTINUOUS
100
AcDbLine
 10
1.420999999998571
 20
8.739913043710375
 30
0.0
 11
1.397813043717691
 21
8.763099999991255
 31
0.0
  0
ENDBLK
  5
1BB16
330
1BAEB
100
AcDbEntity
  8
0
100
AcDbBlockEnd
  0
ENDSEC
  0
SECTION
  2
ENTITIES
  0
LINE
  5
1ABBE
330
18
100
AcDbEntity
  8
01
100
AcDbLine
 10
2051.314078645722
 20
-583.8187320008117
 30
0.0000000001127424
 11
2077.314078645722
 21
-583.8187320008117
 31
0.0000000001127424
  0
LINE
  5
1ABBF
330
18
100
AcDbEntity
  8
01
100
AcDbLine
 10
2086.814078645722
 20
-578.3187320008117
 30
0.0000000001127424
 11
2041.814078645722
 21
-578.3187320008117
 31
0.0000000001127424
  0
LINE
  5
1ABC0
330
18
100
AcDbEntity
  8
01
100
AcDbLine
 10
2064.314078645722
 20
-555.8187320008117
 30
0.0000000001127424
 11
2064.314078645722
 21
-600.8187320008117
 31
0.0000000001127424
  0
LINE
  5
1ABC1
330
18
100
AcDbEntity
  8
01
100
AcDbLine
 10
2381.81397430598
 20
-578.3187320008117
 30
0.0000000001127424
 11
2426.81397430598
 21
-578.3187320008117
 31
0.0000000001127424
  0
LINE
  5
1ABC2
330
18
100
AcDbEntity
  8
01
100
AcDbLine
 10
2404.31397430598
 20
-555.8187320008117
 30
0.0000000001127424
 11
2404.31397430598
 21
-600.8187320008117
 31
0.0000000001127424
  0
LINE
  5
1ABC3
330
18
100
AcDbEntity
  8
01
100
AcDbLine
 10
2401.814082711819
 20
-322.8648488500623
 30
0.0000000000564898
 11
2401.814082711819
 21
-335.3648717942654
 31
0.0000000000564898
  0
LINE
  5
1ABC4
330
18
100
AcDbEntity
  8
01
100
AcDbLine
 10
2406.814082711819
 20
-322.8648488500605
 30
0.0000000000564898
 11
2406.814082711819
 21
-335.3648717942672
 31
0.0000000000564898
  0
LINE
  5
1ABC5
330
18
100
AcDbEntity
  8
01
100
AcDbLine
 10
2214.314082645724
 20
-558.3187320008135
 30
0.0000000001127424
 11
2214.31408264572
 21
-598.318732000814
 31
0.0000000001127424
  0
LINE
  5
1ABC6
330
18
100
AcDbEntity
  8
01
100
AcDbLine
 10
2214.314082645724
 20
-598.318732000814
 30
0.0000000001127424
 11
2208.514082645725
 21
-598.3187320008135
 31
0.0000000001127424
  0
ARC
  5
1ABC7
330
18
100
AcDbEntity
  8
01
100
AcDbCircle
 10
2208.514082645725
 20
-597.8187320008135
 30
0.0000000001127424
 40
0.5
100
AcDbArc
 50
180.0
 51
270.0
  0
LINE
  5
1ABC8
330
18
100
AcDbEntity
  8
01
100
AcDbLine
 10
2214.314082645724
 20
-558.3187320008135
 30
0.0000000001127424
 11
2208.514082645725
 21
-558.3187320008144
 31
0.0000000001127424
  0
ARC
  5
1ABC9
330
18
100
AcDbEntity
  8
01
100
AcDbCircle
 10
2208.514082645725
 20
-558.8187320008144
 30
0.0000000001127424
 40
0.5
100
AcDbArc
 50
90.0
 51
180.0
  0
LINE
  5
1ABCA
330
18
100
AcDbEntity
  8
01
100
AcDbLine
 10
2212.814082645724
 20
-598.3187320008208
 30
0.0000000001127424
 11
2214.314082645724
 21
-598.3187320008208
 31
0.0000000001127424
  0
LINE
  5
1ABCC
330
18
100
AcDbEntity
  8
01
100
AcDbLine
 10
2404.313966305977
 20
-378.8187320008115
 30
0.0000000001127424
 11
2404.313966305977
 21
-405.3187320008115
 31
0.0000000001127424
  0
LINE
  5
1ABCD
330
18
100
AcDbEntity
  8
01
100
AcDbLine
 10
2404.313966305977
 20
-348.8187320028687
 30
0.0000000001127424
 11
2404.313966305977
 21
-319.5274589112282
 31
0.0000000001127424
  0
LINE
  5
1ABD0
330
18
100
AcDbEntity
  8
01
100
AcDbLine
 10
2384.31408225716
 20
-383.8187320018403
 30
0.0000000001127424
 11
2424.31408225716
 21
-383.8187320018396
 31
0.0000000001127424
  0
LINE
  5
1ABD1
330
18
100
AcDbEntity
  8
01
100
AcDbLine
 10
2423.81408225716
 20
-390.11873200184
 30
0.0000000001127424
 11
2384.81408225716
 21
-390.1187320018405
 31
0.0000000001127424
  0
CIRCLE
  5
1ABD2
330
18
100
AcDbEntity
  8
01
100
AcDbCircle
 10
2404.313995067399
 20
-578.3187557614999
 30
0.0000000001128561
 40
19.99999999999963
  0
LINE
  5
1ABD3
330
18
100
AcDbEntity
  8
01
100
AcDbLine
 10
2384.31408225716
 20
-383.8187320018403
 30
0.0000000001127424
 11
2384.31408225716
 21
-389.6187320018405
 31
0.0000000001127424
  0
ARC
  5
1ABD4
330
18
100
AcDbEntity
  8
01
100
AcDbCircle
 10
2384.81408225716
 20
-389.61873200184
 30
0.0000000001127424
 40
0.5
100
AcDbArc
 50
180.0
 51
270.0
  0
CIRCLE
  5
1ABD5
330
18
100
AcDbEntity
  8
01
100
AcDbCircle
 10
2404.313995389857
 20
-583.8187555573718
 30
0.0000000001128561
 40
3.75
  0
CIRCLE
  5
1ABD6
330
18
100
AcDbEntity
  8
01
100
AcDbCircle
 10
2404.313995389857
 20
-583.8187557614997
 30
0.0000000001128561
 40
3.5000005
  0
LINE
  5
1ABD7
330
18
100
AcDbEntity
  8
01
100
AcDbLine
 10
2403.313995389857
 20
-587.1728585614997
 30
0.0000000001128561
 11
2403.313995389857
 21
-580.4646517614997
 31
0.0000000001128561
  0
LINE
  5
1ABD8
330
18
100
AcDbEntity
  8
01
100
AcDbLine
 10
2405.313995389857
 20
-587.1728585614997
 30
0.0000000001128561
 11
2405.313995389857
 21
-580.4646517614997
 31
0.0000000001128561
  0
ARC
  5
1ABD9
330
18
100
AcDbEntity
  8
01
100
AcDbCircle
 10
2404.314072715015
 20
-385.9687373797153
 30
0.0000000001126288
 40
6.0
100
AcDbArc
 50
234.314666000001
 51
256.8165179999972
  0
LINE
  5
1ABDA
330
18
100
AcDbEntity
  8
01
100
AcDbLine
 10
2400.814072715015
 20
-390.8421373797155
 30
0.0000000001126288
 11
2400.814072715014
 21
-390.1187320018403
 31
0.0000000001126288
  0
LINE
  5
1ABDB
330
18
100
AcDbEntity
  8
01
100
AcDbLine
 10
2407.814072715015
 20
-390.8421373797155
 30
0.0000000001126288
 11
2407.814072715015
 21
-390.1187320018403
 31
0.0000000001126288
  0
LINE
  5
1ABDC
330
18
100
AcDbEntity
  8
01
100
AcDbLine
 10
2405.314072715015
 20
-391.5192858391179
 30
0.0000000001126288
 11
2405.314072715015
 21
-390.1187320018403
 31
0.0000000001126288
  0
ARC
  5
1ABDD
330
18
100
AcDbEntity
  8
01
100
AcDbCircle
 10
2403.014069715015
 20
-391.5185073797154
 30
0.0000000001126288
 40
0.30000001
100
AcDbArc
 50
256.8165180001134
 51
0.0
  0
ARC
  5
1ABDE
330
18
100
AcDbEntity
  8
01
100
AcDbCircle
 10
2405.614071715015
 20
-391.5185073797154
 30
0.0000000001126288
 40
0.30000001
100
AcDbArc
 50
179.999996999972
 51
283.1834799999916
  0
LINE
  5
1ABDF
330
18
100
AcDbEntity
  8
01
100
AcDbLine
 10
2403.314072715015
 20
-391.5185073797154
 30
0.0000000001126288
 11
2403.314072715015
 21
-390.1187320018403
 31
0.0000000001126288
  0
ARC
  5
1ABE0
330
18
100
AcDbEntity
  8
01
100
AcDbCircle
 10
2404.314072715015
 20
-385.9687373797153
 30
0.0000000001126288
 40
6.0
100
AcDbArc
 50
283.1834825033654
 51
305.6853299999984
  0
LINE
  5
1ABE1
330
18
100
AcDbEntity
  8
01
100
AcDbLine
 10
2424.31408225716
 20
-383.8187320018396
 30
0.0000000001127424
 11
2424.31408225716
 21
-389.61873200184
 31
0.0000000001127424
  0
ARC
  5
1ABE2
330
18
100
AcDbEntity
  8
01
100
AcDbCircle
 10
2423.81408225716
 20
-389.61873200184
 30
0.0000000001127424
 40
0.5
100
AcDbArc
 50
270.0
 51
0.0
  0
LINE
  5
1ABE3
330
18
100
AcDbEntity
  8
01
100
AcDbLine
 10
2254.314082645724
 20
-558.3187320008117
 30
0.0000000001127427
 11
2254.314082645719
 21
-598.3187320008117
 31
0.0000000001127427
  0
LINE
  5
1ABE5
330
18
100
AcDbEntity
  8
01
100
AcDbLine
 10
2051.314078645722
 20
-583.8187320008117
 30
0.0000000001127424
 11
2077.314078645722
 21
-583.8187320008117
 31
0.0000000001127424
  0
LINE
  5
1ABE6
330
18
100
AcDbEntity
  8
01
100
AcDbLine
 10
2086.814078645722
 20
-578.3187320008117
 30
0.0000000001127424
 11
2041.814078645722
 21
-578.3187320008117
 31
0.0000000001127424
  0
LINE
  5
1ABE7
330
18
100
AcDbEntity
  8
01
100
AcDbLine
 10
2064.314078645722
 20
-555.8187320008117
 30
0.0000000001127424
 11
2064.314078645722
 21
-600.8187320008117
 31
0.0000000001127424
  0
LINE
  5
1ABE9
330
18
100
AcDbEntity
  8
01
100
AcDbLine
 10
2404.313966305977
 20
-348.8187320028692
 30
0.0000000001127424
 11
2404.313966305977
 21
-319.1904080000113
 31
0.0000000001127424
  0
LINE
  5
1ABEB
330
18
100
AcDbEntity
  8
01
100
AcDbLine
 10
2208.014082645725
 20
-597.8187320008117
 30
0.0000000001127427
 11
2208.014082645725
 21
-558.8187320008121
 31
0.0000000001127427
  0
CIRCLE
  5
1ABEC
330
18
100
AcDbEntity
  8
01
100
AcDbCircle
 10
2064.314078645721
 20
-578.3187320008117
 30
0.0000000001127424
 40
20.00000000000007
  0
ARC
  5
1ABED
330
18
100
AcDbEntity
  8
01
100
AcDbCircle
 10
2066.314078645722
 20
-574.7875360667176
 30
0.0000000001127424
 40
0.5000000000000013
100
AcDbArc
 50
0.0
 51
77.51311018581228
  0
ARC
  5
1ABEE
330
18
100
AcDbEntity
  8
01
100
AcDbCircle
 10
2062.314078645722
 20
-592.849927934906
 30
0.0000000001127424
 40
0.5000000000000029
100
AcDbArc
 50
180.0
 51
257.5131101858123
  0
ARC
  5
1ABEF
330
18
100
AcDbEntity
  8
01
100
AcDbCircle
 10
2066.314078645722
 20
-592.849927934906
 30
0.0000000001127424
 40
0.5000000000000013
100
AcDbArc
 50
282.4868898141877
 51
0.0
  0
ARC
  5
1ABF0
330
18
100
AcDbEntity
  8
01
100
AcDbCircle
 10
2064.314078645722
 20
-583.8187320008117
 30
0.0000000001127424
 40
9.749999999999995
100
AcDbArc
 50
77.5131101858446
 51
102.4868898141554
  0
ARC
  5
1ABF1
330
18
100
AcDbEntity
  8
01
100
AcDbCircle
 10
2062.314078645722
 20
-574.7875360667176
 30
0.0000000001127424
 40
0.5000000000000029
100
AcDbArc
 50
102.4868898141877
 51
180.0
  0
ARC
  5
1ABF2
330
18
100
AcDbEntity
  8
01
100
AcDbCircle
 10
2064.314078645722
 20
-583.8187320008117
 30
0.0000000001127424
 40
9.75
100
AcDbArc
 50
257.5131101858446
 51
282.4868898141554
  0
LINE
  5
1ABF3
330
18
100
AcDbEntity
  8
01
100
AcDbLine
 10
2066.814078645722
 20
-574.7875360667176
 30
0.0000000001127424
 11
2066.814078645722
 21
-592.849927934906
 31
0.0000000001127424
  0
LINE
  5
1ABF4
330
18
100
AcDbEntity
  8
01
100
AcDbLine
 10
2061.814078645722
 20
-592.849927934906
 30
0.0000000001127424
 11
2061.814078645722
 21
-574.7875360667176
 31
0.0000000001127424
  0
SPLINE
  5
1ABF5
330
18
100
AcDbEntity
  8
01
100
AcDbSpline
210
0.0
220
0.0
230
1.0
 70
     8
 71
     3
 72
    18
 73
    14
 74
     0
 42
0.0000000001
 43
0.0000000001
 40
0.0
 40
0.0
 40
0.0
 40
0.0
 40
0.2500000000000002
 40
0.2500000000000002
 40
0.375
 40
0.375
 40
0.4999999999999998
 40
0.4999999999999998
 40
0.6249999999999996
 40
0.6249999999999996
 40
0.7499999999999993
 40
0.7499999999999993
 40
1.0
 40
1.0
 40
1.0
 40
1.0
 10
2068.003267834912
 20
-592.843829403409
 30
0.0000000001127424
 10
2067.810006777636
 20
-592.9228287284457
 30
0.0000000001127424
 10
2067.617685165907
 20
-592.9940962630153
 30
0.0000000001127424
 10
2067.338359707448
 20
-593.088353374189
 30
0.0000000001127424
 10
2067.24886656494
 20
-593.1169865993766
 30
0.0000000001127424
 10
2067.077589357148
 20
-593.1693216751773
 30
0.0000000001127424
 10
2066.994939943978
 20
-593.1932538400979
 30
0.0000000001127424
 10
2066.843466804537
 20
-593.2352532564446
 30
0.0000000001127424
 10
2066.774795233581
 20
-593.2533151240041
 30
0.0000000001127424
 10
2066.652427259321
 20
-593.2843862621646
 30
0.0000000001127424
 10
2066.598587022705
 20
-593.2974177947715
 30
0.0000000001127424
 10
2066.469232735474
 20
-593.3279728995321
 30
0.0000000001127424
 10
2066.422186753831
 20
-593.3381006881002
 30
0.0000000001127424
 10
2066.422186753831
 20
-593.3381006881002
 30
0.0000000001127424
  0
SPLINE
  5
1ABF6
330
18
100
AcDbEntity
  8
01
100
AcDbSpline
210
0.0
220
0.0
230
1.0
 70
     8
 71
     3
 72
    18
 73
    14
 74
     0
 42
0.0000000001
 43
0.0000000001
 40
0.0
 40
0.0
 40
0.0
 40
0.0
 40
0.2500000000000002
 40
0.2500000000000002
 40
0.3750000000000002
 40
0.3750000000000002
 40
0.5000000000000002
 40
0.5000000000000002
 40
0.6250000000000002
 40
0.6250000000000002
 40
0.7500000000000001
 40
0.7500000000000001
 40
1.0
 40
1.0
 40
1.0
 40
1.0
 10
2060.624889456533
 20
-574.7936345982143
 30
0.0000000001127424
 10
2060.818150513809
 20
-574.7146352731777
 30
0.0000000001127424
 10
2061.010472125537
 20
-574.6433677386083
 30
0.0000000001127424
 10
2061.289797583997
 20
-574.5491106274346
 30
0.0000000001127424
 10
2061.379290726505
 20
-574.5204774022468
 30
0.0000000001127424
 10
2061.550567934297
 20
-574.4681423264462
 30
0.0000000001127424
 10
2061.633217347467
 20
-574.4442101615255
 30
0.0000000001127424
 10
2061.784690486907
 20
-574.402210745179
 30
0.0000000001127424
 10
2061.853362057864
 20
-574.3841488776195
 30
0.0000000001127424
 10
2061.975730032123
 20
-574.3530777394587
 30
0.0000000001127424
 10
2062.02957026874
 20
-574.3400462068519
 30
0.0000000001127424
 10
2062.158924555971
 20
-574.3094911020914
 30
0.0000000001127424
 10
2062.205970537614
 20
-574.2993633135234
 30
0.0000000001127424
 10
2062.205970537614
 20
-574.2993633135234
 30
0.0000000001127424
  0
SPLINE
  5
1ABF7
330
18
100
AcDbEntity
  8
01
100
AcDbSpline
210
0.0
220
0.0
230
1.0
 70
     8
 71
     3
 72
    16
 73
    12
 74
     0
 42
0.0000000001
 43
0.0000000001
 40
0.0
 40
0.0
 40
0.0
 40
0.0
 40
0.1249999999999998
 40
0.1249999999999998
 40
0.2499999999999997
 40
0.2499999999999997
 40
0.4999999999999998
 40
0.4999999999999998
 40
0.7499999999999999
 40
0.7499999999999999
 40
1.0
 40
1.0
 40
1.0
 40
1.0
 10
2062.205970537614
 20
-593.3381006881002
 30
0.0000000001127424
 10
2062.205970537614
 20
-593.3381006881002
 30
0.0000000001127424
 10
2062.194555015488
 20
-593.3355927321093
 30
0.0000000001127424
 10
2062.150121959146
 20
-593.3255879509491
 30
0.0000000001127424
 10
2062.116426358593
 20
-593.3179312858995
 30
0.0000000001127424
 10
2061.987079037131
 20
-593.2873867813669
 30
0.0000000001127424
 10
2061.860623156825
 20
-593.2562866275898
 30
0.0000000001127424
 10
2061.559676955829
 20
-593.1728836192183
 30
0.0000000001127424
 10
2061.382883521062
 20
-593.1197346896956
 30
0.0000000001127424
 10
2061.013187249058
 20
-592.9950423630921
 30
0.0000000001127424
 10
2060.818116090824
 20
-592.9228146573614
 30
0.0000000001127424
 10
2060.624889456533
 20
-592.843829403409
 30
0.0000000001127424
  0
SPLINE
  5
1ABF8
330
18
100
AcDbEntity
  8
01
100
AcDbSpline
210
0.0
220
0.0
230
1.0
 70
     8
 71
     3
 72
    16
 73
    12
 74
     0
 42
0.0000000001
 43
0.0000000001
 40
0.0
 40
0.0
 40
0.0
 40
0.0
 40
0.1249999999999997
 40
0.1249999999999997
 40
0.2499999999999993
 40
0.2499999999999993
 40
0.4999999999999996
 40
0.4999999999999996
 40
0.7499999999999998
 40
0.7499999999999998
 40
1.0
 40
1.0
 40
1.0
 40
1.0
 10
2066.422186753831
 20
-574.2993633135234
 30
0.0000000001127424
 10
2066.422186753831
 20
-574.2993633135234
 30
0.0000000001127424
 10
2066.433602275957
 20
-574.3018712695143
 30
0.0000000001127424
 10
2066.478035332299
 20
-574.3118760506745
 30
0.0000000001127424
 10
2066.511730932852
 20
-574.3195327157241
 30
0.0000000001127424
 10
2066.641078254313
 20
-574.3500772202567
 30
0.0000000001127424
 10
2066.76753413462
 20
-574.3811773740335
 30
0.0000000001127424
 10
2067.068480335616
 20
-574.4645803824051
 30
0.0000000001127424
 10
2067.245273770383
 20
-574.5177293119277
 30
0.0000000001127424
 10
2067.614970042387
 20
-574.6424216385312
 30
0.0000000001127424
 10
2067.810041200621
 20
-574.7146493442619
 30
0.0000000001127424
 10
2068.003267834912
 20
-574.7936345982143
 30
0.0000000001127424
  0
ARC
  5
1ABF9
330
18
100
AcDbEntity
  8
01
100
AcDbCircle
 10
2064.314078645722
 20
-583.8187320008117
 30
0.0000000001127424
 40
9.750000000000005
100
AcDbArc
 50
112.2332717982938
 51
247.7667282017062
  0
ARC
  5
1ABFA
330
18
100
AcDbEntity
  8
01
100
AcDbCircle
 10
2064.314078645722
 20
-583.8187320008117
 30
0.0000000001127424
 40
9.750000000000009
100
AcDbArc
 50
292.2332717982914
 51
67.76672820170617
  0
CIRCLE
  5
1ABFB
330
18
100
AcDbEntity
  8
01
100
AcDbCircle
 10
2064.314078645722
 20
-583.8187320008117
 30
0.0000000001127424
 40
10.3
  0
SPLINE
  5
1ABFC
330
18
100
AcDbEntity
  8
01
100
AcDbSpline
210
0.0
220
0.0
230
1.0
 70
    24
 71
     1
 72
     4
 73
     2
 74
     0
 42
0.0000000001
 43
0.0000000001
 40
0.1160848018737504
 40
0.1160848018737504
 40
1.0
 40
1.0
 10
2208.014082645725
 20
-593.568732000819
 30
0.0000000001127427
 10
2193.314057834712
 20
-593.568732000819
 30
0.0000000001127427
  0
SPLINE
  5
1ABFD
330
18
100
AcDbEntity
  8
01
100
AcDbSpline
210
0.0
220
0.0
230
1.0
 70
    24
 71
     1
 72
     4
 73
     2
 74
     0
 42
0.0000000001
 43
0.0000000001
 40
0.0
 40
0.0
 40
0.8839151981262495
 40
0.8839151981262495
 10
2193.314057834712
 20
-574.068732000819
 30
0.0000000001127427
 10
2208.014082645724
 20
-574.068732000819
 30
0.0000000001127427
  0
ARC
  5
1ABFE
330
18
100
AcDbEntity
  8
01
100
AcDbCircle
 10
2193.314057834712
 20
-592.568732000819
 30
0.0000000001127427
 40
1.0
100
AcDbArc
 50
180.0
 51
270.0
  0
ARC
  5
1ABFF
330
18
100
AcDbEntity
  8
01
100
AcDbCircle
 10
2193.314057834712
 20
-575.068732000819
 30
0.0000000001127427
 40
1.0
100
AcDbArc
 50
90.0
 51
180.0
  0
LINE
  5
1AC00
330
18
100
AcDbEntity
  8
01
100
AcDbLine
 10
2206.814057834712
 20
-575.2564601060471
 30
0.0000000001127427
 11
2206.814057834712
 21
-592.3810038955908
 31
0.0000000001127427
  0
SPLINE
  5
1AC01
330
18
100
AcDbEntity
  8
01
100
AcDbSpline
210
0.0
220
0.0
230
1.0
 70
     8
 71
     3
 72
    14
 73
    10
 74
     0
 42
0.0000000001
 43
0.0000000001
 40
0.0
 40
0.0
 40
0.0
 40
0.0
 40
0.25
 40
0.25
 40
0.5
 40
0.5
 40
0.75
 40
0.75
 40
1.0
 40
1.0
 40
1.0
 40
1.0
 10
2205.814057834712
 20
-574.7875360667249
 30
0.0000000001127427
 10
2205.954025512465
 20
-574.7875360667249
 30
0.0000000001127427
 10
2206.09244678661
 20
-574.7971720220316
 30
0.0000000001127427
 10
2206.342497126565
 20
-574.8362529309732
 30
0.0000000001127427
 10
2206.454814689394
 20
-574.8660590658469
 30
0.0000000001127427
 10
2206.635862060481
 20
-574.9469788026308
 30
0.0000000001127427
 10
2206.703662696785
 20
-574.9973683388225
 30
0.0000000001127427
 10
2206.793281613328
 20
-575.1167379278372
 30
0.0000000001127427
 10
2206.814057834712
 20
-575.1835373785486
 30
0.0000000001127427
 10
2206.814057834712
 20
-575.2564601060471
 30
0.0000000001127427
  0
SPLINE
  5
1AC02
330
18
100
AcDbEntity
  8
01
100
AcDbSpline
210
0.0
220
0.0
230
1.0
 70
     8
 71
     3
 72
    14
 73
    10
 74
     0
 42
0.0000000001
 43
0.0000000001
 40
0.0
 40
0.0
 40
0.0
 40
0.0
 40
0.25
 40
0.25
 40
0.5
 40
0.5
 40
0.75
 40
0.75
 40
1.0
 40
1.0
 40
1.0
 40
1.0
 10
2206.814057834712
 20
-592.3810038955908
 30
0.0000000001127427
 10
2206.814057834712
 20
-592.4539205827252
 30
0.0000000001127427
 10
2206.792697427451
 20
-592.5217052785861
 30
0.0000000001127427
 10
2206.703558235775
 20
-592.6400321525498
 30
0.0000000001127427
 10
2206.63462560562
 20
-592.691145007318
 30
0.0000000001127427
 10
2206.454578165254
 20
-592.7714025994717
 30
0.0000000001127427
 10
2206.341872491759
 20
-592.8013654191782
 30
0.0000000001127427
 10
2206.091301878139
 20
-592.8404137947123
 30
0.0000000001127427
 10
2205.953915728822
 20
-592.8499279349132
 30
0.0000000001127427
 10
2205.814057834712
 20
-592.8499279349132
 30
0.0000000001127427
  0
LINE
  5
1AC03
330
18
100
AcDbEntity
  8
01
100
AcDbLine
 10
2205.814057834712
 20
-592.8499279349132
 30
0.0000000001127427
 11
2193.314057834712
 21
-592.8499279349132
 31
0.0000000001127427
  0
LINE
  5
1AC04
330
18
100
AcDbEntity
  8
01
100
AcDbLine
 10
2193.314057834712
 20
-574.7875360667249
 30
0.0000000001127427
 11
2205.814057834712
 21
-574.7875360667249
 31
0.0000000001127427
  0
SPLINE
  5
1AC05
330
18
100
AcDbEntity
  8
01
100
AcDbSpline
210
0.0
220
0.0
230
1.0
 70
     8
 71
     3
 72
    14
 73
    10
 74
     0
 42
0.0000000001
 43
0.0000000001
 40
0.0
 40
0.0
 40
0.0
 40
0.0
 40
0.2500000000000001
 40
0.2500000000000001
 40
0.5000000000000002
 40
0.5000000000000002
 40
0.7500000000000003
 40
0.7500000000000003
 40
1.0
 40
1.0
 40
1.0
 40
1.0
 10
2193.314057834712
 20
-574.7875360667249
 30
0.0000000001127427
 10
2193.176848919784
 20
-574.7875360667249
 30
0.0000000001127427
 10
2193.041845374272
 20
-574.79891087682
 30
0.0000000001127427
 10
2192.794508915619
 20
-574.8418657441403
 30
0.0000000001127427
 10
2192.684007486254
 20
-574.8731100712448
 30
0.0000000001127427
 10
2192.501813812726
 20
-574.950295588636
 30
0.0000000001127427
 10
2192.432820710341
 20
-574.9946362038954
 30
0.0000000001127427
 10
2192.338053171855
 20
-575.0926178552736
 30
0.0000000001127427
 10
2192.314057834712
 20
-575.1451112782904
 30
0.0000000001127427
 10
2192.314057834712
 20
-575.1982621760358
 30
0.0000000001127427
  0
SPLINE
  5
1AC06
330
18
100
AcDbEntity
  8
01
100
AcDbSpline
210
0.0
220
0.0
230
1.0
 70
     8
 71
     3
 72
    14
 73
    10
 74
     0
 42
0.0000000001
 43
0.0000000001
 40
0.0
 40
0.0
 40
0.0
 40
0.0
 40
0.2500000000000001
 40
0.2500000000000001
 40
0.5000000000000002
 40
0.5000000000000002
 40
0.7500000000000003
 40
0.7500000000000003
 40
1.0
 40
1.0
 40
1.0
 40
1.0
 10
2193.314057834712
 20
-592.8499279349132
 30
0.0000000001127427
 10
2193.176848919784
 20
-592.8499279349132
 30
0.0000000001127427
 10
2193.041845374272
 20
-592.838553124818
 30
0.0000000001127427
 10
2192.794508915619
 20
-592.7955982574977
 30
0.0000000001127427
 10
2192.684007486254
 20
-592.7643539303931
 30
0.0000000001127427
 10
2192.501813812726
 20
-592.6871684130019
 30
0.0000000001127427
 10
2192.432820710341
 20
-592.6428277977425
 30
0.0000000001127427
 10
2192.338053171855
 20
-592.5448461463643
 30
0.0000000001127427
 10
2192.314057834712
 20
-592.4923527233477
 30
0.0000000001127427
 10
2192.314057834712
 20
-592.4392018256024
 30
0.0000000001127427
  0
LINE
  5
1AC07
330
18
100
AcDbEntity
  8
01
100
AcDbLine
 10
2192.314057834712
 20
-575.1982621760358
 30
0.0000000001127427
 11
2192.314057834712
 21
-592.4392018256024
 31
0.0000000001127427
  0
LINE
  5
1AC08
330
18
100
AcDbEntity
  8
01
100
AcDbLine
 10
2192.314057834712
 20
-592.4392018256024
 30
0.0000000001127427
 11
2192.314057834712
 21
-592.568732000819
 31
0.0000000001127427
  0
LINE
  5
1AC09
330
18
100
AcDbEntity
  8
01
100
AcDbLine
 10
2384.814082389366
 20
-337.5187320018404
 30
0.0000000001127424
 11
2423.814082389366
 21
-337.5187320018401
 31
0.0000000001127424
  0
LINE
  5
1AC0A
330
18
100
AcDbEntity
  8
01
100
AcDbLine
 10
2424.314082389366
 20
-343.8187320018403
 30
0.0000000001127424
 11
2384.314082389366
 21
-343.8187320018408
 31
0.0000000001127424
  0
LINE
  5
1AC0B
330
18
100
AcDbEntity
  8
01
100
AcDbLine
 10
2424.314082389366
 20
-343.8187320018403
 30
0.0000000001127424
 11
2424.314082389366
 21
-338.0187320018401
 31
0.0000000001127424
  0
ARC
  5
1AC0C
330
18
100
AcDbEntity
  8
01
100
AcDbCircle
 10
2423.814082389366
 20
-338.0187320018404
 30
0.0000000001127424
 40
0.5
100
AcDbArc
 50
0.0
 51
90.0
  0
LINE
  5
1AC0D
330
18
100
AcDbEntity
  8
01
100
AcDbLine
 10
2384.314082389366
 20
-343.8187320018408
 30
0.0000000001127424
 11
2384.314082389366
 21
-338.0187320018404
 31
0.0000000001127424
  0
ARC
  5
1AC0E
330
18
100
AcDbEntity
  8
01
100
AcDbCircle
 10
2384.814082389366
 20
-338.0187320018404
 30
0.0000000001127424
 40
0.5
100
AcDbArc
 50
90.0
 51
180.0
  0
LINE
  5
1AC0F
330
18
100
AcDbEntity
  8
01
100
AcDbLine
 10
2400.81409461058
 20
-336.3187353350406
 30
0.0000000000565071
 11
2395.064094610574
 21
-336.3187353350395
 31
0.0000000000565071
  0
LINE
  5
1AC10
330
18
100
AcDbEntity
  8
01
100
AcDbLine
 10
2401.814094610581
 20
-322.818712390834
 30
0.0000000000565071
 11
2401.81409461058
 21
-335.3187353350406
 31
0.0000000000565071
  0
LINE
  5
1AC11
330
18
100
AcDbEntity
  8
01
100
AcDbLine
 10
2406.814094610581
 20
-322.8187123908358
 30
0.0000000000565071
 11
2406.814094610581
 21
-335.3187353350388
 31
0.0000000000565071
  0
ARC
  5
1AC12
330
18
100
AcDbEntity
  8
01
100
AcDbCircle
 10
2405.814094610582
 20
-322.818712390834
 30
0.0000000000565071
 40
1.0
100
AcDbArc
 50
0.0000000000521102
 51
90.0
  0
ARC
  5
1AC13
330
18
100
AcDbEntity
  8
01
100
AcDbCircle
 10
2402.814094610582
 20
-322.818712390834
 30
0.0000000000565071
 40
1.0
100
AcDbArc
 50
90.0
 51
180.0
  0
LINE
  5
1AC14
330
18
100
AcDbEntity
  8
01
100
AcDbLine
 10
2405.814094610581
 20
-321.8187123908322
 30
0.0000000000565071
 11
2402.814094610582
 21
-321.8187123908322
 31
0.0000000000565071
  0
LINE
  5
1AC15
330
18
100
AcDbEntity
  8
01
100
AcDbLine
 10
2413.564094610573
 20
-336.3187353350388
 30
0.0000000000565071
 11
2407.814094610581
 21
-336.3187353350388
 31
0.0000000000565071
  0
ARC
  5
1AC16
330
18
100
AcDbEntity
  8
01
100
AcDbCircle
 10
2407.814094610582
 20
-335.3187353350388
 30
0.0000000000565071
 40
1.0
100
AcDbArc
 50
180.0
 51
270.0
  0
ARC
  5
1AC17
330
18
100
AcDbEntity
  8
01
100
AcDbCircle
 10
2400.81409461058
 20
-335.3187353350406
 30
0.0000000000565071
 40
1.0
100
AcDbArc
 50
270.0
 51
0.0
  0
LINE
  5
1AC18
330
18
100
AcDbEntity
  8
01
100
AcDbLine
 10
2394.564094610573
 20
-336.8187353350393
 30
0.0000000001127646
 11
2394.564094610573
 21
-337.5187320018401
 31
0.0000000001127424
  0
ARC
  5
1AC19
330
18
100
AcDbEntity
  8
01
100
AcDbCircle
 10
2395.064094610574
 20
-336.8187353350393
 30
0.0000000001127646
 40
0.5
100
AcDbArc
 50
90.0
 51
180.0
  0
LINE
  5
1AC1A
330
18
100
AcDbEntity
  8
01
100
AcDbLine
 10
2414.064094610573
 20
-336.8187353350393
 30
0.0000000001127646
 11
2414.064094610573
 21
-337.5187320018401
 31
0.0000000001127424
  0
ARC
  5
1AC1B
330
18
100
AcDbEntity
  8
01
100
AcDbCircle
 10
2413.564094610573
 20
-336.8187353350393
 30
0.0000000001127646
 40
0.5
100
AcDbArc
 50
0.0
 51
90.0
  0
LINE
  5
1AC1D
330
18
100
AcDbEntity
  8
01
100
AcDbLine
 10
2260.614082645724
 20
-597.8187271366219
 30
0.0000000000564849
 11
2260.614082645724
 21
-558.8187271366223
 31
0.0000000000564849
  0
LINE
  5
1AC1E
330
18
100
AcDbEntity
  8
01
100
AcDbLine
 10
2254.314082645719
 20
-598.3187271366221
 30
0.0000000000564849
 11
2260.114082645724
 21
-598.3187271366219
 31
0.0000000000564849
  0
ARC
  5
1AC1F
330
18
100
AcDbEntity
  8
01
100
AcDbCircle
 10
2260.114082645724
 20
-597.8187271366219
 30
0.0000000000564849
 40
0.5
100
AcDbArc
 50
270.0
 51
0.0
  0
LINE
  5
1AC20
330
18
100
AcDbEntity
  8
01
100
AcDbLine
 10
2254.314082645724
 20
-558.3187271366219
 30
0.0000000000564849
 11
2260.114082645724
 21
-558.3187271366223
 31
0.0000000000564849
  0
ARC
  5
1AC21
330
18
100
AcDbEntity
  8
01
100
AcDbCircle
 10
2260.114082645724
 20
-558.8187271366223
 30
0.0000000000564849
 40
0.5
100
AcDbArc
 50
0.0
 51
90.0
  0
LINE
  5
1AC22
330
18
100
AcDbEntity
  8
01
100
AcDbLine
 10
2261.356066334684
 20
-580.3187306798734
 30
0.0000000001127388
 11
2260.614082645723
 21
-580.3187306798736
 31
0.0000000001127388
  0
LINE
  5
1AC23
330
18
100
AcDbEntity
  8
01
100
AcDbLine
 10
2261.356066334684
 20
-587.3187306798734
 30
0.0000000001127388
 11
2260.614082645723
 21
-587.3187306798734
 31
0.0000000001127388
  0
ARC
  5
1AC24
330
18
100
AcDbEntity
  8
01
100
AcDbCircle
 10
2256.482666334684
 20
-583.8187306798734
 30
0.0000000001127388
 40
6.0
100
AcDbArc
 50
324.3146699999965
 51
35.68533471265765
  0
LINE
  5
1AC28
330
18
100
AcDbEntity
  8
01
100
AcDbLine
 10
2348.313966305977
 20
-555.8187320008119
 30
0.0000000001127424
 11
2362.313966305977
 21
-555.8187320008119
 31
0.0000000001127424
  0
LINE
  5
1AC29
330
18
100
AcDbEntity
  8
01
100
AcDbLine
 10
2353.314850488037
 20
-343.8187320018405
 30
0.0000000001127424
 11
2507.06923064307
 21
-343.8187320018405
 31
0.0000000001127424
  0
LINE
  5
1AC2A
330
18
100
AcDbEntity
  8
01
  6
BYBLOCK
100
AcDbLine
 10
2353.314850488037
 20
-343.8187320018405
 30
0.0000000001127424
 11
2353.314850488037
 21
-383.8187320018405
 31
0.0000000001127424
  0
LINE
  5
1AC2E
330
18
100
AcDbEntity
  8
01
  6
BYBLOCK
100
AcDbLine
 10
2354.813966305977
 20
-547.9187320008118
 30
0.0000000001127424
 11
2354.813966305977
 21
-677.7187320008118
 31
0.0000000001127424
  0
LINE
  5
1AC2F
330
18
100
AcDbEntity
  8
01
  6
BYBLOCK
100
AcDbLine
 10
2354.813966305977
 20
-676.8187320008119
 30
0.0000000001127424
 11
2357.313966305977
 21
-676.8187320008119
 31
0.0000000001127424
  0
LINE
  5
1AC30
330
18
100
AcDbEntity
  8
01
  6
BYBLOCK
100
AcDbLine
 10
2357.313966305977
 20
-676.8187320008119
 30
0.0000000001127424
 11
2357.313966305977
 21
-660.3157882756595
 31
0.0000000001127424
  0
LINE
  5
1AC31
330
18
100
AcDbEntity
  8
01
  6
BYBLOCK
100
AcDbLine
 10
2353.313966305977
 20
-547.9187320008118
 30
0.0000000001127424
 11
2353.313966305977
 21
-677.7187320008118
 31
0.0000000001127424
  0
LINE
  5
1AC32
330
18
100
AcDbEntity
  8
01
  6
BYBLOCK
100
AcDbLine
 10
2353.313966305977
 20
-677.7187320008118
 30
0.0000000001127424
 11
2354.813966305977
 21
-677.7187320008118
 31
0.0000000001127424
  0
LINE
  5
1AC33
330
18
100
AcDbEntity
  8
01
  6
BYBLOCK
100
AcDbLine
 10
2354.813966305977
 20
-548.8187320008119
 30
0.0000000001127424
 11
2357.313966305977
 21
-548.8187320008119
 31
0.0000000001127424
  0
LINE
  5
1AC34
330
18
100
AcDbEntity
  8
01
  6
BYBLOCK
100
AcDbLine
 10
2353.313966305977
 20
-547.9187320008118
 30
0.0000000001127424
 11
2354.813966305977
 21
-547.9187320008118
 31
0.0000000001127424
  0
LINE
  5
1AC35
330
18
100
AcDbEntity
  8
01
  6
BYBLOCK
100
AcDbLine
 10
2354.813966305977
 20
-572.8187320008119
 30
0.0000000001127424
 11
2356.013966305977
 21
-572.8187320008119
 31
0.0000000001127424
  0
LINE
  5
1AC36
330
18
100
AcDbEntity
  8
01
  6
BYBLOCK
100
AcDbLine
 10
2356.013966305977
 20
-567.1187320008116
 30
0.0000000001127424
 11
2356.013966305977
 21
-658.5187320008117
 31
0.0000000001127424
  0
LINE
  5
1AC37
330
18
100
AcDbEntity
  8
01
  6
BYBLOCK
100
AcDbLine
 10
2356.113966305978
 20
-676.8187320008119
 30
0.0000000001127424
 11
2356.113966305978
 21
-660.2187320008118
 31
0.0000000001127424
  0
LINE
  5
1AC38
330
18
100
AcDbEntity
  8
01
  6
BYBLOCK
100
AcDbLine
 10
2356.113966305978
 20
-660.2187320008118
 30
0.0000000001127424
 11
2355.165438168553
 21
-659.2702038633879
 31
0.0000000001127424
  0
LINE
  5
1AC39
330
18
100
AcDbEntity
  8
01
  6
BYBLOCK
100
AcDbLine
 10
2356.962494443401
 20
-659.4672601382356
 30
0.0000000001127424
 11
2356.013966305977
 21
-658.5187320008117
 31
0.0000000001127424
  0
ARC
  5
1AC3A
330
18
100
AcDbEntity
  8
01
  6
BYBLOCK
100
AcDbCircle
 10
2356.113966305978
 20
-660.3157882756595
 30
0.0000000001127424
 40
1.2
100
AcDbArc
 50
0.0
 51
45.00000000003838
  0
ARC
  5
1AC3B
330
18
100
AcDbEntity
  8
01
  6
BYBLOCK
100
AcDbCircle
 10
2356.013966305977
 20
-658.421675725964
 30
0.0000000001127424
 40
1.2
100
AcDbArc
 50
180.0
 51
225.0000000000384
  0
LINE
  5
1AC3C
330
18
100
AcDbEntity
  8
01
  6
BYBLOCK
100
AcDbLine
 10
2357.313966305977
 20
-548.8187320008119
 30
0.0000000001127424
 11
2357.313966305977
 21
-565.321675725964
 31
0.0000000001127424
  0
LINE
  5
1AC3D
330
18
100
AcDbEntity
  8
01
  6
BYBLOCK
100
AcDbLine
 10
2356.113966305978
 20
-548.8187320008119
 30
0.0000000001127424
 11
2356.113966305978
 21
-565.4187320008118
 31
0.0000000001127424
  0
LINE
  5
1AC3E
330
18
100
AcDbEntity
  8
01
  6
BYBLOCK
100
AcDbLine
 10
2356.113966305978
 20
-565.4187320008118
 30
0.0000000001127424
 11
2355.165438168553
 21
-566.3672601382357
 31
0.0000000001127424
  0
LINE
  5
1AC3F
330
18
100
AcDbEntity
  8
01
  6
BYBLOCK
100
AcDbLine
 10
2356.962494443401
 20
-566.170203863388
 30
0.0000000001127424
 11
2356.013966305977
 21
-567.1187320008119
 31
0.0000000001127424
  0
ARC
  5
1AC40
330
18
100
AcDbEntity
  8
01
  6
BYBLOCK
100
AcDbCircle
 10
2356.113966305978
 20
-565.321675725964
 30
0.0000000001127424
 40
1.2
100
AcDbArc
 50
314.9999999999616
 51
0.0
  0
ARC
  5
1AC41
330
18
100
AcDbEntity
  8
01
  6
BYBLOCK
100
AcDbCircle
 10
2356.013966305977
 20
-567.2157882756596
 30
0.0000000001127424
 40
1.2
100
AcDbArc
 50
134.9999999999616
 51
180.0
  0
CIRCLE
  5
1AC42
330
18
100
AcDbEntity
  8
1HIDDEN
100
AcDbCircle
 10
2404.313966305977
 20
-583.8187320008119
 30
0.0000000001127424
 40
4.75
  0
LINE
  5
1AC43
330
18
100
AcDbEntity
  8
01
  6
BYBLOCK
100
AcDbLine
 10
2356.013966305977
 20
-649.8187320008121
 30
0.0000000001127424
 11
2387.102051827919
 21
-649.8187320008119
 31
0.0000000001127424
  0
ARC
  5
1AC44
330
18
100
AcDbEntity
  8
01
  6
BYBLOCK
100
AcDbCircle
 10
2356.414850488038
 20
-360.2574814588406
 30
0.0000000001127424
 40
1.6
100
AcDbArc
 50
115.9444797720153
 51
180.0
  0
ARC
  5
1AC45
330
18
100
AcDbEntity
  8
01
  6
BYBLOCK
100
AcDbCircle
 10
2356.414850488038
 20
-367.3799825448405
 30
0.0000000001127424
 40
1.6
100
AcDbArc
 50
180.0
 51
244.0555202279838
  0
ARC
  5
1AC46
330
18
100
AcDbEntity
  8
01
  6
BYBLOCK
100
AcDbCircle
 10
2355.714850488037
 20
-368.6574814588405
 30
0.0000000001127424
 40
1.6
100
AcDbArc
 50
0.0
 51
64.05552022799934
  0
ARC
  5
1AC47
330
18
100
AcDbEntity
  8
01
  6
BYBLOCK
100
AcDbCircle
 10
2355.714850488037
 20
-358.9799825448406
 30
0.0000000001127424
 40
1.6
100
AcDbArc
 50
295.9444797720016
 51
0.0
  0
LINE
  5
1AC48
330
18
100
AcDbEntity
  8
01
  6
BYBLOCK
100
AcDbLine
 10
2357.314850488037
 20
-358.9799825448406
 30
0.0000000001127424
 11
2357.314850488037
 21
-351.6187320018405
 31
0.0000000001127424
  0
LINE
  5
1AC49
330
18
100
AcDbEntity
  8
01
  6
BYBLOCK
100
AcDbLine
 10
2356.414850488038
 20
-367.2187320018406
 30
0.0000000001127424
 11
2356.414850488038
 21
-360.4187320018405
 31
0.0000000001127424
  0
LINE
  5
1AC4A
330
18
100
AcDbEntity
  8
01
  6
BYBLOCK
100
AcDbLine
 10
2357.314850488037
 20
-375.8187320018405
 30
0.0000000001127424
 11
2357.314850488037
 21
-368.6574814588405
 31
0.0000000001127424
  0
LINE
  5
1AC4B
330
18
100
AcDbEntity
  8
01
  6
BYBLOCK
100
AcDbLine
 10
2355.714850488037
 20
-358.8187320018405
 30
0.0000000001127424
 11
2355.714850488038
 21
-351.6187320018405
 31
0.0000000001127424
  0
LINE
  5
1AC4C
330
18
100
AcDbEntity
  8
01
  6
BYBLOCK
100
AcDbLine
 10
2355.714850488037
 20
-368.8187320018405
 30
0.0000000001127424
 11
2355.714850488037
 21
-375.9187320018405
 31
0.0000000001127424
  0
ARC
  5
1AC4D
330
18
100
AcDbEntity
  8
01
  6
BYBLOCK
100
AcDbCircle
 10
2420.714850488037
 20
-355.9187320018405
 30
0.0000000001127424
 40
1.6
100
AcDbArc
 50
0.0
 51
90.0
  0
LINE
  5
1AC4E
330
18
100
AcDbEntity
  8
01
  6
BYBLOCK
100
AcDbLine
 10
2354.814850488037
 20
-351.4187320018405
 30
0.0000000001127424
 11
2354.814850488037
 21
-376.2187320018404
 31
0.0000000001127424
  0
LINE
  5
1AC4F
330
18
100
AcDbEntity
  8
01
  6
BYBLOCK
100
AcDbLine
 10
2420.714850488037
 20
-354.3187320018405
 30
0.0000000001127424
 11
2357.314850488037
 21
-354.3187320018405
 31
0.0000000001127424
  0
LINE
  5
1AC50
330
18
100
AcDbEntity
  8
01
  6
BYBLOCK
100
AcDbLine
 10
2420.714850488037
 20
-371.5187320018406
 30
0.0000000001127424
 11
2420.714850488037
 21
-354.3187320018405
 31
0.0000000001127424
  0
LINE
  5
1AC51
330
18
100
AcDbEntity
  8
01
  6
BYBLOCK
100
AcDbLine
 10
2422.314850488037
 20
-373.1187320018405
 30
0.0000000001127424
 11
2422.314850488037
 21
-355.9187320018405
 31
0.0000000001127424
  0
LINE
  5
1AC52
330
18
100
AcDbEntity
  8
01
  6
BYBLOCK
100
AcDbLine
 10
2354.814850488037
 20
-351.6187320018405
 30
0.0000000001127424
 11
2357.314850488037
 21
-351.6187320018405
 31
0.0000000001127424
  0
LINE
  5
1AC53
330
18
100
AcDbEntity
  8
01
  6
BYBLOCK
100
AcDbLine
 10
2357.314850488037
 20
-375.8187320018405
 30
0.0000000001127424
 11
2355.714850488037
 21
-375.8187320018405
 31
0.0000000001127424
  0
LINE
  5
1AC54
330
18
100
AcDbEntity
  8
01
  6
BYBLOCK
100
AcDbLine
 10
2355.714850488037
 20
-375.9187320018405
 30
0.0000000001127424
 11
2354.814850488037
 21
-375.9187320018405
 31
0.0000000001127424
  0
ARC
  5
1AC55
330
18
100
AcDbEntity
  8
01
  6
BYBLOCK
100
AcDbCircle
 10
2352.015445415436
 20
-369.5187320018399
 30
0.0000000001127424
 40
0.3000000000000051
100
AcDbArc
 50
232.8678058729329
 51
270.0
  0
LINE
  5
1AC56
330
18
100
AcDbEntity
  8
01
  6
BYBLOCK
100
AcDbLine
 10
2352.814850488037
 20
-369.8187320018399
 30
0.0000000001127424
 11
2352.015445415436
 21
-369.8187320018399
 31
0.0000000001127424
  0
LINE
  5
1AC57
330
18
100
AcDbEntity
  8
01
  6
BYBLOCK
100
AcDbLine
 10
2342.414850488038
 20
-360.1457431356357
 30
0.0000000001127424
 11
2342.414850488038
 21
-360.3163651911848
 31
0.0000000001127424
  0
ARC
  5
1AC58
330
18
100
AcDbEntity
  8
01
  6
BYBLOCK
100
AcDbCircle
 10
2342.714850488037
 20
-360.3163651911848
 30
0.0000000001127424
 40
0.3
100
AcDbArc
 50
180.0
 51
217.7405295629137
  0
ARC
  5
1AC59
330
18
100
AcDbEntity
  8
01
  6
BYBLOCK
100
AcDbCircle
 10
2382.017151087322
 20
-329.895662247244
 30
0.0000000001127424
 40
50.00000000000002
100
AcDbArc
 50
217.7405295629802
 51
232.8678058729729
  0
LINE
  5
1AC5A
330
18
100
AcDbEntity
  8
01
  6
BYBLOCK
100
AcDbLine
 10
2342.214850488037
 20
-359.0187320018404
 30
0.0000000001127424
 11
2342.214850488037
 21
-358.3187320018405
 31
0.0000000001127424
  0
ARC
  5
1AC5B
330
18
100
AcDbEntity
  8
01
  6
BYBLOCK
100
AcDbCircle
 10
2342.714850488037
 20
-358.3187320018405
 30
0.0000000001127424
 40
0.5000000000000142
100
AcDbArc
 50
90.0
 51
180.0
  0
LINE
  5
1AC5C
330
18
100
AcDbEntity
  8
01
  6
BYBLOCK
100
AcDbLine
 10
2352.814850488037
 20
-357.8187320018405
 30
0.0000000001127424
 11
2342.714850488037
 21
-357.8187320018405
 31
0.0000000001127424
  0
LINE
  5
1AC5D
330
18
100
AcDbEntity
  8
01
  6
BYBLOCK
100
AcDbLine
 10
2342.214850488037
 20
-359.3974116582808
 30
0.0000000001127424
 11
2342.214850488037
 21
-359.0187320018404
 31
0.0000000001127424
  0
SPLINE
  5
1AC5E
330
18
100
AcDbEntity
  8
01
  6
BYBLOCK
100
AcDbSpline
210
0.0
220
0.0
230
1.0
 70
     8
 71
     3
 72
     8
 73
     4
 74
     0
 42
0.0000000001
 43
0.0000000001
 40
0.0
 40
0.0
 40
0.0
 40
0.0
 40
1.0
 40
1.0
 40
1.0
 40
1.0
 10
2342.240583029302
 20
-359.6740620877299
 30
0.0000000001127424
 10
2342.223115143191
 20
-359.5809758918494
 30
0.0000000001127424
 10
2342.214850488037
 20
-359.4877098809579
 30
0.0000000001127424
 10
2342.214850488037
 20
-359.3974116582804
 30
0.0000000001127424
  0
ARC
  5
1AC5F
330
18
100
AcDbEntity
  8
01
  6
BYBLOCK
100
AcDbCircle
 10
2343.714850488037
 20
-359.3974116582808
 30
0.0000000001127424
 40
1.499999999999998
100
AcDbArc
 50
190.628112987605
 51
225.0000000000245
  0
LINE
  5
1AC60
330
18
100
AcDbEntity
  8
01
  6
BYBLOCK
100
AcDbLine
 10
2353.314850488037
 20
-356.9687320018404
 30
0.0000000001127424
 11
2352.814850488037
 21
-356.9687320018404
 31
0.0000000001127424
  0
LINE
  5
1AC61
330
18
100
AcDbEntity
  8
01
  6
BYBLOCK
100
AcDbLine
 10
2352.814850488037
 20
-370.6687320018405
 30
0.0000000001127424
 11
2353.314850488037
 21
-370.6687320018405
 31
0.0000000001127424
  0
LINE
  5
1AC62
330
18
100
AcDbEntity
  8
01
  6
BYBLOCK
100
AcDbLine
 10
2352.814850488037
 20
-370.6687320018405
 30
0.0000000001127424
 11
2352.814850488037
 21
-356.9687320018404
 31
0.0000000001127424
  0
LINE
  5
1AC63
330
18
100
AcDbEntity
  8
01
  6
BYBLOCK
100
AcDbLine
 10
2353.314850488037
 20
-351.4187320018405
 30
0.0000000001127424
 11
2354.814850488037
 21
-351.4187320018405
 31
0.0000000001127424
  0
LINE
  5
1AC64
330
18
100
AcDbEntity
  8
01
  6
BYBLOCK
100
AcDbLine
 10
2353.314850488037
 20
-376.2187320018404
 30
0.0000000001127424
 11
2354.814850488037
 21
-376.2187320018404
 31
0.0000000001127424
  0
LINE
  5
1AC65
330
18
100
AcDbEntity
  8
01
  6
BYBLOCK
100
AcDbLine
 10
2353.314850488037
 20
-376.2187320018404
 30
0.0000000001127424
 11
2353.314850488037
 21
-351.4187320018405
 31
0.0000000001127424
  0
LINE
  5
1AC66
330
18
100
AcDbEntity
  8
01
  6
BYBLOCK
100
AcDbLine
 10
2422.314850488037
 20
-371.5187320018406
 30
0.0000000001127424
 11
2357.314850488037
 21
-371.5187320018406
 31
0.0000000001127424
  0
LINE
  5
1AC67
330
18
100
AcDbEntity
  8
01
  6
BYBLOCK
100
AcDbLine
 10
2422.314850488037
 20
-373.1187320018405
 30
0.0000000001127424
 11
2371.914850488038
 21
-373.1187320018405
 31
0.0000000001127424
  0
LINE
  5
1AC68
330
18
100
AcDbEntity
  8
01
  6
BYBLOCK
100
AcDbLine
 10
2374.752108788241
 20
-373.1187320018405
 30
0.0000000001127424
 11
2357.314850488037
 21
-373.1187320018405
 31
0.0000000001127424
  0
LINE
  5
1AC69
330
18
100
AcDbEntity
  8
01
  6
BYBLOCK
100
AcDbLine
 10
2351.86840387863
 20
-369.6722853924339
 30
0.0000000001127424
 11
2342.654190316257
 21
-360.4580718300608
 31
0.0000000001127424
  0
ARC
  5
1AC6A
330
18
100
AcDbEntity
  8
01
  6
BYBLOCK
100
AcDbCircle
 10
2352.221957269224
 20
-369.3187320018405
 30
0.0000000001127424
 40
0.5
100
AcDbArc
 50
225.0
 51
270.0
  0
LINE
  5
1AC6B
330
18
100
AcDbEntity
  8
01
  6
BYBLOCK
100
AcDbLine
 10
2352.814850488037
 20
-369.8187320018405
 30
0.0000000001127424
 11
2352.221957269224
 21
-369.8187320018405
 31
0.0000000001127424
  0
LINE
  5
1AC6D
330
18
100
AcDbEntity
  8
01
  6
BYBLOCK
100
AcDbLine
 10
2342.313966305977
 20
-602.7870617337958
 30
0.0000000001127424
 11
2342.313966305977
 21
-620.8504022678017
 31
0.0000000001127424
  0
LINE
  5
1AC6E
330
18
100
AcDbEntity
  8
01
  6
BYBLOCK
100
AcDbLine
 10
2346.606859524791
 20
-601.8187320007987
 30
0.0000000001127424
 11
2353.313966305977
 21
-601.8187320007987
 31
0.0000000001127424
  0
LINE
  5
1AC6F
330
18
100
AcDbEntity
  8
01
  6
BYBLOCK
100
AcDbLine
 10
2346.606859524791
 20
-621.8187320007987
 30
0.0000000001127424
 11
2353.313966305977
 21
-621.8187320007987
 31
0.0000000001127424
  0
LINE
  5
1AC70
330
18
100
AcDbEntity
  8
01
  6
BYBLOCK
100
AcDbLine
 10
2352.106859524792
 20
-606.5687320007987
 30
0.0000000001127424
 11
2352.106859524791
 21
-617.0687320007987
 31
0.0000000001127424
  0
ARC
  5
1AC71
330
18
100
AcDbEntity
  8
01
  6
BYBLOCK
100
AcDbCircle
 10
2346.606859524791
 20
-611.8187320007987
 30
0.0000000001127424
 40
10.00000000000009
100
AcDbArc
 50
53.13010235415233
 51
115.4224671781178
  0
ARC
  5
1AC72
330
18
100
AcDbEntity
  8
01
  6
BYBLOCK
100
AcDbCircle
 10
2346.606859524791
 20
-611.8187320007985
 30
0.0000000001127424
 40
10.00000000000009
100
AcDbArc
 50
244.5775328218822
 51
306.8698976458411
  0
LINE
  5
1AC73
330
18
100
AcDbEntity
  8
01
  6
BYBLOCK
100
AcDbLine
 10
2352.606859524792
 20
-603.8187320007987
 30
0.0000000001127424
 11
2352.606859524792
 21
-619.8187320007987
 31
0.0000000001127424
  0
LINE
  5
1AC74
330
18
100
AcDbEntity
  8
01
  6
BYBLOCK
100
AcDbLine
 10
2342.313966305977
 20
-606.5687320007987
 30
0.0000000001127424
 11
2352.106859524792
 21
-606.5687320007987
 31
0.0000000001127424
  0
LINE
  5
1AC75
330
18
100
AcDbEntity
  8
01
  6
BYBLOCK
100
AcDbLine
 10
2342.313966305977
 20
-617.0687320007987
 30
0.0000000001127424
 11
2352.106859524792
 21
-617.0687320007987
 31
0.0000000001127424
  0
LINE
  5
1AC76
330
18
100
AcDbEntity
  8
01
  6
BYBLOCK
100
AcDbLine
 10
2227.914082645722
 20
-547.9187320008125
 30
0.0000000001127424
 11
2240.714082645722
 21
-547.9187320008125
 31
0.0000000001127424
  0
LINE
  5
1AC77
330
18
100
AcDbEntity
  8
01
  6
BYBLOCK
100
AcDbLine
 10
2227.914082645722
 20
-677.7187320008125
 30
0.0000000001127424
 11
2240.714082645722
 21
-677.7187320008125
 31
0.0000000001127424
  0
LINE
  5
1AC78
330
18
100
AcDbEntity
  8
01
  6
BYBLOCK
100
AcDbLine
 10
2221.914082645722
 20
-553.9187320008125
 30
0.0000000001127424
 11
2221.914082645722
 21
-671.7187320008125
 31
0.0000000001127424
  0
LINE
  5
1AC79
330
18
100
AcDbEntity
  8
01
  6
BYBLOCK
100
AcDbLine
 10
2246.714082645722
 20
-553.9187320008125
 30
0.0000000001127424
 11
2246.714082645722
 21
-671.7187320008125
 31
0.0000000001127424
  0
ARC
  5
1AC7A
330
18
100
AcDbEntity
  8
01
  6
BYBLOCK
100
AcDbCircle
 10
2227.914082645722
 20
-671.7187320008125
 30
0.0000000001127424
 40
6.0
100
AcDbArc
 50
180.0
 51
270.0
  0
ARC
  5
1AC7B
330
18
100
AcDbEntity
  8
01
  6
BYBLOCK
100
AcDbCircle
 10
2240.714082645722
 20
-671.7187320008125
 30
0.0000000001127424
 40
6.0
100
AcDbArc
 50
270.0
 51
0.0
  0
ARC
  5
1AC7C
330
18
100
AcDbEntity
  8
01
  6
BYBLOCK
100
AcDbCircle
 10
2227.914082645722
 20
-553.9187320008125
 30
0.0000000001127424
 40
6.0
100
AcDbArc
 50
90.0
 51
180.0
  0
ARC
  5
1AC7D
330
18
100
AcDbEntity
  8
01
  6
BYBLOCK
100
AcDbCircle
 10
2240.714082645722
 20
-553.9187320008125
 30
0.0000000001127424
 40
6.0
100
AcDbArc
 50
0.0
 51
90.0
  0
CIRCLE
  5
1AC7E
330
18
100
AcDbEntity
  8
01
  6
BYBLOCK
100
AcDbCircle
 10
2234.314082645722
 20
-669.8187320008124
 30
0.0000000001127424
 40
2.75
  0
CIRCLE
  5
1AC7F
330
18
100
AcDbEntity
  8
01
  6
BYBLOCK
100
AcDbCircle
 10
2234.314082645722
 20
-669.8187320008124
 30
0.0000000001127424
 40
4.25
  0
CIRCLE
  5
1AC80
330
18
100
AcDbEntity
  8
01
  6
BYBLOCK
100
AcDbCircle
 10
2234.314082645722
 20
-555.8187320008126
 30
0.0000000001127424
 40
2.75
  0
CIRCLE
  5
1AC81
330
18
100
AcDbEntity
  8
01
  6
BYBLOCK
100
AcDbCircle
 10
2234.314082645722
 20
-555.8187320008126
 30
0.0000000001127424
 40
4.25
  0
LINE
  5
1AC82
330
18
100
AcDbEntity
  8
1CENTER
100
AcDbLine
 10
2240.189108053628
 20
-669.8187320008126
 30
0.0000000001127424
 11
2228.439057237816
 21
-669.8187320008126
 31
0.0000000001127424
  0
LINE
  5
1AC83
330
18
100
AcDbEntity
  8
1CENTER
100
AcDbLine
 10
2234.314082645722
 20
-663.9437065929062
 30
0.0000000001127424
 11
2234.314082645722
 21
-675.6937574087187
 31
0.0000000001127424
  0
LINE
  5
1AC84
330
18
100
AcDbEntity
  8
1CENTER
100
AcDbLine
 10
2240.189108053628
 20
-555.8187320008126
 30
0.0000000001127424
 11
2228.439057237816
 21
-555.8187320008126
 31
0.0000000001127424
  0
LINE
  5
1AC85
330
18
100
AcDbEntity
  8
1CENTER
100
AcDbLine
 10
2234.314082645722
 20
-549.9437065929062
 30
0.0000000001127424
 11
2234.314082645722
 21
-561.6937574087187
 31
0.0000000001127424
  0
ARC
  5
1AC86
330
18
100
AcDbEntity
  8
01
  6
BYBLOCK
100
AcDbCircle
 10
2234.314082645722
 20
-611.8187320008124
 30
0.0000000001127424
 40
10.15
100
AcDbArc
 50
231.9925780701369
 51
308.0074219298611
  0
LINE
  5
1AC87
330
18
100
AcDbEntity
  8
01
  6
BYBLOCK
100
AcDbLine
 10
2228.064082645722
 20
-603.8212323915595
 30
0.0000000001127424
 11
2228.064082645722
 21
-619.8162316100652
 31
0.0000000001127424
  0
LINE
  5
1AC88
330
18
100
AcDbEntity
  8
01
  6
BYBLOCK
100
AcDbLine
 10
2240.564082645722
 20
-603.8212323915595
 30
0.0000000001127424
 11
2240.564082645722
 21
-619.8162316100652
 31
0.0000000001127424
  0
ARC
  5
1AC89
330
18
100
AcDbEntity
  8
01
  6
BYBLOCK
100
AcDbCircle
 10
2234.314082645722
 20
-611.8187320008124
 30
0.0000000001127424
 40
10.15
100
AcDbArc
 50
51.99257807014251
 51
128.0074219298595
  0
LINE
  5
1AC8A
330
18
100
AcDbEntity
  8
01
  6
BYBLOCK
100
AcDbLine
 10
2229.814082645722
 20
-606.5687320008124
 30
0.0000000001127424
 11
2229.814082645722
 21
-617.0687320008124
 31
0.0000000001127424
  0
LINE
  5
1AC8B
330
18
100
AcDbEntity
  8
01
  6
BYBLOCK
100
AcDbLine
 10
2239.814082645722
 20
-606.5687320008124
 30
0.0000000001127424
 11
2239.814082645722
 21
-617.0687320008124
 31
0.0000000001127424
  0
LINE
  5
1AC8C
330
18
100
AcDbEntity
  8
01
  6
BYBLOCK
100
AcDbLine
 10
2230.314082645722
 20
-602.490146899094
 30
0.0000000001127424
 11
2230.314082645722
 21
-606.5687320008126
 31
0.0000000001127424
  0
LINE
  5
1AC8D
330
18
100
AcDbEntity
  8
01
  6
BYBLOCK
100
AcDbLine
 10
2228.814082645722
 20
-606.5687320008126
 30
0.0000000001127424
 11
2228.814082645722
 21
-617.0687320008124
 31
0.0000000001127424
  0
LINE
  5
1AC8E
330
18
100
AcDbEntity
  8
01
  6
BYBLOCK
100
AcDbLine
 10
2230.314082645722
 20
-617.0687320008124
 30
0.0000000001127424
 11
2230.314082645722
 21
-621.1473171025307
 31
0.0000000001127424
  0
LINE
  5
1AC8F
330
18
100
AcDbEntity
  8
01
  6
BYBLOCK
100
AcDbLine
 10
2228.814082645722
 20
-606.5687320008124
 30
0.0000000001127424
 11
2239.814082645722
 21
-606.5687320008124
 31
0.0000000001127424
  0
LINE
  5
1AC90
330
18
100
AcDbEntity
  8
01
  6
BYBLOCK
100
AcDbLine
 10
2228.814082645722
 20
-617.0687320008124
 30
0.0000000001127424
 11
2239.814082645722
 21
-617.0687320008124
 31
0.0000000001127424
  0
LINE
  5
1AC92
330
18
100
AcDbEntity
  8
01
100
AcDbLine
 10
2214.314198985465
 20
-513.8187320008121
 30
0.0000000001127424
 11
2214.314198985465
 21
-703.8187320008124
 31
0.0000000001127424
  0
LINE
  5
1AC93
330
18
100
AcDbEntity
  8
01
100
AcDbLine
 10
2348.313966306265
 20
-669.8187320005231
 30
0.0000000001127424
 11
2362.313966306265
 21
-669.8187320005231
 31
0.0000000001127424
  0
LINE
  5
1AC94
330
18
100
AcDbEntity
  8
01
100
AcDbLine
 10
2415.625854573518
 20
-583.8187320008119
 30
0.0000000001127424
 11
2393.002078038435
 21
-583.8187320008119
 31
0.0000000001127424
  0
LINE
  5
1AC95
330
18
100
AcDbEntity
  8
01
100
AcDbLine
 10
2404.313966305977
 20
-572.5068437332702
 30
0.0000000001127424
 11
2404.313966305977
 21
-595.1306202683536
 31
0.0000000001127424
  0
LINE
  5
1AC96
330
18
100
AcDbEntity
  8
01
  6
BYBLOCK
100
AcDbLine
 10
2126.314198985468
 20
-602.7870617337958
 30
0.0000000001127424
 11
2126.314198985468
 21
-620.8504022678017
 31
0.0000000001127424
  0
LINE
  5
1AC97
330
18
100
AcDbEntity
  8
01
  6
BYBLOCK
100
AcDbLine
 10
2122.021305766655
 20
-601.8187320007987
 30
0.0000000001127424
 11
2115.314198985468
 21
-601.8187320007987
 31
0.0000000001127424
  0
LINE
  5
1AC98
330
18
100
AcDbEntity
  8
01
  6
BYBLOCK
100
AcDbLine
 10
2122.021305766655
 20
-621.8187320007987
 30
0.0000000001127424
 11
2115.314198985468
 21
-621.8187320007987
 31
0.0000000001127424
  0
ARC
  5
1AC99
330
18
100
AcDbEntity
  8
01
  6
BYBLOCK
100
AcDbCircle
 10
2122.021305766655
 20
-611.8187320007987
 30
0.0000000001127424
 40
10.00000000000009
100
AcDbArc
 50
64.57753282188452
 51
90.0
  0
LINE
  5
1AC9A
330
18
100
AcDbEntity
  8
01
  6
CONTINUOUS
100
AcDbLine
 10
2125.814198985468
 20
-620.1335261936295
 30
0.0000000001127424
 11
2115.314198985468
 21
-620.1335261936295
 31
0.0000000001127424
  0
ARC
  5
1AC9B
330
18
100
AcDbEntity
  8
01
  6
CONTINUOUS
100
AcDbCircle
 10
2125.852779232382
 20
-619.6713869628227
 30
0.0000000001127424
 40
0.4637468103423796
100
AcDbArc
 50
265.2279066161926
 51
354.2577450626241
  0
LINE
  5
1AC9C
330
18
100
AcDbEntity
  8
01
  6
CONTINUOUS
100
AcDbLine
 10
2126.314198985468
 20
-604.3354172272507
 30
0.0000000001127424
 11
2126.314198985468
 21
-619.3020467743465
 31
0.0000000001127424
  0
ARC
  5
1AC9D
330
18
100
AcDbEntity
  8
01
  6
CONTINUOUS
100
AcDbCircle
 10
2125.852779232382
 20
-603.9660770387743
 30
0.0000000001127424
 40
0.4637468103423387
100
AcDbArc
 50
5.742254937375924
 51
94.77209338380747
  0
ARC
  5
1AC9E
330
18
100
AcDbEntity
  8
01
  6
BYBLOCK
100
AcDbCircle
 10
2122.021305766655
 20
-611.8187320007985
 30
0.0000000001127424
 40
10.00000000000009
100
AcDbArc
 50
270.0
 51
295.4224671781155
  0
LINE
  5
1AC9F
330
18
100
AcDbEntity
  8
01
  6
CONTINUOUS
100
AcDbLine
 10
2115.314198985468
 20
-603.5039378079675
 30
0.0000000001127424
 11
2125.814198985468
 21
-603.5039378079675
 31
0.0000000001127424
  0
LINE
  5
1ACA0
330
18
100
AcDbEntity
  8
01
100
AcDbLine
 10
2422.313966305977
 20
-618.7107870710738
 30
0.0000000001127424
 11
2422.313966305977
 21
-648.6187320008119
 31
0.0000000001127424
  0
LINE
  5
1ACA2
330
18
100
AcDbEntity
  8
01
100
AcDbLine
 10
2387.102051827919
 20
-649.8187320008119
 30
0.0000000001127424
 11
2421.313966305977
 21
-649.8187320008117
 31
0.0000000001127424
  0
LINE
  5
1ACA5
330
18
100
AcDbEntity
  8
01
  6
BYBLOCK
100
AcDbLine
 10
2422.313966305977
 20
-587.0366130332336
 30
0.0000000001128561
 11
2422.313966305977
 21
-618.7107870710738
 31
0.0000000001127338
  0
LINE
  5
1ACA6
330
18
100
AcDbEntity
  8
01
  6
BYBLOCK
100
AcDbLine
 10
2356.013966305977
 20
-575.8187320008119
 30
0.0000000001127424
 11
2384.470863227994
 21
-575.8187320008119
 31
0.0000000001128561
  0
ARC
  5
1ACA7
330
18
100
AcDbEntity
  8
1HIDDEN
100
AcDbCircle
 10
2421.313966305977
 20
-576.8187320008119
 30
0.0000000001127424
 40
1.0
100
AcDbArc
 50
0.0
 51
90.0
  0
LINE
  5
1ACA8
330
18
100
AcDbEntity
  8
1HIDDEN
100
AcDbLine
 10
2384.470863227994
 20
-575.8187320008119
 30
0.0000000001128561
 11
2421.313966305977
 21
-575.8187320008119
 31
0.0000000001127424
  0
LINE
  5
1ACA9
330
18
100
AcDbEntity
  8
1HIDDEN
100
AcDbLine
 10
2422.313966305977
 20
-576.8187320008119
 30
0.0000000001127424
 11
2422.313966305977
 21
-587.0366130332336
 31
0.0000000001128561
  0
LINE
  5
1ACAA
330
18
100
AcDbEntity
  8
01
100
AcDbLine
 10
2120.314198985468
 20
-555.8187320008119
 30
0.0000000001127424
 11
2106.314198985468
 21
-555.8187320008119
 31
0.0000000001127424
  0
LINE
  5
1ACAB
330
18
100
AcDbEntity
  8
01
  6
BYBLOCK
100
AcDbLine
 10
2113.814198985468
 20
-547.9187320008118
 30
0.0000000001127424
 11
2113.814198985468
 21
-677.7187320008118
 31
0.0000000001127424
  0
LINE
  5
1ACAC
330
18
100
AcDbEntity
  8
01
  6
BYBLOCK
100
AcDbLine
 10
2113.814198985468
 20
-676.8187320008119
 30
0.0000000001127424
 11
2111.314198985468
 21
-676.8187320008119
 31
0.0000000001127424
  0
LINE
  5
1ACAD
330
18
100
AcDbEntity
  8
01
  6
BYBLOCK
100
AcDbLine
 10
2111.314198985468
 20
-676.8187320008119
 30
0.0000000001127424
 11
2111.314198985468
 21
-660.3157882756595
 31
0.0000000001127424
  0
LINE
  5
1ACAE
330
18
100
AcDbEntity
  8
01
  6
BYBLOCK
100
AcDbLine
 10
2115.314198985468
 20
-547.9187320008118
 30
0.0000000001127424
 11
2115.314198985468
 21
-677.7187320008118
 31
0.0000000001127424
  0
LINE
  5
1ACAF
330
18
100
AcDbEntity
  8
01
  6
BYBLOCK
100
AcDbLine
 10
2115.314198985468
 20
-677.7187320008118
 30
0.0000000001127424
 11
2113.814198985468
 21
-677.7187320008118
 31
0.0000000001127424
  0
LINE
  5
1ACB0
330
18
100
AcDbEntity
  8
01
  6
BYBLOCK
100
AcDbLine
 10
2113.814198985468
 20
-548.8187320008119
 30
0.0000000001127424
 11
2111.314198985468
 21
-548.8187320008119
 31
0.0000000001127424
  0
LINE
  5
1ACB1
330
18
100
AcDbEntity
  8
01
  6
BYBLOCK
100
AcDbLine
 10
2115.314198985468
 20
-547.9187320008118
 30
0.0000000001127424
 11
2113.814198985468
 21
-547.9187320008118
 31
0.0000000001127424
  0
LINE
  5
1ACB2
330
18
100
AcDbEntity
  8
01
  6
BYBLOCK
100
AcDbLine
 10
2113.814198985468
 20
-572.8187320008119
 30
0.0000000001127424
 11
2112.614198985469
 21
-572.8187320008119
 31
0.0000000001127424
  0
LINE
  5
1ACB3
330
18
100
AcDbEntity
  8
01
  6
BYBLOCK
100
AcDbLine
 10
2112.614198985469
 20
-567.1187320008116
 30
0.0000000001127424
 11
2112.614198985469
 21
-658.5187320008117
 31
0.0000000001127424
  0
LINE
  5
1ACB4
330
18
100
AcDbEntity
  8
01
  6
BYBLOCK
100
AcDbLine
 10
2112.514198985468
 20
-676.8187320008119
 30
0.0000000001127424
 11
2112.514198985468
 21
-660.2187320008118
 31
0.0000000001127424
  0
LINE
  5
1ACB5
330
18
100
AcDbEntity
  8
01
  6
BYBLOCK
100
AcDbLine
 10
2112.514198985468
 20
-660.2187320008118
 30
0.0000000001127424
 11
2113.462727122893
 21
-659.2702038633879
 31
0.0000000001127424
  0
LINE
  5
1ACB6
330
18
100
AcDbEntity
  8
01
  6
BYBLOCK
100
AcDbLine
 10
2111.665670848045
 20
-659.4672601382356
 30
0.0000000001127424
 11
2112.614198985469
 21
-658.5187320008117
 31
0.0000000001127424
  0
ARC
  5
1ACB7
330
18
100
AcDbEntity
  8
01
  6
BYBLOCK
100
AcDbCircle
 10
2112.514198985468
 20
-660.3157882756595
 30
0.0000000001127424
 40
1.2
100
AcDbArc
 50
134.999999999977
 51
180.0
  0
ARC
  5
1ACB8
330
18
100
AcDbEntity
  8
01
  6
BYBLOCK
100
AcDbCircle
 10
2112.614198985469
 20
-658.421675725964
 30
0.0000000001127424
 40
1.2
100
AcDbArc
 50
314.9999999999616
 51
0.0
  0
LINE
  5
1ACB9
330
18
100
AcDbEntity
  8
01
  6
BYBLOCK
100
AcDbLine
 10
2111.314198985468
 20
-548.8187320008119
 30
0.0000000001127424
 11
2111.314198985468
 21
-565.321675725964
 31
0.0000000001127424
  0
LINE
  5
1ACBA
330
18
100
AcDbEntity
  8
01
  6
BYBLOCK
100
AcDbLine
 10
2112.514198985468
 20
-548.8187320008119
 30
0.0000000001127424
 11
2112.514198985468
 21
-565.4187320008118
 31
0.0000000001127424
  0
LINE
  5
1ACBB
330
18
100
AcDbEntity
  8
01
  6
BYBLOCK
100
AcDbLine
 10
2112.514198985468
 20
-565.4187320008118
 30
0.0000000001127424
 11
2113.462727122893
 21
-566.3672601382357
 31
0.0000000001127424
  0
LINE
  5
1ACBC
330
18
100
AcDbEntity
  8
01
  6
BYBLOCK
100
AcDbLine
 10
2111.665670848045
 20
-566.170203863388
 30
0.0000000001127424
 11
2112.614198985469
 21
-567.1187320008119
 31
0.0000000001127424
  0
ARC
  5
1ACBD
330
18
100
AcDbEntity
  8
01
  6
BYBLOCK
100
AcDbCircle
 10
2112.514198985468
 20
-565.321675725964
 30
0.0000000001127424
 40
1.2
100
AcDbArc
 50
180.0
 51
225.000000000023
  0
ARC
  5
1ACBE
330
18
100
AcDbEntity
  8
01
  6
BYBLOCK
100
AcDbCircle
 10
2112.614198985469
 20
-567.2157882756596
 30
0.0000000001127424
 40
1.2
100
AcDbArc
 50
0.0
 51
45.00000000003838
  0
LINE
  5
1ACBF
330
18
100
AcDbEntity
  8
01
  6
BYBLOCK
100
AcDbLine
 10
2112.614198985469
 20
-649.8187320008121
 30
0.0000000001127424
 11
2081.525888784034
 21
-649.818732000812
 31
0.0000000001127424
  0
LINE
  5
1ACC0
330
18
100
AcDbEntity
  8
01
  6
BYBLOCK
100
AcDbLine
 10
2122.021305766655
 20
-601.8187320007987
 30
0.0000000001127424
 11
2115.314198985468
 21
-601.8187320007987
 31
0.0000000001127424
  0
LINE
  5
1ACC1
330
18
100
AcDbEntity
  8
01
  6
BYBLOCK
100
AcDbLine
 10
2122.021305766655
 20
-621.8187320007987
 30
0.0000000001127424
 11
2115.314198985468
 21
-621.8187320007987
 31
0.0000000001127424
  0
LINE
  5
1ACC2
330
18
100
AcDbEntity
  8
01
100
AcDbLine
 10
2120.314198985181
 20
-669.8187320005231
 30
0.0000000001127424
 11
2106.314198985181
 21
-669.8187320005231
 31
0.0000000001127424
  0
LINE
  5
1ACC3
330
18
100
AcDbEntity
  8
01
  6
BYBLOCK
100
AcDbLine
 10
2046.314198985468
 20
-587.0366130332336
 30
0.0000000001128561
 11
2046.314198985468
 21
-618.7105193861028
 31
0.000000000112766
  0
LINE
  5
1ACC4
330
18
100
AcDbEntity
  8
01
  6
BYBLOCK
100
AcDbLine
 10
2112.614198985469
 20
-575.8187320008119
 30
0.0000000001127424
 11
2084.157302063451
 21
-575.8187320008119
 31
0.0000000001128561
  0
TEXT
  5
1ACC7
330
18
100
AcDbEntity
  8
1TEXT
100
AcDbText
 10
2049.31421098547
 20
-348.8187320008119
 30
0.0000000001127424
 40
20.0
  1
2-M9C-X-LJ
100
AcDbText
  0
LINE
  5
1ACEF
330
18
100
AcDbEntity
  8
01
  6
BYBLOCK
100
AcDbLine
 10
2353.314734148295
 20
-383.8200503139146
 30
0.0000000001127424
 11
2507.069114303325
 21
-383.8200503139146
 31
0.0000000001127424
  0
LINE
  5
1ACF0
330
18
100
AcDbEntity
  8
01
100
AcDbLine
 10
2254.313966305977
 20
-513.8187320008119
 30
0.0000000001127424
 11
2254.313966305977
 21
-703.8187320008119
 31
0.0000000001127424
  0
LINE
  5
1ACF1
330
18
100
AcDbEntity
  8
01
100
AcDbLine
 10
2374.313966305977
 20
-633.8187320008119
 30
0.0000000001127424
 11
2434.313966305977
 21
-633.8187320008119
 31
0.0000000001127424
  0
LINE
  5
1ACF2
330
18
100
AcDbEntity
  8
01
100
AcDbLine
 10
2404.313966305977
 20
-603.8187320008119
 30
0.0000000001127424
 11
2404.313966305977
 21
-663.8187320008119
 31
0.0000000001127424
  0
LINE
  5
1AD11
330
18
100
AcDbEntity
  8
1CENTER
100
AcDbLine
 10
2404.313966305978
 20
-381.7612260930282
 30
0.0000000001127424
 11
2404.313966305978
 21
-419.8016025122197
 31
0.0000000001127424
  0
LINE
  5
1AD37
330
18
100
AcDbEntity
  8
1CENTER
100
AcDbLine
 10
2404.313966305978
 20
-345.8762379106529
 30
0.0000000001127424
 11
2404.313966305978
 21
-307.8358614914614
 31
0.0000000001127424
  0
LINE
  5
1B30D
330
18
100
AcDbEntity
  8
1CENTER
100
AcDbLine
 10
2094.313974305976
 20
-633.8187320008119
 30
0.0000000001127424
 11
2034.313974305976
 21
-633.8187320008119
 31
0.0000000001127424
  0
LINE
  5
1B30E
330
18
100
AcDbEntity
  8
1CENTER
100
AcDbLine
 10
2064.313974305976
 20
-603.8187320008119
 30
0.0000000001127424
 11
2064.313974305976
 21
-663.8187320008119
 31
0.0000000001127424
  0
LINE
  5
1B311
330
18
100
AcDbEntity
  8
1CENTER
100
AcDbLine
 10
2404.314082645722
 20
-313.8187320018405
 30
0.0000000001127424
 11
2404.314082645722
 21
-348.8187320018403
 31
0.0000000001127424
  0
LINE
  5
1B312
330
18
100
AcDbEntity
  8
1CENTER
100
AcDbLine
 10
2184.313970305977
 20
-633.8187320008119
 30
0.0000000001127424
 11
2219.313970305977
 21
-633.8187320008119
 31
0.0000000001127424
  0
LINE
  5
1B313
330
18
100
AcDbEntity
  8
1CENTER
100
AcDbLine
 10
2249.313970305977
 20
-633.8187320008119
 30
0.0000000001127424
 11
2284.313970305977
 21
-633.8187320008119
 31
0.0000000001127424
  0
LINE
  5
1B316
330
18
100
AcDbEntity
  8
1CENTER
100
AcDbLine
 10
2184.313970305977
 20
-633.8187320008119
 30
0.0000000001127424
 11
2219.313970305977
 21
-633.8187320008119
 31
0.0000000001127424
  0
ARC
  5
1B31A
330
18
100
AcDbEntity
  8
01
100
AcDbCircle
 10
2378.314082645716
 20
-390.3187320018496
 30
0.0000000001127424
 40
0.5
100
AcDbArc
 50
90.0
 51
180.0
  0
ARC
  5
1B31B
330
18
100
AcDbEntity
  8
01
100
AcDbCircle
 10
2378.314082645716
 20
-390.3187320018496
 30
0.0000000001127424
 40
0.5
100
AcDbArc
 50
90.0
 51
180.0
  0
ARC
  5
1B31C
330
18
100
AcDbEntity
  8
01
100
AcDbCircle
 10
2379.814082645705
 20
-440.818732001846
 30
0.0000000001127424
 40
2.0
100
AcDbArc
 50
180.0
 51
270.0
  0
LINE
  5
1B31D
330
18
100
AcDbEntity
  8
01
100
AcDbLine
 10
2377.814082645716
 20
-390.3187320018495
 30
0.0000000001127424
 11
2377.814082645705
 21
-440.818732001846
 31
0.0000000001127424
  0
LINE
  5
1B31E
330
18
100
AcDbEntity
  8
01
100
AcDbLine
 10
2414.114082645712
 20
-420.8187320018387
 30
0.0000000001127424
 11
2414.114082645712
 21
-418.8187320018387
 31
0.0000000001127424
  0
ARC
  5
1B31F
330
18
100
AcDbEntity
  8
01
100
AcDbCircle
 10
2419.114082645712
 20
-420.8187320018387
 30
0.0000000001127424
 40
5.0
100
AcDbArc
 50
180.0
 51
270.0
  0
LINE
  5
1B320
330
18
100
AcDbEntity
  8
01
100
AcDbLine
 10
2419.114082645716
 20
-425.8187320018387
 30
0.0000000001127424
 11
2433.314082645726
 21
-425.8187320018387
 31
0.0000000001127424
  0
LINE
  5
1B321
330
18
100
AcDbEntity
  8
01
100
AcDbLine
 10
2379.814082645705
 20
-442.818732001846
 30
0.0000000001127424
 11
2433.31408264574
 21
-442.8187320018462
 31
0.0000000001127424
  0
LINE
  5
1B322
330
18
100
AcDbEntity
  8
01
100
AcDbLine
 10
2380.814082645722
 20
-383.8187320018387
 30
0.0000000001127424
 11
2380.814082645722
 21
-389.3187320018424
 31
0.0000000001127424
  0
LINE
  5
1B323
330
18
100
AcDbEntity
  8
01
100
AcDbLine
 10
2427.814082645722
 20
-389.3187320018424
 30
0.0000000001127424
 11
2424.314082257161
 21
-389.3187320018424
 31
0.0000000001127424
  0
LINE
  5
1B324
330
18
100
AcDbEntity
  8
01
100
AcDbLine
 10
2380.814082645722
 20
-383.8187320018387
 30
0.0000000001127424
 11
2427.814082645722
 21
-383.8187320018424
 31
0.0000000001127424
  0
LINE
  5
1B325
330
18
100
AcDbEntity
  8
01
100
AcDbLine
 10
2427.814082645722
 20
-389.3187320018424
 30
0.0000000001127424
 11
2427.814082645722
 21
-383.8187320018424
 31
0.0000000001127424
  0
LINE
  5
1B326
330
18
100
AcDbEntity
  8
01
100
AcDbLine
 10
2378.314082645716
 20
-389.8187320018504
 30
0.0000000001127424
 11
2384.355824687669
 21
-389.8187320018486
 31
0.0000000001127424
  0
LINE
  5
1B327
330
18
100
AcDbEntity
  8
01
100
AcDbLine
 10
2382.014082645725
 20
-418.8187320018387
 30
0.0000000001127424
 11
2426.814082645723
 21
-418.8187320018387
 31
0.0000000001127424
  0
LINE
  5
1B328
330
18
100
AcDbEntity
  8
01
100
AcDbLine
 10
2427.814082645723
 20
-417.8187320018387
 30
0.0000000001127424
 11
2427.814082645719
 21
-389.8187320018351
 31
0.0000000001127424
  0
ARC
  5
1B329
330
18
100
AcDbEntity
  8
01
100
AcDbCircle
 10
2426.814082645723
 20
-417.8187320018387
 30
0.0000000001127424
 40
1.0
100
AcDbArc
 50
270.0
 51
0.0
  0
ARC
  5
1B32A
330
18
100
AcDbEntity
  8
01
100
AcDbCircle
 10
2382.014082645725
 20
-417.8187320018387
 30
0.0000000001127424
 40
1.0
100
AcDbArc
 50
180.0
 51
270.0
  0
LINE
  5
1B32B
330
18
100
AcDbEntity
  8
01
100
AcDbLine
 10
2381.014082645725
 20
-417.8187320018384
 30
0.0000000001127424
 11
2381.014082645733
 21
-389.8187320018401
 31
0.0000000001127424
  0
ARC
  5
1B32C
330
18
100
AcDbEntity
  8
01
100
AcDbCircle
 10
2378.314082645716
 20
-337.3187320018314
 30
0.0000000001127424
 40
0.5
100
AcDbArc
 50
180.0
 51
270.0
  0
ARC
  5
1B32D
330
18
100
AcDbEntity
  8
01
100
AcDbCircle
 10
2378.314082645716
 20
-337.3187320018314
 30
0.0000000001127424
 40
0.5
100
AcDbArc
 50
180.0
 51
270.0
  0
ARC
  5
1B32E
330
18
100
AcDbEntity
  8
01
100
AcDbCircle
 10
2379.814082645705
 20
-286.8187320018351
 30
0.0000000001127424
 40
2.0
100
AcDbArc
 50
90.0
 51
180.0
  0
LINE
  5
1B32F
330
18
100
AcDbEntity
  8
01
100
AcDbLine
 10
2377.814082645716
 20
-337.3187320018316
 30
0.0000000001127424
 11
2377.814082645705
 21
-286.8187320018351
 31
0.0000000001127424
  0
LINE
  5
1B330
330
18
100
AcDbEntity
  8
01
100
AcDbLine
 10
2414.114082645712
 20
-306.8187320018424
 30
0.0000000001127424
 11
2414.114082645712
 21
-308.8187320018424
 31
0.0000000001127424
  0
ARC
  5
1B331
330
18
100
AcDbEntity
  8
01
100
AcDbCircle
 10
2419.114082645712
 20
-306.8187320018424
 30
0.0000000001127424
 40
5.0
100
AcDbArc
 50
90.0
 51
180.0
  0
LINE
  5
1B332
330
18
100
AcDbEntity
  8
01
100
AcDbLine
 10
2419.114082645716
 20
-301.8187320018424
 30
0.0000000001127424
 11
2434.114082645719
 21
-301.8187320018424
 31
0.0000000001127424
  0
LINE
  5
1B333
330
18
100
AcDbEntity
  8
01
100
AcDbLine
 10
2379.814082645705
 20
-284.8187320018351
 30
0.0000000001127424
 11
2433.31408264574
 21
-284.818732001842
 31
0.0000000001127424
  0
LINE
  5
1B334
330
18
100
AcDbEntity
  8
01
100
AcDbLine
 10
2380.814082645722
 20
-343.8187320018424
 30
0.0000000001127424
 11
2380.814082645722
 21
-338.3187320018387
 31
0.0000000001127424
  0
LINE
  5
1B335
330
18
100
AcDbEntity
  8
01
100
AcDbLine
 10
2427.814082645722
 20
-338.3187320018387
 30
0.0000000001127424
 11
2424.314082389366
 21
-338.3187320018387
 31
0.0000000001127424
  0
LINE
  5
1B336
330
18
100
AcDbEntity
  8
01
100
AcDbLine
 10
2380.814082645722
 20
-343.8187320018424
 30
0.0000000001127424
 11
2427.814082645722
 21
-343.8187320018387
 31
0.0000000001127424
  0
LINE
  5
1B337
330
18
100
AcDbEntity
  8
01
100
AcDbLine
 10
2427.814082645722
 20
-338.3187320018387
 30
0.0000000001127424
 11
2427.814082645722
 21
-343.8187320018387
 31
0.0000000001127424
  0
LINE
  5
1B338
330
18
100
AcDbEntity
  8
01
100
AcDbLine
 10
2378.314082645716
 20
-337.8187320018307
 30
0.0000000001127424
 11
2384.355824819874
 21
-337.8187320018325
 31
0.0000000001127424
  0
LINE
  5
1B339
330
18
100
AcDbEntity
  8
01
100
AcDbLine
 10
2382.014082645725
 20
-308.8187320018424
 30
0.0000000001127424
 11
2426.814082645723
 21
-308.8187320018424
 31
0.0000000001127424
  0
LINE
  5
1B33A
330
18
100
AcDbEntity
  8
01
100
AcDbLine
 10
2427.814082645723
 20
-309.8187320018424
 30
0.0000000001127424
 11
2427.814082645719
 21
-337.818732001846
 31
0.0000000001127424
  0
ARC
  5
1B33B
330
18
100
AcDbEntity
  8
01
100
AcDbCircle
 10
2426.814082645723
 20
-309.8187320018424
 30
0.0000000001127424
 40
1.0
100
AcDbArc
 50
0.0
 51
90.0
  0
ARC
  5
1B33C
330
18
100
AcDbEntity
  8
01
100
AcDbCircle
 10
2382.014082645725
 20
-309.8187320018424
 30
0.0000000001127424
 40
1.0
100
AcDbArc
 50
90.0
 51
180.0
  0
LINE
  5
1B33D
330
18
100
AcDbEntity
  8
01
100
AcDbLine
 10
2381.014082645725
 20
-309.8187320018426
 30
0.0000000001127424
 11
2381.014082645733
 21
-337.818732001841
 31
0.0000000001127424
  0
LINE
  5
1B33E
330
18
100
AcDbEntity
  8
01
100
AcDbLine
 10
2377.81396630597
 20
-636.8187303039422
 30
0.0000000001127424
 11
2377.813966305981
 21
-630.8187302811866
 31
0.0000000001127424
  0
ARC
  5
1B33F
330
18
100
AcDbEntity
  8
01
100
AcDbCircle
 10
2404.313966305977
 20
-633.8187320008119
 30
0.0000000001127424
 40
23.5
100
AcDbArc
 50
189.8001858785201
 51
350.1998100548671
  0
ARC
  5
1B340
330
18
100
AcDbEntity
  8
01
100
AcDbCircle
 10
2404.313966305977
 20
-633.8187320008119
 30
0.0000000001127424
 40
23.5
100
AcDbArc
 50
9.800189945107237
 51
170.1998058001672
  0
LINE
  5
1B341
330
18
100
AcDbEntity
  8
01
100
AcDbLine
 10
2378.813966305974
 20
-637.8187320008119
 30
0.0000000001127424
 11
2432.404926169799
 21
-637.8187320008205
 31
0.0000000001127424
  0
LINE
  5
1B342
330
18
100
AcDbEntity
  8
01
100
AcDbLine
 10
2433.904926169799
 20
-637.8187320008208
 30
0.0000000001127424
 11
2529.313966305967
 21
-637.8187320008363
 31
0.0000000001127424
  0
ARC
  5
1B343
330
18
100
AcDbEntity
  8
01
100
AcDbCircle
 10
2378.813966305963
 20
-630.8187320008155
 30
0.0000000001127424
 40
1.0
100
AcDbArc
 50
90.0
 51
180.0
  0
ARC
  5
1B344
330
18
100
AcDbEntity
  8
01
100
AcDbCircle
 10
2378.813966305974
 20
-636.8187320008119
 30
0.0000000001127424
 40
1.0
100
AcDbArc
 50
180.0
 51
270.0
  0
LINE
  5
1B345
330
18
100
AcDbEntity
  8
01
100
AcDbLine
 10
2378.813966305963
 20
-629.8187320008155
 30
0.0000000001127424
 11
2432.404926169799
 21
-629.8187320008155
 31
0.0000000001127424
  0
LINE
  5
1B346
330
18
100
AcDbEntity
  8
01
100
AcDbLine
 10
2433.904926169799
 20
-629.8187320008155
 30
0.0000000001127424
 11
2529.313966305967
 21
-629.8187320008155
 31
0.0000000001127424
  0
LINE
  5
1B347
330
18
100
AcDbEntity
  8
01
100
AcDbLine
 10
2530.313966305967
 20
-630.8187320008119
 30
0.0000000001127424
 11
2530.313966305967
 21
-636.8187320008119
 31
0.0000000001127424
  0
LINE
  5
1B348
330
18
100
AcDbEntity
  8
01
100
AcDbLine
 10
2289.313970305982
 20
-637.8187320008046
 30
0.0000000001127424
 11
2289.313970305981
 21
-656.3187320008119
 31
0.0000000001127424
  0
ARC
  5
1B349
330
18
100
AcDbEntity
  8
01
100
AcDbCircle
 10
2288.313970305981
 20
-656.3187320008119
 30
0.0000000001127424
 40
1.0
100
AcDbArc
 50
270.0
 51
0.0
  0
ARC
  5
1B34A
330
18
100
AcDbEntity
  8
01
100
AcDbCircle
 10
2288.313970305981
 20
-611.3187320008119
 30
0.0000000001127424
 40
1.0
100
AcDbArc
 50
0.0
 51
90.0
  0
LINE
  5
1B34B
330
18
100
AcDbEntity
  8
01
100
AcDbLine
 10
2260.313970305981
 20
-610.3187320008119
 30
0.0000000001127424
 11
2288.313970305981
 21
-610.3187320008119
 31
0.0000000001127424
  0
LINE
  5
1B34C
330
18
100
AcDbEntity
  8
01
100
AcDbLine
 10
2260.313970305981
 20
-657.3187320008119
 30
0.0000000001127424
 11
2288.313970305981
 21
-657.3187320008119
 31
0.0000000001127424
  0
LINE
  5
1B34D
330
18
100
AcDbEntity
  8
01
100
AcDbLine
 10
2259.813970305981
 20
-610.3187320008119
 30
0.0000000001127424
 11
2259.813970305981
 21
-657.3187320008119
 31
0.0000000001127424
  0
LINE
  5
1B34E
330
18
100
AcDbEntity
  8
01
100
AcDbLine
 10
2289.313970305981
 20
-611.3187320008119
 30
0.0000000001127424
 11
2289.313970305982
 21
-629.8187320008119
 31
0.0000000001127424
  0
LINE
  5
1B34F
330
18
100
AcDbEntity
  8
01
100
AcDbLine
 10
2254.313970305977
 20
-610.3187320008119
 30
0.0000000001127424
 11
2259.813970305981
 21
-610.3187320008119
 31
0.0000000001127424
  0
LINE
  5
1B350
330
18
100
AcDbEntity
  8
01
100
AcDbLine
 10
2254.313970305977
 20
-657.3187320008119
 30
0.0000000001127424
 11
2259.813970305981
 21
-657.3187320008119
 31
0.0000000001127424
  0
LINE
  5
1B351
330
18
100
AcDbEntity
  8
01
100
AcDbLine
 10
2260.313970305981
 20
-657.3187320008119
 30
0.0000000001127424
 11
2260.313970305981
 21
-610.3187320008119
 31
0.0000000001127424
  0
LINE
  5
1B352
330
18
100
AcDbEntity
  8
01
100
AcDbLine
 10
2260.313970305981
 20
-629.8187320008119
 30
0.0000000001127424
 11
2312.313970305981
 21
-629.8187320008119
 31
0.0000000001127424
  0
LINE
  5
1B353
330
18
100
AcDbEntity
  8
01
100
AcDbLine
 10
2260.313970305978
 20
-637.8187320008046
 30
0.0000000001127424
 11
2312.313970305974
 21
-637.8187320008046
 31
0.0000000001127424
  0
ARC
  5
1B354
330
18
100
AcDbEntity
  8
01
100
AcDbCircle
 10
2312.313970305974
 20
-636.818732000801
 30
0.0000000001127424
 40
1.0
100
AcDbArc
 50
270.0
 51
0.0
  0
ARC
  5
1B355
330
18
100
AcDbEntity
  8
01
100
AcDbCircle
 10
2312.313970305981
 20
-630.8187320008119
 30
0.0000000001127424
 40
1.0
100
AcDbArc
 50
0.0
 51
90.0
  0
LINE
  5
1B356
330
18
100
AcDbEntity
  8
01
100
AcDbLine
 10
2313.313970305981
 20
-630.8187320008119
 30
0.0000000001127424
 11
2313.313970305981
 21
-636.818732000801
 31
0.0000000001127424
  0
LINE
  5
1B357
330
18
100
AcDbEntity
  8
01
100
AcDbLine
 10
2254.313970305977
 20
-657.3187320008119
 30
0.0000000001127424
 11
2254.313970305977
 21
-610.3187320008119
 31
0.0000000001127424
  0
LINE
  5
1B358
330
18
100
AcDbEntity
  8
1CENTER
100
AcDbLine
 10
2094.313974305976
 20
-633.8187320008119
 30
0.0000000001127424
 11
2034.313974305976
 21
-633.8187320008119
 31
0.0000000001127424
  0
LINE
  5
1B359
330
18
100
AcDbEntity
  8
1CENTER
100
AcDbLine
 10
2064.313974305976
 20
-603.8187320008119
 30
0.0000000001127424
 11
2064.313974305976
 21
-663.8187320008119
 31
0.0000000001127424
  0
LINE
  5
1B35A
330
18
100
AcDbEntity
  8
1CENTER
100
AcDbLine
 10
2219.313970305976
 20
-633.8187320008119
 30
0.0000000001127424
 11
2184.313970305976
 21
-633.8187320008119
 31
0.0000000001127424
  0
LINE
  5
1B35B
330
18
100
AcDbEntity
  8
1CENTER
100
AcDbLine
 10
2094.313974305976
 20
-633.8187320008119
 30
0.0000000001127424
 11
2034.313974305976
 21
-633.8187320008119
 31
0.0000000001127424
  0
LINE
  5
1B35C
330
18
100
AcDbEntity
  8
01
100
AcDbLine
 10
2090.813974305983
 20
-636.8187303039422
 30
0.0000000001127424
 11
2090.813974305972
 21
-630.8187302811866
 31
0.0000000001127424
  0
ARC
  5
1B35D
330
18
100
AcDbEntity
  8
01
100
AcDbCircle
 10
2064.313974305976
 20
-633.8187320008119
 30
0.0000000001127424
 40
23.5
100
AcDbArc
 50
189.8001899451329
 51
350.1998141214799
  0
ARC
  5
1B35E
330
18
100
AcDbEntity
  8
01
100
AcDbCircle
 10
2064.313974305976
 20
-633.8187320008119
 30
0.0000000001127424
 40
23.5
100
AcDbArc
 50
9.800194199832767
 51
170.1998100548928
  0
LINE
  5
1B35F
330
18
100
AcDbEntity
  8
01
100
AcDbLine
 10
2089.813974305979
 20
-637.8187320008119
 30
0.0000000001127424
 11
2036.223014442155
 21
-637.8187320008205
 31
0.0000000001127424
  0
LINE
  5
1B360
330
18
100
AcDbEntity
  8
01
100
AcDbLine
 10
2034.723014442155
 20
-637.8187320008208
 30
0.0000000001127424
 11
1938.513974305984
 21
-637.8187320008365
 31
0.0000000001127424
  0
ARC
  5
1B361
330
18
100
AcDbEntity
  8
01
100
AcDbCircle
 10
2089.81397430599
 20
-630.8187320008155
 30
0.0000000001127424
 40
1.0
100
AcDbArc
 50
0.0
 51
90.0
  0
ARC
  5
1B362
330
18
100
AcDbEntity
  8
01
100
AcDbCircle
 10
2089.813974305979
 20
-636.8187320008119
 30
0.0000000001127424
 40
1.0
100
AcDbArc
 50
270.0
 51
0.0
  0
LINE
  5
1B363
330
18
100
AcDbEntity
  8
01
100
AcDbLine
 10
2089.81397430599
 20
-629.8187320008155
 30
0.0000000001127424
 11
2036.223014442155
 21
-629.8187320008155
 31
0.0000000001127424
  0
LINE
  5
1B364
330
18
100
AcDbEntity
  8
01
100
AcDbLine
 10
2034.723014442155
 20
-629.8187320008155
 30
0.0000000001127424
 11
1938.513974305984
 21
-629.8187320008155
 31
0.0000000001127424
  0
LINE
  5
1B365
330
18
100
AcDbEntity
  8
01
100
AcDbLine
 10
2179.313970305971
 20
-637.8187320008046
 30
0.0000000001127424
 11
2179.313970305971
 21
-656.3187320008119
 31
0.0000000001127424
  0
ARC
  5
1B366
330
18
100
AcDbEntity
  8
01
100
AcDbCircle
 10
2180.313970305971
 20
-656.3187320008119
 30
0.0000000001127424
 40
1.0
100
AcDbArc
 50
180.0
 51
270.0
  0
ARC
  5
1B367
330
18
100
AcDbEntity
  8
01
100
AcDbCircle
 10
2180.313970305971
 20
-611.3187320008119
 30
0.0000000001127424
 40
1.0
100
AcDbArc
 50
90.0
 51
180.0
  0
LINE
  5
1B368
330
18
100
AcDbEntity
  8
01
100
AcDbLine
 10
2208.313970305971
 20
-610.3187320008119
 30
0.0000000001127424
 11
2180.313970305971
 21
-610.3187320008119
 31
0.0000000001127424
  0
LINE
  5
1B369
330
18
100
AcDbEntity
  8
01
100
AcDbLine
 10
2208.313970305971
 20
-657.3187320008119
 30
0.0000000001127424
 11
2180.313970305971
 21
-657.3187320008119
 31
0.0000000001127424
  0
LINE
  5
1B36A
330
18
100
AcDbEntity
  8
01
100
AcDbLine
 10
2208.813970305972
 20
-610.3187320008119
 30
0.0000000001127424
 11
2208.813970305972
 21
-657.3187320008119
 31
0.0000000001127424
  0
LINE
  5
1B36B
330
18
100
AcDbEntity
  8
01
100
AcDbLine
 10
2179.313970305971
 20
-611.3187320008119
 30
0.0000000001127424
 11
2179.313970305971
 21
-629.8187320008119
 31
0.0000000001127424
  0
LINE
  5
1B36C
330
18
100
AcDbEntity
  8
01
100
AcDbLine
 10
2214.313970305976
 20
-610.3187320008119
 30
0.0000000001127424
 11
2208.813970305972
 21
-610.3187320008119
 31
0.0000000001127424
  0
LINE
  5
1B36D
330
18
100
AcDbEntity
  8
01
100
AcDbLine
 10
2214.313970305976
 20
-657.3187320008119
 30
0.0000000001127424
 11
2208.813970305972
 21
-657.3187320008119
 31
0.0000000001127424
  0
LINE
  5
1B36E
330
18
100
AcDbEntity
  8
01
100
AcDbLine
 10
2208.313970305971
 20
-657.3187320008119
 30
0.0000000001127424
 11
2208.313970305971
 21
-610.3187320008119
 31
0.0000000001127424
  0
LINE
  5
1B36F
330
18
100
AcDbEntity
  8
01
100
AcDbLine
 10
2208.313970305971
 20
-629.8187320008119
 30
0.0000000001127424
 11
2156.313970305971
 21
-629.8187320008119
 31
0.0000000001127424
  0
LINE
  5
1B370
330
18
100
AcDbEntity
  8
01
100
AcDbLine
 10
2208.313970305975
 20
-637.8187320008046
 30
0.0000000001127424
 11
2156.313970305979
 21
-637.8187320008046
 31
0.0000000001127424
  0
ARC
  5
1B371
330
18
100
AcDbEntity
  8
01
100
AcDbCircle
 10
2156.313970305979
 20
-636.818732000801
 30
0.0000000001127424
 40
1.0
100
AcDbArc
 50
180.0
 51
270.0
  0
ARC
  5
1B372
330
18
100
AcDbEntity
  8
01
100
AcDbCircle
 10
2156.313970305971
 20
-630.8187320008119
 30
0.0000000001127424
 40
1.0
100
AcDbArc
 50
90.0
 51
180.0
  0
LINE
  5
1B373
330
18
100
AcDbEntity
  8
01
100
AcDbLine
 10
2155.313970305971
 20
-630.8187320008119
 30
0.0000000001127424
 11
2155.313970305971
 21
-636.818732000801
 31
0.0000000001127424
  0
LINE
  5
1B374
330
18
100
AcDbEntity
  8
01
100
AcDbLine
 10
2214.313970305976
 20
-657.3187320008119
 30
0.0000000001127424
 11
2214.313970305976
 21
-610.3187320008119
 31
0.0000000001127424
  0
POINT
  5
1B379
330
18
100
AcDbEntity
  8
01
100
AcDbPoint
 10
2199.813970305976
 20
-650.4357767140349
 30
0.0000000001127424
 50
180.0
  0
LINE
  5
1B37A
330
18
100
AcDbEntity
  8
01
100
AcDbLine
 10
2199.813970305976
 20
-651.1857767140349
 30
0.0000000001127424
 11
2201.113008411653
 21
-650.8107767140349
 31
0.0000000001127424
  0
LINE
  5
1B37B
330
18
100
AcDbEntity
  8
01
100
AcDbLine
 10
2198.514932200299
 20
-650.8107767140349
 30
0.0000000001127424
 11
2199.813970305976
 21
-651.1857767140349
 31
0.0000000001127424
  0
LINE
  5
1B37C
330
18
100
AcDbEntity
  8
01
100
AcDbLine
 10
2198.514932200299
 20
-650.0607767140349
 30
0.0000000001127424
 11
2198.514932200299
 21
-650.8107767140349
 31
0.0000000001127424
  0
LINE
  5
1B37D
330
18
100
AcDbEntity
  8
01
100
AcDbLine
 10
2199.813970305976
 20
-649.6857767140349
 30
0.0000000001127424
 11
2198.514932200299
 21
-650.0607767140349
 31
0.0000000001127424
  0
LINE
  5
1B37E
330
18
100
AcDbEntity
  8
01
100
AcDbLine
 10
2201.113008411653
 20
-650.0607767140349
 30
0.0000000001127424
 11
2199.813970305976
 21
-649.6857767140349
 31
0.0000000001127424
  0
POINT
  5
1B37F
330
18
100
AcDbEntity
  8
01
100
AcDbPoint
 10
2268.813970305977
 20
-650.4357767140349
 30
0.0000000001127424
  0
LINE
  5
1B380
330
18
100
AcDbEntity
  8
01
100
AcDbLine
 10
2268.413970295977
 20
-651.6607767140349
 30
0.0000000001127424
 11
2268.413970295977
 21
-651.0657767000348
 31
0.0000000001127424
  0
LINE
  5
1B381
330
18
100
AcDbEntity
  8
01
100
AcDbLine
 10
2269.213970315976
 20
-651.6607767140349
 30
0.0000000001127424
 11
2269.213970315976
 21
-651.0657767000348
 31
0.0000000001127424
  0
LINE
  5
1B382
330
18
100
AcDbEntity
  8
01
100
AcDbLine
 10
2267.913970325977
 20
-650.7157767210349
 30
0.0000000001127424
 11
2267.063970305977
 21
-650.7157767210349
 31
0.0000000001127424
  0
LINE
  5
1B383
330
18
100
AcDbEntity
  8
01
100
AcDbLine
 10
2267.913970325977
 20
-650.1557767070349
 30
0.0000000001127424
 11
2267.063970305977
 21
-650.1557767070349
 31
0.0000000001127424
  0
LINE
  5
1B384
330
18
100
AcDbEntity
  8
01
100
AcDbLine
 10
2267.063970305977
 20
-650.7157767210349
 30
0.0000000001127424
 11
2267.063970305977
 21
-650.1557767070349
 31
0.0000000001127424
  0
LINE
  5
1B385
330
18
100
AcDbEntity
  8
01
100
AcDbLine
 10
2269.213970315976
 20
-651.6607767140349
 30
0.0000000001127424
 11
2268.413970295977
 21
-651.6607767140349
 31
0.0000000001127424
  0
LINE
  5
1B386
330
18
100
AcDbEntity
  8
01
100
AcDbLine
 10
2269.213970315976
 20
-649.2107767140349
 30
0.0000000001127424
 11
2269.213970315976
 21
-649.805776728035
 31
0.0000000001127424
  0
LINE
  5
1B387
330
18
100
AcDbEntity
  8
01
100
AcDbLine
 10
2268.413970295977
 20
-649.2107767140349
 30
0.0000000001127424
 11
2268.413970295977
 21
-649.805776728035
 31
0.0000000001127424
  0
LINE
  5
1B388
330
18
100
AcDbEntity
  8
01
100
AcDbLine
 10
2269.713970285977
 20
-650.1557767070349
 30
0.0000000001127424
 11
2270.563970305977
 21
-650.1557767070349
 31
0.0000000001127424
  0
LINE
  5
1B389
330
18
100
AcDbEntity
  8
01
100
AcDbLine
 10
2269.713970285977
 20
-650.7157767210349
 30
0.0000000001127424
 11
2270.563970305977
 21
-650.7157767210349
 31
0.0000000001127424
  0
LINE
  5
1B38A
330
18
100
AcDbEntity
  8
01
100
AcDbLine
 10
2270.563970305977
 20
-650.1557767070349
 30
0.0000000001127424
 11
2270.563970305977
 21
-650.7157767210349
 31
0.0000000001127424
  0
LINE
  5
1B38B
330
18
100
AcDbEntity
  8
01
100
AcDbLine
 10
2268.413970295977
 20
-649.2107767140349
 30
0.0000000001127424
 11
2269.213970315976
 21
-649.2107767140349
 31
0.0000000001127424
  0
ELLIPSE
  5
1B38C
330
18
100
AcDbEntity
  8
01
100
AcDbEllipse
 10
2269.713970285977
 20
-649.805776728035
 30
0.0000000001127424
 11
-0.5000000000000077
 21
7.136042516446670E-15
 31
0.0
210
0.0
220
0.0
230
1.0
 40
0.7000000000000347
 41
-0.0000001745329874
 42
1.570796326794906
  0
ELLIPSE
  5
1B38D
330
18
100
AcDbEntity
  8
01
100
AcDbEllipse
 10
2269.713970285977
 20
-651.0657767000348
 30
0.0000000001127424
 11
0.5000000000000077
 21
2.568252007546482E-13
 31
0.0
210
0.0
220
0.0
230
1.0
 40
0.7000000000000356
 41
1.570796379154147
 42
3.141592828122067
  0
ELLIPSE
  5
1B38E
330
18
100
AcDbEntity
  8
01
100
AcDbEllipse
 10
2267.913970325977
 20
-651.0657767000348
 30
0.0000000001127424
 11
0.5
 21
3.758411089944611E-13
 31
0.0
210
0.0
220
0.0
230
1.0
 40
0.7000000000000465
 41
-0.0000000000010738
 42
1.57079637915398
  0
ELLIPSE
  5
1B38F
330
18
100
AcDbEntity
  8
01
100
AcDbEllipse
 10
2267.913970325977
 20
-649.805776728035
 30
0.0000000001127424
 11
-0.5
 21
1.241535493119381E-13
 31
0.0
210
0.0
220
0.0
230
1.0
 40
0.7000000000000454
 41
1.57079632679507
 42
3.141592653590147
  0
ELLIPSE
  5
1B390
330
18
100
AcDbEntity
  8
01
100
AcDbEllipse
 10
2268.813970305977
 20
-650.4357767140349
 30
0.0000000001127424
 11
-3.0
 21
0.0
 31
0.0
210
0.0
220
0.0
230
1.0
 40
0.6999264741693878
 41
0.0
 42
6.283185307179586
  0
SPLINE
  5
1B391
330
18
100
AcDbEntity
  8
01
100
AcDbSpline
210
0.0
220
0.0
230
1.0
 70
     9
 71
     3
 72
    36
 73
    32
 74
     0
 42
0.0000000001
 43
0.0000000001
 40
0.0
 40
0.0
 40
0.0
 40
0.0
 40
0.4404128364159207
 40
0.4404128364159207
 40
0.8808256728318414
 40
0.8808256728318414
 40
1.321238509247762
 40
1.321238509247762
 40
1.761651345663683
 40
1.761651345663683
 40
2.202064182079603
 40
2.202064182079603
 40
2.642477018495524
 40
2.642477018495524
 40
3.082889854911445
 40
3.082889854911445
 40
3.523302691327366
 40
3.523302691327366
 40
3.963715527743287
 40
3.963715527743287
 40
4.404128364159207
 40
4.404128364159207
 40
4.844541200575128
 40
4.844541200575128
 40
5.284954036991048
 40
5.284954036991048
 40
5.725366873406969
 40
5.725366873406969
 40
6.16577970982289
 40
6.16577970982289
 40
6.283185307179586
 40
6.283185307179586
 40
6.283185307179586
 40
6.283185307179586
 10
2266.163970305977
 20
-650.435776714035
 30
0.0000000001127424
 10
2266.163970305976
 20
-650.6706234676607
 30
0.0000000001127424
 10
2266.237287185077
 20
-650.9078181677108
 30
0.0000000001127424
 10
2266.543840982556
 20
-651.3630949887591
 30
0.0000000001127424
 10
2266.779071359138
 20
-651.5786562946304
 30
0.0000000001127424
 10
2267.379913691425
 20
-651.9257268951768
 30
0.0000000001127424
 10
2267.7442819679
 20
-652.0563349931683
 30
0.0000000001127424
 10
2268.524738555986
 20
-652.19556137262
 30
0.0000000001127424
 10
2268.9400512698
 20
-652.2041524351921
 30
0.0000000001127424
 10
2269.732272641942
 20
-652.0970199958429
 30
0.0000000001127424
 10
2270.108441508618
 20
-651.9813092069971
 30
0.0000000001127424
 10
2270.741649274373
 20
-651.6573049504942
 30
0.0000000001127424
 10
2270.997479726778
 20
-651.4496574410621
 30
0.0000000001127424
 10
2271.346245159432
 20
-651.0018760313839
 30
0.0000000001127424
 10
2271.440311881185
 20
-650.7645181108189
 30
0.0000000001127424
 10
2271.479748297464
 20
-650.2948492230283
 30
0.0000000001127424
 10
2271.426589062627
 20
-650.0581404420599
 30
0.0000000001127424
 10
2271.162293777837
 20
-649.5972817313791
 30
0.0000000001127424
 10
2270.948325671141
 20
-649.3750532757695
 30
0.0000000001127424
 10
2270.381997628655
 20
-649.0067605941459
 30
0.0000000001127424
 10
2270.030862220249
 20
-648.8619112495298
 30
0.0000000001127424
 10
2269.265219405287
 20
-648.6912769638523
 30
0.0000000001127424
 10
2268.851534349394
 20
-648.665544079774
 30
0.0000000001127424
 10
2268.050646158876
 20
-648.7400579859757
 30
0.0000000001127424
 10
2267.664157334489
 20
-648.8402997392434
 30
0.0000000001127424
 10
2267.000919401723
 20
-649.1395314640208
 30
0.0000000001127424
 10
2266.725313402198
 20
-649.3380737214285
 30
0.0000000001127424
 10
2266.334690143792
 20
-649.7762868245427
 30
0.0000000001127424
 10
2266.219317942348
 20
-650.013212066607
 30
0.0000000001127424
 10
2266.169210247147
 20
-650.3105608412014
 30
0.0000000001127424
 10
2266.163970305976
 20
-650.3731710833247
 30
0.0000000001127424
 10
2266.163970305977
 20
-650.435776714035
 30
0.0000000001127424
  0
ELLIPSE
  5
1B392
330
18
100
AcDbEntity
  8
01
100
AcDbEllipse
 10
2199.813970305977
 20
-650.4357767140349
 30
0.0000000001127424
 11
3.0
 21
0.0
 31
0.0
210
0.0
220
0.0
230
-1.0
 40
0.6999264741693878
 41
0.0
 42
6.283185307179586
  0
SPLINE
  5
1B393
330
18
100
AcDbEntity
  8
01
100
AcDbSpline
210
0.0
220
0.0
230
1.0
 70
     9
 71
     3
 72
    36
 73
    32
 74
     0
 42
0.0000000001
 43
0.0000000001
 40
0.0
 40
0.0
 40
0.0
 40
0.0
 40
0.4404128364159207
 40
0.4404128364159207
 40
0.8808256728318414
 40
0.8808256728318414
 40
1.321238509247762
 40
1.321238509247762
 40
1.761651345663683
 40
1.761651345663683
 40
2.202064182079603
 40
2.202064182079603
 40
2.642477018495524
 40
2.642477018495524
 40
3.082889854911445
 40
3.082889854911445
 40
3.523302691327366
 40
3.523302691327366
 40
3.963715527743287
 40
3.963715527743287
 40
4.404128364159207
 40
4.404128364159207
 40
4.844541200575128
 40
4.844541200575128
 40
5.284954036991048
 40
5.284954036991048
 40
5.725366873406969
 40
5.725366873406969
 40
6.16577970982289
 40
6.16577970982289
 40
6.283185307179586
 40
6.283185307179586
 40
6.283185307179586
 40
6.283185307179586
 10
2202.463970305977
 20
-650.435776714035
 30
0.0000000001127424
 10
2202.463970305977
 20
-650.6706234676607
 30
0.0000000001127424
 10
2202.390653426877
 20
-650.9078181677108
 30
0.0000000001127424
 10
2202.084099629398
 20
-651.3630949887591
 30
0.0000000001127424
 10
2201.848869252816
 20
-651.5786562946304
 30
0.0000000001127424
 10
2201.248026920529
 20
-651.9257268951768
 30
0.0000000001127424
 10
2200.883658644054
 20
-652.0563349931683
 30
0.0000000001127424
 10
2200.103202055968
 20
-652.19556137262
 30
0.0000000001127424
 10
2199.687889342154
 20
-652.2041524351921
 30
0.0000000001127424
 10
2198.895667970012
 20
-652.0970199958429
 30
0.0000000001127424
 10
2198.519499103336
 20
-651.9813092069971
 30
0.0000000001127424
 10
2197.886291337581
 20
-651.6573049504942
 30
0.0000000001127424
 10
2197.630460885176
 20
-651.4496574410621
 30
0.0000000001127424
 10
2197.281695452521
 20
-651.0018760313839
 30
0.0000000001127424
 10
2197.187628730769
 20
-650.7645181108189
 30
0.0000000001127424
 10
2197.14819231449
 20
-650.2948492230283
 30
0.0000000001127424
 10
2197.201351549326
 20
-650.0581404420599
 30
0.0000000001127424
 10
2197.465646834116
 20
-649.5972817313791
 30
0.0000000001127424
 10
2197.679614940813
 20
-649.3750532757695
 30
0.0000000001127424
 10
2198.245942983299
 20
-649.0067605941459
 30
0.0000000001127424
 10
2198.597078391705
 20
-648.8619112495298
 30
0.0000000001127424
 10
2199.362721206667
 20
-648.6912769638523
 30
0.0000000001127424
 10
2199.77640626256
 20
-648.665544079774
 30
0.0000000001127424
 10
2200.577294453078
 20
-648.7400579859757
 30
0.0000000001127424
 10
2200.963783277465
 20
-648.8402997392434
 30
0.0000000001127424
 10
2201.627021210231
 20
-649.1395314640208
 30
0.0000000001127424
 10
2201.902627209755
 20
-649.3380737214285
 30
0.0000000001127424
 10
2202.293250468162
 20
-649.7762868245427
 30
0.0000000001127424
 10
2202.408622669605
 20
-650.013212066607
 30
0.0000000001127424
 10
2202.458730364807
 20
-650.3105608412014
 30
0.0000000001127424
 10
2202.463970305977
 20
-650.3731710833247
 30
0.0000000001127424
 10
2202.463970305977
 20
-650.435776714035
 30
0.0000000001127424
  0
LINE
  5
1B394
330
18
100
AcDbEntity
  8
01
100
AcDbLine
 10
2201.113008411653
 20
-650.8107767140349
 30
0.0000000001127424
 11
2201.113008411653
 21
-650.0607767140349
 31
0.0000000001127424
  0
LINE
  5
1B399
330
18
100
AcDbEntity
  8
01
100
AcDbLine
 10
2434.314082645711
 20
-419.8187320018318
 30
0.0000000001127424
 11
2434.314082645733
 21
-442.3187320018391
 31
0.0000000001127424
  0
LINE
  5
1B39A
330
18
100
AcDbEntity
  8
01
100
AcDbLine
 10
2433.814082645726
 20
-426.3187320018318
 30
0.0000000001127424
 11
2433.81408264574
 21
-442.3187320018391
 31
0.0000000001127424
  0
ARC
  5
1B39B
330
18
100
AcDbEntity
  8
01
100
AcDbCircle
 10
2436.314082645711
 20
-419.8187320018318
 30
0.0000000001127424
 40
2.0
100
AcDbArc
 50
90.0
 51
180.0
  0
ARC
  5
1B39C
330
18
100
AcDbEntity
  8
01
100
AcDbCircle
 10
2433.31408264574
 20
-442.3187320018391
 30
0.0000000001127424
 40
0.5
100
AcDbArc
 50
270.0
 51
0.0
  0
LINE
  5
1B39D
330
18
100
AcDbEntity
  8
01
100
AcDbLine
 10
2434.814082645733
 20
-442.8187320018391
 30
0.0000000001127424
 11
2529.314082645712
 21
-442.8187320011515
 31
0.0000000001127424
  0
ARC
  5
1B39E
330
18
100
AcDbEntity
  8
01
100
AcDbCircle
 10
2529.314082645705
 20
-441.8187320011515
 30
0.0000000001127424
 40
1.0
100
AcDbArc
 50
270.0000000004169
 51
359.9999999999479
  0
ARC
  5
1B39F
330
18
100
AcDbEntity
  8
01
100
AcDbCircle
 10
2434.814082645733
 20
-442.3187320018391
 30
0.0000000001127424
 40
0.5
100
AcDbArc
 50
180.0
 51
270.0
  0
LINE
  5
1B3A0
330
18
100
AcDbEntity
  8
01
100
AcDbLine
 10
2433.81408264574
 20
-442.3187320018391
 30
0.0000000001127424
 11
2434.31408264574
 21
-442.3187320018391
 31
0.0000000001127424
  0
ARC
  5
1B3A1
330
18
100
AcDbEntity
  8
01
100
AcDbCircle
 10
2433.314082645726
 20
-426.3187320018318
 30
0.0000000001127424
 40
0.5
100
AcDbArc
 50
0.0
 51
90.0
  0
LINE
  5
1B3A2
330
18
100
AcDbEntity
  8
01
100
AcDbLine
 10
2433.814082645718
 20
-426.3187320018318
 30
0.0000000001127424
 11
2434.314082645718
 21
-426.3187320018318
 31
0.0000000001127424
  0
LINE
  5
1B3A3
330
18
100
AcDbEntity
  8
01
100
AcDbLine
 10
2436.314082645711
 20
-417.8187320018318
 30
0.0000000001127424
 11
2528.314082645726
 21
-417.8187320018318
 31
0.0000000001127424
  0
LINE
  5
1B3A4
330
18
100
AcDbEntity
  8
01
100
AcDbLine
 10
2530.314082645705
 20
-441.8187320011525
 30
0.0000000001127424
 11
2530.314082645726
 21
-419.8187320018318
 31
0.0000000001127424
  0
ARC
  5
1B3A5
330
18
100
AcDbEntity
  8
01
100
AcDbCircle
 10
2528.314082645726
 20
-419.8187320018318
 30
0.0000000001127424
 40
2.0
100
AcDbArc
 50
0.0
 51
90.0
  0
ARC
  5
1B3A6
330
18
100
AcDbEntity
  8
01
100
AcDbCircle
 10
2432.404926169799
 20
-630.3187320008119
 30
0.0000000001127424
 40
0.5
100
AcDbArc
 50
0.0
 51
90.0
  0
ARC
  5
1B3A7
330
18
100
AcDbEntity
  8
01
100
AcDbCircle
 10
2433.904926169799
 20
-630.3187320008119
 30
0.0000000001127424
 40
0.5
100
AcDbArc
 50
90.0
 51
180.0
  0
LINE
  5
1B3A8
330
18
100
AcDbEntity
  8
01
100
AcDbLine
 10
2432.904926169799
 20
-630.3187320008119
 30
0.0000000001127424
 11
2433.404926169799
 21
-630.3187320008119
 31
0.0000000001127424
  0
ARC
  5
1B3A9
330
18
100
AcDbEntity
  8
01
100
AcDbCircle
 10
2529.313966305967
 20
-630.8187320008119
 30
0.0000000001127424
 40
1.0
100
AcDbArc
 50
0.0
 51
90.0
  0
LINE
  5
1B3AA
330
18
100
AcDbEntity
  8
01
100
AcDbLine
 10
2433.404926169799
 20
-630.3187320008119
 30
0.0000000001127424
 11
2433.404926169799
 21
-637.3187320008119
 31
0.0000000001127424
  0
LINE
  5
1B3AB
330
18
100
AcDbEntity
  8
01
100
AcDbLine
 10
2432.904926169799
 20
-630.3187320008119
 30
0.0000000001127424
 11
2432.904926169799
 21
-637.3187320008119
 31
0.0000000001127424
  0
ARC
  5
1B3AC
330
18
100
AcDbEntity
  8
01
100
AcDbCircle
 10
2432.404926169799
 20
-637.3187320008119
 30
0.0000000001127424
 40
0.5
100
AcDbArc
 50
270.0
 51
0.0
  0
ARC
  5
1B3AD
330
18
100
AcDbEntity
  8
01
100
AcDbCircle
 10
2433.904926169799
 20
-637.3187320008119
 30
0.0000000001127424
 40
0.5
100
AcDbArc
 50
180.0
 51
270.0
  0
LINE
  5
1B3AE
330
18
100
AcDbEntity
  8
01
100
AcDbLine
 10
2432.904926169799
 20
-637.3187320008119
 30
0.0000000001127424
 11
2433.404926169799
 21
-637.3187320008119
 31
0.0000000001127424
  0
ARC
  5
1B3AF
330
18
100
AcDbEntity
  8
01
100
AcDbCircle
 10
2529.313966305967
 20
-636.8187320008119
 30
0.0000000001127424
 40
1.0
100
AcDbArc
 50
270.0
 51
0.0
  0
LINE
  5
1B3B0
330
18
100
AcDbEntity
  8
01
100
AcDbLine
 10
1938.313974305986
 20
-630.8187320008209
 30
0.0000000001127424
 11
1938.313974305986
 21
-636.8187320008209
 31
0.0000000001127424
  0
ARC
  5
1B3B1
330
18
100
AcDbEntity
  8
01
100
AcDbCircle
 10
2036.223014442155
 20
-630.3187320008179
 30
0.0000000001127424
 40
0.5
100
AcDbArc
 50
90.0
 51
180.0
  0
ARC
  5
1B3B2
330
18
100
AcDbEntity
  8
01
100
AcDbCircle
 10
2034.723014442155
 20
-630.3187320008179
 30
0.0000000001127424
 40
0.5
100
AcDbArc
 50
0.0
 51
90.0
  0
LINE
  5
1B3B3
330
18
100
AcDbEntity
  8
01
100
AcDbLine
 10
2035.723014442155
 20
-630.3187320008179
 30
0.0000000001127424
 11
2035.223014442155
 21
-630.3187320008179
 31
0.0000000001127424
  0
ARC
  5
1B3B4
330
18
100
AcDbEntity
  8
01
100
AcDbCircle
 10
1939.313974305986
 20
-630.8187320008209
 30
0.0000000001127424
 40
1.0
100
AcDbArc
 50
90.0
 51
180.0
  0
LINE
  5
1B3B5
330
18
100
AcDbEntity
  8
01
100
AcDbLine
 10
2035.223014442155
 20
-630.3187320008179
 30
0.0000000001127424
 11
2035.223014442155
 21
-637.3187320008179
 31
0.0000000001127424
  0
LINE
  5
1B3B6
330
18
100
AcDbEntity
  8
01
100
AcDbLine
 10
2035.723014442155
 20
-630.3187320008179
 30
0.0000000001127424
 11
2035.723014442155
 21
-637.3187320008179
 31
0.0000000001127424
  0
ARC
  5
1B3B7
330
18
100
AcDbEntity
  8
01
100
AcDbCircle
 10
2036.223014442155
 20
-637.3187320008179
 30
0.0000000001127424
 40
0.5
100
AcDbArc
 50
180.0
 51
270.0
  0
ARC
  5
1B3B8
330
18
100
AcDbEntity
  8
01
100
AcDbCircle
 10
2034.723014442155
 20
-637.3187320008179
 30
0.0000000001127424
 40
0.5
100
AcDbArc
 50
270.0
 51
0.0
  0
LINE
  5
1B3B9
330
18
100
AcDbEntity
  8
01
100
AcDbLine
 10
2035.723014442155
 20
-637.3187320008179
 30
0.0000000001127424
 11
2035.223014442155
 21
-637.3187320008179
 31
0.0000000001127424
  0
ARC
  5
1B3BA
330
18
100
AcDbEntity
  8
01
100
AcDbCircle
 10
1939.313974305986
 20
-636.8187320008209
 30
0.0000000001127424
 40
1.0
100
AcDbArc
 50
180.0
 51
270.0
  0
LINE
  5
1B3BB
330
18
100
AcDbEntity
  8
01
100
AcDbLine
 10
2434.314082645711
 20
-307.8187320018493
 30
0.0000000001127424
 11
2434.314082645733
 21
-285.318732001842
 31
0.0000000001127424
  0
LINE
  5
1B3BC
330
18
100
AcDbEntity
  8
01
100
AcDbLine
 10
2433.814082645726
 20
-301.3187320018493
 30
0.0000000001127424
 11
2433.81408264574
 21
-285.318732001842
 31
0.0000000001127424
  0
ARC
  5
1B3BD
330
18
100
AcDbEntity
  8
01
100
AcDbCircle
 10
2436.314082645711
 20
-307.8187320018493
 30
0.0000000001127424
 40
2.0
100
AcDbArc
 50
180.0
 51
270.0
  0
ARC
  5
1B3BE
330
18
100
AcDbEntity
  8
01
100
AcDbCircle
 10
2433.31408264574
 20
-285.318732001842
 30
0.0000000001127424
 40
0.5
100
AcDbArc
 50
0.0
 51
90.0
  0
LINE
  5
1B3BF
330
18
100
AcDbEntity
  8
01
100
AcDbLine
 10
2434.814082645733
 20
-284.818732001842
 30
0.0000000001127424
 11
2529.314082645712
 21
-284.8187320025296
 31
0.0000000001127424
  0
ARC
  5
1B3C0
330
18
100
AcDbEntity
  8
01
100
AcDbCircle
 10
2434.814082645733
 20
-285.318732001842
 30
0.0000000001127424
 40
0.5
100
AcDbArc
 50
90.0
 51
180.0
  0
LINE
  5
1B3C1
330
18
100
AcDbEntity
  8
01
100
AcDbLine
 10
2433.81408264574
 20
-285.318732001842
 30
0.0000000001127424
 11
2434.31408264574
 21
-285.318732001842
 31
0.0000000001127424
  0
ARC
  5
1B3C2
330
18
100
AcDbEntity
  8
01
100
AcDbCircle
 10
2433.314082645726
 20
-301.3187320018493
 30
0.0000000001127424
 40
0.5
100
AcDbArc
 50
270.0
 51
0.0
  0
LINE
  5
1B3C3
330
18
100
AcDbEntity
  8
01
100
AcDbLine
 10
2433.814082645718
 20
-301.3187320018493
 30
0.0000000001127424
 11
2434.314082645718
 21
-301.3187320018493
 31
0.0000000001127424
  0
LINE
  5
1B3C4
330
18
100
AcDbEntity
  8
01
100
AcDbLine
 10
2436.314082645711
 20
-309.8187320018493
 30
0.0000000001127424
 11
2528.314082645726
 21
-309.8187320018493
 31
0.0000000001127424
  0
LINE
  5
1B3C5
330
18
100
AcDbEntity
  8
01
100
AcDbLine
 10
2530.314082645705
 20
-285.8187320025286
 30
0.0000000001127424
 11
2530.314082645726
 21
-307.8187320018493
 31
0.0000000001127424
  0
ARC
  5
1B3C6
330
18
100
AcDbEntity
  8
01
100
AcDbCircle
 10
2529.314082645705
 20
-285.8187320025296
 30
0.0000000001127424
 40
1.0
100
AcDbArc
 50
0.0000000000521102
 51
89.99999999958311
  0
ARC
  5
1B3C7
330
18
100
AcDbEntity
  8
01
100
AcDbCircle
 10
2528.314082645726
 20
-307.8187320018493
 30
0.0000000001127424
 40
2.0
100
AcDbArc
 50
270.0
 51
0.0
  0
LINE
  5
1B47C
330
18
100
AcDbEntity
  8
01
100
AcDbLine
 10
2384.31408225716
 20
-389.3187320018424
 30
0.0000000001127424
 11
2380.814082645722
 21
-389.3187320018424
 31
0.0000000001127424
  0
LINE
  5
1B47D
330
18
100
AcDbEntity
  8
01
100
AcDbLine
 10
2424.272339826658
 20
-389.8187320018361
 30
0.0000000001127424
 11
2427.81408264572
 21
-389.818732001835
 31
0.0000000001127424
  0
LINE
  5
1B47E
330
18
100
AcDbEntity
  8
01
100
AcDbLine
 10
2404.313966305977
 20
-337.8187320018387
 30
0.0000000001127424
 11
2404.314082645722
 21
-337.8187320018387
 31
0.0000000001127424
  0
LINE
  5
1B47F
330
18
100
AcDbEntity
  8
01
100
AcDbLine
 10
2384.314082389366
 20
-338.3187320018387
 30
0.0000000001127424
 11
2380.814082645722
 21
-338.3187320018387
 31
0.0000000001127424
  0
LINE
  5
1B480
330
18
100
AcDbEntity
  8
01
100
AcDbLine
 10
2424.272339958864
 20
-337.818732001845
 30
0.0000000001127424
 11
2427.81408264572
 21
-337.8187320018461
 31
0.0000000001127424
  0
LINE
  5
1B481
330
18
100
AcDbEntity
  8
01
100
AcDbLine
 10
2404.314082645722
 20
-338.3187320018387
 30
0.0000000001127424
 11
2404.313966305977
 21
-338.3187320018387
 31
0.0000000001127424
  0
LINE
  5
1B482
330
18
100
AcDbEntity
  8
01
  6
BYBLOCK
100
AcDbLine
 10
2046.314198985468
 20
-648.926944615521
 30
0.00000000011268
 11
2046.314198985468
 21
-649.8187320008117
 31
0.0000000001126775
  0
LINE
  5
1B483
330
18
100
AcDbEntity
  8
01
  6
BYBLOCK
100
AcDbLine
 10
2047.102059827917
 20
-649.8187320008117
 30
0.0000000001127424
 11
2046.314198985468
 21
-649.8187320008117
 31
0.0000000001127424
  0
TEXT
  5
1B49F
330
18
100
AcDbEntity
  8
1TEXT
100
AcDbText
 10
2064.901192465076
 20
-395.7163635229095
 30
0.0
 40
6.0
  1
クローム
 72
     4
 11
2079.101192465076
 21
-392.6163635229095
 31
0.0
100
AcDbText
  0
TEXT
  5
1B4A0
330
18
100
AcDbEntity
  8
1TEXT
100
AcDbText
 10
2054.801192465075
 20
-415.9979186439161
 30
0.0
 40
6.0
  1
ダークアンバー
 72
     4
 11
2079.101192465075
 21
-412.7979186439161
 31
0.0
100
AcDbText
  0
LINE
  5
1B4A1
330
18
100
AcDbEntity
  8
1DIM
100
AcDbLine
 10
2052.851192465076
 20
-376.2849324866652
 30
0.0
 11
2210.351192465076
 21
-376.2849324866652
 31
0.0
  0
LINE
  5
1B4A2
330
18
100
AcDbEntity
  8
1DIM
100
AcDbLine
 10
2210.351192465076
 20
-376.2849324866652
 30
0.0
 11
2210.351192465077
 21
-418.2849324866652
 31
0.0
  0
LINE
  5
1B4A3
330
18
100
AcDbEntity
  8
1DIM
100
AcDbLine
 10
2052.851192465076
 20
-418.2849324866652
 30
0.0
 11
2052.851192465076
 21
-376.2849324866652
 31
0.0
  0
LINE
  5
1B4A4
330
18
100
AcDbEntity
  8
1DIM
100
AcDbLine
 10
2052.851192465076
 20
-386.7849324866652
 30
0.0
 11
2210.351192465076
 21
-386.7849324866652
 31
0.0
  0
LINE
  5
1B4A5
330
18
100
AcDbEntity
  8
1DIM
100
AcDbLine
 10
2157.851192465079
 20
-418.2849324866652
 30
0.0
 11
2157.85119246508
 21
-376.2849324866652
 31
0.0
  0
LINE
  5
1B4A6
330
18
100
AcDbEntity
  8
1DIM
100
AcDbLine
 10
2105.351192465075
 20
-376.2849324866652
 30
0.0
 11
2105.351192465076
 21
-418.2849324866652
 31
0.0
  0
LINE
  5
1B4A7
330
18
100
AcDbEntity
  8
1DIM
100
AcDbLine
 10
2052.851192465076
 20
-397.2849324866654
 30
0.0
 11
2210.351192465076
 21
-397.2849324866652
 31
0.0
  0
LINE
  5
1B4A8
330
18
100
AcDbEntity
  8
1DIM
100
AcDbLine
 10
2052.851192465076
 20
-407.7849324866652
 30
0.0
 11
2210.351192465076
 21
-407.7849324866652
 31
0.0
  0
TEXT
  5
1B4A9
330
18
100
AcDbEntity
  8
1TEXT
100
AcDbText
 10
2054.251192465076
 20
-384.5349324866652
 30
0.0
 40
6.0
  1
表面処理：脚部
 72
     1
 11
2078.951192465076
 21
-384.5349324866652
 31
0.0
100
AcDbText
  0
TEXT
  5
1B4AA
330
18
100
AcDbEntity
  8
1TEXT
100
AcDbText
 10
2173.651192465076
 20
-384.5349324866652
 30
0.0
 40
6.0
  1
コード
 72
     1
 11
2183.951192465076
 21
-384.5349324866652
 31
0.0
100
AcDbText
  0
TEXT
  5
1B4AB
330
18
100
AcDbEntity
  8
1TEXT
100
AcDbText
 10
2107.551192465076
 20
-384.5349324866652
 30
0.0
 40
6.0
  1
表面処理：握り
 72
     1
 11
2131.451192465076
 21
-384.5349324866652
 31
0.0
100
AcDbText
  0
TEXT
  5
1B4AC
330
18
100
AcDbEntity
  8
1TEXT
100
AcDbText
 10
2117.251192465077
 20
-395.3564679621395
 30
0.0
 40
6.0
  1
クローム
 72
     1
 11
2131.451192465077
 21
-395.3564679621395
 31
0.0
100
AcDbText
  0
TEXT
  5
1B4AD
330
18
100
AcDbEntity
  8
1TEXT
100
AcDbText
 10
2163.650220242855
 20
-395.3564679621404
 30
0.0
 40
6.0
  1
2-M9C-C-LJ
 41
0.7
 72
     1
 11
2183.951192465077
 21
-395.3564679621404
 31
0.0
100
AcDbText
  0
TEXT
  5
1B4AE
330
18
100
AcDbEntity
  8
1TEXT
100
AcDbText
 10
2163.650220242855
 20
-405.8564679621404
 30
0.0
 40
6.0
  1
2-M9C-N-LJ
 41
0.7
 72
     1
 11
2183.951192465077
 21
-405.8564679621404
 31
0.0
100
AcDbText
  0
LINE
  5
1B4AF
330
18
100
AcDbEntity
  8
1DIM
100
AcDbLine
 10
2052.851192465076
 20
-418.2849324866652
 30
0.0
 11
2210.351192465076
 21
-418.2849324866652
 31
0.0
  0
TEXT
  5
1B4B0
330
18
100
AcDbEntity
  8
1TEXT
100
AcDbText
 10
2161.550220242854
 20
-416.3564679621404
 30
0.0
 40
6.0
  1
2-M9C-4Q-LJ
 41
0.7
 72
     1
 11
2183.951192465076
 21
-416.3564679621404
 31
0.0
100
AcDbText
  0
TEXT
  5
1B4B1
330
18
100
AcDbEntity
  8
1TEXT
100
AcDbText
 10
2054.301192465075
 20
-405.967566489382
 30
0.0
 40
6.0
  1
サテンニッケル
 72
     4
 11
2079.101192465075
 21
-403.067566489382
 31
0.0
100
AcDbText
  0
TEXT
  5
1B4B2
330
18
100
AcDbEntity
  8
1TEXT
100
AcDbText
 10
2107.301192465075
 20
-415.9979186439161
 30
0.0
 40
6.0
  1
ダークアンバー
 72
     4
 11
2131.601192465075
 21
-412.7979186439161
 31
0.0
100
AcDbText
  0
TEXT
  5
1B4B3
330
18
100
AcDbEntity
  8
1TEXT
100
AcDbText
 10
2106.801192465075
 20
-405.967566489382
 30
0.0
 40
6.0
  1
サテンニッケル
 72
     4
 11
2131.601192465075
 21
-403.067566489382
 31
0.0
100
AcDbText
  0
LINE
  5
1B720
330
18
100
AcDbEntity
  8
1CENTER
100
AcDbLine
 10
2374.032618932751
 20
-398.3187320018377
 30
0.0000000001127424
 11
2401.298719305976
 21
-398.3187630018386
 31
0.0000000001127424
  0
LINE
  5
1B721
330
18
100
AcDbEntity
  8
1CENTER
100
AcDbLine
 10
2374.032618932751
 20
-329.3187320018422
 30
0.0000000001127424
 11
2401.298719305976
 21
-329.3187010018413
 31
0.0000000001127424
  0
LINE
  5
1B853
330
18
100
AcDbEntity
  8
01
100
AcDbLine
 10
2044.314078645719
 20
-578.3187320008117
 30
0.0000000001127424
 11
2044.314078645719
 21
-549.5187320008117
 31
0.0000000001127424
1001
ACAD
1000
DSTYLE
1002
{
1070
     3
1000
φ<>
1070
    40
1040
1.3
1070
    45
1040
0.5
1070
   271
1070
     4
1070
   272
1070
     2
1002
}
  0
LINE
  5
1B854
330
18
100
AcDbEntity
  8
01
100
AcDbLine
 10
2084.314078645719
 20
-578.3187320008117
 30
0.0000000001127424
 11
2084.314078645719
 21
-549.5187320008117
 31
0.0000000001127424
1001
ACAD
1000
DSTYLE
1002
{
1070
     3
1000
φ<>
1070
    40
1040
1.3
1070
    45
1040
0.5
1070
   271
1070
     4
1070
   272
1070
     2
1002
}
  0
LINE
  5
1B855
330
18
100
AcDbEntity
  8
01
100
AcDbLine
 10
2046.914078645719
 20
-550.8187320008117
 30
0.0000000001127424
 11
2081.714078645719
 21
-550.8187320008117
 31
0.0000000001127424
1001
ACAD
1000
DSTYLE
1002
{
1070
     3
1000
φ<>
1070
    40
1040
1.3
1070
    45
1040
0.5
1070
   271
1070
     4
1070
   272
1070
     2
1002
}
  0
LINE
  5
1B859
330
18
100
AcDbEntity
  8
01
100
AcDbLine
 10
2214.314082645724
 20
-558.3187320008117
 30
0.0000000001127424
 11
2214.314082645724
 21
-526.5187320008117
 31
0.0000000001127424
1001
ACAD
1000
DSTYLE
1002
{
1070
    40
1040
1.3
1070
    45
1040
0.5
1070
   341
1005
0
1002
}
  0
LINE
  5
1B85A
330
18
100
AcDbEntity
  8
01
100
AcDbLine
 10
2192.313697080004
 20
-573.8187370008106
 30
0.0000000001127424
 11
2192.313697080004
 21
-526.5187320008117
 31
0.0000000001127424
1001
ACAD
1000
DSTYLE
1002
{
1070
    40
1040
1.3
1070
    45
1040
0.5
1070
   341
1005
0
1002
}
  0
LINE
  5
1B85B
330
18
100
AcDbEntity
  8
01
100
AcDbLine
 10
2211.714082645724
 20
-527.8187320008117
 30
0.0000000001127424
 11
2194.913697080004
 21
-527.8187320008117
 31
0.0000000001127424
1001
ACAD
1000
DSTYLE
1002
{
1070
    40
1040
1.3
1070
    45
1040
0.5
1070
   341
1005
0
1002
}
  0
LINE
  5
1B85F
330
18
100
AcDbEntity
  8
01
100
AcDbLine
 10
2384.313965983518
 20
-578.3187320008117
 30
0.0000000001127424
 11
2384.313965983518
 21
-549.5187320008117
 31
0.0000000001127424
1001
ACAD
1000
DSTYLE
1002
{
1070
     3
1000
φ<>
1070
    40
1040
1.3
1070
    45
1040
0.5
1070
   271
1070
     4
1070
   272
1070
     2
1002
}
  0
LINE
  5
1B860
330
18
100
AcDbEntity
  8
01
100
AcDbLine
 10
2424.313965983518
 20
-578.3187320008117
 30
0.0000000001127424
 11
2424.313965983518
 21
-549.5187320008117
 31
0.0000000001127424
1001
ACAD
1000
DSTYLE
1002
{
1070
     3
1000
φ<>
1070
    40
1040
1.3
1070
    45
1040
0.5
1070
   271
1070
     4
1070
   272
1070
     2
1002
}
  0
LINE
  5
1B861
330
18
100
AcDbEntity
  8
01
100
AcDbLine
 10
2386.913965983518
 20
-550.8187320008117
 30
0.0000000001127424
 11
2421.713965983518
 21
-550.8187320008117
 31
0.0000000001127424
1001
ACAD
1000
DSTYLE
1002
{
1070
     3
1000
φ<>
1070
    40
1040
1.3
1070
    45
1040
0.5
1070
   271
1070
     4
1070
   272
1070
     2
1002
}
  0
LINE
  5
1B865
330
18
100
AcDbEntity
  8
01
100
AcDbLine
 10
2044.314078645719
 20
-578.3187320008117
 30
0.0000000001127424
 11
2044.314078645719
 21
-549.5187320008117
 31
0.0000000001127424
1001
ACAD
1000
DSTYLE
1002
{
1070
     3
1000
φ<>
1070
    40
1040
1.3
1070
    45
1040
0.5
1070
   271
1070
     4
1070
   272
1070
     2
1002
}
  0
LINE
  5
1B866
330
18
100
AcDbEntity
  8
01
100
AcDbLine
 10
2084.314078645719
 20
-578.3187320008117
 30
0.0000000001127424
 11
2084.314078645719
 21
-549.5187320008117
 31
0.0000000001127424
1001
ACAD
1000
DSTYLE
1002
{
1070
     3
1000
φ<>
1070
    40
1040
1.3
1070
    45
1040
0.5
1070
   271
1070
     4
1070
   272
1070
     2
1002
}
  0
LINE
  5
1B867
330
18
100
AcDbEntity
  8
01
100
AcDbLine
 10
2046.914078645719
 20
-550.8187320008117
 30
0.0000000001127424
 11
2081.714078645719
 21
-550.8187320008117
 31
0.0000000001127424
1001
ACAD
1000
DSTYLE
1002
{
1070
     3
1000
φ<>
1070
    40
1040
1.3
1070
    45
1040
0.5
1070
   271
1070
     4
1070
   272
1070
     2
1002
}
  0
LINE
  5
1B86B
330
18
100
AcDbEntity
  8
01
100
AcDbLine
 10
2214.314082645724
 20
-558.3187320008117
 30
0.0000000001127424
 11
2214.314082645724
 21
-526.5187320008117
 31
0.0000000001127424
1001
ACAD
1000
DSTYLE
1002
{
1070
    40
1040
1.3
1070
    45
1040
0.5
1070
   341
1005
0
1002
}
  0
LINE
  5
1B86C
330
18
100
AcDbEntity
  8
01
100
AcDbLine
 10
2192.314057834712
 20
-575.1982621760358
 30
0.0000000001127424
 11
2192.314057834712
 21
-526.5187320008117
 31
0.0000000001127424
1001
ACAD
1000
DSTYLE
1002
{
1070
    40
1040
1.3
1070
    45
1040
0.5
1070
   341
1005
0
1002
}
  0
LINE
  5
1B86D
330
18
100
AcDbEntity
  8
01
100
AcDbLine
 10
2211.714082645724
 20
-527.8187320008117
 30
0.0000000001127424
 11
2194.914057834712
 21
-527.8187320008117
 31
0.0000000001127424
1001
ACAD
1000
DSTYLE
1002
{
1070
    40
1040
1.3
1070
    45
1040
0.5
1070
   341
1005
0
1002
}
  0
LINE
  5
1B871
330
18
100
AcDbEntity
  8
01
100
AcDbLine
 10
2254.314082645723
 20
-558.3187320008117
 30
0.0
 11
2254.314082645723
 21
-526.5187320008117
 31
0.0
1001
ACAD
1000
DSTYLE
1002
{
1070
    40
1040
1.3
1070
    45
1040
0.5
1070
   271
1070
     1
1070
   341
1005
0
1002
}
  0
LINE
  5
1B872
330
18
100
AcDbEntity
  8
01
100
AcDbLine
 10
2262.482666334684
 20
-583.8187304331195
 30
0.0
 11
2262.482666334684
 21
-526.5187320008117
 31
0.0
1001
ACAD
1000
DSTYLE
1002
{
1070
    40
1040
1.3
1070
    45
1040
0.5
1070
   271
1070
     1
1070
   341
1005
0
1002
}
  0
LINE
  5
1B873
330
18
100
AcDbEntity
  8
01
100
AcDbLine
 10
2256.914082645723
 20
-527.8187320008117
 30
0.0
 11
2259.882666334684
 21
-527.8187320008117
 31
0.0
1001
ACAD
1000
DSTYLE
1002
{
1070
    40
1040
1.3
1070
    45
1040
0.5
1070
   271
1070
     1
1070
   341
1005
0
1002
}
  0
LINE
  5
1B877
330
18
100
AcDbEntity
  8
01
100
AcDbLine
 10
2342.313966305977
 20
-605.8187326989432
 30
0.0000000001127424
 11
2342.313966305977
 21
-503.0972399161239
 31
0.0000000001127424
1001
ACAD
1000
DSTYLE
1002
{
1070
    40
1040
1.3
1070
    45
1040
0.5
1002
}
  0
LINE
  5
1B878
330
18
100
AcDbEntity
  8
01
100
AcDbLine
 10
2353.313966305977
 20
-547.9474146496543
 30
0.0000000001127424
 11
2353.313966305977
 21
-503.0972399161239
 31
0.0000000001127424
1001
ACAD
1000
DSTYLE
1002
{
1070
    40
1040
1.3
1070
    45
1040
0.5
1002
}
  0
LINE
  5
1B879
330
18
100
AcDbEntity
  8
01
100
AcDbLine
 10
2344.913966305977
 20
-504.3972399161239
 30
0.0000000001127424
 11
2350.713966305977
 21
-504.3972399161239
 31
0.0000000001127424
1001
ACAD
1000
DSTYLE
1002
{
1070
    40
1040
1.3
1070
    45
1040
0.5
1002
}
  0
LINE
  5
1B87D
330
18
100
AcDbEntity
  8
01
100
AcDbLine
 10
2422.313966305977
 20
-575.8187320008119
 30
0.0000000001127424
 11
2450.613966305978
 21
-575.8187320008119
 31
0.0000000001127424
1001
ACAD
1000
DSTYLE
1002
{
1070
    40
1040
1.3
1070
    45
1040
0.5
1002
}
  0
LINE
  5
1B87E
330
18
100
AcDbEntity
  8
01
100
AcDbLine
 10
2422.313966305977
 20
-649.8187320008124
 30
0.0000000001127424
 11
2450.613966305978
 21
-649.8187320008124
 31
0.0000000001127424
1001
ACAD
1000
DSTYLE
1002
{
1070
    40
1040
1.3
1070
    45
1040
0.5
1002
}
  0
LINE
  5
1B87F
330
18
100
AcDbEntity
  8
01
100
AcDbLine
 10
2449.313966305977
 20
-578.4187320008119
 30
0.0000000001127424
 11
2449.313966305977
 21
-647.2187320008123
 31
0.0000000001127424
1001
ACAD
1000
DSTYLE
1002
{
1070
    40
1040
1.3
1070
    45
1040
0.5
1002
}
  0
LINE
  5
1B883
330
18
100
AcDbEntity
  8
01
100
AcDbLine
 10
2422.313966305977
 20
-575.8187320008119
 30
0.0000000001127424
 11
2422.313966305977
 21
-493.0173724480757
 31
0.0000000001127424
1001
ACAD
1000
DSTYLE
1002
{
1070
    40
1040
1.3
1070
    45
1040
0.5
1002
}
  0
LINE
  5
1B884
330
18
100
AcDbEntity
  8
01
100
AcDbLine
 10
2353.313966305977
 20
-547.9474146496543
 30
0.0000000001127424
 11
2353.313966305977
 21
-493.0173724480757
 31
0.0000000001127424
1001
ACAD
1000
DSTYLE
1002
{
1070
    40
1040
1.3
1070
    45
1040
0.5
1002
}
  0
LINE
  5
1B885
330
18
100
AcDbEntity
  8
01
100
AcDbLine
 10
2419.713966305977
 20
-494.3173724480757
 30
0.0000000001127424
 11
2355.913966305977
 21
-494.3173724480757
 31
0.0000000001127424
1001
ACAD
1000
DSTYLE
1002
{
1070
    40
1040
1.3
1070
    45
1040
0.5
1002
}
  0
LINE
  5
1B889
330
18
100
AcDbEntity
  8
01
100
AcDbLine
 10
2353.313966305977
 20
-547.9474146496543
 30
0.0000000001127424
 11
2353.313966305977
 21
-503.0972399161239
 31
0.0000000001127424
1001
ACAD
1000
DSTYLE
1002
{
1070
    40
1040
1.3
1070
    45
1040
0.5
1002
}
  0
LINE
  5
1B88A
330
18
100
AcDbEntity
  8
01
100
AcDbLine
 10
2404.313966305977
 20
-583.8187320008119
 30
0.0000000001127424
 11
2404.313966305977
 21
-503.0972399161239
 31
0.0000000001127424
1001
ACAD
1000
DSTYLE
1002
{
1070
    40
1040
1.3
1070
    45
1040
0.5
1002
}
  0
LINE
  5
1B88B
330
18
100
AcDbEntity
  8
01
100
AcDbLine
 10
2355.913966305977
 20
-504.3972399161239
 30
0.0000000001127424
 11
2401.713966305977
 21
-504.3972399161239
 31
0.0000000001127424
1001
ACAD
1000
DSTYLE
1002
{
1070
    40
1040
1.3
1070
    45
1040
0.5
1002
}
  0
LINE
  5
1B88F
330
18
100
AcDbEntity
  8
01
100
AcDbLine
 10
2221.814082645722
 20
-553.8187320008124
 30
0.0000000001127424
 11
2221.814082645722
 21
-503.0972399161241
 31
0.0000000001127424
1001
ACAD
1000
DSTYLE
1002
{
1070
    40
1040
1.3
1070
    45
1040
0.5
1002
}
  0
LINE
  5
1B890
330
18
100
AcDbEntity
  8
01
100
AcDbLine
 10
2246.814082645722
 20
-553.8187320008124
 30
0.0000000001127424
 11
2246.814082645722
 21
-503.0972399161241
 31
0.0000000001127424
1001
ACAD
1000
DSTYLE
1002
{
1070
    40
1040
1.3
1070
    45
1040
0.5
1002
}
  0
LINE
  5
1B891
330
18
100
AcDbEntity
  8
01
100
AcDbLine
 10
2224.414082645722
 20
-504.3972399161241
 30
0.0000000001127424
 11
2244.214082645722
 21
-504.3972399161241
 31
0.0000000001127424
1001
ACAD
1000
DSTYLE
1002
{
1070
    40
1040
1.3
1070
    45
1040
0.5
1002
}
  0
LINE
  5
1B895
330
18
100
AcDbEntity
  8
01
100
AcDbLine
 10
2240.116022248958
 20
-555.8182868563961
 30
0.0000000001691137
 11
2320.402153417166
 21
-555.8182868563961
 31
0.0000000001691137
1001
ACAD
1000
DSTYLE
1002
{
1070
    40
1040
1.3
1070
    45
1040
0.5
1002
}
  0
LINE
  5
1B896
330
18
100
AcDbEntity
  8
01
100
AcDbLine
 10
2240.116022248958
 20
-669.8182868563961
 30
0.0000000001691137
 11
2320.402153417166
 21
-669.8182868563961
 31
0.0000000001691137
1001
ACAD
1000
DSTYLE
1002
{
1070
    40
1040
1.3
1070
    45
1040
0.5
1002
}
  0
LINE
  5
1B897
330
18
100
AcDbEntity
  8
01
100
AcDbLine
 10
2319.102153417166
 20
-558.4182868563961
 30
0.0000000001691137
 11
2319.102153417166
 21
-667.218286856396
 31
0.0000000001691137
1001
ACAD
1000
DSTYLE
1002
{
1070
    40
1040
1.3
1070
    45
1040
0.5
1002
}
  0
LINE
  5
1B89B
330
18
100
AcDbEntity
  8
01
100
AcDbLine
 10
2240.714082645722
 20
-547.9187320008125
 30
0.0000000001691137
 11
2329.766487583391
 21
-547.9187320008125
 31
0.0000000001691137
1001
ACAD
1000
DSTYLE
1002
{
1070
    40
1040
1.3
1070
    45
1040
0.5
1002
}
  0
LINE
  5
1B89C
330
18
100
AcDbEntity
  8
01
100
AcDbLine
 10
2240.640996841052
 20
-677.7182868563959
 30
0.0000000001691137
 11
2329.766487583391
 21
-677.7182868563959
 31
0.0000000001691137
1001
ACAD
1000
DSTYLE
1002
{
1070
    40
1040
1.3
1070
    45
1040
0.5
1002
}
  0
LINE
  5
1B89D
330
18
100
AcDbEntity
  8
01
100
AcDbLine
 10
2328.466487583391
 20
-550.5187320008125
 30
0.0000000001691137
 11
2328.466487583391
 21
-675.1182868563959
 31
0.0000000001691137
1001
ACAD
1000
DSTYLE
1002
{
1070
    40
1040
1.3
1070
    45
1040
0.5
1002
}
  0
TEXT
  5
1B8A1
330
18
100
AcDbEntity
  8
01
  6
CONTINUOUS
100
AcDbText
 10
2315.317127398995
 20
-414.2353986685074
 30
0.0000000001127424
 40
4.55
  1
材質：亜鉛ダイキャスト
100
AcDbText
  0
TEXT
  5
1B8A2
330
18
100
AcDbEntity
  8
01
  6
CONTINUOUS
100
AcDbText
 10
2325.630460732328
 20
-421.8187320018407
 30
0.0000000001127424
 40
4.55
  1
仕上げ：各種メッキ
100
AcDbText
  0
TEXT
  5
1B8A3
330
18
100
AcDbEntity
  8
01
  6
CONTINUOUS
100
AcDbText
 10
2315.317127398995
 20
-438.2462290074726
 30
0.0000000001127424
 40
4.55
  1
材質：亜鉛ダイキャスト
100
AcDbText
  0
TEXT
  5
1B8A4
330
18
100
AcDbEntity
  8
01
  6
CONTINUOUS
100
AcDbText
 10
2325.630460732328
 20
-445.8295623408059
 30
0.0000000001127424
 40
4.55
  1
仕上げ：各種メッキ
100
AcDbText
  0
LINE
  5
1B8A5
330
18
100
AcDbEntity
  8
01
  6
BYBLOCK
100
AcDbLine
 10
2046.914078645719
 20
-551.5153998948117
 30
0.0000000001127424
 11
2044.314078645719
 21
-550.8187320008117
 31
0.0000000001127424
  0
LINE
  5
1B8A6
330
18
100
AcDbEntity
  8
01
  6
BYBLOCK
100
AcDbLine
 10
2044.314078645719
 20
-550.8187320008117
 30
0.0000000001127424
 11
2046.914078645719
 21
-550.1220641068116
 31
0.0000000001127424
  0
LINE
  5
1B8A7
330
18
100
AcDbEntity
  8
01
  6
BYBLOCK
100
AcDbLine
 10
2044.314078645719
 20
-550.8187320008117
 30
0.0000000001127424
 11
2046.914078645719
 21
-550.8187320008117
 31
0.0000000001127424
  0
LINE
  5
1B8A8
330
18
100
AcDbEntity
  8
01
  6
BYBLOCK
100
AcDbLine
 10
2081.714078645719
 20
-550.1220641068116
 30
0.0000000001127424
 11
2084.314078645719
 21
-550.8187320008117
 31
0.0000000001127424
  0
LINE
  5
1B8A9
330
18
100
AcDbEntity
  8
01
  6
BYBLOCK
100
AcDbLine
 10
2084.314078645719
 20
-550.8187320008117
 30
0.0000000001127424
 11
2081.714078645719
 21
-551.5153998948117
 31
0.0000000001127424
  0
LINE
  5
1B8AA
330
18
100
AcDbEntity
  8
01
  6
BYBLOCK
100
AcDbLine
 10
2084.314078645719
 20
-550.8187320008117
 30
0.0000000001127424
 11
2081.714078645719
 21
-550.8187320008117
 31
0.0000000001127424
  0
TEXT
  5
1B8AB
330
18
100
AcDbEntity
  8
01
  6
CONTINUOUS
100
AcDbText
 10
2057.470120312386
 20
-549.9087320008117
 30
0.0000000001127424
 40
4.55
  1
φ40
100
AcDbText
1001
ACAD
1000
DSTYLE
1002
{
1070
     3
1000
φ<>
1070
    40
1040
1.3
1070
    45
1040
0.5
1070
   271
1070
     4
1070
   272
1070
     2
1002
}
  0
LINE
  5
1B8AC
330
18
100
AcDbEntity
  8
01
  6
BYBLOCK
100
AcDbLine
 10
2211.714082645724
 20
-527.1220641068116
 30
0.0000000001127424
 11
2214.314082645724
 21
-527.8187320008117
 31
0.0000000001127424
  0
LINE
  5
1B8AD
330
18
100
AcDbEntity
  8
01
  6
BYBLOCK
100
AcDbLine
 10
2214.314082645724
 20
-527.8187320008117
 30
0.0000000001127424
 11
2211.714082645724
 21
-528.5153998948117
 31
0.0000000001127424
  0
LINE
  5
1B8AE
330
18
100
AcDbEntity
  8
01
  6
BYBLOCK
100
AcDbLine
 10
2214.314082645724
 20
-527.8187320008117
 30
0.0000000001127424
 11
2211.714082645724
 21
-527.8187320008117
 31
0.0000000001127424
  0
LINE
  5
1B8AF
330
18
100
AcDbEntity
  8
01
  6
BYBLOCK
100
AcDbLine
 10
2194.913697080004
 20
-528.5153998948117
 30
0.0000000001127424
 11
2192.313697080004
 21
-527.8187320008117
 31
0.0000000001127424
  0
LINE
  5
1B8B0
330
18
100
AcDbEntity
  8
01
  6
BYBLOCK
100
AcDbLine
 10
2192.313697080004
 20
-527.8187320008117
 30
0.0000000001127424
 11
2194.913697080004
 21
-527.1220641068116
 31
0.0000000001127424
  0
LINE
  5
1B8B1
330
18
100
AcDbEntity
  8
01
  6
BYBLOCK
100
AcDbLine
 10
2192.313697080004
 20
-527.8187320008117
 30
0.0000000001127424
 11
2194.913697080004
 21
-527.8187320008117
 31
0.0000000001127424
  0
TEXT
  5
1B8B2
330
18
100
AcDbEntity
  8
01
  6
CONTINUOUS
100
AcDbText
 10
2199.522223196198
 20
-526.9087320008117
 30
0.0000000001127424
 40
4.55
  1
22
100
AcDbText
1001
ACAD
1000
DSTYLE
1002
{
1070
    40
1040
1.3
1070
    45
1040
0.5
1070
   341
1005
0
1002
}
  0
LINE
  5
1B8B3
330
18
100
AcDbEntity
  8
01
  6
BYBLOCK
100
AcDbLine
 10
2386.913965983518
 20
-551.5153998948117
 30
0.0000000001127424
 11
2384.313965983518
 21
-550.8187320008117
 31
0.0000000001127424
  0
LINE
  5
1B8B4
330
18
100
AcDbEntity
  8
01
  6
BYBLOCK
100
AcDbLine
 10
2384.313965983518
 20
-550.8187320008117
 30
0.0000000001127424
 11
2386.913965983518
 21
-550.1220641068116
 31
0.0000000001127424
  0
LINE
  5
1B8B5
330
18
100
AcDbEntity
  8
01
  6
BYBLOCK
100
AcDbLine
 10
2384.313965983518
 20
-550.8187320008117
 30
0.0000000001127424
 11
2386.913965983518
 21
-550.8187320008117
 31
0.0000000001127424
  0
LINE
  5
1B8B6
330
18
100
AcDbEntity
  8
01
  6
BYBLOCK
100
AcDbLine
 10
2421.713965983518
 20
-550.1220641068116
 30
0.0000000001127424
 11
2424.313965983518
 21
-550.8187320008117
 31
0.0000000001127424
  0
LINE
  5
1B8B7
330
18
100
AcDbEntity
  8
01
  6
BYBLOCK
100
AcDbLine
 10
2424.313965983518
 20
-550.8187320008117
 30
0.0000000001127424
 11
2421.713965983518
 21
-551.5153998948117
 31
0.0000000001127424
  0
LINE
  5
1B8B8
330
18
100
AcDbEntity
  8
01
  6
BYBLOCK
100
AcDbLine
 10
2424.313965983518
 20
-550.8187320008117
 30
0.0000000001127424
 11
2421.713965983518
 21
-550.8187320008117
 31
0.0000000001127424
  0
TEXT
  5
1B8B9
330
18
100
AcDbEntity
  8
01
  6
CONTINUOUS
100
AcDbText
 10
2397.470007650185
 20
-549.9087320008117
 30
0.0000000001127424
 40
4.55
  1
φ40
100
AcDbText
1001
ACAD
1000
DSTYLE
1002
{
1070
     3
1000
φ<>
1070
    40
1040
1.3
1070
    45
1040
0.5
1070
   271
1070
     4
1070
   272
1070
     2
1002
}
  0
LINE
  5
1B8BA
330
18
100
AcDbEntity
  8
01
  6
BYBLOCK
100
AcDbLine
 10
2046.914078645719
 20
-551.5153998948117
 30
0.0000000001127424
 11
2044.314078645719
 21
-550.8187320008117
 31
0.0000000001127424
  0
LINE
  5
1B8BB
330
18
100
AcDbEntity
  8
01
  6
BYBLOCK
100
AcDbLine
 10
2044.314078645719
 20
-550.8187320008117
 30
0.0000000001127424
 11
2046.914078645719
 21
-550.1220641068116
 31
0.0000000001127424
  0
LINE
  5
1B8BC
330
18
100
AcDbEntity
  8
01
  6
BYBLOCK
100
AcDbLine
 10
2044.314078645719
 20
-550.8187320008117
 30
0.0000000001127424
 11
2046.914078645719
 21
-550.8187320008117
 31
0.0000000001127424
  0
LINE
  5
1B8BD
330
18
100
AcDbEntity
  8
01
  6
BYBLOCK
100
AcDbLine
 10
2081.714078645719
 20
-550.1220641068116
 30
0.0000000001127424
 11
2084.314078645719
 21
-550.8187320008117
 31
0.0000000001127424
  0
LINE
  5
1B8BE
330
18
100
AcDbEntity
  8
01
  6
BYBLOCK
100
AcDbLine
 10
2084.314078645719
 20
-550.8187320008117
 30
0.0000000001127424
 11
2081.714078645719
 21
-551.5153998948117
 31
0.0000000001127424
  0
LINE
  5
1B8BF
330
18
100
AcDbEntity
  8
01
  6
BYBLOCK
100
AcDbLine
 10
2084.314078645719
 20
-550.8187320008117
 30
0.0000000001127424
 11
2081.714078645719
 21
-550.8187320008117
 31
0.0000000001127424
  0
TEXT
  5
1B8C0
330
18
100
AcDbEntity
  8
01
  6
CONTINUOUS
100
AcDbText
 10
2057.470120312386
 20
-549.9087320008117
 30
0.0000000001127424
 40
4.55
  1
φ40
100
AcDbText
1001
ACAD
1000
DSTYLE
1002
{
1070
     3
1000
φ<>
1070
    40
1040
1.3
1070
    45
1040
0.5
1070
   271
1070
     4
1070
   272
1070
     2
1002
}
  0
LINE
  5
1B8C1
330
18
100
AcDbEntity
  8
01
  6
BYBLOCK
100
AcDbLine
 10
2211.714082645724
 20
-527.1220641068116
 30
0.0000000001127424
 11
2214.314082645724
 21
-527.8187320008117
 31
0.0000000001127424
  0
LINE
  5
1B8C2
330
18
100
AcDbEntity
  8
01
  6
BYBLOCK
100
AcDbLine
 10
2214.314082645724
 20
-527.8187320008117
 30
0.0000000001127424
 11
2211.714082645724
 21
-528.5153998948117
 31
0.0000000001127424
  0
LINE
  5
1B8C3
330
18
100
AcDbEntity
  8
01
  6
BYBLOCK
100
AcDbLine
 10
2214.314082645724
 20
-527.8187320008117
 30
0.0000000001127424
 11
2211.714082645724
 21
-527.8187320008117
 31
0.0000000001127424
  0
LINE
  5
1B8C4
330
18
100
AcDbEntity
  8
01
  6
BYBLOCK
100
AcDbLine
 10
2194.914057834712
 20
-528.5153998948117
 30
0.0000000001127424
 11
2192.314057834712
 21
-527.8187320008117
 31
0.0000000001127424
  0
LINE
  5
1B8C5
330
18
100
AcDbEntity
  8
01
  6
BYBLOCK
100
AcDbLine
 10
2192.314057834712
 20
-527.8187320008117
 30
0.0000000001127424
 11
2194.914057834712
 21
-527.1220641068116
 31
0.0000000001127424
  0
LINE
  5
1B8C6
330
18
100
AcDbEntity
  8
01
  6
BYBLOCK
100
AcDbLine
 10
2192.314057834712
 20
-527.8187320008117
 30
0.0000000001127424
 11
2194.914057834712
 21
-527.8187320008117
 31
0.0000000001127424
  0
TEXT
  5
1B8C7
330
18
100
AcDbEntity
  8
01
  6
CONTINUOUS
100
AcDbText
 10
2199.522403573551
 20
-526.9087320008117
 30
0.0000000001127424
 40
4.55
  1
22
100
AcDbText
1001
ACAD
1000
DSTYLE
1002
{
1070
    40
1040
1.3
1070
    45
1040
0.5
1070
   341
1005
0
1002
}
  0
LINE
  5
1B8C8
330
18
100
AcDbEntity
  8
01
  6
BYBLOCK
100
AcDbLine
 10
2256.914082645723
 20
-528.5153998948117
 30
0.0
 11
2254.314082645723
 21
-527.8187320008117
 31
0.0
  0
LINE
  5
1B8C9
330
18
100
AcDbEntity
  8
01
  6
BYBLOCK
100
AcDbLine
 10
2254.314082645723
 20
-527.8187320008117
 30
0.0
 11
2256.914082645723
 21
-527.1220641068116
 31
0.0
  0
LINE
  5
1B8CA
330
18
100
AcDbEntity
  8
01
  6
BYBLOCK
100
AcDbLine
 10
2254.314082645723
 20
-527.8187320008117
 30
0.0
 11
2256.914082645723
 21
-527.8187320008117
 31
0.0
  0
LINE
  5
1B8CB
330
18
100
AcDbEntity
  8
01
  6
BYBLOCK
100
AcDbLine
 10
2259.882666334684
 20
-527.1220641068116
 30
0.0
 11
2262.482666334684
 21
-527.8187320008117
 31
0.0
  0
LINE
  5
1B8CC
330
18
100
AcDbEntity
  8
01
  6
BYBLOCK
100
AcDbLine
 10
2262.482666334684
 20
-527.8187320008117
 30
0.0
 11
2259.882666334684
 21
-528.5153998948117
 31
0.0
  0
LINE
  5
1B8CD
330
18
100
AcDbEntity
  8
01
  6
BYBLOCK
100
AcDbLine
 10
2262.482666334684
 20
-527.8187320008117
 30
0.0
 11
2259.882666334684
 21
-527.8187320008117
 31
0.0
  0
TEXT
  5
1B8CE
330
18
100
AcDbEntity
  8
01
  6
CONTINUOUS
100
AcDbText
 10
2256.881707823537
 20
-526.9087320008117
 30
0.0
 40
4.55
  1
8
100
AcDbText
1001
ACAD
1000
DSTYLE
1002
{
1070
    40
1040
1.3
1070
    45
1040
0.5
1070
   271
1070
     1
1070
   341
1005
0
1002
}
  0
LINE
  5
1B8CF
330
18
100
AcDbEntity
  8
01
  6
BYBLOCK
100
AcDbLine
 10
2344.913966305977
 20
-505.0939078101239
 30
0.0000000001127424
 11
2342.313966305977
 21
-504.3972399161239
 31
0.0000000001127424
  0
LINE
  5
1B8D0
330
18
100
AcDbEntity
  8
01
  6
BYBLOCK
100
AcDbLine
 10
2342.313966305977
 20
-504.3972399161239
 30
0.0000000001127424
 11
2344.913966305977
 21
-503.7005720221239
 31
0.0000000001127424
  0
LINE
  5
1B8D1
330
18
100
AcDbEntity
  8
01
  6
BYBLOCK
100
AcDbLine
 10
2342.313966305977
 20
-504.3972399161239
 30
0.0000000001127424
 11
2344.913966305977
 21
-504.3972399161239
 31
0.0000000001127424
  0
LINE
  5
1B8D2
330
18
100
AcDbEntity
  8
01
  6
BYBLOCK
100
AcDbLine
 10
2350.713966305977
 20
-503.7005720221239
 30
0.0000000001127424
 11
2353.313966305977
 21
-504.3972399161239
 31
0.0000000001127424
  0
LINE
  5
1B8D3
330
18
100
AcDbEntity
  8
01
  6
BYBLOCK
100
AcDbLine
 10
2353.313966305977
 20
-504.3972399161239
 30
0.0000000001127424
 11
2350.713966305977
 21
-505.0939078101239
 31
0.0000000001127424
  0
LINE
  5
1B8D4
330
18
100
AcDbEntity
  8
01
  6
BYBLOCK
100
AcDbLine
 10
2353.313966305977
 20
-504.3972399161239
 30
0.0000000001127424
 11
2350.713966305977
 21
-504.3972399161239
 31
0.0000000001127424
  0
TEXT
  5
1B8D5
330
18
100
AcDbEntity
  8
01
  6
CONTINUOUS
100
AcDbText
 10
2345.538966305977
 20
-503.4872399161239
 30
0.0000000001127424
 40
4.55
  1
11
100
AcDbText
1001
ACAD
1000
DSTYLE
1002
{
1070
    40
1040
1.3
1070
    45
1040
0.5
1002
}
  0
LINE
  5
1B8D6
330
18
100
AcDbEntity
  8
01
  6
BYBLOCK
100
AcDbLine
 10
2448.617298411978
 20
-578.4187320008119
 30
0.0000000001127424
 11
2449.313966305977
 21
-575.8187320008119
 31
0.0000000001127424
  0
LINE
  5
1B8D7
330
18
100
AcDbEntity
  8
01
  6
BYBLOCK
100
AcDbLine
 10
2449.313966305977
 20
-575.8187320008119
 30
0.0000000001127424
 11
2450.010634199977
 21
-578.4187320008119
 31
0.0000000001127424
  0
LINE
  5
1B8D8
330
18
100
AcDbEntity
  8
01
  6
BYBLOCK
100
AcDbLine
 10
2449.313966305977
 20
-575.8187320008119
 30
0.0000000001127424
 11
2449.313966305977
 21
-578.4187320008119
 31
0.0000000001127424
  0
LINE
  5
1B8D9
330
18
100
AcDbEntity
  8
01
  6
BYBLOCK
100
AcDbLine
 10
2450.010634199977
 20
-647.2187320008123
 30
0.0000000001127424
 11
2449.313966305977
 21
-649.8187320008124
 31
0.0000000001127424
  0
LINE
  5
1B8DA
330
18
100
AcDbEntity
  8
01
  6
BYBLOCK
100
AcDbLine
 10
2449.313966305977
 20
-649.8187320008124
 30
0.0000000001127424
 11
2448.617298411978
 21
-647.2187320008123
 31
0.0000000001127424
  0
LINE
  5
1B8DB
330
18
100
AcDbEntity
  8
01
  6
BYBLOCK
100
AcDbLine
 10
2449.313966305977
 20
-649.8187320008124
 30
0.0000000001127424
 11
2449.313966305977
 21
-647.2187320008123
 31
0.0000000001127424
  0
TEXT
  5
1B8DC
330
18
100
AcDbEntity
  8
01
  6
CONTINUOUS
100
AcDbText
 10
2448.403966305978
 20
-594.8473879147932
 30
0.0000000001127424
 40
4.55
  1
74
 50
90.0
100
AcDbText
1001
ACAD
1000
DSTYLE
1002
{
1070
    40
1040
1.3
1070
    45
1040
0.5
1002
}
  0
LINE
  5
1B8DD
330
18
100
AcDbEntity
  8
01
  6
BYBLOCK
100
AcDbLine
 10
2419.713966305977
 20
-493.6207045540758
 30
0.0000000001127424
 11
2422.313966305977
 21
-494.3173724480757
 31
0.0000000001127424
  0
LINE
  5
1B8DE
330
18
100
AcDbEntity
  8
01
  6
BYBLOCK
100
AcDbLine
 10
2422.313966305977
 20
-494.3173724480757
 30
0.0000000001127424
 11
2419.713966305977
 21
-495.0140403420757
 31
0.0000000001127424
  0
LINE
  5
1B8DF
330
18
100
AcDbEntity
  8
01
  6
BYBLOCK
100
AcDbLine
 10
2422.313966305977
 20
-494.3173724480757
 30
0.0000000001127424
 11
2419.713966305977
 21
-494.3173724480757
 31
0.0000000001127424
  0
LINE
  5
1B8E0
330
18
100
AcDbEntity
  8
01
  6
BYBLOCK
100
AcDbLine
 10
2355.913966305977
 20
-495.0140403420757
 30
0.0000000001127424
 11
2353.313966305977
 21
-494.3173724480757
 31
0.0000000001127424
  0
LINE
  5
1B8E1
330
18
100
AcDbEntity
  8
01
  6
BYBLOCK
100
AcDbLine
 10
2353.313966305977
 20
-494.3173724480757
 30
0.0000000001127424
 11
2355.913966305977
 21
-493.6207045540758
 31
0.0000000001127424
  0
LINE
  5
1B8E2
330
18
100
AcDbEntity
  8
01
  6
BYBLOCK
100
AcDbLine
 10
2353.313966305977
 20
-494.3173724480757
 30
0.0000000001127424
 11
2355.913966305977
 21
-494.3173724480757
 31
0.0000000001127424
  0
TEXT
  5
1B8E3
330
18
100
AcDbEntity
  8
01
  6
CONTINUOUS
100
AcDbText
 10
2384.005447787459
 20
-493.4073724480758
 30
0.0000000001127424
 40
4.55
  1
69
100
AcDbText
1001
ACAD
1000
DSTYLE
1002
{
1070
    40
1040
1.3
1070
    45
1040
0.5
1002
}
  0
LINE
  5
1B8E4
330
18
100
AcDbEntity
  8
01
  6
BYBLOCK
100
AcDbLine
 10
2355.913966305977
 20
-505.0939078101239
 30
0.0000000001127424
 11
2353.313966305977
 21
-504.3972399161239
 31
0.0000000001127424
  0
LINE
  5
1B8E5
330
18
100
AcDbEntity
  8
01
  6
BYBLOCK
100
AcDbLine
 10
2353.313966305977
 20
-504.3972399161239
 30
0.0000000001127424
 11
2355.913966305977
 21
-503.7005720221239
 31
0.0000000001127424
  0
LINE
  5
1B8E6
330
18
100
AcDbEntity
  8
01
  6
BYBLOCK
100
AcDbLine
 10
2353.313966305977
 20
-504.3972399161239
 30
0.0000000001127424
 11
2355.913966305977
 21
-504.3972399161239
 31
0.0000000001127424
  0
LINE
  5
1B8E7
330
18
100
AcDbEntity
  8
01
  6
BYBLOCK
100
AcDbLine
 10
2401.713966305977
 20
-503.7005720221239
 30
0.0000000001127424
 11
2404.313966305977
 21
-504.3972399161239
 31
0.0000000001127424
  0
LINE
  5
1B8E8
330
18
100
AcDbEntity
  8
01
  6
BYBLOCK
100
AcDbLine
 10
2404.313966305977
 20
-504.3972399161239
 30
0.0000000001127424
 11
2401.713966305977
 21
-505.0939078101239
 31
0.0000000001127424
  0
LINE
  5
1B8E9
330
18
100
AcDbEntity
  8
01
  6
BYBLOCK
100
AcDbLine
 10
2404.313966305977
 20
-504.3972399161239
 30
0.0000000001127424
 11
2401.713966305977
 21
-504.3972399161239
 31
0.0000000001127424
  0
TEXT
  5
1B8EA
330
18
100
AcDbEntity
  8
01
  6
CONTINUOUS
100
AcDbText
 10
2375.764834361533
 20
-503.4872399161239
 30
0.0000000001127424
 40
4.55
  1
51
100
AcDbText
1001
ACAD
1000
DSTYLE
1002
{
1070
    40
1040
1.3
1070
    45
1040
0.5
1002
}
  0
LINE
  5
1B8EB
330
18
100
AcDbEntity
  8
01
  6
BYBLOCK
100
AcDbLine
 10
2224.414082645722
 20
-505.0939078101241
 30
0.0000000001127424
 11
2221.814082645722
 21
-504.3972399161241
 31
0.0000000001127424
  0
LINE
  5
1B8EC
330
18
100
AcDbEntity
  8
01
  6
BYBLOCK
100
AcDbLine
 10
2221.814082645722
 20
-504.3972399161241
 30
0.0000000001127424
 11
2224.414082645722
 21
-503.7005720221242
 31
0.0000000001127424
  0
LINE
  5
1B8ED
330
18
100
AcDbEntity
  8
01
  6
BYBLOCK
100
AcDbLine
 10
2221.814082645722
 20
-504.3972399161241
 30
0.0000000001127424
 11
2224.414082645722
 21
-504.3972399161241
 31
0.0000000001127424
  0
LINE
  5
1B8EE
330
18
100
AcDbEntity
  8
01
  6
BYBLOCK
100
AcDbLine
 10
2244.214082645722
 20
-503.7005720221242
 30
0.0000000001127424
 11
2246.814082645722
 21
-504.3972399161241
 31
0.0000000001127424
  0
LINE
  5
1B8EF
330
18
100
AcDbEntity
  8
01
  6
BYBLOCK
100
AcDbLine
 10
2246.814082645722
 20
-504.3972399161241
 30
0.0000000001127424
 11
2244.214082645722
 21
-505.0939078101241
 31
0.0000000001127424
  0
LINE
  5
1B8F0
330
18
100
AcDbEntity
  8
01
  6
BYBLOCK
100
AcDbLine
 10
2246.814082645722
 20
-504.3972399161241
 30
0.0000000001127424
 11
2244.214082645722
 21
-504.3972399161241
 31
0.0000000001127424
  0
TEXT
  5
1B8F1
330
18
100
AcDbEntity
  8
01
  6
CONTINUOUS
100
AcDbText
 10
2230.522415979055
 20
-503.4872399161242
 30
0.0000000001127424
 40
4.55
  1
25
100
AcDbText
1001
ACAD
1000
DSTYLE
1002
{
1070
    40
1040
1.3
1070
    45
1040
0.5
1002
}
  0
LINE
  5
1B8F2
330
18
100
AcDbEntity
  8
01
  6
BYBLOCK
100
AcDbLine
 10
2318.405485523166
 20
-558.4182868563961
 30
0.0000000001691137
 11
2319.102153417166
 21
-555.8182868563961
 31
0.0000000001691137
  0
LINE
  5
1B8F3
330
18
100
AcDbEntity
  8
01
  6
BYBLOCK
100
AcDbLine
 10
2319.102153417166
 20
-555.8182868563961
 30
0.0000000001691137
 11
2319.798821311166
 21
-558.4182868563961
 31
0.0000000001691137
  0
LINE
  5
1B8F4
330
18
100
AcDbEntity
  8
01
  6
BYBLOCK
100
AcDbLine
 10
2319.102153417166
 20
-555.8182868563961
 30
0.0000000001691137
 11
2319.102153417166
 21
-558.4182868563961
 31
0.0000000001691137
  0
LINE
  5
1B8F5
330
18
100
AcDbEntity
  8
01
  6
BYBLOCK
100
AcDbLine
 10
2319.798821311166
 20
-667.218286856396
 30
0.0000000001691137
 11
2319.102153417166
 21
-669.8182868563961
 31
0.0000000001691137
  0
LINE
  5
1B8F6
330
18
100
AcDbEntity
  8
01
  6
BYBLOCK
100
AcDbLine
 10
2319.102153417166
 20
-669.8182868563961
 30
0.0000000001691137
 11
2318.405485523166
 21
-667.218286856396
 31
0.0000000001691137
  0
LINE
  5
1B8F7
330
18
100
AcDbEntity
  8
01
  6
BYBLOCK
100
AcDbLine
 10
2319.102153417166
 20
-669.8182868563961
 30
0.0000000001691137
 11
2319.102153417166
 21
-667.218286856396
 31
0.0000000001691137
  0
TEXT
  5
1B8F8
330
18
100
AcDbEntity
  8
01
  6
CONTINUOUS
100
AcDbText
 10
2318.192153417166
 20
-588.2352645084743
 30
0.0000000001691137
 40
4.55
  1
114
 50
90.0
100
AcDbText
1001
ACAD
1000
DSTYLE
1002
{
1070
    40
1040
1.3
1070
    45
1040
0.5
1002
}
  0
LINE
  5
1B8F9
330
18
100
AcDbEntity
  8
01
  6
BYBLOCK
100
AcDbLine
 10
2327.769819689391
 20
-550.5187320008125
 30
0.0000000001691137
 11
2328.466487583391
 21
-547.9187320008125
 31
0.0000000001691137
  0
LINE
  5
1B8FA
330
18
100
AcDbEntity
  8
01
  6
BYBLOCK
100
AcDbLine
 10
2328.466487583391
 20
-547.9187320008125
 30
0.0000000001691137
 11
2329.16315547739
 21
-550.5187320008125
 31
0.0000000001691137
  0
LINE
  5
1B8FB
330
18
100
AcDbEntity
  8
01
  6
BYBLOCK
100
AcDbLine
 10
2328.466487583391
 20
-547.9187320008125
 30
0.0000000001691137
 11
2328.466487583391
 21
-550.5187320008125
 31
0.0000000001691137
  0
LINE
  5
1B8FC
330
18
100
AcDbEntity
  8
01
  6
BYBLOCK
100
AcDbLine
 10
2329.16315547739
 20
-675.1182868563959
 30
0.0000000001691137
 11
2328.466487583391
 21
-677.7182868563959
 31
0.0000000001691137
  0
LINE
  5
1B8FD
330
18
100
AcDbEntity
  8
01
  6
BYBLOCK
100
AcDbLine
 10
2328.466487583391
 20
-677.7182868563959
 30
0.0000000001691137
 11
2327.769819689391
 21
-675.1182868563959
 31
0.0000000001691137
  0
LINE
  5
1B8FE
330
18
100
AcDbEntity
  8
01
  6
BYBLOCK
100
AcDbLine
 10
2328.466487583391
 20
-677.7182868563959
 30
0.0000000001691137
 11
2328.466487583391
 21
-675.1182868563959
 31
0.0000000001691137
  0
TEXT
  5
1B8FF
330
18
100
AcDbEntity
  8
01
  6
CONTINUOUS
100
AcDbText
 10
2327.556487583391
 20
-589.0198285112824
 30
0.0000000001691137
 40
4.55
  1
130
 50
90.0
100
AcDbText
1001
ACAD
1000
DSTYLE
1002
{
1070
    40
1040
1.3
1070
    45
1040
0.5
1002
}
  0
LINE
  5
1B900
330
18
100
AcDbEntity
  8
1DIM
100
AcDbLine
 10
2034.314086645721
 20
-633.8187320008117
 30
0.0000000001127424
 11
2019.320234243433
 21
-633.8187320008117
 31
0.0000000001127424
1001
ACAD
1000
DSTYLE
1002
{
1070
    40
1040
1.3
1070
    45
1040
0.5
1070
   341
1005
0
1002
}
  0
LINE
  5
1B901
330
18
100
AcDbEntity
  8
1DIM
100
AcDbLine
 10
2041.814078645722
 20
-578.3187320008117
 30
0.0000000001127424
 11
2019.320234243433
 21
-578.3187320008117
 31
0.0000000001127424
1001
ACAD
1000
DSTYLE
1002
{
1070
    40
1040
1.3
1070
    45
1040
0.5
1070
   341
1005
0
1002
}
  0
LINE
  5
1B902
330
18
100
AcDbEntity
  8
1DIM
100
AcDbLine
 10
2020.620234243433
 20
-631.2187320008117
 30
0.0000000001127424
 11
2020.620234243433
 21
-580.9187320008117
 31
0.0000000001127424
1001
ACAD
1000
DSTYLE
1002
{
1070
    40
1040
1.3
1070
    45
1040
0.5
1070
   341
1005
0
1002
}
  0
LINE
  5
1B906
330
18
100
AcDbEntity
  8
1DIM
100
AcDbLine
 10
2034.314086645721
 20
-633.8187320008117
 30
0.0000000001127424
 11
2019.320234243433
 21
-633.8187320008117
 31
0.0000000001127424
1001
ACAD
1000
DSTYLE
1002
{
1070
    40
1040
1.3
1070
    45
1040
0.5
1070
   341
1005
0
1002
}
  0
LINE
  5
1B907
330
18
100
AcDbEntity
  8
1DIM
100
AcDbLine
 10
2041.814078645722
 20
-578.3187320008117
 30
0.0000000001127424
 11
2019.320234243433
 21
-578.3187320008117
 31
0.0000000001127424
1001
ACAD
1000
DSTYLE
1002
{
1070
    40
1040
1.3
1070
    45
1040
0.5
1070
   341
1005
0
1002
}
  0
LINE
  5
1B908
330
18
100
AcDbEntity
  8
1DIM
100
AcDbLine
 10
2020.620234243433
 20
-631.2187320008117
 30
0.0000000001127424
 11
2020.620234243433
 21
-580.9187320008117
 31
0.0000000001127424
1001
ACAD
1000
DSTYLE
1002
{
1070
    40
1040
1.3
1070
    45
1040
0.5
1070
   341
1005
0
1002
}
  0
LINE
  5
1B90C
330
18
100
AcDbEntity
  8
1DIM
100
AcDbLine
 10
2420.714850488037
 20
-354.3187320018405
 30
0.0000000001127424
 11
2441.27524124775
 21
-354.3187320018405
 31
0.0000000001127424
1001
ACAD
1000
DSTYLE
1002
{
1070
    45
1040
0.5
1070
    40
1040
1.3
1002
}
  0
LINE
  5
1B90D
330
18
100
AcDbEntity
  8
1DIM
100
AcDbLine
 10
2422.314850488037
 20
-373.1187320018405
 30
0.0000000001127424
 11
2441.27524124775
 21
-373.1187320018405
 31
0.0000000001127424
1001
ACAD
1000
DSTYLE
1002
{
1070
    45
1040
0.5
1070
    40
1040
1.3
1002
}
  0
LINE
  5
1B90E
330
18
100
AcDbEntity
  8
1DIM
100
AcDbLine
 10
2439.97524124775
 20
-356.9187320018406
 30
0.0000000001127424
 11
2439.97524124775
 21
-370.5187320018405
 31
0.0000000001127424
1001
ACAD
1000
DSTYLE
1002
{
1070
    45
1040
0.5
1070
    40
1040
1.3
1002
}
  0
LINE
  5
1B912
330
18
100
AcDbEntity
  8
1DIM
100
AcDbLine
 10
2404.313965472013
 20
-657.3187320008119
 30
0.0000000002254849
 11
2366.513966305977
 21
-657.3187320008119
 31
0.0000000002254849
1001
ACAD
1000
DSTYLE
1002
{
1070
     3
1000
φ<>
1070
    40
1040
1.3
1070
   140
1040
3.0
1002
}
  0
LINE
  5
1B913
330
18
100
AcDbEntity
  8
1DIM
100
AcDbLine
 10
2404.313967178521
 20
-610.3187320008119
 30
0.0000000002254849
 11
2366.513966305977
 21
-610.3187320008119
 31
0.0000000002254849
1001
ACAD
1000
DSTYLE
1002
{
1070
     3
1000
φ<>
1070
    40
1040
1.3
1070
   140
1040
3.0
1002
}
  0
LINE
  5
1B914
330
18
100
AcDbEntity
  8
1DIM
100
AcDbLine
 10
2367.813966305977
 20
-654.7187320008119
 30
0.0000000002254849
 11
2367.813966305977
 21
-612.9187320008119
 31
0.0000000002254849
1001
ACAD
1000
DSTYLE
1002
{
1070
     3
1000
φ<>
1070
    40
1040
1.3
1070
   140
1040
3.0
1002
}
  0
LINE
  5
1B918
330
18
100
AcDbEntity
  8
1DIM
100
AcDbLine
 10
2530.304030812705
 20
-629.8187320008155
 30
0.0000000002254849
 11
2546.11396630596
 21
-629.8187320008155
 31
0.0000000002254849
1001
ACAD
1000
DSTYLE
1002
{
1070
    40
1040
1.3
1070
   271
1070
     0
1002
}
  0
LINE
  5
1B919
330
18
100
AcDbEntity
  8
1DIM
100
AcDbLine
 10
2530.31408271182
 20
-637.8187320008365
 30
0.0000000002254849
 11
2546.11396630596
 21
-637.8187320008365
 31
0.0000000002254849
1001
ACAD
1000
DSTYLE
1002
{
1070
    40
1040
1.3
1070
   271
1070
     0
1002
}
  0
LINE
  5
1B91A
330
18
100
AcDbEntity
  8
1DIM
100
AcDbLine
 10
2544.81396630596
 20
-632.4187320008156
 30
0.0000000002254849
 11
2544.81396630596
 21
-635.2187320008364
 31
0.0000000002254849
1001
ACAD
1000
DSTYLE
1002
{
1070
    40
1040
1.3
1070
   271
1070
     0
1002
}
  0
LINE
  5
1B91E
330
18
100
AcDbEntity
  8
1DIM
100
AcDbLine
 10
2404.314082645722
 20
-413.8187320018405
 30
0.0000000002254849
 11
2404.314082645722
 21
-454.1187320018481
 31
0.0000000002254849
1001
ACAD
1000
DSTYLE
1002
{
1070
    40
1040
1.3
1002
}
  0
LINE
  5
1B91F
330
18
100
AcDbEntity
  8
1DIM
100
AcDbLine
 10
2530.314082711812
 20
-442.818732001846
 30
0.0000000002254849
 11
2530.314082711812
 21
-454.1187320018481
 31
0.0000000002254849
1001
ACAD
1000
DSTYLE
1002
{
1070
    40
1040
1.3
1002
}
  0
LINE
  5
1B920
330
18
100
AcDbEntity
  8
1DIM
100
AcDbLine
 10
2406.914082645722
 20
-452.818732001848
 30
0.0000000002254849
 11
2527.714082711812
 21
-452.818732001848
 31
0.0000000002254849
1001
ACAD
1000
DSTYLE
1002
{
1070
    40
1040
1.3
1002
}
  0
LINE
  5
1B924
330
18
100
AcDbEntity
  8
1DIM
100
AcDbLine
 10
2377.814124934385
 20
-440.8187320018455
 30
0.0000000002254849
 11
2377.814124934385
 21
-464.1187320018497
 31
0.0000000002254849
1001
ACAD
1000
DSTYLE
1002
{
1070
    40
1040
1.3
1002
}
  0
LINE
  5
1B925
330
18
100
AcDbEntity
  8
1DIM
100
AcDbLine
 10
2530.314082711812
 20
-442.818732001846
 30
0.0000000002254849
 11
2530.314082711812
 21
-464.1187320018497
 31
0.0000000002254849
1001
ACAD
1000
DSTYLE
1002
{
1070
    40
1040
1.3
1002
}
  0
LINE
  5
1B926
330
18
100
AcDbEntity
  8
1DIM
100
AcDbLine
 10
2380.414124934385
 20
-462.8187320018496
 30
0.0000000002254849
 11
2527.714082711812
 21
-462.8187320018496
 31
0.0000000002254849
1001
ACAD
1000
DSTYLE
1002
{
1070
    40
1040
1.3
1002
}
  0
LINE
  5
1B92A
330
18
100
AcDbEntity
  8
1DIM
100
AcDbLine
 10
2530.314082711812
 20
-442.818732001846
 30
0.0000000002254849
 11
2551.614082711812
 21
-442.818732001846
 31
0.0000000002254849
1001
ACAD
1000
DSTYLE
1002
{
1070
    40
1040
1.3
1002
}
  0
LINE
  5
1B92B
330
18
100
AcDbEntity
  8
1DIM
100
AcDbLine
 10
2507.069230643069
 20
-383.8187320018405
 30
0.0000000002254849
 11
2551.614082711812
 21
-383.8187320018405
 31
0.0000000002254849
1001
ACAD
1000
DSTYLE
1002
{
1070
    40
1040
1.3
1002
}
  0
LINE
  5
1B92C
330
18
100
AcDbEntity
  8
1DIM
100
AcDbLine
 10
2550.314082711812
 20
-440.218732001846
 30
0.0000000002254849
 11
2550.314082711812
 21
-386.4187320018406
 31
0.0000000002254849
1001
ACAD
1000
DSTYLE
1002
{
1070
    40
1040
1.3
1002
}
  0
LINE
  5
1B930
330
18
100
AcDbEntity
  8
1DIM
100
AcDbLine
 10
2529.31408271182
 20
-417.818732001846
 30
0.0000000002254849
 11
2541.614082711812
 21
-417.818732001846
 31
0.0000000002254849
1001
ACAD
1000
DSTYLE
1002
{
1070
    40
1040
1.3
1002
}
  0
LINE
  5
1B931
330
18
100
AcDbEntity
  8
1DIM
100
AcDbLine
 10
2507.069230643069
 20
-383.8187320018405
 30
0.0000000002254849
 11
2541.614082711812
 21
-383.8187320018405
 31
0.0000000002254849
1001
ACAD
1000
DSTYLE
1002
{
1070
    40
1040
1.3
1002
}
  0
LINE
  5
1B932
330
18
100
AcDbEntity
  8
1DIM
100
AcDbLine
 10
2540.314082711812
 20
-415.218732001846
 30
0.0000000002254849
 11
2540.314082711812
 21
-386.4187320018406
 31
0.0000000002254849
1001
ACAD
1000
DSTYLE
1002
{
1070
    40
1040
1.3
1002
}
  0
SOLID
  5
1B936
330
18
100
AcDbEntity
  8
1DIM
100
AcDbTrace
 10
2401.683815660724
 20
-402.8694890557559
 30
0.0000000001127424
 11
2404.054567546039
 21
-401.7173982277156
 31
0.0000000001127424
 12
2402.185615490646
 22
-403.5761063792071
 32
0.0000000001127424
 13
2402.185615490646
 23
-403.5761063792071
 33
0.0000000001127424
1001
ACAD
1000
DSTYLE
1002
{
1070
    40
1040
1.3
1002
}
  0
LINE
  5
1B937
330
18
100
AcDbEntity
  8
1DIM
100
AcDbLine
 10
2401.934715575685
 20
-403.2227977174815
 30
0.0000000001127424
 11
2374.467127398994
 21
-422.7287320018408
 31
0.0000000001127424
1001
ACAD
1000
DSTYLE
1002
{
1070
    40
1040
1.3
1002
}
  0
SOLID
  5
1B938
330
18
100
AcDbEntity
  8
1DIM
100
AcDbTrace
 10
2401.683815660724
 20
-426.8803193947211
 30
0.0000000001127424
 11
2404.054567546039
 21
-425.7282285666809
 31
0.0000000001127424
 12
2402.185615490646
 22
-427.5869367181724
 32
0.0000000001127424
 13
2402.185615490646
 23
-427.5869367181724
 33
0.0000000001127424
1001
ACAD
1000
DSTYLE
1002
{
1070
    40
1040
1.3
1002
}
  0
LINE
  5
1B939
330
18
100
AcDbEntity
  8
1DIM
100
AcDbLine
 10
2401.934715575685
 20
-427.2336280564467
 30
0.0000000001127424
 11
2374.467127398994
 21
-446.739562340806
 31
0.0000000001127424
1001
ACAD
1000
DSTYLE
1002
{
1070
    40
1040
1.3
1002
}
  0
LINE
  5
1B93A
330
18
100
AcDbEntity
  8
0
  6
BYBLOCK
100
AcDbLine
 10
2021.316902137433
 20
-631.2187320008117
 30
0.0000000001127424
 11
2020.620234243433
 21
-633.8187320008117
 31
0.0000000001127424
  0
LINE
  5
1B93B
330
18
100
AcDbEntity
  8
0
  6
BYBLOCK
100
AcDbLine
 10
2020.620234243433
 20
-633.8187320008117
 30
0.0000000001127424
 11
2019.923566349433
 21
-631.2187320008117
 31
0.0000000001127424
  0
LINE
  5
1B93C
330
18
100
AcDbEntity
  8
0
  6
BYBLOCK
100
AcDbLine
 10
2020.620234243433
 20
-633.8187320008117
 30
0.0000000001127424
 11
2020.620234243433
 21
-631.2187320008117
 31
0.0000000001127424
  0
LINE
  5
1B93D
330
18
100
AcDbEntity
  8
0
  6
BYBLOCK
100
AcDbLine
 10
2019.923566349433
 20
-580.9187320008117
 30
0.0000000001127424
 11
2020.620234243433
 21
-578.3187320008117
 31
0.0000000001127424
  0
LINE
  5
1B93E
330
18
100
AcDbEntity
  8
0
  6
BYBLOCK
100
AcDbLine
 10
2020.620234243433
 20
-578.3187320008117
 30
0.0000000001127424
 11
2021.316902137433
 21
-580.9187320008117
 31
0.0000000001127424
  0
LINE
  5
1B93F
330
18
100
AcDbEntity
  8
0
  6
BYBLOCK
100
AcDbLine
 10
2020.620234243433
 20
-578.3187320008117
 30
0.0000000001127424
 11
2020.620234243433
 21
-580.9187320008117
 31
0.0000000001127424
  0
TEXT
  5
1B940
330
18
100
AcDbEntity
  8
1DIM
  6
CONTINUOUS
100
AcDbText
 10
2019.710234243433
 20
-612.9253292230339
 30
0.0000000001127424
 40
4.55
  1
55.5
 50
90.0
100
AcDbText
1001
ACAD
1000
DSTYLE
1002
{
1070
    40
1040
1.3
1070
    45
1040
0.5
1070
   341
1005
0
1002
}
  0
LINE
  5
1B941
330
18
100
AcDbEntity
  8
0
  6
BYBLOCK
100
AcDbLine
 10
2021.316902137433
 20
-631.2187320008117
 30
0.0000000001127424
 11
2020.620234243433
 21
-633.8187320008117
 31
0.0000000001127424
  0
LINE
  5
1B942
330
18
100
AcDbEntity
  8
0
  6
BYBLOCK
100
AcDbLine
 10
2020.620234243433
 20
-633.8187320008117
 30
0.0000000001127424
 11
2019.923566349433
 21
-631.2187320008117
 31
0.0000000001127424
  0
LINE
  5
1B943
330
18
100
AcDbEntity
  8
0
  6
BYBLOCK
100
AcDbLine
 10
2020.620234243433
 20
-633.8187320008117
 30
0.0000000001127424
 11
2020.620234243433
 21
-631.2187320008117
 31
0.0000000001127424
  0
LINE
  5
1B944
330
18
100
AcDbEntity
  8
0
  6
BYBLOCK
100
AcDbLine
 10
2019.923566349433
 20
-580.9187320008117
 30
0.0000000001127424
 11
2020.620234243433
 21
-578.3187320008117
 31
0.0000000001127424
  0
LINE
  5
1B945
330
18
100
AcDbEntity
  8
0
  6
BYBLOCK
100
AcDbLine
 10
2020.620234243433
 20
-578.3187320008117
 30
0.0000000001127424
 11
2021.316902137433
 21
-580.9187320008117
 31
0.0000000001127424
  0
LINE
  5
1B946
330
18
100
AcDbEntity
  8
0
  6
BYBLOCK
100
AcDbLine
 10
2020.620234243433
 20
-578.3187320008117
 30
0.0000000001127424
 11
2020.620234243433
 21
-580.9187320008117
 31
0.0000000001127424
  0
TEXT
  5
1B947
330
18
100
AcDbEntity
  8
1DIM
  6
CONTINUOUS
100
AcDbText
 10
2019.710234243433
 20
-612.9253292230339
 30
0.0000000001127424
 40
4.55
  1
55.5
 50
90.0
100
AcDbText
1001
ACAD
1000
DSTYLE
1002
{
1070
    40
1040
1.3
1070
    45
1040
0.5
1070
   341
1005
0
1002
}
  0
LINE
  5
1B948
330
18
100
AcDbEntity
  8
0
  6
BYBLOCK
100
AcDbLine
 10
2439.27857335375
 20
-356.9187320018406
 30
0.0000000001127424
 11
2439.97524124775
 21
-354.3187320018405
 31
0.0000000001127424
  0
LINE
  5
1B949
330
18
100
AcDbEntity
  8
0
  6
BYBLOCK
100
AcDbLine
 10
2439.97524124775
 20
-354.3187320018405
 30
0.0000000001127424
 11
2440.67190914175
 21
-356.9187320018406
 31
0.0000000001127424
  0
LINE
  5
1B94A
330
18
100
AcDbEntity
  8
0
  6
BYBLOCK
100
AcDbLine
 10
2439.97524124775
 20
-354.3187320018405
 30
0.0000000001127424
 11
2439.97524124775
 21
-356.9187320018406
 31
0.0000000001127424
  0
LINE
  5
1B94B
330
18
100
AcDbEntity
  8
0
  6
BYBLOCK
100
AcDbLine
 10
2440.67190914175
 20
-370.5187320018405
 30
0.0000000001127424
 11
2439.97524124775
 21
-373.1187320018405
 31
0.0000000001127424
  0
LINE
  5
1B94C
330
18
100
AcDbEntity
  8
0
  6
BYBLOCK
100
AcDbLine
 10
2439.97524124775
 20
-373.1187320018405
 30
0.0000000001127424
 11
2439.27857335375
 21
-370.5187320018405
 31
0.0000000001127424
  0
LINE
  5
1B94D
330
18
100
AcDbEntity
  8
0
  6
BYBLOCK
100
AcDbLine
 10
2439.97524124775
 20
-373.1187320018405
 30
0.0000000001127424
 11
2439.97524124775
 21
-370.5187320018405
 31
0.0000000001127424
  0
TEXT
  5
1B94E
330
18
100
AcDbEntity
  8
1DIM
  6
CONTINUOUS
100
AcDbText
 10
2439.06524124775
 20
-366.7531185759149
 30
0.0000000001127424
 40
4.55
  1
19
 50
90.0
100
AcDbText
1001
ACAD
1000
DSTYLE
1002
{
1070
    45
1040
0.5
1070
    40
1040
1.3
1002
}
  0
LINE
  5
1B94F
330
18
100
AcDbEntity
  8
0
  6
BYBLOCK
100
AcDbLine
 10
2368.510634199977
 20
-654.7187320008119
 30
0.0000000002254849
 11
2367.813966305977
 21
-657.3187320008119
 31
0.0000000002254849
  0
LINE
  5
1B950
330
18
100
AcDbEntity
  8
0
  6
BYBLOCK
100
AcDbLine
 10
2367.813966305977
 20
-657.3187320008119
 30
0.0000000002254849
 11
2367.117298411978
 21
-654.7187320008119
 31
0.0000000002254849
  0
LINE
  5
1B951
330
18
100
AcDbEntity
  8
0
  6
BYBLOCK
100
AcDbLine
 10
2367.813966305977
 20
-657.3187320008119
 30
0.0000000002254849
 11
2367.813966305977
 21
-654.7187320008119
 31
0.0000000002254849
  0
LINE
  5
1B952
330
18
100
AcDbEntity
  8
0
  6
BYBLOCK
100
AcDbLine
 10
2367.117298411978
 20
-612.9187320008119
 30
0.0000000002254849
 11
2367.813966305977
 21
-610.3187320008119
 31
0.0000000002254849
  0
LINE
  5
1B953
330
18
100
AcDbEntity
  8
0
  6
BYBLOCK
100
AcDbLine
 10
2367.813966305977
 20
-610.3187320008119
 30
0.0000000002254849
 11
2368.510634199977
 21
-612.9187320008119
 31
0.0000000002254849
  0
LINE
  5
1B954
330
18
100
AcDbEntity
  8
0
  6
BYBLOCK
100
AcDbLine
 10
2367.813966305977
 20
-610.3187320008119
 30
0.0000000002254849
 11
2367.813966305977
 21
-612.9187320008119
 31
0.0000000002254849
  0
TEXT
  5
1B955
330
18
100
AcDbEntity
  8
1DIM
  6
CONTINUOUS
100
AcDbText
 10
2366.903966305978
 20
-639.9287320008116
 30
0.0000000002254849
 40
3.9
  1
φ47
 50
90.0
100
AcDbText
1001
ACAD
1000
DSTYLE
1002
{
1070
     3
1000
φ<>
1070
    40
1040
1.3
1070
   140
1040
3.0
1002
}
  0
LINE
  5
1B956
330
18
100
AcDbEntity
  8
0
  6
BYBLOCK
100
AcDbLine
 10
2544.11729841196
 20
-632.4187320008156
 30
0.0000000002254849
 11
2544.81396630596
 21
-629.8187320008155
 31
0.0000000002254849
  0
LINE
  5
1B957
330
18
100
AcDbEntity
  8
0
  6
BYBLOCK
100
AcDbLine
 10
2544.81396630596
 20
-629.8187320008155
 30
0.0000000002254849
 11
2545.51063419996
 21
-632.4187320008156
 31
0.0000000002254849
  0
LINE
  5
1B958
330
18
100
AcDbEntity
  8
0
  6
BYBLOCK
100
AcDbLine
 10
2544.81396630596
 20
-629.8187320008155
 30
0.0000000002254849
 11
2544.81396630596
 21
-632.4187320008156
 31
0.0000000002254849
  0
LINE
  5
1B959
330
18
100
AcDbEntity
  8
0
  6
BYBLOCK
100
AcDbLine
 10
2545.51063419996
 20
-635.2187320008364
 30
0.0000000002254849
 11
2544.81396630596
 21
-637.8187320008365
 31
0.0000000002254849
  0
LINE
  5
1B95A
330
18
100
AcDbEntity
  8
0
  6
BYBLOCK
100
AcDbLine
 10
2544.81396630596
 20
-637.8187320008365
 30
0.0000000002254849
 11
2544.11729841196
 21
-635.2187320008364
 31
0.0000000002254849
  0
LINE
  5
1B95B
330
18
100
AcDbEntity
  8
0
  6
BYBLOCK
100
AcDbLine
 10
2544.81396630596
 20
-637.8187320008365
 30
0.0000000002254849
 11
2544.81396630596
 21
-635.2187320008364
 31
0.0000000002254849
  0
TEXT
  5
1B95C
330
18
100
AcDbEntity
  8
1DIM
  6
CONTINUOUS
100
AcDbText
 10
2543.90396630596
 20
-635.3353986674924
 30
0.0000000002254849
 40
4.55
  1
8
 50
90.0
100
AcDbText
1001
ACAD
1000
DSTYLE
1002
{
1070
    40
1040
1.3
1070
   271
1070
     0
1002
}
  0
LINE
  5
1B95D
330
18
100
AcDbEntity
  8
0
  6
BYBLOCK
100
AcDbLine
 10
2406.914082645722
 20
-453.515399895848
 30
0.0000000002254849
 11
2404.314082645722
 21
-452.818732001848
 31
0.0000000002254849
  0
LINE
  5
1B95E
330
18
100
AcDbEntity
  8
0
  6
BYBLOCK
100
AcDbLine
 10
2404.314082645722
 20
-452.818732001848
 30
0.0000000002254849
 11
2406.914082645722
 21
-452.1220641078481
 31
0.0000000002254849
  0
LINE
  5
1B95F
330
18
100
AcDbEntity
  8
0
  6
BYBLOCK
100
AcDbLine
 10
2404.314082645722
 20
-452.818732001848
 30
0.0000000002254849
 11
2406.914082645722
 21
-452.818732001848
 31
0.0000000002254849
  0
LINE
  5
1B960
330
18
100
AcDbEntity
  8
0
  6
BYBLOCK
100
AcDbLine
 10
2527.714082711812
 20
-452.1220641078481
 30
0.0000000002254849
 11
2530.314082711812
 21
-452.818732001848
 31
0.0000000002254849
  0
LINE
  5
1B961
330
18
100
AcDbEntity
  8
0
  6
BYBLOCK
100
AcDbLine
 10
2530.314082711812
 20
-452.818732001848
 30
0.0000000002254849
 11
2527.714082711812
 21
-453.515399895848
 31
0.0000000002254849
  0
LINE
  5
1B962
330
18
100
AcDbEntity
  8
0
  6
BYBLOCK
100
AcDbLine
 10
2530.314082711812
 20
-452.818732001848
 30
0.0000000002254849
 11
2527.714082711812
 21
-452.818732001848
 31
0.0000000002254849
  0
TEXT
  5
1B963
330
18
100
AcDbEntity
  8
1DIM
  6
CONTINUOUS
100
AcDbText
 10
2460.005770456724
 20
-451.9087320018481
 30
0.0000000002254849
 40
4.55
  1
126
100
AcDbText
1001
ACAD
1000
DSTYLE
1002
{
1070
    40
1040
1.3
1002
}
  0
LINE
  5
1B964
330
18
100
AcDbEntity
  8
0
  6
BYBLOCK
100
AcDbLine
 10
2380.414124934385
 20
-463.5153998958496
 30
0.0000000002254849
 11
2377.814124934385
 21
-462.8187320018496
 31
0.0000000002254849
  0
LINE
  5
1B965
330
18
100
AcDbEntity
  8
0
  6
BYBLOCK
100
AcDbLine
 10
2377.814124934385
 20
-462.8187320018496
 30
0.0000000002254849
 11
2380.414124934385
 21
-462.1220641078497
 31
0.0000000002254849
  0
LINE
  5
1B966
330
18
100
AcDbEntity
  8
0
  6
BYBLOCK
100
AcDbLine
 10
2377.814124934385
 20
-462.8187320018496
 30
0.0000000002254849
 11
2380.414124934385
 21
-462.8187320018496
 31
0.0000000002254849
  0
LINE
  5
1B967
330
18
100
AcDbEntity
  8
0
  6
BYBLOCK
100
AcDbLine
 10
2527.714082711812
 20
-462.1220641078497
 30
0.0000000002254849
 11
2530.314082711812
 21
-462.8187320018496
 31
0.0000000002254849
  0
LINE
  5
1B968
330
18
100
AcDbEntity
  8
0
  6
BYBLOCK
100
AcDbLine
 10
2530.314082711812
 20
-462.8187320018496
 30
0.0000000002254849
 11
2527.714082711812
 21
-463.5153998958496
 31
0.0000000002254849
  0
LINE
  5
1B969
330
18
100
AcDbEntity
  8
0
  6
BYBLOCK
100
AcDbLine
 10
2530.314082711812
 20
-462.8187320018496
 30
0.0000000002254849
 11
2527.714082711812
 21
-462.8187320018496
 31
0.0000000002254849
  0
TEXT
  5
1B96A
330
18
100
AcDbEntity
  8
1DIM
  6
CONTINUOUS
100
AcDbText
 10
2445.706638545321
 20
-461.9087320018497
 30
0.0000000002254849
 40
4.55
  1
152.5
100
AcDbText
1001
ACAD
1000
DSTYLE
1002
{
1070
    40
1040
1.3
1002
}
  0
LINE
  5
1B96B
330
18
100
AcDbEntity
  8
0
  6
BYBLOCK
100
AcDbLine
 10
2551.010750605812
 20
-440.218732001846
 30
0.0000000002254849
 11
2550.314082711812
 21
-442.818732001846
 31
0.0000000002254849
  0
LINE
  5
1B96C
330
18
100
AcDbEntity
  8
0
  6
BYBLOCK
100
AcDbLine
 10
2550.314082711812
 20
-442.818732001846
 30
0.0000000002254849
 11
2549.617414817812
 21
-440.218732001846
 31
0.0000000002254849
  0
LINE
  5
1B96D
330
18
100
AcDbEntity
  8
0
  6
BYBLOCK
100
AcDbLine
 10
2550.314082711812
 20
-442.818732001846
 30
0.0000000002254849
 11
2550.314082711812
 21
-440.218732001846
 31
0.0000000002254849
  0
LINE
  5
1B96E
330
18
100
AcDbEntity
  8
0
  6
BYBLOCK
100
AcDbLine
 10
2549.617414817812
 20
-386.4187320018406
 30
0.0000000002254849
 11
2550.314082711812
 21
-383.8187320018405
 31
0.0000000002254849
  0
LINE
  5
1B96F
330
18
100
AcDbEntity
  8
0
  6
BYBLOCK
100
AcDbLine
 10
2550.314082711812
 20
-383.8187320018405
 30
0.0000000002254849
 11
2551.010750605812
 21
-386.4187320018406
 31
0.0000000002254849
  0
LINE
  5
1B970
330
18
100
AcDbEntity
  8
0
  6
BYBLOCK
100
AcDbLine
 10
2550.314082711812
 20
-383.8187320018405
 30
0.0000000002254849
 11
2550.314082711812
 21
-386.4187320018406
 31
0.0000000002254849
  0
TEXT
  5
1B971
330
18
100
AcDbEntity
  8
1DIM
  6
CONTINUOUS
100
AcDbText
 10
2549.404082711812
 20
-417.1272505203615
 30
0.0000000002254849
 40
4.55
  1
59
 50
90.0
100
AcDbText
1001
ACAD
1000
DSTYLE
1002
{
1070
    40
1040
1.3
1002
}
  0
LINE
  5
1B972
330
18
100
AcDbEntity
  8
0
  6
BYBLOCK
100
AcDbLine
 10
2541.010750605812
 20
-415.218732001846
 30
0.0000000002254849
 11
2540.314082711812
 21
-417.818732001846
 31
0.0000000002254849
  0
LINE
  5
1B973
330
18
100
AcDbEntity
  8
0
  6
BYBLOCK
100
AcDbLine
 10
2540.314082711812
 20
-417.818732001846
 30
0.0000000002254849
 11
2539.617414817812
 21
-415.218732001846
 31
0.0000000002254849
  0
LINE
  5
1B974
330
18
100
AcDbEntity
  8
0
  6
BYBLOCK
100
AcDbLine
 10
2540.314082711812
 20
-417.818732001846
 30
0.0000000002254849
 11
2540.314082711812
 21
-415.218732001846
 31
0.0000000002254849
  0
LINE
  5
1B975
330
18
100
AcDbEntity
  8
0
  6
BYBLOCK
100
AcDbLine
 10
2539.617414817812
 20
-386.4187320018406
 30
0.0000000002254849
 11
2540.314082711812
 21
-383.8187320018405
 31
0.0000000002254849
  0
LINE
  5
1B976
330
18
100
AcDbEntity
  8
0
  6
BYBLOCK
100
AcDbLine
 10
2540.314082711812
 20
-383.8187320018405
 30
0.0000000002254849
 11
2541.010750605812
 21
-386.4187320018406
 31
0.0000000002254849
  0
LINE
  5
1B977
330
18
100
AcDbEntity
  8
0
  6
BYBLOCK
100
AcDbLine
 10
2540.314082711812
 20
-383.8187320018405
 30
0.0000000002254849
 11
2540.314082711812
 21
-386.4187320018406
 31
0.0000000002254849
  0
TEXT
  5
1B978
330
18
100
AcDbEntity
  8
1DIM
  6
CONTINUOUS
100
AcDbText
 10
2539.404082711812
 20
-404.6103986685093
 30
0.0000000002254849
 40
4.55
  1
34
 50
90.0
100
AcDbText
1001
ACAD
1000
DSTYLE
1002
{
1070
    40
1040
1.3
1002
}
  0
VIEWPORT
  5
57
330
15
100
AcDbEntity
 67
     1
  8
0
100
AcDbViewport
 68
     1
 10
0.0
 20
0.0
 30
0.0
 40
639.1804245283018
 41
297.0
 68
     1
 69
     1
1001
ACAD
1000
MVIEW
1002
{
1070
    16
1010
0.0
1020
0.0
1030
0.0
1010
0.0
1020
0.0
1030
1.0
1040
0.0
1040
297.0
1040
5.728000000000009
1040
25.339
1040
50.0
1040
0.0
1040
0.0
1070
    16
1070
   100
1070
     0
1070
     1
1070
     0
1070
     0
1070
     0
1070
     0
1040
0.0
1040
0.0
1040
0.0
1040
10.0
1040
10.0
1040
10.0
1040
10.0
1070
     0
1002
{
1002
}
1002
}
  0
ENDSEC
  0
SECTION
  2
OBJECTS
  0
DICTIONARY
  5
C
330
0
100
AcDbDictionary
  3
ACAD_CIP_PREVIOUS_PRODUCT_INFO
350
1AF8C
  3
ACAD_COLOR
350
18D
  3
ACAD_GROUP
350
D
  3
ACAD_LAYOUT
350
18E
  3
ACAD_MATERIAL
350
18C
  3
ACAD_MLEADERSTYLE
350
D9E7
  3
ACAD_MLINESTYLE
350
1B
  3
ACAD_PLOTSETTINGS
350
18F
  3
ACAD_SCALELIST
350
D9C5
  3
ACAD_VISUALSTYLE
350
D9B4
  3
ACDBHEADERROUNDTRIPXREC
350
1B979
  3
ACDBVARIABLEDICTIONARY
350
37
  3
AEC_PROPERTY_SET_DEFS
350
1B30B
  3
CONTENTDICTIONARY
350
D8
  3
DRAWINGVARIABLESDICT
350
20
  3
DWGPROPS
350
1B97C
1001
ACAD
1000
TREAT_AS_HARD
1070
     0
  0
DICTIONARY
  5
E6A6
330
2
100
AcDbDictionary
  3
ACAD_LAYERSTATES
360
E6A7
1001
ACAD
1000
TREAT_AS_HARD
1070
     1
  0
DICTIONARY
  5
DA05
330
E
100
AcDbDictionary
  3
ADSK_XREC_LAYER_RECONCILED
360
DA06
1001
ACAD
1000
TREAT_AS_HARD
1070
     1
  0
DICTIONARY
  5
DA07
330
29
100
AcDbDictionary
  3
ADSK_XREC_LAYER_RECONCILED
360
DA08
1001
ACAD
1000
TREAT_AS_HARD
1070
     1
  0
DICTIONARY
  5
DA09
330
31
100
AcDbDictionary
  3
ADSK_XREC_LAYER_RECONCILED
360
DA0A
1001
ACAD
1000
TREAT_AS_HARD
1070
     1
  0
DICTIONARY
  5
DA0F
330
243
100
AcDbDictionary
  3
ADSK_XREC_LAYER_RECONCILED
360
DA10
1001
ACAD
1000
TREAT_AS_HARD
1070
     1
  0
DICTIONARY
  5
DA15
330
24E
100
AcDbDictionary
  3
ADSK_XREC_LAYER_RECONCILED
360
DA16
1001
ACAD
1000
TREAT_AS_HARD
1070
     1
  0
DICTIONARY
  5
DA23
330
2C05
100
AcDbDictionary
  3
ADSK_XREC_LAYER_RECONCILED
360
DA24
1001
ACAD
1000
TREAT_AS_HARD
1070
     1
  0
DICTIONARY
  5
88F
330
18
100
AcDbDictionary
  3
ACAD_SORTENTS
360
890
1001
ACAD
1000
TREAT_AS_HARD
1070
     1
  0
XRECORD
  5
1AF8C
102
{ACAD_REACTORS
330
C
102
}
330
C
100
AcDbXrecord
300
ACDLT
300
2012
300
ACDLT_F_S
  0
DICTIONARY
  5
18D
102
{ACAD_REACTORS
330
C
102
}
330
C
100
AcDbDictionary
1001
ACAD
1000
TREAT_AS_HARD
1070
     0
  0
DICTIONARY
  5
D
102
{ACAD_REACTORS
330
C
102
}
330
C
100
AcDbDictionary
1001
ACAD
1000
TREAT_AS_HARD
1070
     0
  0
DICTIONARY
  5
18E
102
{ACAD_REACTORS
330
C
102
}
330
C
100
AcDbDictionary
1001
ACAD
1000
TREAT_AS_HARD
1070
     0
  0
DICTIONARY
  5
18C
102
{ACAD_REACTORS
330
C
102
}
330
C
100
AcDbDictionary
  3
BYBLOCK
350
D9A4
  3
BYLAYER
350
D99C
  3
GLOBAL
350
D9AC
1001
ACAD
1000
TREAT_AS_HARD
1070
     0
  0
DICTIONARY
  5
D9E7
102
{ACAD_REACTORS
330
C
102
}
330
C
100
AcDbDictionary
  3
STANDARD
350
D9E8
1001
ACAD
1000
TREAT_AS_HARD
1070
     0
  0
DICTIONARY
  5
1B
102
{ACAD_REACTORS
330
C
102
}
330
C
100
AcDbDictionary
  3
STANDARD
350
1C
1001
ACAD
1000
TREAT_AS_HARD
1070
     0
  0
DICTIONARY
  5
18F
102
{ACAD_REACTORS
330
C
102
}
330
C
100
AcDbDictionary
1001
ACAD
1000
TREAT_AS_HARD
1070
     0
  0
DICTIONARY
  5
D9C5
102
{ACAD_REACTORS
330
C
102
}
330
C
100
AcDbDictionary
  3
A0
350
D9C6
  3
A1
350
D9C7
  3
A2
350
D9C8
  3
A3
350
D9C9
  3
A4
350
D9CA
  3
A5
350
D9CB
  3
A6
350
D9CC
  3
A7
350
D9CD
  3
A8
350
D9CE
  3
A9
350
D9CF
  3
B0
350
D9D0
  3
B1
350
D9D1
  3
B2
350
D9D2
  3
B3
350
D9D3
  3
B4
350
D9D4
  3
B5
350
D9D5
  3
B6
350
D9D6
  3
B7
350
D9D7
  3
B8
350
D9D8
  3
B9
350
D9D9
  3
C0
350
D9DA
  3
C1
350
D9DB
  3
C2
350
D9DC
  3
C3
350
D9DD
  3
C4
350
D9DE
  3
C5
350
D9DF
  3
C6
350
D9E0
  3
C7
350
D9E1
  3
C8
350
D9E2
  3
C9
350
D9E3
  3
D0
350
D9E4
  3
D1
350
D9E5
  3
D2
350
D9E6
1001
ACAD
1000
TREAT_AS_HARD
1070
     0
  0
DICTIONARY
  5
D9B4
102
{ACAD_REACTORS
330
C
102
}
330
C
100
AcDbDictionary
  3
2DWIREFRAME
350
D9BA
  3
3D_HIDDEN
350
D9BC
  3
3DWIREFRAME
350
D9BB
  3
BASIC
350
D9B9
  3
BRIGHTEN
350
D9C0
  3
COLORCHANGE
350
D9C4
  3
CONCEPTUAL
350
D9BD
  3
DIM
350
D9BF
  3
EDGECOLOROFF
350
19C2F
  3
FACEPATTERN
350
D9C3
  3
FLAT
350
D9B5
  3
FLATWITHEDGES
350
D9B6
  3
GOURAUD
350
D9B7
  3
GOURAUDWITHEDGES
350
D9B8
  3
HIDDEN
350
19C7E
  3
JITTEROFF
350
19C2D
  3
LINEPATTERN
350
D9C2
  3
MODELING
350
19C84
  3
OVERHANGOFF
350
19C2E
  3
REALISTIC
350
D9BE
  3
SHADED
350
19C83
  3
SHADED_WITH_EDGES
350
19C82
  3
SHADES_OF_GRAY
350
19C7F
  3
SKETCHY
350
19C80
  3
THICKEN
350
D9C1
  3
WIREFRAME
350
19C7D
  3
X-RAY
350
19C81
1001
ACAD
1000
TREAT_AS_HARD
1070
     0
  0
DICTIONARY
  5
1B979
102
{ACAD_REACTORS
330
C
102
}
330
C
100
AcDbDictionary
  3
COLORDICT
350
1B97A
  3
MATERIALDICT
350
1B97B
1001
ACAD
1000
TREAT_AS_HARD
1070
     0
  0
DICTIONARY
  5
37
102
{ACAD_REACTORS
330
C
102
}
330
C
100
AcDbDictionary
  3
CANNOSCALE
350
1A4C6
  3
CMLEADERSTYLE
350
DA6A
  3
CTABLESTYLE
350
29E
  3
DIMADEC
350
38
  3
DIMASSOC
350
1CE
  3
HIDETEXT
350
704E
  3
INDEXCTL
350
DA6D
  3
INTERSECTIONCOLOR
350
7052
  3
INTERSECTIONDISPLAY
350
7051
  3
MSLTSCALE
350
1A516
  3
OBSCOLOR
350
704F
  3
OBSLTYPE
350
7050
  3
PROJECTNAME
350
1CF
  3
SORTENTS
350
DA6C
  3
XCLIPFRAME
350
1B73E
1001
ACAD
1000
TREAT_AS_HARD
1070
     0
  0
DICTIONARY
  5
1B30B
102
{ACAD_REACTORS
330
C
102
}
330
C
100
AcDbDictionary
1001
ACAD
1000
TREAT_AS_HARD
1070
     0
  0
DICTIONARY
  5
D8
102
{ACAD_REACTORS
330
C
102
}
330
C
100
AcDbDictionary
1001
ACAD
1000
TREAT_AS_HARD
1070
     0
  0
DICTIONARY
  5
20
102
{ACAD_REACTORS
330
C
102
}
330
C
100
AcDbDictionary
1001
DRAWINGVARIABLESXDATA
1000
POLARANG
1000
0.261799387799149410000000
1000
POLARMODE
1000
1
1000
POLARSTYLE
1000
1
1001
ACAD
1000
TREAT_AS_HARD
1070
     0
  0
XRECORD
  5
1B97C
102
{ACAD_REACTORS
330
C
102
}
330
C
100
AcDbXrecord
  1
DWGPROPS COOKIE
  2

  3

  4

  6

  7

  8
3684
  9

300
=
301
=
302
=
303
=
304
=
305
=
306
=
307
=
308
=
309
=
 40
0.0
 41
2451318.246352917
 42
2458807.991803727
  1

 90
        0
  0
DICTIONARY
  5
E6A7
102
{ACAD_REACTORS
330
E6A6
102
}
330
E6A6
100
AcDbDictionary
1001
ACAD
1000
TREAT_AS_HARD
1070
     0
  0
ACAD_PROXY_OBJECT
  5
DA06
102
{ACAD_REACTORS
330
DA05
102
}
330
DA05
100
AcDbZombieObject
 90
      499
 91
      514
 93
       34
310
40C8804040
  0
ACAD_PROXY_OBJECT
  5
DA08
102
{ACAD_REACTORS
330
DA07
102
}
330
DA07
100
AcDbZombieObject
 90
      499
 91
      514
 93
       34
310
40C8804040
  0
ACAD_PROXY_OBJECT
  5
DA0A
102
{ACAD_REACTORS
330
DA09
102
}
330
DA09
100
AcDbZombieObject
 90
      499
 91
      514
 93
       34
310
40C8804040
  0
ACAD_PROXY_OBJECT
  5
DA10
102
{ACAD_REACTORS
330
DA0F
102
}
330
DA0F
100
AcDbZombieObject
 90
      499
 91
      514
 93
       34
310
40C8804040
  0
ACAD_PROXY_OBJECT
  5
DA16
102
{ACAD_REACTORS
330
DA15
102
}
330
DA15
100
AcDbZombieObject
 90
      499
 91
      514
 93
       34
310
40C8804040
  0
ACAD_PROXY_OBJECT
  5
DA24
102
{ACAD_REACTORS
330
DA23
102
}
330
DA23
100
AcDbZombieObject
 90
      499
 91
      514
 93
       34
310
40C8804040
  0
SORTENTSTABLE
  5
890
102
{ACAD_REACTORS
330
88F
102
}
330
88F
100
AcDbSortentsTable
330
18
331
0
  5
5BFF
331
1ABBE
  5
1ABCC
331
1ABBF
  5
1ABCD
331
1ABC0
  5
1ABCF
331
1ABC1
  5
1ABD0
331
1ABC2
  5
1ABD1
331
1ABC3
  5
1ABD2
331
1ABC4
  5
1ABD3
331
1ABC5
  5
1ABD4
331
1ABC6
  5
1ABD5
331
1ABC7
  5
1ABD9
331
1ABC8
  5
1ABDA
331
1ABC9
  5
1ABDB
331
1ABCA
  5
1ABDC
331
1ABCC
  5
1ABEC
331
1ABCD
  5
1ABED
331
0
  5
1ABF8
331
1ABD0
  5
1AC0C
331
1ABD1
  5
1AC0D
331
1ABD2
  5
1AC0E
331
1ABD3
  5
1AC0F
331
1ABD4
  5
1AC10
331
1ABD5
  5
1AC11
331
1ABD6
  5
1AC12
331
1ABD7
  5
1AC13
331
1ABD8
  5
1AC14
331
1ABD9
  5
1AC15
331
1ABDA
  5
1AC16
331
1ABDB
  5
1AC17
331
1ABDC
  5
1AC18
331
1ABDD
  5
1AC19
331
1ABDE
  5
1AC1A
331
1ABDF
  5
1AC1B
331
1ABE0
  5
1AC1D
331
1ABE1
  5
1AC1E
331
1ABE2
  5
1AC1F
331
1ABE3
  5
1AC20
331
1ABE5
  5
1AC31
331
1ABE6
  5
1AC33
331
1ABE7
  5
1AC34
331
1ABE9
  5
1AC42
331
0
  5
1AC32
331
1ABEB
  5
1AC50
331
1ABEC
  5
1AC51
331
1ABED
  5
1AC55
331
1ABEE
  5
1AC56
331
1ABEF
  5
1AC57
331
1ABF0
  5
1AC58
331
1ABF1
  5
1AC59
331
1ABF2
  5
1AC5A
331
1ABF3
  5
1AC5E
331
1ABF4
  5
1AC5F
331
1ABF5
  5
1AC60
331
1ABF6
  5
1AC64
331
1ABF7
  5
1AC65
331
1ABF8
  5
1AC66
331
1ABF9
  5
1AC6A
331
1ABFA
  5
1AC6B
331
1ABFB
  5
1AC6C
331
1ABFC
  5
1AC6D
331
1ABFD
  5
1AC6E
331
1ABFE
  5
1AC6F
331
1ABFF
  5
1AC70
331
1AC00
  5
1AC71
331
1AC01
  5
1AC72
331
1AC02
  5
1AC73
331
1AC03
  5
1AC74
331
1AC04
  5
1AC75
331
1AC05
  5
1AC76
331
1AC06
  5
1AC77
331
1AC07
  5
1AC78
331
1AC08
  5
1AC79
331
1AC09
  5
1AC7A
331
1AC0A
  5
1AC7B
331
1AC0B
  5
1AC7C
331
1AC0C
  5
1AC7D
331
1AC0D
  5
1AC7E
331
1AC0E
  5
1AC7F
331
1AC0F
  5
1AC80
331
1AC10
  5
1AC81
331
1AC11
  5
1AC82
331
1AC12
  5
1AC83
331
1AC13
  5
1AC84
331
1AC14
  5
1AC85
331
1AC15
  5
1AC86
331
1AC16
  5
1AC87
331
1AC17
  5
1AC88
331
1AC18
  5
1AC89
331
1AC19
  5
1AC8A
331
1AC1A
  5
1AC8B
331
1AC1B
  5
1AC8C
331
1AC1D
  5
1AC98
331
1AC1E
  5
1AC99
331
1AC1F
  5
1AC9A
331
1AC20
  5
1AC9B
331
1AC21
  5
1AC9C
331
1AC22
  5
1AC9D
331
1AC23
  5
1AC9E
331
1AC24
  5
1AC9F
331
1AC28
  5
1ACAD
331
1AC29
  5
1ACAE
331
1AC2A
  5
1ACAF
331
1AC2E
  5
1B311
331
1AC2F
  5
1B312
331
1AC30
  5
1B313
331
1AC31
  5
1B314
331
1AC32
  5
1B316
331
1AC33
  5
1B318
331
1AC34
  5
1B31D
331
1AC35
  5
1B31E
331
1AC36
  5
1B31F
331
1AC37
  5
1B320
331
1AC38
  5
1B321
331
1AC39
  5
1B322
331
1AC3A
  5
1B323
331
1AC3B
  5
1B324
331
1AC3C
  5
1B325
331
1AC3D
  5
1B326
331
1AC3E
  5
1B327
331
1AC3F
  5
1B328
331
1AC40
  5
1B329
331
1AC41
  5
1B32A
331
1AC42
  5
1B32B
331
1AC43
  5
1B32C
331
1AC44
  5
1B32D
331
1AC45
  5
1B32E
331
1AC46
  5
1B32F
331
1AC47
  5
1B330
331
1AC48
  5
1B331
331
1AC49
  5
1B332
331
1AC4A
  5
1B333
331
1AC4B
  5
1B334
331
1AC4C
  5
1B335
331
1AC4D
  5
1B336
331
1AC4E
  5
1B337
331
1AC4F
  5
1B338
331
1AC50
  5
1B339
331
1AC51
  5
1B33A
331
1AC52
  5
1B33C
331
1AC53
  5
1B33D
331
1AC54
  5
1B33E
331
1AC55
  5
1B33F
331
1AC56
  5
1B340
331
1AC57
  5
1B341
331
1AC58
  5
1B342
331
1AC59
  5
1B343
331
1AC5A
  5
1B344
331
1AC5B
  5
1B345
331
1AC5C
  5
1B346
331
1AC5D
  5
1B347
331
1AC5E
  5
1B348
331
1AC5F
  5
1B349
331
1AC60
  5
1B34A
331
1AC61
  5
1B34E
331
1AC62
  5
1B34F
331
1AC63
  5
1B350
331
1AC64
  5
1B351
331
1AC65
  5
1B355
331
1AC66
  5
1B356
331
1AC67
  5
1B357
331
1AC68
  5
1B35B
331
1AC69
  5
1B35C
331
1AC6A
  5
1B35D
331
1AC6B
  5
1B35E
331
0
  5
1B33B
331
1AC6D
  5
1B369
331
1AC6E
  5
1B36A
331
1AC6F
  5
1B36B
331
1AC70
  5
1B36C
331
1AC71
  5
1B36D
331
1AC72
  5
1B36E
331
1AC73
  5
1B36F
331
1AC74
  5
1B370
331
1AC75
  5
1B371
331
1AC76
  5
1B372
331
1AC77
  5
1B373
331
1AC78
  5
1B374
331
1AC79
  5
1B375
331
1AC7A
  5
1B376
331
1AC7B
  5
1B377
331
1AC7C
  5
1B378
331
1AC7D
  5
1B379
331
1AC7E
  5
1B37A
331
1AC7F
  5
1B37B
331
1AC80
  5
1B37C
331
1AC81
  5
1B37D
331
1AC82
  5
1B37E
331
1AC83
  5
1B37F
331
1AC84
  5
1B380
331
1AC85
  5
1B381
331
1AC86
  5
1B382
331
1AC87
  5
1B383
331
1AC88
  5
1B384
331
1AC89
  5
1B385
331
1AC8A
  5
1B386
331
1AC8B
  5
1B387
331
1AC8C
  5
1B388
331
1AC8D
  5
1B389
331
1AC8E
  5
1B38A
331
1AC8F
  5
1B38B
331
1AC90
  5
1B38C
331
1AC92
  5
1B397
331
1AC93
  5
1B398
331
1AC94
  5
1B399
331
1AC95
  5
1B39A
331
1AC96
  5
1B39B
331
1AC97
  5
1B39C
331
1AC98
  5
1B39D
331
1AC99
  5
1B39F
331
1AC9A
  5
1B3A1
331
1AC9B
  5
1B3A2
331
1AC9C
  5
1B3A3
331
1AC9D
  5
1B3A4
331
1AC9E
  5
1B3A5
331
1AC9F
  5
1B3A6
331
1ACA0
  5
1B3A7
331
1ACA2
  5
1B3A8
331
1ACA5
  5
1B3A9
331
1ACA6
  5
1B3AA
331
1ACA7
  5
1B3AB
331
1ACA8
  5
1B3AC
331
1ACA9
  5
1B3AD
331
1ACAA
  5
1B3AE
331
1ACAB
  5
1B3AF
331
1ACAC
  5
1B3B0
331
1ACAD
  5
1B3B1
331
1ACAE
  5
1B3B2
331
1ACAF
  5
1B3B3
331
1ACB0
  5
1B3B4
331
1ACB1
  5
1B3B5
331
1ACB2
  5
1B3B6
331
1ACB3
  5
1B3B7
331
1ACB4
  5
1B3B8
331
1ACB5
  5
1B3B9
331
1ACB6
  5
1B3BA
331
1ACB7
  5
1B3BB
331
1ACB8
  5
1B3BC
331
1ACB9
  5
1B3BD
331
1ACBA
  5
1B3BE
331
1ACBB
  5
1B3BF
331
1ACBC
  5
1B3C0
331
1ACBD
  5
1B3C1
331
1ACBE
  5
1B3C2
331
1ACBF
  5
1B3C3
331
1ACC0
  5
1B3C7
331
1ACC1
  5
1B47C
331
1ACC2
  5
1B47D
331
1ACC3
  5
1B47E
331
1ACC4
  5
1B480
331
0
  5
1ACC7
331
0
  5
1ACC8
331
1ACC7
  5
1B853
331
1ACEF
  5
1B854
331
1ACF0
  5
1B855
331
1ACF1
  5
1B856
331
1ACF2
  5
1B857
331
1AD11
  5
1B858
331
1AD37
  5
1B859
331
1B30D
  5
1B85A
331
1B30E
  5
1B85B
331
1B311
  5
1B85C
331
1B312
  5
1B85D
331
1B313
  5
1B85E
331
1B316
  5
1B85F
331
0
  5
1B3C5
331
0
  5
1B3C6
331
1B31A
  5
1B874
331
1B31B
  5
1B875
331
1B31C
  5
1B876
331
1B31D
  5
1B877
331
1B31E
  5
1B878
331
1B31F
  5
1B879
331
1B320
  5
1B87A
331
1B321
  5
1B87B
331
1B322
  5
1B87C
331
1B323
  5
1B87D
331
1B324
  5
1B87F
331
1B325
  5
1B880
331
1B326
  5
1B881
331
1B327
  5
1B883
331
1B328
  5
1B884
331
1B329
  5
1B885
331
1B32A
  5
1B886
331
1B32B
  5
1B887
331
1B32C
  5
1B888
331
1B32D
  5
1B889
331
1B32E
  5
1B88A
331
1B32F
  5
1B88B
331
1B330
  5
1B88C
331
1B331
  5
1B88D
331
1B332
  5
1B88E
331
1B333
  5
1B88F
331
1B334
  5
1B890
331
1B335
  5
1B891
331
1B336
  5
1B898
331
1B337
  5
1B899
331
1B338
  5
1B89A
331
1B339
  5
1B89D
331
1B33A
  5
1B89E
331
1B33B
  5
1B89F
331
1B33C
  5
1B8A0
331
1B33D
  5
1B8A1
331
1B33E
  5
1B8A2
331
1B33F
  5
1B8A3
331
1B340
  5
1B8A4
331
1B341
  5
1B8A5
331
1B342
  5
1B8A6
331
1B343
  5
1B8A7
331
1B344
  5
1B8A8
331
1B345
  5
1B8A9
331
1B346
  5
1B8AA
331
1B347
  5
1B8AB
331
1B348
  5
1B8AC
331
1B349
  5
1B8AD
331
1B34A
  5
1B8AE
331
1B34B
  5
1B8AF
331
1B34C
  5
1B8B0
331
1B34D
  5
1B8B1
331
1B34E
  5
1B8B2
331
1B34F
  5
1B8B3
331
1B350
  5
1B8B5
331
1B351
  5
1B8B6
331
1B352
  5
1B8B8
331
1B353
  5
1B8B9
331
1B354
  5
1B8BA
331
1B355
  5
1B8BE
331
1B356
  5
1B8BF
331
1B357
  5
1B8C0
331
1B358
  5
1B8C4
331
1B359
  5
1B8C5
331
1B35A
  5
1B8C6
331
1B35B
  5
1B8CA
331
1B35C
  5
1B8CB
331
1B35D
  5
1B8CC
331
1B35E
  5
1B8D0
331
1B35F
  5
1B8D1
331
1B360
  5
1B8D2
331
1B361
  5
1B8D3
331
1B362
  5
1B8D4
331
1B363
  5
1B8D5
331
1B364
  5
1B8D6
331
1B365
  5
1B8D7
331
1B366
  5
1B8D8
331
1B367
  5
1B8D9
331
1B368
  5
1B8DA
331
1B369
  5
1B8DB
331
1B36A
  5
1B8DC
331
1B36B
  5
1B8DD
331
1B36C
  5
1B8DE
331
1B36D
  5
1B8DF
331
1B36E
  5
1B8E0
331
1B36F
  5
1B8E1
331
1B370
  5
1B8E2
331
1B371
  5
1B8E3
331
1B372
  5
1B8E4
331
1B373
  5
1B8E5
331
1B374
  5
1B8E6
331
0
  5
1B894
331
0
  5
1B895
331
0
  5
1B896
331
0
  5
1B897
331
1B379
  5
1B90F
331
1B37A
  5
1B910
331
1B37B
  5
1B911
331
1B37C
  5
1B912
331
1B37D
  5
1B913
331
1B37E
  5
1B914
331
1B37F
  5
1B915
331
1B380
  5
1B916
331
1B381
  5
1B917
331
1B382
  5
1B918
331
1B383
  5
1B919
331
1B384
  5
1B91A
331
1B385
  5
1B91B
331
1B386
  5
1B91C
331
1B387
  5
1B91D
331
1B388
  5
1B91E
331
1B389
  5
1B91F
331
1B38A
  5
1B920
331
1B38B
  5
1B921
331
1B38C
  5
1B922
331
1B38D
  5
1B923
331
1B38E
  5
1B924
331
1B38F
  5
1B925
331
1B390
  5
1B926
331
1B391
  5
1B927
331
1B392
  5
1B928
331
1B393
  5
1B929
331
1B394
  5
1B92A
331
0
  5
1B8B4
331
0
  5
1B39E
331
0
  5
1B8B7
331
0
  5
1B3A0
331
1B399
  5
1B933
331
1B39A
  5
1B934
331
1B39B
  5
1B935
331
1B39C
  5
1B936
331
1B39D
  5
1B937
331
1B39E
  5
1B938
331
1B39F
  5
1B939
331
1B3A0
  5
1B93A
331
1B3A1
  5
1B93B
331
1B3A2
  5
1B93C
331
1B3A3
  5
1B93D
331
1B3A4
  5
1B93E
331
1B3A5
  5
1B93F
331
1B3A6
  5
1B940
331
1B3A7
  5
1B941
331
1B3A8
  5
1B942
331
1B3A9
  5
1B943
331
1B3AA
  5
1B944
331
1B3AB
  5
1B945
331
1B3AC
  5
1B946
331
1B3AD
  5
1B947
331
1B3AE
  5
1B948
331
1B3AF
  5
1B949
331
1B3B0
  5
1B94A
331
1B3B1
  5
1B94B
331
1B3B2
  5
1B94C
331
1B3B3
  5
1B94D
331
1B3B4
  5
1B94E
331
1B3B5
  5
1B94F
331
1B3B6
  5
1B950
331
1B3B7
  5
1B951
331
1B3B8
  5
1B952
331
1B3B9
  5
1B953
331
1B3BA
  5
1B954
331
1B3BB
  5
1B955
331
1B3BC
  5
1B956
331
1B3BD
  5
1B957
331
1B3BE
  5
1B958
331
1B3BF
  5
1B959
331
1B3C0
  5
1B95A
331
1B3C1
  5
1B95B
331
1B3C2
  5
1B95C
331
1B3C3
  5
1B95D
331
1B3C4
  5
1B95E
331
1B3C5
  5
1B95F
331
1B3C6
  5
1B960
331
1B3C7
  5
1B961
331
1B47C
  5
1B87E
331
1B47D
  5
1B882
331
1B47E
  5
1B89B
331
1B47F
  5
1B893
331
1B480
  5
1B89C
331
1B481
  5
1B892
331
1B482
  5
1B47F
331
1B483
  5
1B3C4
331
1B49F
  5
1B962
331
1B4A0
  5
1B963
331
1B4A1
  5
1B964
331
1B4A2
  5
1B965
331
1B4A3
  5
1B966
331
1B4A4
  5
1B967
331
1B4A5
  5
1B968
331
1B4A6
  5
1B969
331
1B4A7
  5
1B96A
331
1B4A8
  5
1B96B
331
1B4A9
  5
1B96C
331
1B4AA
  5
1B96D
331
1B4AB
  5
1B96E
331
1B4AC
  5
1B96F
331
1B4AD
  5
1B970
331
1B4AE
  5
1B971
331
1B4AF
  5
1B972
331
1B4B0
  5
1B973
331
1B4B1
  5
1B974
331
1B4B2
  5
1B975
331
1B4B3
  5
1B976
331
1B720
  5
1B977
331
1B721
  5
1B978
331
1B853
  5
1ABBE
331
1B854
  5
1ABBF
331
1B855
  5
1ABC0
331
0
  5
1ABC1
331
0
  5
1ABC2
331
0
  5
1ABC3
331
1B859
  5
1ABDD
331
1B85A
  5
1ABE1
331
1B85B
  5
1ABE2
331
0
  5
1ABD6
331
0
  5
1ABD7
331
0
  5
1ABD8
331
1B85F
  5
1ABEE
331
1B860
  5
1ABEF
331
1B861
  5
1ABF0
331
0
  5
1ABDE
331
0
  5
1ABDF
331
0
  5
1ABE0
331
1B865
  5
1AC21
331
1B866
  5
1AC22
331
1B867
  5
1AC23
331
0
  5
1ABFB
331
0
  5
1ABFC
331
0
  5
1ABFD
331
1B86B
  5
1AC35
331
1B86C
  5
1AC36
331
1B86D
  5
1AC37
331
0
  5
1AC04
331
0
  5
1AC05
331
0
  5
1AC06
331
1B871
  5
1AC8D
331
1B872
  5
1AC8E
331
1B873
  5
1AC8F
331
0
  5
1AC44
331
0
  5
1AC45
331
0
  5
1AC46
331
1B877
  5
1ACA0
331
1B878
  5
1ACA2
331
1B879
  5
1ACA5
331
0
  5
1AC52
331
0
  5
1AC53
331
0
  5
1AC54
331
1B87D
  5
1ACB0
331
1B87E
  5
1ACB1
331
1B87F
  5
1ACB2
331
0
  5
1AC5B
331
0
  5
1AC5C
331
0
  5
1AC5D
331
1B883
  5
1ACBA
331
1B884
  5
1ACBB
331
1B885
  5
1ACBC
331
0
  5
1AC61
331
0
  5
1AC62
331
0
  5
1AC63
331
1B889
  5
1ACC4
331
1B88A
  5
1ACC5
331
1B88B
  5
1ACC6
331
0
  5
1AC67
331
0
  5
1AC68
331
0
  5
1AC69
331
1B88F
  5
1B38D
331
1B890
  5
1B38E
331
1B891
  5
1B38F
331
0
  5
1B319
331
0
  5
1B31A
331
0
  5
1B31C
331
1B895
  5
1B481
331
1B896
  5
1B482
331
1B897
  5
1B483
331
0
  5
1B352
331
0
  5
1B353
331
0
  5
1B354
331
1B89B
  5
1B4A6
331
1B89C
  5
1B4A7
331
1B89D
  5
1B4A8
331
0
  5
1B358
331
0
  5
1B359
331
0
  5
1B35A
331
1B8A1
  5
1B92D
331
1B8A2
  5
1B92E
331
1B8A3
  5
1B931
331
1B8A4
  5
1B932
331
1B8A5
  5
1ABC4
331
1B8A6
  5
1ABC5
331
1B8A7
  5
1ABC6
331
1B8A8
  5
1ABC7
331
1B8A9
  5
1ABC8
331
1B8AA
  5
1ABC9
331
1B8AB
  5
1ABCA
331
1B8AC
  5
1ABE3
331
1B8AD
  5
1ABE5
331
1B8AE
  5
1ABE6
331
1B8AF
  5
1ABE7
331
1B8B0
  5
1ABE9
331
1B8B1
  5
1ABEA
331
1B8B2
  5
1ABEB
331
1B8B3
  5
1ABF1
331
1B8B4
  5
1ABF2
331
1B8B5
  5
1ABF3
331
1B8B6
  5
1ABF4
331
1B8B7
  5
1ABF5
331
1B8B8
  5
1ABF6
331
1B8B9
  5
1ABF7
331
1B8BA
  5
1AC24
331
1B8BB
  5
1AC28
331
1B8BC
  5
1AC29
331
1B8BD
  5
1AC2A
331
1B8BE
  5
1AC2E
331
1B8BF
  5
1AC2F
331
1B8C0
  5
1AC30
331
1B8C1
  5
1AC38
331
1B8C2
  5
1AC39
331
1B8C3
  5
1AC3A
331
1B8C4
  5
1AC3B
331
1B8C5
  5
1AC3F
331
1B8C6
  5
1AC40
331
1B8C7
  5
1AC41
331
1B8C8
  5
1AC90
331
1B8C9
  5
1AC92
331
1B8CA
  5
1AC93
331
1B8CB
  5
1AC94
331
1B8CC
  5
1AC95
331
1B8CD
  5
1AC96
331
1B8CE
  5
1AC97
331
1B8CF
  5
1ACA6
331
1B8D0
  5
1ACA7
331
1B8D1
  5
1ACA8
331
1B8D2
  5
1ACA9
331
1B8D3
  5
1ACAA
331
1B8D4
  5
1ACAB
331
1B8D5
  5
1ACAC
331
1B8D6
  5
1ACB3
331
1B8D7
  5
1ACB4
331
1B8D8
  5
1ACB5
331
1B8D9
  5
1ACB6
331
1B8DA
  5
1ACB7
331
1B8DB
  5
1ACB8
331
1B8DC
  5
1ACB9
331
1B8DD
  5
1ACBD
331
1B8DE
  5
1ACBE
331
1B8DF
  5
1ACBF
331
1B8E0
  5
1ACC0
331
1B8E1
  5
1ACC1
331
1B8E2
  5
1ACC2
331
1B8E3
  5
1ACC3
331
1B8E4
  5
1ACC9
331
1B8E5
  5
1ACF1
331
1B8E6
  5
1ACF2
331
1B8E7
  5
1AD11
331
1B8E8
  5
1AD37
331
1B8E9
  5
1B30D
331
1B8EA
  5
1B30E
331
1B8EB
  5
1B390
331
1B8EC
  5
1B391
331
1B8ED
  5
1B392
331
1B8EE
  5
1B393
331
1B8EF
  5
1B394
331
1B8F0
  5
1B395
331
1B8F1
  5
1B396
331
1B8F2
  5
1B49F
331
1B8F3
  5
1B4A0
331
1B8F4
  5
1B4A1
331
1B8F5
  5
1B4A2
331
1B8F6
  5
1B4A3
331
1B8F7
  5
1B4A4
331
1B8F8
  5
1B4A5
331
1B8F9
  5
1B4A9
331
1B8FA
  5
1B4AA
331
1B8FB
  5
1B4AE
331
1B8FC
  5
1B4AF
331
1B8FD
  5
1B4B0
331
1B8FE
  5
1B720
331
1B8FF
  5
1B721
331
1B900
  5
1ABF9
331
1B901
  5
1ABFA
331
1B902
  5
1ABFE
331
0
  5
1ABFF
331
0
  5
1AC00
331
0
  5
1AC01
331
1B906
  5
1AC43
331
1B907
  5
1AC47
331
1B908
  5
1AC48
331
0
  5
1AC3C
331
0
  5
1AC3D
331
0
  5
1AC3E
331
1B90C
  5
1B35F
331
1B90D
  5
1B360
331
1B90E
  5
1B361
331
0
  5
1B34B
331
0
  5
1B34C
331
0
  5
1B34D
331
1B912
  5
1B860
331
1B913
  5
1B861
331
1B914
  5
1B862
331
0
  5
1B4AB
331
0
  5
1B4AC
331
0
  5
1B4AD
331
1B918
  5
1B86A
331
1B919
  5
1B86B
331
1B91A
  5
1B86C
331
0
  5
1B4B1
331
0
  5
1B4B2
331
0
  5
1B4B3
331
1B91E
  5
1B8E7
331
1B91F
  5
1B8E8
331
1B920
  5
1B8E9
331
0
  5
1B8BB
331
0
  5
1B8BC
331
0
  5
1B8BD
331
1B924
  5
1B8F1
331
1B925
  5
1B8F2
331
1B926
  5
1B8F3
331
0
  5
1B8C1
331
0
  5
1B8C2
331
0
  5
1B8C3
331
1B92A
  5
1B8FB
331
1B92B
  5
1B8FC
331
1B92C
  5
1B8FD
331
0
  5
1B8C7
331
0
  5
1B8C8
331
0
  5
1B8C9
331
1B930
  5
1B905
331
1B931
  5
1B906
331
1B932
  5
1B907
331
0
  5
1B8CD
331
0
  5
1B8CE
331
0
  5
1B8CF
331
1B936
  5
1B92B
331
1B937
  5
1B92C
331
1B938
  5
1B92F
331
1B939
  5
1B930
331
1B93A
  5
1AC02
331
1B93B
  5
1AC03
331
1B93C
  5
1AC07
331
1B93D
  5
1AC08
331
1B93E
  5
1AC09
331
1B93F
  5
1AC0A
331
1B940
  5
1AC0B
331
1B941
  5
1AC49
331
1B942
  5
1AC4A
331
1B943
  5
1AC4B
331
1B944
  5
1AC4C
331
1B945
  5
1AC4D
331
1B946
  5
1AC4E
331
1B947
  5
1AC4F
331
1B948
  5
1B362
331
1B949
  5
1B363
331
1B94A
  5
1B364
331
1B94B
  5
1B365
331
1B94C
  5
1B366
331
1B94D
  5
1B367
331
1B94E
  5
1B368
331
1B94F
  5
1B863
331
1B950
  5
1B864
331
1B951
  5
1B865
331
1B952
  5
1B866
331
1B953
  5
1B867
331
1B954
  5
1B868
331
1B955
  5
1B869
331
1B956
  5
1B86D
331
1B957
  5
1B86E
331
1B958
  5
1B86F
331
1B959
  5
1B870
331
1B95A
  5
1B871
331
1B95B
  5
1B872
331
1B95C
  5
1B873
331
1B95D
  5
1B8EA
331
1B95E
  5
1B8EB
331
1B95F
  5
1B8EC
331
1B960
  5
1B8ED
331
1B961
  5
1B8EE
331
1B962
  5
1B8EF
331
1B963
  5
1B8F0
331
1B964
  5
1B8F4
331
1B965
  5
1B8F5
331
1B966
  5
1B8F6
331
1B967
  5
1B8F7
331
1B968
  5
1B8F8
331
1B969
  5
1B8F9
331
1B96A
  5
1B8FA
331
1B96B
  5
1B8FE
331
1B96C
  5
1B8FF
331
1B96D
  5
1B900
331
1B96E
  5
1B901
331
1B96F
  5
1B902
331
1B970
  5
1B903
331
1B971
  5
1B904
331
1B972
  5
1B908
331
1B973
  5
1B909
331
1B974
  5
1B90A
331
1B975
  5
1B90B
331
1B976
  5
1B90C
331
1B977
  5
1B90D
331
1B978
  5
1B90E
  0
MATERIAL
  5
D9A4
102
{ACAD_REACTORS
330
18C
102
}
102
{ACAD_XDICTIONARY
360
1BB17
102
}
330
18C
100
AcDbMaterial
  1
BYBLOCK
 72
     0
 73
     2
 43
0.0208333333333333
 43
0.0
 43
0.0
 43
0.0
 43
0.0
 43
0.0208333333333333
 43
0.0
 43
0.0
 43
0.0
 43
0.0
 43
1.0
 43
0.0
 43
0.0
 43
0.0
 43
0.0
 43
1.0
 77
     0
 78
     2
 47
0.0208333333333333
 47
0.0
 47
0.0
 47
0.0
 47
0.0
 47
0.0208333333333333
 47
0.0
 47
0.0
 47
0.0
 47
0.0
 47
1.0
 47
0.0
 47
0.0
 47
0.0
 47
0.0
 47
1.0
171
     0
172
     2
 49
0.0208333333333333
 49
0.0
 49
0.0
 49
0.0
 49
0.0
 49
0.0208333333333333
 49
0.0
 49
0.0
 49
0.0
 49
0.0
 49
1.0
 49
0.0
 49
0.0
 49
0.0
 49
0.0
 49
1.0
175
     0
176
     2
142
0.0208333333333333
142
0.0
142
0.0
142
0.0
142
0.0
142
0.0208333333333333
142
0.0
142
0.0
142
0.0
142
0.0
142
1.0
142
0.0
142
0.0
142
0.0
142
0.0
142
1.0
179
     0
270
     2
144
0.0208333333333333
144
0.0
144
0.0
144
0.0
144
0.0
144
0.0208333333333333
144
0.0
144
0.0
144
0.0
144
0.0
144
1.0
144
0.0
144
0.0
144
0.0
144
0.0
144
1.0
274
     2
147
0.0208333333333333
147
0.0
147
0.0
147
0.0
147
0.0
147
0.0208333333333333
147
0.0
147
0.0
147
0.0
147
0.0
147
1.0
147
0.0
147
0.0
147
0.0
147
0.0
147
1.0
  0
MATERIAL
  5
D99C
102
{ACAD_REACTORS
330
18C
102
}
102
{ACAD_XDICTIONARY
360
1BB19
102
}
330
18C
100
AcDbMaterial
  1
BYLAYER
 72
     0
 73
     2
 43
0.0208333333333333
 43
0.0
 43
0.0
 43
0.0
 43
0.0
 43
0.0208333333333333
 43
0.0
 43
0.0
 43
0.0
 43
0.0
 43
1.0
 43
0.0
 43
0.0
 43
0.0
 43
0.0
 43
1.0
 77
     0
 78
     2
 47
0.0208333333333333
 47
0.0
 47
0.0
 47
0.0
 47
0.0
 47
0.0208333333333333
 47
0.0
 47
0.0
 47
0.0
 47
0.0
 47
1.0
 47
0.0
 47
0.0
 47
0.0
 47
0.0
 47
1.0
171
     0
172
     2
 49
0.0208333333333333
 49
0.0
 49
0.0
 49
0.0
 49
0.0
 49
0.0208333333333333
 49
0.0
 49
0.0
 49
0.0
 49
0.0
 49
1.0
 49
0.0
 49
0.0
 49
0.0
 49
0.0
 49
1.0
175
     0
176
     2
142
0.0208333333333333
142
0.0
142
0.0
142
0.0
142
0.0
142
0.0208333333333333
142
0.0
142
0.0
142
0.0
142
0.0
142
1.0
142
0.0
142
0.0
142
0.0
142
0.0
142
1.0
179
     0
270
     2
144
0.0208333333333333
144
0.0
144
0.0
144
0.0
144
0.0
144
0.0208333333333333
144
0.0
144
0.0
144
0.0
144
0.0
144
1.0
144
0.0
144
0.0
144
0.0
144
0.0
144
1.0
274
     2
147
0.0208333333333333
147
0.0
147
0.0
147
0.0
147
0.0
147
0.0208333333333333
147
0.0
147
0.0
147
0.0
147
0.0
147
1.0
147
0.0
147
0.0
147
0.0
147
0.0
147
1.0
  0
MATERIAL
  5
D9AC
102
{ACAD_REACTORS
330
18C
102
}
102
{ACAD_XDICTIONARY
360
1BB1B
102
}
330
18C
100
AcDbMaterial
  1
GLOBAL
 72
     0
 73
     2
 43
0.0208333333333333
 43
0.0
 43
0.0
 43
0.0
 43
0.0
 43
0.0208333333333333
 43
0.0
 43
0.0
 43
0.0
 43
0.0
 43
1.0
 43
0.0
 43
0.0
 43
0.0
 43
0.0
 43
1.0
 77
     0
 78
     2
 47
0.0208333333333333
 47
0.0
 47
0.0
 47
0.0
 47
0.0
 47
0.0208333333333333
 47
0.0
 47
0.0
 47
0.0
 47
0.0
 47
1.0
 47
0.0
 47
0.0
 47
0.0
 47
0.0
 47
1.0
171
     0
172
     2
 49
0.0208333333333333
 49
0.0
 49
0.0
 49
0.0
 49
0.0
 49
0.0208333333333333
 49
0.0
 49
0.0
 49
0.0
 49
0.0
 49
1.0
 49
0.0
 49
0.0
 49
0.0
 49
0.0
 49
1.0
175
     0
176
     2
142
0.0208333333333333
142
0.0
142
0.0
142
0.0
142
0.0
142
0.0208333333333333
142
0.0
142
0.0
142
0.0
142
0.0
142
1.0
142
0.0
142
0.0
142
0.0
142
0.0
142
1.0
179
     0
270
     2
144
0.0208333333333333
144
0.0
144
0.0
144
0.0
144
0.0
144
0.0208333333333333
144
0.0
144
0.0
144
0.0
144
0.0
144
1.0
144
0.0
144
0.0
144
0.0
144
0.0
144
1.0
274
     2
147
0.0208333333333333
147
0.0
147
0.0
147
0.0
147
0.0
147
0.0208333333333333
147
0.0
147
0.0
147
0.0
147
0.0
147
1.0
147
0.0
147
0.0
147
0.0
147
0.0
147
1.0
  0
ACAD_PROXY_OBJECT
  5
D9E8
102
{ACAD_REACTORS
330
D9E7
102
}
330
D9E7
100
AcDbZombieObject
 90
      499
 91
      511
 93
      610
310
40901902A4063FBFFFFFE000000000000002040AD7A3703D0AD73F4214DD185B99185C990000000000000104090141901A00000000000004100000000000000041025764000000000000300FC0
340
12
340
0
340
F
340
0
 94
        0
1001
ACAD_MLEADERVER
1070
     2
  0
MLINESTYLE
  5
1C
102
{ACAD_REACTORS
330
1B
102
}
330
1B
100
AcDbMlineStyle
  2
STANDARD
 70
     0
  3

 62
   256
 51
90.0
 52
90.0
 71
     2
 49
0.5
 62
   256
  6
BYLAYER
 49
-0.5
 62
   256
  6
BYLAYER
  0
ACAD_PROXY_OBJECT
  5
D9C6
102
{ACAD_REACTORS
330
D9C5
102
}
330
D9C5
100
AcDbZombieObject
 90
      499
 91
      510
 93
       41
310
903313A31580
  0
ACAD_PROXY_OBJECT
  5
D9C7
102
{ACAD_REACTORS
330
D9C5
102
}
330
D9C5
100
AcDbZombieObject
 90
      499
 91
      510
 93
      105
310
903313A324000000000000004000
  0
ACAD_PROXY_OBJECT
  5
D9C8
102
{ACAD_REACTORS
330
D9C5
102
}
330
D9C5
100
AcDbZombieObject
 90
      499
 91
      510
 93
      105
310
903313A344000000000000104000
  0
ACAD_PROXY_OBJECT
  5
D9C9
102
{ACAD_REACTORS
330
D9C5
102
}
330
D9C5
100
AcDbZombieObject
 90
      499
 91
      510
 93
      105
310
903313A354000000000000144000
  0
ACAD_PROXY_OBJECT
  5
D9CA
102
{ACAD_REACTORS
330
D9C5
102
}
330
D9C5
100
AcDbZombieObject
 90
      499
 91
      510
 93
      105
310
903313A384000000000000204000
  0
ACAD_PROXY_OBJECT
  5
D9CB
102
{ACAD_REACTORS
330
D9C5
102
}
330
D9C5
100
AcDbZombieObject
 90
      499
 91
      510
 93
      113
310
904313A31304000000000000244000
  0
ACAD_PROXY_OBJECT
  5
D9CC
102
{ACAD_REACTORS
330
D9C5
102
}
330
D9C5
100
AcDbZombieObject
 90
      499
 91
      510
 93
      113
310
904313A31364000000000000304000
  0
ACAD_PROXY_OBJECT
  5
D9CD
102
{ACAD_REACTORS
330
D9C5
102
}
330
D9C5
100
AcDbZombieObject
 90
      499
 91
      510
 93
      113
310
904313A32304000000000000344000
  0
ACAD_PROXY_OBJECT
  5
D9CE
102
{ACAD_REACTORS
330
D9C5
102
}
330
D9C5
100
AcDbZombieObject
 90
      499
 91
      510
 93
      113
310
904313A333040000000000003E4000
  0
ACAD_PROXY_OBJECT
  5
D9CF
102
{ACAD_REACTORS
330
D9C5
102
}
330
D9C5
100
AcDbZombieObject
 90
      499
 91
      510
 93
      113
310
904313A34304000000000000444000
  0
ACAD_PROXY_OBJECT
  5
D9D0
102
{ACAD_REACTORS
330
D9C5
102
}
330
D9C5
100
AcDbZombieObject
 90
      499
 91
      510
 93
      113
310
904313A35304000000000000494000
  0
ACAD_PROXY_OBJECT
  5
D9D1
102
{ACAD_REACTORS
330
D9C5
102
}
330
D9C5
100
AcDbZombieObject
 90
      499
 91
      510
 93
      121
310
905313A3130304000000000000594000
  0
ACAD_PROXY_OBJECT
  5
D9D2
102
{ACAD_REACTORS
330
D9C5
102
}
330
D9C5
100
AcDbZombieObject
 90
      499
 91
      510
 93
      105
310
903323A310000000000000010100
  0
ACAD_PROXY_OBJECT
  5
D9D3
102
{ACAD_REACTORS
330
D9C5
102
}
330
D9C5
100
AcDbZombieObject
 90
      499
 91
      510
 93
      105
310
903343A310000000000000410100
  0
ACAD_PROXY_OBJECT
  5
D9D4
102
{ACAD_REACTORS
330
D9C5
102
}
330
D9C5
100
AcDbZombieObject
 90
      499
 91
      510
 93
      105
310
903383A310000000000000810100
  0
ACAD_PROXY_OBJECT
  5
D9D5
102
{ACAD_REACTORS
330
D9C5
102
}
330
D9C5
100
AcDbZombieObject
 90
      499
 91
      510
 93
      113
310
90431303A310000000000000910100
  0
ACAD_PROXY_OBJECT
  5
D9D6
102
{ACAD_REACTORS
330
D9C5
102
}
330
D9C5
100
AcDbZombieObject
 90
      499
 91
      510
 93
      121
310
9053130303A310000000000001650100
  0
ACAD_PROXY_OBJECT
  5
D9D7
102
{ACAD_REACTORS
330
D9C5
102
}
330
D9C5
100
AcDbZombieObject
 90
      499
 91
      510
 93
      257
310
90E312F31323822203D2031272D3022000000000000200FC000000000000284000
  0
ACAD_PROXY_OBJECT
  5
D9D8
102
{ACAD_REACTORS
330
D9C5
102
}
330
D9C5
100
AcDbZombieObject
 90
      499
 91
      510
 93
      249
310
90D312F363422203D2031272D3022000000000000240FC000000000000284000
  0
ACAD_PROXY_OBJECT
  5
D9D9
102
{ACAD_REACTORS
330
D9C5
102
}
330
D9C5
100
AcDbZombieObject
 90
      499
 91
      510
 93
      249
310
90D312F333222203D2031272D3022000000000000280FC000000000000284000
  0
ACAD_PROXY_OBJECT
  5
D9DA
102
{ACAD_REACTORS
330
D9C5
102
}
330
D9C5
100
AcDbZombieObject
 90
      499
 91
      510
 93
      249
310
90D312F313622203D2031272D30220000000000002C0FC000000000000284000
  0
ACAD_PROXY_OBJECT
  5
D9DB
102
{ACAD_REACTORS
330
D9C5
102
}
330
D9C5
100
AcDbZombieObject
 90
      499
 91
      510
 93
      249
310
90D332F333222203D2031272D30220000000000002E0FC000000000000284000
  0
ACAD_PROXY_OBJECT
  5
D9DC
102
{ACAD_REACTORS
330
D9C5
102
}
330
D9C5
100
AcDbZombieObject
 90
      499
 91
      510
 93
      241
310
90C312F3822203D2031272D3022000000000000300FC000000000000284000
  0
ACAD_PROXY_OBJECT
  5
D9DD
102
{ACAD_REACTORS
330
D9C5
102
}
330
D9C5
100
AcDbZombieObject
 90
      499
 91
      510
 93
      249
310
90D332F313622203D2031272D3022000000000000320FC000000000000284000
  0
ACAD_PROXY_OBJECT
  5
D9DE
102
{ACAD_REACTORS
330
D9C5
102
}
330
D9C5
100
AcDbZombieObject
 90
      499
 91
      510
 93
      241
310
90C312F3422203D2031272D3022000000000000340FC000000000000284000
  0
ACAD_PROXY_OBJECT
  5
D9DF
102
{ACAD_REACTORS
330
D9C5
102
}
330
D9C5
100
AcDbZombieObject
 90
      499
 91
      510
 93
      241
310
90C332F3822203D2031272D3022000000000000360FC000000000000284000
  0
ACAD_PROXY_OBJECT
  5
D9E0
102
{ACAD_REACTORS
330
D9C5
102
}
330
D9C5
100
AcDbZombieObject
 90
      499
 91
      510
 93
      241
310
90C312F3222203D2031272D3022000000000000380FC000000000000284000
  0
ACAD_PROXY_OBJECT
  5
D9E1
102
{ACAD_REACTORS
330
D9C5
102
}
330
D9C5
100
AcDbZombieObject
 90
      499
 91
      510
 93
      241
310
90C332F3422203D2031272D30220000000000003A0FC000000000000284000
  0
ACAD_PROXY_OBJECT
  5
D9E2
102
{ACAD_REACTORS
330
D9C5
102
}
330
D9C5
100
AcDbZombieObject
 90
      499
 91
      510
 93
      161
310
90A3122203D2031272D30224000000000000284000
  0
ACAD_PROXY_OBJECT
  5
D9E3
102
{ACAD_REACTORS
330
D9C5
102
}
330
D9C5
100
AcDbZombieObject
 90
      499
 91
      510
 93
      257
310
90E312D312F3222203D2031272D30220000000000003E0FC000000000000284000
  0
ACAD_PROXY_OBJECT
  5
D9E4
102
{ACAD_REACTORS
330
D9C5
102
}
330
D9C5
100
AcDbZombieObject
 90
      499
 91
      510
 93
      225
310
90A3322203D2031272D302200000000000002100000000000000284000
  0
ACAD_PROXY_OBJECT
  5
D9E5
102
{ACAD_REACTORS
330
D9C5
102
}
330
D9C5
100
AcDbZombieObject
 90
      499
 91
      510
 93
      225
310
90A3622203D2031272D302200000000000006100000000000000284000
  0
ACAD_PROXY_OBJECT
  5
D9E6
102
{ACAD_REACTORS
330
D9C5
102
}
330
D9C5
100
AcDbZombieObject
 90
      499
 91
      510
 93
      249
310
90D31272D3022203D2031272D30220000000000000A100000000000000284000
  0
ACAD_PROXY_OBJECT
  5
D9BA
102
{ACAD_REACTORS
330
D9B4
102
}
330
D9B4
100
AcDbZombieObject
 90
      499
 91
      509
 93
      436
310
42CC9915DA5C99599C985B595049028333333333333E3BF0000000000000FB0107901411070040501600405405064090741402480A0340
1001
ACAD
1000
AcDbSavedByObjectVersion
1070
     0
  0
ACAD_PROXY_OBJECT
  5
D9BC
102
{ACAD_REACTORS
330
D9B4
102
}
330
D9B4
100
AcDbZombieObject
 90
      499
 91
      509
 93
      500
310
424CD108121A5919195B90640502408333333333333E3BF0000000000000FB01079024090700405020000000000001110200405405064090740C02480A0340
1001
ACAD
1000
AcDbSavedByObjectVersion
1070
     0
  0
ACAD_PROXY_OBJECT
  5
D9BB
102
{ACAD_REACTORS
330
D9B4
102
}
330
D9B4
100
AcDbZombieObject
 90
      499
 91
      509
 93
      436
310
42CCD915DA5C99599C985B595059028333333333333E3BF0000000000000FB0107901411070040501600405405064090741402480A0340
1001
ACAD
1000
AcDbSavedByObjectVersion
1070
     0
  0
ACAD_PROXY_OBJECT
  5
D9B9
102
{ACAD_REACTORS
330
D9B4
102
}
330
D9B4
100
AcDbZombieObject
 90
      499
 91
      509
 93
      388
310
4150985CDA58D07406404333333333333E3BF0000000000000FB0107A41107004050150841D405064090741402480A0350
1001
ACAD
1000
AcDbSavedByObjectVersion
1070
     0
  0
ACAD_PROXY_OBJECT
  5
D9C0
102
{ACAD_REACTORS
330
D9B4
102
}
330
D9B4
100
AcDbZombieObject
 90
      499
 91
      509
 93
      428
310
42109C9A59DA1D195B90C409028333333333333E3BF0000000000000FB010790141107004050150841D405064090741402480A029950
1001
ACAD
1000
AcDbSavedByObjectVersion
1070
     0
  0
ACAD_PROXY_OBJECT
  5
D9C4
102
{ACAD_REACTORS
330
D9B4
102
}
330
D9B4
100
AcDbZombieObject
 90
      499
 91
      509
 93
      452
310
42D0DBDB1BDC90DA185B99D95104090240C333333333333E3BF0000000000000FB0108901411070040501508421405064090741402480A0350
1001
ACAD
1000
AcDbSavedByObjectVersion
1070
     0
  0
ACAD_PROXY_OBJECT
  5
D9BD
102
{ACAD_REACTORS
330
D9B4
102
}
330
D9B4
100
AcDbZombieObject
 90
      499
 91
      509
 93
      500
310
4290DBDB98D95C1D1D585B10940D028333333333333E3BF0000000000000FB0107902409070040501000000000000111010841D405064090740C02480A0340
1001
ACAD
1000
AcDbSavedByObjectVersion
1070
     0
  0
ACAD_PROXY_OBJECT
  5
D9BF
102
{ACAD_REACTORS
330
D9B4
102
}
330
D9B4
100
AcDbZombieObject
 90
      499
 91
      509
 93
      412
310
40D11A5B50B409028333333333333E3BF0000000000000FB010790141107004050150841D405064090741402480A02677FFFFFD0
1001
ACAD
1000
AcDbSavedByObjectVersion
1070
     0
  0
ACAD_PROXY_OBJECT
  5
19C2F
102
{ACAD_REACTORS
330
D9B4
102
}
330
D9B4
100
AcDbZombieObject
 90
      499
 91
      509
 93
      452
310
43115919D950DBDB1BDC93D999916409028333333333333E3BF0000000000000FB010790141107004050150841D405064090741402480A0350
1001
ACAD
1000
AcDbSavedByObjectVersion
1070
     0
  0
ACAD_PROXY_OBJECT
  5
D9C3
102
{ACAD_REACTORS
330
D9B4
102
}
330
D9B4
100
AcDbZombieObject
 90
      499
 91
      509
 93
      444
310
42D19858D95C185D1D195C9B90F409028333333333333E3BF0000000000000FB010790141107004050150841D405064090741402480A0350
1001
ACAD
1000
AcDbSavedByObjectVersion
1070
     0
  0
ACAD_PROXY_OBJECT
  5
D9B5
102
{ACAD_REACTORS
330
D9B4
102
}
330
D9B4
100
AcDbZombieObject
 90
      499
 91
      509
 93
      388
310
41119B185D240901404333333333333E3BF0000000000000F9010740A41107004050150841D405064090741402480A1B50
1001
ACAD
1000
AcDbSavedByObjectVersion
1070
     0
  0
ACAD_PROXY_OBJECT
  5
D9B6
102
{ACAD_REACTORS
330
D9B4
102
}
330
D9B4
100
AcDbZombieObject
 90
      499
 91
      509
 93
      476
310
43519B185D15DA5D1A115919D95CD0140901404333333333333E3BF0000000000000F9010740901411070040501600405405064090741402480A1B50
1001
ACAD
1000
AcDbSavedByObjectVersion
1070
     0
  0
ACAD_PROXY_OBJECT
  5
D9B7
102
{ACAD_REACTORS
330
D9B4
102
}
330
D9B4
100
AcDbZombieObject
 90
      499
 91
      509
 93
      412
310
41D1DBDD5C985D5910240902404333333333333E3BF0000000000000F9010740A411070040501641D405064090741402480A1B50
1001
ACAD
1000
AcDbSavedByObjectVersion
1070
     0
  0
ACAD_PROXY_OBJECT
  5
D9B8
102
{ACAD_REACTORS
330
D9B4
102
}
330
D9B4
100
AcDbZombieObject
 90
      499
 91
      509
 93
      500
310
4411DBDD5C985D5915DA5D1A115919D95CD0340902404333333333333E3BF0000000000000F9010740901411070040501600405405064090741402480A1B50
1001
ACAD
1000
AcDbSavedByObjectVersion
1070
     0
  0
ACAD_PROXY_OBJECT
  5
19C7E
102
{ACAD_REACTORS
330
D9B4
102
}
330
D9B4
100
AcDbZombieObject
 90
      499
 91
      509
 93
      476
310
41921A5919195B90640502408333333333333E3BF0000000000000FB01079024090700405020000000000001110200405405064090740C02480A0340
1001
ACAD
1000
AcDbSavedByObjectVersion
1070
     0
  0
ACAD_PROXY_OBJECT
  5
19C2D
102
{ACAD_REACTORS
330
D9B4
102
}
330
D9B4
100
AcDbZombieObject
 90
      499
 91
      509
 93
      428
310
42529A5D1D195C93D999914409028333333333333E3BF0000000000000FB010790141107004050150A41D405064090741402480A0350
1001
ACAD
1000
AcDbSavedByObjectVersion
1070
     0
  0
ACAD_PROXY_OBJECT
  5
D9C2
102
{ACAD_REACTORS
330
D9B4
102
}
330
D9B4
100
AcDbZombieObject
 90
      499
 91
      509
 93
      444
310
42D31A5B995C185D1D195C9B90E409028333333333333E3BF0000000000000FB010790141107004050750841D405064090741402483A0350
1001
ACAD
1000
AcDbSavedByObjectVersion
1070
     0
  0
ACAD_PROXY_OBJECT
  5
19C84
102
{ACAD_REACTORS
330
D9B4
102
}
330
D9B4
100
AcDbZombieObject
 90
      499
 91
      509
 93
      484
310
42135BD9195B1A5B99D0A409028333333333333E3BF0000000000000F901074090290700405010000000000201990108421405064090741402480A1B40
1001
ACAD
1000
AcDbSavedByObjectVersion
1070
     0
  0
ACAD_PROXY_OBJECT
  5
19C2E
102
{ACAD_REACTORS
330
D9B4
102
}
330
D9B4
100
AcDbZombieObject
 90
      499
 91
      509
 93
      444
310
42D3DD995C9A185B99D3D999915409028333333333333E3BF0000000000000FB010790141107004050150941D405064090741402480A0350
1001
ACAD
1000
AcDbSavedByObjectVersion
1070
     0
  0
ACAD_PROXY_OBJECT
  5
D9BE
102
{ACAD_REACTORS
330
D9B4
102
}
330
D9B4
100
AcDbZombieObject
 90
      499
 91
      509
 93
      420
310
425499585B1A5CDD1A58D08409028333333333333E3BF0000000000000FB01079019070040501508421405064090741402480A1B40
1001
ACAD
1000
AcDbSavedByObjectVersion
1070
     0
  0
ACAD_PROXY_OBJECT
  5
19C83
102
{ACAD_REACTORS
330
D9B4
102
}
330
D9B4
100
AcDbZombieObject
 90
      499
 91
      509
 93
      420
310
4194DA1859195911B40902404333333333333E3BF0000000000000F9010740A41107004050150800405405064090840C02480A0B40
1001
ACAD
1000
AcDbSavedByObjectVersion
1070
     0
  0
ACAD_PROXY_OBJECT
  5
19C82
102
{ACAD_REACTORS
330
D9B4
102
}
330
D9B4
100
AcDbZombieObject
 90
      499
 91
      509
 93
      516
310
4454DA18591959081DDA5D1A08195919D95CD1A40902404333333333333E3BF0000000000000F901074090142907004050250800405405064090740C02480A0B40
1001
ACAD
1000
AcDbSavedByObjectVersion
1070
     0
  0
ACAD_PROXY_OBJECT
  5
19C7F
102
{ACAD_REACTORS
330
D9B4
102
}
330
D9B4
100
AcDbZombieObject
 90
      499
 91
      509
 93
      532
310
4394DA1859195CC81BD98811DC985E5174090240C333333333333E3BF0000000000000FB01079024090741D01000000000000111010841D405064090740C02480A0340
1001
ACAD
1000
AcDbSavedByObjectVersion
1070
     0
  0
ACAD_PROXY_OBJECT
  5
19C80
102
{ACAD_REACTORS
330
D9B4
102
}
330
D9B4
100
AcDbZombieObject
 90
      499
 91
      509
 93
      476
310
41D4DAD95D18DA1E51840502408333333333333E3BF0000000000000FB01079024090741D01000000000000111010B41D405064090741802480A0340
1001
ACAD
1000
AcDbSavedByObjectVersion
1070
     0
  0
ACAD_PROXY_OBJECT
  5
D9C1
102
{ACAD_REACTORS
330
D9B4
102
}
330
D9B4
100
AcDbZombieObject
 90
      499
 91
      509
 93
      412
310
41D51A1A58DAD95B90D409028333333333333E3BF0000000000000FB010790141107004050150C41D405064090741402480A0350
1001
ACAD
1000
AcDbSavedByObjectVersion
1070
     0
  0
ACAD_PROXY_OBJECT
  5
19C7D
102
{ACAD_REACTORS
330
D9B4
102
}
330
D9B4
100
AcDbZombieObject
 90
      499
 91
      509
 93
      420
310
4255DA5C99599C985B595059028333333333333E3BF0000000000000FB0107901411070040501600405405064090740C02480A0340
1001
ACAD
1000
AcDbSavedByObjectVersion
1070
     0
  0
ACAD_PROXY_OBJECT
  5
19C81
102
{ACAD_REACTORS
330
D9B4
102
}
330
D9B4
100
AcDbZombieObject
 90
      499
 91
      509
 93
      404
310
41560B54985E51940902404000000000000E03F0000000000000FB010740501907004050150841D405064090740C02480A1B40
1001
ACAD
1000
AcDbSavedByObjectVersion
1070
     0
  0
XRECORD
  5
1B97A
102
{ACAD_REACTORS
330
1B979
102
}
330
1B979
100
AcDbXrecord
340
18D
  0
XRECORD
  5
1B97B
102
{ACAD_REACTORS
330
1B979
102
}
330
1B979
100
AcDbXrecord
340
18C
  0
DICTIONARYVAR
  5
1A4C6
102
{ACAD_REACTORS
330
37
102
}
330
37
100
DictionaryVariables
280
     0
  1
1:1
  0
DICTIONARYVAR
  5
DA6A
102
{ACAD_REACTORS
330
37
102
}
330
37
100
DictionaryVariables
280
     0
  1
Standard
  0
DICTIONARYVAR
  5
29E
102
{ACAD_REACTORS
330
37
102
}
330
37
100
DictionaryVariables
280
     0
  1
Standard
  0
DICTIONARYVAR
  5
38
102
{ACAD_REACTORS
330
37
102
}
330
37
100
DictionaryVariables
280
     0
  1
-1
  0
DICTIONARYVAR
  5
1CE
102
{ACAD_REACTORS
330
37
102
}
330
37
100
DictionaryVariables
280
     0
  1
2
  0
DICTIONARYVAR
  5
704E
102
{ACAD_REACTORS
330
37
102
}
330
37
100
DictionaryVariables
280
     0
  1
1
  0
DICTIONARYVAR
  5
DA6D
102
{ACAD_REACTORS
330
37
102
}
330
37
100
DictionaryVariables
280
     0
  1
0
  0
DICTIONARYVAR
  5
7052
102
{ACAD_REACTORS
330
37
102
}
330
37
100
DictionaryVariables
280
     0
  1
8
  0
DICTIONARYVAR
  5
7051
102
{ACAD_REACTORS
330
37
102
}
330
37
100
DictionaryVariables
280
     0
  1
1
  0
DICTIONARYVAR
  5
1A516
102
{ACAD_REACTORS
330
37
102
}
330
37
100
DictionaryVariables
280
     0
  1
0
  0
DICTIONARYVAR
  5
704F
102
{ACAD_REACTORS
330
37
102
}
330
37
100
DictionaryVariables
280
     0
  1
8
  0
DICTIONARYVAR
  5
7050
102
{ACAD_REACTORS
330
37
102
}
330
37
100
DictionaryVariables
280
     0
  1
2
  0
DICTIONARYVAR
  5
1CF
102
{ACAD_REACTORS
330
37
102
}
330
37
100
DictionaryVariables
280
     0
  1

  0
DICTIONARYVAR
  5
DA6C
102
{ACAD_REACTORS
330
37
102
}
330
37
100
DictionaryVariables
280
     0
  1
127
  0
DICTIONARYVAR
  5
1B73E
102
{ACAD_REACTORS
330
37
102
}
330
37
100
DictionaryVariables
280
     0
  1
2
  0
DICTIONARY
  5
1BB17
330
D9A4
100
AcDbDictionary
  3
ACAD_XREC_ROUNDTRIP
360
1BB18
1001
ACAD
1000
TREAT_AS_HARD
1070
     1
  0
DICTIONARY
  5
1BB19
330
D99C
100
AcDbDictionary
  3
ACAD_XREC_ROUNDTRIP
360
1BB1A
1001
ACAD
1000
TREAT_AS_HARD
1070
     1
  0
DICTIONARY
  5
1BB1B
330
D9AC
100
AcDbDictionary
  3
ACAD_XREC_ROUNDTRIP
360
1BB1C
1001
ACAD
1000
TREAT_AS_HARD
1070
     1
  0
XRECORD
  5
1BB18
102
{ACAD_REACTORS
330
1BB17
102
}
330
1BB17
100
AcDbXrecord
102
MATERIAL
148
0.0
149
0.0
149
0.0
 93
        0
 94
      127
282
     0
 72
     0
 77
     0
171
     0
175
     0
179
     0
273
     0
  0
XRECORD
  5
1BB1A
102
{ACAD_REACTORS
330
1BB19
102
}
330
1BB19
100
AcDbXrecord
102
MATERIAL
148
0.0
149
0.0
149
0.0
 93
        0
 94
      127
282
     0
 72
     0
 77
     0
171
     0
175
     0
179
     0
273
     0
  0
XRECORD
  5
1BB1C
102
{ACAD_REACTORS
330
1BB1B
102
}
330
1BB1B
100
AcDbXrecord
102
MATERIAL
148
0.0
149
0.0
149
0.0
 93
        0
 94
      127
282
     0
 72
     0
 77
     0
171
     0
175
     0
179
     0
273
     0
  0
ENDSEC
  0
EOF
