  0
SECTION
  2
HEADER
  9
$ACADVER
  1
AC1009
  9
$INSBASE
 10
0.0
 20
0.0
 30
0.0
  9
$EXTMIN
 10
579.68759999999997
 20
-1468.0699999999999
 30
0.0
  9
$EXTMAX
 10
1127.9878000000001
 20
-1065.747445126691
 30
0.0
  9
$LIMMIN
 10
0.0
 20
0.0
  9
$LIMMAX
 10
420.0
 20
297.0
  9
$ORTHOMODE
 70
     0
  9
$REGENMODE
 70
     1
  9
$FILLMODE
 70
     1
  9
$QTEXTMODE
 70
     0
  9
$MIRRTEXT
 70
     0
  9
$DRAGMODE
 70
     2
  9
$LTSCALE
 40
0.5
  9
$OSMODE
 70
  2173
  9
$ATTMODE
 70
     1
  9
$TEXTSIZE
 40
4.0
  9
$TRACEWID
 40
1.0
  9
$TEXTSTYLE
  7
STANDARD
  9
$CLAYER
  8
1TEXT
  9
$CELTYPE
  6
BYLAYER
  9
$CECOLOR
 62
   256
  9
$DIMSCALE
 40
1.0
  9
$DIMASZ
 40
2.0
  9
$DIMEXO
 40
0.0
  9
$DIMDLI
 40
7.0
  9
$DIMRND
 40
0.0
  9
$DIMDLE
 40
0.0
  9
$DIMEXE
 40
1.0
  9
$DIMTP
 40
0.0
  9
$DIMTM
 40
0.0
  9
$DIMTXT
 40
3.5
  9
$DIMCEN
 40
0.0
  9
$DIMTSZ
 40
0.0
  9
$DIMTOL
 70
     0
  9
$DIMLIM
 70
     0
  9
$DIMTIH
 70
     0
  9
$DIMTOH
 70
     0
  9
$DIMSE1
 70
     0
  9
$DIMSE2
 70
     0
  9
$DIMTAD
 70
     1
  9
$DIMZIN
 70
     8
  9
$DIMBLK
  1

  9
$DIMASO
 70
     1
  9
$DIMSHO
 70
     1
  9
$DIMPOST
  1
 
  9
$DIMAPOST
  1

  9
$DIMALT
 70
     0
  9
$DIMALTD
 70
     2
  9
$DIMALTF
 40
25.399999999999999
  9
$DIMLFAC
 40
1.0
  9
$DIMTOFL
 70
     1
  9
$DIMTVP
 40
0.0
  9
$DIMTIX
 70
     0
  9
$DIMSOXD
 70
     0
  9
$DIMSAH
 70
     1
  9
$DIMBLK1
  1
OPEN30
  9
$DIMBLK2
  1
OPEN30
  9
$DIMSTYLE
  2
NEWX10
  9
$DIMCLRD
 70
   256
  9
$DIMCLRE
 70
   256
  9
$DIMCLRT
 70
   201
  9
$DIMTFAC
 40
0.7
  9
$DIMGAP
 40
0.7
  9
$LUNITS
 70
     2
  9
$LUPREC
 70
     4
  9
$SKETCHINC
 40
1.0
  9
$FILLETRAD
 40
0.0
  9
$AUNITS
 70
     0
  9
$AUPREC
 70
     2
  9
$MENU
  1
acad
  9
$ELEVATION
 40
0.0
  9
$PELEVATION
 40
0.0
  9
$THICKNESS
 40
0.0
  9
$LIMCHECK
 70
     0
  9
$BLIPMODE
 70
     0
  9
$CHAMFERA
 40
10.0
  9
$CHAMFERB
 40
10.0
  9
$SKPOLY
 70
     0
  9
$TDCREATE
 40
2451318.6214000001
  9
$TDUPDATE
 40
2453410.4687885181
  9
$TDINDWG
 40
0.4364182639
  9
$TDUSRTIMER
 40
0.4364182639
  9
$USRTIMER
 70
     1
  9
$ANGBASE
 50
0.0
  9
$ANGDIR
 70
     0
  9
$PDMODE
 70
     0
  9
$PDSIZE
 40
0.0
  9
$PLINEWID
 40
0.0
  9
$COORDS
 70
     2
  9
$SPLFRAME
 70
     0
  9
$SPLINETYPE
 70
     6
  9
$SPLINESEGS
 70
     8
  9
$ATTDIA
 70
     0
  9
$ATTREQ
 70
     1
  9
$HANDLING
 70
     1
  9
$HANDSEED
  5
FCBB
  9
$SURFTAB1
 70
     6
  9
$SURFTAB2
 70
     6
  9
$SURFTYPE
 70
     6
  9
$SURFU
 70
     6
  9
$SURFV
 70
     6
  9
$UCSNAME
  2

  9
$UCSORG
 10
0.0
 20
0.0
 30
0.0
  9
$UCSXDIR
 10
1.0
 20
0.0
 30
0.0
  9
$UCSYDIR
 10
0.0
 20
1.0
 30
0.0
  9
$PUCSNAME
  2

  9
$PUCSORG
 10
0.0
 20
0.0
 30
0.0
  9
$PUCSXDIR
 10
1.0
 20
0.0
 30
0.0
  9
$PUCSYDIR
 10
0.0
 20
1.0
 30
0.0
  9
$USERI1
 70
     0
  9
$USERI2
 70
     0
  9
$USERI3
 70
     0
  9
$USERI4
 70
     0
  9
$USERI5
 70
     0
  9
$USERR1
 40
0.0
  9
$USERR2
 40
0.0
  9
$USERR3
 40
0.0
  9
$USERR4
 40
0.0
  9
$USERR5
 40
0.0
  9
$WORLDVIEW
 70
     1
  9
$SHADEDGE
 70
     3
  9
$SHADEDIF
 70
    70
  9
$TILEMODE
 70
     1
  9
$MAXACTVP
 70
    48
  9
$PLIMCHECK
 70
     0
  9
$PEXTMIN
 10
1.0000000000000000E+020
 20
1.0000000000000000E+020
 30
1.0000000000000000E+020
  9
$PEXTMAX
 10
-1.0000000000000000E+020
 20
-1.0000000000000000E+020
 30
-1.0000000000000000E+020
  9
$PLIMMIN
 10
0.0
 20
0.0
  9
$PLIMMAX
 10
420.0
 20
297.0
  9
$UNITMODE
 70
     0
  9
$VISRETAIN
 70
     1
  9
$PLINEGEN
 70
     0
  9
$PSLTSCALE
 70
     1
  0
ENDSEC
  0
SECTION
  2
TABLES
  0
TABLE
  2
VPORT
 70
     4
  0
VPORT
  2
*ACTIVE
 70
     0
 10
0.0
 20
0.0
 11
1.0
 21
1.0
 12
853.86544024408965
 22
-1266.9160400100191
 13
0.0
 23
0.0
 14
10.0
 24
10.0
 15
10.0
 25
10.0
 16
0.0
 26
0.0
 36
1.0
 17
0.0
 27
0.0
 37
0.0
 40
427.00623637423149
 41
1.453246753246753
 42
50.0
 43
0.0
 44
0.0
 50
0.0
 51
0.0
 71
     0
 72
   100
 73
     1
 74
     1
 75
     0
 76
     0
 77
     0
 78
     0
  0
ENDTAB
  0
TABLE
  2
LTYPE
 70
     6
  0
LTYPE
  2
CONTINUOUS
 70
     0
  3
Solid line
 72
    65
 73
     0
 40
0.0
  0
LTYPE
  2
CENTER2
 70
     0
  3
Center (.5x) ___ _ ___ _ ___ _ ___ _ ___ _ ___
 72
    65
 73
     4
 40
28.574999999999999
 49
19.050000000000001
 49
-3.1749999999999989
 49
3.1749999999999989
 49
-3.1749999999999989
  0
LTYPE
  2
HIDDEN
 70
     0
  3
Hidden __ __ __ __ __ __ __ __ __ __ __ __ __ _
 72
    65
 73
     2
 40
9.5250000000000004
 49
6.3499999999999988
 49
-3.1749999999999989
  0
LTYPE
  2
PHANTOM2
 70
     0
  3
Phantom (.5x) ___ _ _ ___ _ _ ___ _ _ ___ _ _
 72
    65
 73
     6
 40
31.75
 49
15.875
 49
-3.1749999999999989
 49
3.1749999999999989
 49
-3.1749999999999989
 49
3.1749999999999989
 49
-3.1749999999999989
  0
ENDTAB
  0
TABLE
  2
LAYER
 70
    13
  0
LAYER
  2
0
 70
     0
 62
     7
  6
CONTINUOUS
  0
LAYER
  2
1TEXT
 70
     0
 62
     7
  6
CONTINUOUS
  0
LAYER
  2
1CENTER
 70
     0
 62
     7
  6
CENTER2
  0
LAYER
  2
01
 70
     0
 62
     1
  6
CONTINUOUS
  0
LAYER
  2
1DIM
 70
     0
 62
     7
  6
CONTINUOUS
  0
LAYER
  2
1HIDDEN
 70
     0
 62
     7
  6
HIDDEN
  0
LAYER
  2
1PHANTOM
 70
     0
 62
     7
  6
PHANTOM2
  0
ENDTAB
  0
TABLE
  2
STYLE
 70
     1
  0
STYLE
  2
STANDARD
 70
     0
 40
0.0
 41
1.0
 50
0.0
 71
     0
 42
4.0
  3
txt.shx
  4
extfont.shx
  0
ENDTAB
  0
TABLE
  2
VIEW
 70
     0
  0
ENDTAB
  0
TABLE
  2
UCS
 70
     0
  0
ENDTAB
  0
TABLE
  2
APPID
 70
     8
  0
APPID
  2
ACAD
 70
     0
  0
APPID
  2
DRAWINGVARIABLESXDATA
 70
     0
  0
APPID
  2
CONTENTTABDATA
 70
     0
  0
APPID
  2
CONTENTCURRENTTAB
 70
     0
  0
APPID
  2
CONTENTBLOCKDESCRIPTION
 70
     0
  0
APPID
  2
CONTENTBLOCKICON
 70
     0
  0
APPID
  2
CONTENTLONGBLOCKNAME
 70
     0
  0
APPID
  2
ACAD_PSEXT
 70
     0
  0
ENDTAB
  0
TABLE
  2
DIMSTYLE
 70
     1
  0
DIMSTYLE
  2
NEWX10
 70
     0
  3
 
  4

  5

  6

  7

 40
1.0
 41
2.0
 42
0.0
 43
7.0
 44
1.0
 45
0.0
 46
0.0
 47
0.0
 48
0.0
140
3.5
141
0.0
142
0.0
143
25.399999999999999
144
1.0
145
0.0
146
0.7
147
0.7
 71
     0
 72
     0
 73
     0
 74
     0
 75
     0
 76
     0
 77
     1
 78
     8
170
     0
171
     2
172
     1
173
     1
174
     0
175
     0
176
   256
177
   256
178
   201
  0
ENDTAB
  0
ENDSEC
  0
SECTION
  2
BLOCKS
  0
BLOCK
  8
0
  2
$MODEL_SPACE
 70
     0
 10
0.0
 20
0.0
 30
0.0
  3
$MODEL_SPACE
  1

  0
ENDBLK
  5
FC55
  8
0
  0
BLOCK
 67
     1
  8
0
  2
$PAPER_SPACE
 70
     0
 10
0.0
 20
0.0
 30
0.0
  3
$PAPER_SPACE
  1

  0
ENDBLK
  5
FC51
 67
     1
  8
0
  0
BLOCK
  8
0
  2
_OPEN30
 70
     0
 10
0.0
 20
0.0
 30
0.0
  3
_OPEN30
  1

  0
LINE
  5
44
  8
0
  6
BYBLOCK
 62
     0
 10
-1.0
 20
0.2679
 30
0.0
 11
0.0
 21
0.0
 31
0.0
  0
LINE
  5
45
  8
0
  6
BYBLOCK
 62
     0
 10
0.0
 20
0.0
 30
0.0
 11
-1.0
 21
-0.2679
 31
0.0
  0
LINE
  5
46
  8
0
  6
BYBLOCK
 62
     0
 10
0.0
 20
0.0
 30
0.0
 11
-1.0
 21
0.0
 31
0.0
  0
ENDBLK
  5
47
  8
0
  0
ENDSEC
  0
SECTION
  2
ENTITIES
  0
LINE
  5
9986
  8
01
 10
855.68769999999995
 20
-1320.7366999999999
 30
0.0
 11
855.68769999999995
 21
-1468.0699999999999
 31
0.0
  0
LINE
  5
9987
  8
01
 10
815.68769999999995
 20
-1320.7366999999999
 30
0.0
 11
815.68769999999995
 21
-1468.0699999999999
 31
0.0
  0
LINE
  5
9988
  8
01
 10
715.78769999999997
 20
-1327.2340999999999
 30
0.0
 11
715.78769999999997
 21
-1350.3341
 31
0.0
  0
LINE
  5
9989
  8
01
 10
714.18769999999995
 20
-1327.2340999999999
 30
0.0
 11
714.18769999999995
 21
-1350.2340999999999
 31
0.0
  0
LINE
  5
998A
  8
01
 10
716.58770000000004
 20
-1327.2340999999999
 30
0.0
 11
716.58770000000004
 21
-1457.2340999999999
 31
0.0
  0
LINE
  5
998B
  8
01
 10
718.18769999999995
 20
-1327.2340999999999
 30
0.0
 11
718.18769999999995
 21
-1457.2340999999999
 31
0.0
  0
LINE
  5
998C
  8
01
 10
715.18769999999995
 20
-1355.2340999999999
 30
0.0
 11
686.82920000000001
 21
-1355.2340999999999
 31
0.0
  0
LINE
  5
998D
  8
01
 10
715.18769999999995
 20
-1429.2340999999999
 30
0.0
 11
688.31230000000005
 21
-1429.2340999999999
 31
0.0
  0
LINE
  5
998E
  8
01
 10
649.18769999999995
 20
-1365.9828
 30
0.0
 11
649.18769999999995
 21
-1380.6406999999999
 31
0.0
  0
LINE
  5
998F
  8
01
 10
724.18769999999995
 20
-1381.2340999999999
 30
0.0
 11
718.18769999999995
 21
-1381.2340999999999
 31
0.0
  0
LINE
  5
9990
  8
01
 10
729.18769999999995
 20
-1386.2340999999999
 30
0.0
 11
719.18769999999995
 21
-1386.2340999999999
 31
0.0
  0
POLYLINE
  5
9991
  8
01
 66
     1
 10
0.0
 20
0.0
 30
0.0
 70
     8
  0
VERTEX
  5
FA2A
  8
01
 10
729.18799999999987
 20
-1384.8
 30
0.0
 70
    32
  0
VERTEX
  5
FA2B
  8
01
 10
729.18600000000004
 20
-1384.71
 30
0.0
 70
    32
  0
VERTEX
  5
FA2C
  8
01
 10
729.18200000000002
 20
-1384.6300000000001
 30
0.0
 70
    32
  0
VERTEX
  5
FA2D
  8
01
 10
729.17399999999986
 20
-1384.54
 30
0.0
 70
    32
  0
VERTEX
  5
FA2E
  8
01
 10
729.16399999999999
 20
-1384.45
 30
0.0
 70
    32
  0
VERTEX
  5
FA2F
  8
01
 10
729.14999999999998
 20
-1384.3699999999999
 30
0.0
 70
    32
  0
VERTEX
  5
FA30
  8
01
 10
729.1339999999999
 20
-1384.28
 30
0.0
 70
    32
  0
VERTEX
  5
FA31
  8
01
 10
729.11399999999992
 20
-1384.1900000000001
 30
0.0
 70
    32
  0
VERTEX
  5
FA32
  8
01
 10
729.09199999999987
 20
-1384.1099999999999
 30
0.0
 70
    32
  0
VERTEX
  5
FA33
  8
01
 10
729.06600000000003
 20
-1384.02
 30
0.0
 70
    32
  0
VERTEX
  5
FA34
  8
01
 10
729.0379999999999
 20
-1383.9400000000001
 30
0.0
 70
    32
  0
VERTEX
  5
FA35
  8
01
 10
729.00699999999995
 20
-1383.8499999999999
 30
0.0
 70
    32
  0
VERTEX
  5
FA36
  8
01
 10
728.97199999999987
 20
-1383.77
 30
0.0
 70
    32
  0
VERTEX
  5
FA37
  8
01
 10
728.93499999999995
 20
-1383.6800000000001
 30
0.0
 70
    32
  0
VERTEX
  5
FA38
  8
01
 10
728.89499999999987
 20
-1383.5999999999999
 30
0.0
 70
    32
  0
VERTEX
  5
FA39
  8
01
 10
728.85299999999995
 20
-1383.52
 30
0.0
 70
    32
  0
VERTEX
  5
FA3A
  8
01
 10
728.80700000000002
 20
-1383.4400000000001
 30
0.0
 70
    32
  0
VERTEX
  5
FA3B
  8
01
 10
728.75899999999979
 20
-1383.3599999999999
 30
0.0
 70
    32
  0
VERTEX
  5
FA3C
  8
01
 10
728.70800000000008
 20
-1383.28
 30
0.0
 70
    32
  0
VERTEX
  5
FA3D
  8
01
 10
728.654
 20
-1383.2
 30
0.0
 70
    32
  0
VERTEX
  5
FA3E
  8
01
 10
728.59699999999987
 20
-1383.1199999999999
 30
0.0
 70
    32
  0
VERTEX
  5
FA3F
  8
01
 10
728.5379999999999
 20
-1383.04
 30
0.0
 70
    32
  0
VERTEX
  5
FA40
  8
01
 10
728.47600000000011
 20
-1382.97
 30
0.0
 70
    32
  0
VERTEX
  5
FA41
  8
01
 10
728.41199999999992
 20
-1382.8900000000001
 30
0.0
 70
    32
  0
VERTEX
  5
FA42
  8
01
 10
728.34500000000003
 20
-1382.8199999999999
 30
0.0
 70
    32
  0
VERTEX
  5
FA43
  8
01
 10
728.27599999999995
 20
-1382.75
 30
0.0
 70
    32
  0
VERTEX
  5
FA44
  8
01
 10
728.20399999999995
 20
-1382.6800000000001
 30
0.0
 70
    32
  0
VERTEX
  5
FA45
  8
01
 10
728.12899999999991
 20
-1382.6099999999999
 30
0.0
 70
    32
  0
VERTEX
  5
FA46
  8
01
 10
728.05299999999988
 20
-1382.54
 30
0.0
 70
    32
  0
VERTEX
  5
FA47
  8
01
 10
727.97399999999993
 20
-1382.47
 30
0.0
 70
    32
  0
VERTEX
  5
FA48
  8
01
 10
727.89199999999994
 20
-1382.4100000000001
 30
0.0
 70
    32
  0
VERTEX
  5
FA49
  8
01
 10
727.80899999999986
 20
-1382.3399999999999
 30
0.0
 70
    32
  0
VERTEX
  5
FA4A
  8
01
 10
727.72300000000007
 20
-1382.28
 30
0.0
 70
    32
  0
VERTEX
  5
FA4B
  8
01
 10
727.63499999999988
 20
-1382.22
 30
0.0
 70
    32
  0
VERTEX
  5
FA4C
  8
01
 10
727.54499999999985
 20
-1382.1600000000001
 30
0.0
 70
    32
  0
VERTEX
  5
FA4D
  8
01
 10
727.45399999999995
 20
-1382.0999999999999
 30
0.0
 70
    32
  0
VERTEX
  5
FA4E
  8
01
 10
727.36000000000001
 20
-1382.04
 30
0.0
 70
    32
  0
VERTEX
  5
FA4F
  8
01
 10
727.2639999999999
 20
-1381.99
 30
0.0
 70
    32
  0
VERTEX
  5
FA50
  8
01
 10
727.16600000000005
 20
-1381.9400000000001
 30
0.0
 70
    32
  0
VERTEX
  5
FA51
  8
01
 10
727.06699999999989
 20
-1381.8800000000001
 30
0.0
 70
    32
  0
VERTEX
  5
FA52
  8
01
 10
726.96600000000001
 20
-1381.8399999999999
 30
0.0
 70
    32
  0
VERTEX
  5
FA53
  8
01
 10
726.86300000000006
 20
-1381.79
 30
0.0
 70
    32
  0
VERTEX
  5
FA54
  8
01
 10
726.75800000000004
 20
-1381.74
 30
0.0
 70
    32
  0
VERTEX
  5
FA55
  8
01
 10
726.65199999999993
 20
-1381.7
 30
0.0
 70
    32
  0
VERTEX
  5
FA56
  8
01
 10
726.54499999999985
 20
-1381.6600000000001
 30
0.0
 70
    32
  0
VERTEX
  5
FA57
  8
01
 10
726.43600000000004
 20
-1381.6199999999999
 30
0.0
 70
    32
  0
VERTEX
  5
FA58
  8
01
 10
726.32500000000005
 20
-1381.5799999999999
 30
0.0
 70
    32
  0
VERTEX
  5
FA59
  8
01
 10
726.21399999999994
 20
-1381.54
 30
0.0
 70
    32
  0
VERTEX
  5
FA5A
  8
01
 10
726.10100000000011
 20
-1381.51
 30
0.0
 70
    32
  0
VERTEX
  5
FA5B
  8
01
 10
725.98699999999985
 20
-1381.47
 30
0.0
 70
    32
  0
VERTEX
  5
FA5C
  8
01
 10
725.87199999999984
 20
-1381.4400000000001
 30
0.0
 70
    32
  0
VERTEX
  5
FA5D
  8
01
 10
725.75599999999997
 20
-1381.4100000000001
 30
0.0
 70
    32
  0
VERTEX
  5
FA5E
  8
01
 10
725.63899999999978
 20
-1381.3900000000001
 30
0.0
 70
    32
  0
VERTEX
  5
FA5F
  8
01
 10
725.52099999999996
 20
-1381.3599999999999
 30
0.0
 70
    32
  0
VERTEX
  5
FA60
  8
01
 10
725.40300000000002
 20
-1381.3399999999999
 30
0.0
 70
    32
  0
VERTEX
  5
FA61
  8
01
 10
725.28300000000002
 20
-1381.3199999999999
 30
0.0
 70
    32
  0
VERTEX
  5
FA62
  8
01
 10
725.16300000000001
 20
-1381.3
 30
0.0
 70
    32
  0
VERTEX
  5
FA63
  8
01
 10
725.04300000000001
 20
-1381.29
 30
0.0
 70
    32
  0
VERTEX
  5
FA64
  8
01
 10
724.92100000000005
 20
-1381.27
 30
0.0
 70
    32
  0
VERTEX
  5
FA65
  8
01
 10
724.79999999999995
 20
-1381.26
 30
0.0
 70
    32
  0
VERTEX
  5
FA66
  8
01
 10
724.678
 20
-1381.25
 30
0.0
 70
    32
  0
VERTEX
  5
FA67
  8
01
 10
724.55600000000004
 20
-1381.24
 30
0.0
 70
    32
  0
VERTEX
  5
FA68
  8
01
 10
724.43299999999988
 20
-1381.24
 30
0.0
 70
    32
  0
VERTEX
  5
FA69
  8
01
 10
724.30999999999995
 20
-1381.24
 30
0.0
 70
    32
  0
VERTEX
  5
FA6A
  8
01
 10
724.18799999999999
 20
-1381.23
 30
0.0
 70
    32
  0
VERTEX
  5
FA6B
  8
01
 10
724.06500000000005
 20
-1381.24
 30
0.0
 70
    32
  0
VERTEX
  5
FA6C
  8
01
 10
723.94199999999989
 20
-1381.24
 30
0.0
 70
    32
  0
VERTEX
  5
FA6D
  8
01
 10
723.82000000000005
 20
-1381.24
 30
0.0
 70
    32
  0
VERTEX
  5
FA6E
  8
01
 10
723.69799999999987
 20
-1381.25
 30
0.0
 70
    32
  0
VERTEX
  5
FA6F
  8
01
 10
723.57599999999991
 20
-1381.26
 30
0.0
 70
    32
  0
VERTEX
  5
FA70
  8
01
 10
723.45399999999995
 20
-1381.27
 30
0.0
 70
    32
  0
VERTEX
  5
FA71
  8
01
 10
723.33300000000008
 20
-1381.29
 30
0.0
 70
    32
  0
VERTEX
  5
FA72
  8
01
 10
723.21199999999999
 20
-1381.3
 30
0.0
 70
    32
  0
VERTEX
  5
FA73
  8
01
 10
723.09199999999998
 20
-1381.3199999999999
 30
0.0
 70
    32
  0
VERTEX
  5
FA74
  8
01
 10
722.97299999999996
 20
-1381.3399999999999
 30
0.0
 70
    32
  0
VERTEX
  5
FA75
  8
01
 10
722.85399999999993
 20
-1381.3599999999999
 30
0.0
 70
    32
  0
VERTEX
  5
FA76
  8
01
 10
722.73599999999999
 20
-1381.3900000000001
 30
0.0
 70
    32
  0
VERTEX
  5
FA77
  8
01
 10
722.61899999999991
 20
-1381.4100000000001
 30
0.0
 70
    32
  0
VERTEX
  5
FA78
  8
01
 10
722.50300000000004
 20
-1381.4400000000001
 30
0.0
 70
    32
  0
VERTEX
  5
FA79
  8
01
 10
722.38800000000003
 20
-1381.47
 30
0.0
 70
    32
  0
VERTEX
  5
FA7A
  8
01
 10
722.27399999999989
 20
-1381.51
 30
0.0
 70
    32
  0
VERTEX
  5
FA7B
  8
01
 10
722.16099999999994
 20
-1381.54
 30
0.0
 70
    32
  0
VERTEX
  5
FA7C
  8
01
 10
722.04999999999995
 20
-1381.5799999999999
 30
0.0
 70
    32
  0
VERTEX
  5
FA7D
  8
01
 10
721.94000000000005
 20
-1381.6199999999999
 30
0.0
 70
    32
  0
VERTEX
  5
FA7E
  8
01
 10
721.83100000000002
 20
-1381.6600000000001
 30
0.0
 70
    32
  0
VERTEX
  5
FA7F
  8
01
 10
721.72299999999996
 20
-1381.7
 30
0.0
 70
    32
  0
VERTEX
  5
FA80
  8
01
 10
721.61699999999985
 20
-1381.74
 30
0.0
 70
    32
  0
VERTEX
  5
FA81
  8
01
 10
721.51300000000003
 20
-1381.79
 30
0.0
 70
    32
  0
VERTEX
  5
FA82
  8
01
 10
721.40999999999997
 20
-1381.8399999999999
 30
0.0
 70
    32
  0
VERTEX
  5
FA83
  8
01
 10
721.30899999999997
 20
-1381.8800000000001
 30
0.0
 70
    32
  0
VERTEX
  5
FA84
  8
01
 10
721.20899999999995
 20
-1381.9400000000001
 30
0.0
 70
    32
  0
VERTEX
  5
FA85
  8
01
 10
721.11199999999997
 20
-1381.99
 30
0.0
 70
    32
  0
VERTEX
  5
FA86
  8
01
 10
721.01600000000008
 20
-1382.04
 30
0.0
 70
    32
  0
VERTEX
  5
FA87
  8
01
 10
720.92200000000003
 20
-1382.0999999999999
 30
0.0
 70
    32
  0
VERTEX
  5
FA88
  8
01
 10
720.83000000000004
 20
-1382.1600000000001
 30
0.0
 70
    32
  0
VERTEX
  5
FA89
  8
01
 10
720.7399999999999
 20
-1382.22
 30
0.0
 70
    32
  0
VERTEX
  5
FA8A
  8
01
 10
720.65199999999993
 20
-1382.28
 30
0.0
 70
    32
  0
VERTEX
  5
FA8B
  8
01
 10
720.56600000000003
 20
-1382.3399999999999
 30
0.0
 70
    32
  0
VERTEX
  5
FA8C
  8
01
 10
720.48300000000006
 20
-1382.4100000000001
 30
0.0
 70
    32
  0
VERTEX
  5
FA8D
  8
01
 10
720.40199999999993
 20
-1382.47
 30
0.0
 70
    32
  0
VERTEX
  5
FA8E
  8
01
 10
720.32299999999987
 20
-1382.54
 30
0.0
 70
    32
  0
VERTEX
  5
FA8F
  8
01
 10
720.24600000000009
 20
-1382.6099999999999
 30
0.0
 70
    32
  0
VERTEX
  5
FA90
  8
01
 10
720.17200000000003
 20
-1382.6800000000001
 30
0.0
 70
    32
  0
VERTEX
  5
FA91
  8
01
 10
720.10000000000002
 20
-1382.75
 30
0.0
 70
    32
  0
VERTEX
  5
FA92
  8
01
 10
720.02999999999986
 20
-1382.8199999999999
 30
0.0
 70
    32
  0
VERTEX
  5
FA93
  8
01
 10
719.96299999999997
 20
-1382.8900000000001
 30
0.0
 70
    32
  0
VERTEX
  5
FA94
  8
01
 10
719.89899999999989
 20
-1382.97
 30
0.0
 70
    32
  0
VERTEX
  5
FA95
  8
01
 10
719.83699999999988
 20
-1383.04
 30
0.0
 70
    32
  0
VERTEX
  5
FA96
  8
01
 10
719.77800000000002
 20
-1383.1199999999999
 30
0.0
 70
    32
  0
VERTEX
  5
FA97
  8
01
 10
719.72199999999987
 20
-1383.2
 30
0.0
 70
    32
  0
VERTEX
  5
FA98
  8
01
 10
719.66800000000001
 20
-1383.28
 30
0.0
 70
    32
  0
VERTEX
  5
FA99
  8
01
 10
719.61699999999985
 20
-1383.3599999999999
 30
0.0
 70
    32
  0
VERTEX
  5
FA9A
  8
01
 10
719.56799999999998
 20
-1383.4400000000001
 30
0.0
 70
    32
  0
VERTEX
  5
FA9B
  8
01
 10
719.52300000000002
 20
-1383.52
 30
0.0
 70
    32
  0
VERTEX
  5
FA9C
  8
01
 10
719.48000000000002
 20
-1383.5999999999999
 30
0.0
 70
    32
  0
VERTEX
  5
FA9D
  8
01
 10
719.44000000000005
 20
-1383.6800000000001
 30
0.0
 70
    32
  0
VERTEX
  5
FA9E
  8
01
 10
719.40300000000002
 20
-1383.77
 30
0.0
 70
    32
  0
VERTEX
  5
FA9F
  8
01
 10
719.36899999999991
 20
-1383.8499999999999
 30
0.0
 70
    32
  0
VERTEX
  5
FAA0
  8
01
 10
719.33800000000008
 20
-1383.9400000000001
 30
0.0
 70
    32
  0
VERTEX
  5
FAA1
  8
01
 10
719.30899999999986
 20
-1384.02
 30
0.0
 70
    32
  0
VERTEX
  5
FAA2
  8
01
 10
719.28399999999999
 20
-1384.1099999999999
 30
0.0
 70
    32
  0
VERTEX
  5
FAA3
  8
01
 10
719.26100000000008
 20
-1384.1900000000001
 30
0.0
 70
    32
  0
VERTEX
  5
FAA4
  8
01
 10
719.24199999999985
 20
-1384.28
 30
0.0
 70
    32
  0
VERTEX
  5
FAA5
  8
01
 10
719.22500000000002
 20
-1384.3699999999999
 30
0.0
 70
    32
  0
VERTEX
  5
FAA6
  8
01
 10
719.21199999999999
 20
-1384.45
 30
0.0
 70
    32
  0
VERTEX
  5
FAA7
  8
01
 10
719.20100000000002
 20
-1384.54
 30
0.0
 70
    32
  0
VERTEX
  5
FAA8
  8
01
 10
719.19399999999985
 20
-1384.6300000000001
 30
0.0
 70
    32
  0
VERTEX
  5
FAA9
  8
01
 10
719.18899999999985
 20
-1384.71
 30
0.0
 70
    32
  0
VERTEX
  5
FAAA
  8
01
 10
719.18799999999999
 20
-1384.8
 30
0.0
 70
    32
  0
SEQEND
  5
FAAB
  8
01
  0
LINE
  5
9992
  8
01
 10
724.18769999999995
 20
-1401.2340999999999
 30
0.0
 11
718.18769999999995
 21
-1401.2340999999999
 31
0.0
  0
LINE
  5
9993
  8
01
 10
729.18769999999995
 20
-1396.2340999999999
 30
0.0
 11
719.18769999999995
 21
-1396.2340999999999
 31
0.0
  0
POLYLINE
  5
9994
  8
01
 66
     1
 10
0.0
 20
0.0
 30
0.0
 70
     8
  0
VERTEX
  5
FAAC
  8
01
 10
729.18799999999987
 20
-1397.6700000000001
 30
0.0
 70
    32
  0
VERTEX
  5
FAAD
  8
01
 10
729.18600000000004
 20
-1397.75
 30
0.0
 70
    32
  0
VERTEX
  5
FAAE
  8
01
 10
729.18200000000002
 20
-1397.8399999999999
 30
0.0
 70
    32
  0
VERTEX
  5
FAAF
  8
01
 10
729.17399999999986
 20
-1397.9300000000001
 30
0.0
 70
    32
  0
VERTEX
  5
FAB0
  8
01
 10
729.16399999999999
 20
-1398.02
 30
0.0
 70
    32
  0
VERTEX
  5
FAB1
  8
01
 10
729.14999999999998
 20
-1398.0999999999999
 30
0.0
 70
    32
  0
VERTEX
  5
FAB2
  8
01
 10
729.1339999999999
 20
-1398.1900000000001
 30
0.0
 70
    32
  0
VERTEX
  5
FAB3
  8
01
 10
729.11399999999992
 20
-1398.28
 30
0.0
 70
    32
  0
VERTEX
  5
FAB4
  8
01
 10
729.09199999999987
 20
-1398.3599999999999
 30
0.0
 70
    32
  0
VERTEX
  5
FAB5
  8
01
 10
729.06600000000003
 20
-1398.45
 30
0.0
 70
    32
  0
VERTEX
  5
FAB6
  8
01
 10
729.0379999999999
 20
-1398.53
 30
0.0
 70
    32
  0
VERTEX
  5
FAB7
  8
01
 10
729.00699999999995
 20
-1398.6199999999999
 30
0.0
 70
    32
  0
VERTEX
  5
FAB8
  8
01
 10
728.97199999999987
 20
-1398.7
 30
0.0
 70
    32
  0
VERTEX
  5
FAB9
  8
01
 10
728.93499999999995
 20
-1398.79
 30
0.0
 70
    32
  0
VERTEX
  5
FABA
  8
01
 10
728.89499999999987
 20
-1398.8699999999999
 30
0.0
 70
    32
  0
VERTEX
  5
FABB
  8
01
 10
728.85299999999995
 20
-1398.95
 30
0.0
 70
    32
  0
VERTEX
  5
FABC
  8
01
 10
728.80700000000002
 20
-1399.03
 30
0.0
 70
    32
  0
VERTEX
  5
FABD
  8
01
 10
728.75899999999979
 20
-1399.1099999999999
 30
0.0
 70
    32
  0
VERTEX
  5
FABE
  8
01
 10
728.70800000000008
 20
-1399.1900000000001
 30
0.0
 70
    32
  0
VERTEX
  5
FABF
  8
01
 10
728.654
 20
-1399.27
 30
0.0
 70
    32
  0
VERTEX
  5
FAC0
  8
01
 10
728.59699999999987
 20
-1399.3499999999999
 30
0.0
 70
    32
  0
VERTEX
  5
FAC1
  8
01
 10
728.5379999999999
 20
-1399.4200000000001
 30
0.0
 70
    32
  0
VERTEX
  5
FAC2
  8
01
 10
728.47600000000011
 20
-1399.5
 30
0.0
 70
    32
  0
VERTEX
  5
FAC3
  8
01
 10
728.41199999999992
 20
-1399.5699999999999
 30
0.0
 70
    32
  0
VERTEX
  5
FAC4
  8
01
 10
728.34500000000003
 20
-1399.6500000000001
 30
0.0
 70
    32
  0
VERTEX
  5
FAC5
  8
01
 10
728.27599999999995
 20
-1399.72
 30
0.0
 70
    32
  0
VERTEX
  5
FAC6
  8
01
 10
728.20399999999995
 20
-1399.79
 30
0.0
 70
    32
  0
VERTEX
  5
FAC7
  8
01
 10
728.12899999999991
 20
-1399.8599999999999
 30
0.0
 70
    32
  0
VERTEX
  5
FAC8
  8
01
 10
728.05299999999988
 20
-1399.9300000000001
 30
0.0
 70
    32
  0
VERTEX
  5
FAC9
  8
01
 10
727.97399999999993
 20
-1400.0
 30
0.0
 70
    32
  0
VERTEX
  5
FACA
  8
01
 10
727.89199999999994
 20
-1400.0599999999999
 30
0.0
 70
    32
  0
VERTEX
  5
FACB
  8
01
 10
727.80899999999986
 20
-1400.1300000000001
 30
0.0
 70
    32
  0
VERTEX
  5
FACC
  8
01
 10
727.72300000000007
 20
-1400.1900000000001
 30
0.0
 70
    32
  0
VERTEX
  5
FACD
  8
01
 10
727.63499999999988
 20
-1400.25
 30
0.0
 70
    32
  0
VERTEX
  5
FACE
  8
01
 10
727.54499999999985
 20
-1400.3099999999999
 30
0.0
 70
    32
  0
VERTEX
  5
FACF
  8
01
 10
727.45399999999995
 20
-1400.3699999999999
 30
0.0
 70
    32
  0
VERTEX
  5
FAD0
  8
01
 10
727.36000000000001
 20
-1400.4200000000001
 30
0.0
 70
    32
  0
VERTEX
  5
FAD1
  8
01
 10
727.2639999999999
 20
-1400.48
 30
0.0
 70
    32
  0
VERTEX
  5
FAD2
  8
01
 10
727.16600000000005
 20
-1400.53
 30
0.0
 70
    32
  0
VERTEX
  5
FAD3
  8
01
 10
727.06699999999989
 20
-1400.5799999999999
 30
0.0
 70
    32
  0
VERTEX
  5
FAD4
  8
01
 10
726.96600000000001
 20
-1400.6300000000001
 30
0.0
 70
    32
  0
VERTEX
  5
FAD5
  8
01
 10
726.86300000000006
 20
-1400.6800000000001
 30
0.0
 70
    32
  0
VERTEX
  5
FAD6
  8
01
 10
726.75800000000004
 20
-1400.73
 30
0.0
 70
    32
  0
VERTEX
  5
FAD7
  8
01
 10
726.65199999999993
 20
-1400.77
 30
0.0
 70
    32
  0
VERTEX
  5
FAD8
  8
01
 10
726.54499999999985
 20
-1400.8099999999999
 30
0.0
 70
    32
  0
VERTEX
  5
FAD9
  8
01
 10
726.43600000000004
 20
-1400.8499999999999
 30
0.0
 70
    32
  0
VERTEX
  5
FADA
  8
01
 10
726.32500000000005
 20
-1400.8900000000001
 30
0.0
 70
    32
  0
VERTEX
  5
FADB
  8
01
 10
726.21399999999994
 20
-1400.9300000000001
 30
0.0
 70
    32
  0
VERTEX
  5
FADC
  8
01
 10
726.10100000000011
 20
-1400.96
 30
0.0
 70
    32
  0
VERTEX
  5
FADD
  8
01
 10
725.98699999999985
 20
-1401.0
 30
0.0
 70
    32
  0
VERTEX
  5
FADE
  8
01
 10
725.87199999999984
 20
-1401.03
 30
0.0
 70
    32
  0
VERTEX
  5
FADF
  8
01
 10
725.75599999999997
 20
-1401.05
 30
0.0
 70
    32
  0
VERTEX
  5
FAE0
  8
01
 10
725.63899999999978
 20
-1401.0799999999999
 30
0.0
 70
    32
  0
VERTEX
  5
FAE1
  8
01
 10
725.52099999999996
 20
-1401.0999999999999
 30
0.0
 70
    32
  0
VERTEX
  5
FAE2
  8
01
 10
725.40300000000002
 20
-1401.1300000000001
 30
0.0
 70
    32
  0
VERTEX
  5
FAE3
  8
01
 10
725.28300000000002
 20
-1401.1500000000001
 30
0.0
 70
    32
  0
VERTEX
  5
FAE4
  8
01
 10
725.16300000000001
 20
-1401.1700000000001
 30
0.0
 70
    32
  0
VERTEX
  5
FAE5
  8
01
 10
725.04300000000001
 20
-1401.1800000000001
 30
0.0
 70
    32
  0
VERTEX
  5
FAE6
  8
01
 10
724.92100000000005
 20
-1401.2
 30
0.0
 70
    32
  0
VERTEX
  5
FAE7
  8
01
 10
724.79999999999995
 20
-1401.21
 30
0.0
 70
    32
  0
VERTEX
  5
FAE8
  8
01
 10
724.678
 20
-1401.22
 30
0.0
 70
    32
  0
VERTEX
  5
FAE9
  8
01
 10
724.55600000000004
 20
-1401.22
 30
0.0
 70
    32
  0
VERTEX
  5
FAEA
  8
01
 10
724.43299999999988
 20
-1401.23
 30
0.0
 70
    32
  0
VERTEX
  5
FAEB
  8
01
 10
724.30999999999995
 20
-1401.23
 30
0.0
 70
    32
  0
VERTEX
  5
FAEC
  8
01
 10
724.18799999999999
 20
-1401.23
 30
0.0
 70
    32
  0
VERTEX
  5
FAED
  8
01
 10
724.06500000000005
 20
-1401.23
 30
0.0
 70
    32
  0
VERTEX
  5
FAEE
  8
01
 10
723.94199999999989
 20
-1401.23
 30
0.0
 70
    32
  0
VERTEX
  5
FAEF
  8
01
 10
723.82000000000005
 20
-1401.22
 30
0.0
 70
    32
  0
VERTEX
  5
FAF0
  8
01
 10
723.69799999999987
 20
-1401.22
 30
0.0
 70
    32
  0
VERTEX
  5
FAF1
  8
01
 10
723.57599999999991
 20
-1401.21
 30
0.0
 70
    32
  0
VERTEX
  5
FAF2
  8
01
 10
723.45399999999995
 20
-1401.2
 30
0.0
 70
    32
  0
VERTEX
  5
FAF3
  8
01
 10
723.33300000000008
 20
-1401.1800000000001
 30
0.0
 70
    32
  0
VERTEX
  5
FAF4
  8
01
 10
723.21199999999999
 20
-1401.1700000000001
 30
0.0
 70
    32
  0
VERTEX
  5
FAF5
  8
01
 10
723.09199999999998
 20
-1401.1500000000001
 30
0.0
 70
    32
  0
VERTEX
  5
FAF6
  8
01
 10
722.97299999999996
 20
-1401.1300000000001
 30
0.0
 70
    32
  0
VERTEX
  5
FAF7
  8
01
 10
722.85399999999993
 20
-1401.0999999999999
 30
0.0
 70
    32
  0
VERTEX
  5
FAF8
  8
01
 10
722.73599999999999
 20
-1401.0799999999999
 30
0.0
 70
    32
  0
VERTEX
  5
FAF9
  8
01
 10
722.61899999999991
 20
-1401.05
 30
0.0
 70
    32
  0
VERTEX
  5
FAFA
  8
01
 10
722.50300000000004
 20
-1401.03
 30
0.0
 70
    32
  0
VERTEX
  5
FAFB
  8
01
 10
722.38800000000003
 20
-1401.0
 30
0.0
 70
    32
  0
VERTEX
  5
FAFC
  8
01
 10
722.27399999999989
 20
-1400.96
 30
0.0
 70
    32
  0
VERTEX
  5
FAFD
  8
01
 10
722.16099999999994
 20
-1400.9300000000001
 30
0.0
 70
    32
  0
VERTEX
  5
FAFE
  8
01
 10
722.04999999999995
 20
-1400.8900000000001
 30
0.0
 70
    32
  0
VERTEX
  5
FAFF
  8
01
 10
721.94000000000005
 20
-1400.8499999999999
 30
0.0
 70
    32
  0
VERTEX
  5
FB00
  8
01
 10
721.83100000000002
 20
-1400.8099999999999
 30
0.0
 70
    32
  0
VERTEX
  5
FB01
  8
01
 10
721.72299999999996
 20
-1400.77
 30
0.0
 70
    32
  0
VERTEX
  5
FB02
  8
01
 10
721.61699999999985
 20
-1400.73
 30
0.0
 70
    32
  0
VERTEX
  5
FB03
  8
01
 10
721.51300000000003
 20
-1400.6800000000001
 30
0.0
 70
    32
  0
VERTEX
  5
FB04
  8
01
 10
721.40999999999997
 20
-1400.6300000000001
 30
0.0
 70
    32
  0
VERTEX
  5
FB05
  8
01
 10
721.30899999999997
 20
-1400.5799999999999
 30
0.0
 70
    32
  0
VERTEX
  5
FB06
  8
01
 10
721.20899999999995
 20
-1400.53
 30
0.0
 70
    32
  0
VERTEX
  5
FB07
  8
01
 10
721.11199999999997
 20
-1400.48
 30
0.0
 70
    32
  0
VERTEX
  5
FB08
  8
01
 10
721.01600000000008
 20
-1400.4200000000001
 30
0.0
 70
    32
  0
VERTEX
  5
FB09
  8
01
 10
720.92200000000003
 20
-1400.3699999999999
 30
0.0
 70
    32
  0
VERTEX
  5
FB0A
  8
01
 10
720.83000000000004
 20
-1400.3099999999999
 30
0.0
 70
    32
  0
VERTEX
  5
FB0B
  8
01
 10
720.7399999999999
 20
-1400.25
 30
0.0
 70
    32
  0
VERTEX
  5
FB0C
  8
01
 10
720.65199999999993
 20
-1400.1900000000001
 30
0.0
 70
    32
  0
VERTEX
  5
FB0D
  8
01
 10
720.56600000000003
 20
-1400.1300000000001
 30
0.0
 70
    32
  0
VERTEX
  5
FB0E
  8
01
 10
720.48300000000006
 20
-1400.0599999999999
 30
0.0
 70
    32
  0
VERTEX
  5
FB0F
  8
01
 10
720.40199999999993
 20
-1400.0
 30
0.0
 70
    32
  0
VERTEX
  5
FB10
  8
01
 10
720.32299999999987
 20
-1399.9300000000001
 30
0.0
 70
    32
  0
VERTEX
  5
FB11
  8
01
 10
720.24600000000009
 20
-1399.8599999999999
 30
0.0
 70
    32
  0
VERTEX
  5
FB12
  8
01
 10
720.17200000000003
 20
-1399.79
 30
0.0
 70
    32
  0
VERTEX
  5
FB13
  8
01
 10
720.10000000000002
 20
-1399.72
 30
0.0
 70
    32
  0
VERTEX
  5
FB14
  8
01
 10
720.02999999999986
 20
-1399.6500000000001
 30
0.0
 70
    32
  0
VERTEX
  5
FB15
  8
01
 10
719.96299999999997
 20
-1399.5699999999999
 30
0.0
 70
    32
  0
VERTEX
  5
FB16
  8
01
 10
719.89899999999989
 20
-1399.5
 30
0.0
 70
    32
  0
VERTEX
  5
FB17
  8
01
 10
719.83699999999988
 20
-1399.4200000000001
 30
0.0
 70
    32
  0
VERTEX
  5
FB18
  8
01
 10
719.77800000000002
 20
-1399.3499999999999
 30
0.0
 70
    32
  0
VERTEX
  5
FB19
  8
01
 10
719.72199999999987
 20
-1399.27
 30
0.0
 70
    32
  0
VERTEX
  5
FB1A
  8
01
 10
719.66800000000001
 20
-1399.1900000000001
 30
0.0
 70
    32
  0
VERTEX
  5
FB1B
  8
01
 10
719.61699999999985
 20
-1399.1099999999999
 30
0.0
 70
    32
  0
VERTEX
  5
FB1C
  8
01
 10
719.56799999999998
 20
-1399.03
 30
0.0
 70
    32
  0
VERTEX
  5
FB1D
  8
01
 10
719.52300000000002
 20
-1398.95
 30
0.0
 70
    32
  0
VERTEX
  5
FB1E
  8
01
 10
719.48000000000002
 20
-1398.8699999999999
 30
0.0
 70
    32
  0
VERTEX
  5
FB1F
  8
01
 10
719.44000000000005
 20
-1398.79
 30
0.0
 70
    32
  0
VERTEX
  5
FB20
  8
01
 10
719.40300000000002
 20
-1398.7
 30
0.0
 70
    32
  0
VERTEX
  5
FB21
  8
01
 10
719.36899999999991
 20
-1398.6199999999999
 30
0.0
 70
    32
  0
VERTEX
  5
FB22
  8
01
 10
719.33800000000008
 20
-1398.53
 30
0.0
 70
    32
  0
VERTEX
  5
FB23
  8
01
 10
719.30899999999986
 20
-1398.45
 30
0.0
 70
    32
  0
VERTEX
  5
FB24
  8
01
 10
719.28399999999999
 20
-1398.3599999999999
 30
0.0
 70
    32
  0
VERTEX
  5
FB25
  8
01
 10
719.26100000000008
 20
-1398.28
 30
0.0
 70
    32
  0
VERTEX
  5
FB26
  8
01
 10
719.24199999999985
 20
-1398.1900000000001
 30
0.0
 70
    32
  0
VERTEX
  5
FB27
  8
01
 10
719.22500000000002
 20
-1398.0999999999999
 30
0.0
 70
    32
  0
VERTEX
  5
FB28
  8
01
 10
719.21199999999999
 20
-1398.02
 30
0.0
 70
    32
  0
VERTEX
  5
FB29
  8
01
 10
719.20100000000002
 20
-1397.9300000000001
 30
0.0
 70
    32
  0
VERTEX
  5
FB2A
  8
01
 10
719.19399999999985
 20
-1397.8399999999999
 30
0.0
 70
    32
  0
VERTEX
  5
FB2B
  8
01
 10
719.18899999999985
 20
-1397.75
 30
0.0
 70
    32
  0
VERTEX
  5
FB2C
  8
01
 10
719.18799999999999
 20
-1397.6700000000001
 30
0.0
 70
    32
  0
SEQEND
  5
FB2D
  8
01
  0
LINE
  5
9995
  8
01
 10
729.18769999999995
 20
-1384.8025
 30
0.0
 11
729.18769999999995
 21
-1397.6657
 31
0.0
  0
LINE
  5
9996
  8
01
 10
719.18769999999995
 20
-1384.8025
 30
0.0
 11
719.18769999999995
 21
-1397.6657
 31
0.0
  0
LINE
  5
9997
  8
01
 10
715.18769999999995
 20
-1351.2340999999999
 30
0.0
 11
714.18769999999995
 21
-1350.2340999999999
 31
0.0
  0
LINE
  5
9998
  8
01
 10
716.58770000000004
 20
-1351.1341
 30
0.0
 11
715.78769999999997
 21
-1350.3341
 31
0.0
  0
LINE
  5
9999
  8
01
 10
716.58770000000004
 20
-1433.3341
 30
0.0
 11
715.78769999999997
 21
-1434.1341
 31
0.0
  0
LINE
  5
999A
  8
01
 10
715.18759999999986
 20
-1433.2340999999999
 30
0.0
 11
714.18759999999986
 21
-1434.2340999999999
 31
0.0
  0
LINE
  5
999B
  8
01
 10
718.18769999999995
 20
-1457.2340999999999
 30
0.0
 11
714.18769999999995
 21
-1457.2340999999999
 31
0.0
  0
LINE
  5
999C
  8
01
 10
715.78769999999997
 20
-1457.2340999999999
 30
0.0
 11
715.78769999999997
 21
-1434.1341
 31
0.0
  0
LINE
  5
999D
  8
01
 10
714.18769999999995
 20
-1457.2340999999999
 30
0.0
 11
714.18769999999995
 21
-1434.2340999999999
 31
0.0
  0
LINE
  5
999E
  8
01
 10
715.18769999999995
 20
-1351.2340999999999
 30
0.0
 11
715.18769999999995
 21
-1433.2340999999999
 31
0.0
  0
LINE
  5
999F
  8
01
 10
718.18769999999995
 20
-1327.2340999999999
 30
0.0
 11
714.18769999999995
 21
-1327.2340999999999
 31
0.0
  0
LINE
  5
99A0
  8
01
 10
823.18769999999995
 20
-1333.2340999999999
 30
0.0
 11
823.18769999999995
 21
-1451.2340999999999
 31
0.0
  0
LINE
  5
99A1
  8
01
 10
848.18769999999995
 20
-1333.2340999999999
 30
0.0
 11
848.18769999999995
 21
-1451.2340999999999
 31
0.0
  0
ARC
  5
99A2
  8
01
 10
842.18769999999995
 20
-1451.2340999999999
 30
0.0
 40
6.0
 50
270.0
 51
0.0
  0
ARC
  5
99A3
  8
01
 10
829.18769999999995
 20
-1451.2340999999999
 30
0.0
 40
6.0
 50
180.0
 51
270.0
  0
LINE
  5
99A4
  8
01
 10
843.43769999999995
 20
-1384.8025
 30
0.0
 11
843.43769999999995
 21
-1397.6657
 31
0.0
  0
LINE
  5
99A5
  8
01
 10
842.43769999999995
 20
-1386.2340999999999
 30
0.0
 11
842.43769999999995
 21
-1396.2340999999999
 31
0.0
  0
LINE
  5
99A6
  8
01
 10
828.93769999999995
 20
-1386.2340999999999
 30
0.0
 11
828.93769999999995
 21
-1396.2340999999999
 31
0.0
  0
LINE
  5
99A7
  8
01
 10
827.93769999999995
 20
-1384.8025
 30
0.0
 11
827.93769999999995
 21
-1397.6657
 31
0.0
  0
ARC
  5
99A8
  8
01
 10
835.68769999999995
 20
-1391.0341000000001
 30
0.0
 40
10.199999999999999
 50
220.5531
 51
319.44690000000003
  0
LINE
  5
99A9
  8
01
 10
828.93769999999995
 20
-1396.2340999999999
 30
0.0
 11
842.43769999999995
 21
-1396.2340999999999
 31
0.0
  0
LINE
  5
99AA
  8
01
 10
828.93769999999995
 20
-1386.2340999999999
 30
0.0
 11
842.43769999999995
 21
-1386.2340999999999
 31
0.0
  0
ARC
  5
99AB
  8
01
 10
835.68769999999995
 20
-1391.4340999999999
 30
0.0
 40
10.199999999999999
 50
40.553100000000001
 51
139.4469
  0
CIRCLE
  5
99AC
  8
01
 10
835.68769999999995
 20
-1449.2340999999999
 30
0.0
 40
4.5
  0
CIRCLE
  5
99AD
  8
01
 10
835.68769999999995
 20
-1449.2340999999999
 30
0.0
 40
2.75
  0
LINE
  5
99AE
  8
01
 10
829.18769999999995
 20
-1457.2340999999999
 30
0.0
 11
842.18769999999995
 21
-1457.2340999999999
 31
0.0
  0
ARC
  5
99AF
  8
01
 10
842.18769999999995
 20
-1333.2340999999999
 30
0.0
 40
6.0
 50
0.0
 51
90.0
  0
ARC
  5
99B1
  8
01
 10
829.18769999999995
 20
-1333.2340999999999
 30
0.0
 40
6.0
 50
90.0
 51
180.0
  0
LINE
  5
99B2
  8
01
 10
829.18769999999995
 20
-1327.2340999999999
 30
0.0
 11
842.18769999999995
 21
-1327.2340999999999
 31
0.0
  0
CIRCLE
  5
99B3
  8
01
 10
835.68769999999995
 20
-1335.2340999999999
 30
0.0
 40
4.5
  0
CIRCLE
  5
99B4
  8
01
 10
835.68769999999995
 20
-1335.2340999999999
 30
0.0
 40
2.75
  0
TEXT
  5
99B5
  8
1TEXT
 10
649.18769999999995
 20
-1128.2340999999999
 30
0.0
 40
20.0
  1
2-P3C-X-LP
  0
LINE
  5
99BA
  8
01
 10
955.58770000000004
 20
-1327.2340999999999
 30
0.0
 11
955.58770000000004
 21
-1350.3341
 31
0.0
  0
LINE
  5
99BB
  8
01
 10
957.18769999999984
 20
-1327.2340999999999
 30
0.0
 11
957.18769999999984
 21
-1350.2340999999999
 31
0.0
  0
LINE
  5
99BC
  8
01
 10
954.78769999999986
 20
-1327.2340999999999
 30
0.0
 11
954.78769999999986
 21
-1457.2340999999999
 31
0.0
  0
LINE
  5
99BD
  8
01
 10
953.18769999999995
 20
-1327.2340999999999
 30
0.0
 11
953.18769999999995
 21
-1457.2340999999999
 31
0.0
  0
LINE
  5
99BE
  8
01
 10
956.18769999999995
 20
-1355.2340999999999
 30
0.0
 11
984.54610000000002
 21
-1355.2340999999999
 31
0.0
  0
LINE
  5
99BF
  8
01
 10
956.18769999999995
 20
-1429.2340999999999
 30
0.0
 11
983.06299999999987
 21
-1429.2340999999999
 31
0.0
  0
LINE
  5
99C0
  8
01
 10
956.18769999999995
 20
-1351.2340999999999
 30
0.0
 11
957.18769999999984
 21
-1350.2340999999999
 31
0.0
  0
LINE
  5
99C1
  8
01
 10
954.78769999999986
 20
-1351.1341
 30
0.0
 11
955.58770000000004
 21
-1350.3341
 31
0.0
  0
LINE
  5
99C2
  8
01
 10
946.18769999999995
 20
-1381.2340999999999
 30
0.0
 11
953.18769999999995
 21
-1381.2340999999999
 31
0.0
  0
LINE
  5
99C3
  8
01
 10
946.18769999999995
 20
-1401.2340999999999
 30
0.0
 11
953.18769999999995
 21
-1401.2340999999999
 31
0.0
  0
LINE
  5
99C4
  8
01
 10
942.26980000000003
 20
-1398.0404000000001
 30
0.0
 11
953.18769999999995
 21
-1398.0404000000001
 31
0.0
  0
LINE
  5
99C5
  8
01
 10
942.26980000000003
 20
-1384.4277999999999
 30
0.0
 11
953.18769999999995
 21
-1384.4277999999999
 31
0.0
  0
LINE
  5
99C6
  8
01
 10
942.18769999999995
 20
-1385.2340999999999
 30
0.0
 11
942.18769999999995
 21
-1397.2340999999999
 31
0.0
  0
ARC
  5
99C7
  8
01
 10
946.18769999999995
 20
-1397.2340999999999
 30
0.0
 40
4.0
 50
180.0
 51
270.0
  0
ARC
  5
99C8
  8
01
 10
946.18769999999995
 20
-1385.2340999999999
 30
0.0
 40
4.0
 50
90.0
 51
180.0
  0
LINE
  5
99C9
  8
01
 10
954.78769999999986
 20
-1433.3341
 30
0.0
 11
955.58770000000004
 21
-1434.1341
 31
0.0
  0
LINE
  5
99CA
  8
01
 10
956.18769999999995
 20
-1433.2340999999999
 30
0.0
 11
957.18769999999984
 21
-1434.2340999999999
 31
0.0
  0
LINE
  5
99CB
  8
1CENTER
 10
948.18769999999995
 20
-1449.2340999999999
 30
0.0
 11
962.18769999999995
 21
-1449.2340999999999
 31
0.0
  0
LINE
  5
99CC
  8
01
 10
953.18769999999995
 20
-1457.2340999999999
 30
0.0
 11
957.18769999999984
 21
-1457.2340999999999
 31
0.0
  0
LINE
  5
99CD
  8
01
 10
955.58770000000004
 20
-1457.2340999999999
 30
0.0
 11
955.58770000000004
 21
-1434.1341
 31
0.0
  0
LINE
  5
99CE
  8
01
 10
957.18769999999984
 20
-1457.2340999999999
 30
0.0
 11
957.18769999999984
 21
-1434.2340999999999
 31
0.0
  0
LINE
  5
99CF
  8
01
 10
956.18769999999995
 20
-1351.2340999999999
 30
0.0
 11
956.18769999999995
 21
-1433.2340999999999
 31
0.0
  0
LINE
  5
99D0
  8
01
 10
1022.1876999999999
 20
-1365.9827
 30
0.0
 11
1022.1876999999999
 21
-1380.6406999999999
 31
0.0
  0
LINE
  5
99D2
  8
01
 10
953.18769999999995
 20
-1327.2340999999999
 30
0.0
 11
957.18769999999984
 21
-1327.2340999999999
 31
0.0
  0
LINE
  5
99D3
  8
1CENTER
 10
948.18769999999995
 20
-1335.2340999999999
 30
0.0
 11
962.18769999999995
 21
-1335.2340999999999
 31
0.0
  0
LINE
  5
99DB
  8
01
 10
957.18849999999986
 20
-1130.2340999999999
 30
0.0
 11
1023.1885
 21
-1130.2340999999999
 31
0.0
  0
LINE
  5
99DC
  8
01
 10
957.18849999999986
 20
-1131.8341
 30
0.0
 11
1023.1885
 21
-1131.8341
 31
0.0
  0
LINE
  5
99DD
  8
01
 10
954.78859999999997
 20
-1149.2340999999999
 30
0.0
 11
1023.1885
 21
-1149.2340999999999
 31
0.0
  0
LINE
  5
99DE
  8
01
 10
956.38850000000002
 20
-1134.7340999999999
 30
0.0
 11
957.18849999999986
 21
-1133.9340999999999
 31
0.0
  0
LINE
  5
99DF
  8
01
 10
957.18849999999986
 20
-1129.2340999999999
 30
0.0
 11
957.18849999999986
 21
-1133.9340999999999
 31
0.0
  0
LINE
  5
99E0
  8
01
 10
954.78859999999997
 20
-1134.7340999999999
 30
0.0
 11
955.58849999999995
 21
-1133.9340999999999
 31
0.0
  0
LINE
  5
99E1
  8
01
 10
942.18849999999986
 20
-1147.4840999999999
 30
0.0
 11
953.18849999999998
 21
-1147.4840999999999
 31
0.0
  0
LINE
  5
99E2
  8
01
 10
942.18849999999986
 20
-1147.4840999999999
 30
0.0
 11
942.18849999999986
 21
-1145.4840999999999
 31
0.0
  0
LINE
  5
99E3
  8
01
 10
953.18849999999998
 20
-1127.2340999999999
 30
0.0
 11
954.78859999999997
 21
-1127.2340999999999
 31
0.0
  0
LINE
  5
99E4
  8
01
 10
954.78859999999997
 20
-1127.2340999999999
 30
0.0
 11
954.78859999999997
 21
-1134.7340999999999
 31
0.0
  0
LINE
  5
99E5
  8
01
 10
955.58860000000004
 20
-1129.2340999999999
 30
0.0
 11
955.58860000000004
 21
-1133.9340999999999
 31
0.0
  0
LINE
  5
99E6
  8
01
 10
954.78859999999997
 20
-1129.2340999999999
 30
0.0
 11
957.18849999999986
 21
-1129.2340999999999
 31
0.0
  0
LINE
  5
99E7
  8
01
 10
957.18849999999986
 20
-1145.5341000000001
 30
0.0
 11
957.18849999999986
 21
-1149.2340999999999
 31
0.0
  0
LINE
  5
99E8
  8
01
 10
956.3886
 20
-1144.7340999999999
 30
0.0
 11
957.18849999999986
 21
-1145.5341000000001
 31
0.0
  0
LINE
  5
99E9
  8
01
 10
957.18849999999986
 20
-1147.6341
 30
0.0
 11
961.78859999999997
 21
-1147.6341
 31
0.0
  0
LINE
  5
99EA
  8
01
 10
954.7885
 20
-1144.7340999999999
 30
0.0
 11
955.58860000000004
 21
-1145.5341000000001
 31
0.0
  0
LINE
  5
99EB
  8
01
 10
954.78859999999997
 20
-1144.7340999999999
 30
0.0
 11
954.78859999999997
 21
-1152.2340999999999
 31
0.0
  0
LINE
  5
99EC
  8
01
 10
953.18849999999998
 20
-1152.2340999999999
 30
0.0
 11
954.78859999999997
 21
-1152.2340999999999
 31
0.0
  0
LINE
  5
99ED
  8
01
 10
955.58860000000004
 20
-1145.5341000000001
 30
0.0
 11
955.58860000000004
 21
-1149.2340999999999
 31
0.0
  0
LINE
  5
99EE
  8
01
 10
953.18849999999998
 20
-1119.7340999999999
 30
0.0
 11
953.18849999999998
 21
-1159.7340999999999
 31
0.0
  0
LINE
  5
99EF
  8
01
 10
961.78859999999997
 20
-1131.8341
 30
0.0
 11
961.78859999999997
 21
-1149.2340999999999
 31
0.0
  0
LINE
  5
99F0
  8
01
 10
956.38850000000002
 20
-1134.7340999999999
 30
0.0
 11
956.38850000000002
 21
-1144.7340999999999
 31
0.0
  0
LINE
  5
99F1
  8
01
 10
954.78859999999997
 20
-1134.7340999999999
 30
0.0
 11
954.78859999999997
 21
-1144.7340999999999
 31
0.0
  0
ARC
  5
99F2
  8
01
 10
985.85800000000006
 20
-1169.8352
 30
0.0
 40
50.0
 50
130.79769999999999
 51
150.85499999999999
  0
LINE
  5
99F3
  8
1CENTER
 10
985.54989999999998
 20
-1177.7340999999999
 30
0.0
 11
1001.1725
 21
-1177.7340999999999
 31
0.0
  0
LINE
  5
99F4
  8
01
 10
1021.5885
 20
-1131.8341
 30
0.0
 11
1021.5885
 21
-1149.2340999999999
 31
0.0
  0
LINE
  5
99F5
  8
01
 10
1023.1885
 20
-1130.2340999999999
 30
0.0
 11
1023.1885
 21
-1149.2340999999999
 31
0.0
  0
LINE
  5
99F6
  8
1CENTER
 10
985.54989999999998
 20
-1101.7340999999999
 30
0.0
 11
1001.1725
 21
-1101.7340999999999
 31
0.0
  0
LINE
  5
99F9
  8
1CENTER
 10
723.18769999999995
 20
-1449.2340999999999
 30
0.0
 11
709.18769999999995
 21
-1449.2340999999999
 31
0.0
  0
LINE
  5
99FA
  8
1CENTER
 10
723.18769999999995
 20
-1335.2340999999999
 30
0.0
 11
709.18769999999995
 21
-1335.2340999999999
 31
0.0
  0
LINE
  5
99FB
  8
1CENTER
 10
842.18769999999995
 20
-1335.2340999999999
 30
0.0
 11
829.18769999999995
 21
-1335.2340999999999
 31
0.0
  0
LINE
  5
99FC
  8
1CENTER
 10
835.68769999999995
 20
-1328.7340999999999
 30
0.0
 11
835.68769999999995
 21
-1341.7340999999999
 31
0.0
  0
LINE
  5
99FD
  8
1CENTER
 10
842.18769999999995
 20
-1449.2340999999999
 30
0.0
 11
829.18769999999995
 21
-1449.2340999999999
 31
0.0
  0
LINE
  5
99FE
  8
1CENTER
 10
835.68769999999995
 20
-1442.7340999999999
 30
0.0
 11
835.68769999999995
 21
-1455.7340999999999
 31
0.0
  0
LINE
  5
99FF
  8
1CENTER
 10
697.18769999999995
 20
-1413.2340999999999
 30
0.0
 11
637.18769999999995
 21
-1413.2340999999999
 31
0.0
  0
LINE
  5
9A00
  8
1CENTER
 10
667.18769999999995
 20
-1383.2340999999999
 30
0.0
 11
667.18769999999995
 21
-1443.2340999999999
 31
0.0
  0
LINE
  5
9A01
  8
1CENTER
 10
974.18769999999995
 20
-1413.2340999999999
 30
0.0
 11
1034.1876999999999
 21
-1413.2340999999999
 31
0.0
  0
LINE
  5
9A02
  8
1CENTER
 10
1004.1876999999999
 20
-1383.2340999999999
 30
0.0
 11
1004.1876999999999
 21
-1443.2340999999999
 31
0.0
  0
CIRCLE
  5
9A03
  8
01
 10
667.18769999999995
 20
-1357.7340999999999
 30
0.0
 40
19.800000000000001
  0
LINE
  5
9A04
  8
01
 10
666.68769999999995
 20
-1352.2340999999999
 30
0.0
 11
667.68769999999995
 21
-1352.2340999999999
 31
0.0
  0
ARC
  5
9A05
  8
01
 10
666.68769999999995
 20
-1354.2340999999999
 30
0.0
 40
2.0
 50
90.0
 51
180.0
  0
ARC
  5
9A06
  8
01
 10
667.68769999999995
 20
-1354.2340999999999
 30
0.0
 40
2.0
 50
0.0
 51
90.0
  0
LINE
  5
9A07
  8
01
 10
666.68769999999995
 20
-1374.2340999999999
 30
0.0
 11
667.68769999999995
 21
-1374.2340999999999
 31
0.0
  0
ARC
  5
9A08
  8
01
 10
666.68769999999995
 20
-1372.2340999999999
 30
0.0
 40
2.0
 50
180.0
 51
270.0
  0
ARC
  5
9A09
  8
01
 10
667.68769999999995
 20
-1372.2340999999999
 30
0.0
 40
2.0
 50
270.0
 51
0.0
  0
LINE
  5
9A0A
  8
01
 10
669.68769999999995
 20
-1354.2340999999999
 30
0.0
 11
669.68769999999995
 21
-1372.2340999999999
 31
0.0
  0
LINE
  5
9A0B
  8
01
 10
664.68769999999995
 20
-1354.2340999999999
 30
0.0
 11
664.68769999999995
 21
-1372.2340999999999
 31
0.0
  0
CIRCLE
  5
9A0C
  8
01
 10
667.18769999999995
 20
-1363.2340999999999
 30
0.0
 40
11.0
  0
LINE
  5
9A0E
  8
01
 10
861.98770000000002
 20
-1340.7340999999999
 30
0.0
 11
861.98770000000002
 21
-1374.7340999999999
 31
0.0
  0
LINE
  5
9A0F
  8
01
 10
815.68769999999995
 20
-1337.9340999999999
 30
0.0
 11
815.68769999999995
 21
-1377.5341000000001
 31
0.0
  0
LINE
  5
9A11
  8
01
 10
809.3877
 20
-1340.7340999999999
 30
0.0
 11
809.3877
 21
-1374.7340999999999
 31
0.0
  0
LINE
  5
9A14
  8
01
 10
809.3877
 20
-1352.2498000000001
 30
0.0
 11
800.62130000000002
 21
-1352.7092
 31
0.0
  0
ARC
  5
9A15
  8
01
 10
812.18769999999995
 20
-1374.7340999999999
 30
0.0
 40
2.7999999999999989
 50
180.0
 51
270.0
  0
LINE
  5
9A16
  8
01
 10
809.48770000000002
 20
-1373.4340999999999
 30
0.0
 11
809.48770000000002
 21
-1373.4340999999999
 31
0.0
  0
LINE
  5
9A17
  8
01
 10
809.3877
 20
-1374.2184
 30
0.0
 11
800.62130000000002
 21
-1373.759
 31
0.0
  0
LINE
  5
9A18
  8
01
 10
815.68769999999995
 20
-1377.5341000000001
 30
0.0
 11
812.18769999999995
 21
-1377.5341000000001
 31
0.0
  0
LINE
  5
9A19
  8
01
 10
793.98770000000002
 20
-1366.7684999999999
 30
0.0
 11
793.98770000000002
 21
-1359.6996999999999
 31
0.0
  0
ARC
  5
9A1A
  8
01
 10
800.9876999999999
 20
-1366.7684999999999
 30
0.0
 40
7.0
 50
180.0
 51
267.0
  0
ARC
  5
9A1B
  8
01
 10
800.9876999999999
 20
-1359.6996999999999
 30
0.0
 40
7.0
 50
93.0
 51
180.0
  0
LINE
  5
9A1C
  8
01
 10
862.86109999999985
 20
-1359.7340999999999
 30
0.0
 11
861.98770000000002
 21
-1359.7340999999999
 31
0.0
  0
LINE
  5
9A1D
  8
01
 10
862.86109999999985
 20
-1366.7340999999999
 30
0.0
 11
861.98770000000002
 21
-1366.7340999999999
 31
0.0
  0
ARC
  5
9A1E
  8
01
 10
859.18769999999995
 20
-1374.7340999999999
 30
0.0
 40
2.7999999999999989
 50
270.0
 51
0.0
  0
LINE
  5
9A1F
  8
01
 10
855.68769999999995
 20
-1377.5341000000001
 30
0.0
 11
859.18769999999995
 21
-1377.5341000000001
 31
0.0
  0
LINE
  5
9A20
  8
01
 10
862.86109999999985
 20
-1359.7340999999999
 30
0.0
 11
862.86109999999985
 21
-1366.7340999999999
 31
0.0
  0
ARC
  5
9A21
  8
01
 10
857.9876999999999
 20
-1363.2340999999999
 30
0.0
 40
6.0
 50
324.31470000000002
 51
35.685299999999998
  0
ARC
  5
9A22
  8
01
 10
812.18769999999995
 20
-1340.7340999999999
 30
0.0
 40
2.7999999999999989
 50
90.0
 51
180.0
  0
LINE
  5
9A23
  8
01
 10
815.68769999999995
 20
-1337.9340999999999
 30
0.0
 11
812.18769999999995
 21
-1337.9340999999999
 31
0.0
  0
ARC
  5
9A24
  8
01
 10
859.18769999999995
 20
-1340.7340999999999
 30
0.0
 40
2.7999999999999989
 50
0.0
 51
90.0
  0
LINE
  5
9A25
  8
01
 10
855.68769999999995
 20
-1337.9340999999999
 30
0.0
 11
859.18769999999995
 21
-1337.9340999999999
 31
0.0
  0
CIRCLE
  5
9A26
  8
01
 10
1004.1876999999999
 20
-1357.7340999999999
 30
0.0
 40
19.800000000000001
  0
LINE
  5
9A27
  8
01
 10
1005.1876999999999
 20
-1366.5881999999999
 30
0.0
 11
1005.1876999999999
 21
-1359.8800000000001
 31
0.0
  0
LINE
  5
9A28
  8
01
 10
1003.1876999999999
 20
-1366.5881999999999
 30
0.0
 11
1003.1876999999999
 21
-1359.8800000000001
 31
0.0
  0
CIRCLE
  5
9A29
  8
01
 10
1004.1876999999999
 20
-1363.2340999999999
 30
0.0
 40
3.5
  0
LINE
  5
9A2C
  8
1CENTER
 10
654.18769999999995
 20
-1363.2340999999999
 30
0.0
 11
680.18769999999995
 21
-1363.2340999999999
 31
0.0
  0
LINE
  5
9A2D
  8
1CENTER
 10
689.68769999999995
 20
-1357.7340999999999
 30
0.0
 11
644.68769999999995
 21
-1357.7340999999999
 31
0.0
  0
LINE
  5
9A2E
  8
1CENTER
 10
667.18769999999995
 20
-1335.2340999999999
 30
0.0
 11
667.18769999999995
 21
-1380.2340999999999
 31
0.0
  0
LINE
  5
9A2F
  8
1CENTER
 10
1017.1876999999999
 20
-1363.2340999999999
 30
0.0
 11
991.18769999999995
 21
-1363.2340999999999
 31
0.0
  0
LINE
  5
9A30
  8
1CENTER
 10
981.68769999999995
 20
-1357.7340999999999
 30
0.0
 11
1026.6876999999999
 21
-1357.7340999999999
 31
0.0
  0
LINE
  5
9A31
  8
1CENTER
 10
1004.1876999999999
 20
-1335.2340999999999
 30
0.0
 11
1004.1876999999999
 21
-1380.2340999999999
 31
0.0
  0
ARC
  5
9A34
  8
01
 10
995.68780000000015
 20
-1107.7340999999999
 30
0.0
 40
6.0
 50
288.19389999999999
 51
0.0
  0
ARC
  5
9A35
  8
01
 10
1012.6878
 20
-1107.7340999999999
 30
0.0
 40
6.0
 50
180.0
 51
251.80330000000001
  0
ARC
  5
9A36
  8
01
 10
1021.1878
 20
-1116.2339999999999
 30
0.0
 40
2.7999999999999989
 50
0.0004
 51
90.000399999999999
  0
ARC
  5
9A37
  8
01
 10
987.18780000000004
 20
-1116.2342000000001
 30
0.0
 40
2.7999999999999989
 50
90.000399999999999
 51
180.00040000000001
  0
ARC
  5
9A38
  8
01
 10
1004.1878
 20
-1162.0341000000001
 30
0.0
 40
6.0
 50
279.59300000000002
 51
305.68490000000003
  0
LINE
  5
9A39
  8
01
 10
1003.1876999999999
 20
-1166.9075
 30
0.0
 11
1000.6876999999999
 21
-1166.9075
 31
0.0
  0
LINE
  5
9A3A
  8
01
 10
1005.1876999999999
 20
-1167.9502
 30
0.0
 11
1005.1876999999999
 21
-1166.0341000000001
 31
0.0
  0
LINE
  5
9A3B
  8
01
 10
1003.1876999999999
 20
-1167.9501
 30
0.0
 11
1003.1876999999999
 21
-1166.0341000000001
 31
0.0
  0
LINE
  5
9A3C
  8
01
 10
1023.9878
 20
-1119.7338999999999
 30
0.0
 11
1023.9877
 21
-1116.2338999999999
 31
0.0
  0
LINE
  5
9A3D
  8
01
 10
984.38779999999997
 20
-1119.7342000000001
 30
0.0
 11
984.38779999999997
 21
-1116.2342000000001
 31
0.0
  0
LINE
  5
9A3E
  8
01
 10
1023.9878
 20
-1159.7342000000001
 30
0.0
 11
1023.9877
 21
-1163.2342000000001
 31
0.0
  0
ARC
  5
9A3F
  8
01
 10
1021.1878
 20
-1163.2342000000001
 30
0.0
 40
2.7999999999999989
 50
269.99959999999999
 51
359.99959999999999
  0
ARC
  5
9A40
  8
01
 10
1004.1878
 20
-1162.0341000000001
 30
0.0
 40
6.0
 50
234.3143
 51
260.4049
  0
LINE
  5
9A41
  8
01
 10
1007.6876999999999
 20
-1166.9075
 30
0.0
 11
1005.1876999999999
 21
-1166.9075
 31
0.0
  0
LINE
  5
9A42
  8
01
 10
984.38779999999997
 20
-1159.7338999999999
 30
0.0
 11
984.38779999999997
 21
-1163.2338999999999
 31
0.0
  0
ARC
  5
9A43
  8
01
 10
987.18780000000004
 20
-1163.2339999999999
 30
0.0
 40
2.7999999999999989
 50
179.99959999999999
 51
269.99959999999999
  0
LINE
  5
9A44
  8
01
 10
1000.6876999999999
 20
-1166.9075
 30
0.0
 11
1000.6876999999999
 21
-1166.0341000000001
 31
0.0
  0
LINE
  5
9A45
  8
01
 10
1007.6876999999999
 20
-1166.9075
 30
0.0
 11
1007.6876999999999
 21
-1166.0341000000001
 31
0.0
  0
LINE
  5
9A46
  8
01
 10
1021.1876999999999
 20
-1166.0342000000001
 30
0.0
 11
987.18769999999995
 21
-1166.0340000000001
 31
0.0
  0
LINE
  5
9A47
  8
01
 10
1006.6878
 20
-1100.0341000000001
 30
0.0
 11
1006.6878
 21
-1107.7340999999999
 31
0.0
  0
LINE
  5
9A48
  8
01
 10
1001.6878
 20
-1100.0341000000001
 30
0.0
 11
1001.6878
 21
-1107.7340999999999
 31
0.0
  0
ARC
  5
9A49
  8
01
 10
1003.6878
 20
-1100.0341000000001
 30
0.0
 40
2.0
 50
90.0
 51
180.0
  0
ARC
  5
9A4A
  8
01
 10
1004.6878
 20
-1100.0341000000001
 30
0.0
 40
2.0
 50
0.0
 51
90.0
  0
LINE
  5
9A4B
  8
01
 10
1021.1876999999999
 20
-1113.434
 30
0.0
 11
987.18769999999995
 21
-1113.4341999999999
 31
0.0
  0
TEXT
  5
9A54
  8
1TEXT
 10
649.50469999999984
 20
-1152.585
 30
0.0
 40
6.0
  1
材質：亜鉛ダイキャスト
 72
     1
 11
687.7047
 21
-1152.585
 31
0.0
  0
LINE
  5
9A68
  8
1CENTER
 10
785.68769999999995
 20
-1413.2340999999999
 30
0.0
 11
820.68769999999995
 21
-1413.2340999999999
 31
0.0
  0
LINE
  5
9A69
  8
1CENTER
 10
850.68769999999995
 20
-1413.2340999999999
 30
0.0
 11
885.68769999999995
 21
-1413.2340999999999
 31
0.0
  0
POINT
  5
9A79
  8
01
 10
873.68769999999995
 20
-1413.2340999999999
 30
0.0
  0
LINE
  5
9A7A
  8
01
 10
873.28769999999997
 20
-1414.9840999999999
 30
0.0
 11
873.28769999999997
 21
-1414.1341
 31
0.0
  0
LINE
  5
9A7B
  8
01
 10
874.08770000000015
 20
-1414.9840999999999
 30
0.0
 11
874.08770000000015
 21
-1414.1341
 31
0.0
  0
LINE
  5
9A7C
  8
01
 10
872.78769999999986
 20
-1413.6341
 30
0.0
 11
871.93769999999995
 21
-1413.6341
 31
0.0
  0
LINE
  5
9A7D
  8
01
 10
872.78769999999986
 20
-1412.8341
 30
0.0
 11
871.93769999999995
 21
-1412.8341
 31
0.0
  0
LINE
  5
9A7E
  8
01
 10
871.93769999999995
 20
-1413.6341
 30
0.0
 11
871.93769999999995
 21
-1412.8341
 31
0.0
  0
LINE
  5
9A7F
  8
01
 10
874.08770000000015
 20
-1414.9840999999999
 30
0.0
 11
873.28769999999997
 21
-1414.9840999999999
 31
0.0
  0
LINE
  5
9A80
  8
01
 10
874.08770000000015
 20
-1411.4840999999999
 30
0.0
 11
874.08770000000015
 21
-1412.3341
 31
0.0
  0
LINE
  5
9A81
  8
01
 10
873.28769999999997
 20
-1411.4840999999999
 30
0.0
 11
873.28769999999997
 21
-1412.3341
 31
0.0
  0
LINE
  5
9A82
  8
01
 10
874.58770000000004
 20
-1412.8341
 30
0.0
 11
875.43769999999995
 21
-1412.8341
 31
0.0
  0
LINE
  5
9A83
  8
01
 10
874.58770000000004
 20
-1413.6341
 30
0.0
 11
875.43769999999995
 21
-1413.6341
 31
0.0
  0
LINE
  5
9A84
  8
01
 10
875.43769999999995
 20
-1412.8341
 30
0.0
 11
875.43769999999995
 21
-1413.6341
 31
0.0
  0
LINE
  5
9A85
  8
01
 10
873.28769999999997
 20
-1411.4840999999999
 30
0.0
 11
874.08770000000015
 21
-1411.4840999999999
 31
0.0
  0
CIRCLE
  5
9A86
  8
01
 10
873.68769999999995
 20
-1413.2340999999999
 30
0.0
 40
2.5
  0
ARC
  5
9A87
  8
01
 10
874.58770000000004
 20
-1412.3341
 30
0.0
 40
0.5
 50
180.0
 51
270.0
  0
ARC
  5
9A88
  8
01
 10
874.58770000000004
 20
-1414.1341
 30
0.0
 40
0.5
 50
90.0
 51
180.0
  0
ARC
  5
9A89
  8
01
 10
872.78769999999986
 20
-1414.1341
 30
0.0
 40
0.5
 50
0.0
 51
90.0
  0
ARC
  5
9A8A
  8
01
 10
872.78769999999986
 20
-1412.3341
 30
0.0
 40
0.5
 50
270.0
 51
0.0
  0
POINT
  5
9A8C
  8
01
 10
797.68769999999995
 20
-1413.2340999999999
 30
0.0
  0
LINE
  5
9A8D
  8
01
 10
798.08770000000004
 20
-1414.9840999999999
 30
0.0
 11
798.08770000000004
 21
-1414.1341
 31
0.0
  0
LINE
  5
9A8E
  8
01
 10
797.28769999999986
 20
-1414.9840999999999
 30
0.0
 11
797.28769999999986
 21
-1414.1341
 31
0.0
  0
LINE
  5
9A8F
  8
01
 10
798.58770000000004
 20
-1413.6341
 30
0.0
 11
799.43769999999995
 21
-1413.6341
 31
0.0
  0
LINE
  5
9A90
  8
01
 10
798.58770000000004
 20
-1412.8341
 30
0.0
 11
799.43769999999995
 21
-1412.8341
 31
0.0
  0
LINE
  5
9A91
  8
01
 10
799.43769999999995
 20
-1413.6341
 30
0.0
 11
799.43769999999995
 21
-1412.8341
 31
0.0
  0
LINE
  5
9A92
  8
01
 10
797.28769999999986
 20
-1414.9840999999999
 30
0.0
 11
798.08770000000004
 21
-1414.9840999999999
 31
0.0
  0
LINE
  5
9A93
  8
01
 10
797.28769999999986
 20
-1411.4840999999999
 30
0.0
 11
797.28769999999986
 21
-1412.3341
 31
0.0
  0
LINE
  5
9A94
  8
01
 10
798.08770000000004
 20
-1411.4840999999999
 30
0.0
 11
798.08770000000004
 21
-1412.3341
 31
0.0
  0
LINE
  5
9A95
  8
01
 10
796.78769999999986
 20
-1412.8341
 30
0.0
 11
795.93769999999995
 21
-1412.8341
 31
0.0
  0
LINE
  5
9A96
  8
01
 10
796.78769999999986
 20
-1413.6341
 30
0.0
 11
795.93769999999995
 21
-1413.6341
 31
0.0
  0
LINE
  5
9A97
  8
01
 10
795.93769999999995
 20
-1412.8341
 30
0.0
 11
795.93769999999995
 21
-1413.6341
 31
0.0
  0
LINE
  5
9A98
  8
01
 10
798.08770000000004
 20
-1411.4840999999999
 30
0.0
 11
797.28769999999986
 21
-1411.4840999999999
 31
0.0
  0
CIRCLE
  5
9A99
  8
01
 10
797.68769999999995
 20
-1413.2340999999999
 30
0.0
 40
2.5
  0
ARC
  5
9A9A
  8
01
 10
796.78769999999986
 20
-1412.3341
 30
0.0
 40
0.5
 50
270.0
 51
0.0
  0
ARC
  5
9A9B
  8
01
 10
796.78769999999986
 20
-1414.1341
 30
0.0
 40
0.5
 50
0.0
 51
90.0
  0
ARC
  5
9A9C
  8
01
 10
798.58770000000004
 20
-1414.1341
 30
0.0
 40
0.5
 50
90.0
 51
180.0
  0
ARC
  5
9A9D
  8
01
 10
798.58770000000004
 20
-1412.3341
 30
0.0
 40
0.5
 50
180.0
 51
270.0
  0
LINE
  5
D1B4
  8
01
 10
984.38779999999997
 20
-1119.7342000000001
 30
0.0
 11
1023.9878
 21
-1119.7338999999999
 31
0.0
  0
LINE
  5
D1B5
  8
01
 10
1023.9878
 20
-1159.7342000000001
 30
0.0
 11
984.38779999999997
 21
-1159.7338999999999
 31
0.0
  0
LINE
  5
D1CB
  8
01
 10
855.68769999999995
 20
-1337.9340999999999
 30
0.0
 11
855.68769999999995
 21
-1377.5341000000001
 31
0.0
  0
LINE
  5
D937
  8
01
 10
953.18849999999998
 20
-1159.7340999999999
 30
0.0
 11
1059.1877999999999
 21
-1159.7340999999999
 31
0.0
  0
LINE
  5
D938
  8
01
 10
953.18849999999998
 20
-1119.7340999999999
 30
0.0
 11
1059.1877999999999
 21
-1119.7340999999999
 31
0.0
  0
LINE
  5
D94B
  8
1CENTER
 10
1004.1878
 20
-1157.6058
 30
0.0
 11
1004.1878
 21
-1180.2340999999999
 31
0.0
  0
LINE
  5
D94C
  8
1CENTER
 10
1004.1878
 20
-1121.8624
 30
0.0
 11
1004.1878
 21
-1099.2340999999999
 31
0.0
  0
LINE
  5
E782
  8
01
 10
1003.6878
 20
-1098.0341000000001
 30
0.0
 11
1004.6878
 21
-1098.0341000000001
 31
0.0
  0
LINE
  5
E785
  8
1HIDDEN
 10
984.54610000000002
 20
-1355.2340999999999
 30
0.0
 11
1022.1876999999999
 21
-1355.2340999999999
 31
0.0
  0
LINE
  5
E786
  8
1HIDDEN
 10
1022.1876999999999
 20
-1365.9827
 30
0.0
 11
1022.1876999999999
 21
-1355.2340999999999
 31
0.0
  0
ARC
  5
F28D
  8
01
 10
860.68769999999995
 20
-1391.7340999999999
 30
0.0
 40
5.0
 50
0.0
 51
90.0
  0
LINE
  5
F28E
  8
01
 10
855.68769999999995
 20
-1386.7340999999999
 30
0.0
 11
855.68769999999995
 21
-1439.7340999999999
 31
0.0
  0
LINE
  5
F28F
  8
01
 10
865.68769999999995
 20
-1434.7340999999999
 30
0.0
 11
865.68769999999995
 21
-1391.7340999999999
 31
0.0
  0
LINE
  5
F290
  8
01
 10
855.68769999999995
 20
-1386.7340999999999
 30
0.0
 11
860.68769999999995
 21
-1386.7340999999999
 31
0.0
  0
ARC
  5
F291
  8
01
 10
860.68769999999995
 20
-1434.7340999999999
 30
0.0
 40
5.0
 50
270.0
 51
0.0
  0
LINE
  5
F292
  8
01
 10
855.68769999999995
 20
-1439.7340999999999
 30
0.0
 11
860.68769999999995
 21
-1439.7340999999999
 31
0.0
  0
ARC
  5
F293
  8
01
 10
982.68780000000004
 20
-1164.7340999999999
 30
0.0
 40
5.0
 50
180.0
 51
270.0
  0
LINE
  5
F294
  8
01
 10
977.68779999999992
 20
-1159.7340999999999
 30
0.0
 11
1030.6877999999999
 21
-1159.7340999999999
 31
0.0
  0
LINE
  5
F295
  8
01
 10
1025.6877999999999
 20
-1169.7340999999999
 30
0.0
 11
982.68780000000004
 21
-1169.7340999999999
 31
0.0
  0
LINE
  5
F296
  8
01
 10
977.68779999999992
 20
-1159.7340999999999
 30
0.0
 11
977.68779999999992
 21
-1164.7340999999999
 31
0.0
  0
ARC
  5
F297
  8
01
 10
1025.6877999999999
 20
-1164.7340999999999
 30
0.0
 40
5.0
 50
270.0
 51
0.0
  0
LINE
  5
F298
  8
01
 10
1030.6877999999999
 20
-1159.7340999999999
 30
0.0
 11
1030.6877999999999
 21
-1164.7340999999999
 31
0.0
  0
ARC
  5
F299
  8
01
 10
1004.1878
 20
-1413.2340999999999
 30
0.0
 40
26.5
 50
85.056399999999996
 51
274.94360000000012
  0
ARC
  5
F29A
  8
1HIDDEN
 10
1004.1878
 20
-1413.2340999999999
 30
0.0
 40
26.5
 50
274.94360000000012
 51
85.056399999999996
  0
ARC
  5
F29C
  8
01
 10
1046.4377999999999
 20
-1361.2347
 30
0.0
 40
88.0
 50
230.9058
 51
281.15109999999999
  0
ARC
  5
F29D
  8
01
 10
1029.1877999999999
 20
-1413.2340999999999
 30
0.0
 40
22.0
 50
285.07010000000002
 51
74.929900000000004
  0
ARC
  5
F29E
  8
01
 10
1046.4377999999999
 20
-1465.2335
 30
0.0
 40
88.0
 50
78.848900000000015
 51
129.0942
  0
ARC
  5
F29F
  8
01
 10
1021.6478
 20
-1441.2366999999999
 30
0.0
 40
51.0
 50
74.929900000000004
 51
121.94410000000001
  0
ARC
  5
F2A0
  8
01
 10
1021.6478
 20
-1385.2313999999999
 30
0.0
 40
51.0
 50
238.05590000000001
 51
285.07010000000002
  0
ARC
  5
F2A1
  8
01
 10
1004.1878
 20
-1413.2340999999999
 30
0.0
 40
21.0
 50
129.0942
 51
230.9058
  0
ARC
  5
F2A2
  8
01
 10
1004.1878
 20
-1413.2340999999999
 30
0.0
 40
18.0
 50
121.94410000000001
 51
238.05590000000001
  0
ARC
  5
F2A3
  8
01
 10
1056.6877999999999
 20
-1413.2340999999999
 30
0.0
 40
35.0
 50
281.15109999999999
 51
78.848900000000015
  0
LINE
  5
F2A4
  8
01
 10
895.09680000000014
 20
-1425.2340999999999
 30
0.0
 11
867.18769999999995
 21
-1425.2340999999999
 31
0.0
  0
LINE
  5
F2A5
  8
01
 10
895.09680000000014
 20
-1401.2340999999999
 30
0.0
 11
867.18769999999995
 21
-1401.2340999999999
 31
0.0
  0
ARC
  5
F2A6
  8
01
 10
895.09680000000014
 20
-1398.2340999999999
 30
0.0
 40
3.0
 50
270.0
 51
353.62060000000002
  0
ARC
  5
F2A7
  8
01
 10
895.09680000000014
 20
-1428.2340999999999
 30
0.0
 40
3.0
 50
6.3794000000000004
 51
90.0
  0
ARC
  5
F2A8
  8
01
 10
1029.2609
 20
-1413.2340999999999
 30
0.0
 40
132.0
 50
171.27799999999999
 51
188.2978
  0
ARC
  5
F2A9
  8
01
 10
858.18769999999995
 20
-1413.2340999999999
 30
0.0
 40
15.0
 50
53.130099999999992
 51
60.0
  0
ARC
  5
F2AA
  8
01
 10
858.18769999999995
 20
-1413.2340999999999
 30
0.0
 40
15.0
 50
300.0
 51
306.86989999999997
  0
ARC
  5
F2AB
  8
01
 10
777.69179999999994
 20
-1413.2340999999999
 30
0.0
 40
132.0
 50
345.27199999999999
 51
14.728
  0
ARC
  5
F2AC
  8
01
 10
1026.6836000000001
 20
-1413.2340999999999
 30
0.0
 40
132.0
 50
165.27199999999999
 51
174.78280000000001
  0
ARC
  5
F2AD
  8
01
 10
902.18769999999995
 20
-1380.5081
 30
0.0
 40
3.2747000000000002
 50
14.728
 51
165.27199999999999
  0
ARC
  5
F2AE
  8
01
 10
902.18769999999995
 20
-1445.96
 30
0.0
 40
3.2747000000000002
 50
194.72799999999989
 51
345.27199999999999
  0
ARC
  5
F2AF
  8
01
 10
1026.6836000000001
 20
-1413.2340999999999
 30
0.0
 40
132.0
 50
185.21719999999999
 51
194.72799999999989
  0
POLYLINE
  5
F2B0
  8
01
 66
     1
 10
0.0
 20
0.0
 30
0.0
 70
     8
  0
VERTEX
  5
FB2E
  8
01
 10
907.70699999999999
 20
-1390.4300000000001
 30
0.0
 70
    32
  0
VERTEX
  5
FB2F
  8
01
 10
907.64800000000002
 20
-1390.3599999999999
 30
0.0
 70
    32
  0
VERTEX
  5
FB30
  8
01
 10
907.58899999999994
 20
-1390.3
 30
0.0
 70
    32
  0
VERTEX
  5
FB31
  8
01
 10
907.529
 20
-1390.26
 30
0.0
 70
    32
  0
VERTEX
  5
FB32
  8
01
 10
907.46999999999991
 20
-1390.24
 30
0.0
 70
    32
  0
VERTEX
  5
FB33
  8
01
 10
907.40999999999985
 20
-1390.23
 30
0.0
 70
    32
  0
VERTEX
  5
FB34
  8
01
 10
907.351
 20
-1390.24
 30
0.0
 70
    32
  0
VERTEX
  5
FB35
  8
01
 10
907.29100000000005
 20
-1390.27
 30
0.0
 70
    32
  0
VERTEX
  5
FB36
  8
01
 10
907.23199999999986
 20
-1390.3099999999999
 30
0.0
 70
    32
  0
VERTEX
  5
FB37
  8
01
 10
907.17200000000003
 20
-1390.3699999999999
 30
0.0
 70
    32
  0
VERTEX
  5
FB38
  8
01
 10
907.11300000000006
 20
-1390.4400000000001
 30
0.0
 70
    32
  0
VERTEX
  5
FB39
  8
01
 10
907.05399999999986
 20
-1390.53
 30
0.0
 70
    32
  0
VERTEX
  5
FB3A
  8
01
 10
906.99600000000009
 20
-1390.6400000000001
 30
0.0
 70
    32
  0
VERTEX
  5
FB3B
  8
01
 10
906.93700000000013
 20
-1390.76
 30
0.0
 70
    32
  0
VERTEX
  5
FB3C
  8
01
 10
906.87899999999991
 20
-1390.9000000000001
 30
0.0
 70
    32
  0
VERTEX
  5
FB3D
  8
01
 10
906.822
 20
-1391.05
 30
0.0
 70
    32
  0
VERTEX
  5
FB3E
  8
01
 10
906.7639999999999
 20
-1391.22
 30
0.0
 70
    32
  0
VERTEX
  5
FB3F
  8
01
 10
906.70799999999997
 20
-1391.4100000000001
 30
0.0
 70
    32
  0
VERTEX
  5
FB40
  8
01
 10
906.65099999999995
 20
-1391.6099999999999
 30
0.0
 70
    32
  0
VERTEX
  5
FB41
  8
01
 10
906.596
 20
-1391.8199999999999
 30
0.0
 70
    32
  0
VERTEX
  5
FB42
  8
01
 10
906.53999999999996
 20
-1392.0599999999999
 30
0.0
 70
    32
  0
VERTEX
  5
FB43
  8
01
 10
906.4860000000001
 20
-1392.3
 30
0.0
 70
    32
  0
VERTEX
  5
FB44
  8
01
 10
906.43200000000002
 20
-1392.5599999999999
 30
0.0
 70
    32
  0
VERTEX
  5
FB45
  8
01
 10
906.37899999999991
 20
-1392.8399999999999
 30
0.0
 70
    32
  0
VERTEX
  5
FB46
  8
01
 10
906.32599999999991
 20
-1393.1300000000001
 30
0.0
 70
    32
  0
VERTEX
  5
FB47
  8
01
 10
906.27499999999986
 20
-1393.4300000000001
 30
0.0
 70
    32
  0
VERTEX
  5
FB48
  8
01
 10
906.22399999999993
 20
-1393.75
 30
0.0
 70
    32
  0
VERTEX
  5
FB49
  8
01
 10
906.17399999999998
 20
-1394.0799999999999
 30
0.0
 70
    32
  0
VERTEX
  5
FB4A
  8
01
 10
906.12499999999989
 20
-1394.4300000000001
 30
0.0
 70
    32
  0
VERTEX
  5
FB4B
  8
01
 10
906.07600000000002
 20
-1394.79
 30
0.0
 70
    32
  0
VERTEX
  5
FB4C
  8
01
 10
906.029
 20
-1395.1600000000001
 30
0.0
 70
    32
  0
VERTEX
  5
FB4D
  8
01
 10
905.98300000000006
 20
-1395.54
 30
0.0
 70
    32
  0
VERTEX
  5
FB4E
  8
01
 10
905.9369999999999
 20
-1395.9400000000001
 30
0.0
 70
    32
  0
VERTEX
  5
FB4F
  8
01
 10
905.89300000000003
 20
-1396.3499999999999
 30
0.0
 70
    32
  0
VERTEX
  5
FB50
  8
01
 10
905.85000000000002
 20
-1396.77
 30
0.0
 70
    32
  0
VERTEX
  5
FB51
  8
01
 10
905.80799999999999
 20
-1397.2
 30
0.0
 70
    32
  0
VERTEX
  5
FB52
  8
01
 10
905.76699999999994
 20
-1397.6500000000001
 30
0.0
 70
    32
  0
VERTEX
  5
FB53
  8
01
 10
905.72699999999998
 20
-1398.0999999999999
 30
0.0
 70
    32
  0
VERTEX
  5
FB54
  8
01
 10
905.68799999999987
 20
-1398.5699999999999
 30
0.0
 70
    32
  0
VERTEX
  5
FB55
  8
01
 10
905.65100000000007
 20
-1399.04
 30
0.0
 70
    32
  0
VERTEX
  5
FB56
  8
01
 10
905.61500000000001
 20
-1399.53
 30
0.0
 70
    32
  0
VERTEX
  5
FB57
  8
01
 10
905.58000000000015
 20
-1400.03
 30
0.0
 70
    32
  0
VERTEX
  5
FB58
  8
01
 10
905.54699999999991
 20
-1400.53
 30
0.0
 70
    32
  0
VERTEX
  5
FB59
  8
01
 10
905.5139999999999
 20
-1401.05
 30
0.0
 70
    32
  0
VERTEX
  5
FB5A
  8
01
 10
905.48299999999995
 20
-1401.5699999999999
 30
0.0
 70
    32
  0
VERTEX
  5
FB5B
  8
01
 10
905.45399999999995
 20
-1402.0999999999999
 30
0.0
 70
    32
  0
VERTEX
  5
FB5C
  8
01
 10
905.42600000000004
 20
-1402.6400000000001
 30
0.0
 70
    32
  0
VERTEX
  5
FB5D
  8
01
 10
905.39899999999977
 20
-1403.1900000000001
 30
0.0
 70
    32
  0
VERTEX
  5
FB5E
  8
01
 10
905.37399999999991
 20
-1403.74
 30
0.0
 70
    32
  0
VERTEX
  5
FB5F
  8
01
 10
905.34999999999991
 20
-1404.3
 30
0.0
 70
    32
  0
VERTEX
  5
FB60
  8
01
 10
905.32699999999988
 20
-1404.8699999999999
 30
0.0
 70
    32
  0
VERTEX
  5
FB61
  8
01
 10
905.3069999999999
 20
-1405.4400000000001
 30
0.0
 70
    32
  0
VERTEX
  5
FB62
  8
01
 10
905.28699999999981
 20
-1406.02
 30
0.0
 70
    32
  0
VERTEX
  5
FB63
  8
01
 10
905.26899999999978
 20
-1406.5999999999999
 30
0.0
 70
    32
  0
VERTEX
  5
FB64
  8
01
 10
905.25300000000004
 20
-1407.1900000000001
 30
0.0
 70
    32
  0
VERTEX
  5
FB65
  8
01
 10
905.23800000000006
 20
-1407.78
 30
0.0
 70
    32
  0
VERTEX
  5
FB66
  8
01
 10
905.22500000000002
 20
-1408.3800000000001
 30
0.0
 70
    32
  0
VERTEX
  5
FB67
  8
01
 10
905.21300000000008
 20
-1408.98
 30
0.0
 70
    32
  0
VERTEX
  5
FB68
  8
01
 10
905.202
 20
-1409.5799999999999
 30
0.0
 70
    32
  0
VERTEX
  5
FB69
  8
01
 10
905.19399999999996
 20
-1410.1800000000001
 30
0.0
 70
    32
  0
VERTEX
  5
FB6A
  8
01
 10
905.18700000000001
 20
-1410.79
 30
0.0
 70
    32
  0
VERTEX
  5
FB6B
  8
01
 10
905.18100000000015
 20
-1411.4000000000001
 30
0.0
 70
    32
  0
VERTEX
  5
FB6C
  8
01
 10
905.17700000000013
 20
-1412.01
 30
0.0
 70
    32
  0
VERTEX
  5
FB6D
  8
01
 10
905.17499999999995
 20
-1412.6199999999999
 30
0.0
 70
    32
  0
VERTEX
  5
FB6E
  8
01
 10
905.17399999999998
 20
-1413.23
 30
0.0
 70
    32
  0
VERTEX
  5
FB6F
  8
01
 10
905.17499999999995
 20
-1413.8499999999999
 30
0.0
 70
    32
  0
VERTEX
  5
FB70
  8
01
 10
905.17700000000013
 20
-1414.46
 30
0.0
 70
    32
  0
VERTEX
  5
FB71
  8
01
 10
905.18100000000015
 20
-1415.0699999999999
 30
0.0
 70
    32
  0
VERTEX
  5
FB72
  8
01
 10
905.18700000000001
 20
-1415.6800000000001
 30
0.0
 70
    32
  0
VERTEX
  5
FB73
  8
01
 10
905.19399999999996
 20
-1416.28
 30
0.0
 70
    32
  0
VERTEX
  5
FB74
  8
01
 10
905.202
 20
-1416.8900000000001
 30
0.0
 70
    32
  0
VERTEX
  5
FB75
  8
01
 10
905.21300000000008
 20
-1417.49
 30
0.0
 70
    32
  0
VERTEX
  5
FB76
  8
01
 10
905.22500000000002
 20
-1418.0899999999999
 30
0.0
 70
    32
  0
VERTEX
  5
FB77
  8
01
 10
905.23800000000006
 20
-1418.6900000000001
 30
0.0
 70
    32
  0
VERTEX
  5
FB78
  8
01
 10
905.25300000000004
 20
-1419.28
 30
0.0
 70
    32
  0
VERTEX
  5
FB79
  8
01
 10
905.26899999999978
 20
-1419.8699999999999
 30
0.0
 70
    32
  0
VERTEX
  5
FB7A
  8
01
 10
905.28699999999981
 20
-1420.45
 30
0.0
 70
    32
  0
VERTEX
  5
FB7B
  8
01
 10
905.3069999999999
 20
-1421.03
 30
0.0
 70
    32
  0
VERTEX
  5
FB7C
  8
01
 10
905.32699999999988
 20
-1421.5999999999999
 30
0.0
 70
    32
  0
VERTEX
  5
FB7D
  8
01
 10
905.34999999999991
 20
-1422.1700000000001
 30
0.0
 70
    32
  0
VERTEX
  5
FB7E
  8
01
 10
905.37399999999991
 20
-1422.73
 30
0.0
 70
    32
  0
VERTEX
  5
FB7F
  8
01
 10
905.39899999999977
 20
-1423.28
 30
0.0
 70
    32
  0
VERTEX
  5
FB80
  8
01
 10
905.42600000000004
 20
-1423.8299999999999
 30
0.0
 70
    32
  0
VERTEX
  5
FB81
  8
01
 10
905.45399999999995
 20
-1424.3699999999999
 30
0.0
 70
    32
  0
VERTEX
  5
FB82
  8
01
 10
905.48299999999995
 20
-1424.9000000000001
 30
0.0
 70
    32
  0
VERTEX
  5
FB83
  8
01
 10
905.5139999999999
 20
-1425.4200000000001
 30
0.0
 70
    32
  0
VERTEX
  5
FB84
  8
01
 10
905.54699999999991
 20
-1425.9400000000001
 30
0.0
 70
    32
  0
VERTEX
  5
FB85
  8
01
 10
905.58000000000015
 20
-1426.4400000000001
 30
0.0
 70
    32
  0
VERTEX
  5
FB86
  8
01
 10
905.61500000000001
 20
-1426.9400000000001
 30
0.0
 70
    32
  0
VERTEX
  5
FB87
  8
01
 10
905.65100000000007
 20
-1427.4200000000001
 30
0.0
 70
    32
  0
VERTEX
  5
FB88
  8
01
 10
905.68799999999987
 20
-1427.9000000000001
 30
0.0
 70
    32
  0
VERTEX
  5
FB89
  8
01
 10
905.72699999999998
 20
-1428.3699999999999
 30
0.0
 70
    32
  0
VERTEX
  5
FB8A
  8
01
 10
905.76699999999994
 20
-1428.8199999999999
 30
0.0
 70
    32
  0
VERTEX
  5
FB8B
  8
01
 10
905.80799999999999
 20
-1429.27
 30
0.0
 70
    32
  0
VERTEX
  5
FB8C
  8
01
 10
905.85000000000002
 20
-1429.7
 30
0.0
 70
    32
  0
VERTEX
  5
FB8D
  8
01
 10
905.89300000000003
 20
-1430.1199999999999
 30
0.0
 70
    32
  0
VERTEX
  5
FB8E
  8
01
 10
905.9369999999999
 20
-1430.53
 30
0.0
 70
    32
  0
VERTEX
  5
FB8F
  8
01
 10
905.98300000000006
 20
-1430.9300000000001
 30
0.0
 70
    32
  0
VERTEX
  5
FB90
  8
01
 10
906.029
 20
-1431.3099999999999
 30
0.0
 70
    32
  0
VERTEX
  5
FB91
  8
01
 10
906.07600000000002
 20
-1431.6800000000001
 30
0.0
 70
    32
  0
VERTEX
  5
FB92
  8
01
 10
906.12499999999989
 20
-1432.04
 30
0.0
 70
    32
  0
VERTEX
  5
FB93
  8
01
 10
906.17399999999998
 20
-1432.3900000000001
 30
0.0
 70
    32
  0
VERTEX
  5
FB94
  8
01
 10
906.22399999999993
 20
-1432.72
 30
0.0
 70
    32
  0
VERTEX
  5
FB95
  8
01
 10
906.27499999999986
 20
-1433.04
 30
0.0
 70
    32
  0
VERTEX
  5
FB96
  8
01
 10
906.32599999999991
 20
-1433.3399999999999
 30
0.0
 70
    32
  0
VERTEX
  5
FB97
  8
01
 10
906.37899999999991
 20
-1433.6300000000001
 30
0.0
 70
    32
  0
VERTEX
  5
FB98
  8
01
 10
906.43200000000002
 20
-1433.9100000000001
 30
0.0
 70
    32
  0
VERTEX
  5
FB99
  8
01
 10
906.4860000000001
 20
-1434.1700000000001
 30
0.0
 70
    32
  0
VERTEX
  5
FB9A
  8
01
 10
906.53999999999996
 20
-1434.4100000000001
 30
0.0
 70
    32
  0
VERTEX
  5
FB9B
  8
01
 10
906.596
 20
-1434.6400000000001
 30
0.0
 70
    32
  0
VERTEX
  5
FB9C
  8
01
 10
906.65099999999995
 20
-1434.8599999999999
 30
0.0
 70
    32
  0
VERTEX
  5
FB9D
  8
01
 10
906.70799999999997
 20
-1435.0599999999999
 30
0.0
 70
    32
  0
VERTEX
  5
FB9E
  8
01
 10
906.7639999999999
 20
-1435.25
 30
0.0
 70
    32
  0
VERTEX
  5
FB9F
  8
01
 10
906.822
 20
-1435.4100000000001
 30
0.0
 70
    32
  0
VERTEX
  5
FBA0
  8
01
 10
906.87899999999991
 20
-1435.5699999999999
 30
0.0
 70
    32
  0
VERTEX
  5
FBA1
  8
01
 10
906.93700000000013
 20
-1435.71
 30
0.0
 70
    32
  0
VERTEX
  5
FBA2
  8
01
 10
906.99600000000009
 20
-1435.8299999999999
 30
0.0
 70
    32
  0
VERTEX
  5
FBA3
  8
01
 10
907.05399999999986
 20
-1435.9400000000001
 30
0.0
 70
    32
  0
VERTEX
  5
FBA4
  8
01
 10
907.11300000000006
 20
-1436.03
 30
0.0
 70
    32
  0
VERTEX
  5
FBA5
  8
01
 10
907.17200000000003
 20
-1436.0999999999999
 30
0.0
 70
    32
  0
VERTEX
  5
FBA6
  8
01
 10
907.23199999999986
 20
-1436.1600000000001
 30
0.0
 70
    32
  0
VERTEX
  5
FBA7
  8
01
 10
907.29100000000005
 20
-1436.2
 30
0.0
 70
    32
  0
VERTEX
  5
FBA8
  8
01
 10
907.351
 20
-1436.22
 30
0.0
 70
    32
  0
VERTEX
  5
FBA9
  8
01
 10
907.40999999999985
 20
-1436.23
 30
0.0
 70
    32
  0
VERTEX
  5
FBAA
  8
01
 10
907.46999999999991
 20
-1436.23
 30
0.0
 70
    32
  0
VERTEX
  5
FBAB
  8
01
 10
907.529
 20
-1436.2
 30
0.0
 70
    32
  0
VERTEX
  5
FBAC
  8
01
 10
907.58899999999994
 20
-1436.1600000000001
 30
0.0
 70
    32
  0
VERTEX
  5
FBAD
  8
01
 10
907.64800000000002
 20
-1436.1099999999999
 30
0.0
 70
    32
  0
VERTEX
  5
FBAE
  8
01
 10
907.70699999999999
 20
-1436.04
 30
0.0
 70
    32
  0
SEQEND
  5
FBAF
  8
01
  0
LINE
  5
F2B2
  8
01
 10
867.18769999999995
 20
-1401.2340999999999
 30
0.0
 11
867.18769999999995
 21
-1425.2340999999999
 31
0.0
  0
ARC
  5
F2B3
  8
1PHANTOM
 10
1131.6457
 20
-1498.2802999999999
 30
0.0
 40
320.39909999999998
 50
104.0223
 51
107.20140000000001
  0
ARC
  5
F2B4
  8
1PHANTOM
 10
1159.7666999999999
 20
-1934.0596
 30
0.0
 40
739.92370000000005
 50
98.155100000000004
 51
99.329700000000017
  0
ARC
  5
F2B5
  8
1PHANTOM
 10
998.74670000000003
 20
-1202.4143999999999
 30
0.0
 40
3.0
 50
290.69200000000001
 51
14.0
  0
ARC
  5
F2B6
  8
01
 10
1112.539
 20
-2250.7811999999999
 30
0.0
 40
1055.0555999999999
 50
95.894500000000008
 51
96.469399999999993
  0
ARC
  5
F2B7
  8
1PHANTOM
 10
1004.1878
 20
-1162.2340999999999
 30
0.0
 40
15.0
 50
224.0
 51
230.8699
  0
LINE
  5
F2B8
  8
1PHANTOM
 10
1001.6575
 20
-1201.6886999999999
 30
0.0
 11
994.72149999999988
 21
-1173.8697999999999
 31
0.0
  0
ARC
  5
F2B9
  8
1PHANTOM
 10
1027.1204
 20
-1192.2083
 30
0.0
 40
3.0
 50
194.0
 51
288.61829999999998
  0
ARC
  5
F2BA
  8
1PHANTOM
 10
1004.1878
 20
-1162.2340999999999
 30
0.0
 40
15.0
 50
337.13010000000003
 51
344.0
  0
ARC
  5
F2BB
  8
01
 10
1056.5653
 20
-1674.9629
 30
0.0
 40
476.54599999999999
 50
94.786000000000001
 51
96.310199999999995
  0
LINE
  5
F2BC
  8
1PHANTOM
 10
1024.2094999999999
 20
-1192.9340999999999
 30
0.0
 11
1018.0086
 21
-1168.0636999999999
 31
0.0
  0
ARC
  5
F2BD
  8
1PHANTOM
 10
1138.5098
 20
-1522.8452
 30
0.0
 40
345.89589999999998
 50
107.0842
 51
108.6183
  0
ARC
  5
F2BE
  8
1PHANTOM
 10
1053.8497
 20
-1420.3729000000001
 30
0.0
 40
215.5377
 50
100.2058
 51
103.0063
  0
ARC
  5
F2BF
  8
01
 10
861.88279999999997
 20
63.3352
 30
0.0
 40
1272.6206
 50
275.87479999999999
 51
275.9436
  0
ARC
  5
F2C0
  8
1PHANTOM
 10
1069.3761
 20
-1389.4086
 30
0.0
 40
196.88839999999999
 50
110.69199999999999
 51
111.82340000000001
  0
ARC
  5
F2C1
  8
1PHANTOM
 10
1139.6999000000001
 20
-1781.6410000000001
 30
0.0
 40
586.86350000000004
 50
103.2349
 51
103.96469999999999
  0
ARC
  5
F2C2
  8
1PHANTOM
 10
976.38279999999997
 20
-1016.4328
 30
0.0
 40
196.88839999999999
 50
276.17660000000001
 51
276.32549999999998
  0
ARC
  5
F2C3
  8
1PHANTOM
 10
997.25609999999983
 20
-1209.3094000000001
 30
0.0
 40
2.8856000000000002
 50
111.82340000000001
 51
276.17660000000001
  0
ARC
  5
F2C4
  8
1PHANTOM
 10
1171.4639999999999
 20
-2011.6747
 30
0.0
 40
818.39689999999985
 50
99.749899999999997
 51
100.0945
  0
ARC
  5
F2C5
  8
1PHANTOM
 10
1134.8006
 20
-1814.5226
 30
0.0
 40
617.87260000000003
 50
99.951700000000017
 51
101.1177
  0
ARC
  5
F2C6
  8
1PHANTOM
 10
1215.0949000000001
 20
-2261.0965000000001
 30
0.0
 40
1071.6052
 50
99.414100000000005
 51
99.790700000000015
  0
ARC
  5
F2C7
  8
1PHANTOM
 10
1096.655
 20
-1323.8707999999999
 30
0.0
 40
142.5591
 50
90.022200000000012
 51
94.004599999999996
  0
ARC
  5
F2C8
  8
1PHANTOM
 10
1096.5812000000001
 20
-1321.8042
 30
0.0
 40
140.4923
 50
94.0334
 51
98.614400000000003
  0
ARC
  5
F2C9
  8
1PHANTOM
 10
1097.2075
 20
-1327.4550999999999
 30
0.0
 40
146.17349999999999
 50
98.525400000000019
 51
103.13209999999999
  0
ARC
  5
F2CA
  8
1PHANTOM
 10
1121.7646
 20
-1455.8380999999999
 30
0.0
 40
276.82830000000001
 50
102.0448
 51
104.1666
  0
ARC
  5
F2CB
  8
1PHANTOM
 10
1032.1418000000001
 20
-1063.3520000000001
 30
0.0
 40
140.4923
 50
289.38560000000001
 51
293.96660000000003
  0
ARC
  5
F2CC
  8
1PHANTOM
 10
1030.0418999999999
 20
-1058.0686000000001
 30
0.0
 40
146.17349999999999
 50
284.86790000000002
 51
288.59649999999999
  0
ARC
  5
F2CD
  8
1PHANTOM
 10
1085.8130000000001
 20
-1453.1505
 30
0.0
 40
253.43620000000001
 50
96.420500000000004
 51
97.027500000000003
  0
ARC
  5
F2CE
  8
1PHANTOM
 10
1087.9499000000001
 20
-1471.2759000000001
 30
0.0
 40
271.68680000000001
 50
95.429199999999994
 51
96.440900000000013
  0
ARC
  5
F2CF
  8
1PHANTOM
 10
991.45230000000004
 20
-933.18409999999983
 30
0.0
 40
276.82830000000001
 50
284.81650000000002
 51
285.95519999999999
  0
ARC
  5
F2D0
  8
1PHANTOM
 10
1030.0418999999999
 20
-1058.0686000000001
 30
0.0
 40
146.17349999999999
 50
288.59649999999999
 51
289.47460000000001
  0
ARC
  5
F2D1
  8
1PHANTOM
 10
1096.6010000000001
 20
-1184.5399
 30
0.0
 40
3.2280999999999991
 50
297.9778
 51
90.022200000000012
  0
ARC
  5
F2D2
  8
1PHANTOM
 10
1031.2366999999999
 20
-1061.4926
 30
0.0
 40
142.5591
 50
293.99540000000002
 51
297.9778
  0
LINE
  5
F2D3
  8
01
 10
992.18780000000015
 20
-1171.2340999999999
 30
0.0
 11
1016.1878
 21
-1171.2340999999999
 31
0.0
  0
ARC
  5
F2D4
  8
1PHANTOM
 10
958.96230000000014
 20
-1518.7831000000001
 30
0.0
 40
320.39909999999998
 50
76.022300000000001
 51
79.201400000000007
  0
ARC
  5
F2D5
  8
1PHANTOM
 10
779.20569999999987
 20
-1916.7554
 30
0.0
 40
739.92370000000005
 50
70.155100000000004
 51
71.329700000000003
  0
ARC
  5
F2D6
  8
1PHANTOM
 10
980.51999999999987
 20
-1195.1568
 30
0.0
 40
3.0
 50
262.69200000000001
 51
346.0
  0
ARC
  5
F2D7
  8
1PHANTOM
 10
1004.1878
 20
-1162.2340999999999
 30
0.0
 40
15.0
 50
195.99999999999989
 51
202.8699
  0
LINE
  5
F2D8
  8
1PHANTOM
 10
983.43089999999995
 20
-1195.8824999999999
 30
0.0
 11
990.36689999999999
 21
-1168.0636999999999
 31
0.0
  0
ARC
  5
F2D9
  8
1PHANTOM
 10
1010.364
 20
-1199.4659999999999
 30
0.0
 40
3.0
 50
166.0
 51
260.61829999999998
  0
ARC
  5
F2DA
  8
1PHANTOM
 10
1004.1878
 20
-1162.2340999999999
 30
0.0
 40
15.0
 50
309.13010000000003
 51
316.0
  0
LINE
  5
F2DB
  8
1PHANTOM
 10
1007.4530999999999
 20
-1198.7402
 30
0.0
 11
1013.654
 21
-1173.8697999999999
 31
0.0
  0
ARC
  5
F2DC
  8
1PHANTOM
 10
953.49040000000002
 20
-1543.6952000000001
 30
0.0
 40
345.89589999999998
 50
79.084199999999996
 51
80.618300000000005
  0
ARC
  5
F2DD
  8
1PHANTOM
 10
926.84789999999987
 20
-1413.472
 30
0.0
 40
215.5377
 50
72.205799999999996
 51
75.006299999999996
  0
ARC
  5
F2DE
  8
1PHANTOM
 10
955.09370000000013
 20
-1393.4213999999999
 30
0.0
 40
196.88839999999999
 50
82.692000000000007
 51
83.823400000000007
  0
ARC
  5
F2DF
  8
1PHANTOM
 10
833.04399999999987
 20
-1772.7570000000001
 30
0.0
 40
586.86350000000004
 50
75.234899999999996
 51
75.964699999999993
  0
ARC
  5
F2E0
  8
1PHANTOM
 10
1048.087
 20
-1020.4456
 30
0.0
 40
196.88839999999999
 50
248.17660000000001
 51
248.32550000000001
  0
ARC
  5
F2E1
  8
1PHANTOM
 10
975.96690000000001
 20
-1200.5447999999999
 30
0.0
 40
2.8856000000000002
 50
83.823400000000007
 51
248.17660000000001
  0
ARC
  5
F2E2
  8
1PHANTOM
 10
753.09569999999985
 20
-1990.7771
 30
0.0
 40
818.39689999999985
 50
71.749899999999997
 51
72.094499999999996
  0
ARC
  5
F2E3
  8
1PHANTOM
 10
813.28110000000004
 20
-1799.4897000000001
 30
0.0
 40
617.87260000000003
 50
71.951700000000002
 51
73.117699999999999
  0
ARC
  5
F2E4
  8
1PHANTOM
 10
674.52300000000002
 20
-2231.4868999999999
 30
0.0
 40
1071.6052
 50
71.414100000000005
 51
71.790700000000001
  0
ARC
  5
F2E5
  8
1PHANTOM
 10
1009.9476
 20
-1348.3616
 30
0.0
 40
142.5591
 50
62.022199999999991
 51
66.004599999999996
  0
ARC
  5
F2E6
  8
1PHANTOM
 10
1010.8527
 20
-1346.5021999999999
 30
0.0
 40
140.4923
 50
66.0334
 51
70.614400000000003
  0
ARC
  5
F2E7
  8
1PHANTOM
 10
1008.7527
 20
-1351.7855999999999
 30
0.0
 40
146.17349999999999
 50
70.525400000000005
 51
75.132099999999994
  0
ARC
  5
F2E8
  8
1PHANTOM
 10
970.16319999999996
 20
-1476.6701
 30
0.0
 40
276.82830000000001
 50
74.044799999999995
 51
76.166600000000003
  0
ARC
  5
F2E9
  8
1PHANTOM
 10
1075.2920999999999
 20
-1088.05
 30
0.0
 40
140.4923
 50
261.38560000000001
 51
265.96660000000003
  0
ARC
  5
F2EA
  8
1PHANTOM
 10
1075.9183
 20
-1082.3991000000001
 30
0.0
 40
146.17349999999999
 50
256.86790000000002
 51
260.59649999999999
  0
ARC
  5
F2EB
  8
1PHANTOM
 10
939.68159999999989
 20
-1457.4186999999999
 30
0.0
 40
253.43620000000001
 50
68.420500000000004
 51
69.027500000000003
  0
ARC
  5
F2EC
  8
1PHANTOM
 10
933.05899999999986
 20
-1474.4257
 30
0.0
 40
271.68680000000001
 50
67.429199999999994
 51
68.440899999999999
  0
ARC
  5
F2ED
  8
1PHANTOM
 10
1100.4755
 20
-954.01599999999996
 30
0.0
 40
276.82830000000001
 50
256.81650000000002
 51
257.95519999999999
  0
ARC
  5
F2EE
  8
1PHANTOM
 10
1075.9183
 20
-1082.3991000000001
 30
0.0
 40
146.17349999999999
 50
260.59649999999999
 51
261.47460000000001
  0
ARC
  5
F2EF
  8
1PHANTOM
 10
1075.3117999999999
 20
-1225.3143
 30
0.0
 40
3.2280999999999991
 50
269.9778
 51
62.022199999999991
  0
ARC
  5
F2F0
  8
1PHANTOM
 10
1075.3659
 20
-1085.9834000000001
 30
0.0
 40
142.5591
 50
265.99540000000002
 51
269.9778
  0
ARC
  5
F2F1
  8
01
 10
1046.5626999999999
 20
-1519.1331
 30
0.0
 40
320.39909999999998
 50
90.022300000000016
 51
93.201400000000007
  0
ARC
  5
F2F2
  8
01
 10
968.42380000000003
 20
-1948.771
 30
0.0
 40
739.92370000000005
 50
84.155100000000004
 51
85.329700000000003
  0
ARC
  5
F2F3
  8
01
 10
989.18780000000004
 20
-1199.9046000000001
 30
0.0
 40
3.0
 50
276.69200000000001
 51
0.0
  0
ARC
  5
F2F4
  8
01
 10
1004.1878
 20
-1162.2340999999999
 30
0.0
 40
15.0
 50
210.0
 51
216.8699
  0
LINE
  5
F2F5
  8
01
 10
992.18780000000015
 20
-1199.9046000000001
 30
0.0
 11
992.18780000000015
 21
-1171.2340999999999
 31
0.0
  0
ARC
  5
F2F6
  8
01
 10
1019.1878
 20
-1196.8659
 30
0.0
 40
3.0
 50
180.0
 51
274.61829999999998
  0
ARC
  5
F2F7
  8
01
 10
1004.1878
 20
-1162.2340999999999
 30
0.0
 40
15.0
 50
323.13010000000003
 51
330.0
  0
LINE
  5
F2F8
  8
01
 10
1016.1878
 20
-1196.8659
 30
0.0
 11
1016.1878
 21
-1171.2340999999999
 31
0.0
  0
ARC
  5
F2F9
  8
01
 10
1047.2800999999999
 20
-1544.6289999999999
 30
0.0
 40
345.89589999999998
 50
93.08420000000001
 51
94.618300000000005
  0
ARC
  5
F2FA
  8
01
 10
989.92510000000016
 20
-1424.7194
 30
0.0
 40
215.5377
 50
86.205799999999996
 51
89.006299999999996
  0
ARC
  5
F2FB
  8
01
 10
1012.4813
 20
-1398.4311
 30
0.0
 40
196.88839999999999
 50
96.692000000000007
 51
97.823400000000035
  0
ARC
  5
F2FC
  8
01
 10
985.82650000000012
 20
-1796.0253
 30
0.0
 40
586.86350000000004
 50
89.234899999999996
 51
89.964699999999993
  0
ARC
  5
F2FD
  8
01
 10
1012.4813
 20
-1014.0371
 30
0.0
 40
196.88839999999999
 50
262.17660000000001
 51
262.32549999999998
  0
ARC
  5
F2FE
  8
01
 10
986.07339999999999
 20
-1206.2340999999999
 30
0.0
 40
2.8856000000000002
 50
97.823400000000035
 51
262.17660000000001
  0
ARC
  5
F2FF
  8
01
 10
960.99689999999987
 20
-2026.9105
 30
0.0
 40
818.39689999999985
 50
85.749899999999997
 51
86.094499999999996
  0
ARC
  5
F300
  8
01
 10
973.11800000000005
 20
-1826.7449999999999
 30
0.0
 40
617.87260000000003
 50
85.951700000000017
 51
87.117699999999985
  0
ARC
  5
F301
  8
01
 10
942.99109999999996
 20
-2279.4785999999999
 30
0.0
 40
1071.6052
 50
85.414100000000005
 51
85.790699999999987
  0
ARC
  5
F302
  8
01
 10
1054.8047999999999
 20
-1341.4394
 30
0.0
 40
142.5591
 50
76.022199999999984
 51
80.004599999999996
  0
ARC
  5
F303
  8
01
 10
1055.2331999999999
 20
-1339.4161999999999
 30
0.0
 40
140.4923
 50
80.033399999999986
 51
84.614400000000003
  0
ARC
  5
F304
  8
01
 10
1054.4738
 20
-1345.0508
 30
0.0
 40
146.17349999999999
 50
84.525400000000005
 51
89.132099999999994
  0
ARC
  5
F305
  8
01
 10
1047.2428
 20
-1475.5613000000001
 30
0.0
 40
276.82830000000001
 50
88.044799999999995
 51
90.166600000000017
  0
ARC
  5
F306
  8
01
 10
1055.2331999999999
 20
-1073.0518999999999
 30
0.0
 40
140.4923
 50
275.38560000000001
 51
279.96660000000003
  0
ARC
  5
F307
  8
01
 10
1054.4738
 20
-1067.4174
 30
0.0
 40
146.17349999999999
 50
270.86790000000002
 51
274.59649999999999
  0
ARC
  5
F308
  8
01
 10
1013.0093000000001
 20
-1464.2559000000001
 30
0.0
 40
253.43620000000001
 50
82.420500000000004
 51
83.027500000000003
  0
ARC
  5
F309
  8
01
 10
1010.6978
 20
-1482.3598999999999
 30
0.0
 40
271.68680000000001
 50
81.429199999999994
 51
82.440899999999985
  0
ARC
  5
F30A
  8
01
 10
1047.2428
 20
-936.90689999999995
 30
0.0
 40
276.82830000000001
 50
270.81650000000002
 51
271.95519999999999
  0
ARC
  5
F30B
  8
01
 10
1054.4738
 20
-1067.4174
 30
0.0
 40
146.17349999999999
 50
274.59649999999999
 51
275.47460000000001
  0
ARC
  5
F30C
  8
01
 10
1088.4595999999999
 20
-1206.2340999999999
 30
0.0
 40
3.2280999999999991
 50
283.9778
 51
76.022199999999984
  0
ARC
  5
F30D
  8
01
 10
1054.8047999999999
 20
-1071.0288
 30
0.0
 40
142.5591
 50
279.99540000000002
 51
283.9778
  0
ARC
  5
F314
  8
01
 10
810.68769999999995
 20
-1391.7340999999999
 30
0.0
 40
5.0
 50
90.0
 51
180.0
  0
LINE
  5
F315
  8
01
 10
815.68769999999995
 20
-1386.7340999999999
 30
0.0
 11
815.68769999999995
 21
-1439.7340999999999
 31
0.0
  0
LINE
  5
F316
  8
01
 10
805.68769999999995
 20
-1434.7340999999999
 30
0.0
 11
805.68769999999995
 21
-1391.7340999999999
 31
0.0
  0
LINE
  5
F317
  8
01
 10
815.68769999999995
 20
-1386.7340999999999
 30
0.0
 11
810.68769999999995
 21
-1386.7340999999999
 31
0.0
  0
ARC
  5
F318
  8
01
 10
810.68769999999995
 20
-1434.7340999999999
 30
0.0
 40
5.0
 50
180.0
 51
270.0
  0
LINE
  5
F319
  8
01
 10
815.68769999999995
 20
-1439.7340999999999
 30
0.0
 11
810.68769999999995
 21
-1439.7340999999999
 31
0.0
  0
ARC
  5
F31A
  8
01
 10
667.18759999999997
 20
-1413.2340999999999
 30
0.0
 40
26.5
 50
265.0564
 51
94.943600000000004
  0
ARC
  5
F31B
  8
1HIDDEN
 10
667.18759999999997
 20
-1413.2340999999999
 30
0.0
 40
26.5
 50
94.943600000000004
 51
265.0564
  0
ARC
  5
F31C
  8
01
 10
624.93759999999986
 20
-1361.2347
 30
0.0
 40
88.0
 50
258.84890000000001
 51
309.0942
  0
ARC
  5
F31D
  8
01
 10
642.18759999999997
 20
-1413.2340999999999
 30
0.0
 40
22.0
 50
105.0701
 51
254.9299
  0
ARC
  5
F31E
  8
01
 10
624.93759999999986
 20
-1465.2335
 30
0.0
 40
88.0
 50
50.905799999999999
 51
101.1511
  0
ARC
  5
F31F
  8
01
 10
649.72760000000005
 20
-1441.2366999999999
 30
0.0
 40
51.0
 50
58.055900000000001
 51
105.0701
  0
ARC
  5
F320
  8
01
 10
649.72760000000005
 20
-1385.2313999999999
 30
0.0
 40
51.0
 50
254.9299
 51
301.94409999999999
  0
ARC
  5
F321
  8
01
 10
667.18759999999997
 20
-1413.2340999999999
 30
0.0
 40
21.0
 50
309.0942
 51
50.905799999999999
  0
ARC
  5
F322
  8
01
 10
667.18759999999997
 20
-1413.2340999999999
 30
0.0
 40
18.0
 50
301.94409999999999
 51
58.055900000000001
  0
ARC
  5
F323
  8
01
 10
614.68759999999986
 20
-1413.2340999999999
 30
0.0
 40
35.0
 50
101.1511
 51
258.84890000000001
  0
LINE
  5
F324
  8
01
 10
776.27850000000001
 20
-1425.2340999999999
 30
0.0
 11
804.18769999999995
 21
-1425.2340999999999
 31
0.0
  0
LINE
  5
F325
  8
01
 10
776.27850000000001
 20
-1401.2340999999999
 30
0.0
 11
804.18769999999995
 21
-1401.2340999999999
 31
0.0
  0
ARC
  5
F326
  8
01
 10
776.27850000000001
 20
-1398.2340999999999
 30
0.0
 40
3.0
 50
186.3794
 51
270.0
  0
ARC
  5
F327
  8
01
 10
776.27850000000001
 20
-1428.2340999999999
 30
0.0
 40
3.0
 50
90.0
 51
173.6206
  0
ARC
  5
F328
  8
01
 10
642.11440000000005
 20
-1413.2340999999999
 30
0.0
 40
132.0
 50
351.7022
 51
8.7220000000000013
  0
ARC
  5
F329
  8
01
 10
813.18769999999995
 20
-1413.2340999999999
 30
0.0
 40
15.0
 50
120.0
 51
126.8699
  0
ARC
  5
F32A
  8
01
 10
813.18769999999995
 20
-1413.2340999999999
 30
0.0
 40
15.0
 50
233.1301
 51
240.0
  0
ARC
  5
F32B
  8
01
 10
893.68359999999996
 20
-1413.2340999999999
 30
0.0
 40
132.0
 50
165.27199999999999
 51
194.72799999999989
  0
ARC
  5
F32C
  8
01
 10
644.69179999999994
 20
-1413.2340999999999
 30
0.0
 40
132.0
 50
5.2172000000000001
 51
14.728
  0
ARC
  5
F32D
  8
01
 10
769.18769999999995
 20
-1380.5081
 30
0.0
 40
3.2747000000000002
 50
14.728
 51
165.27199999999999
  0
ARC
  5
F32E
  8
01
 10
769.18769999999995
 20
-1445.96
 30
0.0
 40
3.2747000000000002
 50
194.72799999999989
 51
345.27199999999999
  0
ARC
  5
F32F
  8
01
 10
644.69179999999994
 20
-1413.2340999999999
 30
0.0
 40
132.0
 50
345.27199999999999
 51
354.78280000000001
  0
POLYLINE
  5
F330
  8
01
 66
     1
 10
0.0
 20
0.0
 30
0.0
 70
     8
  0
VERTEX
  5
FBB0
  8
01
 10
763.66800000000001
 20
-1390.4300000000001
 30
0.0
 70
    32
  0
VERTEX
  5
FBB1
  8
01
 10
763.72699999999998
 20
-1390.3599999999999
 30
0.0
 70
    32
  0
VERTEX
  5
FBB2
  8
01
 10
763.78699999999992
 20
-1390.3
 30
0.0
 70
    32
  0
VERTEX
  5
FBB3
  8
01
 10
763.846
 20
-1390.26
 30
0.0
 70
    32
  0
VERTEX
  5
FBB4
  8
01
 10
763.90599999999995
 20
-1390.24
 30
0.0
 70
    32
  0
VERTEX
  5
FBB5
  8
01
 10
763.96500000000003
 20
-1390.23
 30
0.0
 70
    32
  0
VERTEX
  5
FBB6
  8
01
 10
764.02499999999986
 20
-1390.24
 30
0.0
 70
    32
  0
VERTEX
  5
FBB7
  8
01
 10
764.08399999999995
 20
-1390.27
 30
0.0
 70
    32
  0
VERTEX
  5
FBB8
  8
01
 10
764.14399999999989
 20
-1390.3099999999999
 30
0.0
 70
    32
  0
VERTEX
  5
FBB9
  8
01
 10
764.20299999999997
 20
-1390.3699999999999
 30
0.0
 70
    32
  0
VERTEX
  5
FBBA
  8
01
 10
764.26199999999994
 20
-1390.4400000000001
 30
0.0
 70
    32
  0
VERTEX
  5
FBBB
  8
01
 10
764.32100000000003
 20
-1390.53
 30
0.0
 70
    32
  0
VERTEX
  5
FBBC
  8
01
 10
764.37999999999988
 20
-1390.6400000000001
 30
0.0
 70
    32
  0
VERTEX
  5
FBBD
  8
01
 10
764.43799999999987
 20
-1390.76
 30
0.0
 70
    32
  0
VERTEX
  5
FBBE
  8
01
 10
764.49600000000009
 20
-1390.9000000000001
 30
0.0
 70
    32
  0
VERTEX
  5
FBBF
  8
01
 10
764.55399999999986
 20
-1391.05
 30
0.0
 70
    32
  0
VERTEX
  5
FBC0
  8
01
 10
764.6110000000001
 20
-1391.22
 30
0.0
 70
    32
  0
VERTEX
  5
FBC1
  8
01
 10
764.66799999999989
 20
-1391.4100000000001
 30
0.0
 70
    32
  0
VERTEX
  5
FBC2
  8
01
 10
764.72399999999993
 20
-1391.6099999999999
 30
0.0
 70
    32
  0
VERTEX
  5
FBC3
  8
01
 10
764.77999999999997
 20
-1391.8199999999999
 30
0.0
 70
    32
  0
VERTEX
  5
FBC4
  8
01
 10
764.83500000000004
 20
-1392.0599999999999
 30
0.0
 70
    32
  0
VERTEX
  5
FBC5
  8
01
 10
764.88899999999978
 20
-1392.3
 30
0.0
 70
    32
  0
VERTEX
  5
FBC6
  8
01
 10
764.94299999999987
 20
-1392.5599999999999
 30
0.0
 70
    32
  0
VERTEX
  5
FBC7
  8
01
 10
764.99699999999984
 20
-1392.8399999999999
 30
0.0
 70
    32
  0
VERTEX
  5
FBC8
  8
01
 10
765.04899999999986
 20
-1393.1300000000001
 30
0.0
 70
    32
  0
VERTEX
  5
FBC9
  8
01
 10
765.10100000000011
 20
-1393.4300000000001
 30
0.0
 70
    32
  0
VERTEX
  5
FBCA
  8
01
 10
765.15199999999993
 20
-1393.75
 30
0.0
 70
    32
  0
VERTEX
  5
FBCB
  8
01
 10
765.202
 20
-1394.0799999999999
 30
0.0
 70
    32
  0
VERTEX
  5
FBCC
  8
01
 10
765.25100000000009
 20
-1394.4300000000001
 30
0.0
 70
    32
  0
VERTEX
  5
FBCD
  8
01
 10
765.29899999999986
 20
-1394.79
 30
0.0
 70
    32
  0
VERTEX
  5
FBCE
  8
01
 10
765.34599999999989
 20
-1395.1600000000001
 30
0.0
 70
    32
  0
VERTEX
  5
FBCF
  8
01
 10
765.39300000000003
 20
-1395.54
 30
0.0
 70
    32
  0
VERTEX
  5
FBD0
  8
01
 10
765.43799999999987
 20
-1395.9400000000001
 30
0.0
 70
    32
  0
VERTEX
  5
FBD1
  8
01
 10
765.48199999999986
 20
-1396.3499999999999
 30
0.0
 70
    32
  0
VERTEX
  5
FBD2
  8
01
 10
765.52499999999986
 20
-1396.77
 30
0.0
 70
    32
  0
VERTEX
  5
FBD3
  8
01
 10
765.56700000000001
 20
-1397.2
 30
0.0
 70
    32
  0
VERTEX
  5
FBD4
  8
01
 10
765.60800000000006
 20
-1397.6500000000001
 30
0.0
 70
    32
  0
VERTEX
  5
FBD5
  8
01
 10
765.64800000000002
 20
-1398.0999999999999
 30
0.0
 70
    32
  0
VERTEX
  5
FBD6
  8
01
 10
765.68700000000001
 20
-1398.5699999999999
 30
0.0
 70
    32
  0
VERTEX
  5
FBD7
  8
01
 10
765.72399999999993
 20
-1399.04
 30
0.0
 70
    32
  0
VERTEX
  5
FBD8
  8
01
 10
765.75999999999999
 20
-1399.53
 30
0.0
 70
    32
  0
VERTEX
  5
FBD9
  8
01
 10
765.79499999999985
 20
-1400.03
 30
0.0
 70
    32
  0
VERTEX
  5
FBDA
  8
01
 10
765.82899999999995
 20
-1400.53
 30
0.0
 70
    32
  0
VERTEX
  5
FBDB
  8
01
 10
765.8610000000001
 20
-1401.05
 30
0.0
 70
    32
  0
VERTEX
  5
FBDC
  8
01
 10
765.89199999999994
 20
-1401.5699999999999
 30
0.0
 70
    32
  0
VERTEX
  5
FBDD
  8
01
 10
765.92100000000005
 20
-1402.0999999999999
 30
0.0
 70
    32
  0
VERTEX
  5
FBDE
  8
01
 10
765.95000000000005
 20
-1402.6400000000001
 30
0.0
 70
    32
  0
VERTEX
  5
FBDF
  8
01
 10
765.97600000000011
 20
-1403.1900000000001
 30
0.0
 70
    32
  0
VERTEX
  5
FBE0
  8
01
 10
766.00199999999995
 20
-1403.74
 30
0.0
 70
    32
  0
VERTEX
  5
FBE1
  8
01
 10
766.02499999999986
 20
-1404.3
 30
0.0
 70
    32
  0
VERTEX
  5
FBE2
  8
01
 10
766.04799999999989
 20
-1404.8699999999999
 30
0.0
 70
    32
  0
VERTEX
  5
FBE3
  8
01
 10
766.06899999999985
 20
-1405.4400000000001
 30
0.0
 70
    32
  0
VERTEX
  5
FBE4
  8
01
 10
766.08799999999997
 20
-1406.02
 30
0.0
 70
    32
  0
VERTEX
  5
FBE5
  8
01
 10
766.10599999999999
 20
-1406.5999999999999
 30
0.0
 70
    32
  0
VERTEX
  5
FBE6
  8
01
 10
766.12300000000005
 20
-1407.1900000000001
 30
0.0
 70
    32
  0
VERTEX
  5
FBE7
  8
01
 10
766.13699999999994
 20
-1407.78
 30
0.0
 70
    32
  0
VERTEX
  5
FBE8
  8
01
 10
766.15099999999995
 20
-1408.3800000000001
 30
0.0
 70
    32
  0
VERTEX
  5
FBE9
  8
01
 10
766.16300000000001
 20
-1408.98
 30
0.0
 70
    32
  0
VERTEX
  5
FBEA
  8
01
 10
766.173
 20
-1409.5799999999999
 30
0.0
 70
    32
  0
VERTEX
  5
FBEB
  8
01
 10
766.18200000000002
 20
-1410.1800000000001
 30
0.0
 70
    32
  0
VERTEX
  5
FBEC
  8
01
 10
766.18899999999985
 20
-1410.79
 30
0.0
 70
    32
  0
VERTEX
  5
FBED
  8
01
 10
766.19399999999985
 20
-1411.4000000000001
 30
0.0
 70
    32
  0
VERTEX
  5
FBEE
  8
01
 10
766.19799999999987
 20
-1412.01
 30
0.0
 70
    32
  0
VERTEX
  5
FBEF
  8
01
 10
766.20100000000002
 20
-1412.6199999999999
 30
0.0
 70
    32
  0
VERTEX
  5
FBF0
  8
01
 10
766.20100000000002
 20
-1413.23
 30
0.0
 70
    32
  0
VERTEX
  5
FBF1
  8
01
 10
766.20100000000002
 20
-1413.8499999999999
 30
0.0
 70
    32
  0
VERTEX
  5
FBF2
  8
01
 10
766.19799999999987
 20
-1414.46
 30
0.0
 70
    32
  0
VERTEX
  5
FBF3
  8
01
 10
766.19399999999985
 20
-1415.0699999999999
 30
0.0
 70
    32
  0
VERTEX
  5
FBF4
  8
01
 10
766.18899999999985
 20
-1415.6800000000001
 30
0.0
 70
    32
  0
VERTEX
  5
FBF5
  8
01
 10
766.18200000000002
 20
-1416.28
 30
0.0
 70
    32
  0
VERTEX
  5
FBF6
  8
01
 10
766.173
 20
-1416.8900000000001
 30
0.0
 70
    32
  0
VERTEX
  5
FBF7
  8
01
 10
766.16300000000001
 20
-1417.49
 30
0.0
 70
    32
  0
VERTEX
  5
FBF8
  8
01
 10
766.15099999999995
 20
-1418.0899999999999
 30
0.0
 70
    32
  0
VERTEX
  5
FBF9
  8
01
 10
766.13699999999994
 20
-1418.6900000000001
 30
0.0
 70
    32
  0
VERTEX
  5
FBFA
  8
01
 10
766.12300000000005
 20
-1419.28
 30
0.0
 70
    32
  0
VERTEX
  5
FBFB
  8
01
 10
766.10599999999999
 20
-1419.8699999999999
 30
0.0
 70
    32
  0
VERTEX
  5
FBFC
  8
01
 10
766.08799999999997
 20
-1420.45
 30
0.0
 70
    32
  0
VERTEX
  5
FBFD
  8
01
 10
766.06899999999985
 20
-1421.03
 30
0.0
 70
    32
  0
VERTEX
  5
FBFE
  8
01
 10
766.04799999999989
 20
-1421.5999999999999
 30
0.0
 70
    32
  0
VERTEX
  5
FBFF
  8
01
 10
766.02499999999986
 20
-1422.1700000000001
 30
0.0
 70
    32
  0
VERTEX
  5
FC00
  8
01
 10
766.00199999999995
 20
-1422.73
 30
0.0
 70
    32
  0
VERTEX
  5
FC01
  8
01
 10
765.97600000000011
 20
-1423.28
 30
0.0
 70
    32
  0
VERTEX
  5
FC02
  8
01
 10
765.95000000000005
 20
-1423.8299999999999
 30
0.0
 70
    32
  0
VERTEX
  5
FC03
  8
01
 10
765.92100000000005
 20
-1424.3699999999999
 30
0.0
 70
    32
  0
VERTEX
  5
FC04
  8
01
 10
765.89199999999994
 20
-1424.9000000000001
 30
0.0
 70
    32
  0
VERTEX
  5
FC05
  8
01
 10
765.8610000000001
 20
-1425.4200000000001
 30
0.0
 70
    32
  0
VERTEX
  5
FC06
  8
01
 10
765.82899999999995
 20
-1425.9400000000001
 30
0.0
 70
    32
  0
VERTEX
  5
FC07
  8
01
 10
765.79499999999985
 20
-1426.4400000000001
 30
0.0
 70
    32
  0
VERTEX
  5
FC08
  8
01
 10
765.75999999999999
 20
-1426.9400000000001
 30
0.0
 70
    32
  0
VERTEX
  5
FC09
  8
01
 10
765.72399999999993
 20
-1427.4200000000001
 30
0.0
 70
    32
  0
VERTEX
  5
FC0A
  8
01
 10
765.68700000000001
 20
-1427.9000000000001
 30
0.0
 70
    32
  0
VERTEX
  5
FC0B
  8
01
 10
765.64800000000002
 20
-1428.3699999999999
 30
0.0
 70
    32
  0
VERTEX
  5
FC0C
  8
01
 10
765.60800000000006
 20
-1428.8199999999999
 30
0.0
 70
    32
  0
VERTEX
  5
FC0D
  8
01
 10
765.56700000000001
 20
-1429.27
 30
0.0
 70
    32
  0
VERTEX
  5
FC0E
  8
01
 10
765.52499999999986
 20
-1429.7
 30
0.0
 70
    32
  0
VERTEX
  5
FC0F
  8
01
 10
765.48199999999986
 20
-1430.1199999999999
 30
0.0
 70
    32
  0
VERTEX
  5
FC10
  8
01
 10
765.43799999999987
 20
-1430.53
 30
0.0
 70
    32
  0
VERTEX
  5
FC11
  8
01
 10
765.39300000000003
 20
-1430.9300000000001
 30
0.0
 70
    32
  0
VERTEX
  5
FC12
  8
01
 10
765.34599999999989
 20
-1431.3099999999999
 30
0.0
 70
    32
  0
VERTEX
  5
FC13
  8
01
 10
765.29899999999986
 20
-1431.6800000000001
 30
0.0
 70
    32
  0
VERTEX
  5
FC14
  8
01
 10
765.25100000000009
 20
-1432.04
 30
0.0
 70
    32
  0
VERTEX
  5
FC15
  8
01
 10
765.202
 20
-1432.3900000000001
 30
0.0
 70
    32
  0
VERTEX
  5
FC16
  8
01
 10
765.15199999999993
 20
-1432.72
 30
0.0
 70
    32
  0
VERTEX
  5
FC17
  8
01
 10
765.10100000000011
 20
-1433.04
 30
0.0
 70
    32
  0
VERTEX
  5
FC18
  8
01
 10
765.04899999999986
 20
-1433.3399999999999
 30
0.0
 70
    32
  0
VERTEX
  5
FC19
  8
01
 10
764.99699999999984
 20
-1433.6300000000001
 30
0.0
 70
    32
  0
VERTEX
  5
FC1A
  8
01
 10
764.94299999999987
 20
-1433.9100000000001
 30
0.0
 70
    32
  0
VERTEX
  5
FC1B
  8
01
 10
764.88899999999978
 20
-1434.1700000000001
 30
0.0
 70
    32
  0
VERTEX
  5
FC1C
  8
01
 10
764.83500000000004
 20
-1434.4100000000001
 30
0.0
 70
    32
  0
VERTEX
  5
FC1D
  8
01
 10
764.77999999999997
 20
-1434.6400000000001
 30
0.0
 70
    32
  0
VERTEX
  5
FC1E
  8
01
 10
764.72399999999993
 20
-1434.8599999999999
 30
0.0
 70
    32
  0
VERTEX
  5
FC1F
  8
01
 10
764.66799999999989
 20
-1435.0599999999999
 30
0.0
 70
    32
  0
VERTEX
  5
FC20
  8
01
 10
764.6110000000001
 20
-1435.25
 30
0.0
 70
    32
  0
VERTEX
  5
FC21
  8
01
 10
764.55399999999986
 20
-1435.4100000000001
 30
0.0
 70
    32
  0
VERTEX
  5
FC22
  8
01
 10
764.49600000000009
 20
-1435.5699999999999
 30
0.0
 70
    32
  0
VERTEX
  5
FC23
  8
01
 10
764.43799999999987
 20
-1435.71
 30
0.0
 70
    32
  0
VERTEX
  5
FC24
  8
01
 10
764.37999999999988
 20
-1435.8299999999999
 30
0.0
 70
    32
  0
VERTEX
  5
FC25
  8
01
 10
764.32100000000003
 20
-1435.9400000000001
 30
0.0
 70
    32
  0
VERTEX
  5
FC26
  8
01
 10
764.26199999999994
 20
-1436.03
 30
0.0
 70
    32
  0
VERTEX
  5
FC27
  8
01
 10
764.20299999999997
 20
-1436.0999999999999
 30
0.0
 70
    32
  0
VERTEX
  5
FC28
  8
01
 10
764.14399999999989
 20
-1436.1600000000001
 30
0.0
 70
    32
  0
VERTEX
  5
FC29
  8
01
 10
764.08399999999995
 20
-1436.2
 30
0.0
 70
    32
  0
VERTEX
  5
FC2A
  8
01
 10
764.02499999999986
 20
-1436.22
 30
0.0
 70
    32
  0
VERTEX
  5
FC2B
  8
01
 10
763.96500000000003
 20
-1436.23
 30
0.0
 70
    32
  0
VERTEX
  5
FC2C
  8
01
 10
763.90599999999995
 20
-1436.23
 30
0.0
 70
    32
  0
VERTEX
  5
FC2D
  8
01
 10
763.846
 20
-1436.2
 30
0.0
 70
    32
  0
VERTEX
  5
FC2E
  8
01
 10
763.78699999999992
 20
-1436.1600000000001
 30
0.0
 70
    32
  0
VERTEX
  5
FC2F
  8
01
 10
763.72699999999998
 20
-1436.1099999999999
 30
0.0
 70
    32
  0
VERTEX
  5
FC30
  8
01
 10
763.66800000000001
 20
-1436.04
 30
0.0
 70
    32
  0
SEQEND
  5
FC31
  8
01
  0
LINE
  5
F331
  8
01
 10
804.18769999999995
 20
-1401.2340999999999
 30
0.0
 11
804.18769999999995
 21
-1425.2340999999999
 31
0.0
  0
ARC
  5
F332
  8
01
 10
982.68780000000004
 20
-1114.7340999999999
 30
0.0
 40
5.0
 50
90.0
 51
180.0
  0
LINE
  5
F333
  8
01
 10
977.68779999999992
 20
-1119.7340999999999
 30
0.0
 11
1030.6877999999999
 21
-1119.7340999999999
 31
0.0
  0
LINE
  5
F334
  8
01
 10
1025.6877999999999
 20
-1109.7340999999999
 30
0.0
 11
1007.0309
 21
-1109.7340999999999
 31
0.0
  0
LINE
  5
F335
  8
01
 10
977.68779999999992
 20
-1119.7340999999999
 30
0.0
 11
977.68779999999992
 21
-1114.7340999999999
 31
0.0
  0
ARC
  5
F336
  8
01
 10
1025.6877999999999
 20
-1114.7340999999999
 30
0.0
 40
5.0
 50
0.0
 51
90.0
  0
LINE
  5
F337
  8
01
 10
1030.6877999999999
 20
-1119.7340999999999
 30
0.0
 11
1030.6877999999999
 21
-1114.7340999999999
 31
0.0
  0
ARC
  5
F338
  8
01
 10
1112.539
 20
-28.686900000000001
 30
0.0
 40
1055.0555999999999
 50
263.53059999999999
 51
264.10550000000001
  0
ARC
  5
F339
  8
01
 10
1056.5653
 20
-604.50530000000003
 30
0.0
 40
476.54599999999999
 50
263.68979999999999
 51
265.214
  0
ARC
  5
F33A
  8
01
 10
861.88279999999997
 20
-2342.8033999999998
 30
0.0
 40
1272.6206
 50
84.056399999999996
 51
84.125200000000007
  0
LINE
  5
F33B
  8
01
 10
992.18780000000015
 20
-1108.2340999999999
 30
0.0
 11
1001.6669000000001
 21
-1108.2340999999999
 31
0.0
  0
ARC
  5
F33C
  8
01
 10
1046.5626999999999
 20
-760.33500000000004
 30
0.0
 40
320.39909999999998
 50
266.79860000000002
 51
269.97770000000003
  0
ARC
  5
F33D
  8
01
 10
968.42380000000003
 20
-330.69720000000001
 30
0.0
 40
739.92370000000005
 50
274.6703
 51
275.8449
  0
ARC
  5
F33E
  8
01
 10
989.18780000000004
 20
-1079.5636
 30
0.0
 40
3.0
 50
0.0
 51
83.307999999999993
  0
ARC
  5
F33F
  8
01
 10
1004.1878
 20
-1117.2340999999999
 30
0.0
 40
15.0
 50
143.1301
 51
150.0
  0
LINE
  5
F340
  8
01
 10
992.18780000000015
 20
-1079.5636
 30
0.0
 11
992.18780000000015
 21
-1108.2340999999999
 31
0.0
  0
ARC
  5
F341
  8
01
 10
1019.1878
 20
-1082.6023
 30
0.0
 40
3.0
 50
85.381699999999995
 51
180.0
  0
ARC
  5
F342
  8
01
 10
1004.1878
 20
-1117.2340999999999
 30
0.0
 40
15.0
 50
30.0
 51
36.869900000000001
  0
LINE
  5
F343
  8
01
 10
1016.1878
 20
-1082.6023
 30
0.0
 11
1016.1878
 21
-1108.2340999999999
 31
0.0
  0
ARC
  5
F344
  8
01
 10
1047.2800999999999
 20
-734.83920000000001
 30
0.0
 40
345.89589999999998
 50
265.38170000000002
 51
266.91579999999999
  0
ARC
  5
F345
  8
01
 10
989.92510000000016
 20
-854.74879999999985
 30
0.0
 40
215.5377
 50
270.99369999999999
 51
273.79419999999999
  0
ARC
  5
F346
  8
01
 10
1012.4813
 20
-881.0370999999999
 30
0.0
 40
196.88839999999999
 50
262.17660000000001
 51
263.30799999999999
  0
ARC
  5
F347
  8
01
 10
985.82650000000012
 20
-483.44290000000001
 30
0.0
 40
586.86350000000004
 50
270.03530000000001
 51
270.76510000000002
  0
ARC
  5
F348
  8
01
 10
1012.4813
 20
-1265.4311
 30
0.0
 40
196.88839999999999
 50
97.674499999999995
 51
97.823400000000035
  0
ARC
  5
F349
  8
01
 10
986.07339999999999
 20
-1073.2340999999999
 30
0.0
 40
2.8856000000000002
 50
97.823400000000035
 51
262.17660000000001
  0
ARC
  5
F34A
  8
01
 10
960.99689999999987
 20
-252.55770000000001
 30
0.0
 40
818.39689999999985
 50
273.90550000000002
 51
274.25009999999997
  0
ARC
  5
F34B
  8
01
 10
973.11800000000005
 20
-452.72320000000002
 30
0.0
 40
617.87260000000003
 50
272.88229999999999
 51
274.04829999999998
  0
ARC
  5
F34C
  8
01
 10
942.99109999999996
 20
0.0104
 30
0.0
 40
1071.6052
 50
274.20929999999998
 51
274.58589999999998
  0
ARC
  5
F34D
  8
01
 10
1054.8047999999999
 20
-938.02880000000005
 30
0.0
 40
142.5591
 50
279.99540000000002
 51
283.9778
  0
ARC
  5
F34E
  8
01
 10
1055.2331999999999
 20
-940.05190000000005
 30
0.0
 40
140.4923
 50
275.38560000000001
 51
279.96660000000003
  0
ARC
  5
F34F
  8
01
 10
1054.4738
 20
-934.41740000000004
 30
0.0
 40
146.17349999999999
 50
270.86790000000002
 51
275.47460000000001
  0
ARC
  5
F350
  8
01
 10
1047.2428
 20
-803.90689999999995
 30
0.0
 40
276.82830000000001
 50
269.83339999999998
 51
271.95519999999999
  0
ARC
  5
F351
  8
01
 10
1055.2331999999999
 20
-1206.4161999999999
 30
0.0
 40
140.4923
 50
80.033399999999986
 51
84.614400000000003
  0
ARC
  5
F352
  8
01
 10
1054.4738
 20
-1212.0508
 30
0.0
 40
146.17349999999999
 50
85.403499999999994
 51
89.132099999999994
  0
ARC
  5
F353
  8
01
 10
1013.0093000000001
 20
-815.21220000000005
 30
0.0
 40
253.43620000000001
 50
276.97250000000003
 51
277.5795
  0
ARC
  5
F354
  8
01
 10
1010.6978
 20
-797.10829999999999
 30
0.0
 40
271.68680000000001
 50
277.5591
 51
278.57080000000002
  0
ARC
  5
F355
  8
01
 10
1047.2428
 20
-1342.5613000000001
 30
0.0
 40
276.82830000000001
 50
88.044799999999995
 51
89.183499999999995
  0
ARC
  5
F356
  8
01
 10
1054.4738
 20
-1212.0508
 30
0.0
 40
146.17349999999999
 50
84.525400000000005
 51
85.403499999999994
  0
ARC
  5
F357
  8
01
 10
1088.4595999999999
 20
-1073.2340999999999
 30
0.0
 40
3.2280999999999991
 50
283.9778
 51
76.022199999999984
  0
ARC
  5
F358
  8
01
 10
1054.8047999999999
 20
-1208.4394
 30
0.0
 40
142.5591
 50
76.022199999999984
 51
80.004599999999996
  0
LINE
  5
F65D
  8
1DIM
 10
649.18769999999995
 20
-1189.7340999999999
 30
0.0
 11
754.18769999999995
 21
-1189.7340999999999
 31
0.0
  0
TEXT
  5
F65E
  8
1TEXT
 10
659.31627142857144
 20
-1166.4840999999999
 30
0.0
 40
6.0
  1
表面処理：
 72
     1
 11
675.28769999999986
 21
-1166.4840999999999
 31
0.0
  0
TEXT
  5
F65F
  8
1TEXT
 10
658.48770000000002
 20
-1176.7370000000001
 30
0.0
 40
6.0
  1
本金メッキ
 72
     1
 11
675.28769999999986
 21
-1176.7370000000001
 31
0.0
  0
LINE
  5
F660
  8
1DIM
 10
649.18769999999995
 20
-1158.2340999999999
 30
0.0
 11
754.18769999999995
 21
-1158.2340999999999
 31
0.0
  0
LINE
  5
F661
  8
1DIM
 10
649.18769999999995
 20
-1168.7340999999999
 30
0.0
 11
754.18769999999995
 21
-1168.7340999999999
 31
0.0
  0
LINE
  5
F662
  8
1DIM
 10
649.18769999999995
 20
-1179.2340999999999
 30
0.0
 11
754.18769999999995
 21
-1179.2340999999999
 31
0.0
  0
LINE
  5
F663
  8
1DIM
 10
649.18769999999995
 20
-1179.2340999999999
 30
0.0
 11
754.18769999999995
 21
-1179.2340999999999
 31
0.0
  0
LINE
  5
F664
  8
1DIM
 10
701.68769999999995
 20
-1158.2340999999999
 30
0.0
 11
701.68769999999995
 21
-1210.7340999999999
 31
0.0
  0
TEXT
  5
F665
  8
1TEXT
 10
707.48770000000002
 20
-1177.3055999999999
 30
0.0
 40
6.0
  1
2-P3C-G-LP
 41
0.7
 72
     1
 11
727.78769999999997
 21
-1177.3055999999999
 31
0.0
  0
TEXT
  5
F666
  8
1TEXT
 10
717.58769999999993
 20
-1166.4840999999999
 30
0.0
 40
6.0
  1
コード
 72
     1
 11
727.78769999999997
 21
-1166.4840999999999
 31
0.0
  0
LINE
  5
F667
  8
1DIM
 10
649.18769999999995
 20
-1200.2340999999999
 30
0.0
 11
754.18769999999995
 21
-1200.2340999999999
 31
0.0
  0
TEXT
  5
F668
  8
1TEXT
 10
650.68769999999995
 20
-1197.7004999999999
 30
0.0
 40
6.0
  1
パールゴールド
 72
     1
 11
675.28769999999986
 21
-1197.7004999999999
 31
0.0
  0
LINE
  5
F669
  8
1DIM
 10
649.18769999999995
 20
-1210.7340999999999
 30
0.0
 11
649.18769999999995
 21
-1158.2340999999999
 31
0.0
  0
LINE
  5
F66A
  8
1DIM
 10
754.18769999999995
 20
-1210.7340999999999
 30
0.0
 11
754.18769999999995
 21
-1158.2340999999999
 31
0.0
  0
TEXT
  5
F66B
  8
1TEXT
 10
707.48770000000002
 20
-1198.3055999999999
 30
0.0
 40
6.0
  1
2-P3C-Y-LP
 41
0.7
 72
     1
 11
727.78769999999997
 21
-1198.3055999999999
 31
0.0
  0
LINE
  5
F66C
  8
1DIM
 10
649.18769999999995
 20
-1200.2340999999999
 30
0.0
 11
754.18769999999995
 21
-1200.2340999999999
 31
0.0
  0
LINE
  5
F66D
  8
1DIM
 10
649.18769999999995
 20
-1210.7340999999999
 30
0.0
 11
754.18769999999995
 21
-1210.7340999999999
 31
0.0
  0
TEXT
  5
F66E
  8
1TEXT
 10
650.8877
 20
-1208.2004999999999
 30
0.0
 40
6.0
  1
ソフトニッケル
 72
     1
 11
675.28769999999986
 21
-1208.2004999999999
 31
0.0
  0
TEXT
  5
F66F
  8
1TEXT
 10
706.78769999999997
 20
-1208.8055999999999
 30
0.0
 40
6.0
  1
2-P3C-W-LP
 41
0.7
 72
     1
 11
727.78769999999997
 21
-1208.8055999999999
 31
0.0
  0
TEXT
  5
F670
  8
1TEXT
 10
661.28769999999997
 20
-1187.2370000000001
 30
0.0
 40
6.0
  1
クローム
 72
     1
 11
675.28769999999986
 21
-1187.2370000000001
 31
0.0
  0
TEXT
  5
F671
  8
1TEXT
 10
707.48770000000002
 20
-1187.8055999999999
 30
0.0
 40
6.0
  1
2-P3C-C-LP
 41
0.7
 72
     1
 11
727.78769999999997
 21
-1187.8055999999999
 31
0.0
  0
LINE
  5
F764
  8
01
 10
1001.3446
 20
-1109.7340999999999
 30
0.0
 11
982.68780000000004
 21
-1109.7340999999999
 31
0.0
  0
LINE
  5
F765
  8
01
 10
1006.7087
 20
-1108.2340999999999
 30
0.0
 11
1016.1878
 21
-1108.2340999999999
 31
0.0
  0
LINE
  5
F8B5
  8
1DIM
 10
1046.4377999999999
 20
-1377.2335
 30
0.0
 11
1107.9878000000001
 21
-1377.2335
 31
0.0
  0
LINE
  5
F8B6
  8
1DIM
 10
1046.4377999999999
 20
-1449.2347
 30
0.0
 11
1107.9878000000001
 21
-1449.2347
 31
0.0
  0
LINE
  5
F8B7
  8
1DIM
 10
1106.6877999999999
 20
-1379.8335
 30
0.0
 11
1106.6877999999999
 21
-1446.6347000000001
 31
0.0
  0
LINE
  5
F8BB
  8
1DIM
 10
983.18780000000015
 20
-1206.2340999999999
 30
0.0
 11
983.18780000000015
 21
-1255.0071
 31
0.0
  0
LINE
  5
F8BC
  8
1DIM
 10
1091.6877999999999
 20
-1206.2340999999999
 30
0.0
 11
1091.6877999999999
 21
-1255.0071
 31
0.0
  0
LINE
  5
F8BD
  8
1DIM
 10
985.78779999999995
 20
-1253.7071000000001
 30
0.0
 11
1089.0878
 21
-1253.7071000000001
 31
0.0
  0
LINE
  5
F8C1
  8
1DIM
 10
1004.1878
 20
-1180.2340999999999
 30
0.0
 11
1004.1878
 21
-1245.0071
 31
0.0
  0
LINE
  5
F8C2
  8
1DIM
 10
1091.6877999999999
 20
-1206.2340999999999
 30
0.0
 11
1091.6877999999999
 21
-1245.0071
 31
0.0
  0
LINE
  5
F8C3
  8
1DIM
 10
1006.7877999999999
 20
-1243.7071000000001
 30
0.0
 11
1089.0878
 21
-1243.7071000000001
 31
0.0
  0
LINE
  5
F8C7
  8
1DIM
 10
1059.1877999999999
 20
-1159.7340999999999
 30
0.0
 11
1127.9878000000001
 21
-1159.7340999999999
 31
0.0
  0
LINE
  5
F8C8
  8
1DIM
 10
1075.3106
 20
-1228.5424
 30
0.0
 11
1127.9878000000001
 21
-1228.5424
 31
0.0
  0
LINE
  5
F8C9
  8
1DIM
 10
1126.6877999999999
 20
-1162.3341
 30
0.0
 11
1126.6877999999999
 21
-1225.9423999999999
 31
0.0
  0
LINE
  5
F8CD
  8
1DIM
 10
1051.1877999999999
 20
-1213.7071000000001
 30
0.0
 11
1117.9878000000001
 21
-1213.7071000000001
 31
0.0
  0
LINE
  5
F8CE
  8
1DIM
 10
1059.1877999999999
 20
-1159.7340999999999
 30
0.0
 11
1117.9878000000001
 21
-1159.7340999999999
 31
0.0
  0
LINE
  5
F8CF
  8
1DIM
 10
1116.6877999999999
 20
-1211.1070999999999
 30
0.0
 11
1116.6877999999999
 21
-1162.3341
 31
0.0
  0
LINE
  5
F8D3
  8
1DIM
 10
1059.1877999999999
 20
-1159.7340999999999
 30
0.0
 11
1107.9878000000001
 21
-1159.7340999999999
 31
0.0
  0
LINE
  5
F8D4
  8
1DIM
 10
1096.6010000000001
 20
-1181.3117
 30
0.0
 11
1107.9878000000001
 21
-1181.3117
 31
0.0
  0
LINE
  5
F8D5
  8
1DIM
 10
1106.6877999999999
 20
-1162.3341
 30
0.0
 11
1106.6877999999999
 21
-1178.7117000000001
 31
0.0
  0
LINE
  5
F8D9
  8
1DIM
 10
1004.1878
 20
-1439.7340999999999
 30
0.0
 11
967.88779999999986
 21
-1439.7340999999999
 31
0.0
  0
LINE
  5
F8DA
  8
1DIM
 10
1004.1878
 20
-1386.7340999999999
 30
0.0
 11
967.88779999999986
 21
-1386.7340999999999
 31
0.0
  0
LINE
  5
F8DB
  8
1DIM
 10
969.18780000000004
 20
-1437.1341
 30
0.0
 11
969.18780000000004
 21
-1389.3341
 31
0.0
  0
LINE
  5
F8DF
  8
1DIM
 10
1022.1876999999999
 20
-1355.2340999999999
 30
0.0
 11
1022.1876999999999
 21
-1295.9340999999999
 31
0.0
  0
LINE
  5
F8E0
  8
1DIM
 10
953.18769999999995
 20
-1327.2340999999999
 30
0.0
 11
953.18769999999995
 21
-1295.9340999999999
 31
0.0
  0
LINE
  5
F8E1
  8
1DIM
 10
1019.5877
 20
-1297.2340999999999
 30
0.0
 11
955.78769999999986
 21
-1297.2340999999999
 31
0.0
  0
LINE
  5
F8E5
  8
1DIM
 10
1022.1876999999999
 20
-1355.2340999999999
 30
0.0
 11
1066.5224000000001
 21
-1355.2340999999999
 31
0.0
  0
LINE
  5
F8E6
  8
1DIM
 10
1022.1876999999999
 20
-1429.2340999999999
 30
0.0
 11
1066.5224000000001
 21
-1429.2340999999999
 31
0.0
  0
LINE
  5
F8E7
  8
1DIM
 10
1065.2224000000001
 20
-1357.8341
 30
0.0
 11
1065.2224000000001
 21
-1426.6341
 31
0.0
  0
CIRCLE
  5
F8EB
  8
01
 10
797.68769999999995
 20
-1413.2340999999999
 30
0.0
 40
3.0
  0
CIRCLE
  5
F8EC
  8
01
 10
873.68769999999995
 20
-1413.2340999999999
 30
0.0
 40
3.0
  0
LINE
  5
F8ED
  8
1DIM
 10
842.18769999999995
 20
-1327.2340999999999
 30
0.0
 11
891.49130000000002
 21
-1327.2340999999999
 31
0.0
  0
LINE
  5
F8EE
  8
1DIM
 10
842.18769999999995
 20
-1457.2340999999999
 30
0.0
 11
891.49130000000002
 21
-1457.2340999999999
 31
0.0
  0
LINE
  5
F8EF
  8
1DIM
 10
890.19129999999996
 20
-1329.8341
 30
0.0
 11
890.19129999999996
 21
-1454.6341
 31
0.0
  0
LINE
  5
F8F3
  8
1DIM
 10
842.18769999999995
 20
-1335.2340999999999
 30
0.0
 11
881.49130000000002
 21
-1335.2340999999999
 31
0.0
  0
LINE
  5
F8F4
  8
1DIM
 10
842.18769999999995
 20
-1449.2340999999999
 30
0.0
 11
881.49130000000002
 21
-1449.2340999999999
 31
0.0
  0
LINE
  5
F8F5
  8
1DIM
 10
880.19129999999984
 20
-1337.8341
 30
0.0
 11
880.19129999999984
 21
-1446.6341
 31
0.0
  0
LINE
  5
F8F9
  8
1DIM
 10
637.18769999999995
 20
-1413.2340999999999
 30
0.0
 11
622.88769999999988
 21
-1413.2340999999999
 31
0.0
  0
LINE
  5
F8FA
  8
1DIM
 10
644.68769999999995
 20
-1357.7340999999999
 30
0.0
 11
622.88769999999988
 21
-1357.7340999999999
 31
0.0
  0
LINE
  5
F8FB
  8
1DIM
 10
624.18769999999995
 20
-1410.6341
 30
0.0
 11
624.18769999999995
 21
-1360.3341
 31
0.0
  0
LINE
  5
F8FF
  8
1DIM
 10
637.18769999999995
 20
-1413.2340999999999
 30
0.0
 11
632.8877
 21
-1413.2340999999999
 31
0.0
  0
LINE
  5
F900
  8
1DIM
 10
654.18769999999995
 20
-1363.2340999999999
 30
0.0
 11
632.8877
 21
-1363.2340999999999
 31
0.0
  0
LINE
  5
F901
  8
1DIM
 10
634.18769999999995
 20
-1410.6341
 30
0.0
 11
634.18769999999995
 21
-1365.8341
 31
0.0
  0
LINE
  5
F905
  8
1DIM
 10
647.38769999999988
 20
-1357.7340999999999
 30
0.0
 11
647.38769999999988
 21
-1328.9340999999999
 31
0.0
  0
LINE
  5
F906
  8
1DIM
 10
686.98770000000002
 20
-1357.7340999999999
 30
0.0
 11
686.98770000000002
 21
-1328.9340999999999
 31
0.0
  0
LINE
  5
F907
  8
1DIM
 10
649.98770000000002
 20
-1330.2340999999999
 30
0.0
 11
684.38769999999988
 21
-1330.2340999999999
 31
0.0
  0
LINE
  5
F90B
  8
1DIM
 10
984.3877
 20
-1357.7340999999999
 30
0.0
 11
984.3877
 21
-1328.9340999999999
 31
0.0
  0
LINE
  5
F90C
  8
1DIM
 10
1023.9877
 20
-1357.7340999999999
 30
0.0
 11
1023.9877
 21
-1328.9340999999999
 31
0.0
  0
LINE
  5
F90D
  8
1DIM
 10
986.98770000000002
 20
-1330.2340999999999
 30
0.0
 11
1021.3877
 21
-1330.2340999999999
 31
0.0
  0
LINE
  5
F911
  8
1DIM
 10
793.98770000000002
 20
-1359.6996999999999
 30
0.0
 11
793.98770000000002
 21
-1305.9340999999999
 31
0.0
  0
LINE
  5
F912
  8
1DIM
 10
815.68769999999995
 20
-1320.7366999999999
 30
0.0
 11
815.68769999999995
 21
-1305.9340999999999
 31
0.0
  0
LINE
  5
F913
  8
1DIM
 10
796.58770000000004
 20
-1307.2340999999999
 30
0.0
 11
813.08769999999993
 21
-1307.2340999999999
 31
0.0
  0
LINE
  5
F917
  8
1DIM
 10
855.68769999999995
 20
-1320.7366999999999
 30
0.0
 11
855.68769999999995
 21
-1305.9340999999999
 31
0.0
  0
LINE
  5
F918
  8
1DIM
 10
863.98770000000002
 20
-1363.2340999999999
 30
0.0
 11
863.98770000000002
 21
-1305.9340999999999
 31
0.0
  0
LINE
  5
F919
  8
1DIM
 10
858.28769999999986
 20
-1307.2340999999999
 30
0.0
 11
861.3877
 21
-1307.2340999999999
 31
0.0
  0
LINE
  5
F91A
  8
1DIM
 10
863.98770000000002
 20
-1307.2340999999999
 30
0.0
 11
877.94100000000003
 21
-1307.2340999999999
 31
0.0
  0
LINE
  5
F91E
  8
1DIM
 10
1023.1885
 20
-1130.2340999999999
 30
0.0
 11
1050.4876999999999
 21
-1130.2340999999999
 31
0.0
  0
LINE
  5
F91F
  8
1DIM
 10
1023.1885
 20
-1149.2340999999999
 30
0.0
 11
1050.4876999999999
 21
-1149.2340999999999
 31
0.0
  0
LINE
  5
F920
  8
1DIM
 10
1049.1876999999999
 20
-1132.8341
 30
0.0
 11
1049.1876999999999
 21
-1146.6341
 31
0.0
  0
LINE
  5
F924
  8
1DIM
 10
953.18769999999995
 20
-1327.2340999999999
 30
0.0
 11
953.18769999999995
 21
-1305.9340999999999
 31
0.0
  0
LINE
  5
F925
  8
1DIM
 10
1004.1876999999999
 20
-1335.2340999999999
 30
0.0
 11
1004.1876999999999
 21
-1305.9340999999999
 31
0.0
  0
LINE
  5
F926
  8
1DIM
 10
955.78769999999986
 20
-1307.2340999999999
 30
0.0
 11
1001.5877
 21
-1307.2340999999999
 31
0.0
  0
LINE
  5
F92A
  8
1DIM
 10
942.18769999999995
 20
-1385.2340999999999
 30
0.0
 11
942.18769999999995
 21
-1305.9340999999999
 31
0.0
  0
LINE
  5
F92B
  8
1DIM
 10
953.18769999999995
 20
-1327.2340999999999
 30
0.0
 11
953.18769999999995
 21
-1305.9340999999999
 31
0.0
  0
LINE
  5
F92C
  8
1DIM
 10
944.78769999999997
 20
-1307.2340999999999
 30
0.0
 11
950.58769999999993
 21
-1307.2340999999999
 31
0.0
  0
LINE
  5
F930
  8
1DIM
 10
823.18769999999995
 20
-1333.2340999999999
 30
0.0
 11
823.18769999999995
 21
-1305.9340999999999
 31
0.0
  0
LINE
  5
F931
  8
1DIM
 10
848.18769999999995
 20
-1333.2340999999999
 30
0.0
 11
848.18769999999995
 21
-1305.9340999999999
 31
0.0
  0
LINE
  5
F932
  8
1DIM
 10
825.78769999999997
 20
-1307.2340999999999
 30
0.0
 11
845.58770000000004
 21
-1307.2340999999999
 31
0.0
  0
TEXT
  5
F936
  8
1DIM
 10
831.89599999999996
 20
-1306.3241
 30
0.0
 40
4.5499999999999989
  1
25 
  0
LINE
  5
F937
  8
0
  6
BYBLOCK
 10
845.58770000000004
 20
-1306.5373999999999
 30
0.0
 11
848.18769999999995
 21
-1307.2340999999999
 31
0.0
  0
LINE
  5
F938
  8
0
  6
BYBLOCK
 10
848.18769999999995
 20
-1307.2340999999999
 30
0.0
 11
845.58770000000004
 21
-1307.9306999999999
 31
0.0
  0
LINE
  5
F939
  8
0
  6
BYBLOCK
 10
848.18769999999995
 20
-1307.2340999999999
 30
0.0
 11
845.58770000000004
 21
-1307.2340999999999
 31
0.0
  0
LINE
  5
F93A
  8
0
  6
BYBLOCK
 10
825.78769999999997
 20
-1307.9306999999999
 30
0.0
 11
823.18769999999995
 21
-1307.2340999999999
 31
0.0
  0
LINE
  5
F93B
  8
0
  6
BYBLOCK
 10
823.18769999999995
 20
-1307.2340999999999
 30
0.0
 11
825.78769999999997
 21
-1306.5373999999999
 31
0.0
  0
LINE
  5
F93C
  8
0
  6
BYBLOCK
 10
823.18769999999995
 20
-1307.2340999999999
 30
0.0
 11
825.78769999999997
 21
-1307.2340999999999
 31
0.0
  0
TEXT
  5
F93D
  8
1DIM
 10
945.41269999999986
 20
-1306.3241
 30
0.0
 40
4.5499999999999989
  1
11 
  0
LINE
  5
F93E
  8
0
  6
BYBLOCK
 10
950.58769999999993
 20
-1306.5373999999999
 30
0.0
 11
953.18769999999995
 21
-1307.2340999999999
 31
0.0
  0
LINE
  5
F93F
  8
0
  6
BYBLOCK
 10
953.18769999999995
 20
-1307.2340999999999
 30
0.0
 11
950.58769999999993
 21
-1307.9306999999999
 31
0.0
  0
LINE
  5
F940
  8
0
  6
BYBLOCK
 10
953.18769999999995
 20
-1307.2340999999999
 30
0.0
 11
950.58769999999993
 21
-1307.2340999999999
 31
0.0
  0
LINE
  5
F941
  8
0
  6
BYBLOCK
 10
944.78769999999997
 20
-1307.9306999999999
 30
0.0
 11
942.18769999999995
 21
-1307.2340999999999
 31
0.0
  0
LINE
  5
F942
  8
0
  6
BYBLOCK
 10
942.18769999999995
 20
-1307.2340999999999
 30
0.0
 11
944.78769999999997
 21
-1306.5373999999999
 31
0.0
  0
LINE
  5
F943
  8
0
  6
BYBLOCK
 10
942.18769999999995
 20
-1307.2340999999999
 30
0.0
 11
944.78769999999997
 21
-1307.2340999999999
 31
0.0
  0
TEXT
  5
F944
  8
1DIM
 10
975.65430000000003
 20
-1306.3241
 30
0.0
 40
4.5499999999999989
  1
51 
  0
LINE
  5
F945
  8
0
  6
BYBLOCK
 10
1001.5877
 20
-1306.5373999999999
 30
0.0
 11
1004.1876999999999
 21
-1307.2340999999999
 31
0.0
  0
LINE
  5
F946
  8
0
  6
BYBLOCK
 10
1004.1876999999999
 20
-1307.2340999999999
 30
0.0
 11
1001.5877
 21
-1307.9306999999999
 31
0.0
  0
LINE
  5
F947
  8
0
  6
BYBLOCK
 10
1004.1876999999999
 20
-1307.2340999999999
 30
0.0
 11
1001.5877
 21
-1307.2340999999999
 31
0.0
  0
LINE
  5
F948
  8
0
  6
BYBLOCK
 10
955.78769999999986
 20
-1307.9306999999999
 30
0.0
 11
953.18769999999995
 21
-1307.2340999999999
 31
0.0
  0
LINE
  5
F949
  8
0
  6
BYBLOCK
 10
953.18769999999995
 20
-1307.2340999999999
 30
0.0
 11
955.78769999999986
 21
-1306.5373999999999
 31
0.0
  0
LINE
  5
F94A
  8
0
  6
BYBLOCK
 10
953.18769999999995
 20
-1307.2340999999999
 30
0.0
 11
955.78769999999986
 21
-1307.2340999999999
 31
0.0
  0
TEXT
  5
F94B
  8
1DIM
 10
1048.2777000000001
 20
-1142.7674
 30
0.0
 40
4.5499999999999989
  1
19 
 50
90.0
  0
LINE
  5
F94C
  8
0
  6
BYBLOCK
 10
1049.8842999999999
 20
-1146.6341
 30
0.0
 11
1049.1876999999999
 21
-1149.2340999999999
 31
0.0
  0
LINE
  5
F94D
  8
0
  6
BYBLOCK
 10
1049.1876999999999
 20
-1149.2340999999999
 30
0.0
 11
1048.491
 21
-1146.6341
 31
0.0
  0
LINE
  5
F94E
  8
0
  6
BYBLOCK
 10
1049.1876999999999
 20
-1149.2340999999999
 30
0.0
 11
1049.1876999999999
 21
-1146.6341
 31
0.0
  0
LINE
  5
F94F
  8
0
  6
BYBLOCK
 10
1048.491
 20
-1132.8341
 30
0.0
 11
1049.1876999999999
 21
-1130.2340999999999
 31
0.0
  0
LINE
  5
F950
  8
0
  6
BYBLOCK
 10
1049.1876999999999
 20
-1130.2340999999999
 30
0.0
 11
1049.8842999999999
 21
-1132.8341
 31
0.0
  0
LINE
  5
F951
  8
0
  6
BYBLOCK
 10
1049.1876999999999
 20
-1130.2340999999999
 30
0.0
 11
1049.1876999999999
 21
-1132.8341
 31
0.0
  0
TEXT
  5
F952
  8
1DIM
 10
867.71429999999987
 20
-1306.3241
 30
0.0
 40
4.5499999999999989
  1
8.3 
  0
LINE
  5
F953
  8
0
  6
BYBLOCK
 10
861.3877
 20
-1306.5373999999999
 30
0.0
 11
863.98770000000002
 21
-1307.2340999999999
 31
0.0
  0
LINE
  5
F954
  8
0
  6
BYBLOCK
 10
863.98770000000002
 20
-1307.2340999999999
 30
0.0
 11
861.3877
 21
-1307.9306999999999
 31
0.0
  0
LINE
  5
F955
  8
0
  6
BYBLOCK
 10
863.98770000000002
 20
-1307.2340999999999
 30
0.0
 11
861.3877
 21
-1307.2340999999999
 31
0.0
  0
LINE
  5
F956
  8
0
  6
BYBLOCK
 10
858.28769999999986
 20
-1307.9306999999999
 30
0.0
 11
855.68769999999995
 21
-1307.2340999999999
 31
0.0
  0
LINE
  5
F957
  8
0
  6
BYBLOCK
 10
855.68769999999995
 20
-1307.2340999999999
 30
0.0
 11
858.28769999999986
 21
-1306.5373999999999
 31
0.0
  0
LINE
  5
F958
  8
0
  6
BYBLOCK
 10
855.68769999999995
 20
-1307.2340999999999
 30
0.0
 11
858.28769999999986
 21
-1307.2340999999999
 31
0.0
  0
TEXT
  5
F959
  8
1DIM
 10
798.77099999999996
 20
-1306.3241
 30
0.0
 40
4.5499999999999989
  1
21.7 
  0
LINE
  5
F95A
  8
0
  6
BYBLOCK
 10
813.08769999999993
 20
-1306.5373999999999
 30
0.0
 11
815.68769999999995
 21
-1307.2340999999999
 31
0.0
  0
LINE
  5
F95B
  8
0
  6
BYBLOCK
 10
815.68769999999995
 20
-1307.2340999999999
 30
0.0
 11
813.08769999999993
 21
-1307.9306999999999
 31
0.0
  0
LINE
  5
F95C
  8
0
  6
BYBLOCK
 10
815.68769999999995
 20
-1307.2340999999999
 30
0.0
 11
813.08769999999993
 21
-1307.2340999999999
 31
0.0
  0
LINE
  5
F95D
  8
0
  6
BYBLOCK
 10
796.58770000000004
 20
-1307.9306999999999
 30
0.0
 11
793.98770000000002
 21
-1307.2340999999999
 31
0.0
  0
LINE
  5
F95E
  8
0
  6
BYBLOCK
 10
793.98770000000002
 20
-1307.2340999999999
 30
0.0
 11
796.58770000000004
 21
-1306.5373999999999
 31
0.0
  0
LINE
  5
F95F
  8
0
  6
BYBLOCK
 10
793.98770000000002
 20
-1307.2340999999999
 30
0.0
 11
796.58770000000004
 21
-1307.2340999999999
 31
0.0
  0
TEXT
  5
F960
  8
1DIM
 10
997.59019999999987
 20
-1329.3241
 30
0.0
 40
4.5499999999999989
  1
φ40
  0
LINE
  5
F961
  8
0
  6
BYBLOCK
 10
1021.3877
 20
-1329.5373999999999
 30
0.0
 11
1023.9877
 21
-1330.2340999999999
 31
0.0
  0
LINE
  5
F962
  8
0
  6
BYBLOCK
 10
1023.9877
 20
-1330.2340999999999
 30
0.0
 11
1021.3877
 21
-1330.9306999999999
 31
0.0
  0
LINE
  5
F963
  8
0
  6
BYBLOCK
 10
1023.9877
 20
-1330.2340999999999
 30
0.0
 11
1021.3877
 21
-1330.2340999999999
 31
0.0
  0
LINE
  5
F964
  8
0
  6
BYBLOCK
 10
986.98770000000002
 20
-1330.9306999999999
 30
0.0
 11
984.3877
 21
-1330.2340999999999
 31
0.0
  0
LINE
  5
F965
  8
0
  6
BYBLOCK
 10
984.3877
 20
-1330.2340999999999
 30
0.0
 11
986.98770000000002
 21
-1329.5373999999999
 31
0.0
  0
LINE
  5
F966
  8
0
  6
BYBLOCK
 10
984.3877
 20
-1330.2340999999999
 30
0.0
 11
986.98770000000002
 21
-1330.2340999999999
 31
0.0
  0
TEXT
  5
F967
  8
1DIM
 10
660.59019999999998
 20
-1329.3241
 30
0.0
 40
4.5499999999999989
  1
φ40
  0
LINE
  5
F968
  8
0
  6
BYBLOCK
 10
684.38769999999988
 20
-1329.5373999999999
 30
0.0
 11
686.98770000000002
 21
-1330.2340999999999
 31
0.0
  0
LINE
  5
F969
  8
0
  6
BYBLOCK
 10
686.98770000000002
 20
-1330.2340999999999
 30
0.0
 11
684.38769999999988
 21
-1330.9306999999999
 31
0.0
  0
LINE
  5
F96A
  8
0
  6
BYBLOCK
 10
686.98770000000002
 20
-1330.2340999999999
 30
0.0
 11
684.38769999999988
 21
-1330.2340999999999
 31
0.0
  0
LINE
  5
F96B
  8
0
  6
BYBLOCK
 10
649.98770000000002
 20
-1330.9306999999999
 30
0.0
 11
647.38769999999988
 21
-1330.2340999999999
 31
0.0
  0
LINE
  5
F96C
  8
0
  6
BYBLOCK
 10
647.38769999999988
 20
-1330.2340999999999
 30
0.0
 11
649.98770000000002
 21
-1329.5373999999999
 31
0.0
  0
LINE
  5
F96D
  8
0
  6
BYBLOCK
 10
647.38769999999988
 20
-1330.2340999999999
 30
0.0
 11
649.98770000000002
 21
-1330.2340999999999
 31
0.0
  0
TEXT
  5
F96E
  8
1DIM
 10
633.27769999999998
 20
-1391.6466
 30
0.0
 40
4.5499999999999989
  1
50 
 50
90.0
  0
LINE
  5
F96F
  8
0
  6
BYBLOCK
 10
633.49099999999987
 20
-1365.8341
 30
0.0
 11
634.18769999999995
 21
-1363.2340999999999
 31
0.0
  0
LINE
  5
F970
  8
0
  6
BYBLOCK
 10
634.18769999999995
 20
-1363.2340999999999
 30
0.0
 11
634.88440000000003
 21
-1365.8341
 31
0.0
  0
LINE
  5
F971
  8
0
  6
BYBLOCK
 10
634.18769999999995
 20
-1363.2340999999999
 30
0.0
 11
634.18769999999995
 21
-1365.8341
 31
0.0
  0
LINE
  5
F972
  8
0
  6
BYBLOCK
 10
634.88440000000003
 20
-1410.6341
 30
0.0
 11
634.18769999999995
 21
-1413.2340999999999
 31
0.0
  0
LINE
  5
F973
  8
0
  6
BYBLOCK
 10
634.18769999999995
 20
-1413.2340999999999
 30
0.0
 11
633.49099999999987
 21
-1410.6341
 31
0.0
  0
LINE
  5
F974
  8
0
  6
BYBLOCK
 10
634.18769999999995
 20
-1413.2340999999999
 30
0.0
 11
634.18769999999995
 21
-1410.6341
 31
0.0
  0
TEXT
  5
F975
  8
1DIM
 10
623.27769999999987
 20
-1392.3090999999999
 30
0.0
 40
4.5499999999999989
  1
55.5 
 50
90.0
  0
LINE
  5
F976
  8
0
  6
BYBLOCK
 10
623.49099999999999
 20
-1360.3341
 30
0.0
 11
624.18769999999995
 21
-1357.7340999999999
 31
0.0
  0
LINE
  5
F977
  8
0
  6
BYBLOCK
 10
624.18769999999995
 20
-1357.7340999999999
 30
0.0
 11
624.88440000000003
 21
-1360.3341
 31
0.0
  0
LINE
  5
F978
  8
0
  6
BYBLOCK
 10
624.18769999999995
 20
-1357.7340999999999
 30
0.0
 11
624.18769999999995
 21
-1360.3341
 31
0.0
  0
LINE
  5
F979
  8
0
  6
BYBLOCK
 10
624.88440000000003
 20
-1410.6341
 30
0.0
 11
624.18769999999995
 21
-1413.2340999999999
 31
0.0
  0
LINE
  5
F97A
  8
0
  6
BYBLOCK
 10
624.18769999999995
 20
-1413.2340999999999
 30
0.0
 11
623.49099999999999
 21
-1410.6341
 31
0.0
  0
LINE
  5
F97B
  8
0
  6
BYBLOCK
 10
624.18769999999995
 20
-1413.2340999999999
 30
0.0
 11
624.18769999999995
 21
-1410.6341
 31
0.0
  0
TEXT
  5
F97C
  8
1DIM
 10
879.28129999999999
 20
-1378.9703999999999
 30
0.0
 40
4.5499999999999989
  1
114 
 50
90.0
  0
LINE
  5
F97D
  8
0
  6
BYBLOCK
 10
880.88789999999995
 20
-1446.6341
 30
0.0
 11
880.19129999999984
 21
-1449.2340999999999
 31
0.0
  0
LINE
  5
F97E
  8
0
  6
BYBLOCK
 10
880.19129999999984
 20
-1449.2340999999999
 30
0.0
 11
879.49459999999988
 21
-1446.6341
 31
0.0
  0
LINE
  5
F97F
  8
0
  6
BYBLOCK
 10
880.19129999999984
 20
-1449.2340999999999
 30
0.0
 11
880.19129999999984
 21
-1446.6341
 31
0.0
  0
LINE
  5
F980
  8
0
  6
BYBLOCK
 10
879.49459999999988
 20
-1337.8341
 30
0.0
 11
880.19129999999984
 21
-1335.2340999999999
 31
0.0
  0
LINE
  5
F981
  8
0
  6
BYBLOCK
 10
880.19129999999984
 20
-1335.2340999999999
 30
0.0
 11
880.88789999999995
 21
-1337.8341
 31
0.0
  0
LINE
  5
F982
  8
0
  6
BYBLOCK
 10
880.19129999999984
 20
-1335.2340999999999
 30
0.0
 11
880.19129999999984
 21
-1337.8341
 31
0.0
  0
TEXT
  5
F983
  8
1DIM
 10
889.28129999999999
 20
-1379.3495
 30
0.0
 40
4.5499999999999989
  1
130 
 50
90.0
  0
LINE
  5
F984
  8
0
  6
BYBLOCK
 10
890.88789999999983
 20
-1454.6341
 30
0.0
 11
890.19129999999996
 21
-1457.2340999999999
 31
0.0
  0
LINE
  5
F985
  8
0
  6
BYBLOCK
 10
890.19129999999996
 20
-1457.2340999999999
 30
0.0
 11
889.49459999999999
 21
-1454.6341
 31
0.0
  0
LINE
  5
F986
  8
0
  6
BYBLOCK
 10
890.19129999999996
 20
-1457.2340999999999
 30
0.0
 11
890.19129999999996
 21
-1454.6341
 31
0.0
  0
LINE
  5
F987
  8
0
  6
BYBLOCK
 10
889.49459999999999
 20
-1329.8341
 30
0.0
 11
890.19129999999996
 21
-1327.2340999999999
 31
0.0
  0
LINE
  5
F988
  8
0
  6
BYBLOCK
 10
890.19129999999996
 20
-1327.2340999999999
 30
0.0
 11
890.88789999999983
 21
-1329.8341
 31
0.0
  0
LINE
  5
F989
  8
0
  6
BYBLOCK
 10
890.19129999999996
 20
-1327.2340999999999
 30
0.0
 11
890.19129999999996
 21
-1329.8341
 31
0.0
  0
TEXT
  5
F98A
  8
1DIM
 10
1064.3124
 20
-1396.0256999999999
 30
0.0
 40
4.5499999999999989
  1
74 
 50
90.0
  0
LINE
  5
F98B
  8
0
  6
BYBLOCK
 10
1065.9190000000001
 20
-1426.6341
 30
0.0
 11
1065.2224000000001
 21
-1429.2340999999999
 31
0.0
  0
LINE
  5
F98C
  8
0
  6
BYBLOCK
 10
1065.2224000000001
 20
-1429.2340999999999
 30
0.0
 11
1064.5256999999999
 21
-1426.6341
 31
0.0
  0
LINE
  5
F98D
  8
0
  6
BYBLOCK
 10
1065.2224000000001
 20
-1429.2340999999999
 30
0.0
 11
1065.2224000000001
 21
-1426.6341
 31
0.0
  0
LINE
  5
F98E
  8
0
  6
BYBLOCK
 10
1064.5256999999999
 20
-1357.8341
 30
0.0
 11
1065.2224000000001
 21
-1355.2340999999999
 31
0.0
  0
LINE
  5
F98F
  8
0
  6
BYBLOCK
 10
1065.2224000000001
 20
-1355.2340999999999
 30
0.0
 11
1065.9190000000001
 21
-1357.8341
 31
0.0
  0
LINE
  5
F990
  8
0
  6
BYBLOCK
 10
1065.2224000000001
 20
-1355.2340999999999
 30
0.0
 11
1065.2224000000001
 21
-1357.8341
 31
0.0
  0
TEXT
  5
F991
  8
1DIM
 10
983.89599999999996
 20
-1296.3241
 30
0.0
 40
4.5499999999999989
  1
69 
  0
LINE
  5
F992
  8
0
  6
BYBLOCK
 10
955.78769999999986
 20
-1297.9306999999999
 30
0.0
 11
953.18769999999995
 21
-1297.2340999999999
 31
0.0
  0
LINE
  5
F993
  8
0
  6
BYBLOCK
 10
953.18769999999995
 20
-1297.2340999999999
 30
0.0
 11
955.78769999999986
 21
-1296.5373999999999
 31
0.0
  0
LINE
  5
F994
  8
0
  6
BYBLOCK
 10
953.18769999999995
 20
-1297.2340999999999
 30
0.0
 11
955.78769999999986
 21
-1297.2340999999999
 31
0.0
  0
LINE
  5
F995
  8
0
  6
BYBLOCK
 10
1019.5877
 20
-1296.5373999999999
 30
0.0
 11
1022.1876999999999
 21
-1297.2340999999999
 31
0.0
  0
LINE
  5
F996
  8
0
  6
BYBLOCK
 10
1022.1876999999999
 20
-1297.2340999999999
 30
0.0
 11
1019.5877
 21
-1297.9306999999999
 31
0.0
  0
LINE
  5
F997
  8
0
  6
BYBLOCK
 10
1022.1876999999999
 20
-1297.2340999999999
 30
0.0
 11
1019.5877
 21
-1297.2340999999999
 31
0.0
  0
TEXT
  5
F998
  8
1DIM
 10
968.27779999999984
 20
-1420.2107000000001
 30
0.0
 40
4.5499999999999989
  1
φ53
 50
90.0
  0
LINE
  5
F999
  8
0
  6
BYBLOCK
 10
968.49109999999985
 20
-1389.3341
 30
0.0
 11
969.18780000000004
 21
-1386.7340999999999
 31
0.0
  0
LINE
  5
F99A
  8
0
  6
BYBLOCK
 10
969.18780000000004
 20
-1386.7340999999999
 30
0.0
 11
969.88440000000014
 21
-1389.3341
 31
0.0
  0
LINE
  5
F99B
  8
0
  6
BYBLOCK
 10
969.18780000000004
 20
-1386.7340999999999
 30
0.0
 11
969.18780000000004
 21
-1389.3341
 31
0.0
  0
LINE
  5
F99C
  8
0
  6
BYBLOCK
 10
969.88440000000014
 20
-1437.1341
 30
0.0
 11
969.18780000000004
 21
-1439.7340999999999
 31
0.0
  0
LINE
  5
F99D
  8
0
  6
BYBLOCK
 10
969.18780000000004
 20
-1439.7340999999999
 30
0.0
 11
968.49109999999985
 21
-1437.1341
 31
0.0
  0
LINE
  5
F99E
  8
0
  6
BYBLOCK
 10
969.18780000000004
 20
-1439.7340999999999
 30
0.0
 11
969.18780000000004
 21
-1437.1341
 31
0.0
  0
TEXT
  5
F99F
  8
1DIM
 10
1105.7778000000001
 20
-1174.3145999999999
 30
0.0
 40
4.5499999999999989
  1
22 
 50
90.0
  0
LINE
  5
F9A0
  8
0
  6
BYBLOCK
 10
1107.3843999999999
 20
-1178.7117000000001
 30
0.0
 11
1106.6877999999999
 21
-1181.3117
 31
0.0
  0
LINE
  5
F9A1
  8
0
  6
BYBLOCK
 10
1106.6877999999999
 20
-1181.3117
 30
0.0
 11
1105.9911
 21
-1178.7117000000001
 31
0.0
  0
LINE
  5
F9A2
  8
0
  6
BYBLOCK
 10
1106.6877999999999
 20
-1181.3117
 30
0.0
 11
1106.6877999999999
 21
-1178.7117000000001
 31
0.0
  0
LINE
  5
F9A3
  8
0
  6
BYBLOCK
 10
1105.9911
 20
-1162.3341
 30
0.0
 11
1106.6877999999999
 21
-1159.7340999999999
 31
0.0
  0
LINE
  5
F9A4
  8
0
  6
BYBLOCK
 10
1106.6877999999999
 20
-1159.7340999999999
 30
0.0
 11
1107.3843999999999
 21
-1162.3341
 31
0.0
  0
LINE
  5
F9A5
  8
0
  6
BYBLOCK
 10
1106.6877999999999
 20
-1159.7340999999999
 30
0.0
 11
1106.6877999999999
 21
-1162.3341
 31
0.0
  0
TEXT
  5
F9A6
  8
1DIM
 10
1115.7778000000001
 20
-1190.5123000000001
 30
0.0
 40
4.5499999999999989
  1
54 
 50
90.0
  0
LINE
  5
F9A7
  8
0
  6
BYBLOCK
 10
1115.9911
 20
-1162.3341
 30
0.0
 11
1116.6877999999999
 21
-1159.7340999999999
 31
0.0
  0
LINE
  5
F9A8
  8
0
  6
BYBLOCK
 10
1116.6877999999999
 20
-1159.7340999999999
 30
0.0
 11
1117.3843999999999
 21
-1162.3341
 31
0.0
  0
LINE
  5
F9A9
  8
0
  6
BYBLOCK
 10
1116.6877999999999
 20
-1159.7340999999999
 30
0.0
 11
1116.6877999999999
 21
-1162.3341
 31
0.0
  0
LINE
  5
F9AA
  8
0
  6
BYBLOCK
 10
1117.3843999999999
 20
-1211.1070999999999
 30
0.0
 11
1116.6877999999999
 21
-1213.7071000000001
 31
0.0
  0
LINE
  5
F9AB
  8
0
  6
BYBLOCK
 10
1116.6877999999999
 20
-1213.7071000000001
 30
0.0
 11
1115.9911
 21
-1211.1070999999999
 31
0.0
  0
LINE
  5
F9AC
  8
0
  6
BYBLOCK
 10
1116.6877999999999
 20
-1213.7071000000001
 30
0.0
 11
1116.6877999999999
 21
-1211.1070999999999
 31
0.0
  0
TEXT
  5
F9AD
  8
1DIM
 10
1125.7778000000001
 20
-1197.9299000000001
 30
0.0
 40
4.5499999999999989
  1
69 
 50
90.0
  0
LINE
  5
F9AE
  8
0
  6
BYBLOCK
 10
1127.3843999999999
 20
-1225.9423999999999
 30
0.0
 11
1126.6877999999999
 21
-1228.5424
 31
0.0
  0
LINE
  5
F9AF
  8
0
  6
BYBLOCK
 10
1126.6877999999999
 20
-1228.5424
 30
0.0
 11
1125.9911
 21
-1225.9423999999999
 31
0.0
  0
LINE
  5
F9B0
  8
0
  6
BYBLOCK
 10
1126.6877999999999
 20
-1228.5424
 30
0.0
 11
1126.6877999999999
 21
-1225.9423999999999
 31
0.0
  0
LINE
  5
F9B1
  8
0
  6
BYBLOCK
 10
1125.9911
 20
-1162.3341
 30
0.0
 11
1126.6877999999999
 21
-1159.7340999999999
 31
0.0
  0
LINE
  5
F9B2
  8
0
  6
BYBLOCK
 10
1126.6877999999999
 20
-1159.7340999999999
 30
0.0
 11
1127.3843999999999
 21
-1162.3341
 31
0.0
  0
LINE
  5
F9B3
  8
0
  6
BYBLOCK
 10
1126.6877999999999
 20
-1159.7340999999999
 30
0.0
 11
1126.6877999999999
 21
-1162.3341
 31
0.0
  0
TEXT
  5
F9B4
  8
1DIM
 10
1041.1128000000001
 20
-1242.7971
 30
0.0
 40
4.5499999999999989
  1
87.5 
  0
LINE
  5
F9B5
  8
0
  6
BYBLOCK
 10
1089.0878
 20
-1243.0105000000001
 30
0.0
 11
1091.6877999999999
 21
-1243.7071000000001
 31
0.0
  0
LINE
  5
F9B6
  8
0
  6
BYBLOCK
 10
1091.6877999999999
 20
-1243.7071000000001
 30
0.0
 11
1089.0878
 21
-1244.4038
 31
0.0
  0
LINE
  5
F9B7
  8
0
  6
BYBLOCK
 10
1091.6877999999999
 20
-1243.7071000000001
 30
0.0
 11
1089.0878
 21
-1243.7071000000001
 31
0.0
  0
LINE
  5
F9B8
  8
0
  6
BYBLOCK
 10
1006.7877999999999
 20
-1244.4038
 30
0.0
 11
1004.1878
 21
-1243.7071000000001
 31
0.0
  0
LINE
  5
F9B9
  8
0
  6
BYBLOCK
 10
1004.1878
 20
-1243.7071000000001
 30
0.0
 11
1006.7877999999999
 21
-1243.0105000000001
 31
0.0
  0
LINE
  5
F9BA
  8
0
  6
BYBLOCK
 10
1004.1878
 20
-1243.7071000000001
 30
0.0
 11
1006.7877999999999
 21
-1243.7071000000001
 31
0.0
  0
TEXT
  5
F9BB
  8
1DIM
 10
1029.4753000000001
 20
-1252.7971
 30
0.0
 40
4.5499999999999989
  1
108.5 
  0
LINE
  5
F9BC
  8
0
  6
BYBLOCK
 10
1089.0878
 20
-1253.0105000000001
 30
0.0
 11
1091.6877999999999
 21
-1253.7071000000001
 31
0.0
  0
LINE
  5
F9BD
  8
0
  6
BYBLOCK
 10
1091.6877999999999
 20
-1253.7071000000001
 30
0.0
 11
1089.0878
 21
-1254.4038
 31
0.0
  0
LINE
  5
F9BE
  8
0
  6
BYBLOCK
 10
1091.6877999999999
 20
-1253.7071000000001
 30
0.0
 11
1089.0878
 21
-1253.7071000000001
 31
0.0
  0
LINE
  5
F9BF
  8
0
  6
BYBLOCK
 10
985.78779999999995
 20
-1254.4038
 30
0.0
 11
983.18780000000015
 21
-1253.7071000000001
 31
0.0
  0
LINE
  5
F9C0
  8
0
  6
BYBLOCK
 10
983.18780000000015
 20
-1253.7071000000001
 30
0.0
 11
985.78779999999995
 21
-1253.0105000000001
 31
0.0
  0
LINE
  5
F9C1
  8
0
  6
BYBLOCK
 10
983.18780000000015
 20
-1253.7071000000001
 30
0.0
 11
985.78779999999995
 21
-1253.7071000000001
 31
0.0
  0
TEXT
  5
F9C2
  8
1DIM
 10
1105.7778000000001
 20
-1417.0256999999999
 30
0.0
 40
4.5499999999999989
  1
72 
 50
90.0
  0
LINE
  5
F9C3
  8
0
  6
BYBLOCK
 10
1107.3843999999999
 20
-1446.6347000000001
 30
0.0
 11
1106.6877999999999
 21
-1449.2347
 31
0.0
  0
LINE
  5
F9C4
  8
0
  6
BYBLOCK
 10
1106.6877999999999
 20
-1449.2347
 30
0.0
 11
1105.9911
 21
-1446.6347000000001
 31
0.0
  0
LINE
  5
F9C5
  8
0
  6
BYBLOCK
 10
1106.6877999999999
 20
-1449.2347
 30
0.0
 11
1106.6877999999999
 21
-1446.6347000000001
 31
0.0
  0
LINE
  5
F9C6
  8
0
  6
BYBLOCK
 10
1105.9911
 20
-1379.8335
 30
0.0
 11
1106.6877999999999
 21
-1377.2335
 31
0.0
  0
LINE
  5
F9C7
  8
0
  6
BYBLOCK
 10
1106.6877999999999
 20
-1377.2335
 30
0.0
 11
1107.3843999999999
 21
-1379.8335
 31
0.0
  0
LINE
  5
F9C8
  8
0
  6
BYBLOCK
 10
1106.6877999999999
 20
-1377.2335
 30
0.0
 11
1106.6877999999999
 21
-1379.8335
 31
0.0
  0
VIEWPORT
  5
57
 67
     1
  8
0
 10
5.7225006584107403
 20
4.0066664707003623
 30
0.0
 40
12.70516414486376
 41
8.7426062480295741
 68
     1
 69
     1
1001
ACAD
1000
MVIEW
1002
{
1070
    16
1010
0.0
1020
0.0
1030
0.0
1010
0.0
1020
0.0
1030
1.0
1040
0.0
1040
8.7426062480295741
1040
5.7225006584107403
1040
4.0066664707003623
1040
50.0
1040
0.0
1040
0.0
1070
     0
1070
   100
1070
     1
1070
     1
1070
     0
1070
     0
1070
     0
1070
     0
1040
0.0
1040
0.0
1040
0.0
1040
10.0
1040
10.0
1040
10.0
1040
10.0
1070
     0
1002
{
1002
}
1002
}
  0
ENDSEC
  0
EOF
