  0
SECTION
  2
HEADER
  9
$ACADVER
  1
AC1009
  9
$INSBASE
 10
0.0
 20
0.0
 30
0.0
  9
$EXTMIN
 10
578.68765446632358
 20
-1468.070021597744
 30
-0.0000000000563712
  9
$EXTMAX
 10
1128.9876838663249
 20
-1059.524086598773
 30
0.0000000000010008
  9
$LIMMIN
 10
0.0
 20
0.0
  9
$LIMMAX
 10
420.0
 20
297.0
  9
$ORTHOMODE
 70
     0
  9
$REGENMODE
 70
     1
  9
$FILLMODE
 70
     1
  9
$QTEXTMODE
 70
     0
  9
$MIRRTEXT
 70
     0
  9
$DRAGMODE
 70
     2
  9
$LTSCALE
 40
0.5
  9
$OSMODE
 70
    63
  9
$ATTMODE
 70
     1
  9
$TEXTSIZE
 40
4.0
  9
$TRACEWID
 40
1.0
  9
$TEXTSTYLE
  7
STANDARD
  9
$CLAYER
  8
1TEXT
  9
$CELTYPE
  6
BYLAYER
  9
$CECOLOR
 62
   256
  9
$DIMSCALE
 40
1.0
  9
$DIMASZ
 40
2.0
  9
$DIMEXO
 40
0.0
  9
$DIMDLI
 40
7.0
  9
$DIMRND
 40
0.0
  9
$DIMDLE
 40
0.0
  9
$DIMEXE
 40
1.0
  9
$DIMTP
 40
0.0
  9
$DIMTM
 40
0.0
  9
$DIMTXT
 40
3.5
  9
$DIMCEN
 40
0.0
  9
$DIMTSZ
 40
0.0
  9
$DIMTOL
 70
     0
  9
$DIMLIM
 70
     0
  9
$DIMTIH
 70
     0
  9
$DIMTOH
 70
     0
  9
$DIMSE1
 70
     0
  9
$DIMSE2
 70
     0
  9
$DIMTAD
 70
     1
  9
$DIMZIN
 70
     8
  9
$DIMBLK
  1

  9
$DIMASO
 70
     1
  9
$DIMSHO
 70
     1
  9
$DIMPOST
  1
 
  9
$DIMAPOST
  1

  9
$DIMALT
 70
     0
  9
$DIMALTD
 70
     2
  9
$DIMALTF
 40
25.399999999999999
  9
$DIMLFAC
 40
1.0
  9
$DIMTOFL
 70
     1
  9
$DIMTVP
 40
0.0
  9
$DIMTIX
 70
     0
  9
$DIMSOXD
 70
     0
  9
$DIMSAH
 70
     1
  9
$DIMBLK1
  1
OPEN30
  9
$DIMBLK2
  1
OPEN30
  9
$DIMSTYLE
  2
NEWX10
  9
$DIMCLRD
 70
   256
  9
$DIMCLRE
 70
   256
  9
$DIMCLRT
 70
   201
  9
$DIMTFAC
 40
0.7
  9
$DIMGAP
 40
0.7
  9
$LUNITS
 70
     2
  9
$LUPREC
 70
     4
  9
$SKETCHINC
 40
1.0
  9
$FILLETRAD
 40
0.0
  9
$AUNITS
 70
     0
  9
$AUPREC
 70
     2
  9
$MENU
  1
acad
  9
$ELEVATION
 40
0.0
  9
$PELEVATION
 40
0.0
  9
$THICKNESS
 40
0.0
  9
$LIMCHECK
 70
     0
  9
$BLIPMODE
 70
     0
  9
$CHAMFERA
 40
10.0
  9
$CHAMFERB
 40
10.0
  9
$SKPOLY
 70
     0
  9
$TDCREATE
 40
2451318.621352917
  9
$TDUPDATE
 40
2457014.729031933
  9
$TDINDWG
 40
0.489877662
  9
$TDUSRTIMER
 40
0.489877662
  9
$USRTIMER
 70
     1
  9
$ANGBASE
 50
0.0
  9
$ANGDIR
 70
     0
  9
$PDMODE
 70
     0
  9
$PDSIZE
 40
0.0
  9
$PLINEWID
 40
0.0
  9
$COORDS
 70
     0
  9
$SPLFRAME
 70
     0
  9
$SPLINETYPE
 70
     6
  9
$SPLINESEGS
 70
     8
  9
$ATTDIA
 70
     0
  9
$ATTREQ
 70
     1
  9
$HANDLING
 70
     1
  9
$HANDSEED
  5
105C8
  9
$SURFTAB1
 70
     6
  9
$SURFTAB2
 70
     6
  9
$SURFTYPE
 70
     6
  9
$SURFU
 70
     6
  9
$SURFV
 70
     6
  9
$UCSNAME
  2

  9
$UCSORG
 10
0.0
 20
0.0
 30
0.0
  9
$UCSXDIR
 10
1.0
 20
0.0
 30
0.0
  9
$UCSYDIR
 10
0.0
 20
1.0
 30
0.0
  9
$PUCSNAME
  2

  9
$PUCSORG
 10
0.0
 20
0.0
 30
0.0
  9
$PUCSXDIR
 10
1.0
 20
0.0
 30
0.0
  9
$PUCSYDIR
 10
0.0
 20
1.0
 30
0.0
  9
$USERI1
 70
     0
  9
$USERI2
 70
     0
  9
$USERI3
 70
     0
  9
$USERI4
 70
     0
  9
$USERI5
 70
     0
  9
$USERR1
 40
0.0
  9
$USERR2
 40
0.0
  9
$USERR3
 40
0.0
  9
$USERR4
 40
0.0
  9
$USERR5
 40
0.0
  9
$WORLDVIEW
 70
     1
  9
$SHADEDGE
 70
     3
  9
$SHADEDIF
 70
    70
  9
$TILEMODE
 70
     1
  9
$MAXACTVP
 70
    48
  9
$PLIMCHECK
 70
     0
  9
$PEXTMIN
 10
1.0000000000000000E+020
 20
1.0000000000000000E+020
 30
1.0000000000000000E+020
  9
$PEXTMAX
 10
-1.0000000000000000E+020
 20
-1.0000000000000000E+020
 30
-1.0000000000000000E+020
  9
$PLIMMIN
 10
0.0
 20
0.0
  9
$PLIMMAX
 10
420.0
 20
297.0
  9
$UNITMODE
 70
     0
  9
$VISRETAIN
 70
     1
  9
$PLINEGEN
 70
     0
  9
$PSLTSCALE
 70
     1
  0
ENDSEC
  0
SECTION
  2
TABLES
  0
TABLE
  2
VPORT
 70
     1
  0
VPORT
  2
*ACTIVE
 70
     0
 10
0.0
 20
0.0
 11
1.0
 21
1.0
 12
853.82105666825021
 22
-1263.7710276644441
 13
0.0
 23
0.0
 14
10.0
 24
10.0
 15
10.0
 25
10.0
 16
0.0
 26
0.0
 36
1.0
 17
0.0
 27
0.0
 37
0.0
 40
433.41517383456022
 41
2.1749379652605461
 42
50.0
 43
0.0
 44
0.0
 50
0.0
 51
0.0
 71
     0
 72
   100
 73
     1
 74
     1
 75
     0
 76
     0
 77
     0
 78
     0
  0
ENDTAB
  0
TABLE
  2
LTYPE
 70
    15
  0
LTYPE
  2
CONTINUOUS
 70
     0
  3
Solid line
 72
    65
 73
     0
 40
0.0
  0
LTYPE
  2
XREF1|CENTER2
 70
    48
  3
Center (.5x) ___ _ ___ _ ___ _ ___ _ ___ _ ___
 72
    65
 73
     4
 40
28.574999999999999
 49
19.050000000000001
 49
-3.1749999999999989
 49
3.1749999999999989
 49
-3.1749999999999989
  0
LTYPE
  2
A3WAKUDAKE|CENTER2
 70
    48
  3
Center (.5x) ___ _ ___ _ ___ _ ___ _ ___ _ ___
 72
    65
 73
     4
 40
28.574999999999999
 49
19.050000000000001
 49
-3.1749999999999989
 49
3.1749999999999989
 49
-3.1749999999999989
  0
LTYPE
  2
CENTER2
 70
     0
  3
Center (.5x) ___ _ ___ _ ___ _ ___ _ ___ _ ___
 72
    65
 73
     4
 40
28.574999999999999
 49
19.050000000000001
 49
-3.1749999999999989
 49
3.1749999999999989
 49
-3.1749999999999989
  0
LTYPE
  2
HIDDEN
 70
     0
  3
Hidden __ __ __ __ __ __ __ __ __ __ __ __ __ _
 72
    65
 73
     2
 40
9.5249999999999986
 49
6.3499999999999988
 49
-3.1749999999999989
  0
LTYPE
  2
PHANTOM2
 70
     0
  3
Phantom (.5x) ___ _ _ ___ _ _ ___ _ _ ___ _ _
 72
    65
 73
     6
 40
31.75
 49
15.875
 49
-3.1749999999999989
 49
3.1749999999999989
 49
-3.1749999999999989
 49
3.1749999999999989
 49
-3.1749999999999989
  0
ENDTAB
  0
TABLE
  2
LAYER
 70
    49
  0
LAYER
  2
0
 70
     0
 62
     7
  6
CONTINUOUS
  0
LAYER
  2
1CENTER
 70
     0
 62
     7
  6
CENTER2
  0
LAYER
  2
1TEXT
 70
     0
 62
     7
  6
CONTINUOUS
  0
LAYER
  2
01
 70
     0
 62
     1
  6
CONTINUOUS
  0
LAYER
  2
1DIM
 70
     0
 62
     7
  6
CONTINUOUS
  0
LAYER
  2
A3WAKUDAKE|THICK
 70
    48
 62
     7
  6
CONTINUOUS
  0
LAYER
  2
A3WAKUDAKE|POINT
 70
    48
 62
     7
  6
CONTINUOUS
  0
LAYER
  2
A3WAKUDAKE|1CENTER
 70
    48
 62
     7
  6
A3WAKUDAKE|CENTER2
  0
LAYER
  2
A3WAKUDAKE|0-6
 70
    48
 62
     7
  6
CONTINUOUS
  0
LAYER
  2
1HIDDEN
 70
     0
 62
     7
  6
HIDDEN
  0
LAYER
  2
1PHANTOM
 70
     0
 62
     7
  6
PHANTOM2
  0
LAYER
  2
A3WAKUDAKE|1DIM
 70
    48
 62
     7
  6
CONTINUOUS
  0
LAYER
  2
XREF1|1CENTER
 70
    48
 62
     7
  6
XREF1|CENTER2
  0
ENDTAB
  0
TABLE
  2
STYLE
 70
    22
  0
STYLE
  2
STANDARD
 70
     0
 40
0.0
 41
1.0
 50
0.0
 71
     0
 42
4.0
  3
txt.shx
  4
extfont.shx
  0
ENDTAB
  0
TABLE
  2
VIEW
 70
     5
  0
ENDTAB
  0
TABLE
  2
UCS
 70
     0
  0
ENDTAB
  0
TABLE
  2
APPID
 70
    13
  0
APPID
  2
ACAD
 70
     0
  0
APPID
  2
DRAWINGVARIABLESXDATA
 70
     0
  0
APPID
  2
CONTENTTABDATA
 70
     0
  0
APPID
  2
CONTENTCURRENTTAB
 70
     0
  0
APPID
  2
CONTENTBLOCKDESCRIPTION
 70
     0
  0
APPID
  2
CONTENTBLOCKICON
 70
     0
  0
APPID
  2
CONTENTLONGBLOCKNAME
 70
     0
  0
APPID
  2
ACAD_PSEXT
 70
     0
  0
APPID
  2
ACAD_MLEADERVER
 70
     0
  0
APPID
  2
ACAD_DSTYLE_DIMRADIAL_EXTENSION
 70
     0
  0
APPID
  2
ACLAYERTOOLS
 70
     0
  0
APPID
  2
ACAD_EXEMPT_FROM_CAD_STANDARDS
 70
     0
  0
APPID
  2
ACAD_NAV_VCDISPLAY
 70
     0
  0
ENDTAB
  0
TABLE
  2
DIMSTYLE
 70
     6
  0
DIMSTYLE
  2
NEWX10
 70
     0
  3
 
  4

  5

  6
OPEN30
  7
OPEN30
 40
1.0
 41
2.0
 42
0.0
 43
7.0
 44
1.0
 45
0.0
 46
0.0
 47
0.0
 48
0.0
140
3.5
141
0.0
142
0.0
143
25.399999999999999
144
1.0
145
0.0
146
0.7
147
0.7
 71
     0
 72
     0
 73
     0
 74
     0
 75
     0
 76
     0
 77
     1
 78
     8
170
     0
171
     2
172
     1
173
     1
174
     0
175
     0
176
   256
177
   256
178
   201
  0
ENDTAB
  0
ENDSEC
  0
SECTION
  2
BLOCKS
  0
BLOCK
  8
0
  2
$MODEL_SPACE
 70
     0
 10
0.0
 20
0.0
 30
0.0
  3
$MODEL_SPACE
  1

  0
ENDBLK
  5
1A
  8
0
  0
BLOCK
 67
     1
  8
0
  2
$PAPER_SPACE
 70
     0
 10
0.0
 20
0.0
 30
0.0
  3
$PAPER_SPACE
  1

  0
ENDBLK
  5
17
 67
     1
  8
0
  0
BLOCK
  8
0
  2
_OPEN30
 70
     0
 10
0.0
 20
0.0
 30
0.0
  3
_OPEN30
  1

  0
LINE
  5
44
  8
0
  6
BYBLOCK
 62
     0
 10
-1.0
 20
0.26794919
 30
0.0
 11
0.0
 21
0.0
 31
0.0
  0
LINE
  5
45
  8
0
  6
BYBLOCK
 62
     0
 10
0.0
 20
0.0
 30
0.0
 11
-1.0
 21
-0.26794919
 31
0.0
  0
LINE
  5
46
  8
0
  6
BYBLOCK
 62
     0
 10
0.0
 20
0.0
 30
0.0
 11
-1.0
 21
0.0
 31
0.0
  0
ENDBLK
  5
47
  8
0
  0
BLOCK
  8
0
  2
XREF1
 70
    36
 10
0.0
 20
0.0
 30
0.0
  3
XREF1
  1
D:\ACLT\FORMAT\KAWAJUN(9)図面用.dwg
  0
ENDBLK
  5
5D
  8
0
  0
BLOCK
  8
0
  2
A3WAKUDAKE
 70
    36
 10
0.0
 20
0.0
 30
0.0
  3
A3WAKUDAKE
  1
D:\ACLT\FORMAT\A3WAKUdake.dwg
  0
ENDBLK
  5
6A0
  8
0
  0
ENDSEC
  0
SECTION
  2
ENTITIES
  0
LINE
  5
9986
  8
01
 10
855.68766916632478
 20
-1320.7367015977429
 30
0.0
 11
855.68766916632478
 21
-1468.070021597744
 31
0.0
  0
LINE
  5
9987
  8
01
 10
815.68766916632489
 20
-1320.7367015977429
 30
0.0
 11
815.68766916632489
 21
-1468.070021597744
 31
0.0
  0
LINE
  5
9988
  8
01
 10
715.78767516632547
 20
-1327.2340815977441
 30
0.0
 11
715.78767516632547
 21
-1350.3340515977429
 31
0.0
  0
LINE
  5
9989
  8
01
 10
714.18766916632489
 20
-1327.2340815977441
 30
0.0
 11
714.18766916632489
 21
-1350.2340815977441
 31
0.0
  0
LINE
  5
998A
  8
01
 10
716.58767816632565
 20
-1327.2340815977441
 30
0.0
 11
716.58767816632565
 21
-1457.2340815977441
 31
0.0
  0
LINE
  5
998B
  8
01
 10
718.18766916632489
 20
-1327.2340815977441
 30
0.0
 11
718.18766916632489
 21
-1457.2340815977441
 31
0.0
  0
LINE
  5
998C
  8
01
 10
715.18766916632489
 20
-1355.2340815977441
 30
0.0
 11
686.82920177627375
 21
-1355.2340815977441
 31
0.0
  0
LINE
  5
998D
  8
01
 10
715.18766916632489
 20
-1429.2340815977441
 30
0.0
 11
688.3123033406024
 21
-1429.2340815977441
 31
0.0
  0
LINE
  5
998E
  8
01
 10
649.18768516632497
 20
-1365.9827590917209
 30
0.0
 11
649.18768516632485
 21
-1385.2340813977451
 31
0.0
  0
LINE
  5
998F
  8
01
 10
724.18766916632308
 20
-1381.2340815977441
 30
0.0
 11
718.18766916632489
 21
-1381.2340815977441
 31
0.0
  0
LINE
  5
9990
  8
01
 10
729.18766916632478
 20
-1386.2340815977441
 30
0.0
 11
719.18766916632489
 21
-1386.2340815977441
 31
0.0
  0
POLYLINE
  5
9991
  8
01
 10
729.18766916632478
 20
-1384.8025015977439
 30
0.0
 66
     1
 70
     8
  0
VERTEX
  8
01
  5
104C4
 10
729.188
 20
-1384.80
 30
0.000000
  70
    32
  0
VERTEX
  8
01
  5
104C5
 10
729.186
 20
-1384.71
 30
0.000000
  70
    32
  0
VERTEX
  8
01
  5
104C6
 10
729.182
 20
-1384.63
 30
0.000000
  70
    32
  0
VERTEX
  8
01
  5
104C7
 10
729.174
 20
-1384.54
 30
0.000000
  70
    32
  0
VERTEX
  8
01
  5
104C8
 10
729.164
 20
-1384.45
 30
0.000000
  70
    32
  0
VERTEX
  8
01
  5
104C9
 10
729.150
 20
-1384.37
 30
0.000000
  70
    32
  0
VERTEX
  8
01
  5
104CA
 10
729.134
 20
-1384.28
 30
0.000000
  70
    32
  0
VERTEX
  8
01
  5
104CB
 10
729.114
 20
-1384.19
 30
0.000000
  70
    32
  0
VERTEX
  8
01
  5
104CC
 10
729.092
 20
-1384.11
 30
0.000000
  70
    32
  0
VERTEX
  8
01
  5
104CD
 10
729.066
 20
-1384.02
 30
0.000000
  70
    32
  0
VERTEX
  8
01
  5
104CE
 10
729.038
 20
-1383.94
 30
0.000000
  70
    32
  0
VERTEX
  8
01
  5
104CF
 10
729.007
 20
-1383.85
 30
0.000000
  70
    32
  0
VERTEX
  8
01
  5
104D0
 10
728.972
 20
-1383.77
 30
0.000000
  70
    32
  0
VERTEX
  8
01
  5
104D1
 10
728.935
 20
-1383.68
 30
0.000000
  70
    32
  0
VERTEX
  8
01
  5
104D2
 10
728.895
 20
-1383.60
 30
0.000000
  70
    32
  0
VERTEX
  8
01
  5
104D3
 10
728.853
 20
-1383.52
 30
0.000000
  70
    32
  0
VERTEX
  8
01
  5
104D4
 10
728.807
 20
-1383.44
 30
0.000000
  70
    32
  0
VERTEX
  8
01
  5
104D5
 10
728.759
 20
-1383.36
 30
0.000000
  70
    32
  0
VERTEX
  8
01
  5
104D6
 10
728.708
 20
-1383.28
 30
0.000000
  70
    32
  0
VERTEX
  8
01
  5
104D7
 10
728.654
 20
-1383.20
 30
0.000000
  70
    32
  0
VERTEX
  8
01
  5
104D8
 10
728.597
 20
-1383.12
 30
0.000000
  70
    32
  0
VERTEX
  8
01
  5
104D9
 10
728.538
 20
-1383.04
 30
0.000000
  70
    32
  0
VERTEX
  8
01
  5
104DA
 10
728.476
 20
-1382.97
 30
0.000000
  70
    32
  0
VERTEX
  8
01
  5
104DB
 10
728.412
 20
-1382.89
 30
0.000000
  70
    32
  0
VERTEX
  8
01
  5
104DC
 10
728.345
 20
-1382.82
 30
0.000000
  70
    32
  0
VERTEX
  8
01
  5
104DD
 10
728.276
 20
-1382.75
 30
0.000000
  70
    32
  0
VERTEX
  8
01
  5
104DE
 10
728.204
 20
-1382.68
 30
0.000000
  70
    32
  0
VERTEX
  8
01
  5
104DF
 10
728.129
 20
-1382.61
 30
0.000000
  70
    32
  0
VERTEX
  8
01
  5
104E0
 10
728.053
 20
-1382.54
 30
0.000000
  70
    32
  0
VERTEX
  8
01
  5
104E1
 10
727.974
 20
-1382.47
 30
0.000000
  70
    32
  0
VERTEX
  8
01
  5
104E2
 10
727.892
 20
-1382.41
 30
0.000000
  70
    32
  0
VERTEX
  8
01
  5
104E3
 10
727.809
 20
-1382.34
 30
0.000000
  70
    32
  0
VERTEX
  8
01
  5
104E4
 10
727.723
 20
-1382.28
 30
0.000000
  70
    32
  0
VERTEX
  8
01
  5
104E5
 10
727.635
 20
-1382.22
 30
0.000000
  70
    32
  0
VERTEX
  8
01
  5
104E6
 10
727.545
 20
-1382.16
 30
0.000000
  70
    32
  0
VERTEX
  8
01
  5
104E7
 10
727.454
 20
-1382.10
 30
0.000000
  70
    32
  0
VERTEX
  8
01
  5
104E8
 10
727.360
 20
-1382.04
 30
0.000000
  70
    32
  0
VERTEX
  8
01
  5
104E9
 10
727.264
 20
-1381.99
 30
0.000000
  70
    32
  0
VERTEX
  8
01
  5
104EA
 10
727.166
 20
-1381.94
 30
0.000000
  70
    32
  0
VERTEX
  8
01
  5
104EB
 10
727.067
 20
-1381.89
 30
0.000000
  70
    32
  0
VERTEX
  8
01
  5
104EC
 10
726.966
 20
-1381.84
 30
0.000000
  70
    32
  0
VERTEX
  8
01
  5
104ED
 10
726.863
 20
-1381.79
 30
0.000000
  70
    32
  0
VERTEX
  8
01
  5
104EE
 10
726.758
 20
-1381.74
 30
0.000000
  70
    32
  0
VERTEX
  8
01
  5
104EF
 10
726.652
 20
-1381.70
 30
0.000000
  70
    32
  0
VERTEX
  8
01
  5
104F0
 10
726.545
 20
-1381.66
 30
0.000000
  70
    32
  0
VERTEX
  8
01
  5
104F1
 10
726.436
 20
-1381.62
 30
0.000000
  70
    32
  0
VERTEX
  8
01
  5
104F2
 10
726.325
 20
-1381.58
 30
0.000000
  70
    32
  0
VERTEX
  8
01
  5
104F3
 10
726.214
 20
-1381.54
 30
0.000000
  70
    32
  0
VERTEX
  8
01
  5
104F4
 10
726.101
 20
-1381.51
 30
0.000000
  70
    32
  0
VERTEX
  8
01
  5
104F5
 10
725.987
 20
-1381.47
 30
0.000000
  70
    32
  0
VERTEX
  8
01
  5
104F6
 10
725.872
 20
-1381.44
 30
0.000000
  70
    32
  0
VERTEX
  8
01
  5
104F7
 10
725.756
 20
-1381.41
 30
0.000000
  70
    32
  0
VERTEX
  8
01
  5
104F8
 10
725.639
 20
-1381.39
 30
0.000000
  70
    32
  0
VERTEX
  8
01
  5
104F9
 10
725.521
 20
-1381.36
 30
0.000000
  70
    32
  0
VERTEX
  8
01
  5
104FA
 10
725.403
 20
-1381.34
 30
0.000000
  70
    32
  0
VERTEX
  8
01
  5
104FB
 10
725.283
 20
-1381.32
 30
0.000000
  70
    32
  0
VERTEX
  8
01
  5
104FC
 10
725.163
 20
-1381.30
 30
0.000000
  70
    32
  0
VERTEX
  8
01
  5
104FD
 10
725.042
 20
-1381.29
 30
0.000000
  70
    32
  0
VERTEX
  8
01
  5
104FE
 10
724.921
 20
-1381.27
 30
0.000000
  70
    32
  0
VERTEX
  8
01
  5
104FF
 10
724.800
 20
-1381.26
 30
0.000000
  70
    32
  0
VERTEX
  8
01
  5
10500
 10
724.678
 20
-1381.25
 30
0.000000
  70
    32
  0
VERTEX
  8
01
  5
10501
 10
724.555
 20
-1381.24
 30
0.000000
  70
    32
  0
VERTEX
  8
01
  5
10502
 10
724.433
 20
-1381.24
 30
0.000000
  70
    32
  0
VERTEX
  8
01
  5
10503
 10
724.310
 20
-1381.24
 30
0.000000
  70
    32
  0
VERTEX
  8
01
  5
10504
 10
724.188
 20
-1381.23
 30
0.000000
  70
    32
  0
VERTEX
  8
01
  5
10505
 10
724.065
 20
-1381.24
 30
0.000000
  70
    32
  0
VERTEX
  8
01
  5
10506
 10
723.942
 20
-1381.24
 30
0.000000
  70
    32
  0
VERTEX
  8
01
  5
10507
 10
723.820
 20
-1381.24
 30
0.000000
  70
    32
  0
VERTEX
  8
01
  5
10508
 10
723.698
 20
-1381.25
 30
0.000000
  70
    32
  0
VERTEX
  8
01
  5
10509
 10
723.576
 20
-1381.26
 30
0.000000
  70
    32
  0
VERTEX
  8
01
  5
1050A
 10
723.454
 20
-1381.27
 30
0.000000
  70
    32
  0
VERTEX
  8
01
  5
1050B
 10
723.333
 20
-1381.29
 30
0.000000
  70
    32
  0
VERTEX
  8
01
  5
1050C
 10
723.212
 20
-1381.30
 30
0.000000
  70
    32
  0
VERTEX
  8
01
  5
1050D
 10
723.092
 20
-1381.32
 30
0.000000
  70
    32
  0
VERTEX
  8
01
  5
1050E
 10
722.973
 20
-1381.34
 30
0.000000
  70
    32
  0
VERTEX
  8
01
  5
1050F
 10
722.854
 20
-1381.36
 30
0.000000
  70
    32
  0
VERTEX
  8
01
  5
10510
 10
722.736
 20
-1381.39
 30
0.000000
  70
    32
  0
VERTEX
  8
01
  5
10511
 10
722.619
 20
-1381.41
 30
0.000000
  70
    32
  0
VERTEX
  8
01
  5
10512
 10
722.503
 20
-1381.44
 30
0.000000
  70
    32
  0
VERTEX
  8
01
  5
10513
 10
722.388
 20
-1381.47
 30
0.000000
  70
    32
  0
VERTEX
  8
01
  5
10514
 10
722.274
 20
-1381.51
 30
0.000000
  70
    32
  0
VERTEX
  8
01
  5
10515
 10
722.161
 20
-1381.54
 30
0.000000
  70
    32
  0
VERTEX
  8
01
  5
10516
 10
722.050
 20
-1381.58
 30
0.000000
  70
    32
  0
VERTEX
  8
01
  5
10517
 10
721.940
 20
-1381.62
 30
0.000000
  70
    32
  0
VERTEX
  8
01
  5
10518
 10
721.831
 20
-1381.66
 30
0.000000
  70
    32
  0
VERTEX
  8
01
  5
10519
 10
721.723
 20
-1381.70
 30
0.000000
  70
    32
  0
VERTEX
  8
01
  5
1051A
 10
721.617
 20
-1381.74
 30
0.000000
  70
    32
  0
VERTEX
  8
01
  5
1051B
 10
721.513
 20
-1381.79
 30
0.000000
  70
    32
  0
VERTEX
  8
01
  5
1051C
 10
721.410
 20
-1381.84
 30
0.000000
  70
    32
  0
VERTEX
  8
01
  5
1051D
 10
721.309
 20
-1381.89
 30
0.000000
  70
    32
  0
VERTEX
  8
01
  5
1051E
 10
721.209
 20
-1381.94
 30
0.000000
  70
    32
  0
VERTEX
  8
01
  5
1051F
 10
721.112
 20
-1381.99
 30
0.000000
  70
    32
  0
VERTEX
  8
01
  5
10520
 10
721.016
 20
-1382.04
 30
0.000000
  70
    32
  0
VERTEX
  8
01
  5
10521
 10
720.922
 20
-1382.10
 30
0.000000
  70
    32
  0
VERTEX
  8
01
  5
10522
 10
720.830
 20
-1382.16
 30
0.000000
  70
    32
  0
VERTEX
  8
01
  5
10523
 10
720.740
 20
-1382.22
 30
0.000000
  70
    32
  0
VERTEX
  8
01
  5
10524
 10
720.652
 20
-1382.28
 30
0.000000
  70
    32
  0
VERTEX
  8
01
  5
10525
 10
720.566
 20
-1382.34
 30
0.000000
  70
    32
  0
VERTEX
  8
01
  5
10526
 10
720.483
 20
-1382.41
 30
0.000000
  70
    32
  0
VERTEX
  8
01
  5
10527
 10
720.402
 20
-1382.47
 30
0.000000
  70
    32
  0
VERTEX
  8
01
  5
10528
 10
720.323
 20
-1382.54
 30
0.000000
  70
    32
  0
VERTEX
  8
01
  5
10529
 10
720.246
 20
-1382.61
 30
0.000000
  70
    32
  0
VERTEX
  8
01
  5
1052A
 10
720.172
 20
-1382.68
 30
0.000000
  70
    32
  0
VERTEX
  8
01
  5
1052B
 10
720.100
 20
-1382.75
 30
0.000000
  70
    32
  0
VERTEX
  8
01
  5
1052C
 10
720.030
 20
-1382.82
 30
0.000000
  70
    32
  0
VERTEX
  8
01
  5
1052D
 10
719.963
 20
-1382.89
 30
0.000000
  70
    32
  0
VERTEX
  8
01
  5
1052E
 10
719.899
 20
-1382.97
 30
0.000000
  70
    32
  0
VERTEX
  8
01
  5
1052F
 10
719.837
 20
-1383.04
 30
0.000000
  70
    32
  0
VERTEX
  8
01
  5
10530
 10
719.778
 20
-1383.12
 30
0.000000
  70
    32
  0
VERTEX
  8
01
  5
10531
 10
719.722
 20
-1383.20
 30
0.000000
  70
    32
  0
VERTEX
  8
01
  5
10532
 10
719.668
 20
-1383.28
 30
0.000000
  70
    32
  0
VERTEX
  8
01
  5
10533
 10
719.617
 20
-1383.36
 30
0.000000
  70
    32
  0
VERTEX
  8
01
  5
10534
 10
719.568
 20
-1383.44
 30
0.000000
  70
    32
  0
VERTEX
  8
01
  5
10535
 10
719.523
 20
-1383.52
 30
0.000000
  70
    32
  0
VERTEX
  8
01
  5
10536
 10
719.480
 20
-1383.60
 30
0.000000
  70
    32
  0
VERTEX
  8
01
  5
10537
 10
719.440
 20
-1383.68
 30
0.000000
  70
    32
  0
VERTEX
  8
01
  5
10538
 10
719.403
 20
-1383.77
 30
0.000000
  70
    32
  0
VERTEX
  8
01
  5
10539
 10
719.369
 20
-1383.85
 30
0.000000
  70
    32
  0
VERTEX
  8
01
  5
1053A
 10
719.338
 20
-1383.94
 30
0.000000
  70
    32
  0
VERTEX
  8
01
  5
1053B
 10
719.309
 20
-1384.02
 30
0.000000
  70
    32
  0
VERTEX
  8
01
  5
1053C
 10
719.284
 20
-1384.11
 30
0.000000
  70
    32
  0
VERTEX
  8
01
  5
1053D
 10
719.261
 20
-1384.19
 30
0.000000
  70
    32
  0
VERTEX
  8
01
  5
1053E
 10
719.242
 20
-1384.28
 30
0.000000
  70
    32
  0
VERTEX
  8
01
  5
1053F
 10
719.225
 20
-1384.37
 30
0.000000
  70
    32
  0
VERTEX
  8
01
  5
10540
 10
719.212
 20
-1384.45
 30
0.000000
  70
    32
  0
VERTEX
  8
01
  5
10541
 10
719.201
 20
-1384.54
 30
0.000000
  70
    32
  0
VERTEX
  8
01
  5
10542
 10
719.194
 20
-1384.63
 30
0.000000
  70
    32
  0
VERTEX
  8
01
  5
10543
 10
719.189
 20
-1384.71
 30
0.000000
  70
    32
  0
VERTEX
  8
01
  5
10544
 10
719.188
 20
-1384.80
 30
0.000000
  70
    32
  0
SEQEND
  8
01
  5
10545
  0
LINE
  5
9992
  8
01
 10
724.18766916632478
 20
-1401.2340815977441
 30
0.0
 11
718.18766916632489
 21
-1401.2340815977441
 31
0.0
  0
LINE
  5
9993
  8
01
 10
729.18766916632478
 20
-1396.2340815977441
 30
0.0
 11
719.18766916632489
 21
-1396.2340815977441
 31
0.0
  0
POLYLINE
  5
9994
  8
01
 10
729.18766916632478
 20
-1397.6656615977431
 30
0.0
 66
     1
 70
     8
  0
VERTEX
  8
01
  5
10546
 10
729.188
 20
-1397.67
 30
0.000000
  70
    32
  0
VERTEX
  8
01
  5
10547
 10
729.186
 20
-1397.75
 30
0.000000
  70
    32
  0
VERTEX
  8
01
  5
10548
 10
729.182
 20
-1397.84
 30
0.000000
  70
    32
  0
VERTEX
  8
01
  5
10549
 10
729.174
 20
-1397.93
 30
0.000000
  70
    32
  0
VERTEX
  8
01
  5
1054A
 10
729.164
 20
-1398.02
 30
0.000000
  70
    32
  0
VERTEX
  8
01
  5
1054B
 10
729.150
 20
-1398.10
 30
0.000000
  70
    32
  0
VERTEX
  8
01
  5
1054C
 10
729.134
 20
-1398.19
 30
0.000000
  70
    32
  0
VERTEX
  8
01
  5
1054D
 10
729.114
 20
-1398.28
 30
0.000000
  70
    32
  0
VERTEX
  8
01
  5
1054E
 10
729.092
 20
-1398.36
 30
0.000000
  70
    32
  0
VERTEX
  8
01
  5
1054F
 10
729.066
 20
-1398.45
 30
0.000000
  70
    32
  0
VERTEX
  8
01
  5
10550
 10
729.038
 20
-1398.53
 30
0.000000
  70
    32
  0
VERTEX
  8
01
  5
10551
 10
729.007
 20
-1398.62
 30
0.000000
  70
    32
  0
VERTEX
  8
01
  5
10552
 10
728.972
 20
-1398.70
 30
0.000000
  70
    32
  0
VERTEX
  8
01
  5
10553
 10
728.935
 20
-1398.79
 30
0.000000
  70
    32
  0
VERTEX
  8
01
  5
10554
 10
728.895
 20
-1398.87
 30
0.000000
  70
    32
  0
VERTEX
  8
01
  5
10555
 10
728.853
 20
-1398.95
 30
0.000000
  70
    32
  0
VERTEX
  8
01
  5
10556
 10
728.807
 20
-1399.03
 30
0.000000
  70
    32
  0
VERTEX
  8
01
  5
10557
 10
728.759
 20
-1399.11
 30
0.000000
  70
    32
  0
VERTEX
  8
01
  5
10558
 10
728.708
 20
-1399.19
 30
0.000000
  70
    32
  0
VERTEX
  8
01
  5
10559
 10
728.654
 20
-1399.27
 30
0.000000
  70
    32
  0
VERTEX
  8
01
  5
1055A
 10
728.597
 20
-1399.35
 30
0.000000
  70
    32
  0
VERTEX
  8
01
  5
1055B
 10
728.538
 20
-1399.42
 30
0.000000
  70
    32
  0
VERTEX
  8
01
  5
1055C
 10
728.476
 20
-1399.50
 30
0.000000
  70
    32
  0
VERTEX
  8
01
  5
1055D
 10
728.412
 20
-1399.57
 30
0.000000
  70
    32
  0
VERTEX
  8
01
  5
1055E
 10
728.345
 20
-1399.65
 30
0.000000
  70
    32
  0
VERTEX
  8
01
  5
1055F
 10
728.276
 20
-1399.72
 30
0.000000
  70
    32
  0
VERTEX
  8
01
  5
10560
 10
728.204
 20
-1399.79
 30
0.000000
  70
    32
  0
VERTEX
  8
01
  5
10561
 10
728.129
 20
-1399.86
 30
0.000000
  70
    32
  0
VERTEX
  8
01
  5
10562
 10
728.053
 20
-1399.93
 30
0.000000
  70
    32
  0
VERTEX
  8
01
  5
10563
 10
727.974
 20
-1400.00
 30
0.000000
  70
    32
  0
VERTEX
  8
01
  5
10564
 10
727.892
 20
-1400.06
 30
0.000000
  70
    32
  0
VERTEX
  8
01
  5
10565
 10
727.809
 20
-1400.13
 30
0.000000
  70
    32
  0
VERTEX
  8
01
  5
10566
 10
727.723
 20
-1400.19
 30
0.000000
  70
    32
  0
VERTEX
  8
01
  5
10567
 10
727.635
 20
-1400.25
 30
0.000000
  70
    32
  0
VERTEX
  8
01
  5
10568
 10
727.545
 20
-1400.31
 30
0.000000
  70
    32
  0
VERTEX
  8
01
  5
10569
 10
727.454
 20
-1400.37
 30
0.000000
  70
    32
  0
VERTEX
  8
01
  5
1056A
 10
727.360
 20
-1400.42
 30
0.000000
  70
    32
  0
VERTEX
  8
01
  5
1056B
 10
727.264
 20
-1400.48
 30
0.000000
  70
    32
  0
VERTEX
  8
01
  5
1056C
 10
727.166
 20
-1400.53
 30
0.000000
  70
    32
  0
VERTEX
  8
01
  5
1056D
 10
727.067
 20
-1400.58
 30
0.000000
  70
    32
  0
VERTEX
  8
01
  5
1056E
 10
726.966
 20
-1400.63
 30
0.000000
  70
    32
  0
VERTEX
  8
01
  5
1056F
 10
726.863
 20
-1400.68
 30
0.000000
  70
    32
  0
VERTEX
  8
01
  5
10570
 10
726.758
 20
-1400.73
 30
0.000000
  70
    32
  0
VERTEX
  8
01
  5
10571
 10
726.652
 20
-1400.77
 30
0.000000
  70
    32
  0
VERTEX
  8
01
  5
10572
 10
726.545
 20
-1400.81
 30
0.000000
  70
    32
  0
VERTEX
  8
01
  5
10573
 10
726.436
 20
-1400.85
 30
0.000000
  70
    32
  0
VERTEX
  8
01
  5
10574
 10
726.325
 20
-1400.89
 30
0.000000
  70
    32
  0
VERTEX
  8
01
  5
10575
 10
726.214
 20
-1400.93
 30
0.000000
  70
    32
  0
VERTEX
  8
01
  5
10576
 10
726.101
 20
-1400.96
 30
0.000000
  70
    32
  0
VERTEX
  8
01
  5
10577
 10
725.987
 20
-1400.99
 30
0.000000
  70
    32
  0
VERTEX
  8
01
  5
10578
 10
725.872
 20
-1401.03
 30
0.000000
  70
    32
  0
VERTEX
  8
01
  5
10579
 10
725.756
 20
-1401.05
 30
0.000000
  70
    32
  0
VERTEX
  8
01
  5
1057A
 10
725.639
 20
-1401.08
 30
0.000000
  70
    32
  0
VERTEX
  8
01
  5
1057B
 10
725.521
 20
-1401.10
 30
0.000000
  70
    32
  0
VERTEX
  8
01
  5
1057C
 10
725.403
 20
-1401.13
 30
0.000000
  70
    32
  0
VERTEX
  8
01
  5
1057D
 10
725.283
 20
-1401.15
 30
0.000000
  70
    32
  0
VERTEX
  8
01
  5
1057E
 10
725.163
 20
-1401.17
 30
0.000000
  70
    32
  0
VERTEX
  8
01
  5
1057F
 10
725.042
 20
-1401.18
 30
0.000000
  70
    32
  0
VERTEX
  8
01
  5
10580
 10
724.921
 20
-1401.20
 30
0.000000
  70
    32
  0
VERTEX
  8
01
  5
10581
 10
724.800
 20
-1401.21
 30
0.000000
  70
    32
  0
VERTEX
  8
01
  5
10582
 10
724.678
 20
-1401.22
 30
0.000000
  70
    32
  0
VERTEX
  8
01
  5
10583
 10
724.555
 20
-1401.22
 30
0.000000
  70
    32
  0
VERTEX
  8
01
  5
10584
 10
724.433
 20
-1401.23
 30
0.000000
  70
    32
  0
VERTEX
  8
01
  5
10585
 10
724.310
 20
-1401.23
 30
0.000000
  70
    32
  0
VERTEX
  8
01
  5
10586
 10
724.188
 20
-1401.23
 30
0.000000
  70
    32
  0
VERTEX
  8
01
  5
10587
 10
724.065
 20
-1401.23
 30
0.000000
  70
    32
  0
VERTEX
  8
01
  5
10588
 10
723.942
 20
-1401.23
 30
0.000000
  70
    32
  0
VERTEX
  8
01
  5
10589
 10
723.820
 20
-1401.22
 30
0.000000
  70
    32
  0
VERTEX
  8
01
  5
1058A
 10
723.698
 20
-1401.22
 30
0.000000
  70
    32
  0
VERTEX
  8
01
  5
1058B
 10
723.576
 20
-1401.21
 30
0.000000
  70
    32
  0
VERTEX
  8
01
  5
1058C
 10
723.454
 20
-1401.20
 30
0.000000
  70
    32
  0
VERTEX
  8
01
  5
1058D
 10
723.333
 20
-1401.18
 30
0.000000
  70
    32
  0
VERTEX
  8
01
  5
1058E
 10
723.212
 20
-1401.17
 30
0.000000
  70
    32
  0
VERTEX
  8
01
  5
1058F
 10
723.092
 20
-1401.15
 30
0.000000
  70
    32
  0
VERTEX
  8
01
  5
10590
 10
722.973
 20
-1401.13
 30
0.000000
  70
    32
  0
VERTEX
  8
01
  5
10591
 10
722.854
 20
-1401.10
 30
0.000000
  70
    32
  0
VERTEX
  8
01
  5
10592
 10
722.736
 20
-1401.08
 30
0.000000
  70
    32
  0
VERTEX
  8
01
  5
10593
 10
722.619
 20
-1401.05
 30
0.000000
  70
    32
  0
VERTEX
  8
01
  5
10594
 10
722.503
 20
-1401.03
 30
0.000000
  70
    32
  0
VERTEX
  8
01
  5
10595
 10
722.388
 20
-1400.99
 30
0.000000
  70
    32
  0
VERTEX
  8
01
  5
10596
 10
722.274
 20
-1400.96
 30
0.000000
  70
    32
  0
VERTEX
  8
01
  5
10597
 10
722.161
 20
-1400.93
 30
0.000000
  70
    32
  0
VERTEX
  8
01
  5
10598
 10
722.050
 20
-1400.89
 30
0.000000
  70
    32
  0
VERTEX
  8
01
  5
10599
 10
721.940
 20
-1400.85
 30
0.000000
  70
    32
  0
VERTEX
  8
01
  5
1059A
 10
721.831
 20
-1400.81
 30
0.000000
  70
    32
  0
VERTEX
  8
01
  5
1059B
 10
721.723
 20
-1400.77
 30
0.000000
  70
    32
  0
VERTEX
  8
01
  5
1059C
 10
721.617
 20
-1400.73
 30
0.000000
  70
    32
  0
VERTEX
  8
01
  5
1059D
 10
721.513
 20
-1400.68
 30
0.000000
  70
    32
  0
VERTEX
  8
01
  5
1059E
 10
721.410
 20
-1400.63
 30
0.000000
  70
    32
  0
VERTEX
  8
01
  5
1059F
 10
721.309
 20
-1400.58
 30
0.000000
  70
    32
  0
VERTEX
  8
01
  5
105A0
 10
721.209
 20
-1400.53
 30
0.000000
  70
    32
  0
VERTEX
  8
01
  5
105A1
 10
721.112
 20
-1400.48
 30
0.000000
  70
    32
  0
VERTEX
  8
01
  5
105A2
 10
721.016
 20
-1400.42
 30
0.000000
  70
    32
  0
VERTEX
  8
01
  5
105A3
 10
720.922
 20
-1400.37
 30
0.000000
  70
    32
  0
VERTEX
  8
01
  5
105A4
 10
720.830
 20
-1400.31
 30
0.000000
  70
    32
  0
VERTEX
  8
01
  5
105A5
 10
720.740
 20
-1400.25
 30
0.000000
  70
    32
  0
VERTEX
  8
01
  5
105A6
 10
720.652
 20
-1400.19
 30
0.000000
  70
    32
  0
VERTEX
  8
01
  5
105A7
 10
720.566
 20
-1400.13
 30
0.000000
  70
    32
  0
VERTEX
  8
01
  5
105A8
 10
720.483
 20
-1400.06
 30
0.000000
  70
    32
  0
VERTEX
  8
01
  5
105A9
 10
720.402
 20
-1400.00
 30
0.000000
  70
    32
  0
VERTEX
  8
01
  5
105AA
 10
720.323
 20
-1399.93
 30
0.000000
  70
    32
  0
VERTEX
  8
01
  5
105AB
 10
720.246
 20
-1399.86
 30
0.000000
  70
    32
  0
VERTEX
  8
01
  5
105AC
 10
720.172
 20
-1399.79
 30
0.000000
  70
    32
  0
VERTEX
  8
01
  5
105AD
 10
720.100
 20
-1399.72
 30
0.000000
  70
    32
  0
VERTEX
  8
01
  5
105AE
 10
720.030
 20
-1399.65
 30
0.000000
  70
    32
  0
VERTEX
  8
01
  5
105AF
 10
719.963
 20
-1399.57
 30
0.000000
  70
    32
  0
VERTEX
  8
01
  5
105B0
 10
719.899
 20
-1399.50
 30
0.000000
  70
    32
  0
VERTEX
  8
01
  5
105B1
 10
719.837
 20
-1399.42
 30
0.000000
  70
    32
  0
VERTEX
  8
01
  5
105B2
 10
719.778
 20
-1399.35
 30
0.000000
  70
    32
  0
VERTEX
  8
01
  5
105B3
 10
719.722
 20
-1399.27
 30
0.000000
  70
    32
  0
VERTEX
  8
01
  5
105B4
 10
719.668
 20
-1399.19
 30
0.000000
  70
    32
  0
VERTEX
  8
01
  5
105B5
 10
719.617
 20
-1399.11
 30
0.000000
  70
    32
  0
VERTEX
  8
01
  5
105B6
 10
719.568
 20
-1399.03
 30
0.000000
  70
    32
  0
VERTEX
  8
01
  5
105B7
 10
719.523
 20
-1398.95
 30
0.000000
  70
    32
  0
VERTEX
  8
01
  5
105B8
 10
719.480
 20
-1398.87
 30
0.000000
  70
    32
  0
VERTEX
  8
01
  5
105B9
 10
719.440
 20
-1398.79
 30
0.000000
  70
    32
  0
VERTEX
  8
01
  5
105BA
 10
719.403
 20
-1398.70
 30
0.000000
  70
    32
  0
VERTEX
  8
01
  5
105BB
 10
719.369
 20
-1398.62
 30
0.000000
  70
    32
  0
VERTEX
  8
01
  5
105BC
 10
719.338
 20
-1398.53
 30
0.000000
  70
    32
  0
VERTEX
  8
01
  5
105BD
 10
719.309
 20
-1398.45
 30
0.000000
  70
    32
  0
VERTEX
  8
01
  5
105BE
 10
719.284
 20
-1398.36
 30
0.000000
  70
    32
  0
VERTEX
  8
01
  5
105BF
 10
719.261
 20
-1398.28
 30
0.000000
  70
    32
  0
VERTEX
  8
01
  5
105C0
 10
719.242
 20
-1398.19
 30
0.000000
  70
    32
  0
VERTEX
  8
01
  5
105C1
 10
719.225
 20
-1398.10
 30
0.000000
  70
    32
  0
VERTEX
  8
01
  5
105C2
 10
719.212
 20
-1398.02
 30
0.000000
  70
    32
  0
VERTEX
  8
01
  5
105C3
 10
719.201
 20
-1397.93
 30
0.000000
  70
    32
  0
VERTEX
  8
01
  5
105C4
 10
719.194
 20
-1397.84
 30
0.000000
  70
    32
  0
VERTEX
  8
01
  5
105C5
 10
719.189
 20
-1397.75
 30
0.000000
  70
    32
  0
VERTEX
  8
01
  5
105C6
 10
719.188
 20
-1397.67
 30
0.000000
  70
    32
  0
SEQEND
  8
01
  5
105C7
  0
LINE
  5
9995
  8
01
 10
729.18766916632478
 20
-1384.8025015977439
 30
0.0
 11
729.18766916632478
 21
-1397.665661597744
 31
0.0
  0
LINE
  5
9996
  8
01
 10
719.18766916632489
 20
-1384.8025015977439
 30
0.0
 11
719.18766916632489
 21
-1397.665661597742
 31
0.0
  0
LINE
  5
9997
  8
01
 10
715.18765416632516
 20
-1351.2340815977441
 30
0.0
 11
714.18765416632516
 21
-1350.2340815977441
 31
0.0
  0
LINE
  5
9998
  8
01
 10
716.58767116632509
 20
-1351.1341015977439
 30
0.0
 11
715.78769016632498
 21
-1350.334121597743
 31
0.0
  0
LINE
  5
9999
  8
01
 10
716.58767116632509
 20
-1433.3340915977431
 30
0.0
 11
715.78766816632492
 21
-1434.134071597744
 31
0.0
  0
LINE
  5
999A
  8
01
 10
715.18761616632514
 20
-1433.2341115977431
 30
0.0
 11
714.18763116632465
 21
-1434.2341115977431
 31
0.0
  0
LINE
  5
999B
  8
01
 10
718.18766916632489
 20
-1457.2340815977441
 30
0.0
 11
714.18766916632489
 21
-1457.2340815977441
 31
0.0
  0
LINE
  5
999C
  8
01
 10
715.78767516632547
 20
-1457.2340815977441
 30
0.0
 11
715.78767516632547
 21
-1434.134071597744
 31
0.0
  0
LINE
  5
999D
  8
01
 10
714.18766916632489
 20
-1457.2340815977441
 30
0.0
 11
714.18766916632489
 21
-1434.2340815977441
 31
0.0
  0
LINE
  5
999E
  8
01
 10
715.18766916632489
 20
-1351.2340815977441
 30
0.0
 11
715.18766916632489
 21
-1433.2340815977441
 31
0.0
  0
LINE
  5
999F
  8
01
 10
718.18766916632489
 20
-1327.2340815977441
 30
0.0
 11
714.18766916632489
 21
-1327.2340815977441
 31
0.0
  0
LINE
  5
99A0
  8
01
 10
823.18766916632489
 20
-1333.2340815977441
 30
0.0
 11
823.18766916632489
 21
-1451.2340815977441
 31
0.0
  0
LINE
  5
99A1
  8
01
 10
848.18766916632489
 20
-1333.2340815977441
 30
0.0
 11
848.18766916632489
 21
-1451.2340815977441
 31
0.0
  0
ARC
  5
99A2
  8
01
 10
842.18766916632478
 20
-1451.2340815977441
 30
0.0
 40
6.0
 50
270.0
 51
0.0
  0
ARC
  5
99A3
  8
01
 10
829.18766916632489
 20
-1451.2340815977441
 30
0.0
 40
6.0
 50
180.0
 51
270.0
  0
LINE
  5
99A4
  8
01
 10
843.43766916632489
 20
-1384.8025015977439
 30
0.0
 11
843.43766916632489
 21
-1397.6656615977431
 31
0.0
  0
LINE
  5
99A5
  8
01
 10
842.43766916632489
 20
-1386.2340815977441
 30
0.0
 11
842.43766916632489
 21
-1396.2340815977441
 31
0.0
  0
LINE
  5
99A6
  8
01
 10
828.93766916632478
 20
-1386.2340815977441
 30
0.0
 11
828.93766916632478
 21
-1396.2340815977441
 31
0.0
  0
LINE
  5
99A7
  8
01
 10
827.93766916632478
 20
-1384.8025015977439
 30
0.0
 11
827.93766916632478
 21
-1397.6656615977431
 31
0.0
  0
ARC
  5
99A8
  8
01
 10
835.68766916632489
 20
-1391.0340715977441
 30
0.0
 40
10.199999999999999
 50
220.5530799999753
 51
319.44692000002459
  0
LINE
  5
99A9
  8
01
 10
828.93766916632478
 20
-1396.2340815977441
 30
0.0
 11
842.43766916632489
 21
-1396.2340815977441
 31
0.0
  0
LINE
  5
99AA
  8
01
 10
828.93766916632478
 20
-1386.2340815977441
 30
0.0
 11
842.43766916632489
 21
-1386.2340815977441
 31
0.0
  0
ARC
  5
99AB
  8
01
 10
835.68766916632489
 20
-1391.4340915977441
 30
0.0
 40
10.199999999999999
 50
40.553083999977588
 51
139.44692000002459
  0
CIRCLE
  5
99AC
  8
01
 10
835.68766916632489
 20
-1449.2340815977441
 30
0.0
 40
4.5
  0
CIRCLE
  5
99AD
  8
01
 10
835.68766916632489
 20
-1449.2340815977441
 30
0.0
 40
2.75
  0
LINE
  5
99AE
  8
01
 10
829.18766916632489
 20
-1457.2340815977441
 30
0.0
 11
842.18766916632478
 21
-1457.2340815977441
 31
0.0
  0
ARC
  5
99AF
  8
01
 10
842.18766916632478
 20
-1333.2340815977441
 30
0.0
 40
6.0
 50
0.0
 51
90.0
  0
ARC
  5
99B1
  8
01
 10
829.18766916632489
 20
-1333.2340815977441
 30
0.0
 40
6.0
 50
90.0
 51
180.0
  0
LINE
  5
99B2
  8
01
 10
829.18766916632489
 20
-1327.2340815977441
 30
0.0
 11
842.18766916632478
 21
-1327.2340815977441
 31
0.0
  0
CIRCLE
  5
99B3
  8
01
 10
835.68766916632489
 20
-1335.2340815977441
 30
0.0
 40
4.5
  0
CIRCLE
  5
99B4
  8
01
 10
835.68766916632489
 20
-1335.2340815977441
 30
0.0
 40
2.75
  0
TEXT
  5
99B5
  8
1TEXT
 10
649.18768516632497
 20
-1128.2340815977441
 30
0.0
 40
20.0
  1
2-P8C-X-LP
  0
LINE
  5
99BA
  8
01
 10
955.58767516632463
 20
-1327.2340815977441
 30
0.0
 11
955.58767516632463
 21
-1350.3340515977429
 31
0.0
  0
LINE
  5
99BB
  8
01
 10
957.18766516632536
 20
-1327.2340815977441
 30
0.0
 11
957.18766516632536
 21
-1350.2340815977441
 31
0.0
  0
LINE
  5
99BC
  8
01
 10
954.78767516632536
 20
-1327.2340815977441
 30
0.0
 11
954.78767516632536
 21
-1457.2340815977441
 31
0.0
  0
LINE
  5
99BD
  8
01
 10
953.18766516632525
 20
-1327.2340815977441
 30
0.0
 11
953.18766516632525
 21
-1457.2340815977441
 31
0.0
  0
LINE
  5
99BE
  8
01
 10
956.18766516632525
 20
-1355.2340815977441
 30
0.0
 11
984.54612855637549
 21
-1355.2340815977441
 31
0.0
  0
LINE
  5
99BF
  8
01
 10
956.18766516632525
 20
-1429.2340815977441
 30
0.0
 11
983.06303499204716
 21
-1429.2340815977441
 31
0.0
  0
LINE
  5
99C0
  8
01
 10
956.18767516632499
 20
-1351.2340815977441
 30
0.0
 11
957.18767516632522
 21
-1350.2340815977441
 31
0.0
  0
LINE
  5
99C1
  8
01
 10
954.78766516632572
 20
-1351.1341015977439
 30
0.0
 11
955.58767516632463
 21
-1350.3340515977429
 31
0.0
  0
LINE
  5
99C2
  8
01
 10
946.18766516632525
 20
-1381.2340815977441
 30
0.0
 11
953.18766516632525
 21
-1381.2340815977441
 31
0.0
  0
LINE
  5
99C3
  8
01
 10
946.18766516632525
 20
-1401.2340815977441
 30
0.0
 11
953.18766516632525
 21
-1401.2340815977441
 31
0.0
  0
LINE
  5
99C4
  8
01
 10
942.26976516632499
 20
-1398.0403515977439
 30
0.0
 11
953.18766516632525
 21
-1398.0403515977439
 31
0.0
  0
LINE
  5
99C5
  8
01
 10
942.26976516632499
 20
-1384.4278015977429
 30
0.0
 11
953.18766516632525
 21
-1384.4278015977429
 31
0.0
  0
LINE
  5
99C6
  8
01
 10
942.18766516632536
 20
-1385.2340815977441
 30
0.0
 11
942.18766516632536
 21
-1397.2340815977441
 31
0.0
  0
ARC
  5
99C7
  8
01
 10
946.18766516632525
 20
-1397.2340815977441
 30
0.0
 40
4.0
 50
179.999989999999
 51
270.0
  0
ARC
  5
99C8
  8
01
 10
946.18766516632525
 20
-1385.2340815977441
 30
0.0
 40
4.0
 50
90.000002999984659
 51
180.00001000000091
  0
LINE
  5
99C9
  8
01
 10
954.78766516632572
 20
-1433.3340915977431
 30
0.0
 11
955.58767516632463
 21
-1434.134071597744
 31
0.0
  0
LINE
  5
99CA
  8
01
 10
956.1877151663258
 20
-1433.2341115977431
 30
0.0
 11
957.18769516632449
 21
-1434.2340815977441
 31
0.0
  0
LINE
  5
99CB
  8
1CENTER
 10
948.18766516632536
 20
-1449.2340815977441
 30
0.0
 11
962.18766516632525
 21
-1449.2340815977441
 31
0.0
  0
LINE
  5
99CC
  8
01
 10
953.18766516632525
 20
-1457.2340815977441
 30
0.0
 11
957.18766516632536
 21
-1457.2340815977441
 31
0.0
  0
LINE
  5
99CD
  8
01
 10
955.58767516632463
 20
-1457.2340815977441
 30
0.0
 11
955.58767516632463
 21
-1434.134071597744
 31
0.0
  0
LINE
  5
99CE
  8
01
 10
957.18766516632536
 20
-1457.2340815977441
 30
0.0
 11
957.18766516632536
 21
-1434.2340815977441
 31
0.0
  0
LINE
  5
99CF
  8
01
 10
956.18766516632525
 20
-1351.2340815977441
 30
0.0
 11
956.18766516632525
 21
-1433.2340815977441
 31
0.0
  0
LINE
  5
99D0
  8
01
 10
1022.187665166325
 20
-1365.9827154482671
 30
0.0
 11
1022.187665166325
 21
-1385.2340813977451
 31
0.0
  0
LINE
  5
99D2
  8
01
 10
953.18766516632525
 20
-1327.2340815977441
 30
0.0
 11
957.18766516632536
 21
-1327.2340815977441
 31
0.0
  0
LINE
  5
99D3
  8
1CENTER
 10
948.18766516632536
 20
-1335.2340815977441
 30
0.0
 11
962.18766516632525
 21
-1335.2340815977441
 31
0.0
  0
LINE
  5
99DB
  8
01
 10
957.18854934838521
 20
-1130.2340815987729
 30
0.0
 11
1023.188549348385
 21
-1130.2340815987729
 31
0.0
  0
LINE
  5
99DC
  8
01
 10
957.18854934838521
 20
-1131.834051598772
 30
0.0
 11
1023.188549348385
 21
-1131.834051598772
 31
0.0
  0
LINE
  5
99DD
  8
01
 10
954.78855934838543
 20
-1149.234081598772
 30
0.0
 11
1023.188549348385
 21
-1149.234081598772
 31
0.0
  0
LINE
  5
99DE
  8
01
 10
956.3885393483863
 20
-1134.734081598772
 30
0.0
 11
957.18854934838521
 21
-1133.9340615987719
 31
0.0
  0
LINE
  5
99DF
  8
01
 10
957.18854934838521
 20
-1129.234081598772
 30
0.0
 11
957.18854934838521
 21
-1133.9340615987719
 31
0.0
  0
LINE
  5
99E0
  8
01
 10
954.78855934838543
 20
-1134.7340515987721
 30
0.0
 11
955.58854934838678
 21
-1133.9340915987721
 31
0.0
  0
LINE
  5
99E1
  8
01
 10
942.18854934838544
 20
-1147.4840815987729
 30
0.0
 11
953.18854934838532
 21
-1147.4840815987729
 31
0.0
  0
LINE
  5
99E2
  8
01
 10
942.18854934838544
 20
-1147.4840815987729
 30
0.0
 11
942.18854934838544
 21
-1145.4840815987729
 31
0.0
  0
LINE
  5
99E3
  8
01
 10
953.18854934838532
 20
-1127.234081598772
 30
0.0
 11
954.78855934838543
 21
-1127.234081598772
 31
0.0
  0
LINE
  5
99E4
  8
01
 10
954.78855934838543
 20
-1127.234081598772
 30
0.0
 11
954.78855934838543
 21
-1134.734081598772
 31
0.0
  0
LINE
  5
99E5
  8
01
 10
955.58855934838641
 20
-1129.234081598772
 30
0.0
 11
955.58855934838641
 21
-1133.9340615987719
 31
0.0
  0
LINE
  5
99E6
  8
01
 10
954.78855934838543
 20
-1129.234081598772
 30
0.0
 11
957.18854934838521
 21
-1129.234081598772
 31
0.0
  0
LINE
  5
99E7
  8
01
 10
957.18854934838521
 20
-1145.534071598772
 30
0.0
 11
957.18854934838521
 21
-1149.234081598772
 31
0.0
  0
LINE
  5
99E8
  8
01
 10
956.3885593483858
 20
-1144.7340515987721
 30
0.0
 11
957.18854934838521
 21
-1145.534071598772
 31
0.0
  0
LINE
  5
99E9
  8
01
 10
957.18854934838521
 20
-1147.6340715987719
 30
0.0
 11
961.78855934838555
 21
-1147.6340715987719
 31
0.0
  0
LINE
  5
99EA
  8
01
 10
954.78854934838569
 20
-1144.7340515987721
 30
0.0
 11
955.58855934838641
 21
-1145.534071598772
 31
0.0
  0
LINE
  5
99EB
  8
01
 10
954.78855934838543
 20
-1144.734081598772
 30
0.0
 11
954.78855934838543
 21
-1152.2340815987729
 31
0.0
  0
LINE
  5
99EC
  8
01
 10
953.18854934838532
 20
-1152.2340815987729
 30
0.0
 11
954.78855934838543
 21
-1152.2340815987729
 31
0.0
  0
LINE
  5
99ED
  8
01
 10
955.58855934838641
 20
-1145.534071598772
 30
0.0
 11
955.58855934838641
 21
-1149.234081598772
 31
0.0
  0
LINE
  5
99EE
  8
01
 10
953.18854934838532
 20
-1119.7340815987729
 30
0.0
 11
953.18854934838532
 21
-1159.7340815987729
 31
0.0
  0
LINE
  5
99EF
  8
01
 10
961.78855934838555
 20
-1131.834051598772
 30
0.0
 11
961.78855934838555
 21
-1149.234081598772
 31
0.0
  0
LINE
  5
99F0
  8
01
 10
956.38854934838605
 20
-1134.734081598772
 30
0.0
 11
956.38854934838605
 21
-1144.734081598772
 31
0.0
  0
LINE
  5
99F1
  8
01
 10
954.78855934838543
 20
-1134.734081598772
 30
0.0
 11
954.78855934838543
 21
-1144.734081598772
 31
0.0
  0
ARC
  5
99F2
  8
01
 10
985.85804934838541
 20
-1169.8351615987719
 30
0.0
 40
50.0
 50
130.7976899999974
 51
150.85500000002
  0
LINE
  5
99F4
  8
01
 10
1021.588549348387
 20
-1131.834051598772
 30
0.0
 11
1021.588549348387
 21
-1149.234081598772
 31
0.0
  0
LINE
  5
99F5
  8
01
 10
1023.188549348385
 20
-1130.2340815987729
 30
0.0
 11
1023.188549348385
 21
-1149.234081598772
 31
0.0
  0
LINE
  5
99F9
  8
1CENTER
 10
723.18767316632443
 20
-1449.2340815977441
 30
0.0
 11
709.18767316632454
 21
-1449.2340815977441
 31
0.0
  0
LINE
  5
99FA
  8
1CENTER
 10
723.18767316632443
 20
-1335.2340815977441
 30
0.0
 11
709.18767316632454
 21
-1335.2340815977441
 31
0.0
  0
LINE
  5
99FB
  8
1CENTER
 10
842.18766916632478
 20
-1335.2340815977441
 30
0.0
 11
829.18766916632489
 21
-1335.2340815977441
 31
0.0
  0
LINE
  5
99FC
  8
1CENTER
 10
835.68766916632489
 20
-1328.7340815977441
 30
0.0
 11
835.68766916632489
 21
-1341.7340815977441
 31
0.0
  0
LINE
  5
99FD
  8
1CENTER
 10
842.18766916632478
 20
-1449.2340815977441
 30
0.0
 11
829.18766916632489
 21
-1449.2340815977441
 31
0.0
  0
LINE
  5
99FE
  8
1CENTER
 10
835.68766916632489
 20
-1442.7340815977441
 30
0.0
 11
835.68766916632489
 21
-1455.7340815977441
 31
0.0
  0
LINE
  5
99FF
  8
1CENTER
 10
697.18767316632454
 20
-1413.2340815977441
 30
0.0
 11
637.18767316632454
 21
-1413.2340815977441
 31
0.0
  0
LINE
  5
9A00
  8
1CENTER
 10
667.18767316632454
 20
-1383.2340815977441
 30
0.0
 11
667.18767316632454
 21
-1443.2340815977441
 31
0.0
  0
LINE
  5
9A01
  8
1CENTER
 10
974.18766516632502
 20
-1413.2340815977441
 30
0.0
 11
1034.1876651663249
 21
-1413.2340815977441
 31
0.0
  0
LINE
  5
9A02
  8
1CENTER
 10
1004.187665166325
 20
-1383.2340815977441
 30
0.0
 11
1004.187665166325
 21
-1443.2340815977441
 31
0.0
  0
CIRCLE
  5
9A03
  8
01
 10
667.18766516632377
 20
-1357.7340815977441
 30
0.0
 40
19.799999
  0
LINE
  5
9A04
  8
01
 10
666.68766516632365
 20
-1352.2340815977441
 30
0.0
 11
667.68766516632377
 21
-1352.2340815977441
 31
0.0
  0
ARC
  5
9A05
  8
01
 10
666.68766516632365
 20
-1354.2340815977441
 30
0.0
 40
2.0
 50
90.000002999984659
 51
180.00001000000091
  0
ARC
  5
9A06
  8
01
 10
667.68766516632377
 20
-1354.2340815977441
 30
0.0
 40
2.0
 50
0.0
 51
90.000002999984659
  0
LINE
  5
9A07
  8
01
 10
666.68766516632365
 20
-1374.2340815977441
 30
0.0
 11
667.68766516632377
 21
-1374.2340815977441
 31
0.0
  0
ARC
  5
9A08
  8
01
 10
666.68766516632365
 20
-1372.2340815977441
 30
0.0
 40
2.0
 50
179.999989999999
 51
270.0
  0
ARC
  5
9A09
  8
01
 10
667.68766516632377
 20
-1372.2340815977441
 30
0.0
 40
2.0
 50
270.0
 51
0.0
  0
LINE
  5
9A0A
  8
01
 10
669.68766516632365
 20
-1354.2340815977441
 30
0.0
 11
669.68766516632365
 21
-1372.2340815977441
 31
0.0
  0
LINE
  5
9A0B
  8
01
 10
664.68766516632365
 20
-1354.2340815977441
 30
0.0
 11
664.68766516632365
 21
-1372.2340815977441
 31
0.0
  0
CIRCLE
  5
9A0C
  8
01
 10
667.18766516632377
 20
-1363.2340815977441
 30
0.0
 40
11.0
  0
CIRCLE
  5
9A26
  8
01
 10
1004.187665166325
 20
-1357.7340815977441
 30
0.0
 40
19.799999
  0
LINE
  5
9A27
  8
01
 10
1005.187665166325
 20
-1366.588201597744
 30
0.0
 11
1005.187665166325
 21
-1359.8799515977439
 31
0.0
  0
LINE
  5
9A28
  8
01
 10
1003.187665166325
 20
-1366.588201597744
 30
0.0
 11
1003.187665166325
 21
-1359.8799515977439
 31
0.0
  0
CIRCLE
  5
9A29
  8
01
 10
1004.187665166325
 20
-1363.2340815977441
 30
0.0
 40
3.5000004999999992
  0
LINE
  5
9A2C
  8
1CENTER
 10
654.18766516632365
 20
-1363.2340815977441
 30
0.0
 11
680.18766516632377
 21
-1363.2340815977441
 31
0.0
  0
LINE
  5
9A2D
  8
1CENTER
 10
689.68766516632365
 20
-1357.7340815977441
 30
0.0
 11
644.68766516632365
 21
-1357.7340815977441
 31
0.0
  0
LINE
  5
9A2E
  8
1CENTER
 10
667.18766516632377
 20
-1335.2340815977441
 30
0.0
 11
667.18766516632377
 21
-1380.2340815977441
 31
0.0
  0
LINE
  5
9A2F
  8
1CENTER
 10
1017.187673166326
 20
-1363.2340815977441
 30
0.0
 11
991.18767316632602
 21
-1363.2340815977441
 31
0.0
  0
LINE
  5
9A30
  8
1CENTER
 10
981.68767316632602
 20
-1357.7340815977441
 30
0.0
 11
1026.687673166326
 21
-1357.7340815977441
 31
0.0
  0
LINE
  5
9A31
  8
1CENTER
 10
1004.187673166326
 20
-1335.2340815977441
 30
0.0
 11
1004.187673166326
 21
-1380.2340815977441
 31
0.0
  0
LINE
  5
9A68
  8
1CENTER
 10
785.68766916632512
 20
-1413.2340815977441
 30
0.0
 11
820.68766916632501
 21
-1413.2340815977441
 31
0.0
  0
LINE
  5
9A69
  8
1CENTER
 10
850.68766916632512
 20
-1413.2340815977441
 30
0.0
 11
885.68766916632501
 21
-1413.2340815977441
 31
0.0
  0
LINE
  5
D937
  8
01
 10
953.18854934838532
 20
-1159.7340815987729
 30
0.0
 11
1059.18778150607
 21
-1159.7340815987729
 31
0.0
  0
LINE
  5
D938
  8
01
 10
953.18854934838532
 20
-1119.7340815987729
 30
0.0
 11
1059.18778150607
 21
-1119.7340815987729
 31
0.0
  0
LINE
  5
D94B
  8
1CENTER
 10
1004.18778150607
 20
-1149.234081598772
 30
0.0
 11
1004.18778150607
 21
-1180.2340815987729
 31
0.0
  0
LINE
  5
D94C
  8
1CENTER
 10
1004.18778150607
 20
-1130.234081598772
 30
0.0
 11
1004.18778150607
 21
-1099.2340815987729
 31
0.0
  0
LINE
  5
E785
  8
1HIDDEN
 10
984.54612855637549
 20
-1355.2340815977441
 30
0.0
 11
1022.187665166326
 21
-1355.2340815977441
 31
0.0
  0
LINE
  5
E786
  8
1HIDDEN
 10
1022.187665166325
 20
-1365.9827154482659
 30
0.0
 11
1022.187665166326
 21
-1355.2340815977441
 31
0.0
  0
ARC
  5
F248
  8
01
 10
1004.187665166325
 20
-1413.2340815977441
 30
0.0
 40
26.5
 50
139.0005738458288
 51
220.9994261541712
  0
ARC
  5
F249
  8
1HIDDEN
 10
1004.187665166325
 20
-1413.2340815977441
 30
0.0
 40
26.5
 50
220.9994261541712
 51
139.0005738458288
  0
LINE
  5
F25D
  8
01
 10
1000.687680166325
 20
-1388.2340813977451
 30
0.0
 11
1088.187683866325
 21
-1388.2340813977451
 31
0.0
  0
LINE
  5
F25E
  8
01
 10
985.6876871663253
 20
-1385.2340813977451
 30
0.0
 11
1091.187683866325
 21
-1385.2340813977451
 31
0.0
  0
ARC
  5
F25F
  8
01
 10
1091.187683866325
 20
-1386.7340813977451
 30
0.0
 40
1.5
 50
0.0
 51
90.0
  0
LINE
  5
F260
  8
01
 10
1089.687683866325
 20
-1389.7340813977451
 30
0.0
 11
1089.687683866325
 21
-1436.7340813977451
 31
0.0
  0
LINE
  5
F261
  8
01
 10
1092.687683866325
 20
-1386.7340813977451
 30
0.0
 11
1092.687683866325
 21
-1439.7340813977451
 31
0.0
  0
ARC
  5
F262
  8
01
 10
1088.187683866325
 20
-1389.7340813977451
 30
0.0
 40
1.5
 50
0.0
 51
90.0
  0
LINE
  5
F263
  8
01
 10
1000.687680166325
 20
-1438.2340813977451
 30
0.0
 11
1088.187683866325
 21
-1438.2340813977451
 31
0.0
  0
LINE
  5
F264
  8
01
 10
985.6876871663253
 20
-1441.2340813977451
 30
0.0
 11
1091.187683866325
 21
-1441.2340813977451
 31
0.0
  0
ARC
  5
F265
  8
01
 10
1091.187683866325
 20
-1439.7340813977451
 30
0.0
 40
1.5
 50
270.0
 51
0.0
  0
ARC
  5
F266
  8
01
 10
1088.187683866325
 20
-1436.7340813977451
 30
0.0
 40
1.5
 50
270.0
 51
0.0
  0
LINE
  5
F267
  8
01
 10
984.18768716632519
 20
-1386.7340813977451
 30
0.0
 11
984.18768716632519
 21
-1439.7340813977451
 31
0.0
  0
ARC
  5
F268
  8
01
 10
985.6876871663253
 20
-1439.7340813977451
 30
0.0
 40
1.5
 50
180.0
 51
270.0
  0
ARC
  5
F269
  8
01
 10
1000.687680166325
 20
-1436.7340813977451
 30
0.0
 40
1.5
 50
180.0
 51
270.0
  0
LINE
  5
F26A
  8
01
 10
999.18768016632475
 20
-1389.7340813977451
 30
0.0
 11
999.18768016632475
 21
-1436.7340813977451
 31
0.0
  0
ARC
  5
F26B
  8
01
 10
985.6876871663253
 20
-1386.7340813977451
 30
0.0
 40
1.5
 50
90.0
 51
180.0
  0
ARC
  5
F26C
  8
01
 10
1000.687680166325
 20
-1389.7340813977451
 30
0.0
 40
1.5
 50
90.0
 51
180.0
  0
ARC
  5
F2C9
  8
01
 10
667.1876731663242
 20
-1413.2340815977441
 30
0.0
 40
26.5
 50
319.0005738458288
 51
40.99942615417114
  0
ARC
  5
F2CA
  8
1HIDDEN
 10
667.1876731663242
 20
-1413.2340815977441
 30
0.0
 40
26.5
 50
40.99942615417114
 51
319.0005738458288
  0
LINE
  5
F2CB
  8
01
 10
670.68765816632447
 20
-1388.2340813977451
 30
0.0
 11
583.18765446632369
 21
-1388.2340813977451
 31
0.0
  0
LINE
  5
F2CC
  8
01
 10
685.68765116632403
 20
-1385.2340813977451
 30
0.0
 11
580.18765446632369
 21
-1385.2340813977451
 31
0.0
  0
ARC
  5
F2CD
  8
01
 10
580.18765446632369
 20
-1386.7340813977451
 30
0.0
 40
1.5
 50
90.0
 51
180.0
  0
LINE
  5
F2CE
  8
01
 10
581.68765446632358
 20
-1389.7340813977451
 30
0.0
 11
581.68765446632358
 21
-1436.7340813977451
 31
0.0
  0
LINE
  5
F2CF
  8
01
 10
578.68765446632358
 20
-1386.7340813977451
 30
0.0
 11
578.68765446632358
 21
-1439.7340813977451
 31
0.0
  0
ARC
  5
F2D0
  8
01
 10
583.18765446632369
 20
-1389.7340813977451
 30
0.0
 40
1.5
 50
90.0
 51
180.0
  0
LINE
  5
F2D1
  8
01
 10
670.68765816632447
 20
-1438.2340813977451
 30
0.0
 11
583.18765446632369
 21
-1438.2340813977451
 31
0.0
  0
LINE
  5
F2D2
  8
01
 10
685.68765116632403
 20
-1441.2340813977451
 30
0.0
 11
580.18765446632369
 21
-1441.2340813977451
 31
0.0
  0
ARC
  5
F2D3
  8
01
 10
580.18765446632369
 20
-1439.7340813977451
 30
0.0
 40
1.5
 50
180.0
 51
270.0
  0
ARC
  5
F2D4
  8
01
 10
583.18765446632369
 20
-1436.7340813977451
 30
0.0
 40
1.5
 50
180.0
 51
270.0
  0
LINE
  5
F2D5
  8
01
 10
687.18765116632403
 20
-1386.7340813977451
 30
0.0
 11
687.18765116632403
 21
-1439.7340813977451
 31
0.0
  0
ARC
  5
F2D6
  8
01
 10
685.68765116632403
 20
-1439.7340813977451
 30
0.0
 40
1.5
 50
270.0
 51
0.000000000000007
  0
ARC
  5
F2D7
  8
01
 10
670.68765816632447
 20
-1436.7340813977451
 30
0.0
 40
1.5
 50
270.0
 51
0.000000000000007
  0
LINE
  5
F2D8
  8
01
 10
672.18765816632447
 20
-1389.7340813977451
 30
0.0
 11
672.18765816632447
 21
-1436.7340813977451
 31
0.0
  0
ARC
  5
F2D9
  8
01
 10
685.68765116632403
 20
-1386.7340813977451
 30
0.0
 40
1.5
 50
0.000000000000007
 51
90.0
  0
ARC
  5
F2DA
  8
01
 10
670.68765816632447
 20
-1389.7340813977451
 30
0.0
 40
1.5
 50
0.000000000000007
 51
90.0
  0
LINE
  5
FED7
  8
1CENTER
 10
985.5498978946174
 20
-1177.2341125987709
 30
0.0
 11
1001.172534506069
 21
-1177.2341125987709
 31
0.0
  0
LINE
  5
FED8
  8
1CENTER
 10
985.5498978946174
 20
-1102.234050598774
 30
0.0
 11
1001.172534506069
 21
-1102.234050598774
 31
0.0
  0
LINE
  5
FED9
  8
1CENTER
 10
1004.18778150607
 20
-1157.6057962163411
 30
0.0
 11
1004.18778150607
 21
-1180.234081598772
 31
0.0
  0
LINE
  5
FEDA
  8
01
 10
977.68766516632513
 20
-1159.7340815987729
 30
0.0
 11
1030.6876651663249
 21
-1159.7340815987729
 31
0.0
  0
LINE
  5
FEDC
  8
01
 10
978.18766516632502
 20
-1168.2340815987729
 30
0.0
 11
1030.1876651663249
 21
-1168.2340815987729
 31
0.0
  0
LINE
  5
FEDD
  8
01
 10
977.68766516632513
 20
-1159.7340815987729
 30
0.0
 11
977.68766516632513
 21
-1167.7340815987729
 31
0.0
  0
ARC
  5
FEDE
  8
01
 10
978.18766516632502
 20
-1167.7340815987729
 30
0.0
 40
0.5
 50
180.0
 51
270.0
  0
LINE
  5
FEDF
  8
01
 10
1030.6876651663249
 20
-1159.7340815987729
 30
0.0
 11
1030.6876651663249
 21
-1167.7340815987729
 31
0.0
  0
ARC
  5
FEE0
  8
01
 10
1030.1876651663249
 20
-1167.7340815987729
 30
0.0
 40
0.5
 50
270.0
 51
0.0
  0
ARC
  5
FEE1
  8
1PHANTOM
 10
1096.512921951716
 20
-1203.039506423414
 30
0.0
 40
1.4999999999999989
 50
280.00000000000512
 51
10.0000000000038
  0
LINE
  5
FEE2
  8
1PHANTOM
 10
993.19423703776829
 20
-1205.924430253026
 30
0.0
 11
1097.0914586243459
 21
-1187.6045468666659
 31
0.0
  0
LINE
  5
FEE3
  8
1PHANTOM
 10
1011.095115367772
 20
-1219.624106213224
 30
0.0
 11
1096.7733935236231
 21
-1204.5167141137019
 31
0.0
  0
ARC
  5
FEE4
  8
1PHANTOM
 10
996.12010486819418
 20
-1202.362240976877
 30
0.0
 40
2.9999999999999991
 50
280.00000000000512
 51
10.0000000000038
  0
LINE
  5
FEE5
  8
1PHANTOM
 10
991.97749767475045
 20
-1207.662114149045
 30
0.0
 11
993.71397945141962
 21
-1217.5101916791671
 31
0.0
  0
ARC
  5
FEE6
  8
1PHANTOM
 10
995.19119108093798
 20
-1217.2497194126661
 30
0.0
 40
1.4999999999999989
 50
190.00000000000381
 51
280.00000000000512
  0
ARC
  5
FEE7
  8
1PHANTOM
 10
993.45470930426859
 20
-1207.401641882544
 30
0.0
 40
1.4999999999999989
 50
100.0000000000051
 51
190.00000000000381
  0
LINE
  5
FEE8
  8
1PHANTOM
 10
999.07452812723102
 20
-1201.8412964438769
 30
0.0
 11
993.9345439784197
 21
-1172.6909977876001
 31
0.0
  0
LINE
  5
FEE9
  8
1PHANTOM
 10
1022.709914199524
 20
-1197.6737401798709
 30
0.0
 11
1017.569930050713
 21
-1168.5234415235941
 31
0.0
  0
LINE
  5
FEEA
  8
1PHANTOM
 10
1009.357432166346
 20
-1218.4073707894361
 30
0.0
 11
1008.992771340541
 21
-1216.3392764777259
 31
0.0
  0
ARC
  5
FEEB
  8
1PHANTOM
 10
1010.8346437958641
 20
-1218.146898522936
 30
0.0
 40
1.4999999999999989
 50
190.00000000000381
 51
280.00000000000512
  0
ARC
  5
FEEC
  8
1PHANTOM
 10
1025.6643374585601
 20
-1197.1527956468699
 30
0.0
 40
2.9999999999999991
 50
190.00000000000381
 51
280.00000000000512
  0
ARC
  5
FEED
  8
1PHANTOM
 10
1004.189403415564
 20
-1161.7439498784879
 30
0.0
 40
15.0
 50
333.13009999999912
 51
344.36308706884142
  0
LINE
  5
FEEE
  8
1PHANTOM
 10
1098.829142520364
 20
-1188.8212862296839
 30
0.0
 11
1100.565624297034
 21
-1198.6693637598059
 31
0.0
  0
ARC
  5
FEEF
  8
1PHANTOM
 10
1099.0884126675151
 20
-1198.9298360263069
 30
0.0
 40
1.4999999999999989
 50
280.00000000000512
 51
10.0000000000038
  0
LINE
  5
FEF0
  8
1PHANTOM
 10
995.4516647366238
 20
-1218.726938920646
 30
0.0
 11
1099.348886323201
 21
-1200.4070555342871
 31
0.0
  0
ARC
  5
FEF1
  8
1PHANTOM
 10
1097.351930890846
 20
-1189.0817584961851
 30
0.0
 40
1.4999999999999989
 50
10.0000000000038
 51
100.0000000000051
  0
LINE
  5
FEF2
  8
1PHANTOM
 10
1097.990133581234
 20
-1202.7790341569139
 30
0.0
 11
1097.6254727554301
 21
-1200.7109398452051
 31
0.0
  0
ARC
  5
FEF3
  8
1PHANTOM
 10
1004.189403415564
 20
-1161.7439498784879
 30
0.0
 40
15.0
 50
215.6369129311538
 51
226.8698999999921
  0
LINE
  5
FEF9
  8
1PHANTOM
 10
993.93454442821019
 20
-1172.6909982089501
 30
0.0
 11
1017.569929772158
 21
-1168.52344207337
 31
0.0
  0
LINE
  5
FEFA
  8
01
 10
977.68766516632513
 20
-1119.7340815987729
 30
0.0
 11
1030.6876651663249
 21
-1119.7340815987729
 31
0.0
  0
LINE
  5
FEFB
  8
01
 10
978.18766516632502
 20
-1111.234081598772
 30
0.0
 11
1001.687805948493
 21
-1111.2340815987729
 31
0.0
  0
ARC
  5
FEFC
  8
01
 10
1030.1876651663249
 20
-1111.7340815987729
 30
0.0
 40
0.5
 50
0.0
 51
90.0
  0
LINE
  5
FEFD
  8
01
 10
977.68766516632513
 20
-1119.7340815987729
 30
0.0
 11
977.68766516632513
 21
-1111.7340815987729
 31
0.0
  0
ARC
  5
FEFE
  8
01
 10
978.18766516632502
 20
-1111.7340815987729
 30
0.0
 40
0.5
 50
90.0
 51
180.0
  0
LINE
  5
FEFF
  8
01
 10
1030.6876651663249
 20
-1119.7340815987729
 30
0.0
 11
1030.6876651663249
 21
-1111.7340815987729
 31
0.0
  0
ARC
  5
FF00
  8
01
 10
1087.937683866325
 20
-1061.024086598773
 30
0.0
 40
1.5
 50
0.0
 51
90.0
  0
LINE
  5
FF01
  8
01
 10
985.68768016632453
 20
-1076.124092598772
 30
0.0
 11
1091.187683866325
 21
-1076.124092598772
 31
0.0
  0
LINE
  5
FF02
  8
01
 10
1000.937680166325
 20
-1059.5240905987721
 30
0.0
 11
1087.937683866325
 21
-1059.5240905987721
 31
0.0
  0
ARC
  5
FF03
  8
01
 10
989.18766516632513
 20
-1079.124092598772
 30
0.0
 40
3.0
 50
0.0
 51
90.0
  0
LINE
  5
FF04
  8
01
 10
984.18768016632464
 20
-1074.624092598772
 30
0.0
 11
984.18768016632464
 21
-1064.624092598772
 31
0.0
  0
ARC
  5
FF05
  8
01
 10
985.68768016632453
 20
-1064.624092598772
 30
0.0
 40
1.5
 50
90.0
 51
180.0
  0
ARC
  5
FF06
  8
01
 10
985.68768016632453
 20
-1074.624092598772
 30
0.0
 40
1.5
 50
180.0
 51
270.0
  0
LINE
  5
FF07
  8
01
 10
992.18766516632502
 20
-1079.124092598772
 30
0.0
 11
992.18766516632502
 21
-1108.724081598772
 31
0.0
  0
LINE
  5
FF08
  8
01
 10
1016.187665166325
 20
-1079.124092598772
 30
0.0
 11
1016.187665166325
 21
-1108.724081598772
 31
0.0
  0
LINE
  5
FF09
  8
01
 10
999.43768016632464
 20
-1061.024086598773
 30
0.0
 11
999.43768016632464
 21
-1063.124084598772
 31
0.0
  0
ARC
  5
FF0A
  8
01
 10
1000.937680166325
 20
-1061.024086598773
 30
0.0
 40
1.5
 50
90.0
 51
180.0
  0
ARC
  5
FF0B
  8
01
 10
1019.187665166325
 20
-1079.124092598772
 30
0.0
 40
3.0
 50
90.0
 51
180.0
  0
ARC
  5
FF0C
  8
01
 10
1004.187665166325
 20
-1117.724081598773
 30
0.0
 40
15.0
 50
25.63691293115042
 51
36.869899999994352
  0
LINE
  5
FF0D
  8
01
 10
1092.687683866325
 20
-1074.624092598772
 30
0.0
 11
1092.687683866325
 21
-1064.624092598772
 31
0.0
  0
ARC
  5
FF0E
  8
01
 10
1091.187683866325
 20
-1064.624092598772
 30
0.0
 40
1.5
 50
0.0
 51
90.0
  0
LINE
  5
FF0F
  8
01
 10
985.68768016632453
 20
-1063.124084598772
 30
0.0
 11
1091.187683866325
 21
-1063.124084598772
 31
0.0
  0
ARC
  5
FF10
  8
01
 10
1091.187683866325
 20
-1074.624092598772
 30
0.0
 40
1.5
 50
270.0
 51
0.0
  0
LINE
  5
FF11
  8
01
 10
1089.4376838663261
 20
-1061.024086598773
 30
0.0
 11
1089.4376838663261
 21
-1063.1240845987711
 31
0.0
  0
ARC
  5
FF12
  8
01
 10
1004.187665166325
 20
-1117.724081598773
 30
0.0
 40
15.0
 50
143.1301000000056
 51
154.3630870688495
  0
LINE
  5
FF13
  8
01
 10
992.18766553611556
 20
-1108.7240811057191
 30
0.0
 11
1001.687805948493
 21
-1108.7240811057191
 31
0.0
  0
ARC
  5
FF14
  8
1PHANTOM
 10
1076.8177473772139
 20
-1232.1255422726981
 30
0.0
 40
1.4999999999999989
 50
259.99999999999488
 51
349.99999999999608
  0
LINE
  5
FF15
  8
1PHANTOM
 10
978.74323951258611
 20
-1199.499412484425
 30
0.0
 11
1082.640461099164
 21
-1217.819295870785
 31
0.0
  0
LINE
  5
FF16
  8
1PHANTOM
 10
990.87899764945473
 20
-1218.4953578634641
 30
0.0
 11
1076.557275805307
 21
-1233.6027499629861
 31
0.0
  0
ARC
  5
FF17
  8
1PHANTOM
 10
982.71099640901366
 20
-1197.1527552425
 30
0.0
 40
2.9999999999999991
 50
259.99999999999488
 51
349.99999999999608
  0
LINE
  5
FF18
  8
1PHANTOM
 10
977.00555561656745
 20
-1200.7161518474429
 30
0.0
 11
975.26907383989817
 21
-1210.564229377565
 31
0.0
  0
ARC
  5
FF19
  8
1PHANTOM
 10
976.74628546941642
 20
-1210.824701644066
 30
0.0
 40
1.4999999999999989
 50
169.99999999999619
 51
259.99999999999488
  0
ARC
  5
FF1A
  8
1PHANTOM
 10
978.48276724608559
 20
-1200.976624113943
 30
0.0
 40
1.4999999999999989
 50
79.999999999994884
 51
169.99999999999619
  0
LINE
  5
FF1B
  8
1PHANTOM
 10
985.66541966805028
 20
-1197.6736997755011
 30
0.0
 11
990.8054038168616
 21
-1168.5234011192249
 31
0.0
  0
LINE
  5
FF1C
  8
1PHANTOM
 10
1009.300805740343
 20
-1201.841256039507
 30
0.0
 11
1014.440789889154
 21
-1172.6909573832311
 31
0.0
  0
LINE
  5
FF1D
  8
1PHANTOM
 10
989.6622575918442
 20
-1216.757677906676
 30
0.0
 11
990.02691841764852
 21
-1214.6895835949661
 31
0.0
  0
ARC
  5
FF1E
  8
1PHANTOM
 10
991.13946922136256
 20
-1217.0181501731761
 30
0.0
 40
1.4999999999999989
 50
169.99999999999619
 51
259.99999999999488
  0
ARC
  5
FF1F
  8
1PHANTOM
 10
1012.2552289993801
 20
-1202.3622005725081
 30
0.0
 40
2.9999999999999991
 50
169.99999999999619
 51
259.99999999999488
  0
ARC
  5
FF20
  8
1PHANTOM
 10
1004.18593045201
 20
-1161.743909474118
 30
0.0
 40
15.0
 50
313.13010000000787
 51
324.3630870688462
  0
LINE
  5
FF21
  8
1PHANTOM
 10
1083.857200462181
 20
-1219.5569797668029
 30
0.0
 11
1082.120718685512
 21
-1229.405057296925
 31
0.0
  0
ARC
  5
FF22
  8
1PHANTOM
 10
1080.643507055994
 20
-1229.1445850304251
 30
0.0
 40
1.4999999999999989
 50
259.99999999999488
 51
349.99999999999608
  0
LINE
  5
FF23
  8
1PHANTOM
 10
976.48581181373038
 20
-1212.3019211520459
 30
0.0
 11
1080.383033400308
 21
-1230.6218045384051
 31
0.0
  0
ARC
  5
FF24
  8
1PHANTOM
 10
1082.379988832663
 20
-1219.2965075003031
 30
0.0
 40
1.4999999999999989
 50
349.99999999999608
 51
79.999999999994884
  0
LINE
  5
FF25
  8
1PHANTOM
 10
1078.2949590067319
 20
-1232.386014539198
 30
0.0
 11
1078.659619832536
 21
-1230.3179202274889
 31
0.0
  0
ARC
  5
FF26
  8
1PHANTOM
 10
1004.18593045201
 20
-1161.743909474118
 30
0.0
 40
15.0
 50
195.6369129311451
 51
206.86990000000091
  0
LINE
  5
FF27
  8
1PHANTOM
 10
990.80540409541618
 20
-1168.523401669001
 30
0.0
 11
1014.440789439364
 21
-1172.69095780458
 31
0.0
  0
ARC
  5
FF28
  8
01
 10
1087.937683866325
 20
-1218.444076598772
 30
0.0
 40
1.5
 50
270.0
 51
0.0
  0
LINE
  5
FF29
  8
01
 10
985.68768016632453
 20
-1203.344070598773
 30
0.0
 11
1091.187683866325
 21
-1203.344070598773
 31
0.0
  0
LINE
  5
FF2A
  8
01
 10
1000.937680166325
 20
-1219.9440725987729
 30
0.0
 11
1087.937683866325
 21
-1219.9440725987729
 31
0.0
  0
ARC
  5
FF2B
  8
01
 10
989.18766516632513
 20
-1200.344070598773
 30
0.0
 40
3.0
 50
270.0
 51
0.0
  0
LINE
  5
FF2C
  8
01
 10
984.18768016632464
 20
-1204.844070598773
 30
0.0
 11
984.18768016632464
 21
-1214.844070598773
 31
0.0
  0
ARC
  5
FF2D
  8
01
 10
985.68768016632453
 20
-1214.844070598773
 30
0.0
 40
1.5
 50
180.0
 51
270.0
  0
ARC
  5
FF2E
  8
01
 10
985.68768016632453
 20
-1204.844070598773
 30
0.0
 40
1.5
 50
90.0
 51
180.0
  0
LINE
  5
FF2F
  8
01
 10
992.18766516632502
 20
-1200.344070598773
 30
0.0
 11
992.18766516632502
 21
-1170.7440815987729
 31
0.0
  0
LINE
  5
FF30
  8
01
 10
1016.187665166325
 20
-1200.344070598773
 30
0.0
 11
1016.187665166325
 21
-1170.7440815987729
 31
0.0
  0
LINE
  5
FF31
  8
01
 10
999.43768016632464
 20
-1218.444076598772
 30
0.0
 11
999.43768016632464
 21
-1216.344078598773
 31
0.0
  0
ARC
  5
FF32
  8
01
 10
1000.937680166325
 20
-1218.444076598772
 30
0.0
 40
1.5
 50
180.0
 51
270.0
  0
ARC
  5
FF33
  8
01
 10
1019.187665166325
 20
-1200.344070598773
 30
0.0
 40
3.0
 50
180.0
 51
270.0
  0
ARC
  5
FF34
  8
01
 10
1004.187665166325
 20
-1161.744081598772
 30
0.0
 40
15.0
 50
323.13010000000571
 51
334.36308706884961
  0
LINE
  5
FF35
  8
01
 10
1092.687683866325
 20
-1204.844070598773
 30
0.0
 11
1092.687683866325
 21
-1214.844070598773
 31
0.0
  0
ARC
  5
FF36
  8
01
 10
1091.187683866325
 20
-1214.844070598773
 30
0.0
 40
1.5
 50
270.0
 51
0.0
  0
LINE
  5
FF37
  8
01
 10
985.68768016632453
 20
-1216.344078598773
 30
0.0
 11
1091.187683866325
 21
-1216.344078598773
 31
0.0
  0
ARC
  5
FF38
  8
01
 10
1091.187683866325
 20
-1204.844070598773
 30
0.0
 40
1.5
 50
0.0
 51
90.0
  0
LINE
  5
FF39
  8
01
 10
1089.4376838663261
 20
-1218.444076598772
 30
0.0
 11
1089.4376838663261
 21
-1216.3440785987741
 31
0.0
  0
ARC
  5
FF3A
  8
01
 10
1004.187665166325
 20
-1161.744081598772
 30
0.0
 40
15.0
 50
205.63691293115039
 51
216.86989999999429
  0
LINE
  5
FF3B
  8
01
 10
992.18766553611556
 20
-1170.7440820918259
 30
0.0
 11
1016.187664796534
 21
-1170.7440820918259
 31
0.0
  0
POINT
  5
FFA5
  8
01
 10
873.18766916632467
 20
-1413.2340815977441
 30
0.0
  0
LINE
  5
FFA6
  8
01
 10
872.78766915632468
 20
-1414.9840815977441
 30
0.0
 11
872.78766915632468
 21
-1414.1340815777439
 31
0.0
  0
LINE
  5
FFA7
  8
01
 10
873.58766917632465
 20
-1414.9840815977441
 30
0.0
 11
873.58766917632465
 21
-1414.1340815777439
 31
0.0
  0
LINE
  5
FFA8
  8
01
 10
872.28766918632482
 20
-1413.6340816077441
 30
0.0
 11
871.43766916632467
 21
-1413.6340816077441
 31
0.0
  0
LINE
  5
FFA9
  8
01
 10
872.28766918632482
 20
-1412.8340815877441
 30
0.0
 11
871.43766916632467
 21
-1412.8340815877441
 31
0.0
  0
LINE
  5
FFAA
  8
01
 10
871.43766916632467
 20
-1413.6340816077441
 30
0.0
 11
871.43766916632467
 21
-1412.8340815877441
 31
0.0
  0
LINE
  5
FFAB
  8
01
 10
873.58766917632465
 20
-1414.9840815977441
 30
0.0
 11
872.78766915632468
 21
-1414.9840815977441
 31
0.0
  0
LINE
  5
FFAC
  8
01
 10
873.58766917632465
 20
-1411.4840815977441
 30
0.0
 11
873.58766917632465
 21
-1412.334081617744
 31
0.0
  0
LINE
  5
FFAD
  8
01
 10
872.78766915632468
 20
-1411.4840815977441
 30
0.0
 11
872.78766915632468
 21
-1412.334081617744
 31
0.0
  0
LINE
  5
FFAE
  8
01
 10
874.08766914632452
 20
-1412.8340815877441
 30
0.0
 11
874.93766916632467
 21
-1412.8340815877441
 31
0.0
  0
LINE
  5
FFAF
  8
01
 10
874.08766914632452
 20
-1413.6340816077441
 30
0.0
 11
874.93766916632467
 21
-1413.6340816077441
 31
0.0
  0
LINE
  5
FFB0
  8
01
 10
874.93766916632467
 20
-1412.8340815877441
 30
0.0
 11
874.93766916632467
 21
-1413.6340816077441
 31
0.0
  0
LINE
  5
FFB1
  8
01
 10
872.78766915632468
 20
-1411.4840815977441
 30
0.0
 11
873.58766917632465
 21
-1411.4840815977441
 31
0.0
  0
CIRCLE
  5
FFB2
  8
01
 10
873.18766916632467
 20
-1413.2340815977441
 30
0.0
 40
2.5
  0
ARC
  5
FFB3
  8
01
 10
874.08766914632452
 20
-1412.334081617744
 30
0.0
 40
0.5
 50
179.999989999999
 51
270.0
  0
ARC
  5
FFB4
  8
01
 10
874.08766914632452
 20
-1414.1340815777439
 30
0.0
 40
0.5
 50
90.00000299999769
 51
180.000010000001
  0
ARC
  5
FFB5
  8
01
 10
872.28766918632482
 20
-1414.1340815777439
 30
0.0
 40
0.5
 50
0.0
 51
90.00000299999769
  0
ARC
  5
FFB6
  8
01
 10
872.28766918632482
 20
-1412.334081617744
 30
0.0
 40
0.5
 50
270.0
 51
0.0
  0
POINT
  5
FFB8
  8
01
 10
798.18766916632455
 20
-1413.2340815977441
 30
0.0
  0
LINE
  5
FFB9
  8
01
 10
798.58766917632465
 20
-1414.9840815977441
 30
0.0
 11
798.58766917632465
 21
-1414.1340815777439
 31
0.0
  0
LINE
  5
FFBA
  8
01
 10
797.78766915632457
 20
-1414.9840815977441
 30
0.0
 11
797.78766915632457
 21
-1414.1340815777439
 31
0.0
  0
LINE
  5
FFBB
  8
01
 10
799.0876691463244
 20
-1413.6340816077441
 30
0.0
 11
799.93766916632455
 21
-1413.6340816077441
 31
0.0
  0
LINE
  5
FFBC
  8
01
 10
799.0876691463244
 20
-1412.8340815877441
 30
0.0
 11
799.93766916632455
 21
-1412.8340815877441
 31
0.0
  0
LINE
  5
FFBD
  8
01
 10
799.93766916632455
 20
-1413.6340816077441
 30
0.0
 11
799.93766916632455
 21
-1412.8340815877441
 31
0.0
  0
LINE
  5
FFBE
  8
01
 10
797.78766915632457
 20
-1414.9840815977441
 30
0.0
 11
798.58766917632465
 21
-1414.9840815977441
 31
0.0
  0
LINE
  5
FFBF
  8
01
 10
797.78766915632457
 20
-1411.4840815977441
 30
0.0
 11
797.78766915632457
 21
-1412.334081617744
 31
0.0
  0
LINE
  5
FFC0
  8
01
 10
798.58766917632465
 20
-1411.4840815977441
 30
0.0
 11
798.58766917632465
 21
-1412.334081617744
 31
0.0
  0
LINE
  5
FFC1
  8
01
 10
797.28766918632482
 20
-1412.8340815877441
 30
0.0
 11
796.43766916632467
 21
-1412.8340815877441
 31
0.0
  0
LINE
  5
FFC2
  8
01
 10
797.28766918632482
 20
-1413.6340816077441
 30
0.0
 11
796.43766916632467
 21
-1413.6340816077441
 31
0.0
  0
LINE
  5
FFC3
  8
01
 10
796.43766916632467
 20
-1412.8340815877441
 30
0.0
 11
796.43766916632467
 21
-1413.6340816077441
 31
0.0
  0
LINE
  5
FFC4
  8
01
 10
798.58766917632465
 20
-1411.4840815977441
 30
0.0
 11
797.78766915632457
 21
-1411.4840815977441
 31
0.0
  0
CIRCLE
  5
FFC5
  8
01
 10
798.18766916632455
 20
-1413.2340815977441
 30
0.0
 40
2.5
  0
ARC
  5
FFC6
  8
01
 10
797.28766918632482
 20
-1412.334081617744
 30
0.0
 40
0.5
 50
270.0
 51
0.0000100000010064
  0
ARC
  5
FFC7
  8
01
 10
797.28766918632482
 20
-1414.1340815777439
 30
0.0
 40
0.5
 50
359.999989999999
 51
89.999997000002296
  0
ARC
  5
FFC8
  8
01
 10
799.0876691463244
 20
-1414.1340815777439
 30
0.0
 40
0.5
 50
89.999997000002296
 51
180.0
  0
ARC
  5
FFC9
  8
01
 10
799.0876691463244
 20
-1412.334081617744
 30
0.0
 40
0.5
 50
180.0
 51
270.0
  0
LINE
  5
FFCB
  8
01
 10
855.68766916632478
 20
-1386.7340815977441
 30
0.0
 11
855.68766916632444
 21
-1439.7340815977441
 31
0.0
  0
LINE
  5
FFCC
  8
01
 10
815.68766916632444
 20
-1386.7340815977441
 30
0.0
 11
815.68766916632489
 21
-1439.7340815977441
 31
0.0
  0
LINE
  5
FFCD
  8
01
 10
855.68766916632455
 20
-1386.7340815977441
 30
0.0
 11
855.68766916632455
 21
-1439.7340815977441
 31
0.0
  0
LINE
  5
FFCE
  8
01
 10
864.18766916632467
 20
-1387.2340815977441
 30
0.0
 11
864.18766916632489
 21
-1439.2340815977441
 31
0.0
  0
LINE
  5
FFCF
  8
01
 10
855.68766916632455
 20
-1386.7340815977441
 30
0.0
 11
863.68766916632455
 21
-1386.7340815977441
 31
0.0
  0
ARC
  5
FFD0
  8
01
 10
863.68766916632455
 20
-1387.2340815977441
 30
0.0
 40
0.5
 50
0.0
 51
90.0
  0
LINE
  5
FFD1
  8
01
 10
855.68766916632455
 20
-1439.7340815977441
 30
0.0
 11
863.68766916632478
 21
-1439.7340815977441
 31
0.0
  0
ARC
  5
FFD2
  8
01
 10
863.68766916632478
 20
-1439.2340815977441
 30
0.0
 40
0.5
 50
270.0
 51
0.0
  0
ARC
  5
FFD3
  8
01
 10
896.28765916632437
 20
-1398.2340813977439
 30
0.0
 40
3.0
 50
270.0
 51
0.0
  0
LINE
  5
FFD4
  8
01
 10
896.28765916632437
 20
-1401.2340813977439
 30
0.0
 11
866.68766916632455
 21
-1401.2340813977439
 31
0.0
  0
ARC
  5
FFD5
  8
01
 10
914.38765916632383
 20
-1389.7340813977439
 30
0.0
 40
1.5
 50
0.0
 51
90.0
  0
ARC
  5
FFD6
  8
01
 10
910.78765916632426
 20
-1386.7340813977439
 30
0.0
 40
1.5
 50
0.0
 51
90.0
  0
LINE
  5
FFD7
  8
01
 10
912.28765916632437
 20
-1388.2340813977439
 30
0.0
 11
914.38765916632383
 21
-1388.2340813977439
 31
0.0
  0
LINE
  5
FFD8
  8
01
 10
912.28765916632437
 20
-1386.7340813977439
 30
0.0
 11
912.28765916632437
 21
-1439.7340813977439
 31
0.0
  0
ARC
  5
FFD9
  8
01
 10
900.78765916632437
 20
-1386.7340813977439
 30
0.0
 40
1.5
 50
90.0
 51
180.0
  0
LINE
  5
FFDA
  8
01
 10
899.28765916632426
 20
-1386.7340813977439
 30
0.0
 11
899.28765916632426
 21
-1439.7340813977439
 31
0.0
  0
LINE
  5
FFDB
  8
01
 10
900.78765916632437
 20
-1385.2340813977439
 30
0.0
 11
910.78765916632426
 21
-1385.2340813977439
 31
0.0
  0
LINE
  5
FFDC
  8
01
 10
915.88765916632383
 20
-1389.7340813977439
 30
0.0
 11
915.88765916632383
 21
-1436.7340813977439
 31
0.0
  0
ARC
  5
FFDD
  8
01
 10
896.28765916632437
 20
-1428.2340813977439
 30
0.0
 40
3.0
 50
0.0
 51
90.0
  0
LINE
  5
FFDE
  8
01
 10
896.28765916632437
 20
-1425.2340813977439
 30
0.0
 11
866.68766916632455
 21
-1425.2340813977439
 31
0.0
  0
ARC
  5
FFDF
  8
01
 10
914.38765916632383
 20
-1436.7340813977439
 30
0.0
 40
1.5
 50
270.0
 51
0.0
  0
LINE
  5
FFE0
  8
01
 10
912.28765916632437
 20
-1438.2340813977439
 30
0.0
 11
914.38765916632383
 21
-1438.2340813977439
 31
0.0
  0
ARC
  5
FFE1
  8
01
 10
910.78765916632426
 20
-1439.7340813977439
 30
0.0
 40
1.5
 50
270.0
 51
0.0
  0
ARC
  5
FFE2
  8
01
 10
900.78765916632437
 20
-1439.7340813977439
 30
0.0
 40
1.5
 50
180.0
 51
270.0
  0
LINE
  5
FFE3
  8
01
 10
900.78765916632437
 20
-1441.2340813977439
 30
0.0
 11
910.78765916632426
 21
-1441.2340813977439
 31
0.0
  0
ARC
  5
FFE4
  8
01
 10
857.68766916632455
 20
-1413.2340815977441
 30
0.0
 40
15.0
 50
53.130100999981018
 51
64.320711380553519
  0
ARC
  5
FFE5
  8
01
 10
857.68766916632455
 20
-1413.2340815977441
 30
0.0
 40
15.0
 50
295.67928861944648
 51
306.8699000000139
  0
LINE
  5
FFE6
  8
01
 10
866.68766944994047
 20
-1401.234081810456
 30
0.0
 11
866.68766965937903
 21
-1425.2340812279531
 31
0.0
  0
LINE
  5
FFE7
  8
01
 10
815.68766916632489
 20
-1386.7340815977441
 30
0.0
 11
815.68766916632489
 21
-1439.7340815977441
 31
0.0
  0
LINE
  5
FFE8
  8
01
 10
807.18766916632478
 20
-1387.2340815977441
 30
0.0
 11
807.18766916632478
 21
-1439.2340815977441
 31
0.0
  0
ARC
  5
FFE9
  8
01
 10
807.68766916632489
 20
-1439.2340815977441
 30
0.0
 40
0.5
 50
180.0
 51
270.0
  0
LINE
  5
FFEA
  8
01
 10
815.68766916632489
 20
-1386.7340815977441
 30
0.0
 11
807.68766916632489
 21
-1386.7340815977441
 31
0.0
  0
ARC
  5
FFEB
  8
01
 10
807.68766916632489
 20
-1387.2340815977441
 30
0.0
 40
0.5
 50
90.0
 51
180.0
  0
LINE
  5
FFEC
  8
01
 10
815.68766916632489
 20
-1439.7340815977441
 30
0.0
 11
807.68766916632489
 21
-1439.7340815977441
 31
0.0
  0
ARC
  5
FFED
  8
01
 10
775.08767916632519
 20
-1398.2340813977439
 30
0.0
 40
3.0
 50
180.0
 51
270.0
  0
LINE
  5
FFEE
  8
01
 10
775.08767916632519
 20
-1401.2340813977439
 30
0.0
 11
804.68766916632478
 21
-1401.2340813977439
 31
0.0
  0
ARC
  5
FFEF
  8
01
 10
756.98767916632573
 20
-1389.7340813977439
 30
0.0
 40
1.5
 50
90.0
 51
180.0
  0
ARC
  5
FFF0
  8
01
 10
760.58767916632507
 20
-1386.7340813977439
 30
0.0
 40
1.5
 50
90.0
 51
180.0
  0
LINE
  5
FFF1
  8
01
 10
759.08767916632519
 20
-1388.2340813977439
 30
0.0
 11
756.98767916632573
 21
-1388.2340813977439
 31
0.0
  0
LINE
  5
FFF2
  8
01
 10
759.08767916632519
 20
-1386.7340813977439
 30
0.0
 11
759.08767916632519
 21
-1439.7340813977439
 31
0.0
  0
ARC
  5
FFF3
  8
01
 10
770.58767916632519
 20
-1386.7340813977439
 30
0.0
 40
1.5
 50
0.0
 51
90.0
  0
LINE
  5
FFF4
  8
01
 10
772.08767916632507
 20
-1386.7340813977439
 30
0.0
 11
772.08767916632507
 21
-1439.7340813977439
 31
0.0
  0
LINE
  5
FFF5
  8
01
 10
770.58767916632519
 20
-1385.2340813977439
 30
0.0
 11
760.58767916632507
 21
-1385.2340813977439
 31
0.0
  0
LINE
  5
FFF6
  8
01
 10
755.48767916632573
 20
-1389.7340813977439
 30
0.0
 11
755.48767916632573
 21
-1436.7340813977439
 31
0.0
  0
ARC
  5
FFF7
  8
01
 10
775.08767916632519
 20
-1428.2340813977439
 30
0.0
 40
3.0
 50
90.0
 51
180.0
  0
LINE
  5
FFF8
  8
01
 10
775.08767916632519
 20
-1425.2340813977439
 30
0.0
 11
804.68766916632478
 21
-1425.2340813977439
 31
0.0
  0
ARC
  5
FFF9
  8
01
 10
756.98767916632573
 20
-1436.7340813977439
 30
0.0
 40
1.5
 50
180.0
 51
270.0
  0
LINE
  5
FFFA
  8
01
 10
759.08767916632519
 20
-1438.2340813977439
 30
0.0
 11
756.98767916632573
 21
-1438.2340813977439
 31
0.0
  0
ARC
  5
FFFB
  8
01
 10
760.58767916632507
 20
-1439.7340813977439
 30
0.0
 40
1.5
 50
180.0
 51
270.0
  0
ARC
  5
FFFC
  8
01
 10
770.58767916632519
 20
-1439.7340813977439
 30
0.0
 40
1.5
 50
270.0
 51
0.0
  0
LINE
  5
FFFD
  8
01
 10
770.58767916632519
 20
-1441.2340813977439
 30
0.0
 11
760.58767916632507
 21
-1441.2340813977439
 31
0.0
  0
ARC
  5
FFFE
  8
01
 10
813.68766916632478
 20
-1413.2340815977441
 30
0.0
 40
15.0
 50
115.6792886194464
 51
126.8698990000189
  0
ARC
  5
FFFF
  8
01
 10
813.68766916632478
 20
-1413.2340815977441
 30
0.0
 40
15.0
 50
233.13009999998619
 51
244.32071138055349
  0
LINE
  5
10000
  8
01
 10
804.68766888270898
 20
-1401.234081810456
 30
0.0
 11
804.68766867327054
 21
-1425.2340812279531
 31
0.0
  0
LINE
  5
1012D
  8
01
 10
993.18780094849501
 20
-1112.734084931971
 30
0.0000000000000173
 11
993.18780094849501
 21
-1113.4340815987721
 31
-0.0000000000000049
  0
ARC
  5
10130
  8
01
 10
1004.187784185135
 20
-1161.8840869766479
 30
-0.0000000000001137
 40
6.0
 50
283.18348250336101
 51
305.68532999999422
  0
LINE
  5
10131
  8
01
 10
984.18779372728045
 20
-1159.7340815987729
 30
0.0
 11
1024.18779372728
 21
-1159.734081598772
 31
0.0
  0
LINE
  5
10132
  8
01
 10
1023.687793727281
 20
-1166.034081598772
 30
0.0
 11
984.68779372728068
 21
-1166.0340815987729
 31
0.0
  0
LINE
  5
10138
  8
01
 10
1024.18779372728
 20
-1119.734081598772
 30
0.0
 11
984.18779372727977
 21
-1119.7340815987729
 31
0.0
  0
LINE
  5
10139
  8
01
 10
984.68779372727988
 20
-1113.4340815987721
 30
0.0
 11
1023.687793727279
 21
-1113.4340815987721
 31
0.0
  0
ARC
  5
1013A
  8
01
 10
1023.68779372728
 20
-1113.9340815987721
 30
0.0
 40
0.5
 50
0.0
 51
90.0
  0
LINE
  5
1013B
  8
01
 10
1024.18779372728
 20
-1119.734081598772
 30
0.0
 11
1024.18779372728
 21
-1113.9340815987721
 31
0.0
  0
ARC
  5
1013C
  8
01
 10
984.68779372727988
 20
-1113.9340815987721
 30
0.0
 40
0.5
 50
90.0
 51
180.0
  0
LINE
  5
1013D
  8
01
 10
984.18779372727977
 20
-1119.7340815987729
 30
0.0
 11
984.18779372727977
 21
-1113.9340815987721
 31
0.0
  0
ARC
  5
10150
  8
01
 10
984.68779372728056
 20
-1165.534081598772
 30
0.0
 40
0.5
 50
180.0
 51
270.0
  0
LINE
  5
10151
  8
01
 10
984.18779372728045
 20
-1159.7340815987729
 30
0.0
 11
984.18779372728079
 21
-1165.5340815987729
 31
0.0
  0
LINE
  5
10152
  8
01
 10
1005.187784185135
 20
-1167.43463543605
 30
-0.0000000000001137
 11
1005.187784185135
 21
-1166.034081598772
 31
-0.0000000000001137
  0
LINE
  5
10153
  8
01
 10
1000.687784185135
 20
-1166.7574869766479
 30
-0.0000000000001137
 11
1000.687784185134
 21
-1166.0340815987729
 31
-0.0000000000001137
  0
ARC
  5
10154
  8
01
 10
1002.8877811851351
 20
-1167.433856976648
 30
-0.0000000000001137
 40
0.30000001
 50
256.81651800000162
 51
0.0
  0
ARC
  5
10155
  8
01
 10
1004.187784185135
 20
-1161.8840869766479
 30
-0.0000000000001137
 40
6.0
 50
234.3146660000057
 51
256.81651800000162
  0
ARC
  5
10156
  8
01
 10
1005.487783185135
 20
-1167.433856976648
 30
-0.0000000000001137
 40
0.30000001
 50
179.99999700000231
 51
283.18347999999418
  0
LINE
  5
10157
  8
01
 10
1003.187784185135
 20
-1167.433856976648
 30
-0.0000000000001137
 11
1003.187784185135
 21
-1166.0340815987729
 31
-0.0000000000001137
  0
LINE
  5
10175
  8
01
 10
1007.687784185135
 20
-1166.7574869766479
 30
-0.0000000000001137
 11
1007.687784185135
 21
-1166.0340815987729
 31
-0.0000000000001137
  0
ARC
  5
10176
  8
01
 10
1023.687793727281
 20
-1165.534081598772
 30
0.0
 40
0.5
 50
270.0
 51
0.0
  0
LINE
  5
10177
  8
01
 10
1024.18779372728
 20
-1159.734081598772
 30
0.0
 11
1024.18779372728
 21
-1165.534081598772
 31
0.0
  0
LINE
  5
10178
  8
01
 10
1000.687805948493
 20
-1112.234084931973
 30
0.0000000000000173
 11
993.68780094849535
 21
-1112.234084931971
 31
0.0000000000000173
  0
LINE
  5
10179
  8
01
 10
1001.687805948495
 20
-1098.7340619877659
 30
0.0000000000000173
 11
1001.687805948493
 21
-1111.234084931973
 31
0.0000000000000173
  0
LINE
  5
1017A
  8
01
 10
1006.687805948495
 20
-1098.734061987768
 30
0.0000000000000173
 11
1006.687805948495
 21
-1111.234084931971
 31
0.0000000000000173
  0
LINE
  5
1017B
  8
01
 10
1005.687805948495
 20
-1097.7340619877641
 30
0.0000000000000173
 11
1002.687805948496
 21
-1097.7340619877641
 31
0.0000000000000173
  0
ARC
  5
1017C
  8
01
 10
1005.687805948495
 20
-1098.7340619877659
 30
0.0000000000000173
 40
1.0
 50
0.0000000000521102
 51
90.0
  0
ARC
  5
1017D
  8
01
 10
1002.687805948495
 20
-1098.7340619877659
 30
0.0000000000000173
 40
1.0
 50
90.0
 51
180.0
  0
LINE
  5
1017E
  8
01
 10
1014.687800948495
 20
-1112.234084931971
 30
0.0000000000000173
 11
1007.687805948495
 21
-1112.234084931971
 31
0.0000000000000173
  0
LINE
  5
1017F
  8
01
 10
1015.187800948495
 20
-1112.734084931971
 30
0.0000000000000173
 11
1015.187800948495
 21
-1113.4340815987721
 31
0.0000000000010008
  0
ARC
  5
10180
  8
01
 10
1014.687800948495
 20
-1112.734084931971
 30
0.0000000000000173
 40
0.5
 50
0.0
 51
90.0
  0
ARC
  5
10181
  8
01
 10
1007.687805948495
 20
-1111.234084931971
 30
0.0000000000000173
 40
1.0
 50
180.0
 51
270.0
  0
ARC
  5
10182
  8
01
 10
1000.687805948494
 20
-1111.234084931973
 30
0.0000000000000173
 40
1.0
 50
269.99999999998698
 51
0.0
  0
ARC
  5
10183
  8
01
 10
993.68780094849535
 20
-1112.734084931971
 30
0.0000000000000173
 40
0.5
 50
89.999999999986969
 51
180.0
  0
LINE
  5
10184
  8
01
 10
1006.687805948495
 20
-1108.7240811057191
 30
0.0
 11
1016.187664796534
 21
-1108.7240811057191
 31
0.0
  0
LINE
  5
10185
  8
01
 10
1006.687805948495
 20
-1111.234081598772
 30
0.0
 11
1030.1876651663249
 21
-1111.234081598772
 31
0.0
  0
LINE
  5
10186
  8
01
 10
794.68728360060004
 20
-1352.034085597737
 30
-0.0000000000562575
 11
809.38766916631971
 21
-1352.034085597737
 31
-0.0000000000562575
  0
LINE
  5
10187
  8
01
 10
794.68728360059788
 20
-1374.034085597737
 30
-0.0000000000562575
 11
809.38766916631971
 21
-1374.034085597737
 31
-0.0000000000562575
  0
LINE
  5
10188
  8
01
 10
793.68728360059799
 20
-1353.0340855977361
 30
-0.0000000000562575
 11
793.68728360059799
 21
-1373.034085597734
 31
-0.0000000000562575
  0
ARC
  5
10189
  8
01
 10
794.68728360059788
 20
-1373.034085597734
 30
-0.0000000000562575
 40
1.0
 50
180.0
 51
270.0
  0
ARC
  5
1018A
  8
01
 10
794.68728360060004
 20
-1353.0340855977361
 30
-0.0000000000562575
 40
1.0
 50
90.0
 51
180.0
  0
LINE
  5
1018B
  8
01
 10
863.38821762573139
 20
-1364.0340792768061
 30
-0.0000000000563712
 11
861.98766916632883
 21
-1364.0340792768061
 31
-0.0000000000563712
  0
ARC
  5
1018C
  8
01
 10
857.83766916632896
 20
-1363.0340792768061
 30
-0.0000000000563712
 40
6.0
 50
324.31467000000509
 51
346.8165174966382
  0
LINE
  5
1018D
  8
01
 10
862.71106916632903
 20
-1366.5340792768061
 30
-0.0000000000563712
 11
861.98766916632883
 21
-1366.5340792768061
 31
-0.0000000000563712
  0
LINE
  5
1018E
  8
01
 10
862.71106916632903
 20
-1359.5340792768061
 30
-0.0000000000563712
 11
861.98766916632883
 21
-1359.5340792768061
 31
-0.0000000000563712
  0
ARC
  5
1018F
  8
01
 10
863.38743916632916
 20
-1361.734076276806
 30
-0.0000000000563712
 40
0.30000001
 50
270.0
 51
13.18348199999979
  0
ARC
  5
10190
  8
01
 10
857.83766916632896
 20
-1363.0340792768061
 30
-0.0000000000563712
 40
6.0
 50
13.18348199999979
 51
35.685333999994903
  0
ARC
  5
10191
  8
01
 10
863.38743916632916
 20
-1364.3340782768059
 30
-0.0000000000563712
 40
0.30000001
 50
346.8165200000056
 51
90.00000299999769
  0
LINE
  5
10192
  8
01
 10
863.38743916632916
 20
-1362.0340792768061
 30
-0.0000000000563712
 11
861.98766916632894
 21
-1362.0340792768061
 31
-0.0000000000563712
  0
LINE
  5
10193
  8
01
 10
815.68766916631944
 20
-1337.5340805977371
 30
-0.0000000000562575
 11
815.68766916631535
 21
-1377.5340805977371
 31
-0.0000000000562575
  0
LINE
  5
10194
  8
01
 10
809.38766916631971
 20
-1377.0340805977371
 30
-0.0000000000562575
 11
809.38766916631971
 21
-1338.0340805977371
 31
-0.0000000000562575
  0
LINE
  5
10195
  8
01
 10
808.18730654480964
 20
-1352.534085597737
 30
-0.0000000000562575
 11
808.18730654480476
 21
-1373.534085597737
 31
-0.0000000000562575
  0
LINE
  5
10196
  8
01
 10
815.68766916631535
 20
-1377.5340805977371
 30
-0.0000000000562575
 11
809.8876691663196
 21
-1377.5340805977371
 31
-0.0000000000562575
  0
ARC
  5
10197
  8
01
 10
808.68730654480487
 20
-1373.534085597737
 30
-0.0000000000562575
 40
0.5
 50
179.99999999998701
 51
270.0
  0
ARC
  5
10198
  8
01
 10
809.8876691663196
 20
-1377.0340805977371
 30
-0.0000000000562575
 40
0.5
 50
180.0
 51
270.0
  0
LINE
  5
10199
  8
01
 10
814.18766916632114
 20
-1377.5340805977439
 30
-0.0000000000562575
 11
815.68766916632114
 21
-1377.5340805977439
 31
-0.0000000000562575
  0
ARC
  5
1019A
  8
01
 10
808.68730654480487
 20
-1352.534085597737
 30
-0.0000000000562575
 40
0.5
 50
90.0
 51
179.99999999998701
  0
LINE
  5
1019B
  8
01
 10
815.68766916631944
 20
-1337.5340805977371
 30
-0.0000000000562575
 11
809.8876691663196
 21
-1337.534080597738
 31
-0.0000000000562575
  0
ARC
  5
1019C
  8
01
 10
809.8876691663196
 20
-1338.0340805977371
 30
-0.0000000000562575
 40
0.5
 50
90.0
 51
180.0
  0
LINE
  5
1019D
  8
01
 10
855.68766916632887
 20
-1337.5340805977371
 30
0.0
 11
855.68766916632478
 21
-1377.5340805977371
 31
0.0
  0
LINE
  5
1019E
  8
01
 10
861.98766916632883
 20
-1377.0340805977371
 30
0.0
 11
861.98766916632894
 21
-1338.0340805977371
 31
0.0
  0
LINE
  5
1019F
  8
01
 10
855.68766916632478
 20
-1377.5340805977371
 30
0.0
 11
861.48766916632894
 21
-1377.5340805977371
 31
0.0
  0
LINE
  5
101A0
  8
01
 10
857.18766916632728
 20
-1377.5340805977439
 30
0.0
 11
855.68766916632751
 21
-1377.5340805977439
 31
0.0
  0
ARC
  5
101A1
  8
01
 10
861.48766916632894
 20
-1377.0340805977371
 30
0.0
 40
0.5
 50
270.0
 51
0.0
  0
LINE
  5
101A2
  8
01
 10
855.68766916632887
 20
-1337.5340805977371
 30
0.0
 11
861.48766916632894
 21
-1337.5340805977371
 31
0.0
  0
ARC
  5
101A3
  8
01
 10
861.48766916632894
 20
-1338.0340805977371
 30
0.0
 40
0.5
 50
0.0
 51
90.0
  0
LINE
  5
10297
  8
1DIM
 10
649.18768516632645
 20
-1168.7340815977441
 30
0.0
 11
806.68768516632645
 21
-1168.734081597745
 31
0.0
  0
TEXT
  5
10298
  8
1TEXT
 10
650.88768516632683
 20
-1166.4840815977441
 30
0.0
 40
6.0
  1
表面処理：脚部
 72
     1
 11
675.28768516632681
 21
-1166.4840815977441
 31
0.0
  0
LINE
  5
10299
  8
1DIM
 10
649.18768516632645
 20
-1158.2340815977441
 30
0.0
 11
806.68768516632645
 21
-1158.2340815977441
 31
0.0
  0
TEXT
  5
1029A
  8
1TEXT
 10
770.08768516632665
 20
-1166.4840815977441
 30
0.0
 40
6.0
  1
コード
 72
     1
 11
780.28768516632681
 21
-1166.4840815977441
 31
0.0
  0
TEXT
  5
1029B
  8
1TEXT
 10
703.98768516632686
 20
-1166.4840815977441
 30
0.0
 40
6.0
  1
表面処理：握り
 72
     1
 11
727.7876851663267
 21
-1166.4840815977441
 31
0.0
  0
LINE
  5
1029C
  8
1DIM
 10
649.18768516632645
 20
-1200.2340815977429
 30
0.0
 11
806.68768516632645
 21
-1200.2340815977441
 31
0.0
  0
LINE
  5
1029D
  8
1DIM
 10
701.68768516632645
 20
-1158.2340815977441
 30
0.0
 11
701.68768516632588
 21
-1200.2340815977429
 31
0.0
  0
LINE
  5
1029E
  8
1DIM
 10
754.18768516632554
 20
-1158.2340815977441
 30
0.0
 11
754.18768516632872
 21
-1200.2340815977429
 31
0.0
  0
LINE
  5
1029F
  8
1DIM
 10
806.68768516632645
 20
-1158.2340815977441
 30
0.0
 11
806.68768516632588
 21
-1200.2340815977441
 31
0.0
  0
LINE
  5
102A0
  8
1DIM
 10
649.18768516632554
 20
-1200.2340815977429
 30
0.0
 11
649.18768516632554
 21
-1158.2340815977441
 31
0.0
  0
LINE
  5
102A1
  8
1DIM
 10
701.68768516632645
 20
-1179.2340815977441
 30
0.0
 11
806.68768516632645
 21
-1179.234081597745
 31
0.0
  0
LINE
  5
102A2
  8
1DIM
 10
701.68768516632645
 20
-1189.7340815977441
 30
0.0
 11
806.68768516632645
 21
-1189.734081597745
 31
0.0
  0
TEXT
  5
102A3
  8
1TEXT
 10
661.2876851663267
 20
-1187.450924127721
 30
0.0
 40
6.0
  1
クローム
 72
     1
 11
675.28768516632681
 21
-1187.450924127721
 31
0.0
  0
TEXT
  5
102A4
  8
1TEXT
 10
757.88768516632683
 20
-1177.3056170732191
 30
0.0
 40
6.0
  1
2-P8C-C4-LP
 41
0.7
 72
     1
 11
780.28768516632681
 21
-1177.3056170732191
 31
0.0
  0
TEXT
  5
102A5
  8
1TEXT
 10
758.58768516632665
 20
-1187.8056170732191
 30
0.0
 40
6.0
  1
2-P8C-C1-LP
 41
0.7
 72
     1
 11
780.28768516632681
 21
-1187.8056170732191
 31
0.0
  0
TEXT
  5
102A6
  8
1TEXT
 10
757.88768516632683
 20
-1198.3056170732191
 30
0.0
 40
6.0
  1
2-P8C-C3-LP
 41
0.7
 72
     1
 11
780.28768516632681
 21
-1198.3056170732191
 31
0.0
  0
TEXT
  5
102A7
  8
1TEXT
 10
714.38768516633002
 20
-1177.3056170732179
 30
0.0
 40
6.0
  1
ホワイト
 72
     1
 11
727.78768516632988
 21
-1177.3056170732179
 31
0.0
  0
TEXT
  5
102A8
  8
1TEXT
 10
703.38768516633002
 20
-1187.8056170732179
 30
0.0
 40
6.0
  1
ライトブラウン
 72
     1
 11
727.78768516632988
 21
-1187.8056170732179
 31
0.0
  0
TEXT
  5
102A9
  8
1TEXT
 10
703.18768516632986
 20
-1198.3056170732179
 30
0.0
 40
6.0
  1
ダークブラウン
 72
     1
 11
727.78768516632988
 21
-1198.3056170732179
 31
0.0
  0
CIRCLE
  5
10354
  8
01
 10
798.18766916632489
 20
-1413.2340815977441
 30
0.0
 40
3.0
  0
CIRCLE
  5
10357
  8
01
 10
873.18766916632433
 20
-1413.2340815977441
 30
0.0
 40
3.0
  0
LINE
  5
10358
  8
1DIM
 10
1059.1876651663249
 20
-1159.7340815987729
 30
0.0
 11
1128.9876838663249
 21
-1159.7340815987729
 31
0.0
  0
LINE
  5
10359
  8
1DIM
 10
1076.8177473772139
 20
-1233.6255422726981
 30
0.0
 11
1128.9876838663249
 21
-1233.6255422726981
 31
0.0
  0
LINE
  5
1035A
  8
1DIM
 10
1127.687683866325
 20
-1162.3340815987719
 30
0.0
 11
1127.687683866325
 21
-1231.025542272698
 31
0.0
  0
LINE
  5
1035E
  8
1DIM
 10
1059.1876651663249
 20
-1159.7340815987729
 30
0.0
 11
1118.9876838663249
 21
-1159.7340815987729
 31
0.0
  0
LINE
  5
1035F
  8
1DIM
 10
1087.937683866325
 20
-1219.9440765987731
 30
0.0
 11
1118.9876838663249
 21
-1219.9440765987731
 31
0.0
  0
LINE
  5
10360
  8
1DIM
 10
1117.687683866325
 20
-1162.3340815987719
 30
0.0
 11
1117.687683866325
 21
-1217.344076598773
 31
0.0
  0
LINE
  5
10364
  8
1DIM
 10
1059.1876651663249
 20
-1159.7340815987729
 30
0.0
 11
1108.9876838663249
 21
-1159.7340815987729
 31
0.0
  0
LINE
  5
10365
  8
1DIM
 10
1097.0914586243459
 20
-1187.6045468666659
 30
0.0
 11
1108.9876838663249
 21
-1187.6045468666659
 31
0.0
  0
LINE
  5
10366
  8
1DIM
 10
1107.687683866325
 20
-1162.3340815987719
 30
0.0
 11
1107.687683866325
 21
-1185.004546866666
 31
0.0
  0
LINE
  5
1036A
  8
1DIM
 10
1004.18778150607
 20
-1180.234081598772
 30
0.0
 11
1004.18778150607
 21
-1251.7440725987731
 31
0.0
  0
LINE
  5
1036B
  8
1DIM
 10
1092.687683866325
 20
-1215.344070598773
 30
0.0
 11
1092.687683866325
 21
-1251.7440725987731
 31
0.0
  0
LINE
  5
1036C
  8
1DIM
 10
1006.78778150607
 20
-1250.4440725987729
 30
0.0
 11
1090.087683866326
 21
-1250.4440725987729
 31
0.0
  0
LINE
  5
10370
  8
1DIM
 10
984.18768016632464
 20
-1214.844070598773
 30
0.0
 11
984.18768016632464
 21
-1261.2440725987731
 31
0.0
  0
LINE
  5
10371
  8
1DIM
 10
1092.687683866325
 20
-1214.844070598773
 30
0.0
 11
1092.687683866325
 21
-1261.2440725987731
 31
0.0
  0
LINE
  5
10372
  8
1DIM
 10
986.78768016632455
 20
-1259.9440725987729
 30
0.0
 11
1090.087683866326
 21
-1259.9440725987729
 31
0.0
  0
TEXT
  5
10376
  8
1DIM
 10
1007.5494426592981
 20
-1458.4712859154779
 30
0.0
 40
3.5
  1
材質：亜鉛ダイキャスト
  0
SOLID
  5
10377
  8
1DIM
 10
990.73148130122217
 20
-1439.1373022184359
 30
0.0
 11
989.87680664511754
 21
-1437.298649901297
 31
0.0
 12
991.28160234158645
 22
-1438.7607238263411
 32
0.0
 13
991.28160234158645
 23
-1438.7607238263411
 33
0.0
1001
ACAD
1000
DSTYLE
1002
{
1070
    79
1070
     2
1070
   179
1070
     2
1070
   272
1070
     2
1070
   341
1005
0
1002
}
  0
TEXT
  5
10379
  8
1DIM
 10
1081.685972026743
 20
-1377.3281307043769
 30
0.0
 40
3.5
  1
材質：天然木
  0
SOLID
  5
1037A
  8
1DIM
 10
1065.5863888016861
 20
-1393.7214637701759
 30
0.0
 11
1064.0133360125619
 21
-1395.000766718558
 31
0.0
 12
1065.0864498568531
 22
-1393.28043599794
 32
0.0
 13
1065.0864498568531
 23
-1393.28043599794
 33
0.0
1001
ACAD
1000
DSTYLE
1002
{
1070
    79
1070
     2
1070
   179
1070
     2
1070
   272
1070
     2
1070
   341
1005
0
1002
}
  0
LINE
  5
1037C
  8
1DIM
 10
1091.187683866325
 20
-1385.2340813977451
 30
0.0
 11
1108.9876838663249
 21
-1385.2340813977451
 31
0.0
  0
LINE
  5
1037D
  8
1DIM
 10
1091.187683866325
 20
-1441.2340813977451
 30
0.0
 11
1108.9876838663249
 21
-1441.2340813977451
 31
0.0
  0
LINE
  5
1037E
  8
1DIM
 10
1107.687683866325
 20
-1387.834081397745
 30
0.0
 11
1107.687683866325
 21
-1438.6340813977449
 31
0.0
  0
LINE
  5
10382
  8
1DIM
 10
1004.187665166325
 20
-1439.7340815975881
 30
0.0
 11
967.88766516632518
 21
-1439.7340815975881
 31
0.0
  0
LINE
  5
10383
  8
1DIM
 10
1004.187665166325
 20
-1386.734081597901
 30
0.0
 11
967.88766516632518
 21
-1386.734081597901
 31
0.0
  0
LINE
  5
10384
  8
1DIM
 10
969.18766516632513
 20
-1437.1340815975871
 30
0.0
 11
969.18766516632513
 21
-1389.3340815979011
 31
0.0
  0
LINE
  5
10388
  8
1DIM
 10
1022.187665166325
 20
-1355.2340815977441
 30
0.0
 11
1022.187665166325
 21
-1295.9340815977439
 31
0.0
  0
LINE
  5
10389
  8
1DIM
 10
953.18766516632547
 20
-1327.2340815977441
 30
0.0
 11
953.18766516632547
 21
-1295.9340815977439
 31
0.0
  0
LINE
  5
1038A
  8
1DIM
 10
1019.587665166325
 20
-1297.2340815977441
 30
0.0
 11
955.78766516632561
 21
-1297.2340815977441
 31
0.0
  0
LINE
  5
1038E
  8
1DIM
 10
1022.187665166326
 20
-1355.2340815977441
 30
0.0
 11
1050.4876651663251
 21
-1355.2340815977441
 31
0.0
  0
LINE
  5
1038F
  8
1DIM
 10
1022.187665166326
 20
-1429.2340815977441
 30
0.0
 11
1050.4876651663251
 21
-1429.2340815977441
 31
0.0
  0
LINE
  5
10390
  8
1DIM
 10
1049.1876651663249
 20
-1357.834081597744
 30
0.0
 11
1049.1876651663249
 21
-1426.6340815977439
 31
0.0
  0
LINE
  5
10394
  8
1DIM
 10
842.18766916632478
 20
-1327.2340815977441
 30
0.0
 11
891.49126020288145
 21
-1327.2340815977441
 31
0.0
  0
LINE
  5
10395
  8
1DIM
 10
842.18766916632478
 20
-1457.2340815977441
 30
0.0
 11
891.49126020288145
 21
-1457.2340815977441
 31
0.0
  0
LINE
  5
10396
  8
1DIM
 10
890.19126020288149
 20
-1329.834081597744
 30
0.0
 11
890.19126020288149
 21
-1454.6340815977439
 31
0.0
  0
LINE
  5
1039A
  8
1DIM
 10
842.18766916632478
 20
-1335.2340815977441
 30
0.0
 11
881.49126020288134
 21
-1335.2340815977441
 31
0.0
  0
LINE
  5
1039B
  8
1DIM
 10
842.18766916632478
 20
-1449.2340815977441
 30
0.0
 11
881.49126020288134
 21
-1449.2340815977441
 31
0.0
  0
LINE
  5
1039C
  8
1DIM
 10
880.19126020288149
 20
-1337.834081597744
 30
0.0
 11
880.19126020288149
 21
-1446.6340815977439
 31
0.0
  0
LINE
  5
103A0
  8
1DIM
 10
637.18767316632443
 20
-1413.2340815977441
 30
0.0
 11
622.88768516632467
 21
-1413.2340815977441
 31
0.0
  0
LINE
  5
103A1
  8
1DIM
 10
644.68766516632365
 20
-1357.7340815977441
 30
0.0
 11
622.88768516632467
 21
-1357.7340815977441
 31
0.0
  0
LINE
  5
103A2
  8
1DIM
 10
624.18768516632463
 20
-1410.6340815977439
 30
0.0
 11
624.18768516632463
 21
-1360.334081597744
 31
0.0
  0
LINE
  5
103A6
  8
1DIM
 10
637.18767316632443
 20
-1413.2340815977441
 30
0.0
 11
632.88768516632456
 21
-1413.2340815977441
 31
0.0
  0
LINE
  5
103A7
  8
1DIM
 10
654.18766516632365
 20
-1363.2340815977441
 30
0.0
 11
632.88768516632456
 21
-1363.2340815977441
 31
0.0
  0
LINE
  5
103A8
  8
1DIM
 10
634.18768516632463
 20
-1410.6340815977439
 30
0.0
 11
634.18768516632463
 21
-1365.834081597744
 31
0.0
  0
LINE
  5
103AC
  8
1DIM
 10
647.38766616632347
 20
-1357.7340815977441
 30
0.0
 11
647.38766616632347
 21
-1328.9340815977439
 31
0.0
  0
LINE
  5
103AD
  8
1DIM
 10
686.9876641663235
 20
-1357.7340815977441
 30
0.0
 11
686.9876641663235
 21
-1328.9340815977439
 31
0.0
  0
LINE
  5
103AE
  8
1DIM
 10
649.98766616632338
 20
-1330.2340815977441
 30
0.0
 11
684.38766416632359
 21
-1330.2340815977441
 31
0.0
  0
LINE
  5
103B2
  8
1DIM
 10
984.38766616632529
 20
-1357.7340815977441
 30
0.0
 11
984.38766616632529
 21
-1328.9340815977439
 31
0.0
  0
LINE
  5
103B3
  8
1DIM
 10
1023.987664166325
 20
-1357.7340815977441
 30
0.0
 11
1023.987664166325
 21
-1328.9340815977439
 31
0.0
  0
LINE
  5
103B4
  8
1DIM
 10
986.98766616632531
 20
-1330.2340815977441
 30
0.0
 11
1021.387664166325
 21
-1330.2340815977441
 31
0.0
  0
LINE
  5
103B8
  8
1DIM
 10
793.68728360059799
 20
-1353.0340855977361
 30
0.0
 11
793.68728360059799
 21
-1305.9340815977439
 31
0.0
  0
LINE
  5
103B9
  8
1DIM
 10
815.68766916632478
 20
-1320.7367015977441
 30
0.0
 11
815.68766916632478
 21
-1305.9340815977439
 31
0.0
  0
LINE
  5
103BA
  8
1DIM
 10
796.2872836005979
 20
-1307.2340815977441
 30
0.0
 11
813.08766916632476
 21
-1307.2340815977441
 31
0.0
  0
LINE
  5
103BE
  8
1DIM
 10
855.68766916632478
 20
-1320.7367015977429
 30
0.0
 11
855.68766916632478
 21
-1305.9340815977439
 31
0.0
  0
LINE
  5
103BF
  8
1DIM
 10
863.68743917632901
 20
-1361.734076276806
 30
0.0
 11
863.68743917632901
 21
-1305.9340815977439
 31
0.0
  0
LINE
  5
103C0
  8
1DIM
 10
858.28766916632492
 20
-1307.2340815977441
 30
0.0
 11
861.0874391763291
 21
-1307.2340815977441
 31
0.0
  0
LINE
  5
103C4
  8
1DIM
 10
1023.188549348385
 20
-1130.2340815987729
 30
0.0
 11
1050.4876651663251
 21
-1130.2340815987729
 31
0.0
  0
LINE
  5
103C5
  8
1DIM
 10
1023.188549348385
 20
-1149.234081598772
 30
0.0
 11
1050.4876651663251
 21
-1149.234081598772
 31
0.0
  0
LINE
  5
103C6
  8
1DIM
 10
1049.1876651663249
 20
-1132.8340815987719
 30
0.0
 11
1049.1876651663249
 21
-1146.634081598773
 31
0.0
  0
LINE
  5
103CA
  8
1DIM
 10
953.18766516632525
 20
-1327.2340815977441
 30
0.0
 11
953.18766516632525
 21
-1305.9340815977439
 31
0.0
  0
LINE
  5
103CB
  8
1DIM
 10
1004.187673166326
 20
-1335.2340815977441
 30
0.0
 11
1004.187673166326
 21
-1305.9340815977439
 31
0.0
  0
LINE
  5
103CC
  8
1DIM
 10
955.78766516632527
 20
-1307.2340815977441
 30
0.0
 11
1001.587673166326
 21
-1307.2340815977441
 31
0.0
  0
LINE
  5
103D0
  8
1DIM
 10
942.18766516632536
 20
-1385.2340822958749
 30
0.0
 11
942.18766516632536
 21
-1305.9340815977439
 31
0.0
  0
LINE
  5
103D1
  8
1DIM
 10
953.18766516632525
 20
-1327.2340815977441
 30
0.0
 11
953.18766516632525
 21
-1305.9340815977439
 31
0.0
  0
LINE
  5
103D2
  8
1DIM
 10
944.78766516632527
 20
-1307.2340815977441
 30
0.0
 11
950.58766516632534
 21
-1307.2340815977441
 31
0.0
  0
LINE
  5
103D6
  8
1DIM
 10
823.18766916632489
 20
-1333.2340815977441
 30
0.0
 11
823.18766916632489
 21
-1305.9340815977439
 31
0.0
  0
LINE
  5
103D7
  8
1DIM
 10
848.18766916632489
 20
-1333.2340815977441
 30
0.0
 11
848.18766916632489
 21
-1305.9340815977439
 31
0.0
  0
LINE
  5
103D8
  8
1DIM
 10
825.7876691663248
 20
-1307.2340815977441
 30
0.0
 11
845.58766916632487
 21
-1307.2340815977441
 31
0.0
  0
TEXT
  5
103DC
  8
1DIM
 10
831.89600249965827
 20
-1306.324081597744
 30
0.0
 40
4.5499999999999989
  1
25
  0
LINE
  5
103DD
  8
0
  6
BYBLOCK
 10
845.58766916632487
 20
-1306.5374137037441
 30
0.0
 11
848.18766916632489
 21
-1307.2340815977441
 31
0.0
  0
LINE
  5
103DE
  8
0
  6
BYBLOCK
 10
848.18766916632489
 20
-1307.2340815977441
 30
0.0
 11
845.58766916632487
 21
-1307.9307494917441
 31
0.0
  0
LINE
  5
103DF
  8
0
  6
BYBLOCK
 10
848.18766916632489
 20
-1307.2340815977441
 30
0.0
 11
845.58766916632487
 21
-1307.2340815977441
 31
0.0
  0
LINE
  5
103E0
  8
0
  6
BYBLOCK
 10
825.7876691663248
 20
-1307.9307494917441
 30
0.0
 11
823.18766916632489
 21
-1307.2340815977441
 31
0.0
  0
LINE
  5
103E1
  8
0
  6
BYBLOCK
 10
823.18766916632489
 20
-1307.2340815977441
 30
0.0
 11
825.7876691663248
 21
-1306.5374137037441
 31
0.0
  0
LINE
  5
103E2
  8
0
  6
BYBLOCK
 10
823.18766916632489
 20
-1307.2340815977441
 30
0.0
 11
825.7876691663248
 21
-1307.2340815977441
 31
0.0
  0
TEXT
  5
103E3
  8
1DIM
 10
945.41266516632527
 20
-1306.324081597744
 30
0.0
 40
4.5499999999999989
  1
11
  0
LINE
  5
103E4
  8
0
  6
BYBLOCK
 10
950.58766516632534
 20
-1306.5374137037441
 30
0.0
 11
953.18766516632525
 21
-1307.2340815977441
 31
0.0
  0
LINE
  5
103E5
  8
0
  6
BYBLOCK
 10
953.18766516632525
 20
-1307.2340815977441
 30
0.0
 11
950.58766516632534
 21
-1307.9307494917441
 31
0.0
  0
LINE
  5
103E6
  8
0
  6
BYBLOCK
 10
953.18766516632525
 20
-1307.2340815977441
 30
0.0
 11
950.58766516632534
 21
-1307.2340815977441
 31
0.0
  0
LINE
  5
103E7
  8
0
  6
BYBLOCK
 10
944.78766516632527
 20
-1307.9307494917441
 30
0.0
 11
942.18766516632536
 21
-1307.2340815977441
 31
0.0
  0
LINE
  5
103E8
  8
0
  6
BYBLOCK
 10
942.18766516632536
 20
-1307.2340815977441
 30
0.0
 11
944.78766516632527
 21
-1306.5374137037441
 31
0.0
  0
LINE
  5
103E9
  8
0
  6
BYBLOCK
 10
942.18766516632536
 20
-1307.2340815977441
 30
0.0
 11
944.78766516632527
 21
-1307.2340815977441
 31
0.0
  0
TEXT
  5
103EA
  8
1DIM
 10
975.65433583299239
 20
-1306.324081597744
 30
0.0
 40
4.5499999999999989
  1
51
  0
LINE
  5
103EB
  8
0
  6
BYBLOCK
 10
1001.587673166326
 20
-1306.5374137037441
 30
0.0
 11
1004.187673166326
 21
-1307.2340815977441
 31
0.0
  0
LINE
  5
103EC
  8
0
  6
BYBLOCK
 10
1004.187673166326
 20
-1307.2340815977441
 30
0.0
 11
1001.587673166326
 21
-1307.9307494917441
 31
0.0
  0
LINE
  5
103ED
  8
0
  6
BYBLOCK
 10
1004.187673166326
 20
-1307.2340815977441
 30
0.0
 11
1001.587673166326
 21
-1307.2340815977441
 31
0.0
  0
LINE
  5
103EE
  8
0
  6
BYBLOCK
 10
955.78766516632527
 20
-1307.9307494917441
 30
0.0
 11
953.18766516632525
 21
-1307.2340815977441
 31
0.0
  0
LINE
  5
103EF
  8
0
  6
BYBLOCK
 10
953.18766516632525
 20
-1307.2340815977441
 30
0.0
 11
955.78766516632527
 21
-1306.5374137037441
 31
0.0
  0
LINE
  5
103F0
  8
0
  6
BYBLOCK
 10
953.18766516632525
 20
-1307.2340815977441
 30
0.0
 11
955.78766516632527
 21
-1307.2340815977441
 31
0.0
  0
TEXT
  5
103F1
  8
1DIM
 10
1048.2776651663251
 20
-1142.767414932106
 30
0.0
 40
4.5499999999999989
  1
19
 50
90.0
  0
LINE
  5
103F2
  8
0
  6
BYBLOCK
 10
1049.8843330603249
 20
-1146.634081598773
 30
0.0
 11
1049.1876651663249
 21
-1149.234081598772
 31
0.0
  0
LINE
  5
103F3
  8
0
  6
BYBLOCK
 10
1049.1876651663249
 20
-1149.234081598772
 30
0.0
 11
1048.4909972723251
 21
-1146.634081598773
 31
0.0
  0
LINE
  5
103F4
  8
0
  6
BYBLOCK
 10
1049.1876651663249
 20
-1149.234081598772
 30
0.0
 11
1049.1876651663249
 21
-1146.634081598773
 31
0.0
  0
LINE
  5
103F5
  8
0
  6
BYBLOCK
 10
1048.4909972723251
 20
-1132.8340815987719
 30
0.0
 11
1049.1876651663249
 21
-1130.2340815987729
 31
0.0
  0
LINE
  5
103F6
  8
0
  6
BYBLOCK
 10
1049.1876651663249
 20
-1130.2340815987729
 30
0.0
 11
1049.8843330603249
 21
-1132.8340815987719
 31
0.0
  0
LINE
  5
103F7
  8
0
  6
BYBLOCK
 10
1049.1876651663249
 20
-1130.2340815987729
 30
0.0
 11
1049.1876651663249
 21
-1132.8340815987719
 31
0.0
  0
TEXT
  5
103F8
  8
1DIM
 10
858.17088750466041
 20
-1306.324081597744
 30
0.0
 40
4.5499999999999989
  1
8
  0
LINE
  5
103F9
  8
0
  6
BYBLOCK
 10
861.0874391763291
 20
-1306.5374137037441
 30
0.0
 11
863.68743917632901
 21
-1307.2340815977441
 31
0.0
  0
LINE
  5
103FA
  8
0
  6
BYBLOCK
 10
863.68743917632901
 20
-1307.2340815977441
 30
0.0
 11
861.0874391763291
 21
-1307.9307494917441
 31
0.0
  0
LINE
  5
103FB
  8
0
  6
BYBLOCK
 10
863.68743917632901
 20
-1307.2340815977441
 30
0.0
 11
861.0874391763291
 21
-1307.2340815977441
 31
0.0
  0
LINE
  5
103FC
  8
0
  6
BYBLOCK
 10
858.28766916632492
 20
-1307.9307494917441
 30
0.0
 11
855.68766916632478
 21
-1307.2340815977441
 31
0.0
  0
LINE
  5
103FD
  8
0
  6
BYBLOCK
 10
855.68766916632478
 20
-1307.2340815977441
 30
0.0
 11
858.28766916632492
 21
-1306.5374137037441
 31
0.0
  0
LINE
  5
103FE
  8
0
  6
BYBLOCK
 10
855.68766916632478
 20
-1307.2340815977441
 30
0.0
 11
858.28766916632492
 21
-1307.2340815977441
 31
0.0
  0
TEXT
  5
103FF
  8
1DIM
 10
800.89580971679482
 20
-1306.324081597744
 30
0.0
 40
4.5499999999999989
  1
22
  0
LINE
  5
10400
  8
0
  6
BYBLOCK
 10
813.08766916632476
 20
-1306.5374137037441
 30
0.0
 11
815.68766916632478
 21
-1307.2340815977441
 31
0.0
  0
LINE
  5
10401
  8
0
  6
BYBLOCK
 10
815.68766916632478
 20
-1307.2340815977441
 30
0.0
 11
813.08766916632476
 21
-1307.9307494917441
 31
0.0
  0
LINE
  5
10402
  8
0
  6
BYBLOCK
 10
815.68766916632478
 20
-1307.2340815977441
 30
0.0
 11
813.08766916632476
 21
-1307.2340815977441
 31
0.0
  0
LINE
  5
10403
  8
0
  6
BYBLOCK
 10
796.2872836005979
 20
-1307.9307494917441
 30
0.0
 11
793.68728360059799
 21
-1307.2340815977441
 31
0.0
  0
LINE
  5
10404
  8
0
  6
BYBLOCK
 10
793.68728360059799
 20
-1307.2340815977441
 30
0.0
 11
796.2872836005979
 21
-1306.5374137037441
 31
0.0
  0
LINE
  5
10405
  8
0
  6
BYBLOCK
 10
793.68728360059799
 20
-1307.2340815977441
 30
0.0
 11
796.2872836005979
 21
-1307.2340815977441
 31
0.0
  0
TEXT
  5
10406
  8
1DIM
 10
997.59016516632528
 20
-1329.324081597744
 30
0.0
 40
4.5499999999999989
  1
\U+03C640
  0
LINE
  5
10407
  8
0
  6
BYBLOCK
 10
1021.387664166325
 20
-1329.5374137037441
 30
0.0
 11
1023.987664166325
 21
-1330.2340815977441
 31
0.0
  0
LINE
  5
10408
  8
0
  6
BYBLOCK
 10
1023.987664166325
 20
-1330.2340815977441
 30
0.0
 11
1021.387664166325
 21
-1330.9307494917441
 31
0.0
  0
LINE
  5
10409
  8
0
  6
BYBLOCK
 10
1023.987664166325
 20
-1330.2340815977441
 30
0.0
 11
1021.387664166325
 21
-1330.2340815977441
 31
0.0
  0
LINE
  5
1040A
  8
0
  6
BYBLOCK
 10
986.98766616632531
 20
-1330.9307494917441
 30
0.0
 11
984.38766616632529
 21
-1330.2340815977441
 31
0.0
  0
LINE
  5
1040B
  8
0
  6
BYBLOCK
 10
984.38766616632529
 20
-1330.2340815977441
 30
0.0
 11
986.98766616632531
 21
-1329.5374137037441
 31
0.0
  0
LINE
  5
1040C
  8
0
  6
BYBLOCK
 10
984.38766616632529
 20
-1330.2340815977441
 30
0.0
 11
986.98766616632531
 21
-1330.2340815977441
 31
0.0
  0
TEXT
  5
1040D
  8
1DIM
 10
660.59016516632346
 20
-1329.324081597744
 30
0.0
 40
4.5499999999999989
  1
\U+03C640
  0
LINE
  5
1040E
  8
0
  6
BYBLOCK
 10
684.38766416632359
 20
-1329.5374137037441
 30
0.0
 11
686.9876641663235
 21
-1330.2340815977441
 31
0.0
  0
LINE
  5
1040F
  8
0
  6
BYBLOCK
 10
686.9876641663235
 20
-1330.2340815977441
 30
0.0
 11
684.38766416632359
 21
-1330.9307494917441
 31
0.0
  0
LINE
  5
10410
  8
0
  6
BYBLOCK
 10
686.9876641663235
 20
-1330.2340815977441
 30
0.0
 11
684.38766416632359
 21
-1330.2340815977441
 31
0.0
  0
LINE
  5
10411
  8
0
  6
BYBLOCK
 10
649.98766616632338
 20
-1330.9307494917441
 30
0.0
 11
647.38766616632347
 21
-1330.2340815977441
 31
0.0
  0
LINE
  5
10412
  8
0
  6
BYBLOCK
 10
647.38766616632347
 20
-1330.2340815977441
 30
0.0
 11
649.98766616632338
 21
-1329.5374137037441
 31
0.0
  0
LINE
  5
10413
  8
0
  6
BYBLOCK
 10
647.38766616632347
 20
-1330.2340815977441
 30
0.0
 11
649.98766616632338
 21
-1330.2340815977441
 31
0.0
  0
TEXT
  5
10414
  8
1DIM
 10
633.27768516632489
 20
-1379.7599997756381
 30
0.0
 40
4.5499999999999989
  1
50
 50
90.0
  0
LINE
  5
10415
  8
0
  6
BYBLOCK
 10
633.4910172723246
 20
-1365.834081597744
 30
0.0
 11
634.18768516632463
 21
-1363.2340815977441
 31
0.0
  0
LINE
  5
10416
  8
0
  6
BYBLOCK
 10
634.18768516632463
 20
-1363.2340815977441
 30
0.0
 11
634.88435306032466
 21
-1365.834081597744
 31
0.0
  0
LINE
  5
10417
  8
0
  6
BYBLOCK
 10
634.18768516632463
 20
-1363.2340815977441
 30
0.0
 11
634.18768516632463
 21
-1365.834081597744
 31
0.0
  0
LINE
  5
10418
  8
0
  6
BYBLOCK
 10
634.88435306032466
 20
-1410.6340815977439
 30
0.0
 11
634.18768516632463
 21
-1413.2340815977441
 31
0.0
  0
LINE
  5
10419
  8
0
  6
BYBLOCK
 10
634.18768516632463
 20
-1413.2340815977441
 30
0.0
 11
633.4910172723246
 21
-1410.6340815977439
 31
0.0
  0
LINE
  5
1041A
  8
0
  6
BYBLOCK
 10
634.18768516632463
 20
-1413.2340815977441
 30
0.0
 11
634.18768516632463
 21
-1410.6340815977439
 31
0.0
  0
TEXT
  5
1041B
  8
1DIM
 10
623.27768516632477
 20
-1380.422499775638
 30
0.0
 40
4.5499999999999989
  1
55.5
 50
90.0
  0
LINE
  5
1041C
  8
0
  6
BYBLOCK
 10
623.4910172723246
 20
-1360.334081597744
 30
0.0
 11
624.18768516632463
 21
-1357.7340815977441
 31
0.0
  0
LINE
  5
1041D
  8
0
  6
BYBLOCK
 10
624.18768516632463
 20
-1357.7340815977441
 30
0.0
 11
624.88435306032466
 21
-1360.334081597744
 31
0.0
  0
LINE
  5
1041E
  8
0
  6
BYBLOCK
 10
624.18768516632463
 20
-1357.7340815977441
 30
0.0
 11
624.18768516632463
 21
-1360.334081597744
 31
0.0
  0
LINE
  5
1041F
  8
0
  6
BYBLOCK
 10
624.88435306032466
 20
-1410.6340815977439
 30
0.0
 11
624.18768516632463
 21
-1413.2340815977441
 31
0.0
  0
LINE
  5
10420
  8
0
  6
BYBLOCK
 10
624.18768516632463
 20
-1413.2340815977441
 30
0.0
 11
623.4910172723246
 21
-1410.6340815977439
 31
0.0
  0
LINE
  5
10421
  8
0
  6
BYBLOCK
 10
624.18768516632463
 20
-1413.2340815977441
 30
0.0
 11
624.18768516632463
 21
-1410.6340815977439
 31
0.0
  0
TEXT
  5
10422
  8
1DIM
 10
879.28126020288175
 20
-1378.9703609174289
 30
0.0
 40
4.5499999999999989
  1
114
 50
90.0
  0
LINE
  5
10423
  8
0
  6
BYBLOCK
 10
880.88792809688152
 20
-1446.6340815977439
 30
0.0
 11
880.19126020288149
 21
-1449.2340815977441
 31
0.0
  0
LINE
  5
10424
  8
0
  6
BYBLOCK
 10
880.19126020288149
 20
-1449.2340815977441
 30
0.0
 11
879.49459230888135
 21
-1446.6340815977439
 31
0.0
  0
LINE
  5
10425
  8
0
  6
BYBLOCK
 10
880.19126020288149
 20
-1449.2340815977441
 30
0.0
 11
880.19126020288149
 21
-1446.6340815977439
 31
0.0
  0
LINE
  5
10426
  8
0
  6
BYBLOCK
 10
879.49459230888135
 20
-1337.834081597744
 30
0.0
 11
880.19126020288149
 21
-1335.2340815977441
 31
0.0
  0
LINE
  5
10427
  8
0
  6
BYBLOCK
 10
880.19126020288149
 20
-1335.2340815977441
 30
0.0
 11
880.88792809688152
 21
-1337.834081597744
 31
0.0
  0
LINE
  5
10428
  8
0
  6
BYBLOCK
 10
880.19126020288149
 20
-1335.2340815977441
 30
0.0
 11
880.19126020288149
 21
-1337.834081597744
 31
0.0
  0
TEXT
  5
10429
  8
1DIM
 10
889.28126020288175
 20
-1379.349527584096
 30
0.0
 40
4.5499999999999989
  1
130
 50
90.0
  0
LINE
  5
1042A
  8
0
  6
BYBLOCK
 10
890.88792809688152
 20
-1454.6340815977439
 30
0.0
 11
890.19126020288149
 21
-1457.2340815977441
 31
0.0
  0
LINE
  5
1042B
  8
0
  6
BYBLOCK
 10
890.19126020288149
 20
-1457.2340815977441
 30
0.0
 11
889.49459230888135
 21
-1454.6340815977439
 31
0.0
  0
LINE
  5
1042C
  8
0
  6
BYBLOCK
 10
890.19126020288149
 20
-1457.2340815977441
 30
0.0
 11
890.19126020288149
 21
-1454.6340815977439
 31
0.0
  0
LINE
  5
1042D
  8
0
  6
BYBLOCK
 10
889.49459230888135
 20
-1329.834081597744
 30
0.0
 11
890.19126020288149
 21
-1327.2340815977441
 31
0.0
  0
LINE
  5
1042E
  8
0
  6
BYBLOCK
 10
890.19126020288149
 20
-1327.2340815977441
 30
0.0
 11
890.88792809688152
 21
-1329.834081597744
 31
0.0
  0
LINE
  5
1042F
  8
0
  6
BYBLOCK
 10
890.19126020288149
 20
-1327.2340815977441
 30
0.0
 11
890.19126020288149
 21
-1329.834081597744
 31
0.0
  0
TEXT
  5
10430
  8
1DIM
 10
1048.2776651663251
 20
-1379.139166442304
 30
0.0
 40
4.5499999999999989
  1
74
 50
90.0
  0
LINE
  5
10431
  8
0
  6
BYBLOCK
 10
1049.8843330603249
 20
-1426.6340815977439
 30
0.0
 11
1049.1876651663249
 21
-1429.2340815977441
 31
0.0
  0
LINE
  5
10432
  8
0
  6
BYBLOCK
 10
1049.1876651663249
 20
-1429.2340815977441
 30
0.0
 11
1048.4909972723251
 21
-1426.6340815977439
 31
0.0
  0
LINE
  5
10433
  8
0
  6
BYBLOCK
 10
1049.1876651663249
 20
-1429.2340815977441
 30
0.0
 11
1049.1876651663249
 21
-1426.6340815977439
 31
0.0
  0
LINE
  5
10434
  8
0
  6
BYBLOCK
 10
1048.4909972723251
 20
-1357.834081597744
 30
0.0
 11
1049.1876651663249
 21
-1355.2340815977441
 31
0.0
  0
LINE
  5
10435
  8
0
  6
BYBLOCK
 10
1049.1876651663249
 20
-1355.2340815977441
 30
0.0
 11
1049.8843330603249
 21
-1357.834081597744
 31
0.0
  0
LINE
  5
10436
  8
0
  6
BYBLOCK
 10
1049.1876651663249
 20
-1355.2340815977441
 30
0.0
 11
1049.1876651663249
 21
-1357.834081597744
 31
0.0
  0
TEXT
  5
10437
  8
1DIM
 10
983.89599849965896
 20
-1296.324081597744
 30
0.0
 40
4.5499999999999989
  1
69
  0
LINE
  5
10438
  8
0
  6
BYBLOCK
 10
955.78766516632561
 20
-1297.9307494917441
 30
0.0
 11
953.18766516632547
 21
-1297.2340815977441
 31
0.0
  0
LINE
  5
10439
  8
0
  6
BYBLOCK
 10
953.18766516632547
 20
-1297.2340815977441
 30
0.0
 11
955.78766516632561
 21
-1296.5374137037441
 31
0.0
  0
LINE
  5
1043A
  8
0
  6
BYBLOCK
 10
953.18766516632547
 20
-1297.2340815977441
 30
0.0
 11
955.78766516632561
 21
-1297.2340815977441
 31
0.0
  0
LINE
  5
1043B
  8
0
  6
BYBLOCK
 10
1019.587665166325
 20
-1296.5374137037441
 30
0.0
 11
1022.187665166325
 21
-1297.2340815977441
 31
0.0
  0
LINE
  5
1043C
  8
0
  6
BYBLOCK
 10
1022.187665166325
 20
-1297.2340815977441
 30
0.0
 11
1019.587665166325
 21
-1297.9307494917441
 31
0.0
  0
LINE
  5
1043D
  8
0
  6
BYBLOCK
 10
1022.187665166325
 20
-1297.2340815977441
 30
0.0
 11
1019.587665166325
 21
-1297.2340815977441
 31
0.0
  0
TEXT
  5
1043E
  8
1DIM
 10
968.27766516632528
 20
-1420.210748264411
 30
0.0
 40
4.5499999999999989
  1
\U+03C653
 50
90.0
  0
LINE
  5
1043F
  8
0
  6
BYBLOCK
 10
968.49099727232499
 20
-1389.3340815979011
 30
0.0
 11
969.18766516632513
 21
-1386.734081597901
 31
0.0
  0
LINE
  5
10440
  8
0
  6
BYBLOCK
 10
969.18766516632513
 20
-1386.734081597901
 30
0.0
 11
969.88433306032505
 21
-1389.3340815979011
 31
0.0
  0
LINE
  5
10441
  8
0
  6
BYBLOCK
 10
969.18766516632513
 20
-1386.734081597901
 30
0.0
 11
969.18766516632513
 21
-1389.3340815979011
 31
0.0
  0
LINE
  5
10442
  8
0
  6
BYBLOCK
 10
969.88433306032505
 20
-1437.1340815975871
 30
0.0
 11
969.18766516632513
 21
-1439.7340815975881
 31
0.0
  0
LINE
  5
10443
  8
0
  6
BYBLOCK
 10
969.18766516632513
 20
-1439.7340815975881
 30
0.0
 11
968.49099727232499
 21
-1437.1340815975871
 31
0.0
  0
LINE
  5
10444
  8
0
  6
BYBLOCK
 10
969.18766516632513
 20
-1439.7340815975881
 30
0.0
 11
969.18766516632513
 21
-1437.1340815975871
 31
0.0
  0
TEXT
  5
10445
  8
1DIM
 10
1106.7776838663251
 20
-1417.025748264411
 30
0.0
 40
4.5499999999999989
  1
56
 50
90.0
  0
LINE
  5
10446
  8
0
  6
BYBLOCK
 10
1108.384351760325
 20
-1438.6340813977449
 30
0.0
 11
1107.687683866325
 21
-1441.2340813977451
 31
0.0
  0
LINE
  5
10447
  8
0
  6
BYBLOCK
 10
1107.687683866325
 20
-1441.2340813977451
 30
0.0
 11
1106.9910159723249
 21
-1438.6340813977449
 31
0.0
  0
LINE
  5
10448
  8
0
  6
BYBLOCK
 10
1107.687683866325
 20
-1441.2340813977451
 30
0.0
 11
1107.687683866325
 21
-1438.6340813977449
 31
0.0
  0
LINE
  5
10449
  8
0
  6
BYBLOCK
 10
1106.9910159723249
 20
-1387.834081397745
 30
0.0
 11
1107.687683866325
 21
-1385.2340813977451
 31
0.0
  0
LINE
  5
1044A
  8
0
  6
BYBLOCK
 10
1107.687683866325
 20
-1385.2340813977451
 30
0.0
 11
1108.384351760325
 21
-1387.834081397745
 31
0.0
  0
LINE
  5
1044B
  8
0
  6
BYBLOCK
 10
1107.687683866325
 20
-1385.2340813977451
 30
0.0
 11
1107.687683866325
 21
-1387.834081397745
 31
0.0
  0
LINE
  5
1044C
  8
1DIM
 10
1065.3364193292689
 20
-1393.5009498840579
 30
0.0
 11
1078.985972026743
 21
-1378.028130704377
 31
0.0
1001
ACAD
1000
DSTYLE
1002
{
1070
    79
1070
     2
1070
   179
1070
     2
1070
   272
1070
     2
1070
   341
1005
0
1002
}
  0
LINE
  5
1044D
  8
1DIM
 10
1078.985972026743
 20
-1378.028130704377
 30
0.0
 11
1081.685972026743
 21
-1378.028130704377
 31
0.0
1001
ACAD
1000
DSTYLE
1002
{
1070
    79
1070
     2
1070
   179
1070
     2
1070
   272
1070
     2
1070
   341
1005
0
1002
}
  0
LINE
  5
1044E
  8
1DIM
 10
991.00654182140443
 20
-1438.949013022388
 30
0.0
 11
1004.849442659298
 21
-1459.1712859154779
 31
0.0
1001
ACAD
1000
DSTYLE
1002
{
1070
    79
1070
     2
1070
   179
1070
     2
1070
   272
1070
     2
1070
   341
1005
0
1002
}
  0
LINE
  5
1044F
  8
1DIM
 10
1004.849442659298
 20
-1459.1712859154779
 30
0.0
 11
1007.5494426592981
 21
-1459.1712859154779
 31
0.0
1001
ACAD
1000
DSTYLE
1002
{
1070
    79
1070
     2
1070
   179
1070
     2
1070
   272
1070
     2
1070
   341
1005
0
1002
}
  0
TEXT
  5
10450
  8
1DIM
 10
1030.4751820163251
 20
-1259.034072598773
 30
0.0
 40
4.5499999999999989
  1
108.5
  0
LINE
  5
10451
  8
0
  6
BYBLOCK
 10
1090.087683866326
 20
-1259.2474047047731
 30
0.0
 11
1092.687683866325
 21
-1259.9440725987729
 31
0.0
  0
LINE
  5
10452
  8
0
  6
BYBLOCK
 10
1092.687683866325
 20
-1259.9440725987729
 30
0.0
 11
1090.087683866326
 21
-1260.6407404927729
 31
0.0
  0
LINE
  5
10453
  8
0
  6
BYBLOCK
 10
1092.687683866325
 20
-1259.9440725987729
 30
0.0
 11
1090.087683866326
 21
-1259.9440725987729
 31
0.0
  0
LINE
  5
10454
  8
0
  6
BYBLOCK
 10
986.78768016632455
 20
-1260.6407404927729
 30
0.0
 11
984.18768016632464
 21
-1259.9440725987729
 31
0.0
  0
LINE
  5
10455
  8
0
  6
BYBLOCK
 10
984.18768016632464
 20
-1259.9440725987729
 30
0.0
 11
986.78768016632455
 21
-1259.2474047047731
 31
0.0
  0
LINE
  5
10456
  8
0
  6
BYBLOCK
 10
984.18768016632464
 20
-1259.9440725987729
 30
0.0
 11
986.78768016632455
 21
-1259.9440725987729
 31
0.0
  0
TEXT
  5
10457
  8
1DIM
 10
1043.163019904923
 20
-1249.534072598773
 30
0.0
 40
4.5499999999999989
  1
88.5
  0
LINE
  5
10458
  8
0
  6
BYBLOCK
 10
1090.087683866326
 20
-1249.7474047047731
 30
0.0
 11
1092.687683866325
 21
-1250.4440725987729
 31
0.0
  0
LINE
  5
10459
  8
0
  6
BYBLOCK
 10
1092.687683866325
 20
-1250.4440725987729
 30
0.0
 11
1090.087683866326
 21
-1251.1407404927729
 31
0.0
  0
LINE
  5
1045A
  8
0
  6
BYBLOCK
 10
1092.687683866325
 20
-1250.4440725987729
 30
0.0
 11
1090.087683866326
 21
-1250.4440725987729
 31
0.0
  0
LINE
  5
1045B
  8
0
  6
BYBLOCK
 10
1006.78778150607
 20
-1251.1407404927729
 30
0.0
 11
1004.18778150607
 21
-1250.4440725987729
 31
0.0
  0
LINE
  5
1045C
  8
0
  6
BYBLOCK
 10
1004.18778150607
 20
-1250.4440725987729
 30
0.0
 11
1006.78778150607
 21
-1249.7474047047731
 31
0.0
  0
LINE
  5
1045D
  8
0
  6
BYBLOCK
 10
1004.18778150607
 20
-1250.4440725987729
 30
0.0
 11
1006.78778150607
 21
-1250.4440725987729
 31
0.0
  0
TEXT
  5
1045E
  8
1DIM
 10
1106.777683866326
 20
-1177.460980899386
 30
0.0
 40
4.5499999999999989
  1
28
 50
90.0
  0
LINE
  5
1045F
  8
0
  6
BYBLOCK
 10
1108.384351760325
 20
-1185.004546866666
 30
0.0
 11
1107.687683866325
 21
-1187.6045468666659
 31
0.0
  0
LINE
  5
10460
  8
0
  6
BYBLOCK
 10
1107.687683866325
 20
-1187.6045468666659
 30
0.0
 11
1106.9910159723249
 21
-1185.004546866666
 31
0.0
  0
LINE
  5
10461
  8
0
  6
BYBLOCK
 10
1107.687683866325
 20
-1187.6045468666659
 30
0.0
 11
1107.687683866325
 21
-1185.004546866666
 31
0.0
  0
LINE
  5
10462
  8
0
  6
BYBLOCK
 10
1106.9910159723249
 20
-1162.3340815987719
 30
0.0
 11
1107.687683866325
 21
-1159.7340815987729
 31
0.0
  0
LINE
  5
10463
  8
0
  6
BYBLOCK
 10
1107.687683866325
 20
-1159.7340815987729
 30
0.0
 11
1108.384351760325
 21
-1162.3340815987719
 31
0.0
  0
LINE
  5
10464
  8
0
  6
BYBLOCK
 10
1107.687683866325
 20
-1159.7340815987729
 30
0.0
 11
1107.687683866325
 21
-1162.3340815987719
 31
0.0
  0
TEXT
  5
10465
  8
1DIM
 10
1116.7776838663251
 20
-1193.506579098771
 30
0.0
 40
4.5499999999999989
  1
60
 50
90.0
  0
LINE
  5
10466
  8
0
  6
BYBLOCK
 10
1118.384351760325
 20
-1217.344076598773
 30
0.0
 11
1117.687683866325
 21
-1219.9440765987731
 31
0.0
  0
LINE
  5
10467
  8
0
  6
BYBLOCK
 10
1117.687683866325
 20
-1219.9440765987731
 30
0.0
 11
1116.9910159723249
 21
-1217.344076598773
 31
0.0
  0
LINE
  5
10468
  8
0
  6
BYBLOCK
 10
1117.687683866325
 20
-1219.9440765987731
 30
0.0
 11
1117.687683866325
 21
-1217.344076598773
 31
0.0
  0
LINE
  5
10469
  8
0
  6
BYBLOCK
 10
1116.9910159723249
 20
-1162.3340815987719
 30
0.0
 11
1117.687683866325
 21
-1159.7340815987729
 31
0.0
  0
LINE
  5
1046A
  8
0
  6
BYBLOCK
 10
1117.687683866325
 20
-1159.7340815987729
 30
0.0
 11
1118.384351760325
 21
-1162.3340815987719
 31
0.0
  0
LINE
  5
1046B
  8
0
  6
BYBLOCK
 10
1117.687683866325
 20
-1159.7340815987729
 30
0.0
 11
1117.687683866325
 21
-1162.3340815987719
 31
0.0
  0
TEXT
  5
1046C
  8
1DIM
 10
1126.7776838663251
 20
-1203.1741113198291
 30
0.0
 40
4.5499999999999989
  1
74
 50
90.0
  0
LINE
  5
1046D
  8
0
  6
BYBLOCK
 10
1128.384351760325
 20
-1231.025542272698
 30
0.0
 11
1127.687683866325
 21
-1233.6255422726981
 31
0.0
  0
LINE
  5
1046E
  8
0
  6
BYBLOCK
 10
1127.687683866325
 20
-1233.6255422726981
 30
0.0
 11
1126.9910159723249
 21
-1231.025542272698
 31
0.0
  0
LINE
  5
1046F
  8
0
  6
BYBLOCK
 10
1127.687683866325
 20
-1233.6255422726981
 30
0.0
 11
1127.687683866325
 21
-1231.025542272698
 31
0.0
  0
LINE
  5
10470
  8
0
  6
BYBLOCK
 10
1126.9910159723249
 20
-1162.3340815987719
 30
0.0
 11
1127.687683866325
 21
-1159.7340815987729
 31
0.0
  0
LINE
  5
10471
  8
0
  6
BYBLOCK
 10
1127.687683866325
 20
-1159.7340815987729
 30
0.0
 11
1128.384351760325
 21
-1162.3340815987719
 31
0.0
  0
LINE
  5
10472
  8
0
  6
BYBLOCK
 10
1127.687683866325
 20
-1159.7340815987729
 30
0.0
 11
1127.687683866325
 21
-1162.3340815987719
 31
0.0
  0
VIEWPORT
  5
57
 67
     1
  8
0
 10
81.078617643230245
 20
9.8414951468432577
 30
0.0
 40
583.17525257582963
 41
268.13420055682752
 68
     1
 69
     1
1001
ACAD
1000
MVIEW
1002
{
1070
    16
1010
0.0
1020
0.0
1030
0.0
1010
0.0
1020
0.0
1030
1.0
1040
0.0
1040
268.13420055682752
1040
81.078617643230245
1040
9.8414951468432577
1040
50.0
1040
0.0
1040
0.0
1070
     0
1070
   100
1070
     1
1070
     1
1070
     0
1070
     0
1070
     0
1070
     0
1040
0.0
1040
0.0
1040
0.0
1040
10.0
1040
10.0
1040
10.0
1040
10.0
1070
     0
1002
{
1002
}
1002
}
  0
ENDSEC
  0
EOF
