  0
SECTION
  2
HEADER
  9
$ACADVER
  1
AC1009
  9
$INSBASE
 10
0.0
 20
0.0
 30
0.0
  9
$EXTMIN
 10
539.18767316632375
 20
-1472.9126913893799
 30
-0.0000000000563712
  9
$EXTMAX
 10
1155.4877814399649
 20
-1081.876751390409
 30
0.0
  9
$LIMMIN
 10
0.0
 20
0.0
  9
$LIMMAX
 10
420.0
 20
297.0
  9
$ORTHOMODE
 70
     0
  9
$REGENMODE
 70
     1
  9
$FILLMODE
 70
     1
  9
$QTEXTMODE
 70
     0
  9
$MIRRTEXT
 70
     0
  9
$DRAGMODE
 70
     2
  9
$LTSCALE
 40
0.5
  9
$OSMODE
 70
  2175
  9
$ATTMODE
 70
     1
  9
$TEXTSIZE
 40
4.0
  9
$TRACEWID
 40
1.0
  9
$TEXTSTYLE
  7
STANDARD
  9
$CLAYER
  8
1TEXT
  9
$CELTYPE
  6
BYLAYER
  9
$CECOLOR
 62
   256
  9
$DIMSCALE
 40
1.0
  9
$DIMASZ
 40
2.0
  9
$DIMEXO
 40
0.0
  9
$DIMDLI
 40
7.0
  9
$DIMRND
 40
0.0
  9
$DIMDLE
 40
0.0
  9
$DIMEXE
 40
1.0
  9
$DIMTP
 40
0.0
  9
$DIMTM
 40
0.0
  9
$DIMTXT
 40
3.5
  9
$DIMCEN
 40
0.0
  9
$DIMTSZ
 40
0.0
  9
$DIMTOL
 70
     0
  9
$DIMLIM
 70
     0
  9
$DIMTIH
 70
     0
  9
$DIMTOH
 70
     0
  9
$DIMSE1
 70
     0
  9
$DIMSE2
 70
     0
  9
$DIMTAD
 70
     1
  9
$DIMZIN
 70
     8
  9
$DIMBLK
  1

  9
$DIMASO
 70
     1
  9
$DIMSHO
 70
     1
  9
$DIMPOST
  1
 
  9
$DIMAPOST
  1

  9
$DIMALT
 70
     0
  9
$DIMALTD
 70
     2
  9
$DIMALTF
 40
25.399999999999999
  9
$DIMLFAC
 40
1.0
  9
$DIMTOFL
 70
     1
  9
$DIMTVP
 40
0.0
  9
$DIMTIX
 70
     0
  9
$DIMSOXD
 70
     0
  9
$DIMSAH
 70
     1
  9
$DIMBLK1
  1
OPEN30
  9
$DIMBLK2
  1
OPEN30
  9
$DIMSTYLE
  2
NEWX10
  9
$DIMCLRD
 70
   256
  9
$DIMCLRE
 70
   256
  9
$DIMCLRT
 70
   201
  9
$DIMTFAC
 40
0.7
  9
$DIMGAP
 40
0.7
  9
$LUNITS
 70
     2
  9
$LUPREC
 70
     4
  9
$SKETCHINC
 40
1.0
  9
$FILLETRAD
 40
0.0
  9
$AUNITS
 70
     0
  9
$AUPREC
 70
     2
  9
$MENU
  1
acad
  9
$ELEVATION
 40
0.0
  9
$PELEVATION
 40
0.0
  9
$THICKNESS
 40
0.0
  9
$LIMCHECK
 70
     0
  9
$BLIPMODE
 70
     0
  9
$CHAMFERA
 40
10.0
  9
$CHAMFERB
 40
10.0
  9
$SKPOLY
 70
     0
  9
$TDCREATE
 40
2451318.621352917
  9
$TDUPDATE
 40
2456643.4261366092
  9
$TDINDWG
 40
0.4852460301
  9
$TDUSRTIMER
 40
0.4852460301
  9
$USRTIMER
 70
     1
  9
$ANGBASE
 50
0.0
  9
$ANGDIR
 70
     0
  9
$PDMODE
 70
     0
  9
$PDSIZE
 40
0.0
  9
$PLINEWID
 40
0.0
  9
$COORDS
 70
     0
  9
$SPLFRAME
 70
     0
  9
$SPLINETYPE
 70
     6
  9
$SPLINESEGS
 70
     8
  9
$ATTDIA
 70
     0
  9
$ATTREQ
 70
     1
  9
$HANDLING
 70
     1
  9
$HANDSEED
  5
CD4B
  9
$SURFTAB1
 70
     6
  9
$SURFTAB2
 70
     6
  9
$SURFTYPE
 70
     6
  9
$SURFU
 70
     6
  9
$SURFV
 70
     6
  9
$UCSNAME
  2

  9
$UCSORG
 10
0.0
 20
0.0
 30
0.0
  9
$UCSXDIR
 10
1.0
 20
0.0
 30
0.0
  9
$UCSYDIR
 10
0.0
 20
1.0
 30
0.0
  9
$PUCSNAME
  2

  9
$PUCSORG
 10
0.0
 20
0.0
 30
0.0
  9
$PUCSXDIR
 10
1.0
 20
0.0
 30
0.0
  9
$PUCSYDIR
 10
0.0
 20
1.0
 30
0.0
  9
$USERI1
 70
     0
  9
$USERI2
 70
     0
  9
$USERI3
 70
     0
  9
$USERI4
 70
     0
  9
$USERI5
 70
     0
  9
$USERR1
 40
0.0
  9
$USERR2
 40
0.0
  9
$USERR3
 40
0.0
  9
$USERR4
 40
0.0
  9
$USERR5
 40
0.0
  9
$WORLDVIEW
 70
     1
  9
$SHADEDGE
 70
     3
  9
$SHADEDIF
 70
    70
  9
$TILEMODE
 70
     1
  9
$MAXACTVP
 70
    48
  9
$PLIMCHECK
 70
     0
  9
$PEXTMIN
 10
1.0000000000000000E+020
 20
1.0000000000000000E+020
 30
1.0000000000000000E+020
  9
$PEXTMAX
 10
-1.0000000000000000E+020
 20
-1.0000000000000000E+020
 30
-1.0000000000000000E+020
  9
$PLIMMIN
 10
0.0
 20
0.0
  9
$PLIMMAX
 10
420.0
 20
297.0
  9
$UNITMODE
 70
     0
  9
$VISRETAIN
 70
     1
  9
$PLINEGEN
 70
     0
  9
$PSLTSCALE
 70
     1
  0
ENDSEC
  0
SECTION
  2
TABLES
  0
TABLE
  2
VPORT
 70
     1
  0
VPORT
  2
*ACTIVE
 70
     0
 10
0.0
 20
0.0
 11
1.0
 21
1.0
 12
847.32714839665084
 22
-1277.3704999301219
 13
0.0
 23
0.0
 14
10.0
 24
10.0
 15
10.0
 25
10.0
 16
0.0
 26
0.0
 36
1.0
 17
0.0
 27
0.0
 37
0.0
 40
414.81671963157788
 41
2.1771217712177111
 42
50.0
 43
0.0
 44
0.0
 50
0.0
 51
0.0
 71
     0
 72
   100
 73
     1
 74
     1
 75
     0
 76
     0
 77
     0
 78
     0
  0
ENDTAB
  0
TABLE
  2
LTYPE
 70
    13
  0
LTYPE
  2
CONTINUOUS
 70
     0
  3
Solid line
 72
    65
 73
     0
 40
0.0
  0
LTYPE
  2
XREF1|CENTER2
 70
    48
  3
Center (.5x) ___ _ ___ _ ___ _ ___ _ ___ _ ___
 72
    65
 73
     4
 40
28.574999999999999
 49
19.050000000000001
 49
-3.1749999999999989
 49
3.1749999999999989
 49
-3.1749999999999989
  0
LTYPE
  2
A3WAKUDAKE|CENTER2
 70
    48
  3
Center (.5x) ___ _ ___ _ ___ _ ___ _ ___ _ ___
 72
    65
 73
     4
 40
28.574999999999999
 49
19.050000000000001
 49
-3.1749999999999989
 49
3.1749999999999989
 49
-3.1749999999999989
  0
ENDTAB
  0
TABLE
  2
LAYER
 70
    38
  0
LAYER
  2
0
 70
     0
 62
     7
  6
CONTINUOUS
  0
LAYER
  2
1TEXT
 70
     0
 62
     7
  6
CONTINUOUS
  0
LAYER
  2
01
 70
     0
 62
     1
  6
CONTINUOUS
  0
LAYER
  2
A3WAKUDAKE|THICK
 70
    48
 62
     7
  6
CONTINUOUS
  0
LAYER
  2
A3WAKUDAKE|POINT
 70
    48
 62
     7
  6
CONTINUOUS
  0
LAYER
  2
A3WAKUDAKE|1CENTER
 70
    48
 62
     7
  6
A3WAKUDAKE|CENTER2
  0
LAYER
  2
A3WAKUDAKE|0-6
 70
    48
 62
     7
  6
CONTINUOUS
  0
LAYER
  2
A3WAKUDAKE|1DIM
 70
    48
 62
     7
  6
CONTINUOUS
  0
LAYER
  2
XREF1|1CENTER
 70
    48
 62
     7
  6
XREF1|CENTER2
  0
ENDTAB
  0
TABLE
  2
STYLE
 70
     4
  0
STYLE
  2
STANDARD
 70
     0
 40
0.0
 41
1.0
 50
0.0
 71
     0
 42
4.0
  3
romans.shx
  4
extfont2.shx
  0
ENDTAB
  0
TABLE
  2
VIEW
 70
     5
  0
ENDTAB
  0
TABLE
  2
UCS
 70
     0
  0
ENDTAB
  0
TABLE
  2
APPID
 70
    11
  0
APPID
  2
ACAD
 70
     0
  0
APPID
  2
DRAWINGVARIABLESXDATA
 70
     0
  0
APPID
  2
CONTENTTABDATA
 70
     0
  0
APPID
  2
CONTENTCURRENTTAB
 70
     0
  0
APPID
  2
CONTENTBLOCKDESCRIPTION
 70
     0
  0
APPID
  2
CONTENTBLOCKICON
 70
     0
  0
APPID
  2
CONTENTLONGBLOCKNAME
 70
     0
  0
APPID
  2
ACAD_PSEXT
 70
     0
  0
APPID
  2
ACAD_MLEADERVER
 70
     0
  0
APPID
  2
ACAECLAYERSTANDARD
 70
     0
  0
APPID
  2
ACAD_EXEMPT_FROM_CAD_STANDARDS
 70
     0
  0
ENDTAB
  0
TABLE
  2
DIMSTYLE
 70
     5
  0
DIMSTYLE
  2
NEWX10
 70
     0
  3
 
  4

  5

  6
OPEN30
  7
OPEN30
 40
1.0
 41
2.0
 42
0.0
 43
7.0
 44
1.0
 45
0.0
 46
0.0
 47
0.0
 48
0.0
140
3.5
141
0.0
142
0.0
143
25.399999999999999
144
1.0
145
0.0
146
0.7
147
0.7
 71
     0
 72
     0
 73
     0
 74
     0
 75
     0
 76
     0
 77
     1
 78
     8
170
     0
171
     2
172
     1
173
     1
174
     0
175
     0
176
   256
177
   256
178
   201
  0
ENDTAB
  0
ENDSEC
  0
SECTION
  2
BLOCKS
  0
BLOCK
  8
0
  2
$MODEL_SPACE
 70
     0
 10
0.0
 20
0.0
 30
0.0
  3
$MODEL_SPACE
  1

  0
ENDBLK
  5
1A
  8
0
  0
BLOCK
 67
     1
  8
0
  2
$PAPER_SPACE
 70
     0
 10
0.0
 20
0.0
 30
0.0
  3
$PAPER_SPACE
  1

  0
ENDBLK
  5
17
 67
     1
  8
0
  0
BLOCK
  8
0
  2
_OPEN30
 70
     0
 10
0.0
 20
0.0
 30
0.0
  3
_OPEN30
  1

  0
LINE
  5
44
  8
0
  6
BYBLOCK
 62
     0
 10
-1.0
 20
0.26794919
 30
0.0
 11
0.0
 21
0.0
 31
0.0
  0
LINE
  5
45
  8
0
  6
BYBLOCK
 62
     0
 10
0.0
 20
0.0
 30
0.0
 11
-1.0
 21
-0.26794919
 31
0.0
  0
LINE
  5
46
  8
0
  6
BYBLOCK
 62
     0
 10
0.0
 20
0.0
 30
0.0
 11
-1.0
 21
0.0
 31
0.0
  0
ENDBLK
  5
47
  8
0
  0
BLOCK
  8
0
  2
XREF1
 70
    36
 10
0.0
 20
0.0
 30
0.0
  3
XREF1
  1
D:\ACLT\FORMAT\KAWAJUN(9)図面用.dwg
  0
ENDBLK
  5
5D
  8
0
  0
BLOCK
  8
0
  2
A3WAKUDAKE
 70
    36
 10
0.0
 20
0.0
 30
0.0
  3
A3WAKUDAKE
  1
D:\ACLT\FORMAT\A3WAKUdake.dwg
  0
ENDBLK
  5
6A0
  8
0
  0
BLOCK
  8
0
  2
*U28
 70
     1
 10
0.0
 20
0.0
 30
0.0
  3
*U28
  1

  0
TEXT
  5
CC13
  8
1TEXT
 62
   201
 10
968.27766516632505
 20
-1423.749830684869
 30
0.0
 40
4.5499999999999989
  1
53
 50
90.0
  0
ENDBLK
  5
CC15
  8
0
  0
BLOCK
  8
0
  2
*U29
 70
     1
 10
0.0
 20
0.0
 30
0.0
  3
*U29
  1

  0
TEXT
  5
CC3A
  8
1TEXT
 62
   201
 10
1013.354331832992
 20
-1458.666751389381
 30
0.0
 40
4.5499999999999989
  1
80
  0
ENDBLK
  5
CC3C
  8
0
  0
BLOCK
  8
0
  2
*U30
 70
     1
 10
0.0
 20
0.0
 30
0.0
  3
*U30
  1

  0
TEXT
  5
CC44
  8
1TEXT
 62
   201
 10
968.2776651663246
 20
-2240.1183612816621
 30
0.0
 40
4.5499999999999989
  1
□53
 50
90.0
  0
ENDBLK
  5
CC46
  8
0
  0
ENDSEC
  0
SECTION
  2
ENTITIES
  0
LINE
  5
21EB
  8
01
 10
854.18766916632444
 20
-1325.57937138938
 30
0.0
 11
854.18766916632444
 21
-1472.9126913893799
 31
0.0
  0
LINE
  5
21EC
  8
01
 10
814.18766916632433
 20
-1325.57937138938
 30
0.0
 11
814.18766916632433
 21
-1472.9126913893799
 31
0.0
  0
LINE
  5
21ED
  8
01
 10
712.78767516632502
 20
-1332.07675138938
 30
0.0
 11
712.78767516632502
 21
-1355.17672138938
 31
0.0
  0
LINE
  5
21EE
  8
01
 10
711.18766916632444
 20
-1332.07675138938
 30
0.0
 11
711.18766916632444
 21
-1355.07675138938
 31
0.0
  0
LINE
  5
21EF
  8
01
 10
713.58767816632519
 20
-1332.07675138938
 30
0.0
 11
713.58767816632519
 21
-1462.07675138938
 31
0.0
  0
LINE
  5
21F0
  8
01
 10
715.18766916632444
 20
-1332.07675138938
 30
0.0
 11
715.18766916632444
 21
-1462.07675138938
 31
0.0
  0
LINE
  5
21F2
  8
01
 10
712.18766916632444
 20
-1434.0767513893809
 30
0.0
 11
690.68767316632375
 21
-1434.0767513893809
 31
0.0
  0
LINE
  5
21F3
  8
01
 10
646.1876851663244
 20
-1382.57675138938
 30
0.0
 11
646.18768516632463
 21
-1391.5767513893809
 31
0.0
  0
LINE
  5
21F4
  8
01
 10
721.18766916632262
 20
-1386.0767513893809
 30
0.0
 11
715.18766916632444
 21
-1386.0767513893809
 31
0.0
  0
LINE
  5
21F5
  8
01
 10
726.18766916632444
 20
-1391.0767513893809
 30
0.0
 11
716.18766916632444
 21
-1391.0767513893809
 31
0.0
  0
POLYLINE
  5
21F6
  8
01
 10
726.18766916632444
 20
-1389.64517138938
 30
0.0
 66
     1
 70
     8
  0
VERTEX
  8
01
  5
CC47
 10
726.188
 20
-1389.65
 30
0.000000
  70
    32
  0
VERTEX
  8
01
  5
CC48
 10
726.186
 20
-1389.56
 30
0.000000
  70
    32
  0
VERTEX
  8
01
  5
CC49
 10
726.182
 20
-1389.47
 30
0.000000
  70
    32
  0
VERTEX
  8
01
  5
CC4A
 10
726.174
 20
-1389.38
 30
0.000000
  70
    32
  0
VERTEX
  8
01
  5
CC4B
 10
726.164
 20
-1389.30
 30
0.000000
  70
    32
  0
VERTEX
  8
01
  5
CC4C
 10
726.150
 20
-1389.21
 30
0.000000
  70
    32
  0
VERTEX
  8
01
  5
CC4D
 10
726.134
 20
-1389.12
 30
0.000000
  70
    32
  0
VERTEX
  8
01
  5
CC4E
 10
726.114
 20
-1389.04
 30
0.000000
  70
    32
  0
VERTEX
  8
01
  5
CC4F
 10
726.092
 20
-1388.95
 30
0.000000
  70
    32
  0
VERTEX
  8
01
  5
CC50
 10
726.066
 20
-1388.86
 30
0.000000
  70
    32
  0
VERTEX
  8
01
  5
CC51
 10
726.038
 20
-1388.78
 30
0.000000
  70
    32
  0
VERTEX
  8
01
  5
CC52
 10
726.007
 20
-1388.69
 30
0.000000
  70
    32
  0
VERTEX
  8
01
  5
CC53
 10
725.972
 20
-1388.61
 30
0.000000
  70
    32
  0
VERTEX
  8
01
  5
CC54
 10
725.935
 20
-1388.53
 30
0.000000
  70
    32
  0
VERTEX
  8
01
  5
CC55
 10
725.895
 20
-1388.44
 30
0.000000
  70
    32
  0
VERTEX
  8
01
  5
CC56
 10
725.853
 20
-1388.36
 30
0.000000
  70
    32
  0
VERTEX
  8
01
  5
CC57
 10
725.807
 20
-1388.28
 30
0.000000
  70
    32
  0
VERTEX
  8
01
  5
CC58
 10
725.759
 20
-1388.20
 30
0.000000
  70
    32
  0
VERTEX
  8
01
  5
CC59
 10
725.708
 20
-1388.12
 30
0.000000
  70
    32
  0
VERTEX
  8
01
  5
CC5A
 10
725.654
 20
-1388.04
 30
0.000000
  70
    32
  0
VERTEX
  8
01
  5
CC5B
 10
725.597
 20
-1387.96
 30
0.000000
  70
    32
  0
VERTEX
  8
01
  5
CC5C
 10
725.538
 20
-1387.89
 30
0.000000
  70
    32
  0
VERTEX
  8
01
  5
CC5D
 10
725.476
 20
-1387.81
 30
0.000000
  70
    32
  0
VERTEX
  8
01
  5
CC5E
 10
725.412
 20
-1387.74
 30
0.000000
  70
    32
  0
VERTEX
  8
01
  5
CC5F
 10
725.345
 20
-1387.66
 30
0.000000
  70
    32
  0
VERTEX
  8
01
  5
CC60
 10
725.276
 20
-1387.59
 30
0.000000
  70
    32
  0
VERTEX
  8
01
  5
CC61
 10
725.204
 20
-1387.52
 30
0.000000
  70
    32
  0
VERTEX
  8
01
  5
CC62
 10
725.129
 20
-1387.45
 30
0.000000
  70
    32
  0
VERTEX
  8
01
  5
CC63
 10
725.053
 20
-1387.38
 30
0.000000
  70
    32
  0
VERTEX
  8
01
  5
CC64
 10
724.974
 20
-1387.31
 30
0.000000
  70
    32
  0
VERTEX
  8
01
  5
CC65
 10
724.892
 20
-1387.25
 30
0.000000
  70
    32
  0
VERTEX
  8
01
  5
CC66
 10
724.809
 20
-1387.18
 30
0.000000
  70
    32
  0
VERTEX
  8
01
  5
CC67
 10
724.723
 20
-1387.12
 30
0.000000
  70
    32
  0
VERTEX
  8
01
  5
CC68
 10
724.635
 20
-1387.06
 30
0.000000
  70
    32
  0
VERTEX
  8
01
  5
CC69
 10
724.545
 20
-1387.00
 30
0.000000
  70
    32
  0
VERTEX
  8
01
  5
CC6A
 10
724.454
 20
-1386.94
 30
0.000000
  70
    32
  0
VERTEX
  8
01
  5
CC6B
 10
724.360
 20
-1386.89
 30
0.000000
  70
    32
  0
VERTEX
  8
01
  5
CC6C
 10
724.264
 20
-1386.83
 30
0.000000
  70
    32
  0
VERTEX
  8
01
  5
CC6D
 10
724.166
 20
-1386.78
 30
0.000000
  70
    32
  0
VERTEX
  8
01
  5
CC6E
 10
724.067
 20
-1386.73
 30
0.000000
  70
    32
  0
VERTEX
  8
01
  5
CC6F
 10
723.966
 20
-1386.68
 30
0.000000
  70
    32
  0
VERTEX
  8
01
  5
CC70
 10
723.863
 20
-1386.63
 30
0.000000
  70
    32
  0
VERTEX
  8
01
  5
CC71
 10
723.758
 20
-1386.58
 30
0.000000
  70
    32
  0
VERTEX
  8
01
  5
CC72
 10
723.652
 20
-1386.54
 30
0.000000
  70
    32
  0
VERTEX
  8
01
  5
CC73
 10
723.545
 20
-1386.50
 30
0.000000
  70
    32
  0
VERTEX
  8
01
  5
CC74
 10
723.436
 20
-1386.46
 30
0.000000
  70
    32
  0
VERTEX
  8
01
  5
CC75
 10
723.325
 20
-1386.42
 30
0.000000
  70
    32
  0
VERTEX
  8
01
  5
CC76
 10
723.214
 20
-1386.38
 30
0.000000
  70
    32
  0
VERTEX
  8
01
  5
CC77
 10
723.101
 20
-1386.35
 30
0.000000
  70
    32
  0
VERTEX
  8
01
  5
CC78
 10
722.987
 20
-1386.32
 30
0.000000
  70
    32
  0
VERTEX
  8
01
  5
CC79
 10
722.872
 20
-1386.29
 30
0.000000
  70
    32
  0
VERTEX
  8
01
  5
CC7A
 10
722.756
 20
-1386.26
 30
0.000000
  70
    32
  0
VERTEX
  8
01
  5
CC7B
 10
722.639
 20
-1386.23
 30
0.000000
  70
    32
  0
VERTEX
  8
01
  5
CC7C
 10
722.521
 20
-1386.21
 30
0.000000
  70
    32
  0
VERTEX
  8
01
  5
CC7D
 10
722.403
 20
-1386.18
 30
0.000000
  70
    32
  0
VERTEX
  8
01
  5
CC7E
 10
722.283
 20
-1386.16
 30
0.000000
  70
    32
  0
VERTEX
  8
01
  5
CC7F
 10
722.163
 20
-1386.15
 30
0.000000
  70
    32
  0
VERTEX
  8
01
  5
CC80
 10
722.042
 20
-1386.13
 30
0.000000
  70
    32
  0
VERTEX
  8
01
  5
CC81
 10
721.921
 20
-1386.12
 30
0.000000
  70
    32
  0
VERTEX
  8
01
  5
CC82
 10
721.800
 20
-1386.10
 30
0.000000
  70
    32
  0
VERTEX
  8
01
  5
CC83
 10
721.678
 20
-1386.09
 30
0.000000
  70
    32
  0
VERTEX
  8
01
  5
CC84
 10
721.555
 20
-1386.09
 30
0.000000
  70
    32
  0
VERTEX
  8
01
  5
CC85
 10
721.433
 20
-1386.08
 30
0.000000
  70
    32
  0
VERTEX
  8
01
  5
CC86
 10
721.310
 20
-1386.08
 30
0.000000
  70
    32
  0
VERTEX
  8
01
  5
CC87
 10
721.188
 20
-1386.08
 30
0.000000
  70
    32
  0
VERTEX
  8
01
  5
CC88
 10
721.065
 20
-1386.08
 30
0.000000
  70
    32
  0
VERTEX
  8
01
  5
CC89
 10
720.942
 20
-1386.08
 30
0.000000
  70
    32
  0
VERTEX
  8
01
  5
CC8A
 10
720.820
 20
-1386.09
 30
0.000000
  70
    32
  0
VERTEX
  8
01
  5
CC8B
 10
720.698
 20
-1386.09
 30
0.000000
  70
    32
  0
VERTEX
  8
01
  5
CC8C
 10
720.576
 20
-1386.10
 30
0.000000
  70
    32
  0
VERTEX
  8
01
  5
CC8D
 10
720.454
 20
-1386.12
 30
0.000000
  70
    32
  0
VERTEX
  8
01
  5
CC8E
 10
720.333
 20
-1386.13
 30
0.000000
  70
    32
  0
VERTEX
  8
01
  5
CC8F
 10
720.212
 20
-1386.15
 30
0.000000
  70
    32
  0
VERTEX
  8
01
  5
CC90
 10
720.092
 20
-1386.16
 30
0.000000
  70
    32
  0
VERTEX
  8
01
  5
CC91
 10
719.973
 20
-1386.18
 30
0.000000
  70
    32
  0
VERTEX
  8
01
  5
CC92
 10
719.854
 20
-1386.21
 30
0.000000
  70
    32
  0
VERTEX
  8
01
  5
CC93
 10
719.736
 20
-1386.23
 30
0.000000
  70
    32
  0
VERTEX
  8
01
  5
CC94
 10
719.619
 20
-1386.26
 30
0.000000
  70
    32
  0
VERTEX
  8
01
  5
CC95
 10
719.503
 20
-1386.29
 30
0.000000
  70
    32
  0
VERTEX
  8
01
  5
CC96
 10
719.388
 20
-1386.32
 30
0.000000
  70
    32
  0
VERTEX
  8
01
  5
CC97
 10
719.274
 20
-1386.35
 30
0.000000
  70
    32
  0
VERTEX
  8
01
  5
CC98
 10
719.161
 20
-1386.38
 30
0.000000
  70
    32
  0
VERTEX
  8
01
  5
CC99
 10
719.050
 20
-1386.42
 30
0.000000
  70
    32
  0
VERTEX
  8
01
  5
CC9A
 10
718.940
 20
-1386.46
 30
0.000000
  70
    32
  0
VERTEX
  8
01
  5
CC9B
 10
718.831
 20
-1386.50
 30
0.000000
  70
    32
  0
VERTEX
  8
01
  5
CC9C
 10
718.723
 20
-1386.54
 30
0.000000
  70
    32
  0
VERTEX
  8
01
  5
CC9D
 10
718.617
 20
-1386.58
 30
0.000000
  70
    32
  0
VERTEX
  8
01
  5
CC9E
 10
718.513
 20
-1386.63
 30
0.000000
  70
    32
  0
VERTEX
  8
01
  5
CC9F
 10
718.410
 20
-1386.68
 30
0.000000
  70
    32
  0
VERTEX
  8
01
  5
CCA0
 10
718.309
 20
-1386.73
 30
0.000000
  70
    32
  0
VERTEX
  8
01
  5
CCA1
 10
718.209
 20
-1386.78
 30
0.000000
  70
    32
  0
VERTEX
  8
01
  5
CCA2
 10
718.112
 20
-1386.83
 30
0.000000
  70
    32
  0
VERTEX
  8
01
  5
CCA3
 10
718.016
 20
-1386.89
 30
0.000000
  70
    32
  0
VERTEX
  8
01
  5
CCA4
 10
717.922
 20
-1386.94
 30
0.000000
  70
    32
  0
VERTEX
  8
01
  5
CCA5
 10
717.830
 20
-1387.00
 30
0.000000
  70
    32
  0
VERTEX
  8
01
  5
CCA6
 10
717.740
 20
-1387.06
 30
0.000000
  70
    32
  0
VERTEX
  8
01
  5
CCA7
 10
717.652
 20
-1387.12
 30
0.000000
  70
    32
  0
VERTEX
  8
01
  5
CCA8
 10
717.566
 20
-1387.18
 30
0.000000
  70
    32
  0
VERTEX
  8
01
  5
CCA9
 10
717.483
 20
-1387.25
 30
0.000000
  70
    32
  0
VERTEX
  8
01
  5
CCAA
 10
717.402
 20
-1387.31
 30
0.000000
  70
    32
  0
VERTEX
  8
01
  5
CCAB
 10
717.323
 20
-1387.38
 30
0.000000
  70
    32
  0
VERTEX
  8
01
  5
CCAC
 10
717.246
 20
-1387.45
 30
0.000000
  70
    32
  0
VERTEX
  8
01
  5
CCAD
 10
717.172
 20
-1387.52
 30
0.000000
  70
    32
  0
VERTEX
  8
01
  5
CCAE
 10
717.100
 20
-1387.59
 30
0.000000
  70
    32
  0
VERTEX
  8
01
  5
CCAF
 10
717.030
 20
-1387.66
 30
0.000000
  70
    32
  0
VERTEX
  8
01
  5
CCB0
 10
716.963
 20
-1387.74
 30
0.000000
  70
    32
  0
VERTEX
  8
01
  5
CCB1
 10
716.899
 20
-1387.81
 30
0.000000
  70
    32
  0
VERTEX
  8
01
  5
CCB2
 10
716.837
 20
-1387.89
 30
0.000000
  70
    32
  0
VERTEX
  8
01
  5
CCB3
 10
716.778
 20
-1387.96
 30
0.000000
  70
    32
  0
VERTEX
  8
01
  5
CCB4
 10
716.722
 20
-1388.04
 30
0.000000
  70
    32
  0
VERTEX
  8
01
  5
CCB5
 10
716.668
 20
-1388.12
 30
0.000000
  70
    32
  0
VERTEX
  8
01
  5
CCB6
 10
716.617
 20
-1388.20
 30
0.000000
  70
    32
  0
VERTEX
  8
01
  5
CCB7
 10
716.568
 20
-1388.28
 30
0.000000
  70
    32
  0
VERTEX
  8
01
  5
CCB8
 10
716.523
 20
-1388.36
 30
0.000000
  70
    32
  0
VERTEX
  8
01
  5
CCB9
 10
716.480
 20
-1388.44
 30
0.000000
  70
    32
  0
VERTEX
  8
01
  5
CCBA
 10
716.440
 20
-1388.53
 30
0.000000
  70
    32
  0
VERTEX
  8
01
  5
CCBB
 10
716.403
 20
-1388.61
 30
0.000000
  70
    32
  0
VERTEX
  8
01
  5
CCBC
 10
716.369
 20
-1388.69
 30
0.000000
  70
    32
  0
VERTEX
  8
01
  5
CCBD
 10
716.338
 20
-1388.78
 30
0.000000
  70
    32
  0
VERTEX
  8
01
  5
CCBE
 10
716.309
 20
-1388.86
 30
0.000000
  70
    32
  0
VERTEX
  8
01
  5
CCBF
 10
716.284
 20
-1388.95
 30
0.000000
  70
    32
  0
VERTEX
  8
01
  5
CCC0
 10
716.261
 20
-1389.04
 30
0.000000
  70
    32
  0
VERTEX
  8
01
  5
CCC1
 10
716.242
 20
-1389.12
 30
0.000000
  70
    32
  0
VERTEX
  8
01
  5
CCC2
 10
716.225
 20
-1389.21
 30
0.000000
  70
    32
  0
VERTEX
  8
01
  5
CCC3
 10
716.212
 20
-1389.30
 30
0.000000
  70
    32
  0
VERTEX
  8
01
  5
CCC4
 10
716.201
 20
-1389.38
 30
0.000000
  70
    32
  0
VERTEX
  8
01
  5
CCC5
 10
716.194
 20
-1389.47
 30
0.000000
  70
    32
  0
VERTEX
  8
01
  5
CCC6
 10
716.189
 20
-1389.56
 30
0.000000
  70
    32
  0
VERTEX
  8
01
  5
CCC7
 10
716.188
 20
-1389.65
 30
0.000000
  70
    32
  0
SEQEND
  8
01
  5
CCC8
  0
LINE
  5
21F7
  8
01
 10
721.18766916632444
 20
-1406.0767513893809
 30
0.0
 11
715.18766916632444
 21
-1406.0767513893809
 31
0.0
  0
LINE
  5
21F8
  8
01
 10
726.18766916632444
 20
-1401.07675138938
 30
0.0
 11
716.18766916632444
 21
-1401.07675138938
 31
0.0
  0
POLYLINE
  5
21F9
  8
01
 10
726.18766916632444
 20
-1402.5083313893799
 30
0.0
 66
     1
 70
     8
  0
VERTEX
  8
01
  5
CCC9
 10
726.188
 20
-1402.51
 30
0.000000
  70
    32
  0
VERTEX
  8
01
  5
CCCA
 10
726.186
 20
-1402.60
 30
0.000000
  70
    32
  0
VERTEX
  8
01
  5
CCCB
 10
726.182
 20
-1402.68
 30
0.000000
  70
    32
  0
VERTEX
  8
01
  5
CCCC
 10
726.174
 20
-1402.77
 30
0.000000
  70
    32
  0
VERTEX
  8
01
  5
CCCD
 10
726.164
 20
-1402.86
 30
0.000000
  70
    32
  0
VERTEX
  8
01
  5
CCCE
 10
726.150
 20
-1402.95
 30
0.000000
  70
    32
  0
VERTEX
  8
01
  5
CCCF
 10
726.134
 20
-1403.03
 30
0.000000
  70
    32
  0
VERTEX
  8
01
  5
CCD0
 10
726.114
 20
-1403.12
 30
0.000000
  70
    32
  0
VERTEX
  8
01
  5
CCD1
 10
726.092
 20
-1403.20
 30
0.000000
  70
    32
  0
VERTEX
  8
01
  5
CCD2
 10
726.066
 20
-1403.29
 30
0.000000
  70
    32
  0
VERTEX
  8
01
  5
CCD3
 10
726.038
 20
-1403.38
 30
0.000000
  70
    32
  0
VERTEX
  8
01
  5
CCD4
 10
726.007
 20
-1403.46
 30
0.000000
  70
    32
  0
VERTEX
  8
01
  5
CCD5
 10
725.972
 20
-1403.54
 30
0.000000
  70
    32
  0
VERTEX
  8
01
  5
CCD6
 10
725.935
 20
-1403.63
 30
0.000000
  70
    32
  0
VERTEX
  8
01
  5
CCD7
 10
725.895
 20
-1403.71
 30
0.000000
  70
    32
  0
VERTEX
  8
01
  5
CCD8
 10
725.853
 20
-1403.79
 30
0.000000
  70
    32
  0
VERTEX
  8
01
  5
CCD9
 10
725.807
 20
-1403.87
 30
0.000000
  70
    32
  0
VERTEX
  8
01
  5
CCDA
 10
725.759
 20
-1403.95
 30
0.000000
  70
    32
  0
VERTEX
  8
01
  5
CCDB
 10
725.708
 20
-1404.03
 30
0.000000
  70
    32
  0
VERTEX
  8
01
  5
CCDC
 10
725.654
 20
-1404.11
 30
0.000000
  70
    32
  0
VERTEX
  8
01
  5
CCDD
 10
725.597
 20
-1404.19
 30
0.000000
  70
    32
  0
VERTEX
  8
01
  5
CCDE
 10
725.538
 20
-1404.27
 30
0.000000
  70
    32
  0
VERTEX
  8
01
  5
CCDF
 10
725.476
 20
-1404.34
 30
0.000000
  70
    32
  0
VERTEX
  8
01
  5
CCE0
 10
725.412
 20
-1404.42
 30
0.000000
  70
    32
  0
VERTEX
  8
01
  5
CCE1
 10
725.345
 20
-1404.49
 30
0.000000
  70
    32
  0
VERTEX
  8
01
  5
CCE2
 10
725.276
 20
-1404.56
 30
0.000000
  70
    32
  0
VERTEX
  8
01
  5
CCE3
 10
725.204
 20
-1404.63
 30
0.000000
  70
    32
  0
VERTEX
  8
01
  5
CCE4
 10
725.129
 20
-1404.70
 30
0.000000
  70
    32
  0
VERTEX
  8
01
  5
CCE5
 10
725.053
 20
-1404.77
 30
0.000000
  70
    32
  0
VERTEX
  8
01
  5
CCE6
 10
724.974
 20
-1404.84
 30
0.000000
  70
    32
  0
VERTEX
  8
01
  5
CCE7
 10
724.892
 20
-1404.90
 30
0.000000
  70
    32
  0
VERTEX
  8
01
  5
CCE8
 10
724.809
 20
-1404.97
 30
0.000000
  70
    32
  0
VERTEX
  8
01
  5
CCE9
 10
724.723
 20
-1405.03
 30
0.000000
  70
    32
  0
VERTEX
  8
01
  5
CCEA
 10
724.635
 20
-1405.09
 30
0.000000
  70
    32
  0
VERTEX
  8
01
  5
CCEB
 10
724.545
 20
-1405.15
 30
0.000000
  70
    32
  0
VERTEX
  8
01
  5
CCEC
 10
724.454
 20
-1405.21
 30
0.000000
  70
    32
  0
VERTEX
  8
01
  5
CCED
 10
724.360
 20
-1405.27
 30
0.000000
  70
    32
  0
VERTEX
  8
01
  5
CCEE
 10
724.264
 20
-1405.32
 30
0.000000
  70
    32
  0
VERTEX
  8
01
  5
CCEF
 10
724.166
 20
-1405.37
 30
0.000000
  70
    32
  0
VERTEX
  8
01
  5
CCF0
 10
724.067
 20
-1405.43
 30
0.000000
  70
    32
  0
VERTEX
  8
01
  5
CCF1
 10
723.966
 20
-1405.48
 30
0.000000
  70
    32
  0
VERTEX
  8
01
  5
CCF2
 10
723.863
 20
-1405.52
 30
0.000000
  70
    32
  0
VERTEX
  8
01
  5
CCF3
 10
723.758
 20
-1405.57
 30
0.000000
  70
    32
  0
VERTEX
  8
01
  5
CCF4
 10
723.652
 20
-1405.61
 30
0.000000
  70
    32
  0
VERTEX
  8
01
  5
CCF5
 10
723.545
 20
-1405.66
 30
0.000000
  70
    32
  0
VERTEX
  8
01
  5
CCF6
 10
723.436
 20
-1405.70
 30
0.000000
  70
    32
  0
VERTEX
  8
01
  5
CCF7
 10
723.325
 20
-1405.73
 30
0.000000
  70
    32
  0
VERTEX
  8
01
  5
CCF8
 10
723.214
 20
-1405.77
 30
0.000000
  70
    32
  0
VERTEX
  8
01
  5
CCF9
 10
723.101
 20
-1405.81
 30
0.000000
  70
    32
  0
VERTEX
  8
01
  5
CCFA
 10
722.987
 20
-1405.84
 30
0.000000
  70
    32
  0
VERTEX
  8
01
  5
CCFB
 10
722.872
 20
-1405.87
 30
0.000000
  70
    32
  0
VERTEX
  8
01
  5
CCFC
 10
722.756
 20
-1405.90
 30
0.000000
  70
    32
  0
VERTEX
  8
01
  5
CCFD
 10
722.639
 20
-1405.92
 30
0.000000
  70
    32
  0
VERTEX
  8
01
  5
CCFE
 10
722.521
 20
-1405.95
 30
0.000000
  70
    32
  0
VERTEX
  8
01
  5
CCFF
 10
722.403
 20
-1405.97
 30
0.000000
  70
    32
  0
VERTEX
  8
01
  5
CD00
 10
722.283
 20
-1405.99
 30
0.000000
  70
    32
  0
VERTEX
  8
01
  5
CD01
 10
722.163
 20
-1406.01
 30
0.000000
  70
    32
  0
VERTEX
  8
01
  5
CD02
 10
722.042
 20
-1406.02
 30
0.000000
  70
    32
  0
VERTEX
  8
01
  5
CD03
 10
721.921
 20
-1406.04
 30
0.000000
  70
    32
  0
VERTEX
  8
01
  5
CD04
 10
721.800
 20
-1406.05
 30
0.000000
  70
    32
  0
VERTEX
  8
01
  5
CD05
 10
721.678
 20
-1406.06
 30
0.000000
  70
    32
  0
VERTEX
  8
01
  5
CD06
 10
721.555
 20
-1406.07
 30
0.000000
  70
    32
  0
VERTEX
  8
01
  5
CD07
 10
721.433
 20
-1406.07
 30
0.000000
  70
    32
  0
VERTEX
  8
01
  5
CD08
 10
721.310
 20
-1406.08
 30
0.000000
  70
    32
  0
VERTEX
  8
01
  5
CD09
 10
721.188
 20
-1406.08
 30
0.000000
  70
    32
  0
VERTEX
  8
01
  5
CD0A
 10
721.065
 20
-1406.08
 30
0.000000
  70
    32
  0
VERTEX
  8
01
  5
CD0B
 10
720.942
 20
-1406.07
 30
0.000000
  70
    32
  0
VERTEX
  8
01
  5
CD0C
 10
720.820
 20
-1406.07
 30
0.000000
  70
    32
  0
VERTEX
  8
01
  5
CD0D
 10
720.698
 20
-1406.06
 30
0.000000
  70
    32
  0
VERTEX
  8
01
  5
CD0E
 10
720.576
 20
-1406.05
 30
0.000000
  70
    32
  0
VERTEX
  8
01
  5
CD0F
 10
720.454
 20
-1406.04
 30
0.000000
  70
    32
  0
VERTEX
  8
01
  5
CD10
 10
720.333
 20
-1406.02
 30
0.000000
  70
    32
  0
VERTEX
  8
01
  5
CD11
 10
720.212
 20
-1406.01
 30
0.000000
  70
    32
  0
VERTEX
  8
01
  5
CD12
 10
720.092
 20
-1405.99
 30
0.000000
  70
    32
  0
VERTEX
  8
01
  5
CD13
 10
719.973
 20
-1405.97
 30
0.000000
  70
    32
  0
VERTEX
  8
01
  5
CD14
 10
719.854
 20
-1405.95
 30
0.000000
  70
    32
  0
VERTEX
  8
01
  5
CD15
 10
719.736
 20
-1405.92
 30
0.000000
  70
    32
  0
VERTEX
  8
01
  5
CD16
 10
719.619
 20
-1405.90
 30
0.000000
  70
    32
  0
VERTEX
  8
01
  5
CD17
 10
719.503
 20
-1405.87
 30
0.000000
  70
    32
  0
VERTEX
  8
01
  5
CD18
 10
719.388
 20
-1405.84
 30
0.000000
  70
    32
  0
VERTEX
  8
01
  5
CD19
 10
719.274
 20
-1405.81
 30
0.000000
  70
    32
  0
VERTEX
  8
01
  5
CD1A
 10
719.161
 20
-1405.77
 30
0.000000
  70
    32
  0
VERTEX
  8
01
  5
CD1B
 10
719.050
 20
-1405.73
 30
0.000000
  70
    32
  0
VERTEX
  8
01
  5
CD1C
 10
718.940
 20
-1405.70
 30
0.000000
  70
    32
  0
VERTEX
  8
01
  5
CD1D
 10
718.831
 20
-1405.66
 30
0.000000
  70
    32
  0
VERTEX
  8
01
  5
CD1E
 10
718.723
 20
-1405.61
 30
0.000000
  70
    32
  0
VERTEX
  8
01
  5
CD1F
 10
718.617
 20
-1405.57
 30
0.000000
  70
    32
  0
VERTEX
  8
01
  5
CD20
 10
718.513
 20
-1405.52
 30
0.000000
  70
    32
  0
VERTEX
  8
01
  5
CD21
 10
718.410
 20
-1405.48
 30
0.000000
  70
    32
  0
VERTEX
  8
01
  5
CD22
 10
718.309
 20
-1405.43
 30
0.000000
  70
    32
  0
VERTEX
  8
01
  5
CD23
 10
718.209
 20
-1405.37
 30
0.000000
  70
    32
  0
VERTEX
  8
01
  5
CD24
 10
718.112
 20
-1405.32
 30
0.000000
  70
    32
  0
VERTEX
  8
01
  5
CD25
 10
718.016
 20
-1405.27
 30
0.000000
  70
    32
  0
VERTEX
  8
01
  5
CD26
 10
717.922
 20
-1405.21
 30
0.000000
  70
    32
  0
VERTEX
  8
01
  5
CD27
 10
717.830
 20
-1405.15
 30
0.000000
  70
    32
  0
VERTEX
  8
01
  5
CD28
 10
717.740
 20
-1405.09
 30
0.000000
  70
    32
  0
VERTEX
  8
01
  5
CD29
 10
717.652
 20
-1405.03
 30
0.000000
  70
    32
  0
VERTEX
  8
01
  5
CD2A
 10
717.566
 20
-1404.97
 30
0.000000
  70
    32
  0
VERTEX
  8
01
  5
CD2B
 10
717.483
 20
-1404.90
 30
0.000000
  70
    32
  0
VERTEX
  8
01
  5
CD2C
 10
717.402
 20
-1404.84
 30
0.000000
  70
    32
  0
VERTEX
  8
01
  5
CD2D
 10
717.323
 20
-1404.77
 30
0.000000
  70
    32
  0
VERTEX
  8
01
  5
CD2E
 10
717.246
 20
-1404.70
 30
0.000000
  70
    32
  0
VERTEX
  8
01
  5
CD2F
 10
717.172
 20
-1404.63
 30
0.000000
  70
    32
  0
VERTEX
  8
01
  5
CD30
 10
717.100
 20
-1404.56
 30
0.000000
  70
    32
  0
VERTEX
  8
01
  5
CD31
 10
717.030
 20
-1404.49
 30
0.000000
  70
    32
  0
VERTEX
  8
01
  5
CD32
 10
716.963
 20
-1404.42
 30
0.000000
  70
    32
  0
VERTEX
  8
01
  5
CD33
 10
716.899
 20
-1404.34
 30
0.000000
  70
    32
  0
VERTEX
  8
01
  5
CD34
 10
716.837
 20
-1404.27
 30
0.000000
  70
    32
  0
VERTEX
  8
01
  5
CD35
 10
716.778
 20
-1404.19
 30
0.000000
  70
    32
  0
VERTEX
  8
01
  5
CD36
 10
716.722
 20
-1404.11
 30
0.000000
  70
    32
  0
VERTEX
  8
01
  5
CD37
 10
716.668
 20
-1404.03
 30
0.000000
  70
    32
  0
VERTEX
  8
01
  5
CD38
 10
716.617
 20
-1403.95
 30
0.000000
  70
    32
  0
VERTEX
  8
01
  5
CD39
 10
716.568
 20
-1403.87
 30
0.000000
  70
    32
  0
VERTEX
  8
01
  5
CD3A
 10
716.523
 20
-1403.79
 30
0.000000
  70
    32
  0
VERTEX
  8
01
  5
CD3B
 10
716.480
 20
-1403.71
 30
0.000000
  70
    32
  0
VERTEX
  8
01
  5
CD3C
 10
716.440
 20
-1403.63
 30
0.000000
  70
    32
  0
VERTEX
  8
01
  5
CD3D
 10
716.403
 20
-1403.54
 30
0.000000
  70
    32
  0
VERTEX
  8
01
  5
CD3E
 10
716.369
 20
-1403.46
 30
0.000000
  70
    32
  0
VERTEX
  8
01
  5
CD3F
 10
716.338
 20
-1403.38
 30
0.000000
  70
    32
  0
VERTEX
  8
01
  5
CD40
 10
716.309
 20
-1403.29
 30
0.000000
  70
    32
  0
VERTEX
  8
01
  5
CD41
 10
716.284
 20
-1403.20
 30
0.000000
  70
    32
  0
VERTEX
  8
01
  5
CD42
 10
716.261
 20
-1403.12
 30
0.000000
  70
    32
  0
VERTEX
  8
01
  5
CD43
 10
716.242
 20
-1403.03
 30
0.000000
  70
    32
  0
VERTEX
  8
01
  5
CD44
 10
716.225
 20
-1402.95
 30
0.000000
  70
    32
  0
VERTEX
  8
01
  5
CD45
 10
716.212
 20
-1402.86
 30
0.000000
  70
    32
  0
VERTEX
  8
01
  5
CD46
 10
716.201
 20
-1402.77
 30
0.000000
  70
    32
  0
VERTEX
  8
01
  5
CD47
 10
716.194
 20
-1402.68
 30
0.000000
  70
    32
  0
VERTEX
  8
01
  5
CD48
 10
716.189
 20
-1402.60
 30
0.000000
  70
    32
  0
VERTEX
  8
01
  5
CD49
 10
716.188
 20
-1402.51
 30
0.000000
  70
    32
  0
SEQEND
  8
01
  5
CD4A
  0
LINE
  5
21FA
  8
01
 10
726.18766916632444
 20
-1389.64517138938
 30
0.0
 11
726.18766916632444
 21
-1402.5083313893811
 31
0.0
  0
LINE
  5
21FB
  8
01
 10
716.18766916632444
 20
-1389.64517138938
 30
0.0
 11
716.18766916632444
 21
-1402.5083313893781
 31
0.0
  0
LINE
  5
21FC
  8
01
 10
712.18765416632471
 20
-1356.07675138938
 30
0.0
 11
711.18765416632482
 21
-1355.07675138938
 31
0.0
  0
LINE
  5
21FD
  8
01
 10
713.58767116632475
 20
-1355.9767713893809
 30
0.0
 11
712.78769016632464
 21
-1355.17679138938
 31
0.0
  0
LINE
  5
21FE
  8
01
 10
713.58767116632475
 20
-1438.1767613893801
 30
0.0
 11
712.78766816632435
 21
-1438.9767413893801
 31
0.0
  0
LINE
  5
21FF
  8
01
 10
712.18761616632457
 20
-1438.0767813893799
 30
0.0
 11
711.18763116632431
 21
-1439.0767813893799
 31
0.0
  0
LINE
  5
2200
  8
01
 10
715.18766916632444
 20
-1462.07675138938
 30
0.0
 11
711.18766916632444
 21
-1462.07675138938
 31
0.0
  0
LINE
  5
2201
  8
01
 10
712.78767516632502
 20
-1462.07675138938
 30
0.0
 11
712.78767516632502
 21
-1438.9767413893801
 31
0.0
  0
LINE
  5
2202
  8
01
 10
711.18766916632444
 20
-1462.07675138938
 30
0.0
 11
711.18766916632444
 21
-1439.07675138938
 31
0.0
  0
LINE
  5
2203
  8
01
 10
712.18766916632444
 20
-1356.07675138938
 30
0.0
 11
712.18766916632444
 21
-1438.07675138938
 31
0.0
  0
LINE
  5
2204
  8
01
 10
715.18766916632444
 20
-1332.07675138938
 30
0.0
 11
711.18766916632444
 21
-1332.07675138938
 31
0.0
  0
LINE
  5
2207
  8
01
 10
821.68766916632444
 20
-1338.07675138938
 30
0.0
 11
821.68766916632444
 21
-1456.0767513893809
 31
0.0
  0
LINE
  5
2208
  8
01
 10
846.68766916632444
 20
-1338.07675138938
 30
0.0
 11
846.68766916632444
 21
-1456.0767513893809
 31
0.0
  0
ARC
  5
2209
  8
01
 10
840.68766916632444
 20
-1456.0767513893809
 30
0.0
 40
6.0
 50
270.0
 51
0.0
  0
ARC
  5
220A
  8
01
 10
827.68766916632433
 20
-1456.0767513893809
 30
0.0
 40
6.0
 50
180.0
 51
270.0
  0
LINE
  5
220B
  8
01
 10
841.93766916632433
 20
-1389.64517138938
 30
0.0
 11
841.93766916632433
 21
-1402.5083313893799
 31
0.0
  0
LINE
  5
220C
  8
01
 10
840.93766916632433
 20
-1391.0767513893809
 30
0.0
 11
840.93766916632433
 21
-1401.07675138938
 31
0.0
  0
LINE
  5
220D
  8
01
 10
827.43766916632444
 20
-1391.0767513893809
 30
0.0
 11
827.43766916632444
 21
-1401.07675138938
 31
0.0
  0
LINE
  5
220E
  8
01
 10
826.43766916632444
 20
-1389.64517138938
 30
0.0
 11
826.43766916632444
 21
-1402.5083313893799
 31
0.0
  0
ARC
  5
220F
  8
01
 10
834.18766916632444
 20
-1395.87674138938
 30
0.0
 40
10.199999999999999
 50
220.5530799999753
 51
319.44692000002459
  0
LINE
  5
2210
  8
01
 10
827.43766916632444
 20
-1401.07675138938
 30
0.0
 11
840.93766916632433
 21
-1401.07675138938
 31
0.0
  0
LINE
  5
2211
  8
01
 10
827.43766916632444
 20
-1391.0767513893809
 30
0.0
 11
840.93766916632433
 21
-1391.0767513893809
 31
0.0
  0
ARC
  5
2212
  8
01
 10
834.18766916632444
 20
-1396.27676138938
 30
0.0
 40
10.199999999999999
 50
40.553083999977588
 51
139.44692000002459
  0
CIRCLE
  5
2213
  8
01
 10
834.18766916632444
 20
-1454.07675138938
 30
0.0
 40
4.5
  0
CIRCLE
  5
2214
  8
01
 10
834.18766916632444
 20
-1454.07675138938
 30
0.0
 40
2.75
  0
LINE
  5
2215
  8
01
 10
827.68766916632433
 20
-1462.07675138938
 30
0.0
 11
840.68766916632444
 21
-1462.07675138938
 31
0.0
  0
ARC
  5
2216
  8
01
 10
840.68766916632444
 20
-1338.07675138938
 30
0.0
 40
6.0
 50
0.0
 51
90.0
  0
ARC
  5
2218
  8
01
 10
827.68766916632433
 20
-1338.07675138938
 30
0.0
 40
6.0
 50
90.0
 51
180.0
  0
LINE
  5
2219
  8
01
 10
827.68766916632433
 20
-1332.07675138938
 30
0.0
 11
840.68766916632444
 21
-1332.07675138938
 31
0.0
  0
CIRCLE
  5
221A
  8
01
 10
834.18766916632444
 20
-1340.07675138938
 30
0.0
 40
4.5
  0
CIRCLE
  5
221B
  8
01
 10
834.18766916632444
 20
-1340.07675138938
 30
0.0
 40
2.75
  0
LINE
  5
2221
  8
01
 10
955.58767516632429
 20
-1332.07675138938
 30
0.0
 11
955.58767516632429
 21
-1355.17672138938
 31
0.0
  0
LINE
  5
2222
  8
01
 10
957.1876651663249
 20
-1332.07675138938
 30
0.0
 11
957.1876651663249
 21
-1355.07675138938
 31
0.0
  0
LINE
  5
2223
  8
01
 10
954.78767516632513
 20
-1332.07675138938
 30
0.0
 11
954.78767516632513
 21
-1462.07675138938
 31
0.0
  0
LINE
  5
2224
  8
01
 10
953.18766516632502
 20
-1332.07675138938
 30
0.0
 11
953.18766516632502
 21
-1462.07675138938
 31
0.0
  0
LINE
  5
2226
  8
01
 10
956.1876651663249
 20
-1434.0767513893809
 30
0.0
 11
977.68766516632513
 21
-1434.07675138938
 31
0.0
  0
LINE
  5
2227
  8
01
 10
956.18767516632465
 20
-1356.07675138938
 30
0.0
 11
957.18767516632465
 21
-1355.07675138938
 31
0.0
  0
LINE
  5
2228
  8
01
 10
954.78766516632527
 20
-1355.9767713893809
 30
0.0
 11
955.58767516632429
 21
-1355.17672138938
 31
0.0
  0
LINE
  5
2229
  8
01
 10
946.1876651663249
 20
-1386.0767513893809
 30
0.0
 11
953.18766516632502
 21
-1386.0767513893809
 31
0.0
  0
LINE
  5
222A
  8
01
 10
946.1876651663249
 20
-1406.0767513893809
 30
0.0
 11
953.18766516632502
 21
-1406.0767513893809
 31
0.0
  0
LINE
  5
222B
  8
01
 10
942.26976516632453
 20
-1402.8830213893809
 30
0.0
 11
953.18766516632502
 21
-1402.8830213893809
 31
0.0
  0
LINE
  5
222C
  8
01
 10
942.26976516632453
 20
-1389.27047138938
 30
0.0
 11
953.18766516632502
 21
-1389.27047138938
 31
0.0
  0
LINE
  5
222D
  8
01
 10
942.18766516632479
 20
-1390.0767513893809
 30
0.0
 11
942.18766516632479
 21
-1402.0767513893809
 31
0.0
  0
ARC
  5
222E
  8
01
 10
946.1876651663249
 20
-1402.0767513893809
 30
0.0
 40
4.0
 50
179.999989999999
 51
270.0
  0
ARC
  5
222F
  8
01
 10
946.1876651663249
 20
-1390.0767513893809
 30
0.0
 40
4.0
 50
90.000002999984659
 51
180.00001000000091
  0
LINE
  5
2230
  8
01
 10
954.78766516632527
 20
-1438.1767613893801
 30
0.0
 11
955.58767516632429
 21
-1438.9767413893801
 31
0.0
  0
LINE
  5
2231
  8
01
 10
956.18771516632546
 20
-1438.0767813893799
 30
0.0
 11
957.18769516632415
 21
-1439.07675138938
 31
0.0
  0
LINE
  5
2232
  8
01
 10
948.1876651663249
 20
-1454.07675138938
 30
0.0
 11
962.1876651663249
 21
-1454.07675138938
 31
0.0
  0
LINE
  5
2233
  8
01
 10
953.18766516632502
 20
-1462.07675138938
 30
0.0
 11
957.1876651663249
 21
-1462.07675138938
 31
0.0
  0
LINE
  5
2234
  8
01
 10
955.58767516632429
 20
-1462.07675138938
 30
0.0
 11
955.58767516632429
 21
-1438.9767413893801
 31
0.0
  0
LINE
  5
2235
  8
01
 10
957.1876651663249
 20
-1462.07675138938
 30
0.0
 11
957.1876651663249
 21
-1439.07675138938
 31
0.0
  0
LINE
  5
2236
  8
01
 10
956.1876651663249
 20
-1356.07675138938
 30
0.0
 11
956.1876651663249
 21
-1438.07675138938
 31
0.0
  0
LINE
  5
2239
  8
01
 10
953.18766516632502
 20
-1332.07675138938
 30
0.0
 11
957.1876651663249
 21
-1332.07675138938
 31
0.0
  0
LINE
  5
223A
  8
01
 10
948.1876651663249
 20
-1340.07675138938
 30
0.0
 11
962.1876651663249
 21
-1340.07675138938
 31
0.0
  0
LINE
  5
2244
  8
01
 10
957.18854934838487
 20
-1138.5767513904091
 30
0.0
 11
1023.188549348385
 21
-1138.5767513904091
 31
0.0
  0
LINE
  5
2245
  8
01
 10
957.18854934838487
 20
-1140.1767213904091
 30
0.0
 11
1023.188549348385
 21
-1140.1767213904091
 31
0.0
  0
LINE
  5
2246
  8
01
 10
954.78855934838487
 20
-1157.5767513904091
 30
0.0
 11
1023.188549348385
 21
-1157.5767513904091
 31
0.0
  0
LINE
  5
2247
  8
01
 10
956.38853934838573
 20
-1143.0767513904091
 30
0.0
 11
957.18854934838487
 21
-1142.276731390408
 31
0.0
  0
LINE
  5
2248
  8
01
 10
957.18854934838487
 20
-1137.5767513904091
 30
0.0
 11
957.18854934838487
 21
-1142.276731390408
 31
0.0
  0
LINE
  5
2249
  8
01
 10
954.78855934838487
 20
-1143.0767213904089
 30
0.0
 11
955.58854934838632
 21
-1142.2767613904091
 31
0.0
  0
LINE
  5
224A
  8
01
 10
942.18854934838475
 20
-1155.8267513904091
 30
0.0
 11
953.18854934838475
 21
-1155.8267513904091
 31
0.0
  0
LINE
  5
224B
  8
01
 10
942.18854934838475
 20
-1155.8267513904091
 30
0.0
 11
942.18854934838475
 21
-1153.8267513904091
 31
0.0
  0
LINE
  5
224C
  8
01
 10
953.18854934838475
 20
-1135.5767513904091
 30
0.0
 11
954.78855934838487
 21
-1135.5767513904091
 31
0.0
  0
LINE
  5
224D
  8
01
 10
954.78855934838487
 20
-1135.5767513904091
 30
0.0
 11
954.78855934838487
 21
-1143.0767513904091
 31
0.0
  0
LINE
  5
224E
  8
01
 10
955.58855934838607
 20
-1137.5767513904091
 30
0.0
 11
955.58855934838607
 21
-1142.276731390408
 31
0.0
  0
LINE
  5
224F
  8
01
 10
954.78855934838487
 20
-1137.5767513904091
 30
0.0
 11
957.18854934838487
 21
-1137.5767513904091
 31
0.0
  0
LINE
  5
2250
  8
01
 10
957.18854934838487
 20
-1153.8767413904079
 30
0.0
 11
957.18854934838487
 21
-1157.5767513904091
 31
0.0
  0
LINE
  5
2251
  8
01
 10
956.38855934838534
 20
-1153.0767213904089
 30
0.0
 11
957.18854934838487
 21
-1153.8767413904079
 31
0.0
  0
LINE
  5
2252
  8
01
 10
957.18854934838487
 20
-1155.976741390409
 30
0.0
 11
961.78855934838487
 21
-1155.976741390409
 31
0.0
  0
LINE
  5
2253
  8
01
 10
954.78854934838512
 20
-1153.0767213904089
 30
0.0
 11
955.58855934838607
 21
-1153.8767413904079
 31
0.0
  0
LINE
  5
2254
  8
01
 10
954.78855934838487
 20
-1153.0767513904091
 30
0.0
 11
954.78855934838487
 21
-1160.5767513904091
 31
0.0
  0
LINE
  5
2255
  8
01
 10
953.18854934838475
 20
-1160.5767513904091
 30
0.0
 11
954.78855934838487
 21
-1160.5767513904091
 31
0.0
  0
LINE
  5
2256
  8
01
 10
955.58855934838607
 20
-1153.8767413904079
 30
0.0
 11
955.58855934838607
 21
-1157.5767513904091
 31
0.0
  0
LINE
  5
2257
  8
01
 10
953.18854934838475
 20
-1128.0767513904091
 30
0.0
 11
953.18854934838475
 21
-1168.0767513904091
 31
0.0
  0
LINE
  5
2258
  8
01
 10
961.78855934838487
 20
-1140.1767213904091
 30
0.0
 11
961.78855934838487
 21
-1157.5767513904091
 31
0.0
  0
LINE
  5
2259
  8
01
 10
956.38854934838548
 20
-1143.0767513904091
 30
0.0
 11
956.38854934838548
 21
-1153.0767513904091
 31
0.0
  0
LINE
  5
225A
  8
01
 10
954.78855934838487
 20
-1143.0767513904091
 30
0.0
 11
954.78855934838487
 21
-1153.0767513904091
 31
0.0
  0
ARC
  5
225B
  8
01
 10
985.85804934838507
 20
-1178.1778313904081
 30
0.0
 40
50.0
 50
130.7976899999974
 51
150.85500000002
  0
LINE
  5
225D
  8
01
 10
1021.588549348386
 20
-1140.1767213904091
 30
0.0
 11
1021.588549348386
 21
-1157.5767513904091
 31
0.0
  0
LINE
  5
225E
  8
01
 10
1023.188549348385
 20
-1138.5767513904091
 30
0.0
 11
1023.188549348385
 21
-1157.5767513904091
 31
0.0
  0
LINE
  5
225F
  8
01
 10
985.54989789461706
 20
-1113.5767203904111
 30
0.0
 11
1001.172534506068
 21
-1113.5767203904111
 31
0.0
  0
POINT
  5
2260
  8
01
 10
854.18766916632444
 20
-1418.0767513893809
 30
0.0
  0
LINE
  5
2261
  8
01
 10
854.18766916632444
 20
-1443.07675138938
 30
0.0
 11
854.18766916632444
 21
-1393.0768513893811
 31
0.0
  0
LINE
  5
2262
  8
01
 10
720.18767316632386
 20
-1454.07675138938
 30
0.0
 11
706.18767316632409
 21
-1454.07675138938
 31
0.0
  0
LINE
  5
2263
  8
01
 10
720.18767316632386
 20
-1340.07675138938
 30
0.0
 11
706.18767316632409
 21
-1340.07675138938
 31
0.0
  0
LINE
  5
2264
  8
01
 10
840.68766916632444
 20
-1340.07675138938
 30
0.0
 11
827.68766916632433
 21
-1340.07675138938
 31
0.0
  0
LINE
  5
2265
  8
01
 10
834.18766916632444
 20
-1333.5767513893809
 30
0.0
 11
834.18766916632444
 21
-1346.57675138938
 31
0.0
  0
LINE
  5
2266
  8
01
 10
840.68766916632444
 20
-1454.07675138938
 30
0.0
 11
827.68766916632433
 21
-1454.07675138938
 31
0.0
  0
LINE
  5
2267
  8
01
 10
834.18766916632444
 20
-1447.57675138938
 30
0.0
 11
834.18766916632444
 21
-1460.5767513893809
 31
0.0
  0
LINE
  5
2268
  8
01
 10
694.1876731663242
 20
-1418.0767513893809
 30
0.0
 11
634.1876731663242
 21
-1418.0767513893809
 31
0.0
  0
LINE
  5
2269
  8
01
 10
664.18767316632409
 20
-1388.0767513893809
 30
0.0
 11
664.18767316632409
 21
-1448.0767513893809
 31
0.0
  0
LINE
  5
226A
  8
01
 10
974.18766516632468
 20
-1418.0767513893809
 30
0.0
 11
1034.187665166324
 21
-1418.0767513893809
 31
0.0
  0
LINE
  5
226B
  8
01
 10
1004.187665166324
 20
-1388.0767513893809
 30
0.0
 11
1004.187665166324
 21
-1448.0767513893809
 31
0.0
  0
POINT
  5
2270
  8
01
 10
868.68766916632433
 20
-1418.0767513893809
 30
0.0
  0
LINE
  5
2271
  8
01
 10
868.28766915632445
 20
-1419.82675138938
 30
0.0
 11
868.28766915632445
 21
-1418.9767513693801
 31
0.0
  0
LINE
  5
2272
  8
01
 10
869.08766917632454
 20
-1419.82675138938
 30
0.0
 11
869.08766917632454
 21
-1418.9767513693801
 31
0.0
  0
LINE
  5
2273
  8
01
 10
867.78766918632448
 20
-1418.4767513993811
 30
0.0
 11
866.93766916632433
 21
-1418.4767513993811
 31
0.0
  0
LINE
  5
2274
  8
01
 10
867.78766918632448
 20
-1417.6767513793809
 30
0.0
 11
866.93766916632433
 21
-1417.6767513793809
 31
0.0
  0
LINE
  5
2275
  8
01
 10
866.93766916632433
 20
-1418.4767513993811
 30
0.0
 11
866.93766916632433
 21
-1417.6767513793809
 31
0.0
  0
LINE
  5
2276
  8
01
 10
869.08766917632454
 20
-1419.82675138938
 30
0.0
 11
868.28766915632445
 21
-1419.82675138938
 31
0.0
  0
LINE
  5
2277
  8
01
 10
869.08766917632454
 20
-1416.32675138938
 30
0.0
 11
869.08766917632454
 21
-1417.176751409381
 31
0.0
  0
LINE
  5
2278
  8
01
 10
868.28766915632445
 20
-1416.32675138938
 30
0.0
 11
868.28766915632445
 21
-1417.176751409381
 31
0.0
  0
LINE
  5
2279
  8
01
 10
869.58766914632417
 20
-1417.6767513793809
 30
0.0
 11
870.43766916632433
 21
-1417.6767513793809
 31
0.0
  0
LINE
  5
227A
  8
01
 10
869.58766914632417
 20
-1418.4767513993811
 30
0.0
 11
870.43766916632433
 21
-1418.4767513993811
 31
0.0
  0
LINE
  5
227B
  8
01
 10
870.43766916632433
 20
-1417.6767513793809
 30
0.0
 11
870.43766916632433
 21
-1418.4767513993811
 31
0.0
  0
LINE
  5
227C
  8
01
 10
868.28766915632445
 20
-1416.32675138938
 30
0.0
 11
869.08766917632454
 21
-1416.32675138938
 31
0.0
  0
CIRCLE
  5
227D
  8
01
 10
868.68766916632433
 20
-1418.0767513893809
 30
0.0
 40
2.5
  0
ARC
  5
227E
  8
01
 10
869.58766914632417
 20
-1417.176751409381
 30
0.0
 40
0.5
 50
179.9999899999998
 51
270.0
  0
ARC
  5
227F
  8
01
 10
869.58766914632417
 20
-1418.9767513693801
 30
0.0
 40
0.5
 50
90.000003000000945
 51
180.0000100000002
  0
ARC
  5
2280
  8
01
 10
867.78766918632448
 20
-1418.9767513693801
 30
0.0
 40
0.5
 50
0.0
 51
90.000003000000945
  0
ARC
  5
2281
  8
01
 10
867.78766918632448
 20
-1417.176751409381
 30
0.0
 40
0.5
 50
270.0
 51
0.0
  0
POINT
  5
2283
  8
01
 10
799.68766916632444
 20
-1418.0767513893809
 30
0.0
 50
180.0
  0
CIRCLE
  5
2284
  8
01
 10
799.68766916632444
 20
-1418.0767513893809
 30
0.0
 40
2.5
  0
LINE
  5
23F2
  8
01
 10
1022.187665166325
 20
-1382.57675138938
 30
0.0
 11
1022.187665166325
 21
-1391.57675138938
 31
0.0
  0
LINE
  5
243C
  8
01
 10
651.18766516632331
 20
-1368.0767513893809
 30
0.0
 11
677.18766516632331
 21
-1368.0767513893809
 31
0.0
  0
LINE
  5
243E
  8
01
 10
686.68766516632331
 20
-1362.57675138938
 30
0.0
 11
641.6876651663232
 21
-1362.57675138938
 31
0.0
  0
LINE
  5
243F
  8
01
 10
664.18766516632331
 20
-1340.07675138938
 30
0.0
 11
664.18766516632331
 21
-1385.07675138938
 31
0.0
  0
LINE
  5
2441
  8
01
 10
1017.187673166325
 20
-1368.0767513893809
 30
0.0
 11
991.18767316632545
 21
-1368.0767513893809
 31
0.0
  0
LINE
  5
2442
  8
01
 10
981.68767316632545
 20
-1362.57675138938
 30
0.0
 11
1026.6876731663251
 21
-1362.57675138938
 31
0.0
  0
LINE
  5
2443
  8
01
 10
1004.187673166325
 20
-1340.07675138938
 30
0.0
 11
1004.187673166325
 21
-1385.07675138938
 31
0.0
  0
LINE
  5
597B
  8
01
 10
1004.18778150607
 20
-1098.0767513904091
 30
0.0
 11
1004.18778150607
 21
-1133.0767513904091
 31
0.0
  0
LINE
  5
597C
  8
01
 10
1004.18778150607
 20
-1163.0767513904091
 30
0.0
 11
1004.18778150607
 21
-1198.0767513904091
 31
0.0
  0
LINE
  5
597D
  8
01
 10
784.18766916632455
 20
-1418.0767513893809
 30
0.0
 11
819.18766916632455
 21
-1418.0767513893809
 31
0.0
  0
LINE
  5
597E
  8
01
 10
849.18766916632467
 20
-1418.0767513893809
 30
0.0
 11
884.18766916632455
 21
-1418.0767513893809
 31
0.0
  0
LINE
  5
A5D8
  8
01
 10
953.18854934838475
 20
-1168.0767513904091
 30
0.0
 11
1106.942929503417
 21
-1168.0767513904091
 31
0.0
  0
LINE
  5
A5D9
  8
01
 10
953.18854934838475
 20
-1128.0767513904091
 30
0.0
 11
1106.942929503417
 21
-1128.0767513904091
 31
0.0
  0
ARC
  5
B0DF
  8
01
 10
1015.687665166324
 20
-1429.57675138938
 30
0.0
 40
0.5
 50
270.0
 51
0.0
  0
ARC
  5
B0E0
  8
01
 10
992.68766516632468
 20
-1429.57675138938
 30
0.0
 40
0.5
 50
180.0
 51
270.0
  0
ARC
  5
B0E1
  8
01
 10
992.68766516632468
 20
-1406.57675138938
 30
0.0
 40
0.5
 50
90.0
 51
180.0
  0
ARC
  5
B0E2
  8
01
 10
1015.687665166324
 20
-1406.57675138938
 30
0.0
 40
0.5
 50
0.0
 51
90.0
  0
LINE
  5
B0E3
  8
01
 10
1015.687665166324
 20
-1430.07675138938
 30
0.0
 11
992.68766516632468
 21
-1430.07675138938
 31
0.0
  0
LINE
  5
B0E4
  8
01
 10
992.68766516632468
 20
-1406.07675138938
 30
0.0
 11
1015.687665166324
 21
-1406.07675138938
 31
0.0
  0
LINE
  5
B0E5
  8
01
 10
992.18766516632468
 20
-1406.57675138938
 30
0.0
 11
992.18766516632468
 21
-1429.5767513893809
 31
0.0
  0
LINE
  5
B0E6
  8
01
 10
1016.187665166325
 20
-1406.57675138938
 30
0.0
 11
1016.187665166325
 21
-1429.57675138938
 31
0.0
  0
ARC
  5
B0E7
  8
01
 10
1128.687665166324
 20
-1429.57675138938
 30
0.0
 40
0.5
 50
270.0
 51
0.0
  0
ARC
  5
B0E8
  8
01
 10
1128.687665166324
 20
-1406.57675138938
 30
0.0
 40
0.5
 50
0.0
 51
90.0
  0
ARC
  5
B0E9
  8
01
 10
1016.687665166324
 20
-1406.57675138938
 30
0.0
 40
0.5
 50
90.0
 51
180.0
  0
ARC
  5
B0EA
  8
01
 10
1016.687665166324
 20
-1429.57675138938
 30
0.0
 40
0.5
 50
180.0
 51
270.0
  0
LINE
  5
B0EB
  8
01
 10
1129.187665166324
 20
-1406.57675138938
 30
0.0
 11
1129.187665166324
 21
-1429.57675138938
 31
0.0
  0
LINE
  5
B0EC
  8
01
 10
1016.187665166325
 20
-1406.57675138938
 30
0.0
 11
1016.187665166325
 21
-1429.57675138938
 31
0.0
  0
LINE
  5
B0ED
  8
01
 10
1016.687665166324
 20
-1430.07675138938
 30
0.0
 11
1128.687665166324
 21
-1430.07675138938
 31
0.0
  0
LINE
  5
B0EE
  8
01
 10
1016.687665166324
 20
-1406.07675138938
 30
0.0
 11
1128.687665166324
 21
-1406.07675138938
 31
0.0
  0
LINE
  5
B346
  8
01
 10
993.18778143996576
 20
-1177.2767513904139
 30
0.0
 11
1016.187781439966
 21
-1177.2767513904089
 31
0.0
  0
ARC
  5
B347
  8
01
 10
1015.687781439966
 20
-1213.7767513904089
 30
0.0
 40
0.5
 50
270.0
 51
0.0
  0
ARC
  5
B348
  8
01
 10
992.68778143996485
 20
-1213.7767513904089
 30
0.0
 40
0.5
 50
180.0
 51
270.0
  0
LINE
  5
B349
  8
01
 10
992.68778143996485
 20
-1214.2767513904089
 30
0.0
 11
1015.687781439966
 21
-1214.2767513904089
 31
0.0
  0
LINE
  5
B34C
  8
01
 10
992.18778143996587
 20
-1177.2767513904089
 30
0.0
 11
992.18778143996497
 21
-1213.7767513904089
 31
0.0
  0
LINE
  5
B34D
  8
01
 10
992.18778143996587
 20
-1177.2767513904089
 30
0.0
 11
993.18778143996576
 21
-1177.2767513904089
 31
0.0
  0
ARC
  5
B34E
  8
01
 10
1016.687781439965
 20
-1213.7767513904089
 30
0.0
 40
0.5
 50
180.0
 51
270.0
  0
ARC
  5
B34F
  8
01
 10
1128.6877814399661
 20
-1196.7767513904089
 30
0.0
 40
0.5
 50
0.0
 51
90.0
  0
ARC
  5
B350
  8
01
 10
1120.6877814399661
 20
-1196.7767513904089
 30
0.0
 40
0.5
 50
90.0
 51
180.0
  0
ARC
  5
B351
  8
01
 10
1116.1877814399661
 20
-1201.2767513904089
 30
0.0
 40
4.0
 50
270.0
 51
0.0
  0
ARC
  5
B352
  8
01
 10
1029.1877814399661
 20
-1201.2767513904089
 30
0.0
 40
4.0
 50
180.0
 51
270.0
  0
LINE
  5
B353
  8
01
 10
1024.687781439965
 20
-1177.2767513904089
 30
0.0
 11
1016.187781439966
 21
-1177.2767513904089
 31
0.0
  0
ARC
  5
B354
  8
01
 10
1024.687781439965
 20
-1177.7767513904089
 30
0.0
 40
0.5
 50
0.0
 51
90.0
  0
LINE
  5
B355
  8
01
 10
1119.1877814399661
 20
-1214.2767513904089
 30
0.0
 11
1016.687781439965
 21
-1214.2767513904089
 31
0.0
  0
ARC
  5
B356
  8
01
 10
1119.1877814399661
 20
-1204.2767513904089
 30
0.0
 40
10.0
 50
270.0
 51
0.0
  0
LINE
  5
B357
  8
01
 10
1129.1877814399661
 20
-1196.7767513904089
 30
0.0
 11
1129.1877814399661
 21
-1204.2767513904089
 31
0.0
  0
LINE
  5
B358
  8
01
 10
1120.6877814399661
 20
-1196.2767513904089
 30
0.0
 11
1128.6877814399661
 21
-1196.2767513904089
 31
0.0
  0
LINE
  5
B359
  8
01
 10
1120.1877814399661
 20
-1201.2767513904089
 30
0.0
 11
1120.1877814399661
 21
-1196.7767513904089
 31
0.0
  0
LINE
  5
B35A
  8
01
 10
1029.1877814399661
 20
-1205.2767513904089
 30
0.0
 11
1116.1877814399661
 21
-1205.2767513904089
 31
0.0
  0
LINE
  5
B35B
  8
01
 10
1025.187781439965
 20
-1177.7767513904089
 30
0.0
 11
1025.1877814399661
 21
-1201.2767513904089
 31
0.0
  0
LINE
  5
B35C
  8
01
 10
1016.187781439966
 20
-1213.7767513904089
 30
0.0
 11
1016.187781439966
 21
-1177.2767513904089
 31
0.0
  0
ARC
  5
B9DA
  8
01
 10
899.88766916632426
 20
-1429.5767513893809
 30
0.0
 40
0.5
 50
270.0
 51
0.0
  0
ARC
  5
B9DB
  8
01
 10
899.88766916632426
 20
-1406.5767513893809
 30
0.0
 40
0.5
 50
0.0
 51
90.0
  0
LINE
  5
B9DC
  8
01
 10
900.38766916632335
 20
-1406.5767513893809
 30
0.0
 11
900.38766916632414
 21
-1429.5767513893809
 31
0.0
  0
LINE
  5
B9E0
  8
01
 10
863.38766916632426
 20
-1430.07675138938
 30
0.0
 11
899.88766916632426
 21
-1430.07675138938
 31
0.0
  0
LINE
  5
B9E1
  8
01
 10
863.38766916632426
 20
-1406.07675138938
 30
0.0
 11
899.88766916632426
 21
-1406.0767513893809
 31
0.0
  0
LINE
  5
B9E2
  8
01
 10
863.38766916632426
 20
-1406.07675138938
 30
0.0
 11
863.38766916632426
 21
-1430.07675138938
 31
0.0
  0
ARC
  5
BA70
  8
01
 10
652.68767316632375
 20
-1429.57675138938
 30
0.0
 40
0.5
 50
180.0
 51
270.0
  0
ARC
  5
BA71
  8
01
 10
675.68767316632375
 20
-1429.57675138938
 30
0.0
 40
0.5
 50
270.0
 51
0.000000000000007
  0
ARC
  5
BA72
  8
01
 10
675.68767316632375
 20
-1406.57675138938
 30
0.0
 40
0.5
 50
0.000000000000007
 51
90.0
  0
ARC
  5
BA73
  8
01
 10
652.68767316632375
 20
-1406.57675138938
 30
0.0
 40
0.5
 50
90.0
 51
180.0
  0
LINE
  5
BA74
  8
01
 10
652.68767316632375
 20
-1430.07675138938
 30
0.0
 11
675.68767316632375
 21
-1430.07675138938
 31
0.0
  0
LINE
  5
BA75
  8
01
 10
675.68767316632375
 20
-1406.07675138938
 30
0.0
 11
652.68767316632375
 21
-1406.07675138938
 31
0.0
  0
LINE
  5
BA76
  8
01
 10
676.18767316632375
 20
-1406.57675138938
 30
0.0
 11
676.18767316632375
 21
-1429.5767513893809
 31
0.0
  0
LINE
  5
BA77
  8
01
 10
652.18767316632375
 20
-1406.57675138938
 30
0.0
 11
652.18767316632375
 21
-1429.57675138938
 31
0.0
  0
ARC
  5
BA78
  8
01
 10
539.68767316632375
 20
-1429.57675138938
 30
0.0
 40
0.5
 50
180.0
 51
270.0
  0
ARC
  5
BA79
  8
01
 10
539.68767316632375
 20
-1406.57675138938
 30
0.0
 40
0.5
 50
90.0
 51
180.0
  0
ARC
  5
BA7A
  8
01
 10
651.68767316632375
 20
-1406.57675138938
 30
0.0
 40
0.5
 50
0.000000000000007
 51
90.0
  0
ARC
  5
BA7B
  8
01
 10
651.68767316632375
 20
-1429.57675138938
 30
0.0
 40
0.5
 50
270.0
 51
0.000000000000007
  0
LINE
  5
BA7C
  8
01
 10
539.18767316632375
 20
-1406.57675138938
 30
0.0
 11
539.18767316632375
 21
-1429.57675138938
 31
0.0
  0
LINE
  5
BA7D
  8
01
 10
652.18767316632375
 20
-1406.57675138938
 30
0.0
 11
652.18767316632375
 21
-1429.57675138938
 31
0.0
  0
LINE
  5
BA7E
  8
01
 10
651.68767316632375
 20
-1430.07675138938
 30
0.0
 11
539.68767316632375
 21
-1430.07675138938
 31
0.0
  0
LINE
  5
BA7F
  8
01
 10
651.68767316632375
 20
-1406.07675138938
 30
0.0
 11
539.68767316632375
 21
-1406.07675138938
 31
0.0
  0
ARC
  5
BA88
  8
01
 10
768.48766916632417
 20
-1429.5767513893809
 30
0.0
 40
0.5
 50
180.0
 51
270.0
  0
ARC
  5
BA89
  8
01
 10
768.48766916632417
 20
-1406.5767513893809
 30
0.0
 40
0.5
 50
90.0
 51
180.0
  0
LINE
  5
BA8A
  8
01
 10
767.98766916632508
 20
-1406.5767513893809
 30
0.0
 11
767.98766916632405
 21
-1429.5767513893809
 31
0.0
  0
LINE
  5
BA8E
  8
01
 10
804.98766916632405
 20
-1430.07675138938
 30
0.0
 11
768.48766916632417
 21
-1430.07675138938
 31
0.0
  0
LINE
  5
BA8F
  8
01
 10
804.98766916632405
 20
-1406.07675138938
 30
0.0
 11
768.48766916632417
 21
-1406.0767513893809
 31
0.0
  0
LINE
  5
BA90
  8
01
 10
804.98766916632405
 20
-1406.07675138938
 30
0.0
 11
804.98766916632405
 21
-1430.07675138938
 31
0.0
  0
ARC
  5
BC25
  8
01
 10
1015.687781439966
 20
-1082.376751390409
 30
0.0
 40
0.5
 50
0.0
 51
90.000000000000028
  0
ARC
  5
BC26
  8
01
 10
992.68778143996485
 20
-1082.376751390409
 30
0.0
 40
0.5
 50
90.000000000000028
 51
180.0
  0
LINE
  5
BC27
  8
01
 10
992.68778143996485
 20
-1081.876751390409
 30
0.0
 11
1015.687781439966
 21
-1081.876751390409
 31
0.0
  0
LINE
  5
BC2A
  8
01
 10
992.18778143996587
 20
-1118.876751390409
 30
0.0
 11
992.18778143996497
 21
-1082.376751390409
 31
0.0
  0
LINE
  5
BC2B
  8
01
 10
992.18778143996587
 20
-1118.876751390409
 30
0.0
 11
1001.687781506062
 21
-1118.8767513904049
 31
0.0
  0
ARC
  5
BC2C
  8
01
 10
1016.687781439965
 20
-1082.376751390409
 30
0.0
 40
0.5
 50
90.000000000000028
 51
180.0
  0
ARC
  5
BC2D
  8
01
 10
1128.6877814399661
 20
-1099.376751390409
 30
0.0
 40
0.5
 50
270.0
 51
0.0
  0
ARC
  5
BC2E
  8
01
 10
1120.6877814399661
 20
-1099.376751390409
 30
0.0
 40
0.5
 50
180.0
 51
270.0
  0
ARC
  5
BC2F
  8
01
 10
1116.1877814399661
 20
-1094.876751390409
 30
0.0
 40
4.0
 50
0.0
 51
90.000000000000028
  0
ARC
  5
BC30
  8
01
 10
1029.1877814399661
 20
-1094.876751390409
 30
0.0
 40
4.0
 50
90.000000000000028
 51
180.0
  0
ARC
  5
BC32
  8
01
 10
1024.687781439965
 20
-1118.376751390409
 30
0.0
 40
0.5
 50
270.0
 51
0.0
  0
LINE
  5
BC33
  8
01
 10
1119.1877814399661
 20
-1081.876751390409
 30
0.0
 11
1016.687781439965
 21
-1081.876751390409
 31
0.0
  0
ARC
  5
BC34
  8
01
 10
1119.1877814399661
 20
-1091.876751390409
 30
0.0
 40
10.0
 50
0.0
 51
90.000000000000028
  0
LINE
  5
BC35
  8
01
 10
1129.1877814399661
 20
-1099.376751390409
 30
0.0
 11
1129.1877814399661
 21
-1091.876751390409
 31
0.0
  0
LINE
  5
BC36
  8
01
 10
1120.6877814399661
 20
-1099.876751390409
 30
0.0
 11
1128.6877814399661
 21
-1099.876751390409
 31
0.0
  0
LINE
  5
BC37
  8
01
 10
1120.1877814399661
 20
-1094.876751390409
 30
0.0
 11
1120.1877814399661
 21
-1099.376751390409
 31
0.0
  0
LINE
  5
BC38
  8
01
 10
1029.1877814399661
 20
-1090.876751390409
 30
0.0
 11
1116.1877814399661
 21
-1090.876751390409
 31
0.0
  0
LINE
  5
BC39
  8
01
 10
1025.187781439965
 20
-1118.376751390409
 30
0.0
 11
1025.1877814399661
 21
-1094.876751390409
 31
0.0
  0
LINE
  5
BC3A
  8
01
 10
1016.187781439966
 20
-1082.376751390409
 30
0.0
 11
1016.187781439966
 21
-1118.876751390409
 31
0.0
  0
LINE
  5
BC5C
  8
01
 10
985.54989789461706
 20
-1182.7767513904089
 30
0.0
 11
1001.172534506068
 21
-1182.7767513904089
 31
0.0
  0
LINE
  5
BD94
  8
01
 10
854.18766916632444
 20
-1391.5767513893809
 30
0.0
 11
854.18766916632444
 21
-1444.5767513893809
 31
0.0
  0
LINE
  5
BD95
  8
01
 10
862.68766916632455
 20
-1444.0767513893809
 30
0.0
 11
862.68766916632455
 21
-1392.0767513893809
 31
0.0
  0
ARC
  5
BD96
  8
01
 10
862.18766916632444
 20
-1444.0767513893809
 30
0.0
 40
0.5
 50
270.0
 51
0.0
  0
LINE
  5
BD97
  8
01
 10
854.18766916632444
 20
-1444.5767513893809
 30
0.0
 11
862.18766916632444
 21
-1444.5767513893809
 31
0.0
  0
LINE
  5
BD98
  8
01
 10
854.18766916632444
 20
-1391.5767513893809
 30
0.0
 11
862.18766916632444
 21
-1391.5767513893809
 31
0.0
  0
ARC
  5
BD99
  8
01
 10
862.18766916632444
 20
-1392.0767513893809
 30
0.0
 40
0.5
 50
0.0
 51
90.0
  0
LINE
  5
BD9A
  8
01
 10
814.18766916632433
 20
-1391.5767513893809
 30
0.0
 11
814.18766916632433
 21
-1444.5767513893809
 31
0.0
  0
LINE
  5
BD9B
  8
01
 10
805.68766916632455
 20
-1444.0767513893809
 30
0.0
 11
805.68766916632444
 21
-1392.0767513893809
 31
0.0
  0
ARC
  5
BD9C
  8
01
 10
806.18766916632433
 20
-1392.0767513893809
 30
0.0
 40
0.5
 50
90.0
 51
180.0
  0
LINE
  5
BD9D
  8
01
 10
814.18766916632433
 20
-1444.5767513893809
 30
0.0
 11
806.18766916632467
 21
-1444.5767513893809
 31
0.0
  0
ARC
  5
BD9E
  8
01
 10
806.18766916632467
 20
-1444.0767513893809
 30
0.0
 40
0.5
 50
180.0
 51
270.0
  0
LINE
  5
BD9F
  8
01
 10
814.18766916632433
 20
-1391.5767513893809
 30
0.0
 11
806.18766916632433
 21
-1391.5767513893809
 31
0.0
  0
TEXT
  5
C129
  8
01
 10
649.18768516632406
 20
-1133.07675138938
 30
0.0
 40
20.0
  1
2-RBT-X-LW-2
  0
LINE
  5
C12B
  8
01
 10
649.18768516632406
 20
-1194.5767513893809
 30
0.0
 11
764.64169479029306
 21
-1194.5767513893809
 31
0.0
  0
TEXT
  5
C12C
  8
01
 10
661.6876851663236
 20
-1171.3267513893809
 30
0.0
 40
6.0
  1
表面処理
 72
     1
 11
675.28768516632363
 21
-1171.3267513893809
 31
0.0
  0
TEXT
  5
C12D
  8
01
 10
661.6876851663236
 20
-1181.579684378667
 30
0.0
 40
6.0
  1
クローム
 72
     1
 11
675.28768516632363
 21
-1181.579684378667
 31
0.0
  0
LINE
  5
C12E
  8
01
 10
649.18768516632406
 20
-1163.07675138938
 30
0.0
 11
764.64169479029295
 21
-1163.07675138938
 31
0.0
  0
LINE
  5
C12F
  8
01
 10
649.18768516632406
 20
-1173.57675138938
 30
0.0
 11
764.64169479029295
 21
-1173.57675138938
 31
0.0
  0
LINE
  5
C130
  8
01
 10
649.18768516632406
 20
-1184.0767513893809
 30
0.0
 11
754.18768516632406
 21
-1184.0767513893809
 31
0.0
  0
LINE
  5
C131
  8
01
 10
649.18768516632406
 20
-1184.0767513893809
 30
0.0
 11
764.64169479029306
 21
-1184.0767513893809
 31
0.0
  0
LINE
  5
C132
  8
01
 10
701.68768516632417
 20
-1163.07675138938
 30
0.0
 11
701.68768516632417
 21
-1205.07675138938
 31
0.0
  0
TEXT
  5
C133
  8
01
 10
706.86359358644449
 20
-1182.148286864855
 30
0.0
 40
6.0
  1
2-RBT-C-LW-2
 41
0.7
 72
     1
 11
733.26359358644459
 21
-1182.148286864855
 31
0.0
  0
TEXT
  5
C134
  8
01
 10
723.26359358644322
 20
-1171.3267513893809
 30
0.0
 40
6.0
  1
コード
 72
     1
 11
733.26359358644311
 21
-1171.3267513893809
 31
0.0
  0
LINE
  5
C135
  8
01
 10
649.18768516632406
 20
-1205.07675138938
 30
0.0
 11
764.64169479029306
 21
-1205.07675138938
 31
0.0
  0
LINE
  5
C137
  8
01
 10
649.18768516632417
 20
-1205.07675138938
 30
0.0
 11
649.18768516632406
 21
-1163.07675138938
 31
0.0
  0
LINE
  5
C138
  8
01
 10
764.64169479029306
 20
-1205.07675138938
 30
0.0
 11
764.64169479029295
 21
-1163.07675138938
 31
0.0
  0
TEXT
  5
C13A
  8
01
 10
650.88768516632365
 20
-1192.043121806737
 30
0.0
 40
6.0
  1
サテンニッケル
 72
     1
 11
675.28768516632363
 21
-1192.043121806737
 31
0.0
  0
TEXT
  5
C13B
  8
01
 10
704.66359358644445
 20
-1192.6482868648541
 30
0.0
 40
6.0
  1
2-RBT-CN-LW-2
 41
0.7
 72
     1
 11
733.26359358644459
 21
-1192.6482868648541
 31
0.0
  0
TEXT
  5
C13D
  8
01
 10
650.88768516632365
 20
-1202.543121806737
 30
0.0
 40
6.0
  1
ダークアンバー
 72
     1
 11
675.28768516632374
 21
-1202.543121806737
 31
0.0
  0
TEXT
  5
C13E
  8
01
 10
702.66359358644468
 20
-1203.148286864855
 30
0.0
 40
6.0
  1
2-RBT-C4Q-LW-2
 41
0.7
 72
     1
 11
733.2635935864447
 21
-1203.148286864855
 31
0.0
  0
LINE
  5
C36E
  8
01
 10
683.68767316632261
 20
-1342.5767513893809
 30
0.0
 11
644.68767316632295
 21
-1342.5767513893809
 31
0.0
  0
ARC
  5
C36F
  8
01
 10
644.68767316632295
 20
-1343.0767513893809
 30
0.0
 40
0.5
 50
90.0
 51
180.0
  0
LINE
  5
C370
  8
01
 10
683.68767316632284
 20
-1382.5767513893809
 30
0.0
 11
644.68767316632284
 21
-1382.5767513893809
 31
0.0
  0
ARC
  5
C371
  8
01
 10
683.68767316632284
 20
-1382.0767513893809
 30
0.0
 40
0.5
 50
270.0
 51
0.0
  0
LINE
  5
C372
  8
01
 10
684.18767316632284
 20
-1382.0767513893809
 30
0.0
 11
684.18767316632261
 21
-1343.0767513893809
 31
0.0
  0
ARC
  5
C373
  8
01
 10
683.68767316632261
 20
-1343.0767513893809
 30
0.0
 40
0.5
 50
0.0
 51
90.0
  0
LINE
  5
C374
  8
01
 10
644.18767316632284
 20
-1382.0767513893809
 30
0.0
 11
644.18767316632307
 21
-1343.0767513893809
 31
0.0
  0
ARC
  5
C375
  8
01
 10
644.68767316632284
 20
-1382.0767513893809
 30
0.0
 40
0.5
 50
180.0
 51
270.0
  0
LINE
  5
C376
  8
01
 10
651.78736830585672
 20
-1368.0767513893809
 30
0.0
 11
676.38603224106282
 21
-1368.0767513893809
 31
0.0
  0
CIRCLE
  5
C377
  8
01
 10
664.18767316632477
 20
-1368.0767513893809
 30
0.0
 40
11.30000000000109
  0
ARC
  5
C378
  8
01
 10
664.18767316632477
 20
-1368.0767513893809
 30
0.0
 40
10.999995000006949
 50
79.019419278571192
 51
100.98058072142879
  0
LINE
  5
C379
  8
01
 10
666.68767316632488
 20
-1357.76899241858
 30
0.0
 11
666.68767316632488
 21
-1378.384510360182
 31
0.0
  0
LINE
  5
C37A
  8
01
 10
661.68767316632477
 20
-1357.76899241858
 30
0.0
 11
661.68767316632477
 21
-1378.384510360182
 31
0.0
  0
ARC
  5
C37B
  8
01
 10
664.18767316632477
 20
-1368.0767513893809
 30
0.0
 40
10.999995000006949
 50
100.98058072142879
 51
259.01941927857121
  0
ARC
  5
C37C
  8
01
 10
664.18767316632477
 20
-1368.0767513893809
 30
0.0
 40
10.999995000006949
 50
280.98058072142879
 51
79.019419278571192
  0
ARC
  5
C37D
  8
01
 10
664.18767316632477
 20
-1368.0767513893809
 30
0.0
 40
10.999995000006949
 50
259.01941927857121
 51
280.98058072142879
  0
ARC
  5
C37E
  8
01
 10
662.18767316632488
 20
-1357.76899241858
 30
0.0
 40
0.5
 50
100.98058072142879
 51
180.0
  0
ARC
  5
C37F
  8
01
 10
666.18767316632477
 20
-1357.76899241858
 30
0.0
 40
0.5
 50
0.0
 51
79.019419278571192
  0
ARC
  5
C380
  8
01
 10
662.18767316632488
 20
-1378.384510360182
 30
0.0
 40
0.5
 50
180.0
 51
259.01941927857121
  0
ARC
  5
C381
  8
01
 10
666.18767316632477
 20
-1378.384510360182
 30
0.0
 40
0.5
 50
280.98058072142879
 51
0.0
  0
LINE
  5
C382
  8
01
 10
860.48766916064505
 20
-1382.0767513893729
 30
0.0
 11
860.48766916064517
 21
-1343.0767513893741
 31
0.0
  0
LINE
  5
C383
  8
01
 10
854.18766916064544
 20
-1342.5767513893741
 30
0.0
 11
854.18766916064089
 21
-1382.5767513893741
 31
0.0
  0
LINE
  5
C384
  8
01
 10
854.18766916064089
 20
-1382.5767513893741
 30
0.0
 11
859.98766916064517
 21
-1382.5767513893741
 31
0.0
  0
ARC
  5
C385
  8
01
 10
859.98766916064517
 20
-1382.0767513893729
 30
0.0
 40
0.5
 50
270.0
 51
0.0
  0
LINE
  5
C386
  8
01
 10
854.18766916064544
 20
-1342.5767513893741
 30
0.0
 11
859.98766916064517
 21
-1342.5767513893741
 31
0.0
  0
ARC
  5
C387
  8
01
 10
859.98766916064517
 20
-1343.0767513893741
 30
0.0
 40
0.5
 50
0.0
 51
90.0
  0
LINE
  5
C388
  8
01
 10
866.59853894631885
 20
-1368.0767513893809
 30
-0.0000000000562575
 11
850.01245532276494
 21
-1368.0767513893809
 31
-0.0000000000562575
  0
LINE
  5
C389
  8
01
 10
861.21106916064559
 20
-1364.5767500684431
 30
-0.0000000000563712
 11
860.48766916064517
 21
-1364.5767500684431
 31
-0.0000000000563712
  0
LINE
  5
C38A
  8
01
 10
861.21106916064559
 20
-1371.5767500684431
 30
-0.0000000000563712
 11
860.48766916064505
 21
-1371.5767500684431
 31
-0.0000000000563712
  0
LINE
  5
C38B
  8
01
 10
807.8876691606481
 20
-1382.0767513893729
 30
0.0
 11
807.8876691606481
 21
-1343.0767513893741
 31
0.0
  0
LINE
  5
C38C
  8
01
 10
814.18766916064806
 20
-1342.5767513893741
 30
0.0
 11
814.18766916064374
 21
-1382.5767513893741
 31
0.0
  0
LINE
  5
C38D
  8
01
 10
814.18766916064374
 20
-1382.5767513893741
 30
0.0
 11
808.38766916064799
 21
-1382.5767513893741
 31
0.0
  0
ARC
  5
C38E
  8
01
 10
808.38766916064799
 20
-1382.0767513893729
 30
0.0
 40
0.5
 50
180.0
 51
270.0
  0
LINE
  5
C38F
  8
01
 10
814.18766916064806
 20
-1342.5767513893741
 30
0.0
 11
808.38766916064799
 21
-1342.5767513893741
 31
0.0
  0
ARC
  5
C390
  8
01
 10
808.38766916064799
 20
-1343.0767513893741
 30
0.0
 40
0.5
 50
90.0
 51
180.0
  0
LINE
  5
C391
  8
01
 10
790.4132169874465
 20
-1368.0767513893809
 30
0.0
 11
817.09175493160558
 21
-1368.0767513893809
 31
0.0
  0
LINE
  5
C392
  8
01
 10
793.18728359492661
 20
-1379.076756389373
 30
0.0
 11
807.8876691606481
 21
-1379.076756389373
 31
0.0
  0
LINE
  5
C393
  8
01
 10
806.68730653913815
 20
-1357.576756389373
 30
0.0
 11
806.68730653913337
 21
-1378.576756389373
 31
0.0
  0
LINE
  5
C394
  8
01
 10
793.18728359492854
 20
-1357.0767563893739
 30
0.0
 11
807.8876691606481
 21
-1357.076756389373
 31
0.0
  0
ARC
  5
C395
  8
01
 10
793.18728359492854
 20
-1358.0767563893719
 30
0.0
 40
1.0
 50
90.0
 51
180.0
  0
LINE
  5
C396
  8
01
 10
792.18728359492661
 20
-1358.0767563893719
 30
0.0
 11
792.18728359492661
 21
-1378.0767563893701
 31
0.0
  0
ARC
  5
C397
  8
01
 10
793.18728359492661
 20
-1378.0767563893701
 30
0.0
 40
1.0
 50
180.0
 51
270.0
  0
ARC
  5
C398
  8
01
 10
807.18730653913349
 20
-1357.576756389373
 30
0.0
 40
0.5
 50
90.0
 51
179.99999999998701
  0
ARC
  5
C399
  8
01
 10
807.18730653913349
 20
-1378.576756389373
 30
0.0
 40
0.5
 50
179.99999999998701
 51
270.0
  0
ARC
  5
C39C
  8
01
 10
855.42601764952144
 20
-1368.0767500684431
 30
-0.0000000000563712
 40
6.7614215211269721
 50
328.82574397864499
 51
31.17425602135506
  0
LINE
  5
C3C7
  8
01
 10
984.68766484386754
 20
-1342.576751593509
 30
0.0
 11
1023.687664843867
 21
-1342.576751593509
 31
0.0
  0
ARC
  5
C3C8
  8
01
 10
1023.687664843867
 20
-1343.076751593509
 30
0.0
 40
0.5
 50
0.0
 51
90.0
  0
LINE
  5
C3C9
  8
01
 10
984.68766484386708
 20
-1382.576751593509
 30
0.0
 11
1023.687664843867
 21
-1382.576751593509
 31
0.0
  0
ARC
  5
C3CA
  8
01
 10
984.68766484386708
 20
-1382.076751593509
 30
0.0
 40
0.5
 50
180.0
 51
270.0
  0
LINE
  5
C3CB
  8
01
 10
984.1876648438672
 20
-1382.076751593509
 30
0.0
 11
984.18766484386742
 21
-1343.076751593509
 31
0.0
  0
ARC
  5
C3CC
  8
01
 10
984.68766484386754
 20
-1343.076751593509
 30
0.0
 40
0.5
 50
90.0
 51
180.0
  0
LINE
  5
C3CD
  8
01
 10
1024.187664843867
 20
-1382.076751593509
 30
0.0
 11
1024.187664843867
 21
-1343.076751593509
 31
0.0
  0
ARC
  5
C3CE
  8
01
 10
1023.687664843867
 20
-1382.076751593509
 30
0.0
 40
0.5
 50
270.0
 51
0.0
  0
CIRCLE
  5
C3D0
  8
01
 10
1004.187665166325
 20
-1368.0767513893809
 30
0.0
 40
3.75
  0
CIRCLE
  5
C3D1
  8
01
 10
1004.187665166325
 20
-1368.076751593509
 30
0.0
 40
3.5000004999999992
  0
LINE
  5
C3D2
  8
01
 10
1005.187665166325
 20
-1371.430854393509
 30
0.0
 11
1005.187665166325
 21
-1364.722647593509
 31
0.0
  0
LINE
  5
C3D3
  8
01
 10
1003.187665166325
 20
-1371.430854393509
 30
0.0
 11
1003.187665166325
 21
-1364.722647593509
 31
0.0
  0
LINE
  5
C412
  8
01
 10
984.18778118361092
 20
-1168.0767513904091
 30
0.0
 11
1024.18778118361
 21
-1168.0767513904091
 31
0.0
  0
LINE
  5
C413
  8
01
 10
984.68778118361115
 20
-1174.376751390409
 30
0.0
 11
1023.68778118361
 21
-1174.376751390409
 31
0.0
  0
LINE
  5
C414
  8
01
 10
984.18778118361115
 20
-1168.0767513904091
 30
0.0
 11
984.18778118361115
 21
-1173.876751390409
 31
0.0
  0
LINE
  5
C415
  8
01
 10
1024.18778118361
 20
-1168.0767513904091
 30
0.0
 11
1024.18778118361
 21
-1173.876751390409
 31
0.0
  0
LINE
  5
C416
  8
01
 10
1004.18778150607
 20
-1162.6308675948619
 30
0.0
 11
1004.18778150607
 21
-1185.1095163782261
 31
0.0
  0
ARC
  5
C417
  8
01
 10
984.68778118361115
 20
-1173.876751390409
 30
0.0
 40
0.5
 50
180.0
 51
270.0
  0
ARC
  5
C418
  8
01
 10
1023.68778118361
 20
-1173.876751390409
 30
0.0
 40
0.5
 50
270.0
 51
0.0
  0
LINE
  5
C419
  8
01
 10
1005.187782827007
 20
-1175.7765213904099
 30
-0.0000000000001137
 11
1005.187782827008
 21
-1174.376751390409
 31
-0.0000000000001137
  0
ARC
  5
C41A
  8
01
 10
1002.887783827007
 20
-1175.776521390409
 30
-0.0000000000001137
 40
0.30000001
 50
256.81651999996552
 51
0.0000029999586138
  0
ARC
  5
C41B
  8
01
 10
1004.18778282701
 20
-1170.2267513904089
 30
-0.0000000000001137
 40
6.0
 50
283.18348199995808
 51
305.68533399996062
  0
ARC
  5
C41C
  8
01
 10
1005.487785827007
 20
-1175.7765213904099
 30
-0.0000000000001137
 40
0.30000001
 50
179.99999999996089
 51
283.18348199995808
  0
LINE
  5
C41D
  8
01
 10
1007.687782827007
 20
-1175.1001513904121
 30
-0.0000000000001137
 11
1007.687782827008
 21
-1174.376751390409
 31
-0.0000000000001137
  0
LINE
  5
C41E
  8
01
 10
1000.687782827007
 20
-1175.1001513904071
 30
-0.0000000000001137
 11
1000.687782827008
 21
-1174.376751390409
 31
-0.0000000000001137
  0
ARC
  5
C41F
  8
01
 10
1004.18778282701
 20
-1170.2267513904089
 30
-0.0000000000001137
 40
6.0
 50
234.3146699999696
 51
256.81651749659892
  0
LINE
  5
C420
  8
01
 10
1003.187782827007
 20
-1175.777299849811
 30
-0.0000000000001137
 11
1003.187782827008
 21
-1174.376751390409
 31
-0.0000000000001137
  0
LINE
  5
C421
  8
01
 10
984.18778118361115
 20
-1128.0767513904091
 30
0.0
 11
1024.18778118361
 21
-1128.0767513904091
 31
0.0
  0
LINE
  5
C422
  8
01
 10
984.68778118361115
 20
-1121.7767513904089
 30
0.0
 11
1023.68778118361
 21
-1121.7767513904089
 31
0.0
  0
LINE
  5
C423
  8
01
 10
984.18778118361115
 20
-1128.0767513904091
 30
0.0
 11
984.18778118361115
 21
-1122.2767513904089
 31
0.0
  0
LINE
  5
C424
  8
01
 10
1024.18778118361
 20
-1128.0767513904091
 30
0.0
 11
1024.18778118361
 21
-1122.2767513904089
 31
0.0
  0
LINE
  5
C425
  8
01
 10
1004.18778150607
 20
-1133.5226351859569
 30
0.0
 11
1004.18778150607
 21
-1102.3578382055071
 31
0.0
  0
ARC
  5
C426
  8
01
 10
984.68778118361115
 20
-1122.2767513904089
 30
0.0
 40
0.5
 50
90.0
 51
180.0
  0
ARC
  5
C427
  8
01
 10
1023.68778118361
 20
-1122.2767513904089
 30
0.0
 40
0.5
 50
0.0
 51
90.0
  0
ARC
  5
C428
  8
01
 10
1007.6877815060629
 20
-1119.576774334618
 30
0.0
 40
1.0
 50
180.0
 51
270.00000000001302
  0
LINE
  5
C429
  8
01
 10
1007.687781506064
 20
-1120.5767743346171
 30
0.0
 11
1014.687786506062
 21
-1120.5767743346159
 31
0.0
  0
ARC
  5
C42A
  8
01
 10
1014.687786506062
 20
-1121.0767743346159
 30
0.0
 40
0.5
 50
0.0
 51
90.000000000013017
  0
ARC
  5
C42B
  8
01
 10
1000.687781506061
 20
-1119.5767743346159
 30
0.0
 40
1.0
 50
270.0
 51
0.0
  0
ARC
  5
C42C
  8
01
 10
993.68778650606225
 20
-1121.0767743346159
 30
0.0
 40
0.5
 50
90.0
 51
180.0
  0
LINE
  5
C42D
  8
01
 10
1001.687781506062
 20
-1107.0767513904129
 30
0.0
 11
1001.687781506062
 21
-1119.5767743346159
 31
0.0
  0
ARC
  5
C42E
  8
01
 10
1002.687781506061
 20
-1107.0767513904109
 30
0.0
 40
1.0
 50
90.0
 51
179.9999999999479
  0
LINE
  5
C42F
  8
01
 10
1002.687781506062
 20
-1106.0767513904091
 30
0.0
 11
1005.687781506061
 21
-1106.0767513904091
 31
0.0
  0
ARC
  5
C430
  8
01
 10
1005.687781506061
 20
-1107.0767513904109
 30
0.0
 40
1.0
 50
0.0
 51
90.0
  0
LINE
  5
C431
  8
01
 10
1006.687781506062
 20
-1107.0767513904109
 30
0.0
 11
1006.687781506064
 21
-1119.576774334618
 31
0.0
  0
LINE
  5
C432
  8
01
 10
993.68778650606225
 20
-1120.5767743346159
 30
0.0
 11
1000.687781506062
 21
-1120.5767743346159
 31
0.0
  0
LINE
  5
C433
  8
01
 10
993.18778650606237
 20
-1121.0767743346159
 30
0.0
 11
993.18778650606225
 21
-1121.7767513904089
 31
0.0
  0
LINE
  5
C434
  8
01
 10
1015.187786506062
 20
-1121.0767743346159
 30
0.0
 11
1015.187786506062
 21
-1121.7767513904089
 31
0.0
  0
LINE
  5
C437
  8
01
 10
1006.687781506064
 20
-1118.876751390407
 30
0.0
 11
1024.687781439965
 21
-1118.8767513904111
 31
0.0
  0
LINE
  5
C517
  8
01
 10
1022.187665166325
 20
-1391.5767513893809
 30
0.0
 11
1022.187665166325
 21
-1434.07675138938
 31
0.0
  0
LINE
  5
C521
  8
01
 10
1022.187665166325
 20
-1434.07675138938
 30
0.0
 11
977.68766516632513
 21
-1434.07675138938
 31
0.0
  0
LINE
  5
C891
  8
01
 10
1022.187665166325
 20
-1359.57675138938
 30
0.0
 11
1022.187665166325
 21
-1382.576751593509
 31
0.0
  0
LINE
  5
C892
  8
01
 10
1001.187665166325
 20
-1359.57675138938
 30
0.0
 11
1007.187665166325
 21
-1359.57675138938
 31
0.0
  0
LINE
  5
C893
  8
01
 10
1014.187665166325
 20
-1359.57675138938
 30
0.0
 11
1022.187665166325
 21
-1359.57675138938
 31
0.0
  0
LINE
  5
C894
  8
01
 10
1001.187665166325
 20
-1360.57675138938
 30
0.0
 11
1001.187665166325
 21
-1359.57675138938
 31
0.0
  0
LINE
  5
C895
  8
01
 10
1007.187665166325
 20
-1360.57675138938
 30
0.0
 11
1007.187665166325
 21
-1359.57675138938
 31
0.0
  0
ARC
  5
C896
  8
01
 10
997.68766516632525
 20
-1360.57675138938
 30
0.0
 40
3.5
 50
179.99999999998701
 51
0.0000000000130276
  0
ARC
  5
C897
  8
01
 10
1010.687665166325
 20
-1360.57675138938
 30
0.0
 40
3.5
 50
180.0
 51
0.0
  0
CIRCLE
  5
C898
  8
01
 10
1004.187665166036
 20
-1368.076751389669
 30
0.0
 40
6.0
  0
LINE
  5
C899
  8
01
 10
994.18766516632513
 20
-1359.57675138938
 30
0.0
 11
984.1876648438672
 21
-1359.57675138938
 31
0.0
  0
LINE
  5
C89A
  8
01
  6
BYBLOCK
 10
984.1876648438672
 20
-1359.57675138938
 30
0.0
 11
956.18766516632525
 21
-1359.57675138938
 31
0.0
  0
LINE
  5
C89B
  8
01
 10
994.18766516632479
 20
-1360.5767513893791
 30
0.0
 11
994.18766516632513
 21
-1359.57675138938
 31
0.0
  0
LINE
  5
C89C
  8
01
 10
1014.187665166325
 20
-1360.57675138938
 30
0.0
 11
1014.187665166325
 21
-1359.57675138938
 31
0.0
  0
LINE
  5
C89D
  8
01
  6
BYBLOCK
 10
684.18767316632284
 20
-1359.57675138938
 30
0.0
 11
712.18767316632443
 21
-1359.57675138938
 31
0.0
  0
LINE
  5
C89E
  8
01
  6
BYBLOCK
 10
1010.188549348096
 20
-1137.8267513904091
 30
0.0
 11
998.18854934809656
 21
-1137.8267513904091
 31
0.0
  0
LINE
  5
C89F
  8
01
  6
BYBLOCK
 10
998.18854934809656
 20
-1158.3267513904091
 30
0.0
 11
1010.188549348096
 21
-1158.3267513904091
 31
0.0
  0
LINE
  5
C8A0
  8
01
  6
BYBLOCK
 10
998.18854934809656
 20
-1158.3267513904091
 30
0.0
 11
998.18854934809656
 21
-1157.5767513904091
 31
0.0
  0
LINE
  5
C8A1
  8
01
  6
BYBLOCK
 10
998.18854934809656
 20
-1138.5767513904091
 30
0.0
 11
998.18854934809656
 21
-1137.8267513904091
 31
0.0
  0
LINE
  5
C8A2
  8
01
  6
BYBLOCK
 10
1010.188549348096
 20
-1158.3267513904091
 30
0.0
 11
1010.188549348096
 21
-1157.5767513904091
 31
0.0
  0
LINE
  5
C8A3
  8
01
  6
BYBLOCK
 10
1010.188549348096
 20
-1138.5767513904091
 30
0.0
 11
1010.188549348096
 21
-1137.8267513904091
 31
0.0
  0
LINE
  5
CA34
  8
01
 10
1030.1876651663249
 20
-1391.576751389382
 30
0.0
 11
978.18766516632832
 21
-1391.576751389382
 31
0.0
  0
LINE
  5
CA35
  8
01
 10
978.18766516632832
 20
-1444.576751389382
 30
0.0
 11
1030.1876651663249
 21
-1444.576751389382
 31
0.0
  0
LINE
  5
CA36
  8
01
 10
977.68766516632832
 20
-1392.076751389382
 30
0.0
 11
977.68766516632832
 21
-1444.076751389382
 31
0.0
  0
ARC
  5
CA37
  8
01
 10
978.18766516632832
 20
-1444.076751389382
 30
0.0
 40
0.5
 50
180.0
 51
270.0
  0
ARC
  5
CA38
  8
01
 10
978.18766516632832
 20
-1392.076751389382
 30
0.0
 40
0.5
 50
90.0
 51
180.0
  0
LINE
  5
CA39
  8
01
 10
1030.6876651663249
 20
-1392.076751389382
 30
0.0
 11
1030.6876651663249
 21
-1406.0767513893809
 31
0.0
  0
LINE
  5
CA3A
  8
01
 10
1030.6876651663249
 20
-1430.07675138938
 30
0.0
 11
1030.6876651663249
 21
-1444.076751389382
 31
0.0
  0
ARC
  5
CA3B
  8
01
 10
1030.1876651663249
 20
-1444.076751389382
 30
0.0
 40
0.5
 50
270.0
 51
0.0
  0
ARC
  5
CA3C
  8
01
 10
1030.1876651663249
 20
-1392.076751389382
 30
0.0
 40
0.5
 50
0.0
 51
90.0
  0
LINE
  5
CA3D
  8
01
 10
977.68766516632832
 20
-1168.0767513904091
 30
0.0
 11
1030.6876651663249
 21
-1168.0767513904091
 31
0.0
  0
LINE
  5
CA3E
  8
01
 10
978.18766516632832
 20
-1176.5767513904091
 30
0.0
 11
1030.1876651663249
 21
-1176.5767513904091
 31
0.0
  0
LINE
  5
CA3F
  8
01
 10
1030.6876651663249
 20
-1168.0767513904091
 30
0.0
 11
1030.6876651663249
 21
-1176.0767513904091
 31
0.0
  0
LINE
  5
CA40
  8
01
 10
977.68766516632832
 20
-1168.0767513904091
 30
0.0
 11
977.68766516632832
 21
-1176.0767513904091
 31
0.0
  0
ARC
  5
CA41
  8
01
 10
978.18766516632832
 20
-1176.0767513904091
 30
0.0
 40
0.5
 50
180.0
 51
270.0
  0
ARC
  5
CA42
  8
01
 10
1030.1876651663249
 20
-1176.0767513904091
 30
0.0
 40
0.5
 50
270.0
 51
0.0
  0
LINE
  5
CA43
  8
01
 10
977.68766516632832
 20
-1128.0767513904091
 30
0.0
 11
1030.6876651663249
 21
-1128.0767513904091
 31
0.0
  0
LINE
  5
CA44
  8
01
 10
978.18766516632832
 20
-1119.5767513904091
 30
0.0
 11
1001.687781506062
 21
-1119.5767513904091
 31
0.0
  0
LINE
  5
CA45
  8
01
 10
1030.6876651663249
 20
-1128.0767513904091
 30
0.0
 11
1030.6876651663249
 21
-1120.0767513904091
 31
0.0
  0
LINE
  5
CA46
  8
01
 10
977.68766516632832
 20
-1128.0767513904091
 30
0.0
 11
977.68766516632832
 21
-1120.0767513904091
 31
0.0
  0
ARC
  5
CA47
  8
01
 10
978.18766516632832
 20
-1120.0767513904091
 30
0.0
 40
0.5
 50
90.0
 51
180.0
  0
ARC
  5
CA48
  8
01
 10
1030.1876651663249
 20
-1120.0767513904091
 30
0.0
 40
0.5
 50
0.0
 51
90.0
  0
LINE
  5
CA49
  8
01
 10
638.1876731663242
 20
-1391.576751389382
 30
0.0
 11
690.18767316632056
 21
-1391.576751389382
 31
0.0
  0
LINE
  5
CA4A
  8
01
 10
690.18767316632056
 20
-1444.576751389382
 30
0.0
 11
638.1876731663242
 21
-1444.576751389382
 31
0.0
  0
LINE
  5
CA4B
  8
01
 10
690.68767316632056
 20
-1392.076751389382
 30
0.0
 11
690.68767316632056
 21
-1444.076751389382
 31
0.0
  0
ARC
  5
CA4C
  8
01
 10
690.18767316632056
 20
-1444.076751389382
 30
0.0
 40
0.5
 50
270.0
 51
0.0
  0
ARC
  5
CA4D
  8
01
 10
690.18767316632056
 20
-1392.076751389382
 30
0.0
 40
0.5
 50
0.0
 51
90.0
  0
LINE
  5
CA4E
  8
01
 10
637.6876731663242
 20
-1392.076751389382
 30
0.0
 11
637.68767316632432
 21
-1406.0767513893809
 31
0.0
  0
LINE
  5
CA4F
  8
01
 10
637.68767316632432
 20
-1430.07675138938
 30
0.0
 11
637.6876731663242
 21
-1444.076751389382
 31
0.0
  0
ARC
  5
CA50
  8
01
 10
638.1876731663242
 20
-1444.076751389382
 30
0.0
 40
0.5
 50
180.0
 51
270.0
  0
ARC
  5
CA51
  8
01
 10
638.1876731663242
 20
-1392.076751389382
 30
0.0
 40
0.5
 50
90.0
 51
180.0
  0
LINE
  5
CA67
  8
01
 10
1006.687781506064
 20
-1119.5767513904091
 30
0.0
 11
1030.1876651663249
 21
-1119.5767513904091
 31
0.0
  0
LINE
  5
CAD1
  8
01
 10
978.18766516632832
 20
-1391.576751389382
 30
0.0
 11
967.88766516632438
 21
-1391.576751389382
 31
0.0
  0
LINE
  5
CAD2
  8
01
 10
978.18766516632832
 20
-1444.576751389382
 30
0.0
 11
967.88766516632438
 21
-1444.576751389382
 31
0.0
  0
LINE
  5
CAD3
  8
01
 10
969.18766516632445
 20
-1394.1767513893819
 30
0.0
 11
969.18766516632445
 21
-1441.9767513893819
 31
0.0
  0
TEXT
  5
CAD7
  8
01
 10
1053.0598844115259
 20
-1184.457320680591
 30
0.0
 40
4.5499999999999989
  1
材質：亜鉛ダイキャスト
  0
TEXT
  5
CAD8
  8
01
 10
1053.0598844115259
 20
-1192.040654013924
 30
0.0
 40
4.5499999999999989
  1
仕上げ：各種メッキ
  0
SOLID
  5
CAD9
  8
01
 10
1038.2628246682391
 20
-1206.8480623912731
 30
0.0
 11
1036.245656835406
 21
-1208.54476852728
 31
0.0
 12
1037.6035054980291
 22
-1206.28555964203
 32
0.0
 13
1037.6035054980291
 23
-1206.28555964203
 33
0.0
1001
ACAD
1000
DSTYLE
1002
{
1070
    40
1040
1.3
1002
}
  0
LINE
  5
CADB
  8
01
 10
1010.188549348096
 20
-1137.8267513904091
 30
0.0
 11
1045.3489401080981
 21
-1137.8267513904091
 31
0.0
  0
LINE
  5
CADC
  8
01
 10
1010.188549348096
 20
-1158.3267513904091
 30
0.0
 11
1045.3489401080981
 21
-1158.3267513904091
 31
0.0
  0
LINE
  5
CADD
  8
01
 10
1044.0489401080979
 20
-1140.426751390409
 30
0.0
 11
1044.0489401080979
 21
-1155.7267513904089
 31
0.0
  0
TEXT
  5
CAE1
  8
01
 10
914.58415959267518
 20
-1198.4934180570749
 30
0.0
 40
4.5499999999999989
  1
材質：亜鉛ダイキャスト
  0
TEXT
  5
CAE2
  8
01
 10
930.96415959267517
 20
-1206.0767513904079
 30
0.0
 40
4.5499999999999989
  1
仕上げ：クローム
  0
SOLID
  5
CAE3
  8
01
 10
1001.610520805609
 20
-1187.2307395303189
 30
0.0
 11
1003.928266406386
 21
-1185.975417616283
 31
0.0
 12
1002.142935783176
 22
-1187.91458556765
 32
0.0
 13
1002.142935783176
 23
-1187.91458556765
 33
0.0
1001
ACAD
1000
DSTYLE
1002
{
1070
    40
1040
1.3
1002
}
  0
LINE
  5
CAE5
  8
01
 10
1022.187665166325
 20
-1359.57675138938
 30
0.0
 11
1051.6863985158921
 21
-1359.57675138938
 31
0.0
  0
LINE
  5
CAE6
  8
01
 10
1022.187665166325
 20
-1434.07675138938
 30
0.0
 11
1051.6863985158921
 21
-1434.07675138938
 31
0.0
  0
LINE
  5
CAE7
  8
01
 10
1050.3863985158921
 20
-1362.1767513893799
 30
0.0
 11
1050.3863985158921
 21
-1431.4767513893801
 31
0.0
  0
LINE
  5
CAEB
  8
01
 10
984.1876648438672
 20
-1343.0767513893809
 30
0.0
 11
984.1876648438672
 21
-1333.7767513893809
 31
0.0
  0
LINE
  5
CAEC
  8
01
 10
1024.187664843867
 20
-1343.0767513893809
 30
0.0
 11
1024.187664843867
 21
-1333.7767513893809
 31
0.0
  0
LINE
  5
CAED
  8
01
 10
986.78766484386745
 20
-1335.0767513893809
 30
0.0
 11
1021.5876648438669
 21
-1335.0767513893809
 31
0.0
  0
LINE
  5
CAF1
  8
01
 10
854.18766916632444
 20
-1325.57937138938
 30
0.0
 11
854.18766916632444
 21
-1310.77675138938
 31
0.0
  0
LINE
  5
CAF2
  8
01
 10
862.18743917064819
 20
-1368.0767500684431
 30
0.0
 11
862.18743917064819
 21
-1310.77675138938
 31
0.0
  0
LINE
  5
CAF3
  8
01
 10
856.78766916632435
 20
-1312.07675138938
 30
0.0
 11
859.58743917064817
 21
-1312.07675138938
 31
0.0
  0
LINE
  5
CAF7
  8
01
 10
814.18766916632433
 20
-1325.57937138938
 30
0.0
 11
814.18766916632433
 21
-1310.77675138938
 31
0.0
  0
LINE
  5
CAF8
  8
01
 10
792.18728359492866
 20
-1358.0767563893719
 30
0.0
 11
792.18728359492866
 21
-1310.77675138938
 31
0.0
  0
LINE
  5
CAF9
  8
01
 10
811.58766916632442
 20
-1312.07675138938
 30
0.0
 11
794.78728359492857
 21
-1312.07675138938
 31
0.0
  0
LINE
  5
CAFD
  8
01
 10
1134.1877814399661
 20
-1168.0767513904091
 30
0.0
 11
1155.4877814399649
 21
-1168.0767513904091
 31
0.0
  0
LINE
  5
CAFE
  8
01
 10
1119.1877814399661
 20
-1214.2767513904089
 30
0.0
 11
1155.4877814399649
 21
-1214.2767513904089
 31
0.0
  0
LINE
  5
CAFF
  8
01
 10
1154.1877814399661
 20
-1170.676751390409
 30
0.0
 11
1154.1877814399661
 21
-1211.676751390409
 31
0.0
  0
LINE
  5
CB03
  8
01
 10
1106.9429294373131
 20
-1168.0767513904091
 30
0.0
 11
1145.4877814399661
 21
-1168.0767513904091
 31
0.0
  0
LINE
  5
CB04
  8
01
 10
1128.6877814399661
 20
-1196.2767513904089
 30
0.0
 11
1145.4877814399661
 21
-1196.2767513904089
 31
0.0
  0
LINE
  5
CB05
  8
01
 10
1144.1877814399661
 20
-1170.676751390409
 30
0.0
 11
1144.1877814399661
 21
-1193.676751390409
 31
0.0
  0
LINE
  5
CB09
  8
01
 10
1129.1877814399661
 20
-1224.2767513904089
 30
0.0
 11
1129.1877814399661
 21
-1240.5767513904091
 31
0.0
  0
LINE
  5
CB0A
  8
01
 10
992.18778143996497
 20
-1213.7767513904089
 30
0.0
 11
992.18778143996497
 21
-1240.5767513904091
 31
0.0
  0
LINE
  5
CB0B
  8
01
 10
1126.587781439966
 20
-1239.2767513904089
 30
0.0
 11
994.78778143996499
 21
-1239.2767513904089
 31
0.0
  0
LINE
  5
CB0F
  8
01
 10
1004.187781439966
 20
-1187.867961277256
 30
0.0
 11
1004.187781439966
 21
-1230.5767513904091
 31
0.0
  0
LINE
  5
CB10
  8
01
 10
1129.1877814399661
 20
-1204.2767513904089
 30
0.0
 11
1129.1877814399661
 21
-1230.5767513904091
 31
0.0
  0
LINE
  5
CB11
  8
01
 10
1006.787781439966
 20
-1229.2767513904089
 30
0.0
 11
1126.587781439966
 21
-1229.2767513904089
 31
0.0
  0
LINE
  5
CB15
  8
01
 10
1128.687665166324
 20
-1406.07675138938
 30
0.0
 11
1145.4876651663239
 21
-1406.07675138938
 31
0.0
  0
LINE
  5
CB16
  8
01
 10
1128.687665166324
 20
-1430.07675138938
 30
0.0
 11
1145.4876651663239
 21
-1430.07675138938
 31
0.0
  0
LINE
  5
CB17
  8
01
 10
1144.187665166324
 20
-1408.6767513893799
 30
0.0
 11
1144.187665166324
 21
-1427.4767513893801
 31
0.0
  0
LINE
  5
CB1B
  8
01
 10
840.68766916632444
 20
-1332.07675138938
 30
0.0
 11
895.48766916632417
 21
-1332.07675138938
 31
0.0
  0
LINE
  5
CB1C
  8
01
 10
840.68766916632444
 20
-1462.07675138938
 30
0.0
 11
895.48766916632417
 21
-1462.07675138938
 31
0.0
  0
LINE
  5
CB1D
  8
01
 10
894.18766916632421
 20
-1334.6767513893799
 30
0.0
 11
894.18766916632421
 21
-1459.476751389381
 31
0.0
  0
LINE
  5
CB21
  8
01
 10
840.68766916632444
 20
-1340.07675138938
 30
0.0
 11
879.99126020288088
 21
-1340.07675138938
 31
0.0
  0
LINE
  5
CB22
  8
01
 10
840.68766916632444
 20
-1454.07675138938
 30
0.0
 11
879.99126020288088
 21
-1454.07675138938
 31
0.0
  0
LINE
  5
CB23
  8
01
 10
878.69126020288093
 20
-1342.6767513893799
 30
0.0
 11
878.69126020288093
 21
-1451.476751389381
 31
0.0
  0
LINE
  5
CB27
  8
01
 10
634.18767316632398
 20
-1418.0767513893809
 30
0.0
 11
596.7026851663245
 21
-1418.0767513893809
 31
0.0
  0
LINE
  5
CB28
  8
01
 10
641.6876651663232
 20
-1362.57675138938
 30
0.0
 11
596.7026851663245
 21
-1362.57675138938
 31
0.0
  0
LINE
  5
CB29
  8
01
 10
598.00268516632445
 20
-1415.476751389381
 30
0.0
 11
598.00268516632445
 21
-1365.1767513893799
 31
0.0
  0
LINE
  5
CB2D
  8
01
 10
634.18767316632398
 20
-1418.0767513893809
 30
0.0
 11
606.7026851663245
 21
-1418.0767513893809
 31
0.0
  0
LINE
  5
CB2E
  8
01
 10
651.18766516632309
 20
-1368.0767513893809
 30
0.0
 11
606.7026851663245
 21
-1368.0767513893809
 31
0.0
  0
LINE
  5
CB2F
  8
01
 10
608.00268516632445
 20
-1415.476751389381
 30
0.0
 11
608.00268516632445
 21
-1370.6767513893799
 31
0.0
  0
LINE
  5
CB33
  8
01
 10
644.18767316632307
 20
-1343.0767513893809
 30
0.0
 11
644.18767316632307
 21
-1333.7767513893809
 31
0.0
  0
LINE
  5
CB34
  8
01
 10
684.18767316632261
 20
-1343.0767513893809
 30
0.0
 11
684.18767316632261
 21
-1333.7767513893809
 31
0.0
  0
LINE
  5
CB35
  8
01
 10
646.78767316632297
 20
-1335.0767513893809
 30
0.0
 11
681.58767316632259
 21
-1335.0767513893809
 31
0.0
  0
LINE
  5
CB39
  8
01
 10
800.9867072720009
 20
-1417.3267513893809
 30
0.0
 11
799.68766916632444
 21
-1416.57675138938
 31
0.0
  0
LINE
  5
CB3A
  8
01
 10
799.68766916632444
 20
-1416.57675138938
 30
0.0
 11
798.38863106064775
 21
-1417.3267513893809
 31
0.0
  0
LINE
  5
CB3B
  8
01
 10
798.38863106064775
 20
-1417.3267513893809
 30
0.0
 11
798.38863106064775
 21
-1418.8267513893809
 31
0.0
  0
LINE
  5
CB3C
  8
01
 10
798.38863106064775
 20
-1418.8267513893809
 30
0.0
 11
799.68766916632444
 21
-1419.5767513893809
 31
0.0
  0
LINE
  5
CB3D
  8
01
 10
799.68766916632444
 20
-1419.5767513893809
 30
0.0
 11
800.9867072720009
 21
-1418.8267513893809
 31
0.0
  0
LINE
  5
CB3E
  8
01
 10
800.9867072720009
 20
-1418.8267513893809
 30
0.0
 11
800.9867072720009
 21
-1417.3267513893809
 31
0.0
  0
CIRCLE
  5
CB3F
  8
01
 10
799.68766916632444
 20
-1418.0767513893809
 30
0.0
 40
3.0
  0
CIRCLE
  5
CB40
  8
01
 10
868.68766916632433
 20
-1418.0767513893809
 30
0.0
 40
3.0
  0
LINE
  5
CB41
  8
01
 10
953.18766516632502
 20
-1332.07675138938
 30
0.0
 11
953.18766516632502
 21
-1310.77675138938
 31
0.0
  0
LINE
  5
CB42
  8
01
 10
1004.187665166325
 20
-1387.546387298544
 30
0.0
 11
1004.187665166325
 21
-1310.77675138938
 31
0.0
  0
LINE
  5
CB43
  8
01
 10
955.78766516632493
 20
-1312.07675138938
 30
0.0
 11
1001.587665166325
 21
-1312.07675138938
 31
0.0
  0
LINE
  5
CB47
  8
01
 10
1022.187665166325
 20
-1360.07675138938
 30
0.0
 11
1022.187665166325
 21
-1300.7767513893809
 31
0.0
  0
LINE
  5
CB48
  8
01
 10
953.18766516632502
 20
-1332.07675138938
 30
0.0
 11
953.18766516632502
 21
-1300.7767513893809
 31
0.0
  0
LINE
  5
CB49
  8
01
 10
1019.587665166325
 20
-1302.07675138938
 30
0.0
 11
955.78766516632493
 21
-1302.07675138938
 31
0.0
  0
LINE
  5
CB4D
  8
01
 10
942.18766516632479
 20
-1390.0767520875111
 30
0.0
 11
942.18766516632479
 21
-1310.77675138938
 31
0.0
  0
LINE
  5
CB4E
  8
01
 10
953.18766516632502
 20
-1332.07675138938
 30
0.0
 11
953.18766516632502
 21
-1310.77675138938
 31
0.0
  0
LINE
  5
CB4F
  8
01
 10
944.78766516632481
 20
-1312.07675138938
 30
0.0
 11
950.58766516632477
 21
-1312.07675138938
 31
0.0
  0
LINE
  5
CB53
  8
01
 10
821.68766916632444
 20
-1338.07675138938
 30
0.0
 11
821.68766916632444
 21
-1310.77675138938
 31
0.0
  0
LINE
  5
CB54
  8
01
 10
846.68766916632444
 20
-1338.07675138938
 30
0.0
 11
846.68766916632444
 21
-1310.77675138938
 31
0.0
  0
LINE
  5
CB55
  8
01
 10
824.28766916632435
 20
-1312.07675138938
 30
0.0
 11
844.08766916632453
 21
-1312.07675138938
 31
0.0
  0
TEXT
  5
CB59
  8
01
 10
829.85433583299107
 20
-1311.1667513893799
 30
0.0
 40
4.5499999999999989
  1
25
  0
LINE
  5
CB5A
  8
01
  6
BYBLOCK
 10
844.08766916632453
 20
-1311.3800834953811
 30
0.0
 11
846.68766916632444
 21
-1312.07675138938
 31
0.0
  0
LINE
  5
CB5B
  8
01
  6
BYBLOCK
 10
846.68766916632444
 20
-1312.07675138938
 30
0.0
 11
844.08766916632453
 21
-1312.7734192833809
 31
0.0
  0
LINE
  5
CB5C
  8
01
  6
BYBLOCK
 10
846.68766916632444
 20
-1312.07675138938
 30
0.0
 11
844.08766916632453
 21
-1312.07675138938
 31
0.0
  0
LINE
  5
CB5D
  8
01
  6
BYBLOCK
 10
824.28766916632435
 20
-1312.7734192833809
 30
0.0
 11
821.68766916632444
 21
-1312.07675138938
 31
0.0
  0
LINE
  5
CB5E
  8
01
  6
BYBLOCK
 10
821.68766916632444
 20
-1312.07675138938
 30
0.0
 11
824.28766916632435
 21
-1311.3800834953811
 31
0.0
  0
LINE
  5
CB5F
  8
01
  6
BYBLOCK
 10
821.68766916632444
 20
-1312.07675138938
 30
0.0
 11
824.28766916632435
 21
-1312.07675138938
 31
0.0
  0
TEXT
  5
CB60
  8
01
 10
943.67933183299158
 20
-1311.1667513893799
 30
0.0
 40
4.5499999999999989
  1
11
  0
LINE
  5
CB61
  8
01
  6
BYBLOCK
 10
950.58766516632477
 20
-1311.3800834953811
 30
0.0
 11
953.18766516632502
 21
-1312.07675138938
 31
0.0
  0
LINE
  5
CB62
  8
01
  6
BYBLOCK
 10
953.18766516632502
 20
-1312.07675138938
 30
0.0
 11
950.58766516632477
 21
-1312.7734192833809
 31
0.0
  0
LINE
  5
CB63
  8
01
  6
BYBLOCK
 10
953.18766516632502
 20
-1312.07675138938
 30
0.0
 11
950.58766516632477
 21
-1312.07675138938
 31
0.0
  0
LINE
  5
CB64
  8
01
  6
BYBLOCK
 10
944.78766516632481
 20
-1312.7734192833809
 30
0.0
 11
942.18766516632479
 21
-1312.07675138938
 31
0.0
  0
LINE
  5
CB65
  8
01
  6
BYBLOCK
 10
942.18766516632479
 20
-1312.07675138938
 30
0.0
 11
944.78766516632481
 21
-1311.3800834953811
 31
0.0
  0
LINE
  5
CB66
  8
01
  6
BYBLOCK
 10
942.18766516632479
 20
-1312.07675138938
 30
0.0
 11
944.78766516632481
 21
-1312.07675138938
 31
0.0
  0
TEXT
  5
CB67
  8
01
 10
983.35433183299153
 20
-1301.1667513893799
 30
0.0
 40
4.5499999999999989
  1
69
  0
LINE
  5
CB68
  8
01
  6
BYBLOCK
 10
955.78766516632493
 20
-1302.77341928338
 30
0.0
 11
953.18766516632502
 21
-1302.07675138938
 31
0.0
  0
LINE
  5
CB69
  8
01
  6
BYBLOCK
 10
953.18766516632502
 20
-1302.07675138938
 30
0.0
 11
955.78766516632493
 21
-1301.3800834953811
 31
0.0
  0
LINE
  5
CB6A
  8
01
  6
BYBLOCK
 10
953.18766516632502
 20
-1302.07675138938
 30
0.0
 11
955.78766516632493
 21
-1302.07675138938
 31
0.0
  0
LINE
  5
CB6B
  8
01
  6
BYBLOCK
 10
1019.587665166325
 20
-1301.3800834953811
 30
0.0
 11
1022.187665166325
 21
-1302.07675138938
 31
0.0
  0
LINE
  5
CB6C
  8
01
  6
BYBLOCK
 10
1022.187665166325
 20
-1302.07675138938
 30
0.0
 11
1019.587665166325
 21
-1302.77341928338
 31
0.0
  0
LINE
  5
CB6D
  8
01
  6
BYBLOCK
 10
1022.187665166325
 20
-1302.07675138938
 30
0.0
 11
1019.587665166325
 21
-1302.07675138938
 31
0.0
  0
TEXT
  5
CB6E
  8
01
 10
975.00433183299162
 20
-1311.1667513893799
 30
0.0
 40
4.5499999999999989
  1
51
  0
LINE
  5
CB6F
  8
01
  6
BYBLOCK
 10
1001.587665166325
 20
-1311.3800834953811
 30
0.0
 11
1004.187665166325
 21
-1312.07675138938
 31
0.0
  0
LINE
  5
CB70
  8
01
  6
BYBLOCK
 10
1004.187665166325
 20
-1312.07675138938
 30
0.0
 11
1001.587665166325
 21
-1312.7734192833809
 31
0.0
  0
LINE
  5
CB71
  8
01
  6
BYBLOCK
 10
1004.187665166325
 20
-1312.07675138938
 30
0.0
 11
1001.587665166325
 21
-1312.07675138938
 31
0.0
  0
LINE
  5
CB72
  8
01
  6
BYBLOCK
 10
955.78766516632493
 20
-1312.7734192833809
 30
0.0
 11
953.18766516632502
 21
-1312.07675138938
 31
0.0
  0
LINE
  5
CB73
  8
01
  6
BYBLOCK
 10
953.18766516632502
 20
-1312.07675138938
 30
0.0
 11
955.78766516632493
 21
-1311.3800834953811
 31
0.0
  0
LINE
  5
CB74
  8
01
  6
BYBLOCK
 10
953.18766516632502
 20
-1312.07675138938
 30
0.0
 11
955.78766516632493
 21
-1312.07675138938
 31
0.0
  0
TEXT
  5
CB75
  8
01
 10
657.1460064996561
 20
-1334.1667513893799
 30
0.0
 40
4.5499999999999989
  1
□40
  0
LINE
  5
CB76
  8
01
  6
BYBLOCK
 10
681.58767316632259
 20
-1334.3800834953799
 30
0.0
 11
684.18767316632261
 21
-1335.0767513893809
 31
0.0
  0
LINE
  5
CB77
  8
01
  6
BYBLOCK
 10
684.18767316632261
 20
-1335.0767513893809
 30
0.0
 11
681.58767316632259
 21
-1335.7734192833809
 31
0.0
  0
LINE
  5
CB78
  8
01
  6
BYBLOCK
 10
684.18767316632261
 20
-1335.0767513893809
 30
0.0
 11
681.58767316632259
 21
-1335.0767513893809
 31
0.0
  0
LINE
  5
CB79
  8
01
  6
BYBLOCK
 10
646.78767316632297
 20
-1335.7734192833809
 30
0.0
 11
644.18767316632307
 21
-1335.0767513893809
 31
0.0
  0
LINE
  5
CB7A
  8
01
  6
BYBLOCK
 10
644.18767316632307
 20
-1335.0767513893809
 30
0.0
 11
646.78767316632297
 21
-1334.3800834953799
 31
0.0
  0
LINE
  5
CB7B
  8
01
  6
BYBLOCK
 10
644.18767316632307
 20
-1335.0767513893809
 30
0.0
 11
646.78767316632297
 21
-1335.0767513893809
 31
0.0
  0
TEXT
  5
CB7C
  8
01
 10
607.09268516632471
 20
-1397.4100847227139
 30
0.0
 40
4.5499999999999989
  1
50
 50
90.0
  0
LINE
  5
CB7D
  8
01
  6
BYBLOCK
 10
607.30601727232442
 20
-1370.6767513893799
 30
0.0
 11
608.00268516632445
 21
-1368.0767513893809
 31
0.0
  0
LINE
  5
CB7E
  8
01
  6
BYBLOCK
 10
608.00268516632445
 20
-1368.0767513893809
 30
0.0
 11
608.69935306032437
 21
-1370.6767513893799
 31
0.0
  0
LINE
  5
CB7F
  8
01
  6
BYBLOCK
 10
608.00268516632445
 20
-1368.0767513893809
 30
0.0
 11
608.00268516632445
 21
-1370.6767513893799
 31
0.0
  0
LINE
  5
CB80
  8
01
  6
BYBLOCK
 10
608.69935306032437
 20
-1415.476751389381
 30
0.0
 11
608.00268516632445
 21
-1418.0767513893809
 31
0.0
  0
LINE
  5
CB81
  8
01
  6
BYBLOCK
 10
608.00268516632445
 20
-1418.0767513893809
 30
0.0
 11
607.30601727232442
 21
-1415.476751389381
 31
0.0
  0
LINE
  5
CB82
  8
01
  6
BYBLOCK
 10
608.00268516632445
 20
-1418.0767513893809
 30
0.0
 11
608.00268516632445
 21
-1415.476751389381
 31
0.0
  0
TEXT
  5
CB83
  8
01
 10
597.0926851663246
 20
-1397.9100847227139
 30
0.0
 40
4.5499999999999989
  1
55.5
 50
90.0
  0
LINE
  5
CB84
  8
01
  6
BYBLOCK
 10
597.30601727232431
 20
-1365.1767513893799
 30
0.0
 11
598.00268516632445
 21
-1362.57675138938
 31
0.0
  0
LINE
  5
CB85
  8
01
  6
BYBLOCK
 10
598.00268516632445
 20
-1362.57675138938
 30
0.0
 11
598.69935306032437
 21
-1365.1767513893799
 31
0.0
  0
LINE
  5
CB86
  8
01
  6
BYBLOCK
 10
598.00268516632445
 20
-1362.57675138938
 30
0.0
 11
598.00268516632445
 21
-1365.1767513893799
 31
0.0
  0
LINE
  5
CB87
  8
01
  6
BYBLOCK
 10
598.69935306032437
 20
-1415.476751389381
 30
0.0
 11
598.00268516632445
 21
-1418.0767513893809
 31
0.0
  0
LINE
  5
CB88
  8
01
  6
BYBLOCK
 10
598.00268516632445
 20
-1418.0767513893809
 30
0.0
 11
597.30601727232431
 21
-1415.476751389381
 31
0.0
  0
LINE
  5
CB89
  8
01
  6
BYBLOCK
 10
598.00268516632445
 20
-1418.0767513893809
 30
0.0
 11
598.00268516632445
 21
-1415.476751389381
 31
0.0
  0
TEXT
  5
CB8A
  8
01
 10
877.7812602028813
 20
-1386.196364042399
 30
0.0
 40
4.5499999999999989
  1
114
 50
90.0
  0
LINE
  5
CB8B
  8
01
  6
BYBLOCK
 10
879.38792809688107
 20
-1451.476751389381
 30
0.0
 11
878.69126020288093
 21
-1454.07675138938
 31
0.0
  0
LINE
  5
CB8C
  8
01
  6
BYBLOCK
 10
878.69126020288093
 20
-1454.07675138938
 30
0.0
 11
877.99459230888101
 21
-1451.476751389381
 31
0.0
  0
LINE
  5
CB8D
  8
01
  6
BYBLOCK
 10
878.69126020288093
 20
-1454.07675138938
 30
0.0
 11
878.69126020288093
 21
-1451.476751389381
 31
0.0
  0
LINE
  5
CB8E
  8
01
  6
BYBLOCK
 10
877.99459230888101
 20
-1342.6767513893799
 30
0.0
 11
878.69126020288093
 21
-1340.07675138938
 31
0.0
  0
LINE
  5
CB8F
  8
01
  6
BYBLOCK
 10
878.69126020288093
 20
-1340.07675138938
 30
0.0
 11
879.38792809688107
 21
-1342.6767513893799
 31
0.0
  0
LINE
  5
CB90
  8
01
  6
BYBLOCK
 10
878.69126020288093
 20
-1340.07675138938
 30
0.0
 11
878.69126020288093
 21
-1342.6767513893799
 31
0.0
  0
TEXT
  5
CB91
  8
01
 10
893.27766916632436
 20
-1386.0880307090661
 30
0.0
 40
4.5499999999999989
  1
130
 50
90.0
  0
LINE
  5
CB92
  8
01
  6
BYBLOCK
 10
894.88433706032424
 20
-1459.476751389381
 30
0.0
 11
894.18766916632421
 21
-1462.07675138938
 31
0.0
  0
LINE
  5
CB93
  8
01
  6
BYBLOCK
 10
894.18766916632421
 20
-1462.07675138938
 30
0.0
 11
893.49100127232407
 21
-1459.476751389381
 31
0.0
  0
LINE
  5
CB94
  8
01
  6
BYBLOCK
 10
894.18766916632421
 20
-1462.07675138938
 30
0.0
 11
894.18766916632421
 21
-1459.476751389381
 31
0.0
  0
LINE
  5
CB95
  8
01
  6
BYBLOCK
 10
893.49100127232407
 20
-1334.6767513893799
 30
0.0
 11
894.18766916632421
 21
-1332.07675138938
 31
0.0
  0
LINE
  5
CB96
  8
01
  6
BYBLOCK
 10
894.18766916632421
 20
-1332.07675138938
 30
0.0
 11
894.88433706032424
 21
-1334.6767513893799
 31
0.0
  0
LINE
  5
CB97
  8
01
  6
BYBLOCK
 10
894.18766916632421
 20
-1332.07675138938
 30
0.0
 11
894.18766916632421
 21
-1334.6767513893799
 31
0.0
  0
TEXT
  5
CB98
  8
01
 10
1143.2776651663251
 20
-1422.518418056047
 30
0.0
 40
4.5499999999999989
  1
24
 50
90.0
  0
LINE
  5
CB99
  8
01
  6
BYBLOCK
 10
1144.8843330603249
 20
-1427.4767513893801
 30
0.0
 11
1144.187665166324
 21
-1430.07675138938
 31
0.0
  0
LINE
  5
CB9A
  8
01
  6
BYBLOCK
 10
1144.187665166324
 20
-1430.07675138938
 30
0.0
 11
1143.4909972723251
 21
-1427.4767513893801
 31
0.0
  0
LINE
  5
CB9B
  8
01
  6
BYBLOCK
 10
1144.187665166324
 20
-1430.07675138938
 30
0.0
 11
1144.187665166324
 21
-1427.4767513893801
 31
0.0
  0
LINE
  5
CB9C
  8
01
  6
BYBLOCK
 10
1143.4909972723251
 20
-1408.6767513893799
 30
0.0
 11
1144.187665166324
 21
-1406.07675138938
 31
0.0
  0
LINE
  5
CB9D
  8
01
  6
BYBLOCK
 10
1144.187665166324
 20
-1406.07675138938
 30
0.0
 11
1144.8843330603249
 21
-1408.6767513893799
 31
0.0
  0
LINE
  5
CB9E
  8
01
  6
BYBLOCK
 10
1144.187665166324
 20
-1406.07675138938
 30
0.0
 11
1144.187665166324
 21
-1408.6767513893799
 31
0.0
  0
TEXT
  5
CB9F
  8
01
 10
1059.8627814399661
 20
-1228.366751390409
 30
0.0
 40
4.5499999999999989
  1
125
  0
LINE
  5
CBA0
  8
01
  6
BYBLOCK
 10
1126.587781439966
 20
-1228.5800834964091
 30
0.0
 11
1129.1877814399661
 21
-1229.2767513904089
 31
0.0
  0
LINE
  5
CBA1
  8
01
  6
BYBLOCK
 10
1129.1877814399661
 20
-1229.2767513904089
 30
0.0
 11
1126.587781439966
 21
-1229.9734192844089
 31
0.0
  0
LINE
  5
CBA2
  8
01
  6
BYBLOCK
 10
1129.1877814399661
 20
-1229.2767513904089
 30
0.0
 11
1126.587781439966
 21
-1229.2767513904089
 31
0.0
  0
LINE
  5
CBA3
  8
01
  6
BYBLOCK
 10
1006.787781439966
 20
-1229.9734192844089
 30
0.0
 11
1004.187781439966
 21
-1229.2767513904089
 31
0.0
  0
LINE
  5
CBA4
  8
01
  6
BYBLOCK
 10
1004.187781439966
 20
-1229.2767513904089
 30
0.0
 11
1006.787781439966
 21
-1228.5800834964091
 31
0.0
  0
LINE
  5
CBA5
  8
01
  6
BYBLOCK
 10
1004.187781439966
 20
-1229.2767513904089
 30
0.0
 11
1006.787781439966
 21
-1229.2767513904089
 31
0.0
  0
TEXT
  5
CBA6
  8
01
 10
1053.8627814399649
 20
-1238.366751390409
 30
0.0
 40
4.5499999999999989
  1
137
  0
LINE
  5
CBA7
  8
01
  6
BYBLOCK
 10
994.78778143996499
 20
-1239.9734192844089
 30
0.0
 11
992.18778143996497
 21
-1239.2767513904089
 31
0.0
  0
LINE
  5
CBA8
  8
01
  6
BYBLOCK
 10
992.18778143996497
 20
-1239.2767513904089
 30
0.0
 11
994.78778143996499
 21
-1238.5800834964091
 31
0.0
  0
LINE
  5
CBA9
  8
01
  6
BYBLOCK
 10
992.18778143996497
 20
-1239.2767513904089
 30
0.0
 11
994.78778143996499
 21
-1239.2767513904089
 31
0.0
  0
LINE
  5
CBAA
  8
01
  6
BYBLOCK
 10
1126.587781439966
 20
-1238.5800834964091
 30
0.0
 11
1129.1877814399661
 21
-1239.2767513904089
 31
0.0
  0
LINE
  5
CBAB
  8
01
  6
BYBLOCK
 10
1129.1877814399661
 20
-1239.2767513904089
 30
0.0
 11
1126.587781439966
 21
-1239.9734192844089
 31
0.0
  0
LINE
  5
CBAC
  8
01
  6
BYBLOCK
 10
1129.1877814399661
 20
-1239.2767513904089
 30
0.0
 11
1126.587781439966
 21
-1239.2767513904089
 31
0.0
  0
TEXT
  5
CBAD
  8
01
 10
1143.277781439966
 20
-1186.510084723742
 30
0.0
 40
4.5499999999999989
  1
28
 50
90.0
  0
LINE
  5
CBAE
  8
01
  6
BYBLOCK
 10
1144.8844493339659
 20
-1193.676751390409
 30
0.0
 11
1144.1877814399661
 21
-1196.2767513904089
 31
0.0
  0
LINE
  5
CBAF
  8
01
  6
BYBLOCK
 10
1144.1877814399661
 20
-1196.2767513904089
 30
0.0
 11
1143.4911135459661
 21
-1193.676751390409
 31
0.0
  0
LINE
  5
CBB0
  8
01
  6
BYBLOCK
 10
1144.1877814399661
 20
-1196.2767513904089
 30
0.0
 11
1144.1877814399661
 21
-1193.676751390409
 31
0.0
  0
LINE
  5
CBB1
  8
01
  6
BYBLOCK
 10
1143.4911135459661
 20
-1170.676751390409
 30
0.0
 11
1144.1877814399661
 21
-1168.0767513904091
 31
0.0
  0
LINE
  5
CBB2
  8
01
  6
BYBLOCK
 10
1144.1877814399661
 20
-1168.0767513904091
 30
0.0
 11
1144.8844493339659
 21
-1170.676751390409
 31
0.0
  0
LINE
  5
CBB3
  8
01
  6
BYBLOCK
 10
1144.1877814399661
 20
-1168.0767513904091
 30
0.0
 11
1144.1877814399661
 21
-1170.676751390409
 31
0.0
  0
TEXT
  5
CBB4
  8
01
 10
1153.277781439966
 20
-1195.510084723742
 30
0.0
 40
4.5499999999999989
  1
46
 50
90.0
  0
LINE
  5
CBB5
  8
01
  6
BYBLOCK
 10
1154.8844493339659
 20
-1211.676751390409
 30
0.0
 11
1154.1877814399661
 21
-1214.2767513904089
 31
0.0
  0
LINE
  5
CBB6
  8
01
  6
BYBLOCK
 10
1154.1877814399661
 20
-1214.2767513904089
 30
0.0
 11
1153.4911135459661
 21
-1211.676751390409
 31
0.0
  0
LINE
  5
CBB7
  8
01
  6
BYBLOCK
 10
1154.1877814399661
 20
-1214.2767513904089
 30
0.0
 11
1154.1877814399661
 21
-1211.676751390409
 31
0.0
  0
LINE
  5
CBB8
  8
01
  6
BYBLOCK
 10
1153.4911135459661
 20
-1170.676751390409
 30
0.0
 11
1154.1877814399661
 21
-1168.0767513904091
 31
0.0
  0
LINE
  5
CBB9
  8
01
  6
BYBLOCK
 10
1154.1877814399661
 20
-1168.0767513904091
 30
0.0
 11
1154.8844493339659
 21
-1170.676751390409
 31
0.0
  0
LINE
  5
CBBA
  8
01
  6
BYBLOCK
 10
1154.1877814399661
 20
-1168.0767513904091
 30
0.0
 11
1154.1877814399661
 21
-1170.676751390409
 31
0.0
  0
TEXT
  5
CBBB
  8
01
 10
798.85414304729329
 20
-1311.1667513893799
 30
0.0
 40
4.5499999999999989
  1
22
  0
LINE
  5
CBBC
  8
01
  6
BYBLOCK
 10
794.78728359492857
 20
-1312.7734192833809
 30
0.0
 11
792.18728359492866
 21
-1312.07675138938
 31
0.0
  0
LINE
  5
CBBD
  8
01
  6
BYBLOCK
 10
792.18728359492866
 20
-1312.07675138938
 30
0.0
 11
794.78728359492857
 21
-1311.3800834953811
 31
0.0
  0
LINE
  5
CBBE
  8
01
  6
BYBLOCK
 10
792.18728359492866
 20
-1312.07675138938
 30
0.0
 11
794.78728359492857
 21
-1312.07675138938
 31
0.0
  0
LINE
  5
CBBF
  8
01
  6
BYBLOCK
 10
811.58766916632442
 20
-1311.3800834953811
 30
0.0
 11
814.18766916632433
 21
-1312.07675138938
 31
0.0
  0
LINE
  5
CBC0
  8
01
  6
BYBLOCK
 10
814.18766916632433
 20
-1312.07675138938
 30
0.0
 11
811.58766916632442
 21
-1312.7734192833809
 31
0.0
  0
LINE
  5
CBC1
  8
01
  6
BYBLOCK
 10
814.18766916632433
 20
-1312.07675138938
 30
0.0
 11
811.58766916632442
 21
-1312.07675138938
 31
0.0
  0
TEXT
  5
CBC2
  8
01
 10
856.02088750181974
 20
-1311.1667513893799
 30
0.0
 40
4.5499999999999989
  1
8
  0
LINE
  5
CBC3
  8
01
  6
BYBLOCK
 10
859.58743917064817
 20
-1311.3800834953811
 30
0.0
 11
862.18743917064819
 21
-1312.07675138938
 31
0.0
  0
LINE
  5
CBC4
  8
01
  6
BYBLOCK
 10
862.18743917064819
 20
-1312.07675138938
 30
0.0
 11
859.58743917064817
 21
-1312.7734192833809
 31
0.0
  0
LINE
  5
CBC5
  8
01
  6
BYBLOCK
 10
862.18743917064819
 20
-1312.07675138938
 30
0.0
 11
859.58743917064817
 21
-1312.07675138938
 31
0.0
  0
LINE
  5
CBC6
  8
01
  6
BYBLOCK
 10
856.78766916632435
 20
-1312.7734192833809
 30
0.0
 11
854.18766916632444
 21
-1312.07675138938
 31
0.0
  0
LINE
  5
CBC7
  8
01
  6
BYBLOCK
 10
854.18766916632444
 20
-1312.07675138938
 30
0.0
 11
856.78766916632435
 21
-1311.3800834953811
 31
0.0
  0
LINE
  5
CBC8
  8
01
  6
BYBLOCK
 10
854.18766916632444
 20
-1312.07675138938
 30
0.0
 11
856.78766916632435
 21
-1312.07675138938
 31
0.0
  0
TEXT
  5
CBC9
  8
01
 10
997.14599817720045
 20
-1334.1667513893799
 30
0.0
 40
4.5499999999999989
  1
□40
  0
LINE
  5
CBCA
  8
01
  6
BYBLOCK
 10
1021.5876648438669
 20
-1334.3800834953799
 30
0.0
 11
1024.187664843867
 21
-1335.0767513893809
 31
0.0
  0
LINE
  5
CBCB
  8
01
  6
BYBLOCK
 10
1024.187664843867
 20
-1335.0767513893809
 30
0.0
 11
1021.5876648438669
 21
-1335.7734192833809
 31
0.0
  0
LINE
  5
CBCC
  8
01
  6
BYBLOCK
 10
1024.187664843867
 20
-1335.0767513893809
 30
0.0
 11
1021.5876648438669
 21
-1335.0767513893809
 31
0.0
  0
LINE
  5
CBCD
  8
01
  6
BYBLOCK
 10
986.78766484386745
 20
-1335.7734192833809
 30
0.0
 11
984.1876648438672
 21
-1335.0767513893809
 31
0.0
  0
LINE
  5
CBCE
  8
01
  6
BYBLOCK
 10
984.1876648438672
 20
-1335.0767513893809
 30
0.0
 11
986.78766484386745
 21
-1334.3800834953799
 31
0.0
  0
LINE
  5
CBCF
  8
01
  6
BYBLOCK
 10
984.1876648438672
 20
-1335.0767513893809
 30
0.0
 11
986.78766484386745
 21
-1335.0767513893809
 31
0.0
  0
TEXT
  5
CBD0
  8
01
 10
1049.476398515892
 20
-1388.0497691352959
 30
0.0
 40
4.5499999999999989
  1
74.5
 50
90.0
  0
LINE
  5
CBD1
  8
01
  6
BYBLOCK
 10
1051.0830664098919
 20
-1431.4767513893801
 30
0.0
 11
1050.3863985158921
 21
-1434.07675138938
 31
0.0
  0
LINE
  5
CBD2
  8
01
  6
BYBLOCK
 10
1050.3863985158921
 20
-1434.07675138938
 30
0.0
 11
1049.6897306218921
 21
-1431.4767513893801
 31
0.0
  0
LINE
  5
CBD3
  8
01
  6
BYBLOCK
 10
1050.3863985158921
 20
-1434.07675138938
 30
0.0
 11
1050.3863985158921
 21
-1431.4767513893801
 31
0.0
  0
LINE
  5
CBD4
  8
01
  6
BYBLOCK
 10
1049.6897306218921
 20
-1362.1767513893799
 30
0.0
 11
1050.3863985158921
 21
-1359.57675138938
 31
0.0
  0
LINE
  5
CBD5
  8
01
  6
BYBLOCK
 10
1050.3863985158921
 20
-1359.57675138938
 30
0.0
 11
1051.0830664098919
 21
-1362.1767513893799
 31
0.0
  0
LINE
  5
CBD6
  8
01
  6
BYBLOCK
 10
1050.3863985158921
 20
-1359.57675138938
 30
0.0
 11
1050.3863985158921
 21
-1362.1767513893799
 31
0.0
  0
LINE
  5
CBD7
  8
01
 10
1001.876728294393
 20
-1187.572662548984
 30
0.0
 11
976.94082625934186
 21
-1206.9867513904089
 31
0.0
1001
ACAD
1000
DSTYLE
1002
{
1070
    40
1040
1.3
1002
}
  0
LINE
  5
CBD8
  8
01
 10
976.94082625934186
 20
-1206.9867513904089
 30
0.0
 11
973.43082625934187
 21
-1206.9867513904089
 31
0.0
1001
ACAD
1000
DSTYLE
1002
{
1070
    40
1040
1.3
1002
}
  0
TEXT
  5
CBD9
  8
01
 10
1043.138940108098
 20
-1155.6600847237421
 30
0.0
 40
4.5499999999999989
  1
20.5
 50
90.0
  0
LINE
  5
CBDA
  8
01
  6
BYBLOCK
 10
1044.7456080020979
 20
-1155.7267513904089
 30
0.0
 11
1044.0489401080979
 21
-1158.3267513904091
 31
0.0
  0
LINE
  5
CBDB
  8
01
  6
BYBLOCK
 10
1044.0489401080979
 20
-1158.3267513904091
 30
0.0
 11
1043.3522722140981
 21
-1155.7267513904089
 31
0.0
  0
LINE
  5
CBDC
  8
01
  6
BYBLOCK
 10
1044.0489401080979
 20
-1158.3267513904091
 30
0.0
 11
1044.0489401080979
 21
-1155.7267513904089
 31
0.0
  0
LINE
  5
CBDD
  8
01
  6
BYBLOCK
 10
1043.3522722140981
 20
-1140.426751390409
 30
0.0
 11
1044.0489401080979
 21
-1137.8267513904091
 31
0.0
  0
LINE
  5
CBDE
  8
01
  6
BYBLOCK
 10
1044.0489401080979
 20
-1137.8267513904091
 30
0.0
 11
1044.7456080020979
 21
-1140.426751390409
 31
0.0
  0
LINE
  5
CBDF
  8
01
  6
BYBLOCK
 10
1044.0489401080979
 20
-1137.8267513904091
 30
0.0
 11
1044.0489401080979
 21
-1140.426751390409
 31
0.0
  0
LINE
  5
CBE0
  8
01
 10
1037.9331650831341
 20
-1206.5668110166509
 30
0.0
 11
1049.5498844115259
 21
-1192.9506540139239
 31
0.0
1001
ACAD
1000
DSTYLE
1002
{
1070
    40
1040
1.3
1002
}
  0
LINE
  5
CBE1
  8
01
 10
1049.5498844115259
 20
-1192.9506540139239
 30
0.0
 11
1053.0598844115259
 21
-1192.9506540139239
 31
0.0
1001
ACAD
1000
DSTYLE
1002
{
1070
    40
1040
1.3
1002
}
  0
TEXT
  5
CBE2
  8
01
 10
968.2776651663246
 20
-1426.4581640182021
 30
0.0
 40
4.5499999999999989
  1
□53
 50
90.0
  0
LINE
  5
CBE3
  8
01
  6
BYBLOCK
 10
969.88433306032437
 20
-1441.9767513893819
 30
0.0
 11
969.18766516632445
 21
-1444.576751389382
 31
0.0
  0
LINE
  5
CBE4
  8
01
  6
BYBLOCK
 10
969.18766516632445
 20
-1444.576751389382
 30
0.0
 11
968.49099727232453
 21
-1441.9767513893819
 31
0.0
  0
LINE
  5
CBE5
  8
01
  6
BYBLOCK
 10
969.18766516632445
 20
-1444.576751389382
 30
0.0
 11
969.18766516632445
 21
-1441.9767513893819
 31
0.0
  0
LINE
  5
CBE6
  8
01
  6
BYBLOCK
 10
968.49099727232453
 20
-1394.1767513893819
 30
0.0
 11
969.18766516632445
 21
-1391.576751389382
 31
0.0
  0
LINE
  5
CBE7
  8
01
  6
BYBLOCK
 10
969.18766516632445
 20
-1391.576751389382
 30
0.0
 11
969.88433306032437
 21
-1394.1767513893819
 31
0.0
  0
LINE
  5
CBE8
  8
01
  6
BYBLOCK
 10
969.18766516632445
 20
-1391.576751389382
 30
0.0
 11
969.18766516632445
 21
-1394.1767513893819
 31
0.0
  0
VIEWPORT
  5
57
 67
     1
  8
0
 10
97.01362688031665
 20
10.09248672500371
 30
0.0
 40
625.09586118437085
 41
287.1203023406178
 68
     1
 69
     1
1001
ACAD
1000
MVIEW
1002
{
1070
    16
1010
0.0
1020
0.0
1030
0.0
1010
0.0
1020
0.0
1030
1.0
1040
0.0
1040
287.1203023406178
1040
97.01362688031665
1040
10.09248672500371
1040
50.0
1040
0.0
1040
0.0
1070
     0
1070
   100
1070
     1
1070
     1
1070
     0
1070
     0
1070
     0
1070
     0
1040
0.0
1040
0.0
1040
0.0
1040
10.0
1040
10.0
1040
10.0
1040
10.0
1070
     0
1002
{
1002
}
1002
}
  0
ENDSEC
  0
EOF
