  0
SECTION
  2
HEADER
  9
$ACADVER
  1
AC1009
  9
$INSBASE
 10
0.0
 20
0.0
 30
0.0
  9
$EXTMIN
 10
543.60257013364344
 20
-1472.9126913893799
 30
-0.0000000000563712
  9
$EXTMAX
 10
1151.072884472645
 20
-1078.876751390409
 30
0.0
  9
$LIMMIN
 10
0.0
 20
0.0
  9
$LIMMAX
 10
420.0
 20
297.0
  9
$ORTHOMODE
 70
     0
  9
$REGENMODE
 70
     1
  9
$FILLMODE
 70
     1
  9
$QTEXTMODE
 70
     0
  9
$MIRRTEXT
 70
     0
  9
$DRAGMODE
 70
     2
  9
$LTSCALE
 40
0.5
  9
$OSMODE
 70
  2175
  9
$ATTMODE
 70
     1
  9
$TEXTSIZE
 40
4.0
  9
$TRACEWID
 40
1.0
  9
$TEXTSTYLE
  7
STANDARD
  9
$CLAYER
  8
1TEXT
  9
$CELTYPE
  6
BYLAYER
  9
$CECOLOR
 62
   256
  9
$DIMSCALE
 40
1.0
  9
$DIMASZ
 40
2.0
  9
$DIMEXO
 40
0.0
  9
$DIMDLI
 40
7.0
  9
$DIMRND
 40
0.0
  9
$DIMDLE
 40
0.0
  9
$DIMEXE
 40
1.0
  9
$DIMTP
 40
0.0
  9
$DIMTM
 40
0.0
  9
$DIMTXT
 40
3.5
  9
$DIMCEN
 40
0.0
  9
$DIMTSZ
 40
0.0
  9
$DIMTOL
 70
     0
  9
$DIMLIM
 70
     0
  9
$DIMTIH
 70
     0
  9
$DIMTOH
 70
     0
  9
$DIMSE1
 70
     0
  9
$DIMSE2
 70
     0
  9
$DIMTAD
 70
     1
  9
$DIMZIN
 70
     8
  9
$DIMBLK
  1

  9
$DIMASO
 70
     1
  9
$DIMSHO
 70
     1
  9
$DIMPOST
  1
 
  9
$DIMAPOST
  1

  9
$DIMALT
 70
     0
  9
$DIMALTD
 70
     2
  9
$DIMALTF
 40
25.399999999999999
  9
$DIMLFAC
 40
1.0
  9
$DIMTOFL
 70
     1
  9
$DIMTVP
 40
0.0
  9
$DIMTIX
 70
     0
  9
$DIMSOXD
 70
     0
  9
$DIMSAH
 70
     1
  9
$DIMBLK1
  1
OPEN30
  9
$DIMBLK2
  1
OPEN30
  9
$DIMSTYLE
  2
NEWX10
  9
$DIMCLRD
 70
   256
  9
$DIMCLRE
 70
   256
  9
$DIMCLRT
 70
   201
  9
$DIMTFAC
 40
0.7
  9
$DIMGAP
 40
0.7
  9
$LUNITS
 70
     2
  9
$LUPREC
 70
     4
  9
$SKETCHINC
 40
1.0
  9
$FILLETRAD
 40
0.0
  9
$AUNITS
 70
     0
  9
$AUPREC
 70
     2
  9
$MENU
  1
acad
  9
$ELEVATION
 40
0.0
  9
$PELEVATION
 40
0.0
  9
$THICKNESS
 40
0.0
  9
$LIMCHECK
 70
     0
  9
$BLIPMODE
 70
     0
  9
$CHAMFERA
 40
10.0
  9
$CHAMFERB
 40
10.0
  9
$SKPOLY
 70
     0
  9
$TDCREATE
 40
2451318.621352917
  9
$TDUPDATE
 40
2456643.4258221178
  9
$TDINDWG
 40
0.3865067245
  9
$TDUSRTIMER
 40
0.3865067245
  9
$USRTIMER
 70
     1
  9
$ANGBASE
 50
0.0
  9
$ANGDIR
 70
     0
  9
$PDMODE
 70
     0
  9
$PDSIZE
 40
0.0
  9
$PLINEWID
 40
0.0
  9
$COORDS
 70
     0
  9
$SPLFRAME
 70
     0
  9
$SPLINETYPE
 70
     6
  9
$SPLINESEGS
 70
     8
  9
$ATTDIA
 70
     0
  9
$ATTREQ
 70
     1
  9
$HANDLING
 70
     1
  9
$HANDSEED
  5
C96E
  9
$SURFTAB1
 70
     6
  9
$SURFTAB2
 70
     6
  9
$SURFTYPE
 70
     6
  9
$SURFU
 70
     6
  9
$SURFV
 70
     6
  9
$UCSNAME
  2

  9
$UCSORG
 10
0.0
 20
0.0
 30
0.0
  9
$UCSXDIR
 10
1.0
 20
0.0
 30
0.0
  9
$UCSYDIR
 10
0.0
 20
1.0
 30
0.0
  9
$PUCSNAME
  2

  9
$PUCSORG
 10
0.0
 20
0.0
 30
0.0
  9
$PUCSXDIR
 10
1.0
 20
0.0
 30
0.0
  9
$PUCSYDIR
 10
0.0
 20
1.0
 30
0.0
  9
$USERI1
 70
     0
  9
$USERI2
 70
     0
  9
$USERI3
 70
     0
  9
$USERI4
 70
     0
  9
$USERI5
 70
     0
  9
$USERR1
 40
0.0
  9
$USERR2
 40
0.0
  9
$USERR3
 40
0.0
  9
$USERR4
 40
0.0
  9
$USERR5
 40
0.0
  9
$WORLDVIEW
 70
     1
  9
$SHADEDGE
 70
     3
  9
$SHADEDIF
 70
    70
  9
$TILEMODE
 70
     1
  9
$MAXACTVP
 70
    48
  9
$PLIMCHECK
 70
     0
  9
$PEXTMIN
 10
1.0000000000000000E+020
 20
1.0000000000000000E+020
 30
1.0000000000000000E+020
  9
$PEXTMAX
 10
-1.0000000000000000E+020
 20
-1.0000000000000000E+020
 30
-1.0000000000000000E+020
  9
$PLIMMIN
 10
0.0
 20
0.0
  9
$PLIMMAX
 10
420.0
 20
297.0
  9
$UNITMODE
 70
     0
  9
$VISRETAIN
 70
     1
  9
$PLINEGEN
 70
     0
  9
$PSLTSCALE
 70
     1
  0
ENDSEC
  0
SECTION
  2
TABLES
  0
TABLE
  2
VPORT
 70
     1
  0
VPORT
  2
*ACTIVE
 70
     0
 10
0.0
 20
0.0
 11
1.0
 21
1.0
 12
847.33901004013865
 22
-1275.885130085461
 13
0.0
 23
0.0
 14
10.0
 24
10.0
 15
10.0
 25
10.0
 16
0.0
 26
0.0
 36
1.0
 17
0.0
 27
0.0
 37
0.0
 40
417.96686387733638
 41
2.1771217712177111
 42
50.0
 43
0.0
 44
0.0
 50
0.0
 51
0.0
 71
     0
 72
   100
 73
     1
 74
     1
 75
     0
 76
     0
 77
     0
 78
     0
  0
ENDTAB
  0
TABLE
  2
LTYPE
 70
    12
  0
LTYPE
  2
CONTINUOUS
 70
     0
  3
Solid line
 72
    65
 73
     0
 40
0.0
  0
LTYPE
  2
XREF1|CENTER2
 70
    48
  3
Center (.5x) ___ _ ___ _ ___ _ ___ _ ___ _ ___
 72
    65
 73
     4
 40
28.574999999999999
 49
19.050000000000001
 49
-3.1749999999999989
 49
3.1749999999999989
 49
-3.1749999999999989
  0
LTYPE
  2
A3WAKUDAKE|CENTER2
 70
    48
  3
Center (.5x) ___ _ ___ _ ___ _ ___ _ ___ _ ___
 72
    65
 73
     4
 40
28.574999999999999
 49
19.050000000000001
 49
-3.1749999999999989
 49
3.1749999999999989
 49
-3.1749999999999989
  0
ENDTAB
  0
TABLE
  2
LAYER
 70
    38
  0
LAYER
  2
0
 70
     0
 62
     7
  6
CONTINUOUS
  0
LAYER
  2
1TEXT
 70
     0
 62
     7
  6
CONTINUOUS
  0
LAYER
  2
01
 70
     0
 62
     1
  6
CONTINUOUS
  0
LAYER
  2
A3WAKUDAKE|THICK
 70
    48
 62
     7
  6
CONTINUOUS
  0
LAYER
  2
A3WAKUDAKE|POINT
 70
    48
 62
     7
  6
CONTINUOUS
  0
LAYER
  2
A3WAKUDAKE|1CENTER
 70
    48
 62
     7
  6
A3WAKUDAKE|CENTER2
  0
LAYER
  2
A3WAKUDAKE|0-6
 70
    48
 62
     7
  6
CONTINUOUS
  0
LAYER
  2
A3WAKUDAKE|1DIM
 70
    48
 62
     7
  6
CONTINUOUS
  0
LAYER
  2
XREF1|1CENTER
 70
    48
 62
     7
  6
XREF1|CENTER2
  0
ENDTAB
  0
TABLE
  2
STYLE
 70
     4
  0
STYLE
  2
STANDARD
 70
     0
 40
0.0
 41
1.0
 50
0.0
 71
     0
 42
4.0
  3
romans.shx
  4
extfont2.shx
  0
ENDTAB
  0
TABLE
  2
VIEW
 70
     5
  0
ENDTAB
  0
TABLE
  2
UCS
 70
     0
  0
ENDTAB
  0
TABLE
  2
APPID
 70
    11
  0
APPID
  2
ACAD
 70
     0
  0
APPID
  2
DRAWINGVARIABLESXDATA
 70
     0
  0
APPID
  2
CONTENTTABDATA
 70
     0
  0
APPID
  2
CONTENTCURRENTTAB
 70
     0
  0
APPID
  2
CONTENTBLOCKDESCRIPTION
 70
     0
  0
APPID
  2
CONTENTBLOCKICON
 70
     0
  0
APPID
  2
CONTENTLONGBLOCKNAME
 70
     0
  0
APPID
  2
ACAD_PSEXT
 70
     0
  0
APPID
  2
ACAD_MLEADERVER
 70
     0
  0
APPID
  2
ACAD_EXEMPT_FROM_CAD_STANDARDS
 70
     0
  0
APPID
  2
ACAECLAYERSTANDARD
 70
     0
  0
ENDTAB
  0
TABLE
  2
DIMSTYLE
 70
     5
  0
DIMSTYLE
  2
NEWX10
 70
     0
  3
 
  4

  5

  6
OPEN30
  7
OPEN30
 40
1.0
 41
2.0
 42
0.0
 43
7.0
 44
1.0
 45
0.0
 46
0.0
 47
0.0
 48
0.0
140
3.5
141
0.0
142
0.0
143
25.399999999999999
144
1.0
145
0.0
146
0.7
147
0.7
 71
     0
 72
     0
 73
     0
 74
     0
 75
     0
 76
     0
 77
     1
 78
     8
170
     0
171
     2
172
     1
173
     1
174
     0
175
     0
176
   256
177
   256
178
   201
  0
ENDTAB
  0
ENDSEC
  0
SECTION
  2
BLOCKS
  0
BLOCK
  8
0
  2
$MODEL_SPACE
 70
     0
 10
0.0
 20
0.0
 30
0.0
  3
$MODEL_SPACE
  1

  0
ENDBLK
  5
1A
  8
0
  0
BLOCK
 67
     1
  8
0
  2
$PAPER_SPACE
 70
     0
 10
0.0
 20
0.0
 30
0.0
  3
$PAPER_SPACE
  1

  0
ENDBLK
  5
17
 67
     1
  8
0
  0
BLOCK
  8
0
  2
_OPEN30
 70
     0
 10
0.0
 20
0.0
 30
0.0
  3
_OPEN30
  1

  0
LINE
  5
44
  8
0
  6
BYBLOCK
 62
     0
 10
-1.0
 20
0.26794919
 30
0.0
 11
0.0
 21
0.0
 31
0.0
  0
LINE
  5
45
  8
0
  6
BYBLOCK
 62
     0
 10
0.0
 20
0.0
 30
0.0
 11
-1.0
 21
-0.26794919
 31
0.0
  0
LINE
  5
46
  8
0
  6
BYBLOCK
 62
     0
 10
0.0
 20
0.0
 30
0.0
 11
-1.0
 21
0.0
 31
0.0
  0
ENDBLK
  5
47
  8
0
  0
BLOCK
  8
0
  2
XREF1
 70
    36
 10
0.0
 20
0.0
 30
0.0
  3
XREF1
  1
D:\ACLT\FORMAT\KAWAJUN(9)図面用.dwg
  0
ENDBLK
  5
5D
  8
0
  0
BLOCK
  8
0
  2
A3WAKUDAKE
 70
    36
 10
0.0
 20
0.0
 30
0.0
  3
A3WAKUDAKE
  1
D:\ACLT\FORMAT\A3WAKUdake.dwg
  0
ENDBLK
  5
6A0
  8
0
  0
BLOCK
  8
0
  2
*U28
 70
     1
 10
0.0
 20
0.0
 30
0.0
  3
*U28
  1

  0
TEXT
  5
C859
  8
1TEXT
 62
   201
 10
968.2776651663246
 20
-1423.749830684869
 30
0.0
 40
4.5499999999999989
  1
53
 50
90.0
  0
ENDBLK
  5
C85B
  8
0
  0
BLOCK
  8
0
  2
*U29
 70
     1
 10
0.0
 20
0.0
 30
0.0
  3
*U29
  1

  0
TEXT
  5
C85D
  8
1TEXT
 62
   201
 10
1013.354331832991
 20
-1458.666751389381
 30
0.0
 40
4.5499999999999989
  1
80
  0
ENDBLK
  5
C85F
  8
0
  0
BLOCK
  8
0
  2
*U30
 70
     1
 10
0.0
 20
0.0
 30
0.0
  3
*U30
  1

  0
TEXT
  5
C867
  8
1TEXT
 62
   201
 10
968.2776651663246
 20
-2240.1183612816621
 30
0.0
 40
4.5499999999999989
  1
□53
 50
90.0
  0
ENDBLK
  5
C869
  8
0
  0
ENDSEC
  0
SECTION
  2
ENTITIES
  0
LINE
  5
224B
  8
01
 10
942.18854934838475
 20
-1155.8267513904091
 30
0.0
 11
942.18854934838475
 21
-1153.8267513904091
 31
0.0
  0
TEXT
  5
BAEE
  8
01
 10
649.18768516632406
 20
-1133.07675138938
 30
0.0
 40
20.0
  1
2-RST-X-LW-2
  0
LINE
  5
BAF0
  8
01
 10
649.18768516632406
 20
-1194.5767513893809
 30
0.0
 11
764.64169479029306
 21
-1194.5767513893809
 31
0.0
  0
TEXT
  5
BAF1
  8
01
 10
661.6876851663236
 20
-1171.3267513893809
 30
0.0
 40
6.0
  1
表面処理
 72
     1
 11
675.28768516632363
 21
-1171.3267513893809
 31
0.0
  0
TEXT
  5
BAF2
  8
01
 10
661.6876851663236
 20
-1181.579684378667
 30
0.0
 40
6.0
  1
クローム
 72
     1
 11
675.28768516632363
 21
-1181.579684378667
 31
0.0
  0
LINE
  5
BAF3
  8
01
 10
649.18768516632406
 20
-1163.07675138938
 30
0.0
 11
764.64169479029295
 21
-1163.07675138938
 31
0.0
  0
LINE
  5
BAF4
  8
01
 10
649.18768516632406
 20
-1173.57675138938
 30
0.0
 11
764.64169479029295
 21
-1173.57675138938
 31
0.0
  0
LINE
  5
BAF5
  8
01
 10
649.18768516632406
 20
-1184.0767513893809
 30
0.0
 11
754.18768516632406
 21
-1184.0767513893809
 31
0.0
  0
LINE
  5
BAF6
  8
01
 10
649.18768516632406
 20
-1184.0767513893809
 30
0.0
 11
764.64169479029306
 21
-1184.0767513893809
 31
0.0
  0
LINE
  5
BAF7
  8
01
 10
701.68768516632417
 20
-1163.07675138938
 30
0.0
 11
701.68768516632417
 21
-1205.07675138938
 31
0.0
  0
TEXT
  5
BAF8
  8
01
 10
706.96359358644463
 20
-1182.148286864855
 30
0.0
 40
6.0
  1
2-RST-C-LW-2
 41
0.7
 72
     1
 11
733.26359358644459
 21
-1182.148286864855
 31
0.0
  0
TEXT
  5
BAF9
  8
01
 10
723.26359358644322
 20
-1171.3267513893809
 30
0.0
 40
6.0
  1
コード
 72
     1
 11
733.26359358644311
 21
-1171.3267513893809
 31
0.0
  0
LINE
  5
BAFA
  8
01
 10
649.18768516632406
 20
-1205.07675138938
 30
0.0
 11
764.64169479029306
 21
-1205.07675138938
 31
0.0
  0
LINE
  5
BAFC
  8
01
 10
649.18768516632417
 20
-1205.07675138938
 30
0.0
 11
649.18768516632406
 21
-1163.07675138938
 31
0.0
  0
LINE
  5
BAFD
  8
01
 10
764.64169479029306
 20
-1205.07675138938
 30
0.0
 11
764.64169479029295
 21
-1163.07675138938
 31
0.0
  0
TEXT
  5
BAFF
  8
01
 10
650.88768516632365
 20
-1192.043121806737
 30
0.0
 40
6.0
  1
サテンニッケル
 72
     1
 11
675.28768516632363
 21
-1192.043121806737
 31
0.0
  0
TEXT
  5
BB00
  8
01
 10
706.86359358644449
 20
-1192.648286864855
 30
0.0
 40
6.0
  1
2-RST-N-LW-2
 41
0.7
 72
     1
 11
733.26359358644459
 21
-1192.648286864855
 31
0.0
  0
TEXT
  5
BB02
  8
01
 10
650.88768516632354
 20
-1202.543121806737
 30
0.0
 40
6.0
  1
ダークアンバー
 72
     1
 11
675.28768516632351
 21
-1202.543121806737
 31
0.0
  0
TEXT
  5
BB03
  8
01
 10
704.86359358644449
 20
-1203.148286864855
 30
0.0
 40
6.0
  1
2-RST-4Q-LW-2
 41
0.7
 72
     1
 11
733.26359358644447
 21
-1203.148286864855
 31
0.0
  0
LINE
  5
BDFF
  8
01
 10
854.18766916632421
 20
-1325.57937138938
 30
0.0
 11
854.18766916632421
 21
-1472.9126913893799
 31
0.0
  0
LINE
  5
BE00
  8
01
 10
814.18766916632421
 20
-1325.57937138938
 30
0.0
 11
814.18766916632421
 21
-1472.9126913893799
 31
0.0
  0
LINE
  5
BE01
  8
01
 10
712.78767516632468
 20
-1332.07675138938
 30
0.0
 11
712.78767516632468
 21
-1355.17672138938
 31
0.0
  0
LINE
  5
BE02
  8
01
 10
711.1876691663241
 20
-1332.07675138938
 30
0.0
 11
711.1876691663241
 21
-1355.07675138938
 31
0.0
  0
LINE
  5
BE03
  8
01
 10
713.58767816632508
 20
-1332.07675138938
 30
0.0
 11
713.58767816632508
 21
-1462.07675138938
 31
0.0
  0
LINE
  5
BE04
  8
01
 10
715.1876691663241
 20
-1332.07675138938
 30
0.0
 11
715.1876691663241
 21
-1462.07675138938
 31
0.0
  0
LINE
  5
BE06
  8
01
 10
712.18766916632421
 20
-1434.0767513893809
 30
0.0
 11
690.68767316632363
 21
-1434.0767513893809
 31
0.0
  0
LINE
  5
BE07
  8
01
 10
646.18768516632406
 20
-1382.57675138938
 30
0.0
 11
646.18768516632406
 21
-1391.57675138938
 31
0.0
  0
LINE
  5
BE08
  8
01
 10
721.18766916632228
 20
-1386.0767513893809
 30
0.0
 11
715.1876691663241
 21
-1386.0767513893809
 31
0.0
  0
LINE
  5
BE09
  8
01
 10
726.18766916632421
 20
-1391.0767513893809
 30
0.0
 11
716.18766916632421
 21
-1391.0767513893809
 31
0.0
  0
POLYLINE
  5
BE0A
  8
01
 10
726.18766916632421
 20
-1389.64517138938
 30
0.0
 66
     1
 70
     8
  0
VERTEX
  8
01
  5
C86A
 10
726.188
 20
-1389.65
 30
0.000000
  70
    32
  0
VERTEX
  8
01
  5
C86B
 10
726.186
 20
-1389.56
 30
0.000000
  70
    32
  0
VERTEX
  8
01
  5
C86C
 10
726.182
 20
-1389.47
 30
0.000000
  70
    32
  0
VERTEX
  8
01
  5
C86D
 10
726.174
 20
-1389.38
 30
0.000000
  70
    32
  0
VERTEX
  8
01
  5
C86E
 10
726.164
 20
-1389.30
 30
0.000000
  70
    32
  0
VERTEX
  8
01
  5
C86F
 10
726.150
 20
-1389.21
 30
0.000000
  70
    32
  0
VERTEX
  8
01
  5
C870
 10
726.134
 20
-1389.12
 30
0.000000
  70
    32
  0
VERTEX
  8
01
  5
C871
 10
726.114
 20
-1389.04
 30
0.000000
  70
    32
  0
VERTEX
  8
01
  5
C872
 10
726.092
 20
-1388.95
 30
0.000000
  70
    32
  0
VERTEX
  8
01
  5
C873
 10
726.066
 20
-1388.86
 30
0.000000
  70
    32
  0
VERTEX
  8
01
  5
C874
 10
726.038
 20
-1388.78
 30
0.000000
  70
    32
  0
VERTEX
  8
01
  5
C875
 10
726.007
 20
-1388.69
 30
0.000000
  70
    32
  0
VERTEX
  8
01
  5
C876
 10
725.972
 20
-1388.61
 30
0.000000
  70
    32
  0
VERTEX
  8
01
  5
C877
 10
725.935
 20
-1388.53
 30
0.000000
  70
    32
  0
VERTEX
  8
01
  5
C878
 10
725.895
 20
-1388.44
 30
0.000000
  70
    32
  0
VERTEX
  8
01
  5
C879
 10
725.853
 20
-1388.36
 30
0.000000
  70
    32
  0
VERTEX
  8
01
  5
C87A
 10
725.807
 20
-1388.28
 30
0.000000
  70
    32
  0
VERTEX
  8
01
  5
C87B
 10
725.759
 20
-1388.20
 30
0.000000
  70
    32
  0
VERTEX
  8
01
  5
C87C
 10
725.708
 20
-1388.12
 30
0.000000
  70
    32
  0
VERTEX
  8
01
  5
C87D
 10
725.654
 20
-1388.04
 30
0.000000
  70
    32
  0
VERTEX
  8
01
  5
C87E
 10
725.597
 20
-1387.96
 30
0.000000
  70
    32
  0
VERTEX
  8
01
  5
C87F
 10
725.538
 20
-1387.89
 30
0.000000
  70
    32
  0
VERTEX
  8
01
  5
C880
 10
725.476
 20
-1387.81
 30
0.000000
  70
    32
  0
VERTEX
  8
01
  5
C881
 10
725.412
 20
-1387.74
 30
0.000000
  70
    32
  0
VERTEX
  8
01
  5
C882
 10
725.345
 20
-1387.66
 30
0.000000
  70
    32
  0
VERTEX
  8
01
  5
C883
 10
725.276
 20
-1387.59
 30
0.000000
  70
    32
  0
VERTEX
  8
01
  5
C884
 10
725.204
 20
-1387.52
 30
0.000000
  70
    32
  0
VERTEX
  8
01
  5
C885
 10
725.129
 20
-1387.45
 30
0.000000
  70
    32
  0
VERTEX
  8
01
  5
C886
 10
725.053
 20
-1387.38
 30
0.000000
  70
    32
  0
VERTEX
  8
01
  5
C887
 10
724.974
 20
-1387.31
 30
0.000000
  70
    32
  0
VERTEX
  8
01
  5
C888
 10
724.892
 20
-1387.25
 30
0.000000
  70
    32
  0
VERTEX
  8
01
  5
C889
 10
724.809
 20
-1387.18
 30
0.000000
  70
    32
  0
VERTEX
  8
01
  5
C88A
 10
724.723
 20
-1387.12
 30
0.000000
  70
    32
  0
VERTEX
  8
01
  5
C88B
 10
724.635
 20
-1387.06
 30
0.000000
  70
    32
  0
VERTEX
  8
01
  5
C88C
 10
724.545
 20
-1387.00
 30
0.000000
  70
    32
  0
VERTEX
  8
01
  5
C88D
 10
724.454
 20
-1386.94
 30
0.000000
  70
    32
  0
VERTEX
  8
01
  5
C88E
 10
724.360
 20
-1386.89
 30
0.000000
  70
    32
  0
VERTEX
  8
01
  5
C88F
 10
724.264
 20
-1386.83
 30
0.000000
  70
    32
  0
VERTEX
  8
01
  5
C890
 10
724.166
 20
-1386.78
 30
0.000000
  70
    32
  0
VERTEX
  8
01
  5
C891
 10
724.067
 20
-1386.73
 30
0.000000
  70
    32
  0
VERTEX
  8
01
  5
C892
 10
723.966
 20
-1386.68
 30
0.000000
  70
    32
  0
VERTEX
  8
01
  5
C893
 10
723.863
 20
-1386.63
 30
0.000000
  70
    32
  0
VERTEX
  8
01
  5
C894
 10
723.758
 20
-1386.58
 30
0.000000
  70
    32
  0
VERTEX
  8
01
  5
C895
 10
723.652
 20
-1386.54
 30
0.000000
  70
    32
  0
VERTEX
  8
01
  5
C896
 10
723.545
 20
-1386.50
 30
0.000000
  70
    32
  0
VERTEX
  8
01
  5
C897
 10
723.436
 20
-1386.46
 30
0.000000
  70
    32
  0
VERTEX
  8
01
  5
C898
 10
723.325
 20
-1386.42
 30
0.000000
  70
    32
  0
VERTEX
  8
01
  5
C899
 10
723.214
 20
-1386.38
 30
0.000000
  70
    32
  0
VERTEX
  8
01
  5
C89A
 10
723.101
 20
-1386.35
 30
0.000000
  70
    32
  0
VERTEX
  8
01
  5
C89B
 10
722.987
 20
-1386.32
 30
0.000000
  70
    32
  0
VERTEX
  8
01
  5
C89C
 10
722.872
 20
-1386.29
 30
0.000000
  70
    32
  0
VERTEX
  8
01
  5
C89D
 10
722.756
 20
-1386.26
 30
0.000000
  70
    32
  0
VERTEX
  8
01
  5
C89E
 10
722.639
 20
-1386.23
 30
0.000000
  70
    32
  0
VERTEX
  8
01
  5
C89F
 10
722.521
 20
-1386.21
 30
0.000000
  70
    32
  0
VERTEX
  8
01
  5
C8A0
 10
722.403
 20
-1386.18
 30
0.000000
  70
    32
  0
VERTEX
  8
01
  5
C8A1
 10
722.283
 20
-1386.16
 30
0.000000
  70
    32
  0
VERTEX
  8
01
  5
C8A2
 10
722.163
 20
-1386.15
 30
0.000000
  70
    32
  0
VERTEX
  8
01
  5
C8A3
 10
722.042
 20
-1386.13
 30
0.000000
  70
    32
  0
VERTEX
  8
01
  5
C8A4
 10
721.921
 20
-1386.12
 30
0.000000
  70
    32
  0
VERTEX
  8
01
  5
C8A5
 10
721.800
 20
-1386.10
 30
0.000000
  70
    32
  0
VERTEX
  8
01
  5
C8A6
 10
721.678
 20
-1386.09
 30
0.000000
  70
    32
  0
VERTEX
  8
01
  5
C8A7
 10
721.555
 20
-1386.09
 30
0.000000
  70
    32
  0
VERTEX
  8
01
  5
C8A8
 10
721.433
 20
-1386.08
 30
0.000000
  70
    32
  0
VERTEX
  8
01
  5
C8A9
 10
721.310
 20
-1386.08
 30
0.000000
  70
    32
  0
VERTEX
  8
01
  5
C8AA
 10
721.188
 20
-1386.08
 30
0.000000
  70
    32
  0
VERTEX
  8
01
  5
C8AB
 10
721.065
 20
-1386.08
 30
0.000000
  70
    32
  0
VERTEX
  8
01
  5
C8AC
 10
720.942
 20
-1386.08
 30
0.000000
  70
    32
  0
VERTEX
  8
01
  5
C8AD
 10
720.820
 20
-1386.09
 30
0.000000
  70
    32
  0
VERTEX
  8
01
  5
C8AE
 10
720.698
 20
-1386.09
 30
0.000000
  70
    32
  0
VERTEX
  8
01
  5
C8AF
 10
720.576
 20
-1386.10
 30
0.000000
  70
    32
  0
VERTEX
  8
01
  5
C8B0
 10
720.454
 20
-1386.12
 30
0.000000
  70
    32
  0
VERTEX
  8
01
  5
C8B1
 10
720.333
 20
-1386.13
 30
0.000000
  70
    32
  0
VERTEX
  8
01
  5
C8B2
 10
720.212
 20
-1386.15
 30
0.000000
  70
    32
  0
VERTEX
  8
01
  5
C8B3
 10
720.092
 20
-1386.16
 30
0.000000
  70
    32
  0
VERTEX
  8
01
  5
C8B4
 10
719.973
 20
-1386.18
 30
0.000000
  70
    32
  0
VERTEX
  8
01
  5
C8B5
 10
719.854
 20
-1386.21
 30
0.000000
  70
    32
  0
VERTEX
  8
01
  5
C8B6
 10
719.736
 20
-1386.23
 30
0.000000
  70
    32
  0
VERTEX
  8
01
  5
C8B7
 10
719.619
 20
-1386.26
 30
0.000000
  70
    32
  0
VERTEX
  8
01
  5
C8B8
 10
719.503
 20
-1386.29
 30
0.000000
  70
    32
  0
VERTEX
  8
01
  5
C8B9
 10
719.388
 20
-1386.32
 30
0.000000
  70
    32
  0
VERTEX
  8
01
  5
C8BA
 10
719.274
 20
-1386.35
 30
0.000000
  70
    32
  0
VERTEX
  8
01
  5
C8BB
 10
719.161
 20
-1386.38
 30
0.000000
  70
    32
  0
VERTEX
  8
01
  5
C8BC
 10
719.050
 20
-1386.42
 30
0.000000
  70
    32
  0
VERTEX
  8
01
  5
C8BD
 10
718.940
 20
-1386.46
 30
0.000000
  70
    32
  0
VERTEX
  8
01
  5
C8BE
 10
718.831
 20
-1386.50
 30
0.000000
  70
    32
  0
VERTEX
  8
01
  5
C8BF
 10
718.723
 20
-1386.54
 30
0.000000
  70
    32
  0
VERTEX
  8
01
  5
C8C0
 10
718.617
 20
-1386.58
 30
0.000000
  70
    32
  0
VERTEX
  8
01
  5
C8C1
 10
718.513
 20
-1386.63
 30
0.000000
  70
    32
  0
VERTEX
  8
01
  5
C8C2
 10
718.410
 20
-1386.68
 30
0.000000
  70
    32
  0
VERTEX
  8
01
  5
C8C3
 10
718.309
 20
-1386.73
 30
0.000000
  70
    32
  0
VERTEX
  8
01
  5
C8C4
 10
718.209
 20
-1386.78
 30
0.000000
  70
    32
  0
VERTEX
  8
01
  5
C8C5
 10
718.112
 20
-1386.83
 30
0.000000
  70
    32
  0
VERTEX
  8
01
  5
C8C6
 10
718.016
 20
-1386.89
 30
0.000000
  70
    32
  0
VERTEX
  8
01
  5
C8C7
 10
717.922
 20
-1386.94
 30
0.000000
  70
    32
  0
VERTEX
  8
01
  5
C8C8
 10
717.830
 20
-1387.00
 30
0.000000
  70
    32
  0
VERTEX
  8
01
  5
C8C9
 10
717.740
 20
-1387.06
 30
0.000000
  70
    32
  0
VERTEX
  8
01
  5
C8CA
 10
717.652
 20
-1387.12
 30
0.000000
  70
    32
  0
VERTEX
  8
01
  5
C8CB
 10
717.566
 20
-1387.18
 30
0.000000
  70
    32
  0
VERTEX
  8
01
  5
C8CC
 10
717.483
 20
-1387.25
 30
0.000000
  70
    32
  0
VERTEX
  8
01
  5
C8CD
 10
717.402
 20
-1387.31
 30
0.000000
  70
    32
  0
VERTEX
  8
01
  5
C8CE
 10
717.323
 20
-1387.38
 30
0.000000
  70
    32
  0
VERTEX
  8
01
  5
C8CF
 10
717.246
 20
-1387.45
 30
0.000000
  70
    32
  0
VERTEX
  8
01
  5
C8D0
 10
717.172
 20
-1387.52
 30
0.000000
  70
    32
  0
VERTEX
  8
01
  5
C8D1
 10
717.100
 20
-1387.59
 30
0.000000
  70
    32
  0
VERTEX
  8
01
  5
C8D2
 10
717.030
 20
-1387.66
 30
0.000000
  70
    32
  0
VERTEX
  8
01
  5
C8D3
 10
716.963
 20
-1387.74
 30
0.000000
  70
    32
  0
VERTEX
  8
01
  5
C8D4
 10
716.899
 20
-1387.81
 30
0.000000
  70
    32
  0
VERTEX
  8
01
  5
C8D5
 10
716.837
 20
-1387.89
 30
0.000000
  70
    32
  0
VERTEX
  8
01
  5
C8D6
 10
716.778
 20
-1387.96
 30
0.000000
  70
    32
  0
VERTEX
  8
01
  5
C8D7
 10
716.722
 20
-1388.04
 30
0.000000
  70
    32
  0
VERTEX
  8
01
  5
C8D8
 10
716.668
 20
-1388.12
 30
0.000000
  70
    32
  0
VERTEX
  8
01
  5
C8D9
 10
716.617
 20
-1388.20
 30
0.000000
  70
    32
  0
VERTEX
  8
01
  5
C8DA
 10
716.568
 20
-1388.28
 30
0.000000
  70
    32
  0
VERTEX
  8
01
  5
C8DB
 10
716.523
 20
-1388.36
 30
0.000000
  70
    32
  0
VERTEX
  8
01
  5
C8DC
 10
716.480
 20
-1388.44
 30
0.000000
  70
    32
  0
VERTEX
  8
01
  5
C8DD
 10
716.440
 20
-1388.53
 30
0.000000
  70
    32
  0
VERTEX
  8
01
  5
C8DE
 10
716.403
 20
-1388.61
 30
0.000000
  70
    32
  0
VERTEX
  8
01
  5
C8DF
 10
716.369
 20
-1388.69
 30
0.000000
  70
    32
  0
VERTEX
  8
01
  5
C8E0
 10
716.338
 20
-1388.78
 30
0.000000
  70
    32
  0
VERTEX
  8
01
  5
C8E1
 10
716.309
 20
-1388.86
 30
0.000000
  70
    32
  0
VERTEX
  8
01
  5
C8E2
 10
716.284
 20
-1388.95
 30
0.000000
  70
    32
  0
VERTEX
  8
01
  5
C8E3
 10
716.261
 20
-1389.04
 30
0.000000
  70
    32
  0
VERTEX
  8
01
  5
C8E4
 10
716.242
 20
-1389.12
 30
0.000000
  70
    32
  0
VERTEX
  8
01
  5
C8E5
 10
716.225
 20
-1389.21
 30
0.000000
  70
    32
  0
VERTEX
  8
01
  5
C8E6
 10
716.212
 20
-1389.30
 30
0.000000
  70
    32
  0
VERTEX
  8
01
  5
C8E7
 10
716.201
 20
-1389.38
 30
0.000000
  70
    32
  0
VERTEX
  8
01
  5
C8E8
 10
716.194
 20
-1389.47
 30
0.000000
  70
    32
  0
VERTEX
  8
01
  5
C8E9
 10
716.189
 20
-1389.56
 30
0.000000
  70
    32
  0
VERTEX
  8
01
  5
C8EA
 10
716.188
 20
-1389.65
 30
0.000000
  70
    32
  0
SEQEND
  8
01
  5
C8EB
  0
LINE
  5
BE0B
  8
01
 10
721.18766916632421
 20
-1406.0767513893809
 30
0.0
 11
715.1876691663241
 21
-1406.0767513893809
 31
0.0
  0
LINE
  5
BE0C
  8
01
 10
726.18766916632421
 20
-1401.07675138938
 30
0.0
 11
716.18766916632421
 21
-1401.07675138938
 31
0.0
  0
POLYLINE
  5
BE0D
  8
01
 10
726.18766916632421
 20
-1402.5083313893799
 30
0.0
 66
     1
 70
     8
  0
VERTEX
  8
01
  5
C8EC
 10
726.188
 20
-1402.51
 30
0.000000
  70
    32
  0
VERTEX
  8
01
  5
C8ED
 10
726.186
 20
-1402.60
 30
0.000000
  70
    32
  0
VERTEX
  8
01
  5
C8EE
 10
726.182
 20
-1402.68
 30
0.000000
  70
    32
  0
VERTEX
  8
01
  5
C8EF
 10
726.174
 20
-1402.77
 30
0.000000
  70
    32
  0
VERTEX
  8
01
  5
C8F0
 10
726.164
 20
-1402.86
 30
0.000000
  70
    32
  0
VERTEX
  8
01
  5
C8F1
 10
726.150
 20
-1402.95
 30
0.000000
  70
    32
  0
VERTEX
  8
01
  5
C8F2
 10
726.134
 20
-1403.03
 30
0.000000
  70
    32
  0
VERTEX
  8
01
  5
C8F3
 10
726.114
 20
-1403.12
 30
0.000000
  70
    32
  0
VERTEX
  8
01
  5
C8F4
 10
726.092
 20
-1403.20
 30
0.000000
  70
    32
  0
VERTEX
  8
01
  5
C8F5
 10
726.066
 20
-1403.29
 30
0.000000
  70
    32
  0
VERTEX
  8
01
  5
C8F6
 10
726.038
 20
-1403.38
 30
0.000000
  70
    32
  0
VERTEX
  8
01
  5
C8F7
 10
726.007
 20
-1403.46
 30
0.000000
  70
    32
  0
VERTEX
  8
01
  5
C8F8
 10
725.972
 20
-1403.54
 30
0.000000
  70
    32
  0
VERTEX
  8
01
  5
C8F9
 10
725.935
 20
-1403.63
 30
0.000000
  70
    32
  0
VERTEX
  8
01
  5
C8FA
 10
725.895
 20
-1403.71
 30
0.000000
  70
    32
  0
VERTEX
  8
01
  5
C8FB
 10
725.853
 20
-1403.79
 30
0.000000
  70
    32
  0
VERTEX
  8
01
  5
C8FC
 10
725.807
 20
-1403.87
 30
0.000000
  70
    32
  0
VERTEX
  8
01
  5
C8FD
 10
725.759
 20
-1403.95
 30
0.000000
  70
    32
  0
VERTEX
  8
01
  5
C8FE
 10
725.708
 20
-1404.03
 30
0.000000
  70
    32
  0
VERTEX
  8
01
  5
C8FF
 10
725.654
 20
-1404.11
 30
0.000000
  70
    32
  0
VERTEX
  8
01
  5
C900
 10
725.597
 20
-1404.19
 30
0.000000
  70
    32
  0
VERTEX
  8
01
  5
C901
 10
725.538
 20
-1404.27
 30
0.000000
  70
    32
  0
VERTEX
  8
01
  5
C902
 10
725.476
 20
-1404.34
 30
0.000000
  70
    32
  0
VERTEX
  8
01
  5
C903
 10
725.412
 20
-1404.42
 30
0.000000
  70
    32
  0
VERTEX
  8
01
  5
C904
 10
725.345
 20
-1404.49
 30
0.000000
  70
    32
  0
VERTEX
  8
01
  5
C905
 10
725.276
 20
-1404.56
 30
0.000000
  70
    32
  0
VERTEX
  8
01
  5
C906
 10
725.204
 20
-1404.63
 30
0.000000
  70
    32
  0
VERTEX
  8
01
  5
C907
 10
725.129
 20
-1404.70
 30
0.000000
  70
    32
  0
VERTEX
  8
01
  5
C908
 10
725.053
 20
-1404.77
 30
0.000000
  70
    32
  0
VERTEX
  8
01
  5
C909
 10
724.974
 20
-1404.84
 30
0.000000
  70
    32
  0
VERTEX
  8
01
  5
C90A
 10
724.892
 20
-1404.90
 30
0.000000
  70
    32
  0
VERTEX
  8
01
  5
C90B
 10
724.809
 20
-1404.97
 30
0.000000
  70
    32
  0
VERTEX
  8
01
  5
C90C
 10
724.723
 20
-1405.03
 30
0.000000
  70
    32
  0
VERTEX
  8
01
  5
C90D
 10
724.635
 20
-1405.09
 30
0.000000
  70
    32
  0
VERTEX
  8
01
  5
C90E
 10
724.545
 20
-1405.15
 30
0.000000
  70
    32
  0
VERTEX
  8
01
  5
C90F
 10
724.454
 20
-1405.21
 30
0.000000
  70
    32
  0
VERTEX
  8
01
  5
C910
 10
724.360
 20
-1405.27
 30
0.000000
  70
    32
  0
VERTEX
  8
01
  5
C911
 10
724.264
 20
-1405.32
 30
0.000000
  70
    32
  0
VERTEX
  8
01
  5
C912
 10
724.166
 20
-1405.37
 30
0.000000
  70
    32
  0
VERTEX
  8
01
  5
C913
 10
724.067
 20
-1405.43
 30
0.000000
  70
    32
  0
VERTEX
  8
01
  5
C914
 10
723.966
 20
-1405.48
 30
0.000000
  70
    32
  0
VERTEX
  8
01
  5
C915
 10
723.863
 20
-1405.52
 30
0.000000
  70
    32
  0
VERTEX
  8
01
  5
C916
 10
723.758
 20
-1405.57
 30
0.000000
  70
    32
  0
VERTEX
  8
01
  5
C917
 10
723.652
 20
-1405.61
 30
0.000000
  70
    32
  0
VERTEX
  8
01
  5
C918
 10
723.545
 20
-1405.66
 30
0.000000
  70
    32
  0
VERTEX
  8
01
  5
C919
 10
723.436
 20
-1405.70
 30
0.000000
  70
    32
  0
VERTEX
  8
01
  5
C91A
 10
723.325
 20
-1405.73
 30
0.000000
  70
    32
  0
VERTEX
  8
01
  5
C91B
 10
723.214
 20
-1405.77
 30
0.000000
  70
    32
  0
VERTEX
  8
01
  5
C91C
 10
723.101
 20
-1405.81
 30
0.000000
  70
    32
  0
VERTEX
  8
01
  5
C91D
 10
722.987
 20
-1405.84
 30
0.000000
  70
    32
  0
VERTEX
  8
01
  5
C91E
 10
722.872
 20
-1405.87
 30
0.000000
  70
    32
  0
VERTEX
  8
01
  5
C91F
 10
722.756
 20
-1405.90
 30
0.000000
  70
    32
  0
VERTEX
  8
01
  5
C920
 10
722.639
 20
-1405.92
 30
0.000000
  70
    32
  0
VERTEX
  8
01
  5
C921
 10
722.521
 20
-1405.95
 30
0.000000
  70
    32
  0
VERTEX
  8
01
  5
C922
 10
722.403
 20
-1405.97
 30
0.000000
  70
    32
  0
VERTEX
  8
01
  5
C923
 10
722.283
 20
-1405.99
 30
0.000000
  70
    32
  0
VERTEX
  8
01
  5
C924
 10
722.163
 20
-1406.01
 30
0.000000
  70
    32
  0
VERTEX
  8
01
  5
C925
 10
722.042
 20
-1406.02
 30
0.000000
  70
    32
  0
VERTEX
  8
01
  5
C926
 10
721.921
 20
-1406.04
 30
0.000000
  70
    32
  0
VERTEX
  8
01
  5
C927
 10
721.800
 20
-1406.05
 30
0.000000
  70
    32
  0
VERTEX
  8
01
  5
C928
 10
721.678
 20
-1406.06
 30
0.000000
  70
    32
  0
VERTEX
  8
01
  5
C929
 10
721.555
 20
-1406.07
 30
0.000000
  70
    32
  0
VERTEX
  8
01
  5
C92A
 10
721.433
 20
-1406.07
 30
0.000000
  70
    32
  0
VERTEX
  8
01
  5
C92B
 10
721.310
 20
-1406.08
 30
0.000000
  70
    32
  0
VERTEX
  8
01
  5
C92C
 10
721.188
 20
-1406.08
 30
0.000000
  70
    32
  0
VERTEX
  8
01
  5
C92D
 10
721.065
 20
-1406.08
 30
0.000000
  70
    32
  0
VERTEX
  8
01
  5
C92E
 10
720.942
 20
-1406.07
 30
0.000000
  70
    32
  0
VERTEX
  8
01
  5
C92F
 10
720.820
 20
-1406.07
 30
0.000000
  70
    32
  0
VERTEX
  8
01
  5
C930
 10
720.698
 20
-1406.06
 30
0.000000
  70
    32
  0
VERTEX
  8
01
  5
C931
 10
720.576
 20
-1406.05
 30
0.000000
  70
    32
  0
VERTEX
  8
01
  5
C932
 10
720.454
 20
-1406.04
 30
0.000000
  70
    32
  0
VERTEX
  8
01
  5
C933
 10
720.333
 20
-1406.02
 30
0.000000
  70
    32
  0
VERTEX
  8
01
  5
C934
 10
720.212
 20
-1406.01
 30
0.000000
  70
    32
  0
VERTEX
  8
01
  5
C935
 10
720.092
 20
-1405.99
 30
0.000000
  70
    32
  0
VERTEX
  8
01
  5
C936
 10
719.973
 20
-1405.97
 30
0.000000
  70
    32
  0
VERTEX
  8
01
  5
C937
 10
719.854
 20
-1405.95
 30
0.000000
  70
    32
  0
VERTEX
  8
01
  5
C938
 10
719.736
 20
-1405.92
 30
0.000000
  70
    32
  0
VERTEX
  8
01
  5
C939
 10
719.619
 20
-1405.90
 30
0.000000
  70
    32
  0
VERTEX
  8
01
  5
C93A
 10
719.503
 20
-1405.87
 30
0.000000
  70
    32
  0
VERTEX
  8
01
  5
C93B
 10
719.388
 20
-1405.84
 30
0.000000
  70
    32
  0
VERTEX
  8
01
  5
C93C
 10
719.274
 20
-1405.81
 30
0.000000
  70
    32
  0
VERTEX
  8
01
  5
C93D
 10
719.161
 20
-1405.77
 30
0.000000
  70
    32
  0
VERTEX
  8
01
  5
C93E
 10
719.050
 20
-1405.73
 30
0.000000
  70
    32
  0
VERTEX
  8
01
  5
C93F
 10
718.940
 20
-1405.70
 30
0.000000
  70
    32
  0
VERTEX
  8
01
  5
C940
 10
718.831
 20
-1405.66
 30
0.000000
  70
    32
  0
VERTEX
  8
01
  5
C941
 10
718.723
 20
-1405.61
 30
0.000000
  70
    32
  0
VERTEX
  8
01
  5
C942
 10
718.617
 20
-1405.57
 30
0.000000
  70
    32
  0
VERTEX
  8
01
  5
C943
 10
718.513
 20
-1405.52
 30
0.000000
  70
    32
  0
VERTEX
  8
01
  5
C944
 10
718.410
 20
-1405.48
 30
0.000000
  70
    32
  0
VERTEX
  8
01
  5
C945
 10
718.309
 20
-1405.43
 30
0.000000
  70
    32
  0
VERTEX
  8
01
  5
C946
 10
718.209
 20
-1405.37
 30
0.000000
  70
    32
  0
VERTEX
  8
01
  5
C947
 10
718.112
 20
-1405.32
 30
0.000000
  70
    32
  0
VERTEX
  8
01
  5
C948
 10
718.016
 20
-1405.27
 30
0.000000
  70
    32
  0
VERTEX
  8
01
  5
C949
 10
717.922
 20
-1405.21
 30
0.000000
  70
    32
  0
VERTEX
  8
01
  5
C94A
 10
717.830
 20
-1405.15
 30
0.000000
  70
    32
  0
VERTEX
  8
01
  5
C94B
 10
717.740
 20
-1405.09
 30
0.000000
  70
    32
  0
VERTEX
  8
01
  5
C94C
 10
717.652
 20
-1405.03
 30
0.000000
  70
    32
  0
VERTEX
  8
01
  5
C94D
 10
717.566
 20
-1404.97
 30
0.000000
  70
    32
  0
VERTEX
  8
01
  5
C94E
 10
717.483
 20
-1404.90
 30
0.000000
  70
    32
  0
VERTEX
  8
01
  5
C94F
 10
717.402
 20
-1404.84
 30
0.000000
  70
    32
  0
VERTEX
  8
01
  5
C950
 10
717.323
 20
-1404.77
 30
0.000000
  70
    32
  0
VERTEX
  8
01
  5
C951
 10
717.246
 20
-1404.70
 30
0.000000
  70
    32
  0
VERTEX
  8
01
  5
C952
 10
717.172
 20
-1404.63
 30
0.000000
  70
    32
  0
VERTEX
  8
01
  5
C953
 10
717.100
 20
-1404.56
 30
0.000000
  70
    32
  0
VERTEX
  8
01
  5
C954
 10
717.030
 20
-1404.49
 30
0.000000
  70
    32
  0
VERTEX
  8
01
  5
C955
 10
716.963
 20
-1404.42
 30
0.000000
  70
    32
  0
VERTEX
  8
01
  5
C956
 10
716.899
 20
-1404.34
 30
0.000000
  70
    32
  0
VERTEX
  8
01
  5
C957
 10
716.837
 20
-1404.27
 30
0.000000
  70
    32
  0
VERTEX
  8
01
  5
C958
 10
716.778
 20
-1404.19
 30
0.000000
  70
    32
  0
VERTEX
  8
01
  5
C959
 10
716.722
 20
-1404.11
 30
0.000000
  70
    32
  0
VERTEX
  8
01
  5
C95A
 10
716.668
 20
-1404.03
 30
0.000000
  70
    32
  0
VERTEX
  8
01
  5
C95B
 10
716.617
 20
-1403.95
 30
0.000000
  70
    32
  0
VERTEX
  8
01
  5
C95C
 10
716.568
 20
-1403.87
 30
0.000000
  70
    32
  0
VERTEX
  8
01
  5
C95D
 10
716.523
 20
-1403.79
 30
0.000000
  70
    32
  0
VERTEX
  8
01
  5
C95E
 10
716.480
 20
-1403.71
 30
0.000000
  70
    32
  0
VERTEX
  8
01
  5
C95F
 10
716.440
 20
-1403.63
 30
0.000000
  70
    32
  0
VERTEX
  8
01
  5
C960
 10
716.403
 20
-1403.54
 30
0.000000
  70
    32
  0
VERTEX
  8
01
  5
C961
 10
716.369
 20
-1403.46
 30
0.000000
  70
    32
  0
VERTEX
  8
01
  5
C962
 10
716.338
 20
-1403.38
 30
0.000000
  70
    32
  0
VERTEX
  8
01
  5
C963
 10
716.309
 20
-1403.29
 30
0.000000
  70
    32
  0
VERTEX
  8
01
  5
C964
 10
716.284
 20
-1403.20
 30
0.000000
  70
    32
  0
VERTEX
  8
01
  5
C965
 10
716.261
 20
-1403.12
 30
0.000000
  70
    32
  0
VERTEX
  8
01
  5
C966
 10
716.242
 20
-1403.03
 30
0.000000
  70
    32
  0
VERTEX
  8
01
  5
C967
 10
716.225
 20
-1402.95
 30
0.000000
  70
    32
  0
VERTEX
  8
01
  5
C968
 10
716.212
 20
-1402.86
 30
0.000000
  70
    32
  0
VERTEX
  8
01
  5
C969
 10
716.201
 20
-1402.77
 30
0.000000
  70
    32
  0
VERTEX
  8
01
  5
C96A
 10
716.194
 20
-1402.68
 30
0.000000
  70
    32
  0
VERTEX
  8
01
  5
C96B
 10
716.189
 20
-1402.60
 30
0.000000
  70
    32
  0
VERTEX
  8
01
  5
C96C
 10
716.188
 20
-1402.51
 30
0.000000
  70
    32
  0
SEQEND
  8
01
  5
C96D
  0
LINE
  5
BE0E
  8
01
 10
726.18766916632421
 20
-1389.64517138938
 30
0.0
 11
726.18766916632421
 21
-1402.5083313893811
 31
0.0
  0
LINE
  5
BE0F
  8
01
 10
716.18766916632421
 20
-1389.64517138938
 30
0.0
 11
716.18766916632421
 21
-1402.5083313893781
 31
0.0
  0
LINE
  5
BE10
  8
01
 10
712.18765416632459
 20
-1356.07675138938
 30
0.0
 11
711.18765416632459
 21
-1355.07675138938
 31
0.0
  0
LINE
  5
BE11
  8
01
 10
713.58767116632453
 20
-1355.9767713893809
 30
0.0
 11
712.78769016632441
 21
-1355.17679138938
 31
0.0
  0
LINE
  5
BE12
  8
01
 10
713.58767116632453
 20
-1438.1767613893801
 30
0.0
 11
712.78766816632424
 21
-1438.9767413893801
 31
0.0
  0
LINE
  5
BE13
  8
01
 10
712.18761616632435
 20
-1438.0767813893799
 30
0.0
 11
711.18763116632397
 21
-1439.0767813893799
 31
0.0
  0
LINE
  5
BE14
  8
01
 10
715.1876691663241
 20
-1462.07675138938
 30
0.0
 11
711.1876691663241
 21
-1462.07675138938
 31
0.0
  0
LINE
  5
BE15
  8
01
 10
712.78767516632468
 20
-1462.07675138938
 30
0.0
 11
712.78767516632468
 21
-1438.9767413893801
 31
0.0
  0
LINE
  5
BE16
  8
01
 10
711.1876691663241
 20
-1462.07675138938
 30
0.0
 11
711.1876691663241
 21
-1439.07675138938
 31
0.0
  0
LINE
  5
BE17
  8
01
 10
712.18766916632421
 20
-1356.07675138938
 30
0.0
 11
712.18766916632421
 21
-1438.07675138938
 31
0.0
  0
LINE
  5
BE18
  8
01
 10
715.1876691663241
 20
-1332.07675138938
 30
0.0
 11
711.1876691663241
 21
-1332.07675138938
 31
0.0
  0
LINE
  5
BE19
  8
01
 10
821.6876691663241
 20
-1338.07675138938
 30
0.0
 11
821.6876691663241
 21
-1456.0767513893809
 31
0.0
  0
LINE
  5
BE1A
  8
01
 10
846.6876691663241
 20
-1338.07675138938
 30
0.0
 11
846.6876691663241
 21
-1456.0767513893809
 31
0.0
  0
ARC
  5
BE1B
  8
01
 10
840.68766916632421
 20
-1456.0767513893809
 30
0.0
 40
6.0
 50
270.0
 51
0.0
  0
ARC
  5
BE1C
  8
01
 10
827.6876691663241
 20
-1456.0767513893809
 30
0.0
 40
6.0
 50
180.0
 51
270.0
  0
LINE
  5
BE1D
  8
01
 10
841.9376691663241
 20
-1389.64517138938
 30
0.0
 11
841.9376691663241
 21
-1402.5083313893799
 31
0.0
  0
LINE
  5
BE1E
  8
01
 10
840.93766916632421
 20
-1391.0767513893809
 30
0.0
 11
840.93766916632421
 21
-1401.07675138938
 31
0.0
  0
LINE
  5
BE1F
  8
01
 10
827.43766916632421
 20
-1391.0767513893809
 30
0.0
 11
827.43766916632421
 21
-1401.07675138938
 31
0.0
  0
LINE
  5
BE20
  8
01
 10
826.43766916632421
 20
-1389.64517138938
 30
0.0
 11
826.43766916632421
 21
-1402.5083313893799
 31
0.0
  0
ARC
  5
BE21
  8
01
 10
834.1876691663241
 20
-1395.87674138938
 30
0.0
 40
10.199999999999999
 50
220.55307999997021
 51
319.44692000002982
  0
LINE
  5
BE22
  8
01
 10
827.43766916632421
 20
-1401.07675138938
 30
0.0
 11
840.93766916632421
 21
-1401.07675138938
 31
0.0
  0
LINE
  5
BE23
  8
01
 10
827.43766916632421
 20
-1391.0767513893809
 30
0.0
 11
840.93766916632421
 21
-1391.0767513893809
 31
0.0
  0
ARC
  5
BE24
  8
01
 10
834.1876691663241
 20
-1396.27676138938
 30
0.0
 40
10.199999999999999
 50
40.553083999981077
 51
139.44692000002979
  0
CIRCLE
  5
BE25
  8
01
 10
834.1876691663241
 20
-1454.07675138938
 30
0.0
 40
4.5
  0
CIRCLE
  5
BE26
  8
01
 10
834.1876691663241
 20
-1454.07675138938
 30
0.0
 40
2.75
  0
LINE
  5
BE27
  8
01
 10
827.6876691663241
 20
-1462.07675138938
 30
0.0
 11
840.68766916632421
 21
-1462.07675138938
 31
0.0
  0
ARC
  5
BE28
  8
01
 10
840.68766916632421
 20
-1338.07675138938
 30
0.0
 40
6.0
 50
0.0
 51
90.0
  0
ARC
  5
BE2A
  8
01
 10
827.6876691663241
 20
-1338.07675138938
 30
0.0
 40
6.0
 50
90.0
 51
180.0
  0
LINE
  5
BE2B
  8
01
 10
827.6876691663241
 20
-1332.07675138938
 30
0.0
 11
840.68766916632421
 21
-1332.07675138938
 31
0.0
  0
CIRCLE
  5
BE2C
  8
01
 10
834.1876691663241
 20
-1340.07675138938
 30
0.0
 40
4.5
  0
CIRCLE
  5
BE2D
  8
01
 10
834.1876691663241
 20
-1340.07675138938
 30
0.0
 40
2.75
  0
LINE
  5
BE31
  8
01
 10
955.58767516632406
 20
-1332.07675138938
 30
0.0
 11
955.58767516632406
 21
-1355.17672138938
 31
0.0
  0
LINE
  5
BE32
  8
01
 10
957.18766516632468
 20
-1332.07675138938
 30
0.0
 11
957.18766516632468
 21
-1355.07675138938
 31
0.0
  0
LINE
  5
BE33
  8
01
 10
954.78767516632468
 20
-1332.07675138938
 30
0.0
 11
954.78767516632468
 21
-1462.07675138938
 31
0.0
  0
LINE
  5
BE34
  8
01
 10
953.18766516632456
 20
-1332.07675138938
 30
0.0
 11
953.18766516632456
 21
-1462.07675138938
 31
0.0
  0
LINE
  5
BE36
  8
01
 10
956.18766516632468
 20
-1434.0767513893809
 30
0.0
 11
977.68766516632468
 21
-1434.0767513893809
 31
0.0
  0
LINE
  5
BE37
  8
01
 10
956.18767516632454
 20
-1356.07675138938
 30
0.0
 11
957.18767516632454
 21
-1355.07675138938
 31
0.0
  0
LINE
  5
BE38
  8
01
 10
954.78766516632504
 20
-1355.9767713893809
 30
0.0
 11
955.58767516632406
 21
-1355.17672138938
 31
0.0
  0
LINE
  5
BE39
  8
01
 10
946.18766516632456
 20
-1386.0767513893809
 30
0.0
 11
953.18766516632456
 21
-1386.0767513893809
 31
0.0
  0
LINE
  5
BE3A
  8
01
 10
946.18766516632456
 20
-1406.0767513893809
 30
0.0
 11
953.18766516632456
 21
-1406.0767513893809
 31
0.0
  0
LINE
  5
BE3B
  8
01
 10
942.26976516632431
 20
-1402.8830213893809
 30
0.0
 11
953.18766516632456
 21
-1402.8830213893809
 31
0.0
  0
LINE
  5
BE3C
  8
01
 10
942.26976516632431
 20
-1389.27047138938
 30
0.0
 11
953.18766516632456
 21
-1389.27047138938
 31
0.0
  0
LINE
  5
BE3D
  8
01
 10
942.18766516632468
 20
-1390.0767513893809
 30
0.0
 11
942.18766516632468
 21
-1402.0767513893809
 31
0.0
  0
ARC
  5
BE3E
  8
01
 10
946.18766516632456
 20
-1402.0767513893809
 30
0.0
 40
4.0
 50
179.999989999999
 51
270.0
  0
ARC
  5
BE3F
  8
01
 10
946.18766516632456
 20
-1390.0767513893809
 30
0.0
 40
4.0
 50
90.000002999984659
 51
180.000010000001
  0
LINE
  5
BE40
  8
01
 10
954.78766516632504
 20
-1438.1767613893801
 30
0.0
 11
955.58767516632406
 21
-1438.9767413893801
 31
0.0
  0
LINE
  5
BE41
  8
01
 10
956.18771516632512
 20
-1438.0767813893799
 30
0.0
 11
957.18769516632403
 21
-1439.07675138938
 31
0.0
  0
LINE
  5
BE42
  8
01
 10
948.18766516632468
 20
-1454.07675138938
 30
0.0
 11
962.18766516632456
 21
-1454.07675138938
 31
0.0
  0
LINE
  5
BE43
  8
01
 10
953.18766516632456
 20
-1462.07675138938
 30
0.0
 11
957.18766516632468
 21
-1462.07675138938
 31
0.0
  0
LINE
  5
BE44
  8
01
 10
955.58767516632406
 20
-1462.07675138938
 30
0.0
 11
955.58767516632406
 21
-1438.9767413893801
 31
0.0
  0
LINE
  5
BE45
  8
01
 10
957.18766516632468
 20
-1462.07675138938
 30
0.0
 11
957.18766516632468
 21
-1439.07675138938
 31
0.0
  0
LINE
  5
BE46
  8
01
 10
956.18766516632468
 20
-1356.07675138938
 30
0.0
 11
956.18766516632468
 21
-1438.07675138938
 31
0.0
  0
LINE
  5
BE47
  8
01
 10
1022.187665166325
 20
-1382.57675138938
 30
0.0
 11
1022.187665166325
 21
-1391.5767513893809
 31
0.0
  0
LINE
  5
BE49
  8
01
 10
953.18766516632456
 20
-1332.07675138938
 30
0.0
 11
957.18766516632468
 21
-1332.07675138938
 31
0.0
  0
LINE
  5
BE4A
  8
01
 10
948.18766516632468
 20
-1340.07675138938
 30
0.0
 11
962.18766516632456
 21
-1340.07675138938
 31
0.0
  0
LINE
  5
BE4C
  8
01
 10
957.18854934838453
 20
-1138.5767513904091
 30
0.0
 11
1023.188549348384
 21
-1138.5767513904091
 31
0.0
  0
LINE
  5
BE4D
  8
01
 10
957.18854934838453
 20
-1140.1767213904091
 30
0.0
 11
1023.188549348384
 21
-1140.1767213904091
 31
0.0
  0
LINE
  5
BE4E
  8
01
 10
954.78855934838475
 20
-1157.5767513904091
 30
0.0
 11
1023.188549348384
 21
-1157.5767513904091
 31
0.0
  0
LINE
  5
BE4F
  8
01
 10
956.38853934838562
 20
-1143.0767513904091
 30
0.0
 11
957.18854934838453
 21
-1142.276731390408
 31
0.0
  0
LINE
  5
BE50
  8
01
 10
957.18854934838453
 20
-1137.5767513904091
 30
0.0
 11
957.18854934838453
 21
-1142.276731390408
 31
0.0
  0
LINE
  5
BE51
  8
01
 10
954.78855934838475
 20
-1143.0767213904089
 30
0.0
 11
955.5885493483861
 21
-1142.2767613904091
 31
0.0
  0
LINE
  5
BE52
  8
01
 10
942.18854934838475
 20
-1155.8267513904091
 30
0.0
 11
953.18854934838464
 21
-1155.8267513904091
 31
0.0
  0
LINE
  5
BE54
  8
01
 10
953.18854934838464
 20
-1135.5767513904091
 30
0.0
 11
954.78855934838475
 21
-1135.5767513904091
 31
0.0
  0
LINE
  5
BE55
  8
01
 10
954.78855934838475
 20
-1135.5767513904091
 30
0.0
 11
954.78855934838475
 21
-1143.0767513904091
 31
0.0
  0
LINE
  5
BE56
  8
01
 10
955.58855934838596
 20
-1137.5767513904091
 30
0.0
 11
955.58855934838596
 21
-1142.276731390408
 31
0.0
  0
LINE
  5
BE57
  8
01
 10
954.78855934838475
 20
-1137.5767513904091
 30
0.0
 11
957.18854934838453
 21
-1137.5767513904091
 31
0.0
  0
LINE
  5
BE58
  8
01
 10
957.18854934838453
 20
-1153.8767413904079
 30
0.0
 11
957.18854934838453
 21
-1157.5767513904091
 31
0.0
  0
LINE
  5
BE59
  8
01
 10
956.38855934838512
 20
-1153.0767213904089
 30
0.0
 11
957.18854934838453
 21
-1153.8767413904079
 31
0.0
  0
LINE
  5
BE5A
  8
01
 10
957.18854934838453
 20
-1155.976741390409
 30
0.0
 11
961.78855934838475
 21
-1155.976741390409
 31
0.0
  0
LINE
  5
BE5B
  8
01
 10
954.788549348385
 20
-1153.0767213904089
 30
0.0
 11
955.58855934838596
 21
-1153.8767413904079
 31
0.0
  0
LINE
  5
BE5C
  8
01
 10
954.78855934838475
 20
-1153.0767513904091
 30
0.0
 11
954.78855934838475
 21
-1160.5767513904091
 31
0.0
  0
LINE
  5
BE5D
  8
01
 10
953.18854934838464
 20
-1160.5767513904091
 30
0.0
 11
954.78855934838475
 21
-1160.5767513904091
 31
0.0
  0
LINE
  5
BE5E
  8
01
 10
955.58855934838596
 20
-1153.8767413904079
 30
0.0
 11
955.58855934838596
 21
-1157.5767513904091
 31
0.0
  0
LINE
  5
BE5F
  8
01
 10
953.18854934838464
 20
-1128.0767513904091
 30
0.0
 11
953.18854934838464
 21
-1168.0767513904091
 31
0.0
  0
LINE
  5
BE60
  8
01
 10
961.78855934838475
 20
-1140.1767213904091
 30
0.0
 11
961.78855934838475
 21
-1157.5767513904091
 31
0.0
  0
LINE
  5
BE61
  8
01
 10
956.38854934838525
 20
-1143.0767513904091
 30
0.0
 11
956.38854934838525
 21
-1153.0767513904091
 31
0.0
  0
LINE
  5
BE62
  8
01
 10
954.78855934838475
 20
-1143.0767513904091
 30
0.0
 11
954.78855934838475
 21
-1153.0767513904091
 31
0.0
  0
ARC
  5
BE63
  8
01
 10
985.8580493483845
 20
-1178.1778313904081
 30
0.0
 40
50.0
 50
130.7976899999976
 51
150.85500000003
  0
LINE
  5
BE64
  8
01
 10
985.54989789461649
 20
-1182.576782390408
 30
0.0
 11
1001.172534506068
 21
-1182.576782390408
 31
0.0
  0
LINE
  5
BE65
  8
01
 10
1021.588549348386
 20
-1140.1767213904091
 30
0.0
 11
1021.588549348386
 21
-1157.5767513904091
 31
0.0
  0
LINE
  5
BE66
  8
01
 10
1023.188549348384
 20
-1138.5767513904091
 30
0.0
 11
1023.188549348384
 21
-1157.5767513904091
 31
0.0
  0
LINE
  5
BE67
  8
01
 10
985.54989789461649
 20
-1113.5767203904111
 30
0.0
 11
1001.172534506068
 21
-1113.5767203904111
 31
0.0
  0
POINT
  5
BE68
  8
01
 10
854.18766916632421
 20
-1418.0767513893809
 30
0.0
  0
LINE
  5
BE69
  8
01
 10
854.18766916632421
 20
-1443.07675138938
 30
0.0
 11
854.18766916632421
 21
-1393.0768513893811
 31
0.0
  0
LINE
  5
BE6A
  8
01
 10
720.18767316632375
 20
-1454.07675138938
 30
0.0
 11
706.18767316632375
 21
-1454.07675138938
 31
0.0
  0
LINE
  5
BE6B
  8
01
 10
720.18767316632375
 20
-1340.07675138938
 30
0.0
 11
706.18767316632375
 21
-1340.07675138938
 31
0.0
  0
LINE
  5
BE6C
  8
01
 10
840.68766916632421
 20
-1340.07675138938
 30
0.0
 11
827.6876691663241
 21
-1340.07675138938
 31
0.0
  0
LINE
  5
BE6D
  8
01
 10
834.1876691663241
 20
-1333.5767513893809
 30
0.0
 11
834.1876691663241
 21
-1346.57675138938
 31
0.0
  0
LINE
  5
BE6E
  8
01
 10
840.68766916632421
 20
-1454.07675138938
 30
0.0
 11
827.6876691663241
 21
-1454.07675138938
 31
0.0
  0
LINE
  5
BE6F
  8
01
 10
834.1876691663241
 20
-1447.57675138938
 30
0.0
 11
834.1876691663241
 21
-1460.5767513893809
 31
0.0
  0
LINE
  5
BE70
  8
01
 10
694.18767316632375
 20
-1418.0767513893809
 30
0.0
 11
634.18767316632375
 21
-1418.0767513893809
 31
0.0
  0
LINE
  5
BE71
  8
01
 10
664.18767316632375
 20
-1388.0767513893809
 30
0.0
 11
664.18767316632375
 21
-1448.0767513893809
 31
0.0
  0
LINE
  5
BE72
  8
01
 10
974.18766516632468
 20
-1418.0767513893809
 30
0.0
 11
1034.187665166324
 21
-1418.0767513893809
 31
0.0
  0
LINE
  5
BE73
  8
01
 10
1004.187665166324
 20
-1388.0767513893809
 30
0.0
 11
1004.187665166324
 21
-1448.0767513893809
 31
0.0
  0
POINT
  5
BE74
  8
01
 10
868.68766916632421
 20
-1418.0767513893809
 30
0.0
  0
LINE
  5
BE75
  8
01
 10
868.28766915632423
 20
-1419.82675138938
 30
0.0
 11
868.28766915632423
 21
-1418.9767513693801
 31
0.0
  0
LINE
  5
BE76
  8
01
 10
869.08766917632408
 20
-1419.82675138938
 30
0.0
 11
869.08766917632408
 21
-1418.9767513693801
 31
0.0
  0
LINE
  5
BE77
  8
01
 10
867.78766918632425
 20
-1418.4767513993811
 30
0.0
 11
866.9376691663241
 21
-1418.4767513993811
 31
0.0
  0
LINE
  5
BE78
  8
01
 10
867.78766918632425
 20
-1417.6767513793809
 30
0.0
 11
866.9376691663241
 21
-1417.6767513793809
 31
0.0
  0
LINE
  5
BE79
  8
01
 10
866.9376691663241
 20
-1418.4767513993811
 30
0.0
 11
866.9376691663241
 21
-1417.6767513793809
 31
0.0
  0
LINE
  5
BE7A
  8
01
 10
869.08766917632408
 20
-1419.82675138938
 30
0.0
 11
868.28766915632423
 21
-1419.82675138938
 31
0.0
  0
LINE
  5
BE7B
  8
01
 10
869.08766917632408
 20
-1416.32675138938
 30
0.0
 11
869.08766917632408
 21
-1417.176751409381
 31
0.0
  0
LINE
  5
BE7C
  8
01
 10
868.28766915632423
 20
-1416.32675138938
 30
0.0
 11
868.28766915632423
 21
-1417.176751409381
 31
0.0
  0
LINE
  5
BE7D
  8
01
 10
869.58766914632395
 20
-1417.6767513793809
 30
0.0
 11
870.43766916632421
 21
-1417.6767513793809
 31
0.0
  0
LINE
  5
BE7E
  8
01
 10
869.58766914632395
 20
-1418.4767513993811
 30
0.0
 11
870.43766916632421
 21
-1418.4767513993811
 31
0.0
  0
LINE
  5
BE7F
  8
01
 10
870.43766916632421
 20
-1417.6767513793809
 30
0.0
 11
870.43766916632421
 21
-1418.4767513993811
 31
0.0
  0
LINE
  5
BE80
  8
01
 10
868.28766915632423
 20
-1416.32675138938
 30
0.0
 11
869.08766917632408
 21
-1416.32675138938
 31
0.0
  0
CIRCLE
  5
BE81
  8
01
 10
868.68766916632421
 20
-1418.0767513893809
 30
0.0
 40
2.5
  0
ARC
  5
BE82
  8
01
 10
869.58766914632395
 20
-1417.176751409381
 30
0.0
 40
0.5
 50
179.999989999999
 51
270.0
  0
ARC
  5
BE83
  8
01
 10
869.58766914632395
 20
-1418.9767513693801
 30
0.0
 40
0.5
 50
90.00000299999769
 51
180.000010000001
  0
ARC
  5
BE84
  8
01
 10
867.78766918632425
 20
-1418.9767513693801
 30
0.0
 40
0.5
 50
0.0
 51
90.00000299999769
  0
ARC
  5
BE85
  8
01
 10
867.78766918632425
 20
-1417.176751409381
 30
0.0
 40
0.5
 50
270.0
 51
0.0
  0
POINT
  5
BE87
  8
01
 10
799.68766916632421
 20
-1418.0767513893809
 30
0.0
 50
180.0
  0
CIRCLE
  5
BE88
  8
01
 10
799.68766916632421
 20
-1418.0767513893809
 30
0.0
 40
2.5
  0
LINE
  5
BE8D
  8
01
 10
664.18766516632331
 20
-1340.07675138938
 30
0.0
 11
664.18766516632331
 21
-1385.07675138938
 31
0.0
  0
LINE
  5
BE8E
  8
01
 10
981.68767316632545
 20
-1362.57675138938
 30
0.0
 11
1026.6876731663251
 21
-1362.57675138938
 31
0.0
  0
LINE
  5
BE8F
  8
01
 10
1004.187673166325
 20
-1340.07675138938
 30
0.0
 11
1004.187673166325
 21
-1385.07675138938
 31
0.0
  0
LINE
  5
BE92
  8
01
 10
1004.187781506069
 20
-1098.0767513904091
 30
0.0
 11
1004.187781506069
 21
-1133.0767513904091
 31
0.0
  0
LINE
  5
BE93
  8
01
 10
1004.187781506069
 20
-1163.0767513904091
 30
0.0
 11
1004.187781506069
 21
-1198.0767513904091
 31
0.0
  0
LINE
  5
BE94
  8
01
 10
784.18766916632421
 20
-1418.0767513893809
 30
0.0
 11
819.18766916632421
 21
-1418.0767513893809
 31
0.0
  0
LINE
  5
BE95
  8
01
 10
849.1876691663241
 20
-1418.0767513893809
 30
0.0
 11
884.18766916632433
 21
-1418.0767513893809
 31
0.0
  0
LINE
  5
BE96
  8
01
 10
953.18854934838464
 20
-1168.0767513904091
 30
0.0
 11
1106.942929503417
 21
-1168.0767513904091
 31
0.0
  0
LINE
  5
BE97
  8
01
 10
953.18854934838464
 20
-1128.0767513904091
 30
0.0
 11
1106.942929503417
 21
-1128.0767513904091
 31
0.0
  0
LINE
  5
BE98
  8
01
 10
1015.187781439965
 20
-1177.0767513904091
 30
0.0
 11
993.18778143996531
 21
-1177.0767513904091
 31
0.0
  0
ARC
  5
BE99
  8
01
 10
1007.0443650410421
 20
-1209.2767513904089
 30
0.0
 40
8.0
 50
194.9999999999944
 51
270.0
  0
LINE
  5
BE9A
  8
01
 10
990.18778143996542
 20
-1177.2767513904089
 30
0.0
 11
1020.187781439965
 21
-1177.2767513904089
 31
0.0
  0
LINE
  5
BE9B
  8
01
 10
1020.187781439965
 20
-1177.2767513904089
 30
0.0
 11
1027.699811052089
 21
-1205.3120275708191
 31
0.0
  0
LINE
  5
BE9C
  8
01
 10
990.18778143996542
 20
-1177.2767513904089
 30
0.0
 11
999.31695843072941
 21
-1211.347303751229
 31
0.0
  0
LINE
  5
BE9D
  8
01
 10
1031.563514357246
 20
-1208.2767513904089
 30
0.0
 11
1101.5664178336419
 21
-1208.2767513904089
 31
0.0
  0
LINE
  5
BE9E
  8
01
 10
1007.0443650410421
 20
-1217.2767513904089
 30
0.0
 11
1101.5664178336419
 21
-1217.2767513904089
 31
0.0
  0
ARC
  5
BE9F
  8
01
 10
1101.5664178336419
 20
-1193.2767513904089
 30
0.0
 40
24.0
 50
270.0
 51
343.7808488659673
  0
LINE
  5
BEA0
  8
01
 10
1116.5304763891991
 20
-1197.286358795863
 30
0.0
 11
1124.2605362664981
 21
-1199.3576220974289
 31
0.0
  0
LINE
  5
BEA1
  8
01
 10
993.18778143996531
 20
-1177.0767513904091
 30
0.0
 11
993.18778143996531
 21
-1177.2767513904089
 31
0.0
  0
LINE
  5
BEA2
  8
01
 10
1015.187781439965
 20
-1177.0767513904091
 30
0.0
 11
1015.187781439965
 21
-1177.2767513904089
 31
0.0
  0
LINE
  5
BEA3
  8
01
 10
993.18778143996531
 20
-1177.0767513904091
 30
0.0
 11
1015.187781439965
 21
-1177.0767513904091
 31
0.0
  0
ARC
  5
BEA4
  8
01
 10
1124.1311267439471
 20
-1199.8405850105739
 30
0.0
 40
0.5
 50
343.7808488659673
 51
75.000000000005556
  0
ARC
  5
BEA5
  8
01
 10
1031.563514357246
 20
-1204.2767513904089
 30
0.0
 40
4.0
 50
194.9999999999944
 51
270.0
  0
ARC
  5
BEA6
  8
01
 10
1101.5664178336419
 20
-1193.2767513904089
 30
0.0
 40
15.0
 50
270.0
 51
343.1514283547682
  0
ARC
  5
BEA7
  8
01
 10
1116.4010668666469
 20
-1197.769321709007
 30
0.0
 40
0.5
 50
75.000000000005556
 51
163.1514283547682
  0
LINE
  5
BEA8
  8
01
 10
1012.137781439965
 20
-1176.5767513904091
 30
0.0
 11
1012.137781439964
 21
-1177.0767513904091
 31
0.0
  0
LINE
  5
BEA9
  8
01
 10
996.23778143996572
 20
-1176.5767513904091
 30
0.0
 11
996.23778143996572
 21
-1177.0767513904091
 31
0.0
  0
LINE
  5
BEAE
  8
01
 10
990.18766516632468
 20
-1407.57675138938
 30
0.0
 11
990.18766516632468
 21
-1428.5767513893809
 31
0.0
  0
LINE
  5
BEAF
  8
01
 10
1124.772768199005
 20
-1407.57675138938
 30
0.0
 11
1124.772768199005
 21
-1428.5767513893809
 31
0.0
  0
LINE
  5
BEB0
  8
01
 10
990.68766516632456
 20
-1429.07675138938
 30
0.0
 11
1124.272768199005
 21
-1429.07675138938
 31
0.0
  0
LINE
  5
BEB1
  8
01
 10
990.68766516632456
 20
-1407.0767513893809
 30
0.0
 11
1124.272768199005
 21
-1407.0767513893809
 31
0.0
  0
ARC
  5
BEB2
  8
01
 10
990.68766516632456
 20
-1428.5767513893809
 30
0.0
 40
0.5
 50
180.0
 51
270.0
  0
ARC
  5
BEB3
  8
01
 10
990.68766516632456
 20
-1407.57675138938
 30
0.0
 40
0.5
 50
90.0
 51
180.0
  0
ARC
  5
BEB4
  8
01
 10
1124.272768199005
 20
-1407.57675138938
 30
0.0
 40
0.5
 50
0.0
 51
90.0
  0
ARC
  5
BEB5
  8
01
 10
1124.272768199005
 20
-1428.5767513893809
 30
0.0
 40
0.5
 50
270.0
 51
0.0
  0
LINE
  5
BEB6
  8
01
 10
1004.187665166324
 20
-1424.0767513893809
 30
0.0
 11
1004.187665166324
 21
-1412.0767513893809
 31
0.0
  0
LINE
  5
BEB7
  8
01
 10
998.18766516632468
 20
-1418.0767513893809
 30
0.0
 11
1010.187665166324
 21
-1418.0767513893809
 31
0.0
  0
ARC
  5
BEB9
  8
01
 10
899.88766916632392
 20
-1429.5767513893809
 30
0.0
 40
0.5
 50
270.0
 51
0.0
  0
ARC
  5
BEBA
  8
01
 10
899.88766916632392
 20
-1406.5767513893809
 30
0.0
 40
0.5
 50
0.0
 51
90.0
  0
LINE
  5
BEBB
  8
01
 10
900.38766916632312
 20
-1406.5767513893809
 30
0.0
 11
900.38766916632403
 21
-1429.5767513893809
 31
0.0
  0
LINE
  5
BEBF
  8
01
 10
863.38766916632414
 20
-1430.07675138938
 30
0.0
 11
899.88766916632392
 21
-1430.07675138938
 31
0.0
  0
LINE
  5
BEC0
  8
01
 10
863.38766916632414
 20
-1406.0767513893809
 30
0.0
 11
899.88766916632392
 21
-1406.0767513893809
 31
0.0
  0
LINE
  5
BEC1
  8
01
 10
863.38766916632414
 20
-1406.0767513893809
 30
0.0
 11
863.38766916632414
 21
-1430.07675138938
 31
0.0
  0
LINE
  5
BEC5
  8
01
 10
678.18767316632375
 20
-1407.57675138938
 30
0.0
 11
678.18767316632375
 21
-1428.5767513893809
 31
0.0
  0
LINE
  5
BEC6
  8
01
 10
543.60257013364344
 20
-1407.57675138938
 30
0.0
 11
543.60257013364344
 21
-1428.5767513893809
 31
0.0
  0
LINE
  5
BEC7
  8
01
 10
677.68767316632375
 20
-1429.07675138938
 30
0.0
 11
544.10257013364344
 21
-1429.07675138938
 31
0.0
  0
LINE
  5
BEC8
  8
01
 10
677.68767316632375
 20
-1407.0767513893809
 30
0.0
 11
544.10257013364344
 21
-1407.0767513893809
 31
0.0
  0
ARC
  5
BEC9
  8
01
 10
677.68767316632375
 20
-1428.5767513893809
 30
0.0
 40
0.5
 50
270.0
 51
0.0
  0
ARC
  5
BECA
  8
01
 10
677.68767316632375
 20
-1407.57675138938
 30
0.0
 40
0.5
 50
0.0
 51
90.0
  0
ARC
  5
BECB
  8
01
 10
544.10257013364344
 20
-1407.57675138938
 30
0.0
 40
0.5
 50
90.0
 51
180.0
  0
ARC
  5
BECC
  8
01
 10
544.10257013364344
 20
-1428.5767513893809
 30
0.0
 40
0.5
 50
180.0
 51
270.0
  0
ARC
  5
BECD
  8
01
 10
768.48766916632439
 20
-1429.5767513893809
 30
0.0
 40
0.5
 50
180.0
 51
270.0
  0
ARC
  5
BECE
  8
01
 10
768.48766916632439
 20
-1406.5767513893809
 30
0.0
 40
0.5
 50
90.0
 51
180.0
  0
LINE
  5
BECF
  8
01
 10
767.9876691663253
 20
-1406.5767513893809
 30
0.0
 11
767.98766916632439
 21
-1429.5767513893809
 31
0.0
  0
LINE
  5
BED3
  8
01
 10
804.98766916632428
 20
-1430.07675138938
 30
0.0
 11
768.48766916632439
 21
-1430.07675138938
 31
0.0
  0
LINE
  5
BED4
  8
01
 10
804.98766916632428
 20
-1406.0767513893809
 30
0.0
 11
768.48766916632439
 21
-1406.0767513893809
 31
0.0
  0
LINE
  5
BED5
  8
01
 10
804.98766916632428
 20
-1406.0767513893809
 30
0.0
 11
804.98766916632428
 21
-1430.07675138938
 31
0.0
  0
LINE
  5
BED9
  8
01
 10
814.18766916632421
 20
-1443.07675138938
 30
0.0
 11
814.18766916632421
 21
-1393.07675138938
 31
0.0
  0
LINE
  5
BEDA
  8
01
 10
854.18766916632421
 20
-1443.07675138938
 30
0.0
 11
854.18766916632421
 21
-1393.07675138938
 31
0.0
  0
LINE
  5
BEDB
  8
01
 10
814.18766916632421
 20
-1443.07675138938
 30
0.0
 11
814.18766916632421
 21
-1393.07675138938
 31
0.0
  0
LINE
  5
BEDC
  8
01
 10
1015.187781439965
 20
-1119.0767513904091
 30
0.0
 11
1006.6877815060629
 21
-1119.0767513904091
 31
0.0
  0
LINE
  5
BEDD
  8
01
 10
1001.687781506062
 20
-1119.0767513904091
 30
0.0
 11
993.18778143996531
 21
-1119.0767513904091
 31
0.0
  0
ARC
  5
BEDE
  8
01
 10
1007.0443650410421
 20
-1086.876751390409
 30
0.0
 40
8.0
 50
90.0
 51
165.00000000000551
  0
LINE
  5
BEDF
  8
01
 10
990.18778143996542
 20
-1118.876751390409
 30
0.0
 11
1001.687781506062
 21
-1118.876751390409
 31
0.0
  0
LINE
  5
BEE0
  8
01
 10
1006.687781506064
 20
-1118.876751390409
 30
0.0
 11
1020.187781439965
 21
-1118.876751390409
 31
0.0
  0
LINE
  5
BEE1
  8
01
 10
1020.187781439965
 20
-1118.876751390409
 30
0.0
 11
1027.699811052089
 21
-1090.8414752099991
 31
0.0
  0
LINE
  5
BEE2
  8
01
 10
990.18778143996542
 20
-1118.876751390409
 30
0.0
 11
999.31695843072941
 21
-1084.8061990295889
 31
0.0
  0
LINE
  5
BEE3
  8
01
 10
1031.563514357246
 20
-1087.876751390409
 30
0.0
 11
1101.5664178336419
 21
-1087.876751390409
 31
0.0
  0
LINE
  5
BEE4
  8
01
 10
1007.0443650410421
 20
-1078.876751390409
 30
0.0
 11
1101.5664178336419
 21
-1078.876751390409
 31
0.0
  0
ARC
  5
BEE5
  8
01
 10
1101.5664178336419
 20
-1102.876751390409
 30
0.0
 40
24.0
 50
16.21915113403276
 51
90.0
  0
LINE
  5
BEE6
  8
01
 10
1116.5304763891991
 20
-1098.8671439849561
 30
0.0
 11
1124.2605362664981
 21
-1096.795880683389
 31
0.0
  0
LINE
  5
BEE7
  8
01
 10
993.18778143996531
 20
-1119.0767513904091
 30
0.0
 11
993.18778143996531
 21
-1118.876751390409
 31
0.0
  0
LINE
  5
BEE8
  8
01
 10
1015.187781439965
 20
-1119.0767513904091
 30
0.0
 11
1015.187781439965
 21
-1118.876751390409
 31
0.0
  0
LINE
  5
BEE9
  8
01
 10
993.18778143996531
 20
-1119.0767513904091
 30
0.0
 11
1001.687781506062
 21
-1119.0767513904091
 31
0.0
  0
LINE
  5
BEEA
  8
01
 10
1006.6877815060629
 20
-1119.0767513904079
 30
0.0
 11
1015.187781439965
 21
-1119.0767513904091
 31
0.0
  0
ARC
  5
BEEB
  8
01
 10
1124.1311267439471
 20
-1096.312917770244
 30
0.0
 40
0.5
 50
284.99999999999437
 51
16.21915113403276
  0
ARC
  5
BEEC
  8
01
 10
1031.563514357246
 20
-1091.876751390409
 30
0.0
 40
4.0
 50
90.0
 51
165.00000000000551
  0
ARC
  5
BEED
  8
01
 10
1101.5664178336419
 20
-1102.876751390409
 30
0.0
 40
15.0
 50
16.848571645231811
 51
90.0
  0
ARC
  5
BEEE
  8
01
 10
1116.4010668666469
 20
-1098.3841810718111
 30
0.0
 40
0.5
 50
196.8485716452318
 51
284.99999999999437
  0
LINE
  5
BEEF
  8
01
 10
1012.137781439965
 20
-1119.5767513904091
 30
0.0
 11
1012.137781439964
 21
-1119.0767513904091
 31
0.0
  0
LINE
  5
BEF0
  8
01
 10
996.23778143996572
 20
-1119.5767513904091
 30
0.0
 11
996.23778143996572
 21
-1119.0767513904091
 31
0.0
  0
LINE
  5
BEFD
  8
01
 10
854.18766916632421
 20
-1391.5767513893809
 30
0.0
 11
854.18766916632421
 21
-1444.5767513893809
 31
0.0
  0
LINE
  5
BEFE
  8
01
 10
862.6876691663241
 20
-1444.0767513893809
 30
0.0
 11
862.6876691663241
 21
-1392.0767513893809
 31
0.0
  0
ARC
  5
BEFF
  8
01
 10
862.18766916632421
 20
-1444.0767513893809
 30
0.0
 40
0.5
 50
270.0
 51
0.0
  0
LINE
  5
BF00
  8
01
 10
854.18766916632421
 20
-1444.5767513893809
 30
0.0
 11
862.18766916632421
 21
-1444.5767513893809
 31
0.0
  0
LINE
  5
BF01
  8
01
 10
854.18766916632421
 20
-1391.5767513893809
 30
0.0
 11
862.18766916632421
 21
-1391.5767513893809
 31
0.0
  0
ARC
  5
BF02
  8
01
 10
862.18766916632421
 20
-1392.0767513893809
 30
0.0
 40
0.5
 50
0.0
 51
90.0
  0
LINE
  5
BF03
  8
01
 10
814.18766916632421
 20
-1391.5767513893809
 30
0.0
 11
814.18766916632421
 21
-1444.5767513893809
 31
0.0
  0
LINE
  5
BF04
  8
01
 10
805.68766916632444
 20
-1444.0767513893809
 30
0.0
 11
805.68766916632433
 21
-1392.0767513893809
 31
0.0
  0
ARC
  5
BF05
  8
01
 10
806.18766916632421
 20
-1392.0767513893809
 30
0.0
 40
0.5
 50
90.0
 51
180.0
  0
LINE
  5
BF06
  8
01
 10
814.18766916632421
 20
-1444.5767513893809
 30
0.0
 11
806.18766916632433
 21
-1444.5767513893809
 31
0.0
  0
ARC
  5
BF07
  8
01
 10
806.18766916632433
 20
-1444.0767513893809
 30
0.0
 40
0.5
 50
180.0
 51
270.0
  0
LINE
  5
BF08
  8
01
 10
814.18766916632421
 20
-1391.5767513893809
 30
0.0
 11
806.18766916632421
 21
-1391.5767513893809
 31
0.0
  0
LINE
  5
BF35
  8
01
 10
635.7539877224167
 20
-1368.076751389382
 30
0.0
 11
692.09275897022985
 21
-1368.0767513893791
 31
0.0
  0
LINE
  5
BF36
  8
01
 10
683.68767316632216
 20
-1342.57675138938
 30
0.0
 11
644.68767316632227
 21
-1342.5767513893809
 31
0.0
  0
ARC
  5
BF37
  8
01
 10
644.68767316632227
 20
-1343.0767513893809
 30
0.0
 40
0.5
 50
90.0
 51
180.0
  0
LINE
  5
BF38
  8
01
 10
683.68767316632238
 20
-1382.57675138938
 30
0.0
 11
644.68767316632227
 21
-1382.5767513893809
 31
0.0
  0
ARC
  5
BF39
  8
01
 10
683.68767316632238
 20
-1382.0767513893809
 30
0.0
 40
0.5
 50
270.0
 51
0.0
  0
LINE
  5
BF3A
  8
01
 10
684.18767316632238
 20
-1382.0767513893809
 30
0.0
 11
684.18767316632216
 21
-1343.0767513893809
 31
0.0
  0
ARC
  5
BF3B
  8
01
 10
683.68767316632216
 20
-1343.0767513893809
 30
0.0
 40
0.5
 50
0.0
 51
90.0
  0
LINE
  5
BF3C
  8
01
 10
664.18767316632409
 20
-1384.83117705056
 30
0.0
 11
664.18767316632409
 21
-1339.595639457234
 31
0.0
  0
LINE
  5
BF3D
  8
01
 10
644.18767316632227
 20
-1382.0767513893809
 30
0.0
 11
644.18767316632227
 21
-1343.0767513893809
 31
0.0
  0
ARC
  5
BF3E
  8
01
 10
644.68767316632227
 20
-1382.0767513893809
 30
0.0
 40
0.5
 50
180.0
 51
270.0
  0
LINE
  5
BF3F
  8
01
 10
651.78736830585615
 20
-1368.0767513893809
 30
0.0
 11
676.38603224106225
 21
-1368.0767513893809
 31
0.0
  0
CIRCLE
  5
BF40
  8
01
 10
664.18767316632443
 20
-1368.0767513893809
 30
0.0
 40
11.30000000000109
  0
ARC
  5
BF41
  8
01
 10
664.18767316632443
 20
-1368.0767513893809
 30
0.0
 40
10.999995000006949
 50
79.019419278571149
 51
100.98058072142879
  0
LINE
  5
BF42
  8
01
 10
666.68767316632443
 20
-1357.76899241858
 30
0.0
 11
666.68767316632443
 21
-1378.384510360182
 31
0.0
  0
LINE
  5
BF43
  8
01
 10
661.68767316632443
 20
-1357.76899241858
 30
0.0
 11
661.68767316632443
 21
-1378.384510360182
 31
0.0
  0
ARC
  5
BF44
  8
01
 10
664.18767316632443
 20
-1368.0767513893809
 30
0.0
 40
10.999995000006949
 50
100.98058072142879
 51
259.01941927857121
  0
ARC
  5
BF45
  8
01
 10
664.18767316632443
 20
-1368.0767513893809
 30
0.0
 40
10.999995000006949
 50
280.98058072142891
 51
79.019419278571149
  0
ARC
  5
BF46
  8
01
 10
664.18767316632443
 20
-1368.0767513893809
 30
0.0
 40
10.999995000006949
 50
259.01941927857121
 51
280.98058072142891
  0
ARC
  5
BF47
  8
01
 10
662.18767316632443
 20
-1357.76899241858
 30
0.0
 40
0.5
 50
100.98058072142879
 51
180.0
  0
ARC
  5
BF48
  8
01
 10
666.18767316632443
 20
-1357.76899241858
 30
0.0
 40
0.5
 50
0.0
 51
79.019419278571149
  0
ARC
  5
BF49
  8
01
 10
662.18767316632443
 20
-1378.384510360182
 30
0.0
 40
0.5
 50
180.0
 51
259.01941927857121
  0
ARC
  5
BF4A
  8
01
 10
666.18767316632443
 20
-1378.384510360182
 30
0.0
 40
0.5
 50
280.98058072142891
 51
0.0
  0
LINE
  5
BF4B
  8
01
 10
641.6876731663242
 20
-1362.57675138938
 30
0.0
 11
686.6876731663242
 21
-1362.57675138938
 31
0.0
  0
LINE
  5
BF4C
  8
01
 10
984.68766484386754
 20
-1342.5767515935081
 30
0.0
 11
1023.687664843867
 21
-1342.576751593509
 31
0.0
  0
ARC
  5
BF4D
  8
01
 10
1023.687664843867
 20
-1343.076751593509
 30
0.0
 40
0.5
 50
0.0
 51
90.0
  0
LINE
  5
BF4E
  8
01
 10
984.68766484386708
 20
-1382.5767515935081
 30
0.0
 11
1023.687664843867
 21
-1382.576751593509
 31
0.0
  0
ARC
  5
BF4F
  8
01
 10
984.68766484386708
 20
-1382.076751593509
 30
0.0
 40
0.5
 50
180.0
 51
270.0
  0
LINE
  5
BF50
  8
01
 10
997.35714519192823
 20
-1368.0767515935081
 30
0.0
 11
1011.542855591927
 21
-1368.0767515935081
 31
0.0
  0
LINE
  5
BF51
  8
01
 10
984.1876648438672
 20
-1382.076751593509
 30
0.0
 11
984.18766484386742
 21
-1343.0767515935081
 31
0.0
  0
ARC
  5
BF52
  8
01
 10
984.68766484386754
 20
-1343.0767515935081
 30
0.0
 40
0.5
 50
90.0
 51
180.0
  0
LINE
  5
BF53
  8
01
 10
1024.187664843867
 20
-1382.076751593509
 30
0.0
 11
1024.187664843867
 21
-1343.076751593509
 31
0.0
  0
ARC
  5
BF54
  8
01
 10
1023.687664843867
 20
-1382.076751593509
 30
0.0
 40
0.5
 50
270.0
 51
0.0
  0
CIRCLE
  5
BF56
  8
01
 10
1004.187665166325
 20
-1368.0767513893809
 30
0.0
 40
3.75
  0
CIRCLE
  5
BF57
  8
01
 10
1004.187665166325
 20
-1368.0767515935081
 30
0.0
 40
3.5000004999999992
  0
LINE
  5
BF58
  8
01
 10
1005.187665166325
 20
-1371.4308543935081
 30
0.0
 11
1005.187665166325
 21
-1364.7226475935081
 31
0.0
  0
LINE
  5
BF59
  8
01
 10
1003.187665166325
 20
-1371.4308543935081
 30
0.0
 11
1003.187665166325
 21
-1364.7226475935081
 31
0.0
  0
LINE
  5
BF5A
  8
01
 10
860.48766916064505
 20
-1382.0767513893729
 30
0.0
 11
860.48766916064505
 21
-1343.0767513893741
 31
0.0
  0
LINE
  5
BF5B
  8
01
 10
854.18766916064544
 20
-1342.5767513893729
 30
0.0
 11
854.18766916064067
 21
-1382.5767513893741
 31
0.0
  0
LINE
  5
BF5C
  8
01
 10
854.18766916064067
 20
-1382.5767513893741
 30
0.0
 11
859.98766916064505
 21
-1382.5767513893729
 31
0.0
  0
ARC
  5
BF5D
  8
01
 10
859.98766916064505
 20
-1382.0767513893729
 30
0.0
 40
0.5
 50
270.0
 51
0.0
  0
LINE
  5
BF5E
  8
01
 10
854.18766916064544
 20
-1342.5767513893729
 30
0.0
 11
859.98766916064505
 21
-1342.5767513893741
 31
0.0
  0
ARC
  5
BF5F
  8
01
 10
859.98766916064505
 20
-1343.0767513893741
 30
0.0
 40
0.5
 50
0.0
 51
90.0
  0
LINE
  5
BF60
  8
01
 10
866.59853894631885
 20
-1368.0767513893809
 30
-0.0000000000562575
 11
850.01245532276459
 21
-1368.0767513893809
 31
-0.0000000000562575
  0
LINE
  5
BF61
  8
01
 10
861.21106916064525
 20
-1364.5767500684431
 30
-0.0000000000563712
 11
860.48766916064505
 21
-1364.5767500684431
 31
-0.0000000000563712
  0
LINE
  5
BF62
  8
01
 10
861.21106916064525
 20
-1371.5767500684431
 30
-0.0000000000563712
 11
860.48766916064505
 21
-1371.5767500684431
 31
-0.0000000000563712
  0
LINE
  5
BF63
  8
01
 10
807.88766916064776
 20
-1382.0767513893729
 30
0.0
 11
807.88766916064776
 21
-1343.0767513893741
 31
0.0
  0
LINE
  5
BF64
  8
01
 10
814.18766916064806
 20
-1342.5767513893729
 30
0.0
 11
814.18766916064362
 21
-1382.5767513893741
 31
0.0
  0
LINE
  5
BF65
  8
01
 10
814.18766916064362
 20
-1382.5767513893741
 30
0.0
 11
808.38766916064776
 21
-1382.5767513893729
 31
0.0
  0
ARC
  5
BF66
  8
01
 10
808.38766916064776
 20
-1382.0767513893729
 30
0.0
 40
0.5
 50
180.0
 51
270.0
  0
LINE
  5
BF67
  8
01
 10
814.18766916064806
 20
-1342.5767513893729
 30
0.0
 11
808.38766916064776
 21
-1342.5767513893741
 31
0.0
  0
ARC
  5
BF68
  8
01
 10
808.38766916064776
 20
-1343.0767513893741
 30
0.0
 40
0.5
 50
90.0
 51
180.0
  0
LINE
  5
BF69
  8
01
 10
790.41321698744616
 20
-1368.0767513893809
 30
0.0
 11
817.09175493160546
 21
-1368.0767513893809
 31
0.0
  0
LINE
  5
BF6A
  8
01
 10
793.18728359492627
 20
-1379.076756389373
 30
0.0
 11
807.88766916064776
 21
-1379.076756389373
 31
0.0
  0
LINE
  5
BF6B
  8
01
 10
806.68730653913804
 20
-1357.576756389373
 30
0.0
 11
806.68730653913315
 21
-1378.576756389373
 31
0.0
  0
LINE
  5
BF6C
  8
01
 10
793.18728359492843
 20
-1357.0767563893739
 30
0.0
 11
807.88766916064776
 21
-1357.076756389373
 31
0.0
  0
ARC
  5
BF6D
  8
01
 10
793.18728359492843
 20
-1358.0767563893719
 30
0.0
 40
1.0
 50
90.0
 51
180.0
  0
LINE
  5
BF6E
  8
01
 10
792.18728359492638
 20
-1358.0767563893719
 30
0.0
 11
792.18728359492638
 21
-1378.0767563893701
 31
0.0
  0
ARC
  5
BF6F
  8
01
 10
793.18728359492627
 20
-1378.0767563893701
 30
0.0
 40
1.0
 50
180.0
 51
270.0
  0
ARC
  5
BF70
  8
01
 10
807.18730653913326
 20
-1357.576756389373
 30
0.0
 40
0.5
 50
90.0
 51
179.99999999997391
  0
ARC
  5
BF71
  8
01
 10
807.18730653913326
 20
-1378.576756389373
 30
0.0
 40
0.5
 50
179.99999999997391
 51
270.0
  0
ARC
  5
BF74
  8
01
 10
855.42601764952144
 20
-1368.0767500684431
 30
-0.0000000000563712
 40
6.7614215211269721
 50
328.82574397864471
 51
31.174256021355269
  0
LINE
  5
BF75
  8
01
 10
984.1877811836107
 20
-1168.0767513904091
 30
0.0
 11
1024.18778118361
 21
-1168.0767513904091
 31
0.0
  0
LINE
  5
BF76
  8
01
 10
984.68778118361058
 20
-1174.376751390409
 30
0.0
 11
1023.68778118361
 21
-1174.376751390409
 31
0.0
  0
LINE
  5
BF77
  8
01
 10
984.1877811836107
 20
-1168.0767513904091
 30
0.0
 11
984.1877811836107
 21
-1173.876751390409
 31
0.0
  0
LINE
  5
BF78
  8
01
 10
1024.18778118361
 20
-1168.0767513904091
 30
0.0
 11
1024.18778118361
 21
-1173.876751390409
 31
0.0
  0
LINE
  5
BF79
  8
01
 10
1004.187781506069
 20
-1162.630867594861
 30
0.0
 11
1004.187781506069
 21
-1185.1095163782261
 31
0.0
  0
ARC
  5
BF7A
  8
01
 10
984.68778118361058
 20
-1173.876751390409
 30
0.0
 40
0.5
 50
180.0
 51
270.0
  0
ARC
  5
BF7B
  8
01
 10
1023.68778118361
 20
-1173.876751390409
 30
0.0
 40
0.5
 50
270.0
 51
0.0
  0
LINE
  5
BF7C
  8
01
 10
1005.187782827007
 20
-1175.7765213904099
 30
-0.0000000000001137
 11
1005.187782827007
 21
-1174.376751390409
 31
-0.0000000000001137
  0
ARC
  5
BF7D
  8
01
 10
1002.887783827006
 20
-1175.776521390409
 30
-0.0000000000001137
 40
0.30000001
 50
256.81651999996552
 51
0.0000029999586138
  0
ARC
  5
BF7E
  8
01
 10
1004.18778282701
 20
-1170.2267513904089
 30
-0.0000000000001137
 40
6.0
 50
283.18348199997149
 51
305.68533399996062
  0
ARC
  5
BF7F
  8
01
 10
1005.487785827006
 20
-1175.7765213904099
 30
-0.0000000000001137
 40
0.30000001
 50
179.9999999999479
 51
283.18348199997149
  0
LINE
  5
BF80
  8
01
 10
1007.687782827007
 20
-1175.1001513904109
 30
-0.0000000000001137
 11
1007.687782827007
 21
-1174.376751390409
 31
-0.0000000000001137
  0
LINE
  5
BF81
  8
01
 10
1000.687782827007
 20
-1175.1001513904071
 30
-0.0000000000001137
 11
1000.687782827007
 21
-1174.376751390409
 31
-0.0000000000001137
  0
ARC
  5
BF82
  8
01
 10
1004.18778282701
 20
-1170.2267513904089
 30
-0.0000000000001137
 40
6.0
 50
234.3146699999696
 51
256.81651749659869
  0
LINE
  5
BF83
  8
01
 10
1003.187782827007
 20
-1175.777299849811
 30
-0.0000000000001137
 11
1003.187782827007
 21
-1174.376751390409
 31
-0.0000000000001137
  0
LINE
  5
BF84
  8
01
 10
984.1877811836107
 20
-1128.0767513904091
 30
0.0
 11
1024.18778118361
 21
-1128.0767513904091
 31
0.0
  0
LINE
  5
BF85
  8
01
 10
984.68778118361058
 20
-1121.7767513904089
 30
0.0
 11
1023.68778118361
 21
-1121.7767513904089
 31
0.0
  0
LINE
  5
BF86
  8
01
 10
984.1877811836107
 20
-1128.0767513904091
 30
0.0
 11
984.1877811836107
 21
-1122.2767513904089
 31
0.0
  0
LINE
  5
BF87
  8
01
 10
1024.18778118361
 20
-1128.0767513904091
 30
0.0
 11
1024.18778118361
 21
-1122.2767513904089
 31
0.0
  0
LINE
  5
BF88
  8
01
 10
1004.187781506069
 20
-1133.5226351859569
 30
0.0
 11
1004.187781506069
 21
-1102.3578382055071
 31
0.0
  0
ARC
  5
BF89
  8
01
 10
984.68778118361058
 20
-1122.2767513904089
 30
0.0
 40
0.5
 50
90.0
 51
180.0
  0
ARC
  5
BF8A
  8
01
 10
1023.68778118361
 20
-1122.2767513904089
 30
0.0
 40
0.5
 50
0.0
 51
90.0
  0
ARC
  5
BF8B
  8
01
 10
1007.6877815060629
 20
-1119.5767743346171
 30
0.0
 40
1.0
 50
180.0
 51
270.00000000001302
  0
LINE
  5
BF8C
  8
01
 10
1007.687781506064
 20
-1120.5767743346171
 30
0.0
 11
1014.687786506061
 21
-1120.5767743346159
 31
0.0
  0
ARC
  5
BF8D
  8
01
 10
1014.687786506061
 20
-1121.0767743346159
 30
0.0
 40
0.5
 50
0.0
 51
90.000000000013017
  0
ARC
  5
BF8E
  8
01
 10
1000.687781506061
 20
-1119.5767743346159
 30
0.0
 40
1.0
 50
270.0
 51
0.0
  0
ARC
  5
BF8F
  8
01
 10
993.68778650606191
 20
-1121.076774334615
 30
0.0
 40
0.5
 50
90.0
 51
180.0
  0
LINE
  5
BF90
  8
01
 10
1001.687781506062
 20
-1107.0767513904129
 30
0.0
 11
1001.687781506062
 21
-1119.5767743346159
 31
0.0
  0
ARC
  5
BF91
  8
01
 10
1002.687781506061
 20
-1107.0767513904109
 30
0.0
 40
1.0
 50
90.0
 51
179.9999999999479
  0
LINE
  5
BF92
  8
01
 10
1002.687781506062
 20
-1106.0767513904091
 30
0.0
 11
1005.687781506061
 21
-1106.0767513904091
 31
0.0
  0
ARC
  5
BF93
  8
01
 10
1005.687781506061
 20
-1107.0767513904109
 30
0.0
 40
1.0
 50
0.0
 51
90.0
  0
LINE
  5
BF94
  8
01
 10
1006.687781506062
 20
-1107.0767513904109
 30
0.0
 11
1006.687781506064
 21
-1119.5767743346171
 31
0.0
  0
LINE
  5
BF95
  8
01
 10
993.68778650606191
 20
-1120.576774334615
 30
0.0
 11
1000.687781506062
 21
-1120.576774334615
 31
0.0
  0
LINE
  5
BF96
  8
01
 10
993.1877865060618
 20
-1121.076774334615
 30
0.0
 11
993.1877865060618
 21
-1121.4767513904089
 31
0.0
  0
LINE
  5
BF97
  8
01
 10
1015.187786506062
 20
-1121.0767743346159
 30
0.0
 11
1015.187786506062
 21
-1121.4767513904089
 31
0.0
  0
LINE
  5
C269
  8
01
 10
1022.187665166325
 20
-1391.5767513893809
 30
0.0
 11
1022.187665166325
 21
-1434.0767513893809
 31
0.0
  0
LINE
  5
C273
  8
01
 10
977.68766516632468
 20
-1434.0767513893809
 30
0.0
 11
1022.187665166325
 21
-1434.0767513893809
 31
0.0
  0
LINE
  5
C4C2
  8
01
 10
1022.187665166325
 20
-1359.5767513893809
 30
0.0
 11
1022.187665166325
 21
-1382.576751593509
 31
0.0
  0
LINE
  5
C4C3
  8
01
 10
1001.187665166324
 20
-1359.5767513893809
 30
0.0
 11
1007.187665166324
 21
-1359.5767513893809
 31
0.0
  0
LINE
  5
C4C4
  8
01
 10
1014.187665166325
 20
-1359.5767513893809
 30
0.0
 11
1022.187665166325
 21
-1359.5767513893809
 31
0.0
  0
LINE
  5
C4C5
  8
01
 10
1001.187665166324
 20
-1360.57675138938
 30
0.0
 11
1001.187665166324
 21
-1359.5767513893809
 31
0.0
  0
LINE
  5
C4C6
  8
01
 10
1007.187665166324
 20
-1360.5767513893809
 30
0.0
 11
1007.187665166324
 21
-1359.5767513893809
 31
0.0
  0
ARC
  5
C4C7
  8
01
 10
997.68766516632445
 20
-1360.5767513893809
 30
0.0
 40
3.5
 50
179.99999999998701
 51
0.0000000000130276
  0
ARC
  5
C4C8
  8
01
 10
1010.687665166325
 20
-1360.5767513893809
 30
0.0
 40
3.5
 50
180.0
 51
0.0
  0
CIRCLE
  5
C4C9
  8
01
 10
1004.187665166036
 20
-1368.0767513896701
 30
0.0
 40
6.0
  0
LINE
  5
C4CA
  8
01
 10
994.18766516632445
 20
-1359.5767513893809
 30
0.0
 11
984.41394491058077
 21
-1359.5767513893809
 31
0.0
  0
LINE
  5
C4CB
  8
01
  6
BYBLOCK
 10
984.41394491058077
 20
-1359.5767513893809
 30
0.0
 11
956.18766516632468
 21
-1359.5767513893809
 31
0.0
  0
LINE
  5
C4CC
  8
01
 10
994.18766516632434
 20
-1360.57675138938
 30
0.0
 11
994.18766516632445
 21
-1359.5767513893809
 31
0.0
  0
LINE
  5
C4CD
  8
01
 10
1014.187665166325
 20
-1360.5767513893809
 30
0.0
 11
1014.187665166325
 21
-1359.5767513893809
 31
0.0
  0
LINE
  5
C4CE
  8
01
  6
BYBLOCK
 10
683.96138509960645
 20
-1359.5767513893809
 30
0.0
 11
712.18767316632375
 21
-1359.5767513893809
 31
0.0
  0
LINE
  5
C4CF
  8
01
  6
BYBLOCK
 10
1010.188549348096
 20
-1137.8267513904091
 30
0.0
 11
998.18854934809588
 21
-1137.8267513904091
 31
0.0
  0
LINE
  5
C4D0
  8
01
  6
BYBLOCK
 10
998.18854934809588
 20
-1158.3267513904091
 30
0.0
 11
1010.188549348096
 21
-1158.3267513904091
 31
0.0
  0
LINE
  5
C4D1
  8
01
  6
BYBLOCK
 10
998.18854934809588
 20
-1158.3267513904091
 30
0.0
 11
998.18854934809588
 21
-1157.5767513904091
 31
0.0
  0
LINE
  5
C4D2
  8
01
  6
BYBLOCK
 10
998.18854934809588
 20
-1138.5767513904091
 30
0.0
 11
998.18854934809588
 21
-1137.8267513904091
 31
0.0
  0
LINE
  5
C4D3
  8
01
  6
BYBLOCK
 10
1010.188549348096
 20
-1158.3267513904091
 30
0.0
 11
1010.188549348096
 21
-1157.5767513904091
 31
0.0
  0
LINE
  5
C4D4
  8
01
  6
BYBLOCK
 10
1010.188549348096
 20
-1138.5767513904091
 30
0.0
 11
1010.188549348096
 21
-1137.8267513904091
 31
0.0
  0
LINE
  5
C65F
  8
01
 10
1030.1876651663249
 20
-1391.576751389382
 30
0.0
 11
978.18766516632832
 21
-1391.576751389382
 31
0.0
  0
LINE
  5
C660
  8
01
 10
978.18766516632832
 20
-1444.576751389382
 30
0.0
 11
1030.1876651663249
 21
-1444.576751389382
 31
0.0
  0
LINE
  5
C661
  8
01
 10
977.68766516632832
 20
-1392.076751389382
 30
0.0
 11
977.68766516632832
 21
-1444.076751389382
 31
0.0
  0
ARC
  5
C662
  8
01
 10
978.18766516632832
 20
-1444.076751389382
 30
0.0
 40
0.5
 50
180.0
 51
270.0
  0
ARC
  5
C663
  8
01
 10
978.18766516632832
 20
-1392.076751389382
 30
0.0
 40
0.5
 50
90.0
 51
180.0
  0
LINE
  5
C664
  8
01
 10
1030.6876651663249
 20
-1392.076751389382
 30
0.0
 11
1030.6876651663249
 21
-1407.0767513893809
 31
0.0
  0
LINE
  5
C665
  8
01
 10
1030.6876651663249
 20
-1429.07675138938
 30
0.0
 11
1030.6876651663249
 21
-1444.076751389382
 31
0.0
  0
ARC
  5
C666
  8
01
 10
1030.1876651663249
 20
-1444.076751389382
 30
0.0
 40
0.5
 50
270.0
 51
0.0
  0
ARC
  5
C667
  8
01
 10
1030.1876651663249
 20
-1392.076751389382
 30
0.0
 40
0.5
 50
0.0
 51
90.0
  0
LINE
  5
C668
  8
01
 10
977.68766516632832
 20
-1168.0767513904091
 30
0.0
 11
1030.6876651663249
 21
-1168.0767513904091
 31
0.0
  0
LINE
  5
C669
  8
01
 10
978.18766516632832
 20
-1176.5767513904091
 30
0.0
 11
1030.1876651663249
 21
-1176.5767513904091
 31
0.0
  0
LINE
  5
C66A
  8
01
 10
1030.6876651663249
 20
-1168.0767513904091
 30
0.0
 11
1030.6876651663249
 21
-1176.0767513904091
 31
0.0
  0
LINE
  5
C66B
  8
01
 10
977.68766516632832
 20
-1168.0767513904091
 30
0.0
 11
977.68766516632832
 21
-1176.0767513904091
 31
0.0
  0
ARC
  5
C66C
  8
01
 10
978.18766516632832
 20
-1176.0767513904091
 30
0.0
 40
0.5
 50
180.0
 51
270.0
  0
ARC
  5
C66D
  8
01
 10
1030.1876651663249
 20
-1176.0767513904091
 30
0.0
 40
0.5
 50
270.0
 51
0.0
  0
LINE
  5
C66E
  8
01
 10
977.68766516632832
 20
-1128.0767513904091
 30
0.0
 11
1030.6876651663249
 21
-1128.0767513904091
 31
0.0
  0
LINE
  5
C66F
  8
01
 10
978.18766516632832
 20
-1119.5767513904091
 30
0.0
 11
1001.687781506062
 21
-1119.5767513904091
 31
0.0
  0
LINE
  5
C670
  8
01
 10
1030.6876651663249
 20
-1128.0767513904091
 30
0.0
 11
1030.6876651663249
 21
-1120.0767513904091
 31
0.0
  0
LINE
  5
C671
  8
01
 10
977.68766516632832
 20
-1128.0767513904091
 30
0.0
 11
977.68766516632832
 21
-1120.0767513904091
 31
0.0
  0
ARC
  5
C672
  8
01
 10
978.18766516632832
 20
-1120.0767513904091
 30
0.0
 40
0.5
 50
90.0
 51
180.0
  0
ARC
  5
C673
  8
01
 10
1030.1876651663249
 20
-1120.0767513904091
 30
0.0
 40
0.5
 50
0.0
 51
90.0
  0
LINE
  5
C674
  8
01
 10
638.1876731663242
 20
-1391.576751389382
 30
0.0
 11
690.18767316632056
 21
-1391.576751389382
 31
0.0
  0
LINE
  5
C675
  8
01
 10
690.18767316632056
 20
-1444.576751389382
 30
0.0
 11
638.1876731663242
 21
-1444.576751389382
 31
0.0
  0
LINE
  5
C676
  8
01
 10
690.68767316632056
 20
-1392.076751389382
 30
0.0
 11
690.68767316632056
 21
-1444.076751389382
 31
0.0
  0
ARC
  5
C677
  8
01
 10
690.18767316632056
 20
-1444.076751389382
 30
0.0
 40
0.5
 50
270.0
 51
0.0
  0
ARC
  5
C678
  8
01
 10
690.18767316632056
 20
-1392.076751389382
 30
0.0
 40
0.5
 50
0.0
 51
90.0
  0
LINE
  5
C679
  8
01
 10
637.6876731663242
 20
-1392.076751389382
 30
0.0
 11
637.68767316632432
 21
-1407.0767513893809
 31
0.0
  0
LINE
  5
C67A
  8
01
 10
637.68767316632432
 20
-1429.07675138938
 30
0.0
 11
637.6876731663242
 21
-1444.076751389382
 31
0.0
  0
ARC
  5
C67B
  8
01
 10
638.1876731663242
 20
-1444.076751389382
 30
0.0
 40
0.5
 50
180.0
 51
270.0
  0
ARC
  5
C67C
  8
01
 10
638.1876731663242
 20
-1392.076751389382
 30
0.0
 40
0.5
 50
90.0
 51
180.0
  0
LINE
  5
C692
  8
01
 10
1006.687781506064
 20
-1119.5767513904091
 30
0.0
 11
1030.1876651663249
 21
-1119.5767513904091
 31
0.0
  0
LINE
  5
C6FA
  8
01
 10
978.18766516632832
 20
-1391.576751389382
 30
0.0
 11
967.88766516632438
 21
-1391.576751389382
 31
0.0
  0
LINE
  5
C6FB
  8
01
 10
978.18766516632832
 20
-1444.576751389382
 30
0.0
 11
967.88766516632438
 21
-1444.576751389382
 31
0.0
  0
LINE
  5
C6FC
  8
01
 10
969.18766516632445
 20
-1394.1767513893819
 30
0.0
 11
969.18766516632445
 21
-1441.9767513893819
 31
0.0
  0
LINE
  5
C700
  8
01
 10
1010.188549348096
 20
-1137.8267513904091
 30
0.0
 11
1045.3489401080969
 21
-1137.8267513904091
 31
0.0
  0
LINE
  5
C701
  8
01
 10
1010.188549348096
 20
-1158.3267513904091
 30
0.0
 11
1045.3489401080969
 21
-1158.3267513904091
 31
0.0
  0
LINE
  5
C702
  8
01
 10
1044.0489401080979
 20
-1140.426751390409
 30
0.0
 11
1044.0489401080979
 21
-1155.7267513904089
 31
0.0
  0
TEXT
  5
C706
  8
01
 10
914.58415959267461
 20
-1198.493418057076
 30
0.0
 40
4.5499999999999989
  1
材質：亜鉛ダイキャスト
  0
TEXT
  5
C707
  8
01
 10
925.50415959267457
 20
-1206.0767513904091
 30
0.0
 40
4.5499999999999989
  1
仕上げ：各種メッキ
  0
SOLID
  5
C708
  8
01
 10
1001.610520805609
 20
-1187.2307395303189
 30
0.0
 11
1003.928266406385
 21
-1185.9754176162839
 31
0.0
 12
1002.142935783176
 22
-1187.9145855676511
 32
0.0
 13
1002.142935783176
 23
-1187.9145855676511
 33
0.0
1001
ACAD
1000
DSTYLE
1002
{
1070
    40
1040
1.3
1002
}
  0
LINE
  5
C70A
  8
01
 10
1022.187665166325
 20
-1359.5767513893809
 30
0.0
 11
1050.4876651663239
 21
-1359.5767513893809
 31
0.0
  0
LINE
  5
C70B
  8
01
 10
1022.187665166325
 20
-1434.0767513893809
 30
0.0
 11
1050.4876651663239
 21
-1434.0767513893809
 31
0.0
  0
LINE
  5
C70C
  8
01
 10
1049.187665166324
 20
-1362.176751389381
 30
0.0
 11
1049.187665166324
 21
-1431.476751389381
 31
0.0
  0
LINE
  5
C710
  8
01
 10
854.18766916632421
 20
-1325.57937138938
 30
0.0
 11
854.18766916632421
 21
-1310.77675138938
 31
0.0
  0
LINE
  5
C711
  8
01
 10
862.18743917064819
 20
-1368.0767500684431
 30
0.0
 11
862.18743917064819
 21
-1310.77675138938
 31
0.0
  0
LINE
  5
C712
  8
01
 10
856.78766916632424
 20
-1312.07675138938
 30
0.0
 11
859.58743917064817
 21
-1312.07675138938
 31
0.0
  0
LINE
  5
C716
  8
01
 10
814.18766916632421
 20
-1325.57937138938
 30
0.0
 11
814.18766916632421
 21
-1310.77675138938
 31
0.0
  0
LINE
  5
C717
  8
01
 10
792.18728359492843
 20
-1358.0767563893719
 30
0.0
 11
792.18728359492843
 21
-1310.77675138938
 31
0.0
  0
LINE
  5
C718
  8
01
 10
811.58766916632419
 20
-1312.07675138938
 30
0.0
 11
794.78728359492845
 21
-1312.07675138938
 31
0.0
  0
LINE
  5
C71C
  8
01
 10
634.18767316632375
 20
-1418.0767513893809
 30
0.0
 11
596.70268516632416
 21
-1418.0767513893809
 31
0.0
  0
LINE
  5
C71D
  8
01
 10
641.68766516632309
 20
-1362.57675138938
 30
0.0
 11
596.70268516632416
 21
-1362.57675138938
 31
0.0
  0
LINE
  5
C71E
  8
01
 10
598.00268516632423
 20
-1415.476751389381
 30
0.0
 11
598.00268516632423
 21
-1365.1767513893799
 31
0.0
  0
LINE
  5
C722
  8
01
 10
634.18767316632375
 20
-1418.0767513893809
 30
0.0
 11
606.70268516632427
 21
-1418.0767513893809
 31
0.0
  0
LINE
  5
C723
  8
01
 10
651.18766516632297
 20
-1368.0767513893809
 30
0.0
 11
606.70268516632427
 21
-1368.0767513893809
 31
0.0
  0
LINE
  5
C724
  8
01
 10
608.00268516632423
 20
-1415.476751389381
 30
0.0
 11
608.00268516632423
 21
-1370.6767513893799
 31
0.0
  0
LINE
  5
C728
  8
01
 10
1124.272768199005
 20
-1407.0767513893809
 30
0.0
 11
1141.0727681990049
 21
-1407.0767513893809
 31
0.0
  0
LINE
  5
C729
  8
01
 10
1124.272768199005
 20
-1429.07675138938
 30
0.0
 11
1141.0727681990049
 21
-1429.07675138938
 31
0.0
  0
LINE
  5
C72A
  8
01
 10
1139.772768199005
 20
-1409.6767513893799
 30
0.0
 11
1139.772768199005
 21
-1426.476751389381
 31
0.0
  0
LINE
  5
C72E
  8
01
 10
1134.187781439965
 20
-1168.0767513904091
 30
0.0
 11
1151.072884472645
 21
-1168.0767513904091
 31
0.0
  0
LINE
  5
C72F
  8
01
 10
1101.5664178336419
 20
-1217.2767513904089
 30
0.0
 11
1151.072884472645
 21
-1217.2767513904089
 31
0.0
  0
LINE
  5
C730
  8
01
 10
1149.772884472646
 20
-1170.676751390409
 30
0.0
 11
1149.772884472646
 21
-1214.676751390409
 31
0.0
  0
LINE
  5
C734
  8
01
 10
1106.9429294373119
 20
-1168.0767513904091
 30
0.0
 11
1141.072884472645
 21
-1168.0767513904091
 31
0.0
  0
LINE
  5
C735
  8
01
 10
1116.4010668666469
 20
-1197.269321709007
 30
0.0
 11
1141.072884472645
 21
-1197.269321709007
 31
0.0
  0
LINE
  5
C736
  8
01
 10
1139.772884472646
 20
-1170.676751390409
 30
0.0
 11
1139.772884472646
 21
-1194.6693217090069
 31
0.0
  0
LINE
  5
C73A
  8
01
 10
990.18778143996542
 20
-1177.2767513904089
 30
0.0
 11
990.18778143996542
 21
-1238.5767513904091
 31
0.0
  0
LINE
  5
C73B
  8
01
 10
1124.6311267439471
 20
-1227.2767513904089
 30
0.0
 11
1124.6311267439471
 21
-1238.5767513904091
 31
0.0
  0
LINE
  5
C73C
  8
01
 10
992.78778143996533
 20
-1237.2767513904089
 30
0.0
 11
1122.031126743947
 21
-1237.2767513904089
 31
0.0
  0
LINE
  5
C740
  8
01
 10
1004.187781439965
 20
-1187.867961277256
 30
0.0
 11
1004.187781439965
 21
-1228.5767513904091
 31
0.0
  0
LINE
  5
C741
  8
01
 10
1124.6311267439471
 20
-1199.8405850105739
 30
0.0
 11
1124.6311267439471
 21
-1228.5767513904091
 31
0.0
  0
LINE
  5
C742
  8
01
 10
1006.787781439965
 20
-1227.2767513904089
 30
0.0
 11
1122.031126743947
 21
-1227.2767513904089
 31
0.0
  0
LINE
  5
C746
  8
01
 10
840.68766916632421
 20
-1332.07675138938
 30
0.0
 11
895.48766916632394
 21
-1332.07675138938
 31
0.0
  0
LINE
  5
C747
  8
01
 10
840.68766916632421
 20
-1462.07675138938
 30
0.0
 11
895.48766916632394
 21
-1462.07675138938
 31
0.0
  0
LINE
  5
C748
  8
01
 10
894.18766916632387
 20
-1334.6767513893799
 30
0.0
 11
894.18766916632387
 21
-1459.476751389381
 31
0.0
  0
LINE
  5
C74C
  8
01
 10
840.68766916632421
 20
-1340.07675138938
 30
0.0
 11
879.99126020288077
 21
-1340.07675138938
 31
0.0
  0
LINE
  5
C74D
  8
01
 10
840.68766916632421
 20
-1454.07675138938
 30
0.0
 11
879.99126020288077
 21
-1454.07675138938
 31
0.0
  0
LINE
  5
C74E
  8
01
 10
878.69126020288081
 20
-1342.6767513893799
 30
0.0
 11
878.69126020288081
 21
-1451.476751389381
 31
0.0
  0
LINE
  5
C752
  8
01
 10
644.18766516632331
 20
-1343.0767513893809
 30
0.0
 11
644.18766516632331
 21
-1333.7767513893809
 31
0.0
  0
LINE
  5
C753
  8
01
 10
684.18766516632331
 20
-1343.0767513893809
 30
0.0
 11
684.18766516632331
 21
-1333.7767513893809
 31
0.0
  0
LINE
  5
C754
  8
01
 10
646.78766516632334
 20
-1335.0767513893809
 30
0.0
 11
681.58766516632318
 21
-1335.0767513893809
 31
0.0
  0
LINE
  5
C758
  8
01
 10
984.18767316632534
 20
-1343.0767513893809
 30
0.0
 11
984.18767316632534
 21
-1333.7767513893809
 31
0.0
  0
LINE
  5
C759
  8
01
 10
1024.1876731663251
 20
-1343.0767513893809
 30
0.0
 11
1024.1876731663251
 21
-1333.7767513893809
 31
0.0
  0
LINE
  5
C75A
  8
01
 10
986.78767316632525
 20
-1335.0767513893809
 30
0.0
 11
1021.587673166325
 21
-1335.0767513893809
 31
0.0
  0
LINE
  5
C75E
  8
01
 10
800.98670727200067
 20
-1417.3267513893809
 30
0.0
 11
799.68766916632421
 21
-1416.57675138938
 31
0.0
  0
LINE
  5
C75F
  8
01
 10
799.68766916632421
 20
-1416.57675138938
 30
0.0
 11
798.38863106064764
 21
-1417.3267513893809
 31
0.0
  0
LINE
  5
C760
  8
01
 10
798.38863106064764
 20
-1417.3267513893809
 30
0.0
 11
798.38863106064764
 21
-1418.8267513893809
 31
0.0
  0
LINE
  5
C761
  8
01
 10
798.38863106064764
 20
-1418.8267513893809
 30
0.0
 11
799.68766916632421
 21
-1419.5767513893809
 31
0.0
  0
LINE
  5
C762
  8
01
 10
799.68766916632421
 20
-1419.5767513893809
 30
0.0
 11
800.98670727200067
 21
-1418.8267513893809
 31
0.0
  0
LINE
  5
C763
  8
01
 10
800.98670727200067
 20
-1418.8267513893809
 30
0.0
 11
800.98670727200067
 21
-1417.3267513893809
 31
0.0
  0
CIRCLE
  5
C764
  8
01
 10
799.68766916632421
 20
-1418.0767513893809
 30
0.0
 40
3.0
  0
CIRCLE
  5
C765
  8
01
 10
868.68766916632421
 20
-1418.0767513893809
 30
0.0
 40
3.0
  0
LINE
  5
C766
  8
01
 10
953.18766516632456
 20
-1332.07675138938
 30
0.0
 11
953.18766516632456
 21
-1310.77675138938
 31
0.0
  0
LINE
  5
C767
  8
01
 10
1004.187665166324
 20
-1387.546387298544
 30
0.0
 11
1004.187665166324
 21
-1310.77675138938
 31
0.0
  0
LINE
  5
C768
  8
01
 10
955.78766516632481
 20
-1312.07675138938
 30
0.0
 11
1001.587665166324
 21
-1312.07675138938
 31
0.0
  0
LINE
  5
C76C
  8
01
 10
1022.187665166325
 20
-1360.0767513893809
 30
0.0
 11
1022.187665166325
 21
-1300.7767513893809
 31
0.0
  0
LINE
  5
C76D
  8
01
 10
953.18766516632456
 20
-1332.07675138938
 30
0.0
 11
953.18766516632456
 21
-1300.7767513893809
 31
0.0
  0
LINE
  5
C76E
  8
01
 10
1019.587665166324
 20
-1302.07675138938
 30
0.0
 11
955.78766516632481
 21
-1302.07675138938
 31
0.0
  0
LINE
  5
C772
  8
01
 10
942.18766516632468
 20
-1390.0767520875111
 30
0.0
 11
942.18766516632468
 21
-1310.77675138938
 31
0.0
  0
LINE
  5
C773
  8
01
 10
953.18766516632456
 20
-1332.07675138938
 30
0.0
 11
953.18766516632456
 21
-1310.77675138938
 31
0.0
  0
LINE
  5
C774
  8
01
 10
944.78766516632459
 20
-1312.07675138938
 30
0.0
 11
950.58766516632465
 21
-1312.07675138938
 31
0.0
  0
LINE
  5
C778
  8
01
 10
821.6876691663241
 20
-1338.07675138938
 30
0.0
 11
821.6876691663241
 21
-1310.77675138938
 31
0.0
  0
LINE
  5
C779
  8
01
 10
846.6876691663241
 20
-1338.07675138938
 30
0.0
 11
846.6876691663241
 21
-1310.77675138938
 31
0.0
  0
LINE
  5
C77A
  8
01
 10
824.28766916632424
 20
-1312.07675138938
 30
0.0
 11
844.08766916632408
 21
-1312.07675138938
 31
0.0
  0
TEXT
  5
C77E
  8
01
 10
829.85433583299096
 20
-1311.1667513893799
 30
0.0
 40
4.5499999999999989
  1
25
  0
LINE
  5
C77F
  8
01
  6
BYBLOCK
 10
844.08766916632408
 20
-1311.3800834953811
 30
0.0
 11
846.6876691663241
 21
-1312.07675138938
 31
0.0
  0
LINE
  5
C780
  8
01
  6
BYBLOCK
 10
846.6876691663241
 20
-1312.07675138938
 30
0.0
 11
844.08766916632408
 21
-1312.7734192833809
 31
0.0
  0
LINE
  5
C781
  8
01
  6
BYBLOCK
 10
846.6876691663241
 20
-1312.07675138938
 30
0.0
 11
844.08766916632408
 21
-1312.07675138938
 31
0.0
  0
LINE
  5
C782
  8
01
  6
BYBLOCK
 10
824.28766916632424
 20
-1312.7734192833809
 30
0.0
 11
821.6876691663241
 21
-1312.07675138938
 31
0.0
  0
LINE
  5
C783
  8
01
  6
BYBLOCK
 10
821.6876691663241
 20
-1312.07675138938
 30
0.0
 11
824.28766916632424
 21
-1311.3800834953811
 31
0.0
  0
LINE
  5
C784
  8
01
  6
BYBLOCK
 10
821.6876691663241
 20
-1312.07675138938
 30
0.0
 11
824.28766916632424
 21
-1312.07675138938
 31
0.0
  0
TEXT
  5
C785
  8
01
 10
943.67933183299135
 20
-1311.1667513893799
 30
0.0
 40
4.5499999999999989
  1
11
  0
LINE
  5
C786
  8
01
  6
BYBLOCK
 10
950.58766516632465
 20
-1311.3800834953811
 30
0.0
 11
953.18766516632456
 21
-1312.07675138938
 31
0.0
  0
LINE
  5
C787
  8
01
  6
BYBLOCK
 10
953.18766516632456
 20
-1312.07675138938
 30
0.0
 11
950.58766516632465
 21
-1312.7734192833809
 31
0.0
  0
LINE
  5
C788
  8
01
  6
BYBLOCK
 10
953.18766516632456
 20
-1312.07675138938
 30
0.0
 11
950.58766516632465
 21
-1312.07675138938
 31
0.0
  0
LINE
  5
C789
  8
01
  6
BYBLOCK
 10
944.78766516632459
 20
-1312.7734192833809
 30
0.0
 11
942.18766516632468
 21
-1312.07675138938
 31
0.0
  0
LINE
  5
C78A
  8
01
  6
BYBLOCK
 10
942.18766516632468
 20
-1312.07675138938
 30
0.0
 11
944.78766516632459
 21
-1311.3800834953811
 31
0.0
  0
LINE
  5
C78B
  8
01
  6
BYBLOCK
 10
942.18766516632468
 20
-1312.07675138938
 30
0.0
 11
944.78766516632459
 21
-1312.07675138938
 31
0.0
  0
TEXT
  5
C78C
  8
01
 10
983.35433183299142
 20
-1301.1667513893799
 30
0.0
 40
4.5499999999999989
  1
69
  0
LINE
  5
C78D
  8
01
  6
BYBLOCK
 10
955.78766516632481
 20
-1302.77341928338
 30
0.0
 11
953.18766516632456
 21
-1302.07675138938
 31
0.0
  0
LINE
  5
C78E
  8
01
  6
BYBLOCK
 10
953.18766516632456
 20
-1302.07675138938
 30
0.0
 11
955.78766516632481
 21
-1301.3800834953811
 31
0.0
  0
LINE
  5
C78F
  8
01
  6
BYBLOCK
 10
953.18766516632456
 20
-1302.07675138938
 30
0.0
 11
955.78766516632481
 21
-1302.07675138938
 31
0.0
  0
LINE
  5
C790
  8
01
  6
BYBLOCK
 10
1019.587665166324
 20
-1301.3800834953811
 30
0.0
 11
1022.187665166325
 21
-1302.07675138938
 31
0.0
  0
LINE
  5
C791
  8
01
  6
BYBLOCK
 10
1022.187665166325
 20
-1302.07675138938
 30
0.0
 11
1019.587665166324
 21
-1302.77341928338
 31
0.0
  0
LINE
  5
C792
  8
01
  6
BYBLOCK
 10
1022.187665166325
 20
-1302.07675138938
 30
0.0
 11
1019.587665166324
 21
-1302.07675138938
 31
0.0
  0
TEXT
  5
C793
  8
01
 10
975.00433183299128
 20
-1311.1667513893799
 30
0.0
 40
4.5499999999999989
  1
51
  0
LINE
  5
C794
  8
01
  6
BYBLOCK
 10
1001.587665166324
 20
-1311.3800834953811
 30
0.0
 11
1004.187665166324
 21
-1312.07675138938
 31
0.0
  0
LINE
  5
C795
  8
01
  6
BYBLOCK
 10
1004.187665166324
 20
-1312.07675138938
 30
0.0
 11
1001.587665166324
 21
-1312.7734192833809
 31
0.0
  0
LINE
  5
C796
  8
01
  6
BYBLOCK
 10
1004.187665166324
 20
-1312.07675138938
 30
0.0
 11
1001.587665166324
 21
-1312.07675138938
 31
0.0
  0
LINE
  5
C797
  8
01
  6
BYBLOCK
 10
955.78766516632481
 20
-1312.7734192833809
 30
0.0
 11
953.18766516632456
 21
-1312.07675138938
 31
0.0
  0
LINE
  5
C798
  8
01
  6
BYBLOCK
 10
953.18766516632456
 20
-1312.07675138938
 30
0.0
 11
955.78766516632481
 21
-1311.3800834953811
 31
0.0
  0
LINE
  5
C799
  8
01
  6
BYBLOCK
 10
953.18766516632456
 20
-1312.07675138938
 30
0.0
 11
955.78766516632481
 21
-1312.07675138938
 31
0.0
  0
TEXT
  5
C79A
  8
01
 10
997.14600649965882
 20
-1334.1667513893799
 30
0.0
 40
4.5499999999999989
  1
□40
  0
LINE
  5
C79B
  8
01
  6
BYBLOCK
 10
1021.587673166325
 20
-1334.3800834953799
 30
0.0
 11
1024.1876731663251
 21
-1335.0767513893809
 31
0.0
  0
LINE
  5
C79C
  8
01
  6
BYBLOCK
 10
1024.1876731663251
 20
-1335.0767513893809
 30
0.0
 11
1021.587673166325
 21
-1335.7734192833809
 31
0.0
  0
LINE
  5
C79D
  8
01
  6
BYBLOCK
 10
1024.1876731663251
 20
-1335.0767513893809
 30
0.0
 11
1021.587673166325
 21
-1335.0767513893809
 31
0.0
  0
LINE
  5
C79E
  8
01
  6
BYBLOCK
 10
986.78767316632525
 20
-1335.7734192833809
 30
0.0
 11
984.18767316632534
 21
-1335.0767513893809
 31
0.0
  0
LINE
  5
C79F
  8
01
  6
BYBLOCK
 10
984.18767316632534
 20
-1335.0767513893809
 30
0.0
 11
986.78767316632525
 21
-1334.3800834953799
 31
0.0
  0
LINE
  5
C7A0
  8
01
  6
BYBLOCK
 10
984.18767316632534
 20
-1335.0767513893809
 30
0.0
 11
986.78767316632525
 21
-1335.0767513893809
 31
0.0
  0
TEXT
  5
C7A1
  8
01
 10
657.14599849965657
 20
-1334.1667513893799
 30
0.0
 40
4.5499999999999989
  1
□40
  0
LINE
  5
C7A2
  8
01
  6
BYBLOCK
 10
681.58766516632318
 20
-1334.3800834953799
 30
0.0
 11
684.18766516632331
 21
-1335.0767513893809
 31
0.0
  0
LINE
  5
C7A3
  8
01
  6
BYBLOCK
 10
684.18766516632331
 20
-1335.0767513893809
 30
0.0
 11
681.58766516632318
 21
-1335.7734192833809
 31
0.0
  0
LINE
  5
C7A4
  8
01
  6
BYBLOCK
 10
684.18766516632331
 20
-1335.0767513893809
 30
0.0
 11
681.58766516632318
 21
-1335.0767513893809
 31
0.0
  0
LINE
  5
C7A5
  8
01
  6
BYBLOCK
 10
646.78766516632334
 20
-1335.7734192833809
 30
0.0
 11
644.18766516632331
 21
-1335.0767513893809
 31
0.0
  0
LINE
  5
C7A6
  8
01
  6
BYBLOCK
 10
644.18766516632331
 20
-1335.0767513893809
 30
0.0
 11
646.78766516632334
 21
-1334.3800834953799
 31
0.0
  0
LINE
  5
C7A7
  8
01
  6
BYBLOCK
 10
644.18766516632331
 20
-1335.0767513893809
 30
0.0
 11
646.78766516632334
 21
-1335.0767513893809
 31
0.0
  0
TEXT
  5
C7A8
  8
01
 10
877.78126020288107
 20
-1386.196364042399
 30
0.0
 40
4.5499999999999989
  1
114
 50
90.0
  0
LINE
  5
C7A9
  8
01
  6
BYBLOCK
 10
879.38792809688073
 20
-1451.476751389381
 30
0.0
 11
878.69126020288081
 21
-1454.07675138938
 31
0.0
  0
LINE
  5
C7AA
  8
01
  6
BYBLOCK
 10
878.69126020288081
 20
-1454.07675138938
 30
0.0
 11
877.99459230888078
 21
-1451.476751389381
 31
0.0
  0
LINE
  5
C7AB
  8
01
  6
BYBLOCK
 10
878.69126020288081
 20
-1454.07675138938
 30
0.0
 11
878.69126020288081
 21
-1451.476751389381
 31
0.0
  0
LINE
  5
C7AC
  8
01
  6
BYBLOCK
 10
877.99459230888078
 20
-1342.6767513893799
 30
0.0
 11
878.69126020288081
 21
-1340.07675138938
 31
0.0
  0
LINE
  5
C7AD
  8
01
  6
BYBLOCK
 10
878.69126020288081
 20
-1340.07675138938
 30
0.0
 11
879.38792809688073
 21
-1342.6767513893799
 31
0.0
  0
LINE
  5
C7AE
  8
01
  6
BYBLOCK
 10
878.69126020288081
 20
-1340.07675138938
 30
0.0
 11
878.69126020288081
 21
-1342.6767513893799
 31
0.0
  0
TEXT
  5
C7AF
  8
01
 10
893.27766916632424
 20
-1386.0880307090661
 30
0.0
 40
4.5499999999999989
  1
130
 50
90.0
  0
LINE
  5
C7B0
  8
01
  6
BYBLOCK
 10
894.88433706032401
 20
-1459.476751389381
 30
0.0
 11
894.18766916632387
 21
-1462.07675138938
 31
0.0
  0
LINE
  5
C7B1
  8
01
  6
BYBLOCK
 10
894.18766916632387
 20
-1462.07675138938
 30
0.0
 11
893.49100127232396
 21
-1459.476751389381
 31
0.0
  0
LINE
  5
C7B2
  8
01
  6
BYBLOCK
 10
894.18766916632387
 20
-1462.07675138938
 30
0.0
 11
894.18766916632387
 21
-1459.476751389381
 31
0.0
  0
LINE
  5
C7B3
  8
01
  6
BYBLOCK
 10
893.49100127232396
 20
-1334.6767513893799
 30
0.0
 11
894.18766916632387
 21
-1332.07675138938
 31
0.0
  0
LINE
  5
C7B4
  8
01
  6
BYBLOCK
 10
894.18766916632387
 20
-1332.07675138938
 30
0.0
 11
894.88433706032401
 21
-1334.6767513893799
 31
0.0
  0
LINE
  5
C7B5
  8
01
  6
BYBLOCK
 10
894.18766916632387
 20
-1332.07675138938
 30
0.0
 11
894.18766916632387
 21
-1334.6767513893799
 31
0.0
  0
TEXT
  5
C7B6
  8
01
 10
1057.5844540919561
 20
-1226.366751390409
 30
0.0
 40
4.5499999999999989
  1
120
  0
LINE
  5
C7B7
  8
01
  6
BYBLOCK
 10
1122.031126743947
 20
-1226.5800834964091
 30
0.0
 11
1124.6311267439471
 21
-1227.2767513904089
 31
0.0
  0
LINE
  5
C7B8
  8
01
  6
BYBLOCK
 10
1124.6311267439471
 20
-1227.2767513904089
 30
0.0
 11
1122.031126743947
 21
-1227.9734192844089
 31
0.0
  0
LINE
  5
C7B9
  8
01
  6
BYBLOCK
 10
1124.6311267439471
 20
-1227.2767513904089
 30
0.0
 11
1122.031126743947
 21
-1227.2767513904089
 31
0.0
  0
LINE
  5
C7BA
  8
01
  6
BYBLOCK
 10
1006.787781439965
 20
-1227.9734192844089
 30
0.0
 11
1004.187781439965
 21
-1227.2767513904089
 31
0.0
  0
LINE
  5
C7BB
  8
01
  6
BYBLOCK
 10
1004.187781439965
 20
-1227.2767513904089
 30
0.0
 11
1006.787781439965
 21
-1226.5800834964091
 31
0.0
  0
LINE
  5
C7BC
  8
01
  6
BYBLOCK
 10
1004.187781439965
 20
-1227.2767513904089
 30
0.0
 11
1006.787781439965
 21
-1227.2767513904089
 31
0.0
  0
TEXT
  5
C7BD
  8
01
 10
1050.476120758623
 20
-1236.366751390409
 30
0.0
 40
4.5499999999999989
  1
134
  0
LINE
  5
C7BE
  8
01
  6
BYBLOCK
 10
1122.031126743947
 20
-1236.5800834964091
 30
0.0
 11
1124.6311267439471
 21
-1237.2767513904089
 31
0.0
  0
LINE
  5
C7BF
  8
01
  6
BYBLOCK
 10
1124.6311267439471
 20
-1237.2767513904089
 30
0.0
 11
1122.031126743947
 21
-1237.9734192844089
 31
0.0
  0
LINE
  5
C7C0
  8
01
  6
BYBLOCK
 10
1124.6311267439471
 20
-1237.2767513904089
 30
0.0
 11
1122.031126743947
 21
-1237.2767513904089
 31
0.0
  0
LINE
  5
C7C1
  8
01
  6
BYBLOCK
 10
992.78778143996533
 20
-1237.9734192844089
 30
0.0
 11
990.18778143996542
 21
-1237.2767513904089
 31
0.0
  0
LINE
  5
C7C2
  8
01
  6
BYBLOCK
 10
990.18778143996542
 20
-1237.2767513904089
 30
0.0
 11
992.78778143996533
 21
-1236.5800834964091
 31
0.0
  0
LINE
  5
C7C3
  8
01
  6
BYBLOCK
 10
990.18778143996542
 20
-1237.2767513904089
 30
0.0
 11
992.78778143996533
 21
-1237.2767513904089
 31
0.0
  0
TEXT
  5
C7C4
  8
01
 10
1138.8628844726461
 20
-1186.898036549708
 30
0.0
 40
4.5499999999999989
  1
29
 50
90.0
  0
LINE
  5
C7C5
  8
01
  6
BYBLOCK
 10
1140.469552366646
 20
-1194.6693217090069
 30
0.0
 11
1139.772884472646
 21
-1197.269321709007
 31
0.0
  0
LINE
  5
C7C6
  8
01
  6
BYBLOCK
 10
1139.772884472646
 20
-1197.269321709007
 30
0.0
 11
1139.076216578645
 21
-1194.6693217090069
 31
0.0
  0
LINE
  5
C7C7
  8
01
  6
BYBLOCK
 10
1139.772884472646
 20
-1197.269321709007
 30
0.0
 11
1139.772884472646
 21
-1194.6693217090069
 31
0.0
  0
LINE
  5
C7C8
  8
01
  6
BYBLOCK
 10
1139.076216578645
 20
-1170.676751390409
 30
0.0
 11
1139.772884472646
 21
-1168.0767513904091
 31
0.0
  0
LINE
  5
C7C9
  8
01
  6
BYBLOCK
 10
1139.772884472646
 20
-1168.0767513904091
 30
0.0
 11
1140.469552366646
 21
-1170.676751390409
 31
0.0
  0
LINE
  5
C7CA
  8
01
  6
BYBLOCK
 10
1139.772884472646
 20
-1168.0767513904091
 30
0.0
 11
1139.772884472646
 21
-1170.676751390409
 31
0.0
  0
TEXT
  5
C7CB
  8
01
 10
1148.8628844726461
 20
-1196.9017513904089
 30
0.0
 40
4.5499999999999989
  1
49
 50
90.0
  0
LINE
  5
C7CC
  8
01
  6
BYBLOCK
 10
1150.4695523666451
 20
-1214.676751390409
 30
0.0
 11
1149.772884472646
 21
-1217.2767513904089
 31
0.0
  0
LINE
  5
C7CD
  8
01
  6
BYBLOCK
 10
1149.772884472646
 20
-1217.2767513904089
 30
0.0
 11
1149.076216578645
 21
-1214.676751390409
 31
0.0
  0
LINE
  5
C7CE
  8
01
  6
BYBLOCK
 10
1149.772884472646
 20
-1217.2767513904089
 30
0.0
 11
1149.772884472646
 21
-1214.676751390409
 31
0.0
  0
LINE
  5
C7CF
  8
01
  6
BYBLOCK
 10
1149.076216578645
 20
-1170.676751390409
 30
0.0
 11
1149.772884472646
 21
-1168.0767513904091
 31
0.0
  0
LINE
  5
C7D0
  8
01
  6
BYBLOCK
 10
1149.772884472646
 20
-1168.0767513904091
 30
0.0
 11
1150.4695523666451
 21
-1170.676751390409
 31
0.0
  0
LINE
  5
C7D1
  8
01
  6
BYBLOCK
 10
1149.772884472646
 20
-1168.0767513904091
 30
0.0
 11
1149.772884472646
 21
-1170.676751390409
 31
0.0
  0
TEXT
  5
C7D2
  8
01
 10
1138.8627681990049
 20
-1422.4100847227139
 30
0.0
 40
4.5499999999999989
  1
22
 50
90.0
  0
LINE
  5
C7D3
  8
01
  6
BYBLOCK
 10
1140.469436093005
 20
-1426.476751389381
 30
0.0
 11
1139.772768199005
 21
-1429.07675138938
 31
0.0
  0
LINE
  5
C7D4
  8
01
  6
BYBLOCK
 10
1139.772768199005
 20
-1429.07675138938
 30
0.0
 11
1139.076100305005
 21
-1426.476751389381
 31
0.0
  0
LINE
  5
C7D5
  8
01
  6
BYBLOCK
 10
1139.772768199005
 20
-1429.07675138938
 30
0.0
 11
1139.772768199005
 21
-1426.476751389381
 31
0.0
  0
LINE
  5
C7D6
  8
01
  6
BYBLOCK
 10
1139.076100305005
 20
-1409.6767513893799
 30
0.0
 11
1139.772768199005
 21
-1407.0767513893809
 31
0.0
  0
LINE
  5
C7D7
  8
01
  6
BYBLOCK
 10
1139.772768199005
 20
-1407.0767513893809
 30
0.0
 11
1140.469436093005
 21
-1409.6767513893799
 31
0.0
  0
LINE
  5
C7D8
  8
01
  6
BYBLOCK
 10
1139.772768199005
 20
-1407.0767513893809
 30
0.0
 11
1139.772768199005
 21
-1409.6767513893799
 31
0.0
  0
TEXT
  5
C7D9
  8
01
 10
607.09268516632437
 20
-1397.4100847227139
 30
0.0
 40
4.5499999999999989
  1
50
 50
90.0
  0
LINE
  5
C7DA
  8
01
  6
BYBLOCK
 10
607.30601727232408
 20
-1370.6767513893799
 30
0.0
 11
608.00268516632423
 21
-1368.0767513893809
 31
0.0
  0
LINE
  5
C7DB
  8
01
  6
BYBLOCK
 10
608.00268516632423
 20
-1368.0767513893809
 30
0.0
 11
608.69935306032426
 21
-1370.6767513893799
 31
0.0
  0
LINE
  5
C7DC
  8
01
  6
BYBLOCK
 10
608.00268516632423
 20
-1368.0767513893809
 30
0.0
 11
608.00268516632423
 21
-1370.6767513893799
 31
0.0
  0
LINE
  5
C7DD
  8
01
  6
BYBLOCK
 10
608.69935306032426
 20
-1415.476751389381
 30
0.0
 11
608.00268516632423
 21
-1418.0767513893809
 31
0.0
  0
LINE
  5
C7DE
  8
01
  6
BYBLOCK
 10
608.00268516632423
 20
-1418.0767513893809
 30
0.0
 11
607.30601727232408
 21
-1415.476751389381
 31
0.0
  0
LINE
  5
C7DF
  8
01
  6
BYBLOCK
 10
608.00268516632423
 20
-1418.0767513893809
 30
0.0
 11
608.00268516632423
 21
-1415.476751389381
 31
0.0
  0
TEXT
  5
C7E0
  8
01
 10
597.09268516632449
 20
-1397.9100847227139
 30
0.0
 40
4.5499999999999989
  1
55.5
 50
90.0
  0
LINE
  5
C7E1
  8
01
  6
BYBLOCK
 10
597.3060172723242
 20
-1365.1767513893799
 30
0.0
 11
598.00268516632423
 21
-1362.57675138938
 31
0.0
  0
LINE
  5
C7E2
  8
01
  6
BYBLOCK
 10
598.00268516632423
 20
-1362.57675138938
 30
0.0
 11
598.69935306032426
 21
-1365.1767513893799
 31
0.0
  0
LINE
  5
C7E3
  8
01
  6
BYBLOCK
 10
598.00268516632423
 20
-1362.57675138938
 30
0.0
 11
598.00268516632423
 21
-1365.1767513893799
 31
0.0
  0
LINE
  5
C7E4
  8
01
  6
BYBLOCK
 10
598.69935306032426
 20
-1415.476751389381
 30
0.0
 11
598.00268516632423
 21
-1418.0767513893809
 31
0.0
  0
LINE
  5
C7E5
  8
01
  6
BYBLOCK
 10
598.00268516632423
 20
-1418.0767513893809
 30
0.0
 11
597.3060172723242
 21
-1415.476751389381
 31
0.0
  0
LINE
  5
C7E6
  8
01
  6
BYBLOCK
 10
598.00268516632423
 20
-1418.0767513893809
 30
0.0
 11
598.00268516632423
 21
-1415.476751389381
 31
0.0
  0
TEXT
  5
C7E7
  8
01
 10
798.85414304729295
 20
-1311.1667513893799
 30
0.0
 40
4.5499999999999989
  1
22
  0
LINE
  5
C7E8
  8
01
  6
BYBLOCK
 10
794.78728359492845
 20
-1312.7734192833809
 30
0.0
 11
792.18728359492843
 21
-1312.07675138938
 31
0.0
  0
LINE
  5
C7E9
  8
01
  6
BYBLOCK
 10
792.18728359492843
 20
-1312.07675138938
 30
0.0
 11
794.78728359492845
 21
-1311.3800834953811
 31
0.0
  0
LINE
  5
C7EA
  8
01
  6
BYBLOCK
 10
792.18728359492843
 20
-1312.07675138938
 30
0.0
 11
794.78728359492845
 21
-1312.07675138938
 31
0.0
  0
LINE
  5
C7EB
  8
01
  6
BYBLOCK
 10
811.58766916632419
 20
-1311.3800834953811
 30
0.0
 11
814.18766916632421
 21
-1312.07675138938
 31
0.0
  0
LINE
  5
C7EC
  8
01
  6
BYBLOCK
 10
814.18766916632421
 20
-1312.07675138938
 30
0.0
 11
811.58766916632419
 21
-1312.7734192833809
 31
0.0
  0
LINE
  5
C7ED
  8
01
  6
BYBLOCK
 10
814.18766916632421
 20
-1312.07675138938
 30
0.0
 11
811.58766916632419
 21
-1312.07675138938
 31
0.0
  0
TEXT
  5
C7EE
  8
01
 10
856.02088749898019
 20
-1311.1667513893799
 30
0.0
 40
4.5499999999999989
  1
8
  0
LINE
  5
C7EF
  8
01
  6
BYBLOCK
 10
859.58743917064817
 20
-1311.3800834953811
 30
0.0
 11
862.18743917064819
 21
-1312.07675138938
 31
0.0
  0
LINE
  5
C7F0
  8
01
  6
BYBLOCK
 10
862.18743917064819
 20
-1312.07675138938
 30
0.0
 11
859.58743917064817
 21
-1312.7734192833809
 31
0.0
  0
LINE
  5
C7F1
  8
01
  6
BYBLOCK
 10
862.18743917064819
 20
-1312.07675138938
 30
0.0
 11
859.58743917064817
 21
-1312.07675138938
 31
0.0
  0
LINE
  5
C7F2
  8
01
  6
BYBLOCK
 10
856.78766916632424
 20
-1312.7734192833809
 30
0.0
 11
854.18766916632421
 21
-1312.07675138938
 31
0.0
  0
LINE
  5
C7F3
  8
01
  6
BYBLOCK
 10
854.18766916632421
 20
-1312.07675138938
 30
0.0
 11
856.78766916632424
 21
-1311.3800834953811
 31
0.0
  0
LINE
  5
C7F4
  8
01
  6
BYBLOCK
 10
854.18766916632421
 20
-1312.07675138938
 30
0.0
 11
856.78766916632424
 21
-1312.07675138938
 31
0.0
  0
TEXT
  5
C7F5
  8
01
 10
1048.2776651663239
 20
-1386.0465449656899
 30
0.0
 40
4.5499999999999989
  1
74.5
 50
90.0
  0
LINE
  5
C7F6
  8
01
  6
BYBLOCK
 10
1049.884333060324
 20
-1431.476751389381
 30
0.0
 11
1049.187665166324
 21
-1434.0767513893809
 31
0.0
  0
LINE
  5
C7F7
  8
01
  6
BYBLOCK
 10
1049.187665166324
 20
-1434.0767513893809
 30
0.0
 11
1048.490997272324
 21
-1431.476751389381
 31
0.0
  0
LINE
  5
C7F8
  8
01
  6
BYBLOCK
 10
1049.187665166324
 20
-1434.0767513893809
 30
0.0
 11
1049.187665166324
 21
-1431.476751389381
 31
0.0
  0
LINE
  5
C7F9
  8
01
  6
BYBLOCK
 10
1048.490997272324
 20
-1362.176751389381
 30
0.0
 11
1049.187665166324
 21
-1359.5767513893809
 31
0.0
  0
LINE
  5
C7FA
  8
01
  6
BYBLOCK
 10
1049.187665166324
 20
-1359.5767513893809
 30
0.0
 11
1049.884333060324
 21
-1362.176751389381
 31
0.0
  0
LINE
  5
C7FB
  8
01
  6
BYBLOCK
 10
1049.187665166324
 20
-1359.5767513893809
 30
0.0
 11
1049.187665166324
 21
-1362.176751389381
 31
0.0
  0
LINE
  5
C7FC
  8
01
 10
1001.876728294392
 20
-1187.5726625489849
 30
0.0
 11
976.94082625934129
 21
-1206.9867513904101
 31
0.0
1001
ACAD
1000
DSTYLE
1002
{
1070
    40
1040
1.3
1002
}
  0
LINE
  5
C7FD
  8
01
 10
976.94082625934129
 20
-1206.9867513904101
 30
0.0
 11
973.43082625934142
 21
-1206.9867513904101
 31
0.0
1001
ACAD
1000
DSTYLE
1002
{
1070
    40
1040
1.3
1002
}
  0
TEXT
  5
C7FE
  8
01
 10
1043.1389401080969
 20
-1155.660084723743
 30
0.0
 40
4.5499999999999989
  1
20.5
 50
90.0
  0
LINE
  5
C7FF
  8
01
  6
BYBLOCK
 10
1044.7456080020979
 20
-1155.7267513904089
 30
0.0
 11
1044.0489401080979
 21
-1158.3267513904091
 31
0.0
  0
LINE
  5
C800
  8
01
  6
BYBLOCK
 10
1044.0489401080979
 20
-1158.3267513904091
 30
0.0
 11
1043.352272214097
 21
-1155.7267513904089
 31
0.0
  0
LINE
  5
C801
  8
01
  6
BYBLOCK
 10
1044.0489401080979
 20
-1158.3267513904091
 30
0.0
 11
1044.0489401080979
 21
-1155.7267513904089
 31
0.0
  0
LINE
  5
C802
  8
01
  6
BYBLOCK
 10
1043.352272214097
 20
-1140.426751390409
 30
0.0
 11
1044.0489401080979
 21
-1137.8267513904091
 31
0.0
  0
LINE
  5
C803
  8
01
  6
BYBLOCK
 10
1044.0489401080979
 20
-1137.8267513904091
 30
0.0
 11
1044.7456080020979
 21
-1140.426751390409
 31
0.0
  0
LINE
  5
C804
  8
01
  6
BYBLOCK
 10
1044.0489401080979
 20
-1137.8267513904091
 30
0.0
 11
1044.0489401080979
 21
-1140.426751390409
 31
0.0
  0
TEXT
  5
C805
  8
01
 10
968.2776651663246
 20
-1426.4581640182021
 30
0.0
 40
4.5499999999999989
  1
□53
 50
90.0
  0
LINE
  5
C806
  8
01
  6
BYBLOCK
 10
969.88433306032437
 20
-1441.9767513893819
 30
0.0
 11
969.18766516632445
 21
-1444.576751389382
 31
0.0
  0
LINE
  5
C807
  8
01
  6
BYBLOCK
 10
969.18766516632445
 20
-1444.576751389382
 30
0.0
 11
968.49099727232453
 21
-1441.9767513893819
 31
0.0
  0
LINE
  5
C808
  8
01
  6
BYBLOCK
 10
969.18766516632445
 20
-1444.576751389382
 30
0.0
 11
969.18766516632445
 21
-1441.9767513893819
 31
0.0
  0
LINE
  5
C809
  8
01
  6
BYBLOCK
 10
968.49099727232453
 20
-1394.1767513893819
 30
0.0
 11
969.18766516632445
 21
-1391.576751389382
 31
0.0
  0
LINE
  5
C80A
  8
01
  6
BYBLOCK
 10
969.18766516632445
 20
-1391.576751389382
 30
0.0
 11
969.88433306032437
 21
-1394.1767513893819
 31
0.0
  0
LINE
  5
C80B
  8
01
  6
BYBLOCK
 10
969.18766516632445
 20
-1391.576751389382
 30
0.0
 11
969.18766516632445
 21
-1394.1767513893819
 31
0.0
  0
VIEWPORT
  5
57
 67
     1
  8
0
 10
100.7194632710352
 20
17.565658765306811
 30
0.0
 40
617.81331192839173
 41
283.77526700439688
 68
     1
 69
     1
1001
ACAD
1000
MVIEW
1002
{
1070
    16
1010
0.0
1020
0.0
1030
0.0
1010
0.0
1020
0.0
1030
1.0
1040
0.0
1040
283.77526700439688
1040
100.7194632710352
1040
17.565658765306811
1040
50.0
1040
0.0
1040
0.0
1070
     0
1070
   100
1070
     1
1070
     1
1070
     0
1070
     0
1070
     0
1070
     0
1040
0.0
1040
0.0
1040
0.0
1040
10.0
1040
10.0
1040
10.0
1040
10.0
1070
     0
1002
{
1002
}
1002
}
  0
ENDSEC
  0
EOF
