  0
SECTION
  2
HEADER
  9
$ACADVER
  1
AC1009
  9
$INSBASE
 10
0.0
 20
0.0
 30
0.0
  9
$EXTMIN
 10
550.13638109049134
 20
-1468.070021597744
 30
0.0
  9
$EXTMAX
 10
1139.5390483683241
 20
-1049.6840815987721
 30
0.0
  9
$LIMMIN
 10
0.0
 20
0.0
  9
$LIMMAX
 10
420.0
 20
297.0
  9
$ORTHOMODE
 70
     0
  9
$REGENMODE
 70
     1
  9
$FILLMODE
 70
     1
  9
$QTEXTMODE
 70
     0
  9
$MIRRTEXT
 70
     0
  9
$DRAGMODE
 70
     2
  9
$LTSCALE
 40
0.5
  9
$OSMODE
 70
  2175
  9
$ATTMODE
 70
     1
  9
$TEXTSIZE
 40
4.0
  9
$TRACEWID
 40
1.0
  9
$TEXTSTYLE
  7
STANDARD
  9
$CLAYER
  8
1TEXT
  9
$CELTYPE
  6
BYLAYER
  9
$CECOLOR
 62
   256
  9
$DIMSCALE
 40
1.0
  9
$DIMASZ
 40
2.0
  9
$DIMEXO
 40
0.0
  9
$DIMDLI
 40
7.0
  9
$DIMRND
 40
0.0
  9
$DIMDLE
 40
0.0
  9
$DIMEXE
 40
1.0
  9
$DIMTP
 40
0.0
  9
$DIMTM
 40
0.0
  9
$DIMTXT
 40
3.5
  9
$DIMCEN
 40
0.0
  9
$DIMTSZ
 40
0.0
  9
$DIMTOL
 70
     0
  9
$DIMLIM
 70
     0
  9
$DIMTIH
 70
     0
  9
$DIMTOH
 70
     0
  9
$DIMSE1
 70
     0
  9
$DIMSE2
 70
     0
  9
$DIMTAD
 70
     1
  9
$DIMZIN
 70
     8
  9
$DIMBLK
  1

  9
$DIMASO
 70
     1
  9
$DIMSHO
 70
     1
  9
$DIMPOST
  1
 
  9
$DIMAPOST
  1

  9
$DIMALT
 70
     0
  9
$DIMALTD
 70
     2
  9
$DIMALTF
 40
25.399999999999999
  9
$DIMLFAC
 40
1.0
  9
$DIMTOFL
 70
     1
  9
$DIMTVP
 40
0.0
  9
$DIMTIX
 70
     0
  9
$DIMSOXD
 70
     0
  9
$DIMSAH
 70
     1
  9
$DIMBLK1
  1
OPEN30
  9
$DIMBLK2
  1
OPEN30
  9
$DIMSTYLE
  2
NEWX10
  9
$DIMCLRD
 70
   256
  9
$DIMCLRE
 70
   256
  9
$DIMCLRT
 70
   201
  9
$DIMTFAC
 40
0.7
  9
$DIMGAP
 40
0.7
  9
$LUNITS
 70
     2
  9
$LUPREC
 70
     4
  9
$SKETCHINC
 40
1.0
  9
$FILLETRAD
 40
0.0
  9
$AUNITS
 70
     0
  9
$AUPREC
 70
     2
  9
$MENU
  1
acad
  9
$ELEVATION
 40
0.0
  9
$PELEVATION
 40
0.0
  9
$THICKNESS
 40
0.0
  9
$LIMCHECK
 70
     0
  9
$BLIPMODE
 70
     0
  9
$CHAMFERA
 40
10.0
  9
$CHAMFERB
 40
10.0
  9
$SKPOLY
 70
     0
  9
$TDCREATE
 40
2451318.621352917
  9
$TDUPDATE
 40
2456016.7707056492
  9
$TDINDWG
 40
0.4683346991
  9
$TDUSRTIMER
 40
0.4683346991
  9
$USRTIMER
 70
     1
  9
$ANGBASE
 50
0.0
  9
$ANGDIR
 70
     0
  9
$PDMODE
 70
     0
  9
$PDSIZE
 40
0.0
  9
$PLINEWID
 40
0.0
  9
$COORDS
 70
     2
  9
$SPLFRAME
 70
     0
  9
$SPLINETYPE
 70
     6
  9
$SPLINESEGS
 70
     8
  9
$ATTDIA
 70
     0
  9
$ATTREQ
 70
     1
  9
$HANDLING
 70
     1
  9
$HANDSEED
  5
C53D
  9
$SURFTAB1
 70
     6
  9
$SURFTAB2
 70
     6
  9
$SURFTYPE
 70
     6
  9
$SURFU
 70
     6
  9
$SURFV
 70
     6
  9
$UCSNAME
  2

  9
$UCSORG
 10
0.0
 20
0.0
 30
0.0
  9
$UCSXDIR
 10
1.0
 20
0.0
 30
0.0
  9
$UCSYDIR
 10
0.0
 20
1.0
 30
0.0
  9
$PUCSNAME
  2

  9
$PUCSORG
 10
0.0
 20
0.0
 30
0.0
  9
$PUCSXDIR
 10
1.0
 20
0.0
 30
0.0
  9
$PUCSYDIR
 10
0.0
 20
1.0
 30
0.0
  9
$USERI1
 70
     0
  9
$USERI2
 70
     0
  9
$USERI3
 70
     0
  9
$USERI4
 70
     0
  9
$USERI5
 70
     0
  9
$USERR1
 40
0.0
  9
$USERR2
 40
0.0
  9
$USERR3
 40
0.0
  9
$USERR4
 40
0.0
  9
$USERR5
 40
0.0
  9
$WORLDVIEW
 70
     1
  9
$SHADEDGE
 70
     3
  9
$SHADEDIF
 70
    70
  9
$TILEMODE
 70
     1
  9
$MAXACTVP
 70
    48
  9
$PLIMCHECK
 70
     0
  9
$PEXTMIN
 10
1.0000000000000000E+020
 20
1.0000000000000000E+020
 30
1.0000000000000000E+020
  9
$PEXTMAX
 10
-1.0000000000000000E+020
 20
-1.0000000000000000E+020
 30
-1.0000000000000000E+020
  9
$PLIMMIN
 10
0.0
 20
0.0
  9
$PLIMMAX
 10
420.0
 20
297.0
  9
$UNITMODE
 70
     0
  9
$VISRETAIN
 70
     1
  9
$PLINEGEN
 70
     0
  9
$PSLTSCALE
 70
     1
  0
ENDSEC
  0
SECTION
  2
TABLES
  0
TABLE
  2
VPORT
 70
     1
  0
VPORT
  2
*ACTIVE
 70
     0
 10
0.0
 20
0.0
 11
1.0
 21
1.0
 12
844.84746516398252
 22
-1258.8557859756529
 13
0.0
 23
0.0
 14
10.0
 24
10.0
 15
10.0
 25
10.0
 16
0.0
 26
0.0
 36
1.0
 17
0.0
 27
0.0
 37
0.0
 40
444.16085930979818
 41
1.5395095367847409
 42
50.0
 43
0.0
 44
0.0
 50
0.0
 51
0.0
 71
     0
 72
   100
 73
     1
 74
     1
 75
     0
 76
     0
 77
     0
 78
     0
  0
ENDTAB
  0
TABLE
  2
LTYPE
 70
    12
  0
LTYPE
  2
CONTINUOUS
 70
     0
  3
Solid line
 72
    65
 73
     0
 40
0.0
  0
LTYPE
  2
XREF1|CENTER2
 70
    48
  3
Center (.5x) ___ _ ___ _ ___ _ ___ _ ___ _ ___
 72
    65
 73
     4
 40
28.574999999999999
 49
19.050000000000001
 49
-3.1749999999999989
 49
3.1749999999999989
 49
-3.1749999999999989
  0
LTYPE
  2
A3WAKUDAKE|CENTER2
 70
    48
  3
Center (.5x) ___ _ ___ _ ___ _ ___ _ ___ _ ___
 72
    65
 73
     4
 40
28.574999999999999
 49
19.050000000000001
 49
-3.1749999999999989
 49
3.1749999999999989
 49
-3.1749999999999989
  0
ENDTAB
  0
TABLE
  2
LAYER
 70
    36
  0
LAYER
  2
0
 70
     0
 62
     7
  6
CONTINUOUS
  0
LAYER
  2
1TEXT
 70
     0
 62
     7
  6
CONTINUOUS
  0
LAYER
  2
01
 70
     0
 62
     1
  6
CONTINUOUS
  0
LAYER
  2
A3WAKUDAKE|THICK
 70
    48
 62
     7
  6
CONTINUOUS
  0
LAYER
  2
A3WAKUDAKE|POINT
 70
    48
 62
     7
  6
CONTINUOUS
  0
LAYER
  2
A3WAKUDAKE|1CENTER
 70
    48
 62
     7
  6
A3WAKUDAKE|CENTER2
  0
LAYER
  2
A3WAKUDAKE|0-6
 70
    48
 62
     7
  6
CONTINUOUS
  0
LAYER
  2
A3WAKUDAKE|1DIM
 70
    48
 62
     7
  6
CONTINUOUS
  0
LAYER
  2
XREF1|1CENTER
 70
    48
 62
     7
  6
XREF1|CENTER2
  0
ENDTAB
  0
TABLE
  2
STYLE
 70
     4
  0
STYLE
  2
STANDARD
 70
     0
 40
0.0
 41
1.0
 50
0.0
 71
     0
 42
4.0
  3
romans.shx
  4
extfont.shx
  0
ENDTAB
  0
TABLE
  2
VIEW
 70
     5
  0
ENDTAB
  0
TABLE
  2
UCS
 70
     0
  0
ENDTAB
  0
TABLE
  2
APPID
 70
     9
  0
APPID
  2
ACAD
 70
     0
  0
APPID
  2
DRAWINGVARIABLESXDATA
 70
     0
  0
APPID
  2
CONTENTTABDATA
 70
     0
  0
APPID
  2
CONTENTCURRENTTAB
 70
     0
  0
APPID
  2
CONTENTBLOCKDESCRIPTION
 70
     0
  0
APPID
  2
CONTENTBLOCKICON
 70
     0
  0
APPID
  2
CONTENTLONGBLOCKNAME
 70
     0
  0
APPID
  2
ACAD_PSEXT
 70
     0
  0
APPID
  2
ACAD_MLEADERVER
 70
     0
  0
ENDTAB
  0
TABLE
  2
DIMSTYLE
 70
     5
  0
DIMSTYLE
  2
NEWX10
 70
     0
  3
 
  4

  5

  6
OPEN30
  7
OPEN30
 40
1.0
 41
2.0
 42
0.0
 43
7.0
 44
1.0
 45
0.0
 46
0.0
 47
0.0
 48
0.0
140
3.5
141
0.0
142
0.0
143
25.399999999999999
144
1.0
145
0.0
146
0.7
147
0.7
 71
     0
 72
     0
 73
     0
 74
     0
 75
     0
 76
     0
 77
     1
 78
     8
170
     0
171
     2
172
     1
173
     1
174
     0
175
     0
176
   256
177
   256
178
   201
  0
ENDTAB
  0
ENDSEC
  0
SECTION
  2
BLOCKS
  0
BLOCK
  8
0
  2
$MODEL_SPACE
 70
     0
 10
0.0
 20
0.0
 30
0.0
  3
$MODEL_SPACE
  1

  0
ENDBLK
  5
1A
  8
0
  0
BLOCK
 67
     1
  8
0
  2
$PAPER_SPACE
 70
     0
 10
0.0
 20
0.0
 30
0.0
  3
$PAPER_SPACE
  1

  0
ENDBLK
  5
17
 67
     1
  8
0
  0
BLOCK
  8
0
  2
_OPEN30
 70
     0
 10
0.0
 20
0.0
 30
0.0
  3
_OPEN30
  1

  0
LINE
  5
44
  8
0
  6
BYBLOCK
 62
     0
 10
-1.0
 20
0.26794919
 30
0.0
 11
0.0
 21
0.0
 31
0.0
  0
LINE
  5
45
  8
0
  6
BYBLOCK
 62
     0
 10
0.0
 20
0.0
 30
0.0
 11
-1.0
 21
-0.26794919
 31
0.0
  0
LINE
  5
46
  8
0
  6
BYBLOCK
 62
     0
 10
0.0
 20
0.0
 30
0.0
 11
-1.0
 21
0.0
 31
0.0
  0
ENDBLK
  5
47
  8
0
  0
BLOCK
  8
0
  2
XREF1
 70
    36
 10
0.0
 20
0.0
 30
0.0
  3
XREF1
  1
D:\ACLT\FORMAT\KAWAJUN(9)図面用.dwg
  0
ENDBLK
  5
5D
  8
0
  0
BLOCK
  8
0
  2
A3WAKUDAKE
 70
    36
 10
0.0
 20
0.0
 30
0.0
  3
A3WAKUDAKE
  1
D:\ACLT\FORMAT\A3WAKUdake.dwg
  0
ENDBLK
  5
6A0
  8
0
  0
BLOCK
  8
0
  2
*U26
 70
     1
 10
0.0
 20
0.0
 30
0.0
  3
*U26
  1

  0
TEXT
  5
C01C
  8
1TEXT
 62
   201
 10
1043.3489401080969
 20
-1145.567414932106
 30
0.0
 40
3.5
  1
20.5
 50
90.0
  0
ENDBLK
  5
C01E
  8
0
  0
BLOCK
  8
0
  2
*U27
 70
     1
 10
0.0
 20
0.0
 30
0.0
  3
*U27
  1

  0
TEXT
  5
C020
  8
1TEXT
 62
   201
 10
1043.1389401080969
 20
-397.31741493210592
 30
0.0
 40
4.5499999999999989
  1
20.5
 50
90.0
  0
ENDBLK
  5
C022
  8
0
  0
ENDSEC
  0
SECTION
  2
ENTITIES
  0
LINE
  5
21EB
  8
01
 10
854.18766916632353
 20
-1320.7367015977429
 30
0.0
 11
854.18766916632353
 21
-1468.070021597744
 31
0.0
  0
LINE
  5
21EC
  8
01
 10
814.18766916632353
 20
-1320.7367015977429
 30
0.0
 11
814.18766916632353
 21
-1468.070021597744
 31
0.0
  0
LINE
  5
21ED
  8
01
 10
712.78767516632411
 20
-1327.2340815977441
 30
0.0
 11
712.78767516632411
 21
-1350.3340515977429
 31
0.0
  0
LINE
  5
21EE
  8
01
 10
711.18766916632353
 20
-1327.2340815977441
 30
0.0
 11
711.18766916632353
 21
-1350.2340815977441
 31
0.0
  0
LINE
  5
21EF
  8
01
 10
713.58767816632439
 20
-1327.2340815977441
 30
0.0
 11
713.58767816632439
 21
-1457.2340815977441
 31
0.0
  0
LINE
  5
21F0
  8
01
 10
715.18766916632353
 20
-1327.2340815977441
 30
0.0
 11
715.18766916632353
 21
-1457.2340815977441
 31
0.0
  0
LINE
  5
21F2
  8
01
 10
712.18766916632353
 20
-1429.2340815977441
 30
0.0
 11
683.39704587862275
 21
-1429.2340815977441
 31
0.0
  0
LINE
  5
21F3
  8
01
 10
646.1876851663236
 20
-1365.9827590917209
 30
0.0
 11
646.1876851663236
 21
-1395.8847175748231
 31
0.0
  0
LINE
  5
21F4
  8
01
 10
721.18766916632171
 20
-1381.2340815977441
 30
0.0
 11
715.18766916632353
 21
-1381.2340815977441
 31
0.0
  0
LINE
  5
21F5
  8
01
 10
726.18766916632353
 20
-1386.2340815977441
 30
0.0
 11
716.18766916632353
 21
-1386.2340815977441
 31
0.0
  0
POLYLINE
  5
21F6
  8
01
 10
726.18766916632353
 20
-1384.8025015977439
 30
0.0
 66
     1
 70
     8
  0
VERTEX
  8
01
  5
C029
 10
726.188
 20
-1384.80
 30
0.000000
  70
    32
  0
VERTEX
  8
01
  5
C02A
 10
726.186
 20
-1384.71
 30
0.000000
  70
    32
  0
VERTEX
  8
01
  5
C02B
 10
726.182
 20
-1384.63
 30
0.000000
  70
    32
  0
VERTEX
  8
01
  5
C02C
 10
726.174
 20
-1384.54
 30
0.000000
  70
    32
  0
VERTEX
  8
01
  5
C02D
 10
726.164
 20
-1384.45
 30
0.000000
  70
    32
  0
VERTEX
  8
01
  5
C02E
 10
726.150
 20
-1384.37
 30
0.000000
  70
    32
  0
VERTEX
  8
01
  5
C02F
 10
726.134
 20
-1384.28
 30
0.000000
  70
    32
  0
VERTEX
  8
01
  5
C030
 10
726.114
 20
-1384.19
 30
0.000000
  70
    32
  0
VERTEX
  8
01
  5
C031
 10
726.092
 20
-1384.11
 30
0.000000
  70
    32
  0
VERTEX
  8
01
  5
C032
 10
726.066
 20
-1384.02
 30
0.000000
  70
    32
  0
VERTEX
  8
01
  5
C033
 10
726.038
 20
-1383.94
 30
0.000000
  70
    32
  0
VERTEX
  8
01
  5
C034
 10
726.007
 20
-1383.85
 30
0.000000
  70
    32
  0
VERTEX
  8
01
  5
C035
 10
725.972
 20
-1383.77
 30
0.000000
  70
    32
  0
VERTEX
  8
01
  5
C036
 10
725.935
 20
-1383.68
 30
0.000000
  70
    32
  0
VERTEX
  8
01
  5
C037
 10
725.895
 20
-1383.60
 30
0.000000
  70
    32
  0
VERTEX
  8
01
  5
C038
 10
725.853
 20
-1383.52
 30
0.000000
  70
    32
  0
VERTEX
  8
01
  5
C039
 10
725.807
 20
-1383.44
 30
0.000000
  70
    32
  0
VERTEX
  8
01
  5
C03A
 10
725.759
 20
-1383.36
 30
0.000000
  70
    32
  0
VERTEX
  8
01
  5
C03B
 10
725.708
 20
-1383.28
 30
0.000000
  70
    32
  0
VERTEX
  8
01
  5
C03C
 10
725.654
 20
-1383.20
 30
0.000000
  70
    32
  0
VERTEX
  8
01
  5
C03D
 10
725.597
 20
-1383.12
 30
0.000000
  70
    32
  0
VERTEX
  8
01
  5
C03E
 10
725.538
 20
-1383.04
 30
0.000000
  70
    32
  0
VERTEX
  8
01
  5
C03F
 10
725.476
 20
-1382.97
 30
0.000000
  70
    32
  0
VERTEX
  8
01
  5
C040
 10
725.412
 20
-1382.89
 30
0.000000
  70
    32
  0
VERTEX
  8
01
  5
C041
 10
725.345
 20
-1382.82
 30
0.000000
  70
    32
  0
VERTEX
  8
01
  5
C042
 10
725.276
 20
-1382.75
 30
0.000000
  70
    32
  0
VERTEX
  8
01
  5
C043
 10
725.204
 20
-1382.68
 30
0.000000
  70
    32
  0
VERTEX
  8
01
  5
C044
 10
725.129
 20
-1382.61
 30
0.000000
  70
    32
  0
VERTEX
  8
01
  5
C045
 10
725.053
 20
-1382.54
 30
0.000000
  70
    32
  0
VERTEX
  8
01
  5
C046
 10
724.974
 20
-1382.47
 30
0.000000
  70
    32
  0
VERTEX
  8
01
  5
C047
 10
724.892
 20
-1382.41
 30
0.000000
  70
    32
  0
VERTEX
  8
01
  5
C048
 10
724.809
 20
-1382.34
 30
0.000000
  70
    32
  0
VERTEX
  8
01
  5
C049
 10
724.723
 20
-1382.28
 30
0.000000
  70
    32
  0
VERTEX
  8
01
  5
C04A
 10
724.635
 20
-1382.22
 30
0.000000
  70
    32
  0
VERTEX
  8
01
  5
C04B
 10
724.545
 20
-1382.16
 30
0.000000
  70
    32
  0
VERTEX
  8
01
  5
C04C
 10
724.454
 20
-1382.10
 30
0.000000
  70
    32
  0
VERTEX
  8
01
  5
C04D
 10
724.360
 20
-1382.04
 30
0.000000
  70
    32
  0
VERTEX
  8
01
  5
C04E
 10
724.264
 20
-1381.99
 30
0.000000
  70
    32
  0
VERTEX
  8
01
  5
C04F
 10
724.166
 20
-1381.94
 30
0.000000
  70
    32
  0
VERTEX
  8
01
  5
C050
 10
724.067
 20
-1381.89
 30
0.000000
  70
    32
  0
VERTEX
  8
01
  5
C051
 10
723.966
 20
-1381.84
 30
0.000000
  70
    32
  0
VERTEX
  8
01
  5
C052
 10
723.863
 20
-1381.79
 30
0.000000
  70
    32
  0
VERTEX
  8
01
  5
C053
 10
723.758
 20
-1381.74
 30
0.000000
  70
    32
  0
VERTEX
  8
01
  5
C054
 10
723.652
 20
-1381.70
 30
0.000000
  70
    32
  0
VERTEX
  8
01
  5
C055
 10
723.545
 20
-1381.66
 30
0.000000
  70
    32
  0
VERTEX
  8
01
  5
C056
 10
723.436
 20
-1381.62
 30
0.000000
  70
    32
  0
VERTEX
  8
01
  5
C057
 10
723.325
 20
-1381.58
 30
0.000000
  70
    32
  0
VERTEX
  8
01
  5
C058
 10
723.214
 20
-1381.54
 30
0.000000
  70
    32
  0
VERTEX
  8
01
  5
C059
 10
723.101
 20
-1381.51
 30
0.000000
  70
    32
  0
VERTEX
  8
01
  5
C05A
 10
722.987
 20
-1381.47
 30
0.000000
  70
    32
  0
VERTEX
  8
01
  5
C05B
 10
722.872
 20
-1381.44
 30
0.000000
  70
    32
  0
VERTEX
  8
01
  5
C05C
 10
722.756
 20
-1381.41
 30
0.000000
  70
    32
  0
VERTEX
  8
01
  5
C05D
 10
722.639
 20
-1381.39
 30
0.000000
  70
    32
  0
VERTEX
  8
01
  5
C05E
 10
722.521
 20
-1381.36
 30
0.000000
  70
    32
  0
VERTEX
  8
01
  5
C05F
 10
722.403
 20
-1381.34
 30
0.000000
  70
    32
  0
VERTEX
  8
01
  5
C060
 10
722.283
 20
-1381.32
 30
0.000000
  70
    32
  0
VERTEX
  8
01
  5
C061
 10
722.163
 20
-1381.30
 30
0.000000
  70
    32
  0
VERTEX
  8
01
  5
C062
 10
722.042
 20
-1381.29
 30
0.000000
  70
    32
  0
VERTEX
  8
01
  5
C063
 10
721.921
 20
-1381.27
 30
0.000000
  70
    32
  0
VERTEX
  8
01
  5
C064
 10
721.800
 20
-1381.26
 30
0.000000
  70
    32
  0
VERTEX
  8
01
  5
C065
 10
721.678
 20
-1381.25
 30
0.000000
  70
    32
  0
VERTEX
  8
01
  5
C066
 10
721.555
 20
-1381.24
 30
0.000000
  70
    32
  0
VERTEX
  8
01
  5
C067
 10
721.433
 20
-1381.24
 30
0.000000
  70
    32
  0
VERTEX
  8
01
  5
C068
 10
721.310
 20
-1381.24
 30
0.000000
  70
    32
  0
VERTEX
  8
01
  5
C069
 10
721.188
 20
-1381.23
 30
0.000000
  70
    32
  0
VERTEX
  8
01
  5
C06A
 10
721.065
 20
-1381.24
 30
0.000000
  70
    32
  0
VERTEX
  8
01
  5
C06B
 10
720.942
 20
-1381.24
 30
0.000000
  70
    32
  0
VERTEX
  8
01
  5
C06C
 10
720.820
 20
-1381.24
 30
0.000000
  70
    32
  0
VERTEX
  8
01
  5
C06D
 10
720.698
 20
-1381.25
 30
0.000000
  70
    32
  0
VERTEX
  8
01
  5
C06E
 10
720.576
 20
-1381.26
 30
0.000000
  70
    32
  0
VERTEX
  8
01
  5
C06F
 10
720.454
 20
-1381.27
 30
0.000000
  70
    32
  0
VERTEX
  8
01
  5
C070
 10
720.333
 20
-1381.29
 30
0.000000
  70
    32
  0
VERTEX
  8
01
  5
C071
 10
720.212
 20
-1381.30
 30
0.000000
  70
    32
  0
VERTEX
  8
01
  5
C072
 10
720.092
 20
-1381.32
 30
0.000000
  70
    32
  0
VERTEX
  8
01
  5
C073
 10
719.973
 20
-1381.34
 30
0.000000
  70
    32
  0
VERTEX
  8
01
  5
C074
 10
719.854
 20
-1381.36
 30
0.000000
  70
    32
  0
VERTEX
  8
01
  5
C075
 10
719.736
 20
-1381.39
 30
0.000000
  70
    32
  0
VERTEX
  8
01
  5
C076
 10
719.619
 20
-1381.41
 30
0.000000
  70
    32
  0
VERTEX
  8
01
  5
C077
 10
719.503
 20
-1381.44
 30
0.000000
  70
    32
  0
VERTEX
  8
01
  5
C078
 10
719.388
 20
-1381.47
 30
0.000000
  70
    32
  0
VERTEX
  8
01
  5
C079
 10
719.274
 20
-1381.51
 30
0.000000
  70
    32
  0
VERTEX
  8
01
  5
C07A
 10
719.161
 20
-1381.54
 30
0.000000
  70
    32
  0
VERTEX
  8
01
  5
C07B
 10
719.050
 20
-1381.58
 30
0.000000
  70
    32
  0
VERTEX
  8
01
  5
C07C
 10
718.940
 20
-1381.62
 30
0.000000
  70
    32
  0
VERTEX
  8
01
  5
C07D
 10
718.831
 20
-1381.66
 30
0.000000
  70
    32
  0
VERTEX
  8
01
  5
C07E
 10
718.723
 20
-1381.70
 30
0.000000
  70
    32
  0
VERTEX
  8
01
  5
C07F
 10
718.617
 20
-1381.74
 30
0.000000
  70
    32
  0
VERTEX
  8
01
  5
C080
 10
718.513
 20
-1381.79
 30
0.000000
  70
    32
  0
VERTEX
  8
01
  5
C081
 10
718.410
 20
-1381.84
 30
0.000000
  70
    32
  0
VERTEX
  8
01
  5
C082
 10
718.309
 20
-1381.89
 30
0.000000
  70
    32
  0
VERTEX
  8
01
  5
C083
 10
718.209
 20
-1381.94
 30
0.000000
  70
    32
  0
VERTEX
  8
01
  5
C084
 10
718.112
 20
-1381.99
 30
0.000000
  70
    32
  0
VERTEX
  8
01
  5
C085
 10
718.016
 20
-1382.04
 30
0.000000
  70
    32
  0
VERTEX
  8
01
  5
C086
 10
717.922
 20
-1382.10
 30
0.000000
  70
    32
  0
VERTEX
  8
01
  5
C087
 10
717.830
 20
-1382.16
 30
0.000000
  70
    32
  0
VERTEX
  8
01
  5
C088
 10
717.740
 20
-1382.22
 30
0.000000
  70
    32
  0
VERTEX
  8
01
  5
C089
 10
717.652
 20
-1382.28
 30
0.000000
  70
    32
  0
VERTEX
  8
01
  5
C08A
 10
717.566
 20
-1382.34
 30
0.000000
  70
    32
  0
VERTEX
  8
01
  5
C08B
 10
717.483
 20
-1382.41
 30
0.000000
  70
    32
  0
VERTEX
  8
01
  5
C08C
 10
717.402
 20
-1382.47
 30
0.000000
  70
    32
  0
VERTEX
  8
01
  5
C08D
 10
717.323
 20
-1382.54
 30
0.000000
  70
    32
  0
VERTEX
  8
01
  5
C08E
 10
717.246
 20
-1382.61
 30
0.000000
  70
    32
  0
VERTEX
  8
01
  5
C08F
 10
717.172
 20
-1382.68
 30
0.000000
  70
    32
  0
VERTEX
  8
01
  5
C090
 10
717.100
 20
-1382.75
 30
0.000000
  70
    32
  0
VERTEX
  8
01
  5
C091
 10
717.030
 20
-1382.82
 30
0.000000
  70
    32
  0
VERTEX
  8
01
  5
C092
 10
716.963
 20
-1382.89
 30
0.000000
  70
    32
  0
VERTEX
  8
01
  5
C093
 10
716.899
 20
-1382.97
 30
0.000000
  70
    32
  0
VERTEX
  8
01
  5
C094
 10
716.837
 20
-1383.04
 30
0.000000
  70
    32
  0
VERTEX
  8
01
  5
C095
 10
716.778
 20
-1383.12
 30
0.000000
  70
    32
  0
VERTEX
  8
01
  5
C096
 10
716.722
 20
-1383.20
 30
0.000000
  70
    32
  0
VERTEX
  8
01
  5
C097
 10
716.668
 20
-1383.28
 30
0.000000
  70
    32
  0
VERTEX
  8
01
  5
C098
 10
716.617
 20
-1383.36
 30
0.000000
  70
    32
  0
VERTEX
  8
01
  5
C099
 10
716.568
 20
-1383.44
 30
0.000000
  70
    32
  0
VERTEX
  8
01
  5
C09A
 10
716.523
 20
-1383.52
 30
0.000000
  70
    32
  0
VERTEX
  8
01
  5
C09B
 10
716.480
 20
-1383.60
 30
0.000000
  70
    32
  0
VERTEX
  8
01
  5
C09C
 10
716.440
 20
-1383.68
 30
0.000000
  70
    32
  0
VERTEX
  8
01
  5
C09D
 10
716.403
 20
-1383.77
 30
0.000000
  70
    32
  0
VERTEX
  8
01
  5
C09E
 10
716.369
 20
-1383.85
 30
0.000000
  70
    32
  0
VERTEX
  8
01
  5
C09F
 10
716.338
 20
-1383.94
 30
0.000000
  70
    32
  0
VERTEX
  8
01
  5
C0A0
 10
716.309
 20
-1384.02
 30
0.000000
  70
    32
  0
VERTEX
  8
01
  5
C0A1
 10
716.284
 20
-1384.11
 30
0.000000
  70
    32
  0
VERTEX
  8
01
  5
C0A2
 10
716.261
 20
-1384.19
 30
0.000000
  70
    32
  0
VERTEX
  8
01
  5
C0A3
 10
716.242
 20
-1384.28
 30
0.000000
  70
    32
  0
VERTEX
  8
01
  5
C0A4
 10
716.225
 20
-1384.37
 30
0.000000
  70
    32
  0
VERTEX
  8
01
  5
C0A5
 10
716.212
 20
-1384.45
 30
0.000000
  70
    32
  0
VERTEX
  8
01
  5
C0A6
 10
716.201
 20
-1384.54
 30
0.000000
  70
    32
  0
VERTEX
  8
01
  5
C0A7
 10
716.194
 20
-1384.63
 30
0.000000
  70
    32
  0
VERTEX
  8
01
  5
C0A8
 10
716.189
 20
-1384.71
 30
0.000000
  70
    32
  0
VERTEX
  8
01
  5
C0A9
 10
716.188
 20
-1384.80
 30
0.000000
  70
    32
  0
SEQEND
  8
01
  5
C0AA
  0
LINE
  5
21F7
  8
01
 10
721.18766916632353
 20
-1401.2340815977441
 30
0.0
 11
715.18766916632353
 21
-1401.2340815977441
 31
0.0
  0
LINE
  5
21F8
  8
01
 10
726.18766916632353
 20
-1396.2340815977441
 30
0.0
 11
716.18766916632353
 21
-1396.2340815977441
 31
0.0
  0
POLYLINE
  5
21F9
  8
01
 10
726.18766916632353
 20
-1397.6656615977431
 30
0.0
 66
     1
 70
     8
  0
VERTEX
  8
01
  5
C0AB
 10
726.188
 20
-1397.67
 30
0.000000
  70
    32
  0
VERTEX
  8
01
  5
C0AC
 10
726.186
 20
-1397.75
 30
0.000000
  70
    32
  0
VERTEX
  8
01
  5
C0AD
 10
726.182
 20
-1397.84
 30
0.000000
  70
    32
  0
VERTEX
  8
01
  5
C0AE
 10
726.174
 20
-1397.93
 30
0.000000
  70
    32
  0
VERTEX
  8
01
  5
C0AF
 10
726.164
 20
-1398.02
 30
0.000000
  70
    32
  0
VERTEX
  8
01
  5
C0B0
 10
726.150
 20
-1398.10
 30
0.000000
  70
    32
  0
VERTEX
  8
01
  5
C0B1
 10
726.134
 20
-1398.19
 30
0.000000
  70
    32
  0
VERTEX
  8
01
  5
C0B2
 10
726.114
 20
-1398.28
 30
0.000000
  70
    32
  0
VERTEX
  8
01
  5
C0B3
 10
726.092
 20
-1398.36
 30
0.000000
  70
    32
  0
VERTEX
  8
01
  5
C0B4
 10
726.066
 20
-1398.45
 30
0.000000
  70
    32
  0
VERTEX
  8
01
  5
C0B5
 10
726.038
 20
-1398.53
 30
0.000000
  70
    32
  0
VERTEX
  8
01
  5
C0B6
 10
726.007
 20
-1398.62
 30
0.000000
  70
    32
  0
VERTEX
  8
01
  5
C0B7
 10
725.972
 20
-1398.70
 30
0.000000
  70
    32
  0
VERTEX
  8
01
  5
C0B8
 10
725.935
 20
-1398.79
 30
0.000000
  70
    32
  0
VERTEX
  8
01
  5
C0B9
 10
725.895
 20
-1398.87
 30
0.000000
  70
    32
  0
VERTEX
  8
01
  5
C0BA
 10
725.853
 20
-1398.95
 30
0.000000
  70
    32
  0
VERTEX
  8
01
  5
C0BB
 10
725.807
 20
-1399.03
 30
0.000000
  70
    32
  0
VERTEX
  8
01
  5
C0BC
 10
725.759
 20
-1399.11
 30
0.000000
  70
    32
  0
VERTEX
  8
01
  5
C0BD
 10
725.708
 20
-1399.19
 30
0.000000
  70
    32
  0
VERTEX
  8
01
  5
C0BE
 10
725.654
 20
-1399.27
 30
0.000000
  70
    32
  0
VERTEX
  8
01
  5
C0BF
 10
725.597
 20
-1399.35
 30
0.000000
  70
    32
  0
VERTEX
  8
01
  5
C0C0
 10
725.538
 20
-1399.42
 30
0.000000
  70
    32
  0
VERTEX
  8
01
  5
C0C1
 10
725.476
 20
-1399.50
 30
0.000000
  70
    32
  0
VERTEX
  8
01
  5
C0C2
 10
725.412
 20
-1399.57
 30
0.000000
  70
    32
  0
VERTEX
  8
01
  5
C0C3
 10
725.345
 20
-1399.65
 30
0.000000
  70
    32
  0
VERTEX
  8
01
  5
C0C4
 10
725.276
 20
-1399.72
 30
0.000000
  70
    32
  0
VERTEX
  8
01
  5
C0C5
 10
725.204
 20
-1399.79
 30
0.000000
  70
    32
  0
VERTEX
  8
01
  5
C0C6
 10
725.129
 20
-1399.86
 30
0.000000
  70
    32
  0
VERTEX
  8
01
  5
C0C7
 10
725.053
 20
-1399.93
 30
0.000000
  70
    32
  0
VERTEX
  8
01
  5
C0C8
 10
724.974
 20
-1400.00
 30
0.000000
  70
    32
  0
VERTEX
  8
01
  5
C0C9
 10
724.892
 20
-1400.06
 30
0.000000
  70
    32
  0
VERTEX
  8
01
  5
C0CA
 10
724.809
 20
-1400.13
 30
0.000000
  70
    32
  0
VERTEX
  8
01
  5
C0CB
 10
724.723
 20
-1400.19
 30
0.000000
  70
    32
  0
VERTEX
  8
01
  5
C0CC
 10
724.635
 20
-1400.25
 30
0.000000
  70
    32
  0
VERTEX
  8
01
  5
C0CD
 10
724.545
 20
-1400.31
 30
0.000000
  70
    32
  0
VERTEX
  8
01
  5
C0CE
 10
724.454
 20
-1400.37
 30
0.000000
  70
    32
  0
VERTEX
  8
01
  5
C0CF
 10
724.360
 20
-1400.42
 30
0.000000
  70
    32
  0
VERTEX
  8
01
  5
C0D0
 10
724.264
 20
-1400.48
 30
0.000000
  70
    32
  0
VERTEX
  8
01
  5
C0D1
 10
724.166
 20
-1400.53
 30
0.000000
  70
    32
  0
VERTEX
  8
01
  5
C0D2
 10
724.067
 20
-1400.58
 30
0.000000
  70
    32
  0
VERTEX
  8
01
  5
C0D3
 10
723.966
 20
-1400.63
 30
0.000000
  70
    32
  0
VERTEX
  8
01
  5
C0D4
 10
723.863
 20
-1400.68
 30
0.000000
  70
    32
  0
VERTEX
  8
01
  5
C0D5
 10
723.758
 20
-1400.73
 30
0.000000
  70
    32
  0
VERTEX
  8
01
  5
C0D6
 10
723.652
 20
-1400.77
 30
0.000000
  70
    32
  0
VERTEX
  8
01
  5
C0D7
 10
723.545
 20
-1400.81
 30
0.000000
  70
    32
  0
VERTEX
  8
01
  5
C0D8
 10
723.436
 20
-1400.85
 30
0.000000
  70
    32
  0
VERTEX
  8
01
  5
C0D9
 10
723.325
 20
-1400.89
 30
0.000000
  70
    32
  0
VERTEX
  8
01
  5
C0DA
 10
723.214
 20
-1400.93
 30
0.000000
  70
    32
  0
VERTEX
  8
01
  5
C0DB
 10
723.101
 20
-1400.96
 30
0.000000
  70
    32
  0
VERTEX
  8
01
  5
C0DC
 10
722.987
 20
-1400.99
 30
0.000000
  70
    32
  0
VERTEX
  8
01
  5
C0DD
 10
722.872
 20
-1401.03
 30
0.000000
  70
    32
  0
VERTEX
  8
01
  5
C0DE
 10
722.756
 20
-1401.05
 30
0.000000
  70
    32
  0
VERTEX
  8
01
  5
C0DF
 10
722.639
 20
-1401.08
 30
0.000000
  70
    32
  0
VERTEX
  8
01
  5
C0E0
 10
722.521
 20
-1401.10
 30
0.000000
  70
    32
  0
VERTEX
  8
01
  5
C0E1
 10
722.403
 20
-1401.13
 30
0.000000
  70
    32
  0
VERTEX
  8
01
  5
C0E2
 10
722.283
 20
-1401.15
 30
0.000000
  70
    32
  0
VERTEX
  8
01
  5
C0E3
 10
722.163
 20
-1401.17
 30
0.000000
  70
    32
  0
VERTEX
  8
01
  5
C0E4
 10
722.042
 20
-1401.18
 30
0.000000
  70
    32
  0
VERTEX
  8
01
  5
C0E5
 10
721.921
 20
-1401.20
 30
0.000000
  70
    32
  0
VERTEX
  8
01
  5
C0E6
 10
721.800
 20
-1401.21
 30
0.000000
  70
    32
  0
VERTEX
  8
01
  5
C0E7
 10
721.678
 20
-1401.22
 30
0.000000
  70
    32
  0
VERTEX
  8
01
  5
C0E8
 10
721.555
 20
-1401.22
 30
0.000000
  70
    32
  0
VERTEX
  8
01
  5
C0E9
 10
721.433
 20
-1401.23
 30
0.000000
  70
    32
  0
VERTEX
  8
01
  5
C0EA
 10
721.310
 20
-1401.23
 30
0.000000
  70
    32
  0
VERTEX
  8
01
  5
C0EB
 10
721.188
 20
-1401.23
 30
0.000000
  70
    32
  0
VERTEX
  8
01
  5
C0EC
 10
721.065
 20
-1401.23
 30
0.000000
  70
    32
  0
VERTEX
  8
01
  5
C0ED
 10
720.942
 20
-1401.23
 30
0.000000
  70
    32
  0
VERTEX
  8
01
  5
C0EE
 10
720.820
 20
-1401.22
 30
0.000000
  70
    32
  0
VERTEX
  8
01
  5
C0EF
 10
720.698
 20
-1401.22
 30
0.000000
  70
    32
  0
VERTEX
  8
01
  5
C0F0
 10
720.576
 20
-1401.21
 30
0.000000
  70
    32
  0
VERTEX
  8
01
  5
C0F1
 10
720.454
 20
-1401.20
 30
0.000000
  70
    32
  0
VERTEX
  8
01
  5
C0F2
 10
720.333
 20
-1401.18
 30
0.000000
  70
    32
  0
VERTEX
  8
01
  5
C0F3
 10
720.212
 20
-1401.17
 30
0.000000
  70
    32
  0
VERTEX
  8
01
  5
C0F4
 10
720.092
 20
-1401.15
 30
0.000000
  70
    32
  0
VERTEX
  8
01
  5
C0F5
 10
719.973
 20
-1401.13
 30
0.000000
  70
    32
  0
VERTEX
  8
01
  5
C0F6
 10
719.854
 20
-1401.10
 30
0.000000
  70
    32
  0
VERTEX
  8
01
  5
C0F7
 10
719.736
 20
-1401.08
 30
0.000000
  70
    32
  0
VERTEX
  8
01
  5
C0F8
 10
719.619
 20
-1401.05
 30
0.000000
  70
    32
  0
VERTEX
  8
01
  5
C0F9
 10
719.503
 20
-1401.03
 30
0.000000
  70
    32
  0
VERTEX
  8
01
  5
C0FA
 10
719.388
 20
-1400.99
 30
0.000000
  70
    32
  0
VERTEX
  8
01
  5
C0FB
 10
719.274
 20
-1400.96
 30
0.000000
  70
    32
  0
VERTEX
  8
01
  5
C0FC
 10
719.161
 20
-1400.93
 30
0.000000
  70
    32
  0
VERTEX
  8
01
  5
C0FD
 10
719.050
 20
-1400.89
 30
0.000000
  70
    32
  0
VERTEX
  8
01
  5
C0FE
 10
718.940
 20
-1400.85
 30
0.000000
  70
    32
  0
VERTEX
  8
01
  5
C0FF
 10
718.831
 20
-1400.81
 30
0.000000
  70
    32
  0
VERTEX
  8
01
  5
C100
 10
718.723
 20
-1400.77
 30
0.000000
  70
    32
  0
VERTEX
  8
01
  5
C101
 10
718.617
 20
-1400.73
 30
0.000000
  70
    32
  0
VERTEX
  8
01
  5
C102
 10
718.513
 20
-1400.68
 30
0.000000
  70
    32
  0
VERTEX
  8
01
  5
C103
 10
718.410
 20
-1400.63
 30
0.000000
  70
    32
  0
VERTEX
  8
01
  5
C104
 10
718.309
 20
-1400.58
 30
0.000000
  70
    32
  0
VERTEX
  8
01
  5
C105
 10
718.209
 20
-1400.53
 30
0.000000
  70
    32
  0
VERTEX
  8
01
  5
C106
 10
718.112
 20
-1400.48
 30
0.000000
  70
    32
  0
VERTEX
  8
01
  5
C107
 10
718.016
 20
-1400.42
 30
0.000000
  70
    32
  0
VERTEX
  8
01
  5
C108
 10
717.922
 20
-1400.37
 30
0.000000
  70
    32
  0
VERTEX
  8
01
  5
C109
 10
717.830
 20
-1400.31
 30
0.000000
  70
    32
  0
VERTEX
  8
01
  5
C10A
 10
717.740
 20
-1400.25
 30
0.000000
  70
    32
  0
VERTEX
  8
01
  5
C10B
 10
717.652
 20
-1400.19
 30
0.000000
  70
    32
  0
VERTEX
  8
01
  5
C10C
 10
717.566
 20
-1400.13
 30
0.000000
  70
    32
  0
VERTEX
  8
01
  5
C10D
 10
717.483
 20
-1400.06
 30
0.000000
  70
    32
  0
VERTEX
  8
01
  5
C10E
 10
717.402
 20
-1400.00
 30
0.000000
  70
    32
  0
VERTEX
  8
01
  5
C10F
 10
717.323
 20
-1399.93
 30
0.000000
  70
    32
  0
VERTEX
  8
01
  5
C110
 10
717.246
 20
-1399.86
 30
0.000000
  70
    32
  0
VERTEX
  8
01
  5
C111
 10
717.172
 20
-1399.79
 30
0.000000
  70
    32
  0
VERTEX
  8
01
  5
C112
 10
717.100
 20
-1399.72
 30
0.000000
  70
    32
  0
VERTEX
  8
01
  5
C113
 10
717.030
 20
-1399.65
 30
0.000000
  70
    32
  0
VERTEX
  8
01
  5
C114
 10
716.963
 20
-1399.57
 30
0.000000
  70
    32
  0
VERTEX
  8
01
  5
C115
 10
716.899
 20
-1399.50
 30
0.000000
  70
    32
  0
VERTEX
  8
01
  5
C116
 10
716.837
 20
-1399.42
 30
0.000000
  70
    32
  0
VERTEX
  8
01
  5
C117
 10
716.778
 20
-1399.35
 30
0.000000
  70
    32
  0
VERTEX
  8
01
  5
C118
 10
716.722
 20
-1399.27
 30
0.000000
  70
    32
  0
VERTEX
  8
01
  5
C119
 10
716.668
 20
-1399.19
 30
0.000000
  70
    32
  0
VERTEX
  8
01
  5
C11A
 10
716.617
 20
-1399.11
 30
0.000000
  70
    32
  0
VERTEX
  8
01
  5
C11B
 10
716.568
 20
-1399.03
 30
0.000000
  70
    32
  0
VERTEX
  8
01
  5
C11C
 10
716.523
 20
-1398.95
 30
0.000000
  70
    32
  0
VERTEX
  8
01
  5
C11D
 10
716.480
 20
-1398.87
 30
0.000000
  70
    32
  0
VERTEX
  8
01
  5
C11E
 10
716.440
 20
-1398.79
 30
0.000000
  70
    32
  0
VERTEX
  8
01
  5
C11F
 10
716.403
 20
-1398.70
 30
0.000000
  70
    32
  0
VERTEX
  8
01
  5
C120
 10
716.369
 20
-1398.62
 30
0.000000
  70
    32
  0
VERTEX
  8
01
  5
C121
 10
716.338
 20
-1398.53
 30
0.000000
  70
    32
  0
VERTEX
  8
01
  5
C122
 10
716.309
 20
-1398.45
 30
0.000000
  70
    32
  0
VERTEX
  8
01
  5
C123
 10
716.284
 20
-1398.36
 30
0.000000
  70
    32
  0
VERTEX
  8
01
  5
C124
 10
716.261
 20
-1398.28
 30
0.000000
  70
    32
  0
VERTEX
  8
01
  5
C125
 10
716.242
 20
-1398.19
 30
0.000000
  70
    32
  0
VERTEX
  8
01
  5
C126
 10
716.225
 20
-1398.10
 30
0.000000
  70
    32
  0
VERTEX
  8
01
  5
C127
 10
716.212
 20
-1398.02
 30
0.000000
  70
    32
  0
VERTEX
  8
01
  5
C128
 10
716.201
 20
-1397.93
 30
0.000000
  70
    32
  0
VERTEX
  8
01
  5
C129
 10
716.194
 20
-1397.84
 30
0.000000
  70
    32
  0
VERTEX
  8
01
  5
C12A
 10
716.189
 20
-1397.75
 30
0.000000
  70
    32
  0
VERTEX
  8
01
  5
C12B
 10
716.188
 20
-1397.67
 30
0.000000
  70
    32
  0
SEQEND
  8
01
  5
C12C
  0
LINE
  5
21FA
  8
01
 10
726.18766916632353
 20
-1384.8025015977439
 30
0.0
 11
726.18766916632353
 21
-1397.665661597744
 31
0.0
  0
LINE
  5
21FB
  8
01
 10
716.18766916632353
 20
-1384.8025015977439
 30
0.0
 11
716.18766916632353
 21
-1397.665661597742
 31
0.0
  0
LINE
  5
21FC
  8
01
 10
712.18765416632391
 20
-1351.2340815977441
 30
0.0
 11
711.18765416632391
 21
-1350.2340815977441
 31
0.0
  0
LINE
  5
21FD
  8
01
 10
713.58767116632384
 20
-1351.1341015977439
 30
0.0
 11
712.78769016632373
 21
-1350.334121597743
 31
0.0
  0
LINE
  5
21FE
  8
01
 10
713.58767116632384
 20
-1433.3340915977431
 30
0.0
 11
712.78766816632356
 21
-1434.134071597744
 31
0.0
  0
LINE
  5
21FF
  8
01
 10
712.18761616632366
 20
-1433.2341115977431
 30
0.0
 11
711.1876311663234
 21
-1434.2341115977431
 31
0.0
  0
LINE
  5
2200
  8
01
 10
715.18766916632353
 20
-1457.2340815977441
 30
0.0
 11
711.18766916632353
 21
-1457.2340815977441
 31
0.0
  0
LINE
  5
2201
  8
01
 10
712.78767516632411
 20
-1457.2340815977441
 30
0.0
 11
712.78767516632411
 21
-1434.134071597744
 31
0.0
  0
LINE
  5
2202
  8
01
 10
711.18766916632353
 20
-1457.2340815977441
 30
0.0
 11
711.18766916632353
 21
-1434.2340815977441
 31
0.0
  0
LINE
  5
2203
  8
01
 10
712.18766916632353
 20
-1351.2340815977441
 30
0.0
 11
712.18766916632353
 21
-1433.2340815977441
 31
0.0
  0
LINE
  5
2204
  8
01
 10
715.18766916632353
 20
-1327.2340815977441
 30
0.0
 11
711.18766916632353
 21
-1327.2340815977441
 31
0.0
  0
LINE
  5
2207
  8
01
 10
821.68766916632364
 20
-1333.2340815977441
 30
0.0
 11
821.68766916632364
 21
-1451.2340815977441
 31
0.0
  0
LINE
  5
2208
  8
01
 10
846.68766916632364
 20
-1333.2340815977441
 30
0.0
 11
846.68766916632364
 21
-1451.2340815977441
 31
0.0
  0
ARC
  5
2209
  8
01
 10
840.68766916632353
 20
-1451.2340815977441
 30
0.0
 40
6.0
 50
270.0
 51
0.0
  0
ARC
  5
220A
  8
01
 10
827.68766916632342
 20
-1451.2340815977441
 30
0.0
 40
6.0
 50
180.0
 51
270.0
  0
LINE
  5
220B
  8
01
 10
841.93766916632342
 20
-1384.8025015977439
 30
0.0
 11
841.93766916632342
 21
-1397.6656615977431
 31
0.0
  0
LINE
  5
220C
  8
01
 10
840.93766916632353
 20
-1386.2340815977441
 30
0.0
 11
840.93766916632353
 21
-1396.2340815977441
 31
0.0
  0
LINE
  5
220D
  8
01
 10
827.43766916632353
 20
-1386.2340815977441
 30
0.0
 11
827.43766916632353
 21
-1396.2340815977441
 31
0.0
  0
LINE
  5
220E
  8
01
 10
826.43766916632353
 20
-1384.8025015977439
 30
0.0
 11
826.43766916632353
 21
-1397.6656615977431
 31
0.0
  0
ARC
  5
220F
  8
01
 10
834.18766916632364
 20
-1391.0340715977441
 30
0.0
 40
10.199999999999999
 50
220.5530799999753
 51
319.44692000002459
  0
LINE
  5
2210
  8
01
 10
827.43766916632353
 20
-1396.2340815977441
 30
0.0
 11
840.93766916632353
 21
-1396.2340815977441
 31
0.0
  0
LINE
  5
2211
  8
01
 10
827.43766916632353
 20
-1386.2340815977441
 30
0.0
 11
840.93766916632353
 21
-1386.2340815977441
 31
0.0
  0
ARC
  5
2212
  8
01
 10
834.18766916632364
 20
-1391.4340915977441
 30
0.0
 40
10.199999999999999
 50
40.553083999977588
 51
139.44692000002459
  0
CIRCLE
  5
2213
  8
01
 10
834.18766916632364
 20
-1449.2340815977441
 30
0.0
 40
4.5
  0
CIRCLE
  5
2214
  8
01
 10
834.18766916632364
 20
-1449.2340815977441
 30
0.0
 40
2.75
  0
LINE
  5
2215
  8
01
 10
827.68766916632342
 20
-1457.2340815977441
 30
0.0
 11
840.68766916632353
 21
-1457.2340815977441
 31
0.0
  0
ARC
  5
2216
  8
01
 10
840.68766916632353
 20
-1333.2340815977441
 30
0.0
 40
6.0
 50
0.0
 51
90.0
  0
ARC
  5
2218
  8
01
 10
827.68766916632342
 20
-1333.2340815977441
 30
0.0
 40
6.0
 50
90.0
 51
180.0
  0
LINE
  5
2219
  8
01
 10
827.68766916632342
 20
-1327.2340815977441
 30
0.0
 11
840.68766916632353
 21
-1327.2340815977441
 31
0.0
  0
CIRCLE
  5
221A
  8
01
 10
834.18766916632364
 20
-1335.2340815977441
 30
0.0
 40
4.5
  0
CIRCLE
  5
221B
  8
01
 10
834.18766916632364
 20
-1335.2340815977441
 30
0.0
 40
2.75
  0
LINE
  5
2221
  8
01
 10
955.58767516632338
 20
-1327.2340815977441
 30
0.0
 11
955.58767516632338
 21
-1350.3340515977429
 31
0.0
  0
LINE
  5
2222
  8
01
 10
957.187665166324
 20
-1327.2340815977441
 30
0.0
 11
957.187665166324
 21
-1350.2340815977441
 31
0.0
  0
LINE
  5
2223
  8
01
 10
954.78767516632399
 20
-1327.2340815977441
 30
0.0
 11
954.78767516632399
 21
-1457.2340815977441
 31
0.0
  0
LINE
  5
2224
  8
01
 10
953.18766516632388
 20
-1327.2340815977441
 30
0.0
 11
953.18766516632388
 21
-1457.2340815977441
 31
0.0
  0
LINE
  5
2226
  8
01
 10
956.187665166324
 20
-1429.2340815977441
 30
0.0
 11
984.97829245402647
 21
-1429.2340815977441
 31
0.0
  0
LINE
  5
2227
  8
01
 10
956.18767516632386
 20
-1351.2340815977441
 30
0.0
 11
957.18767516632374
 21
-1350.2340815977441
 31
0.0
  0
LINE
  5
2228
  8
01
 10
954.78766516632425
 20
-1351.1341015977439
 30
0.0
 11
955.58767516632338
 21
-1350.3340515977429
 31
0.0
  0
LINE
  5
2229
  8
01
 10
946.187665166324
 20
-1381.2340815977441
 30
0.0
 11
953.18766516632388
 21
-1381.2340815977441
 31
0.0
  0
LINE
  5
222A
  8
01
 10
946.187665166324
 20
-1401.2340815977441
 30
0.0
 11
953.18766516632388
 21
-1401.2340815977441
 31
0.0
  0
LINE
  5
222B
  8
01
 10
942.26976516632362
 20
-1398.0403515977439
 30
0.0
 11
953.18766516632388
 21
-1398.0403515977439
 31
0.0
  0
LINE
  5
222C
  8
01
 10
942.26976516632362
 20
-1384.4278015977429
 30
0.0
 11
953.18766516632388
 21
-1384.4278015977429
 31
0.0
  0
LINE
  5
222D
  8
01
 10
942.18766516632388
 20
-1385.2340815977441
 30
0.0
 11
942.18766516632388
 21
-1397.2340815977441
 31
0.0
  0
ARC
  5
222E
  8
01
 10
946.187665166324
 20
-1397.2340815977441
 30
0.0
 40
4.0
 50
179.999989999999
 51
270.0
  0
ARC
  5
222F
  8
01
 10
946.187665166324
 20
-1385.2340815977441
 30
0.0
 40
4.0
 50
90.000002999984659
 51
180.00001000000091
  0
LINE
  5
2230
  8
01
 10
954.78766516632425
 20
-1433.3340915977431
 30
0.0
 11
955.58767516632338
 21
-1434.134071597744
 31
0.0
  0
LINE
  5
2231
  8
01
 10
956.18771516632455
 20
-1433.2341115977431
 30
0.0
 11
957.18769516632335
 21
-1434.2340815977441
 31
0.0
  0
LINE
  5
2232
  8
01
 10
948.187665166324
 20
-1449.2340815977441
 30
0.0
 11
962.18766516632411
 21
-1449.2340815977441
 31
0.0
  0
LINE
  5
2233
  8
01
 10
953.18766516632388
 20
-1457.2340815977441
 30
0.0
 11
957.187665166324
 21
-1457.2340815977441
 31
0.0
  0
LINE
  5
2234
  8
01
 10
955.58767516632338
 20
-1457.2340815977441
 30
0.0
 11
955.58767516632338
 21
-1434.134071597744
 31
0.0
  0
LINE
  5
2235
  8
01
 10
957.187665166324
 20
-1457.2340815977441
 30
0.0
 11
957.187665166324
 21
-1434.2340815977441
 31
0.0
  0
LINE
  5
2236
  8
01
 10
956.187665166324
 20
-1351.2340815977441
 30
0.0
 11
956.187665166324
 21
-1433.2340815977441
 31
0.0
  0
LINE
  5
2239
  8
01
 10
953.18766516632388
 20
-1327.2340815977441
 30
0.0
 11
957.187665166324
 21
-1327.2340815977441
 31
0.0
  0
LINE
  5
223A
  8
01
 10
948.187665166324
 20
-1335.2340815977441
 30
0.0
 11
962.18766516632411
 21
-1335.2340815977441
 31
0.0
  0
LINE
  5
2244
  8
01
 10
957.18854934838396
 20
-1133.7340815987729
 30
0.0
 11
1023.188549348384
 21
-1133.7340815987729
 31
0.0
  0
LINE
  5
2245
  8
01
 10
957.18854934838396
 20
-1135.334051598772
 30
0.0
 11
1023.188549348384
 21
-1135.334051598772
 31
0.0
  0
LINE
  5
2246
  8
01
 10
954.78855934838396
 20
-1152.734081598772
 30
0.0
 11
1023.188549348384
 21
-1152.734081598772
 31
0.0
  0
LINE
  5
2247
  8
01
 10
956.38853934838494
 20
-1138.2340815987729
 30
0.0
 11
957.18854934838396
 21
-1137.4340615987719
 31
0.0
  0
LINE
  5
2248
  8
01
 10
957.18854934838396
 20
-1132.734081598772
 30
0.0
 11
957.18854934838396
 21
-1137.4340615987719
 31
0.0
  0
LINE
  5
2249
  8
01
 10
954.78855934838396
 20
-1138.234051598773
 30
0.0
 11
955.58854934838541
 21
-1137.4340915987721
 31
0.0
  0
LINE
  5
224A
  8
01
 10
942.18854934838396
 20
-1150.9840815987729
 30
0.0
 11
953.18854934838384
 21
-1150.9840815987729
 31
0.0
  0
LINE
  5
224B
  8
01
 10
942.18854934838396
 20
-1150.9840815987729
 30
0.0
 11
942.18854934838396
 21
-1148.9840815987729
 31
0.0
  0
LINE
  5
224C
  8
01
 10
953.18854934838384
 20
-1130.734081598772
 30
0.0
 11
954.78855934838396
 21
-1130.734081598772
 31
0.0
  0
LINE
  5
224D
  8
01
 10
954.78855934838396
 20
-1130.734081598772
 30
0.0
 11
954.78855934838396
 21
-1138.2340815987729
 31
0.0
  0
LINE
  5
224E
  8
01
 10
955.58855934838516
 20
-1132.734081598772
 30
0.0
 11
955.58855934838516
 21
-1137.4340615987719
 31
0.0
  0
LINE
  5
224F
  8
01
 10
954.78855934838396
 20
-1132.734081598772
 30
0.0
 11
957.18854934838396
 21
-1132.734081598772
 31
0.0
  0
LINE
  5
2250
  8
01
 10
957.18854934838396
 20
-1149.034071598772
 30
0.0
 11
957.18854934838396
 21
-1152.734081598772
 31
0.0
  0
LINE
  5
2251
  8
01
 10
956.38855934838443
 20
-1148.2340515987721
 30
0.0
 11
957.18854934838396
 21
-1149.034071598772
 31
0.0
  0
LINE
  5
2252
  8
01
 10
957.18854934838396
 20
-1151.1340715987731
 30
0.0
 11
961.78855934838396
 21
-1151.1340715987731
 31
0.0
  0
LINE
  5
2253
  8
01
 10
954.78854934838432
 20
-1148.2340515987721
 30
0.0
 11
955.58855934838516
 21
-1149.034071598772
 31
0.0
  0
LINE
  5
2254
  8
01
 10
954.78855934838396
 20
-1148.2340815987729
 30
0.0
 11
954.78855934838396
 21
-1155.734081598772
 31
0.0
  0
LINE
  5
2255
  8
01
 10
953.18854934838384
 20
-1155.734081598772
 30
0.0
 11
954.78855934838396
 21
-1155.734081598772
 31
0.0
  0
LINE
  5
2256
  8
01
 10
955.58855934838516
 20
-1149.034071598772
 30
0.0
 11
955.58855934838516
 21
-1152.734081598772
 31
0.0
  0
LINE
  5
2257
  8
01
 10
953.18854934838384
 20
-1123.2340815987729
 30
0.0
 11
953.18854934838384
 21
-1163.2340815987729
 31
0.0
  0
LINE
  5
2258
  8
01
 10
961.78855934838396
 20
-1135.334051598772
 30
0.0
 11
961.78855934838396
 21
-1152.734081598772
 31
0.0
  0
LINE
  5
2259
  8
01
 10
956.38854934838457
 20
-1138.2340815987729
 30
0.0
 11
956.38854934838457
 21
-1148.2340815987729
 31
0.0
  0
LINE
  5
225A
  8
01
 10
954.78855934838396
 20
-1138.2340815987729
 30
0.0
 11
954.78855934838396
 21
-1148.2340815987729
 31
0.0
  0
ARC
  5
225B
  8
01
 10
985.85804934838416
 20
-1173.3351615987719
 30
0.0
 40
50.0
 50
130.7976899999974
 51
150.85500000002
  0
LINE
  5
225C
  8
01
 10
985.54989789461615
 20
-1177.7341125987709
 30
0.0
 11
1001.172534506068
 21
-1177.7341125987709
 31
0.0
  0
LINE
  5
225D
  8
01
 10
1021.588549348385
 20
-1135.334051598772
 30
0.0
 11
1021.588549348385
 21
-1152.734081598772
 31
0.0
  0
LINE
  5
225E
  8
01
 10
1023.188549348384
 20
-1133.7340815987729
 30
0.0
 11
1023.188549348384
 21
-1152.734081598772
 31
0.0
  0
LINE
  5
225F
  8
01
 10
985.54989789461615
 20
-1108.734050598774
 30
0.0
 11
1001.172534506068
 21
-1108.734050598774
 31
0.0
  0
LINE
  5
2262
  8
01
 10
720.18767316632295
 20
-1449.2340815977441
 30
0.0
 11
706.18767316632318
 21
-1449.2340815977441
 31
0.0
  0
LINE
  5
2263
  8
01
 10
720.18767316632295
 20
-1335.2340815977441
 30
0.0
 11
706.18767316632318
 21
-1335.2340815977441
 31
0.0
  0
LINE
  5
2264
  8
01
 10
840.68766916632353
 20
-1335.2340815977441
 30
0.0
 11
827.68766916632342
 21
-1335.2340815977441
 31
0.0
  0
LINE
  5
2265
  8
01
 10
834.18766916632364
 20
-1328.7340815977441
 30
0.0
 11
834.18766916632364
 21
-1341.7340815977441
 31
0.0
  0
LINE
  5
2266
  8
01
 10
840.68766916632353
 20
-1449.2340815977441
 30
0.0
 11
827.68766916632342
 21
-1449.2340815977441
 31
0.0
  0
LINE
  5
2267
  8
01
 10
834.18766916632364
 20
-1442.7340815977441
 30
0.0
 11
834.18766916632364
 21
-1455.7340815977441
 31
0.0
  0
LINE
  5
2268
  8
01
 10
694.18767316632318
 20
-1413.2340815977441
 30
0.0
 11
634.18767316632329
 21
-1413.2340815977441
 31
0.0
  0
LINE
  5
2269
  8
01
 10
664.18767316632329
 20
-1383.2340815977441
 30
0.0
 11
664.18767316632329
 21
-1443.2340815977441
 31
0.0
  0
LINE
  5
226A
  8
01
 10
974.18766516632377
 20
-1413.2340815977441
 30
0.0
 11
1034.1876651663231
 21
-1413.2340815977441
 31
0.0
  0
LINE
  5
226B
  8
01
 10
1004.187665166323
 20
-1383.2340815977441
 30
0.0
 11
1004.187665166323
 21
-1443.2340815977441
 31
0.0
  0
POINT
  5
2270
  8
01
 10
868.68766916632342
 20
-1413.2340815977441
 30
0.0
  0
LINE
  5
2271
  8
01
 10
868.28766915632355
 20
-1414.9840815977441
 30
0.0
 11
868.28766915632355
 21
-1414.1340815777439
 31
0.0
  0
LINE
  5
2272
  8
01
 10
869.0876691763234
 20
-1414.9840815977441
 30
0.0
 11
869.0876691763234
 21
-1414.1340815777439
 31
0.0
  0
LINE
  5
2273
  8
01
 10
867.78766918632357
 20
-1413.6340816077441
 30
0.0
 11
866.93766916632342
 21
-1413.6340816077441
 31
0.0
  0
LINE
  5
2274
  8
01
 10
867.78766918632357
 20
-1412.8340815877441
 30
0.0
 11
866.93766916632342
 21
-1412.8340815877441
 31
0.0
  0
LINE
  5
2275
  8
01
 10
866.93766916632342
 20
-1413.6340816077441
 30
0.0
 11
866.93766916632342
 21
-1412.8340815877441
 31
0.0
  0
LINE
  5
2276
  8
01
 10
869.0876691763234
 20
-1414.9840815977441
 30
0.0
 11
868.28766915632355
 21
-1414.9840815977441
 31
0.0
  0
LINE
  5
2277
  8
01
 10
869.0876691763234
 20
-1411.4840815977441
 30
0.0
 11
869.0876691763234
 21
-1412.334081617744
 31
0.0
  0
LINE
  5
2278
  8
01
 10
868.28766915632355
 20
-1411.4840815977441
 30
0.0
 11
868.28766915632355
 21
-1412.334081617744
 31
0.0
  0
LINE
  5
2279
  8
01
 10
869.58766914632326
 20
-1412.8340815877441
 30
0.0
 11
870.43766916632353
 21
-1412.8340815877441
 31
0.0
  0
LINE
  5
227A
  8
01
 10
869.58766914632326
 20
-1413.6340816077441
 30
0.0
 11
870.43766916632353
 21
-1413.6340816077441
 31
0.0
  0
LINE
  5
227B
  8
01
 10
870.43766916632353
 20
-1412.8340815877441
 30
0.0
 11
870.43766916632353
 21
-1413.6340816077441
 31
0.0
  0
LINE
  5
227C
  8
01
 10
868.28766915632355
 20
-1411.4840815977441
 30
0.0
 11
869.0876691763234
 21
-1411.4840815977441
 31
0.0
  0
CIRCLE
  5
227D
  8
01
 10
868.68766916632342
 20
-1413.2340815977441
 30
0.0
 40
2.5
  0
ARC
  5
227E
  8
01
 10
869.58766914632326
 20
-1412.334081617744
 30
0.0
 40
0.5
 50
179.9999899999998
 51
270.0
  0
ARC
  5
227F
  8
01
 10
869.58766914632326
 20
-1414.1340815777439
 30
0.0
 40
0.5
 50
90.000003000000945
 51
180.0000100000002
  0
ARC
  5
2280
  8
01
 10
867.78766918632357
 20
-1414.1340815777439
 30
0.0
 40
0.5
 50
0.0
 51
90.000003000000945
  0
ARC
  5
2281
  8
01
 10
867.78766918632357
 20
-1412.334081617744
 30
0.0
 40
0.5
 50
270.0
 51
0.0
  0
POINT
  5
2283
  8
01
 10
799.68766916632353
 20
-1413.2340815977441
 30
0.0
 50
180.0
  0
CIRCLE
  5
2284
  8
01
 10
799.68766916632353
 20
-1413.2340815977441
 30
0.0
 40
2.5
  0
CIRCLE
  5
2386
  8
01
 10
664.1876651663224
 20
-1357.7340815977441
 30
0.0
 40
19.799999
  0
LINE
  5
238F
  8
01
 10
666.6876651663224
 20
-1352.9263175337001
 30
0.0
 11
666.68766516632229
 21
-1373.5418456617881
 31
0.0
  0
LINE
  5
2390
  8
01
 10
661.68766516632252
 20
-1352.9263175337001
 30
0.0
 11
661.6876651663224
 21
-1373.5418456617881
 31
0.0
  0
CIRCLE
  5
2391
  8
01
 10
664.1876651663224
 20
-1363.2340815977441
 30
0.0
 40
11.0
  0
LINE
  5
2394
  8
01
 10
860.68767216632193
 20
-1338.9340915977441
 30
0.0
 11
860.6876721663217
 21
-1376.534071597745
 31
0.0
  0
LINE
  5
23A2
  8
01
 10
861.36107016632332
 20
-1359.7340815977441
 30
0.0
 11
860.68767216632205
 21
-1359.7340815977441
 31
0.0
  0
LINE
  5
23A3
  8
01
 10
861.36107016632332
 20
-1366.7340815977441
 30
0.0
 11
860.68767216632205
 21
-1366.7340815977441
 31
0.0
  0
LINE
  5
23A5
  8
01
 10
854.18766916632353
 20
-1377.5340715977441
 30
0.0
 11
859.68767216632182
 21
-1377.534071597745
 31
0.0
  0
LINE
  5
23A6
  8
01
 10
861.36107016632332
 20
-1359.7340815977441
 30
0.0
 11
861.36107016632332
 21
-1366.7340815977441
 31
0.0
  0
ARC
  5
23A7
  8
01
 10
856.48767216632177
 20
-1363.2340815977441
 30
0.0
 40
6.0
 50
324.3146800000145
 51
35.685330999974283
  0
LINE
  5
23AB
  8
01
 10
854.18766916632364
 20
-1337.934091597745
 30
0.0
 11
859.68767216632193
 21
-1337.9340915977441
 31
0.0
  0
CIRCLE
  5
23EB
  8
01
 10
1004.187665166323
 20
-1357.7340815977441
 30
0.0
 40
19.799999
  0
LINE
  5
23EE
  8
01
 10
1005.187665166324
 20
-1366.588201597744
 30
0.0
 11
1005.187665166324
 21
-1359.8799515977439
 31
0.0
  0
LINE
  5
23EF
  8
01
 10
1003.187665166324
 20
-1366.588201597744
 30
0.0
 11
1003.187665166324
 21
-1359.8799515977439
 31
0.0
  0
CIRCLE
  5
23F0
  8
01
 10
1004.187665166323
 20
-1363.2340815977441
 30
0.0
 40
3.5000004999999992
  0
LINE
  5
23F2
  8
01
 10
1022.187665166324
 20
-1365.9827154482671
 30
0.0
 11
1022.187665166324
 21
-1395.884730024846
 31
0.0
  0
LINE
  5
243C
  8
01
 10
651.18766516632229
 20
-1363.2340815977441
 30
0.0
 11
677.1876651663224
 21
-1363.2340815977441
 31
0.0
  0
LINE
  5
243E
  8
01
 10
686.6876651663224
 20
-1357.7340815977441
 30
0.0
 11
641.6876651663224
 21
-1357.7340815977441
 31
0.0
  0
LINE
  5
243F
  8
01
 10
664.1876651663224
 20
-1335.2340815977441
 30
0.0
 11
664.1876651663224
 21
-1380.2340815977441
 31
0.0
  0
LINE
  5
2441
  8
01
 10
1017.187673166324
 20
-1363.2340815977441
 30
0.0
 11
991.18767316632454
 21
-1363.2340815977441
 31
0.0
  0
LINE
  5
2442
  8
01
 10
981.68767316632454
 20
-1357.7340815977441
 30
0.0
 11
1026.6876731663251
 21
-1357.7340815977441
 31
0.0
  0
LINE
  5
2443
  8
01
 10
1004.187673166325
 20
-1335.2340815977441
 30
0.0
 11
1004.187673166325
 21
-1380.2340815977441
 31
0.0
  0
ARC
  5
2466
  8
01
 10
1004.187774182397
 20
-1165.534082598778
 30
0.0
 40
6.0
 50
279.59301243461442
 51
305.6849310534019
  0
LINE
  5
2467
  8
01
 10
1003.187665166324
 20
-1170.4074736177511
 30
0.0
 11
1000.6877401642899
 21
-1170.4074561673131
 31
0.0
  0
LINE
  5
2468
  8
01
 10
1005.187665166324
 20
-1171.450180807924
 30
0.0
 11
1005.187665166324
 21
-1169.7340895784989
 31
0.0
  0
LINE
  5
2469
  8
01
 10
1003.187665166324
 20
-1171.4501439537639
 30
0.0
 11
1003.187665166324
 21
-1169.7340756177291
 31
0.0
  0
LINE
  5
246A
  8
01
 10
1023.9877729026269
 20
-1123.2340815987729
 30
0.0
 11
1023.98773450954
 21
-1117.7339423873559
 31
0.0
  0
LINE
  5
246B
  8
01
 10
984.38779290166292
 20
-1123.2340815987729
 30
0.0
 11
984.38775451050412
 21
-1117.734218810449
 31
0.0
  0
LINE
  5
246C
  8
01
 10
1023.9877729026269
 20
-1163.2340815987729
 30
0.0
 11
1023.987734509539
 21
-1168.7342208101909
 31
0.0
  0
ARC
  5
246E
  8
01
 10
1004.187774182397
 20
-1165.534082598778
 30
0.0
 40
6.0
 50
234.3142800534163
 51
260.4048759775697
  0
LINE
  5
246F
  8
01
 10
1007.687740164119
 20
-1170.407505030005
 30
0.0
 11
1005.187665166324
 21
-1170.4074875785211
 31
0.0
  0
LINE
  5
2470
  8
01
 10
984.38779290166292
 20
-1163.2340815987729
 30
0.0
 11
984.38775451050412
 21
-1168.733944387096
 31
0.0
  0
LINE
  5
2472
  8
01
 10
1000.6877401642899
 20
-1170.4074561673131
 30
0.0
 11
1000.687744864866
 21
-1169.7340581673241
 31
0.0
  0
LINE
  5
2473
  8
01
 10
1007.687740164119
 20
-1170.407505030005
 30
0.0
 11
1007.687744864697
 21
-1169.734107030017
 31
0.0
  0
LINE
  5
2474
  8
01
 10
1022.987727529179
 20
-1169.734213829782
 30
0.0
 11
985.38774753009511
 21
-1169.733951367456
 31
0.0
  0
LINE
  5
2479
  8
01
 10
1022.987727529179
 20
-1116.7339493677639
 30
0.0
 11
985.38774753009511
 21
-1116.734211830088
 31
0.0
  0
LINE
  5
597B
  8
01
 10
1004.187781506069
 20
-1093.234081598772
 30
0.0
 11
1004.187781506069
 21
-1128.234081598772
 31
0.0
  0
LINE
  5
597C
  8
01
 10
1004.187781506069
 20
-1158.2340815987729
 30
0.0
 11
1004.187781506069
 21
-1193.234081598772
 31
0.0
  0
LINE
  5
597D
  8
01
 10
784.18766916632364
 20
-1413.2340815977441
 30
0.0
 11
819.18766916632364
 21
-1413.2340815977441
 31
0.0
  0
LINE
  5
597E
  8
01
 10
849.18766916632376
 20
-1413.2340815977441
 30
0.0
 11
884.18766916632364
 21
-1413.2340815977441
 31
0.0
  0
LINE
  5
A567
  8
01
 10
854.1876691663233
 20
-1337.9340915977441
 30
0.0
 11
854.18767316632284
 21
-1377.5340715977441
 31
0.0
  0
LINE
  5
A568
  8
01
 10
984.38779150653681
 20
-1123.2342178103199
 30
0.0
 11
1023.987771505599
 21
-1123.233945387226
 31
0.0
  0
LINE
  5
A569
  8
01
 10
984.38779150653681
 20
-1163.233945387226
 30
0.0
 11
1023.987771505599
 21
-1163.2342178103199
 31
0.0
  0
LINE
  5
A5D8
  8
01
 10
953.18854934838384
 20
-1163.2340815987729
 30
0.0
 11
1106.9429295034161
 21
-1163.2340815987729
 31
0.0
  0
LINE
  5
A5D9
  8
01
 10
953.18854934838384
 20
-1123.2340815987729
 30
0.0
 11
1106.9429295034161
 21
-1123.2340815987729
 31
0.0
  0
ARC
  5
B48C
  8
01
 10
859.68767216632193
 20
-1338.9340915977441
 30
0.0
 40
1.0
 50
0.0
 51
90.0
  0
ARC
  5
B48D
  8
01
 10
859.68767216632182
 20
-1376.534071597745
 30
0.0
 40
1.0
 50
270.0
 51
359.99999999999977
  0
ARC
  5
B6F7
  8
01
 10
1007.687781506062
 20
-1115.7340805986209
 30
0.0
 40
1.0
 50
180.0
 51
270.00000000001302
  0
ARC
  5
B6FA
  8
01
 10
1000.68778150606
 20
-1115.73408059862
 30
0.0
 40
1.0
 50
270.0
 51
0.0
  0
LINE
  5
B6FD
  8
01
 10
1001.687781506061
 20
-1103.234057654417
 30
0.0
 11
1001.687781506061
 21
-1115.73408059862
 31
0.0
  0
ARC
  5
B6FE
  8
01
 10
1002.68778150606
 20
-1103.234057654415
 30
0.0
 40
1.0
 50
90.0
 51
179.9999999999479
  0
LINE
  5
B6FF
  8
01
 10
1002.687781506061
 20
-1102.2340576544129
 30
0.0
 11
1005.68778150606
 21
-1102.2340576544129
 31
0.0
  0
ARC
  5
B700
  8
01
 10
1005.68778150606
 20
-1103.234057654415
 30
0.0
 40
1.0
 50
0.0
 51
90.0
  0
LINE
  5
B701
  8
01
 10
1006.687781506061
 20
-1103.234057654415
 30
0.0
 11
1006.6877815060629
 21
-1115.7340805986209
 31
0.0
  0
ARC
  5
B91D
  8
01
 10
666.1876651663224
 20
-1352.9263175337001
 30
0.0
 40
0.5
 50
0.0
 51
79.019424572387308
  0
ARC
  5
B91E
  8
01
 10
662.1876651663224
 20
-1352.9263175337001
 30
0.0
 40
0.5
 50
100.98057542761271
 51
180.0
  0
ARC
  5
B91F
  8
01
 10
662.1876651663224
 20
-1373.5418456617881
 30
0.0
 40
0.5
 50
180.00000000002601
 51
259.01942457238732
  0
ARC
  5
B920
  8
01
 10
666.1876651663224
 20
-1373.5418456617881
 30
0.0
 40
0.5
 50
280.98057542761268
 51
0.0
  0
TEXT
  5
B95D
  8
01
 10
657.75469854963205
 20
-1091.4605797701311
 30
0.0
 40
20.0
  1
2-S1C-X-LW
  0
LINE
  5
B95F
  8
01
 10
657.75469854963205
 20
-1152.9605797701299
 30
0.0
 11
762.75469854963205
 21
-1152.9605797701299
 31
0.0
  0
TEXT
  5
B961
  8
01
 10
670.25469854963137
 20
-1129.7105797701311
 30
0.0
 40
6.0
  1
表面処理
 72
     1
 11
683.85469854963139
 21
-1129.7105797701311
 31
0.0
  0
LINE
  5
B963
  8
01
 10
657.75469854963205
 20
-1121.4605797701311
 30
0.0
 11
762.75469854963205
 21
-1121.4605797701311
 31
0.0
  0
LINE
  5
B964
  8
01
 10
657.75469854963205
 20
-1131.9605797701311
 30
0.0
 11
762.75469854963205
 21
-1131.9605797701311
 31
0.0
  0
LINE
  5
B965
  8
01
 10
657.75469854963205
 20
-1142.4605797701311
 30
0.0
 11
762.75469854963205
 21
-1142.4605797701311
 31
0.0
  0
LINE
  5
B966
  8
01
 10
657.75469854963205
 20
-1142.4605797701311
 30
0.0
 11
762.75469854963205
 21
-1142.4605797701311
 31
0.0
  0
LINE
  5
B967
  8
01
 10
710.25469854963205
 20
-1121.4605797701311
 30
0.0
 11
710.25469854963205
 21
-1163.4605797701311
 31
0.0
  0
TEXT
  5
B968
  8
01
 10
714.15469854963283
 20
-1140.5321152456049
 30
0.0
 40
6.0
  1
2-S1C-P-LW
 41
0.7
 72
     1
 11
736.35469854963276
 21
-1140.5321152456049
 31
0.0
  0
TEXT
  5
B969
  8
01
 10
726.15469854963135
 20
-1129.7105797701311
 30
0.0
 40
6.0
  1
コード
 72
     1
 11
736.35469854963151
 21
-1129.7105797701311
 31
0.0
  0
LINE
  5
B96A
  8
01
 10
657.75469854963205
 20
-1163.4605797701311
 30
0.0
 11
762.75469854963205
 21
-1163.4605797701311
 31
0.0
  0
LINE
  5
B96C
  8
01
 10
657.75469854963205
 20
-1163.4605797701311
 30
0.0
 11
657.75469854963205
 21
-1121.4605797701311
 31
0.0
  0
LINE
  5
B96D
  8
01
 10
762.75469854963205
 20
-1163.4605797701311
 30
0.0
 11
762.75469854963205
 21
-1121.4605797701311
 31
0.0
  0
TEXT
  5
B96E
  8
01
 10
714.65469854963283
 20
-1151.0321152456049
 30
0.0
 40
6.0
  1
2-S1C-T-LW
 41
0.7
 72
     1
 11
736.35469854963276
 21
-1151.0321152456049
 31
0.0
  0
TEXT
  5
B96F
  8
01
 10
712.5546985496328
 20
-1161.5321152456049
 30
0.0
 40
6.0
  1
2-S1C-PT-LW
 41
0.7
 72
     1
 11
736.35469854963276
 21
-1161.5321152456049
 31
0.0
  0
ARC
  5
B9FA
  8
01
 10
1004.187665166323
 20
-1413.2340815977441
 30
0.0
 40
25.0
 50
34.650118644346144
 51
348.15784985499238
  0
LINE
  5
B9FF
  8
01
 10
854.18766916632353
 20
-1388.2340815977441
 30
0.0
 11
854.18766916632353
 21
-1438.2340815977441
 31
0.0
  0
LINE
  5
BA00
  8
01
 10
862.68766916632364
 20
-1437.2340815977441
 30
0.0
 11
862.68766916632364
 21
-1389.2340815977441
 31
0.0
  0
LINE
  5
BA01
  8
01
 10
854.18766916632353
 20
-1438.2340815977441
 30
0.0
 11
861.68766916632342
 21
-1438.2340815977441
 31
0.0
  0
ARC
  5
BA02
  8
01
 10
861.68766916632342
 20
-1437.2340815977441
 30
0.0
 40
1.0
 50
270.0
 51
0.0
  0
LINE
  5
BA03
  8
01
 10
854.18766916632353
 20
-1388.2340815977441
 30
0.0
 11
861.68766916632342
 21
-1388.2340815977441
 31
0.0
  0
ARC
  5
BA04
  8
01
 10
861.68766916632342
 20
-1389.2340815977441
 30
0.0
 40
1.0
 50
0.0
 51
90.0
  0
ARC
  5
BA0D
  8
01
 10
1106.120230635971
 20
-1414.8857659833241
 30
0.0
 40
12.11544485022983
 50
0.2636358195341804
 51
28.194824646088229
  0
ARC
  5
BA0E
  8
01
 10
1104.1889320285779
 20
-1415.015399142844
 30
0.0
 40
14.050000000000001
 50
329.99999999997323
 51
0.0074422741426682
  0
LINE
  5
BA0F
  8
01
 10
1118.2355709772939
 20
-1414.8320857258741
 30
0.0
 11
1118.2389572421559
 21
-1415.016311368973
 31
0.0
  0
ARC
  5
BA10
  8
01
 10
1114.5893881430391
 20
-1411.652244458267
 30
0.0
 40
3.0499999999999989
 50
20.896839700467609
 51
72.227359201008596
  0
ARC
  5
BA11
  8
01
 10
1046.5576501891769
 20
-1623.894443948195
 30
0.0
 40
225.92904480535049
 50
71.886752201452239
 51
101.3721380535423
  0
ARC
  5
BA12
  8
01
 10
1004.187665166323
 20
-1413.2340815977441
 30
0.0
 40
11.050000000000001
 50
101.3721380535423
 51
285.75219845624741
  0
ARC
  5
BA13
  8
01
 10
1132.932754958737
 20
-1869.662698692008
 30
0.0
 40
463.18873802994909
 50
97.702016983007496
 51
105.7521984562474
  0
ARC
  5
BA14
  8
01
 10
1073.5294246189339
 20
-1430.4226467444171
 30
0.0
 40
19.949999999999999
 50
72.361209948443218
 51
97.702016983007496
  0
ARC
  5
BA15
  8
01
 10
1034.137455776277
 20
-1554.310793032507
 30
0.0
 40
149.94999999999999
 50
66.62960505066674
 51
78.833073984427799
  0
ARC
  5
BA16
  8
01
 10
1133.305862945544
 20
-1324.8208651064419
 30
0.0
 40
100.05
 50
246.6296050506667
 51
258.98490457804621
  0
ARC
  5
BA17
  8
01
 10
1114.581236873991
 20
-1421.015399142844
 30
0.0
 40
2.0499999999999989
 50
212.7113816805832
 51
329.99999999997323
  0
ARC
  5
BA18
  8
01
 10
1115.485062352798
 20
-1411.1334187816501
 30
0.0
 40
2.0344389403939038
 50
43.604736863919193
 51
143.91494609947799
  0
ARC
  5
BA19
  8
01
 10
1112.54801577998
 20
-1416.605917978374
 30
0.0
 40
1.8
 50
163.90166949065809
 51
191.00088535753909
  0
ARC
  5
BA1A
  8
01
 10
1129.8421859951191
 20
-1421.5970778205169
 30
0.0
 40
19.800000000000001
 50
143.91494609947799
 51
163.90166949065809
  0
ARC
  5
BA1B
  8
01
 10
1125.3091308333269
 20
-1414.125203848278
 30
0.0
 40
14.800000000000001
 50
191.00088535753909
 51
212.7113816805832
  0
LINE
  5
BA27
  8
01
 10
863.18766916632353
 20
-1402.184081597745
 30
0.0
 11
898.03987790468352
 21
-1402.184081597745
 31
0.0
  0
LINE
  5
BA28
  8
01
 10
863.18766916632353
 20
-1424.2840815977429
 30
0.0
 11
909.94433977346011
 21
-1424.2840815977429
 31
0.0
  0
LINE
  5
BA29
  8
01
 10
863.18766916632353
 20
-1402.184081597745
 30
0.0
 11
863.18766916632353
 21
-1424.2840815977429
 31
0.0
  0
LINE
  5
BA2A
  8
01
 10
863.18766916632353
 20
-1405.2840815977429
 30
0.0
 11
862.68766916632364
 21
-1405.2840815977429
 31
0.0
  0
LINE
  5
BA2B
  8
01
 10
863.18766916632353
 20
-1421.1840815977439
 30
0.0
 11
862.68766916632364
 21
-1421.1840815977439
 31
0.0
  0
POLYLINE
  5
BA2E
  8
01
 10
927.95294988075307
 20
-1416.605917978374
 30
0.0
 66
     1
 70
     8
  0
VERTEX
  8
01
  5
C12D
 10
927.953
 20
-1416.61
 30
0.000000
  70
    32
  0
VERTEX
  8
01
  5
C12E
 10
927.952
 20
-1416.38
 30
0.000000
  70
    32
  0
VERTEX
  8
01
  5
C12F
 10
927.950
 20
-1416.15
 30
0.000000
  70
    32
  0
VERTEX
  8
01
  5
C130
 10
927.946
 20
-1415.92
 30
0.000000
  70
    32
  0
VERTEX
  8
01
  5
C131
 10
927.940
 20
-1415.69
 30
0.000000
  70
    32
  0
VERTEX
  8
01
  5
C132
 10
927.933
 20
-1415.46
 30
0.000000
  70
    32
  0
VERTEX
  8
01
  5
C133
 10
927.924
 20
-1415.23
 30
0.000000
  70
    32
  0
VERTEX
  8
01
  5
C134
 10
927.913
 20
-1415.01
 30
0.000000
  70
    32
  0
VERTEX
  8
01
  5
C135
 10
927.901
 20
-1414.78
 30
0.000000
  70
    32
  0
VERTEX
  8
01
  5
C136
 10
927.887
 20
-1414.55
 30
0.000000
  70
    32
  0
VERTEX
  8
01
  5
C137
 10
927.872
 20
-1414.32
 30
0.000000
  70
    32
  0
VERTEX
  8
01
  5
C138
 10
927.854
 20
-1414.10
 30
0.000000
  70
    32
  0
VERTEX
  8
01
  5
C139
 10
927.836
 20
-1413.87
 30
0.000000
  70
    32
  0
VERTEX
  8
01
  5
C13A
 10
927.815
 20
-1413.64
 30
0.000000
  70
    32
  0
VERTEX
  8
01
  5
C13B
 10
927.794
 20
-1413.42
 30
0.000000
  70
    32
  0
VERTEX
  8
01
  5
C13C
 10
927.770
 20
-1413.19
 30
0.000000
  70
    32
  0
VERTEX
  8
01
  5
C13D
 10
927.745
 20
-1412.97
 30
0.000000
  70
    32
  0
VERTEX
  8
01
  5
C13E
 10
927.718
 20
-1412.75
 30
0.000000
  70
    32
  0
VERTEX
  8
01
  5
C13F
 10
927.690
 20
-1412.52
 30
0.000000
  70
    32
  0
VERTEX
  8
01
  5
C140
 10
927.660
 20
-1412.30
 30
0.000000
  70
    32
  0
VERTEX
  8
01
  5
C141
 10
927.628
 20
-1412.08
 30
0.000000
  70
    32
  0
VERTEX
  8
01
  5
C142
 10
927.595
 20
-1411.86
 30
0.000000
  70
    32
  0
VERTEX
  8
01
  5
C143
 10
927.561
 20
-1411.63
 30
0.000000
  70
    32
  0
VERTEX
  8
01
  5
C144
 10
927.525
 20
-1411.41
 30
0.000000
  70
    32
  0
VERTEX
  8
01
  5
C145
 10
927.487
 20
-1411.19
 30
0.000000
  70
    32
  0
VERTEX
  8
01
  5
C146
 10
927.447
 20
-1410.98
 30
0.000000
  70
    32
  0
VERTEX
  8
01
  5
C147
 10
927.407
 20
-1410.76
 30
0.000000
  70
    32
  0
VERTEX
  8
01
  5
C148
 10
927.364
 20
-1410.54
 30
0.000000
  70
    32
  0
VERTEX
  8
01
  5
C149
 10
927.320
 20
-1410.33
 30
0.000000
  70
    32
  0
VERTEX
  8
01
  5
C14A
 10
927.275
 20
-1410.11
 30
0.000000
  70
    32
  0
VERTEX
  8
01
  5
C14B
 10
927.228
 20
-1409.90
 30
0.000000
  70
    32
  0
VERTEX
  8
01
  5
C14C
 10
927.179
 20
-1409.68
 30
0.000000
  70
    32
  0
VERTEX
  8
01
  5
C14D
 10
927.129
 20
-1409.47
 30
0.000000
  70
    32
  0
VERTEX
  8
01
  5
C14E
 10
927.077
 20
-1409.26
 30
0.000000
  70
    32
  0
VERTEX
  8
01
  5
C14F
 10
927.024
 20
-1409.05
 30
0.000000
  70
    32
  0
VERTEX
  8
01
  5
C150
 10
926.970
 20
-1408.84
 30
0.000000
  70
    32
  0
VERTEX
  8
01
  5
C151
 10
926.914
 20
-1408.64
 30
0.000000
  70
    32
  0
VERTEX
  8
01
  5
C152
 10
926.856
 20
-1408.43
 30
0.000000
  70
    32
  0
VERTEX
  8
01
  5
C153
 10
926.797
 20
-1408.22
 30
0.000000
  70
    32
  0
VERTEX
  8
01
  5
C154
 10
926.737
 20
-1408.02
 30
0.000000
  70
    32
  0
VERTEX
  8
01
  5
C155
 10
926.675
 20
-1407.82
 30
0.000000
  70
    32
  0
VERTEX
  8
01
  5
C156
 10
926.611
 20
-1407.62
 30
0.000000
  70
    32
  0
VERTEX
  8
01
  5
C157
 10
926.546
 20
-1407.42
 30
0.000000
  70
    32
  0
VERTEX
  8
01
  5
C158
 10
926.480
 20
-1407.22
 30
0.000000
  70
    32
  0
VERTEX
  8
01
  5
C159
 10
926.413
 20
-1407.02
 30
0.000000
  70
    32
  0
VERTEX
  8
01
  5
C15A
 10
926.344
 20
-1406.83
 30
0.000000
  70
    32
  0
VERTEX
  8
01
  5
C15B
 10
926.273
 20
-1406.63
 30
0.000000
  70
    32
  0
VERTEX
  8
01
  5
C15C
 10
926.202
 20
-1406.44
 30
0.000000
  70
    32
  0
VERTEX
  8
01
  5
C15D
 10
926.128
 20
-1406.25
 30
0.000000
  70
    32
  0
VERTEX
  8
01
  5
C15E
 10
926.054
 20
-1406.06
 30
0.000000
  70
    32
  0
VERTEX
  8
01
  5
C15F
 10
925.978
 20
-1405.87
 30
0.000000
  70
    32
  0
VERTEX
  8
01
  5
C160
 10
925.901
 20
-1405.69
 30
0.000000
  70
    32
  0
VERTEX
  8
01
  5
C161
 10
925.822
 20
-1405.50
 30
0.000000
  70
    32
  0
VERTEX
  8
01
  5
C162
 10
925.743
 20
-1405.32
 30
0.000000
  70
    32
  0
VERTEX
  8
01
  5
C163
 10
925.662
 20
-1405.14
 30
0.000000
  70
    32
  0
VERTEX
  8
01
  5
C164
 10
925.579
 20
-1404.96
 30
0.000000
  70
    32
  0
VERTEX
  8
01
  5
C165
 10
925.495
 20
-1404.78
 30
0.000000
  70
    32
  0
VERTEX
  8
01
  5
C166
 10
925.411
 20
-1404.60
 30
0.000000
  70
    32
  0
VERTEX
  8
01
  5
C167
 10
925.324
 20
-1404.43
 30
0.000000
  70
    32
  0
VERTEX
  8
01
  5
C168
 10
925.237
 20
-1404.26
 30
0.000000
  70
    32
  0
VERTEX
  8
01
  5
C169
 10
925.148
 20
-1404.09
 30
0.000000
  70
    32
  0
VERTEX
  8
01
  5
C16A
 10
925.059
 20
-1403.92
 30
0.000000
  70
    32
  0
VERTEX
  8
01
  5
C16B
 10
924.968
 20
-1403.75
 30
0.000000
  70
    32
  0
VERTEX
  8
01
  5
C16C
 10
924.875
 20
-1403.59
 30
0.000000
  70
    32
  0
VERTEX
  8
01
  5
C16D
 10
924.782
 20
-1403.43
 30
0.000000
  70
    32
  0
VERTEX
  8
01
  5
C16E
 10
924.687
 20
-1403.26
 30
0.000000
  70
    32
  0
VERTEX
  8
01
  5
C16F
 10
924.592
 20
-1403.11
 30
0.000000
  70
    32
  0
VERTEX
  8
01
  5
C170
 10
924.495
 20
-1402.95
 30
0.000000
  70
    32
  0
VERTEX
  8
01
  5
C171
 10
924.397
 20
-1402.79
 30
0.000000
  70
    32
  0
VERTEX
  8
01
  5
C172
 10
924.298
 20
-1402.64
 30
0.000000
  70
    32
  0
VERTEX
  8
01
  5
C173
 10
924.198
 20
-1402.49
 30
0.000000
  70
    32
  0
VERTEX
  8
01
  5
C174
 10
924.097
 20
-1402.34
 30
0.000000
  70
    32
  0
VERTEX
  8
01
  5
C175
 10
923.995
 20
-1402.20
 30
0.000000
  70
    32
  0
VERTEX
  8
01
  5
C176
 10
923.892
 20
-1402.05
 30
0.000000
  70
    32
  0
VERTEX
  8
01
  5
C177
 10
923.787
 20
-1401.91
 30
0.000000
  70
    32
  0
VERTEX
  8
01
  5
C178
 10
923.682
 20
-1401.77
 30
0.000000
  70
    32
  0
VERTEX
  8
01
  5
C179
 10
923.576
 20
-1401.63
 30
0.000000
  70
    32
  0
VERTEX
  8
01
  5
C17A
 10
923.469
 20
-1401.50
 30
0.000000
  70
    32
  0
VERTEX
  8
01
  5
C17B
 10
923.361
 20
-1401.37
 30
0.000000
  70
    32
  0
VERTEX
  8
01
  5
C17C
 10
923.251
 20
-1401.24
 30
0.000000
  70
    32
  0
VERTEX
  8
01
  5
C17D
 10
923.141
 20
-1401.11
 30
0.000000
  70
    32
  0
VERTEX
  8
01
  5
C17E
 10
923.030
 20
-1400.98
 30
0.000000
  70
    32
  0
VERTEX
  8
01
  5
C17F
 10
922.919
 20
-1400.86
 30
0.000000
  70
    32
  0
VERTEX
  8
01
  5
C180
 10
922.806
 20
-1400.74
 30
0.000000
  70
    32
  0
VERTEX
  8
01
  5
C181
 10
922.692
 20
-1400.62
 30
0.000000
  70
    32
  0
VERTEX
  8
01
  5
C182
 10
922.578
 20
-1400.50
 30
0.000000
  70
    32
  0
VERTEX
  8
01
  5
C183
 10
922.463
 20
-1400.39
 30
0.000000
  70
    32
  0
VERTEX
  8
01
  5
C184
 10
922.347
 20
-1400.28
 30
0.000000
  70
    32
  0
VERTEX
  8
01
  5
C185
 10
922.230
 20
-1400.17
 30
0.000000
  70
    32
  0
VERTEX
  8
01
  5
C186
 10
922.113
 20
-1400.06
 30
0.000000
  70
    32
  0
VERTEX
  8
01
  5
C187
 10
921.994
 20
-1399.96
 30
0.000000
  70
    32
  0
VERTEX
  8
01
  5
C188
 10
921.875
 20
-1399.85
 30
0.000000
  70
    32
  0
VERTEX
  8
01
  5
C189
 10
921.755
 20
-1399.76
 30
0.000000
  70
    32
  0
VERTEX
  8
01
  5
C18A
 10
921.635
 20
-1399.66
 30
0.000000
  70
    32
  0
VERTEX
  8
01
  5
C18B
 10
921.514
 20
-1399.56
 30
0.000000
  70
    32
  0
VERTEX
  8
01
  5
C18C
 10
921.392
 20
-1399.47
 30
0.000000
  70
    32
  0
VERTEX
  8
01
  5
C18D
 10
921.270
 20
-1399.38
 30
0.000000
  70
    32
  0
VERTEX
  8
01
  5
C18E
 10
921.147
 20
-1399.30
 30
0.000000
  70
    32
  0
VERTEX
  8
01
  5
C18F
 10
921.023
 20
-1399.21
 30
0.000000
  70
    32
  0
VERTEX
  8
01
  5
C190
 10
920.899
 20
-1399.13
 30
0.000000
  70
    32
  0
VERTEX
  8
01
  5
C191
 10
920.774
 20
-1399.06
 30
0.000000
  70
    32
  0
VERTEX
  8
01
  5
C192
 10
920.649
 20
-1398.98
 30
0.000000
  70
    32
  0
VERTEX
  8
01
  5
C193
 10
920.523
 20
-1398.91
 30
0.000000
  70
    32
  0
VERTEX
  8
01
  5
C194
 10
920.396
 20
-1398.84
 30
0.000000
  70
    32
  0
VERTEX
  8
01
  5
C195
 10
920.269
 20
-1398.77
 30
0.000000
  70
    32
  0
VERTEX
  8
01
  5
C196
 10
920.142
 20
-1398.70
 30
0.000000
  70
    32
  0
VERTEX
  8
01
  5
C197
 10
920.014
 20
-1398.64
 30
0.000000
  70
    32
  0
VERTEX
  8
01
  5
C198
 10
919.886
 20
-1398.58
 30
0.000000
  70
    32
  0
VERTEX
  8
01
  5
C199
 10
919.757
 20
-1398.52
 30
0.000000
  70
    32
  0
VERTEX
  8
01
  5
C19A
 10
919.628
 20
-1398.47
 30
0.000000
  70
    32
  0
VERTEX
  8
01
  5
C19B
 10
919.499
 20
-1398.42
 30
0.000000
  70
    32
  0
VERTEX
  8
01
  5
C19C
 10
919.369
 20
-1398.37
 30
0.000000
  70
    32
  0
VERTEX
  8
01
  5
C19D
 10
919.239
 20
-1398.32
 30
0.000000
  70
    32
  0
VERTEX
  8
01
  5
C19E
 10
919.108
 20
-1398.28
 30
0.000000
  70
    32
  0
VERTEX
  8
01
  5
C19F
 10
918.978
 20
-1398.24
 30
0.000000
  70
    32
  0
VERTEX
  8
01
  5
C1A0
 10
918.846
 20
-1398.20
 30
0.000000
  70
    32
  0
VERTEX
  8
01
  5
C1A1
 10
918.715
 20
-1398.17
 30
0.000000
  70
    32
  0
VERTEX
  8
01
  5
C1A2
 10
918.584
 20
-1398.13
 30
0.000000
  70
    32
  0
VERTEX
  8
01
  5
C1A3
 10
918.452
 20
-1398.11
 30
0.000000
  70
    32
  0
VERTEX
  8
01
  5
C1A4
 10
918.320
 20
-1398.08
 30
0.000000
  70
    32
  0
VERTEX
  8
01
  5
C1A5
 10
918.188
 20
-1398.06
 30
0.000000
  70
    32
  0
VERTEX
  8
01
  5
C1A6
 10
918.055
 20
-1398.03
 30
0.000000
  70
    32
  0
VERTEX
  8
01
  5
C1A7
 10
917.923
 20
-1398.02
 30
0.000000
  70
    32
  0
VERTEX
  8
01
  5
C1A8
 10
917.791
 20
-1398.00
 30
0.000000
  70
    32
  0
VERTEX
  8
01
  5
C1A9
 10
917.658
 20
-1397.99
 30
0.000000
  70
    32
  0
VERTEX
  8
01
  5
C1AA
 10
917.525
 20
-1397.98
 30
0.000000
  70
    32
  0
VERTEX
  8
01
  5
C1AB
 10
917.392
 20
-1397.97
 30
0.000000
  70
    32
  0
VERTEX
  8
01
  5
C1AC
 10
917.259
 20
-1397.97
 30
0.000000
  70
    32
  0
VERTEX
  8
01
  5
C1AD
 10
917.127
 20
-1397.97
 30
0.000000
  70
    32
  0
SEQEND
  8
01
  5
C1AE
  0
POLYLINE
  5
BA2F
  8
01
 10
908.07121399311904
 20
-1413.2340815977441
 30
0.0
 66
     1
 70
     8
  0
VERTEX
  8
01
  5
C1AF
 10
908.071
 20
-1413.23
 30
0.000000
  70
    32
  0
VERTEX
  8
01
  5
C1B0
 10
908.072
 20
-1413.51
 30
0.000000
  70
    32
  0
VERTEX
  8
01
  5
C1B1
 10
908.073
 20
-1413.78
 30
0.000000
  70
    32
  0
VERTEX
  8
01
  5
C1B2
 10
908.076
 20
-1414.05
 30
0.000000
  70
    32
  0
VERTEX
  8
01
  5
C1B3
 10
908.080
 20
-1414.32
 30
0.000000
  70
    32
  0
VERTEX
  8
01
  5
C1B4
 10
908.085
 20
-1414.59
 30
0.000000
  70
    32
  0
VERTEX
  8
01
  5
C1B5
 10
908.091
 20
-1414.86
 30
0.000000
  70
    32
  0
VERTEX
  8
01
  5
C1B6
 10
908.099
 20
-1415.12
 30
0.000000
  70
    32
  0
VERTEX
  8
01
  5
C1B7
 10
908.107
 20
-1415.39
 30
0.000000
  70
    32
  0
VERTEX
  8
01
  5
C1B8
 10
908.117
 20
-1415.66
 30
0.000000
  70
    32
  0
VERTEX
  8
01
  5
C1B9
 10
908.127
 20
-1415.92
 30
0.000000
  70
    32
  0
VERTEX
  8
01
  5
C1BA
 10
908.139
 20
-1416.18
 30
0.000000
  70
    32
  0
VERTEX
  8
01
  5
C1BB
 10
908.152
 20
-1416.44
 30
0.000000
  70
    32
  0
VERTEX
  8
01
  5
C1BC
 10
908.166
 20
-1416.70
 30
0.000000
  70
    32
  0
VERTEX
  8
01
  5
C1BD
 10
908.181
 20
-1416.96
 30
0.000000
  70
    32
  0
VERTEX
  8
01
  5
C1BE
 10
908.197
 20
-1417.21
 30
0.000000
  70
    32
  0
VERTEX
  8
01
  5
C1BF
 10
908.214
 20
-1417.46
 30
0.000000
  70
    32
  0
VERTEX
  8
01
  5
C1C0
 10
908.232
 20
-1417.71
 30
0.000000
  70
    32
  0
VERTEX
  8
01
  5
C1C1
 10
908.251
 20
-1417.96
 30
0.000000
  70
    32
  0
VERTEX
  8
01
  5
C1C2
 10
908.271
 20
-1418.20
 30
0.000000
  70
    32
  0
VERTEX
  8
01
  5
C1C3
 10
908.292
 20
-1418.44
 30
0.000000
  70
    32
  0
VERTEX
  8
01
  5
C1C4
 10
908.315
 20
-1418.68
 30
0.000000
  70
    32
  0
VERTEX
  8
01
  5
C1C5
 10
908.338
 20
-1418.91
 30
0.000000
  70
    32
  0
VERTEX
  8
01
  5
C1C6
 10
908.362
 20
-1419.15
 30
0.000000
  70
    32
  0
VERTEX
  8
01
  5
C1C7
 10
908.387
 20
-1419.37
 30
0.000000
  70
    32
  0
VERTEX
  8
01
  5
C1C8
 10
908.413
 20
-1419.60
 30
0.000000
  70
    32
  0
VERTEX
  8
01
  5
C1C9
 10
908.440
 20
-1419.82
 30
0.000000
  70
    32
  0
VERTEX
  8
01
  5
C1CA
 10
908.468
 20
-1420.03
 30
0.000000
  70
    32
  0
VERTEX
  8
01
  5
C1CB
 10
908.496
 20
-1420.24
 30
0.000000
  70
    32
  0
VERTEX
  8
01
  5
C1CC
 10
908.526
 20
-1420.45
 30
0.000000
  70
    32
  0
VERTEX
  8
01
  5
C1CD
 10
908.556
 20
-1420.65
 30
0.000000
  70
    32
  0
VERTEX
  8
01
  5
C1CE
 10
908.588
 20
-1420.85
 30
0.000000
  70
    32
  0
VERTEX
  8
01
  5
C1CF
 10
908.620
 20
-1421.05
 30
0.000000
  70
    32
  0
VERTEX
  8
01
  5
C1D0
 10
908.653
 20
-1421.24
 30
0.000000
  70
    32
  0
VERTEX
  8
01
  5
C1D1
 10
908.686
 20
-1421.42
 30
0.000000
  70
    32
  0
VERTEX
  8
01
  5
C1D2
 10
908.721
 20
-1421.60
 30
0.000000
  70
    32
  0
VERTEX
  8
01
  5
C1D3
 10
908.756
 20
-1421.78
 30
0.000000
  70
    32
  0
VERTEX
  8
01
  5
C1D4
 10
908.792
 20
-1421.95
 30
0.000000
  70
    32
  0
VERTEX
  8
01
  5
C1D5
 10
908.829
 20
-1422.11
 30
0.000000
  70
    32
  0
VERTEX
  8
01
  5
C1D6
 10
908.866
 20
-1422.27
 30
0.000000
  70
    32
  0
VERTEX
  8
01
  5
C1D7
 10
908.904
 20
-1422.42
 30
0.000000
  70
    32
  0
VERTEX
  8
01
  5
C1D8
 10
908.942
 20
-1422.57
 30
0.000000
  70
    32
  0
VERTEX
  8
01
  5
C1D9
 10
908.981
 20
-1422.71
 30
0.000000
  70
    32
  0
VERTEX
  8
01
  5
C1DA
 10
909.021
 20
-1422.85
 30
0.000000
  70
    32
  0
VERTEX
  8
01
  5
C1DB
 10
909.061
 20
-1422.98
 30
0.000000
  70
    32
  0
VERTEX
  8
01
  5
C1DC
 10
909.102
 20
-1423.10
 30
0.000000
  70
    32
  0
VERTEX
  8
01
  5
C1DD
 10
909.143
 20
-1423.22
 30
0.000000
  70
    32
  0
VERTEX
  8
01
  5
C1DE
 10
909.185
 20
-1423.34
 30
0.000000
  70
    32
  0
VERTEX
  8
01
  5
C1DF
 10
909.228
 20
-1423.44
 30
0.000000
  70
    32
  0
VERTEX
  8
01
  5
C1E0
 10
909.270
 20
-1423.54
 30
0.000000
  70
    32
  0
VERTEX
  8
01
  5
C1E1
 10
909.313
 20
-1423.64
 30
0.000000
  70
    32
  0
VERTEX
  8
01
  5
C1E2
 10
909.357
 20
-1423.73
 30
0.000000
  70
    32
  0
VERTEX
  8
01
  5
C1E3
 10
909.401
 20
-1423.81
 30
0.000000
  70
    32
  0
VERTEX
  8
01
  5
C1E4
 10
909.445
 20
-1423.88
 30
0.000000
  70
    32
  0
VERTEX
  8
01
  5
C1E5
 10
909.489
 20
-1423.95
 30
0.000000
  70
    32
  0
VERTEX
  8
01
  5
C1E6
 10
909.534
 20
-1424.02
 30
0.000000
  70
    32
  0
VERTEX
  8
01
  5
C1E7
 10
909.579
 20
-1424.07
 30
0.000000
  70
    32
  0
VERTEX
  8
01
  5
C1E8
 10
909.624
 20
-1424.12
 30
0.000000
  70
    32
  0
VERTEX
  8
01
  5
C1E9
 10
909.669
 20
-1424.16
 30
0.000000
  70
    32
  0
VERTEX
  8
01
  5
C1EA
 10
909.715
 20
-1424.20
 30
0.000000
  70
    32
  0
VERTEX
  8
01
  5
C1EB
 10
909.761
 20
-1424.23
 30
0.000000
  70
    32
  0
VERTEX
  8
01
  5
C1EC
 10
909.807
 20
-1424.25
 30
0.000000
  70
    32
  0
VERTEX
  8
01
  5
C1ED
 10
909.852
 20
-1424.27
 30
0.000000
  70
    32
  0
VERTEX
  8
01
  5
C1EE
 10
909.898
 20
-1424.28
 30
0.000000
  70
    32
  0
VERTEX
  8
01
  5
C1EF
 10
909.944
 20
-1424.28
 30
0.000000
  70
    32
  0
VERTEX
  8
01
  5
C1F0
 10
909.990
 20
-1424.28
 30
0.000000
  70
    32
  0
VERTEX
  8
01
  5
C1F1
 10
910.036
 20
-1424.27
 30
0.000000
  70
    32
  0
VERTEX
  8
01
  5
C1F2
 10
910.082
 20
-1424.25
 30
0.000000
  70
    32
  0
VERTEX
  8
01
  5
C1F3
 10
910.128
 20
-1424.23
 30
0.000000
  70
    32
  0
VERTEX
  8
01
  5
C1F4
 10
910.174
 20
-1424.20
 30
0.000000
  70
    32
  0
VERTEX
  8
01
  5
C1F5
 10
910.219
 20
-1424.16
 30
0.000000
  70
    32
  0
VERTEX
  8
01
  5
C1F6
 10
910.265
 20
-1424.12
 30
0.000000
  70
    32
  0
VERTEX
  8
01
  5
C1F7
 10
910.310
 20
-1424.07
 30
0.000000
  70
    32
  0
VERTEX
  8
01
  5
C1F8
 10
910.355
 20
-1424.02
 30
0.000000
  70
    32
  0
VERTEX
  8
01
  5
C1F9
 10
910.399
 20
-1423.95
 30
0.000000
  70
    32
  0
VERTEX
  8
01
  5
C1FA
 10
910.444
 20
-1423.88
 30
0.000000
  70
    32
  0
VERTEX
  8
01
  5
C1FB
 10
910.488
 20
-1423.81
 30
0.000000
  70
    32
  0
VERTEX
  8
01
  5
C1FC
 10
910.532
 20
-1423.73
 30
0.000000
  70
    32
  0
VERTEX
  8
01
  5
C1FD
 10
910.575
 20
-1423.64
 30
0.000000
  70
    32
  0
VERTEX
  8
01
  5
C1FE
 10
910.618
 20
-1423.54
 30
0.000000
  70
    32
  0
VERTEX
  8
01
  5
C1FF
 10
910.661
 20
-1423.44
 30
0.000000
  70
    32
  0
VERTEX
  8
01
  5
C200
 10
910.703
 20
-1423.34
 30
0.000000
  70
    32
  0
VERTEX
  8
01
  5
C201
 10
910.745
 20
-1423.22
 30
0.000000
  70
    32
  0
VERTEX
  8
01
  5
C202
 10
910.787
 20
-1423.10
 30
0.000000
  70
    32
  0
VERTEX
  8
01
  5
C203
 10
910.827
 20
-1422.98
 30
0.000000
  70
    32
  0
VERTEX
  8
01
  5
C204
 10
910.868
 20
-1422.85
 30
0.000000
  70
    32
  0
VERTEX
  8
01
  5
C205
 10
910.907
 20
-1422.71
 30
0.000000
  70
    32
  0
VERTEX
  8
01
  5
C206
 10
910.946
 20
-1422.57
 30
0.000000
  70
    32
  0
VERTEX
  8
01
  5
C207
 10
910.985
 20
-1422.42
 30
0.000000
  70
    32
  0
VERTEX
  8
01
  5
C208
 10
911.023
 20
-1422.27
 30
0.000000
  70
    32
  0
VERTEX
  8
01
  5
C209
 10
911.060
 20
-1422.11
 30
0.000000
  70
    32
  0
VERTEX
  8
01
  5
C20A
 10
911.097
 20
-1421.95
 30
0.000000
  70
    32
  0
VERTEX
  8
01
  5
C20B
 10
911.133
 20
-1421.78
 30
0.000000
  70
    32
  0
VERTEX
  8
01
  5
C20C
 10
911.168
 20
-1421.60
 30
0.000000
  70
    32
  0
VERTEX
  8
01
  5
C20D
 10
911.202
 20
-1421.42
 30
0.000000
  70
    32
  0
VERTEX
  8
01
  5
C20E
 10
911.236
 20
-1421.24
 30
0.000000
  70
    32
  0
VERTEX
  8
01
  5
C20F
 10
911.269
 20
-1421.05
 30
0.000000
  70
    32
  0
VERTEX
  8
01
  5
C210
 10
911.301
 20
-1420.85
 30
0.000000
  70
    32
  0
VERTEX
  8
01
  5
C211
 10
911.332
 20
-1420.65
 30
0.000000
  70
    32
  0
VERTEX
  8
01
  5
C212
 10
911.363
 20
-1420.45
 30
0.000000
  70
    32
  0
VERTEX
  8
01
  5
C213
 10
911.392
 20
-1420.24
 30
0.000000
  70
    32
  0
VERTEX
  8
01
  5
C214
 10
911.421
 20
-1420.03
 30
0.000000
  70
    32
  0
VERTEX
  8
01
  5
C215
 10
911.449
 20
-1419.82
 30
0.000000
  70
    32
  0
VERTEX
  8
01
  5
C216
 10
911.476
 20
-1419.60
 30
0.000000
  70
    32
  0
VERTEX
  8
01
  5
C217
 10
911.502
 20
-1419.37
 30
0.000000
  70
    32
  0
VERTEX
  8
01
  5
C218
 10
911.527
 20
-1419.15
 30
0.000000
  70
    32
  0
VERTEX
  8
01
  5
C219
 10
911.551
 20
-1418.91
 30
0.000000
  70
    32
  0
VERTEX
  8
01
  5
C21A
 10
911.574
 20
-1418.68
 30
0.000000
  70
    32
  0
VERTEX
  8
01
  5
C21B
 10
911.596
 20
-1418.44
 30
0.000000
  70
    32
  0
VERTEX
  8
01
  5
C21C
 10
911.617
 20
-1418.20
 30
0.000000
  70
    32
  0
VERTEX
  8
01
  5
C21D
 10
911.638
 20
-1417.96
 30
0.000000
  70
    32
  0
VERTEX
  8
01
  5
C21E
 10
911.657
 20
-1417.71
 30
0.000000
  70
    32
  0
VERTEX
  8
01
  5
C21F
 10
911.675
 20
-1417.46
 30
0.000000
  70
    32
  0
VERTEX
  8
01
  5
C220
 10
911.692
 20
-1417.21
 30
0.000000
  70
    32
  0
VERTEX
  8
01
  5
C221
 10
911.708
 20
-1416.96
 30
0.000000
  70
    32
  0
VERTEX
  8
01
  5
C222
 10
911.723
 20
-1416.70
 30
0.000000
  70
    32
  0
VERTEX
  8
01
  5
C223
 10
911.737
 20
-1416.44
 30
0.000000
  70
    32
  0
VERTEX
  8
01
  5
C224
 10
911.750
 20
-1416.18
 30
0.000000
  70
    32
  0
VERTEX
  8
01
  5
C225
 10
911.761
 20
-1415.92
 30
0.000000
  70
    32
  0
VERTEX
  8
01
  5
C226
 10
911.772
 20
-1415.66
 30
0.000000
  70
    32
  0
VERTEX
  8
01
  5
C227
 10
911.781
 20
-1415.39
 30
0.000000
  70
    32
  0
VERTEX
  8
01
  5
C228
 10
911.790
 20
-1415.12
 30
0.000000
  70
    32
  0
VERTEX
  8
01
  5
C229
 10
911.797
 20
-1414.86
 30
0.000000
  70
    32
  0
VERTEX
  8
01
  5
C22A
 10
911.803
 20
-1414.59
 30
0.000000
  70
    32
  0
VERTEX
  8
01
  5
C22B
 10
911.808
 20
-1414.32
 30
0.000000
  70
    32
  0
VERTEX
  8
01
  5
C22C
 10
911.812
 20
-1414.05
 30
0.000000
  70
    32
  0
VERTEX
  8
01
  5
C22D
 10
911.815
 20
-1413.78
 30
0.000000
  70
    32
  0
VERTEX
  8
01
  5
C22E
 10
911.817
 20
-1413.51
 30
0.000000
  70
    32
  0
VERTEX
  8
01
  5
C22F
 10
911.817
 20
-1413.23
 30
0.000000
  70
    32
  0
SEQEND
  8
01
  5
C230
  0
POLYLINE
  5
BA30
  8
01
 10
917.12663038513415
 20
-1397.9653991428445
 30
0.0
 66
     1
 70
     8
  0
VERTEX
  8
01
  5
C231
 10
917.127
 20
-1397.97
 30
0.000000
  70
    32
  0
VERTEX
  8
01
  5
C232
 10
917.016
 20
-1397.97
 30
0.000000
  70
    32
  0
VERTEX
  8
01
  5
C233
 10
916.904
 20
-1397.97
 30
0.000000
  70
    32
  0
VERTEX
  8
01
  5
C234
 10
916.793
 20
-1397.98
 30
0.000000
  70
    32
  0
VERTEX
  8
01
  5
C235
 10
916.682
 20
-1397.98
 30
0.000000
  70
    32
  0
VERTEX
  8
01
  5
C236
 10
916.571
 20
-1397.99
 30
0.000000
  70
    32
  0
VERTEX
  8
01
  5
C237
 10
916.460
 20
-1398.01
 30
0.000000
  70
    32
  0
VERTEX
  8
01
  5
C238
 10
916.350
 20
-1398.02
 30
0.000000
  70
    32
  0
VERTEX
  8
01
  5
C239
 10
916.239
 20
-1398.04
 30
0.000000
  70
    32
  0
VERTEX
  8
01
  5
C23A
 10
916.129
 20
-1398.06
 30
0.000000
  70
    32
  0
VERTEX
  8
01
  5
C23B
 10
916.018
 20
-1398.08
 30
0.000000
  70
    32
  0
VERTEX
  8
01
  5
C23C
 10
915.908
 20
-1398.10
 30
0.000000
  70
    32
  0
VERTEX
  8
01
  5
C23D
 10
915.798
 20
-1398.13
 30
0.000000
  70
    32
  0
VERTEX
  8
01
  5
C23E
 10
915.688
 20
-1398.16
 30
0.000000
  70
    32
  0
VERTEX
  8
01
  5
C23F
 10
915.578
 20
-1398.19
 30
0.000000
  70
    32
  0
VERTEX
  8
01
  5
C240
 10
915.469
 20
-1398.22
 30
0.000000
  70
    32
  0
VERTEX
  8
01
  5
C241
 10
915.360
 20
-1398.26
 30
0.000000
  70
    32
  0
VERTEX
  8
01
  5
C242
 10
915.251
 20
-1398.30
 30
0.000000
  70
    32
  0
VERTEX
  8
01
  5
C243
 10
915.143
 20
-1398.34
 30
0.000000
  70
    32
  0
VERTEX
  8
01
  5
C244
 10
915.034
 20
-1398.38
 30
0.000000
  70
    32
  0
VERTEX
  8
01
  5
C245
 10
914.926
 20
-1398.42
 30
0.000000
  70
    32
  0
VERTEX
  8
01
  5
C246
 10
914.819
 20
-1398.47
 30
0.000000
  70
    32
  0
VERTEX
  8
01
  5
C247
 10
914.711
 20
-1398.52
 30
0.000000
  70
    32
  0
VERTEX
  8
01
  5
C248
 10
914.605
 20
-1398.57
 30
0.000000
  70
    32
  0
VERTEX
  8
01
  5
C249
 10
914.498
 20
-1398.62
 30
0.000000
  70
    32
  0
VERTEX
  8
01
  5
C24A
 10
914.392
 20
-1398.68
 30
0.000000
  70
    32
  0
VERTEX
  8
01
  5
C24B
 10
914.286
 20
-1398.74
 30
0.000000
  70
    32
  0
VERTEX
  8
01
  5
C24C
 10
914.181
 20
-1398.80
 30
0.000000
  70
    32
  0
VERTEX
  8
01
  5
C24D
 10
914.076
 20
-1398.86
 30
0.000000
  70
    32
  0
VERTEX
  8
01
  5
C24E
 10
913.972
 20
-1398.92
 30
0.000000
  70
    32
  0
VERTEX
  8
01
  5
C24F
 10
913.868
 20
-1398.99
 30
0.000000
  70
    32
  0
VERTEX
  8
01
  5
C250
 10
913.764
 20
-1399.06
 30
0.000000
  70
    32
  0
VERTEX
  8
01
  5
C251
 10
913.661
 20
-1399.13
 30
0.000000
  70
    32
  0
VERTEX
  8
01
  5
C252
 10
913.559
 20
-1399.20
 30
0.000000
  70
    32
  0
VERTEX
  8
01
  5
C253
 10
913.457
 20
-1399.28
 30
0.000000
  70
    32
  0
VERTEX
  8
01
  5
C254
 10
913.356
 20
-1399.35
 30
0.000000
  70
    32
  0
VERTEX
  8
01
  5
C255
 10
913.255
 20
-1399.43
 30
0.000000
  70
    32
  0
VERTEX
  8
01
  5
C256
 10
913.155
 20
-1399.51
 30
0.000000
  70
    32
  0
VERTEX
  8
01
  5
C257
 10
913.055
 20
-1399.60
 30
0.000000
  70
    32
  0
VERTEX
  8
01
  5
C258
 10
912.956
 20
-1399.68
 30
0.000000
  70
    32
  0
VERTEX
  8
01
  5
C259
 10
912.858
 20
-1399.77
 30
0.000000
  70
    32
  0
VERTEX
  8
01
  5
C25A
 10
912.760
 20
-1399.86
 30
0.000000
  70
    32
  0
VERTEX
  8
01
  5
C25B
 10
912.663
 20
-1399.95
 30
0.000000
  70
    32
  0
VERTEX
  8
01
  5
C25C
 10
912.567
 20
-1400.04
 30
0.000000
  70
    32
  0
VERTEX
  8
01
  5
C25D
 10
912.471
 20
-1400.14
 30
0.000000
  70
    32
  0
VERTEX
  8
01
  5
C25E
 10
912.376
 20
-1400.24
 30
0.000000
  70
    32
  0
VERTEX
  8
01
  5
C25F
 10
912.282
 20
-1400.33
 30
0.000000
  70
    32
  0
VERTEX
  8
01
  5
C260
 10
912.188
 20
-1400.44
 30
0.000000
  70
    32
  0
VERTEX
  8
01
  5
C261
 10
912.096
 20
-1400.54
 30
0.000000
  70
    32
  0
VERTEX
  8
01
  5
C262
 10
912.004
 20
-1400.64
 30
0.000000
  70
    32
  0
VERTEX
  8
01
  5
C263
 10
911.912
 20
-1400.75
 30
0.000000
  70
    32
  0
VERTEX
  8
01
  5
C264
 10
911.822
 20
-1400.86
 30
0.000000
  70
    32
  0
VERTEX
  8
01
  5
C265
 10
911.732
 20
-1400.97
 30
0.000000
  70
    32
  0
VERTEX
  8
01
  5
C266
 10
911.643
 20
-1401.08
 30
0.000000
  70
    32
  0
VERTEX
  8
01
  5
C267
 10
911.555
 20
-1401.20
 30
0.000000
  70
    32
  0
VERTEX
  8
01
  5
C268
 10
911.468
 20
-1401.31
 30
0.000000
  70
    32
  0
VERTEX
  8
01
  5
C269
 10
911.382
 20
-1401.43
 30
0.000000
  70
    32
  0
VERTEX
  8
01
  5
C26A
 10
911.296
 20
-1401.55
 30
0.000000
  70
    32
  0
VERTEX
  8
01
  5
C26B
 10
911.212
 20
-1401.67
 30
0.000000
  70
    32
  0
VERTEX
  8
01
  5
C26C
 10
911.128
 20
-1401.80
 30
0.000000
  70
    32
  0
VERTEX
  8
01
  5
C26D
 10
911.045
 20
-1401.92
 30
0.000000
  70
    32
  0
VERTEX
  8
01
  5
C26E
 10
910.964
 20
-1402.05
 30
0.000000
  70
    32
  0
VERTEX
  8
01
  5
C26F
 10
910.883
 20
-1402.18
 30
0.000000
  70
    32
  0
VERTEX
  8
01
  5
C270
 10
910.803
 20
-1402.31
 30
0.000000
  70
    32
  0
VERTEX
  8
01
  5
C271
 10
910.723
 20
-1402.44
 30
0.000000
  70
    32
  0
VERTEX
  8
01
  5
C272
 10
910.645
 20
-1402.57
 30
0.000000
  70
    32
  0
VERTEX
  8
01
  5
C273
 10
910.568
 20
-1402.71
 30
0.000000
  70
    32
  0
VERTEX
  8
01
  5
C274
 10
910.492
 20
-1402.84
 30
0.000000
  70
    32
  0
VERTEX
  8
01
  5
C275
 10
910.417
 20
-1402.98
 30
0.000000
  70
    32
  0
VERTEX
  8
01
  5
C276
 10
910.343
 20
-1403.12
 30
0.000000
  70
    32
  0
VERTEX
  8
01
  5
C277
 10
910.270
 20
-1403.26
 30
0.000000
  70
    32
  0
VERTEX
  8
01
  5
C278
 10
910.198
 20
-1403.40
 30
0.000000
  70
    32
  0
VERTEX
  8
01
  5
C279
 10
910.127
 20
-1403.55
 30
0.000000
  70
    32
  0
VERTEX
  8
01
  5
C27A
 10
910.057
 20
-1403.69
 30
0.000000
  70
    32
  0
VERTEX
  8
01
  5
C27B
 10
909.988
 20
-1403.84
 30
0.000000
  70
    32
  0
VERTEX
  8
01
  5
C27C
 10
909.920
 20
-1403.99
 30
0.000000
  70
    32
  0
VERTEX
  8
01
  5
C27D
 10
909.853
 20
-1404.14
 30
0.000000
  70
    32
  0
VERTEX
  8
01
  5
C27E
 10
909.788
 20
-1404.29
 30
0.000000
  70
    32
  0
VERTEX
  8
01
  5
C27F
 10
909.723
 20
-1404.44
 30
0.000000
  70
    32
  0
VERTEX
  8
01
  5
C280
 10
909.660
 20
-1404.60
 30
0.000000
  70
    32
  0
VERTEX
  8
01
  5
C281
 10
909.597
 20
-1404.75
 30
0.000000
  70
    32
  0
VERTEX
  8
01
  5
C282
 10
909.536
 20
-1404.91
 30
0.000000
  70
    32
  0
VERTEX
  8
01
  5
C283
 10
909.476
 20
-1405.07
 30
0.000000
  70
    32
  0
VERTEX
  8
01
  5
C284
 10
909.417
 20
-1405.22
 30
0.000000
  70
    32
  0
VERTEX
  8
01
  5
C285
 10
909.360
 20
-1405.38
 30
0.000000
  70
    32
  0
VERTEX
  8
01
  5
C286
 10
909.303
 20
-1405.55
 30
0.000000
  70
    32
  0
VERTEX
  8
01
  5
C287
 10
909.248
 20
-1405.71
 30
0.000000
  70
    32
  0
VERTEX
  8
01
  5
C288
 10
909.193
 20
-1405.87
 30
0.000000
  70
    32
  0
VERTEX
  8
01
  5
C289
 10
909.140
 20
-1406.04
 30
0.000000
  70
    32
  0
VERTEX
  8
01
  5
C28A
 10
909.089
 20
-1406.20
 30
0.000000
  70
    32
  0
VERTEX
  8
01
  5
C28B
 10
909.038
 20
-1406.37
 30
0.000000
  70
    32
  0
VERTEX
  8
01
  5
C28C
 10
908.989
 20
-1406.54
 30
0.000000
  70
    32
  0
VERTEX
  8
01
  5
C28D
 10
908.941
 20
-1406.71
 30
0.000000
  70
    32
  0
VERTEX
  8
01
  5
C28E
 10
908.894
 20
-1406.88
 30
0.000000
  70
    32
  0
VERTEX
  8
01
  5
C28F
 10
908.848
 20
-1407.05
 30
0.000000
  70
    32
  0
VERTEX
  8
01
  5
C290
 10
908.804
 20
-1407.22
 30
0.000000
  70
    32
  0
VERTEX
  8
01
  5
C291
 10
908.761
 20
-1407.39
 30
0.000000
  70
    32
  0
VERTEX
  8
01
  5
C292
 10
908.719
 20
-1407.56
 30
0.000000
  70
    32
  0
VERTEX
  8
01
  5
C293
 10
908.678
 20
-1407.74
 30
0.000000
  70
    32
  0
VERTEX
  8
01
  5
C294
 10
908.639
 20
-1407.91
 30
0.000000
  70
    32
  0
VERTEX
  8
01
  5
C295
 10
908.601
 20
-1408.09
 30
0.000000
  70
    32
  0
VERTEX
  8
01
  5
C296
 10
908.564
 20
-1408.27
 30
0.000000
  70
    32
  0
VERTEX
  8
01
  5
C297
 10
908.528
 20
-1408.44
 30
0.000000
  70
    32
  0
VERTEX
  8
01
  5
C298
 10
908.494
 20
-1408.62
 30
0.000000
  70
    32
  0
VERTEX
  8
01
  5
C299
 10
908.461
 20
-1408.80
 30
0.000000
  70
    32
  0
VERTEX
  8
01
  5
C29A
 10
908.430
 20
-1408.98
 30
0.000000
  70
    32
  0
VERTEX
  8
01
  5
C29B
 10
908.399
 20
-1409.16
 30
0.000000
  70
    32
  0
VERTEX
  8
01
  5
C29C
 10
908.370
 20
-1409.34
 30
0.000000
  70
    32
  0
VERTEX
  8
01
  5
C29D
 10
908.343
 20
-1409.52
 30
0.000000
  70
    32
  0
VERTEX
  8
01
  5
C29E
 10
908.316
 20
-1409.71
 30
0.000000
  70
    32
  0
VERTEX
  8
01
  5
C29F
 10
908.291
 20
-1409.89
 30
0.000000
  70
    32
  0
VERTEX
  8
01
  5
C2A0
 10
908.268
 20
-1410.07
 30
0.000000
  70
    32
  0
VERTEX
  8
01
  5
C2A1
 10
908.245
 20
-1410.26
 30
0.000000
  70
    32
  0
VERTEX
  8
01
  5
C2A2
 10
908.224
 20
-1410.44
 30
0.000000
  70
    32
  0
VERTEX
  8
01
  5
C2A3
 10
908.205
 20
-1410.62
 30
0.000000
  70
    32
  0
VERTEX
  8
01
  5
C2A4
 10
908.186
 20
-1410.81
 30
0.000000
  70
    32
  0
VERTEX
  8
01
  5
C2A5
 10
908.169
 20
-1410.99
 30
0.000000
  70
    32
  0
VERTEX
  8
01
  5
C2A6
 10
908.154
 20
-1411.18
 30
0.000000
  70
    32
  0
VERTEX
  8
01
  5
C2A7
 10
908.139
 20
-1411.37
 30
0.000000
  70
    32
  0
VERTEX
  8
01
  5
C2A8
 10
908.126
 20
-1411.55
 30
0.000000
  70
    32
  0
VERTEX
  8
01
  5
C2A9
 10
908.115
 20
-1411.74
 30
0.000000
  70
    32
  0
VERTEX
  8
01
  5
C2AA
 10
908.105
 20
-1411.92
 30
0.000000
  70
    32
  0
VERTEX
  8
01
  5
C2AB
 10
908.096
 20
-1412.11
 30
0.000000
  70
    32
  0
VERTEX
  8
01
  5
C2AC
 10
908.088
 20
-1412.30
 30
0.000000
  70
    32
  0
VERTEX
  8
01
  5
C2AD
 10
908.082
 20
-1412.48
 30
0.000000
  70
    32
  0
VERTEX
  8
01
  5
C2AE
 10
908.077
 20
-1412.67
 30
0.000000
  70
    32
  0
VERTEX
  8
01
  5
C2AF
 10
908.074
 20
-1412.86
 30
0.000000
  70
    32
  0
VERTEX
  8
01
  5
C2B0
 10
908.072
 20
-1413.05
 30
0.000000
  70
    32
  0
VERTEX
  8
01
  5
C2B1
 10
908.071
 20
-1413.23
 30
0.000000
  70
    32
  0
SEQEND
  8
01
  5
C2B2
  0
ARC
  5
BA31
  8
01
 10
916.59324530298511
 20
-1409.8793793901491
 30
0.0
 40
13.20186386360011
 50
245.45475410764229
 51
329.36851625322578
  0
POLYLINE
  5
BA32
  8
01
 10
917.12663038513415
 20
-1399.8621086707531
 30
0.0
 66
     1
 70
     8
  0
VERTEX
  8
01
  5
C2B3
 10
917.127
 20
-1399.86
 30
0.000000
  70
    32
  0
VERTEX
  8
01
  5
C2B4
 10
917.061
 20
-1399.86
 30
0.000000
  70
    32
  0
VERTEX
  8
01
  5
C2B5
 10
916.996
 20
-1399.87
 30
0.000000
  70
    32
  0
VERTEX
  8
01
  5
C2B6
 10
916.931
 20
-1399.87
 30
0.000000
  70
    32
  0
VERTEX
  8
01
  5
C2B7
 10
916.866
 20
-1399.88
 30
0.000000
  70
    32
  0
VERTEX
  8
01
  5
C2B8
 10
916.801
 20
-1399.89
 30
0.000000
  70
    32
  0
VERTEX
  8
01
  5
C2B9
 10
916.736
 20
-1399.90
 30
0.000000
  70
    32
  0
VERTEX
  8
01
  5
C2BA
 10
916.671
 20
-1399.91
 30
0.000000
  70
    32
  0
VERTEX
  8
01
  5
C2BB
 10
916.606
 20
-1399.93
 30
0.000000
  70
    32
  0
VERTEX
  8
01
  5
C2BC
 10
916.541
 20
-1399.94
 30
0.000000
  70
    32
  0
VERTEX
  8
01
  5
C2BD
 10
916.477
 20
-1399.96
 30
0.000000
  70
    32
  0
VERTEX
  8
01
  5
C2BE
 10
916.412
 20
-1399.98
 30
0.000000
  70
    32
  0
VERTEX
  8
01
  5
C2BF
 10
916.348
 20
-1400.01
 30
0.000000
  70
    32
  0
VERTEX
  8
01
  5
C2C0
 10
916.283
 20
-1400.03
 30
0.000000
  70
    32
  0
VERTEX
  8
01
  5
C2C1
 10
916.219
 20
-1400.06
 30
0.000000
  70
    32
  0
VERTEX
  8
01
  5
C2C2
 10
916.155
 20
-1400.09
 30
0.000000
  70
    32
  0
VERTEX
  8
01
  5
C2C3
 10
916.091
 20
-1400.12
 30
0.000000
  70
    32
  0
VERTEX
  8
01
  5
C2C4
 10
916.027
 20
-1400.15
 30
0.000000
  70
    32
  0
VERTEX
  8
01
  5
C2C5
 10
915.963
 20
-1400.19
 30
0.000000
  70
    32
  0
VERTEX
  8
01
  5
C2C6
 10
915.900
 20
-1400.22
 30
0.000000
  70
    32
  0
VERTEX
  8
01
  5
C2C7
 10
915.837
 20
-1400.26
 30
0.000000
  70
    32
  0
VERTEX
  8
01
  5
C2C8
 10
915.774
 20
-1400.30
 30
0.000000
  70
    32
  0
VERTEX
  8
01
  5
C2C9
 10
915.711
 20
-1400.35
 30
0.000000
  70
    32
  0
VERTEX
  8
01
  5
C2CA
 10
915.648
 20
-1400.39
 30
0.000000
  70
    32
  0
VERTEX
  8
01
  5
C2CB
 10
915.585
 20
-1400.44
 30
0.000000
  70
    32
  0
VERTEX
  8
01
  5
C2CC
 10
915.523
 20
-1400.49
 30
0.000000
  70
    32
  0
VERTEX
  8
01
  5
C2CD
 10
915.461
 20
-1400.54
 30
0.000000
  70
    32
  0
VERTEX
  8
01
  5
C2CE
 10
915.400
 20
-1400.59
 30
0.000000
  70
    32
  0
VERTEX
  8
01
  5
C2CF
 10
915.338
 20
-1400.64
 30
0.000000
  70
    32
  0
VERTEX
  8
01
  5
C2D0
 10
915.277
 20
-1400.70
 30
0.000000
  70
    32
  0
VERTEX
  8
01
  5
C2D1
 10
915.216
 20
-1400.76
 30
0.000000
  70
    32
  0
VERTEX
  8
01
  5
C2D2
 10
915.155
 20
-1400.82
 30
0.000000
  70
    32
  0
VERTEX
  8
01
  5
C2D3
 10
915.095
 20
-1400.88
 30
0.000000
  70
    32
  0
VERTEX
  8
01
  5
C2D4
 10
915.035
 20
-1400.94
 30
0.000000
  70
    32
  0
VERTEX
  8
01
  5
C2D5
 10
914.975
 20
-1401.01
 30
0.000000
  70
    32
  0
VERTEX
  8
01
  5
C2D6
 10
914.916
 20
-1401.08
 30
0.000000
  70
    32
  0
VERTEX
  8
01
  5
C2D7
 10
914.857
 20
-1401.15
 30
0.000000
  70
    32
  0
VERTEX
  8
01
  5
C2D8
 10
914.798
 20
-1401.22
 30
0.000000
  70
    32
  0
VERTEX
  8
01
  5
C2D9
 10
914.740
 20
-1401.29
 30
0.000000
  70
    32
  0
VERTEX
  8
01
  5
C2DA
 10
914.682
 20
-1401.36
 30
0.000000
  70
    32
  0
VERTEX
  8
01
  5
C2DB
 10
914.624
 20
-1401.44
 30
0.000000
  70
    32
  0
VERTEX
  8
01
  5
C2DC
 10
914.567
 20
-1401.52
 30
0.000000
  70
    32
  0
VERTEX
  8
01
  5
C2DD
 10
914.510
 20
-1401.60
 30
0.000000
  70
    32
  0
VERTEX
  8
01
  5
C2DE
 10
914.453
 20
-1401.68
 30
0.000000
  70
    32
  0
VERTEX
  8
01
  5
C2DF
 10
914.397
 20
-1401.76
 30
0.000000
  70
    32
  0
VERTEX
  8
01
  5
C2E0
 10
914.341
 20
-1401.85
 30
0.000000
  70
    32
  0
VERTEX
  8
01
  5
C2E1
 10
914.286
 20
-1401.94
 30
0.000000
  70
    32
  0
VERTEX
  8
01
  5
C2E2
 10
914.231
 20
-1402.03
 30
0.000000
  70
    32
  0
VERTEX
  8
01
  5
C2E3
 10
914.177
 20
-1402.12
 30
0.000000
  70
    32
  0
VERTEX
  8
01
  5
C2E4
 10
914.123
 20
-1402.21
 30
0.000000
  70
    32
  0
VERTEX
  8
01
  5
C2E5
 10
914.070
 20
-1402.30
 30
0.000000
  70
    32
  0
VERTEX
  8
01
  5
C2E6
 10
914.017
 20
-1402.40
 30
0.000000
  70
    32
  0
VERTEX
  8
01
  5
C2E7
 10
913.964
 20
-1402.49
 30
0.000000
  70
    32
  0
VERTEX
  8
01
  5
C2E8
 10
913.912
 20
-1402.59
 30
0.000000
  70
    32
  0
VERTEX
  8
01
  5
C2E9
 10
913.860
 20
-1402.69
 30
0.000000
  70
    32
  0
VERTEX
  8
01
  5
C2EA
 10
913.809
 20
-1402.79
 30
0.000000
  70
    32
  0
VERTEX
  8
01
  5
C2EB
 10
913.759
 20
-1402.90
 30
0.000000
  70
    32
  0
VERTEX
  8
01
  5
C2EC
 10
913.708
 20
-1403.00
 30
0.000000
  70
    32
  0
VERTEX
  8
01
  5
C2ED
 10
913.659
 20
-1403.11
 30
0.000000
  70
    32
  0
VERTEX
  8
01
  5
C2EE
 10
913.610
 20
-1403.22
 30
0.000000
  70
    32
  0
VERTEX
  8
01
  5
C2EF
 10
913.561
 20
-1403.33
 30
0.000000
  70
    32
  0
VERTEX
  8
01
  5
C2F0
 10
913.513
 20
-1403.44
 30
0.000000
  70
    32
  0
VERTEX
  8
01
  5
C2F1
 10
913.466
 20
-1403.55
 30
0.000000
  70
    32
  0
VERTEX
  8
01
  5
C2F2
 10
913.419
 20
-1403.66
 30
0.000000
  70
    32
  0
VERTEX
  8
01
  5
C2F3
 10
913.372
 20
-1403.78
 30
0.000000
  70
    32
  0
VERTEX
  8
01
  5
C2F4
 10
913.327
 20
-1403.90
 30
0.000000
  70
    32
  0
VERTEX
  8
01
  5
C2F5
 10
913.281
 20
-1404.01
 30
0.000000
  70
    32
  0
VERTEX
  8
01
  5
C2F6
 10
913.237
 20
-1404.13
 30
0.000000
  70
    32
  0
VERTEX
  8
01
  5
C2F7
 10
913.193
 20
-1404.25
 30
0.000000
  70
    32
  0
VERTEX
  8
01
  5
C2F8
 10
913.149
 20
-1404.38
 30
0.000000
  70
    32
  0
VERTEX
  8
01
  5
C2F9
 10
913.106
 20
-1404.50
 30
0.000000
  70
    32
  0
VERTEX
  8
01
  5
C2FA
 10
913.064
 20
-1404.62
 30
0.000000
  70
    32
  0
VERTEX
  8
01
  5
C2FB
 10
913.023
 20
-1404.75
 30
0.000000
  70
    32
  0
VERTEX
  8
01
  5
C2FC
 10
912.982
 20
-1404.88
 30
0.000000
  70
    32
  0
VERTEX
  8
01
  5
C2FD
 10
912.941
 20
-1405.01
 30
0.000000
  70
    32
  0
VERTEX
  8
01
  5
C2FE
 10
912.901
 20
-1405.14
 30
0.000000
  70
    32
  0
VERTEX
  8
01
  5
C2FF
 10
912.862
 20
-1405.27
 30
0.000000
  70
    32
  0
VERTEX
  8
01
  5
C300
 10
912.824
 20
-1405.40
 30
0.000000
  70
    32
  0
VERTEX
  8
01
  5
C301
 10
912.786
 20
-1405.53
 30
0.000000
  70
    32
  0
VERTEX
  8
01
  5
C302
 10
912.749
 20
-1405.67
 30
0.000000
  70
    32
  0
VERTEX
  8
01
  5
C303
 10
912.712
 20
-1405.81
 30
0.000000
  70
    32
  0
VERTEX
  8
01
  5
C304
 10
912.676
 20
-1405.94
 30
0.000000
  70
    32
  0
VERTEX
  8
01
  5
C305
 10
912.641
 20
-1406.08
 30
0.000000
  70
    32
  0
VERTEX
  8
01
  5
C306
 10
912.607
 20
-1406.22
 30
0.000000
  70
    32
  0
VERTEX
  8
01
  5
C307
 10
912.573
 20
-1406.36
 30
0.000000
  70
    32
  0
VERTEX
  8
01
  5
C308
 10
912.540
 20
-1406.50
 30
0.000000
  70
    32
  0
VERTEX
  8
01
  5
C309
 10
912.507
 20
-1406.64
 30
0.000000
  70
    32
  0
VERTEX
  8
01
  5
C30A
 10
912.475
 20
-1406.79
 30
0.000000
  70
    32
  0
VERTEX
  8
01
  5
C30B
 10
912.444
 20
-1406.93
 30
0.000000
  70
    32
  0
VERTEX
  8
01
  5
C30C
 10
912.414
 20
-1407.08
 30
0.000000
  70
    32
  0
VERTEX
  8
01
  5
C30D
 10
912.384
 20
-1407.22
 30
0.000000
  70
    32
  0
VERTEX
  8
01
  5
C30E
 10
912.355
 20
-1407.37
 30
0.000000
  70
    32
  0
VERTEX
  8
01
  5
C30F
 10
912.327
 20
-1407.52
 30
0.000000
  70
    32
  0
VERTEX
  8
01
  5
C310
 10
912.300
 20
-1407.67
 30
0.000000
  70
    32
  0
VERTEX
  8
01
  5
C311
 10
912.273
 20
-1407.82
 30
0.000000
  70
    32
  0
VERTEX
  8
01
  5
C312
 10
912.247
 20
-1407.97
 30
0.000000
  70
    32
  0
VERTEX
  8
01
  5
C313
 10
912.222
 20
-1408.12
 30
0.000000
  70
    32
  0
VERTEX
  8
01
  5
C314
 10
912.197
 20
-1408.27
 30
0.000000
  70
    32
  0
VERTEX
  8
01
  5
C315
 10
912.173
 20
-1408.42
 30
0.000000
  70
    32
  0
VERTEX
  8
01
  5
C316
 10
912.150
 20
-1408.58
 30
0.000000
  70
    32
  0
VERTEX
  8
01
  5
C317
 10
912.128
 20
-1408.73
 30
0.000000
  70
    32
  0
VERTEX
  8
01
  5
C318
 10
912.106
 20
-1408.88
 30
0.000000
  70
    32
  0
VERTEX
  8
01
  5
C319
 10
912.085
 20
-1409.04
 30
0.000000
  70
    32
  0
VERTEX
  8
01
  5
C31A
 10
912.065
 20
-1409.20
 30
0.000000
  70
    32
  0
VERTEX
  8
01
  5
C31B
 10
912.046
 20
-1409.35
 30
0.000000
  70
    32
  0
VERTEX
  8
01
  5
C31C
 10
912.028
 20
-1409.51
 30
0.000000
  70
    32
  0
VERTEX
  8
01
  5
C31D
 10
912.010
 20
-1409.67
 30
0.000000
  70
    32
  0
VERTEX
  8
01
  5
C31E
 10
911.993
 20
-1409.83
 30
0.000000
  70
    32
  0
VERTEX
  8
01
  5
C31F
 10
911.977
 20
-1409.98
 30
0.000000
  70
    32
  0
VERTEX
  8
01
  5
C320
 10
911.961
 20
-1410.14
 30
0.000000
  70
    32
  0
VERTEX
  8
01
  5
C321
 10
911.946
 20
-1410.30
 30
0.000000
  70
    32
  0
VERTEX
  8
01
  5
C322
 10
911.933
 20
-1410.46
 30
0.000000
  70
    32
  0
VERTEX
  8
01
  5
C323
 10
911.919
 20
-1410.63
 30
0.000000
  70
    32
  0
VERTEX
  8
01
  5
C324
 10
911.907
 20
-1410.79
 30
0.000000
  70
    32
  0
VERTEX
  8
01
  5
C325
 10
911.896
 20
-1410.95
 30
0.000000
  70
    32
  0
VERTEX
  8
01
  5
C326
 10
911.885
 20
-1411.11
 30
0.000000
  70
    32
  0
VERTEX
  8
01
  5
C327
 10
911.875
 20
-1411.27
 30
0.000000
  70
    32
  0
VERTEX
  8
01
  5
C328
 10
911.866
 20
-1411.43
 30
0.000000
  70
    32
  0
VERTEX
  8
01
  5
C329
 10
911.857
 20
-1411.60
 30
0.000000
  70
    32
  0
VERTEX
  8
01
  5
C32A
 10
911.850
 20
-1411.76
 30
0.000000
  70
    32
  0
VERTEX
  8
01
  5
C32B
 10
911.843
 20
-1411.92
 30
0.000000
  70
    32
  0
VERTEX
  8
01
  5
C32C
 10
911.837
 20
-1412.09
 30
0.000000
  70
    32
  0
VERTEX
  8
01
  5
C32D
 10
911.832
 20
-1412.25
 30
0.000000
  70
    32
  0
VERTEX
  8
01
  5
C32E
 10
911.827
 20
-1412.41
 30
0.000000
  70
    32
  0
VERTEX
  8
01
  5
C32F
 10
911.824
 20
-1412.58
 30
0.000000
  70
    32
  0
VERTEX
  8
01
  5
C330
 10
911.821
 20
-1412.74
 30
0.000000
  70
    32
  0
VERTEX
  8
01
  5
C331
 10
911.819
 20
-1412.91
 30
0.000000
  70
    32
  0
VERTEX
  8
01
  5
C332
 10
911.818
 20
-1413.07
 30
0.000000
  70
    32
  0
VERTEX
  8
01
  5
C333
 10
911.817
 20
-1413.23
 30
0.000000
  70
    32
  0
SEQEND
  8
01
  5
C334
  0
ARC
  5
BA33
  8
01
 10
913.34191227591305
 20
-1426.128865927516
 30
0.0
 40
28.416631617726772
 50
77.912010037182753
 51
122.5808157056655
  0
LINE
  5
BAA1
  8
01
 10
814.18766916632353
 20
-1388.2340815977441
 30
0.0
 11
814.18766916632353
 21
-1438.2340815977441
 31
0.0
  0
LINE
  5
BAA2
  8
01
 10
805.68766916632353
 20
-1437.2340815977441
 30
0.0
 11
805.68766916632353
 21
-1389.2340815977441
 31
0.0
  0
LINE
  5
BAA3
  8
01
 10
814.18766916632353
 20
-1438.2340815977441
 30
0.0
 11
806.68766916632353
 21
-1438.2340815977441
 31
0.0
  0
ARC
  5
BAA4
  8
01
 10
806.68766916632353
 20
-1437.2340815977441
 30
0.0
 40
1.0
 50
180.0
 51
270.0
  0
LINE
  5
BAA5
  8
01
 10
814.18766916632353
 20
-1388.2340815977441
 30
0.0
 11
806.68766916632353
 21
-1388.2340815977441
 31
0.0
  0
ARC
  5
BAA6
  8
01
 10
806.68766916632353
 20
-1389.2340815977441
 30
0.0
 40
1.0
 50
90.0
 51
180.0
  0
LINE
  5
BAA7
  8
01
 10
805.18766916632353
 20
-1402.184081597745
 30
0.0
 11
770.33546042796365
 21
-1402.184081597745
 31
0.0
  0
LINE
  5
BAA8
  8
01
 10
805.18766916632353
 20
-1424.2840815977429
 30
0.0
 11
758.43099855918695
 21
-1424.2840815977429
 31
0.0
  0
LINE
  5
BAA9
  8
01
 10
805.18766916632353
 20
-1402.184081597745
 30
0.0
 11
805.18766916632353
 21
-1424.2840815977429
 31
0.0
  0
LINE
  5
BAAA
  8
01
 10
805.18766916632353
 20
-1405.2840815977429
 30
0.0
 11
805.68766916632353
 21
-1405.2840815977429
 31
0.0
  0
LINE
  5
BAAB
  8
01
 10
805.18766916632353
 20
-1421.1840815977439
 30
0.0
 11
805.68766916632353
 21
-1421.1840815977439
 31
0.0
  0
POLYLINE
  5
BAAC
  8
01
 10
740.42238845189388
 20
-1416.605917978374
 30
0.0
 66
     1
 70
     8
  0
VERTEX
  8
01
  5
C335
 10
740.422
 20
-1416.61
 30
0.000000
  70
    32
  0
VERTEX
  8
01
  5
C336
 10
740.423
 20
-1416.38
 30
0.000000
  70
    32
  0
VERTEX
  8
01
  5
C337
 10
740.426
 20
-1416.15
 30
0.000000
  70
    32
  0
VERTEX
  8
01
  5
C338
 10
740.430
 20
-1415.92
 30
0.000000
  70
    32
  0
VERTEX
  8
01
  5
C339
 10
740.435
 20
-1415.69
 30
0.000000
  70
    32
  0
VERTEX
  8
01
  5
C33A
 10
740.443
 20
-1415.46
 30
0.000000
  70
    32
  0
VERTEX
  8
01
  5
C33B
 10
740.452
 20
-1415.23
 30
0.000000
  70
    32
  0
VERTEX
  8
01
  5
C33C
 10
740.462
 20
-1415.01
 30
0.000000
  70
    32
  0
VERTEX
  8
01
  5
C33D
 10
740.475
 20
-1414.78
 30
0.000000
  70
    32
  0
VERTEX
  8
01
  5
C33E
 10
740.488
 20
-1414.55
 30
0.000000
  70
    32
  0
VERTEX
  8
01
  5
C33F
 10
740.504
 20
-1414.32
 30
0.000000
  70
    32
  0
VERTEX
  8
01
  5
C340
 10
740.521
 20
-1414.10
 30
0.000000
  70
    32
  0
VERTEX
  8
01
  5
C341
 10
740.540
 20
-1413.87
 30
0.000000
  70
    32
  0
VERTEX
  8
01
  5
C342
 10
740.560
 20
-1413.64
 30
0.000000
  70
    32
  0
VERTEX
  8
01
  5
C343
 10
740.582
 20
-1413.42
 30
0.000000
  70
    32
  0
VERTEX
  8
01
  5
C344
 10
740.605
 20
-1413.19
 30
0.000000
  70
    32
  0
VERTEX
  8
01
  5
C345
 10
740.630
 20
-1412.97
 30
0.000000
  70
    32
  0
VERTEX
  8
01
  5
C346
 10
740.657
 20
-1412.75
 30
0.000000
  70
    32
  0
VERTEX
  8
01
  5
C347
 10
740.685
 20
-1412.52
 30
0.000000
  70
    32
  0
VERTEX
  8
01
  5
C348
 10
740.715
 20
-1412.30
 30
0.000000
  70
    32
  0
VERTEX
  8
01
  5
C349
 10
740.747
 20
-1412.08
 30
0.000000
  70
    32
  0
VERTEX
  8
01
  5
C34A
 10
740.780
 20
-1411.86
 30
0.000000
  70
    32
  0
VERTEX
  8
01
  5
C34B
 10
740.815
 20
-1411.63
 30
0.000000
  70
    32
  0
VERTEX
  8
01
  5
C34C
 10
740.851
 20
-1411.41
 30
0.000000
  70
    32
  0
VERTEX
  8
01
  5
C34D
 10
740.889
 20
-1411.19
 30
0.000000
  70
    32
  0
VERTEX
  8
01
  5
C34E
 10
740.928
 20
-1410.98
 30
0.000000
  70
    32
  0
VERTEX
  8
01
  5
C34F
 10
740.969
 20
-1410.76
 30
0.000000
  70
    32
  0
VERTEX
  8
01
  5
C350
 10
741.011
 20
-1410.54
 30
0.000000
  70
    32
  0
VERTEX
  8
01
  5
C351
 10
741.055
 20
-1410.33
 30
0.000000
  70
    32
  0
VERTEX
  8
01
  5
C352
 10
741.101
 20
-1410.11
 30
0.000000
  70
    32
  0
VERTEX
  8
01
  5
C353
 10
741.148
 20
-1409.90
 30
0.000000
  70
    32
  0
VERTEX
  8
01
  5
C354
 10
741.196
 20
-1409.68
 30
0.000000
  70
    32
  0
VERTEX
  8
01
  5
C355
 10
741.246
 20
-1409.47
 30
0.000000
  70
    32
  0
VERTEX
  8
01
  5
C356
 10
741.298
 20
-1409.26
 30
0.000000
  70
    32
  0
VERTEX
  8
01
  5
C357
 10
741.351
 20
-1409.05
 30
0.000000
  70
    32
  0
VERTEX
  8
01
  5
C358
 10
741.406
 20
-1408.84
 30
0.000000
  70
    32
  0
VERTEX
  8
01
  5
C359
 10
741.462
 20
-1408.64
 30
0.000000
  70
    32
  0
VERTEX
  8
01
  5
C35A
 10
741.519
 20
-1408.43
 30
0.000000
  70
    32
  0
VERTEX
  8
01
  5
C35B
 10
741.578
 20
-1408.22
 30
0.000000
  70
    32
  0
VERTEX
  8
01
  5
C35C
 10
741.639
 20
-1408.02
 30
0.000000
  70
    32
  0
VERTEX
  8
01
  5
C35D
 10
741.701
 20
-1407.82
 30
0.000000
  70
    32
  0
VERTEX
  8
01
  5
C35E
 10
741.764
 20
-1407.62
 30
0.000000
  70
    32
  0
VERTEX
  8
01
  5
C35F
 10
741.829
 20
-1407.42
 30
0.000000
  70
    32
  0
VERTEX
  8
01
  5
C360
 10
741.895
 20
-1407.22
 30
0.000000
  70
    32
  0
VERTEX
  8
01
  5
C361
 10
741.963
 20
-1407.02
 30
0.000000
  70
    32
  0
VERTEX
  8
01
  5
C362
 10
742.032
 20
-1406.83
 30
0.000000
  70
    32
  0
VERTEX
  8
01
  5
C363
 10
742.102
 20
-1406.63
 30
0.000000
  70
    32
  0
VERTEX
  8
01
  5
C364
 10
742.174
 20
-1406.44
 30
0.000000
  70
    32
  0
VERTEX
  8
01
  5
C365
 10
742.247
 20
-1406.25
 30
0.000000
  70
    32
  0
VERTEX
  8
01
  5
C366
 10
742.321
 20
-1406.06
 30
0.000000
  70
    32
  0
VERTEX
  8
01
  5
C367
 10
742.397
 20
-1405.87
 30
0.000000
  70
    32
  0
VERTEX
  8
01
  5
C368
 10
742.474
 20
-1405.69
 30
0.000000
  70
    32
  0
VERTEX
  8
01
  5
C369
 10
742.553
 20
-1405.50
 30
0.000000
  70
    32
  0
VERTEX
  8
01
  5
C36A
 10
742.633
 20
-1405.32
 30
0.000000
  70
    32
  0
VERTEX
  8
01
  5
C36B
 10
742.714
 20
-1405.14
 30
0.000000
  70
    32
  0
VERTEX
  8
01
  5
C36C
 10
742.796
 20
-1404.96
 30
0.000000
  70
    32
  0
VERTEX
  8
01
  5
C36D
 10
742.880
 20
-1404.78
 30
0.000000
  70
    32
  0
VERTEX
  8
01
  5
C36E
 10
742.965
 20
-1404.60
 30
0.000000
  70
    32
  0
VERTEX
  8
01
  5
C36F
 10
743.051
 20
-1404.43
 30
0.000000
  70
    32
  0
VERTEX
  8
01
  5
C370
 10
743.138
 20
-1404.26
 30
0.000000
  70
    32
  0
VERTEX
  8
01
  5
C371
 10
743.227
 20
-1404.09
 30
0.000000
  70
    32
  0
VERTEX
  8
01
  5
C372
 10
743.317
 20
-1403.92
 30
0.000000
  70
    32
  0
VERTEX
  8
01
  5
C373
 10
743.408
 20
-1403.75
 30
0.000000
  70
    32
  0
VERTEX
  8
01
  5
C374
 10
743.500
 20
-1403.59
 30
0.000000
  70
    32
  0
VERTEX
  8
01
  5
C375
 10
743.593
 20
-1403.43
 30
0.000000
  70
    32
  0
VERTEX
  8
01
  5
C376
 10
743.688
 20
-1403.26
 30
0.000000
  70
    32
  0
VERTEX
  8
01
  5
C377
 10
743.784
 20
-1403.11
 30
0.000000
  70
    32
  0
VERTEX
  8
01
  5
C378
 10
743.880
 20
-1402.95
 30
0.000000
  70
    32
  0
VERTEX
  8
01
  5
C379
 10
743.978
 20
-1402.79
 30
0.000000
  70
    32
  0
VERTEX
  8
01
  5
C37A
 10
744.077
 20
-1402.64
 30
0.000000
  70
    32
  0
VERTEX
  8
01
  5
C37B
 10
744.177
 20
-1402.49
 30
0.000000
  70
    32
  0
VERTEX
  8
01
  5
C37C
 10
744.278
 20
-1402.34
 30
0.000000
  70
    32
  0
VERTEX
  8
01
  5
C37D
 10
744.381
 20
-1402.20
 30
0.000000
  70
    32
  0
VERTEX
  8
01
  5
C37E
 10
744.484
 20
-1402.05
 30
0.000000
  70
    32
  0
VERTEX
  8
01
  5
C37F
 10
744.588
 20
-1401.91
 30
0.000000
  70
    32
  0
VERTEX
  8
01
  5
C380
 10
744.693
 20
-1401.77
 30
0.000000
  70
    32
  0
VERTEX
  8
01
  5
C381
 10
744.799
 20
-1401.63
 30
0.000000
  70
    32
  0
VERTEX
  8
01
  5
C382
 10
744.907
 20
-1401.50
 30
0.000000
  70
    32
  0
VERTEX
  8
01
  5
C383
 10
745.015
 20
-1401.37
 30
0.000000
  70
    32
  0
VERTEX
  8
01
  5
C384
 10
745.124
 20
-1401.24
 30
0.000000
  70
    32
  0
VERTEX
  8
01
  5
C385
 10
745.234
 20
-1401.11
 30
0.000000
  70
    32
  0
VERTEX
  8
01
  5
C386
 10
745.345
 20
-1400.98
 30
0.000000
  70
    32
  0
VERTEX
  8
01
  5
C387
 10
745.457
 20
-1400.86
 30
0.000000
  70
    32
  0
VERTEX
  8
01
  5
C388
 10
745.569
 20
-1400.74
 30
0.000000
  70
    32
  0
VERTEX
  8
01
  5
C389
 10
745.683
 20
-1400.62
 30
0.000000
  70
    32
  0
VERTEX
  8
01
  5
C38A
 10
745.797
 20
-1400.50
 30
0.000000
  70
    32
  0
VERTEX
  8
01
  5
C38B
 10
745.912
 20
-1400.39
 30
0.000000
  70
    32
  0
VERTEX
  8
01
  5
C38C
 10
746.028
 20
-1400.28
 30
0.000000
  70
    32
  0
VERTEX
  8
01
  5
C38D
 10
746.145
 20
-1400.17
 30
0.000000
  70
    32
  0
VERTEX
  8
01
  5
C38E
 10
746.263
 20
-1400.06
 30
0.000000
  70
    32
  0
VERTEX
  8
01
  5
C38F
 10
746.381
 20
-1399.96
 30
0.000000
  70
    32
  0
VERTEX
  8
01
  5
C390
 10
746.500
 20
-1399.85
 30
0.000000
  70
    32
  0
VERTEX
  8
01
  5
C391
 10
746.620
 20
-1399.76
 30
0.000000
  70
    32
  0
VERTEX
  8
01
  5
C392
 10
746.740
 20
-1399.66
 30
0.000000
  70
    32
  0
VERTEX
  8
01
  5
C393
 10
746.861
 20
-1399.56
 30
0.000000
  70
    32
  0
VERTEX
  8
01
  5
C394
 10
746.983
 20
-1399.47
 30
0.000000
  70
    32
  0
VERTEX
  8
01
  5
C395
 10
747.106
 20
-1399.38
 30
0.000000
  70
    32
  0
VERTEX
  8
01
  5
C396
 10
747.229
 20
-1399.30
 30
0.000000
  70
    32
  0
VERTEX
  8
01
  5
C397
 10
747.352
 20
-1399.21
 30
0.000000
  70
    32
  0
VERTEX
  8
01
  5
C398
 10
747.477
 20
-1399.13
 30
0.000000
  70
    32
  0
VERTEX
  8
01
  5
C399
 10
747.601
 20
-1399.06
 30
0.000000
  70
    32
  0
VERTEX
  8
01
  5
C39A
 10
747.727
 20
-1398.98
 30
0.000000
  70
    32
  0
VERTEX
  8
01
  5
C39B
 10
747.853
 20
-1398.91
 30
0.000000
  70
    32
  0
VERTEX
  8
01
  5
C39C
 10
747.979
 20
-1398.84
 30
0.000000
  70
    32
  0
VERTEX
  8
01
  5
C39D
 10
748.106
 20
-1398.77
 30
0.000000
  70
    32
  0
VERTEX
  8
01
  5
C39E
 10
748.233
 20
-1398.70
 30
0.000000
  70
    32
  0
VERTEX
  8
01
  5
C39F
 10
748.361
 20
-1398.64
 30
0.000000
  70
    32
  0
VERTEX
  8
01
  5
C3A0
 10
748.489
 20
-1398.58
 30
0.000000
  70
    32
  0
VERTEX
  8
01
  5
C3A1
 10
748.618
 20
-1398.52
 30
0.000000
  70
    32
  0
VERTEX
  8
01
  5
C3A2
 10
748.747
 20
-1398.47
 30
0.000000
  70
    32
  0
VERTEX
  8
01
  5
C3A3
 10
748.877
 20
-1398.42
 30
0.000000
  70
    32
  0
VERTEX
  8
01
  5
C3A4
 10
749.006
 20
-1398.37
 30
0.000000
  70
    32
  0
VERTEX
  8
01
  5
C3A5
 10
749.137
 20
-1398.32
 30
0.000000
  70
    32
  0
VERTEX
  8
01
  5
C3A6
 10
749.267
 20
-1398.28
 30
0.000000
  70
    32
  0
VERTEX
  8
01
  5
C3A7
 10
749.398
 20
-1398.24
 30
0.000000
  70
    32
  0
VERTEX
  8
01
  5
C3A8
 10
749.529
 20
-1398.20
 30
0.000000
  70
    32
  0
VERTEX
  8
01
  5
C3A9
 10
749.660
 20
-1398.17
 30
0.000000
  70
    32
  0
VERTEX
  8
01
  5
C3AA
 10
749.792
 20
-1398.13
 30
0.000000
  70
    32
  0
VERTEX
  8
01
  5
C3AB
 10
749.923
 20
-1398.11
 30
0.000000
  70
    32
  0
VERTEX
  8
01
  5
C3AC
 10
750.055
 20
-1398.08
 30
0.000000
  70
    32
  0
VERTEX
  8
01
  5
C3AD
 10
750.188
 20
-1398.06
 30
0.000000
  70
    32
  0
VERTEX
  8
01
  5
C3AE
 10
750.320
 20
-1398.03
 30
0.000000
  70
    32
  0
VERTEX
  8
01
  5
C3AF
 10
750.452
 20
-1398.02
 30
0.000000
  70
    32
  0
VERTEX
  8
01
  5
C3B0
 10
750.585
 20
-1398.00
 30
0.000000
  70
    32
  0
VERTEX
  8
01
  5
C3B1
 10
750.717
 20
-1397.99
 30
0.000000
  70
    32
  0
VERTEX
  8
01
  5
C3B2
 10
750.850
 20
-1397.98
 30
0.000000
  70
    32
  0
VERTEX
  8
01
  5
C3B3
 10
750.983
 20
-1397.97
 30
0.000000
  70
    32
  0
VERTEX
  8
01
  5
C3B4
 10
751.116
 20
-1397.97
 30
0.000000
  70
    32
  0
VERTEX
  8
01
  5
C3B5
 10
751.249
 20
-1397.97
 30
0.000000
  70
    32
  0
SEQEND
  8
01
  5
C3B6
  0
POLYLINE
  5
BAAD
  8
01
 10
760.30412433952802
 20
-1413.2340815977441
 30
0.0
 66
     1
 70
     8
  0
VERTEX
  8
01
  5
C3B7
 10
760.304
 20
-1413.23
 30
0.000000
  70
    32
  0
VERTEX
  8
01
  5
C3B8
 10
760.304
 20
-1413.51
 30
0.000000
  70
    32
  0
VERTEX
  8
01
  5
C3B9
 10
760.302
 20
-1413.78
 30
0.000000
  70
    32
  0
VERTEX
  8
01
  5
C3BA
 10
760.299
 20
-1414.05
 30
0.000000
  70
    32
  0
VERTEX
  8
01
  5
C3BB
 10
760.295
 20
-1414.32
 30
0.000000
  70
    32
  0
VERTEX
  8
01
  5
C3BC
 10
760.290
 20
-1414.59
 30
0.000000
  70
    32
  0
VERTEX
  8
01
  5
C3BD
 10
760.284
 20
-1414.86
 30
0.000000
  70
    32
  0
VERTEX
  8
01
  5
C3BE
 10
760.277
 20
-1415.12
 30
0.000000
  70
    32
  0
VERTEX
  8
01
  5
C3BF
 10
760.268
 20
-1415.39
 30
0.000000
  70
    32
  0
VERTEX
  8
01
  5
C3C0
 10
760.259
 20
-1415.66
 30
0.000000
  70
    32
  0
VERTEX
  8
01
  5
C3C1
 10
760.248
 20
-1415.92
 30
0.000000
  70
    32
  0
VERTEX
  8
01
  5
C3C2
 10
760.236
 20
-1416.18
 30
0.000000
  70
    32
  0
VERTEX
  8
01
  5
C3C3
 10
760.223
 20
-1416.44
 30
0.000000
  70
    32
  0
VERTEX
  8
01
  5
C3C4
 10
760.210
 20
-1416.70
 30
0.000000
  70
    32
  0
VERTEX
  8
01
  5
C3C5
 10
760.195
 20
-1416.96
 30
0.000000
  70
    32
  0
VERTEX
  8
01
  5
C3C6
 10
760.179
 20
-1417.21
 30
0.000000
  70
    32
  0
VERTEX
  8
01
  5
C3C7
 10
760.162
 20
-1417.46
 30
0.000000
  70
    32
  0
VERTEX
  8
01
  5
C3C8
 10
760.143
 20
-1417.71
 30
0.000000
  70
    32
  0
VERTEX
  8
01
  5
C3C9
 10
760.124
 20
-1417.96
 30
0.000000
  70
    32
  0
VERTEX
  8
01
  5
C3CA
 10
760.104
 20
-1418.20
 30
0.000000
  70
    32
  0
VERTEX
  8
01
  5
C3CB
 10
760.083
 20
-1418.44
 30
0.000000
  70
    32
  0
VERTEX
  8
01
  5
C3CC
 10
760.061
 20
-1418.68
 30
0.000000
  70
    32
  0
VERTEX
  8
01
  5
C3CD
 10
760.038
 20
-1418.91
 30
0.000000
  70
    32
  0
VERTEX
  8
01
  5
C3CE
 10
760.014
 20
-1419.15
 30
0.000000
  70
    32
  0
VERTEX
  8
01
  5
C3CF
 10
759.988
 20
-1419.37
 30
0.000000
  70
    32
  0
VERTEX
  8
01
  5
C3D0
 10
759.962
 20
-1419.60
 30
0.000000
  70
    32
  0
VERTEX
  8
01
  5
C3D1
 10
759.936
 20
-1419.82
 30
0.000000
  70
    32
  0
VERTEX
  8
01
  5
C3D2
 10
759.908
 20
-1420.03
 30
0.000000
  70
    32
  0
VERTEX
  8
01
  5
C3D3
 10
759.879
 20
-1420.24
 30
0.000000
  70
    32
  0
VERTEX
  8
01
  5
C3D4
 10
759.849
 20
-1420.45
 30
0.000000
  70
    32
  0
VERTEX
  8
01
  5
C3D5
 10
759.819
 20
-1420.65
 30
0.000000
  70
    32
  0
VERTEX
  8
01
  5
C3D6
 10
759.788
 20
-1420.85
 30
0.000000
  70
    32
  0
VERTEX
  8
01
  5
C3D7
 10
759.755
 20
-1421.05
 30
0.000000
  70
    32
  0
VERTEX
  8
01
  5
C3D8
 10
759.723
 20
-1421.24
 30
0.000000
  70
    32
  0
VERTEX
  8
01
  5
C3D9
 10
759.689
 20
-1421.42
 30
0.000000
  70
    32
  0
VERTEX
  8
01
  5
C3DA
 10
759.654
 20
-1421.60
 30
0.000000
  70
    32
  0
VERTEX
  8
01
  5
C3DB
 10
759.619
 20
-1421.78
 30
0.000000
  70
    32
  0
VERTEX
  8
01
  5
C3DC
 10
759.583
 20
-1421.95
 30
0.000000
  70
    32
  0
VERTEX
  8
01
  5
C3DD
 10
759.547
 20
-1422.11
 30
0.000000
  70
    32
  0
VERTEX
  8
01
  5
C3DE
 10
759.510
 20
-1422.27
 30
0.000000
  70
    32
  0
VERTEX
  8
01
  5
C3DF
 10
759.472
 20
-1422.42
 30
0.000000
  70
    32
  0
VERTEX
  8
01
  5
C3E0
 10
759.433
 20
-1422.57
 30
0.000000
  70
    32
  0
VERTEX
  8
01
  5
C3E1
 10
759.394
 20
-1422.71
 30
0.000000
  70
    32
  0
VERTEX
  8
01
  5
C3E2
 10
759.354
 20
-1422.85
 30
0.000000
  70
    32
  0
VERTEX
  8
01
  5
C3E3
 10
759.314
 20
-1422.98
 30
0.000000
  70
    32
  0
VERTEX
  8
01
  5
C3E4
 10
759.273
 20
-1423.10
 30
0.000000
  70
    32
  0
VERTEX
  8
01
  5
C3E5
 10
759.232
 20
-1423.22
 30
0.000000
  70
    32
  0
VERTEX
  8
01
  5
C3E6
 10
759.190
 20
-1423.34
 30
0.000000
  70
    32
  0
VERTEX
  8
01
  5
C3E7
 10
759.148
 20
-1423.44
 30
0.000000
  70
    32
  0
VERTEX
  8
01
  5
C3E8
 10
759.105
 20
-1423.54
 30
0.000000
  70
    32
  0
VERTEX
  8
01
  5
C3E9
 10
759.062
 20
-1423.64
 30
0.000000
  70
    32
  0
VERTEX
  8
01
  5
C3EA
 10
759.019
 20
-1423.73
 30
0.000000
  70
    32
  0
VERTEX
  8
01
  5
C3EB
 10
758.975
 20
-1423.81
 30
0.000000
  70
    32
  0
VERTEX
  8
01
  5
C3EC
 10
758.931
 20
-1423.88
 30
0.000000
  70
    32
  0
VERTEX
  8
01
  5
C3ED
 10
758.886
 20
-1423.95
 30
0.000000
  70
    32
  0
VERTEX
  8
01
  5
C3EE
 10
758.841
 20
-1424.02
 30
0.000000
  70
    32
  0
VERTEX
  8
01
  5
C3EF
 10
758.796
 20
-1424.07
 30
0.000000
  70
    32
  0
VERTEX
  8
01
  5
C3F0
 10
758.751
 20
-1424.12
 30
0.000000
  70
    32
  0
VERTEX
  8
01
  5
C3F1
 10
758.706
 20
-1424.16
 30
0.000000
  70
    32
  0
VERTEX
  8
01
  5
C3F2
 10
758.660
 20
-1424.20
 30
0.000000
  70
    32
  0
VERTEX
  8
01
  5
C3F3
 10
758.615
 20
-1424.23
 30
0.000000
  70
    32
  0
VERTEX
  8
01
  5
C3F4
 10
758.569
 20
-1424.25
 30
0.000000
  70
    32
  0
VERTEX
  8
01
  5
C3F5
 10
758.523
 20
-1424.27
 30
0.000000
  70
    32
  0
VERTEX
  8
01
  5
C3F6
 10
758.477
 20
-1424.28
 30
0.000000
  70
    32
  0
VERTEX
  8
01
  5
C3F7
 10
758.431
 20
-1424.28
 30
0.000000
  70
    32
  0
VERTEX
  8
01
  5
C3F8
 10
758.385
 20
-1424.28
 30
0.000000
  70
    32
  0
VERTEX
  8
01
  5
C3F9
 10
758.339
 20
-1424.27
 30
0.000000
  70
    32
  0
VERTEX
  8
01
  5
C3FA
 10
758.293
 20
-1424.25
 30
0.000000
  70
    32
  0
VERTEX
  8
01
  5
C3FB
 10
758.247
 20
-1424.23
 30
0.000000
  70
    32
  0
VERTEX
  8
01
  5
C3FC
 10
758.202
 20
-1424.20
 30
0.000000
  70
    32
  0
VERTEX
  8
01
  5
C3FD
 10
758.156
 20
-1424.16
 30
0.000000
  70
    32
  0
VERTEX
  8
01
  5
C3FE
 10
758.111
 20
-1424.12
 30
0.000000
  70
    32
  0
VERTEX
  8
01
  5
C3FF
 10
758.066
 20
-1424.07
 30
0.000000
  70
    32
  0
VERTEX
  8
01
  5
C400
 10
758.021
 20
-1424.02
 30
0.000000
  70
    32
  0
VERTEX
  8
01
  5
C401
 10
757.976
 20
-1423.95
 30
0.000000
  70
    32
  0
VERTEX
  8
01
  5
C402
 10
757.931
 20
-1423.88
 30
0.000000
  70
    32
  0
VERTEX
  8
01
  5
C403
 10
757.887
 20
-1423.81
 30
0.000000
  70
    32
  0
VERTEX
  8
01
  5
C404
 10
757.843
 20
-1423.73
 30
0.000000
  70
    32
  0
VERTEX
  8
01
  5
C405
 10
757.800
 20
-1423.64
 30
0.000000
  70
    32
  0
VERTEX
  8
01
  5
C406
 10
757.757
 20
-1423.54
 30
0.000000
  70
    32
  0
VERTEX
  8
01
  5
C407
 10
757.714
 20
-1423.44
 30
0.000000
  70
    32
  0
VERTEX
  8
01
  5
C408
 10
757.672
 20
-1423.34
 30
0.000000
  70
    32
  0
VERTEX
  8
01
  5
C409
 10
757.630
 20
-1423.22
 30
0.000000
  70
    32
  0
VERTEX
  8
01
  5
C40A
 10
757.589
 20
-1423.10
 30
0.000000
  70
    32
  0
VERTEX
  8
01
  5
C40B
 10
757.548
 20
-1422.98
 30
0.000000
  70
    32
  0
VERTEX
  8
01
  5
C40C
 10
757.508
 20
-1422.85
 30
0.000000
  70
    32
  0
VERTEX
  8
01
  5
C40D
 10
757.468
 20
-1422.71
 30
0.000000
  70
    32
  0
VERTEX
  8
01
  5
C40E
 10
757.429
 20
-1422.57
 30
0.000000
  70
    32
  0
VERTEX
  8
01
  5
C40F
 10
757.390
 20
-1422.42
 30
0.000000
  70
    32
  0
VERTEX
  8
01
  5
C410
 10
757.352
 20
-1422.27
 30
0.000000
  70
    32
  0
VERTEX
  8
01
  5
C411
 10
757.315
 20
-1422.11
 30
0.000000
  70
    32
  0
VERTEX
  8
01
  5
C412
 10
757.279
 20
-1421.95
 30
0.000000
  70
    32
  0
VERTEX
  8
01
  5
C413
 10
757.243
 20
-1421.78
 30
0.000000
  70
    32
  0
VERTEX
  8
01
  5
C414
 10
757.208
 20
-1421.60
 30
0.000000
  70
    32
  0
VERTEX
  8
01
  5
C415
 10
757.173
 20
-1421.42
 30
0.000000
  70
    32
  0
VERTEX
  8
01
  5
C416
 10
757.139
 20
-1421.24
 30
0.000000
  70
    32
  0
VERTEX
  8
01
  5
C417
 10
757.106
 20
-1421.05
 30
0.000000
  70
    32
  0
VERTEX
  8
01
  5
C418
 10
757.074
 20
-1420.85
 30
0.000000
  70
    32
  0
VERTEX
  8
01
  5
C419
 10
757.043
 20
-1420.65
 30
0.000000
  70
    32
  0
VERTEX
  8
01
  5
C41A
 10
757.013
 20
-1420.45
 30
0.000000
  70
    32
  0
VERTEX
  8
01
  5
C41B
 10
756.983
 20
-1420.24
 30
0.000000
  70
    32
  0
VERTEX
  8
01
  5
C41C
 10
756.954
 20
-1420.03
 30
0.000000
  70
    32
  0
VERTEX
  8
01
  5
C41D
 10
756.926
 20
-1419.82
 30
0.000000
  70
    32
  0
VERTEX
  8
01
  5
C41E
 10
756.900
 20
-1419.60
 30
0.000000
  70
    32
  0
VERTEX
  8
01
  5
C41F
 10
756.874
 20
-1419.37
 30
0.000000
  70
    32
  0
VERTEX
  8
01
  5
C420
 10
756.848
 20
-1419.15
 30
0.000000
  70
    32
  0
VERTEX
  8
01
  5
C421
 10
756.824
 20
-1418.91
 30
0.000000
  70
    32
  0
VERTEX
  8
01
  5
C422
 10
756.801
 20
-1418.68
 30
0.000000
  70
    32
  0
VERTEX
  8
01
  5
C423
 10
756.779
 20
-1418.44
 30
0.000000
  70
    32
  0
VERTEX
  8
01
  5
C424
 10
756.758
 20
-1418.20
 30
0.000000
  70
    32
  0
VERTEX
  8
01
  5
C425
 10
756.738
 20
-1417.96
 30
0.000000
  70
    32
  0
VERTEX
  8
01
  5
C426
 10
756.719
 20
-1417.71
 30
0.000000
  70
    32
  0
VERTEX
  8
01
  5
C427
 10
756.700
 20
-1417.46
 30
0.000000
  70
    32
  0
VERTEX
  8
01
  5
C428
 10
756.683
 20
-1417.21
 30
0.000000
  70
    32
  0
VERTEX
  8
01
  5
C429
 10
756.667
 20
-1416.96
 30
0.000000
  70
    32
  0
VERTEX
  8
01
  5
C42A
 10
756.652
 20
-1416.70
 30
0.000000
  70
    32
  0
VERTEX
  8
01
  5
C42B
 10
756.639
 20
-1416.44
 30
0.000000
  70
    32
  0
VERTEX
  8
01
  5
C42C
 10
756.626
 20
-1416.18
 30
0.000000
  70
    32
  0
VERTEX
  8
01
  5
C42D
 10
756.614
 20
-1415.92
 30
0.000000
  70
    32
  0
VERTEX
  8
01
  5
C42E
 10
756.603
 20
-1415.66
 30
0.000000
  70
    32
  0
VERTEX
  8
01
  5
C42F
 10
756.594
 20
-1415.39
 30
0.000000
  70
    32
  0
VERTEX
  8
01
  5
C430
 10
756.585
 20
-1415.12
 30
0.000000
  70
    32
  0
VERTEX
  8
01
  5
C431
 10
756.578
 20
-1414.86
 30
0.000000
  70
    32
  0
VERTEX
  8
01
  5
C432
 10
756.572
 20
-1414.59
 30
0.000000
  70
    32
  0
VERTEX
  8
01
  5
C433
 10
756.567
 20
-1414.32
 30
0.000000
  70
    32
  0
VERTEX
  8
01
  5
C434
 10
756.563
 20
-1414.05
 30
0.000000
  70
    32
  0
VERTEX
  8
01
  5
C435
 10
756.560
 20
-1413.78
 30
0.000000
  70
    32
  0
VERTEX
  8
01
  5
C436
 10
756.558
 20
-1413.51
 30
0.000000
  70
    32
  0
VERTEX
  8
01
  5
C437
 10
756.558
 20
-1413.23
 30
0.000000
  70
    32
  0
SEQEND
  8
01
  5
C438
  0
POLYLINE
  5
BAAE
  8
01
 10
751.2487079475128
 20
-1397.9653991428445
 30
0.0
 66
     1
 70
     8
  0
VERTEX
  8
01
  5
C439
 10
751.249
 20
-1397.97
 30
0.000000
  70
    32
  0
VERTEX
  8
01
  5
C43A
 10
751.360
 20
-1397.97
 30
0.000000
  70
    32
  0
VERTEX
  8
01
  5
C43B
 10
751.471
 20
-1397.97
 30
0.000000
  70
    32
  0
VERTEX
  8
01
  5
C43C
 10
751.582
 20
-1397.98
 30
0.000000
  70
    32
  0
VERTEX
  8
01
  5
C43D
 10
751.693
 20
-1397.98
 30
0.000000
  70
    32
  0
VERTEX
  8
01
  5
C43E
 10
751.804
 20
-1397.99
 30
0.000000
  70
    32
  0
VERTEX
  8
01
  5
C43F
 10
751.915
 20
-1398.01
 30
0.000000
  70
    32
  0
VERTEX
  8
01
  5
C440
 10
752.026
 20
-1398.02
 30
0.000000
  70
    32
  0
VERTEX
  8
01
  5
C441
 10
752.136
 20
-1398.04
 30
0.000000
  70
    32
  0
VERTEX
  8
01
  5
C442
 10
752.247
 20
-1398.06
 30
0.000000
  70
    32
  0
VERTEX
  8
01
  5
C443
 10
752.357
 20
-1398.08
 30
0.000000
  70
    32
  0
VERTEX
  8
01
  5
C444
 10
752.467
 20
-1398.10
 30
0.000000
  70
    32
  0
VERTEX
  8
01
  5
C445
 10
752.577
 20
-1398.13
 30
0.000000
  70
    32
  0
VERTEX
  8
01
  5
C446
 10
752.687
 20
-1398.16
 30
0.000000
  70
    32
  0
VERTEX
  8
01
  5
C447
 10
752.797
 20
-1398.19
 30
0.000000
  70
    32
  0
VERTEX
  8
01
  5
C448
 10
752.906
 20
-1398.22
 30
0.000000
  70
    32
  0
VERTEX
  8
01
  5
C449
 10
753.015
 20
-1398.26
 30
0.000000
  70
    32
  0
VERTEX
  8
01
  5
C44A
 10
753.124
 20
-1398.30
 30
0.000000
  70
    32
  0
VERTEX
  8
01
  5
C44B
 10
753.233
 20
-1398.34
 30
0.000000
  70
    32
  0
VERTEX
  8
01
  5
C44C
 10
753.341
 20
-1398.38
 30
0.000000
  70
    32
  0
VERTEX
  8
01
  5
C44D
 10
753.449
 20
-1398.42
 30
0.000000
  70
    32
  0
VERTEX
  8
01
  5
C44E
 10
753.557
 20
-1398.47
 30
0.000000
  70
    32
  0
VERTEX
  8
01
  5
C44F
 10
753.664
 20
-1398.52
 30
0.000000
  70
    32
  0
VERTEX
  8
01
  5
C450
 10
753.771
 20
-1398.57
 30
0.000000
  70
    32
  0
VERTEX
  8
01
  5
C451
 10
753.877
 20
-1398.62
 30
0.000000
  70
    32
  0
VERTEX
  8
01
  5
C452
 10
753.983
 20
-1398.68
 30
0.000000
  70
    32
  0
VERTEX
  8
01
  5
C453
 10
754.089
 20
-1398.74
 30
0.000000
  70
    32
  0
VERTEX
  8
01
  5
C454
 10
754.195
 20
-1398.80
 30
0.000000
  70
    32
  0
VERTEX
  8
01
  5
C455
 10
754.299
 20
-1398.86
 30
0.000000
  70
    32
  0
VERTEX
  8
01
  5
C456
 10
754.404
 20
-1398.92
 30
0.000000
  70
    32
  0
VERTEX
  8
01
  5
C457
 10
754.508
 20
-1398.99
 30
0.000000
  70
    32
  0
VERTEX
  8
01
  5
C458
 10
754.611
 20
-1399.06
 30
0.000000
  70
    32
  0
VERTEX
  8
01
  5
C459
 10
754.714
 20
-1399.13
 30
0.000000
  70
    32
  0
VERTEX
  8
01
  5
C45A
 10
754.816
 20
-1399.20
 30
0.000000
  70
    32
  0
VERTEX
  8
01
  5
C45B
 10
754.918
 20
-1399.28
 30
0.000000
  70
    32
  0
VERTEX
  8
01
  5
C45C
 10
755.020
 20
-1399.35
 30
0.000000
  70
    32
  0
VERTEX
  8
01
  5
C45D
 10
755.120
 20
-1399.43
 30
0.000000
  70
    32
  0
VERTEX
  8
01
  5
C45E
 10
755.221
 20
-1399.51
 30
0.000000
  70
    32
  0
VERTEX
  8
01
  5
C45F
 10
755.320
 20
-1399.60
 30
0.000000
  70
    32
  0
VERTEX
  8
01
  5
C460
 10
755.419
 20
-1399.68
 30
0.000000
  70
    32
  0
VERTEX
  8
01
  5
C461
 10
755.517
 20
-1399.77
 30
0.000000
  70
    32
  0
VERTEX
  8
01
  5
C462
 10
755.615
 20
-1399.86
 30
0.000000
  70
    32
  0
VERTEX
  8
01
  5
C463
 10
755.712
 20
-1399.95
 30
0.000000
  70
    32
  0
VERTEX
  8
01
  5
C464
 10
755.808
 20
-1400.04
 30
0.000000
  70
    32
  0
VERTEX
  8
01
  5
C465
 10
755.904
 20
-1400.14
 30
0.000000
  70
    32
  0
VERTEX
  8
01
  5
C466
 10
755.999
 20
-1400.24
 30
0.000000
  70
    32
  0
VERTEX
  8
01
  5
C467
 10
756.093
 20
-1400.33
 30
0.000000
  70
    32
  0
VERTEX
  8
01
  5
C468
 10
756.187
 20
-1400.44
 30
0.000000
  70
    32
  0
VERTEX
  8
01
  5
C469
 10
756.280
 20
-1400.54
 30
0.000000
  70
    32
  0
VERTEX
  8
01
  5
C46A
 10
756.372
 20
-1400.64
 30
0.000000
  70
    32
  0
VERTEX
  8
01
  5
C46B
 10
756.463
 20
-1400.75
 30
0.000000
  70
    32
  0
VERTEX
  8
01
  5
C46C
 10
756.553
 20
-1400.86
 30
0.000000
  70
    32
  0
VERTEX
  8
01
  5
C46D
 10
756.643
 20
-1400.97
 30
0.000000
  70
    32
  0
VERTEX
  8
01
  5
C46E
 10
756.732
 20
-1401.08
 30
0.000000
  70
    32
  0
VERTEX
  8
01
  5
C46F
 10
756.820
 20
-1401.20
 30
0.000000
  70
    32
  0
VERTEX
  8
01
  5
C470
 10
756.907
 20
-1401.31
 30
0.000000
  70
    32
  0
VERTEX
  8
01
  5
C471
 10
756.993
 20
-1401.43
 30
0.000000
  70
    32
  0
VERTEX
  8
01
  5
C472
 10
757.079
 20
-1401.55
 30
0.000000
  70
    32
  0
VERTEX
  8
01
  5
C473
 10
757.163
 20
-1401.67
 30
0.000000
  70
    32
  0
VERTEX
  8
01
  5
C474
 10
757.247
 20
-1401.80
 30
0.000000
  70
    32
  0
VERTEX
  8
01
  5
C475
 10
757.330
 20
-1401.92
 30
0.000000
  70
    32
  0
VERTEX
  8
01
  5
C476
 10
757.412
 20
-1402.05
 30
0.000000
  70
    32
  0
VERTEX
  8
01
  5
C477
 10
757.493
 20
-1402.18
 30
0.000000
  70
    32
  0
VERTEX
  8
01
  5
C478
 10
757.573
 20
-1402.31
 30
0.000000
  70
    32
  0
VERTEX
  8
01
  5
C479
 10
757.652
 20
-1402.44
 30
0.000000
  70
    32
  0
VERTEX
  8
01
  5
C47A
 10
757.730
 20
-1402.57
 30
0.000000
  70
    32
  0
VERTEX
  8
01
  5
C47B
 10
757.807
 20
-1402.71
 30
0.000000
  70
    32
  0
VERTEX
  8
01
  5
C47C
 10
757.883
 20
-1402.84
 30
0.000000
  70
    32
  0
VERTEX
  8
01
  5
C47D
 10
757.958
 20
-1402.98
 30
0.000000
  70
    32
  0
VERTEX
  8
01
  5
C47E
 10
758.032
 20
-1403.12
 30
0.000000
  70
    32
  0
VERTEX
  8
01
  5
C47F
 10
758.106
 20
-1403.26
 30
0.000000
  70
    32
  0
VERTEX
  8
01
  5
C480
 10
758.178
 20
-1403.40
 30
0.000000
  70
    32
  0
VERTEX
  8
01
  5
C481
 10
758.249
 20
-1403.55
 30
0.000000
  70
    32
  0
VERTEX
  8
01
  5
C482
 10
758.319
 20
-1403.69
 30
0.000000
  70
    32
  0
VERTEX
  8
01
  5
C483
 10
758.388
 20
-1403.84
 30
0.000000
  70
    32
  0
VERTEX
  8
01
  5
C484
 10
758.455
 20
-1403.99
 30
0.000000
  70
    32
  0
VERTEX
  8
01
  5
C485
 10
758.522
 20
-1404.14
 30
0.000000
  70
    32
  0
VERTEX
  8
01
  5
C486
 10
758.588
 20
-1404.29
 30
0.000000
  70
    32
  0
VERTEX
  8
01
  5
C487
 10
758.652
 20
-1404.44
 30
0.000000
  70
    32
  0
VERTEX
  8
01
  5
C488
 10
758.716
 20
-1404.60
 30
0.000000
  70
    32
  0
VERTEX
  8
01
  5
C489
 10
758.778
 20
-1404.75
 30
0.000000
  70
    32
  0
VERTEX
  8
01
  5
C48A
 10
758.839
 20
-1404.91
 30
0.000000
  70
    32
  0
VERTEX
  8
01
  5
C48B
 10
758.899
 20
-1405.07
 30
0.000000
  70
    32
  0
VERTEX
  8
01
  5
C48C
 10
758.958
 20
-1405.22
 30
0.000000
  70
    32
  0
VERTEX
  8
01
  5
C48D
 10
759.016
 20
-1405.38
 30
0.000000
  70
    32
  0
VERTEX
  8
01
  5
C48E
 10
759.072
 20
-1405.55
 30
0.000000
  70
    32
  0
VERTEX
  8
01
  5
C48F
 10
759.128
 20
-1405.71
 30
0.000000
  70
    32
  0
VERTEX
  8
01
  5
C490
 10
759.182
 20
-1405.87
 30
0.000000
  70
    32
  0
VERTEX
  8
01
  5
C491
 10
759.235
 20
-1406.04
 30
0.000000
  70
    32
  0
VERTEX
  8
01
  5
C492
 10
759.287
 20
-1406.20
 30
0.000000
  70
    32
  0
VERTEX
  8
01
  5
C493
 10
759.337
 20
-1406.37
 30
0.000000
  70
    32
  0
VERTEX
  8
01
  5
C494
 10
759.387
 20
-1406.54
 30
0.000000
  70
    32
  0
VERTEX
  8
01
  5
C495
 10
759.435
 20
-1406.71
 30
0.000000
  70
    32
  0
VERTEX
  8
01
  5
C496
 10
759.482
 20
-1406.88
 30
0.000000
  70
    32
  0
VERTEX
  8
01
  5
C497
 10
759.527
 20
-1407.05
 30
0.000000
  70
    32
  0
VERTEX
  8
01
  5
C498
 10
759.572
 20
-1407.22
 30
0.000000
  70
    32
  0
VERTEX
  8
01
  5
C499
 10
759.615
 20
-1407.39
 30
0.000000
  70
    32
  0
VERTEX
  8
01
  5
C49A
 10
759.657
 20
-1407.56
 30
0.000000
  70
    32
  0
VERTEX
  8
01
  5
C49B
 10
759.697
 20
-1407.74
 30
0.000000
  70
    32
  0
VERTEX
  8
01
  5
C49C
 10
759.737
 20
-1407.91
 30
0.000000
  70
    32
  0
VERTEX
  8
01
  5
C49D
 10
759.775
 20
-1408.09
 30
0.000000
  70
    32
  0
VERTEX
  8
01
  5
C49E
 10
759.812
 20
-1408.27
 30
0.000000
  70
    32
  0
VERTEX
  8
01
  5
C49F
 10
759.847
 20
-1408.44
 30
0.000000
  70
    32
  0
VERTEX
  8
01
  5
C4A0
 10
759.881
 20
-1408.62
 30
0.000000
  70
    32
  0
VERTEX
  8
01
  5
C4A1
 10
759.914
 20
-1408.80
 30
0.000000
  70
    32
  0
VERTEX
  8
01
  5
C4A2
 10
759.946
 20
-1408.98
 30
0.000000
  70
    32
  0
VERTEX
  8
01
  5
C4A3
 10
759.976
 20
-1409.16
 30
0.000000
  70
    32
  0
VERTEX
  8
01
  5
C4A4
 10
760.005
 20
-1409.34
 30
0.000000
  70
    32
  0
VERTEX
  8
01
  5
C4A5
 10
760.033
 20
-1409.52
 30
0.000000
  70
    32
  0
VERTEX
  8
01
  5
C4A6
 10
760.059
 20
-1409.71
 30
0.000000
  70
    32
  0
VERTEX
  8
01
  5
C4A7
 10
760.084
 20
-1409.89
 30
0.000000
  70
    32
  0
VERTEX
  8
01
  5
C4A8
 10
760.108
 20
-1410.07
 30
0.000000
  70
    32
  0
VERTEX
  8
01
  5
C4A9
 10
760.130
 20
-1410.26
 30
0.000000
  70
    32
  0
VERTEX
  8
01
  5
C4AA
 10
760.151
 20
-1410.44
 30
0.000000
  70
    32
  0
VERTEX
  8
01
  5
C4AB
 10
760.171
 20
-1410.62
 30
0.000000
  70
    32
  0
VERTEX
  8
01
  5
C4AC
 10
760.189
 20
-1410.81
 30
0.000000
  70
    32
  0
VERTEX
  8
01
  5
C4AD
 10
760.206
 20
-1410.99
 30
0.000000
  70
    32
  0
VERTEX
  8
01
  5
C4AE
 10
760.222
 20
-1411.18
 30
0.000000
  70
    32
  0
VERTEX
  8
01
  5
C4AF
 10
760.236
 20
-1411.37
 30
0.000000
  70
    32
  0
VERTEX
  8
01
  5
C4B0
 10
760.249
 20
-1411.55
 30
0.000000
  70
    32
  0
VERTEX
  8
01
  5
C4B1
 10
760.261
 20
-1411.74
 30
0.000000
  70
    32
  0
VERTEX
  8
01
  5
C4B2
 10
760.271
 20
-1411.92
 30
0.000000
  70
    32
  0
VERTEX
  8
01
  5
C4B3
 10
760.280
 20
-1412.11
 30
0.000000
  70
    32
  0
VERTEX
  8
01
  5
C4B4
 10
760.287
 20
-1412.30
 30
0.000000
  70
    32
  0
VERTEX
  8
01
  5
C4B5
 10
760.293
 20
-1412.48
 30
0.000000
  70
    32
  0
VERTEX
  8
01
  5
C4B6
 10
760.298
 20
-1412.67
 30
0.000000
  70
    32
  0
VERTEX
  8
01
  5
C4B7
 10
760.301
 20
-1412.86
 30
0.000000
  70
    32
  0
VERTEX
  8
01
  5
C4B8
 10
760.303
 20
-1413.05
 30
0.000000
  70
    32
  0
VERTEX
  8
01
  5
C4B9
 10
760.304
 20
-1413.23
 30
0.000000
  70
    32
  0
SEQEND
  8
01
  5
C4BA
  0
ARC
  5
BAAF
  8
01
 10
751.78209302966184
 20
-1409.8793793901491
 30
0.0
 40
13.20186386360011
 50
210.631483746773
 51
294.54524589235791
  0
POLYLINE
  5
BAB0
  8
01
 10
751.2487079475128
 20
-1399.8621086707531
 30
0.0
 66
     1
 70
     8
  0
VERTEX
  8
01
  5
C4BB
 10
751.249
 20
-1399.86
 30
0.000000
  70
    32
  0
VERTEX
  8
01
  5
C4BC
 10
751.314
 20
-1399.86
 30
0.000000
  70
    32
  0
VERTEX
  8
01
  5
C4BD
 10
751.379
 20
-1399.87
 30
0.000000
  70
    32
  0
VERTEX
  8
01
  5
C4BE
 10
751.444
 20
-1399.87
 30
0.000000
  70
    32
  0
VERTEX
  8
01
  5
C4BF
 10
751.509
 20
-1399.88
 30
0.000000
  70
    32
  0
VERTEX
  8
01
  5
C4C0
 10
751.574
 20
-1399.89
 30
0.000000
  70
    32
  0
VERTEX
  8
01
  5
C4C1
 10
751.639
 20
-1399.90
 30
0.000000
  70
    32
  0
VERTEX
  8
01
  5
C4C2
 10
751.704
 20
-1399.91
 30
0.000000
  70
    32
  0
VERTEX
  8
01
  5
C4C3
 10
751.769
 20
-1399.93
 30
0.000000
  70
    32
  0
VERTEX
  8
01
  5
C4C4
 10
751.834
 20
-1399.94
 30
0.000000
  70
    32
  0
VERTEX
  8
01
  5
C4C5
 10
751.899
 20
-1399.96
 30
0.000000
  70
    32
  0
VERTEX
  8
01
  5
C4C6
 10
751.963
 20
-1399.98
 30
0.000000
  70
    32
  0
VERTEX
  8
01
  5
C4C7
 10
752.028
 20
-1400.01
 30
0.000000
  70
    32
  0
VERTEX
  8
01
  5
C4C8
 10
752.092
 20
-1400.03
 30
0.000000
  70
    32
  0
VERTEX
  8
01
  5
C4C9
 10
752.156
 20
-1400.06
 30
0.000000
  70
    32
  0
VERTEX
  8
01
  5
C4CA
 10
752.220
 20
-1400.09
 30
0.000000
  70
    32
  0
VERTEX
  8
01
  5
C4CB
 10
752.284
 20
-1400.12
 30
0.000000
  70
    32
  0
VERTEX
  8
01
  5
C4CC
 10
752.348
 20
-1400.15
 30
0.000000
  70
    32
  0
VERTEX
  8
01
  5
C4CD
 10
752.412
 20
-1400.19
 30
0.000000
  70
    32
  0
VERTEX
  8
01
  5
C4CE
 10
752.475
 20
-1400.22
 30
0.000000
  70
    32
  0
VERTEX
  8
01
  5
C4CF
 10
752.539
 20
-1400.26
 30
0.000000
  70
    32
  0
VERTEX
  8
01
  5
C4D0
 10
752.602
 20
-1400.30
 30
0.000000
  70
    32
  0
VERTEX
  8
01
  5
C4D1
 10
752.665
 20
-1400.35
 30
0.000000
  70
    32
  0
VERTEX
  8
01
  5
C4D2
 10
752.727
 20
-1400.39
 30
0.000000
  70
    32
  0
VERTEX
  8
01
  5
C4D3
 10
752.790
 20
-1400.44
 30
0.000000
  70
    32
  0
VERTEX
  8
01
  5
C4D4
 10
752.852
 20
-1400.49
 30
0.000000
  70
    32
  0
VERTEX
  8
01
  5
C4D5
 10
752.914
 20
-1400.54
 30
0.000000
  70
    32
  0
VERTEX
  8
01
  5
C4D6
 10
752.976
 20
-1400.59
 30
0.000000
  70
    32
  0
VERTEX
  8
01
  5
C4D7
 10
753.037
 20
-1400.64
 30
0.000000
  70
    32
  0
VERTEX
  8
01
  5
C4D8
 10
753.099
 20
-1400.70
 30
0.000000
  70
    32
  0
VERTEX
  8
01
  5
C4D9
 10
753.159
 20
-1400.76
 30
0.000000
  70
    32
  0
VERTEX
  8
01
  5
C4DA
 10
753.220
 20
-1400.82
 30
0.000000
  70
    32
  0
VERTEX
  8
01
  5
C4DB
 10
753.280
 20
-1400.88
 30
0.000000
  70
    32
  0
VERTEX
  8
01
  5
C4DC
 10
753.340
 20
-1400.94
 30
0.000000
  70
    32
  0
VERTEX
  8
01
  5
C4DD
 10
753.400
 20
-1401.01
 30
0.000000
  70
    32
  0
VERTEX
  8
01
  5
C4DE
 10
753.460
 20
-1401.08
 30
0.000000
  70
    32
  0
VERTEX
  8
01
  5
C4DF
 10
753.519
 20
-1401.15
 30
0.000000
  70
    32
  0
VERTEX
  8
01
  5
C4E0
 10
753.577
 20
-1401.22
 30
0.000000
  70
    32
  0
VERTEX
  8
01
  5
C4E1
 10
753.636
 20
-1401.29
 30
0.000000
  70
    32
  0
VERTEX
  8
01
  5
C4E2
 10
753.694
 20
-1401.36
 30
0.000000
  70
    32
  0
VERTEX
  8
01
  5
C4E3
 10
753.751
 20
-1401.44
 30
0.000000
  70
    32
  0
VERTEX
  8
01
  5
C4E4
 10
753.809
 20
-1401.52
 30
0.000000
  70
    32
  0
VERTEX
  8
01
  5
C4E5
 10
753.866
 20
-1401.60
 30
0.000000
  70
    32
  0
VERTEX
  8
01
  5
C4E6
 10
753.922
 20
-1401.68
 30
0.000000
  70
    32
  0
VERTEX
  8
01
  5
C4E7
 10
753.978
 20
-1401.76
 30
0.000000
  70
    32
  0
VERTEX
  8
01
  5
C4E8
 10
754.034
 20
-1401.85
 30
0.000000
  70
    32
  0
VERTEX
  8
01
  5
C4E9
 10
754.089
 20
-1401.94
 30
0.000000
  70
    32
  0
VERTEX
  8
01
  5
C4EA
 10
754.144
 20
-1402.03
 30
0.000000
  70
    32
  0
VERTEX
  8
01
  5
C4EB
 10
754.198
 20
-1402.12
 30
0.000000
  70
    32
  0
VERTEX
  8
01
  5
C4EC
 10
754.252
 20
-1402.21
 30
0.000000
  70
    32
  0
VERTEX
  8
01
  5
C4ED
 10
754.306
 20
-1402.30
 30
0.000000
  70
    32
  0
VERTEX
  8
01
  5
C4EE
 10
754.359
 20
-1402.40
 30
0.000000
  70
    32
  0
VERTEX
  8
01
  5
C4EF
 10
754.411
 20
-1402.49
 30
0.000000
  70
    32
  0
VERTEX
  8
01
  5
C4F0
 10
754.463
 20
-1402.59
 30
0.000000
  70
    32
  0
VERTEX
  8
01
  5
C4F1
 10
754.515
 20
-1402.69
 30
0.000000
  70
    32
  0
VERTEX
  8
01
  5
C4F2
 10
754.566
 20
-1402.79
 30
0.000000
  70
    32
  0
VERTEX
  8
01
  5
C4F3
 10
754.617
 20
-1402.90
 30
0.000000
  70
    32
  0
VERTEX
  8
01
  5
C4F4
 10
754.667
 20
-1403.00
 30
0.000000
  70
    32
  0
VERTEX
  8
01
  5
C4F5
 10
754.717
 20
-1403.11
 30
0.000000
  70
    32
  0
VERTEX
  8
01
  5
C4F6
 10
754.766
 20
-1403.22
 30
0.000000
  70
    32
  0
VERTEX
  8
01
  5
C4F7
 10
754.814
 20
-1403.33
 30
0.000000
  70
    32
  0
VERTEX
  8
01
  5
C4F8
 10
754.862
 20
-1403.44
 30
0.000000
  70
    32
  0
VERTEX
  8
01
  5
C4F9
 10
754.910
 20
-1403.55
 30
0.000000
  70
    32
  0
VERTEX
  8
01
  5
C4FA
 10
754.957
 20
-1403.66
 30
0.000000
  70
    32
  0
VERTEX
  8
01
  5
C4FB
 10
755.003
 20
-1403.78
 30
0.000000
  70
    32
  0
VERTEX
  8
01
  5
C4FC
 10
755.049
 20
-1403.90
 30
0.000000
  70
    32
  0
VERTEX
  8
01
  5
C4FD
 10
755.094
 20
-1404.01
 30
0.000000
  70
    32
  0
VERTEX
  8
01
  5
C4FE
 10
755.138
 20
-1404.13
 30
0.000000
  70
    32
  0
VERTEX
  8
01
  5
C4FF
 10
755.183
 20
-1404.25
 30
0.000000
  70
    32
  0
VERTEX
  8
01
  5
C500
 10
755.226
 20
-1404.38
 30
0.000000
  70
    32
  0
VERTEX
  8
01
  5
C501
 10
755.269
 20
-1404.50
 30
0.000000
  70
    32
  0
VERTEX
  8
01
  5
C502
 10
755.311
 20
-1404.62
 30
0.000000
  70
    32
  0
VERTEX
  8
01
  5
C503
 10
755.353
 20
-1404.75
 30
0.000000
  70
    32
  0
VERTEX
  8
01
  5
C504
 10
755.394
 20
-1404.88
 30
0.000000
  70
    32
  0
VERTEX
  8
01
  5
C505
 10
755.434
 20
-1405.01
 30
0.000000
  70
    32
  0
VERTEX
  8
01
  5
C506
 10
755.474
 20
-1405.14
 30
0.000000
  70
    32
  0
VERTEX
  8
01
  5
C507
 10
755.513
 20
-1405.27
 30
0.000000
  70
    32
  0
VERTEX
  8
01
  5
C508
 10
755.552
 20
-1405.40
 30
0.000000
  70
    32
  0
VERTEX
  8
01
  5
C509
 10
755.589
 20
-1405.53
 30
0.000000
  70
    32
  0
VERTEX
  8
01
  5
C50A
 10
755.627
 20
-1405.67
 30
0.000000
  70
    32
  0
VERTEX
  8
01
  5
C50B
 10
755.663
 20
-1405.81
 30
0.000000
  70
    32
  0
VERTEX
  8
01
  5
C50C
 10
755.699
 20
-1405.94
 30
0.000000
  70
    32
  0
VERTEX
  8
01
  5
C50D
 10
755.734
 20
-1406.08
 30
0.000000
  70
    32
  0
VERTEX
  8
01
  5
C50E
 10
755.769
 20
-1406.22
 30
0.000000
  70
    32
  0
VERTEX
  8
01
  5
C50F
 10
755.803
 20
-1406.36
 30
0.000000
  70
    32
  0
VERTEX
  8
01
  5
C510
 10
755.836
 20
-1406.50
 30
0.000000
  70
    32
  0
VERTEX
  8
01
  5
C511
 10
755.868
 20
-1406.64
 30
0.000000
  70
    32
  0
VERTEX
  8
01
  5
C512
 10
755.900
 20
-1406.79
 30
0.000000
  70
    32
  0
VERTEX
  8
01
  5
C513
 10
755.931
 20
-1406.93
 30
0.000000
  70
    32
  0
VERTEX
  8
01
  5
C514
 10
755.961
 20
-1407.08
 30
0.000000
  70
    32
  0
VERTEX
  8
01
  5
C515
 10
755.991
 20
-1407.22
 30
0.000000
  70
    32
  0
VERTEX
  8
01
  5
C516
 10
756.020
 20
-1407.37
 30
0.000000
  70
    32
  0
VERTEX
  8
01
  5
C517
 10
756.048
 20
-1407.52
 30
0.000000
  70
    32
  0
VERTEX
  8
01
  5
C518
 10
756.076
 20
-1407.67
 30
0.000000
  70
    32
  0
VERTEX
  8
01
  5
C519
 10
756.102
 20
-1407.82
 30
0.000000
  70
    32
  0
VERTEX
  8
01
  5
C51A
 10
756.128
 20
-1407.97
 30
0.000000
  70
    32
  0
VERTEX
  8
01
  5
C51B
 10
756.154
 20
-1408.12
 30
0.000000
  70
    32
  0
VERTEX
  8
01
  5
C51C
 10
756.178
 20
-1408.27
 30
0.000000
  70
    32
  0
VERTEX
  8
01
  5
C51D
 10
756.202
 20
-1408.42
 30
0.000000
  70
    32
  0
VERTEX
  8
01
  5
C51E
 10
756.225
 20
-1408.58
 30
0.000000
  70
    32
  0
VERTEX
  8
01
  5
C51F
 10
756.248
 20
-1408.73
 30
0.000000
  70
    32
  0
VERTEX
  8
01
  5
C520
 10
756.269
 20
-1408.88
 30
0.000000
  70
    32
  0
VERTEX
  8
01
  5
C521
 10
756.290
 20
-1409.04
 30
0.000000
  70
    32
  0
VERTEX
  8
01
  5
C522
 10
756.310
 20
-1409.20
 30
0.000000
  70
    32
  0
VERTEX
  8
01
  5
C523
 10
756.329
 20
-1409.35
 30
0.000000
  70
    32
  0
VERTEX
  8
01
  5
C524
 10
756.348
 20
-1409.51
 30
0.000000
  70
    32
  0
VERTEX
  8
01
  5
C525
 10
756.366
 20
-1409.67
 30
0.000000
  70
    32
  0
VERTEX
  8
01
  5
C526
 10
756.383
 20
-1409.83
 30
0.000000
  70
    32
  0
VERTEX
  8
01
  5
C527
 10
756.399
 20
-1409.98
 30
0.000000
  70
    32
  0
VERTEX
  8
01
  5
C528
 10
756.414
 20
-1410.14
 30
0.000000
  70
    32
  0
VERTEX
  8
01
  5
C529
 10
756.429
 20
-1410.30
 30
0.000000
  70
    32
  0
VERTEX
  8
01
  5
C52A
 10
756.443
 20
-1410.46
 30
0.000000
  70
    32
  0
VERTEX
  8
01
  5
C52B
 10
756.456
 20
-1410.63
 30
0.000000
  70
    32
  0
VERTEX
  8
01
  5
C52C
 10
756.468
 20
-1410.79
 30
0.000000
  70
    32
  0
VERTEX
  8
01
  5
C52D
 10
756.480
 20
-1410.95
 30
0.000000
  70
    32
  0
VERTEX
  8
01
  5
C52E
 10
756.490
 20
-1411.11
 30
0.000000
  70
    32
  0
VERTEX
  8
01
  5
C52F
 10
756.500
 20
-1411.27
 30
0.000000
  70
    32
  0
VERTEX
  8
01
  5
C530
 10
756.510
 20
-1411.43
 30
0.000000
  70
    32
  0
VERTEX
  8
01
  5
C531
 10
756.518
 20
-1411.60
 30
0.000000
  70
    32
  0
VERTEX
  8
01
  5
C532
 10
756.526
 20
-1411.76
 30
0.000000
  70
    32
  0
VERTEX
  8
01
  5
C533
 10
756.532
 20
-1411.92
 30
0.000000
  70
    32
  0
VERTEX
  8
01
  5
C534
 10
756.538
 20
-1412.09
 30
0.000000
  70
    32
  0
VERTEX
  8
01
  5
C535
 10
756.543
 20
-1412.25
 30
0.000000
  70
    32
  0
VERTEX
  8
01
  5
C536
 10
756.548
 20
-1412.41
 30
0.000000
  70
    32
  0
VERTEX
  8
01
  5
C537
 10
756.551
 20
-1412.58
 30
0.000000
  70
    32
  0
VERTEX
  8
01
  5
C538
 10
756.554
 20
-1412.74
 30
0.000000
  70
    32
  0
VERTEX
  8
01
  5
C539
 10
756.556
 20
-1412.91
 30
0.000000
  70
    32
  0
VERTEX
  8
01
  5
C53A
 10
756.557
 20
-1413.07
 30
0.000000
  70
    32
  0
VERTEX
  8
01
  5
C53B
 10
756.558
 20
-1413.23
 30
0.000000
  70
    32
  0
SEQEND
  8
01
  5
C53C
  0
ARC
  5
BAB1
  8
01
 10
755.03342605673402
 20
-1426.128865927516
 30
0.0
 40
28.416631617726772
 50
57.419184294334322
 51
102.0879899628173
  0
ARC
  5
BAB2
  8
01
 10
664.18767316632329
 20
-1413.2340815977441
 30
0.0
 40
25.0
 50
191.84215014500779
 51
145.3498813556551
  0
ARC
  5
BAB3
  8
01
 10
562.25510769667562
 20
-1414.8857659833241
 30
0.0
 40
12.11544485022983
 50
151.80517535391331
 51
179.73636418046581
  0
ARC
  5
BAB4
  8
01
 10
564.18640630406844
 20
-1415.015399142844
 30
0.0
 40
14.050000000000001
 50
179.9925577258573
 51
210.0000000000239
  0
LINE
  5
BAB5
  8
01
 10
550.13976735535289
 20
-1414.8320857258741
 30
0.0
 11
550.13638109049134
 21
-1415.016311368973
 31
0.0
  0
ARC
  5
BAB6
  8
01
 10
553.78595018960732
 20
-1411.652244458267
 30
0.0
 40
3.0499999999999989
 50
107.7726407989914
 51
159.1031602995343
  0
ARC
  5
BAB7
  8
01
 10
621.81768814347015
 20
-1623.894443948195
 30
0.0
 40
225.92904480535049
 50
78.627861946457614
 51
108.11324779854471
  0
ARC
  5
BAB8
  8
01
 10
664.18767316632329
 20
-1413.2340815977441
 30
0.0
 40
11.050000000000001
 50
254.2478015437525
 51
78.627861946457614
  0
ARC
  5
BAB9
  8
01
 10
535.44258337390966
 20
-1869.662698692008
 30
0.0
 40
463.18873802994909
 50
74.247801543752573
 51
82.297983016992518
  0
ARC
  5
BABA
  8
01
 10
594.84591371371243
 20
-1430.4226467444171
 30
0.0
 40
19.949999999999999
 50
82.297983016992518
 51
107.6387900515597
  0
ARC
  5
BABB
  8
01
 10
634.2378825563701
 20
-1554.310793032507
 30
0.0
 40
149.94999999999999
 50
101.1669260155722
 51
113.3703949493334
  0
ARC
  5
BABC
  8
01
 10
535.06947538710301
 20
-1324.8208651064419
 30
0.0
 40
100.05
 50
281.0150954219539
 51
293.37039494933339
  0
ARC
  5
BABD
  8
01
 10
553.79410145865575
 20
-1421.015399142844
 30
0.0
 40
2.0499999999999989
 50
210.0000000000239
 51
327.2886183194185
  0
ARC
  5
BABE
  8
01
 10
552.89027597984921
 20
-1411.1334187816501
 30
0.0
 40
2.0344389403939038
 50
36.085053900520002
 51
136.39526313607811
  0
ARC
  5
BABF
  8
01
 10
555.82732255266626
 20
-1416.605917978374
 30
0.0
 40
1.8
 50
348.9991146424602
 51
16.098330509343409
  0
ARC
  5
BAC0
  8
01
 10
538.53315233752789
 20
-1421.5970778205169
 30
0.0
 40
19.800000000000001
 50
16.098330509343409
 51
36.085053900520002
  0
ARC
  5
BAC1
  8
01
 10
543.06620749931972
 20
-1414.125203848278
 30
0.0
 40
14.800000000000001
 50
327.2886183194185
 51
348.9991146424602
  0
ARC
  5
BAC2
  8
01
 10
1022.987734509563
 20
-1168.7342138298061
 30
0.0
 40
1.0
 50
269.99960005341723
 51
359.99960005342041
  0
ARC
  5
BAC3
  8
01
 10
985.38775451047968
 20
-1168.733951367481
 30
0.0
 40
1.0
 50
179.99960005340989
 51
269.99960005341671
  0
ARC
  5
BAC4
  8
01
 10
985.38775451047968
 20
-1117.7342118300639
 30
0.0
 40
1.0
 50
90.000399946581311
 51
180.00039994659011
  0
ARC
  5
BAC5
  8
01
 10
1022.987734509564
 20
-1117.73394936774
 30
0.0
 40
1.0
 50
0.0003999465796399
 51
90.000399946581084
  0
LINE
  5
BACD
  8
01
 10
980.18778150606875
 20
-1171.7340815987729
 30
0.0
 11
1028.1877815060691
 21
-1171.7340815987729
 31
0.0
  0
LINE
  5
BACE
  8
01
 10
979.18778150606875
 20
-1163.2340815987729
 30
0.0
 11
979.18778150606875
 21
-1170.7340815987729
 31
0.0
  0
ARC
  5
BACF
  8
01
 10
980.18778150606875
 20
-1170.7340815987729
 30
0.0
 40
1.0
 50
180.0
 51
270.0
  0
LINE
  5
BAD0
  8
01
 10
1029.1877815060691
 20
-1163.2340815987729
 30
0.0
 11
1029.1877815060691
 21
-1170.7340815987729
 31
0.0
  0
ARC
  5
BAD1
  8
01
 10
1028.1877815060691
 20
-1170.7340815987729
 30
0.0
 40
1.0
 50
270.0
 51
0.0
  0
LINE
  5
BAD2
  8
01
 10
979.18778150606875
 20
-1163.2340815987729
 30
0.0
 11
1029.1877815060691
 21
-1163.2340815987729
 31
0.0
  0
LINE
  5
BAD3
  8
01
 10
996.23778450606562
 20
-1171.7340815987729
 30
0.0
 11
1012.137778506065
 21
-1171.7340815987729
 31
0.0
  0
LINE
  5
BAD4
  8
01
 10
1015.237781506068
 20
-1172.2340815987729
 30
0.0
 11
1015.237781506068
 21
-1201.507911087265
 31
0.0
  0
ARC
  5
BAD5
  8
01
 10
1023.307415082101
 20
-1195.3982709064269
 30
0.0
 40
11.949999999999999
 50
244.84105075448261
 51
268.09360906930431
  0
LINE
  5
BAD6
  8
01
 10
1022.909878499398
 20
-1207.3416567188931
 30
0.0
 11
1116.498928355677
 21
-1210.4567759692011
 31
0.0
  0
ARC
  5
BAD7
  8
01
 10
994.93778150606886
 20
-1215.5970727574729
 30
0.0
 40
1.8
 50
180.0
 51
260.37904022203458
  0
ARC
  5
BAD8
  8
01
 10
1116.439048368323
 20
-1212.2557796899071
 30
0.0
 40
1.8
 50
347.19253780604907
 51
88.093609069304293
  0
ARC
  5
BAD9
  8
01
 10
1109.3062077723
 20
-1234.9840815987729
 30
0.0
 40
1.8
 50
260.37904022203458
 51
337.9605372753839
  0
ARC
  5
BADA
  8
01
 10
972.12121561283129
 20
-1179.4478058305281
 30
0.0
 40
149.80000000000001
 50
337.9605372753839
 51
347.19253780604907
  0
ARC
  5
BADB
  8
01
 10
1020.437781506069
 20
-1201.507911087265
 30
0.0
 40
5.2000000000000002
 50
180.0
 51
244.84105075436429
  0
LINE
  5
BADC
  8
01
 10
1015.237781506068
 20
-1172.2340815987729
 30
0.0
 11
993.13778150606947
 21
-1172.2340815987729
 31
0.0
  0
LINE
  5
BADD
  8
01
 10
1012.137781506069
 20
-1172.2340815987729
 30
0.0
 11
1012.137781506069
 21
-1171.7340815987729
 31
0.0
  0
LINE
  5
BADE
  8
01
 10
996.23778150606904
 20
-1172.2340815987729
 30
0.0
 11
996.23778150606825
 21
-1171.7340815987729
 31
0.0
  0
LINE
  5
BADF
  8
01
 10
993.13778150606947
 20
-1172.2340815987729
 30
0.0
 11
993.13778150607038
 21
-1215.5970727574729
 31
0.0
  0
LINE
  5
BAE0
  8
01
 10
994.63694853243658
 20
-1217.3717556930919
 30
0.0
 11
1109.0053747986669
 21
-1236.758764534391
 31
0.0
  0
LINE
  5
BB39
  8
01
 10
980.18778150606875
 20
-1114.734081598772
 30
0.0
 11
1001.687781506061
 21
-1114.734081598772
 31
0.0
  0
LINE
  5
BB3A
  8
01
 10
979.18778150606875
 20
-1123.234081598772
 30
0.0
 11
979.18778150606875
 21
-1115.7340815987709
 31
0.0
  0
ARC
  5
BB3B
  8
01
 10
980.18778150606875
 20
-1115.7340815987709
 30
0.0
 40
1.0
 50
90.000000000000028
 51
180.0
  0
LINE
  5
BB3C
  8
01
 10
1029.1877815060691
 20
-1123.234081598772
 30
0.0
 11
1029.1877815060691
 21
-1115.7340815987709
 31
0.0
  0
ARC
  5
BB3D
  8
01
 10
1028.1877815060691
 20
-1115.7340815987709
 30
0.0
 40
1.0
 50
0.0
 51
90.000000000000028
  0
LINE
  5
BB3E
  8
01
 10
979.18778150606875
 20
-1123.234081598772
 30
0.0
 11
1029.1877815060691
 21
-1123.234081598772
 31
0.0
  0
LINE
  5
BB3F
  8
01
 10
996.23778450606562
 20
-1114.734081598772
 30
0.0
 11
1001.687781506061
 21
-1114.734081598772
 31
0.0
  0
LINE
  5
BB40
  8
01
 10
1015.237781506068
 20
-1114.234081598772
 30
0.0
 11
1015.237781506068
 21
-1084.960252110279
 31
0.0
  0
ARC
  5
BB41
  8
01
 10
1023.307415082101
 20
-1091.069892291117
 30
0.0
 40
11.949999999999999
 50
91.906390930695991
 51
115.158949245513
  0
LINE
  5
BB42
  8
01
 10
1022.909878499398
 20
-1079.126506478651
 30
0.0
 11
1116.498928355677
 21
-1076.0113872283439
 31
0.0
  0
ARC
  5
BB43
  8
01
 10
994.93778150606886
 20
-1070.8710904400721
 30
0.0
 40
1.8
 50
99.620959777965808
 51
180.0
  0
ARC
  5
BB44
  8
01
 10
1116.439048368323
 20
-1074.2123835076379
 30
0.0
 40
1.8
 50
271.90639093069598
 51
12.807462193951681
  0
ARC
  5
BB45
  8
01
 10
1109.3062077723
 20
-1051.484081598772
 30
0.0
 40
1.8
 50
22.039462724605901
 51
99.620959777965808
  0
ARC
  5
BB46
  8
01
 10
972.12121561283129
 20
-1107.0203573670169
 30
0.0
 40
149.80000000000001
 50
12.807462193951681
 51
22.039462724605901
  0
ARC
  5
BB47
  8
01
 10
1020.437781506069
 20
-1084.960252110279
 30
0.0
 40
5.2000000000000002
 50
115.158949245632
 51
180.0
  0
LINE
  5
BB48
  8
01
 10
1015.237781506068
 20
-1114.234081598772
 30
0.0
 11
1006.6877815060629
 21
-1114.2340815987709
 31
0.0
  0
LINE
  5
BB49
  8
01
 10
1012.137781506069
 20
-1114.234081598772
 30
0.0
 11
1012.137781506069
 21
-1114.734081598772
 31
0.0
  0
LINE
  5
BB4A
  8
01
 10
996.23778150606904
 20
-1114.234081598772
 30
0.0
 11
996.23778150606825
 21
-1114.734081598772
 31
0.0
  0
LINE
  5
BB4B
  8
01
 10
993.13778150606947
 20
-1114.234081598772
 30
0.0
 11
993.13778150607038
 21
-1070.8710904400721
 31
0.0
  0
LINE
  5
BB4C
  8
01
 10
994.63694853243658
 20
-1069.0964075044531
 30
0.0
 11
1109.0053747986669
 21
-1049.709398663153
 31
0.0
  0
LINE
  5
BB4D
  8
01
 10
1001.687781506061
 20
-1114.234081598772
 30
0.0
 11
993.13778150606947
 21
-1114.234081598772
 31
0.0
  0
LINE
  5
BB4E
  8
01
 10
1006.6877815060629
 20
-1114.734081598772
 30
0.0
 11
1012.137778506065
 21
-1114.734081598772
 31
0.0
  0
LINE
  5
BB4F
  8
01
 10
1006.6877815060629
 20
-1114.734081598772
 30
0.0
 11
1028.1877815060691
 21
-1114.734081598772
 31
0.0
  0
LINE
  5
BBC3
  8
01
 10
814.18766916632353
 20
-1337.734076597746
 30
0.0
 11
814.18766916632353
 21
-1377.734076597746
 31
0.0
  0
LINE
  5
BBC5
  8
01
 10
807.88766916632335
 20
-1377.234076597746
 30
0.0
 11
807.88766916632335
 21
-1338.234076597746
 31
0.0
  0
LINE
  5
BBC6
  8
01
 10
814.18766916632353
 20
-1377.734076597746
 30
0.0
 11
808.38766916632346
 21
-1377.734076597746
 31
0.0
  0
ARC
  5
BBC7
  8
01
 10
808.38766916632346
 20
-1377.234076597746
 30
0.0
 40
0.5
 50
180.0
 51
270.0
  0
LINE
  5
BBC8
  8
01
 10
814.18766916632353
 20
-1337.734076597746
 30
0.0
 11
808.38766916632346
 21
-1337.734076597746
 31
0.0
  0
ARC
  5
BBC9
  8
01
 10
808.38766916632346
 20
-1338.234076597746
 30
0.0
 40
0.5
 50
90.0
 51
180.0
  0
LINE
  5
BBCA
  8
01
 10
789.85965212662109
 20
-1363.2340765977531
 30
0.0
 11
816.77159652112471
 21
-1363.2340765977531
 31
0.0
  0
LINE
  5
BBCB
  8
01
 10
793.18728360060175
 20
-1374.234081597745
 30
0.0
 11
807.88766916632335
 21
-1374.2340815977459
 31
0.0
  0
LINE
  5
BBCC
  8
01
 10
806.68730654481351
 20
-1352.7340815977459
 30
0.0
 11
806.68730654480873
 21
-1373.7340815977459
 31
0.0
  0
LINE
  5
BBCD
  8
01
 10
793.18728360060379
 20
-1352.2340815977459
 30
0.0
 11
807.88766916632335
 21
-1352.2340815977459
 31
0.0
  0
ARC
  5
BBCE
  8
01
 10
793.18728360060379
 20
-1353.234081597745
 30
0.0
 40
1.0
 50
90.0
 51
180.0
  0
LINE
  5
BBCF
  8
01
 10
792.18728360060175
 20
-1353.234081597745
 30
0.0
 11
792.18728360060175
 21
-1373.2340815977429
 31
0.0
  0
ARC
  5
BBD0
  8
01
 10
793.18728360060175
 20
-1373.2340815977429
 30
0.0
 40
1.0
 50
180.0
 51
270.0
  0
ARC
  5
BBD1
  8
01
 10
807.18730654480873
 20
-1352.7340815977459
 30
0.0
 40
0.5
 50
90.0
 51
179.99999999997391
  0
ARC
  5
BBD2
  8
01
 10
807.18730654480873
 20
-1373.7340815977459
 30
0.0
 40
0.5
 50
179.99999999997391
 51
270.0
  0
TEXT
  5
BC9A
  8
01
 10
666.96716000328104
 20
-1150.4269501874869
 30
0.0
 40
6.0
  1
ヘアライン
 72
     1
 11
684.16716000328097
 21
-1150.4269501874869
 31
0.0
  0
TEXT
  5
BC9B
  8
01
 10
677.76716000328099
 20
-1139.963512759417
 30
0.0
 40
6.0
  1
鏡面
 72
     1
 11
684.16716000328097
 21
-1139.963512759417
 31
0.0
  0
TEXT
  5
BC9C
  8
01
 10
661.99573143185251
 20
-1160.9269501874869
 30
0.0
 40
6.0
  1
鏡面+ヘアライン
 41
0.8
 72
     1
 11
684.16716000328097
 21
-1160.9269501874869
 31
0.0
  0
LINE
  5
BD26
  8
01
 10
1022.187665166324
 20
-1354.7340815977441
 30
0.0
 11
1022.187665166324
 21
-1366.4518788190301
 31
0.0
  0
LINE
  5
BD27
  8
01
 10
1001.187665166324
 20
-1354.7340815977441
 30
0.0
 11
1007.187665166324
 21
-1354.7340815977441
 31
0.0
  0
LINE
  5
BD28
  8
01
 10
1014.187665166324
 20
-1354.7340815977441
 30
0.0
 11
1022.187665166324
 21
-1354.7340815977441
 31
0.0
  0
LINE
  5
BD29
  8
01
 10
1001.187665166324
 20
-1355.7340815977429
 30
0.0
 11
1001.187665166324
 21
-1354.7340815977441
 31
0.0
  0
LINE
  5
BD2A
  8
01
 10
1007.187665166324
 20
-1355.7340815977441
 30
0.0
 11
1007.187665166324
 21
-1354.7340815977441
 31
0.0
  0
ARC
  5
BD2B
  8
01
 10
997.68766516632388
 20
-1355.7340815977441
 30
0.0
 40
3.5
 50
179.99999999998701
 51
0.0000000000130276
  0
ARC
  5
BD2C
  8
01
 10
1010.687665166324
 20
-1355.7340815977441
 30
0.0
 40
3.5
 50
180.0
 51
0.0
  0
CIRCLE
  5
BD2D
  8
01
 10
1004.187665166035
 20
-1363.2340815980331
 30
0.0
 40
6.0
  0
LINE
  5
BD2E
  8
01
 10
994.18766516632388
 20
-1354.7340815977441
 30
0.0
 11
984.41394491058031
 21
-1354.7340815977441
 31
0.0
  0
LINE
  5
BD2F
  8
01
  6
BYBLOCK
 10
984.41394491058031
 20
-1354.7340815977441
 30
0.0
 11
956.18766516632422
 21
-1354.7340815977441
 31
0.0
  0
LINE
  5
BD30
  8
01
 10
994.18766516632365
 20
-1355.7340815977429
 30
0.0
 11
994.18766516632388
 21
-1354.7340815977441
 31
0.0
  0
LINE
  5
BD31
  8
01
 10
1014.187665166324
 20
-1355.7340815977441
 30
0.0
 11
1014.187665166324
 21
-1354.7340815977441
 31
0.0
  0
LINE
  5
BD32
  8
01
  6
BYBLOCK
 10
683.9613850996061
 20
-1354.7340815977441
 30
0.0
 11
712.18767316632329
 21
-1354.7340815977441
 31
0.0
  0
LINE
  5
BD33
  8
01
  6
BYBLOCK
 10
1010.188549348095
 20
-1132.9840815987729
 30
0.0
 11
998.18854934809531
 21
-1132.9840815987729
 31
0.0
  0
LINE
  5
BD34
  8
01
  6
BYBLOCK
 10
998.18854934809531
 20
-1153.4840815987729
 30
0.0
 11
1010.188549348095
 21
-1153.4840815987729
 31
0.0
  0
LINE
  5
BD35
  8
01
  6
BYBLOCK
 10
998.18854934809531
 20
-1153.4840815987729
 30
0.0
 11
998.18854934809531
 21
-1152.734081598772
 31
0.0
  0
LINE
  5
BD36
  8
01
  6
BYBLOCK
 10
998.18854934809531
 20
-1133.7340815987729
 30
0.0
 11
998.18854934809531
 21
-1132.9840815987729
 31
0.0
  0
LINE
  5
BD37
  8
01
  6
BYBLOCK
 10
1010.188549348095
 20
-1153.4840815987729
 30
0.0
 11
1010.188549348095
 21
-1152.734081598772
 31
0.0
  0
LINE
  5
BD38
  8
01
  6
BYBLOCK
 10
1010.188549348095
 20
-1133.7340815987729
 30
0.0
 11
1010.188549348095
 21
-1132.9840815987729
 31
0.0
  0
LINE
  5
BD6D
  8
01
 10
1022.187665166324
 20
-1395.8847300248469
 30
0.0
 11
1022.187665166324
 21
-1429.2340815977441
 31
0.0
  0
LINE
  5
BD6E
  8
01
 10
1022.187665166324
 20
-1429.2340815977441
 30
0.0
 11
984.97829245402511
 21
-1429.2340815977441
 31
0.0
  0
TEXT
  5
BEC8
  8
01
 10
931.57082625934049
 20
-1193.650748265439
 30
0.0
 40
4.5499999999999989
  1
材質：ステンレス
  0
TEXT
  5
BEC9
  8
01
 10
925.50415959267389
 20
-1201.234081598772
 30
0.0
 40
4.5499999999999989
  1
仕上げ：各種仕上げ
  0
SOLID
  5
BECA
  8
01
 10
1001.610520805608
 20
-1182.388069738683
 30
0.0
 11
1003.928266406385
 21
-1181.1327478246469
 31
0.0
 12
1002.1429357831749
 22
-1183.0719157760141
 32
0.0
 13
1002.1429357831749
 23
-1183.0719157760141
 33
0.0
1001
ACAD
1000
DSTYLE
1002
{
1070
    40
1040
1.3
1002
}
  0
LINE
  5
BECC
  8
01
 10
1010.188549348095
 20
-1132.9840815987729
 30
0.0
 11
1045.348940108096
 21
-1132.9840815987729
 31
0.0
  0
LINE
  5
BECD
  8
01
 10
1010.188549348095
 20
-1153.4840815987729
 30
0.0
 11
1045.348940108096
 21
-1153.4840815987729
 31
0.0
  0
LINE
  5
BECE
  8
01
 10
1044.0489401080961
 20
-1135.5840815987719
 30
0.0
 11
1044.0489401080961
 21
-1150.884081598773
 31
0.0
  0
LINE
  5
BED2
  8
01
 10
1022.187665166324
 20
-1354.7340815977441
 30
0.0
 11
1049.7022746239561
 21
-1354.7340815977441
 31
0.0
  0
LINE
  5
BED3
  8
01
 10
1022.187665166324
 20
-1429.2340815977441
 30
0.0
 11
1049.7022746239561
 21
-1429.2340815977441
 31
0.0
  0
LINE
  5
BED4
  8
01
 10
1048.4022746239559
 20
-1357.334081597744
 30
0.0
 11
1048.4022746239559
 21
-1426.6340815977439
 31
0.0
  0
LINE
  5
BED8
  8
01
 10
814.18766916632353
 20
-1320.7367015977429
 30
0.0
 11
814.18766916632353
 21
-1305.9340815977439
 31
0.0
  0
LINE
  5
BED9
  8
01
 10
792.18728360060175
 20
-1353.234081597745
 30
0.0
 11
792.18728360060175
 21
-1305.9340815977439
 31
0.0
  0
LINE
  5
BEDA
  8
01
 10
811.58766916632351
 20
-1307.2340815977441
 30
0.0
 11
794.78728360060188
 21
-1307.2340815977441
 31
0.0
  0
LINE
  5
BEDE
  8
01
 10
1106.9429295034161
 20
-1163.2340815987729
 30
0.0
 11
1139.5390483683241
 21
-1163.2340815987729
 31
0.0
  0
LINE
  5
BEDF
  8
01
 10
1109.3062077723
 20
-1236.784081598772
 30
0.0
 11
1139.5390483683241
 21
-1236.784081598772
 31
0.0
  0
LINE
  5
BEE0
  8
01
 10
1138.2390483683239
 20
-1165.8340815987731
 30
0.0
 11
1138.2390483683239
 21
-1234.184081598773
 31
0.0
  0
LINE
  5
BEE4
  8
01
 10
1106.9429295034161
 20
-1163.2340815987729
 30
0.0
 11
1129.5390483683241
 21
-1163.2340815987729
 31
0.0
  0
LINE
  5
BEE5
  8
01
 10
1116.4989283556761
 20
-1210.4567759692011
 30
0.0
 11
1129.5390483683241
 21
-1210.4567759692011
 31
0.0
  0
LINE
  5
BEE6
  8
01
 10
1128.2390483683239
 20
-1165.8340815987731
 30
0.0
 11
1128.2390483683239
 21
-1207.856775969201
 31
0.0
  0
LINE
  5
BEEA
  8
01
 10
993.13778150607038
 20
-1215.5970727574729
 30
0.0
 11
993.13778150607038
 21
-1258.0840815987731
 31
0.0
  0
LINE
  5
BEEB
  8
01
 10
1118.2390483683239
 20
-1212.2557796899071
 30
0.0
 11
1118.2390483683239
 21
-1258.0840815987731
 31
0.0
  0
LINE
  5
BEEC
  8
01
 10
995.73778150607063
 20
-1256.784081598772
 30
0.0
 11
1115.639048368324
 21
-1256.784081598772
 31
0.0
  0
LINE
  5
BEF0
  8
01
 10
1004.187781506069
 20
-1183.0252914856201
 30
0.0
 11
1004.187781506069
 21
-1248.0840815987719
 31
0.0
  0
LINE
  5
BEF1
  8
01
 10
1118.2390483683239
 20
-1212.2557796899071
 30
0.0
 11
1118.2390483683239
 21
-1248.0840815987719
 31
0.0
  0
LINE
  5
BEF2
  8
01
 10
1006.787781506069
 20
-1246.7840815987729
 30
0.0
 11
1115.639048368324
 21
-1246.7840815987729
 31
0.0
  0
LINE
  5
BEF6
  8
01
 10
1004.187665166325
 20
-1388.2340815977441
 30
0.0
 11
967.88766516632495
 21
-1388.2340815977441
 31
0.0
  0
LINE
  5
BEF7
  8
01
 10
1004.187665166325
 20
-1438.2340815977429
 30
0.0
 11
967.88766516632495
 21
-1438.2340815977429
 31
0.0
  0
LINE
  5
BEF8
  8
01
 10
969.18766516632479
 20
-1390.834081597744
 30
0.0
 11
969.18766516632479
 21
-1435.634081597743
 31
0.0
  0
LINE
  5
BEFC
  8
01
 10
1022.187665166325
 20
-1355.2340815977441
 30
0.0
 11
1022.187665166325
 21
-1295.9340815977439
 31
0.0
  0
LINE
  5
BEFD
  8
01
 10
953.18766516632502
 20
-1327.2340815977441
 30
0.0
 11
953.18766516632502
 21
-1295.9340815977439
 31
0.0
  0
LINE
  5
BEFE
  8
01
 10
1019.587665166325
 20
-1297.2340815977441
 30
0.0
 11
955.78766516632493
 21
-1297.2340815977441
 31
0.0
  0
LINE
  5
BF02
  8
01
 10
840.68766916632353
 20
-1327.2340815977441
 30
0.0
 11
895.48766916632314
 21
-1327.2340815977441
 31
0.0
  0
LINE
  5
BF03
  8
01
 10
840.68766916632353
 20
-1457.2340815977441
 30
0.0
 11
895.48766916632314
 21
-1457.2340815977441
 31
0.0
  0
LINE
  5
BF04
  8
01
 10
894.1876691663233
 20
-1329.834081597744
 30
0.0
 11
894.1876691663233
 21
-1454.6340815977439
 31
0.0
  0
LINE
  5
BF08
  8
01
 10
840.68766916632353
 20
-1335.2340815977441
 30
0.0
 11
879.99126020287997
 21
-1335.2340815977441
 31
0.0
  0
LINE
  5
BF09
  8
01
 10
840.68766916632353
 20
-1449.2340815977441
 30
0.0
 11
879.99126020287997
 21
-1449.2340815977441
 31
0.0
  0
LINE
  5
BF0A
  8
01
 10
878.69126020288013
 20
-1337.834081597744
 30
0.0
 11
878.69126020288013
 21
-1446.6340815977439
 31
0.0
  0
LINE
  5
BF0E
  8
01
 10
634.18767316632295
 20
-1413.2340815977441
 30
0.0
 11
619.88768516632354
 21
-1413.2340815977441
 31
0.0
  0
LINE
  5
BF0F
  8
01
 10
641.68766516632229
 20
-1357.7340815977441
 30
0.0
 11
619.88768516632354
 21
-1357.7340815977441
 31
0.0
  0
LINE
  5
BF10
  8
01
 10
621.18768516632349
 20
-1410.6340815977439
 30
0.0
 11
621.18768516632349
 21
-1360.334081597744
 31
0.0
  0
LINE
  5
BF14
  8
01
 10
634.18767316632295
 20
-1413.2340815977441
 30
0.0
 11
629.88768516632354
 21
-1413.2340815977441
 31
0.0
  0
LINE
  5
BF15
  8
01
 10
651.18766516632218
 20
-1363.2340815977441
 30
0.0
 11
629.88768516632354
 21
-1363.2340815977441
 31
0.0
  0
LINE
  5
BF16
  8
01
 10
631.18768516632338
 20
-1410.6340815977439
 30
0.0
 11
631.18768516632338
 21
-1365.834081597744
 31
0.0
  0
LINE
  5
BF1A
  8
01
 10
644.38766616632211
 20
-1357.7340815977441
 30
0.0
 11
644.38766616632211
 21
-1328.9340815977439
 31
0.0
  0
LINE
  5
BF1B
  8
01
 10
683.98766416632225
 20
-1357.7340815977441
 30
0.0
 11
683.98766416632225
 21
-1328.9340815977439
 31
0.0
  0
LINE
  5
BF1C
  8
01
 10
646.98766616632213
 20
-1330.2340815977441
 30
0.0
 11
681.38766416632222
 21
-1330.2340815977441
 31
0.0
  0
LINE
  5
BF20
  8
01
 10
984.38766616632392
 20
-1357.7340815977441
 30
0.0
 11
984.38766616632392
 21
-1328.9340815977439
 31
0.0
  0
LINE
  5
BF21
  8
01
 10
1023.987664166324
 20
-1357.7340815977441
 30
0.0
 11
1023.987664166324
 21
-1328.9340815977439
 31
0.0
  0
LINE
  5
BF22
  8
01
 10
986.98766616632395
 20
-1330.2340815977441
 30
0.0
 11
1021.387664166324
 21
-1330.2340815977441
 31
0.0
  0
LINE
  5
BF26
  8
01
 10
854.18766916632353
 20
-1320.7367015977429
 30
0.0
 11
854.18766916632353
 21
-1305.9340815977439
 31
0.0
  0
LINE
  5
BF27
  8
01
 10
862.48767216632177
 20
-1363.2340815977441
 30
0.0
 11
862.48767216632177
 21
-1305.9340815977439
 31
0.0
  0
LINE
  5
BF28
  8
01
 10
856.78766916632355
 20
-1307.2340815977441
 30
0.0
 11
859.88767216632175
 21
-1307.2340815977441
 31
0.0
  0
LINE
  5
BF2C
  8
01
 10
800.98670727199999
 20
-1412.4840815977441
 30
0.0
 11
799.68766916632353
 21
-1411.7340815977441
 31
0.0
  0
LINE
  5
BF2D
  8
01
 10
799.68766916632353
 20
-1411.7340815977441
 30
0.0
 11
798.38863106064684
 21
-1412.4840815977441
 31
0.0
  0
LINE
  5
BF2E
  8
01
 10
798.38863106064684
 20
-1412.4840815977441
 30
0.0
 11
798.38863106064684
 21
-1413.9840815977441
 31
0.0
  0
LINE
  5
BF2F
  8
01
 10
798.38863106064684
 20
-1413.9840815977441
 30
0.0
 11
799.68766916632353
 21
-1414.7340815977441
 31
0.0
  0
LINE
  5
BF30
  8
01
 10
799.68766916632353
 20
-1414.7340815977441
 30
0.0
 11
800.98670727199999
 21
-1413.9840815977441
 31
0.0
  0
LINE
  5
BF31
  8
01
 10
800.98670727199999
 20
-1413.9840815977441
 30
0.0
 11
800.98670727199999
 21
-1412.4840815977441
 31
0.0
  0
CIRCLE
  5
BF32
  8
01
 10
799.68766916632353
 20
-1413.2340815977441
 30
0.0
 40
3.0
  0
CIRCLE
  5
BF33
  8
01
 10
868.68766916632342
 20
-1413.2340815977441
 30
0.0
 40
3.0
  0
LINE
  5
BF34
  8
01
 10
953.18766516632388
 20
-1327.2340815977441
 30
0.0
 11
953.18766516632388
 21
-1305.9340815977439
 31
0.0
  0
LINE
  5
BF35
  8
01
 10
1004.187665166324
 20
-1382.703717506907
 30
0.0
 11
1004.187665166324
 21
-1305.9340815977439
 31
0.0
  0
LINE
  5
BF36
  8
01
 10
955.78766516632402
 20
-1307.2340815977441
 30
0.0
 11
1001.587665166324
 21
-1307.2340815977441
 31
0.0
  0
LINE
  5
BF3A
  8
01
 10
942.18766516632388
 20
-1385.2340822958749
 30
0.0
 11
942.18766516632388
 21
-1305.9340815977439
 31
0.0
  0
LINE
  5
BF3B
  8
01
 10
953.18766516632388
 20
-1327.2340815977441
 30
0.0
 11
953.18766516632388
 21
-1305.9340815977439
 31
0.0
  0
LINE
  5
BF3C
  8
01
 10
944.7876651663239
 20
-1307.2340815977441
 30
0.0
 11
950.58766516632386
 21
-1307.2340815977441
 31
0.0
  0
LINE
  5
BF40
  8
01
 10
821.68766916632364
 20
-1333.2340815977441
 30
0.0
 11
821.68766916632364
 21
-1305.9340815977439
 31
0.0
  0
LINE
  5
BF41
  8
01
 10
846.68766916632364
 20
-1333.2340815977441
 30
0.0
 11
846.68766916632364
 21
-1305.9340815977439
 31
0.0
  0
LINE
  5
BF42
  8
01
 10
824.28766916632355
 20
-1307.2340815977441
 30
0.0
 11
844.08766916632339
 21
-1307.2340815977441
 31
0.0
  0
TEXT
  5
BF46
  8
01
 10
829.85433583299027
 20
-1306.324081597744
 30
0.0
 40
4.5499999999999989
  1
25
  0
LINE
  5
BF47
  8
01
  6
BYBLOCK
 10
844.08766916632339
 20
-1306.5374137037441
 30
0.0
 11
846.68766916632364
 21
-1307.2340815977441
 31
0.0
  0
LINE
  5
BF48
  8
01
  6
BYBLOCK
 10
846.68766916632364
 20
-1307.2340815977441
 30
0.0
 11
844.08766916632339
 21
-1307.9307494917441
 31
0.0
  0
LINE
  5
BF49
  8
01
  6
BYBLOCK
 10
846.68766916632364
 20
-1307.2340815977441
 30
0.0
 11
844.08766916632339
 21
-1307.2340815977441
 31
0.0
  0
LINE
  5
BF4A
  8
01
  6
BYBLOCK
 10
824.28766916632355
 20
-1307.9307494917441
 30
0.0
 11
821.68766916632364
 21
-1307.2340815977441
 31
0.0
  0
LINE
  5
BF4B
  8
01
  6
BYBLOCK
 10
821.68766916632364
 20
-1307.2340815977441
 30
0.0
 11
824.28766916632355
 21
-1306.5374137037441
 31
0.0
  0
LINE
  5
BF4C
  8
01
  6
BYBLOCK
 10
821.68766916632364
 20
-1307.2340815977441
 30
0.0
 11
824.28766916632355
 21
-1307.2340815977441
 31
0.0
  0
TEXT
  5
BF4D
  8
01
 10
943.67933183299056
 20
-1306.324081597744
 30
0.0
 40
4.5499999999999989
  1
11
  0
LINE
  5
BF4E
  8
01
  6
BYBLOCK
 10
950.58766516632386
 20
-1306.5374137037441
 30
0.0
 11
953.18766516632388
 21
-1307.2340815977441
 31
0.0
  0
LINE
  5
BF4F
  8
01
  6
BYBLOCK
 10
953.18766516632388
 20
-1307.2340815977441
 30
0.0
 11
950.58766516632386
 21
-1307.9307494917441
 31
0.0
  0
LINE
  5
BF50
  8
01
  6
BYBLOCK
 10
953.18766516632388
 20
-1307.2340815977441
 30
0.0
 11
950.58766516632386
 21
-1307.2340815977441
 31
0.0
  0
LINE
  5
BF51
  8
01
  6
BYBLOCK
 10
944.7876651663239
 20
-1307.9307494917441
 30
0.0
 11
942.18766516632388
 21
-1307.2340815977441
 31
0.0
  0
LINE
  5
BF52
  8
01
  6
BYBLOCK
 10
942.18766516632388
 20
-1307.2340815977441
 30
0.0
 11
944.7876651663239
 21
-1306.5374137037441
 31
0.0
  0
LINE
  5
BF53
  8
01
  6
BYBLOCK
 10
942.18766516632388
 20
-1307.2340815977441
 30
0.0
 11
944.7876651663239
 21
-1307.2340815977441
 31
0.0
  0
TEXT
  5
BF54
  8
01
 10
975.00433183299083
 20
-1306.324081597744
 30
0.0
 40
4.5499999999999989
  1
51
  0
LINE
  5
BF55
  8
01
  6
BYBLOCK
 10
1001.587665166324
 20
-1306.5374137037441
 30
0.0
 11
1004.187665166324
 21
-1307.2340815977441
 31
0.0
  0
LINE
  5
BF56
  8
01
  6
BYBLOCK
 10
1004.187665166324
 20
-1307.2340815977441
 30
0.0
 11
1001.587665166324
 21
-1307.9307494917441
 31
0.0
  0
LINE
  5
BF57
  8
01
  6
BYBLOCK
 10
1004.187665166324
 20
-1307.2340815977441
 30
0.0
 11
1001.587665166324
 21
-1307.2340815977441
 31
0.0
  0
LINE
  5
BF58
  8
01
  6
BYBLOCK
 10
955.78766516632402
 20
-1307.9307494917441
 30
0.0
 11
953.18766516632388
 21
-1307.2340815977441
 31
0.0
  0
LINE
  5
BF59
  8
01
  6
BYBLOCK
 10
953.18766516632388
 20
-1307.2340815977441
 30
0.0
 11
955.78766516632402
 21
-1306.5374137037441
 31
0.0
  0
LINE
  5
BF5A
  8
01
  6
BYBLOCK
 10
953.18766516632388
 20
-1307.2340815977441
 30
0.0
 11
955.78766516632402
 21
-1307.2340815977441
 31
0.0
  0
TEXT
  5
BF5B
  8
01
 10
856.17100399965625
 20
-1306.324081597744
 30
0.0
 40
4.5499999999999989
  1
8
  0
LINE
  5
BF5C
  8
01
  6
BYBLOCK
 10
859.88767216632175
 20
-1306.5374137037441
 30
0.0
 11
862.48767216632177
 21
-1307.2340815977441
 31
0.0
  0
LINE
  5
BF5D
  8
01
  6
BYBLOCK
 10
862.48767216632177
 20
-1307.2340815977441
 30
0.0
 11
859.88767216632175
 21
-1307.9307494917441
 31
0.0
  0
LINE
  5
BF5E
  8
01
  6
BYBLOCK
 10
862.48767216632177
 20
-1307.2340815977441
 30
0.0
 11
859.88767216632175
 21
-1307.2340815977441
 31
0.0
  0
LINE
  5
BF5F
  8
01
  6
BYBLOCK
 10
856.78766916632355
 20
-1307.9307494917441
 30
0.0
 11
854.18766916632353
 21
-1307.2340815977441
 31
0.0
  0
LINE
  5
BF60
  8
01
  6
BYBLOCK
 10
854.18766916632353
 20
-1307.2340815977441
 30
0.0
 11
856.78766916632355
 21
-1306.5374137037441
 31
0.0
  0
LINE
  5
BF61
  8
01
  6
BYBLOCK
 10
854.18766916632353
 20
-1307.2340815977441
 30
0.0
 11
856.78766916632355
 21
-1307.2340815977441
 31
0.0
  0
TEXT
  5
BF62
  8
01
 10
996.99433183299072
 20
-1329.324081597744
 30
0.0
 40
4.5499999999999989
  1
\U+03C640
  0
LINE
  5
BF63
  8
01
  6
BYBLOCK
 10
1021.387664166324
 20
-1329.5374137037441
 30
0.0
 11
1023.987664166324
 21
-1330.2340815977441
 31
0.0
  0
LINE
  5
BF64
  8
01
  6
BYBLOCK
 10
1023.987664166324
 20
-1330.2340815977441
 30
0.0
 11
1021.387664166324
 21
-1330.9307494917441
 31
0.0
  0
LINE
  5
BF65
  8
01
  6
BYBLOCK
 10
1023.987664166324
 20
-1330.2340815977441
 30
0.0
 11
1021.387664166324
 21
-1330.2340815977441
 31
0.0
  0
LINE
  5
BF66
  8
01
  6
BYBLOCK
 10
986.98766616632395
 20
-1330.9307494917441
 30
0.0
 11
984.38766616632392
 21
-1330.2340815977441
 31
0.0
  0
LINE
  5
BF67
  8
01
  6
BYBLOCK
 10
984.38766616632392
 20
-1330.2340815977441
 30
0.0
 11
986.98766616632395
 21
-1329.5374137037441
 31
0.0
  0
LINE
  5
BF68
  8
01
  6
BYBLOCK
 10
984.38766616632392
 20
-1330.2340815977441
 30
0.0
 11
986.98766616632395
 21
-1330.2340815977441
 31
0.0
  0
TEXT
  5
BF69
  8
01
 10
656.99433183298879
 20
-1329.324081597744
 30
0.0
 40
4.5499999999999989
  1
\U+03C640
  0
LINE
  5
BF6A
  8
01
  6
BYBLOCK
 10
681.38766416632222
 20
-1329.5374137037441
 30
0.0
 11
683.98766416632225
 21
-1330.2340815977441
 31
0.0
  0
LINE
  5
BF6B
  8
01
  6
BYBLOCK
 10
683.98766416632225
 20
-1330.2340815977441
 30
0.0
 11
681.38766416632222
 21
-1330.9307494917441
 31
0.0
  0
LINE
  5
BF6C
  8
01
  6
BYBLOCK
 10
683.98766416632225
 20
-1330.2340815977441
 30
0.0
 11
681.38766416632222
 21
-1330.2340815977441
 31
0.0
  0
LINE
  5
BF6D
  8
01
  6
BYBLOCK
 10
646.98766616632213
 20
-1330.9307494917441
 30
0.0
 11
644.38766616632211
 21
-1330.2340815977441
 31
0.0
  0
LINE
  5
BF6E
  8
01
  6
BYBLOCK
 10
644.38766616632211
 20
-1330.2340815977441
 30
0.0
 11
646.98766616632213
 21
-1329.5374137037441
 31
0.0
  0
LINE
  5
BF6F
  8
01
  6
BYBLOCK
 10
644.38766616632211
 20
-1330.2340815977441
 30
0.0
 11
646.98766616632213
 21
-1330.2340815977441
 31
0.0
  0
TEXT
  5
BF70
  8
01
 10
630.27768516632375
 20
-1392.5674149310771
 30
0.0
 40
4.5499999999999989
  1
50
 50
90.0
  0
LINE
  5
BF71
  8
01
  6
BYBLOCK
 10
630.49101727232335
 20
-1365.834081597744
 30
0.0
 11
631.18768516632338
 21
-1363.2340815977441
 31
0.0
  0
LINE
  5
BF72
  8
01
  6
BYBLOCK
 10
631.18768516632338
 20
-1363.2340815977441
 30
0.0
 11
631.88435306032352
 21
-1365.834081597744
 31
0.0
  0
LINE
  5
BF73
  8
01
  6
BYBLOCK
 10
631.18768516632338
 20
-1363.2340815977441
 30
0.0
 11
631.18768516632338
 21
-1365.834081597744
 31
0.0
  0
LINE
  5
BF74
  8
01
  6
BYBLOCK
 10
631.88435306032352
 20
-1410.6340815977439
 30
0.0
 11
631.18768516632338
 21
-1413.2340815977441
 31
0.0
  0
LINE
  5
BF75
  8
01
  6
BYBLOCK
 10
631.18768516632338
 20
-1413.2340815977441
 30
0.0
 11
630.49101727232335
 21
-1410.6340815977439
 31
0.0
  0
LINE
  5
BF76
  8
01
  6
BYBLOCK
 10
631.18768516632338
 20
-1413.2340815977441
 30
0.0
 11
631.18768516632338
 21
-1410.6340815977439
 31
0.0
  0
TEXT
  5
BF77
  8
01
 10
620.27768516632375
 20
-1393.0674149310771
 30
0.0
 40
4.5499999999999989
  1
55.5
 50
90.0
  0
LINE
  5
BF78
  8
01
  6
BYBLOCK
 10
620.49101727232335
 20
-1360.334081597744
 30
0.0
 11
621.18768516632349
 21
-1357.7340815977441
 31
0.0
  0
LINE
  5
BF79
  8
01
  6
BYBLOCK
 10
621.18768516632349
 20
-1357.7340815977441
 30
0.0
 11
621.88435306032352
 21
-1360.334081597744
 31
0.0
  0
LINE
  5
BF7A
  8
01
  6
BYBLOCK
 10
621.18768516632349
 20
-1357.7340815977441
 30
0.0
 11
621.18768516632349
 21
-1360.334081597744
 31
0.0
  0
LINE
  5
BF7B
  8
01
  6
BYBLOCK
 10
621.88435306032352
 20
-1410.6340815977439
 30
0.0
 11
621.18768516632349
 21
-1413.2340815977441
 31
0.0
  0
LINE
  5
BF7C
  8
01
  6
BYBLOCK
 10
621.18768516632349
 20
-1413.2340815977441
 30
0.0
 11
620.49101727232335
 21
-1410.6340815977439
 31
0.0
  0
LINE
  5
BF7D
  8
01
  6
BYBLOCK
 10
621.18768516632349
 20
-1413.2340815977441
 30
0.0
 11
621.18768516632349
 21
-1410.6340815977439
 31
0.0
  0
TEXT
  5
BF7E
  8
01
 10
877.78126020288039
 20
-1381.3536942507619
 30
0.0
 40
4.5499999999999989
  1
114
 50
90.0
  0
LINE
  5
BF7F
  8
01
  6
BYBLOCK
 10
879.38792809688016
 20
-1446.6340815977439
 30
0.0
 11
878.69126020288013
 21
-1449.2340815977441
 31
0.0
  0
LINE
  5
BF80
  8
01
  6
BYBLOCK
 10
878.69126020288013
 20
-1449.2340815977441
 30
0.0
 11
877.9945923088801
 21
-1446.6340815977439
 31
0.0
  0
LINE
  5
BF81
  8
01
  6
BYBLOCK
 10
878.69126020288013
 20
-1449.2340815977441
 30
0.0
 11
878.69126020288013
 21
-1446.6340815977439
 31
0.0
  0
LINE
  5
BF82
  8
01
  6
BYBLOCK
 10
877.9945923088801
 20
-1337.834081597744
 30
0.0
 11
878.69126020288013
 21
-1335.2340815977441
 31
0.0
  0
LINE
  5
BF83
  8
01
  6
BYBLOCK
 10
878.69126020288013
 20
-1335.2340815977441
 30
0.0
 11
879.38792809688016
 21
-1337.834081597744
 31
0.0
  0
LINE
  5
BF84
  8
01
  6
BYBLOCK
 10
878.69126020288013
 20
-1335.2340815977441
 30
0.0
 11
878.69126020288013
 21
-1337.834081597744
 31
0.0
  0
TEXT
  5
BF85
  8
01
 10
893.27766916632345
 20
-1381.245360917429
 30
0.0
 40
4.5499999999999989
  1
130
 50
90.0
  0
LINE
  5
BF86
  8
01
  6
BYBLOCK
 10
894.88433706032333
 20
-1454.6340815977439
 30
0.0
 11
894.1876691663233
 21
-1457.2340815977441
 31
0.0
  0
LINE
  5
BF87
  8
01
  6
BYBLOCK
 10
894.1876691663233
 20
-1457.2340815977441
 30
0.0
 11
893.49100127232316
 21
-1454.6340815977439
 31
0.0
  0
LINE
  5
BF88
  8
01
  6
BYBLOCK
 10
894.1876691663233
 20
-1457.2340815977441
 30
0.0
 11
894.1876691663233
 21
-1454.6340815977439
 31
0.0
  0
LINE
  5
BF89
  8
01
  6
BYBLOCK
 10
893.49100127232316
 20
-1329.834081597744
 30
0.0
 11
894.1876691663233
 21
-1327.2340815977441
 31
0.0
  0
LINE
  5
BF8A
  8
01
  6
BYBLOCK
 10
894.1876691663233
 20
-1327.2340815977441
 30
0.0
 11
894.88433706032333
 21
-1329.834081597744
 31
0.0
  0
LINE
  5
BF8B
  8
01
  6
BYBLOCK
 10
894.1876691663233
 20
-1327.2340815977441
 30
0.0
 11
894.1876691663233
 21
-1329.834081597744
 31
0.0
  0
TEXT
  5
BF8C
  8
01
 10
983.35433183299153
 20
-1296.324081597744
 30
0.0
 40
4.5499999999999989
  1
69
  0
LINE
  5
BF8D
  8
01
  6
BYBLOCK
 10
955.78766516632493
 20
-1297.9307494917441
 30
0.0
 11
953.18766516632502
 21
-1297.2340815977441
 31
0.0
  0
LINE
  5
BF8E
  8
01
  6
BYBLOCK
 10
953.18766516632502
 20
-1297.2340815977441
 30
0.0
 11
955.78766516632493
 21
-1296.5374137037441
 31
0.0
  0
LINE
  5
BF8F
  8
01
  6
BYBLOCK
 10
953.18766516632502
 20
-1297.2340815977441
 30
0.0
 11
955.78766516632493
 21
-1297.2340815977441
 31
0.0
  0
LINE
  5
BF90
  8
01
  6
BYBLOCK
 10
1019.587665166325
 20
-1296.5374137037441
 30
0.0
 11
1022.187665166325
 21
-1297.2340815977441
 31
0.0
  0
LINE
  5
BF91
  8
01
  6
BYBLOCK
 10
1022.187665166325
 20
-1297.2340815977441
 30
0.0
 11
1019.587665166325
 21
-1297.9307494917441
 31
0.0
  0
LINE
  5
BF92
  8
01
  6
BYBLOCK
 10
1022.187665166325
 20
-1297.2340815977441
 30
0.0
 11
1019.587665166325
 21
-1297.2340815977441
 31
0.0
  0
TEXT
  5
BF93
  8
01
 10
968.27766516632505
 20
-1421.7671608932319
 30
0.0
 40
4.5499999999999989
  1
\U+03C650
 50
90.0
  0
LINE
  5
BF94
  8
01
  6
BYBLOCK
 10
969.88433306032493
 20
-1435.634081597743
 30
0.0
 11
969.18766516632479
 21
-1438.2340815977429
 31
0.0
  0
LINE
  5
BF95
  8
01
  6
BYBLOCK
 10
969.18766516632479
 20
-1438.2340815977429
 30
0.0
 11
968.49099727232476
 21
-1435.634081597743
 31
0.0
  0
LINE
  5
BF96
  8
01
  6
BYBLOCK
 10
969.18766516632479
 20
-1438.2340815977429
 30
0.0
 11
969.18766516632479
 21
-1435.634081597743
 31
0.0
  0
LINE
  5
BF97
  8
01
  6
BYBLOCK
 10
968.49099727232476
 20
-1390.834081597744
 30
0.0
 11
969.18766516632479
 21
-1388.2340815977441
 31
0.0
  0
LINE
  5
BF98
  8
01
  6
BYBLOCK
 10
969.18766516632479
 20
-1388.2340815977441
 30
0.0
 11
969.88433306032493
 21
-1390.834081597744
 31
0.0
  0
LINE
  5
BF99
  8
01
  6
BYBLOCK
 10
969.18766516632479
 20
-1388.2340815977441
 30
0.0
 11
969.18766516632479
 21
-1390.834081597744
 31
0.0
  0
TEXT
  5
BF9A
  8
01
 10
1054.280081603863
 20
-1245.8740815987719
 30
0.0
 40
4.5499999999999989
  1
114
  0
LINE
  5
BF9B
  8
01
  6
BYBLOCK
 10
1115.639048368324
 20
-1246.0874137047731
 30
0.0
 11
1118.2390483683239
 21
-1246.7840815987729
 31
0.0
  0
LINE
  5
BF9C
  8
01
  6
BYBLOCK
 10
1118.2390483683239
 20
-1246.7840815987729
 30
0.0
 11
1115.639048368324
 21
-1247.4807494927729
 31
0.0
  0
LINE
  5
BF9D
  8
01
  6
BYBLOCK
 10
1118.2390483683239
 20
-1246.7840815987729
 30
0.0
 11
1115.639048368324
 21
-1246.7840815987729
 31
0.0
  0
LINE
  5
BF9E
  8
01
  6
BYBLOCK
 10
1006.787781506069
 20
-1247.4807494927729
 30
0.0
 11
1004.187781506069
 21
-1246.7840815987729
 31
0.0
  0
LINE
  5
BF9F
  8
01
  6
BYBLOCK
 10
1004.187781506069
 20
-1246.7840815987729
 30
0.0
 11
1006.787781506069
 21
-1246.0874137047731
 31
0.0
  0
LINE
  5
BFA0
  8
01
  6
BYBLOCK
 10
1004.187781506069
 20
-1246.7840815987729
 30
0.0
 11
1006.787781506069
 21
-1246.7840815987729
 31
0.0
  0
TEXT
  5
BFA1
  8
01
 10
1048.8634149371969
 20
-1255.8740815987719
 30
0.0
 40
4.5499999999999989
  1
125
  0
LINE
  5
BFA2
  8
01
  6
BYBLOCK
 10
1115.639048368324
 20
-1256.087413704772
 30
0.0
 11
1118.2390483683239
 21
-1256.784081598772
 31
0.0
  0
LINE
  5
BFA3
  8
01
  6
BYBLOCK
 10
1118.2390483683239
 20
-1256.784081598772
 30
0.0
 11
1115.639048368324
 21
-1257.4807494927729
 31
0.0
  0
LINE
  5
BFA4
  8
01
  6
BYBLOCK
 10
1118.2390483683239
 20
-1256.784081598772
 30
0.0
 11
1115.639048368324
 21
-1256.784081598772
 31
0.0
  0
LINE
  5
BFA5
  8
01
  6
BYBLOCK
 10
995.73778150607063
 20
-1257.4807494927729
 30
0.0
 11
993.13778150607038
 21
-1256.784081598772
 31
0.0
  0
LINE
  5
BFA6
  8
01
  6
BYBLOCK
 10
993.13778150607038
 20
-1256.784081598772
 30
0.0
 11
995.73778150607063
 21
-1256.087413704772
 31
0.0
  0
LINE
  5
BFA7
  8
01
  6
BYBLOCK
 10
993.13778150607038
 20
-1256.784081598772
 30
0.0
 11
995.73778150607063
 21
-1256.784081598772
 31
0.0
  0
TEXT
  5
BFA8
  8
01
 10
1127.329048368324
 20
-1191.17876211732
 30
0.0
 40
4.5499999999999989
  1
47
 50
90.0
  0
LINE
  5
BFA9
  8
01
  6
BYBLOCK
 10
1128.9357162623239
 20
-1207.856775969201
 30
0.0
 11
1128.2390483683239
 21
-1210.4567759692011
 31
0.0
  0
LINE
  5
BFAA
  8
01
  6
BYBLOCK
 10
1128.2390483683239
 20
-1210.4567759692011
 30
0.0
 11
1127.5423804743241
 21
-1207.856775969201
 31
0.0
  0
LINE
  5
BFAB
  8
01
  6
BYBLOCK
 10
1128.2390483683239
 20
-1210.4567759692011
 30
0.0
 11
1128.2390483683239
 21
-1207.856775969201
 31
0.0
  0
LINE
  5
BFAC
  8
01
  6
BYBLOCK
 10
1127.5423804743241
 20
-1165.8340815987731
 30
0.0
 11
1128.2390483683239
 21
-1163.2340815987729
 31
0.0
  0
LINE
  5
BFAD
  8
01
  6
BYBLOCK
 10
1128.2390483683239
 20
-1163.2340815987729
 30
0.0
 11
1128.9357162623239
 21
-1165.8340815987731
 31
0.0
  0
LINE
  5
BFAE
  8
01
  6
BYBLOCK
 10
1128.2390483683239
 20
-1163.2340815987729
 30
0.0
 11
1128.2390483683239
 21
-1165.8340815987731
 31
0.0
  0
TEXT
  5
BFAF
  8
01
 10
1137.329048368324
 20
-1204.450748265439
 30
0.0
 40
4.5499999999999989
  1
74
 50
90.0
  0
LINE
  5
BFB0
  8
01
  6
BYBLOCK
 10
1138.9357162623239
 20
-1234.184081598773
 30
0.0
 11
1138.2390483683239
 21
-1236.784081598772
 31
0.0
  0
LINE
  5
BFB1
  8
01
  6
BYBLOCK
 10
1138.2390483683239
 20
-1236.784081598772
 30
0.0
 11
1137.5423804743241
 21
-1234.184081598773
 31
0.0
  0
LINE
  5
BFB2
  8
01
  6
BYBLOCK
 10
1138.2390483683239
 20
-1236.784081598772
 30
0.0
 11
1138.2390483683239
 21
-1234.184081598773
 31
0.0
  0
LINE
  5
BFB3
  8
01
  6
BYBLOCK
 10
1137.5423804743241
 20
-1165.8340815987731
 30
0.0
 11
1138.2390483683239
 21
-1163.2340815987729
 31
0.0
  0
LINE
  5
BFB4
  8
01
  6
BYBLOCK
 10
1138.2390483683239
 20
-1163.2340815987729
 30
0.0
 11
1138.9357162623239
 21
-1165.8340815987731
 31
0.0
  0
LINE
  5
BFB5
  8
01
  6
BYBLOCK
 10
1138.2390483683239
 20
-1163.2340815987729
 30
0.0
 11
1138.2390483683239
 21
-1165.8340815987731
 31
0.0
  0
TEXT
  5
BFB6
  8
01
 10
798.85414305012944
 20
-1306.324081597744
 30
0.0
 40
4.5499999999999989
  1
22
  0
LINE
  5
BFB7
  8
01
  6
BYBLOCK
 10
794.78728360060188
 20
-1307.9307494917441
 30
0.0
 11
792.18728360060175
 21
-1307.2340815977441
 31
0.0
  0
LINE
  5
BFB8
  8
01
  6
BYBLOCK
 10
792.18728360060175
 20
-1307.2340815977441
 30
0.0
 11
794.78728360060188
 21
-1306.5374137037441
 31
0.0
  0
LINE
  5
BFB9
  8
01
  6
BYBLOCK
 10
792.18728360060175
 20
-1307.2340815977441
 30
0.0
 11
794.78728360060188
 21
-1307.2340815977441
 31
0.0
  0
LINE
  5
BFBA
  8
01
  6
BYBLOCK
 10
811.58766916632351
 20
-1306.5374137037441
 30
0.0
 11
814.18766916632353
 21
-1307.2340815977441
 31
0.0
  0
LINE
  5
BFBB
  8
01
  6
BYBLOCK
 10
814.18766916632353
 20
-1307.2340815977441
 30
0.0
 11
811.58766916632351
 21
-1307.9307494917441
 31
0.0
  0
LINE
  5
BFBC
  8
01
  6
BYBLOCK
 10
814.18766916632353
 20
-1307.2340815977441
 30
0.0
 11
811.58766916632351
 21
-1307.2340815977441
 31
0.0
  0
TEXT
  5
BFBD
  8
01
 10
1047.4922746239561
 20
-1390.6119505168731
 30
0.0
 40
4.5499999999999989
  1
74.5
 50
90.0
  0
LINE
  5
BFBE
  8
01
  6
BYBLOCK
 10
1049.0989425179559
 20
-1426.6340815977439
 30
0.0
 11
1048.4022746239559
 21
-1429.2340815977441
 31
0.0
  0
LINE
  5
BFBF
  8
01
  6
BYBLOCK
 10
1048.4022746239559
 20
-1429.2340815977441
 30
0.0
 11
1047.7056067299559
 21
-1426.6340815977439
 31
0.0
  0
LINE
  5
BFC0
  8
01
  6
BYBLOCK
 10
1048.4022746239559
 20
-1429.2340815977441
 30
0.0
 11
1048.4022746239559
 21
-1426.6340815977439
 31
0.0
  0
LINE
  5
BFC1
  8
01
  6
BYBLOCK
 10
1047.7056067299559
 20
-1357.334081597744
 30
0.0
 11
1048.4022746239559
 21
-1354.7340815977441
 31
0.0
  0
LINE
  5
BFC2
  8
01
  6
BYBLOCK
 10
1048.4022746239559
 20
-1354.7340815977441
 30
0.0
 11
1049.0989425179559
 21
-1357.334081597744
 31
0.0
  0
LINE
  5
BFC3
  8
01
  6
BYBLOCK
 10
1048.4022746239559
 20
-1354.7340815977441
 30
0.0
 11
1048.4022746239559
 21
-1357.334081597744
 31
0.0
  0
TEXT
  5
BFC4
  8
01
 10
1043.1389401080969
 20
-1150.817414932106
 30
0.0
 40
4.5499999999999989
  1
20.5
 50
90.0
  0
LINE
  5
BFC5
  8
01
  6
BYBLOCK
 10
1044.7456080020961
 20
-1150.884081598773
 30
0.0
 11
1044.0489401080961
 21
-1153.4840815987729
 31
0.0
  0
LINE
  5
BFC6
  8
01
  6
BYBLOCK
 10
1044.0489401080961
 20
-1153.4840815987729
 30
0.0
 11
1043.352272214096
 21
-1150.884081598773
 31
0.0
  0
LINE
  5
BFC7
  8
01
  6
BYBLOCK
 10
1044.0489401080961
 20
-1153.4840815987729
 30
0.0
 11
1044.0489401080961
 21
-1150.884081598773
 31
0.0
  0
LINE
  5
BFC8
  8
01
  6
BYBLOCK
 10
1043.352272214096
 20
-1135.5840815987719
 30
0.0
 11
1044.0489401080961
 21
-1132.9840815987729
 31
0.0
  0
LINE
  5
BFC9
  8
01
  6
BYBLOCK
 10
1044.0489401080961
 20
-1132.9840815987729
 30
0.0
 11
1044.7456080020961
 21
-1135.5840815987719
 31
0.0
  0
LINE
  5
BFCA
  8
01
  6
BYBLOCK
 10
1044.0489401080961
 20
-1132.9840815987729
 30
0.0
 11
1044.0489401080961
 21
-1135.5840815987719
 31
0.0
  0
LINE
  5
BFCB
  8
01
 10
1001.876728294392
 20
-1182.7299927573481
 30
0.0
 11
976.94082625934061
 21
-1202.144081598773
 31
0.0
1001
ACAD
1000
DSTYLE
1002
{
1070
    40
1040
1.3
1002
}
  0
LINE
  5
BFCC
  8
01
 10
976.94082625934061
 20
-1202.144081598773
 30
0.0
 11
973.43082625934062
 21
-1202.144081598773
 31
0.0
1001
ACAD
1000
DSTYLE
1002
{
1070
    40
1040
1.3
1002
}
  0
VIEWPORT
  5
57
 67
     1
  8
0
 10
10.300854394508089
 20
17.565658765306811
 30
0.0
 40
436.73568300434312
 41
283.68494807538752
 68
     1
 69
     1
1001
ACAD
1000
MVIEW
1002
{
1070
    16
1010
0.0
1020
0.0
1030
0.0
1010
0.0
1020
0.0
1030
1.0
1040
0.0
1040
283.68494807538752
1040
10.300854394508089
1040
17.565658765306811
1040
50.0
1040
0.0
1040
0.0
1070
     0
1070
   100
1070
     1
1070
     1
1070
     0
1070
     0
1070
     0
1070
     0
1040
0.0
1040
0.0
1040
0.0
1040
10.0
1040
10.0
1040
10.0
1040
10.0
1070
     0
1002
{
1002
}
1002
}
  0
ENDSEC
  0
EOF
