  0
SECTION
  2
HEADER
  9
$ACADVER
  1
AC1009
  9
$INSBASE
 10
0.0
 20
0.0
 30
0.0
  9
$EXTMIN
 10
550.13638109049134
 20
-1468.070021597744
 30
0.0
  9
$EXTMAX
 10
1139.5390483683241
 20
-1049.6840815987721
 30
0.0
  9
$LIMMIN
 10
0.0
 20
0.0
  9
$LIMMAX
 10
420.0
 20
297.0
  9
$ORTHOMODE
 70
     0
  9
$REGENMODE
 70
     1
  9
$FILLMODE
 70
     1
  9
$QTEXTMODE
 70
     0
  9
$MIRRTEXT
 70
     0
  9
$DRAGMODE
 70
     2
  9
$LTSCALE
 40
0.5
  9
$OSMODE
 70
  2175
  9
$ATTMODE
 70
     1
  9
$TEXTSIZE
 40
4.0
  9
$TRACEWID
 40
1.0
  9
$TEXTSTYLE
  7
STANDARD
  9
$CLAYER
  8
1TEXT
  9
$CELTYPE
  6
BYLAYER
  9
$CECOLOR
 62
   256
  9
$DIMSCALE
 40
1.0
  9
$DIMASZ
 40
2.0
  9
$DIMEXO
 40
0.0
  9
$DIMDLI
 40
7.0
  9
$DIMRND
 40
0.0
  9
$DIMDLE
 40
0.0
  9
$DIMEXE
 40
1.0
  9
$DIMTP
 40
0.0
  9
$DIMTM
 40
0.0
  9
$DIMTXT
 40
3.5
  9
$DIMCEN
 40
0.0
  9
$DIMTSZ
 40
0.0
  9
$DIMTOL
 70
     0
  9
$DIMLIM
 70
     0
  9
$DIMTIH
 70
     0
  9
$DIMTOH
 70
     0
  9
$DIMSE1
 70
     0
  9
$DIMSE2
 70
     0
  9
$DIMTAD
 70
     1
  9
$DIMZIN
 70
     8
  9
$DIMBLK
  1

  9
$DIMASO
 70
     1
  9
$DIMSHO
 70
     1
  9
$DIMPOST
  1
 
  9
$DIMAPOST
  1

  9
$DIMALT
 70
     0
  9
$DIMALTD
 70
     2
  9
$DIMALTF
 40
25.399999999999999
  9
$DIMLFAC
 40
1.0
  9
$DIMTOFL
 70
     1
  9
$DIMTVP
 40
0.0
  9
$DIMTIX
 70
     0
  9
$DIMSOXD
 70
     0
  9
$DIMSAH
 70
     1
  9
$DIMBLK1
  1
OPEN30
  9
$DIMBLK2
  1
OPEN30
  9
$DIMSTYLE
  2
NEWX10
  9
$DIMCLRD
 70
   256
  9
$DIMCLRE
 70
   256
  9
$DIMCLRT
 70
   201
  9
$DIMTFAC
 40
0.7
  9
$DIMGAP
 40
0.7
  9
$LUNITS
 70
     2
  9
$LUPREC
 70
     4
  9
$SKETCHINC
 40
1.0
  9
$FILLETRAD
 40
0.0
  9
$AUNITS
 70
     0
  9
$AUPREC
 70
     2
  9
$MENU
  1
acad
  9
$ELEVATION
 40
0.0
  9
$PELEVATION
 40
0.0
  9
$THICKNESS
 40
0.0
  9
$LIMCHECK
 70
     0
  9
$BLIPMODE
 70
     0
  9
$CHAMFERA
 40
10.0
  9
$CHAMFERB
 40
10.0
  9
$SKPOLY
 70
     0
  9
$TDCREATE
 40
2451318.621352917
  9
$TDUPDATE
 40
2456016.7706494099
  9
$TDINDWG
 40
0.5599279282
  9
$TDUSRTIMER
 40
0.5599279282
  9
$USRTIMER
 70
     1
  9
$ANGBASE
 50
0.0
  9
$ANGDIR
 70
     0
  9
$PDMODE
 70
     0
  9
$PDSIZE
 40
0.0
  9
$PLINEWID
 40
0.0
  9
$COORDS
 70
     2
  9
$SPLFRAME
 70
     0
  9
$SPLINETYPE
 70
     6
  9
$SPLINESEGS
 70
     8
  9
$ATTDIA
 70
     0
  9
$ATTREQ
 70
     1
  9
$HANDLING
 70
     1
  9
$HANDSEED
  5
CA16
  9
$SURFTAB1
 70
     6
  9
$SURFTAB2
 70
     6
  9
$SURFTYPE
 70
     6
  9
$SURFU
 70
     6
  9
$SURFV
 70
     6
  9
$UCSNAME
  2

  9
$UCSORG
 10
0.0
 20
0.0
 30
0.0
  9
$UCSXDIR
 10
1.0
 20
0.0
 30
0.0
  9
$UCSYDIR
 10
0.0
 20
1.0
 30
0.0
  9
$PUCSNAME
  2

  9
$PUCSORG
 10
0.0
 20
0.0
 30
0.0
  9
$PUCSXDIR
 10
1.0
 20
0.0
 30
0.0
  9
$PUCSYDIR
 10
0.0
 20
1.0
 30
0.0
  9
$USERI1
 70
     0
  9
$USERI2
 70
     0
  9
$USERI3
 70
     0
  9
$USERI4
 70
     0
  9
$USERI5
 70
     0
  9
$USERR1
 40
0.0
  9
$USERR2
 40
0.0
  9
$USERR3
 40
0.0
  9
$USERR4
 40
0.0
  9
$USERR5
 40
0.0
  9
$WORLDVIEW
 70
     1
  9
$SHADEDGE
 70
     3
  9
$SHADEDIF
 70
    70
  9
$TILEMODE
 70
     1
  9
$MAXACTVP
 70
    48
  9
$PLIMCHECK
 70
     0
  9
$PEXTMIN
 10
1.0000000000000000E+020
 20
1.0000000000000000E+020
 30
1.0000000000000000E+020
  9
$PEXTMAX
 10
-1.0000000000000000E+020
 20
-1.0000000000000000E+020
 30
-1.0000000000000000E+020
  9
$PLIMMIN
 10
0.0
 20
0.0
  9
$PLIMMAX
 10
420.0
 20
297.0
  9
$UNITMODE
 70
     0
  9
$VISRETAIN
 70
     1
  9
$PLINEGEN
 70
     0
  9
$PSLTSCALE
 70
     1
  0
ENDSEC
  0
SECTION
  2
TABLES
  0
TABLE
  2
VPORT
 70
     1
  0
VPORT
  2
*ACTIVE
 70
     0
 10
0.0
 20
0.0
 11
1.0
 21
1.0
 12
844.84746516398252
 22
-1258.8557859756529
 13
0.0
 23
0.0
 14
10.0
 24
10.0
 15
10.0
 25
10.0
 16
0.0
 26
0.0
 36
1.0
 17
0.0
 27
0.0
 37
0.0
 40
444.16085930979818
 41
1.5395095367847409
 42
50.0
 43
0.0
 44
0.0
 50
0.0
 51
0.0
 71
     0
 72
   100
 73
     1
 74
     1
 75
     0
 76
     0
 77
     0
 78
     0
  0
ENDTAB
  0
TABLE
  2
LTYPE
 70
    12
  0
LTYPE
  2
CONTINUOUS
 70
     0
  3
Solid line
 72
    65
 73
     0
 40
0.0
  0
LTYPE
  2
XREF1|CENTER2
 70
    48
  3
Center (.5x) ___ _ ___ _ ___ _ ___ _ ___ _ ___
 72
    65
 73
     4
 40
28.574999999999999
 49
19.050000000000001
 49
-3.1749999999999989
 49
3.1749999999999989
 49
-3.1749999999999989
  0
LTYPE
  2
A3WAKUDAKE|CENTER2
 70
    48
  3
Center (.5x) ___ _ ___ _ ___ _ ___ _ ___ _ ___
 72
    65
 73
     4
 40
28.574999999999999
 49
19.050000000000001
 49
-3.1749999999999989
 49
3.1749999999999989
 49
-3.1749999999999989
  0
ENDTAB
  0
TABLE
  2
LAYER
 70
    36
  0
LAYER
  2
0
 70
     0
 62
     7
  6
CONTINUOUS
  0
LAYER
  2
1TEXT
 70
     0
 62
     7
  6
CONTINUOUS
  0
LAYER
  2
01
 70
     0
 62
     1
  6
CONTINUOUS
  0
LAYER
  2
A3WAKUDAKE|THICK
 70
    48
 62
     7
  6
CONTINUOUS
  0
LAYER
  2
A3WAKUDAKE|POINT
 70
    48
 62
     7
  6
CONTINUOUS
  0
LAYER
  2
A3WAKUDAKE|1CENTER
 70
    48
 62
     7
  6
A3WAKUDAKE|CENTER2
  0
LAYER
  2
A3WAKUDAKE|0-6
 70
    48
 62
     7
  6
CONTINUOUS
  0
LAYER
  2
A3WAKUDAKE|1DIM
 70
    48
 62
     7
  6
CONTINUOUS
  0
LAYER
  2
XREF1|1CENTER
 70
    48
 62
     7
  6
XREF1|CENTER2
  0
ENDTAB
  0
TABLE
  2
STYLE
 70
     4
  0
STYLE
  2
STANDARD
 70
     0
 40
0.0
 41
1.0
 50
0.0
 71
     0
 42
4.0
  3
romans.shx
  4
extfont.shx
  0
ENDTAB
  0
TABLE
  2
VIEW
 70
     5
  0
ENDTAB
  0
TABLE
  2
UCS
 70
     0
  0
ENDTAB
  0
TABLE
  2
APPID
 70
     9
  0
APPID
  2
ACAD
 70
     0
  0
APPID
  2
DRAWINGVARIABLESXDATA
 70
     0
  0
APPID
  2
CONTENTTABDATA
 70
     0
  0
APPID
  2
CONTENTCURRENTTAB
 70
     0
  0
APPID
  2
CONTENTBLOCKDESCRIPTION
 70
     0
  0
APPID
  2
CONTENTBLOCKICON
 70
     0
  0
APPID
  2
CONTENTLONGBLOCKNAME
 70
     0
  0
APPID
  2
ACAD_PSEXT
 70
     0
  0
APPID
  2
ACAD_MLEADERVER
 70
     0
  0
ENDTAB
  0
TABLE
  2
DIMSTYLE
 70
     5
  0
DIMSTYLE
  2
NEWX10
 70
     0
  3
 
  4

  5

  6
OPEN30
  7
OPEN30
 40
1.0
 41
2.0
 42
0.0
 43
7.0
 44
1.0
 45
0.0
 46
0.0
 47
0.0
 48
0.0
140
3.5
141
0.0
142
0.0
143
25.399999999999999
144
1.0
145
0.0
146
0.7
147
0.7
 71
     0
 72
     0
 73
     0
 74
     0
 75
     0
 76
     0
 77
     1
 78
     8
170
     0
171
     2
172
     1
173
     1
174
     0
175
     0
176
   256
177
   256
178
   201
  0
ENDTAB
  0
ENDSEC
  0
SECTION
  2
BLOCKS
  0
BLOCK
  8
0
  2
$MODEL_SPACE
 70
     0
 10
0.0
 20
0.0
 30
0.0
  3
$MODEL_SPACE
  1

  0
ENDBLK
  5
1A
  8
0
  0
BLOCK
 67
     1
  8
0
  2
$PAPER_SPACE
 70
     0
 10
0.0
 20
0.0
 30
0.0
  3
$PAPER_SPACE
  1

  0
ENDBLK
  5
17
 67
     1
  8
0
  0
BLOCK
  8
0
  2
_OPEN30
 70
     0
 10
0.0
 20
0.0
 30
0.0
  3
_OPEN30
  1

  0
LINE
  5
44
  8
0
  6
BYBLOCK
 62
     0
 10
-1.0
 20
0.26794919
 30
0.0
 11
0.0
 21
0.0
 31
0.0
  0
LINE
  5
45
  8
0
  6
BYBLOCK
 62
     0
 10
0.0
 20
0.0
 30
0.0
 11
-1.0
 21
-0.26794919
 31
0.0
  0
LINE
  5
46
  8
0
  6
BYBLOCK
 62
     0
 10
0.0
 20
0.0
 30
0.0
 11
-1.0
 21
0.0
 31
0.0
  0
ENDBLK
  5
47
  8
0
  0
BLOCK
  8
0
  2
XREF1
 70
    36
 10
0.0
 20
0.0
 30
0.0
  3
XREF1
  1
D:\ACLT\FORMAT\KAWAJUN(9)図面用.dwg
  0
ENDBLK
  5
5D
  8
0
  0
BLOCK
  8
0
  2
A3WAKUDAKE
 70
    36
 10
0.0
 20
0.0
 30
0.0
  3
A3WAKUDAKE
  1
D:\ACLT\FORMAT\A3WAKUdake.dwg
  0
ENDBLK
  5
6A0
  8
0
  0
BLOCK
  8
0
  2
*U27
 70
     1
 10
0.0
 20
0.0
 30
0.0
  3
*U27
  1

  0
TEXT
  5
C4F5
  8
1TEXT
 62
   201
 10
1043.3489401080969
 20
-1145.567414932106
 30
0.0
 40
3.5
  1
20.5
 50
90.0
  0
ENDBLK
  5
C4F7
  8
0
  0
BLOCK
  8
0
  2
*U28
 70
     1
 10
0.0
 20
0.0
 30
0.0
  3
*U28
  1

  0
TEXT
  5
C4F9
  8
1TEXT
 62
   201
 10
1043.1389401080969
 20
-397.31741493210592
 30
0.0
 40
4.5499999999999989
  1
20.5
 50
90.0
  0
ENDBLK
  5
C4FB
  8
0
  0
ENDSEC
  0
SECTION
  2
ENTITIES
  0
LINE
  5
21EB
  8
01
 10
854.18766916632353
 20
-1320.7367015977429
 30
0.0
 11
854.18766916632353
 21
-1468.070021597744
 31
0.0
  0
LINE
  5
21EC
  8
01
 10
814.18766916632353
 20
-1320.7367015977429
 30
0.0
 11
814.18766916632353
 21
-1468.070021597744
 31
0.0
  0
LINE
  5
21ED
  8
01
 10
712.78767516632411
 20
-1327.2340815977441
 30
0.0
 11
712.78767516632411
 21
-1350.3340515977429
 31
0.0
  0
LINE
  5
21EE
  8
01
 10
711.18766916632353
 20
-1327.2340815977441
 30
0.0
 11
711.18766916632353
 21
-1350.2340815977441
 31
0.0
  0
LINE
  5
21EF
  8
01
 10
713.58767816632439
 20
-1327.2340815977441
 30
0.0
 11
713.58767816632439
 21
-1457.2340815977441
 31
0.0
  0
LINE
  5
21F0
  8
01
 10
715.18766916632353
 20
-1327.2340815977441
 30
0.0
 11
715.18766916632353
 21
-1457.2340815977441
 31
0.0
  0
LINE
  5
21F2
  8
01
 10
712.18766916632353
 20
-1429.2340815977441
 30
0.0
 11
690.68767316632295
 21
-1429.2340815977441
 31
0.0
  0
LINE
  5
21F3
  8
01
 10
646.18768516632383
 20
-1377.7340815977441
 30
0.0
 11
646.1876851663236
 21
-1386.7340815977459
 31
0.0
  0
LINE
  5
21F4
  8
01
 10
721.18766916632171
 20
-1381.2340815977441
 30
0.0
 11
715.18766916632353
 21
-1381.2340815977441
 31
0.0
  0
LINE
  5
21F5
  8
01
 10
726.18766916632353
 20
-1386.2340815977441
 30
0.0
 11
716.18766916632353
 21
-1386.2340815977441
 31
0.0
  0
POLYLINE
  5
21F6
  8
01
 10
726.18766916632353
 20
-1384.8025015977439
 30
0.0
 66
     1
 70
     8
  0
VERTEX
  8
01
  5
C502
 10
726.188
 20
-1384.80
 30
0.000000
  70
    32
  0
VERTEX
  8
01
  5
C503
 10
726.186
 20
-1384.71
 30
0.000000
  70
    32
  0
VERTEX
  8
01
  5
C504
 10
726.182
 20
-1384.63
 30
0.000000
  70
    32
  0
VERTEX
  8
01
  5
C505
 10
726.174
 20
-1384.54
 30
0.000000
  70
    32
  0
VERTEX
  8
01
  5
C506
 10
726.164
 20
-1384.45
 30
0.000000
  70
    32
  0
VERTEX
  8
01
  5
C507
 10
726.150
 20
-1384.37
 30
0.000000
  70
    32
  0
VERTEX
  8
01
  5
C508
 10
726.134
 20
-1384.28
 30
0.000000
  70
    32
  0
VERTEX
  8
01
  5
C509
 10
726.114
 20
-1384.19
 30
0.000000
  70
    32
  0
VERTEX
  8
01
  5
C50A
 10
726.092
 20
-1384.11
 30
0.000000
  70
    32
  0
VERTEX
  8
01
  5
C50B
 10
726.066
 20
-1384.02
 30
0.000000
  70
    32
  0
VERTEX
  8
01
  5
C50C
 10
726.038
 20
-1383.94
 30
0.000000
  70
    32
  0
VERTEX
  8
01
  5
C50D
 10
726.007
 20
-1383.85
 30
0.000000
  70
    32
  0
VERTEX
  8
01
  5
C50E
 10
725.972
 20
-1383.77
 30
0.000000
  70
    32
  0
VERTEX
  8
01
  5
C50F
 10
725.935
 20
-1383.68
 30
0.000000
  70
    32
  0
VERTEX
  8
01
  5
C510
 10
725.895
 20
-1383.60
 30
0.000000
  70
    32
  0
VERTEX
  8
01
  5
C511
 10
725.853
 20
-1383.52
 30
0.000000
  70
    32
  0
VERTEX
  8
01
  5
C512
 10
725.807
 20
-1383.44
 30
0.000000
  70
    32
  0
VERTEX
  8
01
  5
C513
 10
725.759
 20
-1383.36
 30
0.000000
  70
    32
  0
VERTEX
  8
01
  5
C514
 10
725.708
 20
-1383.28
 30
0.000000
  70
    32
  0
VERTEX
  8
01
  5
C515
 10
725.654
 20
-1383.20
 30
0.000000
  70
    32
  0
VERTEX
  8
01
  5
C516
 10
725.597
 20
-1383.12
 30
0.000000
  70
    32
  0
VERTEX
  8
01
  5
C517
 10
725.538
 20
-1383.04
 30
0.000000
  70
    32
  0
VERTEX
  8
01
  5
C518
 10
725.476
 20
-1382.97
 30
0.000000
  70
    32
  0
VERTEX
  8
01
  5
C519
 10
725.412
 20
-1382.89
 30
0.000000
  70
    32
  0
VERTEX
  8
01
  5
C51A
 10
725.345
 20
-1382.82
 30
0.000000
  70
    32
  0
VERTEX
  8
01
  5
C51B
 10
725.276
 20
-1382.75
 30
0.000000
  70
    32
  0
VERTEX
  8
01
  5
C51C
 10
725.204
 20
-1382.68
 30
0.000000
  70
    32
  0
VERTEX
  8
01
  5
C51D
 10
725.129
 20
-1382.61
 30
0.000000
  70
    32
  0
VERTEX
  8
01
  5
C51E
 10
725.053
 20
-1382.54
 30
0.000000
  70
    32
  0
VERTEX
  8
01
  5
C51F
 10
724.974
 20
-1382.47
 30
0.000000
  70
    32
  0
VERTEX
  8
01
  5
C520
 10
724.892
 20
-1382.41
 30
0.000000
  70
    32
  0
VERTEX
  8
01
  5
C521
 10
724.809
 20
-1382.34
 30
0.000000
  70
    32
  0
VERTEX
  8
01
  5
C522
 10
724.723
 20
-1382.28
 30
0.000000
  70
    32
  0
VERTEX
  8
01
  5
C523
 10
724.635
 20
-1382.22
 30
0.000000
  70
    32
  0
VERTEX
  8
01
  5
C524
 10
724.545
 20
-1382.16
 30
0.000000
  70
    32
  0
VERTEX
  8
01
  5
C525
 10
724.454
 20
-1382.10
 30
0.000000
  70
    32
  0
VERTEX
  8
01
  5
C526
 10
724.360
 20
-1382.04
 30
0.000000
  70
    32
  0
VERTEX
  8
01
  5
C527
 10
724.264
 20
-1381.99
 30
0.000000
  70
    32
  0
VERTEX
  8
01
  5
C528
 10
724.166
 20
-1381.94
 30
0.000000
  70
    32
  0
VERTEX
  8
01
  5
C529
 10
724.067
 20
-1381.89
 30
0.000000
  70
    32
  0
VERTEX
  8
01
  5
C52A
 10
723.966
 20
-1381.84
 30
0.000000
  70
    32
  0
VERTEX
  8
01
  5
C52B
 10
723.863
 20
-1381.79
 30
0.000000
  70
    32
  0
VERTEX
  8
01
  5
C52C
 10
723.758
 20
-1381.74
 30
0.000000
  70
    32
  0
VERTEX
  8
01
  5
C52D
 10
723.652
 20
-1381.70
 30
0.000000
  70
    32
  0
VERTEX
  8
01
  5
C52E
 10
723.545
 20
-1381.66
 30
0.000000
  70
    32
  0
VERTEX
  8
01
  5
C52F
 10
723.436
 20
-1381.62
 30
0.000000
  70
    32
  0
VERTEX
  8
01
  5
C530
 10
723.325
 20
-1381.58
 30
0.000000
  70
    32
  0
VERTEX
  8
01
  5
C531
 10
723.214
 20
-1381.54
 30
0.000000
  70
    32
  0
VERTEX
  8
01
  5
C532
 10
723.101
 20
-1381.51
 30
0.000000
  70
    32
  0
VERTEX
  8
01
  5
C533
 10
722.987
 20
-1381.47
 30
0.000000
  70
    32
  0
VERTEX
  8
01
  5
C534
 10
722.872
 20
-1381.44
 30
0.000000
  70
    32
  0
VERTEX
  8
01
  5
C535
 10
722.756
 20
-1381.41
 30
0.000000
  70
    32
  0
VERTEX
  8
01
  5
C536
 10
722.639
 20
-1381.39
 30
0.000000
  70
    32
  0
VERTEX
  8
01
  5
C537
 10
722.521
 20
-1381.36
 30
0.000000
  70
    32
  0
VERTEX
  8
01
  5
C538
 10
722.403
 20
-1381.34
 30
0.000000
  70
    32
  0
VERTEX
  8
01
  5
C539
 10
722.283
 20
-1381.32
 30
0.000000
  70
    32
  0
VERTEX
  8
01
  5
C53A
 10
722.163
 20
-1381.30
 30
0.000000
  70
    32
  0
VERTEX
  8
01
  5
C53B
 10
722.042
 20
-1381.29
 30
0.000000
  70
    32
  0
VERTEX
  8
01
  5
C53C
 10
721.921
 20
-1381.27
 30
0.000000
  70
    32
  0
VERTEX
  8
01
  5
C53D
 10
721.800
 20
-1381.26
 30
0.000000
  70
    32
  0
VERTEX
  8
01
  5
C53E
 10
721.678
 20
-1381.25
 30
0.000000
  70
    32
  0
VERTEX
  8
01
  5
C53F
 10
721.555
 20
-1381.24
 30
0.000000
  70
    32
  0
VERTEX
  8
01
  5
C540
 10
721.433
 20
-1381.24
 30
0.000000
  70
    32
  0
VERTEX
  8
01
  5
C541
 10
721.310
 20
-1381.24
 30
0.000000
  70
    32
  0
VERTEX
  8
01
  5
C542
 10
721.188
 20
-1381.23
 30
0.000000
  70
    32
  0
VERTEX
  8
01
  5
C543
 10
721.065
 20
-1381.24
 30
0.000000
  70
    32
  0
VERTEX
  8
01
  5
C544
 10
720.942
 20
-1381.24
 30
0.000000
  70
    32
  0
VERTEX
  8
01
  5
C545
 10
720.820
 20
-1381.24
 30
0.000000
  70
    32
  0
VERTEX
  8
01
  5
C546
 10
720.698
 20
-1381.25
 30
0.000000
  70
    32
  0
VERTEX
  8
01
  5
C547
 10
720.576
 20
-1381.26
 30
0.000000
  70
    32
  0
VERTEX
  8
01
  5
C548
 10
720.454
 20
-1381.27
 30
0.000000
  70
    32
  0
VERTEX
  8
01
  5
C549
 10
720.333
 20
-1381.29
 30
0.000000
  70
    32
  0
VERTEX
  8
01
  5
C54A
 10
720.212
 20
-1381.30
 30
0.000000
  70
    32
  0
VERTEX
  8
01
  5
C54B
 10
720.092
 20
-1381.32
 30
0.000000
  70
    32
  0
VERTEX
  8
01
  5
C54C
 10
719.973
 20
-1381.34
 30
0.000000
  70
    32
  0
VERTEX
  8
01
  5
C54D
 10
719.854
 20
-1381.36
 30
0.000000
  70
    32
  0
VERTEX
  8
01
  5
C54E
 10
719.736
 20
-1381.39
 30
0.000000
  70
    32
  0
VERTEX
  8
01
  5
C54F
 10
719.619
 20
-1381.41
 30
0.000000
  70
    32
  0
VERTEX
  8
01
  5
C550
 10
719.503
 20
-1381.44
 30
0.000000
  70
    32
  0
VERTEX
  8
01
  5
C551
 10
719.388
 20
-1381.47
 30
0.000000
  70
    32
  0
VERTEX
  8
01
  5
C552
 10
719.274
 20
-1381.51
 30
0.000000
  70
    32
  0
VERTEX
  8
01
  5
C553
 10
719.161
 20
-1381.54
 30
0.000000
  70
    32
  0
VERTEX
  8
01
  5
C554
 10
719.050
 20
-1381.58
 30
0.000000
  70
    32
  0
VERTEX
  8
01
  5
C555
 10
718.940
 20
-1381.62
 30
0.000000
  70
    32
  0
VERTEX
  8
01
  5
C556
 10
718.831
 20
-1381.66
 30
0.000000
  70
    32
  0
VERTEX
  8
01
  5
C557
 10
718.723
 20
-1381.70
 30
0.000000
  70
    32
  0
VERTEX
  8
01
  5
C558
 10
718.617
 20
-1381.74
 30
0.000000
  70
    32
  0
VERTEX
  8
01
  5
C559
 10
718.513
 20
-1381.79
 30
0.000000
  70
    32
  0
VERTEX
  8
01
  5
C55A
 10
718.410
 20
-1381.84
 30
0.000000
  70
    32
  0
VERTEX
  8
01
  5
C55B
 10
718.309
 20
-1381.89
 30
0.000000
  70
    32
  0
VERTEX
  8
01
  5
C55C
 10
718.209
 20
-1381.94
 30
0.000000
  70
    32
  0
VERTEX
  8
01
  5
C55D
 10
718.112
 20
-1381.99
 30
0.000000
  70
    32
  0
VERTEX
  8
01
  5
C55E
 10
718.016
 20
-1382.04
 30
0.000000
  70
    32
  0
VERTEX
  8
01
  5
C55F
 10
717.922
 20
-1382.10
 30
0.000000
  70
    32
  0
VERTEX
  8
01
  5
C560
 10
717.830
 20
-1382.16
 30
0.000000
  70
    32
  0
VERTEX
  8
01
  5
C561
 10
717.740
 20
-1382.22
 30
0.000000
  70
    32
  0
VERTEX
  8
01
  5
C562
 10
717.652
 20
-1382.28
 30
0.000000
  70
    32
  0
VERTEX
  8
01
  5
C563
 10
717.566
 20
-1382.34
 30
0.000000
  70
    32
  0
VERTEX
  8
01
  5
C564
 10
717.483
 20
-1382.41
 30
0.000000
  70
    32
  0
VERTEX
  8
01
  5
C565
 10
717.402
 20
-1382.47
 30
0.000000
  70
    32
  0
VERTEX
  8
01
  5
C566
 10
717.323
 20
-1382.54
 30
0.000000
  70
    32
  0
VERTEX
  8
01
  5
C567
 10
717.246
 20
-1382.61
 30
0.000000
  70
    32
  0
VERTEX
  8
01
  5
C568
 10
717.172
 20
-1382.68
 30
0.000000
  70
    32
  0
VERTEX
  8
01
  5
C569
 10
717.100
 20
-1382.75
 30
0.000000
  70
    32
  0
VERTEX
  8
01
  5
C56A
 10
717.030
 20
-1382.82
 30
0.000000
  70
    32
  0
VERTEX
  8
01
  5
C56B
 10
716.963
 20
-1382.89
 30
0.000000
  70
    32
  0
VERTEX
  8
01
  5
C56C
 10
716.899
 20
-1382.97
 30
0.000000
  70
    32
  0
VERTEX
  8
01
  5
C56D
 10
716.837
 20
-1383.04
 30
0.000000
  70
    32
  0
VERTEX
  8
01
  5
C56E
 10
716.778
 20
-1383.12
 30
0.000000
  70
    32
  0
VERTEX
  8
01
  5
C56F
 10
716.722
 20
-1383.20
 30
0.000000
  70
    32
  0
VERTEX
  8
01
  5
C570
 10
716.668
 20
-1383.28
 30
0.000000
  70
    32
  0
VERTEX
  8
01
  5
C571
 10
716.617
 20
-1383.36
 30
0.000000
  70
    32
  0
VERTEX
  8
01
  5
C572
 10
716.568
 20
-1383.44
 30
0.000000
  70
    32
  0
VERTEX
  8
01
  5
C573
 10
716.523
 20
-1383.52
 30
0.000000
  70
    32
  0
VERTEX
  8
01
  5
C574
 10
716.480
 20
-1383.60
 30
0.000000
  70
    32
  0
VERTEX
  8
01
  5
C575
 10
716.440
 20
-1383.68
 30
0.000000
  70
    32
  0
VERTEX
  8
01
  5
C576
 10
716.403
 20
-1383.77
 30
0.000000
  70
    32
  0
VERTEX
  8
01
  5
C577
 10
716.369
 20
-1383.85
 30
0.000000
  70
    32
  0
VERTEX
  8
01
  5
C578
 10
716.338
 20
-1383.94
 30
0.000000
  70
    32
  0
VERTEX
  8
01
  5
C579
 10
716.309
 20
-1384.02
 30
0.000000
  70
    32
  0
VERTEX
  8
01
  5
C57A
 10
716.284
 20
-1384.11
 30
0.000000
  70
    32
  0
VERTEX
  8
01
  5
C57B
 10
716.261
 20
-1384.19
 30
0.000000
  70
    32
  0
VERTEX
  8
01
  5
C57C
 10
716.242
 20
-1384.28
 30
0.000000
  70
    32
  0
VERTEX
  8
01
  5
C57D
 10
716.225
 20
-1384.37
 30
0.000000
  70
    32
  0
VERTEX
  8
01
  5
C57E
 10
716.212
 20
-1384.45
 30
0.000000
  70
    32
  0
VERTEX
  8
01
  5
C57F
 10
716.201
 20
-1384.54
 30
0.000000
  70
    32
  0
VERTEX
  8
01
  5
C580
 10
716.194
 20
-1384.63
 30
0.000000
  70
    32
  0
VERTEX
  8
01
  5
C581
 10
716.189
 20
-1384.71
 30
0.000000
  70
    32
  0
VERTEX
  8
01
  5
C582
 10
716.188
 20
-1384.80
 30
0.000000
  70
    32
  0
SEQEND
  8
01
  5
C583
  0
LINE
  5
21F7
  8
01
 10
721.18766916632353
 20
-1401.2340815977441
 30
0.0
 11
715.18766916632353
 21
-1401.2340815977441
 31
0.0
  0
LINE
  5
21F8
  8
01
 10
726.18766916632353
 20
-1396.2340815977441
 30
0.0
 11
716.18766916632353
 21
-1396.2340815977441
 31
0.0
  0
POLYLINE
  5
21F9
  8
01
 10
726.18766916632353
 20
-1397.6656615977431
 30
0.0
 66
     1
 70
     8
  0
VERTEX
  8
01
  5
C584
 10
726.188
 20
-1397.67
 30
0.000000
  70
    32
  0
VERTEX
  8
01
  5
C585
 10
726.186
 20
-1397.75
 30
0.000000
  70
    32
  0
VERTEX
  8
01
  5
C586
 10
726.182
 20
-1397.84
 30
0.000000
  70
    32
  0
VERTEX
  8
01
  5
C587
 10
726.174
 20
-1397.93
 30
0.000000
  70
    32
  0
VERTEX
  8
01
  5
C588
 10
726.164
 20
-1398.02
 30
0.000000
  70
    32
  0
VERTEX
  8
01
  5
C589
 10
726.150
 20
-1398.10
 30
0.000000
  70
    32
  0
VERTEX
  8
01
  5
C58A
 10
726.134
 20
-1398.19
 30
0.000000
  70
    32
  0
VERTEX
  8
01
  5
C58B
 10
726.114
 20
-1398.28
 30
0.000000
  70
    32
  0
VERTEX
  8
01
  5
C58C
 10
726.092
 20
-1398.36
 30
0.000000
  70
    32
  0
VERTEX
  8
01
  5
C58D
 10
726.066
 20
-1398.45
 30
0.000000
  70
    32
  0
VERTEX
  8
01
  5
C58E
 10
726.038
 20
-1398.53
 30
0.000000
  70
    32
  0
VERTEX
  8
01
  5
C58F
 10
726.007
 20
-1398.62
 30
0.000000
  70
    32
  0
VERTEX
  8
01
  5
C590
 10
725.972
 20
-1398.70
 30
0.000000
  70
    32
  0
VERTEX
  8
01
  5
C591
 10
725.935
 20
-1398.79
 30
0.000000
  70
    32
  0
VERTEX
  8
01
  5
C592
 10
725.895
 20
-1398.87
 30
0.000000
  70
    32
  0
VERTEX
  8
01
  5
C593
 10
725.853
 20
-1398.95
 30
0.000000
  70
    32
  0
VERTEX
  8
01
  5
C594
 10
725.807
 20
-1399.03
 30
0.000000
  70
    32
  0
VERTEX
  8
01
  5
C595
 10
725.759
 20
-1399.11
 30
0.000000
  70
    32
  0
VERTEX
  8
01
  5
C596
 10
725.708
 20
-1399.19
 30
0.000000
  70
    32
  0
VERTEX
  8
01
  5
C597
 10
725.654
 20
-1399.27
 30
0.000000
  70
    32
  0
VERTEX
  8
01
  5
C598
 10
725.597
 20
-1399.35
 30
0.000000
  70
    32
  0
VERTEX
  8
01
  5
C599
 10
725.538
 20
-1399.42
 30
0.000000
  70
    32
  0
VERTEX
  8
01
  5
C59A
 10
725.476
 20
-1399.50
 30
0.000000
  70
    32
  0
VERTEX
  8
01
  5
C59B
 10
725.412
 20
-1399.57
 30
0.000000
  70
    32
  0
VERTEX
  8
01
  5
C59C
 10
725.345
 20
-1399.65
 30
0.000000
  70
    32
  0
VERTEX
  8
01
  5
C59D
 10
725.276
 20
-1399.72
 30
0.000000
  70
    32
  0
VERTEX
  8
01
  5
C59E
 10
725.204
 20
-1399.79
 30
0.000000
  70
    32
  0
VERTEX
  8
01
  5
C59F
 10
725.129
 20
-1399.86
 30
0.000000
  70
    32
  0
VERTEX
  8
01
  5
C5A0
 10
725.053
 20
-1399.93
 30
0.000000
  70
    32
  0
VERTEX
  8
01
  5
C5A1
 10
724.974
 20
-1400.00
 30
0.000000
  70
    32
  0
VERTEX
  8
01
  5
C5A2
 10
724.892
 20
-1400.06
 30
0.000000
  70
    32
  0
VERTEX
  8
01
  5
C5A3
 10
724.809
 20
-1400.13
 30
0.000000
  70
    32
  0
VERTEX
  8
01
  5
C5A4
 10
724.723
 20
-1400.19
 30
0.000000
  70
    32
  0
VERTEX
  8
01
  5
C5A5
 10
724.635
 20
-1400.25
 30
0.000000
  70
    32
  0
VERTEX
  8
01
  5
C5A6
 10
724.545
 20
-1400.31
 30
0.000000
  70
    32
  0
VERTEX
  8
01
  5
C5A7
 10
724.454
 20
-1400.37
 30
0.000000
  70
    32
  0
VERTEX
  8
01
  5
C5A8
 10
724.360
 20
-1400.42
 30
0.000000
  70
    32
  0
VERTEX
  8
01
  5
C5A9
 10
724.264
 20
-1400.48
 30
0.000000
  70
    32
  0
VERTEX
  8
01
  5
C5AA
 10
724.166
 20
-1400.53
 30
0.000000
  70
    32
  0
VERTEX
  8
01
  5
C5AB
 10
724.067
 20
-1400.58
 30
0.000000
  70
    32
  0
VERTEX
  8
01
  5
C5AC
 10
723.966
 20
-1400.63
 30
0.000000
  70
    32
  0
VERTEX
  8
01
  5
C5AD
 10
723.863
 20
-1400.68
 30
0.000000
  70
    32
  0
VERTEX
  8
01
  5
C5AE
 10
723.758
 20
-1400.73
 30
0.000000
  70
    32
  0
VERTEX
  8
01
  5
C5AF
 10
723.652
 20
-1400.77
 30
0.000000
  70
    32
  0
VERTEX
  8
01
  5
C5B0
 10
723.545
 20
-1400.81
 30
0.000000
  70
    32
  0
VERTEX
  8
01
  5
C5B1
 10
723.436
 20
-1400.85
 30
0.000000
  70
    32
  0
VERTEX
  8
01
  5
C5B2
 10
723.325
 20
-1400.89
 30
0.000000
  70
    32
  0
VERTEX
  8
01
  5
C5B3
 10
723.214
 20
-1400.93
 30
0.000000
  70
    32
  0
VERTEX
  8
01
  5
C5B4
 10
723.101
 20
-1400.96
 30
0.000000
  70
    32
  0
VERTEX
  8
01
  5
C5B5
 10
722.987
 20
-1400.99
 30
0.000000
  70
    32
  0
VERTEX
  8
01
  5
C5B6
 10
722.872
 20
-1401.03
 30
0.000000
  70
    32
  0
VERTEX
  8
01
  5
C5B7
 10
722.756
 20
-1401.05
 30
0.000000
  70
    32
  0
VERTEX
  8
01
  5
C5B8
 10
722.639
 20
-1401.08
 30
0.000000
  70
    32
  0
VERTEX
  8
01
  5
C5B9
 10
722.521
 20
-1401.10
 30
0.000000
  70
    32
  0
VERTEX
  8
01
  5
C5BA
 10
722.403
 20
-1401.13
 30
0.000000
  70
    32
  0
VERTEX
  8
01
  5
C5BB
 10
722.283
 20
-1401.15
 30
0.000000
  70
    32
  0
VERTEX
  8
01
  5
C5BC
 10
722.163
 20
-1401.17
 30
0.000000
  70
    32
  0
VERTEX
  8
01
  5
C5BD
 10
722.042
 20
-1401.18
 30
0.000000
  70
    32
  0
VERTEX
  8
01
  5
C5BE
 10
721.921
 20
-1401.20
 30
0.000000
  70
    32
  0
VERTEX
  8
01
  5
C5BF
 10
721.800
 20
-1401.21
 30
0.000000
  70
    32
  0
VERTEX
  8
01
  5
C5C0
 10
721.678
 20
-1401.22
 30
0.000000
  70
    32
  0
VERTEX
  8
01
  5
C5C1
 10
721.555
 20
-1401.22
 30
0.000000
  70
    32
  0
VERTEX
  8
01
  5
C5C2
 10
721.433
 20
-1401.23
 30
0.000000
  70
    32
  0
VERTEX
  8
01
  5
C5C3
 10
721.310
 20
-1401.23
 30
0.000000
  70
    32
  0
VERTEX
  8
01
  5
C5C4
 10
721.188
 20
-1401.23
 30
0.000000
  70
    32
  0
VERTEX
  8
01
  5
C5C5
 10
721.065
 20
-1401.23
 30
0.000000
  70
    32
  0
VERTEX
  8
01
  5
C5C6
 10
720.942
 20
-1401.23
 30
0.000000
  70
    32
  0
VERTEX
  8
01
  5
C5C7
 10
720.820
 20
-1401.22
 30
0.000000
  70
    32
  0
VERTEX
  8
01
  5
C5C8
 10
720.698
 20
-1401.22
 30
0.000000
  70
    32
  0
VERTEX
  8
01
  5
C5C9
 10
720.576
 20
-1401.21
 30
0.000000
  70
    32
  0
VERTEX
  8
01
  5
C5CA
 10
720.454
 20
-1401.20
 30
0.000000
  70
    32
  0
VERTEX
  8
01
  5
C5CB
 10
720.333
 20
-1401.18
 30
0.000000
  70
    32
  0
VERTEX
  8
01
  5
C5CC
 10
720.212
 20
-1401.17
 30
0.000000
  70
    32
  0
VERTEX
  8
01
  5
C5CD
 10
720.092
 20
-1401.15
 30
0.000000
  70
    32
  0
VERTEX
  8
01
  5
C5CE
 10
719.973
 20
-1401.13
 30
0.000000
  70
    32
  0
VERTEX
  8
01
  5
C5CF
 10
719.854
 20
-1401.10
 30
0.000000
  70
    32
  0
VERTEX
  8
01
  5
C5D0
 10
719.736
 20
-1401.08
 30
0.000000
  70
    32
  0
VERTEX
  8
01
  5
C5D1
 10
719.619
 20
-1401.05
 30
0.000000
  70
    32
  0
VERTEX
  8
01
  5
C5D2
 10
719.503
 20
-1401.03
 30
0.000000
  70
    32
  0
VERTEX
  8
01
  5
C5D3
 10
719.388
 20
-1400.99
 30
0.000000
  70
    32
  0
VERTEX
  8
01
  5
C5D4
 10
719.274
 20
-1400.96
 30
0.000000
  70
    32
  0
VERTEX
  8
01
  5
C5D5
 10
719.161
 20
-1400.93
 30
0.000000
  70
    32
  0
VERTEX
  8
01
  5
C5D6
 10
719.050
 20
-1400.89
 30
0.000000
  70
    32
  0
VERTEX
  8
01
  5
C5D7
 10
718.940
 20
-1400.85
 30
0.000000
  70
    32
  0
VERTEX
  8
01
  5
C5D8
 10
718.831
 20
-1400.81
 30
0.000000
  70
    32
  0
VERTEX
  8
01
  5
C5D9
 10
718.723
 20
-1400.77
 30
0.000000
  70
    32
  0
VERTEX
  8
01
  5
C5DA
 10
718.617
 20
-1400.73
 30
0.000000
  70
    32
  0
VERTEX
  8
01
  5
C5DB
 10
718.513
 20
-1400.68
 30
0.000000
  70
    32
  0
VERTEX
  8
01
  5
C5DC
 10
718.410
 20
-1400.63
 30
0.000000
  70
    32
  0
VERTEX
  8
01
  5
C5DD
 10
718.309
 20
-1400.58
 30
0.000000
  70
    32
  0
VERTEX
  8
01
  5
C5DE
 10
718.209
 20
-1400.53
 30
0.000000
  70
    32
  0
VERTEX
  8
01
  5
C5DF
 10
718.112
 20
-1400.48
 30
0.000000
  70
    32
  0
VERTEX
  8
01
  5
C5E0
 10
718.016
 20
-1400.42
 30
0.000000
  70
    32
  0
VERTEX
  8
01
  5
C5E1
 10
717.922
 20
-1400.37
 30
0.000000
  70
    32
  0
VERTEX
  8
01
  5
C5E2
 10
717.830
 20
-1400.31
 30
0.000000
  70
    32
  0
VERTEX
  8
01
  5
C5E3
 10
717.740
 20
-1400.25
 30
0.000000
  70
    32
  0
VERTEX
  8
01
  5
C5E4
 10
717.652
 20
-1400.19
 30
0.000000
  70
    32
  0
VERTEX
  8
01
  5
C5E5
 10
717.566
 20
-1400.13
 30
0.000000
  70
    32
  0
VERTEX
  8
01
  5
C5E6
 10
717.483
 20
-1400.06
 30
0.000000
  70
    32
  0
VERTEX
  8
01
  5
C5E7
 10
717.402
 20
-1400.00
 30
0.000000
  70
    32
  0
VERTEX
  8
01
  5
C5E8
 10
717.323
 20
-1399.93
 30
0.000000
  70
    32
  0
VERTEX
  8
01
  5
C5E9
 10
717.246
 20
-1399.86
 30
0.000000
  70
    32
  0
VERTEX
  8
01
  5
C5EA
 10
717.172
 20
-1399.79
 30
0.000000
  70
    32
  0
VERTEX
  8
01
  5
C5EB
 10
717.100
 20
-1399.72
 30
0.000000
  70
    32
  0
VERTEX
  8
01
  5
C5EC
 10
717.030
 20
-1399.65
 30
0.000000
  70
    32
  0
VERTEX
  8
01
  5
C5ED
 10
716.963
 20
-1399.57
 30
0.000000
  70
    32
  0
VERTEX
  8
01
  5
C5EE
 10
716.899
 20
-1399.50
 30
0.000000
  70
    32
  0
VERTEX
  8
01
  5
C5EF
 10
716.837
 20
-1399.42
 30
0.000000
  70
    32
  0
VERTEX
  8
01
  5
C5F0
 10
716.778
 20
-1399.35
 30
0.000000
  70
    32
  0
VERTEX
  8
01
  5
C5F1
 10
716.722
 20
-1399.27
 30
0.000000
  70
    32
  0
VERTEX
  8
01
  5
C5F2
 10
716.668
 20
-1399.19
 30
0.000000
  70
    32
  0
VERTEX
  8
01
  5
C5F3
 10
716.617
 20
-1399.11
 30
0.000000
  70
    32
  0
VERTEX
  8
01
  5
C5F4
 10
716.568
 20
-1399.03
 30
0.000000
  70
    32
  0
VERTEX
  8
01
  5
C5F5
 10
716.523
 20
-1398.95
 30
0.000000
  70
    32
  0
VERTEX
  8
01
  5
C5F6
 10
716.480
 20
-1398.87
 30
0.000000
  70
    32
  0
VERTEX
  8
01
  5
C5F7
 10
716.440
 20
-1398.79
 30
0.000000
  70
    32
  0
VERTEX
  8
01
  5
C5F8
 10
716.403
 20
-1398.70
 30
0.000000
  70
    32
  0
VERTEX
  8
01
  5
C5F9
 10
716.369
 20
-1398.62
 30
0.000000
  70
    32
  0
VERTEX
  8
01
  5
C5FA
 10
716.338
 20
-1398.53
 30
0.000000
  70
    32
  0
VERTEX
  8
01
  5
C5FB
 10
716.309
 20
-1398.45
 30
0.000000
  70
    32
  0
VERTEX
  8
01
  5
C5FC
 10
716.284
 20
-1398.36
 30
0.000000
  70
    32
  0
VERTEX
  8
01
  5
C5FD
 10
716.261
 20
-1398.28
 30
0.000000
  70
    32
  0
VERTEX
  8
01
  5
C5FE
 10
716.242
 20
-1398.19
 30
0.000000
  70
    32
  0
VERTEX
  8
01
  5
C5FF
 10
716.225
 20
-1398.10
 30
0.000000
  70
    32
  0
VERTEX
  8
01
  5
C600
 10
716.212
 20
-1398.02
 30
0.000000
  70
    32
  0
VERTEX
  8
01
  5
C601
 10
716.201
 20
-1397.93
 30
0.000000
  70
    32
  0
VERTEX
  8
01
  5
C602
 10
716.194
 20
-1397.84
 30
0.000000
  70
    32
  0
VERTEX
  8
01
  5
C603
 10
716.189
 20
-1397.75
 30
0.000000
  70
    32
  0
VERTEX
  8
01
  5
C604
 10
716.188
 20
-1397.67
 30
0.000000
  70
    32
  0
SEQEND
  8
01
  5
C605
  0
LINE
  5
21FA
  8
01
 10
726.18766916632353
 20
-1384.8025015977439
 30
0.0
 11
726.18766916632353
 21
-1397.665661597744
 31
0.0
  0
LINE
  5
21FB
  8
01
 10
716.18766916632353
 20
-1384.8025015977439
 30
0.0
 11
716.18766916632353
 21
-1397.665661597742
 31
0.0
  0
LINE
  5
21FC
  8
01
 10
712.18765416632391
 20
-1351.2340815977441
 30
0.0
 11
711.18765416632391
 21
-1350.2340815977441
 31
0.0
  0
LINE
  5
21FD
  8
01
 10
713.58767116632384
 20
-1351.1341015977439
 30
0.0
 11
712.78769016632373
 21
-1350.334121597743
 31
0.0
  0
LINE
  5
21FE
  8
01
 10
713.58767116632384
 20
-1433.3340915977431
 30
0.0
 11
712.78766816632356
 21
-1434.134071597744
 31
0.0
  0
LINE
  5
21FF
  8
01
 10
712.18761616632366
 20
-1433.2341115977431
 30
0.0
 11
711.1876311663234
 21
-1434.2341115977431
 31
0.0
  0
LINE
  5
2200
  8
01
 10
715.18766916632353
 20
-1457.2340815977441
 30
0.0
 11
711.18766916632353
 21
-1457.2340815977441
 31
0.0
  0
LINE
  5
2201
  8
01
 10
712.78767516632411
 20
-1457.2340815977441
 30
0.0
 11
712.78767516632411
 21
-1434.134071597744
 31
0.0
  0
LINE
  5
2202
  8
01
 10
711.18766916632353
 20
-1457.2340815977441
 30
0.0
 11
711.18766916632353
 21
-1434.2340815977441
 31
0.0
  0
LINE
  5
2203
  8
01
 10
712.18766916632353
 20
-1351.2340815977441
 30
0.0
 11
712.18766916632353
 21
-1433.2340815977441
 31
0.0
  0
LINE
  5
2204
  8
01
 10
715.18766916632353
 20
-1327.2340815977441
 30
0.0
 11
711.18766916632353
 21
-1327.2340815977441
 31
0.0
  0
LINE
  5
2207
  8
01
 10
821.68766916632364
 20
-1333.2340815977441
 30
0.0
 11
821.68766916632364
 21
-1451.2340815977441
 31
0.0
  0
LINE
  5
2208
  8
01
 10
846.68766916632364
 20
-1333.2340815977441
 30
0.0
 11
846.68766916632364
 21
-1451.2340815977441
 31
0.0
  0
ARC
  5
2209
  8
01
 10
840.68766916632353
 20
-1451.2340815977441
 30
0.0
 40
6.0
 50
270.0
 51
0.0
  0
ARC
  5
220A
  8
01
 10
827.68766916632342
 20
-1451.2340815977441
 30
0.0
 40
6.0
 50
180.0
 51
270.0
  0
LINE
  5
220B
  8
01
 10
841.93766916632342
 20
-1384.8025015977439
 30
0.0
 11
841.93766916632342
 21
-1397.6656615977431
 31
0.0
  0
LINE
  5
220C
  8
01
 10
840.93766916632353
 20
-1386.2340815977441
 30
0.0
 11
840.93766916632353
 21
-1396.2340815977441
 31
0.0
  0
LINE
  5
220D
  8
01
 10
827.43766916632353
 20
-1386.2340815977441
 30
0.0
 11
827.43766916632353
 21
-1396.2340815977441
 31
0.0
  0
LINE
  5
220E
  8
01
 10
826.43766916632353
 20
-1384.8025015977439
 30
0.0
 11
826.43766916632353
 21
-1397.6656615977431
 31
0.0
  0
ARC
  5
220F
  8
01
 10
834.18766916632364
 20
-1391.0340715977441
 30
0.0
 40
10.199999999999999
 50
220.5530799999753
 51
319.44692000002459
  0
LINE
  5
2210
  8
01
 10
827.43766916632353
 20
-1396.2340815977441
 30
0.0
 11
840.93766916632353
 21
-1396.2340815977441
 31
0.0
  0
LINE
  5
2211
  8
01
 10
827.43766916632353
 20
-1386.2340815977441
 30
0.0
 11
840.93766916632353
 21
-1386.2340815977441
 31
0.0
  0
ARC
  5
2212
  8
01
 10
834.18766916632364
 20
-1391.4340915977441
 30
0.0
 40
10.199999999999999
 50
40.553083999977588
 51
139.44692000002459
  0
CIRCLE
  5
2213
  8
01
 10
834.18766916632364
 20
-1449.2340815977441
 30
0.0
 40
4.5
  0
CIRCLE
  5
2214
  8
01
 10
834.18766916632364
 20
-1449.2340815977441
 30
0.0
 40
2.75
  0
LINE
  5
2215
  8
01
 10
827.68766916632342
 20
-1457.2340815977441
 30
0.0
 11
840.68766916632353
 21
-1457.2340815977441
 31
0.0
  0
ARC
  5
2216
  8
01
 10
840.68766916632353
 20
-1333.2340815977441
 30
0.0
 40
6.0
 50
0.0
 51
90.0
  0
ARC
  5
2218
  8
01
 10
827.68766916632342
 20
-1333.2340815977441
 30
0.0
 40
6.0
 50
90.0
 51
180.0
  0
LINE
  5
2219
  8
01
 10
827.68766916632342
 20
-1327.2340815977441
 30
0.0
 11
840.68766916632353
 21
-1327.2340815977441
 31
0.0
  0
CIRCLE
  5
221A
  8
01
 10
834.18766916632364
 20
-1335.2340815977441
 30
0.0
 40
4.5
  0
CIRCLE
  5
221B
  8
01
 10
834.18766916632364
 20
-1335.2340815977441
 30
0.0
 40
2.75
  0
LINE
  5
2221
  8
01
 10
955.58767516632338
 20
-1327.2340815977441
 30
0.0
 11
955.58767516632338
 21
-1350.3340515977429
 31
0.0
  0
LINE
  5
2222
  8
01
 10
957.187665166324
 20
-1327.2340815977441
 30
0.0
 11
957.187665166324
 21
-1350.2340815977441
 31
0.0
  0
LINE
  5
2223
  8
01
 10
954.78767516632399
 20
-1327.2340815977441
 30
0.0
 11
954.78767516632399
 21
-1457.2340815977441
 31
0.0
  0
LINE
  5
2224
  8
01
 10
953.18766516632388
 20
-1327.2340815977441
 30
0.0
 11
953.18766516632388
 21
-1457.2340815977441
 31
0.0
  0
LINE
  5
2226
  8
01
 10
956.187665166324
 20
-1429.2340815977441
 30
0.0
 11
977.68766516632559
 21
-1429.2340815977441
 31
0.0
  0
LINE
  5
2227
  8
01
 10
956.18767516632386
 20
-1351.2340815977441
 30
0.0
 11
957.18767516632374
 21
-1350.2340815977441
 31
0.0
  0
LINE
  5
2228
  8
01
 10
954.78766516632425
 20
-1351.1341015977439
 30
0.0
 11
955.58767516632338
 21
-1350.3340515977429
 31
0.0
  0
LINE
  5
2229
  8
01
 10
946.187665166324
 20
-1381.2340815977441
 30
0.0
 11
953.18766516632388
 21
-1381.2340815977441
 31
0.0
  0
LINE
  5
222A
  8
01
 10
946.187665166324
 20
-1401.2340815977441
 30
0.0
 11
953.18766516632388
 21
-1401.2340815977441
 31
0.0
  0
LINE
  5
222B
  8
01
 10
942.26976516632362
 20
-1398.0403515977439
 30
0.0
 11
953.18766516632388
 21
-1398.0403515977439
 31
0.0
  0
LINE
  5
222C
  8
01
 10
942.26976516632362
 20
-1384.4278015977429
 30
0.0
 11
953.18766516632388
 21
-1384.4278015977429
 31
0.0
  0
LINE
  5
222D
  8
01
 10
942.18766516632388
 20
-1385.2340815977441
 30
0.0
 11
942.18766516632388
 21
-1397.2340815977441
 31
0.0
  0
ARC
  5
222E
  8
01
 10
946.187665166324
 20
-1397.2340815977441
 30
0.0
 40
4.0
 50
179.999989999999
 51
270.0
  0
ARC
  5
222F
  8
01
 10
946.187665166324
 20
-1385.2340815977441
 30
0.0
 40
4.0
 50
90.000002999984659
 51
180.00001000000091
  0
LINE
  5
2230
  8
01
 10
954.78766516632425
 20
-1433.3340915977431
 30
0.0
 11
955.58767516632338
 21
-1434.134071597744
 31
0.0
  0
LINE
  5
2231
  8
01
 10
956.18771516632455
 20
-1433.2341115977431
 30
0.0
 11
957.18769516632335
 21
-1434.2340815977441
 31
0.0
  0
LINE
  5
2232
  8
01
 10
948.187665166324
 20
-1449.2340815977441
 30
0.0
 11
962.18766516632411
 21
-1449.2340815977441
 31
0.0
  0
LINE
  5
2233
  8
01
 10
953.18766516632388
 20
-1457.2340815977441
 30
0.0
 11
957.187665166324
 21
-1457.2340815977441
 31
0.0
  0
LINE
  5
2234
  8
01
 10
955.58767516632338
 20
-1457.2340815977441
 30
0.0
 11
955.58767516632338
 21
-1434.134071597744
 31
0.0
  0
LINE
  5
2235
  8
01
 10
957.187665166324
 20
-1457.2340815977441
 30
0.0
 11
957.187665166324
 21
-1434.2340815977441
 31
0.0
  0
LINE
  5
2236
  8
01
 10
956.187665166324
 20
-1351.2340815977441
 30
0.0
 11
956.187665166324
 21
-1433.2340815977441
 31
0.0
  0
LINE
  5
2239
  8
01
 10
953.18766516632388
 20
-1327.2340815977441
 30
0.0
 11
957.187665166324
 21
-1327.2340815977441
 31
0.0
  0
LINE
  5
223A
  8
01
 10
948.187665166324
 20
-1335.2340815977441
 30
0.0
 11
962.18766516632411
 21
-1335.2340815977441
 31
0.0
  0
LINE
  5
2244
  8
01
 10
957.18854934838396
 20
-1133.7340815987729
 30
0.0
 11
1023.188549348384
 21
-1133.7340815987729
 31
0.0
  0
LINE
  5
2245
  8
01
 10
957.18854934838396
 20
-1135.334051598772
 30
0.0
 11
1023.188549348384
 21
-1135.334051598772
 31
0.0
  0
LINE
  5
2246
  8
01
 10
954.78855934838396
 20
-1152.734081598772
 30
0.0
 11
1023.188549348384
 21
-1152.734081598772
 31
0.0
  0
LINE
  5
2247
  8
01
 10
956.38853934838494
 20
-1138.2340815987729
 30
0.0
 11
957.18854934838396
 21
-1137.4340615987719
 31
0.0
  0
LINE
  5
2248
  8
01
 10
957.18854934838396
 20
-1132.734081598772
 30
0.0
 11
957.18854934838396
 21
-1137.4340615987719
 31
0.0
  0
LINE
  5
2249
  8
01
 10
954.78855934838396
 20
-1138.234051598773
 30
0.0
 11
955.58854934838541
 21
-1137.4340915987721
 31
0.0
  0
LINE
  5
224A
  8
01
 10
942.18854934838396
 20
-1150.9840815987729
 30
0.0
 11
953.18854934838384
 21
-1150.9840815987729
 31
0.0
  0
LINE
  5
224B
  8
01
 10
942.18854934838396
 20
-1150.9840815987729
 30
0.0
 11
942.18854934838396
 21
-1148.9840815987729
 31
0.0
  0
LINE
  5
224C
  8
01
 10
953.18854934838384
 20
-1130.734081598772
 30
0.0
 11
954.78855934838396
 21
-1130.734081598772
 31
0.0
  0
LINE
  5
224D
  8
01
 10
954.78855934838396
 20
-1130.734081598772
 30
0.0
 11
954.78855934838396
 21
-1138.2340815987729
 31
0.0
  0
LINE
  5
224E
  8
01
 10
955.58855934838516
 20
-1132.734081598772
 30
0.0
 11
955.58855934838516
 21
-1137.4340615987719
 31
0.0
  0
LINE
  5
224F
  8
01
 10
954.78855934838396
 20
-1132.734081598772
 30
0.0
 11
957.18854934838396
 21
-1132.734081598772
 31
0.0
  0
LINE
  5
2250
  8
01
 10
957.18854934838396
 20
-1149.034071598772
 30
0.0
 11
957.18854934838396
 21
-1152.734081598772
 31
0.0
  0
LINE
  5
2251
  8
01
 10
956.38855934838443
 20
-1148.2340515987721
 30
0.0
 11
957.18854934838396
 21
-1149.034071598772
 31
0.0
  0
LINE
  5
2252
  8
01
 10
957.18854934838396
 20
-1151.1340715987731
 30
0.0
 11
961.78855934838396
 21
-1151.1340715987731
 31
0.0
  0
LINE
  5
2253
  8
01
 10
954.78854934838432
 20
-1148.2340515987721
 30
0.0
 11
955.58855934838516
 21
-1149.034071598772
 31
0.0
  0
LINE
  5
2254
  8
01
 10
954.78855934838396
 20
-1148.2340815987729
 30
0.0
 11
954.78855934838396
 21
-1155.734081598772
 31
0.0
  0
LINE
  5
2255
  8
01
 10
953.18854934838384
 20
-1155.734081598772
 30
0.0
 11
954.78855934838396
 21
-1155.734081598772
 31
0.0
  0
LINE
  5
2256
  8
01
 10
955.58855934838516
 20
-1149.034071598772
 30
0.0
 11
955.58855934838516
 21
-1152.734081598772
 31
0.0
  0
LINE
  5
2257
  8
01
 10
953.18854934838384
 20
-1123.2340815987729
 30
0.0
 11
953.18854934838384
 21
-1163.2340815987729
 31
0.0
  0
LINE
  5
2258
  8
01
 10
961.78855934838396
 20
-1135.334051598772
 30
0.0
 11
961.78855934838396
 21
-1152.734081598772
 31
0.0
  0
LINE
  5
2259
  8
01
 10
956.38854934838457
 20
-1138.2340815987729
 30
0.0
 11
956.38854934838457
 21
-1148.2340815987729
 31
0.0
  0
LINE
  5
225A
  8
01
 10
954.78855934838396
 20
-1138.2340815987729
 30
0.0
 11
954.78855934838396
 21
-1148.2340815987729
 31
0.0
  0
ARC
  5
225B
  8
01
 10
985.85804934838416
 20
-1173.3351615987719
 30
0.0
 40
50.0
 50
130.7976899999974
 51
150.85500000002
  0
LINE
  5
225C
  8
01
 10
985.54989789461615
 20
-1177.7341125987709
 30
0.0
 11
1001.172534506068
 21
-1177.7341125987709
 31
0.0
  0
LINE
  5
225D
  8
01
 10
1021.588549348385
 20
-1135.334051598772
 30
0.0
 11
1021.588549348385
 21
-1152.734081598772
 31
0.0
  0
LINE
  5
225E
  8
01
 10
1023.188549348384
 20
-1133.7340815987729
 30
0.0
 11
1023.188549348384
 21
-1152.734081598772
 31
0.0
  0
LINE
  5
225F
  8
01
 10
985.54989789461615
 20
-1108.734050598774
 30
0.0
 11
1001.172534506068
 21
-1108.734050598774
 31
0.0
  0
LINE
  5
2262
  8
01
 10
720.18767316632295
 20
-1449.2340815977441
 30
0.0
 11
706.18767316632318
 21
-1449.2340815977441
 31
0.0
  0
LINE
  5
2263
  8
01
 10
720.18767316632295
 20
-1335.2340815977441
 30
0.0
 11
706.18767316632318
 21
-1335.2340815977441
 31
0.0
  0
LINE
  5
2264
  8
01
 10
840.68766916632353
 20
-1335.2340815977441
 30
0.0
 11
827.68766916632342
 21
-1335.2340815977441
 31
0.0
  0
LINE
  5
2265
  8
01
 10
834.18766916632364
 20
-1328.7340815977441
 30
0.0
 11
834.18766916632364
 21
-1341.7340815977441
 31
0.0
  0
LINE
  5
2266
  8
01
 10
840.68766916632353
 20
-1449.2340815977441
 30
0.0
 11
827.68766916632342
 21
-1449.2340815977441
 31
0.0
  0
LINE
  5
2267
  8
01
 10
834.18766916632364
 20
-1442.7340815977441
 30
0.0
 11
834.18766916632364
 21
-1455.7340815977441
 31
0.0
  0
LINE
  5
2268
  8
01
 10
694.18767316632318
 20
-1413.2340815977441
 30
0.0
 11
634.18767316632329
 21
-1413.2340815977441
 31
0.0
  0
LINE
  5
2269
  8
01
 10
664.18767316632329
 20
-1383.2340815977441
 30
0.0
 11
664.18767316632329
 21
-1443.2340815977441
 31
0.0
  0
LINE
  5
226A
  8
01
 10
974.18766516632377
 20
-1413.2340815977441
 30
0.0
 11
1034.1876651663231
 21
-1413.2340815977441
 31
0.0
  0
LINE
  5
226B
  8
01
 10
1004.187665166323
 20
-1383.2340815977441
 30
0.0
 11
1004.187665166323
 21
-1443.2340815977441
 31
0.0
  0
POINT
  5
2270
  8
01
 10
868.68766916632342
 20
-1413.2340815977441
 30
0.0
  0
LINE
  5
2271
  8
01
 10
868.28766915632355
 20
-1414.9840815977441
 30
0.0
 11
868.28766915632355
 21
-1414.1340815777439
 31
0.0
  0
LINE
  5
2272
  8
01
 10
869.0876691763234
 20
-1414.9840815977441
 30
0.0
 11
869.0876691763234
 21
-1414.1340815777439
 31
0.0
  0
LINE
  5
2273
  8
01
 10
867.78766918632357
 20
-1413.6340816077441
 30
0.0
 11
866.93766916632342
 21
-1413.6340816077441
 31
0.0
  0
LINE
  5
2274
  8
01
 10
867.78766918632357
 20
-1412.8340815877441
 30
0.0
 11
866.93766916632342
 21
-1412.8340815877441
 31
0.0
  0
LINE
  5
2275
  8
01
 10
866.93766916632342
 20
-1413.6340816077441
 30
0.0
 11
866.93766916632342
 21
-1412.8340815877441
 31
0.0
  0
LINE
  5
2276
  8
01
 10
869.0876691763234
 20
-1414.9840815977441
 30
0.0
 11
868.28766915632355
 21
-1414.9840815977441
 31
0.0
  0
LINE
  5
2277
  8
01
 10
869.0876691763234
 20
-1411.4840815977441
 30
0.0
 11
869.0876691763234
 21
-1412.334081617744
 31
0.0
  0
LINE
  5
2278
  8
01
 10
868.28766915632355
 20
-1411.4840815977441
 30
0.0
 11
868.28766915632355
 21
-1412.334081617744
 31
0.0
  0
LINE
  5
2279
  8
01
 10
869.58766914632326
 20
-1412.8340815877441
 30
0.0
 11
870.43766916632353
 21
-1412.8340815877441
 31
0.0
  0
LINE
  5
227A
  8
01
 10
869.58766914632326
 20
-1413.6340816077441
 30
0.0
 11
870.43766916632353
 21
-1413.6340816077441
 31
0.0
  0
LINE
  5
227B
  8
01
 10
870.43766916632353
 20
-1412.8340815877441
 30
0.0
 11
870.43766916632353
 21
-1413.6340816077441
 31
0.0
  0
LINE
  5
227C
  8
01
 10
868.28766915632355
 20
-1411.4840815977441
 30
0.0
 11
869.0876691763234
 21
-1411.4840815977441
 31
0.0
  0
CIRCLE
  5
227D
  8
01
 10
868.68766916632342
 20
-1413.2340815977441
 30
0.0
 40
2.5
  0
ARC
  5
227E
  8
01
 10
869.58766914632326
 20
-1412.334081617744
 30
0.0
 40
0.5
 50
179.9999899999998
 51
270.0
  0
ARC
  5
227F
  8
01
 10
869.58766914632326
 20
-1414.1340815777439
 30
0.0
 40
0.5
 50
90.000003000000945
 51
180.0000100000002
  0
ARC
  5
2280
  8
01
 10
867.78766918632357
 20
-1414.1340815777439
 30
0.0
 40
0.5
 50
0.0
 51
90.000003000000945
  0
ARC
  5
2281
  8
01
 10
867.78766918632357
 20
-1412.334081617744
 30
0.0
 40
0.5
 50
270.0
 51
0.0
  0
POINT
  5
2283
  8
01
 10
799.68766916632353
 20
-1413.2340815977441
 30
0.0
 50
180.0
  0
CIRCLE
  5
2284
  8
01
 10
799.68766916632353
 20
-1413.2340815977441
 30
0.0
 40
2.5
  0
LINE
  5
238F
  8
01
 10
666.6876651663224
 20
-1352.9263175337001
 30
0.0
 11
666.68766516632229
 21
-1373.5418456617881
 31
0.0
  0
LINE
  5
2390
  8
01
 10
661.68766516632252
 20
-1352.9263175337001
 30
0.0
 11
661.6876651663224
 21
-1373.5418456617881
 31
0.0
  0
CIRCLE
  5
2391
  8
01
 10
664.1876651663224
 20
-1363.2340815977441
 30
0.0
 40
11.0
  0
LINE
  5
2394
  8
01
 10
860.68767216632193
 20
-1338.9340915977441
 30
0.0
 11
860.6876721663217
 21
-1376.534071597745
 31
0.0
  0
LINE
  5
23A2
  8
01
 10
861.36107016632332
 20
-1359.7340815977441
 30
0.0
 11
860.68767216632205
 21
-1359.7340815977441
 31
0.0
  0
LINE
  5
23A3
  8
01
 10
861.36107016632332
 20
-1366.7340815977441
 30
0.0
 11
860.68767216632205
 21
-1366.7340815977441
 31
0.0
  0
LINE
  5
23A5
  8
01
 10
854.18766916632353
 20
-1377.5340715977441
 30
0.0
 11
859.68767216632182
 21
-1377.534071597745
 31
0.0
  0
LINE
  5
23A6
  8
01
 10
861.36107016632332
 20
-1359.7340815977441
 30
0.0
 11
861.36107016632332
 21
-1366.7340815977441
 31
0.0
  0
ARC
  5
23A7
  8
01
 10
856.48767216632177
 20
-1363.2340815977441
 30
0.0
 40
6.0
 50
324.3146800000145
 51
35.685330999974283
  0
LINE
  5
23AB
  8
01
 10
854.18766916632364
 20
-1337.934091597745
 30
0.0
 11
859.68767216632193
 21
-1337.9340915977441
 31
0.0
  0
LINE
  5
23EE
  8
01
 10
1005.187665166324
 20
-1366.588201597744
 30
0.0
 11
1005.187665166324
 21
-1359.8799515977439
 31
0.0
  0
LINE
  5
23EF
  8
01
 10
1003.187665166324
 20
-1366.588201597744
 30
0.0
 11
1003.187665166324
 21
-1359.8799515977439
 31
0.0
  0
CIRCLE
  5
23F0
  8
01
 10
1004.187665166323
 20
-1363.2340815977441
 30
0.0
 40
3.5000004999999992
  0
LINE
  5
23F2
  8
01
 10
1022.187665166324
 20
-1377.7340815977441
 30
0.0
 11
1022.187665166324
 21
-1386.7340815977459
 31
0.0
  0
LINE
  5
243C
  8
01
 10
651.18766516632229
 20
-1363.2340815977441
 30
0.0
 11
677.1876651663224
 21
-1363.2340815977441
 31
0.0
  0
LINE
  5
243E
  8
01
 10
686.6876651663224
 20
-1357.7340815977441
 30
0.0
 11
641.6876651663224
 21
-1357.7340815977441
 31
0.0
  0
LINE
  5
243F
  8
01
 10
664.1876651663224
 20
-1335.2340815977441
 30
0.0
 11
664.1876651663224
 21
-1380.2340815977441
 31
0.0
  0
LINE
  5
2441
  8
01
 10
1017.187673166324
 20
-1363.2340815977441
 30
0.0
 11
991.18767316632454
 21
-1363.2340815977441
 31
0.0
  0
LINE
  5
2442
  8
01
 10
981.68767316632454
 20
-1357.7340815977441
 30
0.0
 11
1026.6876731663251
 21
-1357.7340815977441
 31
0.0
  0
LINE
  5
2443
  8
01
 10
1004.187673166325
 20
-1335.2340815977441
 30
0.0
 11
1004.187673166325
 21
-1380.2340815977441
 31
0.0
  0
ARC
  5
2466
  8
01
 10
1004.187774182397
 20
-1165.534082598778
 30
0.0
 40
6.0
 50
279.59301243461442
 51
305.6849310534019
  0
LINE
  5
2467
  8
01
 10
1003.187665166324
 20
-1170.4074736177511
 30
0.0
 11
1000.6877401642899
 21
-1170.4074561673131
 31
0.0
  0
LINE
  5
2468
  8
01
 10
1005.187665166324
 20
-1171.450180807924
 30
0.0
 11
1005.187665166324
 21
-1169.7340895784989
 31
0.0
  0
LINE
  5
2469
  8
01
 10
1003.187665166324
 20
-1171.4501439537639
 30
0.0
 11
1003.187665166324
 21
-1169.7340756177291
 31
0.0
  0
LINE
  5
246A
  8
01
 10
1023.9877729026269
 20
-1123.2340815987729
 30
0.0
 11
1023.98773450954
 21
-1117.7339423873559
 31
0.0
  0
LINE
  5
246B
  8
01
 10
984.38779290166292
 20
-1123.2340815987729
 30
0.0
 11
984.38775451050412
 21
-1117.734218810449
 31
0.0
  0
LINE
  5
246C
  8
01
 10
1023.9877729026269
 20
-1163.2340815987729
 30
0.0
 11
1023.987734509539
 21
-1168.7342208101909
 31
0.0
  0
ARC
  5
246E
  8
01
 10
1004.187774182397
 20
-1165.534082598778
 30
0.0
 40
6.0
 50
234.3142800534163
 51
260.4048759775697
  0
LINE
  5
246F
  8
01
 10
1007.687740164119
 20
-1170.407505030005
 30
0.0
 11
1005.187665166324
 21
-1170.4074875785211
 31
0.0
  0
LINE
  5
2470
  8
01
 10
984.38779290166292
 20
-1163.2340815987729
 30
0.0
 11
984.38775451050412
 21
-1168.733944387096
 31
0.0
  0
LINE
  5
2472
  8
01
 10
1000.6877401642899
 20
-1170.4074561673131
 30
0.0
 11
1000.687744864866
 21
-1169.7340581673241
 31
0.0
  0
LINE
  5
2473
  8
01
 10
1007.687740164119
 20
-1170.407505030005
 30
0.0
 11
1007.687744864697
 21
-1169.734107030017
 31
0.0
  0
LINE
  5
2474
  8
01
 10
1022.987727529179
 20
-1169.734213829782
 30
0.0
 11
985.38774753009511
 21
-1169.733951367456
 31
0.0
  0
LINE
  5
2479
  8
01
 10
1022.987727529179
 20
-1116.7339493677639
 30
0.0
 11
985.38774753009511
 21
-1116.734211830088
 31
0.0
  0
LINE
  5
597B
  8
01
 10
1004.187781506069
 20
-1093.234081598772
 30
0.0
 11
1004.187781506069
 21
-1128.234081598772
 31
0.0
  0
LINE
  5
597C
  8
01
 10
1004.187781506069
 20
-1158.2340815987729
 30
0.0
 11
1004.187781506069
 21
-1193.234081598772
 31
0.0
  0
LINE
  5
597D
  8
01
 10
784.18766916632364
 20
-1413.2340815977441
 30
0.0
 11
819.18766916632364
 21
-1413.2340815977441
 31
0.0
  0
LINE
  5
597E
  8
01
 10
849.18766916632376
 20
-1413.2340815977441
 30
0.0
 11
884.18766916632364
 21
-1413.2340815977441
 31
0.0
  0
LINE
  5
A567
  8
01
 10
854.1876691663233
 20
-1337.9340915977441
 30
0.0
 11
854.18767316632284
 21
-1377.5340715977441
 31
0.0
  0
LINE
  5
A568
  8
01
 10
984.38779150653681
 20
-1123.2342178103199
 30
0.0
 11
1023.987771505599
 21
-1123.233945387226
 31
0.0
  0
LINE
  5
A569
  8
01
 10
984.38779150653681
 20
-1163.233945387226
 30
0.0
 11
1023.987771505599
 21
-1163.2342178103199
 31
0.0
  0
LINE
  5
A5D8
  8
01
 10
953.18854934838384
 20
-1163.2340815987729
 30
0.0
 11
1106.9429295034161
 21
-1163.2340815987729
 31
0.0
  0
LINE
  5
A5D9
  8
01
 10
953.18854934838384
 20
-1123.2340815987729
 30
0.0
 11
1106.9429295034161
 21
-1123.2340815987729
 31
0.0
  0
ARC
  5
B48C
  8
01
 10
859.68767216632193
 20
-1338.9340915977441
 30
0.0
 40
1.0
 50
0.0
 51
90.0
  0
ARC
  5
B48D
  8
01
 10
859.68767216632182
 20
-1376.534071597745
 30
0.0
 40
1.0
 50
270.0
 51
359.99999999999977
  0
ARC
  5
B6F7
  8
01
 10
1007.687781506062
 20
-1115.7340805986209
 30
0.0
 40
1.0
 50
180.0
 51
270.00000000001302
  0
ARC
  5
B6FA
  8
01
 10
1000.68778150606
 20
-1115.73408059862
 30
0.0
 40
1.0
 50
270.0
 51
0.0
  0
LINE
  5
B6FD
  8
01
 10
1001.687781506061
 20
-1103.234057654417
 30
0.0
 11
1001.687781506061
 21
-1115.73408059862
 31
0.0
  0
ARC
  5
B6FE
  8
01
 10
1002.68778150606
 20
-1103.234057654415
 30
0.0
 40
1.0
 50
90.0
 51
179.9999999999479
  0
LINE
  5
B6FF
  8
01
 10
1002.687781506061
 20
-1102.2340576544129
 30
0.0
 11
1005.68778150606
 21
-1102.2340576544129
 31
0.0
  0
ARC
  5
B700
  8
01
 10
1005.68778150606
 20
-1103.234057654415
 30
0.0
 40
1.0
 50
0.0
 51
90.0
  0
LINE
  5
B701
  8
01
 10
1006.687781506061
 20
-1103.234057654415
 30
0.0
 11
1006.6877815060629
 21
-1115.7340805986209
 31
0.0
  0
ARC
  5
B91D
  8
01
 10
666.1876651663224
 20
-1352.9263175337001
 30
0.0
 40
0.5
 50
0.0
 51
79.019424572387308
  0
ARC
  5
B91E
  8
01
 10
662.1876651663224
 20
-1352.9263175337001
 30
0.0
 40
0.5
 50
100.98057542761271
 51
180.0
  0
ARC
  5
B91F
  8
01
 10
662.1876651663224
 20
-1373.5418456617881
 30
0.0
 40
0.5
 50
180.00000000002601
 51
259.01942457238732
  0
ARC
  5
B920
  8
01
 10
666.1876651663224
 20
-1373.5418456617881
 30
0.0
 40
0.5
 50
280.98057542761268
 51
0.0
  0
TEXT
  5
B95D
  8
01
 10
657.75469854963205
 20
-1091.4605797701311
 30
0.0
 40
20.0
  1
2-S1T-X-LW-2
  0
LINE
  5
B95F
  8
01
 10
657.75469854963205
 20
-1152.9605797701299
 30
0.0
 11
762.75469854963205
 21
-1152.9605797701299
 31
0.0
  0
TEXT
  5
B961
  8
01
 10
670.25469854963137
 20
-1129.7105797701311
 30
0.0
 40
6.0
  1
表面処理
 72
     1
 11
683.85469854963139
 21
-1129.7105797701311
 31
0.0
  0
LINE
  5
B963
  8
01
 10
657.75469854963205
 20
-1121.4605797701311
 30
0.0
 11
762.75469854963205
 21
-1121.4605797701311
 31
0.0
  0
LINE
  5
B964
  8
01
 10
657.75469854963205
 20
-1131.9605797701311
 30
0.0
 11
762.75469854963205
 21
-1131.9605797701311
 31
0.0
  0
LINE
  5
B965
  8
01
 10
657.75469854963205
 20
-1142.4605797701311
 30
0.0
 11
762.75469854963205
 21
-1142.4605797701311
 31
0.0
  0
LINE
  5
B966
  8
01
 10
657.75469854963205
 20
-1142.4605797701311
 30
0.0
 11
762.75469854963205
 21
-1142.4605797701311
 31
0.0
  0
LINE
  5
B967
  8
01
 10
710.25469854963205
 20
-1121.4605797701311
 30
0.0
 11
710.25469854963205
 21
-1163.4605797701311
 31
0.0
  0
TEXT
  5
B968
  8
01
 10
712.02612712106145
 20
-1140.5321152456049
 30
0.0
 40
6.0
  1
2-S1T-P-LW-2
 41
0.65
 72
     1
 11
736.35469854963276
 21
-1140.5321152456049
 31
0.0
  0
TEXT
  5
B969
  8
01
 10
726.15469854963135
 20
-1129.7105797701311
 30
0.0
 40
6.0
  1
コード
 72
     1
 11
736.35469854963151
 21
-1129.7105797701311
 31
0.0
  0
LINE
  5
B96A
  8
01
 10
657.75469854963205
 20
-1163.4605797701311
 30
0.0
 11
762.75469854963205
 21
-1163.4605797701311
 31
0.0
  0
LINE
  5
B96C
  8
01
 10
657.75469854963205
 20
-1163.4605797701311
 30
0.0
 11
657.75469854963205
 21
-1121.4605797701311
 31
0.0
  0
LINE
  5
B96D
  8
01
 10
762.75469854963205
 20
-1163.4605797701311
 30
0.0
 11
762.75469854963205
 21
-1121.4605797701311
 31
0.0
  0
TEXT
  5
B96E
  8
01
 10
712.490412835347
 20
-1151.0321152456049
 30
0.0
 40
6.0
  1
2-S1T-T-LW-2
 41
0.65
 72
     1
 11
736.35469854963276
 21
-1151.0321152456049
 31
0.0
  0
TEXT
  5
B96F
  8
01
 10
712.52612712106145
 20
-1161.5321152456049
 30
0.0
 40
6.0
  1
2-S1T-PT-LW-2
 41
0.6
 72
     1
 11
736.35469854963276
 21
-1161.5321152456049
 31
0.0
  0
ARC
  5
BA0D
  8
01
 10
1106.120230635971
 20
-1414.8857659833241
 30
0.0
 40
12.11544485022983
 50
0.2636358195341804
 51
28.194824646088229
  0
ARC
  5
BA0E
  8
01
 10
1104.1889320285779
 20
-1415.015399142844
 30
0.0
 40
14.050000000000001
 50
329.99999999997323
 51
0.0074422741426682
  0
LINE
  5
BA0F
  8
01
 10
1118.2355709772939
 20
-1414.8320857258741
 30
0.0
 11
1118.2389572421559
 21
-1415.016311368973
 31
0.0
  0
ARC
  5
BA10
  8
01
 10
1114.5893881430391
 20
-1411.652244458267
 30
0.0
 40
3.0499999999999989
 50
20.896839700467609
 51
72.227359201008596
  0
ARC
  5
BA11
  8
01
 10
1046.5576501891769
 20
-1623.894443948195
 30
0.0
 40
225.92904480535049
 50
71.886752201452239
 51
101.3721380535423
  0
ARC
  5
BA12
  8
01
 10
1004.187665166323
 20
-1413.2340815977441
 30
0.0
 40
11.050000000000001
 50
101.3721380535423
 51
285.75219845624741
  0
ARC
  5
BA13
  8
01
 10
1132.932754958737
 20
-1869.662698692008
 30
0.0
 40
463.18873802994909
 50
97.702016983007496
 51
105.7521984562474
  0
ARC
  5
BA14
  8
01
 10
1073.5294246189339
 20
-1430.4226467444171
 30
0.0
 40
19.949999999999999
 50
72.361209948443218
 51
97.702016983007496
  0
ARC
  5
BA15
  8
01
 10
1034.137455776277
 20
-1554.310793032507
 30
0.0
 40
149.94999999999999
 50
66.62960505066674
 51
78.833073984427799
  0
ARC
  5
BA16
  8
01
 10
1133.305862945544
 20
-1324.8208651064419
 30
0.0
 40
100.05
 50
246.6296050506667
 51
258.98490457804621
  0
ARC
  5
BA17
  8
01
 10
1114.581236873991
 20
-1421.015399142844
 30
0.0
 40
2.0499999999999989
 50
212.7113816805832
 51
329.99999999997323
  0
ARC
  5
BA18
  8
01
 10
1115.485062352798
 20
-1411.1334187816501
 30
0.0
 40
2.0344389403939038
 50
43.604736863919193
 51
143.91494609947799
  0
ARC
  5
BA19
  8
01
 10
1112.54801577998
 20
-1416.605917978374
 30
0.0
 40
1.8
 50
163.90166949065809
 51
191.00088535753909
  0
ARC
  5
BA1A
  8
01
 10
1129.8421859951191
 20
-1421.5970778205169
 30
0.0
 40
19.800000000000001
 50
143.91494609947799
 51
163.90166949065809
  0
ARC
  5
BA1B
  8
01
 10
1125.3091308333269
 20
-1414.125203848278
 30
0.0
 40
14.800000000000001
 50
191.00088535753909
 51
212.7113816805832
  0
LINE
  5
BA27
  8
01
 10
863.18766916632353
 20
-1402.184081597745
 30
0.0
 11
898.03987790468352
 21
-1402.184081597745
 31
0.0
  0
LINE
  5
BA28
  8
01
 10
863.18766916632353
 20
-1424.2840815977429
 30
0.0
 11
909.94433977346011
 21
-1424.2840815977429
 31
0.0
  0
LINE
  5
BA29
  8
01
 10
863.18766916632353
 20
-1402.184081597745
 30
0.0
 11
863.18766916632353
 21
-1424.2840815977429
 31
0.0
  0
LINE
  5
BA2A
  8
01
 10
863.18766916632353
 20
-1405.2840815977429
 30
0.0
 11
862.68766916632364
 21
-1405.2840815977429
 31
0.0
  0
LINE
  5
BA2B
  8
01
 10
863.18766916632353
 20
-1421.1840815977439
 30
0.0
 11
862.68766916632364
 21
-1421.1840815977439
 31
0.0
  0
POLYLINE
  5
BA2E
  8
01
 10
927.95294988075307
 20
-1416.605917978374
 30
0.0
 66
     1
 70
     8
  0
VERTEX
  8
01
  5
C606
 10
927.953
 20
-1416.61
 30
0.000000
  70
    32
  0
VERTEX
  8
01
  5
C607
 10
927.952
 20
-1416.38
 30
0.000000
  70
    32
  0
VERTEX
  8
01
  5
C608
 10
927.950
 20
-1416.15
 30
0.000000
  70
    32
  0
VERTEX
  8
01
  5
C609
 10
927.946
 20
-1415.92
 30
0.000000
  70
    32
  0
VERTEX
  8
01
  5
C60A
 10
927.940
 20
-1415.69
 30
0.000000
  70
    32
  0
VERTEX
  8
01
  5
C60B
 10
927.933
 20
-1415.46
 30
0.000000
  70
    32
  0
VERTEX
  8
01
  5
C60C
 10
927.924
 20
-1415.23
 30
0.000000
  70
    32
  0
VERTEX
  8
01
  5
C60D
 10
927.913
 20
-1415.01
 30
0.000000
  70
    32
  0
VERTEX
  8
01
  5
C60E
 10
927.901
 20
-1414.78
 30
0.000000
  70
    32
  0
VERTEX
  8
01
  5
C60F
 10
927.887
 20
-1414.55
 30
0.000000
  70
    32
  0
VERTEX
  8
01
  5
C610
 10
927.872
 20
-1414.32
 30
0.000000
  70
    32
  0
VERTEX
  8
01
  5
C611
 10
927.854
 20
-1414.10
 30
0.000000
  70
    32
  0
VERTEX
  8
01
  5
C612
 10
927.836
 20
-1413.87
 30
0.000000
  70
    32
  0
VERTEX
  8
01
  5
C613
 10
927.815
 20
-1413.64
 30
0.000000
  70
    32
  0
VERTEX
  8
01
  5
C614
 10
927.794
 20
-1413.42
 30
0.000000
  70
    32
  0
VERTEX
  8
01
  5
C615
 10
927.770
 20
-1413.19
 30
0.000000
  70
    32
  0
VERTEX
  8
01
  5
C616
 10
927.745
 20
-1412.97
 30
0.000000
  70
    32
  0
VERTEX
  8
01
  5
C617
 10
927.718
 20
-1412.75
 30
0.000000
  70
    32
  0
VERTEX
  8
01
  5
C618
 10
927.690
 20
-1412.52
 30
0.000000
  70
    32
  0
VERTEX
  8
01
  5
C619
 10
927.660
 20
-1412.30
 30
0.000000
  70
    32
  0
VERTEX
  8
01
  5
C61A
 10
927.628
 20
-1412.08
 30
0.000000
  70
    32
  0
VERTEX
  8
01
  5
C61B
 10
927.595
 20
-1411.86
 30
0.000000
  70
    32
  0
VERTEX
  8
01
  5
C61C
 10
927.561
 20
-1411.63
 30
0.000000
  70
    32
  0
VERTEX
  8
01
  5
C61D
 10
927.525
 20
-1411.41
 30
0.000000
  70
    32
  0
VERTEX
  8
01
  5
C61E
 10
927.487
 20
-1411.19
 30
0.000000
  70
    32
  0
VERTEX
  8
01
  5
C61F
 10
927.447
 20
-1410.98
 30
0.000000
  70
    32
  0
VERTEX
  8
01
  5
C620
 10
927.407
 20
-1410.76
 30
0.000000
  70
    32
  0
VERTEX
  8
01
  5
C621
 10
927.364
 20
-1410.54
 30
0.000000
  70
    32
  0
VERTEX
  8
01
  5
C622
 10
927.320
 20
-1410.33
 30
0.000000
  70
    32
  0
VERTEX
  8
01
  5
C623
 10
927.275
 20
-1410.11
 30
0.000000
  70
    32
  0
VERTEX
  8
01
  5
C624
 10
927.228
 20
-1409.90
 30
0.000000
  70
    32
  0
VERTEX
  8
01
  5
C625
 10
927.179
 20
-1409.68
 30
0.000000
  70
    32
  0
VERTEX
  8
01
  5
C626
 10
927.129
 20
-1409.47
 30
0.000000
  70
    32
  0
VERTEX
  8
01
  5
C627
 10
927.077
 20
-1409.26
 30
0.000000
  70
    32
  0
VERTEX
  8
01
  5
C628
 10
927.024
 20
-1409.05
 30
0.000000
  70
    32
  0
VERTEX
  8
01
  5
C629
 10
926.970
 20
-1408.84
 30
0.000000
  70
    32
  0
VERTEX
  8
01
  5
C62A
 10
926.914
 20
-1408.64
 30
0.000000
  70
    32
  0
VERTEX
  8
01
  5
C62B
 10
926.856
 20
-1408.43
 30
0.000000
  70
    32
  0
VERTEX
  8
01
  5
C62C
 10
926.797
 20
-1408.22
 30
0.000000
  70
    32
  0
VERTEX
  8
01
  5
C62D
 10
926.737
 20
-1408.02
 30
0.000000
  70
    32
  0
VERTEX
  8
01
  5
C62E
 10
926.675
 20
-1407.82
 30
0.000000
  70
    32
  0
VERTEX
  8
01
  5
C62F
 10
926.611
 20
-1407.62
 30
0.000000
  70
    32
  0
VERTEX
  8
01
  5
C630
 10
926.546
 20
-1407.42
 30
0.000000
  70
    32
  0
VERTEX
  8
01
  5
C631
 10
926.480
 20
-1407.22
 30
0.000000
  70
    32
  0
VERTEX
  8
01
  5
C632
 10
926.413
 20
-1407.02
 30
0.000000
  70
    32
  0
VERTEX
  8
01
  5
C633
 10
926.344
 20
-1406.83
 30
0.000000
  70
    32
  0
VERTEX
  8
01
  5
C634
 10
926.273
 20
-1406.63
 30
0.000000
  70
    32
  0
VERTEX
  8
01
  5
C635
 10
926.202
 20
-1406.44
 30
0.000000
  70
    32
  0
VERTEX
  8
01
  5
C636
 10
926.128
 20
-1406.25
 30
0.000000
  70
    32
  0
VERTEX
  8
01
  5
C637
 10
926.054
 20
-1406.06
 30
0.000000
  70
    32
  0
VERTEX
  8
01
  5
C638
 10
925.978
 20
-1405.87
 30
0.000000
  70
    32
  0
VERTEX
  8
01
  5
C639
 10
925.901
 20
-1405.69
 30
0.000000
  70
    32
  0
VERTEX
  8
01
  5
C63A
 10
925.822
 20
-1405.50
 30
0.000000
  70
    32
  0
VERTEX
  8
01
  5
C63B
 10
925.743
 20
-1405.32
 30
0.000000
  70
    32
  0
VERTEX
  8
01
  5
C63C
 10
925.662
 20
-1405.14
 30
0.000000
  70
    32
  0
VERTEX
  8
01
  5
C63D
 10
925.579
 20
-1404.96
 30
0.000000
  70
    32
  0
VERTEX
  8
01
  5
C63E
 10
925.495
 20
-1404.78
 30
0.000000
  70
    32
  0
VERTEX
  8
01
  5
C63F
 10
925.411
 20
-1404.60
 30
0.000000
  70
    32
  0
VERTEX
  8
01
  5
C640
 10
925.324
 20
-1404.43
 30
0.000000
  70
    32
  0
VERTEX
  8
01
  5
C641
 10
925.237
 20
-1404.26
 30
0.000000
  70
    32
  0
VERTEX
  8
01
  5
C642
 10
925.148
 20
-1404.09
 30
0.000000
  70
    32
  0
VERTEX
  8
01
  5
C643
 10
925.059
 20
-1403.92
 30
0.000000
  70
    32
  0
VERTEX
  8
01
  5
C644
 10
924.968
 20
-1403.75
 30
0.000000
  70
    32
  0
VERTEX
  8
01
  5
C645
 10
924.875
 20
-1403.59
 30
0.000000
  70
    32
  0
VERTEX
  8
01
  5
C646
 10
924.782
 20
-1403.43
 30
0.000000
  70
    32
  0
VERTEX
  8
01
  5
C647
 10
924.687
 20
-1403.26
 30
0.000000
  70
    32
  0
VERTEX
  8
01
  5
C648
 10
924.592
 20
-1403.11
 30
0.000000
  70
    32
  0
VERTEX
  8
01
  5
C649
 10
924.495
 20
-1402.95
 30
0.000000
  70
    32
  0
VERTEX
  8
01
  5
C64A
 10
924.397
 20
-1402.79
 30
0.000000
  70
    32
  0
VERTEX
  8
01
  5
C64B
 10
924.298
 20
-1402.64
 30
0.000000
  70
    32
  0
VERTEX
  8
01
  5
C64C
 10
924.198
 20
-1402.49
 30
0.000000
  70
    32
  0
VERTEX
  8
01
  5
C64D
 10
924.097
 20
-1402.34
 30
0.000000
  70
    32
  0
VERTEX
  8
01
  5
C64E
 10
923.995
 20
-1402.20
 30
0.000000
  70
    32
  0
VERTEX
  8
01
  5
C64F
 10
923.892
 20
-1402.05
 30
0.000000
  70
    32
  0
VERTEX
  8
01
  5
C650
 10
923.787
 20
-1401.91
 30
0.000000
  70
    32
  0
VERTEX
  8
01
  5
C651
 10
923.682
 20
-1401.77
 30
0.000000
  70
    32
  0
VERTEX
  8
01
  5
C652
 10
923.576
 20
-1401.63
 30
0.000000
  70
    32
  0
VERTEX
  8
01
  5
C653
 10
923.469
 20
-1401.50
 30
0.000000
  70
    32
  0
VERTEX
  8
01
  5
C654
 10
923.361
 20
-1401.37
 30
0.000000
  70
    32
  0
VERTEX
  8
01
  5
C655
 10
923.251
 20
-1401.24
 30
0.000000
  70
    32
  0
VERTEX
  8
01
  5
C656
 10
923.141
 20
-1401.11
 30
0.000000
  70
    32
  0
VERTEX
  8
01
  5
C657
 10
923.030
 20
-1400.98
 30
0.000000
  70
    32
  0
VERTEX
  8
01
  5
C658
 10
922.919
 20
-1400.86
 30
0.000000
  70
    32
  0
VERTEX
  8
01
  5
C659
 10
922.806
 20
-1400.74
 30
0.000000
  70
    32
  0
VERTEX
  8
01
  5
C65A
 10
922.692
 20
-1400.62
 30
0.000000
  70
    32
  0
VERTEX
  8
01
  5
C65B
 10
922.578
 20
-1400.50
 30
0.000000
  70
    32
  0
VERTEX
  8
01
  5
C65C
 10
922.463
 20
-1400.39
 30
0.000000
  70
    32
  0
VERTEX
  8
01
  5
C65D
 10
922.347
 20
-1400.28
 30
0.000000
  70
    32
  0
VERTEX
  8
01
  5
C65E
 10
922.230
 20
-1400.17
 30
0.000000
  70
    32
  0
VERTEX
  8
01
  5
C65F
 10
922.113
 20
-1400.06
 30
0.000000
  70
    32
  0
VERTEX
  8
01
  5
C660
 10
921.994
 20
-1399.96
 30
0.000000
  70
    32
  0
VERTEX
  8
01
  5
C661
 10
921.875
 20
-1399.85
 30
0.000000
  70
    32
  0
VERTEX
  8
01
  5
C662
 10
921.755
 20
-1399.76
 30
0.000000
  70
    32
  0
VERTEX
  8
01
  5
C663
 10
921.635
 20
-1399.66
 30
0.000000
  70
    32
  0
VERTEX
  8
01
  5
C664
 10
921.514
 20
-1399.56
 30
0.000000
  70
    32
  0
VERTEX
  8
01
  5
C665
 10
921.392
 20
-1399.47
 30
0.000000
  70
    32
  0
VERTEX
  8
01
  5
C666
 10
921.270
 20
-1399.38
 30
0.000000
  70
    32
  0
VERTEX
  8
01
  5
C667
 10
921.147
 20
-1399.30
 30
0.000000
  70
    32
  0
VERTEX
  8
01
  5
C668
 10
921.023
 20
-1399.21
 30
0.000000
  70
    32
  0
VERTEX
  8
01
  5
C669
 10
920.899
 20
-1399.13
 30
0.000000
  70
    32
  0
VERTEX
  8
01
  5
C66A
 10
920.774
 20
-1399.06
 30
0.000000
  70
    32
  0
VERTEX
  8
01
  5
C66B
 10
920.649
 20
-1398.98
 30
0.000000
  70
    32
  0
VERTEX
  8
01
  5
C66C
 10
920.523
 20
-1398.91
 30
0.000000
  70
    32
  0
VERTEX
  8
01
  5
C66D
 10
920.396
 20
-1398.84
 30
0.000000
  70
    32
  0
VERTEX
  8
01
  5
C66E
 10
920.269
 20
-1398.77
 30
0.000000
  70
    32
  0
VERTEX
  8
01
  5
C66F
 10
920.142
 20
-1398.70
 30
0.000000
  70
    32
  0
VERTEX
  8
01
  5
C670
 10
920.014
 20
-1398.64
 30
0.000000
  70
    32
  0
VERTEX
  8
01
  5
C671
 10
919.886
 20
-1398.58
 30
0.000000
  70
    32
  0
VERTEX
  8
01
  5
C672
 10
919.757
 20
-1398.52
 30
0.000000
  70
    32
  0
VERTEX
  8
01
  5
C673
 10
919.628
 20
-1398.47
 30
0.000000
  70
    32
  0
VERTEX
  8
01
  5
C674
 10
919.499
 20
-1398.42
 30
0.000000
  70
    32
  0
VERTEX
  8
01
  5
C675
 10
919.369
 20
-1398.37
 30
0.000000
  70
    32
  0
VERTEX
  8
01
  5
C676
 10
919.239
 20
-1398.32
 30
0.000000
  70
    32
  0
VERTEX
  8
01
  5
C677
 10
919.108
 20
-1398.28
 30
0.000000
  70
    32
  0
VERTEX
  8
01
  5
C678
 10
918.978
 20
-1398.24
 30
0.000000
  70
    32
  0
VERTEX
  8
01
  5
C679
 10
918.846
 20
-1398.20
 30
0.000000
  70
    32
  0
VERTEX
  8
01
  5
C67A
 10
918.715
 20
-1398.17
 30
0.000000
  70
    32
  0
VERTEX
  8
01
  5
C67B
 10
918.584
 20
-1398.13
 30
0.000000
  70
    32
  0
VERTEX
  8
01
  5
C67C
 10
918.452
 20
-1398.11
 30
0.000000
  70
    32
  0
VERTEX
  8
01
  5
C67D
 10
918.320
 20
-1398.08
 30
0.000000
  70
    32
  0
VERTEX
  8
01
  5
C67E
 10
918.188
 20
-1398.06
 30
0.000000
  70
    32
  0
VERTEX
  8
01
  5
C67F
 10
918.055
 20
-1398.03
 30
0.000000
  70
    32
  0
VERTEX
  8
01
  5
C680
 10
917.923
 20
-1398.02
 30
0.000000
  70
    32
  0
VERTEX
  8
01
  5
C681
 10
917.791
 20
-1398.00
 30
0.000000
  70
    32
  0
VERTEX
  8
01
  5
C682
 10
917.658
 20
-1397.99
 30
0.000000
  70
    32
  0
VERTEX
  8
01
  5
C683
 10
917.525
 20
-1397.98
 30
0.000000
  70
    32
  0
VERTEX
  8
01
  5
C684
 10
917.392
 20
-1397.97
 30
0.000000
  70
    32
  0
VERTEX
  8
01
  5
C685
 10
917.259
 20
-1397.97
 30
0.000000
  70
    32
  0
VERTEX
  8
01
  5
C686
 10
917.127
 20
-1397.97
 30
0.000000
  70
    32
  0
SEQEND
  8
01
  5
C687
  0
POLYLINE
  5
BA2F
  8
01
 10
908.07121399311904
 20
-1413.2340815977441
 30
0.0
 66
     1
 70
     8
  0
VERTEX
  8
01
  5
C688
 10
908.071
 20
-1413.23
 30
0.000000
  70
    32
  0
VERTEX
  8
01
  5
C689
 10
908.072
 20
-1413.51
 30
0.000000
  70
    32
  0
VERTEX
  8
01
  5
C68A
 10
908.073
 20
-1413.78
 30
0.000000
  70
    32
  0
VERTEX
  8
01
  5
C68B
 10
908.076
 20
-1414.05
 30
0.000000
  70
    32
  0
VERTEX
  8
01
  5
C68C
 10
908.080
 20
-1414.32
 30
0.000000
  70
    32
  0
VERTEX
  8
01
  5
C68D
 10
908.085
 20
-1414.59
 30
0.000000
  70
    32
  0
VERTEX
  8
01
  5
C68E
 10
908.091
 20
-1414.86
 30
0.000000
  70
    32
  0
VERTEX
  8
01
  5
C68F
 10
908.099
 20
-1415.12
 30
0.000000
  70
    32
  0
VERTEX
  8
01
  5
C690
 10
908.107
 20
-1415.39
 30
0.000000
  70
    32
  0
VERTEX
  8
01
  5
C691
 10
908.117
 20
-1415.66
 30
0.000000
  70
    32
  0
VERTEX
  8
01
  5
C692
 10
908.127
 20
-1415.92
 30
0.000000
  70
    32
  0
VERTEX
  8
01
  5
C693
 10
908.139
 20
-1416.18
 30
0.000000
  70
    32
  0
VERTEX
  8
01
  5
C694
 10
908.152
 20
-1416.44
 30
0.000000
  70
    32
  0
VERTEX
  8
01
  5
C695
 10
908.166
 20
-1416.70
 30
0.000000
  70
    32
  0
VERTEX
  8
01
  5
C696
 10
908.181
 20
-1416.96
 30
0.000000
  70
    32
  0
VERTEX
  8
01
  5
C697
 10
908.197
 20
-1417.21
 30
0.000000
  70
    32
  0
VERTEX
  8
01
  5
C698
 10
908.214
 20
-1417.46
 30
0.000000
  70
    32
  0
VERTEX
  8
01
  5
C699
 10
908.232
 20
-1417.71
 30
0.000000
  70
    32
  0
VERTEX
  8
01
  5
C69A
 10
908.251
 20
-1417.96
 30
0.000000
  70
    32
  0
VERTEX
  8
01
  5
C69B
 10
908.271
 20
-1418.20
 30
0.000000
  70
    32
  0
VERTEX
  8
01
  5
C69C
 10
908.292
 20
-1418.44
 30
0.000000
  70
    32
  0
VERTEX
  8
01
  5
C69D
 10
908.315
 20
-1418.68
 30
0.000000
  70
    32
  0
VERTEX
  8
01
  5
C69E
 10
908.338
 20
-1418.91
 30
0.000000
  70
    32
  0
VERTEX
  8
01
  5
C69F
 10
908.362
 20
-1419.15
 30
0.000000
  70
    32
  0
VERTEX
  8
01
  5
C6A0
 10
908.387
 20
-1419.37
 30
0.000000
  70
    32
  0
VERTEX
  8
01
  5
C6A1
 10
908.413
 20
-1419.60
 30
0.000000
  70
    32
  0
VERTEX
  8
01
  5
C6A2
 10
908.440
 20
-1419.82
 30
0.000000
  70
    32
  0
VERTEX
  8
01
  5
C6A3
 10
908.468
 20
-1420.03
 30
0.000000
  70
    32
  0
VERTEX
  8
01
  5
C6A4
 10
908.496
 20
-1420.24
 30
0.000000
  70
    32
  0
VERTEX
  8
01
  5
C6A5
 10
908.526
 20
-1420.45
 30
0.000000
  70
    32
  0
VERTEX
  8
01
  5
C6A6
 10
908.556
 20
-1420.65
 30
0.000000
  70
    32
  0
VERTEX
  8
01
  5
C6A7
 10
908.588
 20
-1420.85
 30
0.000000
  70
    32
  0
VERTEX
  8
01
  5
C6A8
 10
908.620
 20
-1421.05
 30
0.000000
  70
    32
  0
VERTEX
  8
01
  5
C6A9
 10
908.653
 20
-1421.24
 30
0.000000
  70
    32
  0
VERTEX
  8
01
  5
C6AA
 10
908.686
 20
-1421.42
 30
0.000000
  70
    32
  0
VERTEX
  8
01
  5
C6AB
 10
908.721
 20
-1421.60
 30
0.000000
  70
    32
  0
VERTEX
  8
01
  5
C6AC
 10
908.756
 20
-1421.78
 30
0.000000
  70
    32
  0
VERTEX
  8
01
  5
C6AD
 10
908.792
 20
-1421.95
 30
0.000000
  70
    32
  0
VERTEX
  8
01
  5
C6AE
 10
908.829
 20
-1422.11
 30
0.000000
  70
    32
  0
VERTEX
  8
01
  5
C6AF
 10
908.866
 20
-1422.27
 30
0.000000
  70
    32
  0
VERTEX
  8
01
  5
C6B0
 10
908.904
 20
-1422.42
 30
0.000000
  70
    32
  0
VERTEX
  8
01
  5
C6B1
 10
908.942
 20
-1422.57
 30
0.000000
  70
    32
  0
VERTEX
  8
01
  5
C6B2
 10
908.981
 20
-1422.71
 30
0.000000
  70
    32
  0
VERTEX
  8
01
  5
C6B3
 10
909.021
 20
-1422.85
 30
0.000000
  70
    32
  0
VERTEX
  8
01
  5
C6B4
 10
909.061
 20
-1422.98
 30
0.000000
  70
    32
  0
VERTEX
  8
01
  5
C6B5
 10
909.102
 20
-1423.10
 30
0.000000
  70
    32
  0
VERTEX
  8
01
  5
C6B6
 10
909.143
 20
-1423.22
 30
0.000000
  70
    32
  0
VERTEX
  8
01
  5
C6B7
 10
909.185
 20
-1423.34
 30
0.000000
  70
    32
  0
VERTEX
  8
01
  5
C6B8
 10
909.228
 20
-1423.44
 30
0.000000
  70
    32
  0
VERTEX
  8
01
  5
C6B9
 10
909.270
 20
-1423.54
 30
0.000000
  70
    32
  0
VERTEX
  8
01
  5
C6BA
 10
909.313
 20
-1423.64
 30
0.000000
  70
    32
  0
VERTEX
  8
01
  5
C6BB
 10
909.357
 20
-1423.73
 30
0.000000
  70
    32
  0
VERTEX
  8
01
  5
C6BC
 10
909.401
 20
-1423.81
 30
0.000000
  70
    32
  0
VERTEX
  8
01
  5
C6BD
 10
909.445
 20
-1423.88
 30
0.000000
  70
    32
  0
VERTEX
  8
01
  5
C6BE
 10
909.489
 20
-1423.95
 30
0.000000
  70
    32
  0
VERTEX
  8
01
  5
C6BF
 10
909.534
 20
-1424.02
 30
0.000000
  70
    32
  0
VERTEX
  8
01
  5
C6C0
 10
909.579
 20
-1424.07
 30
0.000000
  70
    32
  0
VERTEX
  8
01
  5
C6C1
 10
909.624
 20
-1424.12
 30
0.000000
  70
    32
  0
VERTEX
  8
01
  5
C6C2
 10
909.669
 20
-1424.16
 30
0.000000
  70
    32
  0
VERTEX
  8
01
  5
C6C3
 10
909.715
 20
-1424.20
 30
0.000000
  70
    32
  0
VERTEX
  8
01
  5
C6C4
 10
909.761
 20
-1424.23
 30
0.000000
  70
    32
  0
VERTEX
  8
01
  5
C6C5
 10
909.807
 20
-1424.25
 30
0.000000
  70
    32
  0
VERTEX
  8
01
  5
C6C6
 10
909.852
 20
-1424.27
 30
0.000000
  70
    32
  0
VERTEX
  8
01
  5
C6C7
 10
909.898
 20
-1424.28
 30
0.000000
  70
    32
  0
VERTEX
  8
01
  5
C6C8
 10
909.944
 20
-1424.28
 30
0.000000
  70
    32
  0
VERTEX
  8
01
  5
C6C9
 10
909.990
 20
-1424.28
 30
0.000000
  70
    32
  0
VERTEX
  8
01
  5
C6CA
 10
910.036
 20
-1424.27
 30
0.000000
  70
    32
  0
VERTEX
  8
01
  5
C6CB
 10
910.082
 20
-1424.25
 30
0.000000
  70
    32
  0
VERTEX
  8
01
  5
C6CC
 10
910.128
 20
-1424.23
 30
0.000000
  70
    32
  0
VERTEX
  8
01
  5
C6CD
 10
910.174
 20
-1424.20
 30
0.000000
  70
    32
  0
VERTEX
  8
01
  5
C6CE
 10
910.219
 20
-1424.16
 30
0.000000
  70
    32
  0
VERTEX
  8
01
  5
C6CF
 10
910.265
 20
-1424.12
 30
0.000000
  70
    32
  0
VERTEX
  8
01
  5
C6D0
 10
910.310
 20
-1424.07
 30
0.000000
  70
    32
  0
VERTEX
  8
01
  5
C6D1
 10
910.355
 20
-1424.02
 30
0.000000
  70
    32
  0
VERTEX
  8
01
  5
C6D2
 10
910.399
 20
-1423.95
 30
0.000000
  70
    32
  0
VERTEX
  8
01
  5
C6D3
 10
910.444
 20
-1423.88
 30
0.000000
  70
    32
  0
VERTEX
  8
01
  5
C6D4
 10
910.488
 20
-1423.81
 30
0.000000
  70
    32
  0
VERTEX
  8
01
  5
C6D5
 10
910.532
 20
-1423.73
 30
0.000000
  70
    32
  0
VERTEX
  8
01
  5
C6D6
 10
910.575
 20
-1423.64
 30
0.000000
  70
    32
  0
VERTEX
  8
01
  5
C6D7
 10
910.618
 20
-1423.54
 30
0.000000
  70
    32
  0
VERTEX
  8
01
  5
C6D8
 10
910.661
 20
-1423.44
 30
0.000000
  70
    32
  0
VERTEX
  8
01
  5
C6D9
 10
910.703
 20
-1423.34
 30
0.000000
  70
    32
  0
VERTEX
  8
01
  5
C6DA
 10
910.745
 20
-1423.22
 30
0.000000
  70
    32
  0
VERTEX
  8
01
  5
C6DB
 10
910.787
 20
-1423.10
 30
0.000000
  70
    32
  0
VERTEX
  8
01
  5
C6DC
 10
910.827
 20
-1422.98
 30
0.000000
  70
    32
  0
VERTEX
  8
01
  5
C6DD
 10
910.868
 20
-1422.85
 30
0.000000
  70
    32
  0
VERTEX
  8
01
  5
C6DE
 10
910.907
 20
-1422.71
 30
0.000000
  70
    32
  0
VERTEX
  8
01
  5
C6DF
 10
910.946
 20
-1422.57
 30
0.000000
  70
    32
  0
VERTEX
  8
01
  5
C6E0
 10
910.985
 20
-1422.42
 30
0.000000
  70
    32
  0
VERTEX
  8
01
  5
C6E1
 10
911.023
 20
-1422.27
 30
0.000000
  70
    32
  0
VERTEX
  8
01
  5
C6E2
 10
911.060
 20
-1422.11
 30
0.000000
  70
    32
  0
VERTEX
  8
01
  5
C6E3
 10
911.097
 20
-1421.95
 30
0.000000
  70
    32
  0
VERTEX
  8
01
  5
C6E4
 10
911.133
 20
-1421.78
 30
0.000000
  70
    32
  0
VERTEX
  8
01
  5
C6E5
 10
911.168
 20
-1421.60
 30
0.000000
  70
    32
  0
VERTEX
  8
01
  5
C6E6
 10
911.202
 20
-1421.42
 30
0.000000
  70
    32
  0
VERTEX
  8
01
  5
C6E7
 10
911.236
 20
-1421.24
 30
0.000000
  70
    32
  0
VERTEX
  8
01
  5
C6E8
 10
911.269
 20
-1421.05
 30
0.000000
  70
    32
  0
VERTEX
  8
01
  5
C6E9
 10
911.301
 20
-1420.85
 30
0.000000
  70
    32
  0
VERTEX
  8
01
  5
C6EA
 10
911.332
 20
-1420.65
 30
0.000000
  70
    32
  0
VERTEX
  8
01
  5
C6EB
 10
911.363
 20
-1420.45
 30
0.000000
  70
    32
  0
VERTEX
  8
01
  5
C6EC
 10
911.392
 20
-1420.24
 30
0.000000
  70
    32
  0
VERTEX
  8
01
  5
C6ED
 10
911.421
 20
-1420.03
 30
0.000000
  70
    32
  0
VERTEX
  8
01
  5
C6EE
 10
911.449
 20
-1419.82
 30
0.000000
  70
    32
  0
VERTEX
  8
01
  5
C6EF
 10
911.476
 20
-1419.60
 30
0.000000
  70
    32
  0
VERTEX
  8
01
  5
C6F0
 10
911.502
 20
-1419.37
 30
0.000000
  70
    32
  0
VERTEX
  8
01
  5
C6F1
 10
911.527
 20
-1419.15
 30
0.000000
  70
    32
  0
VERTEX
  8
01
  5
C6F2
 10
911.551
 20
-1418.91
 30
0.000000
  70
    32
  0
VERTEX
  8
01
  5
C6F3
 10
911.574
 20
-1418.68
 30
0.000000
  70
    32
  0
VERTEX
  8
01
  5
C6F4
 10
911.596
 20
-1418.44
 30
0.000000
  70
    32
  0
VERTEX
  8
01
  5
C6F5
 10
911.617
 20
-1418.20
 30
0.000000
  70
    32
  0
VERTEX
  8
01
  5
C6F6
 10
911.638
 20
-1417.96
 30
0.000000
  70
    32
  0
VERTEX
  8
01
  5
C6F7
 10
911.657
 20
-1417.71
 30
0.000000
  70
    32
  0
VERTEX
  8
01
  5
C6F8
 10
911.675
 20
-1417.46
 30
0.000000
  70
    32
  0
VERTEX
  8
01
  5
C6F9
 10
911.692
 20
-1417.21
 30
0.000000
  70
    32
  0
VERTEX
  8
01
  5
C6FA
 10
911.708
 20
-1416.96
 30
0.000000
  70
    32
  0
VERTEX
  8
01
  5
C6FB
 10
911.723
 20
-1416.70
 30
0.000000
  70
    32
  0
VERTEX
  8
01
  5
C6FC
 10
911.737
 20
-1416.44
 30
0.000000
  70
    32
  0
VERTEX
  8
01
  5
C6FD
 10
911.750
 20
-1416.18
 30
0.000000
  70
    32
  0
VERTEX
  8
01
  5
C6FE
 10
911.761
 20
-1415.92
 30
0.000000
  70
    32
  0
VERTEX
  8
01
  5
C6FF
 10
911.772
 20
-1415.66
 30
0.000000
  70
    32
  0
VERTEX
  8
01
  5
C700
 10
911.781
 20
-1415.39
 30
0.000000
  70
    32
  0
VERTEX
  8
01
  5
C701
 10
911.790
 20
-1415.12
 30
0.000000
  70
    32
  0
VERTEX
  8
01
  5
C702
 10
911.797
 20
-1414.86
 30
0.000000
  70
    32
  0
VERTEX
  8
01
  5
C703
 10
911.803
 20
-1414.59
 30
0.000000
  70
    32
  0
VERTEX
  8
01
  5
C704
 10
911.808
 20
-1414.32
 30
0.000000
  70
    32
  0
VERTEX
  8
01
  5
C705
 10
911.812
 20
-1414.05
 30
0.000000
  70
    32
  0
VERTEX
  8
01
  5
C706
 10
911.815
 20
-1413.78
 30
0.000000
  70
    32
  0
VERTEX
  8
01
  5
C707
 10
911.817
 20
-1413.51
 30
0.000000
  70
    32
  0
VERTEX
  8
01
  5
C708
 10
911.817
 20
-1413.23
 30
0.000000
  70
    32
  0
SEQEND
  8
01
  5
C709
  0
POLYLINE
  5
BA30
  8
01
 10
917.12663038513415
 20
-1397.9653991428445
 30
0.0
 66
     1
 70
     8
  0
VERTEX
  8
01
  5
C70A
 10
917.127
 20
-1397.97
 30
0.000000
  70
    32
  0
VERTEX
  8
01
  5
C70B
 10
917.016
 20
-1397.97
 30
0.000000
  70
    32
  0
VERTEX
  8
01
  5
C70C
 10
916.904
 20
-1397.97
 30
0.000000
  70
    32
  0
VERTEX
  8
01
  5
C70D
 10
916.793
 20
-1397.98
 30
0.000000
  70
    32
  0
VERTEX
  8
01
  5
C70E
 10
916.682
 20
-1397.98
 30
0.000000
  70
    32
  0
VERTEX
  8
01
  5
C70F
 10
916.571
 20
-1397.99
 30
0.000000
  70
    32
  0
VERTEX
  8
01
  5
C710
 10
916.460
 20
-1398.01
 30
0.000000
  70
    32
  0
VERTEX
  8
01
  5
C711
 10
916.350
 20
-1398.02
 30
0.000000
  70
    32
  0
VERTEX
  8
01
  5
C712
 10
916.239
 20
-1398.04
 30
0.000000
  70
    32
  0
VERTEX
  8
01
  5
C713
 10
916.129
 20
-1398.06
 30
0.000000
  70
    32
  0
VERTEX
  8
01
  5
C714
 10
916.018
 20
-1398.08
 30
0.000000
  70
    32
  0
VERTEX
  8
01
  5
C715
 10
915.908
 20
-1398.10
 30
0.000000
  70
    32
  0
VERTEX
  8
01
  5
C716
 10
915.798
 20
-1398.13
 30
0.000000
  70
    32
  0
VERTEX
  8
01
  5
C717
 10
915.688
 20
-1398.16
 30
0.000000
  70
    32
  0
VERTEX
  8
01
  5
C718
 10
915.578
 20
-1398.19
 30
0.000000
  70
    32
  0
VERTEX
  8
01
  5
C719
 10
915.469
 20
-1398.22
 30
0.000000
  70
    32
  0
VERTEX
  8
01
  5
C71A
 10
915.360
 20
-1398.26
 30
0.000000
  70
    32
  0
VERTEX
  8
01
  5
C71B
 10
915.251
 20
-1398.30
 30
0.000000
  70
    32
  0
VERTEX
  8
01
  5
C71C
 10
915.143
 20
-1398.34
 30
0.000000
  70
    32
  0
VERTEX
  8
01
  5
C71D
 10
915.034
 20
-1398.38
 30
0.000000
  70
    32
  0
VERTEX
  8
01
  5
C71E
 10
914.926
 20
-1398.42
 30
0.000000
  70
    32
  0
VERTEX
  8
01
  5
C71F
 10
914.819
 20
-1398.47
 30
0.000000
  70
    32
  0
VERTEX
  8
01
  5
C720
 10
914.711
 20
-1398.52
 30
0.000000
  70
    32
  0
VERTEX
  8
01
  5
C721
 10
914.605
 20
-1398.57
 30
0.000000
  70
    32
  0
VERTEX
  8
01
  5
C722
 10
914.498
 20
-1398.62
 30
0.000000
  70
    32
  0
VERTEX
  8
01
  5
C723
 10
914.392
 20
-1398.68
 30
0.000000
  70
    32
  0
VERTEX
  8
01
  5
C724
 10
914.286
 20
-1398.74
 30
0.000000
  70
    32
  0
VERTEX
  8
01
  5
C725
 10
914.181
 20
-1398.80
 30
0.000000
  70
    32
  0
VERTEX
  8
01
  5
C726
 10
914.076
 20
-1398.86
 30
0.000000
  70
    32
  0
VERTEX
  8
01
  5
C727
 10
913.972
 20
-1398.92
 30
0.000000
  70
    32
  0
VERTEX
  8
01
  5
C728
 10
913.868
 20
-1398.99
 30
0.000000
  70
    32
  0
VERTEX
  8
01
  5
C729
 10
913.764
 20
-1399.06
 30
0.000000
  70
    32
  0
VERTEX
  8
01
  5
C72A
 10
913.661
 20
-1399.13
 30
0.000000
  70
    32
  0
VERTEX
  8
01
  5
C72B
 10
913.559
 20
-1399.20
 30
0.000000
  70
    32
  0
VERTEX
  8
01
  5
C72C
 10
913.457
 20
-1399.28
 30
0.000000
  70
    32
  0
VERTEX
  8
01
  5
C72D
 10
913.356
 20
-1399.35
 30
0.000000
  70
    32
  0
VERTEX
  8
01
  5
C72E
 10
913.255
 20
-1399.43
 30
0.000000
  70
    32
  0
VERTEX
  8
01
  5
C72F
 10
913.155
 20
-1399.51
 30
0.000000
  70
    32
  0
VERTEX
  8
01
  5
C730
 10
913.055
 20
-1399.60
 30
0.000000
  70
    32
  0
VERTEX
  8
01
  5
C731
 10
912.956
 20
-1399.68
 30
0.000000
  70
    32
  0
VERTEX
  8
01
  5
C732
 10
912.858
 20
-1399.77
 30
0.000000
  70
    32
  0
VERTEX
  8
01
  5
C733
 10
912.760
 20
-1399.86
 30
0.000000
  70
    32
  0
VERTEX
  8
01
  5
C734
 10
912.663
 20
-1399.95
 30
0.000000
  70
    32
  0
VERTEX
  8
01
  5
C735
 10
912.567
 20
-1400.04
 30
0.000000
  70
    32
  0
VERTEX
  8
01
  5
C736
 10
912.471
 20
-1400.14
 30
0.000000
  70
    32
  0
VERTEX
  8
01
  5
C737
 10
912.376
 20
-1400.24
 30
0.000000
  70
    32
  0
VERTEX
  8
01
  5
C738
 10
912.282
 20
-1400.33
 30
0.000000
  70
    32
  0
VERTEX
  8
01
  5
C739
 10
912.188
 20
-1400.44
 30
0.000000
  70
    32
  0
VERTEX
  8
01
  5
C73A
 10
912.096
 20
-1400.54
 30
0.000000
  70
    32
  0
VERTEX
  8
01
  5
C73B
 10
912.004
 20
-1400.64
 30
0.000000
  70
    32
  0
VERTEX
  8
01
  5
C73C
 10
911.912
 20
-1400.75
 30
0.000000
  70
    32
  0
VERTEX
  8
01
  5
C73D
 10
911.822
 20
-1400.86
 30
0.000000
  70
    32
  0
VERTEX
  8
01
  5
C73E
 10
911.732
 20
-1400.97
 30
0.000000
  70
    32
  0
VERTEX
  8
01
  5
C73F
 10
911.643
 20
-1401.08
 30
0.000000
  70
    32
  0
VERTEX
  8
01
  5
C740
 10
911.555
 20
-1401.20
 30
0.000000
  70
    32
  0
VERTEX
  8
01
  5
C741
 10
911.468
 20
-1401.31
 30
0.000000
  70
    32
  0
VERTEX
  8
01
  5
C742
 10
911.382
 20
-1401.43
 30
0.000000
  70
    32
  0
VERTEX
  8
01
  5
C743
 10
911.296
 20
-1401.55
 30
0.000000
  70
    32
  0
VERTEX
  8
01
  5
C744
 10
911.212
 20
-1401.67
 30
0.000000
  70
    32
  0
VERTEX
  8
01
  5
C745
 10
911.128
 20
-1401.80
 30
0.000000
  70
    32
  0
VERTEX
  8
01
  5
C746
 10
911.045
 20
-1401.92
 30
0.000000
  70
    32
  0
VERTEX
  8
01
  5
C747
 10
910.964
 20
-1402.05
 30
0.000000
  70
    32
  0
VERTEX
  8
01
  5
C748
 10
910.883
 20
-1402.18
 30
0.000000
  70
    32
  0
VERTEX
  8
01
  5
C749
 10
910.803
 20
-1402.31
 30
0.000000
  70
    32
  0
VERTEX
  8
01
  5
C74A
 10
910.723
 20
-1402.44
 30
0.000000
  70
    32
  0
VERTEX
  8
01
  5
C74B
 10
910.645
 20
-1402.57
 30
0.000000
  70
    32
  0
VERTEX
  8
01
  5
C74C
 10
910.568
 20
-1402.71
 30
0.000000
  70
    32
  0
VERTEX
  8
01
  5
C74D
 10
910.492
 20
-1402.84
 30
0.000000
  70
    32
  0
VERTEX
  8
01
  5
C74E
 10
910.417
 20
-1402.98
 30
0.000000
  70
    32
  0
VERTEX
  8
01
  5
C74F
 10
910.343
 20
-1403.12
 30
0.000000
  70
    32
  0
VERTEX
  8
01
  5
C750
 10
910.270
 20
-1403.26
 30
0.000000
  70
    32
  0
VERTEX
  8
01
  5
C751
 10
910.198
 20
-1403.40
 30
0.000000
  70
    32
  0
VERTEX
  8
01
  5
C752
 10
910.127
 20
-1403.55
 30
0.000000
  70
    32
  0
VERTEX
  8
01
  5
C753
 10
910.057
 20
-1403.69
 30
0.000000
  70
    32
  0
VERTEX
  8
01
  5
C754
 10
909.988
 20
-1403.84
 30
0.000000
  70
    32
  0
VERTEX
  8
01
  5
C755
 10
909.920
 20
-1403.99
 30
0.000000
  70
    32
  0
VERTEX
  8
01
  5
C756
 10
909.853
 20
-1404.14
 30
0.000000
  70
    32
  0
VERTEX
  8
01
  5
C757
 10
909.788
 20
-1404.29
 30
0.000000
  70
    32
  0
VERTEX
  8
01
  5
C758
 10
909.723
 20
-1404.44
 30
0.000000
  70
    32
  0
VERTEX
  8
01
  5
C759
 10
909.660
 20
-1404.60
 30
0.000000
  70
    32
  0
VERTEX
  8
01
  5
C75A
 10
909.597
 20
-1404.75
 30
0.000000
  70
    32
  0
VERTEX
  8
01
  5
C75B
 10
909.536
 20
-1404.91
 30
0.000000
  70
    32
  0
VERTEX
  8
01
  5
C75C
 10
909.476
 20
-1405.07
 30
0.000000
  70
    32
  0
VERTEX
  8
01
  5
C75D
 10
909.417
 20
-1405.22
 30
0.000000
  70
    32
  0
VERTEX
  8
01
  5
C75E
 10
909.360
 20
-1405.38
 30
0.000000
  70
    32
  0
VERTEX
  8
01
  5
C75F
 10
909.303
 20
-1405.55
 30
0.000000
  70
    32
  0
VERTEX
  8
01
  5
C760
 10
909.248
 20
-1405.71
 30
0.000000
  70
    32
  0
VERTEX
  8
01
  5
C761
 10
909.193
 20
-1405.87
 30
0.000000
  70
    32
  0
VERTEX
  8
01
  5
C762
 10
909.140
 20
-1406.04
 30
0.000000
  70
    32
  0
VERTEX
  8
01
  5
C763
 10
909.089
 20
-1406.20
 30
0.000000
  70
    32
  0
VERTEX
  8
01
  5
C764
 10
909.038
 20
-1406.37
 30
0.000000
  70
    32
  0
VERTEX
  8
01
  5
C765
 10
908.989
 20
-1406.54
 30
0.000000
  70
    32
  0
VERTEX
  8
01
  5
C766
 10
908.941
 20
-1406.71
 30
0.000000
  70
    32
  0
VERTEX
  8
01
  5
C767
 10
908.894
 20
-1406.88
 30
0.000000
  70
    32
  0
VERTEX
  8
01
  5
C768
 10
908.848
 20
-1407.05
 30
0.000000
  70
    32
  0
VERTEX
  8
01
  5
C769
 10
908.804
 20
-1407.22
 30
0.000000
  70
    32
  0
VERTEX
  8
01
  5
C76A
 10
908.761
 20
-1407.39
 30
0.000000
  70
    32
  0
VERTEX
  8
01
  5
C76B
 10
908.719
 20
-1407.56
 30
0.000000
  70
    32
  0
VERTEX
  8
01
  5
C76C
 10
908.678
 20
-1407.74
 30
0.000000
  70
    32
  0
VERTEX
  8
01
  5
C76D
 10
908.639
 20
-1407.91
 30
0.000000
  70
    32
  0
VERTEX
  8
01
  5
C76E
 10
908.601
 20
-1408.09
 30
0.000000
  70
    32
  0
VERTEX
  8
01
  5
C76F
 10
908.564
 20
-1408.27
 30
0.000000
  70
    32
  0
VERTEX
  8
01
  5
C770
 10
908.528
 20
-1408.44
 30
0.000000
  70
    32
  0
VERTEX
  8
01
  5
C771
 10
908.494
 20
-1408.62
 30
0.000000
  70
    32
  0
VERTEX
  8
01
  5
C772
 10
908.461
 20
-1408.80
 30
0.000000
  70
    32
  0
VERTEX
  8
01
  5
C773
 10
908.430
 20
-1408.98
 30
0.000000
  70
    32
  0
VERTEX
  8
01
  5
C774
 10
908.399
 20
-1409.16
 30
0.000000
  70
    32
  0
VERTEX
  8
01
  5
C775
 10
908.370
 20
-1409.34
 30
0.000000
  70
    32
  0
VERTEX
  8
01
  5
C776
 10
908.343
 20
-1409.52
 30
0.000000
  70
    32
  0
VERTEX
  8
01
  5
C777
 10
908.316
 20
-1409.71
 30
0.000000
  70
    32
  0
VERTEX
  8
01
  5
C778
 10
908.291
 20
-1409.89
 30
0.000000
  70
    32
  0
VERTEX
  8
01
  5
C779
 10
908.268
 20
-1410.07
 30
0.000000
  70
    32
  0
VERTEX
  8
01
  5
C77A
 10
908.245
 20
-1410.26
 30
0.000000
  70
    32
  0
VERTEX
  8
01
  5
C77B
 10
908.224
 20
-1410.44
 30
0.000000
  70
    32
  0
VERTEX
  8
01
  5
C77C
 10
908.205
 20
-1410.62
 30
0.000000
  70
    32
  0
VERTEX
  8
01
  5
C77D
 10
908.186
 20
-1410.81
 30
0.000000
  70
    32
  0
VERTEX
  8
01
  5
C77E
 10
908.169
 20
-1410.99
 30
0.000000
  70
    32
  0
VERTEX
  8
01
  5
C77F
 10
908.154
 20
-1411.18
 30
0.000000
  70
    32
  0
VERTEX
  8
01
  5
C780
 10
908.139
 20
-1411.37
 30
0.000000
  70
    32
  0
VERTEX
  8
01
  5
C781
 10
908.126
 20
-1411.55
 30
0.000000
  70
    32
  0
VERTEX
  8
01
  5
C782
 10
908.115
 20
-1411.74
 30
0.000000
  70
    32
  0
VERTEX
  8
01
  5
C783
 10
908.105
 20
-1411.92
 30
0.000000
  70
    32
  0
VERTEX
  8
01
  5
C784
 10
908.096
 20
-1412.11
 30
0.000000
  70
    32
  0
VERTEX
  8
01
  5
C785
 10
908.088
 20
-1412.30
 30
0.000000
  70
    32
  0
VERTEX
  8
01
  5
C786
 10
908.082
 20
-1412.48
 30
0.000000
  70
    32
  0
VERTEX
  8
01
  5
C787
 10
908.077
 20
-1412.67
 30
0.000000
  70
    32
  0
VERTEX
  8
01
  5
C788
 10
908.074
 20
-1412.86
 30
0.000000
  70
    32
  0
VERTEX
  8
01
  5
C789
 10
908.072
 20
-1413.05
 30
0.000000
  70
    32
  0
VERTEX
  8
01
  5
C78A
 10
908.071
 20
-1413.23
 30
0.000000
  70
    32
  0
SEQEND
  8
01
  5
C78B
  0
ARC
  5
BA31
  8
01
 10
916.59324530298511
 20
-1409.8793793901491
 30
0.0
 40
13.20186386360011
 50
245.45475410764229
 51
329.36851625322578
  0
POLYLINE
  5
BA32
  8
01
 10
917.12663038513415
 20
-1399.8621086707531
 30
0.0
 66
     1
 70
     8
  0
VERTEX
  8
01
  5
C78C
 10
917.127
 20
-1399.86
 30
0.000000
  70
    32
  0
VERTEX
  8
01
  5
C78D
 10
917.061
 20
-1399.86
 30
0.000000
  70
    32
  0
VERTEX
  8
01
  5
C78E
 10
916.996
 20
-1399.87
 30
0.000000
  70
    32
  0
VERTEX
  8
01
  5
C78F
 10
916.931
 20
-1399.87
 30
0.000000
  70
    32
  0
VERTEX
  8
01
  5
C790
 10
916.866
 20
-1399.88
 30
0.000000
  70
    32
  0
VERTEX
  8
01
  5
C791
 10
916.801
 20
-1399.89
 30
0.000000
  70
    32
  0
VERTEX
  8
01
  5
C792
 10
916.736
 20
-1399.90
 30
0.000000
  70
    32
  0
VERTEX
  8
01
  5
C793
 10
916.671
 20
-1399.91
 30
0.000000
  70
    32
  0
VERTEX
  8
01
  5
C794
 10
916.606
 20
-1399.93
 30
0.000000
  70
    32
  0
VERTEX
  8
01
  5
C795
 10
916.541
 20
-1399.94
 30
0.000000
  70
    32
  0
VERTEX
  8
01
  5
C796
 10
916.477
 20
-1399.96
 30
0.000000
  70
    32
  0
VERTEX
  8
01
  5
C797
 10
916.412
 20
-1399.98
 30
0.000000
  70
    32
  0
VERTEX
  8
01
  5
C798
 10
916.348
 20
-1400.01
 30
0.000000
  70
    32
  0
VERTEX
  8
01
  5
C799
 10
916.283
 20
-1400.03
 30
0.000000
  70
    32
  0
VERTEX
  8
01
  5
C79A
 10
916.219
 20
-1400.06
 30
0.000000
  70
    32
  0
VERTEX
  8
01
  5
C79B
 10
916.155
 20
-1400.09
 30
0.000000
  70
    32
  0
VERTEX
  8
01
  5
C79C
 10
916.091
 20
-1400.12
 30
0.000000
  70
    32
  0
VERTEX
  8
01
  5
C79D
 10
916.027
 20
-1400.15
 30
0.000000
  70
    32
  0
VERTEX
  8
01
  5
C79E
 10
915.963
 20
-1400.19
 30
0.000000
  70
    32
  0
VERTEX
  8
01
  5
C79F
 10
915.900
 20
-1400.22
 30
0.000000
  70
    32
  0
VERTEX
  8
01
  5
C7A0
 10
915.837
 20
-1400.26
 30
0.000000
  70
    32
  0
VERTEX
  8
01
  5
C7A1
 10
915.774
 20
-1400.30
 30
0.000000
  70
    32
  0
VERTEX
  8
01
  5
C7A2
 10
915.711
 20
-1400.35
 30
0.000000
  70
    32
  0
VERTEX
  8
01
  5
C7A3
 10
915.648
 20
-1400.39
 30
0.000000
  70
    32
  0
VERTEX
  8
01
  5
C7A4
 10
915.585
 20
-1400.44
 30
0.000000
  70
    32
  0
VERTEX
  8
01
  5
C7A5
 10
915.523
 20
-1400.49
 30
0.000000
  70
    32
  0
VERTEX
  8
01
  5
C7A6
 10
915.461
 20
-1400.54
 30
0.000000
  70
    32
  0
VERTEX
  8
01
  5
C7A7
 10
915.400
 20
-1400.59
 30
0.000000
  70
    32
  0
VERTEX
  8
01
  5
C7A8
 10
915.338
 20
-1400.64
 30
0.000000
  70
    32
  0
VERTEX
  8
01
  5
C7A9
 10
915.277
 20
-1400.70
 30
0.000000
  70
    32
  0
VERTEX
  8
01
  5
C7AA
 10
915.216
 20
-1400.76
 30
0.000000
  70
    32
  0
VERTEX
  8
01
  5
C7AB
 10
915.155
 20
-1400.82
 30
0.000000
  70
    32
  0
VERTEX
  8
01
  5
C7AC
 10
915.095
 20
-1400.88
 30
0.000000
  70
    32
  0
VERTEX
  8
01
  5
C7AD
 10
915.035
 20
-1400.94
 30
0.000000
  70
    32
  0
VERTEX
  8
01
  5
C7AE
 10
914.975
 20
-1401.01
 30
0.000000
  70
    32
  0
VERTEX
  8
01
  5
C7AF
 10
914.916
 20
-1401.08
 30
0.000000
  70
    32
  0
VERTEX
  8
01
  5
C7B0
 10
914.857
 20
-1401.15
 30
0.000000
  70
    32
  0
VERTEX
  8
01
  5
C7B1
 10
914.798
 20
-1401.22
 30
0.000000
  70
    32
  0
VERTEX
  8
01
  5
C7B2
 10
914.740
 20
-1401.29
 30
0.000000
  70
    32
  0
VERTEX
  8
01
  5
C7B3
 10
914.682
 20
-1401.36
 30
0.000000
  70
    32
  0
VERTEX
  8
01
  5
C7B4
 10
914.624
 20
-1401.44
 30
0.000000
  70
    32
  0
VERTEX
  8
01
  5
C7B5
 10
914.567
 20
-1401.52
 30
0.000000
  70
    32
  0
VERTEX
  8
01
  5
C7B6
 10
914.510
 20
-1401.60
 30
0.000000
  70
    32
  0
VERTEX
  8
01
  5
C7B7
 10
914.453
 20
-1401.68
 30
0.000000
  70
    32
  0
VERTEX
  8
01
  5
C7B8
 10
914.397
 20
-1401.76
 30
0.000000
  70
    32
  0
VERTEX
  8
01
  5
C7B9
 10
914.341
 20
-1401.85
 30
0.000000
  70
    32
  0
VERTEX
  8
01
  5
C7BA
 10
914.286
 20
-1401.94
 30
0.000000
  70
    32
  0
VERTEX
  8
01
  5
C7BB
 10
914.231
 20
-1402.03
 30
0.000000
  70
    32
  0
VERTEX
  8
01
  5
C7BC
 10
914.177
 20
-1402.12
 30
0.000000
  70
    32
  0
VERTEX
  8
01
  5
C7BD
 10
914.123
 20
-1402.21
 30
0.000000
  70
    32
  0
VERTEX
  8
01
  5
C7BE
 10
914.070
 20
-1402.30
 30
0.000000
  70
    32
  0
VERTEX
  8
01
  5
C7BF
 10
914.017
 20
-1402.40
 30
0.000000
  70
    32
  0
VERTEX
  8
01
  5
C7C0
 10
913.964
 20
-1402.49
 30
0.000000
  70
    32
  0
VERTEX
  8
01
  5
C7C1
 10
913.912
 20
-1402.59
 30
0.000000
  70
    32
  0
VERTEX
  8
01
  5
C7C2
 10
913.860
 20
-1402.69
 30
0.000000
  70
    32
  0
VERTEX
  8
01
  5
C7C3
 10
913.809
 20
-1402.79
 30
0.000000
  70
    32
  0
VERTEX
  8
01
  5
C7C4
 10
913.759
 20
-1402.90
 30
0.000000
  70
    32
  0
VERTEX
  8
01
  5
C7C5
 10
913.708
 20
-1403.00
 30
0.000000
  70
    32
  0
VERTEX
  8
01
  5
C7C6
 10
913.659
 20
-1403.11
 30
0.000000
  70
    32
  0
VERTEX
  8
01
  5
C7C7
 10
913.610
 20
-1403.22
 30
0.000000
  70
    32
  0
VERTEX
  8
01
  5
C7C8
 10
913.561
 20
-1403.33
 30
0.000000
  70
    32
  0
VERTEX
  8
01
  5
C7C9
 10
913.513
 20
-1403.44
 30
0.000000
  70
    32
  0
VERTEX
  8
01
  5
C7CA
 10
913.466
 20
-1403.55
 30
0.000000
  70
    32
  0
VERTEX
  8
01
  5
C7CB
 10
913.419
 20
-1403.66
 30
0.000000
  70
    32
  0
VERTEX
  8
01
  5
C7CC
 10
913.372
 20
-1403.78
 30
0.000000
  70
    32
  0
VERTEX
  8
01
  5
C7CD
 10
913.327
 20
-1403.90
 30
0.000000
  70
    32
  0
VERTEX
  8
01
  5
C7CE
 10
913.281
 20
-1404.01
 30
0.000000
  70
    32
  0
VERTEX
  8
01
  5
C7CF
 10
913.237
 20
-1404.13
 30
0.000000
  70
    32
  0
VERTEX
  8
01
  5
C7D0
 10
913.193
 20
-1404.25
 30
0.000000
  70
    32
  0
VERTEX
  8
01
  5
C7D1
 10
913.149
 20
-1404.38
 30
0.000000
  70
    32
  0
VERTEX
  8
01
  5
C7D2
 10
913.106
 20
-1404.50
 30
0.000000
  70
    32
  0
VERTEX
  8
01
  5
C7D3
 10
913.064
 20
-1404.62
 30
0.000000
  70
    32
  0
VERTEX
  8
01
  5
C7D4
 10
913.023
 20
-1404.75
 30
0.000000
  70
    32
  0
VERTEX
  8
01
  5
C7D5
 10
912.982
 20
-1404.88
 30
0.000000
  70
    32
  0
VERTEX
  8
01
  5
C7D6
 10
912.941
 20
-1405.01
 30
0.000000
  70
    32
  0
VERTEX
  8
01
  5
C7D7
 10
912.901
 20
-1405.14
 30
0.000000
  70
    32
  0
VERTEX
  8
01
  5
C7D8
 10
912.862
 20
-1405.27
 30
0.000000
  70
    32
  0
VERTEX
  8
01
  5
C7D9
 10
912.824
 20
-1405.40
 30
0.000000
  70
    32
  0
VERTEX
  8
01
  5
C7DA
 10
912.786
 20
-1405.53
 30
0.000000
  70
    32
  0
VERTEX
  8
01
  5
C7DB
 10
912.749
 20
-1405.67
 30
0.000000
  70
    32
  0
VERTEX
  8
01
  5
C7DC
 10
912.712
 20
-1405.81
 30
0.000000
  70
    32
  0
VERTEX
  8
01
  5
C7DD
 10
912.676
 20
-1405.94
 30
0.000000
  70
    32
  0
VERTEX
  8
01
  5
C7DE
 10
912.641
 20
-1406.08
 30
0.000000
  70
    32
  0
VERTEX
  8
01
  5
C7DF
 10
912.607
 20
-1406.22
 30
0.000000
  70
    32
  0
VERTEX
  8
01
  5
C7E0
 10
912.573
 20
-1406.36
 30
0.000000
  70
    32
  0
VERTEX
  8
01
  5
C7E1
 10
912.540
 20
-1406.50
 30
0.000000
  70
    32
  0
VERTEX
  8
01
  5
C7E2
 10
912.507
 20
-1406.64
 30
0.000000
  70
    32
  0
VERTEX
  8
01
  5
C7E3
 10
912.475
 20
-1406.79
 30
0.000000
  70
    32
  0
VERTEX
  8
01
  5
C7E4
 10
912.444
 20
-1406.93
 30
0.000000
  70
    32
  0
VERTEX
  8
01
  5
C7E5
 10
912.414
 20
-1407.08
 30
0.000000
  70
    32
  0
VERTEX
  8
01
  5
C7E6
 10
912.384
 20
-1407.22
 30
0.000000
  70
    32
  0
VERTEX
  8
01
  5
C7E7
 10
912.355
 20
-1407.37
 30
0.000000
  70
    32
  0
VERTEX
  8
01
  5
C7E8
 10
912.327
 20
-1407.52
 30
0.000000
  70
    32
  0
VERTEX
  8
01
  5
C7E9
 10
912.300
 20
-1407.67
 30
0.000000
  70
    32
  0
VERTEX
  8
01
  5
C7EA
 10
912.273
 20
-1407.82
 30
0.000000
  70
    32
  0
VERTEX
  8
01
  5
C7EB
 10
912.247
 20
-1407.97
 30
0.000000
  70
    32
  0
VERTEX
  8
01
  5
C7EC
 10
912.222
 20
-1408.12
 30
0.000000
  70
    32
  0
VERTEX
  8
01
  5
C7ED
 10
912.197
 20
-1408.27
 30
0.000000
  70
    32
  0
VERTEX
  8
01
  5
C7EE
 10
912.173
 20
-1408.42
 30
0.000000
  70
    32
  0
VERTEX
  8
01
  5
C7EF
 10
912.150
 20
-1408.58
 30
0.000000
  70
    32
  0
VERTEX
  8
01
  5
C7F0
 10
912.128
 20
-1408.73
 30
0.000000
  70
    32
  0
VERTEX
  8
01
  5
C7F1
 10
912.106
 20
-1408.88
 30
0.000000
  70
    32
  0
VERTEX
  8
01
  5
C7F2
 10
912.085
 20
-1409.04
 30
0.000000
  70
    32
  0
VERTEX
  8
01
  5
C7F3
 10
912.065
 20
-1409.20
 30
0.000000
  70
    32
  0
VERTEX
  8
01
  5
C7F4
 10
912.046
 20
-1409.35
 30
0.000000
  70
    32
  0
VERTEX
  8
01
  5
C7F5
 10
912.028
 20
-1409.51
 30
0.000000
  70
    32
  0
VERTEX
  8
01
  5
C7F6
 10
912.010
 20
-1409.67
 30
0.000000
  70
    32
  0
VERTEX
  8
01
  5
C7F7
 10
911.993
 20
-1409.83
 30
0.000000
  70
    32
  0
VERTEX
  8
01
  5
C7F8
 10
911.977
 20
-1409.98
 30
0.000000
  70
    32
  0
VERTEX
  8
01
  5
C7F9
 10
911.961
 20
-1410.14
 30
0.000000
  70
    32
  0
VERTEX
  8
01
  5
C7FA
 10
911.946
 20
-1410.30
 30
0.000000
  70
    32
  0
VERTEX
  8
01
  5
C7FB
 10
911.933
 20
-1410.46
 30
0.000000
  70
    32
  0
VERTEX
  8
01
  5
C7FC
 10
911.919
 20
-1410.63
 30
0.000000
  70
    32
  0
VERTEX
  8
01
  5
C7FD
 10
911.907
 20
-1410.79
 30
0.000000
  70
    32
  0
VERTEX
  8
01
  5
C7FE
 10
911.896
 20
-1410.95
 30
0.000000
  70
    32
  0
VERTEX
  8
01
  5
C7FF
 10
911.885
 20
-1411.11
 30
0.000000
  70
    32
  0
VERTEX
  8
01
  5
C800
 10
911.875
 20
-1411.27
 30
0.000000
  70
    32
  0
VERTEX
  8
01
  5
C801
 10
911.866
 20
-1411.43
 30
0.000000
  70
    32
  0
VERTEX
  8
01
  5
C802
 10
911.857
 20
-1411.60
 30
0.000000
  70
    32
  0
VERTEX
  8
01
  5
C803
 10
911.850
 20
-1411.76
 30
0.000000
  70
    32
  0
VERTEX
  8
01
  5
C804
 10
911.843
 20
-1411.92
 30
0.000000
  70
    32
  0
VERTEX
  8
01
  5
C805
 10
911.837
 20
-1412.09
 30
0.000000
  70
    32
  0
VERTEX
  8
01
  5
C806
 10
911.832
 20
-1412.25
 30
0.000000
  70
    32
  0
VERTEX
  8
01
  5
C807
 10
911.827
 20
-1412.41
 30
0.000000
  70
    32
  0
VERTEX
  8
01
  5
C808
 10
911.824
 20
-1412.58
 30
0.000000
  70
    32
  0
VERTEX
  8
01
  5
C809
 10
911.821
 20
-1412.74
 30
0.000000
  70
    32
  0
VERTEX
  8
01
  5
C80A
 10
911.819
 20
-1412.91
 30
0.000000
  70
    32
  0
VERTEX
  8
01
  5
C80B
 10
911.818
 20
-1413.07
 30
0.000000
  70
    32
  0
VERTEX
  8
01
  5
C80C
 10
911.817
 20
-1413.23
 30
0.000000
  70
    32
  0
SEQEND
  8
01
  5
C80D
  0
ARC
  5
BA33
  8
01
 10
913.34191227591305
 20
-1426.128865927516
 30
0.0
 40
28.416631617726772
 50
77.912010037182753
 51
122.5808157056655
  0
LINE
  5
BAA7
  8
01
 10
805.18766916632353
 20
-1402.184081597745
 30
0.0
 11
770.33546042796365
 21
-1402.184081597745
 31
0.0
  0
LINE
  5
BAA8
  8
01
 10
805.18766916632353
 20
-1424.2840815977429
 30
0.0
 11
758.43099855918695
 21
-1424.2840815977429
 31
0.0
  0
LINE
  5
BAA9
  8
01
 10
805.18766916632353
 20
-1402.184081597745
 30
0.0
 11
805.18766916632353
 21
-1424.2840815977429
 31
0.0
  0
LINE
  5
BAAA
  8
01
 10
805.18766916632353
 20
-1405.2840815977429
 30
0.0
 11
805.68766916632353
 21
-1405.2840815977429
 31
0.0
  0
LINE
  5
BAAB
  8
01
 10
805.18766916632353
 20
-1421.1840815977439
 30
0.0
 11
805.68766916632353
 21
-1421.1840815977439
 31
0.0
  0
POLYLINE
  5
BAAC
  8
01
 10
740.42238845189388
 20
-1416.605917978374
 30
0.0
 66
     1
 70
     8
  0
VERTEX
  8
01
  5
C80E
 10
740.422
 20
-1416.61
 30
0.000000
  70
    32
  0
VERTEX
  8
01
  5
C80F
 10
740.423
 20
-1416.38
 30
0.000000
  70
    32
  0
VERTEX
  8
01
  5
C810
 10
740.426
 20
-1416.15
 30
0.000000
  70
    32
  0
VERTEX
  8
01
  5
C811
 10
740.430
 20
-1415.92
 30
0.000000
  70
    32
  0
VERTEX
  8
01
  5
C812
 10
740.435
 20
-1415.69
 30
0.000000
  70
    32
  0
VERTEX
  8
01
  5
C813
 10
740.443
 20
-1415.46
 30
0.000000
  70
    32
  0
VERTEX
  8
01
  5
C814
 10
740.452
 20
-1415.23
 30
0.000000
  70
    32
  0
VERTEX
  8
01
  5
C815
 10
740.462
 20
-1415.01
 30
0.000000
  70
    32
  0
VERTEX
  8
01
  5
C816
 10
740.475
 20
-1414.78
 30
0.000000
  70
    32
  0
VERTEX
  8
01
  5
C817
 10
740.488
 20
-1414.55
 30
0.000000
  70
    32
  0
VERTEX
  8
01
  5
C818
 10
740.504
 20
-1414.32
 30
0.000000
  70
    32
  0
VERTEX
  8
01
  5
C819
 10
740.521
 20
-1414.10
 30
0.000000
  70
    32
  0
VERTEX
  8
01
  5
C81A
 10
740.540
 20
-1413.87
 30
0.000000
  70
    32
  0
VERTEX
  8
01
  5
C81B
 10
740.560
 20
-1413.64
 30
0.000000
  70
    32
  0
VERTEX
  8
01
  5
C81C
 10
740.582
 20
-1413.42
 30
0.000000
  70
    32
  0
VERTEX
  8
01
  5
C81D
 10
740.605
 20
-1413.19
 30
0.000000
  70
    32
  0
VERTEX
  8
01
  5
C81E
 10
740.630
 20
-1412.97
 30
0.000000
  70
    32
  0
VERTEX
  8
01
  5
C81F
 10
740.657
 20
-1412.75
 30
0.000000
  70
    32
  0
VERTEX
  8
01
  5
C820
 10
740.685
 20
-1412.52
 30
0.000000
  70
    32
  0
VERTEX
  8
01
  5
C821
 10
740.715
 20
-1412.30
 30
0.000000
  70
    32
  0
VERTEX
  8
01
  5
C822
 10
740.747
 20
-1412.08
 30
0.000000
  70
    32
  0
VERTEX
  8
01
  5
C823
 10
740.780
 20
-1411.86
 30
0.000000
  70
    32
  0
VERTEX
  8
01
  5
C824
 10
740.815
 20
-1411.63
 30
0.000000
  70
    32
  0
VERTEX
  8
01
  5
C825
 10
740.851
 20
-1411.41
 30
0.000000
  70
    32
  0
VERTEX
  8
01
  5
C826
 10
740.889
 20
-1411.19
 30
0.000000
  70
    32
  0
VERTEX
  8
01
  5
C827
 10
740.928
 20
-1410.98
 30
0.000000
  70
    32
  0
VERTEX
  8
01
  5
C828
 10
740.969
 20
-1410.76
 30
0.000000
  70
    32
  0
VERTEX
  8
01
  5
C829
 10
741.011
 20
-1410.54
 30
0.000000
  70
    32
  0
VERTEX
  8
01
  5
C82A
 10
741.055
 20
-1410.33
 30
0.000000
  70
    32
  0
VERTEX
  8
01
  5
C82B
 10
741.101
 20
-1410.11
 30
0.000000
  70
    32
  0
VERTEX
  8
01
  5
C82C
 10
741.148
 20
-1409.90
 30
0.000000
  70
    32
  0
VERTEX
  8
01
  5
C82D
 10
741.196
 20
-1409.68
 30
0.000000
  70
    32
  0
VERTEX
  8
01
  5
C82E
 10
741.246
 20
-1409.47
 30
0.000000
  70
    32
  0
VERTEX
  8
01
  5
C82F
 10
741.298
 20
-1409.26
 30
0.000000
  70
    32
  0
VERTEX
  8
01
  5
C830
 10
741.351
 20
-1409.05
 30
0.000000
  70
    32
  0
VERTEX
  8
01
  5
C831
 10
741.406
 20
-1408.84
 30
0.000000
  70
    32
  0
VERTEX
  8
01
  5
C832
 10
741.462
 20
-1408.64
 30
0.000000
  70
    32
  0
VERTEX
  8
01
  5
C833
 10
741.519
 20
-1408.43
 30
0.000000
  70
    32
  0
VERTEX
  8
01
  5
C834
 10
741.578
 20
-1408.22
 30
0.000000
  70
    32
  0
VERTEX
  8
01
  5
C835
 10
741.639
 20
-1408.02
 30
0.000000
  70
    32
  0
VERTEX
  8
01
  5
C836
 10
741.701
 20
-1407.82
 30
0.000000
  70
    32
  0
VERTEX
  8
01
  5
C837
 10
741.764
 20
-1407.62
 30
0.000000
  70
    32
  0
VERTEX
  8
01
  5
C838
 10
741.829
 20
-1407.42
 30
0.000000
  70
    32
  0
VERTEX
  8
01
  5
C839
 10
741.895
 20
-1407.22
 30
0.000000
  70
    32
  0
VERTEX
  8
01
  5
C83A
 10
741.963
 20
-1407.02
 30
0.000000
  70
    32
  0
VERTEX
  8
01
  5
C83B
 10
742.032
 20
-1406.83
 30
0.000000
  70
    32
  0
VERTEX
  8
01
  5
C83C
 10
742.102
 20
-1406.63
 30
0.000000
  70
    32
  0
VERTEX
  8
01
  5
C83D
 10
742.174
 20
-1406.44
 30
0.000000
  70
    32
  0
VERTEX
  8
01
  5
C83E
 10
742.247
 20
-1406.25
 30
0.000000
  70
    32
  0
VERTEX
  8
01
  5
C83F
 10
742.321
 20
-1406.06
 30
0.000000
  70
    32
  0
VERTEX
  8
01
  5
C840
 10
742.397
 20
-1405.87
 30
0.000000
  70
    32
  0
VERTEX
  8
01
  5
C841
 10
742.474
 20
-1405.69
 30
0.000000
  70
    32
  0
VERTEX
  8
01
  5
C842
 10
742.553
 20
-1405.50
 30
0.000000
  70
    32
  0
VERTEX
  8
01
  5
C843
 10
742.633
 20
-1405.32
 30
0.000000
  70
    32
  0
VERTEX
  8
01
  5
C844
 10
742.714
 20
-1405.14
 30
0.000000
  70
    32
  0
VERTEX
  8
01
  5
C845
 10
742.796
 20
-1404.96
 30
0.000000
  70
    32
  0
VERTEX
  8
01
  5
C846
 10
742.880
 20
-1404.78
 30
0.000000
  70
    32
  0
VERTEX
  8
01
  5
C847
 10
742.965
 20
-1404.60
 30
0.000000
  70
    32
  0
VERTEX
  8
01
  5
C848
 10
743.051
 20
-1404.43
 30
0.000000
  70
    32
  0
VERTEX
  8
01
  5
C849
 10
743.138
 20
-1404.26
 30
0.000000
  70
    32
  0
VERTEX
  8
01
  5
C84A
 10
743.227
 20
-1404.09
 30
0.000000
  70
    32
  0
VERTEX
  8
01
  5
C84B
 10
743.317
 20
-1403.92
 30
0.000000
  70
    32
  0
VERTEX
  8
01
  5
C84C
 10
743.408
 20
-1403.75
 30
0.000000
  70
    32
  0
VERTEX
  8
01
  5
C84D
 10
743.500
 20
-1403.59
 30
0.000000
  70
    32
  0
VERTEX
  8
01
  5
C84E
 10
743.593
 20
-1403.43
 30
0.000000
  70
    32
  0
VERTEX
  8
01
  5
C84F
 10
743.688
 20
-1403.26
 30
0.000000
  70
    32
  0
VERTEX
  8
01
  5
C850
 10
743.784
 20
-1403.11
 30
0.000000
  70
    32
  0
VERTEX
  8
01
  5
C851
 10
743.880
 20
-1402.95
 30
0.000000
  70
    32
  0
VERTEX
  8
01
  5
C852
 10
743.978
 20
-1402.79
 30
0.000000
  70
    32
  0
VERTEX
  8
01
  5
C853
 10
744.077
 20
-1402.64
 30
0.000000
  70
    32
  0
VERTEX
  8
01
  5
C854
 10
744.177
 20
-1402.49
 30
0.000000
  70
    32
  0
VERTEX
  8
01
  5
C855
 10
744.278
 20
-1402.34
 30
0.000000
  70
    32
  0
VERTEX
  8
01
  5
C856
 10
744.381
 20
-1402.20
 30
0.000000
  70
    32
  0
VERTEX
  8
01
  5
C857
 10
744.484
 20
-1402.05
 30
0.000000
  70
    32
  0
VERTEX
  8
01
  5
C858
 10
744.588
 20
-1401.91
 30
0.000000
  70
    32
  0
VERTEX
  8
01
  5
C859
 10
744.693
 20
-1401.77
 30
0.000000
  70
    32
  0
VERTEX
  8
01
  5
C85A
 10
744.799
 20
-1401.63
 30
0.000000
  70
    32
  0
VERTEX
  8
01
  5
C85B
 10
744.907
 20
-1401.50
 30
0.000000
  70
    32
  0
VERTEX
  8
01
  5
C85C
 10
745.015
 20
-1401.37
 30
0.000000
  70
    32
  0
VERTEX
  8
01
  5
C85D
 10
745.124
 20
-1401.24
 30
0.000000
  70
    32
  0
VERTEX
  8
01
  5
C85E
 10
745.234
 20
-1401.11
 30
0.000000
  70
    32
  0
VERTEX
  8
01
  5
C85F
 10
745.345
 20
-1400.98
 30
0.000000
  70
    32
  0
VERTEX
  8
01
  5
C860
 10
745.457
 20
-1400.86
 30
0.000000
  70
    32
  0
VERTEX
  8
01
  5
C861
 10
745.569
 20
-1400.74
 30
0.000000
  70
    32
  0
VERTEX
  8
01
  5
C862
 10
745.683
 20
-1400.62
 30
0.000000
  70
    32
  0
VERTEX
  8
01
  5
C863
 10
745.797
 20
-1400.50
 30
0.000000
  70
    32
  0
VERTEX
  8
01
  5
C864
 10
745.912
 20
-1400.39
 30
0.000000
  70
    32
  0
VERTEX
  8
01
  5
C865
 10
746.028
 20
-1400.28
 30
0.000000
  70
    32
  0
VERTEX
  8
01
  5
C866
 10
746.145
 20
-1400.17
 30
0.000000
  70
    32
  0
VERTEX
  8
01
  5
C867
 10
746.263
 20
-1400.06
 30
0.000000
  70
    32
  0
VERTEX
  8
01
  5
C868
 10
746.381
 20
-1399.96
 30
0.000000
  70
    32
  0
VERTEX
  8
01
  5
C869
 10
746.500
 20
-1399.85
 30
0.000000
  70
    32
  0
VERTEX
  8
01
  5
C86A
 10
746.620
 20
-1399.76
 30
0.000000
  70
    32
  0
VERTEX
  8
01
  5
C86B
 10
746.740
 20
-1399.66
 30
0.000000
  70
    32
  0
VERTEX
  8
01
  5
C86C
 10
746.861
 20
-1399.56
 30
0.000000
  70
    32
  0
VERTEX
  8
01
  5
C86D
 10
746.983
 20
-1399.47
 30
0.000000
  70
    32
  0
VERTEX
  8
01
  5
C86E
 10
747.106
 20
-1399.38
 30
0.000000
  70
    32
  0
VERTEX
  8
01
  5
C86F
 10
747.229
 20
-1399.30
 30
0.000000
  70
    32
  0
VERTEX
  8
01
  5
C870
 10
747.352
 20
-1399.21
 30
0.000000
  70
    32
  0
VERTEX
  8
01
  5
C871
 10
747.477
 20
-1399.13
 30
0.000000
  70
    32
  0
VERTEX
  8
01
  5
C872
 10
747.601
 20
-1399.06
 30
0.000000
  70
    32
  0
VERTEX
  8
01
  5
C873
 10
747.727
 20
-1398.98
 30
0.000000
  70
    32
  0
VERTEX
  8
01
  5
C874
 10
747.853
 20
-1398.91
 30
0.000000
  70
    32
  0
VERTEX
  8
01
  5
C875
 10
747.979
 20
-1398.84
 30
0.000000
  70
    32
  0
VERTEX
  8
01
  5
C876
 10
748.106
 20
-1398.77
 30
0.000000
  70
    32
  0
VERTEX
  8
01
  5
C877
 10
748.233
 20
-1398.70
 30
0.000000
  70
    32
  0
VERTEX
  8
01
  5
C878
 10
748.361
 20
-1398.64
 30
0.000000
  70
    32
  0
VERTEX
  8
01
  5
C879
 10
748.489
 20
-1398.58
 30
0.000000
  70
    32
  0
VERTEX
  8
01
  5
C87A
 10
748.618
 20
-1398.52
 30
0.000000
  70
    32
  0
VERTEX
  8
01
  5
C87B
 10
748.747
 20
-1398.47
 30
0.000000
  70
    32
  0
VERTEX
  8
01
  5
C87C
 10
748.877
 20
-1398.42
 30
0.000000
  70
    32
  0
VERTEX
  8
01
  5
C87D
 10
749.006
 20
-1398.37
 30
0.000000
  70
    32
  0
VERTEX
  8
01
  5
C87E
 10
749.137
 20
-1398.32
 30
0.000000
  70
    32
  0
VERTEX
  8
01
  5
C87F
 10
749.267
 20
-1398.28
 30
0.000000
  70
    32
  0
VERTEX
  8
01
  5
C880
 10
749.398
 20
-1398.24
 30
0.000000
  70
    32
  0
VERTEX
  8
01
  5
C881
 10
749.529
 20
-1398.20
 30
0.000000
  70
    32
  0
VERTEX
  8
01
  5
C882
 10
749.660
 20
-1398.17
 30
0.000000
  70
    32
  0
VERTEX
  8
01
  5
C883
 10
749.792
 20
-1398.13
 30
0.000000
  70
    32
  0
VERTEX
  8
01
  5
C884
 10
749.923
 20
-1398.11
 30
0.000000
  70
    32
  0
VERTEX
  8
01
  5
C885
 10
750.055
 20
-1398.08
 30
0.000000
  70
    32
  0
VERTEX
  8
01
  5
C886
 10
750.188
 20
-1398.06
 30
0.000000
  70
    32
  0
VERTEX
  8
01
  5
C887
 10
750.320
 20
-1398.03
 30
0.000000
  70
    32
  0
VERTEX
  8
01
  5
C888
 10
750.452
 20
-1398.02
 30
0.000000
  70
    32
  0
VERTEX
  8
01
  5
C889
 10
750.585
 20
-1398.00
 30
0.000000
  70
    32
  0
VERTEX
  8
01
  5
C88A
 10
750.717
 20
-1397.99
 30
0.000000
  70
    32
  0
VERTEX
  8
01
  5
C88B
 10
750.850
 20
-1397.98
 30
0.000000
  70
    32
  0
VERTEX
  8
01
  5
C88C
 10
750.983
 20
-1397.97
 30
0.000000
  70
    32
  0
VERTEX
  8
01
  5
C88D
 10
751.116
 20
-1397.97
 30
0.000000
  70
    32
  0
VERTEX
  8
01
  5
C88E
 10
751.249
 20
-1397.97
 30
0.000000
  70
    32
  0
SEQEND
  8
01
  5
C88F
  0
POLYLINE
  5
BAAD
  8
01
 10
760.30412433952802
 20
-1413.2340815977441
 30
0.0
 66
     1
 70
     8
  0
VERTEX
  8
01
  5
C890
 10
760.304
 20
-1413.23
 30
0.000000
  70
    32
  0
VERTEX
  8
01
  5
C891
 10
760.304
 20
-1413.51
 30
0.000000
  70
    32
  0
VERTEX
  8
01
  5
C892
 10
760.302
 20
-1413.78
 30
0.000000
  70
    32
  0
VERTEX
  8
01
  5
C893
 10
760.299
 20
-1414.05
 30
0.000000
  70
    32
  0
VERTEX
  8
01
  5
C894
 10
760.295
 20
-1414.32
 30
0.000000
  70
    32
  0
VERTEX
  8
01
  5
C895
 10
760.290
 20
-1414.59
 30
0.000000
  70
    32
  0
VERTEX
  8
01
  5
C896
 10
760.284
 20
-1414.86
 30
0.000000
  70
    32
  0
VERTEX
  8
01
  5
C897
 10
760.277
 20
-1415.12
 30
0.000000
  70
    32
  0
VERTEX
  8
01
  5
C898
 10
760.268
 20
-1415.39
 30
0.000000
  70
    32
  0
VERTEX
  8
01
  5
C899
 10
760.259
 20
-1415.66
 30
0.000000
  70
    32
  0
VERTEX
  8
01
  5
C89A
 10
760.248
 20
-1415.92
 30
0.000000
  70
    32
  0
VERTEX
  8
01
  5
C89B
 10
760.236
 20
-1416.18
 30
0.000000
  70
    32
  0
VERTEX
  8
01
  5
C89C
 10
760.223
 20
-1416.44
 30
0.000000
  70
    32
  0
VERTEX
  8
01
  5
C89D
 10
760.210
 20
-1416.70
 30
0.000000
  70
    32
  0
VERTEX
  8
01
  5
C89E
 10
760.195
 20
-1416.96
 30
0.000000
  70
    32
  0
VERTEX
  8
01
  5
C89F
 10
760.179
 20
-1417.21
 30
0.000000
  70
    32
  0
VERTEX
  8
01
  5
C8A0
 10
760.162
 20
-1417.46
 30
0.000000
  70
    32
  0
VERTEX
  8
01
  5
C8A1
 10
760.143
 20
-1417.71
 30
0.000000
  70
    32
  0
VERTEX
  8
01
  5
C8A2
 10
760.124
 20
-1417.96
 30
0.000000
  70
    32
  0
VERTEX
  8
01
  5
C8A3
 10
760.104
 20
-1418.20
 30
0.000000
  70
    32
  0
VERTEX
  8
01
  5
C8A4
 10
760.083
 20
-1418.44
 30
0.000000
  70
    32
  0
VERTEX
  8
01
  5
C8A5
 10
760.061
 20
-1418.68
 30
0.000000
  70
    32
  0
VERTEX
  8
01
  5
C8A6
 10
760.038
 20
-1418.91
 30
0.000000
  70
    32
  0
VERTEX
  8
01
  5
C8A7
 10
760.014
 20
-1419.15
 30
0.000000
  70
    32
  0
VERTEX
  8
01
  5
C8A8
 10
759.988
 20
-1419.37
 30
0.000000
  70
    32
  0
VERTEX
  8
01
  5
C8A9
 10
759.962
 20
-1419.60
 30
0.000000
  70
    32
  0
VERTEX
  8
01
  5
C8AA
 10
759.936
 20
-1419.82
 30
0.000000
  70
    32
  0
VERTEX
  8
01
  5
C8AB
 10
759.908
 20
-1420.03
 30
0.000000
  70
    32
  0
VERTEX
  8
01
  5
C8AC
 10
759.879
 20
-1420.24
 30
0.000000
  70
    32
  0
VERTEX
  8
01
  5
C8AD
 10
759.849
 20
-1420.45
 30
0.000000
  70
    32
  0
VERTEX
  8
01
  5
C8AE
 10
759.819
 20
-1420.65
 30
0.000000
  70
    32
  0
VERTEX
  8
01
  5
C8AF
 10
759.788
 20
-1420.85
 30
0.000000
  70
    32
  0
VERTEX
  8
01
  5
C8B0
 10
759.755
 20
-1421.05
 30
0.000000
  70
    32
  0
VERTEX
  8
01
  5
C8B1
 10
759.723
 20
-1421.24
 30
0.000000
  70
    32
  0
VERTEX
  8
01
  5
C8B2
 10
759.689
 20
-1421.42
 30
0.000000
  70
    32
  0
VERTEX
  8
01
  5
C8B3
 10
759.654
 20
-1421.60
 30
0.000000
  70
    32
  0
VERTEX
  8
01
  5
C8B4
 10
759.619
 20
-1421.78
 30
0.000000
  70
    32
  0
VERTEX
  8
01
  5
C8B5
 10
759.583
 20
-1421.95
 30
0.000000
  70
    32
  0
VERTEX
  8
01
  5
C8B6
 10
759.547
 20
-1422.11
 30
0.000000
  70
    32
  0
VERTEX
  8
01
  5
C8B7
 10
759.510
 20
-1422.27
 30
0.000000
  70
    32
  0
VERTEX
  8
01
  5
C8B8
 10
759.472
 20
-1422.42
 30
0.000000
  70
    32
  0
VERTEX
  8
01
  5
C8B9
 10
759.433
 20
-1422.57
 30
0.000000
  70
    32
  0
VERTEX
  8
01
  5
C8BA
 10
759.394
 20
-1422.71
 30
0.000000
  70
    32
  0
VERTEX
  8
01
  5
C8BB
 10
759.354
 20
-1422.85
 30
0.000000
  70
    32
  0
VERTEX
  8
01
  5
C8BC
 10
759.314
 20
-1422.98
 30
0.000000
  70
    32
  0
VERTEX
  8
01
  5
C8BD
 10
759.273
 20
-1423.10
 30
0.000000
  70
    32
  0
VERTEX
  8
01
  5
C8BE
 10
759.232
 20
-1423.22
 30
0.000000
  70
    32
  0
VERTEX
  8
01
  5
C8BF
 10
759.190
 20
-1423.34
 30
0.000000
  70
    32
  0
VERTEX
  8
01
  5
C8C0
 10
759.148
 20
-1423.44
 30
0.000000
  70
    32
  0
VERTEX
  8
01
  5
C8C1
 10
759.105
 20
-1423.54
 30
0.000000
  70
    32
  0
VERTEX
  8
01
  5
C8C2
 10
759.062
 20
-1423.64
 30
0.000000
  70
    32
  0
VERTEX
  8
01
  5
C8C3
 10
759.019
 20
-1423.73
 30
0.000000
  70
    32
  0
VERTEX
  8
01
  5
C8C4
 10
758.975
 20
-1423.81
 30
0.000000
  70
    32
  0
VERTEX
  8
01
  5
C8C5
 10
758.931
 20
-1423.88
 30
0.000000
  70
    32
  0
VERTEX
  8
01
  5
C8C6
 10
758.886
 20
-1423.95
 30
0.000000
  70
    32
  0
VERTEX
  8
01
  5
C8C7
 10
758.841
 20
-1424.02
 30
0.000000
  70
    32
  0
VERTEX
  8
01
  5
C8C8
 10
758.796
 20
-1424.07
 30
0.000000
  70
    32
  0
VERTEX
  8
01
  5
C8C9
 10
758.751
 20
-1424.12
 30
0.000000
  70
    32
  0
VERTEX
  8
01
  5
C8CA
 10
758.706
 20
-1424.16
 30
0.000000
  70
    32
  0
VERTEX
  8
01
  5
C8CB
 10
758.660
 20
-1424.20
 30
0.000000
  70
    32
  0
VERTEX
  8
01
  5
C8CC
 10
758.615
 20
-1424.23
 30
0.000000
  70
    32
  0
VERTEX
  8
01
  5
C8CD
 10
758.569
 20
-1424.25
 30
0.000000
  70
    32
  0
VERTEX
  8
01
  5
C8CE
 10
758.523
 20
-1424.27
 30
0.000000
  70
    32
  0
VERTEX
  8
01
  5
C8CF
 10
758.477
 20
-1424.28
 30
0.000000
  70
    32
  0
VERTEX
  8
01
  5
C8D0
 10
758.431
 20
-1424.28
 30
0.000000
  70
    32
  0
VERTEX
  8
01
  5
C8D1
 10
758.385
 20
-1424.28
 30
0.000000
  70
    32
  0
VERTEX
  8
01
  5
C8D2
 10
758.339
 20
-1424.27
 30
0.000000
  70
    32
  0
VERTEX
  8
01
  5
C8D3
 10
758.293
 20
-1424.25
 30
0.000000
  70
    32
  0
VERTEX
  8
01
  5
C8D4
 10
758.247
 20
-1424.23
 30
0.000000
  70
    32
  0
VERTEX
  8
01
  5
C8D5
 10
758.202
 20
-1424.20
 30
0.000000
  70
    32
  0
VERTEX
  8
01
  5
C8D6
 10
758.156
 20
-1424.16
 30
0.000000
  70
    32
  0
VERTEX
  8
01
  5
C8D7
 10
758.111
 20
-1424.12
 30
0.000000
  70
    32
  0
VERTEX
  8
01
  5
C8D8
 10
758.066
 20
-1424.07
 30
0.000000
  70
    32
  0
VERTEX
  8
01
  5
C8D9
 10
758.021
 20
-1424.02
 30
0.000000
  70
    32
  0
VERTEX
  8
01
  5
C8DA
 10
757.976
 20
-1423.95
 30
0.000000
  70
    32
  0
VERTEX
  8
01
  5
C8DB
 10
757.931
 20
-1423.88
 30
0.000000
  70
    32
  0
VERTEX
  8
01
  5
C8DC
 10
757.887
 20
-1423.81
 30
0.000000
  70
    32
  0
VERTEX
  8
01
  5
C8DD
 10
757.843
 20
-1423.73
 30
0.000000
  70
    32
  0
VERTEX
  8
01
  5
C8DE
 10
757.800
 20
-1423.64
 30
0.000000
  70
    32
  0
VERTEX
  8
01
  5
C8DF
 10
757.757
 20
-1423.54
 30
0.000000
  70
    32
  0
VERTEX
  8
01
  5
C8E0
 10
757.714
 20
-1423.44
 30
0.000000
  70
    32
  0
VERTEX
  8
01
  5
C8E1
 10
757.672
 20
-1423.34
 30
0.000000
  70
    32
  0
VERTEX
  8
01
  5
C8E2
 10
757.630
 20
-1423.22
 30
0.000000
  70
    32
  0
VERTEX
  8
01
  5
C8E3
 10
757.589
 20
-1423.10
 30
0.000000
  70
    32
  0
VERTEX
  8
01
  5
C8E4
 10
757.548
 20
-1422.98
 30
0.000000
  70
    32
  0
VERTEX
  8
01
  5
C8E5
 10
757.508
 20
-1422.85
 30
0.000000
  70
    32
  0
VERTEX
  8
01
  5
C8E6
 10
757.468
 20
-1422.71
 30
0.000000
  70
    32
  0
VERTEX
  8
01
  5
C8E7
 10
757.429
 20
-1422.57
 30
0.000000
  70
    32
  0
VERTEX
  8
01
  5
C8E8
 10
757.390
 20
-1422.42
 30
0.000000
  70
    32
  0
VERTEX
  8
01
  5
C8E9
 10
757.352
 20
-1422.27
 30
0.000000
  70
    32
  0
VERTEX
  8
01
  5
C8EA
 10
757.315
 20
-1422.11
 30
0.000000
  70
    32
  0
VERTEX
  8
01
  5
C8EB
 10
757.279
 20
-1421.95
 30
0.000000
  70
    32
  0
VERTEX
  8
01
  5
C8EC
 10
757.243
 20
-1421.78
 30
0.000000
  70
    32
  0
VERTEX
  8
01
  5
C8ED
 10
757.208
 20
-1421.60
 30
0.000000
  70
    32
  0
VERTEX
  8
01
  5
C8EE
 10
757.173
 20
-1421.42
 30
0.000000
  70
    32
  0
VERTEX
  8
01
  5
C8EF
 10
757.139
 20
-1421.24
 30
0.000000
  70
    32
  0
VERTEX
  8
01
  5
C8F0
 10
757.106
 20
-1421.05
 30
0.000000
  70
    32
  0
VERTEX
  8
01
  5
C8F1
 10
757.074
 20
-1420.85
 30
0.000000
  70
    32
  0
VERTEX
  8
01
  5
C8F2
 10
757.043
 20
-1420.65
 30
0.000000
  70
    32
  0
VERTEX
  8
01
  5
C8F3
 10
757.013
 20
-1420.45
 30
0.000000
  70
    32
  0
VERTEX
  8
01
  5
C8F4
 10
756.983
 20
-1420.24
 30
0.000000
  70
    32
  0
VERTEX
  8
01
  5
C8F5
 10
756.954
 20
-1420.03
 30
0.000000
  70
    32
  0
VERTEX
  8
01
  5
C8F6
 10
756.926
 20
-1419.82
 30
0.000000
  70
    32
  0
VERTEX
  8
01
  5
C8F7
 10
756.900
 20
-1419.60
 30
0.000000
  70
    32
  0
VERTEX
  8
01
  5
C8F8
 10
756.874
 20
-1419.37
 30
0.000000
  70
    32
  0
VERTEX
  8
01
  5
C8F9
 10
756.848
 20
-1419.15
 30
0.000000
  70
    32
  0
VERTEX
  8
01
  5
C8FA
 10
756.824
 20
-1418.91
 30
0.000000
  70
    32
  0
VERTEX
  8
01
  5
C8FB
 10
756.801
 20
-1418.68
 30
0.000000
  70
    32
  0
VERTEX
  8
01
  5
C8FC
 10
756.779
 20
-1418.44
 30
0.000000
  70
    32
  0
VERTEX
  8
01
  5
C8FD
 10
756.758
 20
-1418.20
 30
0.000000
  70
    32
  0
VERTEX
  8
01
  5
C8FE
 10
756.738
 20
-1417.96
 30
0.000000
  70
    32
  0
VERTEX
  8
01
  5
C8FF
 10
756.719
 20
-1417.71
 30
0.000000
  70
    32
  0
VERTEX
  8
01
  5
C900
 10
756.700
 20
-1417.46
 30
0.000000
  70
    32
  0
VERTEX
  8
01
  5
C901
 10
756.683
 20
-1417.21
 30
0.000000
  70
    32
  0
VERTEX
  8
01
  5
C902
 10
756.667
 20
-1416.96
 30
0.000000
  70
    32
  0
VERTEX
  8
01
  5
C903
 10
756.652
 20
-1416.70
 30
0.000000
  70
    32
  0
VERTEX
  8
01
  5
C904
 10
756.639
 20
-1416.44
 30
0.000000
  70
    32
  0
VERTEX
  8
01
  5
C905
 10
756.626
 20
-1416.18
 30
0.000000
  70
    32
  0
VERTEX
  8
01
  5
C906
 10
756.614
 20
-1415.92
 30
0.000000
  70
    32
  0
VERTEX
  8
01
  5
C907
 10
756.603
 20
-1415.66
 30
0.000000
  70
    32
  0
VERTEX
  8
01
  5
C908
 10
756.594
 20
-1415.39
 30
0.000000
  70
    32
  0
VERTEX
  8
01
  5
C909
 10
756.585
 20
-1415.12
 30
0.000000
  70
    32
  0
VERTEX
  8
01
  5
C90A
 10
756.578
 20
-1414.86
 30
0.000000
  70
    32
  0
VERTEX
  8
01
  5
C90B
 10
756.572
 20
-1414.59
 30
0.000000
  70
    32
  0
VERTEX
  8
01
  5
C90C
 10
756.567
 20
-1414.32
 30
0.000000
  70
    32
  0
VERTEX
  8
01
  5
C90D
 10
756.563
 20
-1414.05
 30
0.000000
  70
    32
  0
VERTEX
  8
01
  5
C90E
 10
756.560
 20
-1413.78
 30
0.000000
  70
    32
  0
VERTEX
  8
01
  5
C90F
 10
756.558
 20
-1413.51
 30
0.000000
  70
    32
  0
VERTEX
  8
01
  5
C910
 10
756.558
 20
-1413.23
 30
0.000000
  70
    32
  0
SEQEND
  8
01
  5
C911
  0
POLYLINE
  5
BAAE
  8
01
 10
751.2487079475128
 20
-1397.9653991428445
 30
0.0
 66
     1
 70
     8
  0
VERTEX
  8
01
  5
C912
 10
751.249
 20
-1397.97
 30
0.000000
  70
    32
  0
VERTEX
  8
01
  5
C913
 10
751.360
 20
-1397.97
 30
0.000000
  70
    32
  0
VERTEX
  8
01
  5
C914
 10
751.471
 20
-1397.97
 30
0.000000
  70
    32
  0
VERTEX
  8
01
  5
C915
 10
751.582
 20
-1397.98
 30
0.000000
  70
    32
  0
VERTEX
  8
01
  5
C916
 10
751.693
 20
-1397.98
 30
0.000000
  70
    32
  0
VERTEX
  8
01
  5
C917
 10
751.804
 20
-1397.99
 30
0.000000
  70
    32
  0
VERTEX
  8
01
  5
C918
 10
751.915
 20
-1398.01
 30
0.000000
  70
    32
  0
VERTEX
  8
01
  5
C919
 10
752.026
 20
-1398.02
 30
0.000000
  70
    32
  0
VERTEX
  8
01
  5
C91A
 10
752.136
 20
-1398.04
 30
0.000000
  70
    32
  0
VERTEX
  8
01
  5
C91B
 10
752.247
 20
-1398.06
 30
0.000000
  70
    32
  0
VERTEX
  8
01
  5
C91C
 10
752.357
 20
-1398.08
 30
0.000000
  70
    32
  0
VERTEX
  8
01
  5
C91D
 10
752.467
 20
-1398.10
 30
0.000000
  70
    32
  0
VERTEX
  8
01
  5
C91E
 10
752.577
 20
-1398.13
 30
0.000000
  70
    32
  0
VERTEX
  8
01
  5
C91F
 10
752.687
 20
-1398.16
 30
0.000000
  70
    32
  0
VERTEX
  8
01
  5
C920
 10
752.797
 20
-1398.19
 30
0.000000
  70
    32
  0
VERTEX
  8
01
  5
C921
 10
752.906
 20
-1398.22
 30
0.000000
  70
    32
  0
VERTEX
  8
01
  5
C922
 10
753.015
 20
-1398.26
 30
0.000000
  70
    32
  0
VERTEX
  8
01
  5
C923
 10
753.124
 20
-1398.30
 30
0.000000
  70
    32
  0
VERTEX
  8
01
  5
C924
 10
753.233
 20
-1398.34
 30
0.000000
  70
    32
  0
VERTEX
  8
01
  5
C925
 10
753.341
 20
-1398.38
 30
0.000000
  70
    32
  0
VERTEX
  8
01
  5
C926
 10
753.449
 20
-1398.42
 30
0.000000
  70
    32
  0
VERTEX
  8
01
  5
C927
 10
753.557
 20
-1398.47
 30
0.000000
  70
    32
  0
VERTEX
  8
01
  5
C928
 10
753.664
 20
-1398.52
 30
0.000000
  70
    32
  0
VERTEX
  8
01
  5
C929
 10
753.771
 20
-1398.57
 30
0.000000
  70
    32
  0
VERTEX
  8
01
  5
C92A
 10
753.877
 20
-1398.62
 30
0.000000
  70
    32
  0
VERTEX
  8
01
  5
C92B
 10
753.983
 20
-1398.68
 30
0.000000
  70
    32
  0
VERTEX
  8
01
  5
C92C
 10
754.089
 20
-1398.74
 30
0.000000
  70
    32
  0
VERTEX
  8
01
  5
C92D
 10
754.195
 20
-1398.80
 30
0.000000
  70
    32
  0
VERTEX
  8
01
  5
C92E
 10
754.299
 20
-1398.86
 30
0.000000
  70
    32
  0
VERTEX
  8
01
  5
C92F
 10
754.404
 20
-1398.92
 30
0.000000
  70
    32
  0
VERTEX
  8
01
  5
C930
 10
754.508
 20
-1398.99
 30
0.000000
  70
    32
  0
VERTEX
  8
01
  5
C931
 10
754.611
 20
-1399.06
 30
0.000000
  70
    32
  0
VERTEX
  8
01
  5
C932
 10
754.714
 20
-1399.13
 30
0.000000
  70
    32
  0
VERTEX
  8
01
  5
C933
 10
754.816
 20
-1399.20
 30
0.000000
  70
    32
  0
VERTEX
  8
01
  5
C934
 10
754.918
 20
-1399.28
 30
0.000000
  70
    32
  0
VERTEX
  8
01
  5
C935
 10
755.020
 20
-1399.35
 30
0.000000
  70
    32
  0
VERTEX
  8
01
  5
C936
 10
755.120
 20
-1399.43
 30
0.000000
  70
    32
  0
VERTEX
  8
01
  5
C937
 10
755.221
 20
-1399.51
 30
0.000000
  70
    32
  0
VERTEX
  8
01
  5
C938
 10
755.320
 20
-1399.60
 30
0.000000
  70
    32
  0
VERTEX
  8
01
  5
C939
 10
755.419
 20
-1399.68
 30
0.000000
  70
    32
  0
VERTEX
  8
01
  5
C93A
 10
755.517
 20
-1399.77
 30
0.000000
  70
    32
  0
VERTEX
  8
01
  5
C93B
 10
755.615
 20
-1399.86
 30
0.000000
  70
    32
  0
VERTEX
  8
01
  5
C93C
 10
755.712
 20
-1399.95
 30
0.000000
  70
    32
  0
VERTEX
  8
01
  5
C93D
 10
755.808
 20
-1400.04
 30
0.000000
  70
    32
  0
VERTEX
  8
01
  5
C93E
 10
755.904
 20
-1400.14
 30
0.000000
  70
    32
  0
VERTEX
  8
01
  5
C93F
 10
755.999
 20
-1400.24
 30
0.000000
  70
    32
  0
VERTEX
  8
01
  5
C940
 10
756.093
 20
-1400.33
 30
0.000000
  70
    32
  0
VERTEX
  8
01
  5
C941
 10
756.187
 20
-1400.44
 30
0.000000
  70
    32
  0
VERTEX
  8
01
  5
C942
 10
756.280
 20
-1400.54
 30
0.000000
  70
    32
  0
VERTEX
  8
01
  5
C943
 10
756.372
 20
-1400.64
 30
0.000000
  70
    32
  0
VERTEX
  8
01
  5
C944
 10
756.463
 20
-1400.75
 30
0.000000
  70
    32
  0
VERTEX
  8
01
  5
C945
 10
756.553
 20
-1400.86
 30
0.000000
  70
    32
  0
VERTEX
  8
01
  5
C946
 10
756.643
 20
-1400.97
 30
0.000000
  70
    32
  0
VERTEX
  8
01
  5
C947
 10
756.732
 20
-1401.08
 30
0.000000
  70
    32
  0
VERTEX
  8
01
  5
C948
 10
756.820
 20
-1401.20
 30
0.000000
  70
    32
  0
VERTEX
  8
01
  5
C949
 10
756.907
 20
-1401.31
 30
0.000000
  70
    32
  0
VERTEX
  8
01
  5
C94A
 10
756.993
 20
-1401.43
 30
0.000000
  70
    32
  0
VERTEX
  8
01
  5
C94B
 10
757.079
 20
-1401.55
 30
0.000000
  70
    32
  0
VERTEX
  8
01
  5
C94C
 10
757.163
 20
-1401.67
 30
0.000000
  70
    32
  0
VERTEX
  8
01
  5
C94D
 10
757.247
 20
-1401.80
 30
0.000000
  70
    32
  0
VERTEX
  8
01
  5
C94E
 10
757.330
 20
-1401.92
 30
0.000000
  70
    32
  0
VERTEX
  8
01
  5
C94F
 10
757.412
 20
-1402.05
 30
0.000000
  70
    32
  0
VERTEX
  8
01
  5
C950
 10
757.493
 20
-1402.18
 30
0.000000
  70
    32
  0
VERTEX
  8
01
  5
C951
 10
757.573
 20
-1402.31
 30
0.000000
  70
    32
  0
VERTEX
  8
01
  5
C952
 10
757.652
 20
-1402.44
 30
0.000000
  70
    32
  0
VERTEX
  8
01
  5
C953
 10
757.730
 20
-1402.57
 30
0.000000
  70
    32
  0
VERTEX
  8
01
  5
C954
 10
757.807
 20
-1402.71
 30
0.000000
  70
    32
  0
VERTEX
  8
01
  5
C955
 10
757.883
 20
-1402.84
 30
0.000000
  70
    32
  0
VERTEX
  8
01
  5
C956
 10
757.958
 20
-1402.98
 30
0.000000
  70
    32
  0
VERTEX
  8
01
  5
C957
 10
758.032
 20
-1403.12
 30
0.000000
  70
    32
  0
VERTEX
  8
01
  5
C958
 10
758.106
 20
-1403.26
 30
0.000000
  70
    32
  0
VERTEX
  8
01
  5
C959
 10
758.178
 20
-1403.40
 30
0.000000
  70
    32
  0
VERTEX
  8
01
  5
C95A
 10
758.249
 20
-1403.55
 30
0.000000
  70
    32
  0
VERTEX
  8
01
  5
C95B
 10
758.319
 20
-1403.69
 30
0.000000
  70
    32
  0
VERTEX
  8
01
  5
C95C
 10
758.388
 20
-1403.84
 30
0.000000
  70
    32
  0
VERTEX
  8
01
  5
C95D
 10
758.455
 20
-1403.99
 30
0.000000
  70
    32
  0
VERTEX
  8
01
  5
C95E
 10
758.522
 20
-1404.14
 30
0.000000
  70
    32
  0
VERTEX
  8
01
  5
C95F
 10
758.588
 20
-1404.29
 30
0.000000
  70
    32
  0
VERTEX
  8
01
  5
C960
 10
758.652
 20
-1404.44
 30
0.000000
  70
    32
  0
VERTEX
  8
01
  5
C961
 10
758.716
 20
-1404.60
 30
0.000000
  70
    32
  0
VERTEX
  8
01
  5
C962
 10
758.778
 20
-1404.75
 30
0.000000
  70
    32
  0
VERTEX
  8
01
  5
C963
 10
758.839
 20
-1404.91
 30
0.000000
  70
    32
  0
VERTEX
  8
01
  5
C964
 10
758.899
 20
-1405.07
 30
0.000000
  70
    32
  0
VERTEX
  8
01
  5
C965
 10
758.958
 20
-1405.22
 30
0.000000
  70
    32
  0
VERTEX
  8
01
  5
C966
 10
759.016
 20
-1405.38
 30
0.000000
  70
    32
  0
VERTEX
  8
01
  5
C967
 10
759.072
 20
-1405.55
 30
0.000000
  70
    32
  0
VERTEX
  8
01
  5
C968
 10
759.128
 20
-1405.71
 30
0.000000
  70
    32
  0
VERTEX
  8
01
  5
C969
 10
759.182
 20
-1405.87
 30
0.000000
  70
    32
  0
VERTEX
  8
01
  5
C96A
 10
759.235
 20
-1406.04
 30
0.000000
  70
    32
  0
VERTEX
  8
01
  5
C96B
 10
759.287
 20
-1406.20
 30
0.000000
  70
    32
  0
VERTEX
  8
01
  5
C96C
 10
759.337
 20
-1406.37
 30
0.000000
  70
    32
  0
VERTEX
  8
01
  5
C96D
 10
759.387
 20
-1406.54
 30
0.000000
  70
    32
  0
VERTEX
  8
01
  5
C96E
 10
759.435
 20
-1406.71
 30
0.000000
  70
    32
  0
VERTEX
  8
01
  5
C96F
 10
759.482
 20
-1406.88
 30
0.000000
  70
    32
  0
VERTEX
  8
01
  5
C970
 10
759.527
 20
-1407.05
 30
0.000000
  70
    32
  0
VERTEX
  8
01
  5
C971
 10
759.572
 20
-1407.22
 30
0.000000
  70
    32
  0
VERTEX
  8
01
  5
C972
 10
759.615
 20
-1407.39
 30
0.000000
  70
    32
  0
VERTEX
  8
01
  5
C973
 10
759.657
 20
-1407.56
 30
0.000000
  70
    32
  0
VERTEX
  8
01
  5
C974
 10
759.697
 20
-1407.74
 30
0.000000
  70
    32
  0
VERTEX
  8
01
  5
C975
 10
759.737
 20
-1407.91
 30
0.000000
  70
    32
  0
VERTEX
  8
01
  5
C976
 10
759.775
 20
-1408.09
 30
0.000000
  70
    32
  0
VERTEX
  8
01
  5
C977
 10
759.812
 20
-1408.27
 30
0.000000
  70
    32
  0
VERTEX
  8
01
  5
C978
 10
759.847
 20
-1408.44
 30
0.000000
  70
    32
  0
VERTEX
  8
01
  5
C979
 10
759.881
 20
-1408.62
 30
0.000000
  70
    32
  0
VERTEX
  8
01
  5
C97A
 10
759.914
 20
-1408.80
 30
0.000000
  70
    32
  0
VERTEX
  8
01
  5
C97B
 10
759.946
 20
-1408.98
 30
0.000000
  70
    32
  0
VERTEX
  8
01
  5
C97C
 10
759.976
 20
-1409.16
 30
0.000000
  70
    32
  0
VERTEX
  8
01
  5
C97D
 10
760.005
 20
-1409.34
 30
0.000000
  70
    32
  0
VERTEX
  8
01
  5
C97E
 10
760.033
 20
-1409.52
 30
0.000000
  70
    32
  0
VERTEX
  8
01
  5
C97F
 10
760.059
 20
-1409.71
 30
0.000000
  70
    32
  0
VERTEX
  8
01
  5
C980
 10
760.084
 20
-1409.89
 30
0.000000
  70
    32
  0
VERTEX
  8
01
  5
C981
 10
760.108
 20
-1410.07
 30
0.000000
  70
    32
  0
VERTEX
  8
01
  5
C982
 10
760.130
 20
-1410.26
 30
0.000000
  70
    32
  0
VERTEX
  8
01
  5
C983
 10
760.151
 20
-1410.44
 30
0.000000
  70
    32
  0
VERTEX
  8
01
  5
C984
 10
760.171
 20
-1410.62
 30
0.000000
  70
    32
  0
VERTEX
  8
01
  5
C985
 10
760.189
 20
-1410.81
 30
0.000000
  70
    32
  0
VERTEX
  8
01
  5
C986
 10
760.206
 20
-1410.99
 30
0.000000
  70
    32
  0
VERTEX
  8
01
  5
C987
 10
760.222
 20
-1411.18
 30
0.000000
  70
    32
  0
VERTEX
  8
01
  5
C988
 10
760.236
 20
-1411.37
 30
0.000000
  70
    32
  0
VERTEX
  8
01
  5
C989
 10
760.249
 20
-1411.55
 30
0.000000
  70
    32
  0
VERTEX
  8
01
  5
C98A
 10
760.261
 20
-1411.74
 30
0.000000
  70
    32
  0
VERTEX
  8
01
  5
C98B
 10
760.271
 20
-1411.92
 30
0.000000
  70
    32
  0
VERTEX
  8
01
  5
C98C
 10
760.280
 20
-1412.11
 30
0.000000
  70
    32
  0
VERTEX
  8
01
  5
C98D
 10
760.287
 20
-1412.30
 30
0.000000
  70
    32
  0
VERTEX
  8
01
  5
C98E
 10
760.293
 20
-1412.48
 30
0.000000
  70
    32
  0
VERTEX
  8
01
  5
C98F
 10
760.298
 20
-1412.67
 30
0.000000
  70
    32
  0
VERTEX
  8
01
  5
C990
 10
760.301
 20
-1412.86
 30
0.000000
  70
    32
  0
VERTEX
  8
01
  5
C991
 10
760.303
 20
-1413.05
 30
0.000000
  70
    32
  0
VERTEX
  8
01
  5
C992
 10
760.304
 20
-1413.23
 30
0.000000
  70
    32
  0
SEQEND
  8
01
  5
C993
  0
ARC
  5
BAAF
  8
01
 10
751.78209302966184
 20
-1409.8793793901491
 30
0.0
 40
13.20186386360011
 50
210.631483746773
 51
294.54524589235791
  0
POLYLINE
  5
BAB0
  8
01
 10
751.2487079475128
 20
-1399.8621086707531
 30
0.0
 66
     1
 70
     8
  0
VERTEX
  8
01
  5
C994
 10
751.249
 20
-1399.86
 30
0.000000
  70
    32
  0
VERTEX
  8
01
  5
C995
 10
751.314
 20
-1399.86
 30
0.000000
  70
    32
  0
VERTEX
  8
01
  5
C996
 10
751.379
 20
-1399.87
 30
0.000000
  70
    32
  0
VERTEX
  8
01
  5
C997
 10
751.444
 20
-1399.87
 30
0.000000
  70
    32
  0
VERTEX
  8
01
  5
C998
 10
751.509
 20
-1399.88
 30
0.000000
  70
    32
  0
VERTEX
  8
01
  5
C999
 10
751.574
 20
-1399.89
 30
0.000000
  70
    32
  0
VERTEX
  8
01
  5
C99A
 10
751.639
 20
-1399.90
 30
0.000000
  70
    32
  0
VERTEX
  8
01
  5
C99B
 10
751.704
 20
-1399.91
 30
0.000000
  70
    32
  0
VERTEX
  8
01
  5
C99C
 10
751.769
 20
-1399.93
 30
0.000000
  70
    32
  0
VERTEX
  8
01
  5
C99D
 10
751.834
 20
-1399.94
 30
0.000000
  70
    32
  0
VERTEX
  8
01
  5
C99E
 10
751.899
 20
-1399.96
 30
0.000000
  70
    32
  0
VERTEX
  8
01
  5
C99F
 10
751.963
 20
-1399.98
 30
0.000000
  70
    32
  0
VERTEX
  8
01
  5
C9A0
 10
752.028
 20
-1400.01
 30
0.000000
  70
    32
  0
VERTEX
  8
01
  5
C9A1
 10
752.092
 20
-1400.03
 30
0.000000
  70
    32
  0
VERTEX
  8
01
  5
C9A2
 10
752.156
 20
-1400.06
 30
0.000000
  70
    32
  0
VERTEX
  8
01
  5
C9A3
 10
752.220
 20
-1400.09
 30
0.000000
  70
    32
  0
VERTEX
  8
01
  5
C9A4
 10
752.284
 20
-1400.12
 30
0.000000
  70
    32
  0
VERTEX
  8
01
  5
C9A5
 10
752.348
 20
-1400.15
 30
0.000000
  70
    32
  0
VERTEX
  8
01
  5
C9A6
 10
752.412
 20
-1400.19
 30
0.000000
  70
    32
  0
VERTEX
  8
01
  5
C9A7
 10
752.475
 20
-1400.22
 30
0.000000
  70
    32
  0
VERTEX
  8
01
  5
C9A8
 10
752.539
 20
-1400.26
 30
0.000000
  70
    32
  0
VERTEX
  8
01
  5
C9A9
 10
752.602
 20
-1400.30
 30
0.000000
  70
    32
  0
VERTEX
  8
01
  5
C9AA
 10
752.665
 20
-1400.35
 30
0.000000
  70
    32
  0
VERTEX
  8
01
  5
C9AB
 10
752.727
 20
-1400.39
 30
0.000000
  70
    32
  0
VERTEX
  8
01
  5
C9AC
 10
752.790
 20
-1400.44
 30
0.000000
  70
    32
  0
VERTEX
  8
01
  5
C9AD
 10
752.852
 20
-1400.49
 30
0.000000
  70
    32
  0
VERTEX
  8
01
  5
C9AE
 10
752.914
 20
-1400.54
 30
0.000000
  70
    32
  0
VERTEX
  8
01
  5
C9AF
 10
752.976
 20
-1400.59
 30
0.000000
  70
    32
  0
VERTEX
  8
01
  5
C9B0
 10
753.037
 20
-1400.64
 30
0.000000
  70
    32
  0
VERTEX
  8
01
  5
C9B1
 10
753.099
 20
-1400.70
 30
0.000000
  70
    32
  0
VERTEX
  8
01
  5
C9B2
 10
753.159
 20
-1400.76
 30
0.000000
  70
    32
  0
VERTEX
  8
01
  5
C9B3
 10
753.220
 20
-1400.82
 30
0.000000
  70
    32
  0
VERTEX
  8
01
  5
C9B4
 10
753.280
 20
-1400.88
 30
0.000000
  70
    32
  0
VERTEX
  8
01
  5
C9B5
 10
753.340
 20
-1400.94
 30
0.000000
  70
    32
  0
VERTEX
  8
01
  5
C9B6
 10
753.400
 20
-1401.01
 30
0.000000
  70
    32
  0
VERTEX
  8
01
  5
C9B7
 10
753.460
 20
-1401.08
 30
0.000000
  70
    32
  0
VERTEX
  8
01
  5
C9B8
 10
753.519
 20
-1401.15
 30
0.000000
  70
    32
  0
VERTEX
  8
01
  5
C9B9
 10
753.577
 20
-1401.22
 30
0.000000
  70
    32
  0
VERTEX
  8
01
  5
C9BA
 10
753.636
 20
-1401.29
 30
0.000000
  70
    32
  0
VERTEX
  8
01
  5
C9BB
 10
753.694
 20
-1401.36
 30
0.000000
  70
    32
  0
VERTEX
  8
01
  5
C9BC
 10
753.751
 20
-1401.44
 30
0.000000
  70
    32
  0
VERTEX
  8
01
  5
C9BD
 10
753.809
 20
-1401.52
 30
0.000000
  70
    32
  0
VERTEX
  8
01
  5
C9BE
 10
753.866
 20
-1401.60
 30
0.000000
  70
    32
  0
VERTEX
  8
01
  5
C9BF
 10
753.922
 20
-1401.68
 30
0.000000
  70
    32
  0
VERTEX
  8
01
  5
C9C0
 10
753.978
 20
-1401.76
 30
0.000000
  70
    32
  0
VERTEX
  8
01
  5
C9C1
 10
754.034
 20
-1401.85
 30
0.000000
  70
    32
  0
VERTEX
  8
01
  5
C9C2
 10
754.089
 20
-1401.94
 30
0.000000
  70
    32
  0
VERTEX
  8
01
  5
C9C3
 10
754.144
 20
-1402.03
 30
0.000000
  70
    32
  0
VERTEX
  8
01
  5
C9C4
 10
754.198
 20
-1402.12
 30
0.000000
  70
    32
  0
VERTEX
  8
01
  5
C9C5
 10
754.252
 20
-1402.21
 30
0.000000
  70
    32
  0
VERTEX
  8
01
  5
C9C6
 10
754.306
 20
-1402.30
 30
0.000000
  70
    32
  0
VERTEX
  8
01
  5
C9C7
 10
754.359
 20
-1402.40
 30
0.000000
  70
    32
  0
VERTEX
  8
01
  5
C9C8
 10
754.411
 20
-1402.49
 30
0.000000
  70
    32
  0
VERTEX
  8
01
  5
C9C9
 10
754.463
 20
-1402.59
 30
0.000000
  70
    32
  0
VERTEX
  8
01
  5
C9CA
 10
754.515
 20
-1402.69
 30
0.000000
  70
    32
  0
VERTEX
  8
01
  5
C9CB
 10
754.566
 20
-1402.79
 30
0.000000
  70
    32
  0
VERTEX
  8
01
  5
C9CC
 10
754.617
 20
-1402.90
 30
0.000000
  70
    32
  0
VERTEX
  8
01
  5
C9CD
 10
754.667
 20
-1403.00
 30
0.000000
  70
    32
  0
VERTEX
  8
01
  5
C9CE
 10
754.717
 20
-1403.11
 30
0.000000
  70
    32
  0
VERTEX
  8
01
  5
C9CF
 10
754.766
 20
-1403.22
 30
0.000000
  70
    32
  0
VERTEX
  8
01
  5
C9D0
 10
754.814
 20
-1403.33
 30
0.000000
  70
    32
  0
VERTEX
  8
01
  5
C9D1
 10
754.862
 20
-1403.44
 30
0.000000
  70
    32
  0
VERTEX
  8
01
  5
C9D2
 10
754.910
 20
-1403.55
 30
0.000000
  70
    32
  0
VERTEX
  8
01
  5
C9D3
 10
754.957
 20
-1403.66
 30
0.000000
  70
    32
  0
VERTEX
  8
01
  5
C9D4
 10
755.003
 20
-1403.78
 30
0.000000
  70
    32
  0
VERTEX
  8
01
  5
C9D5
 10
755.049
 20
-1403.90
 30
0.000000
  70
    32
  0
VERTEX
  8
01
  5
C9D6
 10
755.094
 20
-1404.01
 30
0.000000
  70
    32
  0
VERTEX
  8
01
  5
C9D7
 10
755.138
 20
-1404.13
 30
0.000000
  70
    32
  0
VERTEX
  8
01
  5
C9D8
 10
755.183
 20
-1404.25
 30
0.000000
  70
    32
  0
VERTEX
  8
01
  5
C9D9
 10
755.226
 20
-1404.38
 30
0.000000
  70
    32
  0
VERTEX
  8
01
  5
C9DA
 10
755.269
 20
-1404.50
 30
0.000000
  70
    32
  0
VERTEX
  8
01
  5
C9DB
 10
755.311
 20
-1404.62
 30
0.000000
  70
    32
  0
VERTEX
  8
01
  5
C9DC
 10
755.353
 20
-1404.75
 30
0.000000
  70
    32
  0
VERTEX
  8
01
  5
C9DD
 10
755.394
 20
-1404.88
 30
0.000000
  70
    32
  0
VERTEX
  8
01
  5
C9DE
 10
755.434
 20
-1405.01
 30
0.000000
  70
    32
  0
VERTEX
  8
01
  5
C9DF
 10
755.474
 20
-1405.14
 30
0.000000
  70
    32
  0
VERTEX
  8
01
  5
C9E0
 10
755.513
 20
-1405.27
 30
0.000000
  70
    32
  0
VERTEX
  8
01
  5
C9E1
 10
755.552
 20
-1405.40
 30
0.000000
  70
    32
  0
VERTEX
  8
01
  5
C9E2
 10
755.589
 20
-1405.53
 30
0.000000
  70
    32
  0
VERTEX
  8
01
  5
C9E3
 10
755.627
 20
-1405.67
 30
0.000000
  70
    32
  0
VERTEX
  8
01
  5
C9E4
 10
755.663
 20
-1405.81
 30
0.000000
  70
    32
  0
VERTEX
  8
01
  5
C9E5
 10
755.699
 20
-1405.94
 30
0.000000
  70
    32
  0
VERTEX
  8
01
  5
C9E6
 10
755.734
 20
-1406.08
 30
0.000000
  70
    32
  0
VERTEX
  8
01
  5
C9E7
 10
755.769
 20
-1406.22
 30
0.000000
  70
    32
  0
VERTEX
  8
01
  5
C9E8
 10
755.803
 20
-1406.36
 30
0.000000
  70
    32
  0
VERTEX
  8
01
  5
C9E9
 10
755.836
 20
-1406.50
 30
0.000000
  70
    32
  0
VERTEX
  8
01
  5
C9EA
 10
755.868
 20
-1406.64
 30
0.000000
  70
    32
  0
VERTEX
  8
01
  5
C9EB
 10
755.900
 20
-1406.79
 30
0.000000
  70
    32
  0
VERTEX
  8
01
  5
C9EC
 10
755.931
 20
-1406.93
 30
0.000000
  70
    32
  0
VERTEX
  8
01
  5
C9ED
 10
755.961
 20
-1407.08
 30
0.000000
  70
    32
  0
VERTEX
  8
01
  5
C9EE
 10
755.991
 20
-1407.22
 30
0.000000
  70
    32
  0
VERTEX
  8
01
  5
C9EF
 10
756.020
 20
-1407.37
 30
0.000000
  70
    32
  0
VERTEX
  8
01
  5
C9F0
 10
756.048
 20
-1407.52
 30
0.000000
  70
    32
  0
VERTEX
  8
01
  5
C9F1
 10
756.076
 20
-1407.67
 30
0.000000
  70
    32
  0
VERTEX
  8
01
  5
C9F2
 10
756.102
 20
-1407.82
 30
0.000000
  70
    32
  0
VERTEX
  8
01
  5
C9F3
 10
756.128
 20
-1407.97
 30
0.000000
  70
    32
  0
VERTEX
  8
01
  5
C9F4
 10
756.154
 20
-1408.12
 30
0.000000
  70
    32
  0
VERTEX
  8
01
  5
C9F5
 10
756.178
 20
-1408.27
 30
0.000000
  70
    32
  0
VERTEX
  8
01
  5
C9F6
 10
756.202
 20
-1408.42
 30
0.000000
  70
    32
  0
VERTEX
  8
01
  5
C9F7
 10
756.225
 20
-1408.58
 30
0.000000
  70
    32
  0
VERTEX
  8
01
  5
C9F8
 10
756.248
 20
-1408.73
 30
0.000000
  70
    32
  0
VERTEX
  8
01
  5
C9F9
 10
756.269
 20
-1408.88
 30
0.000000
  70
    32
  0
VERTEX
  8
01
  5
C9FA
 10
756.290
 20
-1409.04
 30
0.000000
  70
    32
  0
VERTEX
  8
01
  5
C9FB
 10
756.310
 20
-1409.20
 30
0.000000
  70
    32
  0
VERTEX
  8
01
  5
C9FC
 10
756.329
 20
-1409.35
 30
0.000000
  70
    32
  0
VERTEX
  8
01
  5
C9FD
 10
756.348
 20
-1409.51
 30
0.000000
  70
    32
  0
VERTEX
  8
01
  5
C9FE
 10
756.366
 20
-1409.67
 30
0.000000
  70
    32
  0
VERTEX
  8
01
  5
C9FF
 10
756.383
 20
-1409.83
 30
0.000000
  70
    32
  0
VERTEX
  8
01
  5
CA00
 10
756.399
 20
-1409.98
 30
0.000000
  70
    32
  0
VERTEX
  8
01
  5
CA01
 10
756.414
 20
-1410.14
 30
0.000000
  70
    32
  0
VERTEX
  8
01
  5
CA02
 10
756.429
 20
-1410.30
 30
0.000000
  70
    32
  0
VERTEX
  8
01
  5
CA03
 10
756.443
 20
-1410.46
 30
0.000000
  70
    32
  0
VERTEX
  8
01
  5
CA04
 10
756.456
 20
-1410.63
 30
0.000000
  70
    32
  0
VERTEX
  8
01
  5
CA05
 10
756.468
 20
-1410.79
 30
0.000000
  70
    32
  0
VERTEX
  8
01
  5
CA06
 10
756.480
 20
-1410.95
 30
0.000000
  70
    32
  0
VERTEX
  8
01
  5
CA07
 10
756.490
 20
-1411.11
 30
0.000000
  70
    32
  0
VERTEX
  8
01
  5
CA08
 10
756.500
 20
-1411.27
 30
0.000000
  70
    32
  0
VERTEX
  8
01
  5
CA09
 10
756.510
 20
-1411.43
 30
0.000000
  70
    32
  0
VERTEX
  8
01
  5
CA0A
 10
756.518
 20
-1411.60
 30
0.000000
  70
    32
  0
VERTEX
  8
01
  5
CA0B
 10
756.526
 20
-1411.76
 30
0.000000
  70
    32
  0
VERTEX
  8
01
  5
CA0C
 10
756.532
 20
-1411.92
 30
0.000000
  70
    32
  0
VERTEX
  8
01
  5
CA0D
 10
756.538
 20
-1412.09
 30
0.000000
  70
    32
  0
VERTEX
  8
01
  5
CA0E
 10
756.543
 20
-1412.25
 30
0.000000
  70
    32
  0
VERTEX
  8
01
  5
CA0F
 10
756.548
 20
-1412.41
 30
0.000000
  70
    32
  0
VERTEX
  8
01
  5
CA10
 10
756.551
 20
-1412.58
 30
0.000000
  70
    32
  0
VERTEX
  8
01
  5
CA11
 10
756.554
 20
-1412.74
 30
0.000000
  70
    32
  0
VERTEX
  8
01
  5
CA12
 10
756.556
 20
-1412.91
 30
0.000000
  70
    32
  0
VERTEX
  8
01
  5
CA13
 10
756.557
 20
-1413.07
 30
0.000000
  70
    32
  0
VERTEX
  8
01
  5
CA14
 10
756.558
 20
-1413.23
 30
0.000000
  70
    32
  0
SEQEND
  8
01
  5
CA15
  0
ARC
  5
BAB1
  8
01
 10
755.03342605673402
 20
-1426.128865927516
 30
0.0
 40
28.416631617726772
 50
57.419184294334322
 51
102.0879899628173
  0
ARC
  5
BAB3
  8
01
 10
562.25510769667562
 20
-1414.8857659833241
 30
0.0
 40
12.11544485022983
 50
151.80517535391331
 51
179.73636418046581
  0
ARC
  5
BAB4
  8
01
 10
564.18640630406844
 20
-1415.015399142844
 30
0.0
 40
14.050000000000001
 50
179.9925577258573
 51
210.0000000000239
  0
LINE
  5
BAB5
  8
01
 10
550.13976735535289
 20
-1414.8320857258741
 30
0.0
 11
550.13638109049134
 21
-1415.016311368973
 31
0.0
  0
ARC
  5
BAB6
  8
01
 10
553.78595018960732
 20
-1411.652244458267
 30
0.0
 40
3.0499999999999989
 50
107.7726407989914
 51
159.1031602995343
  0
ARC
  5
BAB7
  8
01
 10
621.81768814347015
 20
-1623.894443948195
 30
0.0
 40
225.92904480535049
 50
78.627861946457614
 51
108.11324779854471
  0
ARC
  5
BAB8
  8
01
 10
664.18767316632329
 20
-1413.2340815977441
 30
0.0
 40
11.050000000000001
 50
254.2478015437525
 51
78.627861946457614
  0
ARC
  5
BAB9
  8
01
 10
535.44258337390966
 20
-1869.662698692008
 30
0.0
 40
463.18873802994909
 50
74.247801543752573
 51
82.297983016992518
  0
ARC
  5
BABA
  8
01
 10
594.84591371371243
 20
-1430.4226467444171
 30
0.0
 40
19.949999999999999
 50
82.297983016992518
 51
107.6387900515597
  0
ARC
  5
BABB
  8
01
 10
634.2378825563701
 20
-1554.310793032507
 30
0.0
 40
149.94999999999999
 50
101.1669260155722
 51
113.3703949493334
  0
ARC
  5
BABC
  8
01
 10
535.06947538710301
 20
-1324.8208651064419
 30
0.0
 40
100.05
 50
281.0150954219539
 51
293.37039494933339
  0
ARC
  5
BABD
  8
01
 10
553.79410145865575
 20
-1421.015399142844
 30
0.0
 40
2.0499999999999989
 50
210.0000000000239
 51
327.2886183194185
  0
ARC
  5
BABE
  8
01
 10
552.89027597984921
 20
-1411.1334187816501
 30
0.0
 40
2.0344389403939038
 50
36.085053900520002
 51
136.39526313607811
  0
ARC
  5
BABF
  8
01
 10
555.82732255266626
 20
-1416.605917978374
 30
0.0
 40
1.8
 50
348.9991146424602
 51
16.098330509343409
  0
ARC
  5
BAC0
  8
01
 10
538.53315233752789
 20
-1421.5970778205169
 30
0.0
 40
19.800000000000001
 50
16.098330509343409
 51
36.085053900520002
  0
ARC
  5
BAC1
  8
01
 10
543.06620749931972
 20
-1414.125203848278
 30
0.0
 40
14.800000000000001
 50
327.2886183194185
 51
348.9991146424602
  0
ARC
  5
BAC2
  8
01
 10
1022.987734509563
 20
-1168.7342138298061
 30
0.0
 40
1.0
 50
269.99960005341723
 51
359.99960005342041
  0
ARC
  5
BAC3
  8
01
 10
985.38775451047968
 20
-1168.733951367481
 30
0.0
 40
1.0
 50
179.99960005340989
 51
269.99960005341671
  0
ARC
  5
BAC4
  8
01
 10
985.38775451047968
 20
-1117.7342118300639
 30
0.0
 40
1.0
 50
90.000399946581311
 51
180.00039994659011
  0
ARC
  5
BAC5
  8
01
 10
1022.987734509564
 20
-1117.73394936774
 30
0.0
 40
1.0
 50
0.0003999465796399
 51
90.000399946581084
  0
LINE
  5
BAD3
  8
01
 10
996.23778450606562
 20
-1171.7340815987729
 30
0.0
 11
1012.137778506065
 21
-1171.7340815987729
 31
0.0
  0
LINE
  5
BAD4
  8
01
 10
1015.237781506068
 20
-1172.2340815987729
 30
0.0
 11
1015.237781506068
 21
-1201.507911087265
 31
0.0
  0
ARC
  5
BAD5
  8
01
 10
1023.307415082101
 20
-1195.3982709064269
 30
0.0
 40
11.949999999999999
 50
244.84105075448261
 51
268.09360906930431
  0
LINE
  5
BAD6
  8
01
 10
1022.909878499398
 20
-1207.3416567188931
 30
0.0
 11
1116.498928355677
 21
-1210.4567759692011
 31
0.0
  0
ARC
  5
BAD7
  8
01
 10
994.93778150606886
 20
-1215.5970727574729
 30
0.0
 40
1.8
 50
180.0
 51
260.37904022203458
  0
ARC
  5
BAD8
  8
01
 10
1116.439048368323
 20
-1212.2557796899071
 30
0.0
 40
1.8
 50
347.19253780604907
 51
88.093609069304293
  0
ARC
  5
BAD9
  8
01
 10
1109.3062077723
 20
-1234.9840815987729
 30
0.0
 40
1.8
 50
260.37904022203458
 51
337.9605372753839
  0
ARC
  5
BADA
  8
01
 10
972.12121561283129
 20
-1179.4478058305281
 30
0.0
 40
149.80000000000001
 50
337.9605372753839
 51
347.19253780604907
  0
ARC
  5
BADB
  8
01
 10
1020.437781506069
 20
-1201.507911087265
 30
0.0
 40
5.2000000000000002
 50
180.0
 51
244.84105075436429
  0
LINE
  5
BADC
  8
01
 10
1015.237781506068
 20
-1172.2340815987729
 30
0.0
 11
993.13778150606947
 21
-1172.2340815987729
 31
0.0
  0
LINE
  5
BADD
  8
01
 10
1012.137781506069
 20
-1172.2340815987729
 30
0.0
 11
1012.137781506069
 21
-1171.7340815987729
 31
0.0
  0
LINE
  5
BADE
  8
01
 10
996.23778150606904
 20
-1172.2340815987729
 30
0.0
 11
996.23778150606825
 21
-1171.7340815987729
 31
0.0
  0
LINE
  5
BADF
  8
01
 10
993.13778150606947
 20
-1172.2340815987729
 30
0.0
 11
993.13778150607038
 21
-1215.5970727574729
 31
0.0
  0
LINE
  5
BAE0
  8
01
 10
994.63694853243658
 20
-1217.3717556930919
 30
0.0
 11
1109.0053747986669
 21
-1236.758764534391
 31
0.0
  0
LINE
  5
BB3F
  8
01
 10
996.23778450606562
 20
-1114.734081598772
 30
0.0
 11
1001.687781506061
 21
-1114.734081598772
 31
0.0
  0
LINE
  5
BB40
  8
01
 10
1015.237781506068
 20
-1114.234081598772
 30
0.0
 11
1015.237781506068
 21
-1084.960252110279
 31
0.0
  0
ARC
  5
BB41
  8
01
 10
1023.307415082101
 20
-1091.069892291117
 30
0.0
 40
11.949999999999999
 50
91.906390930695991
 51
115.158949245513
  0
LINE
  5
BB42
  8
01
 10
1022.909878499398
 20
-1079.126506478651
 30
0.0
 11
1116.498928355677
 21
-1076.0113872283439
 31
0.0
  0
ARC
  5
BB43
  8
01
 10
994.93778150606886
 20
-1070.8710904400721
 30
0.0
 40
1.8
 50
99.620959777965808
 51
180.0
  0
ARC
  5
BB44
  8
01
 10
1116.439048368323
 20
-1074.2123835076379
 30
0.0
 40
1.8
 50
271.90639093069598
 51
12.807462193951681
  0
ARC
  5
BB45
  8
01
 10
1109.3062077723
 20
-1051.484081598772
 30
0.0
 40
1.8
 50
22.039462724605901
 51
99.620959777965808
  0
ARC
  5
BB46
  8
01
 10
972.12121561283129
 20
-1107.0203573670169
 30
0.0
 40
149.80000000000001
 50
12.807462193951681
 51
22.039462724605901
  0
ARC
  5
BB47
  8
01
 10
1020.437781506069
 20
-1084.960252110279
 30
0.0
 40
5.2000000000000002
 50
115.158949245632
 51
180.0
  0
LINE
  5
BB48
  8
01
 10
1015.237781506068
 20
-1114.234081598772
 30
0.0
 11
1006.6877815060629
 21
-1114.2340815987709
 31
0.0
  0
LINE
  5
BB49
  8
01
 10
1012.137781506069
 20
-1114.234081598772
 30
0.0
 11
1012.137781506069
 21
-1114.734081598772
 31
0.0
  0
LINE
  5
BB4A
  8
01
 10
996.23778150606904
 20
-1114.234081598772
 30
0.0
 11
996.23778150606825
 21
-1114.734081598772
 31
0.0
  0
LINE
  5
BB4B
  8
01
 10
993.13778150606947
 20
-1114.234081598772
 30
0.0
 11
993.13778150607038
 21
-1070.8710904400721
 31
0.0
  0
LINE
  5
BB4C
  8
01
 10
994.63694853243658
 20
-1069.0964075044531
 30
0.0
 11
1109.0053747986669
 21
-1049.709398663153
 31
0.0
  0
LINE
  5
BB4D
  8
01
 10
1001.687781506061
 20
-1114.234081598772
 30
0.0
 11
993.13778150606947
 21
-1114.234081598772
 31
0.0
  0
LINE
  5
BB4E
  8
01
 10
1006.6877815060629
 20
-1114.734081598772
 30
0.0
 11
1012.137778506065
 21
-1114.734081598772
 31
0.0
  0
LINE
  5
BBC3
  8
01
 10
814.18766916632353
 20
-1337.734076597746
 30
0.0
 11
814.18766916632353
 21
-1377.734076597746
 31
0.0
  0
LINE
  5
BBC5
  8
01
 10
807.88766916632335
 20
-1377.234076597746
 30
0.0
 11
807.88766916632335
 21
-1338.234076597746
 31
0.0
  0
LINE
  5
BBC6
  8
01
 10
814.18766916632353
 20
-1377.734076597746
 30
0.0
 11
808.38766916632346
 21
-1377.734076597746
 31
0.0
  0
ARC
  5
BBC7
  8
01
 10
808.38766916632346
 20
-1377.234076597746
 30
0.0
 40
0.5
 50
180.0
 51
270.0
  0
LINE
  5
BBC8
  8
01
 10
814.18766916632353
 20
-1337.734076597746
 30
0.0
 11
808.38766916632346
 21
-1337.734076597746
 31
0.0
  0
ARC
  5
BBC9
  8
01
 10
808.38766916632346
 20
-1338.234076597746
 30
0.0
 40
0.5
 50
90.0
 51
180.0
  0
LINE
  5
BBCA
  8
01
 10
789.85965212662109
 20
-1363.2340765977531
 30
0.0
 11
816.77159652112471
 21
-1363.2340765977531
 31
0.0
  0
LINE
  5
BBCB
  8
01
 10
793.18728360060175
 20
-1374.234081597745
 30
0.0
 11
807.88766916632335
 21
-1374.2340815977459
 31
0.0
  0
LINE
  5
BBCC
  8
01
 10
806.68730654481351
 20
-1352.7340815977459
 30
0.0
 11
806.68730654480873
 21
-1373.7340815977459
 31
0.0
  0
LINE
  5
BBCD
  8
01
 10
793.18728360060379
 20
-1352.2340815977459
 30
0.0
 11
807.88766916632335
 21
-1352.2340815977459
 31
0.0
  0
ARC
  5
BBCE
  8
01
 10
793.18728360060379
 20
-1353.234081597745
 30
0.0
 40
1.0
 50
90.0
 51
180.0
  0
LINE
  5
BBCF
  8
01
 10
792.18728360060175
 20
-1353.234081597745
 30
0.0
 11
792.18728360060175
 21
-1373.2340815977429
 31
0.0
  0
ARC
  5
BBD0
  8
01
 10
793.18728360060175
 20
-1373.2340815977429
 30
0.0
 40
1.0
 50
180.0
 51
270.0
  0
ARC
  5
BBD1
  8
01
 10
807.18730654480873
 20
-1352.7340815977459
 30
0.0
 40
0.5
 50
90.0
 51
179.99999999997391
  0
ARC
  5
BBD2
  8
01
 10
807.18730654480873
 20
-1373.7340815977459
 30
0.0
 40
0.5
 50
179.99999999997391
 51
270.0
  0
TEXT
  5
BC9A
  8
01
 10
666.96716000328104
 20
-1150.4269501874869
 30
0.0
 40
6.0
  1
ヘアライン
 72
     1
 11
684.16716000328097
 21
-1150.4269501874869
 31
0.0
  0
TEXT
  5
BC9B
  8
01
 10
677.76716000328099
 20
-1139.963512759417
 30
0.0
 40
6.0
  1
鏡面
 72
     1
 11
684.16716000328097
 21
-1139.963512759417
 31
0.0
  0
TEXT
  5
BC9C
  8
01
 10
661.99573143185251
 20
-1160.9269501874869
 30
0.0
 40
6.0
  1
鏡面+ヘアライン
 41
0.8
 72
     1
 11
684.16716000328097
 21
-1160.9269501874869
 31
0.0
  0
LINE
  5
BD76
  8
01
 10
1030.1876651663231
 20
-1386.7340815977459
 30
0.0
 11
978.18766516632547
 21
-1386.7340815977459
 31
0.0
  0
LINE
  5
BD77
  8
01
 10
978.18766516632547
 20
-1439.7340815977459
 30
0.0
 11
1030.1876651663231
 21
-1439.7340815977459
 31
0.0
  0
LINE
  5
BD78
  8
01
 10
977.68766516632559
 20
-1387.2340815977459
 30
0.0
 11
977.68766516632559
 21
-1439.2340815977459
 31
0.0
  0
ARC
  5
BD79
  8
01
 10
978.18766516632547
 20
-1439.2340815977459
 30
0.0
 40
0.5
 50
180.0
 51
270.0
  0
ARC
  5
BD7A
  8
01
 10
978.18766516632547
 20
-1387.2340815977459
 30
0.0
 40
0.5
 50
90.0
 51
180.0
  0
LINE
  5
BD7B
  8
01
 10
1030.6876651663231
 20
-1387.2340815977459
 30
0.0
 11
1030.6876651663231
 21
-1398.5234678620261
 31
0.0
  0
ARC
  5
BD7C
  8
01
 10
1030.1876651663231
 20
-1439.2340815977459
 30
0.0
 40
0.5
 50
270.0
 51
0.0
  0
ARC
  5
BD7D
  8
01
 10
1030.1876651663231
 20
-1387.2340815977459
 30
0.0
 40
0.5
 50
0.0
 51
90.0
  0
LINE
  5
BD94
  8
01
 10
690.18767316632227
 20
-1386.7340815977459
 30
0.0
 11
638.187673166325
 21
-1386.7340815977459
 31
0.0
  0
LINE
  5
BD95
  8
01
 10
638.187673166325
 20
-1439.7340815977459
 30
0.0
 11
690.18767316632318
 21
-1439.7340815977459
 31
0.0
  0
LINE
  5
BD96
  8
01
 10
637.68767316632511
 20
-1387.2340815977459
 30
0.0
 11
637.68767316632511
 21
-1398.5234678620261
 31
0.0
  0
ARC
  5
BD97
  8
01
 10
638.187673166325
 20
-1439.2340815977459
 30
0.0
 40
0.5
 50
180.0
 51
270.0
  0
ARC
  5
BD98
  8
01
 10
638.187673166325
 20
-1387.2340815977459
 30
0.0
 40
0.5
 50
90.0
 51
180.0
  0
LINE
  5
BD99
  8
01
 10
690.68767316632227
 20
-1387.2340815977459
 30
0.0
 11
690.68767316632318
 21
-1439.2340815977459
 31
0.0
  0
ARC
  5
BD9A
  8
01
 10
690.18767316632318
 20
-1439.2340815977459
 30
0.0
 40
0.5
 50
270.0
 51
0.0
  0
ARC
  5
BD9B
  8
01
 10
690.18767316632227
 20
-1387.2340815977459
 30
0.0
 40
0.5
 50
0.0
 51
90.0
  0
LINE
  5
BDB1
  8
01
 10
637.68767316632511
 20
-1417.8997645649181
 30
0.0
 11
637.68767316632511
 21
-1439.2340815977459
 31
0.0
  0
LINE
  5
BDB2
  8
01
 10
1030.6876651663231
 20
-1417.8997645649169
 30
0.0
 11
1030.687665166324
 21
-1439.2340815977459
 31
0.0
  0
LINE
  5
BDB3
  8
01
 10
977.68766516632559
 20
-1429.2340815977441
 30
0.0
 11
1022.187665166324
 21
-1429.2340815977441
 31
0.0
  0
LINE
  5
BDB4
  8
01
 10
1022.187665166324
 20
-1429.2340815977441
 30
0.0
 11
1022.187665166324
 21
-1386.7340815977459
 31
0.0
  0
LINE
  5
BDB5
  8
01
 10
854.18766916632353
 20
-1439.7340815977441
 30
0.0
 11
854.18766916632353
 21
-1386.734081597747
 31
0.0
  0
LINE
  5
BDB6
  8
01
 10
862.68766916632364
 20
-1439.2340815977441
 30
0.0
 11
862.68766916632364
 21
-1387.234081597747
 31
0.0
  0
LINE
  5
BDB7
  8
01
 10
854.18766916632353
 20
-1386.734081597747
 30
0.0
 11
862.18766916632353
 21
-1386.734081597747
 31
0.0
  0
LINE
  5
BDB8
  8
01
 10
854.18766916632353
 20
-1439.7340815977441
 30
0.0
 11
862.18766916632353
 21
-1439.7340815977441
 31
0.0
  0
ARC
  5
BDB9
  8
01
 10
862.18766916632353
 20
-1439.2340815977441
 30
0.0
 40
0.5
 50
270.0
 51
0.0
  0
ARC
  5
BDBA
  8
01
 10
862.18766916632353
 20
-1387.234081597747
 30
0.0
 40
0.5
 50
0.0
 51
90.0
  0
LINE
  5
BDBB
  8
01
 10
814.18766916632353
 20
-1439.7340815977441
 30
0.0
 11
814.18766916632353
 21
-1386.734081597747
 31
0.0
  0
LINE
  5
BDBC
  8
01
 10
805.68766916632353
 20
-1439.2340815977441
 30
0.0
 11
805.68766916632353
 21
-1387.234081597747
 31
0.0
  0
LINE
  5
BDBD
  8
01
 10
814.18766916632353
 20
-1386.734081597747
 30
0.0
 11
806.18766916632342
 21
-1386.734081597747
 31
0.0
  0
LINE
  5
BDBE
  8
01
 10
814.18766916632353
 20
-1439.7340815977441
 30
0.0
 11
806.18766916632342
 21
-1439.7340815977441
 31
0.0
  0
ARC
  5
BDBF
  8
01
 10
806.18766916632342
 20
-1439.2340815977441
 30
0.0
 40
0.5
 50
180.0
 51
270.0
  0
ARC
  5
BDC0
  8
01
 10
806.18766916632342
 20
-1387.234081597747
 30
0.0
 40
0.5
 50
90.0
 51
180.0
  0
LINE
  5
BDC1
  8
01
 10
977.68778143996497
 20
-1163.2340815987729
 30
0.0
 11
1030.687781439962
 21
-1163.2340815987729
 31
0.0
  0
LINE
  5
BDC2
  8
01
 10
978.18778143996485
 20
-1171.734081598772
 30
0.0
 11
1030.187781439962
 21
-1171.734081598772
 31
0.0
  0
LINE
  5
BDC3
  8
01
 10
1030.687781439962
 20
-1163.2340815987729
 30
0.0
 11
1030.687781439962
 21
-1171.2340815987729
 31
0.0
  0
LINE
  5
BDC4
  8
01
 10
977.68778143996497
 20
-1163.2340815987729
 30
0.0
 11
977.68778143996497
 21
-1171.2340815987729
 31
0.0
  0
ARC
  5
BDC5
  8
01
 10
978.18778143996485
 20
-1171.2340815987729
 30
0.0
 40
0.5
 50
180.0
 51
270.0
  0
ARC
  5
BDC6
  8
01
 10
1030.187781439962
 20
-1171.2340815987729
 30
0.0
 40
0.5
 50
270.0
 51
0.0
  0
LINE
  5
BDC7
  8
01
 10
977.68778143996497
 20
-1123.2340815987729
 30
0.0
 11
1030.687781439962
 21
-1123.2340815987729
 31
0.0
  0
LINE
  5
BDC8
  8
01
 10
978.18778143996485
 20
-1114.734081598772
 30
0.0
 11
1001.687781506061
 21
-1114.734081598772
 31
0.0
  0
LINE
  5
BDC9
  8
01
 10
1030.687781439962
 20
-1123.2340815987729
 30
0.0
 11
1030.687781439962
 21
-1115.2340815987729
 31
0.0
  0
LINE
  5
BDCA
  8
01
 10
977.68778143996497
 20
-1123.2340815987729
 30
0.0
 11
977.68778143996497
 21
-1115.2340815987729
 31
0.0
  0
ARC
  5
BDCB
  8
01
 10
978.18778143996485
 20
-1115.2340815987729
 30
0.0
 40
0.5
 50
90.000000000000028
 51
180.0
  0
ARC
  5
BDCC
  8
01
 10
1030.187781439962
 20
-1115.2340815987729
 30
0.0
 40
0.5
 50
0.0
 51
90.000000000000028
  0
LINE
  5
BDCD
  8
01
 10
1006.6877815060629
 20
-1114.734081598772
 30
0.0
 11
1030.187781439962
 21
-1114.734081598772
 31
0.0
  0
LINE
  5
BE6B
  8
01
 10
1022.187665166324
 20
-1354.7340815977441
 30
0.0
 11
1022.187665166324
 21
-1377.7340815977441
 31
0.0
  0
LINE
  5
BE6C
  8
01
 10
1001.187665166324
 20
-1354.7340815977441
 30
0.0
 11
1007.187665166324
 21
-1354.7340815977441
 31
0.0
  0
LINE
  5
BE6D
  8
01
 10
1014.187665166324
 20
-1354.7340815977441
 30
0.0
 11
1022.187665166324
 21
-1354.7340815977441
 31
0.0
  0
LINE
  5
BE6E
  8
01
 10
1001.187665166324
 20
-1355.7340815977429
 30
0.0
 11
1001.187665166324
 21
-1354.7340815977441
 31
0.0
  0
LINE
  5
BE6F
  8
01
 10
1007.187665166324
 20
-1355.7340815977441
 30
0.0
 11
1007.187665166324
 21
-1354.7340815977441
 31
0.0
  0
ARC
  5
BE70
  8
01
 10
997.68766516632365
 20
-1355.7340815977441
 30
0.0
 40
3.5
 50
179.99999999998701
 51
0.0000000000130276
  0
ARC
  5
BE71
  8
01
 10
1010.687665166324
 20
-1355.7340815977441
 30
0.0
 40
3.5
 50
180.0
 51
0.0
  0
CIRCLE
  5
BE72
  8
01
 10
1004.187665166035
 20
-1363.2340815980331
 30
0.0
 40
6.0
  0
LINE
  5
BE73
  8
01
 10
994.18766516632365
 20
-1354.7340815977441
 30
0.0
 11
984.18767284386661
 21
-1354.7340815977441
 31
0.0
  0
LINE
  5
BE74
  8
01
  6
BYBLOCK
 10
984.18767284386661
 20
-1354.7340815977441
 30
0.0
 11
956.187665166324
 21
-1354.7340815977441
 31
0.0
  0
LINE
  5
BE75
  8
01
 10
994.18766516632354
 20
-1355.7340815977429
 30
0.0
 11
994.18766516632365
 21
-1354.7340815977441
 31
0.0
  0
LINE
  5
BE76
  8
01
 10
1014.187665166324
 20
-1355.7340815977441
 30
0.0
 11
1014.187665166324
 21
-1354.7340815977441
 31
0.0
  0
LINE
  5
BE77
  8
01
  6
BYBLOCK
 10
684.18766484386424
 20
-1354.7340815977441
 30
0.0
 11
712.18767316632295
 21
-1354.7340815977441
 31
0.0
  0
LINE
  5
BE78
  8
01
  6
BYBLOCK
 10
1010.188549348095
 20
-1132.9840815987729
 30
0.0
 11
998.18854934809519
 21
-1132.9840815987729
 31
0.0
  0
LINE
  5
BE79
  8
01
  6
BYBLOCK
 10
998.18854934809519
 20
-1153.4840815987729
 30
0.0
 11
1010.188549348095
 21
-1153.4840815987729
 31
0.0
  0
LINE
  5
BE7A
  8
01
  6
BYBLOCK
 10
998.18854934809519
 20
-1153.4840815987729
 30
0.0
 11
998.18854934809519
 21
-1152.734081598772
 31
0.0
  0
LINE
  5
BE7B
  8
01
  6
BYBLOCK
 10
998.18854934809519
 20
-1133.7340815987729
 30
0.0
 11
998.18854934809519
 21
-1132.9840815987729
 31
0.0
  0
LINE
  5
BE7C
  8
01
  6
BYBLOCK
 10
1010.188549348095
 20
-1153.4840815987729
 30
0.0
 11
1010.188549348095
 21
-1152.734081598772
 31
0.0
  0
LINE
  5
BE7D
  8
01
  6
BYBLOCK
 10
1010.188549348095
 20
-1133.7340815987729
 30
0.0
 11
1010.188549348095
 21
-1132.9840815987729
 31
0.0
  0
LINE
  5
C1F3
  8
01
 10
984.68767284386672
 20
-1337.7340815977441
 30
0.0
 11
1023.687672843866
 21
-1337.7340815977441
 31
0.0
  0
ARC
  5
C1F4
  8
01
 10
1023.687672843866
 20
-1338.2340815977441
 30
0.0
 40
0.5
 50
0.0
 51
90.0
  0
LINE
  5
C1F5
  8
01
 10
984.68767284386649
 20
-1377.7340815977441
 30
0.0
 11
1023.687672843866
 21
-1377.7340815977441
 31
0.0
  0
ARC
  5
C1F6
  8
01
 10
984.68767284386649
 20
-1377.2340815977441
 30
0.0
 40
0.5
 50
180.0
 51
270.0
  0
LINE
  5
C1F7
  8
01
 10
984.18767284386649
 20
-1377.2340815977441
 30
0.0
 11
984.18767284386661
 21
-1338.2340815977441
 31
0.0
  0
ARC
  5
C1F8
  8
01
 10
984.68767284386672
 20
-1338.2340815977441
 30
0.0
 40
0.5
 50
90.0
 51
180.0
  0
LINE
  5
C1F9
  8
01
 10
1024.187672843866
 20
-1377.2340815977441
 30
0.0
 11
1024.187672843866
 21
-1338.2340815977441
 31
0.0
  0
ARC
  5
C1FA
  8
01
 10
1023.687672843866
 20
-1377.2340815977441
 30
0.0
 40
0.5
 50
270.0
 51
0.0
  0
LINE
  5
C1FC
  8
01
 10
644.68766484386435
 20
-1337.7340815977441
 30
0.0
 11
683.6876648438639
 21
-1337.7340815977441
 31
0.0
  0
ARC
  5
C1FD
  8
01
 10
683.6876648438639
 20
-1338.2340815977441
 30
0.0
 40
0.5
 50
0.0
 51
90.0
  0
LINE
  5
C1FE
  8
01
 10
644.68766484386424
 20
-1377.7340815977441
 30
0.0
 11
683.68766484386424
 21
-1377.7340815977441
 31
0.0
  0
ARC
  5
C1FF
  8
01
 10
644.68766484386424
 20
-1377.2340815977441
 30
0.0
 40
0.5
 50
180.0
 51
270.0
  0
LINE
  5
C200
  8
01
 10
644.18766484386424
 20
-1377.2340815977441
 30
0.0
 11
644.18766484386435
 21
-1338.2340815977441
 31
0.0
  0
ARC
  5
C201
  8
01
 10
644.68766484386435
 20
-1338.2340815977441
 30
0.0
 40
0.5
 50
90.0
 51
180.0
  0
LINE
  5
C202
  8
01
 10
684.18766484386424
 20
-1377.2340815977441
 30
0.0
 11
684.18766484386401
 21
-1338.2340815977441
 31
0.0
  0
ARC
  5
C203
  8
01
 10
683.68766484386424
 20
-1377.2340815977441
 30
0.0
 40
0.5
 50
270.0
 51
0.0
  0
TEXT
  5
C394
  8
01
 10
931.57082625934049
 20
-1193.650748265439
 30
0.0
 40
4.5499999999999989
  1
材質：ステンレス
  0
TEXT
  5
C395
  8
01
 10
925.50415959267389
 20
-1201.234081598772
 30
0.0
 40
4.5499999999999989
  1
仕上げ：各種仕上げ
  0
SOLID
  5
C396
  8
01
 10
1001.610520805608
 20
-1182.388069738683
 30
0.0
 11
1003.928266406385
 21
-1181.1327478246469
 31
0.0
 12
1002.1429357831749
 22
-1183.0719157760141
 32
0.0
 13
1002.1429357831749
 23
-1183.0719157760141
 33
0.0
1001
ACAD
1000
DSTYLE
1002
{
1070
    40
1040
1.3
1002
}
  0
LINE
  5
C398
  8
01
 10
1010.188549348095
 20
-1132.9840815987729
 30
0.0
 11
1045.348940108096
 21
-1132.9840815987729
 31
0.0
  0
LINE
  5
C399
  8
01
 10
1010.188549348095
 20
-1153.4840815987729
 30
0.0
 11
1045.348940108096
 21
-1153.4840815987729
 31
0.0
  0
LINE
  5
C39A
  8
01
 10
1044.0489401080961
 20
-1135.5840815987719
 30
0.0
 11
1044.0489401080961
 21
-1150.884081598773
 31
0.0
  0
LINE
  5
C39E
  8
01
 10
1022.187665166324
 20
-1354.7340815977441
 30
0.0
 11
1050.4876651663239
 21
-1354.7340815977441
 31
0.0
  0
LINE
  5
C39F
  8
01
 10
1022.187665166324
 20
-1429.2340815977441
 30
0.0
 11
1050.4876651663239
 21
-1429.2340815977441
 31
0.0
  0
LINE
  5
C3A0
  8
01
 10
1049.187665166324
 20
-1357.334081597744
 30
0.0
 11
1049.187665166324
 21
-1426.6340815977439
 31
0.0
  0
LINE
  5
C3A4
  8
01
 10
978.18766516632547
 20
-1386.7340815977459
 30
0.0
 11
967.88766516632359
 21
-1386.7340815977459
 31
0.0
  0
LINE
  5
C3A5
  8
01
 10
978.18766516632547
 20
-1439.7340815977459
 30
0.0
 11
967.88766516632359
 21
-1439.7340815977459
 31
0.0
  0
LINE
  5
C3A6
  8
01
 10
969.18766516632354
 20
-1389.334081597746
 30
0.0
 11
969.18766516632354
 21
-1437.134081597746
 31
0.0
  0
LINE
  5
C3AA
  8
01
 10
814.18766916632353
 20
-1320.7367015977429
 30
0.0
 11
814.18766916632353
 21
-1305.9340815977439
 31
0.0
  0
LINE
  5
C3AB
  8
01
 10
792.18728360060175
 20
-1353.234081597745
 30
0.0
 11
792.18728360060175
 21
-1305.9340815977439
 31
0.0
  0
LINE
  5
C3AC
  8
01
 10
811.58766916632351
 20
-1307.2340815977441
 30
0.0
 11
794.78728360060188
 21
-1307.2340815977441
 31
0.0
  0
LINE
  5
C3B0
  8
01
 10
1106.9429295034161
 20
-1163.2340815987729
 30
0.0
 11
1139.5390483683241
 21
-1163.2340815987729
 31
0.0
  0
LINE
  5
C3B1
  8
01
 10
1109.3062077723
 20
-1236.784081598772
 30
0.0
 11
1139.5390483683241
 21
-1236.784081598772
 31
0.0
  0
LINE
  5
C3B2
  8
01
 10
1138.2390483683239
 20
-1165.8340815987731
 30
0.0
 11
1138.2390483683239
 21
-1234.184081598773
 31
0.0
  0
LINE
  5
C3B6
  8
01
 10
1106.9429295034161
 20
-1163.2340815987729
 30
0.0
 11
1129.5390483683241
 21
-1163.2340815987729
 31
0.0
  0
LINE
  5
C3B7
  8
01
 10
1116.4989283556761
 20
-1210.4567759692011
 30
0.0
 11
1129.5390483683241
 21
-1210.4567759692011
 31
0.0
  0
LINE
  5
C3B8
  8
01
 10
1128.2390483683239
 20
-1165.8340815987731
 30
0.0
 11
1128.2390483683239
 21
-1207.856775969201
 31
0.0
  0
LINE
  5
C3BC
  8
01
 10
993.13778150607038
 20
-1215.5970727574729
 30
0.0
 11
993.13778150607038
 21
-1258.0840815987731
 31
0.0
  0
LINE
  5
C3BD
  8
01
 10
1118.2390483683239
 20
-1212.2557796899071
 30
0.0
 11
1118.2390483683239
 21
-1258.0840815987731
 31
0.0
  0
LINE
  5
C3BE
  8
01
 10
995.73778150607063
 20
-1256.784081598772
 30
0.0
 11
1115.639048368324
 21
-1256.784081598772
 31
0.0
  0
LINE
  5
C3C2
  8
01
 10
1004.187781506069
 20
-1183.0252914856201
 30
0.0
 11
1004.187781506069
 21
-1248.0840815987719
 31
0.0
  0
LINE
  5
C3C3
  8
01
 10
1118.2390483683239
 20
-1212.2557796899071
 30
0.0
 11
1118.2390483683239
 21
-1248.0840815987719
 31
0.0
  0
LINE
  5
C3C4
  8
01
 10
1006.787781506069
 20
-1246.7840815987729
 30
0.0
 11
1115.639048368324
 21
-1246.7840815987729
 31
0.0
  0
LINE
  5
C3C8
  8
01
 10
1022.187665166325
 20
-1355.2340815977441
 30
0.0
 11
1022.187665166325
 21
-1295.9340815977439
 31
0.0
  0
LINE
  5
C3C9
  8
01
 10
953.18766516632502
 20
-1327.2340815977441
 30
0.0
 11
953.18766516632502
 21
-1295.9340815977439
 31
0.0
  0
LINE
  5
C3CA
  8
01
 10
1019.587665166325
 20
-1297.2340815977441
 30
0.0
 11
955.78766516632493
 21
-1297.2340815977441
 31
0.0
  0
LINE
  5
C3CE
  8
01
 10
840.68766916632353
 20
-1327.2340815977441
 30
0.0
 11
895.48766916632314
 21
-1327.2340815977441
 31
0.0
  0
LINE
  5
C3CF
  8
01
 10
840.68766916632353
 20
-1457.2340815977441
 30
0.0
 11
895.48766916632314
 21
-1457.2340815977441
 31
0.0
  0
LINE
  5
C3D0
  8
01
 10
894.1876691663233
 20
-1329.834081597744
 30
0.0
 11
894.1876691663233
 21
-1454.6340815977439
 31
0.0
  0
LINE
  5
C3D4
  8
01
 10
840.68766916632353
 20
-1335.2340815977441
 30
0.0
 11
879.99126020287997
 21
-1335.2340815977441
 31
0.0
  0
LINE
  5
C3D5
  8
01
 10
840.68766916632353
 20
-1449.2340815977441
 30
0.0
 11
879.99126020287997
 21
-1449.2340815977441
 31
0.0
  0
LINE
  5
C3D6
  8
01
 10
878.69126020288013
 20
-1337.834081597744
 30
0.0
 11
878.69126020288013
 21
-1446.6340815977439
 31
0.0
  0
LINE
  5
C3DA
  8
01
 10
634.18767316632295
 20
-1413.2340815977441
 30
0.0
 11
619.88768516632354
 21
-1413.2340815977441
 31
0.0
  0
LINE
  5
C3DB
  8
01
 10
641.68766516632229
 20
-1357.7340815977441
 30
0.0
 11
619.88768516632354
 21
-1357.7340815977441
 31
0.0
  0
LINE
  5
C3DC
  8
01
 10
621.18768516632349
 20
-1410.6340815977439
 30
0.0
 11
621.18768516632349
 21
-1360.334081597744
 31
0.0
  0
LINE
  5
C3E0
  8
01
 10
634.18767316632295
 20
-1413.2340815977441
 30
0.0
 11
629.88768516632354
 21
-1413.2340815977441
 31
0.0
  0
LINE
  5
C3E1
  8
01
 10
651.18766516632218
 20
-1363.2340815977441
 30
0.0
 11
629.88768516632354
 21
-1363.2340815977441
 31
0.0
  0
LINE
  5
C3E2
  8
01
 10
631.18768516632338
 20
-1410.6340815977439
 30
0.0
 11
631.18768516632338
 21
-1365.834081597744
 31
0.0
  0
LINE
  5
C3E6
  8
01
 10
644.18766484386435
 20
-1338.2340815977441
 30
0.0
 11
644.18766484386435
 21
-1328.9340815977439
 31
0.0
  0
LINE
  5
C3E7
  8
01
 10
684.18766484386401
 20
-1338.2340815977441
 30
0.0
 11
684.18766484386401
 21
-1328.9340815977439
 31
0.0
  0
LINE
  5
C3E8
  8
01
 10
646.78766484386449
 20
-1330.2340815977441
 30
0.0
 11
681.58766484386388
 21
-1330.2340815977441
 31
0.0
  0
LINE
  5
C3EC
  8
01
 10
984.18767284386661
 20
-1338.2340815977441
 30
0.0
 11
984.18767284386661
 21
-1328.9340815977439
 31
0.0
  0
LINE
  5
C3ED
  8
01
 10
1024.187672843866
 20
-1338.2340815977441
 30
0.0
 11
1024.187672843866
 21
-1328.9340815977439
 31
0.0
  0
LINE
  5
C3EE
  8
01
 10
986.78767284386674
 20
-1330.2340815977441
 30
0.0
 11
1021.587672843866
 21
-1330.2340815977441
 31
0.0
  0
LINE
  5
C3F2
  8
01
 10
854.18766916632353
 20
-1320.7367015977429
 30
0.0
 11
854.18766916632353
 21
-1305.9340815977439
 31
0.0
  0
LINE
  5
C3F3
  8
01
 10
862.48767216632177
 20
-1363.2340815977441
 30
0.0
 11
862.48767216632177
 21
-1305.9340815977439
 31
0.0
  0
LINE
  5
C3F4
  8
01
 10
856.78766916632355
 20
-1307.2340815977441
 30
0.0
 11
859.88767216632175
 21
-1307.2340815977441
 31
0.0
  0
LINE
  5
C3F8
  8
01
 10
800.98670727199999
 20
-1412.4840815977441
 30
0.0
 11
799.68766916632353
 21
-1411.7340815977441
 31
0.0
  0
LINE
  5
C3F9
  8
01
 10
799.68766916632353
 20
-1411.7340815977441
 30
0.0
 11
798.38863106064684
 21
-1412.4840815977441
 31
0.0
  0
LINE
  5
C3FA
  8
01
 10
798.38863106064684
 20
-1412.4840815977441
 30
0.0
 11
798.38863106064684
 21
-1413.9840815977441
 31
0.0
  0
LINE
  5
C3FB
  8
01
 10
798.38863106064684
 20
-1413.9840815977441
 30
0.0
 11
799.68766916632353
 21
-1414.7340815977441
 31
0.0
  0
LINE
  5
C3FC
  8
01
 10
799.68766916632353
 20
-1414.7340815977441
 30
0.0
 11
800.98670727199999
 21
-1413.9840815977441
 31
0.0
  0
LINE
  5
C3FD
  8
01
 10
800.98670727199999
 20
-1413.9840815977441
 30
0.0
 11
800.98670727199999
 21
-1412.4840815977441
 31
0.0
  0
CIRCLE
  5
C3FE
  8
01
 10
799.68766916632353
 20
-1413.2340815977441
 30
0.0
 40
3.0
  0
CIRCLE
  5
C3FF
  8
01
 10
868.68766916632342
 20
-1413.2340815977441
 30
0.0
 40
3.0
  0
LINE
  5
C400
  8
01
 10
953.18766516632388
 20
-1327.2340815977441
 30
0.0
 11
953.18766516632388
 21
-1305.9340815977439
 31
0.0
  0
LINE
  5
C401
  8
01
 10
1004.187665166324
 20
-1382.703717506907
 30
0.0
 11
1004.187665166324
 21
-1305.9340815977439
 31
0.0
  0
LINE
  5
C402
  8
01
 10
955.78766516632402
 20
-1307.2340815977441
 30
0.0
 11
1001.587665166324
 21
-1307.2340815977441
 31
0.0
  0
LINE
  5
C406
  8
01
 10
1022.187665166324
 20
-1355.2340815977441
 30
0.0
 11
1022.187665166324
 21
-1295.9340815977439
 31
0.0
  0
LINE
  5
C407
  8
01
 10
953.18766516632388
 20
-1327.2340815977441
 30
0.0
 11
953.18766516632388
 21
-1295.9340815977439
 31
0.0
  0
LINE
  5
C408
  8
01
 10
1019.587665166324
 20
-1297.2340815977441
 30
0.0
 11
955.78766516632402
 21
-1297.2340815977441
 31
0.0
  0
LINE
  5
C40C
  8
01
 10
942.18766516632388
 20
-1385.2340822958749
 30
0.0
 11
942.18766516632388
 21
-1305.9340815977439
 31
0.0
  0
LINE
  5
C40D
  8
01
 10
953.18766516632388
 20
-1327.2340815977441
 30
0.0
 11
953.18766516632388
 21
-1305.9340815977439
 31
0.0
  0
LINE
  5
C40E
  8
01
 10
944.7876651663239
 20
-1307.2340815977441
 30
0.0
 11
950.58766516632386
 21
-1307.2340815977441
 31
0.0
  0
LINE
  5
C412
  8
01
 10
821.68766916632364
 20
-1333.2340815977441
 30
0.0
 11
821.68766916632364
 21
-1305.9340815977439
 31
0.0
  0
LINE
  5
C413
  8
01
 10
846.68766916632364
 20
-1333.2340815977441
 30
0.0
 11
846.68766916632364
 21
-1305.9340815977439
 31
0.0
  0
LINE
  5
C414
  8
01
 10
824.28766916632355
 20
-1307.2340815977441
 30
0.0
 11
844.08766916632339
 21
-1307.2340815977441
 31
0.0
  0
TEXT
  5
C418
  8
01
 10
829.85433583299027
 20
-1306.324081597744
 30
0.0
 40
4.5499999999999989
  1
25
  0
LINE
  5
C419
  8
01
  6
BYBLOCK
 10
844.08766916632339
 20
-1306.5374137037441
 30
0.0
 11
846.68766916632364
 21
-1307.2340815977441
 31
0.0
  0
LINE
  5
C41A
  8
01
  6
BYBLOCK
 10
846.68766916632364
 20
-1307.2340815977441
 30
0.0
 11
844.08766916632339
 21
-1307.9307494917441
 31
0.0
  0
LINE
  5
C41B
  8
01
  6
BYBLOCK
 10
846.68766916632364
 20
-1307.2340815977441
 30
0.0
 11
844.08766916632339
 21
-1307.2340815977441
 31
0.0
  0
LINE
  5
C41C
  8
01
  6
BYBLOCK
 10
824.28766916632355
 20
-1307.9307494917441
 30
0.0
 11
821.68766916632364
 21
-1307.2340815977441
 31
0.0
  0
LINE
  5
C41D
  8
01
  6
BYBLOCK
 10
821.68766916632364
 20
-1307.2340815977441
 30
0.0
 11
824.28766916632355
 21
-1306.5374137037441
 31
0.0
  0
LINE
  5
C41E
  8
01
  6
BYBLOCK
 10
821.68766916632364
 20
-1307.2340815977441
 30
0.0
 11
824.28766916632355
 21
-1307.2340815977441
 31
0.0
  0
TEXT
  5
C41F
  8
01
 10
943.67933183299056
 20
-1306.324081597744
 30
0.0
 40
4.5499999999999989
  1
11
  0
LINE
  5
C420
  8
01
  6
BYBLOCK
 10
950.58766516632386
 20
-1306.5374137037441
 30
0.0
 11
953.18766516632388
 21
-1307.2340815977441
 31
0.0
  0
LINE
  5
C421
  8
01
  6
BYBLOCK
 10
953.18766516632388
 20
-1307.2340815977441
 30
0.0
 11
950.58766516632386
 21
-1307.9307494917441
 31
0.0
  0
LINE
  5
C422
  8
01
  6
BYBLOCK
 10
953.18766516632388
 20
-1307.2340815977441
 30
0.0
 11
950.58766516632386
 21
-1307.2340815977441
 31
0.0
  0
LINE
  5
C423
  8
01
  6
BYBLOCK
 10
944.7876651663239
 20
-1307.9307494917441
 30
0.0
 11
942.18766516632388
 21
-1307.2340815977441
 31
0.0
  0
LINE
  5
C424
  8
01
  6
BYBLOCK
 10
942.18766516632388
 20
-1307.2340815977441
 30
0.0
 11
944.7876651663239
 21
-1306.5374137037441
 31
0.0
  0
LINE
  5
C425
  8
01
  6
BYBLOCK
 10
942.18766516632388
 20
-1307.2340815977441
 30
0.0
 11
944.7876651663239
 21
-1307.2340815977441
 31
0.0
  0
TEXT
  5
C426
  8
01
 10
983.35433183299074
 20
-1296.324081597744
 30
0.0
 40
4.5499999999999989
  1
69
  0
LINE
  5
C427
  8
01
  6
BYBLOCK
 10
955.78766516632402
 20
-1297.9307494917441
 30
0.0
 11
953.18766516632388
 21
-1297.2340815977441
 31
0.0
  0
LINE
  5
C428
  8
01
  6
BYBLOCK
 10
953.18766516632388
 20
-1297.2340815977441
 30
0.0
 11
955.78766516632402
 21
-1296.5374137037441
 31
0.0
  0
LINE
  5
C429
  8
01
  6
BYBLOCK
 10
953.18766516632388
 20
-1297.2340815977441
 30
0.0
 11
955.78766516632402
 21
-1297.2340815977441
 31
0.0
  0
LINE
  5
C42A
  8
01
  6
BYBLOCK
 10
1019.587665166324
 20
-1296.5374137037441
 30
0.0
 11
1022.187665166324
 21
-1297.2340815977441
 31
0.0
  0
LINE
  5
C42B
  8
01
  6
BYBLOCK
 10
1022.187665166324
 20
-1297.2340815977441
 30
0.0
 11
1019.587665166324
 21
-1297.9307494917441
 31
0.0
  0
LINE
  5
C42C
  8
01
  6
BYBLOCK
 10
1022.187665166324
 20
-1297.2340815977441
 30
0.0
 11
1019.587665166324
 21
-1297.2340815977441
 31
0.0
  0
TEXT
  5
C42D
  8
01
 10
975.00433183299083
 20
-1306.324081597744
 30
0.0
 40
4.5499999999999989
  1
51
  0
LINE
  5
C42E
  8
01
  6
BYBLOCK
 10
1001.587665166324
 20
-1306.5374137037441
 30
0.0
 11
1004.187665166324
 21
-1307.2340815977441
 31
0.0
  0
LINE
  5
C42F
  8
01
  6
BYBLOCK
 10
1004.187665166324
 20
-1307.2340815977441
 30
0.0
 11
1001.587665166324
 21
-1307.9307494917441
 31
0.0
  0
LINE
  5
C430
  8
01
  6
BYBLOCK
 10
1004.187665166324
 20
-1307.2340815977441
 30
0.0
 11
1001.587665166324
 21
-1307.2340815977441
 31
0.0
  0
LINE
  5
C431
  8
01
  6
BYBLOCK
 10
955.78766516632402
 20
-1307.9307494917441
 30
0.0
 11
953.18766516632388
 21
-1307.2340815977441
 31
0.0
  0
LINE
  5
C432
  8
01
  6
BYBLOCK
 10
953.18766516632388
 20
-1307.2340815977441
 30
0.0
 11
955.78766516632402
 21
-1306.5374137037441
 31
0.0
  0
LINE
  5
C433
  8
01
  6
BYBLOCK
 10
953.18766516632388
 20
-1307.2340815977441
 30
0.0
 11
955.78766516632402
 21
-1307.2340815977441
 31
0.0
  0
TEXT
  5
C434
  8
01
 10
856.17100399965625
 20
-1306.324081597744
 30
0.0
 40
4.5499999999999989
  1
8
  0
LINE
  5
C435
  8
01
  6
BYBLOCK
 10
859.88767216632175
 20
-1306.5374137037441
 30
0.0
 11
862.48767216632177
 21
-1307.2340815977441
 31
0.0
  0
LINE
  5
C436
  8
01
  6
BYBLOCK
 10
862.48767216632177
 20
-1307.2340815977441
 30
0.0
 11
859.88767216632175
 21
-1307.9307494917441
 31
0.0
  0
LINE
  5
C437
  8
01
  6
BYBLOCK
 10
862.48767216632177
 20
-1307.2340815977441
 30
0.0
 11
859.88767216632175
 21
-1307.2340815977441
 31
0.0
  0
LINE
  5
C438
  8
01
  6
BYBLOCK
 10
856.78766916632355
 20
-1307.9307494917441
 30
0.0
 11
854.18766916632353
 21
-1307.2340815977441
 31
0.0
  0
LINE
  5
C439
  8
01
  6
BYBLOCK
 10
854.18766916632353
 20
-1307.2340815977441
 30
0.0
 11
856.78766916632355
 21
-1306.5374137037441
 31
0.0
  0
LINE
  5
C43A
  8
01
  6
BYBLOCK
 10
854.18766916632353
 20
-1307.2340815977441
 30
0.0
 11
856.78766916632355
 21
-1307.2340815977441
 31
0.0
  0
TEXT
  5
C43B
  8
01
 10
997.14600617719987
 20
-1329.324081597744
 30
0.0
 40
4.5499999999999989
  1
□40
  0
LINE
  5
C43C
  8
01
  6
BYBLOCK
 10
1021.587672843866
 20
-1329.5374137037441
 30
0.0
 11
1024.187672843866
 21
-1330.2340815977441
 31
0.0
  0
LINE
  5
C43D
  8
01
  6
BYBLOCK
 10
1024.187672843866
 20
-1330.2340815977441
 30
0.0
 11
1021.587672843866
 21
-1330.9307494917441
 31
0.0
  0
LINE
  5
C43E
  8
01
  6
BYBLOCK
 10
1024.187672843866
 20
-1330.2340815977441
 30
0.0
 11
1021.587672843866
 21
-1330.2340815977441
 31
0.0
  0
LINE
  5
C43F
  8
01
  6
BYBLOCK
 10
986.78767284386674
 20
-1330.9307494917441
 30
0.0
 11
984.18767284386661
 21
-1330.2340815977441
 31
0.0
  0
LINE
  5
C440
  8
01
  6
BYBLOCK
 10
984.18767284386661
 20
-1330.2340815977441
 30
0.0
 11
986.78767284386674
 21
-1329.5374137037441
 31
0.0
  0
LINE
  5
C441
  8
01
  6
BYBLOCK
 10
984.18767284386661
 20
-1330.2340815977441
 30
0.0
 11
986.78767284386674
 21
-1330.2340815977441
 31
0.0
  0
TEXT
  5
C442
  8
01
 10
657.14599817719761
 20
-1329.324081597744
 30
0.0
 40
4.5499999999999989
  1
□40
  0
LINE
  5
C443
  8
01
  6
BYBLOCK
 10
681.58766484386388
 20
-1329.5374137037441
 30
0.0
 11
684.18766484386401
 21
-1330.2340815977441
 31
0.0
  0
LINE
  5
C444
  8
01
  6
BYBLOCK
 10
684.18766484386401
 20
-1330.2340815977441
 30
0.0
 11
681.58766484386388
 21
-1330.9307494917441
 31
0.0
  0
LINE
  5
C445
  8
01
  6
BYBLOCK
 10
684.18766484386401
 20
-1330.2340815977441
 30
0.0
 11
681.58766484386388
 21
-1330.2340815977441
 31
0.0
  0
LINE
  5
C446
  8
01
  6
BYBLOCK
 10
646.78766484386449
 20
-1330.9307494917441
 30
0.0
 11
644.18766484386435
 21
-1330.2340815977441
 31
0.0
  0
LINE
  5
C447
  8
01
  6
BYBLOCK
 10
644.18766484386435
 20
-1330.2340815977441
 30
0.0
 11
646.78766484386449
 21
-1329.5374137037441
 31
0.0
  0
LINE
  5
C448
  8
01
  6
BYBLOCK
 10
644.18766484386435
 20
-1330.2340815977441
 30
0.0
 11
646.78766484386449
 21
-1330.2340815977441
 31
0.0
  0
TEXT
  5
C449
  8
01
 10
630.27768516632375
 20
-1392.5674149310771
 30
0.0
 40
4.5499999999999989
  1
50
 50
90.0
  0
LINE
  5
C44A
  8
01
  6
BYBLOCK
 10
630.49101727232335
 20
-1365.834081597744
 30
0.0
 11
631.18768516632338
 21
-1363.2340815977441
 31
0.0
  0
LINE
  5
C44B
  8
01
  6
BYBLOCK
 10
631.18768516632338
 20
-1363.2340815977441
 30
0.0
 11
631.88435306032352
 21
-1365.834081597744
 31
0.0
  0
LINE
  5
C44C
  8
01
  6
BYBLOCK
 10
631.18768516632338
 20
-1363.2340815977441
 30
0.0
 11
631.18768516632338
 21
-1365.834081597744
 31
0.0
  0
LINE
  5
C44D
  8
01
  6
BYBLOCK
 10
631.88435306032352
 20
-1410.6340815977439
 30
0.0
 11
631.18768516632338
 21
-1413.2340815977441
 31
0.0
  0
LINE
  5
C44E
  8
01
  6
BYBLOCK
 10
631.18768516632338
 20
-1413.2340815977441
 30
0.0
 11
630.49101727232335
 21
-1410.6340815977439
 31
0.0
  0
LINE
  5
C44F
  8
01
  6
BYBLOCK
 10
631.18768516632338
 20
-1413.2340815977441
 30
0.0
 11
631.18768516632338
 21
-1410.6340815977439
 31
0.0
  0
TEXT
  5
C450
  8
01
 10
620.27768516632375
 20
-1393.0674149310771
 30
0.0
 40
4.5499999999999989
  1
55.5
 50
90.0
  0
LINE
  5
C451
  8
01
  6
BYBLOCK
 10
620.49101727232335
 20
-1360.334081597744
 30
0.0
 11
621.18768516632349
 21
-1357.7340815977441
 31
0.0
  0
LINE
  5
C452
  8
01
  6
BYBLOCK
 10
621.18768516632349
 20
-1357.7340815977441
 30
0.0
 11
621.88435306032352
 21
-1360.334081597744
 31
0.0
  0
LINE
  5
C453
  8
01
  6
BYBLOCK
 10
621.18768516632349
 20
-1357.7340815977441
 30
0.0
 11
621.18768516632349
 21
-1360.334081597744
 31
0.0
  0
LINE
  5
C454
  8
01
  6
BYBLOCK
 10
621.88435306032352
 20
-1410.6340815977439
 30
0.0
 11
621.18768516632349
 21
-1413.2340815977441
 31
0.0
  0
LINE
  5
C455
  8
01
  6
BYBLOCK
 10
621.18768516632349
 20
-1413.2340815977441
 30
0.0
 11
620.49101727232335
 21
-1410.6340815977439
 31
0.0
  0
LINE
  5
C456
  8
01
  6
BYBLOCK
 10
621.18768516632349
 20
-1413.2340815977441
 30
0.0
 11
621.18768516632349
 21
-1410.6340815977439
 31
0.0
  0
TEXT
  5
C457
  8
01
 10
877.78126020288039
 20
-1381.3536942507619
 30
0.0
 40
4.5499999999999989
  1
114
 50
90.0
  0
LINE
  5
C458
  8
01
  6
BYBLOCK
 10
879.38792809688016
 20
-1446.6340815977439
 30
0.0
 11
878.69126020288013
 21
-1449.2340815977441
 31
0.0
  0
LINE
  5
C459
  8
01
  6
BYBLOCK
 10
878.69126020288013
 20
-1449.2340815977441
 30
0.0
 11
877.9945923088801
 21
-1446.6340815977439
 31
0.0
  0
LINE
  5
C45A
  8
01
  6
BYBLOCK
 10
878.69126020288013
 20
-1449.2340815977441
 30
0.0
 11
878.69126020288013
 21
-1446.6340815977439
 31
0.0
  0
LINE
  5
C45B
  8
01
  6
BYBLOCK
 10
877.9945923088801
 20
-1337.834081597744
 30
0.0
 11
878.69126020288013
 21
-1335.2340815977441
 31
0.0
  0
LINE
  5
C45C
  8
01
  6
BYBLOCK
 10
878.69126020288013
 20
-1335.2340815977441
 30
0.0
 11
879.38792809688016
 21
-1337.834081597744
 31
0.0
  0
LINE
  5
C45D
  8
01
  6
BYBLOCK
 10
878.69126020288013
 20
-1335.2340815977441
 30
0.0
 11
878.69126020288013
 21
-1337.834081597744
 31
0.0
  0
TEXT
  5
C45E
  8
01
 10
893.27766916632345
 20
-1381.245360917429
 30
0.0
 40
4.5499999999999989
  1
130
 50
90.0
  0
LINE
  5
C45F
  8
01
  6
BYBLOCK
 10
894.88433706032333
 20
-1454.6340815977439
 30
0.0
 11
894.1876691663233
 21
-1457.2340815977441
 31
0.0
  0
LINE
  5
C460
  8
01
  6
BYBLOCK
 10
894.1876691663233
 20
-1457.2340815977441
 30
0.0
 11
893.49100127232316
 21
-1454.6340815977439
 31
0.0
  0
LINE
  5
C461
  8
01
  6
BYBLOCK
 10
894.1876691663233
 20
-1457.2340815977441
 30
0.0
 11
894.1876691663233
 21
-1454.6340815977439
 31
0.0
  0
LINE
  5
C462
  8
01
  6
BYBLOCK
 10
893.49100127232316
 20
-1329.834081597744
 30
0.0
 11
894.1876691663233
 21
-1327.2340815977441
 31
0.0
  0
LINE
  5
C463
  8
01
  6
BYBLOCK
 10
894.1876691663233
 20
-1327.2340815977441
 30
0.0
 11
894.88433706032333
 21
-1329.834081597744
 31
0.0
  0
LINE
  5
C464
  8
01
  6
BYBLOCK
 10
894.1876691663233
 20
-1327.2340815977441
 30
0.0
 11
894.1876691663233
 21
-1329.834081597744
 31
0.0
  0
TEXT
  5
C465
  8
01
 10
983.35433183299153
 20
-1296.324081597744
 30
0.0
 40
4.5499999999999989
  1
69
  0
LINE
  5
C466
  8
01
  6
BYBLOCK
 10
955.78766516632493
 20
-1297.9307494917441
 30
0.0
 11
953.18766516632502
 21
-1297.2340815977441
 31
0.0
  0
LINE
  5
C467
  8
01
  6
BYBLOCK
 10
953.18766516632502
 20
-1297.2340815977441
 30
0.0
 11
955.78766516632493
 21
-1296.5374137037441
 31
0.0
  0
LINE
  5
C468
  8
01
  6
BYBLOCK
 10
953.18766516632502
 20
-1297.2340815977441
 30
0.0
 11
955.78766516632493
 21
-1297.2340815977441
 31
0.0
  0
LINE
  5
C469
  8
01
  6
BYBLOCK
 10
1019.587665166325
 20
-1296.5374137037441
 30
0.0
 11
1022.187665166325
 21
-1297.2340815977441
 31
0.0
  0
LINE
  5
C46A
  8
01
  6
BYBLOCK
 10
1022.187665166325
 20
-1297.2340815977441
 30
0.0
 11
1019.587665166325
 21
-1297.9307494917441
 31
0.0
  0
LINE
  5
C46B
  8
01
  6
BYBLOCK
 10
1022.187665166325
 20
-1297.2340815977441
 30
0.0
 11
1019.587665166325
 21
-1297.2340815977441
 31
0.0
  0
TEXT
  5
C46C
  8
01
 10
1054.280081603863
 20
-1245.8740815987719
 30
0.0
 40
4.5499999999999989
  1
114
  0
LINE
  5
C46D
  8
01
  6
BYBLOCK
 10
1115.639048368324
 20
-1246.0874137047731
 30
0.0
 11
1118.2390483683239
 21
-1246.7840815987729
 31
0.0
  0
LINE
  5
C46E
  8
01
  6
BYBLOCK
 10
1118.2390483683239
 20
-1246.7840815987729
 30
0.0
 11
1115.639048368324
 21
-1247.4807494927729
 31
0.0
  0
LINE
  5
C46F
  8
01
  6
BYBLOCK
 10
1118.2390483683239
 20
-1246.7840815987729
 30
0.0
 11
1115.639048368324
 21
-1246.7840815987729
 31
0.0
  0
LINE
  5
C470
  8
01
  6
BYBLOCK
 10
1006.787781506069
 20
-1247.4807494927729
 30
0.0
 11
1004.187781506069
 21
-1246.7840815987729
 31
0.0
  0
LINE
  5
C471
  8
01
  6
BYBLOCK
 10
1004.187781506069
 20
-1246.7840815987729
 30
0.0
 11
1006.787781506069
 21
-1246.0874137047731
 31
0.0
  0
LINE
  5
C472
  8
01
  6
BYBLOCK
 10
1004.187781506069
 20
-1246.7840815987729
 30
0.0
 11
1006.787781506069
 21
-1246.7840815987729
 31
0.0
  0
TEXT
  5
C473
  8
01
 10
1048.8634149371969
 20
-1255.8740815987719
 30
0.0
 40
4.5499999999999989
  1
125
  0
LINE
  5
C474
  8
01
  6
BYBLOCK
 10
1115.639048368324
 20
-1256.087413704772
 30
0.0
 11
1118.2390483683239
 21
-1256.784081598772
 31
0.0
  0
LINE
  5
C475
  8
01
  6
BYBLOCK
 10
1118.2390483683239
 20
-1256.784081598772
 30
0.0
 11
1115.639048368324
 21
-1257.4807494927729
 31
0.0
  0
LINE
  5
C476
  8
01
  6
BYBLOCK
 10
1118.2390483683239
 20
-1256.784081598772
 30
0.0
 11
1115.639048368324
 21
-1256.784081598772
 31
0.0
  0
LINE
  5
C477
  8
01
  6
BYBLOCK
 10
995.73778150607063
 20
-1257.4807494927729
 30
0.0
 11
993.13778150607038
 21
-1256.784081598772
 31
0.0
  0
LINE
  5
C478
  8
01
  6
BYBLOCK
 10
993.13778150607038
 20
-1256.784081598772
 30
0.0
 11
995.73778150607063
 21
-1256.087413704772
 31
0.0
  0
LINE
  5
C479
  8
01
  6
BYBLOCK
 10
993.13778150607038
 20
-1256.784081598772
 30
0.0
 11
995.73778150607063
 21
-1256.784081598772
 31
0.0
  0
TEXT
  5
C47A
  8
01
 10
1127.329048368324
 20
-1191.17876211732
 30
0.0
 40
4.5499999999999989
  1
47
 50
90.0
  0
LINE
  5
C47B
  8
01
  6
BYBLOCK
 10
1128.9357162623239
 20
-1207.856775969201
 30
0.0
 11
1128.2390483683239
 21
-1210.4567759692011
 31
0.0
  0
LINE
  5
C47C
  8
01
  6
BYBLOCK
 10
1128.2390483683239
 20
-1210.4567759692011
 30
0.0
 11
1127.5423804743241
 21
-1207.856775969201
 31
0.0
  0
LINE
  5
C47D
  8
01
  6
BYBLOCK
 10
1128.2390483683239
 20
-1210.4567759692011
 30
0.0
 11
1128.2390483683239
 21
-1207.856775969201
 31
0.0
  0
LINE
  5
C47E
  8
01
  6
BYBLOCK
 10
1127.5423804743241
 20
-1165.8340815987731
 30
0.0
 11
1128.2390483683239
 21
-1163.2340815987729
 31
0.0
  0
LINE
  5
C47F
  8
01
  6
BYBLOCK
 10
1128.2390483683239
 20
-1163.2340815987729
 30
0.0
 11
1128.9357162623239
 21
-1165.8340815987731
 31
0.0
  0
LINE
  5
C480
  8
01
  6
BYBLOCK
 10
1128.2390483683239
 20
-1163.2340815987729
 30
0.0
 11
1128.2390483683239
 21
-1165.8340815987731
 31
0.0
  0
TEXT
  5
C481
  8
01
 10
1137.329048368324
 20
-1204.450748265439
 30
0.0
 40
4.5499999999999989
  1
74
 50
90.0
  0
LINE
  5
C482
  8
01
  6
BYBLOCK
 10
1138.9357162623239
 20
-1234.184081598773
 30
0.0
 11
1138.2390483683239
 21
-1236.784081598772
 31
0.0
  0
LINE
  5
C483
  8
01
  6
BYBLOCK
 10
1138.2390483683239
 20
-1236.784081598772
 30
0.0
 11
1137.5423804743241
 21
-1234.184081598773
 31
0.0
  0
LINE
  5
C484
  8
01
  6
BYBLOCK
 10
1138.2390483683239
 20
-1236.784081598772
 30
0.0
 11
1138.2390483683239
 21
-1234.184081598773
 31
0.0
  0
LINE
  5
C485
  8
01
  6
BYBLOCK
 10
1137.5423804743241
 20
-1165.8340815987731
 30
0.0
 11
1138.2390483683239
 21
-1163.2340815987729
 31
0.0
  0
LINE
  5
C486
  8
01
  6
BYBLOCK
 10
1138.2390483683239
 20
-1163.2340815987729
 30
0.0
 11
1138.9357162623239
 21
-1165.8340815987731
 31
0.0
  0
LINE
  5
C487
  8
01
  6
BYBLOCK
 10
1138.2390483683239
 20
-1163.2340815987729
 30
0.0
 11
1138.2390483683239
 21
-1165.8340815987731
 31
0.0
  0
TEXT
  5
C488
  8
01
 10
798.85414305012944
 20
-1306.324081597744
 30
0.0
 40
4.5499999999999989
  1
22
  0
LINE
  5
C489
  8
01
  6
BYBLOCK
 10
794.78728360060188
 20
-1307.9307494917441
 30
0.0
 11
792.18728360060175
 21
-1307.2340815977441
 31
0.0
  0
LINE
  5
C48A
  8
01
  6
BYBLOCK
 10
792.18728360060175
 20
-1307.2340815977441
 30
0.0
 11
794.78728360060188
 21
-1306.5374137037441
 31
0.0
  0
LINE
  5
C48B
  8
01
  6
BYBLOCK
 10
792.18728360060175
 20
-1307.2340815977441
 30
0.0
 11
794.78728360060188
 21
-1307.2340815977441
 31
0.0
  0
LINE
  5
C48C
  8
01
  6
BYBLOCK
 10
811.58766916632351
 20
-1306.5374137037441
 30
0.0
 11
814.18766916632353
 21
-1307.2340815977441
 31
0.0
  0
LINE
  5
C48D
  8
01
  6
BYBLOCK
 10
814.18766916632353
 20
-1307.2340815977441
 30
0.0
 11
811.58766916632351
 21
-1307.9307494917441
 31
0.0
  0
LINE
  5
C48E
  8
01
  6
BYBLOCK
 10
814.18766916632353
 20
-1307.2340815977441
 30
0.0
 11
811.58766916632351
 21
-1307.2340815977441
 31
0.0
  0
TEXT
  5
C48F
  8
01
 10
968.27766516632369
 20
-1421.615494226565
 30
0.0
 40
4.5499999999999989
  1
□53
 50
90.0
  0
LINE
  5
C490
  8
01
  6
BYBLOCK
 10
969.88433306032346
 20
-1437.134081597746
 30
0.0
 11
969.18766516632354
 21
-1439.7340815977459
 31
0.0
  0
LINE
  5
C491
  8
01
  6
BYBLOCK
 10
969.18766516632354
 20
-1439.7340815977459
 30
0.0
 11
968.4909972723234
 21
-1437.134081597746
 31
0.0
  0
LINE
  5
C492
  8
01
  6
BYBLOCK
 10
969.18766516632354
 20
-1439.7340815977459
 30
0.0
 11
969.18766516632354
 21
-1437.134081597746
 31
0.0
  0
LINE
  5
C493
  8
01
  6
BYBLOCK
 10
968.4909972723234
 20
-1389.334081597746
 30
0.0
 11
969.18766516632354
 21
-1386.7340815977459
 31
0.0
  0
LINE
  5
C494
  8
01
  6
BYBLOCK
 10
969.18766516632354
 20
-1386.7340815977459
 30
0.0
 11
969.88433306032346
 21
-1389.334081597746
 31
0.0
  0
LINE
  5
C495
  8
01
  6
BYBLOCK
 10
969.18766516632354
 20
-1386.7340815977459
 30
0.0
 11
969.18766516632354
 21
-1389.334081597746
 31
0.0
  0
TEXT
  5
C496
  8
01
 10
1048.2776651663239
 20
-1399.5674149310771
 30
0.0
 40
4.5499999999999989
  1
74.5
 50
90.0
  0
LINE
  5
C497
  8
01
  6
BYBLOCK
 10
1049.884333060324
 20
-1426.6340815977439
 30
0.0
 11
1049.187665166324
 21
-1429.2340815977441
 31
0.0
  0
LINE
  5
C498
  8
01
  6
BYBLOCK
 10
1049.187665166324
 20
-1429.2340815977441
 30
0.0
 11
1048.490997272324
 21
-1426.6340815977439
 31
0.0
  0
LINE
  5
C499
  8
01
  6
BYBLOCK
 10
1049.187665166324
 20
-1429.2340815977441
 30
0.0
 11
1049.187665166324
 21
-1426.6340815977439
 31
0.0
  0
LINE
  5
C49A
  8
01
  6
BYBLOCK
 10
1048.490997272324
 20
-1357.334081597744
 30
0.0
 11
1049.187665166324
 21
-1354.7340815977441
 31
0.0
  0
LINE
  5
C49B
  8
01
  6
BYBLOCK
 10
1049.187665166324
 20
-1354.7340815977441
 30
0.0
 11
1049.884333060324
 21
-1357.334081597744
 31
0.0
  0
LINE
  5
C49C
  8
01
  6
BYBLOCK
 10
1049.187665166324
 20
-1354.7340815977441
 30
0.0
 11
1049.187665166324
 21
-1357.334081597744
 31
0.0
  0
TEXT
  5
C49D
  8
01
 10
1043.1389401080969
 20
-1150.817414932106
 30
0.0
 40
4.5499999999999989
  1
20.5
 50
90.0
  0
LINE
  5
C49E
  8
01
  6
BYBLOCK
 10
1044.7456080020961
 20
-1150.884081598773
 30
0.0
 11
1044.0489401080961
 21
-1153.4840815987729
 31
0.0
  0
LINE
  5
C49F
  8
01
  6
BYBLOCK
 10
1044.0489401080961
 20
-1153.4840815987729
 30
0.0
 11
1043.352272214096
 21
-1150.884081598773
 31
0.0
  0
LINE
  5
C4A0
  8
01
  6
BYBLOCK
 10
1044.0489401080961
 20
-1153.4840815987729
 30
0.0
 11
1044.0489401080961
 21
-1150.884081598773
 31
0.0
  0
LINE
  5
C4A1
  8
01
  6
BYBLOCK
 10
1043.352272214096
 20
-1135.5840815987719
 30
0.0
 11
1044.0489401080961
 21
-1132.9840815987729
 31
0.0
  0
LINE
  5
C4A2
  8
01
  6
BYBLOCK
 10
1044.0489401080961
 20
-1132.9840815987729
 30
0.0
 11
1044.7456080020961
 21
-1135.5840815987719
 31
0.0
  0
LINE
  5
C4A3
  8
01
  6
BYBLOCK
 10
1044.0489401080961
 20
-1132.9840815987729
 30
0.0
 11
1044.0489401080961
 21
-1135.5840815987719
 31
0.0
  0
LINE
  5
C4A4
  8
01
 10
1001.876728294392
 20
-1182.7299927573481
 30
0.0
 11
976.94082625934061
 21
-1202.144081598773
 31
0.0
1001
ACAD
1000
DSTYLE
1002
{
1070
    40
1040
1.3
1002
}
  0
LINE
  5
C4A5
  8
01
 10
976.94082625934061
 20
-1202.144081598773
 30
0.0
 11
973.43082625934062
 21
-1202.144081598773
 31
0.0
1001
ACAD
1000
DSTYLE
1002
{
1070
    40
1040
1.3
1002
}
  0
VIEWPORT
  5
57
 67
     1
  8
0
 10
10.301416158199199
 20
17.565658765306811
 30
0.0
 40
436.77985297763468
 41
283.71363901379101
 68
     1
 69
     1
1001
ACAD
1000
MVIEW
1002
{
1070
    16
1010
0.0
1020
0.0
1030
0.0
1010
0.0
1020
0.0
1030
1.0
1040
0.0
1040
283.71363901379101
1040
10.301416158199199
1040
17.565658765306811
1040
50.0
1040
0.0
1040
0.0
1070
     0
1070
   100
1070
     1
1070
     1
1070
     0
1070
     0
1070
     0
1070
     0
1040
0.0
1040
0.0
1040
0.0
1040
10.0
1040
10.0
1040
10.0
1040
10.0
1070
     0
1002
{
1002
}
1002
}
  0
ENDSEC
  0
EOF
