  0
SECTION
  2
HEADER
  9
$ACADVER
  1
AC1009
  9
$INSBASE
 10
0.0
 20
0.0
 30
0.0
  9
$EXTMIN
 10
1213.530766876579
 20
-1477.036366120393
 30
0.0
  9
$EXTMAX
 10
1804.332142078581
 20
-1065.4233589257899
 30
0.0
  9
$LIMMIN
 10
0.0
 20
0.0
  9
$LIMMAX
 10
420.0
 20
297.0
  9
$ORTHOMODE
 70
     0
  9
$REGENMODE
 70
     1
  9
$FILLMODE
 70
     1
  9
$QTEXTMODE
 70
     0
  9
$MIRRTEXT
 70
     0
  9
$DRAGMODE
 70
     2
  9
$LTSCALE
 40
0.5
  9
$OSMODE
 70
  2175
  9
$ATTMODE
 70
     1
  9
$TEXTSIZE
 40
4.0
  9
$TRACEWID
 40
1.0
  9
$TEXTSTYLE
  7
STANDARD
  9
$CLAYER
  8
1TEXT
  9
$CELTYPE
  6
BYLAYER
  9
$CECOLOR
 62
   256
  9
$DIMSCALE
 40
1.0
  9
$DIMASZ
 40
2.0
  9
$DIMEXO
 40
0.0
  9
$DIMDLI
 40
7.0
  9
$DIMRND
 40
0.0
  9
$DIMDLE
 40
0.0
  9
$DIMEXE
 40
1.0
  9
$DIMTP
 40
0.0
  9
$DIMTM
 40
0.0
  9
$DIMTXT
 40
3.5
  9
$DIMCEN
 40
0.0
  9
$DIMTSZ
 40
0.0
  9
$DIMTOL
 70
     0
  9
$DIMLIM
 70
     0
  9
$DIMTIH
 70
     0
  9
$DIMTOH
 70
     0
  9
$DIMSE1
 70
     0
  9
$DIMSE2
 70
     0
  9
$DIMTAD
 70
     1
  9
$DIMZIN
 70
     8
  9
$DIMBLK
  1

  9
$DIMASO
 70
     1
  9
$DIMSHO
 70
     1
  9
$DIMPOST
  1
 
  9
$DIMAPOST
  1

  9
$DIMALT
 70
     0
  9
$DIMALTD
 70
     2
  9
$DIMALTF
 40
25.399999999999999
  9
$DIMLFAC
 40
1.0
  9
$DIMTOFL
 70
     1
  9
$DIMTVP
 40
0.0
  9
$DIMTIX
 70
     0
  9
$DIMSOXD
 70
     0
  9
$DIMSAH
 70
     1
  9
$DIMBLK1
  1
OPEN30
  9
$DIMBLK2
  1
OPEN30
  9
$DIMSTYLE
  2
NEWX10
  9
$DIMCLRD
 70
   256
  9
$DIMCLRE
 70
   256
  9
$DIMCLRT
 70
   201
  9
$DIMTFAC
 40
0.7
  9
$DIMGAP
 40
0.7
  9
$LUNITS
 70
     2
  9
$LUPREC
 70
     4
  9
$SKETCHINC
 40
1.0
  9
$FILLETRAD
 40
0.0
  9
$AUNITS
 70
     0
  9
$AUPREC
 70
     2
  9
$MENU
  1
acad
  9
$ELEVATION
 40
0.0
  9
$PELEVATION
 40
0.0
  9
$THICKNESS
 40
0.0
  9
$LIMCHECK
 70
     0
  9
$BLIPMODE
 70
     0
  9
$CHAMFERA
 40
10.0
  9
$CHAMFERB
 40
10.0
  9
$SKPOLY
 70
     0
  9
$TDCREATE
 40
2451318.621352917
  9
$TDUPDATE
 40
2456016.7705338541
  9
$TDINDWG
 40
0.5600254282
  9
$TDUSRTIMER
 40
0.5600254282
  9
$USRTIMER
 70
     1
  9
$ANGBASE
 50
0.0
  9
$ANGDIR
 70
     0
  9
$PDMODE
 70
     0
  9
$PDSIZE
 40
0.0
  9
$PLINEWID
 40
0.0
  9
$COORDS
 70
     2
  9
$SPLFRAME
 70
     0
  9
$SPLINETYPE
 70
     6
  9
$SPLINESEGS
 70
     8
  9
$ATTDIA
 70
     0
  9
$ATTREQ
 70
     1
  9
$HANDLING
 70
     1
  9
$HANDSEED
  5
C878
  9
$SURFTAB1
 70
     6
  9
$SURFTAB2
 70
     6
  9
$SURFTYPE
 70
     6
  9
$SURFU
 70
     6
  9
$SURFV
 70
     6
  9
$UCSNAME
  2

  9
$UCSORG
 10
0.0
 20
0.0
 30
0.0
  9
$UCSXDIR
 10
1.0
 20
0.0
 30
0.0
  9
$UCSYDIR
 10
0.0
 20
1.0
 30
0.0
  9
$PUCSNAME
  2

  9
$PUCSORG
 10
0.0
 20
0.0
 30
0.0
  9
$PUCSXDIR
 10
1.0
 20
0.0
 30
0.0
  9
$PUCSYDIR
 10
0.0
 20
1.0
 30
0.0
  9
$USERI1
 70
     0
  9
$USERI2
 70
     0
  9
$USERI3
 70
     0
  9
$USERI4
 70
     0
  9
$USERI5
 70
     0
  9
$USERR1
 40
0.0
  9
$USERR2
 40
0.0
  9
$USERR3
 40
0.0
  9
$USERR4
 40
0.0
  9
$USERR5
 40
0.0
  9
$WORLDVIEW
 70
     1
  9
$SHADEDGE
 70
     3
  9
$SHADEDIF
 70
    70
  9
$TILEMODE
 70
     1
  9
$MAXACTVP
 70
    48
  9
$PLIMCHECK
 70
     0
  9
$PEXTMIN
 10
1.0000000000000000E+020
 20
1.0000000000000000E+020
 30
1.0000000000000000E+020
  9
$PEXTMAX
 10
-1.0000000000000000E+020
 20
-1.0000000000000000E+020
 30
-1.0000000000000000E+020
  9
$PLIMMIN
 10
0.0
 20
0.0
  9
$PLIMMAX
 10
420.0
 20
297.0
  9
$UNITMODE
 70
     0
  9
$VISRETAIN
 70
     1
  9
$PLINEGEN
 70
     0
  9
$PSLTSCALE
 70
     1
  0
ENDSEC
  0
SECTION
  2
TABLES
  0
TABLE
  2
VPORT
 70
     1
  0
VPORT
  2
*ACTIVE
 70
     0
 10
0.0
 20
0.0
 11
1.0
 21
1.0
 12
1508.900841282609
 22
-1271.2258389240769
 13
0.0
 23
0.0
 14
10.0
 24
10.0
 15
10.0
 25
10.0
 16
0.0
 26
0.0
 36
1.0
 17
0.0
 27
0.0
 37
0.0
 40
436.93724255846968
 41
1.5395095367847409
 42
50.0
 43
0.0
 44
0.0
 50
0.0
 51
0.0
 71
     0
 72
   100
 73
     1
 74
     1
 75
     0
 76
     0
 77
     0
 78
     0
  0
ENDTAB
  0
TABLE
  2
LTYPE
 70
    12
  0
LTYPE
  2
CONTINUOUS
 70
     0
  3
Solid line
 72
    65
 73
     0
 40
0.0
  0
LTYPE
  2
XREF1|CENTER2
 70
    48
  3
Center (.5x) ___ _ ___ _ ___ _ ___ _ ___ _ ___
 72
    65
 73
     4
 40
28.574999999999999
 49
19.050000000000001
 49
-3.1749999999999989
 49
3.1749999999999989
 49
-3.1749999999999989
  0
LTYPE
  2
A3WAKUDAKE|CENTER2
 70
    48
  3
Center (.5x) ___ _ ___ _ ___ _ ___ _ ___ _ ___
 72
    65
 73
     4
 40
28.574999999999999
 49
19.050000000000001
 49
-3.1749999999999989
 49
3.1749999999999989
 49
-3.1749999999999989
  0
ENDTAB
  0
TABLE
  2
LAYER
 70
    36
  0
LAYER
  2
0
 70
     0
 62
     7
  6
CONTINUOUS
  0
LAYER
  2
1TEXT
 70
     0
 62
     7
  6
CONTINUOUS
  0
LAYER
  2
01
 70
     0
 62
     1
  6
CONTINUOUS
  0
LAYER
  2
A3WAKUDAKE|THICK
 70
    48
 62
     7
  6
CONTINUOUS
  0
LAYER
  2
A3WAKUDAKE|POINT
 70
    48
 62
     7
  6
CONTINUOUS
  0
LAYER
  2
A3WAKUDAKE|1CENTER
 70
    48
 62
     7
  6
A3WAKUDAKE|CENTER2
  0
LAYER
  2
A3WAKUDAKE|0-6
 70
    48
 62
     7
  6
CONTINUOUS
  0
LAYER
  2
A3WAKUDAKE|1DIM
 70
    48
 62
     7
  6
CONTINUOUS
  0
LAYER
  2
XREF1|1CENTER
 70
    48
 62
     7
  6
XREF1|CENTER2
  0
ENDTAB
  0
TABLE
  2
STYLE
 70
     4
  0
STYLE
  2
STANDARD
 70
     0
 40
0.0
 41
1.0
 50
0.0
 71
     0
 42
4.0
  3
romans.shx
  4
extfont.shx
  0
ENDTAB
  0
TABLE
  2
VIEW
 70
     5
  0
ENDTAB
  0
TABLE
  2
UCS
 70
     0
  0
ENDTAB
  0
TABLE
  2
APPID
 70
     9
  0
APPID
  2
ACAD
 70
     0
  0
APPID
  2
DRAWINGVARIABLESXDATA
 70
     0
  0
APPID
  2
CONTENTTABDATA
 70
     0
  0
APPID
  2
CONTENTCURRENTTAB
 70
     0
  0
APPID
  2
CONTENTBLOCKDESCRIPTION
 70
     0
  0
APPID
  2
CONTENTBLOCKICON
 70
     0
  0
APPID
  2
CONTENTLONGBLOCKNAME
 70
     0
  0
APPID
  2
ACAD_PSEXT
 70
     0
  0
APPID
  2
ACAD_MLEADERVER
 70
     0
  0
ENDTAB
  0
TABLE
  2
DIMSTYLE
 70
     5
  0
DIMSTYLE
  2
NEWX10
 70
     0
  3
 
  4

  5

  6
OPEN30
  7
OPEN30
 40
1.0
 41
2.0
 42
0.0
 43
7.0
 44
1.0
 45
0.0
 46
0.0
 47
0.0
 48
0.0
140
3.5
141
0.0
142
0.0
143
25.399999999999999
144
1.0
145
0.0
146
0.7
147
0.7
 71
     0
 72
     0
 73
     0
 74
     0
 75
     0
 76
     0
 77
     1
 78
     8
170
     0
171
     2
172
     1
173
     1
174
     0
175
     0
176
   256
177
   256
178
   201
  0
ENDTAB
  0
ENDSEC
  0
SECTION
  2
BLOCKS
  0
BLOCK
  8
0
  2
$MODEL_SPACE
 70
     0
 10
0.0
 20
0.0
 30
0.0
  3
$MODEL_SPACE
  1

  0
ENDBLK
  5
1A
  8
0
  0
BLOCK
 67
     1
  8
0
  2
$PAPER_SPACE
 70
     0
 10
0.0
 20
0.0
 30
0.0
  3
$PAPER_SPACE
  1

  0
ENDBLK
  5
17
 67
     1
  8
0
  0
BLOCK
  8
0
  2
_OPEN30
 70
     0
 10
0.0
 20
0.0
 30
0.0
  3
_OPEN30
  1

  0
LINE
  5
44
  8
0
  6
BYBLOCK
 62
     0
 10
-1.0
 20
0.26794919
 30
0.0
 11
0.0
 21
0.0
 31
0.0
  0
LINE
  5
45
  8
0
  6
BYBLOCK
 62
     0
 10
0.0
 20
0.0
 30
0.0
 11
-1.0
 21
-0.26794919
 31
0.0
  0
LINE
  5
46
  8
0
  6
BYBLOCK
 62
     0
 10
0.0
 20
0.0
 30
0.0
 11
-1.0
 21
0.0
 31
0.0
  0
ENDBLK
  5
47
  8
0
  0
BLOCK
  8
0
  2
XREF1
 70
    36
 10
0.0
 20
0.0
 30
0.0
  3
XREF1
  1
D:\ACLT\FORMAT\KAWAJUN(9)図面用.dwg
  0
ENDBLK
  5
5D
  8
0
  0
BLOCK
  8
0
  2
A3WAKUDAKE
 70
    36
 10
0.0
 20
0.0
 30
0.0
  3
A3WAKUDAKE
  1
D:\ACLT\FORMAT\A3WAKUdake.dwg
  0
ENDBLK
  5
6A0
  8
0
  0
BLOCK
  8
0
  2
*U27
 70
     1
 10
0.0
 20
0.0
 30
0.0
  3
*U27
  1

  0
TEXT
  5
C767
  8
1TEXT
 62
   201
 10
1708.1420338183541
 20
-1154.533759454755
 30
0.0
 40
3.5
  1
20.5
 50
90.0
  0
ENDBLK
  5
C769
  8
0
  0
BLOCK
  8
0
  2
*U28
 70
     1
 10
0.0
 20
0.0
 30
0.0
  3
*U28
  1

  0
TEXT
  5
C76B
  8
1TEXT
 62
   201
 10
1043.1389401080969
 20
-397.31741493210592
 30
0.0
 40
4.5499999999999989
  1
20.5
 50
90.0
  0
ENDBLK
  5
C76D
  8
0
  0
ENDSEC
  0
SECTION
  2
ENTITIES
  0
TEXT
  5
B95D
  8
01
 10
1312.893983071742
 20
-1114.7246523629881
 30
0.0
 40
20.0
  1
2-S2T-X-LW-2
  0
LINE
  5
B95F
  8
01
 10
1312.893983071742
 20
-1176.2246523629881
 30
0.0
 11
1417.893983071742
 21
-1176.2246523629881
 31
0.0
  0
TEXT
  5
B961
  8
01
 10
1325.3939830717411
 20
-1152.9746523629881
 30
0.0
 40
6.0
  1
表面処理
 72
     1
 11
1338.993983071741
 21
-1152.9746523629881
 31
0.0
  0
LINE
  5
B963
  8
01
 10
1312.893983071742
 20
-1144.7246523629881
 30
0.0
 11
1417.893983071742
 21
-1144.7246523629881
 31
0.0
  0
LINE
  5
B964
  8
01
 10
1312.893983071742
 20
-1155.2246523629881
 30
0.0
 11
1417.893983071742
 21
-1155.2246523629881
 31
0.0
  0
LINE
  5
B965
  8
01
 10
1312.893983071742
 20
-1165.7246523629881
 30
0.0
 11
1417.893983071742
 21
-1165.7246523629881
 31
0.0
  0
LINE
  5
B966
  8
01
 10
1312.893983071742
 20
-1165.7246523629881
 30
0.0
 11
1417.893983071742
 21
-1165.7246523629881
 31
0.0
  0
LINE
  5
B967
  8
01
 10
1365.393983071742
 20
-1144.7246523629881
 30
0.0
 11
1365.393983071742
 21
-1186.7246523629881
 31
0.0
  0
TEXT
  5
B968
  8
01
 10
1367.165411643171
 20
-1163.7961878384619
 30
0.0
 40
6.0
  1
2-S2T-P-LW-2
 41
0.65
 72
     1
 11
1391.4939830717419
 21
-1163.7961878384619
 31
0.0
  0
TEXT
  5
B969
  8
01
 10
1381.293983071741
 20
-1152.9746523629881
 30
0.0
 40
6.0
  1
コード
 72
     1
 11
1391.493983071741
 21
-1152.9746523629881
 31
0.0
  0
LINE
  5
B96A
  8
01
 10
1312.893983071742
 20
-1186.7246523629881
 30
0.0
 11
1417.893983071742
 21
-1186.7246523629881
 31
0.0
  0
LINE
  5
B96C
  8
01
 10
1312.893983071742
 20
-1186.7246523629881
 30
0.0
 11
1312.893983071742
 21
-1144.7246523629881
 31
0.0
  0
LINE
  5
B96D
  8
01
 10
1417.893983071742
 20
-1186.7246523629881
 30
0.0
 11
1417.893983071742
 21
-1144.7246523629881
 31
0.0
  0
TEXT
  5
B96E
  8
01
 10
1367.629697357457
 20
-1174.2961878384631
 30
0.0
 40
6.0
  1
2-S2T-T-LW-2
 41
0.65
 72
     1
 11
1391.4939830717419
 21
-1174.2961878384631
 31
0.0
  0
TEXT
  5
B96F
  8
01
 10
1367.665411643171
 20
-1184.7961878384619
 30
0.0
 40
6.0
  1
2-S2T-PT-LW-2
 41
0.6
 72
     1
 11
1391.4939830717419
 21
-1184.7961878384619
 31
0.0
  0
LINE
  5
BE2A
  8
01
 10
1518.9807628765809
 20
-1329.7030461203931
 30
0.0
 11
1518.9807628765809
 21
-1477.036366120393
 31
0.0
  0
LINE
  5
BE2B
  8
01
 10
1478.98076287658
 20
-1329.7030461203931
 30
0.0
 11
1478.98076287658
 21
-1477.036366120393
 31
0.0
  0
LINE
  5
BE2C
  8
01
 10
1377.580768876581
 20
-1336.2004261203931
 30
0.0
 11
1377.580768876581
 21
-1359.3003961203931
 31
0.0
  0
LINE
  5
BE2D
  8
01
 10
1375.98076287658
 20
-1336.2004261203931
 30
0.0
 11
1375.98076287658
 21
-1359.2004261203931
 31
0.0
  0
LINE
  5
BE2E
  8
01
 10
1378.3807718765811
 20
-1336.2004261203931
 30
0.0
 11
1378.3807718765811
 21
-1466.2004261203931
 31
0.0
  0
LINE
  5
BE2F
  8
01
 10
1379.9807628765809
 20
-1336.2004261203931
 30
0.0
 11
1379.9807628765809
 21
-1466.2004261203931
 31
0.0
  0
LINE
  5
BE31
  8
01
 10
1376.9807628765809
 20
-1438.2004261203931
 30
0.0
 11
1355.48076687658
 21
-1438.2004261203931
 31
0.0
  0
LINE
  5
BE32
  8
01
 10
1310.9807788765811
 20
-1386.7004261203931
 30
0.0
 11
1310.9807788765811
 21
-1395.7004261203949
 31
0.0
  0
LINE
  5
BE33
  8
01
 10
1385.9807628765791
 20
-1390.2004261203931
 30
0.0
 11
1379.9807628765809
 21
-1390.2004261203931
 31
0.0
  0
LINE
  5
BE34
  8
01
 10
1390.98076287658
 20
-1395.2004261203931
 30
0.0
 11
1380.98076287658
 21
-1395.2004261203931
 31
0.0
  0
POLYLINE
  5
BE35
  8
01
 10
1390.9807628765809
 20
-1393.7688461203929
 30
0.0
 66
     1
 70
     8
  0
VERTEX
  8
01
  5
C774
 10
1390.98
 20
-1393.77
 30
0.000000
  70
    32
  0
VERTEX
  8
01
  5
C775
 10
1390.98
 20
-1393.68
 30
0.000000
  70
    32
  0
VERTEX
  8
01
  5
C776
 10
1390.97
 20
-1393.59
 30
0.000000
  70
    32
  0
VERTEX
  8
01
  5
C777
 10
1390.97
 20
-1393.51
 30
0.000000
  70
    32
  0
VERTEX
  8
01
  5
C778
 10
1390.96
 20
-1393.42
 30
0.000000
  70
    32
  0
VERTEX
  8
01
  5
C779
 10
1390.94
 20
-1393.33
 30
0.000000
  70
    32
  0
VERTEX
  8
01
  5
C77A
 10
1390.93
 20
-1393.25
 30
0.000000
  70
    32
  0
VERTEX
  8
01
  5
C77B
 10
1390.91
 20
-1393.16
 30
0.000000
  70
    32
  0
VERTEX
  8
01
  5
C77C
 10
1390.88
 20
-1393.07
 30
0.000000
  70
    32
  0
VERTEX
  8
01
  5
C77D
 10
1390.86
 20
-1392.99
 30
0.000000
  70
    32
  0
VERTEX
  8
01
  5
C77E
 10
1390.83
 20
-1392.90
 30
0.000000
  70
    32
  0
VERTEX
  8
01
  5
C77F
 10
1390.80
 20
-1392.82
 30
0.000000
  70
    32
  0
VERTEX
  8
01
  5
C780
 10
1390.77
 20
-1392.73
 30
0.000000
  70
    32
  0
VERTEX
  8
01
  5
C781
 10
1390.73
 20
-1392.65
 30
0.000000
  70
    32
  0
VERTEX
  8
01
  5
C782
 10
1390.69
 20
-1392.57
 30
0.000000
  70
    32
  0
VERTEX
  8
01
  5
C783
 10
1390.65
 20
-1392.48
 30
0.000000
  70
    32
  0
VERTEX
  8
01
  5
C784
 10
1390.60
 20
-1392.40
 30
0.000000
  70
    32
  0
VERTEX
  8
01
  5
C785
 10
1390.55
 20
-1392.32
 30
0.000000
  70
    32
  0
VERTEX
  8
01
  5
C786
 10
1390.50
 20
-1392.24
 30
0.000000
  70
    32
  0
VERTEX
  8
01
  5
C787
 10
1390.45
 20
-1392.16
 30
0.000000
  70
    32
  0
VERTEX
  8
01
  5
C788
 10
1390.39
 20
-1392.09
 30
0.000000
  70
    32
  0
VERTEX
  8
01
  5
C789
 10
1390.33
 20
-1392.01
 30
0.000000
  70
    32
  0
VERTEX
  8
01
  5
C78A
 10
1390.27
 20
-1391.93
 30
0.000000
  70
    32
  0
VERTEX
  8
01
  5
C78B
 10
1390.21
 20
-1391.86
 30
0.000000
  70
    32
  0
VERTEX
  8
01
  5
C78C
 10
1390.14
 20
-1391.79
 30
0.000000
  70
    32
  0
VERTEX
  8
01
  5
C78D
 10
1390.07
 20
-1391.71
 30
0.000000
  70
    32
  0
VERTEX
  8
01
  5
C78E
 10
1390.00
 20
-1391.64
 30
0.000000
  70
    32
  0
VERTEX
  8
01
  5
C78F
 10
1389.92
 20
-1391.57
 30
0.000000
  70
    32
  0
VERTEX
  8
01
  5
C790
 10
1389.85
 20
-1391.51
 30
0.000000
  70
    32
  0
VERTEX
  8
01
  5
C791
 10
1389.77
 20
-1391.44
 30
0.000000
  70
    32
  0
VERTEX
  8
01
  5
C792
 10
1389.69
 20
-1391.37
 30
0.000000
  70
    32
  0
VERTEX
  8
01
  5
C793
 10
1389.60
 20
-1391.31
 30
0.000000
  70
    32
  0
VERTEX
  8
01
  5
C794
 10
1389.52
 20
-1391.25
 30
0.000000
  70
    32
  0
VERTEX
  8
01
  5
C795
 10
1389.43
 20
-1391.18
 30
0.000000
  70
    32
  0
VERTEX
  8
01
  5
C796
 10
1389.34
 20
-1391.12
 30
0.000000
  70
    32
  0
VERTEX
  8
01
  5
C797
 10
1389.25
 20
-1391.07
 30
0.000000
  70
    32
  0
VERTEX
  8
01
  5
C798
 10
1389.15
 20
-1391.01
 30
0.000000
  70
    32
  0
VERTEX
  8
01
  5
C799
 10
1389.06
 20
-1390.96
 30
0.000000
  70
    32
  0
VERTEX
  8
01
  5
C79A
 10
1388.96
 20
-1390.90
 30
0.000000
  70
    32
  0
VERTEX
  8
01
  5
C79B
 10
1388.86
 20
-1390.85
 30
0.000000
  70
    32
  0
VERTEX
  8
01
  5
C79C
 10
1388.76
 20
-1390.80
 30
0.000000
  70
    32
  0
VERTEX
  8
01
  5
C79D
 10
1388.66
 20
-1390.75
 30
0.000000
  70
    32
  0
VERTEX
  8
01
  5
C79E
 10
1388.55
 20
-1390.71
 30
0.000000
  70
    32
  0
VERTEX
  8
01
  5
C79F
 10
1388.45
 20
-1390.66
 30
0.000000
  70
    32
  0
VERTEX
  8
01
  5
C7A0
 10
1388.34
 20
-1390.62
 30
0.000000
  70
    32
  0
VERTEX
  8
01
  5
C7A1
 10
1388.23
 20
-1390.58
 30
0.000000
  70
    32
  0
VERTEX
  8
01
  5
C7A2
 10
1388.12
 20
-1390.54
 30
0.000000
  70
    32
  0
VERTEX
  8
01
  5
C7A3
 10
1388.01
 20
-1390.51
 30
0.000000
  70
    32
  0
VERTEX
  8
01
  5
C7A4
 10
1387.89
 20
-1390.47
 30
0.000000
  70
    32
  0
VERTEX
  8
01
  5
C7A5
 10
1387.78
 20
-1390.44
 30
0.000000
  70
    32
  0
VERTEX
  8
01
  5
C7A6
 10
1387.67
 20
-1390.41
 30
0.000000
  70
    32
  0
VERTEX
  8
01
  5
C7A7
 10
1387.55
 20
-1390.38
 30
0.000000
  70
    32
  0
VERTEX
  8
01
  5
C7A8
 10
1387.43
 20
-1390.35
 30
0.000000
  70
    32
  0
VERTEX
  8
01
  5
C7A9
 10
1387.31
 20
-1390.33
 30
0.000000
  70
    32
  0
VERTEX
  8
01
  5
C7AA
 10
1387.20
 20
-1390.31
 30
0.000000
  70
    32
  0
VERTEX
  8
01
  5
C7AB
 10
1387.08
 20
-1390.29
 30
0.000000
  70
    32
  0
VERTEX
  8
01
  5
C7AC
 10
1386.96
 20
-1390.27
 30
0.000000
  70
    32
  0
VERTEX
  8
01
  5
C7AD
 10
1386.84
 20
-1390.25
 30
0.000000
  70
    32
  0
VERTEX
  8
01
  5
C7AE
 10
1386.71
 20
-1390.24
 30
0.000000
  70
    32
  0
VERTEX
  8
01
  5
C7AF
 10
1386.59
 20
-1390.23
 30
0.000000
  70
    32
  0
VERTEX
  8
01
  5
C7B0
 10
1386.47
 20
-1390.22
 30
0.000000
  70
    32
  0
VERTEX
  8
01
  5
C7B1
 10
1386.35
 20
-1390.21
 30
0.000000
  70
    32
  0
VERTEX
  8
01
  5
C7B2
 10
1386.23
 20
-1390.20
 30
0.000000
  70
    32
  0
VERTEX
  8
01
  5
C7B3
 10
1386.10
 20
-1390.20
 30
0.000000
  70
    32
  0
VERTEX
  8
01
  5
C7B4
 10
1385.98
 20
-1390.20
 30
0.000000
  70
    32
  0
VERTEX
  8
01
  5
C7B5
 10
1385.86
 20
-1390.20
 30
0.000000
  70
    32
  0
VERTEX
  8
01
  5
C7B6
 10
1385.74
 20
-1390.20
 30
0.000000
  70
    32
  0
VERTEX
  8
01
  5
C7B7
 10
1385.61
 20
-1390.21
 30
0.000000
  70
    32
  0
VERTEX
  8
01
  5
C7B8
 10
1385.49
 20
-1390.22
 30
0.000000
  70
    32
  0
VERTEX
  8
01
  5
C7B9
 10
1385.37
 20
-1390.23
 30
0.000000
  70
    32
  0
VERTEX
  8
01
  5
C7BA
 10
1385.25
 20
-1390.24
 30
0.000000
  70
    32
  0
VERTEX
  8
01
  5
C7BB
 10
1385.13
 20
-1390.25
 30
0.000000
  70
    32
  0
VERTEX
  8
01
  5
C7BC
 10
1385.01
 20
-1390.27
 30
0.000000
  70
    32
  0
VERTEX
  8
01
  5
C7BD
 10
1384.89
 20
-1390.29
 30
0.000000
  70
    32
  0
VERTEX
  8
01
  5
C7BE
 10
1384.77
 20
-1390.31
 30
0.000000
  70
    32
  0
VERTEX
  8
01
  5
C7BF
 10
1384.65
 20
-1390.33
 30
0.000000
  70
    32
  0
VERTEX
  8
01
  5
C7C0
 10
1384.53
 20
-1390.35
 30
0.000000
  70
    32
  0
VERTEX
  8
01
  5
C7C1
 10
1384.41
 20
-1390.38
 30
0.000000
  70
    32
  0
VERTEX
  8
01
  5
C7C2
 10
1384.30
 20
-1390.41
 30
0.000000
  70
    32
  0
VERTEX
  8
01
  5
C7C3
 10
1384.18
 20
-1390.44
 30
0.000000
  70
    32
  0
VERTEX
  8
01
  5
C7C4
 10
1384.07
 20
-1390.47
 30
0.000000
  70
    32
  0
VERTEX
  8
01
  5
C7C5
 10
1383.95
 20
-1390.51
 30
0.000000
  70
    32
  0
VERTEX
  8
01
  5
C7C6
 10
1383.84
 20
-1390.54
 30
0.000000
  70
    32
  0
VERTEX
  8
01
  5
C7C7
 10
1383.73
 20
-1390.58
 30
0.000000
  70
    32
  0
VERTEX
  8
01
  5
C7C8
 10
1383.62
 20
-1390.62
 30
0.000000
  70
    32
  0
VERTEX
  8
01
  5
C7C9
 10
1383.52
 20
-1390.66
 30
0.000000
  70
    32
  0
VERTEX
  8
01
  5
C7CA
 10
1383.41
 20
-1390.71
 30
0.000000
  70
    32
  0
VERTEX
  8
01
  5
C7CB
 10
1383.31
 20
-1390.75
 30
0.000000
  70
    32
  0
VERTEX
  8
01
  5
C7CC
 10
1383.20
 20
-1390.80
 30
0.000000
  70
    32
  0
VERTEX
  8
01
  5
C7CD
 10
1383.10
 20
-1390.85
 30
0.000000
  70
    32
  0
VERTEX
  8
01
  5
C7CE
 10
1383.00
 20
-1390.90
 30
0.000000
  70
    32
  0
VERTEX
  8
01
  5
C7CF
 10
1382.90
 20
-1390.96
 30
0.000000
  70
    32
  0
VERTEX
  8
01
  5
C7D0
 10
1382.81
 20
-1391.01
 30
0.000000
  70
    32
  0
VERTEX
  8
01
  5
C7D1
 10
1382.71
 20
-1391.07
 30
0.000000
  70
    32
  0
VERTEX
  8
01
  5
C7D2
 10
1382.62
 20
-1391.12
 30
0.000000
  70
    32
  0
VERTEX
  8
01
  5
C7D3
 10
1382.53
 20
-1391.18
 30
0.000000
  70
    32
  0
VERTEX
  8
01
  5
C7D4
 10
1382.45
 20
-1391.25
 30
0.000000
  70
    32
  0
VERTEX
  8
01
  5
C7D5
 10
1382.36
 20
-1391.31
 30
0.000000
  70
    32
  0
VERTEX
  8
01
  5
C7D6
 10
1382.28
 20
-1391.37
 30
0.000000
  70
    32
  0
VERTEX
  8
01
  5
C7D7
 10
1382.19
 20
-1391.44
 30
0.000000
  70
    32
  0
VERTEX
  8
01
  5
C7D8
 10
1382.12
 20
-1391.51
 30
0.000000
  70
    32
  0
VERTEX
  8
01
  5
C7D9
 10
1382.04
 20
-1391.57
 30
0.000000
  70
    32
  0
VERTEX
  8
01
  5
C7DA
 10
1381.96
 20
-1391.64
 30
0.000000
  70
    32
  0
VERTEX
  8
01
  5
C7DB
 10
1381.89
 20
-1391.71
 30
0.000000
  70
    32
  0
VERTEX
  8
01
  5
C7DC
 10
1381.82
 20
-1391.79
 30
0.000000
  70
    32
  0
VERTEX
  8
01
  5
C7DD
 10
1381.76
 20
-1391.86
 30
0.000000
  70
    32
  0
VERTEX
  8
01
  5
C7DE
 10
1381.69
 20
-1391.93
 30
0.000000
  70
    32
  0
VERTEX
  8
01
  5
C7DF
 10
1381.63
 20
-1392.01
 30
0.000000
  70
    32
  0
VERTEX
  8
01
  5
C7E0
 10
1381.57
 20
-1392.09
 30
0.000000
  70
    32
  0
VERTEX
  8
01
  5
C7E1
 10
1381.51
 20
-1392.16
 30
0.000000
  70
    32
  0
VERTEX
  8
01
  5
C7E2
 10
1381.46
 20
-1392.24
 30
0.000000
  70
    32
  0
VERTEX
  8
01
  5
C7E3
 10
1381.41
 20
-1392.32
 30
0.000000
  70
    32
  0
VERTEX
  8
01
  5
C7E4
 10
1381.36
 20
-1392.40
 30
0.000000
  70
    32
  0
VERTEX
  8
01
  5
C7E5
 10
1381.32
 20
-1392.48
 30
0.000000
  70
    32
  0
VERTEX
  8
01
  5
C7E6
 10
1381.27
 20
-1392.57
 30
0.000000
  70
    32
  0
VERTEX
  8
01
  5
C7E7
 10
1381.23
 20
-1392.65
 30
0.000000
  70
    32
  0
VERTEX
  8
01
  5
C7E8
 10
1381.20
 20
-1392.73
 30
0.000000
  70
    32
  0
VERTEX
  8
01
  5
C7E9
 10
1381.16
 20
-1392.82
 30
0.000000
  70
    32
  0
VERTEX
  8
01
  5
C7EA
 10
1381.13
 20
-1392.90
 30
0.000000
  70
    32
  0
VERTEX
  8
01
  5
C7EB
 10
1381.10
 20
-1392.99
 30
0.000000
  70
    32
  0
VERTEX
  8
01
  5
C7EC
 10
1381.08
 20
-1393.07
 30
0.000000
  70
    32
  0
VERTEX
  8
01
  5
C7ED
 10
1381.05
 20
-1393.16
 30
0.000000
  70
    32
  0
VERTEX
  8
01
  5
C7EE
 10
1381.03
 20
-1393.25
 30
0.000000
  70
    32
  0
VERTEX
  8
01
  5
C7EF
 10
1381.02
 20
-1393.33
 30
0.000000
  70
    32
  0
VERTEX
  8
01
  5
C7F0
 10
1381.00
 20
-1393.42
 30
0.000000
  70
    32
  0
VERTEX
  8
01
  5
C7F1
 10
1380.99
 20
-1393.51
 30
0.000000
  70
    32
  0
VERTEX
  8
01
  5
C7F2
 10
1380.99
 20
-1393.59
 30
0.000000
  70
    32
  0
VERTEX
  8
01
  5
C7F3
 10
1380.98
 20
-1393.68
 30
0.000000
  70
    32
  0
VERTEX
  8
01
  5
C7F4
 10
1380.98
 20
-1393.77
 30
0.000000
  70
    32
  0
SEQEND
  8
01
  5
C7F5
  0
LINE
  5
BE36
  8
01
 10
1385.9807628765809
 20
-1410.2004261203931
 30
0.0
 11
1379.9807628765809
 21
-1410.2004261203931
 31
0.0
  0
LINE
  5
BE37
  8
01
 10
1390.98076287658
 20
-1405.2004261203931
 30
0.0
 11
1380.98076287658
 21
-1405.2004261203931
 31
0.0
  0
POLYLINE
  5
BE38
  8
01
 10
1390.9807628765809
 20
-1406.632006120393
 30
0.0
 66
     1
 70
     8
  0
VERTEX
  8
01
  5
C7F6
 10
1390.98
 20
-1406.63
 30
0.000000
  70
    32
  0
VERTEX
  8
01
  5
C7F7
 10
1390.98
 20
-1406.72
 30
0.000000
  70
    32
  0
VERTEX
  8
01
  5
C7F8
 10
1390.97
 20
-1406.81
 30
0.000000
  70
    32
  0
VERTEX
  8
01
  5
C7F9
 10
1390.97
 20
-1406.89
 30
0.000000
  70
    32
  0
VERTEX
  8
01
  5
C7FA
 10
1390.96
 20
-1406.98
 30
0.000000
  70
    32
  0
VERTEX
  8
01
  5
C7FB
 10
1390.94
 20
-1407.07
 30
0.000000
  70
    32
  0
VERTEX
  8
01
  5
C7FC
 10
1390.93
 20
-1407.16
 30
0.000000
  70
    32
  0
VERTEX
  8
01
  5
C7FD
 10
1390.91
 20
-1407.24
 30
0.000000
  70
    32
  0
VERTEX
  8
01
  5
C7FE
 10
1390.88
 20
-1407.33
 30
0.000000
  70
    32
  0
VERTEX
  8
01
  5
C7FF
 10
1390.86
 20
-1407.41
 30
0.000000
  70
    32
  0
VERTEX
  8
01
  5
C800
 10
1390.83
 20
-1407.50
 30
0.000000
  70
    32
  0
VERTEX
  8
01
  5
C801
 10
1390.80
 20
-1407.58
 30
0.000000
  70
    32
  0
VERTEX
  8
01
  5
C802
 10
1390.77
 20
-1407.67
 30
0.000000
  70
    32
  0
VERTEX
  8
01
  5
C803
 10
1390.73
 20
-1407.75
 30
0.000000
  70
    32
  0
VERTEX
  8
01
  5
C804
 10
1390.69
 20
-1407.83
 30
0.000000
  70
    32
  0
VERTEX
  8
01
  5
C805
 10
1390.65
 20
-1407.92
 30
0.000000
  70
    32
  0
VERTEX
  8
01
  5
C806
 10
1390.60
 20
-1408.00
 30
0.000000
  70
    32
  0
VERTEX
  8
01
  5
C807
 10
1390.55
 20
-1408.08
 30
0.000000
  70
    32
  0
VERTEX
  8
01
  5
C808
 10
1390.50
 20
-1408.16
 30
0.000000
  70
    32
  0
VERTEX
  8
01
  5
C809
 10
1390.45
 20
-1408.24
 30
0.000000
  70
    32
  0
VERTEX
  8
01
  5
C80A
 10
1390.39
 20
-1408.31
 30
0.000000
  70
    32
  0
VERTEX
  8
01
  5
C80B
 10
1390.33
 20
-1408.39
 30
0.000000
  70
    32
  0
VERTEX
  8
01
  5
C80C
 10
1390.27
 20
-1408.47
 30
0.000000
  70
    32
  0
VERTEX
  8
01
  5
C80D
 10
1390.21
 20
-1408.54
 30
0.000000
  70
    32
  0
VERTEX
  8
01
  5
C80E
 10
1390.14
 20
-1408.61
 30
0.000000
  70
    32
  0
VERTEX
  8
01
  5
C80F
 10
1390.07
 20
-1408.69
 30
0.000000
  70
    32
  0
VERTEX
  8
01
  5
C810
 10
1390.00
 20
-1408.76
 30
0.000000
  70
    32
  0
VERTEX
  8
01
  5
C811
 10
1389.92
 20
-1408.83
 30
0.000000
  70
    32
  0
VERTEX
  8
01
  5
C812
 10
1389.85
 20
-1408.90
 30
0.000000
  70
    32
  0
VERTEX
  8
01
  5
C813
 10
1389.77
 20
-1408.96
 30
0.000000
  70
    32
  0
VERTEX
  8
01
  5
C814
 10
1389.69
 20
-1409.03
 30
0.000000
  70
    32
  0
VERTEX
  8
01
  5
C815
 10
1389.60
 20
-1409.09
 30
0.000000
  70
    32
  0
VERTEX
  8
01
  5
C816
 10
1389.52
 20
-1409.16
 30
0.000000
  70
    32
  0
VERTEX
  8
01
  5
C817
 10
1389.43
 20
-1409.22
 30
0.000000
  70
    32
  0
VERTEX
  8
01
  5
C818
 10
1389.34
 20
-1409.28
 30
0.000000
  70
    32
  0
VERTEX
  8
01
  5
C819
 10
1389.25
 20
-1409.33
 30
0.000000
  70
    32
  0
VERTEX
  8
01
  5
C81A
 10
1389.15
 20
-1409.39
 30
0.000000
  70
    32
  0
VERTEX
  8
01
  5
C81B
 10
1389.06
 20
-1409.45
 30
0.000000
  70
    32
  0
VERTEX
  8
01
  5
C81C
 10
1388.96
 20
-1409.50
 30
0.000000
  70
    32
  0
VERTEX
  8
01
  5
C81D
 10
1388.86
 20
-1409.55
 30
0.000000
  70
    32
  0
VERTEX
  8
01
  5
C81E
 10
1388.76
 20
-1409.60
 30
0.000000
  70
    32
  0
VERTEX
  8
01
  5
C81F
 10
1388.66
 20
-1409.65
 30
0.000000
  70
    32
  0
VERTEX
  8
01
  5
C820
 10
1388.55
 20
-1409.69
 30
0.000000
  70
    32
  0
VERTEX
  8
01
  5
C821
 10
1388.45
 20
-1409.74
 30
0.000000
  70
    32
  0
VERTEX
  8
01
  5
C822
 10
1388.34
 20
-1409.78
 30
0.000000
  70
    32
  0
VERTEX
  8
01
  5
C823
 10
1388.23
 20
-1409.82
 30
0.000000
  70
    32
  0
VERTEX
  8
01
  5
C824
 10
1388.12
 20
-1409.86
 30
0.000000
  70
    32
  0
VERTEX
  8
01
  5
C825
 10
1388.01
 20
-1409.89
 30
0.000000
  70
    32
  0
VERTEX
  8
01
  5
C826
 10
1387.89
 20
-1409.93
 30
0.000000
  70
    32
  0
VERTEX
  8
01
  5
C827
 10
1387.78
 20
-1409.96
 30
0.000000
  70
    32
  0
VERTEX
  8
01
  5
C828
 10
1387.67
 20
-1409.99
 30
0.000000
  70
    32
  0
VERTEX
  8
01
  5
C829
 10
1387.55
 20
-1410.02
 30
0.000000
  70
    32
  0
VERTEX
  8
01
  5
C82A
 10
1387.43
 20
-1410.05
 30
0.000000
  70
    32
  0
VERTEX
  8
01
  5
C82B
 10
1387.31
 20
-1410.07
 30
0.000000
  70
    32
  0
VERTEX
  8
01
  5
C82C
 10
1387.20
 20
-1410.09
 30
0.000000
  70
    32
  0
VERTEX
  8
01
  5
C82D
 10
1387.08
 20
-1410.11
 30
0.000000
  70
    32
  0
VERTEX
  8
01
  5
C82E
 10
1386.96
 20
-1410.13
 30
0.000000
  70
    32
  0
VERTEX
  8
01
  5
C82F
 10
1386.84
 20
-1410.15
 30
0.000000
  70
    32
  0
VERTEX
  8
01
  5
C830
 10
1386.71
 20
-1410.16
 30
0.000000
  70
    32
  0
VERTEX
  8
01
  5
C831
 10
1386.59
 20
-1410.17
 30
0.000000
  70
    32
  0
VERTEX
  8
01
  5
C832
 10
1386.47
 20
-1410.18
 30
0.000000
  70
    32
  0
VERTEX
  8
01
  5
C833
 10
1386.35
 20
-1410.19
 30
0.000000
  70
    32
  0
VERTEX
  8
01
  5
C834
 10
1386.23
 20
-1410.20
 30
0.000000
  70
    32
  0
VERTEX
  8
01
  5
C835
 10
1386.10
 20
-1410.20
 30
0.000000
  70
    32
  0
VERTEX
  8
01
  5
C836
 10
1385.98
 20
-1410.20
 30
0.000000
  70
    32
  0
VERTEX
  8
01
  5
C837
 10
1385.86
 20
-1410.20
 30
0.000000
  70
    32
  0
VERTEX
  8
01
  5
C838
 10
1385.74
 20
-1410.20
 30
0.000000
  70
    32
  0
VERTEX
  8
01
  5
C839
 10
1385.61
 20
-1410.19
 30
0.000000
  70
    32
  0
VERTEX
  8
01
  5
C83A
 10
1385.49
 20
-1410.18
 30
0.000000
  70
    32
  0
VERTEX
  8
01
  5
C83B
 10
1385.37
 20
-1410.17
 30
0.000000
  70
    32
  0
VERTEX
  8
01
  5
C83C
 10
1385.25
 20
-1410.16
 30
0.000000
  70
    32
  0
VERTEX
  8
01
  5
C83D
 10
1385.13
 20
-1410.15
 30
0.000000
  70
    32
  0
VERTEX
  8
01
  5
C83E
 10
1385.01
 20
-1410.13
 30
0.000000
  70
    32
  0
VERTEX
  8
01
  5
C83F
 10
1384.89
 20
-1410.11
 30
0.000000
  70
    32
  0
VERTEX
  8
01
  5
C840
 10
1384.77
 20
-1410.09
 30
0.000000
  70
    32
  0
VERTEX
  8
01
  5
C841
 10
1384.65
 20
-1410.07
 30
0.000000
  70
    32
  0
VERTEX
  8
01
  5
C842
 10
1384.53
 20
-1410.05
 30
0.000000
  70
    32
  0
VERTEX
  8
01
  5
C843
 10
1384.41
 20
-1410.02
 30
0.000000
  70
    32
  0
VERTEX
  8
01
  5
C844
 10
1384.30
 20
-1409.99
 30
0.000000
  70
    32
  0
VERTEX
  8
01
  5
C845
 10
1384.18
 20
-1409.96
 30
0.000000
  70
    32
  0
VERTEX
  8
01
  5
C846
 10
1384.07
 20
-1409.93
 30
0.000000
  70
    32
  0
VERTEX
  8
01
  5
C847
 10
1383.95
 20
-1409.89
 30
0.000000
  70
    32
  0
VERTEX
  8
01
  5
C848
 10
1383.84
 20
-1409.86
 30
0.000000
  70
    32
  0
VERTEX
  8
01
  5
C849
 10
1383.73
 20
-1409.82
 30
0.000000
  70
    32
  0
VERTEX
  8
01
  5
C84A
 10
1383.62
 20
-1409.78
 30
0.000000
  70
    32
  0
VERTEX
  8
01
  5
C84B
 10
1383.52
 20
-1409.74
 30
0.000000
  70
    32
  0
VERTEX
  8
01
  5
C84C
 10
1383.41
 20
-1409.69
 30
0.000000
  70
    32
  0
VERTEX
  8
01
  5
C84D
 10
1383.31
 20
-1409.65
 30
0.000000
  70
    32
  0
VERTEX
  8
01
  5
C84E
 10
1383.20
 20
-1409.60
 30
0.000000
  70
    32
  0
VERTEX
  8
01
  5
C84F
 10
1383.10
 20
-1409.55
 30
0.000000
  70
    32
  0
VERTEX
  8
01
  5
C850
 10
1383.00
 20
-1409.50
 30
0.000000
  70
    32
  0
VERTEX
  8
01
  5
C851
 10
1382.90
 20
-1409.45
 30
0.000000
  70
    32
  0
VERTEX
  8
01
  5
C852
 10
1382.81
 20
-1409.39
 30
0.000000
  70
    32
  0
VERTEX
  8
01
  5
C853
 10
1382.71
 20
-1409.33
 30
0.000000
  70
    32
  0
VERTEX
  8
01
  5
C854
 10
1382.62
 20
-1409.28
 30
0.000000
  70
    32
  0
VERTEX
  8
01
  5
C855
 10
1382.53
 20
-1409.22
 30
0.000000
  70
    32
  0
VERTEX
  8
01
  5
C856
 10
1382.45
 20
-1409.16
 30
0.000000
  70
    32
  0
VERTEX
  8
01
  5
C857
 10
1382.36
 20
-1409.09
 30
0.000000
  70
    32
  0
VERTEX
  8
01
  5
C858
 10
1382.28
 20
-1409.03
 30
0.000000
  70
    32
  0
VERTEX
  8
01
  5
C859
 10
1382.19
 20
-1408.96
 30
0.000000
  70
    32
  0
VERTEX
  8
01
  5
C85A
 10
1382.12
 20
-1408.90
 30
0.000000
  70
    32
  0
VERTEX
  8
01
  5
C85B
 10
1382.04
 20
-1408.83
 30
0.000000
  70
    32
  0
VERTEX
  8
01
  5
C85C
 10
1381.96
 20
-1408.76
 30
0.000000
  70
    32
  0
VERTEX
  8
01
  5
C85D
 10
1381.89
 20
-1408.69
 30
0.000000
  70
    32
  0
VERTEX
  8
01
  5
C85E
 10
1381.82
 20
-1408.61
 30
0.000000
  70
    32
  0
VERTEX
  8
01
  5
C85F
 10
1381.76
 20
-1408.54
 30
0.000000
  70
    32
  0
VERTEX
  8
01
  5
C860
 10
1381.69
 20
-1408.47
 30
0.000000
  70
    32
  0
VERTEX
  8
01
  5
C861
 10
1381.63
 20
-1408.39
 30
0.000000
  70
    32
  0
VERTEX
  8
01
  5
C862
 10
1381.57
 20
-1408.31
 30
0.000000
  70
    32
  0
VERTEX
  8
01
  5
C863
 10
1381.51
 20
-1408.24
 30
0.000000
  70
    32
  0
VERTEX
  8
01
  5
C864
 10
1381.46
 20
-1408.16
 30
0.000000
  70
    32
  0
VERTEX
  8
01
  5
C865
 10
1381.41
 20
-1408.08
 30
0.000000
  70
    32
  0
VERTEX
  8
01
  5
C866
 10
1381.36
 20
-1408.00
 30
0.000000
  70
    32
  0
VERTEX
  8
01
  5
C867
 10
1381.32
 20
-1407.92
 30
0.000000
  70
    32
  0
VERTEX
  8
01
  5
C868
 10
1381.27
 20
-1407.83
 30
0.000000
  70
    32
  0
VERTEX
  8
01
  5
C869
 10
1381.23
 20
-1407.75
 30
0.000000
  70
    32
  0
VERTEX
  8
01
  5
C86A
 10
1381.20
 20
-1407.67
 30
0.000000
  70
    32
  0
VERTEX
  8
01
  5
C86B
 10
1381.16
 20
-1407.58
 30
0.000000
  70
    32
  0
VERTEX
  8
01
  5
C86C
 10
1381.13
 20
-1407.50
 30
0.000000
  70
    32
  0
VERTEX
  8
01
  5
C86D
 10
1381.10
 20
-1407.41
 30
0.000000
  70
    32
  0
VERTEX
  8
01
  5
C86E
 10
1381.08
 20
-1407.33
 30
0.000000
  70
    32
  0
VERTEX
  8
01
  5
C86F
 10
1381.05
 20
-1407.24
 30
0.000000
  70
    32
  0
VERTEX
  8
01
  5
C870
 10
1381.03
 20
-1407.16
 30
0.000000
  70
    32
  0
VERTEX
  8
01
  5
C871
 10
1381.02
 20
-1407.07
 30
0.000000
  70
    32
  0
VERTEX
  8
01
  5
C872
 10
1381.00
 20
-1406.98
 30
0.000000
  70
    32
  0
VERTEX
  8
01
  5
C873
 10
1380.99
 20
-1406.89
 30
0.000000
  70
    32
  0
VERTEX
  8
01
  5
C874
 10
1380.99
 20
-1406.81
 30
0.000000
  70
    32
  0
VERTEX
  8
01
  5
C875
 10
1380.98
 20
-1406.72
 30
0.000000
  70
    32
  0
VERTEX
  8
01
  5
C876
 10
1380.98
 20
-1406.63
 30
0.000000
  70
    32
  0
SEQEND
  8
01
  5
C877
  0
LINE
  5
BE39
  8
01
 10
1390.98076287658
 20
-1393.7688461203929
 30
0.0
 11
1390.98076287658
 21
-1406.632006120394
 31
0.0
  0
LINE
  5
BE3A
  8
01
 10
1380.98076287658
 20
-1393.7688461203929
 30
0.0
 11
1380.98076287658
 21
-1406.632006120391
 31
0.0
  0
LINE
  5
BE3B
  8
01
 10
1376.9807478765811
 20
-1360.2004261203931
 30
0.0
 11
1375.9807478765811
 21
-1359.2004261203931
 31
0.0
  0
LINE
  5
BE3C
  8
01
 10
1378.380764876581
 20
-1360.1004461203941
 30
0.0
 11
1377.5807838765811
 21
-1359.3004661203929
 31
0.0
  0
LINE
  5
BE3D
  8
01
 10
1378.380764876581
 20
-1442.300436120393
 30
0.0
 11
1377.58076187658
 21
-1443.100416120393
 31
0.0
  0
LINE
  5
BE3E
  8
01
 10
1376.9807098765809
 20
-1442.200456120393
 30
0.0
 11
1375.9807248765801
 21
-1443.200456120393
 31
0.0
  0
LINE
  5
BE3F
  8
01
 10
1379.9807628765809
 20
-1466.2004261203931
 30
0.0
 11
1375.98076287658
 21
-1466.2004261203931
 31
0.0
  0
LINE
  5
BE40
  8
01
 10
1377.580768876581
 20
-1466.2004261203931
 30
0.0
 11
1377.580768876581
 21
-1443.100416120393
 31
0.0
  0
LINE
  5
BE41
  8
01
 10
1375.98076287658
 20
-1466.2004261203931
 30
0.0
 11
1375.98076287658
 21
-1443.2004261203931
 31
0.0
  0
LINE
  5
BE42
  8
01
 10
1376.9807628765809
 20
-1360.2004261203931
 30
0.0
 11
1376.9807628765809
 21
-1442.2004261203931
 31
0.0
  0
LINE
  5
BE43
  8
01
 10
1379.9807628765809
 20
-1336.2004261203931
 30
0.0
 11
1375.98076287658
 21
-1336.2004261203931
 31
0.0
  0
LINE
  5
BE44
  8
01
 10
1486.48076287658
 20
-1342.2004261203931
 30
0.0
 11
1486.48076287658
 21
-1460.2004261203931
 31
0.0
  0
LINE
  5
BE45
  8
01
 10
1511.48076287658
 20
-1342.2004261203931
 30
0.0
 11
1511.48076287658
 21
-1460.2004261203931
 31
0.0
  0
ARC
  5
BE46
  8
01
 10
1505.4807628765809
 20
-1460.2004261203931
 30
0.0
 40
6.0
 50
270.0
 51
0.0
  0
ARC
  5
BE47
  8
01
 10
1492.4807628765809
 20
-1460.2004261203931
 30
0.0
 40
6.0
 50
180.0
 51
270.0
  0
LINE
  5
BE48
  8
01
 10
1506.73076287658
 20
-1393.7688461203929
 30
0.0
 11
1506.73076287658
 21
-1406.632006120393
 31
0.0
  0
LINE
  5
BE49
  8
01
 10
1505.7307628765809
 20
-1395.2004261203931
 30
0.0
 11
1505.7307628765809
 21
-1405.2004261203931
 31
0.0
  0
LINE
  5
BE4A
  8
01
 10
1492.23076287658
 20
-1395.2004261203931
 30
0.0
 11
1492.23076287658
 21
-1405.2004261203931
 31
0.0
  0
LINE
  5
BE4B
  8
01
 10
1491.2307628765809
 20
-1393.7688461203929
 30
0.0
 11
1491.2307628765809
 21
-1406.632006120393
 31
0.0
  0
ARC
  5
BE4C
  8
01
 10
1498.98076287658
 20
-1400.0004161203931
 30
0.0
 40
10.199999999999999
 50
220.55307999996339
 51
319.44692000003653
  0
LINE
  5
BE4D
  8
01
 10
1492.23076287658
 20
-1405.2004261203931
 30
0.0
 11
1505.7307628765809
 21
-1405.2004261203931
 31
0.0
  0
LINE
  5
BE4E
  8
01
 10
1492.23076287658
 20
-1395.2004261203931
 30
0.0
 11
1505.7307628765809
 21
-1395.2004261203931
 31
0.0
  0
ARC
  5
BE4F
  8
01
 10
1498.98076287658
 20
-1400.4004361203929
 30
0.0
 40
10.199999999999999
 50
40.55308399997984
 51
139.4469200000365
  0
CIRCLE
  5
BE50
  8
01
 10
1498.98076287658
 20
-1458.2004261203931
 30
0.0
 40
4.5
  0
CIRCLE
  5
BE51
  8
01
 10
1498.98076287658
 20
-1458.2004261203931
 30
0.0
 40
2.75
  0
LINE
  5
BE52
  8
01
 10
1492.4807628765809
 20
-1466.2004261203931
 30
0.0
 11
1505.4807628765809
 21
-1466.2004261203931
 31
0.0
  0
ARC
  5
BE53
  8
01
 10
1505.4807628765809
 20
-1342.2004261203931
 30
0.0
 40
6.0
 50
0.0
 51
90.0
  0
ARC
  5
BE55
  8
01
 10
1492.4807628765809
 20
-1342.2004261203931
 30
0.0
 40
6.0
 50
90.0
 51
180.0
  0
LINE
  5
BE56
  8
01
 10
1492.4807628765809
 20
-1336.2004261203931
 30
0.0
 11
1505.4807628765809
 21
-1336.2004261203931
 31
0.0
  0
CIRCLE
  5
BE57
  8
01
 10
1498.98076287658
 20
-1344.2004261203931
 30
0.0
 40
4.5
  0
CIRCLE
  5
BE58
  8
01
 10
1498.98076287658
 20
-1344.2004261203931
 30
0.0
 40
2.75
  0
LINE
  5
BE5C
  8
01
 10
1620.380768876581
 20
-1336.2004261203931
 30
0.0
 11
1620.380768876581
 21
-1359.3003961203931
 31
0.0
  0
LINE
  5
BE5D
  8
01
 10
1621.9807588765809
 20
-1336.2004261203931
 30
0.0
 11
1621.9807588765809
 21
-1359.2004261203931
 31
0.0
  0
LINE
  5
BE5E
  8
01
 10
1619.580768876581
 20
-1336.2004261203931
 30
0.0
 11
1619.580768876581
 21
-1466.2004261203931
 31
0.0
  0
LINE
  5
BE5F
  8
01
 10
1617.9807588765809
 20
-1336.2004261203931
 30
0.0
 11
1617.9807588765809
 21
-1466.2004261203931
 31
0.0
  0
LINE
  5
BE61
  8
01
 10
1620.9807588765809
 20
-1438.2004261203931
 30
0.0
 11
1642.480758876583
 21
-1438.2004261203931
 31
0.0
  0
LINE
  5
BE62
  8
01
 10
1620.9807688765809
 20
-1360.2004261203931
 30
0.0
 11
1621.9807688765809
 21
-1359.2004261203931
 31
0.0
  0
LINE
  5
BE63
  8
01
 10
1619.580758876582
 20
-1360.1004461203941
 30
0.0
 11
1620.380768876581
 21
-1359.3003961203931
 31
0.0
  0
LINE
  5
BE64
  8
01
 10
1610.9807588765809
 20
-1390.2004261203931
 30
0.0
 11
1617.9807588765809
 21
-1390.2004261203931
 31
0.0
  0
LINE
  5
BE65
  8
01
 10
1610.9807588765809
 20
-1410.2004261203931
 30
0.0
 11
1617.9807588765809
 21
-1410.2004261203931
 31
0.0
  0
LINE
  5
BE66
  8
01
 10
1607.0628588765801
 20
-1407.0066961203941
 30
0.0
 11
1617.9807588765809
 21
-1407.0066961203941
 31
0.0
  0
LINE
  5
BE67
  8
01
 10
1607.0628588765801
 20
-1393.3941461203931
 30
0.0
 11
1617.9807588765809
 21
-1393.3941461203931
 31
0.0
  0
LINE
  5
BE68
  8
01
 10
1606.9807588765809
 20
-1394.2004261203931
 30
0.0
 11
1606.9807588765809
 21
-1406.200426120394
 31
0.0
  0
ARC
  5
BE69
  8
01
 10
1610.9807588765809
 20
-1406.200426120394
 30
0.0
 40
4.0
 50
179.999989999999
 51
270.0
  0
ARC
  5
BE6A
  8
01
 10
1610.9807588765809
 20
-1394.2004261203931
 30
0.0
 40
4.0
 50
90.000002999984659
 51
180.000010000001
  0
LINE
  5
BE6B
  8
01
 10
1619.580758876582
 20
-1442.300436120393
 30
0.0
 11
1620.380768876581
 21
-1443.100416120393
 31
0.0
  0
LINE
  5
BE6C
  8
01
 10
1620.9808088765819
 20
-1442.200456120393
 30
0.0
 11
1621.9807888765799
 21
-1443.2004261203931
 31
0.0
  0
LINE
  5
BE6D
  8
01
 10
1612.9807588765809
 20
-1458.2004261203931
 30
0.0
 11
1626.9807588765809
 21
-1458.2004261203931
 31
0.0
  0
LINE
  5
BE6E
  8
01
 10
1617.9807588765809
 20
-1466.2004261203931
 30
0.0
 11
1621.9807588765809
 21
-1466.2004261203931
 31
0.0
  0
LINE
  5
BE6F
  8
01
 10
1620.380768876581
 20
-1466.2004261203931
 30
0.0
 11
1620.380768876581
 21
-1443.100416120393
 31
0.0
  0
LINE
  5
BE70
  8
01
 10
1621.9807588765809
 20
-1466.2004261203931
 30
0.0
 11
1621.9807588765809
 21
-1443.2004261203931
 31
0.0
  0
LINE
  5
BE71
  8
01
 10
1620.9807588765809
 20
-1360.2004261203931
 30
0.0
 11
1620.9807588765809
 21
-1442.2004261203931
 31
0.0
  0
LINE
  5
BE72
  8
01
 10
1686.9807588765809
 20
-1386.7004261203931
 30
0.0
 11
1686.9807588765809
 21
-1395.7004261203949
 31
0.0
  0
LINE
  5
BE74
  8
01
 10
1617.9807588765809
 20
-1336.2004261203931
 30
0.0
 11
1621.9807588765809
 21
-1336.2004261203931
 31
0.0
  0
LINE
  5
BE75
  8
01
 10
1612.9807588765809
 20
-1344.2004261203931
 30
0.0
 11
1626.9807588765809
 21
-1344.2004261203931
 31
0.0
  0
LINE
  5
BE77
  8
01
 10
1621.9816430586411
 20
-1142.700426121422
 30
0.0
 11
1687.9816430586411
 21
-1142.700426121422
 31
0.0
  0
LINE
  5
BE78
  8
01
 10
1621.9816430586411
 20
-1144.300396121421
 30
0.0
 11
1687.9816430586411
 21
-1144.300396121421
 31
0.0
  0
LINE
  5
BE79
  8
01
 10
1619.581653058641
 20
-1161.700426121422
 30
0.0
 11
1687.9816430586411
 21
-1161.700426121422
 31
0.0
  0
LINE
  5
BE7A
  8
01
 10
1621.1816330586421
 20
-1147.200426121422
 30
0.0
 11
1621.9816430586411
 21
-1146.4004061214209
 31
0.0
  0
LINE
  5
BE7B
  8
01
 10
1621.9816430586411
 20
-1141.700426121422
 30
0.0
 11
1621.9816430586411
 21
-1146.4004061214209
 31
0.0
  0
LINE
  5
BE7C
  8
01
 10
1619.581653058641
 20
-1147.200396121422
 30
0.0
 11
1620.3816430586421
 21
-1146.400436121422
 31
0.0
  0
LINE
  5
BE7D
  8
01
 10
1606.9816430586411
 20
-1159.950426121422
 30
0.0
 11
1617.9816430586411
 21
-1159.950426121422
 31
0.0
  0
LINE
  5
BE7E
  8
01
 10
1606.9816430586411
 20
-1159.950426121422
 30
0.0
 11
1606.9816430586411
 21
-1157.950426121422
 31
0.0
  0
LINE
  5
BE7F
  8
01
 10
1617.9816430586411
 20
-1139.700426121422
 30
0.0
 11
1619.581653058641
 21
-1139.700426121422
 31
0.0
  0
LINE
  5
BE80
  8
01
 10
1619.581653058641
 20
-1139.700426121422
 30
0.0
 11
1619.581653058641
 21
-1147.200426121422
 31
0.0
  0
LINE
  5
BE81
  8
01
 10
1620.3816530586421
 20
-1141.700426121422
 30
0.0
 11
1620.3816530586421
 21
-1146.4004061214209
 31
0.0
  0
LINE
  5
BE82
  8
01
 10
1619.581653058641
 20
-1141.700426121422
 30
0.0
 11
1621.9816430586411
 21
-1141.700426121422
 31
0.0
  0
LINE
  5
BE83
  8
01
 10
1621.9816430586411
 20
-1158.0004161214219
 30
0.0
 11
1621.9816430586411
 21
-1161.700426121422
 31
0.0
  0
LINE
  5
BE84
  8
01
 10
1621.1816530586409
 20
-1157.200396121422
 30
0.0
 11
1621.9816430586411
 21
-1158.0004161214219
 31
0.0
  0
LINE
  5
BE85
  8
01
 10
1621.9816430586411
 20
-1160.1004161214221
 30
0.0
 11
1626.581653058641
 21
-1160.1004161214221
 31
0.0
  0
LINE
  5
BE86
  8
01
 10
1619.581643058641
 20
-1157.200396121422
 30
0.0
 11
1620.3816530586421
 21
-1158.0004161214219
 31
0.0
  0
LINE
  5
BE87
  8
01
 10
1619.581653058641
 20
-1157.200426121422
 30
0.0
 11
1619.581653058641
 21
-1164.700426121422
 31
0.0
  0
LINE
  5
BE88
  8
01
 10
1617.9816430586411
 20
-1164.700426121422
 30
0.0
 11
1619.581653058641
 21
-1164.700426121422
 31
0.0
  0
LINE
  5
BE89
  8
01
 10
1620.3816530586421
 20
-1158.0004161214219
 30
0.0
 11
1620.3816530586421
 21
-1161.700426121422
 31
0.0
  0
LINE
  5
BE8A
  8
01
 10
1617.9816430586411
 20
-1132.200426121422
 30
0.0
 11
1617.9816430586411
 21
-1172.200426121422
 31
0.0
  0
LINE
  5
BE8B
  8
01
 10
1626.581653058641
 20
-1144.300396121421
 30
0.0
 11
1626.581653058641
 21
-1161.700426121422
 31
0.0
  0
LINE
  5
BE8C
  8
01
 10
1621.1816430586421
 20
-1147.200426121422
 30
0.0
 11
1621.1816430586421
 21
-1157.200426121422
 31
0.0
  0
LINE
  5
BE8D
  8
01
 10
1619.581653058641
 20
-1147.200426121422
 30
0.0
 11
1619.581653058641
 21
-1157.200426121422
 31
0.0
  0
ARC
  5
BE8E
  8
01
 10
1650.6511430586411
 20
-1182.301506121421
 30
0.0
 40
50.0
 50
130.7976900000159
 51
150.855000000036
  0
LINE
  5
BE8F
  8
01
 10
1650.3429916048731
 20
-1186.7004571214211
 30
0.0
 11
1665.9656282163251
 21
-1186.7004571214211
 31
0.0
  0
LINE
  5
BE90
  8
01
 10
1686.3816430586421
 20
-1144.300396121421
 30
0.0
 11
1686.3816430586421
 21
-1161.700426121422
 31
0.0
  0
LINE
  5
BE91
  8
01
 10
1687.9816430586411
 20
-1142.700426121422
 30
0.0
 11
1687.9816430586411
 21
-1161.700426121422
 31
0.0
  0
LINE
  5
BE92
  8
01
 10
1650.3429916048731
 20
-1117.7003951214231
 30
0.0
 11
1665.9656282163251
 21
-1117.7003951214231
 31
0.0
  0
LINE
  5
BE93
  8
01
 10
1384.98076687658
 20
-1458.2004261203931
 30
0.0
 11
1370.98076687658
 21
-1458.2004261203931
 31
0.0
  0
LINE
  5
BE94
  8
01
 10
1384.98076687658
 20
-1344.2004261203931
 30
0.0
 11
1370.98076687658
 21
-1344.2004261203931
 31
0.0
  0
LINE
  5
BE95
  8
01
 10
1505.4807628765809
 20
-1344.2004261203931
 30
0.0
 11
1492.4807628765809
 21
-1344.2004261203931
 31
0.0
  0
LINE
  5
BE96
  8
01
 10
1498.98076287658
 20
-1337.7004261203931
 30
0.0
 11
1498.98076287658
 21
-1350.7004261203931
 31
0.0
  0
LINE
  5
BE97
  8
01
 10
1505.4807628765809
 20
-1458.2004261203931
 30
0.0
 11
1492.4807628765809
 21
-1458.2004261203931
 31
0.0
  0
LINE
  5
BE98
  8
01
 10
1498.98076287658
 20
-1451.700426120394
 30
0.0
 11
1498.98076287658
 21
-1464.7004261203931
 31
0.0
  0
LINE
  5
BE99
  8
01
 10
1358.98076687658
 20
-1422.2004261203931
 30
0.0
 11
1298.98076687658
 21
-1422.2004261203931
 31
0.0
  0
LINE
  5
BE9A
  8
01
 10
1328.98076687658
 20
-1392.2004261203931
 30
0.0
 11
1328.98076687658
 21
-1452.2004261203931
 31
0.0
  0
LINE
  5
BE9B
  8
01
 10
1638.9807588765809
 20
-1422.2004261203931
 30
0.0
 11
1698.9807588765809
 21
-1422.2004261203931
 31
0.0
  0
LINE
  5
BE9C
  8
01
 10
1668.98075887658
 20
-1392.2004261203931
 30
0.0
 11
1668.98075887658
 21
-1452.2004261203931
 31
0.0
  0
POINT
  5
BE9D
  8
01
 10
1533.48076287658
 20
-1422.2004261203931
 30
0.0
  0
LINE
  5
BE9E
  8
01
 10
1533.0807628665809
 20
-1423.9504261203931
 30
0.0
 11
1533.0807628665809
 21
-1423.100426100393
 31
0.0
  0
LINE
  5
BE9F
  8
01
 10
1533.88076288658
 20
-1423.9504261203931
 30
0.0
 11
1533.88076288658
 21
-1423.100426100393
 31
0.0
  0
LINE
  5
BEA0
  8
01
 10
1532.5807628965811
 20
-1422.6004261303931
 30
0.0
 11
1531.7307628765809
 21
-1422.6004261303931
 31
0.0
  0
LINE
  5
BEA1
  8
01
 10
1532.5807628965811
 20
-1421.8004261103929
 30
0.0
 11
1531.7307628765809
 21
-1421.8004261103929
 31
0.0
  0
LINE
  5
BEA2
  8
01
 10
1531.7307628765809
 20
-1422.6004261303931
 30
0.0
 11
1531.7307628765809
 21
-1421.8004261103929
 31
0.0
  0
LINE
  5
BEA3
  8
01
 10
1533.88076288658
 20
-1423.9504261203931
 30
0.0
 11
1533.0807628665809
 21
-1423.9504261203931
 31
0.0
  0
LINE
  5
BEA4
  8
01
 10
1533.88076288658
 20
-1420.450426120394
 30
0.0
 11
1533.88076288658
 21
-1421.3004261403939
 31
0.0
  0
LINE
  5
BEA5
  8
01
 10
1533.0807628665809
 20
-1420.450426120394
 30
0.0
 11
1533.0807628665809
 21
-1421.3004261403939
 31
0.0
  0
LINE
  5
BEA6
  8
01
 10
1534.3807628565801
 20
-1421.8004261103929
 30
0.0
 11
1535.2307628765809
 21
-1421.8004261103929
 31
0.0
  0
LINE
  5
BEA7
  8
01
 10
1534.3807628565801
 20
-1422.6004261303931
 30
0.0
 11
1535.2307628765809
 21
-1422.6004261303931
 31
0.0
  0
LINE
  5
BEA8
  8
01
 10
1535.2307628765809
 20
-1421.8004261103929
 30
0.0
 11
1535.2307628765809
 21
-1422.6004261303931
 31
0.0
  0
LINE
  5
BEA9
  8
01
 10
1533.0807628665809
 20
-1420.450426120394
 30
0.0
 11
1533.88076288658
 21
-1420.450426120394
 31
0.0
  0
CIRCLE
  5
BEAA
  8
01
 10
1533.48076287658
 20
-1422.2004261203931
 30
0.0
 40
2.5
  0
ARC
  5
BEAB
  8
01
 10
1534.3807628565801
 20
-1421.3004261403939
 30
0.0
 40
0.5
 50
179.999989999999
 51
270.0
  0
ARC
  5
BEAC
  8
01
 10
1534.3807628565801
 20
-1423.100426100393
 30
0.0
 40
0.5
 50
90.00000299999769
 51
180.000010000001
  0
ARC
  5
BEAD
  8
01
 10
1532.5807628965811
 20
-1423.100426100393
 30
0.0
 40
0.5
 50
0.0
 51
90.00000299999769
  0
ARC
  5
BEAE
  8
01
 10
1532.5807628965811
 20
-1421.3004261403939
 30
0.0
 40
0.5
 50
270.0
 51
0.0
  0
POINT
  5
BEB0
  8
01
 10
1464.4807628765809
 20
-1422.2004261203931
 30
0.0
 50
180.0
  0
CIRCLE
  5
BEB1
  8
01
 10
1464.4807628765809
 20
-1422.2004261203931
 30
0.0
 40
2.5
  0
LINE
  5
BEB5
  8
01
 10
1331.4807588765791
 20
-1361.8926620563491
 30
0.0
 11
1331.4807588765791
 21
-1382.5081901844369
 31
0.0
  0
LINE
  5
BEB6
  8
01
 10
1326.48075887658
 20
-1361.8926620563491
 30
0.0
 11
1326.4807588765791
 21
-1382.5081901844369
 31
0.0
  0
CIRCLE
  5
BEB7
  8
01
 10
1328.9807588765791
 20
-1372.2004261203931
 30
0.0
 40
11.0
  0
ARC
  5
BEB8
  8
01
 10
1330.9807588765791
 20
-1382.5081901844369
 30
0.0
 40
0.5
 50
280.98057542761018
 51
0.0
  0
ARC
  5
BEB9
  8
01
 10
1326.9807588765791
 20
-1382.5081901844369
 30
0.0
 40
0.5
 50
180.00000000002601
 51
259.01942457238982
  0
ARC
  5
BEBA
  8
01
 10
1326.9807588765791
 20
-1361.8926620563491
 30
0.0
 40
0.5
 50
100.9805754276102
 51
180.0
  0
ARC
  5
BEBB
  8
01
 10
1330.9807588765791
 20
-1361.8926620563491
 30
0.0
 40
0.5
 50
0.0
 51
79.019424572389795
  0
LINE
  5
BEBD
  8
01
 10
1525.480765876579
 20
-1347.900436120394
 30
0.0
 11
1525.480765876579
 21
-1385.500416120394
 31
0.0
  0
ARC
  5
BEBE
  8
01
 10
1524.480765876579
 20
-1347.900436120394
 30
0.0
 40
1.0
 50
0.0
 51
90.0
  0
LINE
  5
BEC5
  8
01
 10
1526.15416387658
 20
-1368.7004261203931
 30
0.0
 11
1525.480765876579
 21
-1368.7004261203931
 31
0.0
  0
LINE
  5
BEC6
  8
01
 10
1526.15416387658
 20
-1375.7004261203931
 30
0.0
 11
1525.480765876579
 21
-1375.7004261203931
 31
0.0
  0
LINE
  5
BEC7
  8
01
 10
1518.9807628765809
 20
-1386.500416120394
 30
0.0
 11
1524.480765876579
 21
-1386.500416120394
 31
0.0
  0
ARC
  5
BEC8
  8
01
 10
1524.480765876579
 20
-1385.500416120394
 30
0.0
 40
1.0
 50
270.0
 51
0.0
  0
LINE
  5
BEC9
  8
01
 10
1526.15416387658
 20
-1368.7004261203931
 30
0.0
 11
1526.15416387658
 21
-1375.7004261203931
 31
0.0
  0
ARC
  5
BECA
  8
01
 10
1521.2807658765789
 20
-1372.2004261203931
 30
0.0
 40
6.0
 50
324.3146800000145
 51
35.685330999974283
  0
LINE
  5
BECD
  8
01
 10
1518.9807628765809
 20
-1346.900436120394
 30
0.0
 11
1524.480765876579
 21
-1346.900436120394
 31
0.0
  0
LINE
  5
BECE
  8
01
 10
1669.9807588765809
 20
-1375.5545461203931
 30
0.0
 11
1669.9807588765809
 21
-1368.8462961203941
 31
0.0
  0
LINE
  5
BECF
  8
01
 10
1667.9807588765809
 20
-1375.5545461203931
 30
0.0
 11
1667.9807588765809
 21
-1368.8462961203941
 31
0.0
  0
CIRCLE
  5
BED0
  8
01
 10
1668.98075887658
 20
-1372.2004261203931
 30
0.0
 40
3.5000004999999992
  0
LINE
  5
BED3
  8
01
 10
1315.9807588765791
 20
-1372.2004261203931
 30
0.0
 11
1341.9807588765791
 21
-1372.2004261203931
 31
0.0
  0
LINE
  5
BED4
  8
01
 10
1351.4807588765791
 20
-1366.7004261203931
 30
0.0
 11
1306.4807588765791
 21
-1366.7004261203931
 31
0.0
  0
LINE
  5
BED5
  8
01
 10
1328.9807588765791
 20
-1344.2004261203931
 30
0.0
 11
1328.9807588765791
 21
-1389.200426120394
 31
0.0
  0
LINE
  5
BED6
  8
01
 10
1681.9807668765809
 20
-1372.2004261203931
 30
0.0
 11
1655.980766876582
 21
-1372.2004261203931
 31
0.0
  0
LINE
  5
BED7
  8
01
 10
1646.4807668765809
 20
-1366.7004261203931
 30
0.0
 11
1691.480766876582
 21
-1366.7004261203931
 31
0.0
  0
LINE
  5
BED8
  8
01
 10
1668.9807668765809
 20
-1344.2004261203931
 30
0.0
 11
1668.9807668765809
 21
-1389.200426120394
 31
0.0
  0
ARC
  5
BEDB
  8
01
 10
1668.980867892654
 20
-1174.500427121427
 30
0.0
 40
6.0
 50
279.59301243461442
 51
305.68493105338382
  0
LINE
  5
BEDC
  8
01
 10
1667.9807588765809
 20
-1179.3738181404001
 30
0.0
 11
1665.480833874547
 21
-1179.373800689963
 31
0.0
  0
LINE
  5
BEDD
  8
01
 10
1669.9807588765809
 20
-1180.416525330573
 30
0.0
 11
1669.9807588765809
 21
-1178.7004341011479
 31
0.0
  0
LINE
  5
BEDE
  8
01
 10
1667.9807588765809
 20
-1180.4164884764141
 30
0.0
 11
1667.9807588765809
 21
-1178.700420140379
 31
0.0
  0
LINE
  5
BEDF
  8
01
 10
1688.780866612884
 20
-1132.200426121422
 30
0.0
 11
1688.7808282197959
 21
-1126.7002869100049
 31
0.0
  0
ARC
  5
BEE0
  8
01
 10
1687.7808282198209
 20
-1126.70029389039
 30
0.0
 40
1.0
 50
0.0003999465751871
 51
90.000399946575186
  0
LINE
  5
BEE1
  8
01
 10
1649.18088661192
 20
-1132.200426121422
 30
0.0
 11
1649.1808482207609
 21
-1126.700563333098
 31
0.0
  0
LINE
  5
BEE2
  8
01
 10
1688.780866612884
 20
-1172.200426121422
 30
0.0
 11
1688.7808282197959
 21
-1177.7005653328399
 31
0.0
  0
ARC
  5
BEE3
  8
01
 10
1668.980867892654
 20
-1174.500427121427
 30
0.0
 40
6.0
 50
234.31428005343071
 51
260.4048759775697
  0
LINE
  5
BEE4
  8
01
 10
1672.480833874376
 20
-1179.3738495526541
 30
0.0
 11
1669.9807588765809
 21
-1179.3738321011699
 31
0.0
  0
LINE
  5
BEE5
  8
01
 10
1649.18088661192
 20
-1172.200426121422
 30
0.0
 11
1649.1808482207609
 21
-1177.700288909745
 31
0.0
  0
ARC
  5
BEE6
  8
01
 10
1650.1808482207371
 20
-1177.7002958901301
 30
0.0
 40
1.0
 50
179.99960005339869
 51
269.99960005341183
  0
LINE
  5
BEE7
  8
01
 10
1665.480833874547
 20
-1179.373800689963
 30
0.0
 11
1665.480838575123
 21
-1178.7004026899731
 31
0.0
  0
LINE
  5
BEE8
  8
01
 10
1672.480833874376
 20
-1179.3738495526541
 30
0.0
 11
1672.4808385749541
 21
-1178.700451552666
 31
0.0
  0
LINE
  5
BEE9
  8
01
 10
1687.7808212394359
 20
-1178.700558352431
 30
0.0
 11
1650.180841240352
 21
-1178.700295890106
 31
0.0
  0
ARC
  5
BEEA
  8
01
 10
1687.78082821982
 20
-1177.700558352456
 30
0.0
 40
1.0
 50
269.99960005341183
 51
359.9996000534249
  0
LINE
  5
BEEB
  8
01
 10
1687.7808212394359
 20
-1125.7002938904141
 30
0.0
 11
1650.180841240352
 21
-1125.700556352738
 31
0.0
  0
ARC
  5
BEEC
  8
01
 10
1650.1808482207371
 20
-1126.7005563527141
 30
0.0
 40
1.0
 50
90.000399946575186
 51
180.00039994657519
  0
LINE
  5
BEEF
  8
01
 10
1668.980875216326
 20
-1102.200426121422
 30
0.0
 11
1668.980875216326
 21
-1137.200426121422
 31
0.0
  0
LINE
  5
BEF0
  8
01
 10
1668.980875216326
 20
-1167.200426121422
 30
0.0
 11
1668.980875216326
 21
-1202.200426121422
 31
0.0
  0
LINE
  5
BEF1
  8
01
 10
1448.98076287658
 20
-1422.2004261203931
 30
0.0
 11
1483.9807628765809
 21
-1422.2004261203931
 31
0.0
  0
LINE
  5
BEF2
  8
01
 10
1513.98076287658
 20
-1422.2004261203931
 30
0.0
 11
1548.98076287658
 21
-1422.2004261203931
 31
0.0
  0
LINE
  5
BEF3
  8
01
 10
1518.9807628765809
 20
-1346.900436120394
 30
0.0
 11
1518.98076687658
 21
-1386.500416120394
 31
0.0
  0
LINE
  5
BEF4
  8
01
 10
1649.180885216794
 20
-1132.200562332969
 30
0.0
 11
1688.780865215856
 21
-1132.2002899098759
 31
0.0
  0
LINE
  5
BEF5
  8
01
 10
1649.180885216794
 20
-1172.2002899098759
 30
0.0
 11
1688.780865215856
 21
-1172.200562332969
 31
0.0
  0
LINE
  5
BEF6
  8
01
 10
1617.9816430586411
 20
-1172.200426121422
 30
0.0
 11
1771.736023213673
 21
-1172.200426121422
 31
0.0
  0
LINE
  5
BEF7
  8
01
 10
1617.9816430586411
 20
-1132.200426121422
 30
0.0
 11
1771.736023213673
 21
-1132.200426121422
 31
0.0
  0
ARC
  5
BEFF
  8
01
 10
1672.480875216319
 20
-1124.7004251212711
 30
0.0
 40
1.0
 50
180.0
 51
270.00000000001302
  0
ARC
  5
BF00
  8
01
 10
1665.4808752163169
 20
-1124.7004251212691
 30
0.0
 40
1.0
 50
270.0
 51
0.0
  0
LINE
  5
BF01
  8
01
 10
1666.4808752163181
 20
-1112.2004021770661
 30
0.0
 11
1666.4808752163181
 21
-1124.7004251212691
 31
0.0
  0
ARC
  5
BF02
  8
01
 10
1667.4808752163169
 20
-1112.200402177064
 30
0.0
 40
1.0
 50
90.0
 51
179.9999999999479
  0
LINE
  5
BF03
  8
01
 10
1667.4808752163181
 20
-1111.200402177062
 30
0.0
 11
1670.4808752163181
 21
-1111.200402177062
 31
0.0
  0
ARC
  5
BF04
  8
01
 10
1670.4808752163181
 20
-1112.200402177064
 30
0.0
 40
1.0
 50
0.0
 51
90.0
  0
LINE
  5
BF05
  8
01
 10
1671.480875216319
 20
-1112.200402177064
 30
0.0
 11
1671.4808752163201
 21
-1124.7004251212711
 31
0.0
  0
LINE
  5
BF0D
  8
01
 10
1661.030878216322
 20
-1180.700426121422
 30
0.0
 11
1676.9308722163221
 21
-1180.700426121422
 31
0.0
  0
ARC
  5
BF26
  8
01
 10
1683.734610644784
 20
-1442.247804714036
 30
0.0
 40
15.0
 50
84.112682133584954
 51
138.902329413133
  0
ARC
  5
BF27
  8
01
 10
1683.734610644784
 20
-1402.1530475267509
 30
0.0
 40
15.0
 50
221.097670586867
 51
275.887317866415
  0
ARC
  5
BF28
  8
01
 10
1652.5307588765811
 20
-1422.2004261203931
 30
0.0
 40
26.0
 50
13.99822588533725
 51
17.600626102069249
  0
ARC
  5
BF29
  8
01
 10
1652.5307588765811
 20
-1422.2004261203931
 30
0.0
 40
26.0
 50
342.39937389793067
 51
346.00177411466268
  0
ARC
  5
BF2A
  8
01
 10
1685.430758876581
 20
-1422.2004261203931
 30
0.0
 40
26.0
 50
162.3993738979307
 51
180.0
  0
LINE
  5
BF2B
  8
01
 10
1527.98076287658
 20
-1407.2004261203931
 30
0.0
 11
1527.9807628765809
 21
-1422.2004261203931
 31
0.0
  0
LINE
  5
BF2C
  8
01
 10
1528.98076287658
 20
-1407.2004261203931
 30
0.0
 11
1527.98076287658
 21
-1407.2004261203931
 31
0.0
  0
LINE
  5
BF2D
  8
01
 10
1528.98076287658
 20
-1437.2004261203931
 30
0.0
 11
1527.98076287658
 21
-1437.2004261203931
 31
0.0
  0
ARC
  5
BF2E
  8
01
 10
1573.48076287658
 20
-1402.7004261203931
 30
0.0
 40
27.0
 50
265.09485852090711
 51
279.68980735130901
  0
ARC
  5
BF2F
  8
01
 10
1573.48076287658
 20
-1441.7004261203931
 30
0.0
 40
27.0
 50
80.310192648691029
 51
94.905141479092904
  0
ARC
  5
BF30
  8
01
 10
1576.005473250174
 20
-1417.4864275247451
 30
0.0
 40
12.0
 50
279.68980735130901
 51
313.51196948267329
  0
ARC
  5
BF31
  8
01
 10
1576.005473250174
 20
-1426.914424716042
 30
0.0
 40
12.0
 50
46.488030517326621
 51
80.310192648691029
  0
ARC
  5
BF32
  8
01
 10
1580.48076287658
 20
-1422.2004261203931
 30
0.0
 40
5.5
 50
313.51196948267329
 51
0.0
  0
ARC
  5
BF33
  8
01
 10
1580.48076287658
 20
-1422.2004261203931
 30
0.0
 40
5.5
 50
0.0
 51
46.488030517326621
  0
ARC
  5
BF34
  8
01
 10
1731.430758876581
 20
-979.70042612039356
 30
0.0
 40
450.0
 50
264.11268213358488
 51
274.76302667072429
  0
ARC
  5
BF35
  8
01
 10
1731.430758876581
 20
-1864.7004261203931
 30
0.0
 40
450.0
 50
85.236973329275685
 51
95.887317866415046
  0
ARC
  5
BF36
  8
01
 10
1763.814324169738
 20
-1368.3536194675
 30
0.0
 40
60.0
 50
274.76302667072429
 51
288.58742685753259
  0
ARC
  5
BF37
  8
01
 10
1777.430758876581
 20
-1422.2004261203931
 30
0.0
 40
7.0
 50
346.96396127509888
 51
13.03603872487575
  0
ARC
  5
BF38
  8
01
 10
1763.814324169738
 20
-1476.0472327732871
 30
0.0
 40
60.0
 50
71.412573142467437
 51
85.236973329275685
  0
ARC
  5
BF39
  8
01
 10
1782.3019007720429
 20
-1423.3282455360229
 30
0.0
 40
2.0
 50
288.58742685753259
 51
346.96396127512418
  0
ARC
  5
BF3A
  8
01
 10
1782.3019007720429
 20
-1421.072606704764
 30
0.0
 40
2.0
 50
13.03603872487575
 51
71.412573142467437
  0
ARC
  5
BF3B
  8
01
 10
1685.430758876581
 20
-1422.2004261203931
 30
0.0
 40
26.0
 50
180.0
 51
197.60062610206921
  0
LINE
  5
BF3C
  8
01
 10
1527.9807628765809
 20
-1422.2004261203931
 30
0.0
 11
1527.98076287658
 21
-1437.2004261203931
 31
0.0
  0
ARC
  5
BF3D
  8
01
 10
1664.9221946030709
 20
-1418.269482132461
 30
0.0
 40
13.0
 50
17.600626102069249
 51
39.112573138833604
  0
ARC
  5
BF3E
  8
01
 10
1673.0393231500909
 20
-1418.269482132461
 30
0.0
 40
13.0
 50
140.8874268611664
 51
162.3993738979307
  0
ARC
  5
BF3F
  8
01
 10
1668.98075887658
 20
-1414.969697323239
 30
0.0
 40
7.769271202845375
 50
39.112573138833604
 51
140.8874268611664
  0
ARC
  5
BF40
  8
01
 10
1664.9221946030709
 20
-1426.1313701083261
 30
0.0
 40
13.0
 50
320.88742686116638
 51
342.39937389793067
  0
ARC
  5
BF41
  8
01
 10
1673.0393231500909
 20
-1426.1313701083261
 30
0.0
 40
13.0
 50
197.60062610206921
 51
219.1125731388336
  0
ARC
  5
BF42
  8
01
 10
1668.98075887658
 20
-1429.4311549175479
 30
0.0
 40
7.769271202845375
 50
219.1125731388336
 51
320.88742686116638
  0
ARC
  5
BF43
  8
01
 10
1528.98076287658
 20
-1542.000426120394
 30
0.0
 40
134.80000000000001
 50
76.908280987876395
 51
90.0
  0
ARC
  5
BF44
  8
01
 10
1545.923750956857
 20
-1469.1445742283761
 30
0.0
 40
60.0
 50
55.917936414957254
 51
76.908280987876395
  0
ARC
  5
BF45
  8
01
 10
1528.98076287658
 20
-1302.4004261203941
 30
0.0
 40
134.80000000000001
 50
270.0
 51
283.09171901212358
  0
ARC
  5
BF46
  8
01
 10
1545.923750956857
 20
-1375.256278012411
 30
0.0
 40
60.0
 50
283.09171901212358
 51
304.0820635850427
  0
LINE
  5
BF47
  8
01
 10
1527.48076287658
 20
-1430.1482591406741
 30
0.0
 11
1527.98076287658
 21
-1430.1482591406741
 31
0.0
  0
LINE
  5
BF48
  8
01
 10
1527.48076287658
 20
-1414.2525931001139
 30
0.0
 11
1527.98076287658
 21
-1414.2525931001139
 31
0.0
  0
LINE
  5
BF49
  8
01
 10
1659.4308752163261
 20
-1180.977493317054
 30
0.0
 11
1678.5308752163251
 21
-1180.977493317054
 31
0.0
  0
ARC
  5
BF4A
  8
01
 10
1809.4308752163261
 20
-1181.977493317054
 30
0.0
 40
150.0
 50
180.0
 51
191.77757693431241
  0
LINE
  5
BF4B
  8
01
 10
1659.4308752163261
 20
-1181.977493317054
 30
0.0
 11
1659.4308752163261
 21
-1180.977493317054
 31
0.0
  0
LINE
  5
BF4C
  8
01
 10
1678.5308752163251
 20
-1181.977493317054
 30
0.0
 11
1678.5308752163251
 21
-1180.977493317054
 31
0.0
  0
ARC
  5
BF4D
  8
01
 10
1731.4308752163261
 20
-1563.9774933170529
 30
0.0
 40
350.0
 50
85.048450687360116
 51
97.395966477921036
  0
ARC
  5
BF4E
  8
01
 10
1731.4308752163261
 20
-1058.977493317054
 30
0.0
 40
180.0
 50
253.36654646881121
 51
279.81121064858701
  0
ARC
  5
BF4F
  8
01
 10
1756.4617338176311
 20
-1275.0597608780749
 30
0.0
 40
60.0
 50
65.702643773332781
 51
85.048450687360116
  0
ARC
  5
BF50
  8
01
 10
1748.471105566884
 20
-1157.514950913644
 30
0.0
 40
80.0
 50
279.81121064858701
 51
294.095796071042
  0
ARC
  5
BF51
  8
01
 10
1778.8562808556901
 20
-1225.4552344518549
 30
0.0
 40
5.5745943606361834
 50
294.095796071042
 51
65.702643773332781
  0
ARC
  5
BF52
  8
01
 10
1685.347044417761
 20
-1208.9559720835809
 30
0.0
 40
8.0
 50
174.97488167902389
 51
277.39596647792098
  0
ARC
  5
BF53
  8
01
 10
1687.062457138657
 20
-1207.491612098014
 30
0.0
 40
25.0
 50
191.77757693431241
 51
253.36654646881121
  0
ARC
  5
BF54
  8
01
 10
1528.5308752163251
 20
-1181.9774933170511
 30
0.0
 40
150.0
 50
357.32522551226731
 51
0.0
  0
ARC
  5
BF55
  8
01
 10
1440.862857990157
 20
-1186.44901343232
 30
0.0
 40
237.51805361880409
 50
354.73233232331359
 51
359.39005073438591
  0
LINE
  5
BF56
  8
01
 10
1676.9308752163261
 20
-1180.977493317054
 30
0.0
 11
1676.9308752163261
 21
-1180.700426121422
 31
0.0
  0
LINE
  5
BF57
  8
01
 10
1661.0308752163251
 20
-1180.977493317054
 30
0.0
 11
1661.0308752163239
 21
-1180.700426121422
 31
0.0
  0
LINE
  5
BF58
  8
01
 10
1659.4308752163261
 20
-1123.4233589257899
 30
0.0
 11
1666.4808752163181
 21
-1123.423358925791
 31
0.0
  0
ARC
  5
BF59
  8
01
 10
1809.4308752163261
 20
-1122.4233589257899
 30
0.0
 40
150.0
 50
168.22242306568751
 51
180.0
  0
LINE
  5
BF5A
  8
01
 10
1659.4308752163261
 20
-1122.4233589257899
 30
0.0
 11
1659.4308752163261
 21
-1123.4233589257899
 31
0.0
  0
LINE
  5
BF5B
  8
01
 10
1678.5308752163251
 20
-1122.4233589257899
 30
0.0
 11
1678.5308752163251
 21
-1123.4233589257899
 31
0.0
  0
ARC
  5
BF5C
  8
01
 10
1731.4308752163261
 20
-740.42335892579058
 30
0.0
 40
350.0
 50
262.60403352207891
 51
274.95154931263988
  0
ARC
  5
BF5D
  8
01
 10
1731.4308752163261
 20
-1245.423358925791
 30
0.0
 40
180.0
 50
80.18878935141295
 51
106.63345353118881
  0
ARC
  5
BF5E
  8
01
 10
1756.4617338176311
 20
-1029.341091364769
 30
0.0
 40
60.0
 50
274.95154931263988
 51
294.2973562266672
  0
ARC
  5
BF5F
  8
01
 10
1748.471105566884
 20
-1146.8859013291999
 30
0.0
 40
80.0
 50
65.904203928957998
 51
80.18878935141295
  0
ARC
  5
BF60
  8
01
 10
1778.8562808556901
 20
-1078.945617790989
 30
0.0
 40
5.5745943606361834
 50
294.2973562266672
 51
65.904203928957998
  0
ARC
  5
BF61
  8
01
 10
1685.347044417761
 20
-1095.444880159263
 30
0.0
 40
8.0
 50
82.604033522078964
 51
185.02511832097599
  0
ARC
  5
BF62
  8
01
 10
1687.062457138657
 20
-1096.9092401448299
 30
0.0
 40
25.0
 50
106.63345353118881
 51
168.22242306568751
  0
ARC
  5
BF63
  8
01
 10
1528.5308752163251
 20
-1122.4233589257931
 30
0.0
 40
150.0
 50
0.0
 51
2.6747744877326949
  0
ARC
  5
BF64
  8
01
 10
1440.862857990157
 20
-1117.9518388105239
 30
0.0
 40
237.51805361880409
 50
0.6099492656141337
 51
5.2676676766864361
  0
LINE
  5
BF65
  8
01
 10
1676.9308752163261
 20
-1123.4233589257899
 30
0.0
 11
1676.9308752163261
 21
-1123.700426121422
 31
0.0
  0
LINE
  5
BF66
  8
01
 10
1661.0308752163251
 20
-1123.4233589257899
 30
0.0
 11
1661.0308752163239
 21
-1123.700426121422
 31
0.0
  0
ARC
  5
BF68
  8
01
 10
1314.226915108376
 20
-1442.247804714036
 30
0.0
 40
15.0
 50
41.097670586867039
 51
95.887317866415032
  0
ARC
  5
BF69
  8
01
 10
1314.226915108376
 20
-1402.1530475267509
 30
0.0
 40
15.0
 50
264.11268213358488
 51
318.90232941313297
  0
ARC
  5
BF6A
  8
01
 10
1345.4307668765789
 20
-1422.2004261203931
 30
0.0
 40
26.0
 50
162.3993738979307
 51
166.00177411466271
  0
ARC
  5
BF6B
  8
01
 10
1345.4307668765789
 20
-1422.2004261203931
 30
0.0
 40
26.0
 50
193.99822588533721
 51
197.60062610206921
  0
ARC
  5
BF6C
  8
01
 10
1312.530766876579
 20
-1422.2004261203931
 30
0.0
 40
26.0
 50
0.0
 51
17.600626102069249
  0
LINE
  5
BF6D
  8
01
 10
1469.98076287658
 20
-1407.2004261203931
 30
0.0
 11
1469.9807628765791
 21
-1422.2004261203931
 31
0.0
  0
LINE
  5
BF6E
  8
01
 10
1468.98076287658
 20
-1407.2004261203931
 30
0.0
 11
1469.98076287658
 21
-1407.2004261203931
 31
0.0
  0
LINE
  5
BF6F
  8
01
 10
1468.98076287658
 20
-1437.2004261203931
 30
0.0
 11
1469.98076287658
 21
-1437.2004261203931
 31
0.0
  0
ARC
  5
BF70
  8
01
 10
1424.48076287658
 20
-1402.7004261203931
 30
0.0
 40
27.0
 50
260.31019264869099
 51
274.90514147909289
  0
ARC
  5
BF71
  8
01
 10
1424.48076287658
 20
-1441.7004261203931
 30
0.0
 40
27.0
 50
85.094858520907081
 51
99.689807351308986
  0
ARC
  5
BF72
  8
01
 10
1421.956052502986
 20
-1417.4864275247451
 30
0.0
 40
12.0
 50
226.48803051732659
 51
260.31019264869099
  0
ARC
  5
BF73
  8
01
 10
1421.956052502986
 20
-1426.914424716042
 30
0.0
 40
12.0
 50
99.689807351308986
 51
133.51196948267341
  0
ARC
  5
BF74
  8
01
 10
1417.48076287658
 20
-1422.2004261203931
 30
0.0
 40
5.5
 50
180.0
 51
226.48803051732659
  0
ARC
  5
BF75
  8
01
 10
1417.48076287658
 20
-1422.2004261203931
 30
0.0
 40
5.5
 50
133.51196948267341
 51
180.0
  0
ARC
  5
BF76
  8
01
 10
1266.530766876579
 20
-979.70042612039356
 30
0.0
 40
450.0
 50
265.2369733292756
 51
275.887317866415
  0
ARC
  5
BF77
  8
01
 10
1266.530766876579
 20
-1864.7004261203931
 30
0.0
 40
450.0
 50
84.112682133584954
 51
94.763026670724273
  0
ARC
  5
BF78
  8
01
 10
1234.147201583422
 20
-1368.3536194675
 30
0.0
 40
60.0
 50
251.41257314246741
 51
265.2369733292756
  0
ARC
  5
BF79
  8
01
 10
1220.530766876579
 20
-1422.2004261203931
 30
0.0
 40
7.0
 50
166.96396127512421
 51
193.03603872487571
  0
ARC
  5
BF7A
  8
01
 10
1234.147201583422
 20
-1476.0472327732871
 30
0.0
 40
60.0
 50
94.763026670724273
 51
108.58742685753251
  0
ARC
  5
BF7B
  8
01
 10
1215.6596249811171
 20
-1423.3282455360229
 30
0.0
 40
2.0
 50
193.03603872487571
 51
251.41257314246741
  0
ARC
  5
BF7C
  8
01
 10
1215.6596249811171
 20
-1421.072606704764
 30
0.0
 40
2.0
 50
108.58742685753251
 51
166.96396127512421
  0
ARC
  5
BF7D
  8
01
 10
1312.530766876579
 20
-1422.2004261203931
 30
0.0
 40
26.0
 50
342.39937389793067
 51
0.0
  0
LINE
  5
BF7E
  8
01
 10
1469.9807628765791
 20
-1422.2004261203931
 30
0.0
 11
1469.98076287658
 21
-1437.2004261203931
 31
0.0
  0
ARC
  5
BF7F
  8
01
 10
1333.0393311500891
 20
-1418.269482132461
 30
0.0
 40
13.0
 50
140.8874268611664
 51
162.3993738979307
  0
ARC
  5
BF80
  8
01
 10
1324.9222026030691
 20
-1418.269482132461
 30
0.0
 40
13.0
 50
17.600626102069249
 51
39.112573138833604
  0
ARC
  5
BF81
  8
01
 10
1328.98076687658
 20
-1414.969697323239
 30
0.0
 40
7.769271202845375
 50
39.112573138833604
 51
140.8874268611664
  0
ARC
  5
BF82
  8
01
 10
1333.0393311500891
 20
-1426.1313701083261
 30
0.0
 40
13.0
 50
197.60062610206921
 51
219.1125731388336
  0
ARC
  5
BF83
  8
01
 10
1324.9222026030691
 20
-1426.1313701083261
 30
0.0
 40
13.0
 50
320.88742686116638
 51
342.39937389793067
  0
ARC
  5
BF84
  8
01
 10
1328.98076687658
 20
-1429.4311549175479
 30
0.0
 40
7.769271202845375
 50
219.1125731388336
 51
320.88742686116638
  0
ARC
  5
BF85
  8
01
 10
1468.98076287658
 20
-1542.000426120394
 30
0.0
 40
134.80000000000001
 50
90.0
 51
103.0917190121236
  0
ARC
  5
BF86
  8
01
 10
1452.0377747963039
 20
-1469.1445742283761
 30
0.0
 40
60.0
 50
103.0917190121236
 51
124.0820635850427
  0
ARC
  5
BF87
  8
01
 10
1468.98076287658
 20
-1302.4004261203941
 30
0.0
 40
134.80000000000001
 50
256.90828098787642
 51
270.0
  0
ARC
  5
BF88
  8
01
 10
1452.037774796303
 20
-1375.256278012411
 30
0.0
 40
60.0
 50
235.9179364149573
 51
256.90828098787642
  0
LINE
  5
BF89
  8
01
 10
1470.48076287658
 20
-1430.1482591406741
 30
0.0
 11
1469.98076287658
 21
-1430.1482591406741
 31
0.0
  0
LINE
  5
BF8A
  8
01
 10
1470.48076287658
 20
-1414.2525931001139
 30
0.0
 11
1469.98076287658
 21
-1414.2525931001139
 31
0.0
  0
LINE
  5
C15B
  8
01
 10
1671.4808752163201
 20
-1123.4233589257899
 30
0.0
 11
1678.5308752163251
 21
-1123.4233589257899
 31
0.0
  0
LINE
  5
C172
  8
01
 10
1478.98076287658
 20
-1346.700421120395
 30
0.0
 11
1478.98076287658
 21
-1386.700421120395
 31
0.0
  0
LINE
  5
C174
  8
01
 10
1472.680762876581
 20
-1386.200421120395
 30
0.0
 11
1472.680762876581
 21
-1347.200421120396
 31
0.0
  0
LINE
  5
C175
  8
01
 10
1478.98076287658
 20
-1386.700421120395
 30
0.0
 11
1473.18076287658
 21
-1386.700421120395
 31
0.0
  0
ARC
  5
C176
  8
01
 10
1473.18076287658
 20
-1386.200421120395
 30
0.0
 40
0.5
 50
180.0
 51
270.0
  0
LINE
  5
C177
  8
01
 10
1478.98076287658
 20
-1346.700421120395
 30
0.0
 11
1473.18076287658
 21
-1346.700421120396
 31
0.0
  0
ARC
  5
C178
  8
01
 10
1473.18076287658
 20
-1347.200421120396
 30
0.0
 40
0.5
 50
90.0
 51
180.0
  0
LINE
  5
C179
  8
01
 10
1454.652745836878
 20
-1372.200421120403
 30
0.0
 11
1481.564690231382
 21
-1372.200421120403
 31
0.0
  0
LINE
  5
C17A
  8
01
 10
1457.980377310859
 20
-1383.2004261203949
 30
0.0
 11
1472.680762876581
 21
-1383.2004261203949
 31
0.0
  0
LINE
  5
C17B
  8
01
 10
1471.48040025507
 20
-1361.7004261203949
 30
0.0
 11
1471.4804002550659
 21
-1382.7004261203949
 31
0.0
  0
LINE
  5
C17C
  8
01
 10
1457.9803773108611
 20
-1361.2004261203961
 30
0.0
 11
1472.680762876581
 21
-1361.2004261203949
 31
0.0
  0
ARC
  5
C17D
  8
01
 10
1457.9803773108611
 20
-1362.200426120394
 30
0.0
 40
1.0
 50
90.0
 51
180.0
  0
LINE
  5
C17E
  8
01
 10
1456.980377310859
 20
-1362.200426120394
 30
0.0
 11
1456.980377310859
 21
-1382.2004261203931
 31
0.0
  0
ARC
  5
C17F
  8
01
 10
1457.980377310859
 20
-1382.2004261203931
 30
0.0
 40
1.0
 50
180.0
 51
270.0
  0
ARC
  5
C180
  8
01
 10
1471.9804002550659
 20
-1361.7004261203949
 30
0.0
 40
0.5
 50
90.0
 51
179.99999999997391
  0
ARC
  5
C181
  8
01
 10
1471.9804002550659
 20
-1382.7004261203949
 30
0.0
 40
0.5
 50
179.99999999997391
 51
270.0
  0
TEXT
  5
C1F8
  8
01
 10
1321.793983071741
 20
-1173.6910227803439
 30
0.0
 40
6.0
  1
ヘアライン
 72
     1
 11
1338.993983071741
 21
-1173.6910227803439
 31
0.0
  0
TEXT
  5
C1F9
  8
01
 10
1332.5939830717409
 20
-1163.2275853522749
 30
0.0
 40
6.0
  1
鏡面
 72
     1
 11
1338.993983071741
 21
-1163.2275853522749
 31
0.0
  0
TEXT
  5
C1FA
  8
01
 10
1316.822554500312
 20
-1184.1910227803439
 30
0.0
 40
6.0
  1
鏡面+ヘアライン
 41
0.8
 72
     1
 11
1338.993983071741
 21
-1184.1910227803439
 31
0.0
  0
LINE
  5
C2AA
  8
01
 10
1694.98075887658
 20
-1395.7004261203949
 30
0.0
 11
1642.9807588765821
 21
-1395.7004261203949
 31
0.0
  0
LINE
  5
C2AB
  8
01
 10
1642.9807588765821
 20
-1448.7004261203949
 30
0.0
 11
1694.9807588765809
 21
-1448.7004261203949
 31
0.0
  0
LINE
  5
C2AC
  8
01
 10
1642.480758876583
 20
-1396.2004261203949
 30
0.0
 11
1642.480758876583
 21
-1448.2004261203949
 31
0.0
  0
ARC
  5
C2AD
  8
01
 10
1642.9807588765821
 20
-1448.2004261203949
 30
0.0
 40
0.5
 50
180.0
 51
270.0
  0
ARC
  5
C2AE
  8
01
 10
1642.9807588765821
 20
-1396.2004261203949
 30
0.0
 40
0.5
 50
90.0
 51
180.0
  0
LINE
  5
C2AF
  8
01
 10
1695.48075887658
 20
-1396.2004261203949
 30
0.0
 11
1695.4807588765809
 21
-1416.138727465682
 31
0.0
  0
ARC
  5
C2B0
  8
01
 10
1694.9807588765809
 20
-1448.2004261203949
 30
0.0
 40
0.5
 50
270.0
 51
0.0
  0
ARC
  5
C2B1
  8
01
 10
1694.98075887658
 20
-1396.2004261203949
 30
0.0
 40
0.5
 50
0.0
 51
90.0
  0
LINE
  5
C2C8
  8
01
 10
1354.9807668765791
 20
-1395.7004261203949
 30
0.0
 11
1302.980766876582
 21
-1395.7004261203949
 31
0.0
  0
LINE
  5
C2C9
  8
01
 10
1302.980766876582
 20
-1448.7004261203949
 30
0.0
 11
1354.98076687658
 21
-1448.7004261203949
 31
0.0
  0
LINE
  5
C2CA
  8
01
 10
1302.480766876582
 20
-1396.2004261203949
 30
0.0
 11
1302.480766876582
 21
-1416.138727465682
 31
0.0
  0
ARC
  5
C2CB
  8
01
 10
1302.980766876582
 20
-1448.2004261203949
 30
0.0
 40
0.5
 50
180.0
 51
270.0
  0
ARC
  5
C2CC
  8
01
 10
1302.980766876582
 20
-1396.2004261203949
 30
0.0
 40
0.5
 50
90.0
 51
180.0
  0
LINE
  5
C2CD
  8
01
 10
1355.4807668765791
 20
-1396.2004261203949
 30
0.0
 11
1355.48076687658
 21
-1448.2004261203949
 31
0.0
  0
ARC
  5
C2CE
  8
01
 10
1354.98076687658
 20
-1448.2004261203949
 30
0.0
 40
0.5
 50
270.0
 51
0.0
  0
ARC
  5
C2CF
  8
01
 10
1354.9807668765791
 20
-1396.2004261203949
 30
0.0
 40
0.5
 50
0.0
 51
90.0
  0
LINE
  5
C2E5
  8
01
 10
1302.480766876582
 20
-1428.262124775104
 30
0.0
 11
1302.480766876582
 21
-1448.2004261203949
 31
0.0
  0
LINE
  5
C2E6
  8
01
 10
1695.4807588765809
 20
-1428.2621247751049
 30
0.0
 11
1695.4807588765809
 21
-1448.2004261203949
 31
0.0
  0
LINE
  5
C2E7
  8
01
 10
1642.480758876583
 20
-1438.2004261203931
 30
0.0
 11
1686.9807588765809
 21
-1438.2004261203931
 31
0.0
  0
LINE
  5
C2E8
  8
01
 10
1686.9807588765809
 20
-1438.2004261203931
 30
0.0
 11
1686.9807588765809
 21
-1395.7004261203949
 31
0.0
  0
LINE
  5
C2FD
  8
01
 10
1518.9807628765809
 20
-1448.7004261203931
 30
0.0
 11
1518.9807628765809
 21
-1395.7004261203961
 31
0.0
  0
LINE
  5
C2FE
  8
01
 10
1527.4807628765809
 20
-1448.200426120394
 30
0.0
 11
1527.4807628765809
 21
-1396.2004261203961
 31
0.0
  0
LINE
  5
C2FF
  8
01
 10
1518.9807628765809
 20
-1395.7004261203961
 30
0.0
 11
1526.9807628765809
 21
-1395.7004261203961
 31
0.0
  0
LINE
  5
C300
  8
01
 10
1518.9807628765809
 20
-1448.7004261203931
 30
0.0
 11
1526.9807628765809
 21
-1448.7004261203931
 31
0.0
  0
ARC
  5
C301
  8
01
 10
1526.9807628765809
 20
-1448.200426120394
 30
0.0
 40
0.5
 50
270.0
 51
0.0
  0
ARC
  5
C302
  8
01
 10
1526.9807628765809
 20
-1396.2004261203961
 30
0.0
 40
0.5
 50
0.0
 51
90.0
  0
LINE
  5
C303
  8
01
 10
1478.98076287658
 20
-1448.7004261203931
 30
0.0
 11
1478.98076287658
 21
-1395.7004261203961
 31
0.0
  0
LINE
  5
C304
  8
01
 10
1470.48076287658
 20
-1448.200426120394
 30
0.0
 11
1470.48076287658
 21
-1396.2004261203961
 31
0.0
  0
LINE
  5
C305
  8
01
 10
1478.98076287658
 20
-1395.7004261203961
 30
0.0
 11
1470.98076287658
 21
-1395.7004261203961
 31
0.0
  0
LINE
  5
C306
  8
01
 10
1478.98076287658
 20
-1448.7004261203931
 30
0.0
 11
1470.98076287658
 21
-1448.7004261203931
 31
0.0
  0
ARC
  5
C307
  8
01
 10
1470.98076287658
 20
-1448.200426120394
 30
0.0
 40
0.5
 50
180.0
 51
270.0
  0
ARC
  5
C308
  8
01
 10
1470.98076287658
 20
-1396.2004261203961
 30
0.0
 40
0.5
 50
90.0
 51
180.0
  0
LINE
  5
C309
  8
01
 10
1642.480875216326
 20
-1172.200426121422
 30
0.0
 11
1695.4808752163231
 21
-1172.200426121422
 31
0.0
  0
LINE
  5
C30A
  8
01
 10
1642.9808752163251
 20
-1180.700426121422
 30
0.0
 11
1694.9808752163231
 21
-1180.700426121422
 31
0.0
  0
LINE
  5
C30B
  8
01
 10
1695.4808752163231
 20
-1172.200426121422
 30
0.0
 11
1695.4808752163231
 21
-1180.200426121422
 31
0.0
  0
LINE
  5
C30C
  8
01
 10
1642.480875216326
 20
-1172.200426121422
 30
0.0
 11
1642.480875216326
 21
-1180.200426121422
 31
0.0
  0
ARC
  5
C30D
  8
01
 10
1642.9808752163251
 20
-1180.200426121422
 30
0.0
 40
0.5
 50
180.0
 51
270.0
  0
ARC
  5
C30E
  8
01
 10
1694.9808752163231
 20
-1180.200426121422
 30
0.0
 40
0.5
 50
270.0
 51
0.0
  0
LINE
  5
C30F
  8
01
 10
1642.480875216326
 20
-1132.200426121422
 30
0.0
 11
1695.4808752163231
 21
-1132.200426121422
 31
0.0
  0
LINE
  5
C310
  8
01
 10
1642.9808752163251
 20
-1123.700426121422
 30
0.0
 11
1666.4808752163181
 21
-1123.700426121422
 31
0.0
  0
LINE
  5
C311
  8
01
 10
1695.4808752163231
 20
-1132.200426121422
 30
0.0
 11
1695.4808752163231
 21
-1124.200426121422
 31
0.0
  0
LINE
  5
C312
  8
01
 10
1642.480875216326
 20
-1132.200426121422
 30
0.0
 11
1642.480875216326
 21
-1124.200426121422
 31
0.0
  0
ARC
  5
C313
  8
01
 10
1642.9808752163251
 20
-1124.200426121422
 30
0.0
 40
0.5
 50
90.000000000000028
 51
180.0
  0
ARC
  5
C314
  8
01
 10
1694.9808752163231
 20
-1124.200426121422
 30
0.0
 40
0.5
 50
0.0
 51
90.000000000000028
  0
LINE
  5
C315
  8
01
 10
1671.4808752163201
 20
-1123.700426121422
 30
0.0
 11
1694.9808752163231
 21
-1123.700426121422
 31
0.0
  0
LINE
  5
C39F
  8
01
 10
1686.9807588765809
 20
-1363.7004261203931
 30
0.0
 11
1686.9807588765809
 21
-1386.7004261203931
 31
0.0
  0
LINE
  5
C3A0
  8
01
 10
1665.9807588765809
 20
-1363.7004261203931
 30
0.0
 11
1671.9807588765809
 21
-1363.7004261203931
 31
0.0
  0
LINE
  5
C3A1
  8
01
 10
1678.9807588765809
 20
-1363.7004261203931
 30
0.0
 11
1686.9807588765809
 21
-1363.7004261203931
 31
0.0
  0
LINE
  5
C3A2
  8
01
 10
1665.9807588765809
 20
-1364.7004261203931
 30
0.0
 11
1665.9807588765809
 21
-1363.7004261203931
 31
0.0
  0
LINE
  5
C3A3
  8
01
 10
1671.9807588765809
 20
-1364.700426120394
 30
0.0
 11
1671.9807588765809
 21
-1363.7004261203931
 31
0.0
  0
ARC
  5
C3A4
  8
01
 10
1662.4807588765809
 20
-1364.700426120394
 30
0.0
 40
3.5
 50
179.99999999998701
 51
0.0000000000130276
  0
ARC
  5
C3A5
  8
01
 10
1675.4807588765809
 20
-1364.700426120394
 30
0.0
 40
3.5
 50
180.0
 51
0.0
  0
CIRCLE
  5
C3A6
  8
01
 10
1668.9807588762919
 20
-1372.2004261206821
 30
0.0
 40
6.0
  0
LINE
  5
C3A7
  8
01
 10
1658.98075887658
 20
-1363.7004261203931
 30
0.0
 11
1649.207038620837
 21
-1363.7004261203931
 31
0.0
  0
LINE
  5
C3A8
  8
01
  6
BYBLOCK
 10
1649.207038620837
 20
-1363.7004261203931
 30
0.0
 11
1620.9807588765809
 21
-1363.7004261203931
 31
0.0
  0
LINE
  5
C3A9
  8
01
 10
1658.98075887658
 20
-1364.7004261203931
 30
0.0
 11
1658.98075887658
 21
-1363.7004261203931
 31
0.0
  0
LINE
  5
C3AA
  8
01
 10
1678.9807588765809
 20
-1364.700426120394
 30
0.0
 11
1678.9807588765809
 21
-1363.7004261203931
 31
0.0
  0
LINE
  5
C3AB
  8
01
  6
BYBLOCK
 10
1348.9807585541209
 20
-1363.7004261203931
 30
0.0
 11
1376.98076687658
 21
-1363.7004261203931
 31
0.0
  0
LINE
  5
C3AC
  8
01
  6
BYBLOCK
 10
1674.9816430583519
 20
-1141.950426121422
 30
0.0
 11
1662.9816430583519
 21
-1141.950426121422
 31
0.0
  0
LINE
  5
C3AD
  8
01
  6
BYBLOCK
 10
1662.9816430583519
 20
-1162.450426121422
 30
0.0
 11
1674.9816430583519
 21
-1162.450426121422
 31
0.0
  0
LINE
  5
C3AE
  8
01
  6
BYBLOCK
 10
1662.9816430583519
 20
-1162.450426121422
 30
0.0
 11
1662.9816430583519
 21
-1161.700426121422
 31
0.0
  0
LINE
  5
C3AF
  8
01
  6
BYBLOCK
 10
1662.9816430583519
 20
-1142.700426121422
 30
0.0
 11
1662.9816430583519
 21
-1141.950426121422
 31
0.0
  0
LINE
  5
C3B0
  8
01
  6
BYBLOCK
 10
1674.9816430583519
 20
-1162.450426121422
 30
0.0
 11
1674.9816430583519
 21
-1161.700426121422
 31
0.0
  0
LINE
  5
C3B1
  8
01
  6
BYBLOCK
 10
1674.9816430583519
 20
-1142.700426121422
 30
0.0
 11
1674.9816430583519
 21
-1141.950426121422
 31
0.0
  0
LINE
  5
C431
  8
01
 10
1649.480766554123
 20
-1346.7004261203931
 30
0.0
 11
1688.480766554123
 21
-1346.7004261203931
 31
0.0
  0
ARC
  5
C432
  8
01
 10
1688.480766554123
 20
-1347.2004261203931
 30
0.0
 40
0.5
 50
0.0
 51
90.0
  0
LINE
  5
C433
  8
01
 10
1649.480766554123
 20
-1386.7004261203931
 30
0.0
 11
1688.480766554123
 21
-1386.7004261203931
 31
0.0
  0
ARC
  5
C434
  8
01
 10
1649.480766554123
 20
-1386.2004261203931
 30
0.0
 40
0.5
 50
180.0
 51
270.0
  0
LINE
  5
C435
  8
01
 10
1648.980766554123
 20
-1386.2004261203931
 30
0.0
 11
1648.980766554123
 21
-1347.2004261203931
 31
0.0
  0
ARC
  5
C436
  8
01
 10
1649.480766554123
 20
-1347.2004261203931
 30
0.0
 40
0.5
 50
90.0
 51
180.0
  0
LINE
  5
C437
  8
01
 10
1688.980766554123
 20
-1386.2004261203931
 30
0.0
 11
1688.980766554123
 21
-1347.2004261203931
 31
0.0
  0
ARC
  5
C438
  8
01
 10
1688.480766554123
 20
-1386.2004261203931
 30
0.0
 40
0.5
 50
270.0
 51
0.0
  0
LINE
  5
C439
  8
01
 10
1309.4807585541209
 20
-1346.7004261203931
 30
0.0
 11
1348.4807585541209
 21
-1346.7004261203931
 31
0.0
  0
ARC
  5
C43A
  8
01
 10
1348.4807585541209
 20
-1347.2004261203931
 30
0.0
 40
0.5
 50
0.0
 51
90.0
  0
LINE
  5
C43B
  8
01
 10
1309.4807585541209
 20
-1386.7004261203931
 30
0.0
 11
1348.4807585541209
 21
-1386.7004261203931
 31
0.0
  0
ARC
  5
C43C
  8
01
 10
1309.4807585541209
 20
-1386.2004261203931
 30
0.0
 40
0.5
 50
180.0
 51
270.0
  0
LINE
  5
C43D
  8
01
 10
1308.9807585541209
 20
-1386.2004261203931
 30
0.0
 11
1308.9807585541209
 21
-1347.2004261203931
 31
0.0
  0
ARC
  5
C43E
  8
01
 10
1309.4807585541209
 20
-1347.2004261203931
 30
0.0
 40
0.5
 50
90.0
 51
180.0
  0
LINE
  5
C43F
  8
01
 10
1348.9807585541209
 20
-1386.2004261203931
 30
0.0
 11
1348.9807585541209
 21
-1347.2004261203931
 31
0.0
  0
ARC
  5
C440
  8
01
 10
1348.4807585541209
 20
-1386.2004261203931
 30
0.0
 40
0.5
 50
270.0
 51
0.0
  0
TEXT
  5
C606
  8
01
 10
1596.3639199695981
 20
-1202.6170927880889
 30
0.0
 40
4.5499999999999989
  1
材質：ステンレス
  0
TEXT
  5
C607
  8
01
 10
1590.297253302931
 20
-1210.200426121422
 30
0.0
 40
4.5499999999999989
  1
仕上げ：各種仕上げ
  0
SOLID
  5
C608
  8
01
 10
1666.403614515865
 20
-1191.3544142613321
 30
0.0
 11
1668.721360116642
 21
-1190.0990923472971
 31
0.0
 12
1666.936029493432
 22
-1192.0382602986631
 32
0.0
 13
1666.936029493432
 23
-1192.0382602986631
 33
0.0
1001
ACAD
1000
DSTYLE
1002
{
1070
    40
1040
1.3
1002
}
  0
LINE
  5
C60A
  8
01
 10
1674.9816430583519
 20
-1141.950426121422
 30
0.0
 11
1710.142033818353
 21
-1141.950426121422
 31
0.0
  0
LINE
  5
C60B
  8
01
 10
1674.9816430583519
 20
-1162.450426121422
 30
0.0
 11
1710.142033818353
 21
-1162.450426121422
 31
0.0
  0
LINE
  5
C60C
  8
01
 10
1708.842033818353
 20
-1144.5504261214221
 30
0.0
 11
1708.842033818353
 21
-1159.8504261214221
 31
0.0
  0
LINE
  5
C610
  8
01
 10
1308.9807585541209
 20
-1347.2004261203931
 30
0.0
 11
1308.9807585541209
 21
-1337.9004261203929
 31
0.0
  0
LINE
  5
C611
  8
01
 10
1348.9807585541209
 20
-1347.2004261203931
 30
0.0
 11
1348.9807585541209
 21
-1337.9004261203929
 31
0.0
  0
LINE
  5
C612
  8
01
 10
1311.5807585541211
 20
-1339.200426120394
 30
0.0
 11
1346.380758554121
 21
-1339.200426120394
 31
0.0
  0
LINE
  5
C616
  8
01
 10
1648.980766554123
 20
-1347.2004261203931
 30
0.0
 11
1648.980766554123
 21
-1337.9004261203929
 31
0.0
  0
LINE
  5
C617
  8
01
 10
1688.980766554123
 20
-1347.2004261203931
 30
0.0
 11
1688.980766554123
 21
-1337.9004261203929
 31
0.0
  0
LINE
  5
C618
  8
01
 10
1651.5807665541231
 20
-1339.200426120394
 30
0.0
 11
1686.3807665541231
 21
-1339.200426120394
 31
0.0
  0
LINE
  5
C61C
  8
01
 10
1686.9807588765809
 20
-1363.7004261203931
 30
0.0
 11
1715.2807588765811
 21
-1363.7004261203931
 31
0.0
  0
LINE
  5
C61D
  8
01
 10
1686.9807588765809
 20
-1438.2004261203931
 30
0.0
 11
1715.2807588765811
 21
-1438.2004261203931
 31
0.0
  0
LINE
  5
C61E
  8
01
 10
1713.9807588765809
 20
-1366.3004261203939
 30
0.0
 11
1713.9807588765809
 21
-1435.6004261203941
 31
0.0
  0
LINE
  5
C622
  8
01
 10
1642.9807588765821
 20
-1395.7004261203949
 30
0.0
 11
1632.6807588765801
 21
-1395.7004261203949
 31
0.0
  0
LINE
  5
C623
  8
01
 10
1642.9807588765821
 20
-1448.7004261203949
 30
0.0
 11
1632.6807588765801
 21
-1448.7004261203949
 31
0.0
  0
LINE
  5
C624
  8
01
 10
1633.98075887658
 20
-1398.3004261203951
 30
0.0
 11
1633.98075887658
 21
-1446.100426120395
 31
0.0
  0
LINE
  5
C628
  8
01
 10
1771.736023213673
 20
-1172.200426121422
 30
0.0
 11
1804.332142078581
 21
-1172.200426121422
 31
0.0
  0
LINE
  5
C629
  8
01
 10
1731.4308752163261
 20
-1238.977493317054
 30
0.0
 11
1804.332142078581
 21
-1238.977493317054
 31
0.0
  0
LINE
  5
C62A
  8
01
 10
1803.032142078581
 20
-1174.8004261214221
 30
0.0
 11
1803.032142078581
 21
-1236.3774933170539
 31
0.0
  0
LINE
  5
C62E
  8
01
 10
1771.736023213673
 20
-1172.200426121422
 30
0.0
 11
1794.3321420785801
 21
-1172.200426121422
 31
0.0
  0
LINE
  5
C62F
  8
01
 10
1731.4308752163261
 20
-1213.9774933170529
 30
0.0
 11
1794.3321420785801
 21
-1213.9774933170529
 31
0.0
  0
LINE
  5
C630
  8
01
 10
1793.032142078581
 20
-1174.8004261214221
 30
0.0
 11
1793.032142078581
 21
-1211.3774933170539
 31
0.0
  0
LINE
  5
C634
  8
01
 10
1659.4308752163261
 20
-1180.977493317054
 30
0.0
 11
1659.4308752163261
 21
-1267.0504261214221
 31
0.0
  0
LINE
  5
C635
  8
01
 10
1784.430866592752
 20
-1225.465039847096
 30
0.0
 11
1784.430866592752
 21
-1267.0504261214221
 31
0.0
  0
LINE
  5
C636
  8
01
 10
1662.030875216326
 20
-1265.7504261214219
 30
0.0
 11
1781.830866592752
 21
-1265.7504261214219
 31
0.0
  0
LINE
  5
C63A
  8
01
 10
1668.980875216326
 20
-1191.99163600827
 30
0.0
 11
1668.980875216326
 21
-1257.0504261214221
 31
0.0
  0
LINE
  5
C63B
  8
01
 10
1784.430866592752
 20
-1225.465039847096
 30
0.0
 11
1784.430866592752
 21
-1257.0504261214221
 31
0.0
  0
LINE
  5
C63C
  8
01
 10
1671.5808752163259
 20
-1255.7504261214219
 30
0.0
 11
1781.830866592752
 21
-1255.7504261214219
 31
0.0
  0
LINE
  5
C640
  8
01
 10
1478.98076287658
 20
-1329.7030461203931
 30
0.0
 11
1478.98076287658
 21
-1315.200426120394
 31
0.0
  0
LINE
  5
C641
  8
01
 10
1456.980377310859
 20
-1362.200426120394
 30
0.0
 11
1456.980377310859
 21
-1315.200426120394
 31
0.0
  0
LINE
  5
C642
  8
01
 10
1476.98076287658
 20
-1316.2004261203931
 30
0.0
 11
1458.980377310859
 21
-1316.2004261203931
 31
0.0
  0
LINE
  5
C646
  8
01
 10
1686.9807588765821
 20
-1364.2004261203931
 30
0.0
 11
1686.9807588765821
 21
-1304.9004261203941
 31
0.0
  0
LINE
  5
C647
  8
01
 10
1617.9807588765821
 20
-1336.2004261203931
 30
0.0
 11
1617.9807588765821
 21
-1304.9004261203941
 31
0.0
  0
LINE
  5
C648
  8
01
 10
1684.3807588765819
 20
-1306.2004261203931
 30
0.0
 11
1620.580758876582
 21
-1306.2004261203931
 31
0.0
  0
LINE
  5
C64C
  8
01
 10
1505.4807628765809
 20
-1336.2004261203931
 30
0.0
 11
1560.28076287658
 21
-1336.200426120394
 31
0.0
  0
LINE
  5
C64D
  8
01
 10
1505.4807628765809
 20
-1466.2004261203931
 30
0.0
 11
1560.28076287658
 21
-1466.2004261203931
 31
0.0
  0
LINE
  5
C64E
  8
01
 10
1558.98076287658
 20
-1338.8004261203939
 30
0.0
 11
1558.98076287658
 21
-1463.6004261203941
 31
0.0
  0
LINE
  5
C652
  8
01
 10
1505.4807628765809
 20
-1344.2004261203931
 30
0.0
 11
1544.784353913137
 21
-1344.200426120394
 31
0.0
  0
LINE
  5
C653
  8
01
 10
1505.4807628765809
 20
-1458.2004261203931
 30
0.0
 11
1544.784353913137
 21
-1458.2004261203931
 31
0.0
  0
LINE
  5
C654
  8
01
 10
1543.4843539131371
 20
-1346.8004261203939
 30
0.0
 11
1543.4843539131371
 21
-1455.6004261203941
 31
0.0
  0
LINE
  5
C658
  8
01
 10
1298.98076687658
 20
-1422.2004261203931
 30
0.0
 11
1284.6807788765809
 21
-1422.2004261203931
 31
0.0
  0
LINE
  5
C659
  8
01
 10
1306.4807588765791
 20
-1366.7004261203931
 30
0.0
 11
1284.6807788765809
 21
-1366.7004261203931
 31
0.0
  0
LINE
  5
C65A
  8
01
 10
1285.98077887658
 20
-1419.6004261203941
 30
0.0
 11
1285.98077887658
 21
-1369.300426120393
 31
0.0
  0
LINE
  5
C65E
  8
01
 10
1298.98076687658
 20
-1422.2004261203931
 30
0.0
 11
1294.6807788765809
 21
-1422.2004261203931
 31
0.0
  0
LINE
  5
C65F
  8
01
 10
1315.9807588765791
 20
-1372.2004261203931
 30
0.0
 11
1294.6807788765809
 21
-1372.2004261203931
 31
0.0
  0
LINE
  5
C660
  8
01
 10
1295.98077887658
 20
-1419.6004261203941
 30
0.0
 11
1295.98077887658
 21
-1374.800426120393
 31
0.0
  0
LINE
  5
C664
  8
01
 10
1518.9807628765809
 20
-1329.7030461203931
 30
0.0
 11
1518.9807628765809
 21
-1314.9004261203941
 31
0.0
  0
LINE
  5
C665
  8
01
 10
1527.2807658765789
 20
-1372.2004261203931
 30
0.0
 11
1527.2807658765789
 21
-1314.9004261203941
 31
0.0
  0
LINE
  5
C666
  8
01
 10
1521.5807628765799
 20
-1316.2004261203931
 30
0.0
 11
1524.680765876579
 21
-1316.2004261203931
 31
0.0
  0
LINE
  5
C66A
  8
01
 10
1465.779800982257
 20
-1421.450426120394
 30
0.0
 11
1464.4807628765809
 21
-1420.7004261203931
 31
0.0
  0
LINE
  5
C66B
  8
01
 10
1464.4807628765809
 20
-1420.7004261203931
 30
0.0
 11
1463.1817247709041
 21
-1421.450426120394
 31
0.0
  0
LINE
  5
C66C
  8
01
 10
1463.1817247709041
 20
-1421.450426120394
 30
0.0
 11
1463.1817247709041
 21
-1422.9504261203931
 31
0.0
  0
LINE
  5
C66D
  8
01
 10
1463.1817247709041
 20
-1422.9504261203931
 30
0.0
 11
1464.4807628765809
 21
-1423.7004261203931
 31
0.0
  0
LINE
  5
C66E
  8
01
 10
1464.4807628765809
 20
-1423.7004261203931
 30
0.0
 11
1465.779800982257
 21
-1422.9504261203931
 31
0.0
  0
LINE
  5
C66F
  8
01
 10
1465.779800982257
 20
-1422.9504261203931
 30
0.0
 11
1465.779800982257
 21
-1421.450426120394
 31
0.0
  0
CIRCLE
  5
C670
  8
01
 10
1464.4807628765809
 20
-1422.2004261203931
 30
0.0
 40
3.0
  0
CIRCLE
  5
C671
  8
01
 10
1533.48076287658
 20
-1422.2004261203931
 30
0.0
 40
3.0
  0
LINE
  5
C672
  8
01
 10
1617.9807588765809
 20
-1336.2004261203931
 30
0.0
 11
1617.9807588765809
 21
-1314.9004261203941
 31
0.0
  0
LINE
  5
C673
  8
01
 10
1668.9807588765809
 20
-1391.6700620295569
 30
0.0
 11
1668.9807588765809
 21
-1314.9004261203941
 31
0.0
  0
LINE
  5
C674
  8
01
 10
1620.5807588765811
 20
-1316.2004261203931
 30
0.0
 11
1666.380758876581
 21
-1316.2004261203931
 31
0.0
  0
LINE
  5
C678
  8
01
 10
1686.9807588765809
 20
-1364.2004261203931
 30
0.0
 11
1686.9807588765809
 21
-1304.9004261203941
 31
0.0
  0
LINE
  5
C679
  8
01
 10
1617.9807588765809
 20
-1336.2004261203931
 30
0.0
 11
1617.9807588765809
 21
-1304.9004261203941
 31
0.0
  0
LINE
  5
C67A
  8
01
 10
1684.380758876581
 20
-1306.2004261203931
 30
0.0
 11
1620.5807588765811
 21
-1306.2004261203931
 31
0.0
  0
LINE
  5
C67E
  8
01
 10
1606.9807588765809
 20
-1394.200426818524
 30
0.0
 11
1606.9807588765809
 21
-1314.9004261203941
 31
0.0
  0
LINE
  5
C67F
  8
01
 10
1617.9807588765809
 20
-1336.2004261203931
 30
0.0
 11
1617.9807588765809
 21
-1314.9004261203941
 31
0.0
  0
LINE
  5
C680
  8
01
 10
1609.5807588765811
 20
-1316.2004261203931
 30
0.0
 11
1615.380758876581
 21
-1316.2004261203931
 31
0.0
  0
LINE
  5
C684
  8
01
 10
1486.48076287658
 20
-1342.2004261203931
 30
0.0
 11
1486.48076287658
 21
-1314.9004261203941
 31
0.0
  0
LINE
  5
C685
  8
01
 10
1511.48076287658
 20
-1342.2004261203931
 30
0.0
 11
1511.48076287658
 21
-1314.9004261203941
 31
0.0
  0
LINE
  5
C686
  8
01
 10
1489.0807628765799
 20
-1316.2004261203931
 30
0.0
 11
1508.880762876581
 21
-1316.2004261203931
 31
0.0
  0
TEXT
  5
C68A
  8
01
 10
1494.647429543247
 20
-1315.290426120393
 30
0.0
 40
4.5499999999999989
  1
25
  0
LINE
  5
C68B
  8
01
  6
BYBLOCK
 10
1508.880762876581
 20
-1315.5037582263931
 30
0.0
 11
1511.48076287658
 21
-1316.2004261203931
 31
0.0
  0
LINE
  5
C68C
  8
01
  6
BYBLOCK
 10
1511.48076287658
 20
-1316.2004261203931
 30
0.0
 11
1508.880762876581
 21
-1316.8970940143929
 31
0.0
  0
LINE
  5
C68D
  8
01
  6
BYBLOCK
 10
1511.48076287658
 20
-1316.2004261203931
 30
0.0
 11
1508.880762876581
 21
-1316.2004261203931
 31
0.0
  0
LINE
  5
C68E
  8
01
  6
BYBLOCK
 10
1489.0807628765799
 20
-1316.8970940143929
 30
0.0
 11
1486.48076287658
 21
-1316.2004261203931
 31
0.0
  0
LINE
  5
C68F
  8
01
  6
BYBLOCK
 10
1486.48076287658
 20
-1316.2004261203931
 30
0.0
 11
1489.0807628765799
 21
-1315.5037582263931
 31
0.0
  0
LINE
  5
C690
  8
01
  6
BYBLOCK
 10
1486.48076287658
 20
-1316.2004261203931
 30
0.0
 11
1489.0807628765799
 21
-1316.2004261203931
 31
0.0
  0
TEXT
  5
C691
  8
01
 10
1608.4724255432479
 20
-1315.290426120393
 30
0.0
 40
4.5499999999999989
  1
11
  0
LINE
  5
C692
  8
01
  6
BYBLOCK
 10
1615.380758876581
 20
-1315.5037582263931
 30
0.0
 11
1617.9807588765809
 21
-1316.2004261203931
 31
0.0
  0
LINE
  5
C693
  8
01
  6
BYBLOCK
 10
1617.9807588765809
 20
-1316.2004261203931
 30
0.0
 11
1615.380758876581
 21
-1316.8970940143929
 31
0.0
  0
LINE
  5
C694
  8
01
  6
BYBLOCK
 10
1617.9807588765809
 20
-1316.2004261203931
 30
0.0
 11
1615.380758876581
 21
-1316.2004261203931
 31
0.0
  0
LINE
  5
C695
  8
01
  6
BYBLOCK
 10
1609.5807588765811
 20
-1316.8970940143929
 30
0.0
 11
1606.9807588765809
 21
-1316.2004261203931
 31
0.0
  0
LINE
  5
C696
  8
01
  6
BYBLOCK
 10
1606.9807588765809
 20
-1316.2004261203931
 30
0.0
 11
1609.5807588765811
 21
-1315.5037582263931
 31
0.0
  0
LINE
  5
C697
  8
01
  6
BYBLOCK
 10
1606.9807588765809
 20
-1316.2004261203931
 30
0.0
 11
1609.5807588765811
 21
-1316.2004261203931
 31
0.0
  0
TEXT
  5
C698
  8
01
 10
1648.1474255432479
 20
-1305.290426120393
 30
0.0
 40
4.5499999999999989
  1
69
  0
LINE
  5
C699
  8
01
  6
BYBLOCK
 10
1620.5807588765811
 20
-1306.897094014394
 30
0.0
 11
1617.9807588765809
 21
-1306.2004261203931
 31
0.0
  0
LINE
  5
C69A
  8
01
  6
BYBLOCK
 10
1617.9807588765809
 20
-1306.2004261203931
 30
0.0
 11
1620.5807588765811
 21
-1305.5037582263931
 31
0.0
  0
LINE
  5
C69B
  8
01
  6
BYBLOCK
 10
1617.9807588765809
 20
-1306.2004261203931
 30
0.0
 11
1620.5807588765811
 21
-1306.2004261203931
 31
0.0
  0
LINE
  5
C69C
  8
01
  6
BYBLOCK
 10
1684.380758876581
 20
-1305.5037582263931
 30
0.0
 11
1686.9807588765809
 21
-1306.2004261203931
 31
0.0
  0
LINE
  5
C69D
  8
01
  6
BYBLOCK
 10
1686.9807588765809
 20
-1306.2004261203931
 30
0.0
 11
1684.380758876581
 21
-1306.897094014394
 31
0.0
  0
LINE
  5
C69E
  8
01
  6
BYBLOCK
 10
1686.9807588765809
 20
-1306.2004261203931
 30
0.0
 11
1684.380758876581
 21
-1306.2004261203931
 31
0.0
  0
TEXT
  5
C69F
  8
01
 10
1639.7974255432471
 20
-1315.290426120393
 30
0.0
 40
4.5499999999999989
  1
51
  0
LINE
  5
C6A0
  8
01
  6
BYBLOCK
 10
1666.380758876581
 20
-1315.5037582263931
 30
0.0
 11
1668.9807588765809
 21
-1316.2004261203931
 31
0.0
  0
LINE
  5
C6A1
  8
01
  6
BYBLOCK
 10
1668.9807588765809
 20
-1316.2004261203931
 30
0.0
 11
1666.380758876581
 21
-1316.8970940143929
 31
0.0
  0
LINE
  5
C6A2
  8
01
  6
BYBLOCK
 10
1668.9807588765809
 20
-1316.2004261203931
 30
0.0
 11
1666.380758876581
 21
-1316.2004261203931
 31
0.0
  0
LINE
  5
C6A3
  8
01
  6
BYBLOCK
 10
1620.5807588765811
 20
-1316.8970940143929
 30
0.0
 11
1617.9807588765809
 21
-1316.2004261203931
 31
0.0
  0
LINE
  5
C6A4
  8
01
  6
BYBLOCK
 10
1617.9807588765809
 20
-1316.2004261203931
 30
0.0
 11
1620.5807588765811
 21
-1315.5037582263931
 31
0.0
  0
LINE
  5
C6A5
  8
01
  6
BYBLOCK
 10
1617.9807588765809
 20
-1316.2004261203931
 30
0.0
 11
1620.5807588765811
 21
-1316.2004261203931
 31
0.0
  0
TEXT
  5
C6A6
  8
01
 10
1520.9640977099129
 20
-1315.290426120393
 30
0.0
 40
4.5499999999999989
  1
8
  0
LINE
  5
C6A7
  8
01
  6
BYBLOCK
 10
1524.680765876579
 20
-1315.5037582263931
 30
0.0
 11
1527.2807658765789
 21
-1316.2004261203931
 31
0.0
  0
LINE
  5
C6A8
  8
01
  6
BYBLOCK
 10
1527.2807658765789
 20
-1316.2004261203931
 30
0.0
 11
1524.680765876579
 21
-1316.8970940143929
 31
0.0
  0
LINE
  5
C6A9
  8
01
  6
BYBLOCK
 10
1527.2807658765789
 20
-1316.2004261203931
 30
0.0
 11
1524.680765876579
 21
-1316.2004261203931
 31
0.0
  0
LINE
  5
C6AA
  8
01
  6
BYBLOCK
 10
1521.5807628765799
 20
-1316.8970940143929
 30
0.0
 11
1518.9807628765809
 21
-1316.2004261203931
 31
0.0
  0
LINE
  5
C6AB
  8
01
  6
BYBLOCK
 10
1518.9807628765809
 20
-1316.2004261203931
 30
0.0
 11
1521.5807628765799
 21
-1315.5037582263931
 31
0.0
  0
LINE
  5
C6AC
  8
01
  6
BYBLOCK
 10
1518.9807628765809
 20
-1316.2004261203931
 30
0.0
 11
1521.5807628765799
 21
-1316.2004261203931
 31
0.0
  0
TEXT
  5
C6AD
  8
01
 10
1295.070778876581
 20
-1401.533759453727
 30
0.0
 40
4.5499999999999989
  1
50
 50
90.0
  0
LINE
  5
C6AE
  8
01
  6
BYBLOCK
 10
1295.2841109825811
 20
-1374.800426120393
 30
0.0
 11
1295.98077887658
 21
-1372.2004261203931
 31
0.0
  0
LINE
  5
C6AF
  8
01
  6
BYBLOCK
 10
1295.98077887658
 20
-1372.2004261203931
 30
0.0
 11
1296.6774467705809
 21
-1374.800426120393
 31
0.0
  0
LINE
  5
C6B0
  8
01
  6
BYBLOCK
 10
1295.98077887658
 20
-1372.2004261203931
 30
0.0
 11
1295.98077887658
 21
-1374.800426120393
 31
0.0
  0
LINE
  5
C6B1
  8
01
  6
BYBLOCK
 10
1296.6774467705809
 20
-1419.6004261203941
 30
0.0
 11
1295.98077887658
 21
-1422.2004261203931
 31
0.0
  0
LINE
  5
C6B2
  8
01
  6
BYBLOCK
 10
1295.98077887658
 20
-1422.2004261203931
 30
0.0
 11
1295.2841109825811
 21
-1419.6004261203941
 31
0.0
  0
LINE
  5
C6B3
  8
01
  6
BYBLOCK
 10
1295.98077887658
 20
-1422.2004261203931
 30
0.0
 11
1295.98077887658
 21
-1419.6004261203941
 31
0.0
  0
TEXT
  5
C6B4
  8
01
 10
1285.070778876581
 20
-1402.033759453727
 30
0.0
 40
4.5499999999999989
  1
55.5
 50
90.0
  0
LINE
  5
C6B5
  8
01
  6
BYBLOCK
 10
1285.2841109825811
 20
-1369.300426120393
 30
0.0
 11
1285.98077887658
 21
-1366.7004261203931
 31
0.0
  0
LINE
  5
C6B6
  8
01
  6
BYBLOCK
 10
1285.98077887658
 20
-1366.7004261203931
 30
0.0
 11
1286.6774467705809
 21
-1369.300426120393
 31
0.0
  0
LINE
  5
C6B7
  8
01
  6
BYBLOCK
 10
1285.98077887658
 20
-1366.7004261203931
 30
0.0
 11
1285.98077887658
 21
-1369.300426120393
 31
0.0
  0
LINE
  5
C6B8
  8
01
  6
BYBLOCK
 10
1286.6774467705809
 20
-1419.6004261203941
 30
0.0
 11
1285.98077887658
 21
-1422.2004261203931
 31
0.0
  0
LINE
  5
C6B9
  8
01
  6
BYBLOCK
 10
1285.98077887658
 20
-1422.2004261203931
 30
0.0
 11
1285.2841109825811
 21
-1419.6004261203941
 31
0.0
  0
LINE
  5
C6BA
  8
01
  6
BYBLOCK
 10
1285.98077887658
 20
-1422.2004261203931
 30
0.0
 11
1285.98077887658
 21
-1419.6004261203941
 31
0.0
  0
TEXT
  5
C6BB
  8
01
 10
1542.574353913137
 20
-1390.3200387734121
 30
0.0
 40
4.5499999999999989
  1
114
 50
90.0
  0
LINE
  5
C6BC
  8
01
  6
BYBLOCK
 10
1544.1810218071371
 20
-1455.6004261203941
 30
0.0
 11
1543.4843539131371
 21
-1458.2004261203931
 31
0.0
  0
LINE
  5
C6BD
  8
01
  6
BYBLOCK
 10
1543.4843539131371
 20
-1458.2004261203931
 30
0.0
 11
1542.787686019137
 21
-1455.6004261203941
 31
0.0
  0
LINE
  5
C6BE
  8
01
  6
BYBLOCK
 10
1543.4843539131371
 20
-1458.2004261203931
 30
0.0
 11
1543.4843539131371
 21
-1455.6004261203941
 31
0.0
  0
LINE
  5
C6BF
  8
01
  6
BYBLOCK
 10
1542.787686019137
 20
-1346.8004261203939
 30
0.0
 11
1543.4843539131371
 21
-1344.200426120394
 31
0.0
  0
LINE
  5
C6C0
  8
01
  6
BYBLOCK
 10
1543.4843539131371
 20
-1344.200426120394
 30
0.0
 11
1544.1810218071371
 21
-1346.8004261203939
 31
0.0
  0
LINE
  5
C6C1
  8
01
  6
BYBLOCK
 10
1543.4843539131371
 20
-1344.200426120394
 30
0.0
 11
1543.4843539131371
 21
-1346.8004261203939
 31
0.0
  0
TEXT
  5
C6C2
  8
01
 10
1558.0707628765799
 20
-1390.211705440079
 30
0.0
 40
4.5499999999999989
  1
130
 50
90.0
  0
LINE
  5
C6C3
  8
01
  6
BYBLOCK
 10
1559.67743077058
 20
-1463.6004261203941
 30
0.0
 11
1558.98076287658
 21
-1466.2004261203931
 31
0.0
  0
LINE
  5
C6C4
  8
01
  6
BYBLOCK
 10
1558.98076287658
 20
-1466.2004261203931
 30
0.0
 11
1558.28409498258
 21
-1463.6004261203941
 31
0.0
  0
LINE
  5
C6C5
  8
01
  6
BYBLOCK
 10
1558.98076287658
 20
-1466.2004261203931
 30
0.0
 11
1558.98076287658
 21
-1463.6004261203941
 31
0.0
  0
LINE
  5
C6C6
  8
01
  6
BYBLOCK
 10
1558.28409498258
 20
-1338.8004261203939
 30
0.0
 11
1558.98076287658
 21
-1336.200426120394
 31
0.0
  0
LINE
  5
C6C7
  8
01
  6
BYBLOCK
 10
1558.98076287658
 20
-1336.200426120394
 30
0.0
 11
1559.67743077058
 21
-1338.8004261203939
 31
0.0
  0
LINE
  5
C6C8
  8
01
  6
BYBLOCK
 10
1558.98076287658
 20
-1336.200426120394
 30
0.0
 11
1558.98076287658
 21
-1338.8004261203939
 31
0.0
  0
TEXT
  5
C6C9
  8
01
 10
1648.147425543249
 20
-1305.290426120393
 30
0.0
 40
4.5499999999999989
  1
69
  0
LINE
  5
C6CA
  8
01
  6
BYBLOCK
 10
1620.580758876582
 20
-1306.897094014394
 30
0.0
 11
1617.9807588765821
 21
-1306.2004261203931
 31
0.0
  0
LINE
  5
C6CB
  8
01
  6
BYBLOCK
 10
1617.9807588765821
 20
-1306.2004261203931
 30
0.0
 11
1620.580758876582
 21
-1305.5037582263931
 31
0.0
  0
LINE
  5
C6CC
  8
01
  6
BYBLOCK
 10
1617.9807588765821
 20
-1306.2004261203931
 30
0.0
 11
1620.580758876582
 21
-1306.2004261203931
 31
0.0
  0
LINE
  5
C6CD
  8
01
  6
BYBLOCK
 10
1684.3807588765819
 20
-1305.5037582263931
 30
0.0
 11
1686.9807588765821
 21
-1306.2004261203931
 31
0.0
  0
LINE
  5
C6CE
  8
01
  6
BYBLOCK
 10
1686.9807588765821
 20
-1306.2004261203931
 30
0.0
 11
1684.3807588765819
 21
-1306.897094014394
 31
0.0
  0
LINE
  5
C6CF
  8
01
  6
BYBLOCK
 10
1686.9807588765821
 20
-1306.2004261203931
 30
0.0
 11
1684.3807588765819
 21
-1306.2004261203931
 31
0.0
  0
TEXT
  5
C6D0
  8
01
 10
1464.647236760386
 20
-1315.5004261203931
 30
0.0
 40
3.5
  1
22
  0
LINE
  5
C6D1
  8
01
  6
BYBLOCK
 10
1458.980377310859
 20
-1316.736324500393
 30
0.0
 11
1456.980377310859
 21
-1316.2004261203931
 31
0.0
  0
LINE
  5
C6D2
  8
01
  6
BYBLOCK
 10
1456.980377310859
 20
-1316.2004261203931
 30
0.0
 11
1458.980377310859
 21
-1315.6645277403929
 31
0.0
  0
LINE
  5
C6D3
  8
01
  6
BYBLOCK
 10
1456.980377310859
 20
-1316.2004261203931
 30
0.0
 11
1458.980377310859
 21
-1316.2004261203931
 31
0.0
  0
LINE
  5
C6D4
  8
01
  6
BYBLOCK
 10
1476.98076287658
 20
-1315.6645277403929
 30
0.0
 11
1478.98076287658
 21
-1316.2004261203931
 31
0.0
  0
LINE
  5
C6D5
  8
01
  6
BYBLOCK
 10
1478.98076287658
 20
-1316.2004261203931
 30
0.0
 11
1476.98076287658
 21
-1316.736324500393
 31
0.0
  0
LINE
  5
C6D6
  8
01
  6
BYBLOCK
 10
1478.98076287658
 20
-1316.2004261203931
 30
0.0
 11
1476.98076287658
 21
-1316.2004261203931
 31
0.0
  0
TEXT
  5
C6D7
  8
01
 10
1719.8808709045391
 20
-1254.8404261214221
 30
0.0
 40
4.5499999999999989
  1
115
  0
LINE
  5
C6D8
  8
01
  6
BYBLOCK
 10
1781.830866592752
 20
-1255.0537582274219
 30
0.0
 11
1784.430866592752
 21
-1255.7504261214219
 31
0.0
  0
LINE
  5
C6D9
  8
01
  6
BYBLOCK
 10
1784.430866592752
 20
-1255.7504261214219
 30
0.0
 11
1781.830866592752
 21
-1256.447094015422
 31
0.0
  0
LINE
  5
C6DA
  8
01
  6
BYBLOCK
 10
1784.430866592752
 20
-1255.7504261214219
 30
0.0
 11
1781.830866592752
 21
-1255.7504261214219
 31
0.0
  0
LINE
  5
C6DB
  8
01
  6
BYBLOCK
 10
1671.5808752163259
 20
-1256.447094015422
 30
0.0
 11
1668.980875216326
 21
-1255.7504261214219
 31
0.0
  0
LINE
  5
C6DC
  8
01
  6
BYBLOCK
 10
1668.980875216326
 20
-1255.7504261214219
 30
0.0
 11
1671.5808752163259
 21
-1255.0537582274219
 31
0.0
  0
LINE
  5
C6DD
  8
01
  6
BYBLOCK
 10
1668.980875216326
 20
-1255.7504261214219
 30
0.0
 11
1671.5808752163259
 21
-1255.7504261214219
 31
0.0
  0
TEXT
  5
C6DE
  8
01
 10
1715.105870904539
 20
-1264.8404261214221
 30
0.0
 40
4.5499999999999989
  1
125
  0
LINE
  5
C6DF
  8
01
  6
BYBLOCK
 10
1781.830866592752
 20
-1265.0537582274219
 30
0.0
 11
1784.430866592752
 21
-1265.7504261214219
 31
0.0
  0
LINE
  5
C6E0
  8
01
  6
BYBLOCK
 10
1784.430866592752
 20
-1265.7504261214219
 30
0.0
 11
1781.830866592752
 21
-1266.447094015422
 31
0.0
  0
LINE
  5
C6E1
  8
01
  6
BYBLOCK
 10
1784.430866592752
 20
-1265.7504261214219
 30
0.0
 11
1781.830866592752
 21
-1265.7504261214219
 31
0.0
  0
LINE
  5
C6E2
  8
01
  6
BYBLOCK
 10
1662.030875216326
 20
-1266.447094015422
 30
0.0
 11
1659.4308752163261
 21
-1265.7504261214219
 31
0.0
  0
LINE
  5
C6E3
  8
01
  6
BYBLOCK
 10
1659.4308752163261
 20
-1265.7504261214219
 30
0.0
 11
1662.030875216326
 21
-1265.0537582274219
 31
0.0
  0
LINE
  5
C6E4
  8
01
  6
BYBLOCK
 10
1659.4308752163261
 20
-1265.7504261214219
 30
0.0
 11
1662.030875216326
 21
-1265.7504261214219
 31
0.0
  0
TEXT
  5
C6E5
  8
01
 10
1792.122142078581
 20
-1197.4222930525709
 30
0.0
 40
4.5499999999999989
  1
42
 50
90.0
  0
LINE
  5
C6E6
  8
01
  6
BYBLOCK
 10
1793.7288099725811
 20
-1211.3774933170539
 30
0.0
 11
1793.032142078581
 21
-1213.9774933170529
 31
0.0
  0
LINE
  5
C6E7
  8
01
  6
BYBLOCK
 10
1793.032142078581
 20
-1213.9774933170529
 30
0.0
 11
1792.335474184581
 21
-1211.3774933170539
 31
0.0
  0
LINE
  5
C6E8
  8
01
  6
BYBLOCK
 10
1793.032142078581
 20
-1213.9774933170529
 30
0.0
 11
1793.032142078581
 21
-1211.3774933170539
 31
0.0
  0
LINE
  5
C6E9
  8
01
  6
BYBLOCK
 10
1792.335474184581
 20
-1174.8004261214221
 30
0.0
 11
1793.032142078581
 21
-1172.200426121422
 31
0.0
  0
LINE
  5
C6EA
  8
01
  6
BYBLOCK
 10
1793.032142078581
 20
-1172.200426121422
 30
0.0
 11
1793.7288099725811
 21
-1174.8004261214221
 31
0.0
  0
LINE
  5
C6EB
  8
01
  6
BYBLOCK
 10
1793.032142078581
 20
-1172.200426121422
 30
0.0
 11
1793.032142078581
 21
-1174.8004261214221
 31
0.0
  0
TEXT
  5
C6EC
  8
01
 10
1802.122142078581
 20
-1210.030626385904
 30
0.0
 40
4.5499999999999989
  1
67
 50
90.0
  0
LINE
  5
C6ED
  8
01
  6
BYBLOCK
 10
1803.7288099725811
 20
-1236.3774933170539
 30
0.0
 11
1803.032142078581
 21
-1238.977493317054
 31
0.0
  0
LINE
  5
C6EE
  8
01
  6
BYBLOCK
 10
1803.032142078581
 20
-1238.977493317054
 30
0.0
 11
1802.3354741845801
 21
-1236.3774933170539
 31
0.0
  0
LINE
  5
C6EF
  8
01
  6
BYBLOCK
 10
1803.032142078581
 20
-1238.977493317054
 30
0.0
 11
1803.032142078581
 21
-1236.3774933170539
 31
0.0
  0
LINE
  5
C6F0
  8
01
  6
BYBLOCK
 10
1802.3354741845801
 20
-1174.8004261214221
 30
0.0
 11
1803.032142078581
 21
-1172.200426121422
 31
0.0
  0
LINE
  5
C6F1
  8
01
  6
BYBLOCK
 10
1803.032142078581
 20
-1172.200426121422
 30
0.0
 11
1803.7288099725811
 21
-1174.8004261214221
 31
0.0
  0
LINE
  5
C6F2
  8
01
  6
BYBLOCK
 10
1803.032142078581
 20
-1172.200426121422
 30
0.0
 11
1803.032142078581
 21
-1174.8004261214221
 31
0.0
  0
TEXT
  5
C6F3
  8
01
 10
1633.0707588765811
 20
-1430.581838749215
 30
0.0
 40
4.5499999999999989
  1
□53
 50
90.0
  0
LINE
  5
C6F4
  8
01
  6
BYBLOCK
 10
1634.67742677058
 20
-1446.100426120395
 30
0.0
 11
1633.98075887658
 21
-1448.7004261203949
 31
0.0
  0
LINE
  5
C6F5
  8
01
  6
BYBLOCK
 10
1633.98075887658
 20
-1448.7004261203949
 30
0.0
 11
1633.28409098258
 21
-1446.100426120395
 31
0.0
  0
LINE
  5
C6F6
  8
01
  6
BYBLOCK
 10
1633.98075887658
 20
-1448.7004261203949
 30
0.0
 11
1633.98075887658
 21
-1446.100426120395
 31
0.0
  0
LINE
  5
C6F7
  8
01
  6
BYBLOCK
 10
1633.28409098258
 20
-1398.3004261203951
 30
0.0
 11
1633.98075887658
 21
-1395.7004261203949
 31
0.0
  0
LINE
  5
C6F8
  8
01
  6
BYBLOCK
 10
1633.98075887658
 20
-1395.7004261203949
 30
0.0
 11
1634.67742677058
 21
-1398.3004261203951
 31
0.0
  0
LINE
  5
C6F9
  8
01
  6
BYBLOCK
 10
1633.98075887658
 20
-1395.7004261203949
 30
0.0
 11
1633.98075887658
 21
-1398.3004261203951
 31
0.0
  0
TEXT
  5
C6FA
  8
01
 10
1713.0707588765811
 20
-1408.533759453727
 30
0.0
 40
4.5499999999999989
  1
74.5
 50
90.0
  0
LINE
  5
C6FB
  8
01
  6
BYBLOCK
 10
1714.677426770581
 20
-1435.6004261203941
 30
0.0
 11
1713.9807588765809
 21
-1438.2004261203931
 31
0.0
  0
LINE
  5
C6FC
  8
01
  6
BYBLOCK
 10
1713.9807588765809
 20
-1438.2004261203931
 30
0.0
 11
1713.2840909825809
 21
-1435.6004261203941
 31
0.0
  0
LINE
  5
C6FD
  8
01
  6
BYBLOCK
 10
1713.9807588765809
 20
-1438.2004261203931
 30
0.0
 11
1713.9807588765809
 21
-1435.6004261203941
 31
0.0
  0
LINE
  5
C6FE
  8
01
  6
BYBLOCK
 10
1713.2840909825809
 20
-1366.3004261203939
 30
0.0
 11
1713.9807588765809
 21
-1363.7004261203931
 31
0.0
  0
LINE
  5
C6FF
  8
01
  6
BYBLOCK
 10
1713.9807588765809
 20
-1363.7004261203931
 30
0.0
 11
1714.677426770581
 21
-1366.3004261203939
 31
0.0
  0
LINE
  5
C700
  8
01
  6
BYBLOCK
 10
1713.9807588765809
 20
-1363.7004261203931
 30
0.0
 11
1713.9807588765809
 21
-1366.3004261203939
 31
0.0
  0
TEXT
  5
C701
  8
01
 10
1661.939099887456
 20
-1338.290426120393
 30
0.0
 40
4.5499999999999989
  1
□40
  0
LINE
  5
C702
  8
01
  6
BYBLOCK
 10
1686.3807665541231
 20
-1338.5037582263931
 30
0.0
 11
1688.980766554123
 21
-1339.200426120394
 31
0.0
  0
LINE
  5
C703
  8
01
  6
BYBLOCK
 10
1688.980766554123
 20
-1339.200426120394
 30
0.0
 11
1686.3807665541231
 21
-1339.8970940143929
 31
0.0
  0
LINE
  5
C704
  8
01
  6
BYBLOCK
 10
1688.980766554123
 20
-1339.200426120394
 30
0.0
 11
1686.3807665541231
 21
-1339.200426120394
 31
0.0
  0
LINE
  5
C705
  8
01
  6
BYBLOCK
 10
1651.5807665541231
 20
-1339.8970940143929
 30
0.0
 11
1648.980766554123
 21
-1339.200426120394
 31
0.0
  0
LINE
  5
C706
  8
01
  6
BYBLOCK
 10
1648.980766554123
 20
-1339.200426120394
 30
0.0
 11
1651.5807665541231
 21
-1338.5037582263931
 31
0.0
  0
LINE
  5
C707
  8
01
  6
BYBLOCK
 10
1648.980766554123
 20
-1339.200426120394
 30
0.0
 11
1651.5807665541231
 21
-1339.200426120394
 31
0.0
  0
TEXT
  5
C708
  8
01
 10
1321.939091887454
 20
-1338.290426120393
 30
0.0
 40
4.5499999999999989
  1
□40
  0
LINE
  5
C709
  8
01
  6
BYBLOCK
 10
1346.380758554121
 20
-1338.5037582263931
 30
0.0
 11
1348.9807585541209
 21
-1339.200426120394
 31
0.0
  0
LINE
  5
C70A
  8
01
  6
BYBLOCK
 10
1348.9807585541209
 20
-1339.200426120394
 30
0.0
 11
1346.380758554121
 21
-1339.8970940143929
 31
0.0
  0
LINE
  5
C70B
  8
01
  6
BYBLOCK
 10
1348.9807585541209
 20
-1339.200426120394
 30
0.0
 11
1346.380758554121
 21
-1339.200426120394
 31
0.0
  0
LINE
  5
C70C
  8
01
  6
BYBLOCK
 10
1311.5807585541211
 20
-1339.8970940143929
 30
0.0
 11
1308.9807585541209
 21
-1339.200426120394
 31
0.0
  0
LINE
  5
C70D
  8
01
  6
BYBLOCK
 10
1308.9807585541209
 20
-1339.200426120394
 30
0.0
 11
1311.5807585541211
 21
-1338.5037582263931
 31
0.0
  0
LINE
  5
C70E
  8
01
  6
BYBLOCK
 10
1308.9807585541209
 20
-1339.200426120394
 30
0.0
 11
1311.5807585541211
 21
-1339.200426120394
 31
0.0
  0
TEXT
  5
C70F
  8
01
 10
1707.9320338183541
 20
-1159.783759454755
 30
0.0
 40
4.5499999999999989
  1
20.5
 50
90.0
  0
LINE
  5
C710
  8
01
  6
BYBLOCK
 10
1709.5387017123539
 20
-1159.8504261214221
 30
0.0
 11
1708.842033818353
 21
-1162.450426121422
 31
0.0
  0
LINE
  5
C711
  8
01
  6
BYBLOCK
 10
1708.842033818353
 20
-1162.450426121422
 30
0.0
 11
1708.145365924353
 21
-1159.8504261214221
 31
0.0
  0
LINE
  5
C712
  8
01
  6
BYBLOCK
 10
1708.842033818353
 20
-1162.450426121422
 30
0.0
 11
1708.842033818353
 21
-1159.8504261214221
 31
0.0
  0
LINE
  5
C713
  8
01
  6
BYBLOCK
 10
1708.145365924353
 20
-1144.5504261214221
 30
0.0
 11
1708.842033818353
 21
-1141.950426121422
 31
0.0
  0
LINE
  5
C714
  8
01
  6
BYBLOCK
 10
1708.842033818353
 20
-1141.950426121422
 30
0.0
 11
1709.5387017123539
 21
-1144.5504261214221
 31
0.0
  0
LINE
  5
C715
  8
01
  6
BYBLOCK
 10
1708.842033818353
 20
-1141.950426121422
 30
0.0
 11
1708.842033818353
 21
-1144.5504261214221
 31
0.0
  0
LINE
  5
C716
  8
01
 10
1666.6698220046489
 20
-1191.696337279998
 30
0.0
 11
1641.7339199695971
 21
-1211.1104261214221
 31
0.0
1001
ACAD
1000
DSTYLE
1002
{
1070
    40
1040
1.3
1002
}
  0
LINE
  5
C717
  8
01
 10
1641.7339199695971
 20
-1211.1104261214221
 30
0.0
 11
1638.223919969598
 21
-1211.1104261214221
 31
0.0
1001
ACAD
1000
DSTYLE
1002
{
1070
    40
1040
1.3
1002
}
  0
VIEWPORT
  5
57
 67
     1
  8
0
 10
10.30270091935693
 20
17.565658765306811
 30
0.0
 40
436.88494755936352
 41
283.7819039898875
 68
     1
 69
     1
1001
ACAD
1000
MVIEW
1002
{
1070
    16
1010
0.0
1020
0.0
1030
0.0
1010
0.0
1020
0.0
1030
1.0
1040
0.0
1040
283.7819039898875
1040
10.30270091935693
1040
17.565658765306811
1040
50.0
1040
0.0
1040
0.0
1070
     0
1070
   100
1070
     1
1070
     1
1070
     0
1070
     0
1070
     0
1070
     0
1040
0.0
1040
0.0
1040
0.0
1040
10.0
1040
10.0
1040
10.0
1040
10.0
1070
     0
1002
{
1002
}
1002
}
  0
ENDSEC
  0
EOF
