  0
SECTION
  2
HEADER
  9
$ACADVER
  1
AC1009
  9
$DWGCODEPAGE
  3
ansi_932
  9
$INSBASE
 10
0.0
 20
0.0
 30
0.0
  9
$EXTMIN
 10
2337.924682212158
 20
-579.7984707314113
 30
0.0
  9
$EXTMAX
 10
2959.226955027132
 20
-161.3355393432084
 30
0.0000000001691137
  9
$LIMMIN
 10
0.0
 20
0.0
  9
$LIMMAX
 10
420.0
 20
297.0
  9
$ORTHOMODE
 70
     0
  9
$REGENMODE
 70
     1
  9
$FILLMODE
 70
     1
  9
$QTEXTMODE
 70
     0
  9
$MIRRTEXT
 70
     0
  9
$DRAGMODE
 70
     2
  9
$LTSCALE
 40
0.5
  9
$OSMODE
 70
  6271
  9
$ATTMODE
 70
     1
  9
$TEXTSIZE
 40
4.0
  9
$TRACEWID
 40
1.0
  9
$TEXTSTYLE
  7
STANDARD
  9
$CLAYER
  8
1TEXT
  9
$CELTYPE
  6
BYLAYER
  9
$CECOLOR
 62
   256
  9
$DIMSCALE
 40
1.0
  9
$DIMASZ
 40
2.0
  9
$DIMEXO
 40
0.0
  9
$DIMDLI
 40
7.0
  9
$DIMRND
 40
0.0
  9
$DIMDLE
 40
0.0
  9
$DIMEXE
 40
1.0
  9
$DIMTP
 40
0.0
  9
$DIMTM
 40
0.0
  9
$DIMTXT
 40
3.5
  9
$DIMCEN
 40
0.0
  9
$DIMTSZ
 40
0.0
  9
$DIMTOL
 70
     0
  9
$DIMLIM
 70
     0
  9
$DIMTIH
 70
     0
  9
$DIMTOH
 70
     0
  9
$DIMSE1
 70
     0
  9
$DIMSE2
 70
     0
  9
$DIMTAD
 70
     1
  9
$DIMZIN
 70
     8
  9
$DIMBLK
  1

  9
$DIMASO
 70
     1
  9
$DIMSHO
 70
     1
  9
$DIMPOST
  1
 
  9
$DIMAPOST
  1

  9
$DIMALT
 70
     0
  9
$DIMALTD
 70
     2
  9
$DIMALTF
 40
25.4
  9
$DIMLFAC
 40
1.0
  9
$DIMTOFL
 70
     1
  9
$DIMTVP
 40
0.0
  9
$DIMTIX
 70
     0
  9
$DIMSOXD
 70
     0
  9
$DIMSAH
 70
     1
  9
$DIMBLK1
  1
OPEN30
  9
$DIMBLK2
  1
OPEN30
  9
$DIMSTYLE
  2
NEWX10
  9
$DIMCLRD
 70
   256
  9
$DIMCLRE
 70
   256
  9
$DIMCLRT
 70
   201
  9
$DIMTFAC
 40
0.7
  9
$DIMGAP
 40
0.7
  9
$LUNITS
 70
     2
  9
$LUPREC
 70
     4
  9
$SKETCHINC
 40
1.0
  9
$FILLETRAD
 40
0.0
  9
$AUNITS
 70
     0
  9
$AUPREC
 70
     2
  9
$MENU
  1
acad
  9
$ELEVATION
 40
0.0
  9
$PELEVATION
 40
0.0
  9
$THICKNESS
 40
0.0
  9
$LIMCHECK
 70
     0
  9
$CHAMFERA
 40
10.0
  9
$CHAMFERB
 40
10.0
  9
$SKPOLY
 70
     0
  9
$TDCREATE
 40
2451318.621352917
  9
$TDUPDATE
 40
2460406.473959259
  9
$TDINDWG
 40
1.6696661343
  9
$TDUSRTIMER
 40
1.6696661343
  9
$USRTIMER
 70
     1
  9
$ANGBASE
 50
0.0
  9
$ANGDIR
 70
     0
  9
$PDMODE
 70
     0
  9
$PDSIZE
 40
0.0
  9
$PLINEWID
 40
0.0
  9
$COORDS
 70
     2
  9
$SPLFRAME
 70
     0
  9
$SPLINETYPE
 70
     6
  9
$SPLINESEGS
 70
     8
  9
$ATTDIA
 70
     0
  9
$ATTREQ
 70
     1
  9
$HANDLING
 70
     1
  9
$HANDSEED
  5
1BCDB
  9
$SURFTAB1
 70
     6
  9
$SURFTAB2
 70
     6
  9
$SURFTYPE
 70
     6
  9
$SURFU
 70
     6
  9
$SURFV
 70
     6
  9
$UCSNAME
  2

  9
$UCSORG
 10
0.0
 20
0.0
 30
0.0
  9
$UCSXDIR
 10
1.0
 20
0.0
 30
0.0
  9
$UCSYDIR
 10
0.0
 20
1.0
 30
0.0
  9
$PUCSNAME
  2

  9
$PUCSORG
 10
0.0
 20
0.0
 30
0.0
  9
$PUCSXDIR
 10
1.0
 20
0.0
 30
0.0
  9
$PUCSYDIR
 10
0.0
 20
1.0
 30
0.0
  9
$USERI1
 70
     0
  9
$USERI2
 70
     0
  9
$USERI3
 70
     0
  9
$USERI4
 70
     0
  9
$USERI5
 70
     0
  9
$USERR1
 40
0.0
  9
$USERR2
 40
0.0
  9
$USERR3
 40
0.0
  9
$USERR4
 40
0.0
  9
$USERR5
 40
0.0
  9
$WORLDVIEW
 70
     1
  9
$SHADEDGE
 70
     3
  9
$SHADEDIF
 70
    70
  9
$TILEMODE
 70
     1
  9
$MAXACTVP
 70
    48
  9
$PLIMCHECK
 70
     0
  9
$PEXTMIN
 10
1.000000000000000E+20
 20
1.000000000000000E+20
 30
1.000000000000000E+20
  9
$PEXTMAX
 10
-1.000000000000000E+20
 20
-1.000000000000000E+20
 30
-1.000000000000000E+20
  9
$PLIMMIN
 10
0.0
 20
0.0
  9
$PLIMMAX
 10
420.0
 20
297.0
  9
$UNITMODE
 70
     0
  9
$VISRETAIN
 70
     1
  9
$PLINEGEN
 70
     0
  9
$PSLTSCALE
 70
     1
  0
ENDSEC
  0
SECTION
  2
TABLES
  0
TABLE
  2
VPORT
 70
     1
  0
VPORT
  2
*ACTIVE
 70
     0
 10
0.0
 20
0.0
 11
1.0
 21
1.0
 12
2648.575818619645
 22
-370.5670050373099
 13
0.0
 23
0.0
 14
10.0
 24
10.0
 15
10.0
 25
10.0
 16
0.0
 26
0.0
 36
1.0
 17
0.0
 27
0.0
 37
0.0
 40
449.2970421220705
 41
1.83275663206459
 42
50.0
 43
0.0
 44
0.0
 50
0.0
 51
0.0
 71
    16
 72
  1000
 73
     1
 74
     1
 75
     0
 76
     0
 77
     0
 78
     0
  0
ENDTAB
  0
TABLE
  2
LTYPE
 70
    12
  0
LTYPE
  2
CONTINUOUS
 70
     0
  3
Solid line
 72
    65
 73
     0
 40
0.0
  0
LTYPE
  2
HIDDEN
 70
     0
  3
Hidden __ __ __ __ __ __ __ __ __ __ __ __ __ _
 72
    65
 73
     2
 40
9.524999999999999
 49
6.35
 49
-3.175
  0
LTYPE
  2
CENTER2
 70
     0
  3
Center (.5x) ___ _ ___ _ ___ _ ___ _ ___ _ ___
 72
    65
 73
     4
 40
28.575
 49
19.05
 49
-3.175
 49
3.175
 49
-3.175
  0
ENDTAB
  0
TABLE
  2
LAYER
 70
    44
  0
LAYER
  2
0
 70
     0
 62
     7
  6
CONTINUOUS
  0
LAYER
  2
1CENTER
 70
     0
 62
     7
  6
CENTER2
  0
LAYER
  2
1TEXT
 70
     0
 62
     7
  6
CONTINUOUS
  0
LAYER
  2
01
 70
     0
 62
     1
  6
CONTINUOUS
  0
LAYER
  2
1DIM
 70
     0
 62
     7
  6
CONTINUOUS
  0
LAYER
  2
1HIDDEN
 70
     0
 62
     7
  6
HIDDEN
  0
ENDTAB
  0
TABLE
  2
STYLE
 70
    17
  0
STYLE
  2
STANDARD
 70
     0
 40
0.0
 41
1.0
 50
0.0
 71
     0
 42
4.0
  3
txt.shx
  4
extfont.shx
  0
ENDTAB
  0
TABLE
  2
VIEW
 70
     0
  0
ENDTAB
  0
TABLE
  2
UCS
 70
     5
  0
UCS
  2
U
 70
     0
 10
0.0
 20
0.0
 30
0.0
 11
1.0
 21
0.0
 31
0.0
 12
0.0
 22
2.220446049250313E-16
 32
1.0
  0
UCS
  2
L
 70
     0
 10
0.0
 20
0.0
 30
0.0
 11
-2.220446049250313E-16
 21
-1.0
 31
2.220446049250313E-16
 12
0.0
 22
2.220446049250313E-16
 32
1.0
  0
UCS
  2
R
 70
     0
 10
0.0
 20
0.0
 30
0.0
 11
3.445092848397667E-16
 21
1.0
 31
-2.220446049250313E-16
 12
0.0
 22
2.220446049250313E-16
 32
1.0
  0
UCS
  2
ISOME
 70
     0
 10
0.0
 20
0.0
 30
0.0
 11
0.7071450863198265
 21
-0.7070684729403536
 31
-3.830824619466267E-5
 12
0.4082704059428734
 22
0.4082704077401151
 32
0.8164744636514736
  0
UCS
  2
PERSPECTIVE
 70
     0
 10
0.0
 20
0.0
 30
0.0
 11
0.8191477691768964
 21
-0.5735823260466403
 31
-0.0004974931557765462
 12
0.1584844715982971
 22
0.225502028986108
 32
0.961265575782966
  0
ENDTAB
  0
TABLE
  2
APPID
 70
    14
  0
APPID
  2
ACAD
 70
     0
  0
APPID
  2
DRAWINGVARIABLESXDATA
 70
     0
  0
APPID
  2
CONTENTTABDATA
 70
     0
  0
APPID
  2
CONTENTCURRENTTAB
 70
     0
  0
APPID
  2
CONTENTBLOCKDESCRIPTION
 70
     0
  0
APPID
  2
CONTENTBLOCKICON
 70
     0
  0
APPID
  2
CONTENTLONGBLOCKNAME
 70
     0
  0
APPID
  2
ACAD_PSEXT
 70
     0
  0
APPID
  2
ACAD_MLEADERVER
 70
     0
  0
APPID
  2
ACADANNOTATIVE
 70
     0
  0
APPID
  2
ACDBBLOCKREPETAG
 70
     0
  0
APPID
  2
ACAD_OBJECT_CHANGE_GUID
 70
     0
  0
APPID
  2
ACAD_NAV_VCDISPLAY
 70
     0
  0
APPID
  2
ACAECLAYERSTANDARD
 70
     0
  0
ENDTAB
  0
TABLE
  2
DIMSTYLE
 70
     1
  0
DIMSTYLE
  2
NEWX10
 70
     0
  3
 
  4

  5

  6
OPEN30
  7
OPEN30
 40
1.0
 41
2.0
 42
0.0
 43
7.0
 44
1.0
 45
0.0
 46
0.0
 47
0.0
 48
0.0
140
3.5
141
0.0
142
0.0
143
25.4
144
1.0
145
0.0
146
0.7
147
0.7
 71
     0
 72
     0
 73
     0
 74
     0
 75
     0
 76
     0
 77
     1
 78
     8
170
     0
171
     2
172
     1
173
     1
174
     0
175
     0
176
   256
177
   256
178
   201
  0
ENDTAB
  0
ENDSEC
  0
SECTION
  2
BLOCKS
  0
BLOCK
  8
0
  2
$MODEL_SPACE
 70
     0
 10
0.0
 20
0.0
 30
0.0
  3
$MODEL_SPACE
  1

  0
ENDBLK
  5
1A
  8
0
  0
BLOCK
 67
     1
  8
0
  2
$PAPER_SPACE
 70
     0
 10
0.0
 20
0.0
 30
0.0
  3
$PAPER_SPACE
  1

  0
ENDBLK
  5
17
 67
     1
  8
0
  0
BLOCK
  8
0
  2
_OPEN30
 70
     0
 10
0.0
 20
0.0
 30
0.0
  3
_OPEN30
  1

  0
LINE
  5
44
  8
0
  6
BYBLOCK
 62
     0
 10
-1.0
 20
0.26794919
 30
0.0
 11
0.0
 21
0.0
 31
0.0
  0
LINE
  5
45
  8
0
  6
BYBLOCK
 62
     0
 10
0.0
 20
0.0
 30
0.0
 11
-1.0
 21
-0.26794919
 31
0.0
  0
LINE
  5
46
  8
0
  6
BYBLOCK
 62
     0
 10
0.0
 20
0.0
 30
0.0
 11
-1.0
 21
0.0
 31
0.0
  0
ENDBLK
  5
47
  8
0
  0
BLOCK
  8
0
  2
A3WAKUKAWAJUN2017_HYOUDAI_
 70
     0
 10
0.0
 20
0.0
 30
0.0
  3
A3WAKUKAWAJUN2017_HYOUDAI_
  1

  0
LINE
  5
19D53
  8
0
 10
13.26299999998673
 20
-0.0001000000000317
 30
0.0
 11
9.236999999990758
 21
8.999899999990987
 31
0.0
1001
ACAD
1000
ASC_BOUNDS
1002
{
1070
    19
1005
19D94
1002
}
  0
LINE
  5
19D54
  8
0
 10
5.657999999994331
 20
0.9999999999989768
 30
0.0
 11
9.236999999990758
 21
8.999999999991019
 31
0.0
1001
ACAD
1000
ASC_BOUNDS
1002
{
1070
    19
1005
19D94
1002
}
  0
LINE
  5
19D55
  8
0
 10
18.59199999998134
 20
-0.2368999999997641
 30
0.0
 11
16.46099999998353
 21
5.432899999994561
 31
0.0
1001
ACAD
1000
ASC_BOUNDS
1002
{
1070
    19
1005
19D95
1002
}
  0
LINE
  5
19D56
  8
0
 10
18.59199999998134
 20
-0.2368999999997641
 30
0.0
 11
22.38199999997767
 21
8.763099999991255
 31
0.0
1001
ACAD
1000
ASC_BOUNDS
1002
{
1070
    19
1005
19D95
1002
}
  0
LINE
  5
19D57
  8
0
 10
14.32899999998563
 20
-0.2368999999997641
 30
0.0
 11
16.46099999998353
 21
5.432899999994561
 31
0.0
1001
ACAD
1000
ASC_BOUNDS
1002
{
1070
    19
1005
19D95
1002
}
  0
LINE
  5
19D58
  8
0
 10
14.32899999998563
 20
-0.2368999999997641
 30
0.0
 11
10.53899999998941
 21
8.763099999991255
 31
0.0
1001
ACAD
1000
ASC_BOUNDS
1002
{
1070
    19
1005
19D95
1002
}
  0
LINE
  5
19D59
  8
0
 10
19.53899999998043
 20
-0.0001000000000317
 30
0.0
 11
23.56599999997638
 21
8.999899999990987
 31
0.0
1001
ACAD
1000
ASC_BOUNDS
1002
{
1070
    19
1005
19D96
1002
}
  0
LINE
  5
19D5A
  8
0
 10
26.97358892824991
 20
1.383099999991202
 30
0.0
 11
23.56599999997638
 21
8.999899999990987
 31
0.0
1001
ACAD
1000
ASC_BOUNDS
1002
{
1070
    19
1005
19D96
1002
}
  0
LINE
  5
19D5B
  8
0
 10
5.657999999994331
 20
0.9999999999989768
 30
0.0
 11
3.181999999996833
 21
4.668599999995308
 31
0.0
1001
ACAD
1000
ASC_BOUNDS
1002
{
1070
    19
1005
19D94
1002
}
  0
LINE
  5
19D5C
  8
0
 10
4.617999999995391
 20
-0.0001000000000317
 30
0.0
 11
1.420999999998571
 21
4.736799999995242
 31
0.0
1001
ACAD
1000
ASC_BOUNDS
1002
{
1070
    19
1005
19D94
1002
}
  0
LINE
  5
19D5D
  8
0
 10
1.420999999998571
 20
8.763099999991255
 30
0.0
 11
1.420999999998571
 21
0.0
 31
0.0
1001
ACAD
1000
ASC_BOUNDS
1002
{
1070
    19
1005
19D99
1002
}
  0
LINE
  5
19D5E
  8
0
 10
0.0
 20
8.763099999991255
 30
0.0
 11
0.0
 21
0.0
 31
0.0
1001
ACAD
1000
ASC_BOUNDS
1002
{
1070
    19
1005
19D99
1002
}
  0
LINE
  5
19D5F
  8
0
 10
6.766999999993232
 20
-0.0001000000000317
 30
0.0
 11
7.826999999992154
 21
2.368399999997621
 31
0.0
1001
ACAD
1000
ASC_BOUNDS
1002
{
1070
    19
1005
19D94
1002
}
  0
LINE
  5
19D60
  8
0
 10
0.0
 20
0.0
 30
0.0
 11
1.420999999998571
 21
0.0
 31
0.0
1001
ACAD
1000
ASC_BOUNDS
1002
{
1070
    19
1005
19D99
1002
}
  0
LINE
  5
19D61
  8
0
 10
4.617999999995391
 20
0.0
 30
0.0
 11
6.766999999993232
 21
0.0
 31
0.0
1001
ACAD
1000
ASC_BOUNDS
1002
{
1070
    19
1005
19D94
1002
}
  0
LINE
  5
19D62
  8
0
 10
11.70599999998831
 20
-0.0001000000000317
 30
0.0
 11
10.64699999998936
 21
2.368399999997621
 31
0.0
1001
ACAD
1000
ASC_BOUNDS
1002
{
1070
    19
1005
19D94
1002
}
  0
LINE
  5
19D63
  8
0
 10
7.826999999992154
 20
2.368399999997621
 30
0.0
 11
10.64699999998936
 21
2.368399999997621
 31
0.0
1001
ACAD
1000
ASC_BOUNDS
1002
{
1070
    19
1005
19D94
1002
}
  0
LINE
  5
19D64
  8
0
 10
11.70599999998831
 20
0.0
 30
0.0
 11
13.26299999998673
 21
0.0
 31
0.0
1001
ACAD
1000
ASC_BOUNDS
1002
{
1070
    19
1005
19D94
1002
}
  0
LINE
  5
19D65
  8
0
 10
22.15599999997789
 20
2.368399999997621
 30
0.0
 11
24.97599999997499
 21
2.368399999997621
 31
0.0
1001
ACAD
1000
ASC_BOUNDS
1002
{
1070
    19
1005
19D96
1002
}
  0
LINE
  5
19D66
  8
0
 10
19.53899999998043
 20
0.0
 30
0.0
 11
21.09599999997886
 21
0.0
 31
0.0
1001
ACAD
1000
ASC_BOUNDS
1002
{
1070
    19
1005
19D96
1002
}
  0
LINE
  5
19D67
  8
0
 10
21.09599999997886
 20
-0.0001000000000317
 30
0.0
 11
22.15599999997789
 21
2.368399999997621
 31
0.0
1001
ACAD
1000
ASC_BOUNDS
1002
{
1070
    19
1005
19D96
1002
}
  0
LINE
  5
19D68
  8
0
 10
26.02015566812236
 20
0.0330999999912365
 30
0.0
 11
24.97599999997499
 21
2.368399999997621
 31
0.0
1001
ACAD
1000
ASC_BOUNDS
1002
{
1070
    19
1005
19D96
1002
}
  0
LINE
  5
19D69
  8
0
 10
14.32399999998563
 20
3.315799999996671
 30
0.0
 11
16.46099999998353
 21
8.999899999990987
 31
0.0
1001
ACAD
1000
ASC_BOUNDS
1002
{
1070
    19
1005
19D95
1002
}
  0
LINE
  5
19D6A
  8
0
 10
6.432999999993513
 20
8.763099999991255
 30
0.0
 11
3.181999999996833
 21
4.668599999995308
 31
0.0
1001
ACAD
1000
ASC_BOUNDS
1002
{
1070
    19
1005
19D94
1002
}
  0
LINE
  5
19D6B
  8
0
 10
4.617999999995391
 20
8.763099999991255
 30
0.0
 11
1.420999999998571
 21
4.736799999995242
 31
0.0
1001
ACAD
1000
ASC_BOUNDS
1002
{
1070
    19
1005
19D94
1002
}
  0
LINE
  5
19D6C
  8
0
 10
0.0
 20
8.763099999991255
 30
0.0
 11
1.420999999998571
 21
8.763099999991255
 31
0.0
1001
ACAD
1000
ASC_BOUNDS
1002
{
1070
    19
1005
19D99
1002
}
  0
LINE
  5
19D6D
  8
0
 10
4.617999999995391
 20
8.763099999991255
 30
0.0
 11
6.432999999993513
 21
8.763099999991255
 31
0.0
1001
ACAD
1000
ASC_BOUNDS
1002
{
1070
    19
1005
19D94
1002
}
  0
LINE
  5
19D6E
  8
0
 10
14.32399999998563
 20
3.315799999996671
 30
0.0
 11
12.02999999998792
 21
8.763099999991255
 31
0.0
1001
ACAD
1000
ASC_BOUNDS
1002
{
1070
    19
1005
19D95
1002
}
  0
LINE
  5
19D6F
  8
0
 10
10.06399999998996
 20
3.670999999996297
 30
0.0
 11
9.236999999990758
 21
5.5200999999945
 31
0.0
1001
ACAD
1000
ASC_BOUNDS
1002
{
1070
    19
1005
19D94
1002
}
  0
LINE
  5
19D70
  8
0
 10
8.409999999991555
 20
3.670999999996297
 30
0.0
 11
9.236999999990758
 21
5.5200999999945
 31
0.0
1001
ACAD
1000
ASC_BOUNDS
1002
{
1070
    19
1005
19D94
1002
}
  0
LINE
  5
19D71
  8
0
 10
8.409999999991555
 20
3.670999999996297
 30
0.0
 11
10.06399999998996
 21
3.670999999996297
 31
0.0
1001
ACAD
1000
ASC_BOUNDS
1002
{
1070
    19
1005
19D94
1002
}
  0
LINE
  5
19D72
  8
0
 10
10.53899999998941
 20
8.763099999991255
 30
0.0
 11
12.02999999998792
 21
8.763099999991255
 31
0.0
1001
ACAD
1000
ASC_BOUNDS
1002
{
1070
    19
1005
19D95
1002
}
  0
LINE
  5
19D73
  8
0
 10
22.7389999999773
 20
3.670999999996297
 30
0.0
 11
23.56599999997638
 21
5.5200999999945
 31
0.0
1001
ACAD
1000
ASC_BOUNDS
1002
{
1070
    19
1005
19D96
1002
}
  0
LINE
  5
19D74
  8
0
 10
22.7389999999773
 20
3.670999999996297
 30
0.0
 11
24.39299999997559
 21
3.670999999996297
 31
0.0
1001
ACAD
1000
ASC_BOUNDS
1002
{
1070
    19
1005
19D96
1002
}
  0
LINE
  5
19D75
  8
0
 10
18.59799999998143
 20
3.315799999996671
 30
0.0
 11
20.89099999997916
 21
8.763099999991255
 31
0.0
1001
ACAD
1000
ASC_BOUNDS
1002
{
1070
    19
1005
19D95
1002
}
  0
LINE
  5
19D76
  8
0
 10
18.59799999998143
 20
3.315799999996671
 30
0.0
 11
16.46099999998353
 21
8.999899999990987
 31
0.0
1001
ACAD
1000
ASC_BOUNDS
1002
{
1070
    19
1005
19D95
1002
}
  0
LINE
  5
19D77
  8
0
 10
20.89099999997916
 20
8.763099999991255
 30
0.0
 11
22.38199999997767
 21
8.763099999991255
 31
0.0
1001
ACAD
1000
ASC_BOUNDS
1002
{
1070
    19
1005
19D95
1002
}
  0
LINE
  5
19D78
  8
0
 10
24.39299999997559
 20
3.670999999996297
 30
0.0
 11
23.56599999997638
 21
5.5200999999945
 31
0.0
1001
ACAD
1000
ASC_BOUNDS
1002
{
1070
    19
1005
19D96
1002
}
  0
LINE
  5
19D79
  8
0
 10
44.99999999995498
 20
-0.2368999999997641
 30
0.0
 11
40.02599999995994
 21
5.341799999994635
 31
0.0
1001
ACAD
1000
ASC_BOUNDS
1002
{
1070
    19
1005
19D98
1002
}
  0
LINE
  5
19D7A
  8
0
 10
40.02599999995994
 20
5.341799999994635
 30
0.0
 11
40.02599999995994
 21
0.0
 31
0.0
1001
ACAD
1000
ASC_BOUNDS
1002
{
1070
    19
1005
19D98
1002
}
  0
LINE
  5
19D7B
  8
0
 10
38.60499999996136
 20
8.999999999991019
 30
0.0
 11
38.60499999996136
 21
0.0
 31
0.0
1001
ACAD
1000
ASC_BOUNDS
1002
{
1070
    19
1005
19D98
1002
}
  0
LINE
  5
19D7C
  8
0
 10
44.99999999995498
 20
8.763099999991255
 30
0.0
 11
44.99999999995498
 21
-0.2368999999997641
 31
0.0
1001
ACAD
1000
ASC_BOUNDS
1002
{
1070
    19
1005
19D98
1002
}
  0
LINE
  5
19D7D
  8
0
 10
38.60499999996136
 20
0.0
 30
0.0
 11
40.02599999995994
 21
0.0
 31
0.0
1001
ACAD
1000
ASC_BOUNDS
1002
{
1070
    19
1005
19D98
1002
}
  0
LINE
  5
19D7E
  8
0
 10
43.57899999995641
 20
3.421199999996588
 30
0.0
 11
38.60499999996136
 21
8.999899999990987
 31
0.0
1001
ACAD
1000
ASC_BOUNDS
1002
{
1070
    19
1005
19D98
1002
}
  0
LINE
  5
19D7F
  8
0
 10
43.57899999995641
 20
8.763099999991255
 30
0.0
 11
43.57899999995641
 21
3.421199999996588
 31
0.0
1001
ACAD
1000
ASC_BOUNDS
1002
{
1070
    19
1005
19D98
1002
}
  0
LINE
  5
19D80
  8
0
 10
43.57899999995641
 20
8.763099999991255
 30
0.0
 11
44.99999999995498
 21
8.763099999991255
 31
0.0
1001
ACAD
1000
ASC_BOUNDS
1002
{
1070
    19
1005
19D98
1002
}
  0
LINE
  5
19D81
  8
0
 10
37.67199999996831
 20
8.763099999991255
 30
0.0
 11
36.23199999996837
 21
8.763099999991255
 31
0.0
  0
LINE
  5
19D82
  8
0
 10
31.64199999996833
 20
8.763099999991255
 30
0.0
 11
31.64199999996833
 21
2.481619422925121
 31
0.0
  0
LINE
  5
19D83
  8
0
 10
37.67199999996831
 20
8.763099999991255
 30
0.0
 11
37.67199999996831
 21
2.481619422925121
 31
0.0
  0
LINE
  5
19D84
  8
0
 10
36.23199999996837
 20
8.763099999991255
 30
0.0
 11
36.23199999996837
 21
2.481619422925064
 31
0.0
  0
LINE
  5
19D85
  8
0
 10
33.08199999996839
 20
8.763099999991255
 30
0.0
 11
33.08199999996839
 21
2.481619422925121
 31
0.0
  0
ARC
  5
19D86
  8
0
 10
34.65699999996832
 20
3.183099999991214
 30
0.0
 40
3.420000000000007
 50
240.0000000000255
 51
299.9999999999766
  0
ARC
  5
19D87
  8
0
 10
34.65699999996832
 20
3.183099999991214
 30
0.0
 40
1.97999999999999
 50
240.000000000026
 51
299.9999999999703
  0
LINE
  5
19D88
  8
0
 10
33.08199999996828
 20
8.763099999991255
 30
0.0
 11
31.64199999996833
 21
8.763099999991255
 31
0.0
  0
ARC
  5
19D89
  8
0
 10
35.06199999996829
 20
2.481619422925064
 30
0.0
 40
1.17
 50
299.9999999999699
 51
0.0
  0
ARC
  5
19D8A
  8
0
 10
34.25199999996835
 20
2.481619422925121
 30
0.0
 40
1.17
 50
180.0
 51
240.0000000000238
  0
ARC
  5
19D8B
  8
0
 10
35.06199999996841
 20
2.481619422925121
 30
0.0
 40
2.61
 50
299.9999999999756
 51
0.0
  0
ARC
  5
19D8C
  8
0
 10
34.25199999996835
 20
2.481619422925121
 30
0.0
 40
2.61
 50
180.0
 51
240.0000000000244
  0
LINE
  5
19D8D
  8
0
 10
29.30199999996933
 20
8.763099999991255
 30
0.0
 11
30.74199999996927
 21
8.763099999991255
 31
0.0
1001
ACAD
1000
ASC_BOUNDS
1002
{
1070
    19
1005
19D96
1002
}
  0
LINE
  5
19D8E
  8
0
 10
30.74199999996927
 20
8.763099999991255
 30
0.0
 11
30.74199999996927
 21
2.373099999991211
 31
0.0
1001
ACAD
1000
ASC_BOUNDS
1002
{
1070
    19
1005
19D96
1002
}
  0
LINE
  5
19D8F
  8
0
 10
26.02015566812236
 20
0.0330999999912365
 30
0.0
 11
28.40199999996923
 21
0.0330999999912365
 31
0.0
1001
ACAD
1000
ASC_BOUNDS
1002
{
1070
    19
1005
19D96
1002
}
  0
LINE
  5
19D90
  8
0
 10
29.30199999996933
 20
8.763099999991255
 30
0.0
 11
29.30199999996933
 21
2.283099999991236
 31
0.0
1001
ACAD
1000
ASC_BOUNDS
1002
{
1070
    19
1005
19D96
1002
}
  0
LINE
  5
19D91
  8
0
 10
26.97358892824991
 20
1.383099999991202
 30
0.0
 11
28.40199999996923
 21
1.383099999991202
 31
0.0
1001
ACAD
1000
ASC_BOUNDS
1002
{
1070
    19
1005
19D96
1002
}
  0
ARC
  5
19D92
  8
0
 10
28.40199999996923
 20
2.283099999991236
 30
0.0
 40
0.9
 50
270.0
 51
0.0
1001
ACAD
1000
ASC_BOUNDS
1002
{
1070
    19
1005
19D96
1002
}
  0
ARC
  5
19D93
  8
0
 10
28.40199999996923
 20
2.373099999991211
 30
0.0
 40
2.34
 50
270.0
 51
0.0
1001
ACAD
1000
ASC_BOUNDS
1002
{
1070
    19
1005
19D96
1002
}
  0
INSERT
  5
19D94
  8
0
  2
*X58
 10
0.0
 20
0.0
 30
0.0
1001
ACAD
1000
HATCH
1002
{
1070
    19
1000
ANSI37
1040
0.15
1040
0.0
1000
ASC_BOUNDS
1070
     2
1070
     2
1070
    12
1005
19D53
1005
19D54
1005
19D5B
1005
19D6A
1005
19D6D
1005
19D6B
1005
19D5C
1005
19D61
1005
19D5F
1005
19D63
1005
19D62
1005
19D64
1070
     2
1070
     3
1005
19D6F
1005
19D71
1005
19D70
1000
ASC_SEEDPOINT
1011
3.614004224891801
1021
2.996669441146025
1031
0.0
1021
2.996669441146025
1031
0.0
1000
R14_HATCH_DATA
1000
19D94
1011
1.0
1021
0.0
1031
0.0
1021
0.0
1031
0.0
1011
0.0
1021
1.0
1031
0.0
1021
1.0
1031
0.0
1011
0.0
1021
0.0
1031
1.0
1021
0.0
1031
1.0
1040
0.0
1010
0.0
1020
0.0
1030
1.0
1000
ANSI37
1070
     0
1070
     1
1071
        2
1071
        7
1070
     0
1070
     1
1071
       17
1040
13.26299999998673
1040
-0.0001000000000317
1040
9.236999999990758
1040
8.999899999990987
1040
9.236999999990758
1040
8.999999999991019
1040
5.657999999994331
1040
0.9999999999989768
1040
3.181999999996833
1040
4.668599999995308
1040
6.432999999993513
1040
8.763099999991255
1040
4.617999999995391
1040
8.763099999991255
1040
1.420999999998571
1040
4.736799999995242
1040
4.617999999995391
1040
-0.0001000000000317
1040
4.617999999995391
1040
0.0
1040
6.766999999993232
1040
0.0
1040
6.766999999993232
1040
-0.0001000000000317
1040
7.826999999992154
1040
2.368399999997621
1040
10.64699999998936
1040
2.368399999997621
1040
11.70599999998831
1040
-0.0001000000000317
1040
11.70599999998831
1040
0.0
1040
13.26299999998673
1040
0.0
1071
       12
1005
19D53
1005
19D54
1005
19D5B
1005
19D6A
1005
19D6D
1005
19D6B
1005
19D5C
1005
19D61
1005
19D5F
1005
19D63
1005
19D62
1005
19D64
1071
       22
1070
     0
1070
     1
1071
        3
1040
9.236999999990758
1040
5.5200999999945
1040
10.06399999998996
1040
3.670999999996297
1040
8.409999999991555
1040
3.670999999996297
1071
        3
1005
19D6F
1005
19D71
1005
19D70
1070
     0
1070
     1
1040
0.0
1040
0.15
1070
     0
1070
     2
1040
0.7853981633974483
1040
49.29960901727088
1040
-10.17736998311392
1040
-0.3367596045400932
1040
0.3367596045400932
1070
     0
1040
2.356194490192345
1040
49.29960901727088
1040
-10.17736998311392
1040
-0.3367596045400932
1040
-0.3367596045400932
1070
     0
1040
0.0110235143455945
1071
        2
1040
3.614004224891801
1040
2.996669441146025
1040
0.0
1040
3.614004224891801
1040
2.996669441146025
1040
0.0
1002
}
  0
INSERT
  5
19D95
  8
0
  2
*X59
 10
0.0
 20
0.0
 30
0.0
1001
ACAD
1000
HATCH
1002
{
1070
    19
1000
ANSI37
1040
0.15
1040
0.0
1000
ASC_BOUNDS
1070
     1
1070
     2
1070
    10
1005
19D55
1005
19D56
1005
19D77
1005
19D75
1005
19D76
1005
19D69
1005
19D6E
1005
19D72
1005
19D58
1005
19D57
1000
ASC_SEEDPOINT
1011
14.73245321214324
1021
2.798246178283421
1031
0.0
1021
2.798246178283421
1031
0.0
1000
R14_HATCH_DATA
1000
19D95
1011
1.0
1021
0.0
1031
0.0
1021
0.0
1031
0.0
1011
0.0
1021
1.0
1031
0.0
1021
1.0
1031
0.0
1011
0.0
1021
0.0
1031
1.0
1021
0.0
1031
1.0
1040
0.0
1010
0.0
1020
0.0
1030
1.0
1000
ANSI37
1070
     0
1070
     1
1071
        1
1071
        7
1070
     0
1070
     1
1071
       10
1040
16.46099999998353
1040
5.432899999994561
1040
18.59199999998134
1040
-0.2368999999997641
1040
22.38199999997767
1040
8.763099999991255
1040
20.89099999997916
1040
8.763099999991255
1040
18.59799999998143
1040
3.315799999996671
1040
16.46099999998353
1040
8.999899999990987
1040
14.32399999998563
1040
3.315799999996671
1040
12.02999999998792
1040
8.763099999991255
1040
10.53899999998941
1040
8.763099999991255
1040
14.32899999998563
1040
-0.2368999999997641
1071
       10
1005
19D55
1005
19D56
1005
19D77
1005
19D75
1005
19D76
1005
19D69
1005
19D6E
1005
19D72
1005
19D58
1005
19D57
1070
     0
1070
     1
1040
0.0
1040
0.15
1070
     0
1070
     2
1040
0.7853981633974483
1040
49.29960901727088
1040
-10.17736998311392
1040
-0.3367596045400932
1040
0.3367596045400932
1070
     0
1040
2.356194490192345
1040
49.29960901727088
1040
-10.17736998311392
1040
-0.3367596045400932
1040
-0.3367596045400932
1070
     0
1040
0.0110235143455945
1071
        1
1040
14.73245321214324
1040
2.798246178283421
1040
0.0
1002
}
  0
INSERT
  5
19D96
  8
0
  2
*X60
 10
0.0
 20
0.0
 30
0.0
1001
ACAD
1000
HATCH
1002
{
1070
    19
1000
ANSI37
1040
0.15
1040
0.0
1000
ASC_BOUNDS
1070
     2
1070
     2
1070
    13
1005
19D59
1005
19D66
1005
19D67
1005
19D65
1005
19D68
1005
19D8F
1005
19D93
1005
19D8E
1005
19D8D
1005
19D90
1005
19D92
1005
19D91
1005
19D5A
1070
     2
1070
     3
1005
19D73
1005
19D78
1005
19D74
1000
ASC_SEEDPOINT
1011
21.97929957367762
1021
3.294304244259308
1031
0.0
1021
3.294304244259308
1031
0.0
1000
R14_HATCH_DATA
1000
19D96
1011
1.0
1021
0.0
1031
0.0
1021
0.0
1031
0.0
1011
0.0
1021
1.0
1031
0.0
1021
1.0
1031
0.0
1011
0.0
1021
0.0
1031
1.0
1021
0.0
1031
1.0
1040
0.0
1010
0.0
1020
0.0
1030
1.0
1000
ANSI37
1070
     0
1070
     1
1071
        2
1071
        7
1070
     1
1070
     1
1071
       15
1040
23.56599999997638
1040
8.999899999990987
1040
0.0
1040
19.53899999998043
1040
-0.0001000000000317
1040
0.0
1040
19.53899999998043
1040
0.0
1040
0.0
1040
21.09599999997886
1040
0.0
1040
0.0
1040
21.09599999997886
1040
-0.0001000000000317
1040
0.0
1040
22.15599999997789
1040
2.368399999997621
1040
0.0
1040
24.97599999997499
1040
2.368399999997621
1040
0.0
1040
26.02015566812236
1040
0.0330999999912365
1040
0.0
1040
28.40199999996923
1040
0.0330999999912365
1040
0.414213562373095
1040
30.74199999996923
1040
2.373099999991211
1040
0.0
1040
30.74199999996927
1040
8.763099999991255
1040
0.0
1040
29.30199999996933
1040
8.763099999991255
1040
0.0
1040
29.30199999996933
1040
2.283099999991236
1040
-0.414213562373095
1040
28.40199999996923
1040
1.383099999991237
1040
0.0
1040
26.97358892824991
1040
1.383099999991202
1040
0.0
1071
       13
1005
19D59
1005
19D66
1005
19D67
1005
19D65
1005
19D68
1005
19D8F
1005
19D93
1005
19D8E
1005
19D8D
1005
19D90
1005
19D92
1005
19D91
1005
19D5A
1071
       22
1070
     0
1070
     1
1071
        3
1040
22.7389999999773
1040
3.670999999996297
1040
23.56599999997638
1040
5.5200999999945
1040
24.39299999997559
1040
3.670999999996297
1071
        3
1005
19D73
1005
19D78
1005
19D74
1070
     0
1070
     1
1040
0.0
1040
0.15
1070
     0
1070
     2
1040
0.7853981633974483
1040
49.29960901727088
1040
-10.17736998311392
1040
-0.3367596045400932
1040
0.3367596045400932
1070
     0
1040
2.356194490192345
1040
49.29960901727088
1040
-10.17736998311392
1040
-0.3367596045400932
1040
-0.3367596045400932
1070
     0
1040
0.0110235143455945
1071
        2
1040
21.97929957367762
1040
3.294304244259308
1040
0.0
1040
21.97929957367762
1040
3.294304244259308
1040
0.0
1002
}
  0
INSERT
  5
19D97
  8
0
  2
*X61
 10
0.0
 20
0.0
 30
0.0
1001
ACAD
1000
HATCH
1002
{
1070
    19
1000
ANSI37
1040
0.15
1040
0.0
1000
R14_HATCH_DATA
1000
19D97
1011
1.0
1021
0.0
1031
0.0
1021
0.0
1031
0.0
1011
0.0
1021
1.0
1031
0.0
1021
1.0
1031
0.0
1011
0.0
1021
0.0
1031
1.0
1021
0.0
1031
1.0
1040
0.0
1010
0.0
1020
0.0
1030
1.0
1000
ANSI37
1070
     0
1070
     1
1071
        1
1071
        7
1070
     1
1070
     1
1071
       12
1040
31.64199999996833
1040
2.481619422925121
1040
0.2679491924310942
1040
32.94699999997067
1040
0.2212931190493919
1040
0.2679491924301353
1040
36.36699999995983
1040
0.2212931190459813
1040
0.2679491924321411
1040
37.67199999996831
1040
2.481619422928361
1040
0.0
1040
37.67199999996831
1040
8.763099999991255
1040
0.0
1040
36.23199999996837
1040
8.763099999991255
1040
0.0
1040
36.23199999996837
1040
2.481619422925064
1040
-0.2679491924310291
1040
35.64699999996708
1040
1.468369700498386
1040
-0.267949192430519
1040
33.66699999997093
1040
1.468369700497703
1040
-0.267949192431809
1040
33.08199999996839
1040
2.481619422926997
1040
0.0
1040
33.08199999996839
1040
8.763099999991255
1040
0.0
1040
31.64199999996833
1040
8.763099999991255
1040
0.0
1071
        0
1070
     0
1070
     1
1040
0.0
1040
0.15
1070
     0
1070
     2
1040
0.7853981633974483
1040
49.29960901727088
1040
-10.17736998311392
1040
-0.3367596045400932
1040
0.3367596045400932
1070
     0
1040
2.356194490192345
1040
49.29960901727088
1040
-10.17736998311392
1040
-0.3367596045400932
1040
-0.3367596045400932
1070
     0
1040
0.0110235143455945
1071
        1
1040
32.30357378967278
1040
3.988785755459219
1040
0.0
1002
}
  0
INSERT
  5
19D98
  8
0
  2
*X62
 10
0.0
 20
0.0
 30
0.0
1001
ACAD
1000
HATCH
1002
{
1070
    19
1000
ANSI37
1040
0.15
1040
0.0
1000
ASC_BOUNDS
1070
     1
1070
     2
1070
     8
1005
19D79
1005
19D7C
1005
19D80
1005
19D7F
1005
19D7E
1005
19D7B
1005
19D7D
1005
19D7A
1000
ASC_SEEDPOINT
1011
39.74896370716704
1021
4.484843821435049
1031
0.0
1021
4.484843821435049
1031
0.0
1000
R14_HATCH_DATA
1000
19D98
1011
1.0
1021
0.0
1031
0.0
1021
0.0
1031
0.0
1011
0.0
1021
1.0
1031
0.0
1021
1.0
1031
0.0
1011
0.0
1021
0.0
1031
1.0
1021
0.0
1031
1.0
1040
0.0
1010
0.0
1020
0.0
1030
1.0
1000
ANSI37
1070
     0
1070
     1
1071
        1
1071
        7
1070
     0
1070
     1
1071
        9
1040
40.02599999995994
1040
5.341799999994635
1040
44.99999999995498
1040
-0.2368999999997641
1040
44.99999999995498
1040
8.763099999991255
1040
43.57899999995641
1040
8.763099999991255
1040
43.57899999995641
1040
3.421199999996588
1040
38.60499999996136
1040
8.999899999990987
1040
38.60499999996136
1040
8.999999999991019
1040
38.60499999996136
1040
0.0
1040
40.02599999995994
1040
0.0
1071
        8
1005
19D79
1005
19D7C
1005
19D80
1005
19D7F
1005
19D7E
1005
19D7B
1005
19D7D
1005
19D7A
1070
     0
1070
     1
1040
0.0
1040
0.15
1070
     0
1070
     2
1040
0.7853981633974483
1040
49.29960901727088
1040
-10.17736998311392
1040
-0.3367596045400932
1040
0.3367596045400932
1070
     0
1040
2.356194490192345
1040
49.29960901727088
1040
-10.17736998311392
1040
-0.3367596045400932
1040
-0.3367596045400932
1070
     0
1040
0.0110235143455945
1071
        1
1040
39.74896370716704
1040
4.484843821435049
1040
0.0
1002
}
  0
INSERT
  5
19D99
  8
0
  2
*X63
 10
0.0
 20
0.0
 30
0.0
1001
ACAD
1000
HATCH
1002
{
1070
    19
1000
ANSI37
1040
0.15
1040
0.0
1000
ASC_BOUNDS
1070
     1
1070
     2
1070
     4
1005
19D5D
1005
19D6C
1005
19D5E
1005
19D60
1000
ASC_SEEDPOINT
1011
1.079051535452663
1021
4.148538732891836
1031
0.0
1021
4.148538732891836
1031
0.0
1000
R14_HATCH_DATA
1000
19D99
1011
1.0
1021
0.0
1031
0.0
1021
0.0
1031
0.0
1011
0.0
1021
1.0
1031
0.0
1021
1.0
1031
0.0
1011
0.0
1021
0.0
1031
1.0
1021
0.0
1031
1.0
1040
0.0
1010
0.0
1020
0.0
1030
1.0
1000
ANSI37
1070
     0
1070
     1
1071
        1
1071
        7
1070
     0
1070
     1
1071
        4
1040
1.420999999998571
1040
0.0
1040
1.420999999998571
1040
8.763099999991255
1040
0.0
1040
8.763099999991255
1040
0.0
1040
0.0
1071
        4
1005
19D5D
1005
19D6C
1005
19D5E
1005
19D60
1070
     0
1070
     1
1040
0.0
1040
0.15
1070
     0
1070
     2
1040
0.7853981633974483
1040
49.29960901727088
1040
-10.17736998311392
1040
-0.3367596045400932
1040
0.3367596045400932
1070
     0
1040
2.356194490192345
1040
49.29960901727088
1040
-10.17736998311392
1040
-0.3367596045400932
1040
-0.3367596045400932
1070
     0
1040
0.0053004257112761
1071
        1
1040
1.079051535452663
1040
4.148538732891836
1040
0.0
1002
}
  0
ENDBLK
  5
1A475
  8
0
  0
BLOCK
  8
0
  2
*X58
 70
     1
 10
0.0
 20
0.0
 30
0.0
  3
*X58
  1

  0
LINE
  5
1BB15
  8
0
  6
CONTINUOUS
 10
3.418023043697893
 20
7.251849696850613
 30
0.0
 11
4.929273346838536
 21
8.763099999991255
 31
0.0
  0
LINE
  5
1BB16
  8
0
  6
CONTINUOUS
 10
1.483656411257782
 20
4.643963855330318
 30
0.0
 11
5.60279255591872
 21
8.763099999991255
 31
0.0
  0
LINE
  5
1BB17
  8
0
  6
CONTINUOUS
 10
1.755053947328235
 20
4.241842182320584
 30
0.0
 11
6.276311764998907
 21
8.763099999991255
 31
0.0
  0
LINE
  5
1BB18
  8
0
  6
CONTINUOUS
 10
2.026451483398688
 20
3.839720509310849
 30
0.0
 11
4.441040904851878
 21
6.254309930764039
 31
0.0
  0
LINE
  5
1BB19
  8
0
  6
CONTINUOUS
 10
2.297849019469139
 20
3.437598836301114
 30
0.0
 11
3.321765168359338
 21
4.461514985191313
 31
0.0
  0
LINE
  5
1BB1A
  8
0
  6
CONTINUOUS
 10
2.569246555539591
 20
3.03547716329138
 30
0.0
 11
3.593163397972743
 21
4.059394005724531
 31
0.0
  0
LINE
  5
1BB1B
  8
0
  6
CONTINUOUS
 10
2.840644091610043
 20
2.633355490281646
 30
0.0
 11
3.864561627586149
 21
3.657273026257751
 31
0.0
  0
LINE
  5
1BB1C
  8
0
  6
CONTINUOUS
 10
3.112041627680496
 20
2.231233817271911
 30
0.0
 11
4.135959857199554
 21
3.25515204679097
 31
0.0
  0
LINE
  5
1BB1D
  8
0
  6
CONTINUOUS
 10
3.383439163750948
 20
1.829112144262177
 30
0.0
 11
4.40735808681296
 21
2.853031067324189
 31
0.0
  0
LINE
  5
1BB1E
  8
0
  6
CONTINUOUS
 10
3.654836699821399
 20
1.426990471252442
 30
0.0
 11
4.678756316426365
 21
2.450910087857407
 31
0.0
  0
LINE
  5
1BB1F
  8
0
  6
CONTINUOUS
 10
3.926234235891853
 20
1.024868798242709
 30
0.0
 11
4.95015454603977
 21
2.048789108390626
 31
0.0
  0
LINE
  5
1BB20
  8
0
  6
CONTINUOUS
 10
4.197631771962304
 20
0.6227471252329737
 30
0.0
 11
5.221552775653176
 21
1.646668128923846
 31
0.0
  0
LINE
  5
1BB21
  8
0
  6
CONTINUOUS
 10
8.715877546767851
 20
7.835069736359266
 30
0.0
 11
9.435953450375058
 21
8.555145639966472
 31
0.0
  0
LINE
  5
1BB22
  8
0
  6
CONTINUOUS
 10
8.170620868422267
 20
6.616293848933497
 30
0.0
 11
9.644120833743461
 21
8.08979381425469
 31
0.0
  0
LINE
  5
1BB23
  8
0
  6
CONTINUOUS
 10
7.625364190076684
 20
5.397517961507727
 30
0.0
 11
9.852288217111864
 21
7.624441988542907
 31
0.0
  0
LINE
  5
1BB24
  8
0
  6
CONTINUOUS
 10
7.080107511731101
 20
4.178742074081957
 30
0.0
 11
10.06045560048027
 21
7.159090162831124
 31
0.0
  0
LINE
  5
1BB25
  8
0
  6
CONTINUOUS
 10
6.534850833385518
 20
2.959966186656187
 30
0.0
 11
10.26862298384867
 21
6.693738337119342
 31
0.0
  0
LINE
  5
1BB26
  8
0
  6
CONTINUOUS
 10
4.469029308032756
 20
0.2206254522232385
 30
0.0
 11
5.492951005266582
 21
1.244547149457064
 31
0.0
  0
LINE
  5
1BB27
  8
0
  6
CONTINUOUS
 10
5.989594155039935
 20
1.741190299230417
 30
0.0
 11
8.806950407233131
 21
4.558546551423613
 31
0.0
  0
LINE
  5
1BB28
  8
0
  6
CONTINUOUS
 10
9.401251593263643
 20
5.152847737454126
 30
0.0
 11
10.47679036721708
 21
6.228386511407559
 31
0.0
  0
LINE
  5
1BB29
  8
0
  6
CONTINUOUS
 10
4.921837203428691
 20
-0.0000858614610131
 30
0.0
 11
8.592923064886001
 21
3.670999999996297
 31
0.0
  0
LINE
  5
1BB2A
  8
0
  6
CONTINUOUS
 10
9.609390446785305
 20
4.6874673818956
 30
0.0
 11
10.68495775058548
 21
5.763034685695775
 31
0.0
  0
LINE
  5
1BB2B
  8
0
  6
CONTINUOUS
 10
5.595387755019432
 20
-0.0000545189504582
 30
0.0
 11
7.716137258923768
 21
2.120694984953879
 31
0.0
  0
LINE
  5
1BB2C
  8
0
  6
CONTINUOUS
 10
6.268938306610172
 20
-0.000023176439905
 30
0.0
 11
7.170485805526503
 21
0.9015243224764267
 31
0.0
  0
LINE
  5
1BB2D
  8
0
  6
CONTINUOUS
 10
7.963842273967511
 20
2.368399999997621
 30
0.0
 11
9.266442273966188
 21
3.670999999996297
 31
0.0
  0
LINE
  5
1BB2E
  8
0
  6
CONTINUOUS
 10
8.637361483047696
 20
2.368399999997621
 30
0.0
 11
9.939961483046375
 21
3.670999999996297
 31
0.0
  0
LINE
  5
1BB2F
  8
0
  6
CONTINUOUS
 10
9.817529300306965
 20
4.222087026337075
 30
0.0
 11
10.89312513395388
 21
5.297682859983993
 31
0.0
  0
LINE
  5
1BB30
  8
0
  6
CONTINUOUS
 10
10.02566815382863
 20
3.756706670778549
 30
0.0
 11
11.10129251732229
 21
4.832331034272211
 31
0.0
  0
LINE
  5
1BB31
  8
0
  6
CONTINUOUS
 10
9.310880692127883
 20
2.368399999997621
 30
0.0
 11
11.30945990069069
 21
4.366979208560428
 31
0.0
  0
LINE
  5
1BB32
  8
0
  6
CONTINUOUS
 10
9.98439990120807
 20
2.36839999999762
 30
0.0
 11
11.5176272840591
 21
3.901627382848645
 31
0.0
  0
LINE
  5
1BB33
  8
0
  6
CONTINUOUS
 10
10.65037369446246
 20
2.36085458417182
 30
0.0
 11
11.7257946674275
 21
3.436275557136862
 31
0.0
  0
LINE
  5
1BB34
  8
0
  6
CONTINUOUS
 10
10.85847197087848
 20
1.895433651507656
 30
0.0
 11
11.9339620507959
 21
2.97092373142508
 31
0.0
  0
LINE
  5
1BB35
  8
0
  6
CONTINUOUS
 10
11.0665702472945
 20
1.430012718843491
 30
0.0
 11
12.14212943416431
 21
2.505571905713296
 31
0.0
  0
LINE
  5
1BB36
  8
0
  6
CONTINUOUS
 10
11.27466852371052
 20
0.9645917861793256
 30
0.0
 11
12.35029681753271
 21
2.040220080001513
 31
0.0
  0
LINE
  5
1BB37
  8
0
  6
CONTINUOUS
 10
11.48276680012654
 20
0.4991708535151611
 30
0.0
 11
12.55846420090111
 21
1.57486825428973
 31
0.0
  0
LINE
  5
1BB38
  8
0
  6
CONTINUOUS
 10
11.69086507654257
 20
0.0337499208509957
 30
0.0
 11
12.76663158426952
 21
1.109516428577947
 31
0.0
  0
LINE
  5
1BB39
  8
0
  6
CONTINUOUS
 10
12.33057447873954
 20
-0.0000598860322123
 30
0.0
 11
12.97479896763792
 21
0.6441646028661663
 31
0.0
  0
LINE
  5
1BB3A
  8
0
  6
CONTINUOUS
 10
13.00413694809395
 20
-0.0000166257579952
 30
0.0
 11
13.18296635100632
 21
0.1788127771543824
 31
0.0
  0
LINE
  5
1BB3B
  8
0
  6
CONTINUOUS
 10
4.772852165289667
 20
-0.000092794222212
 30
0.0
 11
4.296495091028902
 21
0.4762642800385528
 31
0.0
  0
LINE
  5
1BB3C
  8
0
  6
CONTINUOUS
 10
5.446340034776103
 20
-0.0000614546284616
 30
0.0
 11
2.898195908335625
 21
2.548082671812017
 31
0.0
  0
LINE
  5
1BB3D
  8
0
  6
CONTINUOUS
 10
6.119827904262539
 20
-0.0000301150347113
 30
0.0
 11
1.499896725642348
 21
4.61990106358548
 31
0.0
  0
LINE
  5
1BB3E
  8
0
  6
CONTINUOUS
 10
6.775136745476159
 20
0.0181802528318542
 30
0.0
 11
5.699826040202669
 21
1.093490958105344
 31
0.0
  0
LINE
  5
1BB3F
  8
0
  6
CONTINUOUS
 10
6.983376846288489
 20
0.4834593610997118
 30
0.0
 11
5.908008617934405
 21
1.558827589453796
 31
0.0
  0
LINE
  5
1BB40
  8
0
  6
CONTINUOUS
 10
5.377063484962296
 20
1.416253513345719
 30
0.0
 11
1.702276957014131
 21
5.091040041293883
 31
0.0
  0
LINE
  5
1BB41
  8
0
  6
CONTINUOUS
 10
3.978745891735324
 20
3.488090315652877
 30
0.0
 11
2.000373521109399
 21
5.466462686278803
 31
0.0
  0
LINE
  5
1BB42
  8
0
  6
CONTINUOUS
 10
7.191616947100819
 20
0.948738469367568
 30
0.0
 11
6.11619119566614
 21
2.024164220802247
 31
0.0
  0
LINE
  5
1BB43
  8
0
  6
CONTINUOUS
 10
7.399857047913149
 20
1.414017577635424
 30
0.0
 11
6.324373773397875
 21
2.489500852150698
 31
0.0
  0
LINE
  5
1BB44
  8
0
  6
CONTINUOUS
 10
7.608097148725479
 20
1.879296685903281
 30
0.0
 11
6.53255635112961
 21
2.95483748349915
 31
0.0
  0
LINE
  5
1BB45
  8
0
  6
CONTINUOUS
 10
7.816337249537808
 20
2.344575794171138
 30
0.0
 11
6.740738928861345
 21
3.420174114847601
 31
0.0
  0
LINE
  5
1BB46
  8
0
  6
CONTINUOUS
 10
3.310241080789734
 20
4.830114335678653
 30
0.0
 11
2.298470085204666
 21
5.84188533126372
 31
0.0
  0
LINE
  5
1BB47
  8
0
  6
CONTINUOUS
 10
3.60832983563551
 20
5.205544789913063
 30
0.0
 11
2.596566649299935
 21
6.217307976248638
 31
0.0
  0
LINE
  5
1BB48
  8
0
  6
CONTINUOUS
 10
3.906418590481286
 20
5.580975244147473
 30
0.0
 11
2.894663213395203
 21
6.592730621233557
 31
0.0
  0
LINE
  5
1BB49
  8
0
  6
CONTINUOUS
 10
4.204507345327062
 20
5.956405698381884
 30
0.0
 11
3.192759777490472
 21
6.968153266218474
 31
0.0
  0
LINE
  5
1BB4A
  8
0
  6
CONTINUOUS
 10
8.466032252791512
 20
2.368399999997621
 30
0.0
 11
6.948921506593081
 21
3.885510746196053
 31
0.0
  0
LINE
  5
1BB4B
  8
0
  6
CONTINUOUS
 10
9.139551461871699
 20
2.36839999999762
 30
0.0
 11
7.157104084324816
 21
4.350847377544504
 31
0.0
  0
LINE
  5
1BB4C
  8
0
  6
CONTINUOUS
 10
4.502596100172839
 20
6.331836152616295
 30
0.0
 11
3.49085634158574
 21
7.343575911203393
 31
0.0
  0
LINE
  5
1BB4D
  8
0
  6
CONTINUOUS
 10
4.800684855018615
 20
6.707266606850705
 30
0.0
 11
3.788952905681008
 21
7.718998556188312
 31
0.0
  0
LINE
  5
1BB4E
  8
0
  6
CONTINUOUS
 10
12.18154012887317
 20
-0.0000694579236642
 30
0.0
 11
11.32140332908496
 21
0.8600673418645499
 31
0.0
  0
LINE
  5
1BB4F
  8
0
  6
CONTINUOUS
 10
12.85501608323566
 20
-0.0000262032059659
 30
0.0
 11
10.77672456435345
 21
2.078265315676246
 31
0.0
  0
LINE
  5
1BB50
  8
0
  6
CONTINUOUS
 10
9.813070670951886
 20
2.36839999999762
 30
0.0
 11
8.51047067095321
 21
3.670999999996297
 31
0.0
  0
LINE
  5
1BB51
  8
0
  6
CONTINUOUS
 10
10.48658988003207
 20
2.36839999999762
 30
0.0
 11
9.183989880033396
 21
3.670999999996297
 31
0.0
  0
LINE
  5
1BB52
  8
0
  6
CONTINUOUS
 10
8.441048632286794
 20
3.740422038662712
 30
0.0
 11
7.365286662056551
 21
4.816184008892956
 31
0.0
  0
LINE
  5
1BB53
  8
0
  6
CONTINUOUS
 10
8.649187485808454
 20
4.205802394221237
 30
0.0
 11
7.573469239788285
 21
5.281520640241407
 31
0.0
  0
LINE
  5
1BB54
  8
0
  6
CONTINUOUS
 10
5.098773609864391
 20
7.082697061085115
 30
0.0
 11
4.087049469776277
 21
8.09442120117323
 31
0.0
  0
LINE
  5
1BB55
  8
0
  6
CONTINUOUS
 10
5.396862364710167
 20
7.458127515319526
 30
0.0
 11
4.385146033871544
 21
8.469843846158149
 31
0.0
  0
LINE
  5
1BB56
  8
0
  6
CONTINUOUS
 10
13.04801363231285
 20
0.4804954567970334
 30
0.0
 11
9.85750908911358
 21
3.670999999996297
 31
0.0
  0
LINE
  5
1BB57
  8
0
  6
CONTINUOUS
 10
8.857326339330116
 20
4.671182749779763
 30
0.0
 11
7.781651817520021
 21
5.746857271589858
 31
0.0
  0
LINE
  5
1BB58
  8
0
  6
CONTINUOUS
 10
5.694951119555943
 20
7.833557969553937
 30
0.0
 11
4.765409089118624
 21
8.763099999991255
 31
0.0
  0
LINE
  5
1BB59
  8
0
  6
CONTINUOUS
 10
12.50286117236978
 20
1.699167125820288
 30
0.0
 11
9.68611877250287
 21
4.515909525687196
 31
0.0
  0
LINE
  5
1BB5A
  8
0
  6
CONTINUOUS
 10
9.065465192851777
 20
5.136563105338288
 30
0.0
 11
7.989834395251757
 21
6.21219390293831
 31
0.0
  0
LINE
  5
1BB5B
  8
0
  6
CONTINUOUS
 10
5.993039874401719
 20
8.208988423788346
 30
0.0
 11
5.43892829819881
 21
8.763099999991255
 31
0.0
  0
LINE
  5
1BB5C
  8
0
  6
CONTINUOUS
 10
11.95770871242671
 20
2.917838794843543
 30
0.0
 11
8.19801697298349
 21
6.677530534286761
 31
0.0
  0
LINE
  5
1BB5D
  8
0
  6
CONTINUOUS
 10
6.291128629247495
 20
8.584418878022756
 30
0.0
 11
6.112447507278997
 21
8.763099999991255
 31
0.0
  0
LINE
  5
1BB5E
  8
0
  6
CONTINUOUS
 10
11.41255625248364
 20
4.136510463866797
 30
0.0
 11
8.406199550715227
 21
7.142867165635211
 31
0.0
  0
LINE
  5
1BB5F
  8
0
  6
CONTINUOUS
 10
10.86740379254057
 20
5.355182132890051
 30
0.0
 11
8.614382128446962
 21
7.608203796983664
 31
0.0
  0
LINE
  5
1BB60
  8
0
  6
CONTINUOUS
 10
10.3222513325975
 20
6.573853801913305
 30
0.0
 11
8.822564706178696
 21
8.073540428332114
 31
0.0
  0
LINE
  5
1BB61
  8
0
  6
CONTINUOUS
 10
9.777098872654436
 20
7.792525470936562
 30
0.0
 11
9.030747283910433
 21
8.538877059680566
 31
0.0
  0
ENDBLK
  5
1BCA3
  8
0
  0
BLOCK
  8
0
  2
*X59
 70
     1
 10
0.0
 20
0.0
 30
0.0
  3
*X59
  1

  0
LINE
  5
1BB63
  8
0
  6
CONTINUOUS
 10
10.67292308101235
 20
8.445076852443387
 30
0.0
 11
10.99094622856022
 21
8.763099999991255
 31
0.0
  0
LINE
  5
1BB64
  8
0
  6
CONTINUOUS
 10
10.87250383178748
 20
7.971138394138331
 30
0.0
 11
11.6644654376404
 21
8.763099999991255
 31
0.0
  0
LINE
  5
1BB65
  8
0
  6
CONTINUOUS
 10
11.07208458256261
 20
7.497199935833273
 30
0.0
 11
12.12126590876355
 21
8.546381262034211
 31
0.0
  0
LINE
  5
1BB66
  8
0
  6
CONTINUOUS
 10
11.27166533333774
 20
7.023261477528216
 30
0.0
 11
12.32085164573666
 21
8.072447789927136
 31
0.0
  0
LINE
  5
1BB67
  8
0
  6
CONTINUOUS
 10
11.47124608411287
 20
6.549323019223158
 30
0.0
 11
12.52043738270977
 21
7.59851431782006
 31
0.0
  0
LINE
  5
1BB68
  8
0
  6
CONTINUOUS
 10
11.670826834888
 20
6.075384560918101
 30
0.0
 11
12.72002311968288
 21
7.124580845712984
 31
0.0
  0
LINE
  5
1BB69
  8
0
  6
CONTINUOUS
 10
11.87040758566313
 20
5.601446102613043
 30
0.0
 11
12.91960885665599
 21
6.650647373605907
 31
0.0
  0
LINE
  5
1BB6A
  8
0
  6
CONTINUOUS
 10
12.06998833643825
 20
5.127507644307986
 30
0.0
 11
13.1191945936291
 21
6.176713901498832
 31
0.0
  0
LINE
  5
1BB6B
  8
0
  6
CONTINUOUS
 10
12.26956908721338
 20
4.65356918600293
 30
0.0
 11
13.31878033060221
 21
5.702780429391757
 31
0.0
  0
LINE
  5
1BB6C
  8
0
  6
CONTINUOUS
 10
12.46914983798851
 20
4.179630727697873
 30
0.0
 11
13.51836606757532
 21
5.228846957284683
 31
0.0
  0
LINE
  5
1BB6D
  8
0
  6
CONTINUOUS
 10
12.66873058876364
 20
3.705692269392816
 30
0.0
 11
13.71795180454843
 21
4.754913485177607
 31
0.0
  0
LINE
  5
1BB6E
  8
0
  6
CONTINUOUS
 10
12.86831133953877
 20
3.231753811087759
 30
0.0
 11
13.91753754152154
 21
4.280980013070531
 31
0.0
  0
LINE
  5
1BB6F
  8
0
  6
CONTINUOUS
 10
13.0678920903139
 20
2.757815352782702
 30
0.0
 11
14.11712327849465
 21
3.807046540963456
 31
0.0
  0
LINE
  5
1BB70
  8
0
  6
CONTINUOUS
 10
13.26747284108903
 20
2.283876894477644
 30
0.0
 11
14.31670901546777
 21
3.333113068856379
 31
0.0
  0
LINE
  5
1BB71
  8
0
  6
CONTINUOUS
 10
16.36767838827179
 20
8.751678487061342
 30
0.0
 11
16.50332410898388
 21
8.887324207773432
 31
0.0
  0
LINE
  5
1BB72
  8
0
  6
CONTINUOUS
 10
15.96190732182191
 20
7.67238821153127
 30
0.0
 11
16.68735328004734
 21
8.397834169756699
 31
0.0
  0
LINE
  5
1BB73
  8
0
  6
CONTINUOUS
 10
15.55613625537202
 20
6.593097936001196
 30
0.0
 11
16.87138245111079
 21
7.908344131739965
 31
0.0
  0
LINE
  5
1BB74
  8
0
  6
CONTINUOUS
 10
15.15036518892213
 20
5.513807660471122
 30
0.0
 11
17.05541162217424
 21
7.418854093723231
 31
0.0
  0
LINE
  5
1BB75
  8
0
  6
CONTINUOUS
 10
14.74459412247225
 20
4.434517384941048
 30
0.0
 11
17.2394407932377
 21
6.929364055706499
 31
0.0
  0
LINE
  5
1BB76
  8
0
  6
CONTINUOUS
 10
14.33882305602236
 20
3.355227109410975
 30
0.0
 11
17.42346996430115
 21
6.439874017689766
 31
0.0
  0
LINE
  5
1BB77
  8
0
  6
CONTINUOUS
 10
13.46705359186416
 20
1.809938436172586
 30
0.0
 11
16.0819338255367
 21
4.424818669845129
 31
0.0
  0
LINE
  5
1BB78
  8
0
  6
CONTINUOUS
 10
16.63283254238972
 20
4.975717386698149
 30
0.0
 11
17.60749913536461
 21
5.950383979673033
 31
0.0
  0
LINE
  5
1BB79
  8
0
  6
CONTINUOUS
 10
13.66663434263929
 20
1.335999977867529
 30
0.0
 11
15.67604797733754
 21
3.345413612565779
 31
0.0
  0
LINE
  5
1BB7A
  8
0
  6
CONTINUOUS
 10
13.86621509341442
 20
0.8620615195624723
 30
0.0
 11
15.27016212913838
 21
2.26600855528643
 31
0.0
  0
LINE
  5
1BB7B
  8
0
  6
CONTINUOUS
 10
16.81682257348267
 20
4.486188208710908
 30
0.0
 11
17.79152830642806
 21
5.460893941656299
 31
0.0
  0
LINE
  5
1BB7C
  8
0
  6
CONTINUOUS
 10
17.00081260457561
 20
3.996659030723667
 30
0.0
 11
17.97555747749151
 21
4.971403903639565
 31
0.0
  0
LINE
  5
1BB7D
  8
0
  6
CONTINUOUS
 10
20.74362343514722
 20
8.412989070375462
 30
0.0
 11
21.09373436476302
 21
8.763099999991256
 31
0.0
  0
LINE
  5
1BB7E
  8
0
  6
CONTINUOUS
 10
20.25401257174777
 20
7.249858997895826
 30
0.0
 11
21.7672535738432
 21
8.763099999991255
 31
0.0
  0
LINE
  5
1BB7F
  8
0
  6
CONTINUOUS
 10
14.06579584418955
 20
0.3881230612574149
 30
0.0
 11
14.86427628093921
 21
1.186603498007082
 31
0.0
  0
LINE
  5
1BB80
  8
0
  6
CONTINUOUS
 10
14.26537659496467
 20
-0.0858153970476412
 30
0.0
 11
14.45839043274005
 21
0.1071984407277329
 31
0.0
  0
LINE
  5
1BB81
  8
0
  6
CONTINUOUS
 10
17.18480263566856
 20
3.507129852736426
 30
0.0
 11
18.15958664855496
 21
4.481913865622833
 31
0.0
  0
LINE
  5
1BB82
  8
0
  6
CONTINUOUS
 10
17.3687926667615
 20
3.017600674749186
 30
0.0
 11
18.34361581961842
 21
3.9924238276061
 31
0.0
  0
LINE
  5
1BB83
  8
0
  6
CONTINUOUS
 10
19.76440170834832
 20
6.086728925416191
 30
0.0
 11
22.33924590259489
 21
8.661573119662755
 31
0.0
  0
LINE
  5
1BB84
  8
0
  6
CONTINUOUS
 10
19.27479084494887
 20
4.923598852936555
 30
0.0
 11
21.84929622842713
 21
7.498104236414807
 31
0.0
  0
LINE
  5
1BB85
  8
0
  6
CONTINUOUS
 10
17.55278269785445
 20
2.528071496761945
 30
0.0
 11
18.52764499068187
 21
3.502933789589366
 31
0.0
  0
LINE
  5
1BB86
  8
0
  6
CONTINUOUS
 10
18.78517998154942
 20
3.760468780456919
 30
0.0
 11
21.35934655425936
 21
6.33463535316686
 31
0.0
  0
LINE
  5
1BB87
  8
0
  6
CONTINUOUS
 10
17.73677272894739
 20
2.038542318774704
 30
0.0
 11
20.8693968800916
 21
5.171166469918914
 31
0.0
  0
LINE
  5
1BB88
  8
0
  6
CONTINUOUS
 10
17.92076276004034
 20
1.549013140787464
 30
0.0
 11
20.37944720592384
 21
4.007697586670968
 31
0.0
  0
LINE
  5
1BB89
  8
0
  6
CONTINUOUS
 10
18.10475279113329
 20
1.059483962800223
 30
0.0
 11
19.88949753175608
 21
2.84422870342302
 31
0.0
  0
LINE
  5
1BB8A
  8
0
  6
CONTINUOUS
 10
18.28874282222623
 20
0.5699547848129822
 30
0.0
 11
19.39954785758832
 21
1.680759820175074
 31
0.0
  0
LINE
  5
1BB8B
  8
0
  6
CONTINUOUS
 10
18.47273285331918
 20
0.0804256068257416
 30
0.0
 11
18.90959818342056
 21
0.517290936927127
 31
0.0
  0
LINE
  5
1BB8C
  8
0
  6
CONTINUOUS
 10
14.3590401358224
 20
-0.1570118376323384
 30
0.0
 11
14.24903296539946
 21
-0.0470046672093929
 31
0.0
  0
LINE
  5
1BB8D
  8
0
  6
CONTINUOUS
 10
14.54309291258661
 20
0.332454594683643
 30
0.0
 11
13.75908329123172
 21
1.116464216038529
 31
0.0
  0
LINE
  5
1BB8E
  8
0
  6
CONTINUOUS
 10
14.72714568935081
 20
0.8219210269996244
 30
0.0
 11
13.26913361706399
 21
2.27993309928645
 31
0.0
  0
LINE
  5
1BB8F
  8
0
  6
CONTINUOUS
 10
14.91119846611502
 20
1.311387459315606
 30
0.0
 11
12.77918394289625
 21
3.443401982534371
 31
0.0
  0
LINE
  5
1BB90
  8
0
  6
CONTINUOUS
 10
15.09525124287922
 20
1.800853891631587
 30
0.0
 11
12.28923426872852
 21
4.606870865782293
 31
0.0
  0
LINE
  5
1BB91
  8
0
  6
CONTINUOUS
 10
15.27930401964343
 20
2.290320323947569
 30
0.0
 11
11.79928459456078
 21
5.770339749030213
 31
0.0
  0
LINE
  5
1BB92
  8
0
  6
CONTINUOUS
 10
15.46335679640763
 20
2.77978675626355
 30
0.0
 11
14.48885470994921
 21
3.754288842721972
 31
0.0
  0
LINE
  5
1BB93
  8
0
  6
CONTINUOUS
 10
13.88507249233704
 20
4.358071060334137
 30
0.0
 11
11.30933492039305
 21
6.933808632278135
 31
0.0
  0
LINE
  5
1BB94
  8
0
  6
CONTINUOUS
 10
18.75840522805855
 20
0.1582575336928151
 30
0.0
 11
18.25383727664818
 21
0.6628254851031863
 31
0.0
  0
LINE
  5
1BB95
  8
0
  6
CONTINUOUS
 10
15.64740957317184
 20
3.269253188579531
 30
0.0
 11
14.67288388101266
 21
4.243778880738705
 31
0.0
  0
LINE
  5
1BB96
  8
0
  6
CONTINUOUS
 10
13.39509276772158
 20
5.521569994029786
 30
0.0
 11
10.81938524622531
 21
8.097277515526056
 31
0.0
  0
LINE
  5
1BB97
  8
0
  6
CONTINUOUS
 10
18.95798597883369
 20
0.6321959919978686
 30
0.0
 11
17.84825644852853
 21
1.741925522303024
 31
0.0
  0
LINE
  5
1BB98
  8
0
  6
CONTINUOUS
 10
19.15756672960882
 20
1.106134450302922
 30
0.0
 11
17.44267562040888
 21
2.821025559502861
 31
0.0
  0
LINE
  5
1BB99
  8
0
  6
CONTINUOUS
 10
15.83146234993604
 20
3.758719620895513
 30
0.0
 11
14.85691305207612
 21
4.733268918755439
 31
0.0
  0
LINE
  5
1BB9A
  8
0
  6
CONTINUOUS
 10
16.01551512670025
 20
4.248186053211494
 30
0.0
 11
15.04094222313957
 21
5.222758956772172
 31
0.0
  0
LINE
  5
1BB9B
  8
0
  6
CONTINUOUS
 10
12.90511304310612
 20
6.685068927725435
 30
0.0
 11
10.8270819708403
 21
8.763099999991255
 31
0.0
  0
LINE
  5
1BB9C
  8
0
  6
CONTINUOUS
 10
12.41513331849066
 20
7.848567861421083
 30
0.0
 11
11.50060117992049
 21
8.763099999991255
 31
0.0
  0
LINE
  5
1BB9D
  8
0
  6
CONTINUOUS
 10
19.35714748038395
 20
1.580072908607975
 30
0.0
 11
17.03709479228923
 21
3.900125596702697
 31
0.0
  0
LINE
  5
1BB9E
  8
0
  6
CONTINUOUS
 10
19.55672823115909
 20
2.054011366913028
 30
0.0
 11
16.63151396416958
 21
4.979225633902534
 31
0.0
  0
LINE
  5
1BB9F
  8
0
  6
CONTINUOUS
 10
16.19956790346445
 20
4.737652485527476
 30
0.0
 11
15.22497139420302
 21
5.712248994788904
 31
0.0
  0
LINE
  5
1BBA0
  8
0
  6
CONTINUOUS
 10
16.38362068022866
 20
5.227118917843457
 30
0.0
 11
15.40900056526648
 21
6.201739032805637
 31
0.0
  0
LINE
  5
1BBA1
  8
0
  6
CONTINUOUS
 10
19.75630898193422
 20
2.527949825218081
 30
0.0
 11
18.70774536448286
 21
3.576513442669441
 31
0.0
  0
LINE
  5
1BBA2
  8
0
  6
CONTINUOUS
 10
19.95588973270936
 20
3.001888283523134
 30
0.0
 11
18.90726987211446
 21
4.050508144118028
 31
0.0
  0
LINE
  5
1BBA3
  8
0
  6
CONTINUOUS
 10
20.15547048348449
 20
3.475826741828186
 30
0.0
 11
19.10679437974606
 21
4.524502845566614
 31
0.0
  0
LINE
  5
1BBA4
  8
0
  6
CONTINUOUS
 10
20.35505123425962
 20
3.94976520013324
 30
0.0
 11
19.30631888737766
 21
4.998497547015201
 31
0.0
  0
LINE
  5
1BBA5
  8
0
  6
CONTINUOUS
 10
20.55463198503475
 20
4.423703658438292
 30
0.0
 11
19.50584339500926
 21
5.472492248463787
 31
0.0
  0
LINE
  5
1BBA6
  8
0
  6
CONTINUOUS
 10
18.37481191085755
 20
3.909446896294752
 30
0.0
 11
15.59302973632993
 21
6.691229070822371
 31
0.0
  0
LINE
  5
1BBA7
  8
0
  6
CONTINUOUS
 10
17.96904084440766
 20
4.988737171824825
 30
0.0
 11
15.77705890739338
 21
7.180719108839104
 31
0.0
  0
LINE
  5
1BBA8
  8
0
  6
CONTINUOUS
 10
17.56326977795777
 20
6.068027447354899
 30
0.0
 11
15.96108807845684
 21
7.670209146855838
 31
0.0
  0
LINE
  5
1BBA9
  8
0
  6
CONTINUOUS
 10
17.15749871150789
 20
7.147317722884972
 30
0.0
 11
16.14511724952029
 21
8.15969918487257
 31
0.0
  0
LINE
  5
1BBAA
  8
0
  6
CONTINUOUS
 10
16.751727645058
 20
8.226607998415046
 30
0.0
 11
16.32914642058374
 21
8.649189222889303
 31
0.0
  0
LINE
  5
1BBAB
  8
0
  6
CONTINUOUS
 10
20.75421273580989
 20
4.897642116743345
 30
0.0
 11
19.70536790264086
 21
5.946486949912374
 31
0.0
  0
LINE
  5
1BBAC
  8
0
  6
CONTINUOUS
 10
20.95379348658502
 20
5.371580575048398
 30
0.0
 11
19.90489241027246
 21
6.42048165136096
 31
0.0
  0
LINE
  5
1BBAD
  8
0
  6
CONTINUOUS
 10
21.15337423736015
 20
5.845519033353452
 30
0.0
 11
20.10441691790406
 21
6.894476352809547
 31
0.0
  0
LINE
  5
1BBAE
  8
0
  6
CONTINUOUS
 10
21.35295498813529
 20
6.319457491658505
 30
0.0
 11
20.30394142553566
 21
7.368471054258134
 31
0.0
  0
LINE
  5
1BBAF
  8
0
  6
CONTINUOUS
 10
21.55253573891042
 20
6.793395949963558
 30
0.0
 11
20.50346593316726
 21
7.842465755706721
 31
0.0
  0
LINE
  5
1BBB0
  8
0
  6
CONTINUOUS
 10
21.75211648968556
 20
7.267334408268612
 30
0.0
 11
20.70299044079886
 21
8.316460457155308
 31
0.0
  0
LINE
  5
1BBB1
  8
0
  6
CONTINUOUS
 10
21.95169724046069
 20
7.741272866573663
 30
0.0
 11
20.9298701070431
 21
8.763099999991256
 31
0.0
  0
LINE
  5
1BBB2
  8
0
  6
CONTINUOUS
 10
22.15127799123582
 20
8.215211324878716
 30
0.0
 11
21.60338931612328
 21
8.763099999991256
 31
0.0
  0
LINE
  5
1BBB3
  8
0
  6
CONTINUOUS
 10
22.35085874201096
 20
8.689149783183769
 30
0.0
 11
22.27690852520347
 21
8.763099999991255
 31
0.0
  0
ENDBLK
  5
1BCA5
  8
0
  0
BLOCK
  8
0
  2
*X60
 70
     1
 10
0.0
 20
0.0
 30
0.0
  3
*X60
  1

  0
LINE
  5
1BBB5
  8
0
  6
CONTINUOUS
 10
23.19462913593892
 20
8.169917934846424
 30
0.0
 11
23.70775465517246
 21
8.683043454079957
 31
0.0
  0
LINE
  5
1BBB6
  8
0
  6
CONTINUOUS
 10
22.64923161835078
 20
6.951001208178088
 30
0.0
 11
23.9159364069932
 21
8.217705996820516
 31
0.0
  0
LINE
  5
1BBB7
  8
0
  6
CONTINUOUS
 10
22.10383410076263
 20
5.732084481509751
 30
0.0
 11
24.12411815881395
 21
7.752368539561078
 31
0.0
  0
LINE
  5
1BBB8
  8
0
  6
CONTINUOUS
 10
21.55843658317447
 20
4.513167754841414
 30
0.0
 11
24.3322999106347
 21
7.287031082301639
 31
0.0
  0
LINE
  5
1BBB9
  8
0
  6
CONTINUOUS
 10
21.01303906558632
 20
3.294251028173077
 30
0.0
 11
24.54048166245544
 21
6.821693625042199
 31
0.0
  0
LINE
  5
1BBBA
  8
0
  6
CONTINUOUS
 10
20.46764154799817
 20
2.075334301504738
 30
0.0
 11
23.28571549467848
 21
4.89340824818505
 31
0.0
  0
LINE
  5
1BBBB
  8
0
  6
CONTINUOUS
 10
19.92224403041002
 20
0.8564175748364002
 30
0.0
 11
22.74075865492779
 21
3.674932199354171
 31
0.0
  0
LINE
  5
1BBBC
  8
0
  6
CONTINUOUS
 10
23.67305085490148
 20
5.280743608408048
 30
0.0
 11
24.74866341427619
 21
6.356356167782759
 31
0.0
  0
LINE
  5
1BBBD
  8
0
  6
CONTINUOUS
 10
23.88118970842314
 20
4.815363252849522
 30
0.0
 11
24.95684516609694
 21
5.89101871052332
 31
0.0
  0
LINE
  5
1BBBE
  8
0
  6
CONTINUOUS
 10
19.73925852647308
 20
-0.0000871381807288
 30
0.0
 11
23.4103456646501
 21
3.670999999996297
 31
0.0
  0
LINE
  5
1BBBF
  8
0
  6
CONTINUOUS
 10
24.0893285619448
 20
4.349982897290997
 30
0.0
 11
25.16502691791769
 21
5.42568125326388
 31
0.0
  0
LINE
  5
1BBC0
  8
0
  6
CONTINUOUS
 10
20.41282099582748
 20
-0.0000438779065108
 30
0.0
 11
21.64944178675636
 21
1.236576913022366
 31
0.0
  0
LINE
  5
1BBC1
  8
0
  6
CONTINUOUS
 10
22.78126487373161
 20
2.36839999999762
 30
0.0
 11
24.08386487373029
 21
3.670999999996297
 31
0.0
  0
LINE
  5
1BBC2
  8
0
  6
CONTINUOUS
 10
24.29746741546646
 20
3.884602541732471
 30
0.0
 11
25.37320866973843
 21
4.960343796004441
 31
0.0
  0
LINE
  5
1BBC3
  8
0
  6
CONTINUOUS
 10
21.08638346518189
 20
-0.0000006176322938
 30
0.0
 11
21.10379033335899
 21
0.0174062505448083
 31
0.0
  0
LINE
  5
1BBC4
  8
0
  6
CONTINUOUS
 10
23.4547840828118
 20
2.36839999999762
 30
0.0
 11
25.58139042155918
 21
4.495006338745002
 31
0.0
  0
LINE
  5
1BBC5
  8
0
  6
CONTINUOUS
 10
29.30199999996933
 20
8.215615917155148
 30
0.0
 11
29.84948408280543
 21
8.763099999991255
 31
0.0
  0
LINE
  5
1BBC6
  8
0
  6
CONTINUOUS
 10
24.12830329189199
 20
2.36839999999762
 30
0.0
 11
25.78957217337993
 21
4.029668881485562
 31
0.0
  0
LINE
  5
1BBC7
  8
0
  6
CONTINUOUS
 10
29.30199999996933
 20
7.54209670807496
 30
0.0
 11
30.52300329188562
 21
8.763099999991255
 31
0.0
  0
LINE
  5
1BBC8
  8
0
  6
CONTINUOUS
 10
24.80182250097217
 20
2.36839999999762
 30
0.0
 11
25.99775392520067
 21
3.564331424226122
 31
0.0
  0
LINE
  5
1BBC9
  8
0
  6
CONTINUOUS
 10
29.30199999996933
 20
6.868577498994774
 30
0.0
 11
30.74199999996926
 21
8.308577498994712
 31
0.0
  0
LINE
  5
1BBCA
  8
0
  6
CONTINUOUS
 10
25.13028238392013
 20
2.023340673865392
 30
0.0
 11
26.20593567702142
 21
3.098993966966683
 31
0.0
  0
LINE
  5
1BBCB
  8
0
  6
CONTINUOUS
 10
25.33838066033617
 20
1.557919741201244
 30
0.0
 11
26.41411742884217
 21
2.633656509707244
 31
0.0
  0
LINE
  5
1BBCC
  8
0
  6
CONTINUOUS
 10
25.54647893675221
 20
1.092498808537098
 30
0.0
 11
26.62229918066291
 21
2.168319052447804
 31
0.0
  0
LINE
  5
1BBCD
  8
0
  6
CONTINUOUS
 10
25.75457721316825
 20
0.62707787587295
 30
0.0
 11
26.83048093248366
 21
1.702981595188365
 31
0.0
  0
LINE
  5
1BBCE
  8
0
  6
CONTINUOUS
 10
29.30199999996933
 20
6.195058289914587
 30
0.0
 11
30.74199999996926
 21
7.635058289914522
 31
0.0
  0
LINE
  5
1BBCF
  8
0
  6
CONTINUOUS
 10
29.30199999996933
 20
5.521539080834401
 30
0.0
 11
30.74199999996926
 21
6.961539080834331
 31
0.0
  0
LINE
  5
1BBD0
  8
0
  6
CONTINUOUS
 10
29.30199999996933
 20
4.848019871754214
 30
0.0
 11
30.74199999996925
 21
6.288019871754143
 31
0.0
  0
LINE
  5
1BBD1
  8
0
  6
CONTINUOUS
 10
29.30199999996933
 20
4.174500662674028
 30
0.0
 11
30.74199999996925
 21
5.614500662673953
 31
0.0
  0
LINE
  5
1BBD2
  8
0
  6
CONTINUOUS
 10
25.96267548958429
 20
0.1616569432088024
 30
0.0
 11
27.18411854636669
 21
1.383099999991207
 31
0.0
  0
LINE
  5
1BBD3
  8
0
  6
CONTINUOUS
 10
29.30199999996933
 20
3.500981453593841
 30
0.0
 11
30.74199999996925
 21
4.940981453593762
 31
0.0
  0
LINE
  5
1BBD4
  8
0
  6
CONTINUOUS
 10
26.50763775544691
 20
0.0330999999912356
 30
0.0
 11
27.85763775544689
 21
1.383099999991223
 31
0.0
  0
LINE
  5
1BBD5
  8
0
  6
CONTINUOUS
 10
29.30199999996933
 20
2.827462244513656
 30
0.0
 11
30.74199999996925
 21
4.267462244513574
 31
0.0
  0
LINE
  5
1BBD6
  8
0
  6
CONTINUOUS
 10
27.18115696452709
 20
0.0330999999912356
 30
0.0
 11
28.6224847300034
 21
1.474427765467545
 31
0.0
  0
LINE
  5
1BBD7
  8
0
  6
CONTINUOUS
 10
29.21067223449293
 20
2.062615269957069
 30
0.0
 11
30.74199999996924
 21
3.593943035433383
 31
0.0
  0
LINE
  5
1BBD8
  8
0
  6
CONTINUOUS
 10
27.85467617360728
 20
0.0330999999912356
 30
0.0
 11
30.74199999996924
 21
2.920423826353195
 31
0.0
  0
LINE
  5
1BBD9
  8
0
  6
CONTINUOUS
 10
28.57438609860264
 20
0.0792907159064073
 30
0.0
 11
30.69580928405405
 21
2.200713901357819
 31
0.0
  0
LINE
  5
1BBDA
  8
0
  6
CONTINUOUS
 10
29.49443044814297
 20
0.3258158563665496
 30
0.0
 11
30.44928414359389
 21
1.280669551817477
 31
0.0
  0
LINE
  5
1BBDB
  8
0
  6
CONTINUOUS
 10
19.59027867740337
 20
-0.0000967065718083
 30
0.0
 11
19.55485265190471
 21
0.035329318926844
 31
0.0
  0
LINE
  5
1BBDC
  8
0
  6
CONTINUOUS
 10
20.26375463176586
 20
-0.0000534518541091
 30
0.0
 11
19.76305575737534
 21
0.5006454225364014
 31
0.0
  0
LINE
  5
1BBDD
  8
0
  6
CONTINUOUS
 10
20.93723058612834
 20
-0.0000101971364099
 30
0.0
 11
19.97125886284597
 21
0.965961526145958
 31
0.0
  0
LINE
  5
1BBDE
  8
0
  6
CONTINUOUS
 10
21.25514828313686
 20
0.355591314935257
 30
0.0
 11
20.1794619683166
 21
1.431277629755512
 31
0.0
  0
LINE
  5
1BBDF
  8
0
  6
CONTINUOUS
 10
21.46338838394921
 20
0.8208704232030986
 30
0.0
 11
20.38766507378723
 21
1.896593733365069
 31
0.0
  0
LINE
  5
1BBE0
  8
0
  6
CONTINUOUS
 10
21.67162848476155
 20
1.28614953147094
 30
0.0
 11
20.59586817925786
 21
2.361909836974626
 31
0.0
  0
LINE
  5
1BBE1
  8
0
  6
CONTINUOUS
 10
21.8798685855739
 20
1.751428639738782
 30
0.0
 11
20.80407128472849
 21
2.827225940584183
 31
0.0
  0
LINE
  5
1BBE2
  8
0
  6
CONTINUOUS
 10
22.08810868638624
 20
2.216707748006623
 30
0.0
 11
21.01227439019912
 21
3.292542044193739
 31
0.0
  0
LINE
  5
1BBE3
  8
0
  6
CONTINUOUS
 10
22.60993564347543
 20
2.36839999999762
 30
0.0
 11
21.22047749566975
 21
3.757858147803296
 31
0.0
  0
LINE
  5
1BBE4
  8
0
  6
CONTINUOUS
 10
23.28345485255561
 20
2.36839999999762
 30
0.0
 11
21.42868060114038
 21
4.223174251412853
 31
0.0
  0
LINE
  5
1BBE5
  8
0
  6
CONTINUOUS
 10
26.29227406164219
 20
0.0330999999912356
 30
0.0
 11
25.80009199592872
 21
0.5252820657046957
 31
0.0
  0
LINE
  5
1BBE6
  8
0
  6
CONTINUOUS
 10
23.9569740616358
 20
2.36839999999762
 30
0.0
 11
21.63688370661101
 21
4.688490355022409
 31
0.0
  0
LINE
  5
1BBE7
  8
0
  6
CONTINUOUS
 10
26.96579327072237
 20
0.0330999999912356
 30
0.0
 11
25.2554132311971
 21
1.743480039516508
 31
0.0
  0
LINE
  5
1BBE8
  8
0
  6
CONTINUOUS
 10
24.63049327071599
 20
2.36839999999762
 30
0.0
 11
23.32789327071731
 21
3.670999999996297
 31
0.0
  0
LINE
  5
1BBE9
  8
0
  6
CONTINUOUS
 10
22.92098674744635
 20
4.077906523267254
 30
0.0
 11
21.84508681208164
 21
5.153806458631966
 31
0.0
  0
LINE
  5
1BBEA
  8
0
  6
CONTINUOUS
 10
27.63931247980256
 20
0.0330999999912356
 30
0.0
 11
24.0014124797975
 21
3.670999999996297
 31
0.0
  0
LINE
  5
1BBEB
  8
0
  6
CONTINUOUS
 10
23.129125600968
 20
4.5432868788258
 30
0.0
 11
22.05328991755227
 21
5.619122562241522
 31
0.0
  0
LINE
  5
1BBEC
  8
0
  6
CONTINUOUS
 10
28.31283168888275
 20
0.0330999999912356
 30
0.0
 11
24.16488385994816
 21
4.181047828925828
 31
0.0
  0
LINE
  5
1BBED
  8
0
  6
CONTINUOUS
 10
23.33726445448964
 20
5.008667234384345
 30
0.0
 11
22.2614930230229
 21
6.084438665851079
 31
0.0
  0
LINE
  5
1BBEE
  8
0
  6
CONTINUOUS
 10
28.86286302309502
 20
0.1565878748591523
 30
0.0
 11
27.63635089796295
 21
1.383099999991217
 31
0.0
  0
LINE
  5
1BBEF
  8
0
  6
CONTINUOUS
 10
26.43704649509776
 20
2.582404402856405
 30
0.0
 11
23.61992702019732
 21
5.399523877756844
 31
0.0
  0
LINE
  5
1BBF0
  8
0
  6
CONTINUOUS
 10
23.54540330801128
 20
5.47404758994289
 30
0.0
 11
22.46969612849353
 21
6.549754769460635
 31
0.0
  0
LINE
  5
1BBF1
  8
0
  6
CONTINUOUS
 10
29.39405087596853
 20
0.2989192310658284
 30
0.0
 11
28.30987010704312
 21
1.383099999991234
 31
0.0
  0
LINE
  5
1BBF2
  8
0
  6
CONTINUOUS
 10
25.89179548232307
 20
3.801174624711282
 30
0.0
 11
22.67789923396416
 21
7.015070873070191
 31
0.0
  0
LINE
  5
1BBF3
  8
0
  6
CONTINUOUS
 10
29.79594438047407
 20
0.570544935640473
 30
0.0
 11
28.81310432793121
 21
1.553384988183336
 31
0.0
  0
LINE
  5
1BBF4
  8
0
  6
CONTINUOUS
 10
25.34654446954838
 20
5.01994484656616
 30
0.0
 11
22.88610233943479
 21
7.480386976679748
 31
0.0
  0
LINE
  5
1BBF5
  8
0
  6
CONTINUOUS
 10
30.13270398501416
 20
0.9073045401805646
 30
0.0
 11
29.14234640337737
 21
1.897662121817355
 31
0.0
  0
LINE
  5
1BBF6
  8
0
  6
CONTINUOUS
 10
24.80129345677369
 20
6.238715068421037
 30
0.0
 11
23.09430544490542
 21
7.945703080289305
 31
0.0
  0
LINE
  5
1BBF7
  8
0
  6
CONTINUOUS
 10
30.44581292956759
 20
1.26771480470732
 30
0.0
 11
29.30199999996933
 21
2.411527734305588
 31
0.0
  0
LINE
  5
1BBF8
  8
0
  6
CONTINUOUS
 10
30.58814428577427
 20
1.798902657580827
 30
0.0
 11
29.30199999996933
 21
3.085046943385775
 31
0.0
  0
LINE
  5
1BBF9
  8
0
  6
CONTINUOUS
 10
24.256042443999
 20
7.457485290275915
 30
0.0
 11
23.30250855037605
 21
8.411019183898862
 31
0.0
  0
LINE
  5
1BBFA
  8
0
  6
CONTINUOUS
 10
23.71079143122431
 20
8.676255512130794
 30
0.0
 11
23.51071165584668
 21
8.876335287508418
 31
0.0
  0
LINE
  5
1BBFB
  8
0
  6
CONTINUOUS
 10
30.73047564198095
 20
2.330090510454333
 30
0.0
 11
29.30199999996933
 21
3.758566152465961
 31
0.0
  0
LINE
  5
1BBFC
  8
0
  6
CONTINUOUS
 10
30.74199999996924
 20
2.992085361546236
 30
0.0
 11
29.30199999996933
 21
4.432085361546148
 31
0.0
  0
LINE
  5
1BBFD
  8
0
  6
CONTINUOUS
 10
30.74199999996924
 20
3.665604570626419
 30
0.0
 11
29.30199999996933
 21
5.105604570626333
 31
0.0
  0
LINE
  5
1BBFE
  8
0
  6
CONTINUOUS
 10
30.74199999996925
 20
4.339123779706602
 30
0.0
 11
29.30199999996933
 21
5.77912377970652
 31
0.0
  0
LINE
  5
1BBFF
  8
0
  6
CONTINUOUS
 10
30.74199999996925
 20
5.012642988786785
 30
0.0
 11
29.30199999996933
 21
6.452642988786707
 31
0.0
  0
LINE
  5
1BC00
  8
0
  6
CONTINUOUS
 10
30.74199999996925
 20
5.68616219786697
 30
0.0
 11
29.30199999996933
 21
7.126162197866894
 31
0.0
  0
LINE
  5
1BC01
  8
0
  6
CONTINUOUS
 10
30.74199999996925
 20
6.359681406947153
 30
0.0
 11
29.30199999996933
 21
7.799681406947081
 31
0.0
  0
LINE
  5
1BC02
  8
0
  6
CONTINUOUS
 10
30.74199999996926
 20
7.033200616027337
 30
0.0
 11
29.30199999996933
 21
8.473200616027269
 31
0.0
  0
LINE
  5
1BC03
  8
0
  6
CONTINUOUS
 10
30.74199999996926
 20
7.706719825107518
 30
0.0
 11
29.68561982508552
 21
8.763099999991255
 31
0.0
  0
LINE
  5
1BC04
  8
0
  6
CONTINUOUS
 10
30.74199999996926
 20
8.380239034187703
 30
0.0
 11
30.35913903416571
 21
8.763099999991255
 31
0.0
  0
ENDBLK
  5
1BCA7
  8
0
  0
BLOCK
  8
0
  2
*X61
 70
     1
 10
0.0
 20
0.0
 30
0.0
  3
*X61
  1

  0
LINE
  5
1BC06
  8
0
  6
CONTINUOUS
 10
31.64199999996833
 20
8.5350582899136
 30
0.0
 11
31.87004171004599
 21
8.763099999991255
 31
0.0
  0
LINE
  5
1BC07
  8
0
  6
CONTINUOUS
 10
31.64199999996833
 20
7.861539080833413
 30
0.0
 11
32.54356091912618
 21
8.763099999991255
 31
0.0
  0
LINE
  5
1BC08
  8
0
  6
CONTINUOUS
 10
31.64199999996833
 20
7.188019871753227
 30
0.0
 11
33.08199999996839
 21
8.628019871753281
 31
0.0
  0
LINE
  5
1BC09
  8
0
  6
CONTINUOUS
 10
31.64199999996833
 20
6.514500662673041
 30
0.0
 11
33.08199999996839
 21
7.954500662673095
 31
0.0
  0
LINE
  5
1BC0A
  8
0
  6
CONTINUOUS
 10
31.64199999996833
 20
5.840981453592855
 30
0.0
 11
33.08199999996839
 21
7.28098145359291
 31
0.0
  0
LINE
  5
1BC0B
  8
0
  6
CONTINUOUS
 10
31.64199999996833
 20
5.167462244512668
 30
0.0
 11
33.08199999996839
 21
6.607462244512723
 31
0.0
  0
LINE
  5
1BC0C
  8
0
  6
CONTINUOUS
 10
31.64199999996833
 20
4.493943035432482
 30
0.0
 11
33.08199999996839
 21
5.933943035432536
 31
0.0
  0
LINE
  5
1BC0D
  8
0
  6
CONTINUOUS
 10
31.64199999996833
 20
3.820423826352294
 30
0.0
 11
33.08199999996839
 21
5.260423826352349
 31
0.0
  0
LINE
  5
1BC0E
  8
0
  6
CONTINUOUS
 10
31.64199999996833
 20
3.146904617272108
 30
0.0
 11
33.08199999996839
 21
4.586904617272163
 31
0.0
  0
LINE
  5
1BC0F
  8
0
  6
CONTINUOUS
 10
36.23199999996837
 20
8.410423826352327
 30
0.0
 11
36.58467617360729
 21
8.763099999991255
 31
0.0
  0
LINE
  5
1BC10
  8
0
  6
CONTINUOUS
 10
36.23199999996837
 20
7.73690461727214
 30
0.0
 11
37.25819538268748
 21
8.763099999991255
 31
0.0
  0
LINE
  5
1BC11
  8
0
  6
CONTINUOUS
 10
31.64323424774199
 20
2.474619655965573
 30
0.0
 11
33.08199999996839
 21
3.913385408191976
 31
0.0
  0
LINE
  5
1BC12
  8
0
  6
CONTINUOUS
 10
31.74419223861915
 20
1.902058437762552
 30
0.0
 11
33.08199999996839
 21
3.239866199111789
 31
0.0
  0
LINE
  5
1BC13
  8
0
  6
CONTINUOUS
 10
36.23199999996837
 20
7.063385408191953
 30
0.0
 11
37.67199999996831
 21
8.503385408191894
 31
0.0
  0
LINE
  5
1BC14
  8
0
  6
CONTINUOUS
 10
36.23199999996837
 20
6.389866199111767
 30
0.0
 11
37.67199999996831
 21
7.829866199111708
 31
0.0
  0
LINE
  5
1BC15
  8
0
  6
CONTINUOUS
 10
31.91111233414976
 20
1.39545932421297
 30
0.0
 11
33.08199999996839
 21
2.566346990031603
 31
0.0
  0
LINE
  5
1BC16
  8
0
  6
CONTINUOUS
 10
36.23199999996837
 20
5.71634699003158
 30
0.0
 11
37.67199999996831
 21
7.156346990031522
 31
0.0
  0
LINE
  5
1BC17
  8
0
  6
CONTINUOUS
 10
32.1576374746103
 20
0.9684652555933289
 30
0.0
 11
33.20642631446081
 21
2.017254095443838
 31
0.0
  0
LINE
  5
1BC18
  8
0
  6
CONTINUOUS
 10
36.23199999996837
 20
5.042827780951393
 30
0.0
 11
37.67199999996831
 21
6.482827780951334
 31
0.0
  0
LINE
  5
1BC19
  8
0
  6
CONTINUOUS
 10
32.47774023927325
 20
0.6150488111760914
 30
0.0
 11
33.49903056428258
 21
1.636339136185419
 31
0.0
  0
LINE
  5
1BC1A
  8
0
  6
CONTINUOUS
 10
36.23199999996837
 20
4.369308571871207
 30
0.0
 11
37.67199999996831
 21
5.809308571871148
 31
0.0
  0
LINE
  5
1BC1B
  8
0
  6
CONTINUOUS
 10
32.84396249154443
 20
0.3077518543670883
 30
0.0
 11
33.93324121824649
 21
1.397030581069146
 31
0.0
  0
LINE
  5
1BC1C
  8
0
  6
CONTINUOUS
 10
36.23199999996837
 20
3.695789362791021
 30
0.0
 11
37.67199999996831
 21
5.135789362790963
 31
0.0
  0
LINE
  5
1BC1D
  8
0
  6
CONTINUOUS
 10
33.30186329036846
 20
0.0921334441109263
 30
0.0
 11
34.46442907112041
 21
1.254699224862875
 31
0.0
  0
LINE
  5
1BC1E
  8
0
  6
CONTINUOUS
 10
36.23199999996837
 20
3.022270153710834
 30
0.0
 11
37.67199999996831
 21
4.462270153710776
 31
0.0
  0
LINE
  5
1BC1F
  8
0
  6
CONTINUOUS
 10
33.79565647746294
 20
-0.0875925778747773
 30
0.0
 11
35.24350171668284
 21
1.360252661345124
 31
0.0
  0
LINE
  5
1BC20
  8
0
  6
CONTINUOUS
 10
36.18336676155003
 20
2.300117706212308
 30
0.0
 11
37.67199999996831
 21
3.788750944630589
 31
0.0
  0
LINE
  5
1BC21
  8
0
  6
CONTINUOUS
 10
34.37182574910968
 20
-0.184942515308224
 30
0.0
 11
37.67199999996831
 21
3.115231735550402
 31
0.0
  0
LINE
  5
1BC22
  8
0
  6
CONTINUOUS
 10
35.0453449581892
 20
-0.1849425153088955
 30
0.0
 11
37.66345697088136
 21
2.433169497383271
 31
0.0
  0
LINE
  5
1BC23
  8
0
  6
CONTINUOUS
 10
35.98667157609191
 20
0.0828648935136398
 30
0.0
 11
37.51927401744566
 21
1.615467334867382
 31
0.0
  0
LINE
  5
1BC24
  8
0
  6
CONTINUOUS
 10
32.27747408544484
 20
0.7830920669904482
 30
0.0
 11
32.24716210471949
 21
0.8134040477157893
 31
0.0
  0
LINE
  5
1BC25
  8
0
  6
CONTINUOUS
 10
33.83656881101902
 20
-0.1024834495035494
 30
0.0
 11
31.72538911593758
 21
2.008696245577891
 31
0.0
  0
LINE
  5
1BC26
  8
0
  6
CONTINUOUS
 10
34.5925470859041
 20
-0.1849425153084434
 30
0.0
 11
31.64199999996833
 21
2.765604570627322
 31
0.0
  0
LINE
  5
1BC27
  8
0
  6
CONTINUOUS
 10
35.26201302775981
 20
-0.1808892480839752
 30
0.0
 11
31.64199999996833
 21
3.439123779707508
 31
0.0
  0
LINE
  5
1BC28
  8
0
  6
CONTINUOUS
 10
35.75580621485512
 20
-0.0011632260990879
 30
0.0
 11
34.51294304365551
 21
1.241699945100514
 31
0.0
  0
LINE
  5
1BC29
  8
0
  6
CONTINUOUS
 10
33.08199999996839
 20
2.672642988787641
 30
0.0
 11
31.64199999996833
 21
4.112642988787695
 31
0.0
  0
LINE
  5
1BC2A
  8
0
  6
CONTINUOUS
 10
36.24959940195042
 20
0.1785627958857976
 30
0.0
 11
35.10501653033629
 21
1.323145667499924
 31
0.0
  0
LINE
  5
1BC2B
  8
0
  6
CONTINUOUS
 10
33.08199999996839
 20
3.346162197867827
 30
0.0
 11
31.64199999996833
 21
4.786162197867881
 31
0.0
  0
LINE
  5
1BC2C
  8
0
  6
CONTINUOUS
 10
36.64615197150552
 20
0.4555294354108876
 30
0.0
 11
35.6362043832099
 21
1.465477023706505
 31
0.0
  0
LINE
  5
1BC2D
  8
0
  6
CONTINUOUS
 10
33.08199999996839
 20
4.019681406948013
 30
0.0
 11
31.64199999996833
 21
5.459681406948068
 31
0.0
  0
LINE
  5
1BC2E
  8
0
  6
CONTINUOUS
 10
37.0123742237774
 20
0.7628263922191891
 30
0.0
 11
35.97691545773309
 21
1.798285158263504
 31
0.0
  0
LINE
  5
1BC2F
  8
0
  6
CONTINUOUS
 10
33.08199999996839
 20
4.6932006160282
 30
0.0
 11
31.64199999996833
 21
6.133200616028255
 31
0.0
  0
LINE
  5
1BC30
  8
0
  6
CONTINUOUS
 10
37.27491524157143
 20
1.173804583505349
 30
0.0
 11
36.17602012811361
 21
2.272699696963169
 31
0.0
  0
LINE
  5
1BC31
  8
0
  6
CONTINUOUS
 10
33.08199999996839
 20
5.366719825108387
 30
0.0
 11
31.64199999996833
 21
6.806719825108441
 31
0.0
  0
LINE
  5
1BC32
  8
0
  6
CONTINUOUS
 10
37.51739996707661
 20
1.604839067080355
 30
0.0
 11
36.23199999996837
 21
2.890239034188595
 31
0.0
  0
LINE
  5
1BC33
  8
0
  6
CONTINUOUS
 10
37.6183579579535
 20
2.177400285283649
 30
0.0
 11
36.23199999996837
 21
3.563758243268782
 31
0.0
  0
LINE
  5
1BC34
  8
0
  6
CONTINUOUS
 10
33.08199999996839
 20
6.040239034188573
 30
0.0
 11
31.64199999996833
 21
7.480239034188628
 31
0.0
  0
LINE
  5
1BC35
  8
0
  6
CONTINUOUS
 10
33.08199999996839
 20
6.713758243268759
 30
0.0
 11
31.64199999996833
 21
8.153758243268815
 31
0.0
  0
LINE
  5
1BC36
  8
0
  6
CONTINUOUS
 10
37.67199999996831
 20
2.797277452349027
 30
0.0
 11
36.23199999996837
 21
4.237277452348969
 31
0.0
  0
LINE
  5
1BC37
  8
0
  6
CONTINUOUS
 10
37.67199999996831
 20
3.470796661429214
 30
0.0
 11
36.23199999996837
 21
4.910796661429155
 31
0.0
  0
LINE
  5
1BC38
  8
0
  6
CONTINUOUS
 10
37.67199999996831
 20
4.1443158705094
 30
0.0
 11
36.23199999996837
 21
5.584315870509341
 31
0.0
  0
LINE
  5
1BC39
  8
0
  6
CONTINUOUS
 10
33.08199999996839
 20
7.387277452348946
 30
0.0
 11
31.70617745232608
 21
8.763099999991255
 31
0.0
  0
LINE
  5
1BC3A
  8
0
  6
CONTINUOUS
 10
33.08199999996839
 20
8.060796661429134
 30
0.0
 11
32.37969666140626
 21
8.763099999991255
 31
0.0
  0
LINE
  5
1BC3B
  8
0
  6
CONTINUOUS
 10
33.08199999996839
 20
8.734315870509318
 30
0.0
 11
33.05321587048645
 21
8.763099999991255
 31
0.0
  0
LINE
  5
1BC3C
  8
0
  6
CONTINUOUS
 10
37.67199999996831
 20
4.817835079589586
 30
0.0
 11
36.23199999996837
 21
6.257835079589528
 31
0.0
  0
LINE
  5
1BC3D
  8
0
  6
CONTINUOUS
 10
37.67199999996831
 20
5.491354288669772
 30
0.0
 11
36.23199999996837
 21
6.931354288669715
 31
0.0
  0
LINE
  5
1BC3E
  8
0
  6
CONTINUOUS
 10
37.67199999996831
 20
6.164873497749959
 30
0.0
 11
36.23199999996837
 21
7.6048734977499
 31
0.0
  0
LINE
  5
1BC3F
  8
0
  6
CONTINUOUS
 10
37.67199999996831
 20
6.838392706830145
 30
0.0
 11
36.23199999996837
 21
8.278392706830086
 31
0.0
  0
LINE
  5
1BC40
  8
0
  6
CONTINUOUS
 10
37.67199999996831
 20
7.511911915910333
 30
0.0
 11
36.42081191588738
 21
8.763099999991255
 31
0.0
  0
LINE
  5
1BC41
  8
0
  6
CONTINUOUS
 10
37.67199999996831
 20
8.185431124990519
 30
0.0
 11
37.09433112496757
 21
8.763099999991255
 31
0.0
  0
ENDBLK
  5
1BCA9
  8
0
  0
BLOCK
  8
0
  2
*X62
 70
     1
 10
0.0
 20
0.0
 30
0.0
  3
*X62
  1

  0
LINE
  5
1BC43
  8
0
  6
CONTINUOUS
 10
38.60499999996136
 20
8.762866199104765
 30
0.0
 11
38.71672554182345
 21
8.874591740966855
 31
0.0
  0
LINE
  5
1BC44
  8
0
  6
CONTINUOUS
 10
38.60499999996136
 20
8.089346990024577
 30
0.0
 11
39.03418785440363
 21
8.518534844466847
 31
0.0
  0
LINE
  5
1BC45
  8
0
  6
CONTINUOUS
 10
38.60499999996136
 20
7.41582778094439
 30
0.0
 11
39.35165016698382
 21
8.16247794796684
 31
0.0
  0
LINE
  5
1BC46
  8
0
  6
CONTINUOUS
 10
38.60499999996136
 20
6.742308571864204
 30
0.0
 11
39.66911247956399
 21
7.806421051466834
 31
0.0
  0
LINE
  5
1BC47
  8
0
  6
CONTINUOUS
 10
38.60499999996136
 20
6.068789362784018
 30
0.0
 11
39.98657479214418
 21
7.450364154966827
 31
0.0
  0
LINE
  5
1BC48
  8
0
  6
CONTINUOUS
 10
38.60499999996136
 20
5.395270153703832
 30
0.0
 11
40.30403710472435
 21
7.09430725846682
 31
0.0
  0
LINE
  5
1BC49
  8
0
  6
CONTINUOUS
 10
38.60499999996136
 20
4.721750944623645
 30
0.0
 11
40.62149941730453
 21
6.738250361966813
 31
0.0
  0
LINE
  5
1BC4A
  8
0
  6
CONTINUOUS
 10
38.60499999996136
 20
4.048231735543458
 30
0.0
 11
40.93896172988471
 21
6.382193465466806
 31
0.0
  0
LINE
  5
1BC4B
  8
0
  6
CONTINUOUS
 10
38.60499999996136
 20
3.374712526463272
 30
0.0
 11
40.02599999995994
 21
4.795712526461843
 31
0.0
  0
LINE
  5
1BC4C
  8
0
  6
CONTINUOUS
 10
38.60499999996136
 20
2.701193317383085
 30
0.0
 11
40.02599999995994
 21
4.122193317381657
 31
0.0
  0
LINE
  5
1BC4D
  8
0
  6
CONTINUOUS
 10
40.28339754687704
 20
5.053110073378947
 30
0.0
 11
41.25642404246489
 21
6.026136568966799
 31
0.0
  0
LINE
  5
1BC4E
  8
0
  6
CONTINUOUS
 10
40.60085985945722
 20
4.697053176878939
 30
0.0
 11
41.57388635504507
 21
5.670079672466793
 31
0.0
  0
LINE
  5
1BC4F
  8
0
  6
CONTINUOUS
 10
43.57899999995641
 20
8.348712526458318
 30
0.0
 11
43.99338747348935
 21
8.763099999991255
 31
0.0
  0
LINE
  5
1BC50
  8
0
  6
CONTINUOUS
 10
43.57899999995641
 20
7.675193317378131
 30
0.0
 11
44.66690668256953
 21
8.763099999991255
 31
0.0
  0
LINE
  5
1BC51
  8
0
  6
CONTINUOUS
 10
38.60499999996136
 20
2.027674108302898
 30
0.0
 11
40.02599999995994
 21
3.44867410830147
 31
0.0
  0
LINE
  5
1BC52
  8
0
  6
CONTINUOUS
 10
38.60499999996136
 20
1.354154899222712
 30
0.0
 11
40.02599999995994
 21
2.775154899221284
 31
0.0
  0
LINE
  5
1BC53
  8
0
  6
CONTINUOUS
 10
38.60499999996136
 20
0.6806356901425255
 30
0.0
 11
40.02599999995994
 21
2.101635690141098
 31
0.0
  0
LINE
  5
1BC54
  8
0
  6
CONTINUOUS
 10
38.60499999996136
 20
0.0071164810623383
 30
0.0
 11
40.02599999995994
 21
1.428116481060911
 31
0.0
  0
LINE
  5
1BC55
  8
0
  6
CONTINUOUS
 10
40.9183221720374
 20
4.340996280378933
 30
0.0
 11
41.89134866762525
 21
5.314022775966786
 31
0.0
  0
LINE
  5
1BC56
  8
0
  6
CONTINUOUS
 10
41.23578448461758
 20
3.984939383878926
 30
0.0
 11
42.20881098020543
 21
4.957965879466778
 31
0.0
  0
LINE
  5
1BC57
  8
0
  6
CONTINUOUS
 10
41.55324679719776
 20
3.628882487378919
 30
0.0
 11
42.52627329278561
 21
4.601908982966772
 31
0.0
  0
LINE
  5
1BC58
  8
0
  6
CONTINUOUS
 10
41.87070910977793
 20
3.272825590878912
 30
0.0
 11
42.84373560536579
 21
4.245852086466765
 31
0.0
  0
LINE
  5
1BC59
  8
0
  6
CONTINUOUS
 10
43.57899999995641
 20
7.001674108297943
 30
0.0
 11
44.99999999995498
 21
8.422674108296516
 31
0.0
  0
LINE
  5
1BC5A
  8
0
  6
CONTINUOUS
 10
43.57899999995641
 20
6.328154899217758
 30
0.0
 11
44.99999999995498
 21
7.749154899216329
 31
0.0
  0
LINE
  5
1BC5B
  8
0
  6
CONTINUOUS
 10
43.57899999995641
 20
5.654635690137571
 30
0.0
 11
44.99999999995498
 21
7.075635690136142
 31
0.0
  0
LINE
  5
1BC5C
  8
0
  6
CONTINUOUS
 10
43.57899999995641
 20
4.981116481057384
 30
0.0
 11
44.99999999995498
 21
6.402116481055955
 31
0.0
  0
LINE
  5
1BC5D
  8
0
  6
CONTINUOUS
 10
39.27140272797921
 20
-0.0000000000000009
 30
0.0
 11
40.02599999995994
 21
0.7545972719807246
 31
0.0
  0
LINE
  5
1BC5E
  8
0
  6
CONTINUOUS
 10
39.9449219370594
 20
-0.0000000000000009
 30
0.0
 11
40.02599999995994
 21
0.0810780629005379
 31
0.0
  0
LINE
  5
1BC5F
  8
0
  6
CONTINUOUS
 10
42.18817142235812
 20
2.916768694378905
 30
0.0
 11
43.16119791794597
 21
3.889795189966758
 31
0.0
  0
LINE
  5
1BC60
  8
0
  6
CONTINUOUS
 10
42.50563373493829
 20
2.560711797878898
 30
0.0
 11
43.47866023052615
 21
3.533738293466751
 31
0.0
  0
LINE
  5
1BC61
  8
0
  6
CONTINUOUS
 10
43.57899999995641
 20
4.307597271977198
 30
0.0
 11
44.99999999995498
 21
5.728597271975769
 31
0.0
  0
LINE
  5
1BC62
  8
0
  6
CONTINUOUS
 10
43.57899999995641
 20
3.634078062897011
 30
0.0
 11
44.99999999995498
 21
5.055078062895582
 31
0.0
  0
LINE
  5
1BC63
  8
0
  6
CONTINUOUS
 10
42.82309604751848
 20
2.204654901378891
 30
0.0
 11
44.99999999995498
 21
4.381558853815395
 31
0.0
  0
LINE
  5
1BC64
  8
0
  6
CONTINUOUS
 10
43.14055836009865
 20
1.848598004878885
 30
0.0
 11
44.99999999995498
 21
3.70803964473521
 31
0.0
  0
LINE
  5
1BC65
  8
0
  6
CONTINUOUS
 10
43.45802067267883
 20
1.492541108378878
 30
0.0
 11
44.99999999995498
 21
3.034520435655023
 31
0.0
  0
LINE
  5
1BC66
  8
0
  6
CONTINUOUS
 10
43.77548298525902
 20
1.136484211878871
 30
0.0
 11
44.99999999995498
 21
2.361001226574837
 31
0.0
  0
LINE
  5
1BC67
  8
0
  6
CONTINUOUS
 10
44.09294529783919
 20
0.7804273153788639
 30
0.0
 11
44.99999999995498
 21
1.687482017494649
 31
0.0
  0
LINE
  5
1BC68
  8
0
  6
CONTINUOUS
 10
44.41040761041938
 20
0.4243704188788566
 30
0.0
 11
44.99999999995498
 21
1.013962808414463
 31
0.0
  0
LINE
  5
1BC69
  8
0
  6
CONTINUOUS
 10
44.72786992299955
 20
0.0683135223788494
 30
0.0
 11
44.99999999995498
 21
0.340443599334276
 31
0.0
  0
LINE
  5
1BC6A
  8
0
  6
CONTINUOUS
 10
39.12223903415696
 20
-0.0000000000000009
 30
0.0
 11
38.60499999996136
 21
0.5172390341955961
 31
0.0
  0
LINE
  5
1BC6B
  8
0
  6
CONTINUOUS
 10
39.79575824323715
 20
-0.0000000000000009
 30
0.0
 11
38.60499999996136
 21
1.190758243275783
 31
0.0
  0
LINE
  5
1BC6C
  8
0
  6
CONTINUOUS
 10
40.02599999995994
 20
0.443277452357397
 30
0.0
 11
38.60499999996136
 21
1.864277452355969
 31
0.0
  0
LINE
  5
1BC6D
  8
0
  6
CONTINUOUS
 10
40.02599999995994
 20
1.116796661437583
 30
0.0
 11
38.60499999996136
 21
2.537796661436155
 31
0.0
  0
LINE
  5
1BC6E
  8
0
  6
CONTINUOUS
 10
40.02599999995994
 20
1.79031587051777
 30
0.0
 11
38.60499999996136
 21
3.211315870516341
 31
0.0
  0
LINE
  5
1BC6F
  8
0
  6
CONTINUOUS
 10
40.02599999995994
 20
2.463835079597956
 30
0.0
 11
38.60499999996136
 21
3.884835079596527
 31
0.0
  0
LINE
  5
1BC70
  8
0
  6
CONTINUOUS
 10
40.02599999995994
 20
3.137354288678143
 30
0.0
 11
38.60499999996136
 21
4.558354288676714
 31
0.0
  0
LINE
  5
1BC71
  8
0
  6
CONTINUOUS
 10
40.02599999995994
 20
3.810873497758329
 30
0.0
 11
38.60499999996136
 21
5.2318734977569
 31
0.0
  0
LINE
  5
1BC72
  8
0
  6
CONTINUOUS
 10
40.02599999995994
 20
4.484392706838515
 30
0.0
 11
38.60499999996136
 21
5.905392706837086
 31
0.0
  0
LINE
  5
1BC73
  8
0
  6
CONTINUOUS
 10
44.99999999995498
 20
0.183911915923658
 30
0.0
 11
41.53858364506288
 21
3.64532827081576
 31
0.0
  0
LINE
  5
1BC74
  8
0
  6
CONTINUOUS
 10
40.02599999995994
 20
5.157911915918703
 30
0.0
 11
38.60499999996136
 21
6.578911915917274
 31
0.0
  0
LINE
  5
1BC75
  8
0
  6
CONTINUOUS
 10
44.99999999995498
 20
0.8574311250038447
 30
0.0
 11
38.60499999996136
 21
7.25243112499746
 31
0.0
  0
LINE
  5
1BC76
  8
0
  6
CONTINUOUS
 10
44.99999999995498
 20
1.530950334084031
 30
0.0
 11
38.60499999996136
 21
7.925950334077647
 31
0.0
  0
LINE
  5
1BC77
  8
0
  6
CONTINUOUS
 10
44.99999999995498
 20
2.204469543164218
 30
0.0
 11
43.57899999995641
 21
3.625469543162789
 31
0.0
  0
LINE
  5
1BC78
  8
0
  6
CONTINUOUS
 10
41.89876730984767
 20
5.305702233271528
 30
0.0
 11
38.60499999996136
 21
8.599469543157834
 31
0.0
  0
LINE
  5
1BC79
  8
0
  6
CONTINUOUS
 10
44.99999999995498
 20
2.877988752244405
 30
0.0
 11
43.57899999995641
 21
4.298988752242975
 31
0.0
  0
LINE
  5
1BC7A
  8
0
  6
CONTINUOUS
 10
44.99999999995498
 20
3.551507961324591
 30
0.0
 11
43.57899999995641
 21
4.972507961323163
 31
0.0
  0
LINE
  5
1BC7B
  8
0
  6
CONTINUOUS
 10
44.99999999995498
 20
4.225027170404777
 30
0.0
 11
43.57899999995641
 21
5.646027170403348
 31
0.0
  0
LINE
  5
1BC7C
  8
0
  6
CONTINUOUS
 10
44.99999999995498
 20
4.898546379484964
 30
0.0
 11
43.57899999995641
 21
6.319546379483535
 31
0.0
  0
LINE
  5
1BC7D
  8
0
  6
CONTINUOUS
 10
44.99999999995498
 20
5.572065588565151
 30
0.0
 11
43.57899999995641
 21
6.993065588563722
 31
0.0
  0
LINE
  5
1BC7E
  8
0
  6
CONTINUOUS
 10
44.99999999995498
 20
6.245584797645336
 30
0.0
 11
43.57899999995641
 21
7.666584797643908
 31
0.0
  0
LINE
  5
1BC7F
  8
0
  6
CONTINUOUS
 10
44.99999999995498
 20
6.919104006725522
 30
0.0
 11
43.57899999995641
 21
8.340104006724093
 31
0.0
  0
LINE
  5
1BC80
  8
0
  6
CONTINUOUS
 10
44.99999999995498
 20
7.592623215805709
 30
0.0
 11
43.82952321576943
 21
8.763099999991255
 31
0.0
  0
LINE
  5
1BC81
  8
0
  6
CONTINUOUS
 10
44.99999999995498
 20
8.266142424885896
 30
0.0
 11
44.50304242484962
 21
8.763099999991255
 31
0.0
  0
ENDBLK
  5
1BCAB
  8
0
  0
BLOCK
  8
0
  2
*X63
 70
     1
 10
0.0
 20
0.0
 30
0.0
  3
*X63
  1

  0
LINE
  5
1BC83
  8
0
  6
CONTINUOUS
 10
0.0
 20
8.548461116714023
 30
0.0
 11
0.2146388832772324
 21
8.763099999991255
 31
0.0
  0
LINE
  5
1BC84
  8
0
  6
CONTINUOUS
 10
-0.0000000000000002
 20
7.874941907633837
 30
0.0
 11
0.8881580923574184
 21
8.763099999991255
 31
0.0
  0
LINE
  5
1BC85
  8
0
  6
CONTINUOUS
 10
0.0
 20
7.20142269855365
 30
0.0
 11
1.420999999998572
 21
8.622422698552223
 31
0.0
  0
LINE
  5
1BC86
  8
0
  6
CONTINUOUS
 10
-0.0000000000000001
 20
6.527903489473465
 30
0.0
 11
1.420999999998571
 21
7.948903489472036
 31
0.0
  0
LINE
  5
1BC87
  8
0
  6
CONTINUOUS
 10
-0.0000000000000002
 20
5.854384280393278
 30
0.0
 11
1.420999999998571
 21
7.275384280391849
 31
0.0
  0
LINE
  5
1BC88
  8
0
  6
CONTINUOUS
 10
-0.0000000000000002
 20
5.180865071313091
 30
0.0
 11
1.420999999998571
 21
6.601865071311663
 31
0.0
  0
LINE
  5
1BC89
  8
0
  6
CONTINUOUS
 10
0.0
 20
4.507345862232905
 30
0.0
 11
1.420999999998571
 21
5.928345862231477
 31
0.0
  0
LINE
  5
1BC8A
  8
0
  6
CONTINUOUS
 10
-0.0000000000000003
 20
3.833826653152718
 30
0.0
 11
1.420999999998571
 21
5.25482665315129
 31
0.0
  0
LINE
  5
1BC8B
  8
0
  6
CONTINUOUS
 10
-0.0000000000000002
 20
3.160307444072532
 30
0.0
 11
1.420999999998571
 21
4.581307444071103
 31
0.0
  0
LINE
  5
1BC8C
  8
0
  6
CONTINUOUS
 10
-0.0000000000000001
 20
2.486788234992345
 30
0.0
 11
1.420999999998571
 21
3.907788234990917
 31
0.0
  0
LINE
  5
1BC8D
  8
0
  6
CONTINUOUS
 10
-0.0000000000000006
 20
1.813269025912159
 30
0.0
 11
1.420999999998571
 21
3.234269025910731
 31
0.0
  0
LINE
  5
1BC8E
  8
0
  6
CONTINUOUS
 10
0.0
 20
1.139749816831973
 30
0.0
 11
1.420999999998571
 21
2.560749816830544
 31
0.0
  0
LINE
  5
1BC8F
  8
0
  6
CONTINUOUS
 10
0.0000000000000002
 20
0.466230607751787
 30
0.0
 11
1.420999999998571
 21
1.887230607750358
 31
0.0
  0
LINE
  5
1BC90
  8
0
  6
CONTINUOUS
 10
0.2072886013284003
 20
-0.0000000000000009
 30
0.0
 11
1.420999999998571
 21
1.213711398670171
 31
0.0
  0
LINE
  5
1BC91
  8
0
  6
CONTINUOUS
 10
0.8808078104085864
 20
-0.0000000000000009
 30
0.0
 11
1.420999999998571
 21
0.5401921895899839
 31
0.0
  0
LINE
  5
1BC92
  8
0
  6
CONTINUOUS
 10
0.0581249075061505
 20
-0.0000000000000009
 30
0.0
 11
-0.0000000000000002
 21
0.0581249075061496
 31
0.0
  0
LINE
  5
1BC93
  8
0
  6
CONTINUOUS
 10
0.7316441165863372
 20
-0.0000000000000009
 30
0.0
 11
-0.0000000000000002
 21
0.7316441165863363
 31
0.0
  0
LINE
  5
1BC94
  8
0
  6
CONTINUOUS
 10
1.405163325666523
 20
-0.0000000000000009
 30
0.0
 11
-0.0000000000000002
 21
1.405163325666523
 31
0.0
  0
LINE
  5
1BC95
  8
0
  6
CONTINUOUS
 10
1.420999999998572
 20
0.6576825347481381
 30
0.0
 11
-0.0000000000000001
 21
2.07868253474671
 31
0.0
  0
LINE
  5
1BC96
  8
0
  6
CONTINUOUS
 10
1.420999999998571
 20
1.331201743828324
 30
0.0
 11
-0.0000000000000001
 21
2.752201743826896
 31
0.0
  0
LINE
  5
1BC97
  8
0
  6
CONTINUOUS
 10
1.420999999998571
 20
2.004720952908511
 30
0.0
 11
-0.0000000000000002
 21
3.425720952907082
 31
0.0
  0
LINE
  5
1BC98
  8
0
  6
CONTINUOUS
 10
1.420999999998571
 20
2.678240161988697
 30
0.0
 11
-0.0000000000000001
 21
4.099240161987269
 31
0.0
  0
LINE
  5
1BC99
  8
0
  6
CONTINUOUS
 10
1.420999999998572
 20
3.351759371068884
 30
0.0
 11
0.0
 21
4.772759371067455
 31
0.0
  0
LINE
  5
1BC9A
  8
0
  6
CONTINUOUS
 10
1.420999999998571
 20
4.02527858014907
 30
0.0
 11
-0.0000000000000003
 21
5.446278580147642
 31
0.0
  0
LINE
  5
1BC9B
  8
0
  6
CONTINUOUS
 10
1.420999999998571
 20
4.698797789229257
 30
0.0
 11
0.0
 21
6.119797789227828
 31
0.0
  0
LINE
  5
1BC9C
  8
0
  6
CONTINUOUS
 10
1.420999999998571
 20
5.372316998309444
 30
0.0
 11
-0.0000000000000001
 21
6.793316998308015
 31
0.0
  0
LINE
  5
1BC9D
  8
0
  6
CONTINUOUS
 10
1.420999999998572
 20
6.045836207389629
 30
0.0
 11
-0.0000000000000004
 21
7.466836207388202
 31
0.0
  0
LINE
  5
1BC9E
  8
0
  6
CONTINUOUS
 10
1.420999999998571
 20
6.719355416469816
 30
0.0
 11
0.0
 21
8.140355416468388
 31
0.0
  0
LINE
  5
1BC9F
  8
0
  6
CONTINUOUS
 10
1.420999999998571
 20
7.392874625550003
 30
0.0
 11
0.0507746255573185
 21
8.763099999991255
 31
0.0
  0
LINE
  5
1BCA0
  8
0
  6
CONTINUOUS
 10
1.420999999998571
 20
8.06639383463019
 30
0.0
 11
0.7242938346375052
 21
8.763099999991255
 31
0.0
  0
LINE
  5
1BCA1
  8
0
  6
CONTINUOUS
 10
1.420999999998571
 20
8.739913043710375
 30
0.0
 11
1.397813043717691
 21
8.763099999991255
 31
0.0
  0
ENDBLK
  5
1BCAD
  8
0
  0
ENDSEC
  0
SECTION
  2
ENTITIES
  0
LINE
  5
1AB3E
  8
01
 10
2449.927067366877
 20
-459.7984707314106
 30
0.0000000001127424
 11
2475.927067366877
 21
-459.7984707314106
 31
0.0000000001127424
  0
LINE
  5
1AB3F
  8
01
 10
2485.427067366877
 20
-454.2984707314106
 30
0.0000000001127424
 11
2440.427067366877
 21
-454.2984707314106
 31
0.0000000001127424
  0
LINE
  5
1AB40
  8
01
 10
2462.927067366877
 20
-431.7984707314106
 30
0.0000000001127424
 11
2462.927067366877
 21
-476.7984707314106
 31
0.0000000001127424
  0
LINE
  5
1AB41
  8
01
 10
2780.426963027135
 20
-454.2984707314106
 30
0.0000000001127424
 11
2825.426963027135
 21
-454.2984707314106
 31
0.0000000001127424
  0
LINE
  5
1AB42
  8
01
 10
2802.926963027135
 20
-431.7984707314106
 30
0.0000000001127424
 11
2802.926963027135
 21
-476.7984707314106
 31
0.0000000001127424
  0
LINE
  5
1AB43
  8
01
 10
2800.427071432973
 20
-198.8445875806613
 30
0.0000000000564898
 11
2800.427071432973
 21
-211.3446105248643
 31
0.0000000000564898
  0
LINE
  5
1AB44
  8
01
 10
2805.427071432973
 20
-198.8445875806594
 30
0.0000000000564898
 11
2805.427071432973
 21
-211.3446105248661
 31
0.0000000000564898
  0
LINE
  5
1AB45
  8
01
 10
2612.927071366878
 20
-434.2984707314124
 30
0.0000000001127424
 11
2612.927071366875
 21
-474.2984707314129
 31
0.0000000001127424
  0
LINE
  5
1AB46
  8
01
 10
2612.927071366878
 20
-474.2984707314129
 30
0.0000000001127424
 11
2607.127071366879
 21
-474.2984707314124
 31
0.0000000001127424
  0
ARC
  5
1AB47
  8
01
 10
2607.127071366879
 20
-473.7984707314124
 30
0.0000000001127424
 40
0.5
 50
180.0
 51
270.0
  0
LINE
  5
1AB48
  8
01
 10
2612.927071366878
 20
-434.2984707314124
 30
0.0000000001127424
 11
2607.127071366879
 21
-434.2984707314133
 31
0.0000000001127424
  0
ARC
  5
1AB49
  8
01
 10
2607.127071366879
 20
-434.7984707314133
 30
0.0000000001127424
 40
0.5
 50
90.0
 51
180.0
  0
LINE
  5
1AB4A
  8
01
 10
2611.427071366878
 20
-474.2984707314197
 30
0.0000000001127424
 11
2612.927071366878
 21
-474.2984707314197
 31
0.0000000001127424
  0
LINE
  5
1AB4C
  8
01
 10
2802.926955027132
 20
-254.7984707314104
 30
0.0000000001127424
 11
2802.926955027132
 21
-281.2984707314104
 31
0.0000000001127424
  0
LINE
  5
1AB4D
  8
01
 10
2802.926955027132
 20
-224.7984707334676
 30
0.0000000001127424
 11
2802.926955027132
 21
-195.5071976418271
 31
0.0000000001127424
  0
LINE
  5
1AB50
  8
01
 10
2782.927070978315
 20
-259.7984707324392
 30
0.0000000001127424
 11
2822.927070978315
 21
-259.7984707324385
 31
0.0000000001127424
  0
LINE
  5
1AB51
  8
01
 10
2822.427070978315
 20
-266.098470732439
 30
0.0000000001127424
 11
2783.427070978315
 21
-266.0984707324394
 31
0.0000000001127424
  0
CIRCLE
  5
1AB52
  8
01
 10
2802.926983788553
 20
-454.2984944920988
 30
0.0000000001128561
 40
19.99999999999963
  0
LINE
  5
1AB53
  8
01
 10
2782.927070978315
 20
-259.7984707324392
 30
0.0000000001127424
 11
2782.927070978315
 21
-265.5984707324394
 31
0.0000000001127424
  0
ARC
  5
1AB54
  8
01
 10
2783.427070978315
 20
-265.598470732439
 30
0.0000000001127424
 40
0.5
 50
180.0
 51
270.0
  0
CIRCLE
  5
1AB55
  8
01
 10
2802.926984111012
 20
-459.7984942879707
 30
0.0000000001128561
 40
3.75
  0
CIRCLE
  5
1AB56
  8
01
 10
2802.926984111012
 20
-459.7984944920986
 30
0.0000000001128561
 40
3.5000005
  0
LINE
  5
1AB57
  8
01
 10
2801.926984111012
 20
-463.1525972920986
 30
0.0000000001128561
 11
2801.926984111012
 21
-456.4443904920986
 31
0.0000000001128561
  0
LINE
  5
1AB58
  8
01
 10
2803.926984111012
 20
-463.1525972920986
 30
0.0000000001128561
 11
2803.926984111012
 21
-456.4443904920986
 31
0.0000000001128561
  0
ARC
  5
1AB59
  8
01
 10
2802.927061436169
 20
-261.9484761103142
 30
0.0000000001126288
 40
6.0
 50
234.3146660000189
 51
256.8165180000145
  0
LINE
  5
1AB5A
  8
01
 10
2799.427061436169
 20
-266.8218761103144
 30
0.0000000001126288
 11
2799.427061436169
 21
-266.0984707324392
 31
0.0000000001126288
  0
LINE
  5
1AB5B
  8
01
 10
2806.427061436169
 20
-266.8218761103144
 30
0.0000000001126288
 11
2806.427061436169
 21
-266.0984707324392
 31
0.0000000001126288
  0
LINE
  5
1AB5C
  8
01
 10
2803.927061436169
 20
-267.4990245697168
 30
0.0000000001126288
 11
2803.927061436169
 21
-266.0984707324392
 31
0.0000000001126288
  0
ARC
  5
1AB5D
  8
01
 10
2801.627058436169
 20
-267.4982461103143
 30
0.0000000001126288
 40
0.30000001
 50
256.8165180001219
 51
0.0
  0
ARC
  5
1AB5E
  8
01
 10
2804.227060436169
 20
-267.4982461103143
 30
0.0000000001126288
 40
0.30000001
 50
179.9999969999697
 51
283.1834799999676
  0
LINE
  5
1AB5F
  8
01
 10
2801.927061436169
 20
-267.4982461103143
 30
0.0000000001126288
 11
2801.927061436169
 21
-266.0984707324392
 31
0.0000000001126288
  0
ARC
  5
1AB60
  8
01
 10
2802.927061436169
 20
-261.9484761103142
 30
0.0000000001126288
 40
6.0
 50
283.1834825033476
 51
305.6853299999988
  0
LINE
  5
1AB61
  8
01
 10
2822.927070978315
 20
-259.7984707324385
 30
0.0000000001127424
 11
2822.927070978315
 21
-265.598470732439
 31
0.0000000001127424
  0
ARC
  5
1AB62
  8
01
 10
2822.427070978315
 20
-265.598470732439
 30
0.0000000001127424
 40
0.5
 50
270.0
 51
0.0
  0
LINE
  5
1AB63
  8
01
 10
2652.927071366878
 20
-434.2984707314106
 30
0.0000000001127427
 11
2652.927071366874
 21
-474.2984707314106
 31
0.0000000001127427
  0
LINE
  5
1AB65
  8
01
 10
2449.927067366877
 20
-459.7984707314106
 30
0.0000000001127424
 11
2475.927067366877
 21
-459.7984707314106
 31
0.0000000001127424
  0
LINE
  5
1AB66
  8
01
 10
2485.427067366877
 20
-454.2984707314106
 30
0.0000000001127424
 11
2440.427067366877
 21
-454.2984707314106
 31
0.0000000001127424
  0
LINE
  5
1AB67
  8
01
 10
2462.927067366877
 20
-431.7984707314106
 30
0.0000000001127424
 11
2462.927067366877
 21
-476.7984707314106
 31
0.0000000001127424
  0
LINE
  5
1AB69
  8
01
 10
2802.926955027132
 20
-224.7984707334681
 30
0.0000000001127424
 11
2802.926955027132
 21
-195.1701467306102
 31
0.0000000001127424
  0
LINE
  5
1AB6B
  8
01
 10
2606.627071366879
 20
-473.7984707314106
 30
0.0000000001127427
 11
2606.627071366879
 21
-434.798470731411
 31
0.0000000001127427
  0
CIRCLE
  5
1AB6C
  8
01
 10
2462.927067366875
 20
-454.2984707314106
 30
0.0000000001127424
 40
20.00000000000007
  0
ARC
  5
1AB6D
  8
01
 10
2464.927067366877
 20
-450.7672747973165
 30
0.0000000001127424
 40
0.5000000000000013
 50
0.0
 51
77.51311018581228
  0
ARC
  5
1AB6E
  8
01
 10
2460.927067366877
 20
-468.8296666655049
 30
0.0000000001127424
 40
0.5000000000000029
 50
180.0
 51
257.5131101858123
  0
ARC
  5
1AB6F
  8
01
 10
2464.927067366877
 20
-468.8296666655049
 30
0.0000000001127424
 40
0.5000000000000013
 50
282.4868898141877
 51
0.0
  0
ARC
  5
1AB70
  8
01
 10
2462.927067366877
 20
-459.7984707314106
 30
0.0000000001127424
 40
9.749999999999995
 50
77.51311018586458
 51
102.4868898141354
  0
ARC
  5
1AB71
  8
01
 10
2460.927067366877
 20
-450.7672747973165
 30
0.0000000001127424
 40
0.5000000000000029
 50
102.4868898141877
 51
180.0
  0
ARC
  5
1AB72
  8
01
 10
2462.927067366877
 20
-459.7984707314106
 30
0.0000000001127424
 40
9.75
 50
257.5131101858646
 51
282.4868898141354
  0
LINE
  5
1AB73
  8
01
 10
2465.427067366877
 20
-450.7672747973165
 30
0.0000000001127424
 11
2465.427067366877
 21
-468.8296666655049
 31
0.0000000001127424
  0
LINE
  5
1AB74
  8
01
 10
2460.427067366877
 20
-468.8296666655049
 30
0.0000000001127424
 11
2460.427067366877
 21
-450.7672747973165
 31
0.0000000001127424
  0
POLYLINE
  5
1AB75
  8
01
 66
     1
 10
0.0
 20
0.0
 30
0.0000000001127424
  0
VERTEX
  5
1B5EF
  8
01
 10
2466.616256556066
 20
-468.8235681340079
 30
0.0000000001127424
  0
VERTEX
  5
1B5F0
  8
01
 10
2466.593961666319
 20
-468.8326490883689
 30
0.0000000001127424
  0
VERTEX
  5
1B5F1
  8
01
 10
2466.571676878111
 20
-468.8416611792038
 30
0.0000000001127424
  0
VERTEX
  5
1B5F2
  8
01
 10
2466.549403954709
 20
-468.850604168346
 30
0.0000000001127424
  0
VERTEX
  5
1B5F3
  8
01
 10
2466.527144659379
 20
-468.8594778176285
 30
0.0000000001127424
  0
VERTEX
  5
1B5F4
  8
01
 10
2466.504900755388
 20
-468.8682818888846
 30
0.0000000001127424
  0
VERTEX
  5
1B5F5
  8
01
 10
2466.482674006
 20
-468.8770161439475
 30
0.0000000001127424
  0
VERTEX
  5
1B5F6
  8
01
 10
2466.460466174483
 20
-468.8856803446503
 30
0.0000000001127424
  0
VERTEX
  5
1B5F7
  8
01
 10
2466.438279024102
 20
-468.8942742528262
 30
0.0000000001127424
  0
VERTEX
  5
1B5F8
  8
01
 10
2466.416114318123
 20
-468.9027976303084
 30
0.0000000001127424
  0
VERTEX
  5
1B5F9
  8
01
 10
2466.393973819812
 20
-468.9112502389302
 30
0.0000000001127424
  0
VERTEX
  5
1B5FA
  8
01
 10
2466.371859292435
 20
-468.9196318405246
 30
0.0000000001127424
  0
VERTEX
  5
1B5FB
  8
01
 10
2466.349772499258
 20
-468.9279421969249
 30
0.0000000001127424
  0
VERTEX
  5
1B5FC
  8
01
 10
2466.327715203548
 20
-468.9361810699643
 30
0.0000000001127424
  0
VERTEX
  5
1B5FD
  8
01
 10
2466.305689168569
 20
-468.9443482214759
 30
0.0000000001127424
  0
VERTEX
  5
1B5FE
  8
01
 10
2466.283696157589
 20
-468.9524434132929
 30
0.0000000001127424
  0
VERTEX
  5
1B5FF
  8
01
 10
2466.261737933872
 20
-468.9604664072485
 30
0.0000000001127424
  0
VERTEX
  5
1B600
  8
01
 10
2466.239816260686
 20
-468.968416965176
 30
0.0000000001127424
  0
VERTEX
  5
1B601
  8
01
 10
2466.217932901296
 20
-468.9762948489085
 30
0.0000000001127424
  0
VERTEX
  5
1B602
  8
01
 10
2466.196089618968
 20
-468.9840998202791
 30
0.0000000001127424
  0
VERTEX
  5
1B603
  8
01
 10
2466.174288176968
 20
-468.9918316411211
 30
0.0000000001127424
  0
VERTEX
  5
1B604
  8
01
 10
2466.152530338562
 20
-468.9994900732676
 30
0.0000000001127424
  0
VERTEX
  5
1B605
  8
01
 10
2466.130817867017
 20
-469.0070748785519
 30
0.0000000001127424
  0
VERTEX
  5
1B606
  8
01
 10
2466.109152525597
 20
-469.0145858188071
 30
0.0000000001127424
  0
VERTEX
  5
1B607
  8
01
 10
2466.08753607757
 20
-469.0220226558664
 30
0.0000000001127424
  0
VERTEX
  5
1B608
  8
01
 10
2466.065970286201
 20
-469.029385151563
 30
0.0000000001127424
  0
VERTEX
  5
1B609
  8
01
 10
2466.044456914756
 20
-469.03667306773
 30
0.0000000001127424
  0
VERTEX
  5
1B60A
  8
01
 10
2466.023034627599
 20
-469.0438743081715
 30
0.0000000001127424
  0
VERTEX
  5
1B60B
  8
01
 10
2466.00174134908
 20
-469.0509775183088
 30
0.0000000001127424
  0
VERTEX
  5
1B60C
  8
01
 10
2465.980577732436
 20
-469.057983572401
 30
0.0000000001127424
  0
VERTEX
  5
1B60D
  8
01
 10
2465.959544430912
 20
-469.0648933447076
 30
0.0000000001127424
  0
VERTEX
  5
1B60E
  8
01
 10
2465.938642097745
 20
-469.0717077094874
 30
0.0000000001127424
  0
VERTEX
  5
1B60F
  8
01
 10
2465.917871386177
 20
-469.078427541
 30
0.0000000001127424
  0
VERTEX
  5
1B610
  8
01
 10
2465.89723294945
 20
-469.0850537135044
 30
0.0000000001127424
  0
VERTEX
  5
1B611
  8
01
 10
2465.876727440802
 20
-469.0915871012598
 30
0.0000000001127424
  0
VERTEX
  5
1B612
  8
01
 10
2465.856355513477
 20
-469.0980285785256
 30
0.0000000001127424
  0
VERTEX
  5
1B613
  8
01
 10
2465.836117820712
 20
-469.1043790195608
 30
0.0000000001127424
  0
VERTEX
  5
1B614
  8
01
 10
2465.816015015751
 20
-469.1106392986248
 30
0.0000000001127424
  0
VERTEX
  5
1B615
  8
01
 10
2465.796047751832
 20
-469.1168102899768
 30
0.0000000001127424
  0
VERTEX
  5
1B616
  8
01
 10
2465.776216682199
 20
-469.1228928678759
 30
0.0000000001127424
  0
VERTEX
  5
1B617
  8
01
 10
2465.756508775924
 20
-469.1288915320022
 30
0.0000000001127424
  0
VERTEX
  5
1B618
  8
01
 10
2465.736917710248
 20
-469.1348089300407
 30
0.0000000001127424
  0
VERTEX
  5
1B619
  8
01
 10
2465.717454200652
 20
-469.1406431582577
 30
0.0000000001127424
  0
VERTEX
  5
1B61A
  8
01
 10
2465.698128962621
 20
-469.1463923129197
 30
0.0000000001127424
  0
VERTEX
  5
1B61B
  8
01
 10
2465.678952711635
 20
-469.1520544902934
 30
0.0000000001127424
  0
VERTEX
  5
1B61C
  8
01
 10
2465.65993616318
 20
-469.1576277866449
 30
0.0000000001127424
  0
VERTEX
  5
1B61D
  8
01
 10
2465.641090032738
 20
-469.1631102982408
 30
0.0000000001127424
  0
VERTEX
  5
1B61E
  8
01
 10
2465.622425035792
 20
-469.1685001213476
 30
0.0000000001127424
  0
VERTEX
  5
1B61F
  8
01
 10
2465.603951887825
 20
-469.1737953522317
 30
0.0000000001127424
  0
VERTEX
  5
1B620
  8
01
 10
2465.585681304321
 20
-469.1789940871595
 30
0.0000000001127424
  0
VERTEX
  5
1B621
  8
01
 10
2465.567624000762
 20
-469.1840944223976
 30
0.0000000001127424
  0
VERTEX
  5
1B622
  8
01
 10
2465.549790692632
 20
-469.1890944542124
 30
0.0000000001127424
  0
VERTEX
  5
1B623
  8
01
 10
2465.532192095412
 20
-469.1939922788702
 30
0.0000000001127424
  0
VERTEX
  5
1B624
  8
01
 10
2465.514840032003
 20
-469.1987864016749
 30
0.0000000001127424
  0
VERTEX
  5
1B625
  8
01
 10
2465.497739951029
 20
-469.2034773463663
 30
0.0000000001127424
  0
VERTEX
  5
1B626
  8
01
 10
2465.480893006572
 20
-469.2080662368646
 30
0.0000000001127424
  0
VERTEX
  5
1B627
  8
01
 10
2465.464300352709
 20
-469.2125541970901
 30
0.0000000001127424
  0
VERTEX
  5
1B628
  8
01
 10
2465.447963143517
 20
-469.2169423509629
 30
0.0000000001127424
  0
VERTEX
  5
1B629
  8
01
 10
2465.431882533077
 20
-469.2212318224034
 30
0.0000000001127424
  0
VERTEX
  5
1B62A
  8
01
 10
2465.416059675466
 20
-469.2254237353318
 30
0.0000000001127424
  0
VERTEX
  5
1B62B
  8
01
 10
2465.400495724762
 20
-469.2295192136684
 30
0.0000000001127424
  0
VERTEX
  5
1B62C
  8
01
 10
2465.385191835045
 20
-469.2335193813335
 30
0.0000000001127424
  0
VERTEX
  5
1B62D
  8
01
 10
2465.370149160392
 20
-469.2374253622472
 30
0.0000000001127424
  0
VERTEX
  5
1B62E
  8
01
 10
2465.355368854882
 20
-469.2412382803299
 30
0.0000000001127424
  0
VERTEX
  5
1B62F
  8
01
 10
2465.340852072594
 20
-469.2449592595019
 30
0.0000000001127424
  0
VERTEX
  5
1B630
  8
01
 10
2465.326599967606
 20
-469.2485894236833
 30
0.0000000001127424
  0
VERTEX
  5
1B631
  8
01
 10
2465.312612486125
 20
-469.2521299487811
 30
0.0000000001127424
  0
VERTEX
  5
1B632
  8
01
 10
2465.298894955887
 20
-469.2555806379153
 30
0.0000000001127424
  0
VERTEX
  5
1B633
  8
01
 10
2465.285456603266
 20
-469.2589405558253
 30
0.0000000001127424
  0
VERTEX
  5
1B634
  8
01
 10
2465.272306654635
 20
-469.2622087672507
 30
0.0000000001127424
  0
VERTEX
  5
1B635
  8
01
 10
2465.259454336368
 20
-469.265384336931
 30
0.0000000001127424
  0
VERTEX
  5
1B636
  8
01
 10
2465.246908874838
 20
-469.2684663296056
 30
0.0000000001127424
  0
VERTEX
  5
1B637
  8
01
 10
2465.234679496418
 20
-469.2714538100142
 30
0.0000000001127424
  0
VERTEX
  5
1B638
  8
01
 10
2465.222775427481
 20
-469.2743458428961
 30
0.0000000001127424
  0
VERTEX
  5
1B639
  8
01
 10
2465.211205894402
 20
-469.2771414929911
 30
0.0000000001127424
  0
VERTEX
  5
1B63A
  8
01
 10
2465.199980123552
 20
-469.2798398250385
 30
0.0000000001127424
  0
VERTEX
  5
1B63B
  8
01
 10
2465.189107341305
 20
-469.2824399037779
 30
0.0000000001127424
  0
VERTEX
  5
1B63C
  8
01
 10
2465.178596774036
 20
-469.2849407939487
 30
0.0000000001127424
  0
VERTEX
  5
1B63D
  8
01
 10
2465.168457648116
 20
-469.2873415602906
 30
0.0000000001127424
  0
VERTEX
  5
1B63E
  8
01
 10
2465.158681686339
 20
-469.2896465055677
 30
0.0000000001127424
  0
VERTEX
  5
1B63F
  8
01
 10
2465.149256248422
 20
-469.2918605821077
 30
0.0000000001127424
  0
VERTEX
  5
1B640
  8
01
 10
2465.140184016126
 20
-469.2939838289956
 30
0.0000000001127424
  0
VERTEX
  5
1B641
  8
01
 10
2465.131467671212
 20
-469.2960162853162
 30
0.0000000001127424
  0
VERTEX
  5
1B642
  8
01
 10
2465.123109895441
 20
-469.2979579901545
 30
0.0000000001127424
  0
VERTEX
  5
1B643
  8
01
 10
2465.115113370575
 20
-469.2998089825955
 30
0.0000000001127424
  0
VERTEX
  5
1B644
  8
01
 10
2465.107480778373
 20
-469.3015693017238
 30
0.0000000001127424
  0
VERTEX
  5
1B645
  8
01
 10
2465.100214800597
 20
-469.3032389866245
 30
0.0000000001127424
  0
VERTEX
  5
1B646
  8
01
 10
2465.093318119009
 20
-469.3048180763824
 30
0.0000000001127424
  0
VERTEX
  5
1B647
  8
01
 10
2465.086793415368
 20
-469.3063066100826
 30
0.0000000001127424
  0
VERTEX
  5
1B648
  8
01
 10
2465.080643371436
 20
-469.3077046268098
 30
0.0000000001127424
  0
VERTEX
  5
1B649
  8
01
 10
2465.074870668974
 20
-469.309012165649
 30
0.0000000001127424
  0
VERTEX
  5
1B64A
  8
01
 10
2465.069477989743
 20
-469.310229265685
 30
0.0000000001127424
  0
VERTEX
  5
1B64B
  8
01
 10
2465.064468015504
 20
-469.3113559660028
 30
0.0000000001127424
  0
VERTEX
  5
1B64C
  8
01
 10
2465.059843428017
 20
-469.3123923056874
 30
0.0000000001127424
  0
VERTEX
  5
1B64D
  8
01
 10
2465.055606909044
 20
-469.3133383238234
 30
0.0000000001127424
  0
VERTEX
  5
1B64E
  8
01
 10
2465.051761140346
 20
-469.314194059496
 30
0.0000000001127424
  0
VERTEX
  5
1B64F
  8
01
 10
2465.048308803684
 20
-469.3149595517899
 30
0.0000000001127424
  0
VERTEX
  5
1B650
  8
01
 10
2465.045252580818
 20
-469.3156348397901
 30
0.0000000001127424
  0
VERTEX
  5
1B651
  8
01
 10
2465.04259515351
 20
-469.3162199625815
 30
0.0000000001127424
  0
VERTEX
  5
1B652
  8
01
 10
2465.04033920352
 20
-469.316714959249
 30
0.0000000001127424
  0
VERTEX
  5
1B653
  8
01
 10
2465.03848741261
 20
-469.3171198688774
 30
0.0000000001127424
  0
VERTEX
  5
1B654
  8
01
 10
2465.037042462541
 20
-469.3174347305518
 30
0.0000000001127424
  0
VERTEX
  5
1B655
  8
01
 10
2465.036007035073
 20
-469.3176595833569
 30
0.0000000001127424
  0
VERTEX
  5
1B656
  8
01
 10
2465.035383811967
 20
-469.3177944663777
 30
0.0000000001127424
  0
VERTEX
  5
1B657
  8
01
 10
2465.035175474985
 20
-469.3178394186991
 30
0.0000000001127424
  0
SEQEND
  5
1BCAE
  8
01
  0
POLYLINE
  5
1AB76
  8
01
 66
     1
 10
0.0
 20
0.0
 30
0.0000000001127424
  0
VERTEX
  5
1B658
  8
01
 10
2459.237878177688
 20
-450.7733733288132
 30
0.0000000001127424
  0
VERTEX
  5
1B659
  8
01
 10
2459.260173067436
 20
-450.7642923744523
 30
0.0000000001127424
  0
VERTEX
  5
1B65A
  8
01
 10
2459.282457855643
 20
-450.7552802836174
 30
0.0000000001127424
  0
VERTEX
  5
1B65B
  8
01
 10
2459.304730779045
 20
-450.7463372944752
 30
0.0000000001127424
  0
VERTEX
  5
1B65C
  8
01
 10
2459.326990074375
 20
-450.7374636451927
 30
0.0000000001127424
  0
VERTEX
  5
1B65D
  8
01
 10
2459.349233978367
 20
-450.7286595739366
 30
0.0000000001127424
  0
VERTEX
  5
1B65E
  8
01
 10
2459.371460727754
 20
-450.7199253188737
 30
0.0000000001127424
  0
VERTEX
  5
1B65F
  8
01
 10
2459.393668559271
 20
-450.711261118171
 30
0.0000000001127424
  0
VERTEX
  5
1B660
  8
01
 10
2459.415855709652
 20
-450.702667209995
 30
0.0000000001127424
  0
VERTEX
  5
1B661
  8
01
 10
2459.438020415631
 20
-450.6941438325128
 30
0.0000000001127424
  0
VERTEX
  5
1B662
  8
01
 10
2459.460160913942
 20
-450.6856912238911
 30
0.0000000001127424
  0
VERTEX
  5
1B663
  8
01
 10
2459.482275441319
 20
-450.6773096222967
 30
0.0000000001127424
  0
VERTEX
  5
1B664
  8
01
 10
2459.504362234496
 20
-450.6689992658963
 30
0.0000000001127424
  0
VERTEX
  5
1B665
  8
01
 10
2459.526419530207
 20
-450.660760392857
 30
0.0000000001127424
  0
VERTEX
  5
1B666
  8
01
 10
2459.548445565185
 20
-450.6525932413454
 30
0.0000000001127424
  0
VERTEX
  5
1B667
  8
01
 10
2459.570438576166
 20
-450.6444980495284
 30
0.0000000001127424
  0
VERTEX
  5
1B668
  8
01
 10
2459.592396799882
 20
-450.6364750555728
 30
0.0000000001127424
  0
VERTEX
  5
1B669
  8
01
 10
2459.614318473068
 20
-450.6285244976453
 30
0.0000000001127424
  0
VERTEX
  5
1B66A
  8
01
 10
2459.636201832458
 20
-450.6206466139129
 30
0.0000000001127424
  0
VERTEX
  5
1B66B
  8
01
 10
2459.658045114786
 20
-450.6128416425423
 30
0.0000000001127424
  0
VERTEX
  5
1B66C
  8
01
 10
2459.679846556786
 20
-450.6051098217003
 30
0.0000000001127424
  0
VERTEX
  5
1B66D
  8
01
 10
2459.701604395192
 20
-450.5974513895538
 30
0.0000000001127424
  0
VERTEX
  5
1B66E
  8
01
 10
2459.723316866737
 20
-450.5898665842695
 30
0.0000000001127424
  0
VERTEX
  5
1B66F
  8
01
 10
2459.744982208157
 20
-450.5823556440143
 30
0.0000000001127424
  0
VERTEX
  5
1B670
  8
01
 10
2459.766598656184
 20
-450.5749188069551
 30
0.0000000001127424
  0
VERTEX
  5
1B671
  8
01
 10
2459.788164447553
 20
-450.5675563112584
 30
0.0000000001127424
  0
VERTEX
  5
1B672
  8
01
 10
2459.809677818998
 20
-450.5602683950914
 30
0.0000000001127424
  0
VERTEX
  5
1B673
  8
01
 10
2459.831100106155
 20
-450.5530671546499
 30
0.0000000001127424
  0
VERTEX
  5
1B674
  8
01
 10
2459.852393384675
 20
-450.5459639445126
 30
0.0000000001127424
  0
VERTEX
  5
1B675
  8
01
 10
2459.873557001318
 20
-450.5389578904204
 30
0.0000000001127424
  0
VERTEX
  5
1B676
  8
01
 10
2459.894590302843
 20
-450.5320481181138
 30
0.0000000001127424
  0
VERTEX
  5
1B677
  8
01
 10
2459.915492636009
 20
-450.5252337533339
 30
0.0000000001127424
  0
VERTEX
  5
1B678
  8
01
 10
2459.936263347577
 20
-450.5185139218214
 30
0.0000000001127424
  0
VERTEX
  5
1B679
  8
01
 10
2459.956901784305
 20
-450.5118877493169
 30
0.0000000001127424
  0
VERTEX
  5
1B67A
  8
01
 10
2459.977407292952
 20
-450.5053543615614
 30
0.0000000001127424
  0
VERTEX
  5
1B67B
  8
01
 10
2459.997779220278
 20
-450.4989128842957
 30
0.0000000001127424
  0
VERTEX
  5
1B67C
  8
01
 10
2460.018016913042
 20
-450.4925624432604
 30
0.0000000001127424
  0
VERTEX
  5
1B67D
  8
01
 10
2460.038119718004
 20
-450.4863021641964
 30
0.0000000001127424
  0
VERTEX
  5
1B67E
  8
01
 10
2460.058086981922
 20
-450.4801311728445
 30
0.0000000001127424
  0
VERTEX
  5
1B67F
  8
01
 10
2460.077918051556
 20
-450.4740485949454
 30
0.0000000001127424
  0
VERTEX
  5
1B680
  8
01
 10
2460.09762595783
 20
-450.4680499308191
 30
0.0000000001127424
  0
VERTEX
  5
1B681
  8
01
 10
2460.117217023506
 20
-450.4621325327807
 30
0.0000000001127424
  0
VERTEX
  5
1B682
  8
01
 10
2460.136680533102
 20
-450.4562983045636
 30
0.0000000001127424
  0
VERTEX
  5
1B683
  8
01
 10
2460.156005771134
 20
-450.4505491499015
 30
0.0000000001127424
  0
VERTEX
  5
1B684
  8
01
 10
2460.175182022119
 20
-450.4448869725279
 30
0.0000000001127424
  0
VERTEX
  5
1B685
  8
01
 10
2460.194198570574
 20
-450.4393136761764
 30
0.0000000001127424
  0
VERTEX
  5
1B686
  8
01
 10
2460.213044701016
 20
-450.4338311645805
 30
0.0000000001127424
  0
VERTEX
  5
1B687
  8
01
 10
2460.231709697962
 20
-450.4284413414737
 30
0.0000000001127424
  0
VERTEX
  5
1B688
  8
01
 10
2460.250182845929
 20
-450.4231461105896
 30
0.0000000001127424
  0
VERTEX
  5
1B689
  8
01
 10
2460.268453429433
 20
-450.4179473756617
 30
0.0000000001127424
  0
VERTEX
  5
1B68A
  8
01
 10
2460.286510732992
 20
-450.4128470404237
 30
0.0000000001127424
  0
VERTEX
  5
1B68B
  8
01
 10
2460.304344041122
 20
-450.4078470086089
 30
0.0000000001127424
  0
VERTEX
  5
1B68C
  8
01
 10
2460.321942638342
 20
-450.4029491839511
 30
0.0000000001127424
  0
VERTEX
  5
1B68D
  8
01
 10
2460.339294701751
 20
-450.3981550611464
 30
0.0000000001127424
  0
VERTEX
  5
1B68E
  8
01
 10
2460.356394782725
 20
-450.393464116455
 30
0.0000000001127424
  0
VERTEX
  5
1B68F
  8
01
 10
2460.373241727182
 20
-450.3888752259567
 30
0.0000000001127424
  0
VERTEX
  5
1B690
  8
01
 10
2460.389834381046
 20
-450.3843872657313
 30
0.0000000001127424
  0
VERTEX
  5
1B691
  8
01
 10
2460.406171590237
 20
-450.3799991118585
 30
0.0000000001127424
  0
VERTEX
  5
1B692
  8
01
 10
2460.422252200677
 20
-450.375709640418
 30
0.0000000001127424
  0
VERTEX
  5
1B693
  8
01
 10
2460.438075058288
 20
-450.3715177274896
 30
0.0000000001127424
  0
VERTEX
  5
1B694
  8
01
 10
2460.453639008992
 20
-450.3674222491529
 30
0.0000000001127424
  0
VERTEX
  5
1B695
  8
01
 10
2460.468942898709
 20
-450.3634220814878
 30
0.0000000001127424
  0
VERTEX
  5
1B696
  8
01
 10
2460.483985573362
 20
-450.3595161005741
 30
0.0000000001127424
  0
VERTEX
  5
1B697
  8
01
 10
2460.498765878872
 20
-450.3557031824914
 30
0.0000000001127424
  0
VERTEX
  5
1B698
  8
01
 10
2460.51328266116
 20
-450.3519822033194
 30
0.0000000001127424
  0
VERTEX
  5
1B699
  8
01
 10
2460.527534766148
 20
-450.348352039138
 30
0.0000000001127424
  0
VERTEX
  5
1B69A
  8
01
 10
2460.541522247629
 20
-450.3448115140401
 30
0.0000000001127424
  0
VERTEX
  5
1B69B
  8
01
 10
2460.555239777867
 20
-450.3413608249059
 30
0.0000000001127424
  0
VERTEX
  5
1B69C
  8
01
 10
2460.568678130488
 20
-450.3380009069959
 30
0.0000000001127424
  0
VERTEX
  5
1B69D
  8
01
 10
2460.581828079119
 20
-450.3347326955705
 30
0.0000000001127424
  0
VERTEX
  5
1B69E
  8
01
 10
2460.594680397386
 20
-450.3315571258902
 30
0.0000000001127424
  0
VERTEX
  5
1B69F
  8
01
 10
2460.607225858916
 20
-450.3284751332156
 30
0.0000000001127424
  0
VERTEX
  5
1B6A0
  8
01
 10
2460.619455237336
 20
-450.325487652807
 30
0.0000000001127424
  0
VERTEX
  5
1B6A1
  8
01
 10
2460.631359306273
 20
-450.322595619925
 30
0.0000000001127424
  0
VERTEX
  5
1B6A2
  8
01
 10
2460.642928839352
 20
-450.3197999698301
 30
0.0000000001127424
  0
VERTEX
  5
1B6A3
  8
01
 10
2460.654154610202
 20
-450.3171016377827
 30
0.0000000001127424
  0
VERTEX
  5
1B6A4
  8
01
 10
2460.665027392449
 20
-450.3145015590434
 30
0.0000000001127424
  0
VERTEX
  5
1B6A5
  8
01
 10
2460.675537959718
 20
-450.3120006688725
 30
0.0000000001127424
  0
VERTEX
  5
1B6A6
  8
01
 10
2460.685677085638
 20
-450.3095999025306
 30
0.0000000001127424
  0
VERTEX
  5
1B6A7
  8
01
 10
2460.695453047415
 20
-450.3072949572536
 30
0.0000000001127424
  0
VERTEX
  5
1B6A8
  8
01
 10
2460.704878485332
 20
-450.3050808807135
 30
0.0000000001127424
  0
VERTEX
  5
1B6A9
  8
01
 10
2460.713950717628
 20
-450.3029576338257
 30
0.0000000001127424
  0
VERTEX
  5
1B6AA
  8
01
 10
2460.722667062542
 20
-450.3009251775051
 30
0.0000000001127424
  0
VERTEX
  5
1B6AB
  8
01
 10
2460.731024838313
 20
-450.2989834726667
 30
0.0000000001127424
  0
VERTEX
  5
1B6AC
  8
01
 10
2460.739021363179
 20
-450.2971324802259
 30
0.0000000001127424
  0
VERTEX
  5
1B6AD
  8
01
 10
2460.746653955381
 20
-450.2953721610975
 30
0.0000000001127424
  0
VERTEX
  5
1B6AE
  8
01
 10
2460.753919933157
 20
-450.2937024761969
 30
0.0000000001127424
  0
VERTEX
  5
1B6AF
  8
01
 10
2460.760816614745
 20
-450.2921233864389
 30
0.0000000001127424
  0
VERTEX
  5
1B6B0
  8
01
 10
2460.767341318386
 20
-450.2906348527388
 30
0.0000000001127424
  0
VERTEX
  5
1B6B1
  8
01
 10
2460.773491362318
 20
-450.2892368360116
 30
0.0000000001127424
  0
VERTEX
  5
1B6B2
  8
01
 10
2460.77926406478
 20
-450.2879292971724
 30
0.0000000001127424
  0
VERTEX
  5
1B6B3
  8
01
 10
2460.784656744011
 20
-450.2867121971364
 30
0.0000000001127424
  0
VERTEX
  5
1B6B4
  8
01
 10
2460.78966671825
 20
-450.2855854968186
 30
0.0000000001127424
  0
VERTEX
  5
1B6B5
  8
01
 10
2460.794291305737
 20
-450.2845491571341
 30
0.0000000001127424
  0
VERTEX
  5
1B6B6
  8
01
 10
2460.79852782471
 20
-450.283603138998
 30
0.0000000001127424
  0
VERTEX
  5
1B6B7
  8
01
 10
2460.802373593408
 20
-450.2827474033254
 30
0.0000000001127424
  0
VERTEX
  5
1B6B8
  8
01
 10
2460.805825930071
 20
-450.2819819110315
 30
0.0000000001127424
  0
VERTEX
  5
1B6B9
  8
01
 10
2460.808882152936
 20
-450.2813066230313
 30
0.0000000001127424
  0
VERTEX
  5
1B6BA
  8
01
 10
2460.811539580244
 20
-450.2807215002399
 30
0.0000000001127424
  0
VERTEX
  5
1B6BB
  8
01
 10
2460.813795530234
 20
-450.2802265035724
 30
0.0000000001127424
  0
VERTEX
  5
1B6BC
  8
01
 10
2460.815647321144
 20
-450.279821593944
 30
0.0000000001127424
  0
VERTEX
  5
1B6BD
  8
01
 10
2460.817092271213
 20
-450.2795067322696
 30
0.0000000001127424
  0
VERTEX
  5
1B6BE
  8
01
 10
2460.818127698682
 20
-450.2792818794645
 30
0.0000000001127424
  0
VERTEX
  5
1B6BF
  8
01
 10
2460.818750921787
 20
-450.2791469964437
 30
0.0000000001127424
  0
VERTEX
  5
1B6C0
  8
01
 10
2460.818959258769
 20
-450.2791020441223
 30
0.0000000001127424
  0
SEQEND
  5
1BCAF
  8
01
  0
POLYLINE
  5
1AB77
  8
01
 66
     1
 10
0.0
 20
0.0
 30
0.0000000001127424
  0
VERTEX
  5
1B6C1
  8
01
 10
2460.818959258769
 20
-469.3178394186991
 30
0.0000000001127424
  0
VERTEX
  5
1B6C2
  8
01
 10
2460.818676690989
 20
-469.3177772481309
 30
0.0000000001127424
  0
VERTEX
  5
1B6C3
  8
01
 10
2460.817830834432
 20
-469.3175907770616
 30
0.0000000001127424
  0
VERTEX
  5
1B6C4
  8
01
 10
2460.816424459267
 20
-469.3172800664441
 30
0.0000000001127424
  0
VERTEX
  5
1B6C5
  8
01
 10
2460.814460335663
 20
-469.3168451772314
 30
0.0000000001127424
  0
VERTEX
  5
1B6C6
  8
01
 10
2460.811941233792
 20
-469.3162861703765
 30
0.0000000001127424
  0
VERTEX
  5
1B6C7
  8
01
 10
2460.808869923823
 20
-469.3156031068326
 30
0.0000000001127424
  0
VERTEX
  5
1B6C8
  8
01
 10
2460.805249175927
 20
-469.3147960475522
 30
0.0000000001127424
  0
VERTEX
  5
1B6C9
  8
01
 10
2460.801081760274
 20
-469.3138650534887
 30
0.0000000001127424
  0
VERTEX
  5
1B6CA
  8
01
 10
2460.796370447033
 20
-469.3128101855948
 30
0.0000000001127424
  0
VERTEX
  5
1B6CB
  8
01
 10
2460.791118006376
 20
-469.3116315048236
 30
0.0000000001127424
  0
VERTEX
  5
1B6CC
  8
01
 10
2460.785327208472
 20
-469.3103290721281
 30
0.0000000001127424
  0
VERTEX
  5
1B6CD
  8
01
 10
2460.778985097115
 20
-469.3088990725788
 30
0.0000000001127424
  0
VERTEX
  5
1B6CE
  8
01
 10
2460.772083056846
 20
-469.3073380396059
 30
0.0000000001127424
  0
VERTEX
  5
1B6CF
  8
01
 10
2460.764630368953
 20
-469.3056465567014
 30
0.0000000001127424
  0
VERTEX
  5
1B6D0
  8
01
 10
2460.756636314724
 20
-469.3038252073575
 30
0.0000000001127424
  0
VERTEX
  5
1B6D1
  8
01
 10
2460.748110175447
 20
-469.3018745750663
 30
0.0000000001127424
  0
VERTEX
  5
1B6D2
  8
01
 10
2460.739061232411
 20
-469.2997952433201
 30
0.0000000001127424
  0
VERTEX
  5
1B6D3
  8
01
 10
2460.729498766903
 20
-469.2975877956109
 30
0.0000000001127424
  0
VERTEX
  5
1B6D4
  8
01
 10
2460.719432060213
 20
-469.2952528154309
 30
0.0000000001127424
  0
VERTEX
  5
1B6D5
  8
01
 10
2460.708870393628
 20
-469.2927908862722
 30
0.0000000001127424
  0
VERTEX
  5
1B6D6
  8
01
 10
2460.697823048436
 20
-469.2902025916271
 30
0.0000000001127424
  0
VERTEX
  5
1B6D7
  8
01
 10
2460.686299305927
 20
-469.2874885149875
 30
0.0000000001127424
  0
VERTEX
  5
1B6D8
  8
01
 10
2460.674292656226
 20
-469.2846452020145
 30
0.0000000001127424
  0
VERTEX
  5
1B6D9
  8
01
 10
2460.661796490255
 20
-469.2816688603884
 30
0.0000000001127424
  0
VERTEX
  5
1B6DA
  8
01
 10
2460.648819940498
 20
-469.2785595666308
 30
0.0000000001127424
  0
VERTEX
  5
1B6DB
  8
01
 10
2460.635372139436
 20
-469.2753173972635
 30
0.0000000001127424
  0
VERTEX
  5
1B6DC
  8
01
 10
2460.621462219553
 20
-469.2719424288079
 30
0.0000000001127424
  0
VERTEX
  5
1B6DD
  8
01
 10
2460.607099313331
 20
-469.2684347377857
 30
0.0000000001127424
  0
VERTEX
  5
1B6DE
  8
01
 10
2460.592292553252
 20
-469.2647944007185
 30
0.0000000001127424
  0
VERTEX
  5
1B6DF
  8
01
 10
2460.577051071799
 20
-469.2610214941279
 30
0.0000000001127424
  0
VERTEX
  5
1B6E0
  8
01
 10
2460.561384001456
 20
-469.2571160945355
 30
0.0000000001127424
  0
VERTEX
  5
1B6E1
  8
01
 10
2460.545300474704
 20
-469.2530782784629
 30
0.0000000001127424
  0
VERTEX
  5
1B6E2
  8
01
 10
2460.528809624025
 20
-469.2489081224317
 30
0.0000000001127424
  0
VERTEX
  5
1B6E3
  8
01
 10
2460.511920581904
 20
-469.2446057029637
 30
0.0000000001127424
  0
VERTEX
  5
1B6E4
  8
01
 10
2460.494642480822
 20
-469.2401710965802
 30
0.0000000001127424
  0
VERTEX
  5
1B6E5
  8
01
 10
2460.476984453262
 20
-469.2356043798029
 30
0.0000000001127424
  0
VERTEX
  5
1B6E6
  8
01
 10
2460.458955631706
 20
-469.2309056291536
 30
0.0000000001127424
  0
VERTEX
  5
1B6E7
  8
01
 10
2460.440565148638
 20
-469.2260749211536
 30
0.0000000001127424
  0
VERTEX
  5
1B6E8
  8
01
 10
2460.421822136538
 20
-469.2211123323248
 30
0.0000000001127424
  0
VERTEX
  5
1B6E9
  8
01
 10
2460.402735727892
 20
-469.2160179391886
 30
0.0000000001127424
  0
VERTEX
  5
1B6EA
  8
01
 10
2460.38331505518
 20
-469.2107918182668
 30
0.0000000001127424
  0
VERTEX
  5
1B6EB
  8
01
 10
2460.363569250886
 20
-469.2054340460808
 30
0.0000000001127424
  0
VERTEX
  5
1B6EC
  8
01
 10
2460.343507447492
 20
-469.1999446991523
 30
0.0000000001127424
  0
VERTEX
  5
1B6ED
  8
01
 10
2460.323138777481
 20
-469.194323854003
 30
0.0000000001127424
  0
VERTEX
  5
1B6EE
  8
01
 10
2460.30245829116
 20
-469.1885665414599
 30
0.0000000001127424
  0
VERTEX
  5
1B6EF
  8
01
 10
2460.281461812133
 20
-469.1826685866371
 30
0.0000000001127424
  0
VERTEX
  5
1B6F0
  8
01
 10
2460.260159632831
 20
-469.1766312574861
 30
0.0000000001127424
  0
VERTEX
  5
1B6F1
  8
01
 10
2460.238562045685
 20
-469.1704558219587
 30
0.0000000001127424
  0
VERTEX
  5
1B6F2
  8
01
 10
2460.216679343125
 20
-469.1641435480066
 30
0.0000000001127424
  0
VERTEX
  5
1B6F3
  8
01
 10
2460.19452181758
 20
-469.1576957035813
 30
0.0000000001127424
  0
VERTEX
  5
1B6F4
  8
01
 10
2460.172099761483
 20
-469.1511135566345
 30
0.0000000001127424
  0
VERTEX
  5
1B6F5
  8
01
 10
2460.149423467261
 20
-469.144398375118
 30
0.0000000001127424
  0
VERTEX
  5
1B6F6
  8
01
 10
2460.126503227347
 20
-469.1375514269834
 30
0.0000000001127424
  0
VERTEX
  5
1B6F7
  8
01
 10
2460.103349334171
 20
-469.1305739801822
 30
0.0000000001127424
  0
VERTEX
  5
1B6F8
  8
01
 10
2460.079972080162
 20
-469.1234673026664
 30
0.0000000001127424
  0
VERTEX
  5
1B6F9
  8
01
 10
2460.056381757751
 20
-469.1162326623874
 30
0.0000000001127424
  0
VERTEX
  5
1B6FA
  8
01
 10
2460.03258865937
 20
-469.1088713272969
 30
0.0000000001127424
  0
VERTEX
  5
1B6FB
  8
01
 10
2460.008603077446
 20
-469.1013845653467
 30
0.0000000001127424
  0
VERTEX
  5
1B6FC
  8
01
 10
2459.984435304412
 20
-469.0937736444884
 30
0.0000000001127424
  0
VERTEX
  5
1B6FD
  8
01
 10
2459.960095632697
 20
-469.0860398326736
 30
0.0000000001127424
  0
VERTEX
  5
1B6FE
  8
01
 10
2459.935594354732
 20
-469.078184397854
 30
0.0000000001127424
  0
VERTEX
  5
1B6FF
  8
01
 10
2459.910941762947
 20
-469.0702086079814
 30
0.0000000001127424
  0
VERTEX
  5
1B700
  8
01
 10
2459.886148149772
 20
-469.0621137310072
 30
0.0000000001127424
  0
VERTEX
  5
1B701
  8
01
 10
2459.861223807638
 20
-469.0539010348833
 30
0.0000000001127424
  0
VERTEX
  5
1B702
  8
01
 10
2459.836179028976
 20
-469.0455717875613
 30
0.0000000001127424
  0
VERTEX
  5
1B703
  8
01
 10
2459.811024106215
 20
-469.0371272569928
 30
0.0000000001127424
  0
VERTEX
  5
1B704
  8
01
 10
2459.78575530969
 20
-469.0285645516096
 30
0.0000000001127424
  0
VERTEX
  5
1B705
  8
01
 10
2459.760366581379
 20
-469.0198811080938
 30
0.0000000001127424
  0
VERTEX
  5
1B706
  8
01
 10
2459.734864721177
 20
-469.0110786867729
 30
0.0000000001127424
  0
VERTEX
  5
1B707
  8
01
 10
2459.709256528978
 20
-469.002159047974
 30
0.0000000001127424
  0
VERTEX
  5
1B708
  8
01
 10
2459.683548804676
 20
-468.9931239520245
 30
0.0000000001127424
  0
VERTEX
  5
1B709
  8
01
 10
2459.657748348167
 20
-468.9839751592517
 30
0.0000000001127424
  0
VERTEX
  5
1B70A
  8
01
 10
2459.631861959344
 20
-468.9747144299829
 30
0.0000000001127424
  0
VERTEX
  5
1B70B
  8
01
 10
2459.605896438102
 20
-468.9653435245455
 30
0.0000000001127424
  0
VERTEX
  5
1B70C
  8
01
 10
2459.579858584336
 20
-468.9558642032667
 30
0.0000000001127424
  0
VERTEX
  5
1B70D
  8
01
 10
2459.553755197941
 20
-468.9462782264739
 30
0.0000000001127424
  0
VERTEX
  5
1B70E
  8
01
 10
2459.52759307881
 20
-468.9365873544943
 30
0.0000000001127424
  0
VERTEX
  5
1B70F
  8
01
 10
2459.501379026839
 20
-468.9267933476554
 30
0.0000000001127424
  0
VERTEX
  5
1B710
  8
01
 10
2459.475119841921
 20
-468.9168979662844
 30
0.0000000001127424
  0
VERTEX
  5
1B711
  8
01
 10
2459.448822323952
 20
-468.9069029707085
 30
0.0000000001127424
  0
VERTEX
  5
1B712
  8
01
 10
2459.422493272826
 20
-468.8968101212553
 30
0.0000000001127424
  0
VERTEX
  5
1B713
  8
01
 10
2459.396139488437
 20
-468.8866211782519
 30
0.0000000001127424
  0
VERTEX
  5
1B714
  8
01
 10
2459.369767770681
 20
-468.8763379020257
 30
0.0000000001127424
  0
VERTEX
  5
1B715
  8
01
 10
2459.343384919451
 20
-468.8659620529039
 30
0.0000000001127424
  0
VERTEX
  5
1B716
  8
01
 10
2459.316997734642
 20
-468.8554953912139
 30
0.0000000001127424
  0
VERTEX
  5
1B717
  8
01
 10
2459.290613016149
 20
-468.844939677283
 30
0.0000000001127424
  0
VERTEX
  5
1B718
  8
01
 10
2459.264237563866
 20
-468.8342966714387
 30
0.0000000001127424
  0
VERTEX
  5
1B719
  8
01
 10
2459.237878177688
 20
-468.8235681340079
 30
0.0000000001127424
  0
SEQEND
  5
1BCB0
  8
01
  0
POLYLINE
  5
1AB78
  8
01
 66
     1
 10
0.0
 20
0.0
 30
0.0000000001127424
  0
VERTEX
  5
1B71A
  8
01
 10
2465.035175474985
 20
-450.2791020441223
 30
0.0000000001127424
  0
VERTEX
  5
1B71B
  8
01
 10
2465.035458042765
 20
-450.2791642146905
 30
0.0000000001127424
  0
VERTEX
  5
1B71C
  8
01
 10
2465.036303899322
 20
-450.2793506857598
 30
0.0000000001127424
  0
VERTEX
  5
1B71D
  8
01
 10
2465.037710274487
 20
-450.2796613963773
 30
0.0000000001127424
  0
VERTEX
  5
1B71E
  8
01
 10
2465.039674398091
 20
-450.28009628559
 30
0.0000000001127424
  0
VERTEX
  5
1B71F
  8
01
 10
2465.042193499962
 20
-450.2806552924449
 30
0.0000000001127424
  0
VERTEX
  5
1B720
  8
01
 10
2465.045264809931
 20
-450.2813383559889
 30
0.0000000001127424
  0
VERTEX
  5
1B721
  8
01
 10
2465.048885557827
 20
-450.2821454152692
 30
0.0000000001127424
  0
VERTEX
  5
1B722
  8
01
 10
2465.05305297348
 20
-450.2830764093328
 30
0.0000000001127424
  0
VERTEX
  5
1B723
  8
01
 10
2465.057764286721
 20
-450.2841312772266
 30
0.0000000001127424
  0
VERTEX
  5
1B724
  8
01
 10
2465.063016727378
 20
-450.2853099579978
 30
0.0000000001127424
  0
VERTEX
  5
1B725
  8
01
 10
2465.068807525282
 20
-450.2866123906933
 30
0.0000000001127424
  0
VERTEX
  5
1B726
  8
01
 10
2465.075149636639
 20
-450.2880423902426
 30
0.0000000001127424
  0
VERTEX
  5
1B727
  8
01
 10
2465.082051676908
 20
-450.2896034232155
 30
0.0000000001127424
  0
VERTEX
  5
1B728
  8
01
 10
2465.089504364801
 20
-450.29129490612
 30
0.0000000001127424
  0
VERTEX
  5
1B729
  8
01
 10
2465.09749841903
 20
-450.2931162554639
 30
0.0000000001127424
  0
VERTEX
  5
1B72A
  8
01
 10
2465.106024558307
 20
-450.2950668877551
 30
0.0000000001127424
  0
VERTEX
  5
1B72B
  8
01
 10
2465.115073501343
 20
-450.2971462195013
 30
0.0000000001127424
  0
VERTEX
  5
1B72C
  8
01
 10
2465.124635966851
 20
-450.2993536672105
 30
0.0000000001127424
  0
VERTEX
  5
1B72D
  8
01
 10
2465.134702673542
 20
-450.3016886473905
 30
0.0000000001127424
  0
VERTEX
  5
1B72E
  8
01
 10
2465.145264340126
 20
-450.3041505765492
 30
0.0000000001127424
  0
VERTEX
  5
1B72F
  8
01
 10
2465.156311685318
 20
-450.3067388711943
 30
0.0000000001127424
  0
VERTEX
  5
1B730
  8
01
 10
2465.167835427827
 20
-450.3094529478339
 30
0.0000000001127424
  0
VERTEX
  5
1B731
  8
01
 10
2465.179842077529
 20
-450.3122962608069
 30
0.0000000001127424
  0
VERTEX
  5
1B732
  8
01
 10
2465.192338243499
 20
-450.315272602433
 30
0.0000000001127424
  0
VERTEX
  5
1B733
  8
01
 10
2465.205314793256
 20
-450.3183818961905
 30
0.0000000001127424
  0
VERTEX
  5
1B734
  8
01
 10
2465.218762594318
 20
-450.3216240655579
 30
0.0000000001127424
  0
VERTEX
  5
1B735
  8
01
 10
2465.232672514201
 20
-450.3249990340134
 30
0.0000000001127424
  0
VERTEX
  5
1B736
  8
01
 10
2465.247035420423
 20
-450.3285067250357
 30
0.0000000001127424
  0
VERTEX
  5
1B737
  8
01
 10
2465.261842180502
 20
-450.3321470621029
 30
0.0000000001127424
  0
VERTEX
  5
1B738
  8
01
 10
2465.277083661955
 20
-450.3359199686935
 30
0.0000000001127424
  0
VERTEX
  5
1B739
  8
01
 10
2465.292750732298
 20
-450.3398253682859
 30
0.0000000001127424
  0
VERTEX
  5
1B73A
  8
01
 10
2465.30883425905
 20
-450.3438631843584
 30
0.0000000001127424
  0
VERTEX
  5
1B73B
  8
01
 10
2465.325325109729
 20
-450.3480333403896
 30
0.0000000001127424
  0
VERTEX
  5
1B73C
  8
01
 10
2465.34221415185
 20
-450.3523357598576
 30
0.0000000001127424
  0
VERTEX
  5
1B73D
  8
01
 10
2465.359492252932
 20
-450.3567703662411
 30
0.0000000001127424
  0
VERTEX
  5
1B73E
  8
01
 10
2465.377150280492
 20
-450.3613370830183
 30
0.0000000001127424
  0
VERTEX
  5
1B73F
  8
01
 10
2465.395179102048
 20
-450.3660358336677
 30
0.0000000001127424
  0
VERTEX
  5
1B740
  8
01
 10
2465.413569585116
 20
-450.3708665416676
 30
0.0000000001127424
  0
VERTEX
  5
1B741
  8
01
 10
2465.432312597216
 20
-450.3758291304964
 30
0.0000000001127424
  0
VERTEX
  5
1B742
  8
01
 10
2465.451399005862
 20
-450.3809235236326
 30
0.0000000001127424
  0
VERTEX
  5
1B743
  8
01
 10
2465.470819678574
 20
-450.3861496445545
 30
0.0000000001127424
  0
VERTEX
  5
1B744
  8
01
 10
2465.490565482868
 20
-450.3915074167404
 30
0.0000000001127424
  0
VERTEX
  5
1B745
  8
01
 10
2465.510627286262
 20
-450.3969967636689
 30
0.0000000001127424
  0
VERTEX
  5
1B746
  8
01
 10
2465.530995956273
 20
-450.4026176088182
 30
0.0000000001127424
  0
VERTEX
  5
1B747
  8
01
 10
2465.551676442594
 20
-450.4083749213613
 30
0.0000000001127424
  0
VERTEX
  5
1B748
  8
01
 10
2465.572672921621
 20
-450.4142728761841
 30
0.0000000001127424
  0
VERTEX
  5
1B749
  8
01
 10
2465.593975100923
 20
-450.4203102053351
 30
0.0000000001127424
  0
VERTEX
  5
1B74A
  8
01
 10
2465.615572688069
 20
-450.4264856408624
 30
0.0000000001127424
  0
VERTEX
  5
1B74B
  8
01
 10
2465.637455390629
 20
-450.4327979148146
 30
0.0000000001127424
  0
VERTEX
  5
1B74C
  8
01
 10
2465.659612916174
 20
-450.4392457592399
 30
0.0000000001127424
  0
VERTEX
  5
1B74D
  8
01
 10
2465.682034972272
 20
-450.4458279061867
 30
0.0000000001127424
  0
VERTEX
  5
1B74E
  8
01
 10
2465.704711266493
 20
-450.4525430877032
 30
0.0000000001127424
  0
VERTEX
  5
1B74F
  8
01
 10
2465.727631506407
 20
-450.4593900358378
 30
0.0000000001127424
  0
VERTEX
  5
1B750
  8
01
 10
2465.750785399583
 20
-450.4663674826389
 30
0.0000000001127424
  0
VERTEX
  5
1B751
  8
01
 10
2465.774162653592
 20
-450.4734741601548
 30
0.0000000001127424
  0
VERTEX
  5
1B752
  8
01
 10
2465.797752976003
 20
-450.4807088004338
 30
0.0000000001127424
  0
VERTEX
  5
1B753
  8
01
 10
2465.821546074385
 20
-450.4880701355243
 30
0.0000000001127424
  0
VERTEX
  5
1B754
  8
01
 10
2465.845531656309
 20
-450.4955568974745
 30
0.0000000001127424
  0
VERTEX
  5
1B755
  8
01
 10
2465.869699429343
 20
-450.5031678183328
 30
0.0000000001127424
  0
VERTEX
  5
1B756
  8
01
 10
2465.894039101058
 20
-450.5109016301476
 30
0.0000000001127424
  0
VERTEX
  5
1B757
  8
01
 10
2465.918540379023
 20
-450.5187570649671
 30
0.0000000001127424
  0
VERTEX
  5
1B758
  8
01
 10
2465.943192970808
 20
-450.5267328548398
 30
0.0000000001127424
  0
VERTEX
  5
1B759
  8
01
 10
2465.967986583983
 20
-450.5348277318139
 30
0.0000000001127424
  0
VERTEX
  5
1B75A
  8
01
 10
2465.992910926116
 20
-450.5430404279379
 30
0.0000000001127424
  0
VERTEX
  5
1B75B
  8
01
 10
2466.017955704779
 20
-450.5513696752599
 30
0.0000000001127424
  0
VERTEX
  5
1B75C
  8
01
 10
2466.04311062754
 20
-450.5598142058284
 30
0.0000000001127424
  0
VERTEX
  5
1B75D
  8
01
 10
2466.068379424064
 20
-450.5683769112116
 30
0.0000000001127424
  0
VERTEX
  5
1B75E
  8
01
 10
2466.093768152375
 20
-450.5770603547273
 30
0.0000000001127424
  0
VERTEX
  5
1B75F
  8
01
 10
2466.119270012577
 20
-450.5858627760483
 30
0.0000000001127424
  0
VERTEX
  5
1B760
  8
01
 10
2466.144878204777
 20
-450.5947824148472
 30
0.0000000001127424
  0
VERTEX
  5
1B761
  8
01
 10
2466.170585929078
 20
-450.6038175107967
 30
0.0000000001127424
  0
VERTEX
  5
1B762
  8
01
 10
2466.196386385588
 20
-450.6129663035695
 30
0.0000000001127424
  0
VERTEX
  5
1B763
  8
01
 10
2466.222272774411
 20
-450.6222270328383
 30
0.0000000001127424
  0
VERTEX
  5
1B764
  8
01
 10
2466.248238295652
 20
-450.6315979382757
 30
0.0000000001127424
  0
VERTEX
  5
1B765
  8
01
 10
2466.274276149418
 20
-450.6410772595545
 30
0.0000000001127424
  0
VERTEX
  5
1B766
  8
01
 10
2466.300379535814
 20
-450.6506632363473
 30
0.0000000001127424
  0
VERTEX
  5
1B767
  8
01
 10
2466.326541654944
 20
-450.6603541083268
 30
0.0000000001127424
  0
VERTEX
  5
1B768
  8
01
 10
2466.352755706916
 20
-450.6701481151658
 30
0.0000000001127424
  0
VERTEX
  5
1B769
  8
01
 10
2466.379014891833
 20
-450.6800434965368
 30
0.0000000001127424
  0
VERTEX
  5
1B76A
  8
01
 10
2466.405312409802
 20
-450.6900384921126
 30
0.0000000001127424
  0
VERTEX
  5
1B76B
  8
01
 10
2466.431641460928
 20
-450.7001313415659
 30
0.0000000001127424
  0
VERTEX
  5
1B76C
  8
01
 10
2466.457995245317
 20
-450.7103202845693
 30
0.0000000001127424
  0
VERTEX
  5
1B76D
  8
01
 10
2466.484366963073
 20
-450.7206035607955
 30
0.0000000001127424
  0
VERTEX
  5
1B76E
  8
01
 10
2466.510749814303
 20
-450.7309794099173
 30
0.0000000001127424
  0
VERTEX
  5
1B76F
  8
01
 10
2466.537136999112
 20
-450.7414460716072
 30
0.0000000001127424
  0
VERTEX
  5
1B770
  8
01
 10
2466.563521717605
 20
-450.7520017855381
 30
0.0000000001127424
  0
VERTEX
  5
1B771
  8
01
 10
2466.589897169888
 20
-450.7626447913825
 30
0.0000000001127424
  0
VERTEX
  5
1B772
  8
01
 10
2466.616256556066
 20
-450.7733733288132
 30
0.0000000001127424
  0
SEQEND
  5
1BCB1
  8
01
  0
ARC
  5
1AB79
  8
01
 10
2462.927067366877
 20
-459.7984707314106
 30
0.0000000001127424
 40
9.750000000000005
 50
112.2332717982963
 51
247.7667282017037
  0
ARC
  5
1AB7A
  8
01
 10
2462.927067366877
 20
-459.7984707314106
 30
0.0000000001127424
 40
9.750000000000009
 50
292.2332717982963
 51
67.7667282017037
  0
CIRCLE
  5
1AB7B
  8
01
 10
2462.927067366877
 20
-459.7984707314106
 30
0.0000000001127424
 40
10.3
  0
POLYLINE
  5
1AB7C
  8
01
 10
0.0
 20
0.0
 30
0.0
 66
     1
 70
     8
  0
VERTEX
  5
1B773
  8
01
 10
2606.627071366879
 20
-469.5484707314179
 30
0.0000000001127427
 70
    32
  0
VERTEX
  5
1B774
  8
01
 10
2604.789568265503
 20
-469.5484707314179
 30
0.0000000001127427
 70
    32
  0
VERTEX
  5
1B775
  8
01
 10
2602.952065164126
 20
-469.5484707314179
 30
0.0000000001127427
 70
    32
  0
VERTEX
  5
1B776
  8
01
 10
2601.114562062749
 20
-469.5484707314179
 30
0.0000000001127427
 70
    32
  0
VERTEX
  5
1B777
  8
01
 10
2599.277058961373
 20
-469.5484707314179
 30
0.0000000001127427
 70
    32
  0
VERTEX
  5
1B778
  8
01
 10
2597.439555859996
 20
-469.5484707314179
 30
0.0000000001127427
 70
    32
  0
VERTEX
  5
1B779
  8
01
 10
2595.60205275862
 20
-469.5484707314179
 30
0.0000000001127427
 70
    32
  0
VERTEX
  5
1B77A
  8
01
 10
2593.764549657243
 20
-469.5484707314179
 30
0.0000000001127427
 70
    32
  0
VERTEX
  5
1B77B
  8
01
 10
2591.927046555867
 20
-469.5484707314179
 30
0.0000000001127427
 70
    32
  0
SEQEND
  5
1BCB2
  8
01
  0
POLYLINE
  5
1AB7D
  8
01
 10
0.0
 20
0.0
 30
0.0
 66
     1
 70
     8
  0
VERTEX
  5
1B77C
  8
01
 10
2591.927046555867
 20
-450.0484707314179
 30
0.0000000001127427
 70
    32
  0
VERTEX
  5
1B77D
  8
01
 10
2593.764549657243
 20
-450.0484707314179
 30
0.0000000001127427
 70
    32
  0
VERTEX
  5
1B77E
  8
01
 10
2595.60205275862
 20
-450.0484707314179
 30
0.0000000001127427
 70
    32
  0
VERTEX
  5
1B77F
  8
01
 10
2597.439555859996
 20
-450.0484707314179
 30
0.0000000001127427
 70
    32
  0
VERTEX
  5
1B780
  8
01
 10
2599.277058961372
 20
-450.0484707314179
 30
0.0000000001127427
 70
    32
  0
VERTEX
  5
1B781
  8
01
 10
2601.114562062749
 20
-450.0484707314179
 30
0.0000000001127427
 70
    32
  0
VERTEX
  5
1B782
  8
01
 10
2602.952065164125
 20
-450.0484707314179
 30
0.0000000001127427
 70
    32
  0
VERTEX
  5
1B783
  8
01
 10
2604.789568265502
 20
-450.0484707314179
 30
0.0000000001127427
 70
    32
  0
VERTEX
  5
1B784
  8
01
 10
2606.627071366878
 20
-450.0484707314179
 30
0.0000000001127427
 70
    32
  0
SEQEND
  5
1BCB3
  8
01
  0
ARC
  5
1AB7E
  8
01
 10
2591.927046555867
 20
-468.5484707314179
 30
0.0000000001127427
 40
1.0
 50
180.0
 51
270.0
  0
ARC
  5
1AB7F
  8
01
 10
2591.927046555867
 20
-451.0484707314179
 30
0.0000000001127427
 40
1.0
 50
90.0
 51
180.0
  0
LINE
  5
1AB80
  8
01
 10
2605.427046555867
 20
-451.2361988366461
 30
0.0000000001127427
 11
2605.427046555867
 21
-468.3607426261897
 31
0.0000000001127427
  0
POLYLINE
  5
1AB81
  8
01
 66
     1
 10
0.0
 20
0.0
 30
0.0000000001127427
  0
VERTEX
  5
1B785
  8
01
 10
2604.427046555867
 20
-450.7672747973238
 30
0.0000000001127427
  0
VERTEX
  5
1B786
  8
01
 10
2604.450358151765
 20
-450.7673640651789
 30
0.0000000001127427
  0
VERTEX
  5
1B787
  8
01
 10
2604.47362891951
 20
-450.7676320529303
 30
0.0000000001127427
  0
VERTEX
  5
1B788
  8
01
 10
2604.496846668051
 20
-450.768079036858
 30
0.0000000001127427
  0
VERTEX
  5
1B789
  8
01
 10
2604.519999206339
 20
-450.7687052932415
 30
0.0000000001127427
  0
VERTEX
  5
1B78A
  8
01
 10
2604.543074343322
 20
-450.7695110983606
 30
0.0000000001127427
  0
VERTEX
  5
1B78B
  8
01
 10
2604.566059887951
 20
-450.7704967284948
 30
0.0000000001127427
  0
VERTEX
  5
1B78C
  8
01
 10
2604.588943649178
 20
-450.7716624599241
 30
0.0000000001127427
  0
VERTEX
  5
1B78D
  8
01
 10
2604.611713435951
 20
-450.7730085689279
 30
0.0000000001127427
  0
VERTEX
  5
1B78E
  8
01
 10
2604.63435705722
 20
-450.7745353317861
 30
0.0000000001127427
  0
VERTEX
  5
1B78F
  8
01
 10
2604.656862321936
 20
-450.7762430247781
 30
0.0000000001127427
  0
VERTEX
  5
1B790
  8
01
 10
2604.679217039048
 20
-450.7781319241839
 30
0.0000000001127427
  0
VERTEX
  5
1B791
  8
01
 10
2604.701409017507
 20
-450.7802023062831
 30
0.0000000001127427
  0
VERTEX
  5
1B792
  8
01
 10
2604.723426066263
 20
-450.7824544473553
 30
0.0000000001127427
  0
VERTEX
  5
1B793
  8
01
 10
2604.745255994265
 20
-450.7848886236803
 30
0.0000000001127427
  0
VERTEX
  5
1B794
  8
01
 10
2604.766886610464
 20
-450.7875051115377
 30
0.0000000001127427
  0
VERTEX
  5
1B795
  8
01
 10
2604.78830572381
 20
-450.7903041872072
 30
0.0000000001127427
  0
VERTEX
  5
1B796
  8
01
 10
2604.809501143252
 20
-450.7932861269685
 30
0.0000000001127427
  0
VERTEX
  5
1B797
  8
01
 10
2604.830460677742
 20
-450.7964512071013
 30
0.0000000001127427
  0
VERTEX
  5
1B798
  8
01
 10
2604.85117898504
 20
-450.799803068648
 30
0.0000000001127427
  0
VERTEX
  5
1B799
  8
01
 10
2604.871652618265
 20
-450.803345434619
 30
0.0000000001127427
  0
VERTEX
  5
1B79A
  8
01
 10
2604.891872229403
 20
-450.8070787042458
 30
0.0000000001127427
  0
VERTEX
  5
1B79B
  8
01
 10
2604.911828470439
 20
-450.8110032767601
 30
0.0000000001127427
  0
VERTEX
  5
1B79C
  8
01
 10
2604.931511993358
 20
-450.8151195513934
 30
0.0000000001127427
  0
VERTEX
  5
1B79D
  8
01
 10
2604.950913450146
 20
-450.8194279273773
 30
0.0000000001127427
  0
VERTEX
  5
1B79E
  8
01
 10
2604.970023492789
 20
-450.8239288039435
 30
0.0000000001127427
  0
VERTEX
  5
1B79F
  8
01
 10
2604.988832773272
 20
-450.8286225803236
 30
0.0000000001127427
  0
VERTEX
  5
1B7A0
  8
01
 10
2605.00733194358
 20
-450.8335096557491
 30
0.0000000001127427
  0
VERTEX
  5
1B7A1
  8
01
 10
2605.025511655698
 20
-450.8385904294516
 30
0.0000000001127427
  0
VERTEX
  5
1B7A2
  8
01
 10
2605.043362561614
 20
-450.8438653006629
 30
0.0000000001127427
  0
VERTEX
  5
1B7A3
  8
01
 10
2605.06087531331
 20
-450.8493346686143
 30
0.0000000001127427
  0
VERTEX
  5
1B7A4
  8
01
 10
2605.078040562774
 20
-450.8549989325376
 30
0.0000000001127427
  0
VERTEX
  5
1B7A5
  8
01
 10
2605.09484896199
 20
-450.8608584916643
 30
0.0000000001127427
  0
VERTEX
  5
1B7A6
  8
01
 10
2605.111291162945
 20
-450.8669137452261
 30
0.0000000001127427
  0
VERTEX
  5
1B7A7
  8
01
 10
2605.127357817623
 20
-450.8731650924545
 30
0.0000000001127427
  0
VERTEX
  5
1B7A8
  8
01
 10
2605.14303957801
 20
-450.8796129325812
 30
0.0000000001127427
  0
VERTEX
  5
1B7A9
  8
01
 10
2605.158327096092
 20
-450.8862576648378
 30
0.0000000001127427
  0
VERTEX
  5
1B7AA
  8
01
 10
2605.173203932437
 20
-450.8930928088242
 30
0.0000000001127427
  0
VERTEX
  5
1B7AB
  8
01
 10
2605.18765969572
 20
-450.900111182863
 30
0.0000000001127427
  0
VERTEX
  5
1B7AC
  8
01
 10
2605.20169411009
 20
-450.9073121342695
 30
0.0000000001127427
  0
VERTEX
  5
1B7AD
  8
01
 10
2605.215306899694
 20
-450.9146950103591
 30
0.0000000001127427
  0
VERTEX
  5
1B7AE
  8
01
 10
2605.228497788679
 20
-450.922259158447
 30
0.0000000001127427
  0
VERTEX
  5
1B7AF
  8
01
 10
2605.241266501193
 20
-450.9300039258488
 30
0.0000000001127427
  0
VERTEX
  5
1B7B0
  8
01
 10
2605.253612761382
 20
-450.9379286598796
 30
0.0000000001127427
  0
VERTEX
  5
1B7B1
  8
01
 10
2605.265536293395
 20
-450.9460327078549
 30
0.0000000001127427
  0
VERTEX
  5
1B7B2
  8
01
 10
2605.277036821378
 20
-450.95431541709
 30
0.0000000001127427
  0
VERTEX
  5
1B7B3
  8
01
 10
2605.288114069479
 20
-450.9627761349003
 30
0.0000000001127427
  0
VERTEX
  5
1B7B4
  8
01
 10
2605.298767761846
 20
-450.971414208601
 30
0.0000000001127427
  0
VERTEX
  5
1B7B5
  8
01
 10
2605.308997622625
 20
-450.9802289855076
 30
0.0000000001127427
  0
VERTEX
  5
1B7B6
  8
01
 10
2605.318803375963
 20
-450.9892198129353
 30
0.0000000001127427
  0
VERTEX
  5
1B7B7
  8
01
 10
2605.328184746009
 20
-450.9983860381996
 30
0.0000000001127427
  0
VERTEX
  5
1B7B8
  8
01
 10
2605.337141456909
 20
-451.0077270086157
 30
0.0000000001127427
  0
VERTEX
  5
1B7B9
  8
01
 10
2605.345673232811
 20
-451.017242071499
 30
0.0000000001127427
  0
VERTEX
  5
1B7BA
  8
01
 10
2605.353779797863
 20
-451.026930574165
 30
0.0000000001127427
  0
VERTEX
  5
1B7BB
  8
01
 10
2605.361460876211
 20
-451.0367918639288
 30
0.0000000001127427
  0
VERTEX
  5
1B7BC
  8
01
 10
2605.368707147758
 20
-451.0468050361367
 30
0.0000000001127427
  0
VERTEX
  5
1B7BD
  8
01
 10
2605.375511710202
 20
-451.0569489412997
 30
0.0000000001127427
  0
VERTEX
  5
1B7BE
  8
01
 10
2605.381877914381
 20
-451.0672225594799
 30
0.0000000001127427
  0
VERTEX
  5
1B7BF
  8
01
 10
2605.387809111136
 20
-451.0776248707398
 30
0.0000000001127427
  0
VERTEX
  5
1B7C0
  8
01
 10
2605.393308651303
 20
-451.0881548551417
 30
0.0000000001127427
  0
VERTEX
  5
1B7C1
  8
01
 10
2605.398379885724
 20
-451.098811492748
 30
0.0000000001127427
  0
VERTEX
  5
1B7C2
  8
01
 10
2605.403026165236
 20
-451.1095937636208
 30
0.0000000001127427
  0
VERTEX
  5
1B7C3
  8
01
 10
2605.407250840678
 20
-451.1205006478227
 30
0.0000000001127427
  0
VERTEX
  5
1B7C4
  8
01
 10
2605.41105726289
 20
-451.1315311254157
 30
0.0000000001127427
  0
VERTEX
  5
1B7C5
  8
01
 10
2605.414448782711
 20
-451.1426841764625
 30
0.0000000001127427
  0
VERTEX
  5
1B7C6
  8
01
 10
2605.41742875098
 20
-451.1539587810251
 30
0.0000000001127427
  0
VERTEX
  5
1B7C7
  8
01
 10
2605.420000518534
 20
-451.1653539191661
 30
0.0000000001127427
  0
VERTEX
  5
1B7C8
  8
01
 10
2605.422167436215
 20
-451.1768685709476
 30
0.0000000001127427
  0
VERTEX
  5
1B7C9
  8
01
 10
2605.423932854861
 20
-451.1885017164321
 30
0.0000000001127427
  0
VERTEX
  5
1B7CA
  8
01
 10
2605.425300125309
 20
-451.2002523356819
 30
0.0000000001127427
  0
VERTEX
  5
1B7CB
  8
01
 10
2605.4262725984
 20
-451.2121194087593
 30
0.0000000001127427
  0
VERTEX
  5
1B7CC
  8
01
 10
2605.426853624973
 20
-451.2241019157265
 30
0.0000000001127427
  0
VERTEX
  5
1B7CD
  8
01
 10
2605.427046555867
 20
-451.2361988366461
 30
0.0000000001127427
  0
SEQEND
  5
1BCB4
  8
01
  0
POLYLINE
  5
1AB82
  8
01
 66
     1
 10
0.0
 20
0.0
 30
0.0000000001127427
  0
VERTEX
  5
1B7CE
  8
01
 10
2605.427046555867
 20
-468.3607426261897
 30
0.0000000001127427
  0
VERTEX
  5
1B7CF
  8
01
 10
2605.426848457312
 20
-468.3728472906441
 30
0.0000000001127427
  0
VERTEX
  5
1B7D0
  8
01
 10
2605.42625289362
 20
-468.3848533284416
 30
0.0000000001127427
  0
VERTEX
  5
1B7D1
  8
01
 10
2605.425257962755
 20
-468.3967571498007
 30
0.0000000001127427
  0
VERTEX
  5
1B7D2
  8
01
 10
2605.423861762677
 20
-468.4085551649399
 30
0.0000000001127427
  0
VERTEX
  5
1B7D3
  8
01
 10
2605.422062391349
 20
-468.4202437840778
 30
0.0000000001127427
  0
VERTEX
  5
1B7D4
  8
01
 10
2605.419857946731
 20
-468.4318194174327
 30
0.0000000001127427
  0
VERTEX
  5
1B7D5
  8
01
 10
2605.417246526785
 20
-468.4432784752233
 30
0.0000000001127427
  0
VERTEX
  5
1B7D6
  8
01
 10
2605.414226229473
 20
-468.454617367668
 30
0.0000000001127427
  0
VERTEX
  5
1B7D7
  8
01
 10
2605.410795152756
 20
-468.4658325049855
 30
0.0000000001127427
  0
VERTEX
  5
1B7D8
  8
01
 10
2605.406951394596
 20
-468.4769202973941
 30
0.0000000001127427
  0
VERTEX
  5
1B7D9
  8
01
 10
2605.402693052956
 20
-468.4878771551124
 30
0.0000000001127427
  0
VERTEX
  5
1B7DA
  8
01
 10
2605.398018225795
 20
-468.4986994883589
 30
0.0000000001127427
  0
VERTEX
  5
1B7DB
  8
01
 10
2605.392925011076
 20
-468.5093837073521
 30
0.0000000001127427
  0
VERTEX
  5
1B7DC
  8
01
 10
2605.387411506761
 20
-468.5199262223105
 30
0.0000000001127427
  0
VERTEX
  5
1B7DD
  8
01
 10
2605.381475810811
 20
-468.5303234434527
 30
0.0000000001127427
  0
VERTEX
  5
1B7DE
  8
01
 10
2605.375116021188
 20
-468.5405717809971
 30
0.0000000001127427
  0
VERTEX
  5
1B7DF
  8
01
 10
2605.368330235853
 20
-468.5506676451624
 30
0.0000000001127427
  0
VERTEX
  5
1B7E0
  8
01
 10
2605.361116552767
 20
-468.5606074461668
 30
0.0000000001127427
  0
VERTEX
  5
1B7E1
  8
01
 10
2605.353463264176
 20
-468.5703929735726
 30
0.0000000001127427
  0
VERTEX
  5
1B7E2
  8
01
 10
2605.345362174481
 20
-468.5800263981426
 30
0.0000000001127427
  0
VERTEX
  5
1B7E3
  8
01
 10
2605.336816649879
 20
-468.589504701897
 30
0.0000000001127427
  0
VERTEX
  5
1B7E4
  8
01
 10
2605.327830056568
 20
-468.5988248668559
 30
0.0000000001127427
  0
VERTEX
  5
1B7E5
  8
01
 10
2605.318405760747
 20
-468.6079838750392
 30
0.0000000001127427
  0
VERTEX
  5
1B7E6
  8
01
 10
2605.308547128612
 20
-468.6169787084672
 30
0.0000000001127427
  0
VERTEX
  5
1B7E7
  8
01
 10
2605.298257526363
 20
-468.6258063491599
 30
0.0000000001127427
  0
VERTEX
  5
1B7E8
  8
01
 10
2605.287540320196
 20
-468.6344637791374
 30
0.0000000001127427
  0
VERTEX
  5
1B7E9
  8
01
 10
2605.276398876309
 20
-468.6429479804197
 30
0.0000000001127427
  0
VERTEX
  5
1B7EA
  8
01
 10
2605.264836560901
 20
-468.651255935027
 30
0.0000000001127427
  0
VERTEX
  5
1B7EB
  8
01
 10
2605.252856740169
 20
-468.6593846249793
 30
0.0000000001127427
  0
VERTEX
  5
1B7EC
  8
01
 10
2605.24046278031
 20
-468.6673310322968
 30
0.0000000001127427
  0
VERTEX
  5
1B7ED
  8
01
 10
2605.227658047524
 20
-468.6750921389994
 30
0.0000000001127427
  0
VERTEX
  5
1B7EE
  8
01
 10
2605.214445908007
 20
-468.6826649271073
 30
0.0000000001127427
  0
VERTEX
  5
1B7EF
  8
01
 10
2605.200829727957
 20
-468.6900463786407
 30
0.0000000001127427
  0
VERTEX
  5
1B7F0
  8
01
 10
2605.186812873573
 20
-468.6972334756195
 30
0.0000000001127427
  0
VERTEX
  5
1B7F1
  8
01
 10
2605.172398711052
 20
-468.7042232000638
 30
0.0000000001127427
  0
VERTEX
  5
1B7F2
  8
01
 10
2605.157590606592
 20
-468.7110125339938
 30
0.0000000001127427
  0
VERTEX
  5
1B7F3
  8
01
 10
2605.142378367364
 20
-468.7176064905108
 30
0.0000000001127427
  0
VERTEX
  5
1B7F4
  8
01
 10
2605.126756485297
 20
-468.7240119076962
 30
0.0000000001127427
  0
VERTEX
  5
1B7F5
  8
01
 10
2605.110735353725
 20
-468.7302285050404
 30
0.0000000001127427
  0
VERTEX
  5
1B7F6
  8
01
 10
2605.094325365979
 20
-468.7362560020333
 30
0.0000000001127427
  0
VERTEX
  5
1B7F7
  8
01
 10
2605.077536915395
 20
-468.7420941181651
 30
0.0000000001127427
  0
VERTEX
  5
1B7F8
  8
01
 10
2605.060380395304
 20
-468.7477425729261
 30
0.0000000001127427
  0
VERTEX
  5
1B7F9
  8
01
 10
2605.042866199042
 20
-468.7532010858063
 30
0.0000000001127427
  0
VERTEX
  5
1B7FA
  8
01
 10
2605.02500471994
 20
-468.7584693762959
 30
0.0000000001127427
  0
VERTEX
  5
1B7FB
  8
01
 10
2605.006806351333
 20
-468.7635471638851
 30
0.0000000001127427
  0
VERTEX
  5
1B7FC
  8
01
 10
2604.988281486553
 20
-468.7684341680641
 30
0.0000000001127427
  0
VERTEX
  5
1B7FD
  8
01
 10
2604.969440518934
 20
-468.7731301083228
 30
0.0000000001127427
  0
VERTEX
  5
1B7FE
  8
01
 10
2604.950293841809
 20
-468.7776347041517
 30
0.0000000001127427
  0
VERTEX
  5
1B7FF
  8
01
 10
2604.930851848511
 20
-468.7819476750407
 30
0.0000000001127427
  0
VERTEX
  5
1B800
  8
01
 10
2604.911124932375
 20
-468.7860687404801
 30
0.0000000001127427
  0
VERTEX
  5
1B801
  8
01
 10
2604.891123486732
 20
-468.7899976199599
 30
0.0000000001127427
  0
VERTEX
  5
1B802
  8
01
 10
2604.870857904918
 20
-468.7937340329705
 30
0.0000000001127427
  0
VERTEX
  5
1B803
  8
01
 10
2604.850338580264
 20
-468.7972776990018
 30
0.0000000001127427
  0
VERTEX
  5
1B804
  8
01
 10
2604.829575906104
 20
-468.8006283375441
 30
0.0000000001127427
  0
VERTEX
  5
1B805
  8
01
 10
2604.808584627877
 20
-468.8037897682452
 30
0.0000000001127427
  0
VERTEX
  5
1B806
  8
01
 10
2604.787379166454
 20
-468.8067663378877
 30
0.0000000001127427
  0
VERTEX
  5
1B807
  8
01
 10
2604.765969428313
 20
-468.8095585566646
 30
0.0000000001127427
  0
VERTEX
  5
1B808
  8
01
 10
2604.744365319933
 20
-468.8121669347685
 30
0.0000000001127427
  0
VERTEX
  5
1B809
  8
01
 10
2604.722576747793
 20
-468.8145919823923
 30
0.0000000001127427
  0
VERTEX
  5
1B80A
  8
01
 10
2604.700613618373
 20
-468.8168342097287
 30
0.0000000001127427
  0
VERTEX
  5
1B80B
  8
01
 10
2604.678485838152
 20
-468.8188941269703
 30
0.0000000001127427
  0
VERTEX
  5
1B80C
  8
01
 10
2604.656203313609
 20
-468.8207722443101
 30
0.0000000001127427
  0
VERTEX
  5
1B80D
  8
01
 10
2604.633775951223
 20
-468.8224690719408
 30
0.0000000001127427
  0
VERTEX
  5
1B80E
  8
01
 10
2604.611213657472
 20
-468.8239851200551
 30
0.0000000001127427
  0
VERTEX
  5
1B80F
  8
01
 10
2604.588526338837
 20
-468.8253208988458
 30
0.0000000001127427
  0
VERTEX
  5
1B810
  8
01
 10
2604.565723901797
 20
-468.8264769185057
 30
0.0000000001127427
  0
VERTEX
  5
1B811
  8
01
 10
2604.54281625283
 20
-468.8274536892275
 30
0.0000000001127427
  0
VERTEX
  5
1B812
  8
01
 10
2604.519813298416
 20
-468.828251721204
 30
0.0000000001127427
  0
VERTEX
  5
1B813
  8
01
 10
2604.496724945033
 20
-468.828871524628
 30
0.0000000001127427
  0
VERTEX
  5
1B814
  8
01
 10
2604.473561099161
 20
-468.8293136096921
 30
0.0000000001127427
  0
VERTEX
  5
1B815
  8
01
 10
2604.450331667279
 20
-468.8295784865892
 30
0.0000000001127427
  0
VERTEX
  5
1B816
  8
01
 10
2604.427046555867
 20
-468.8296666655121
 30
0.0000000001127427
  0
SEQEND
  5
1BCB5
  8
01
  0
LINE
  5
1AB83
  8
01
 10
2604.427046555867
 20
-468.8296666655121
 30
0.0000000001127427
 11
2591.927046555867
 21
-468.8296666655121
 31
0.0000000001127427
  0
LINE
  5
1AB84
  8
01
 10
2591.927046555867
 20
-450.7672747973238
 30
0.0000000001127427
 11
2604.427046555867
 21
-450.7672747973238
 31
0.0000000001127427
  0
POLYLINE
  5
1AB85
  8
01
 66
     1
 10
0.0
 20
0.0
 30
0.0000000001127427
  0
VERTEX
  5
1B817
  8
01
 10
2591.927046555867
 20
-450.7672747973238
 30
0.0000000001127427
  0
VERTEX
  5
1B818
  8
01
 10
2591.904200388958
 20
-450.7673799015005
 30
0.0000000001127427
  0
VERTEX
  5
1B819
  8
01
 10
2591.881404455172
 20
-450.7676943414747
 30
0.0000000001127427
  0
VERTEX
  5
1B81A
  8
01
 10
2591.858668147459
 20
-450.7682168084126
 30
0.0000000001127427
  0
VERTEX
  5
1B81B
  8
01
 10
2591.836000858769
 20
-450.7689459934802
 30
0.0000000001127427
  0
VERTEX
  5
1B81C
  8
01
 10
2591.813411982051
 20
-450.7698805878437
 30
0.0000000001127427
  0
VERTEX
  5
1B81D
  8
01
 10
2591.790910910254
 20
-450.7710192826692
 30
0.0000000001127427
  0
VERTEX
  5
1B81E
  8
01
 10
2591.768507036327
 20
-450.7723607691228
 30
0.0000000001127427
  0
VERTEX
  5
1B81F
  8
01
 10
2591.746209753221
 20
-450.7739037383707
 30
0.0000000001127427
  0
VERTEX
  5
1B820
  8
01
 10
2591.724028453883
 20
-450.7756468815788
 30
0.0000000001127427
  0
VERTEX
  5
1B821
  8
01
 10
2591.701972531264
 20
-450.7775888899135
 30
0.0000000001127427
  0
VERTEX
  5
1B822
  8
01
 10
2591.680051378313
 20
-450.7797284545408
 30
0.0000000001127427
  0
VERTEX
  5
1B823
  8
01
 10
2591.658274387979
 20
-450.7820642666268
 30
0.0000000001127427
  0
VERTEX
  5
1B824
  8
01
 10
2591.636650953211
 20
-450.7845950173377
 30
0.0000000001127427
  0
VERTEX
  5
1B825
  8
01
 10
2591.61519046696
 20
-450.7873193978396
 30
0.0000000001127427
  0
VERTEX
  5
1B826
  8
01
 10
2591.593902322174
 20
-450.7902360992985
 30
0.0000000001127427
  0
VERTEX
  5
1B827
  8
01
 10
2591.572795911802
 20
-450.7933438128806
 30
0.0000000001127427
  0
VERTEX
  5
1B828
  8
01
 10
2591.551880628795
 20
-450.7966412297521
 30
0.0000000001127427
  0
VERTEX
  5
1B829
  8
01
 10
2591.5311658661
 20
-450.800127041079
 30
0.0000000001127427
  0
VERTEX
  5
1B82A
  8
01
 10
2591.510677478941
 20
-450.803796632866
 30
0.0000000001127427
  0
VERTEX
  5
1B82B
  8
01
 10
2591.490439338892
 20
-450.8076446049207
 30
0.0000000001127427
  0
VERTEX
  5
1B82C
  8
01
 10
2591.470457863437
 20
-450.8116684691134
 30
0.0000000001127427
  0
VERTEX
  5
1B82D
  8
01
 10
2591.450739470056
 20
-450.8158657373149
 30
0.0000000001127427
  0
VERTEX
  5
1B82E
  8
01
 10
2591.431290576234
 20
-450.8202339213956
 30
0.0000000001127427
  0
VERTEX
  5
1B82F
  8
01
 10
2591.412117599451
 20
-450.8247705332261
 30
0.0000000001127427
  0
VERTEX
  5
1B830
  8
01
 10
2591.39322695719
 20
-450.8294730846767
 30
0.0000000001127427
  0
VERTEX
  5
1B831
  8
01
 10
2591.374625066933
 20
-450.8343390876182
 30
0.0000000001127427
  0
VERTEX
  5
1B832
  8
01
 10
2591.356318346162
 20
-450.8393660539209
 30
0.0000000001127427
  0
VERTEX
  5
1B833
  8
01
 10
2591.338313212358
 20
-450.8445514954554
 30
0.0000000001127427
  0
VERTEX
  5
1B834
  8
01
 10
2591.320616083005
 20
-450.8498929240923
 30
0.0000000001127427
  0
VERTEX
  5
1B835
  8
01
 10
2591.303233375585
 20
-450.855387851702
 30
0.0000000001127427
  0
VERTEX
  5
1B836
  8
01
 10
2591.28617150758
 20
-450.861033790155
 30
0.0000000001127427
  0
VERTEX
  5
1B837
  8
01
 10
2591.26943689647
 20
-450.866828251322
 30
0.0000000001127427
  0
VERTEX
  5
1B838
  8
01
 10
2591.253035959741
 20
-450.8727687470734
 30
0.0000000001127427
  0
VERTEX
  5
1B839
  8
01
 10
2591.236975114871
 20
-450.8788527892797
 30
0.0000000001127427
  0
VERTEX
  5
1B83A
  8
01
 10
2591.221260779345
 20
-450.8850778898115
 30
0.0000000001127427
  0
VERTEX
  5
1B83B
  8
01
 10
2591.205899370645
 20
-450.8914415605393
 30
0.0000000001127427
  0
VERTEX
  5
1B83C
  8
01
 10
2591.190921143951
 20
-450.8979267196718
 30
0.0000000001127427
  0
VERTEX
  5
1B83D
  8
01
 10
2591.176351737028
 20
-450.9045171913268
 30
0.0000000001127427
  0
VERTEX
  5
1B83E
  8
01
 10
2591.162190641233
 20
-450.911211846239
 30
0.0000000001127427
  0
VERTEX
  5
1B83F
  8
01
 10
2591.148437347922
 20
-450.9180095551427
 30
0.0000000001127427
  0
VERTEX
  5
1B840
  8
01
 10
2591.135091348454
 20
-450.9249091887723
 30
0.0000000001127427
  0
VERTEX
  5
1B841
  8
01
 10
2591.122152134184
 20
-450.9319096178623
 30
0.0000000001127427
  0
VERTEX
  5
1B842
  8
01
 10
2591.109619196468
 20
-450.9390097131471
 30
0.0000000001127427
  0
VERTEX
  5
1B843
  8
01
 10
2591.097492026664
 20
-450.9462083453611
 30
0.0000000001127427
  0
VERTEX
  5
1B844
  8
01
 10
2591.085770116129
 20
-450.9535043852388
 30
0.0000000001127427
  0
VERTEX
  5
1B845
  8
01
 10
2591.074452956218
 20
-450.9608967035145
 30
0.0000000001127427
  0
VERTEX
  5
1B846
  8
01
 10
2591.063540038289
 20
-450.9683841709229
 30
0.0000000001127427
  0
VERTEX
  5
1B847
  8
01
 10
2591.0530308537
 20
-450.9759656581981
 30
0.0000000001127427
  0
VERTEX
  5
1B848
  8
01
 10
2591.042924893805
 20
-450.9836400360747
 30
0.0000000001127427
  0
VERTEX
  5
1B849
  8
01
 10
2591.033221649963
 20
-450.9914061752871
 30
0.0000000001127427
  0
VERTEX
  5
1B84A
  8
01
 10
2591.023920613531
 20
-450.9992629465697
 30
0.0000000001127427
  0
VERTEX
  5
1B84B
  8
01
 10
2591.015021275863
 20
-451.007209220657
 30
0.0000000001127427
  0
VERTEX
  5
1B84C
  8
01
 10
2591.006523128318
 20
-451.0152438682835
 30
0.0000000001127427
  0
VERTEX
  5
1B84D
  8
01
 10
2590.998425662252
 20
-451.0233657601834
 30
0.0000000001127427
  0
VERTEX
  5
1B84E
  8
01
 10
2590.990745031
 20
-451.0315628414082
 30
0.0000000001127427
  0
VERTEX
  5
1B84F
  8
01
 10
2590.983498143248
 20
-451.0398218584656
 30
0.0000000001127427
  0
VERTEX
  5
1B850
  8
01
 10
2590.976685623385
 20
-451.0481398842747
 30
0.0000000001127427
  0
VERTEX
  5
1B851
  8
01
 10
2590.970308095798
 20
-451.0565139917547
 30
0.0000000001127427
  0
VERTEX
  5
1B852
  8
01
 10
2590.964366184877
 20
-451.0649412538248
 30
0.0000000001127427
  0
VERTEX
  5
1B853
  8
01
 10
2590.958860515007
 20
-451.073418743404
 30
0.0000000001127427
  0
VERTEX
  5
1B854
  8
01
 10
2590.953791710579
 20
-451.0819435334115
 30
0.0000000001127427
  0
VERTEX
  5
1B855
  8
01
 10
2590.949160395978
 20
-451.0905126967664
 30
0.0000000001127427
  0
VERTEX
  5
1B856
  8
01
 10
2590.944967195594
 20
-451.0991233063879
 30
0.0000000001127427
  0
VERTEX
  5
1B857
  8
01
 10
2590.941212733813
 20
-451.1077724351952
 30
0.0000000001127427
  0
VERTEX
  5
1B858
  8
01
 10
2590.937897635025
 20
-451.1164571561072
 30
0.0000000001127427
  0
VERTEX
  5
1B859
  8
01
 10
2590.935022523616
 20
-451.1251745420433
 30
0.0000000001127427
  0
VERTEX
  5
1B85A
  8
01
 10
2590.932588023976
 20
-451.1339216659224
 30
0.0000000001127427
  0
VERTEX
  5
1B85B
  8
01
 10
2590.930594760491
 20
-451.1426956006638
 30
0.0000000001127427
  0
VERTEX
  5
1B85C
  8
01
 10
2590.92904335755
 20
-451.1514934191866
 30
0.0000000001127427
  0
VERTEX
  5
1B85D
  8
01
 10
2590.92793443954
 20
-451.1603121944099
 30
0.0000000001127427
  0
VERTEX
  5
1B85E
  8
01
 10
2590.92726863085
 20
-451.1691489992529
 30
0.0000000001127427
  0
VERTEX
  5
1B85F
  8
01
 10
2590.927046555867
 20
-451.1780009066347
 30
0.0000000001127427
  0
SEQEND
  5
1BCB6
  8
01
  0
POLYLINE
  5
1AB86
  8
01
 66
     1
 10
0.0
 20
0.0
 30
0.0000000001127427
  0
VERTEX
  5
1B860
  8
01
 10
2591.927046555867
 20
-468.8296666655121
 30
0.0000000001127427
  0
VERTEX
  5
1B861
  8
01
 10
2591.904200388958
 20
-468.8295615613354
 30
0.0000000001127427
  0
VERTEX
  5
1B862
  8
01
 10
2591.881404455172
 20
-468.8292471213612
 30
0.0000000001127427
  0
VERTEX
  5
1B863
  8
01
 10
2591.858668147459
 20
-468.8287246544234
 30
0.0000000001127427
  0
VERTEX
  5
1B864
  8
01
 10
2591.836000858769
 20
-468.8279954693557
 30
0.0000000001127427
  0
VERTEX
  5
1B865
  8
01
 10
2591.813411982051
 20
-468.8270608749922
 30
0.0000000001127427
  0
VERTEX
  5
1B866
  8
01
 10
2591.790910910254
 20
-468.8259221801667
 30
0.0000000001127427
  0
VERTEX
  5
1B867
  8
01
 10
2591.768507036327
 20
-468.8245806937131
 30
0.0000000001127427
  0
VERTEX
  5
1B868
  8
01
 10
2591.746209753221
 20
-468.8230377244652
 30
0.0000000001127427
  0
VERTEX
  5
1B869
  8
01
 10
2591.724028453883
 20
-468.821294581257
 30
0.0000000001127427
  0
VERTEX
  5
1B86A
  8
01
 10
2591.701972531264
 20
-468.8193525729223
 30
0.0000000001127427
  0
VERTEX
  5
1B86B
  8
01
 10
2591.680051378313
 20
-468.817213008295
 30
0.0000000001127427
  0
VERTEX
  5
1B86C
  8
01
 10
2591.658274387979
 20
-468.8148771962089
 30
0.0000000001127427
  0
VERTEX
  5
1B86D
  8
01
 10
2591.636650953211
 20
-468.8123464454981
 30
0.0000000001127427
  0
VERTEX
  5
1B86E
  8
01
 10
2591.61519046696
 20
-468.8096220649962
 30
0.0000000001127427
  0
VERTEX
  5
1B86F
  8
01
 10
2591.593902322174
 20
-468.8067053635373
 30
0.0000000001127427
  0
VERTEX
  5
1B870
  8
01
 10
2591.572795911802
 20
-468.8035976499551
 30
0.0000000001127427
  0
VERTEX
  5
1B871
  8
01
 10
2591.551880628795
 20
-468.8003002330836
 30
0.0000000001127427
  0
VERTEX
  5
1B872
  8
01
 10
2591.5311658661
 20
-468.7968144217567
 30
0.0000000001127427
  0
VERTEX
  5
1B873
  8
01
 10
2591.510677478941
 20
-468.7931448299697
 30
0.0000000001127427
  0
VERTEX
  5
1B874
  8
01
 10
2591.490439338892
 20
-468.7892968579151
 30
0.0000000001127427
  0
VERTEX
  5
1B875
  8
01
 10
2591.470457863437
 20
-468.7852729937223
 30
0.0000000001127427
  0
VERTEX
  5
1B876
  8
01
 10
2591.450739470056
 20
-468.7810757255208
 30
0.0000000001127427
  0
VERTEX
  5
1B877
  8
01
 10
2591.431290576234
 20
-468.7767075414401
 30
0.0000000001127427
  0
VERTEX
  5
1B878
  8
01
 10
2591.412117599451
 20
-468.7721709296097
 30
0.0000000001127427
  0
VERTEX
  5
1B879
  8
01
 10
2591.39322695719
 20
-468.767468378159
 30
0.0000000001127427
  0
VERTEX
  5
1B87A
  8
01
 10
2591.374625066933
 20
-468.7626023752176
 30
0.0000000001127427
  0
VERTEX
  5
1B87B
  8
01
 10
2591.356318346162
 20
-468.7575754089149
 30
0.0000000001127427
  0
VERTEX
  5
1B87C
  8
01
 10
2591.338313212358
 20
-468.7523899673803
 30
0.0000000001127427
  0
VERTEX
  5
1B87D
  8
01
 10
2591.320616083005
 20
-468.7470485387435
 30
0.0000000001127427
  0
VERTEX
  5
1B87E
  8
01
 10
2591.303233375585
 20
-468.7415536111337
 30
0.0000000001127427
  0
VERTEX
  5
1B87F
  8
01
 10
2591.28617150758
 20
-468.7359076726807
 30
0.0000000001127427
  0
VERTEX
  5
1B880
  8
01
 10
2591.26943689647
 20
-468.7301132115137
 30
0.0000000001127427
  0
VERTEX
  5
1B881
  8
01
 10
2591.253035959741
 20
-468.7241727157623
 30
0.0000000001127427
  0
VERTEX
  5
1B882
  8
01
 10
2591.236975114871
 20
-468.718088673556
 30
0.0000000001127427
  0
VERTEX
  5
1B883
  8
01
 10
2591.221260779345
 20
-468.7118635730242
 30
0.0000000001127427
  0
VERTEX
  5
1B884
  8
01
 10
2591.205899370645
 20
-468.7054999022964
 30
0.0000000001127427
  0
VERTEX
  5
1B885
  8
01
 10
2591.190921143951
 20
-468.699014743164
 30
0.0000000001127427
  0
VERTEX
  5
1B886
  8
01
 10
2591.176351737028
 20
-468.6924242715089
 30
0.0000000001127427
  0
VERTEX
  5
1B887
  8
01
 10
2591.162190641233
 20
-468.6857296165967
 30
0.0000000001127427
  0
VERTEX
  5
1B888
  8
01
 10
2591.148437347922
 20
-468.678931907693
 30
0.0000000001127427
  0
VERTEX
  5
1B889
  8
01
 10
2591.135091348454
 20
-468.6720322740634
 30
0.0000000001127427
  0
VERTEX
  5
1B88A
  8
01
 10
2591.122152134184
 20
-468.6650318449734
 30
0.0000000001127427
  0
VERTEX
  5
1B88B
  8
01
 10
2591.109619196468
 20
-468.6579317496887
 30
0.0000000001127427
  0
VERTEX
  5
1B88C
  8
01
 10
2591.097492026664
 20
-468.6507331174746
 30
0.0000000001127427
  0
VERTEX
  5
1B88D
  8
01
 10
2591.085770116129
 20
-468.643437077597
 30
0.0000000001127427
  0
VERTEX
  5
1B88E
  8
01
 10
2591.074452956218
 20
-468.6360447593212
 30
0.0000000001127427
  0
VERTEX
  5
1B88F
  8
01
 10
2591.063540038289
 20
-468.6285572919128
 30
0.0000000001127427
  0
VERTEX
  5
1B890
  8
01
 10
2591.0530308537
 20
-468.6209758046376
 30
0.0000000001127427
  0
VERTEX
  5
1B891
  8
01
 10
2591.042924893805
 20
-468.613301426761
 30
0.0000000001127427
  0
VERTEX
  5
1B892
  8
01
 10
2591.033221649963
 20
-468.6055352875487
 30
0.0000000001127427
  0
VERTEX
  5
1B893
  8
01
 10
2591.023920613531
 20
-468.597678516266
 30
0.0000000001127427
  0
VERTEX
  5
1B894
  8
01
 10
2591.015021275863
 20
-468.5897322421787
 30
0.0000000001127427
  0
VERTEX
  5
1B895
  8
01
 10
2591.006523128318
 20
-468.5816975945522
 30
0.0000000001127427
  0
VERTEX
  5
1B896
  8
01
 10
2590.998425662252
 20
-468.5735757026523
 30
0.0000000001127427
  0
VERTEX
  5
1B897
  8
01
 10
2590.990745031
 20
-468.5653786214276
 30
0.0000000001127427
  0
VERTEX
  5
1B898
  8
01
 10
2590.983498143248
 20
-468.5571196043701
 30
0.0000000001127427
  0
VERTEX
  5
1B899
  8
01
 10
2590.976685623385
 20
-468.548801578561
 30
0.0000000001127427
  0
VERTEX
  5
1B89A
  8
01
 10
2590.970308095798
 20
-468.540427471081
 30
0.0000000001127427
  0
VERTEX
  5
1B89B
  8
01
 10
2590.964366184877
 20
-468.532000209011
 30
0.0000000001127427
  0
VERTEX
  5
1B89C
  8
01
 10
2590.958860515007
 20
-468.5235227194318
 30
0.0000000001127427
  0
VERTEX
  5
1B89D
  8
01
 10
2590.953791710579
 20
-468.5149979294243
 30
0.0000000001127427
  0
VERTEX
  5
1B89E
  8
01
 10
2590.949160395978
 20
-468.5064287660693
 30
0.0000000001127427
  0
VERTEX
  5
1B89F
  8
01
 10
2590.944967195594
 20
-468.4978181564479
 30
0.0000000001127427
  0
VERTEX
  5
1B8A0
  8
01
 10
2590.941212733813
 20
-468.4891690276407
 30
0.0000000001127427
  0
VERTEX
  5
1B8A1
  8
01
 10
2590.937897635025
 20
-468.4804843067287
 30
0.0000000001127427
  0
VERTEX
  5
1B8A2
  8
01
 10
2590.935022523616
 20
-468.4717669207926
 30
0.0000000001127427
  0
VERTEX
  5
1B8A3
  8
01
 10
2590.932588023976
 20
-468.4630197969135
 30
0.0000000001127427
  0
VERTEX
  5
1B8A4
  8
01
 10
2590.930594760491
 20
-468.4542458621722
 30
0.0000000001127427
  0
VERTEX
  5
1B8A5
  8
01
 10
2590.92904335755
 20
-468.4454480436494
 30
0.0000000001127427
  0
VERTEX
  5
1B8A6
  8
01
 10
2590.92793443954
 20
-468.436629268426
 30
0.0000000001127427
  0
VERTEX
  5
1B8A7
  8
01
 10
2590.92726863085
 20
-468.427792463583
 30
0.0000000001127427
  0
VERTEX
  5
1B8A8
  8
01
 10
2590.927046555867
 20
-468.4189405562013
 30
0.0000000001127427
  0
SEQEND
  5
1BCB7
  8
01
  0
LINE
  5
1AB87
  8
01
 10
2590.927046555867
 20
-451.1780009066347
 30
0.0000000001127427
 11
2590.927046555867
 21
-468.4189405562013
 31
0.0000000001127427
  0
LINE
  5
1AB88
  8
01
 10
2590.927046555867
 20
-468.4189405562013
 30
0.0000000001127427
 11
2590.927046555867
 21
-468.5484707314179
 31
0.0000000001127427
  0
LINE
  5
1AB89
  8
01
 10
2783.427071110521
 20
-213.4984707324393
 30
0.0000000001127424
 11
2822.427071110521
 21
-213.498470732439
 31
0.0000000001127424
  0
LINE
  5
1AB8A
  8
01
 10
2822.927071110521
 20
-219.7984707324392
 30
0.0000000001127424
 11
2782.927071110521
 21
-219.7984707324397
 31
0.0000000001127424
  0
LINE
  5
1AB8B
  8
01
 10
2822.927071110521
 20
-219.7984707324392
 30
0.0000000001127424
 11
2822.927071110521
 21
-213.998470732439
 31
0.0000000001127424
  0
ARC
  5
1AB8C
  8
01
 10
2822.427071110521
 20
-213.9984707324393
 30
0.0000000001127424
 40
0.5
 50
0.0
 51
90.0
  0
LINE
  5
1AB8D
  8
01
 10
2782.927071110521
 20
-219.7984707324397
 30
0.0000000001127424
 11
2782.927071110521
 21
-213.9984707324393
 31
0.0000000001127424
  0
ARC
  5
1AB8E
  8
01
 10
2783.427071110521
 20
-213.9984707324393
 30
0.0000000001127424
 40
0.5
 50
90.0
 51
180.0
  0
LINE
  5
1AB8F
  8
01
 10
2799.427083331734
 20
-212.2984740656395
 30
0.0000000000565071
 11
2793.677083331729
 21
-212.2984740656384
 31
0.0000000000565071
  0
LINE
  5
1AB90
  8
01
 10
2800.427083331736
 20
-198.7984511214329
 30
0.0000000000565071
 11
2800.427083331734
 21
-211.2984740656395
 31
0.0000000000565071
  0
LINE
  5
1AB91
  8
01
 10
2805.427083331736
 20
-198.7984511214347
 30
0.0000000000565071
 11
2805.427083331736
 21
-211.2984740656377
 31
0.0000000000565071
  0
ARC
  5
1AB92
  8
01
 10
2804.427083331737
 20
-198.7984511214329
 30
0.0000000000565071
 40
1.0
 50
0.0000000000521102
 51
90.0
  0
ARC
  5
1AB93
  8
01
 10
2801.427083331737
 20
-198.7984511214329
 30
0.0000000000565071
 40
1.0
 50
90.0
 51
180.0
  0
LINE
  5
1AB94
  8
01
 10
2804.427083331736
 20
-197.7984511214311
 30
0.0000000000565071
 11
2801.427083331737
 21
-197.7984511214311
 31
0.0000000000565071
  0
LINE
  5
1AB95
  8
01
 10
2812.177083331728
 20
-212.2984740656377
 30
0.0000000000565071
 11
2806.427083331736
 21
-212.2984740656377
 31
0.0000000000565071
  0
ARC
  5
1AB96
  8
01
 10
2806.427083331737
 20
-211.2984740656377
 30
0.0000000000565071
 40
1.0
 50
180.0
 51
270.0
  0
ARC
  5
1AB97
  8
01
 10
2799.427083331735
 20
-211.2984740656395
 30
0.0000000000565071
 40
1.0
 50
270.0
 51
0.0
  0
LINE
  5
1AB98
  8
01
 10
2793.177083331728
 20
-212.7984740656382
 30
0.0000000001127646
 11
2793.177083331728
 21
-213.498470732439
 31
0.0000000001127424
  0
ARC
  5
1AB99
  8
01
 10
2793.677083331729
 20
-212.7984740656382
 30
0.0000000001127646
 40
0.5
 50
90.0
 51
180.0
  0
LINE
  5
1AB9A
  8
01
 10
2812.677083331728
 20
-212.7984740656382
 30
0.0000000001127646
 11
2812.677083331728
 21
-213.498470732439
 31
0.0000000001127424
  0
ARC
  5
1AB9B
  8
01
 10
2812.177083331728
 20
-212.7984740656382
 30
0.0000000001127646
 40
0.5
 50
0.0
 51
90.0
  0
LINE
  5
1AB9D
  8
01
 10
2659.227071366879
 20
-473.7984658672208
 30
0.0000000000564849
 11
2659.227071366879
 21
-434.7984658672212
 31
0.0000000000564849
  0
LINE
  5
1AB9E
  8
01
 10
2652.927071366874
 20
-474.298465867221
 30
0.0000000000564849
 11
2658.727071366879
 21
-474.2984658672208
 31
0.0000000000564849
  0
ARC
  5
1AB9F
  8
01
 10
2658.727071366879
 20
-473.7984658672208
 30
0.0000000000564849
 40
0.5
 50
270.0
 51
0.0
  0
LINE
  5
1ABA0
  8
01
 10
2652.927071366878
 20
-434.2984658672208
 30
0.0000000000564849
 11
2658.727071366879
 21
-434.2984658672212
 31
0.0000000000564849
  0
ARC
  5
1ABA1
  8
01
 10
2658.727071366879
 20
-434.7984658672212
 30
0.0000000000564849
 40
0.5
 50
0.0
 51
90.0
  0
LINE
  5
1ABA2
  8
01
 10
2659.969055055839
 20
-456.2984694104723
 30
0.0000000001127388
 11
2659.227071366878
 21
-456.2984694104725
 31
0.0000000001127388
  0
LINE
  5
1ABA3
  8
01
 10
2659.969055055839
 20
-463.2984694104723
 30
0.0000000001127388
 11
2659.227071366878
 21
-463.2984694104723
 31
0.0000000001127388
  0
ARC
  5
1ABA4
  8
01
 10
2655.095655055839
 20
-459.7984694104723
 30
0.0000000001127388
 40
6.0
 50
324.3146699999868
 51
35.68533471265081
  0
LINE
  5
1ABA8
  8
01
 10
2746.926955027132
 20
-431.7984707314108
 30
0.0000000001127424
 11
2760.926955027132
 21
-431.7984707314108
 31
0.0000000001127424
  0
LINE
  5
1ABA9
  8
01
 10
2751.927839209192
 20
-219.7984707324395
 30
0.0000000001127424
 11
2905.682219364225
 21
-219.7984707324395
 31
0.0000000001127424
  0
LINE
  5
1ABAA
  8
01
  6
BYBLOCK
 10
2751.927839209192
 20
-219.7984707324395
 30
0.0000000001127424
 11
2751.927839209192
 21
-259.7984707324395
 31
0.0000000001127424
  0
LINE
  5
1ABAE
  8
01
 10
2802.92695502713
 20
-224.7984707334681
 30
0.0000000001127424
 11
2802.92695502713
 21
-193.8803905442192
 31
0.0000000001127424
  0
LINE
  5
1ABAF
  8
01
  6
BYBLOCK
 10
2753.426955027132
 20
-423.8984707314107
 30
0.0000000001127424
 11
2753.426955027132
 21
-553.6984707314107
 31
0.0000000001127424
  0
LINE
  5
1ABB0
  8
01
  6
BYBLOCK
 10
2753.426955027132
 20
-552.7984707314108
 30
0.0000000001127424
 11
2755.926955027132
 21
-552.7984707314108
 31
0.0000000001127424
  0
LINE
  5
1ABB1
  8
01
  6
BYBLOCK
 10
2755.926955027132
 20
-552.7984707314108
 30
0.0000000001127424
 11
2755.926955027132
 21
-536.2955270062585
 31
0.0000000001127424
  0
LINE
  5
1ABB2
  8
01
  6
BYBLOCK
 10
2751.926955027132
 20
-423.8984707314107
 30
0.0000000001127424
 11
2751.926955027132
 21
-553.6984707314107
 31
0.0000000001127424
  0
LINE
  5
1ABB3
  8
01
  6
BYBLOCK
 10
2751.926955027132
 20
-553.6984707314107
 30
0.0000000001127424
 11
2753.426955027132
 21
-553.6984707314107
 31
0.0000000001127424
  0
LINE
  5
1ABB4
  8
01
  6
BYBLOCK
 10
2753.426955027132
 20
-424.7984707314108
 30
0.0000000001127424
 11
2755.926955027132
 21
-424.7984707314108
 31
0.0000000001127424
  0
LINE
  5
1ABB5
  8
01
  6
BYBLOCK
 10
2751.926955027132
 20
-423.8984707314107
 30
0.0000000001127424
 11
2753.426955027132
 21
-423.8984707314107
 31
0.0000000001127424
  0
LINE
  5
1ABB6
  8
01
  6
BYBLOCK
 10
2753.426955027132
 20
-448.7984707314108
 30
0.0000000001127424
 11
2754.626955027132
 21
-448.7984707314108
 31
0.0000000001127424
  0
LINE
  5
1ABB7
  8
01
  6
BYBLOCK
 10
2754.626955027132
 20
-443.0984707314105
 30
0.0000000001127424
 11
2754.626955027132
 21
-534.4984707314106
 31
0.0000000001127424
  0
LINE
  5
1ABB8
  8
01
  6
BYBLOCK
 10
2754.726955027132
 20
-552.7984707314108
 30
0.0000000001127424
 11
2754.726955027132
 21
-536.1984707314107
 31
0.0000000001127424
  0
LINE
  5
1ABB9
  8
01
  6
BYBLOCK
 10
2754.726955027132
 20
-536.1984707314107
 30
0.0000000001127424
 11
2753.778426889708
 21
-535.2499425939868
 31
0.0000000001127424
  0
LINE
  5
1ABBA
  8
01
  6
BYBLOCK
 10
2755.575483164555
 20
-535.4469988688345
 30
0.0000000001127424
 11
2754.626955027132
 21
-534.4984707314106
 31
0.0000000001127424
  0
ARC
  5
1ABBB
  8
01
  6
BYBLOCK
 10
2754.726955027132
 20
-536.2955270062585
 30
0.0000000001127424
 40
1.2
 50
0.0
 51
45.00000000004606
  0
ARC
  5
1ABBC
  8
01
  6
BYBLOCK
 10
2754.626955027132
 20
-534.4014144565629
 30
0.0000000001127424
 40
1.2
 50
180.0
 51
225.000000000046
  0
LINE
  5
1ABBD
  8
01
  6
BYBLOCK
 10
2755.926955027132
 20
-424.7984707314108
 30
0.0000000001127424
 11
2755.926955027132
 21
-441.301414456563
 31
0.0000000001127424
  0
LINE
  5
1ABBE
  8
01
  6
BYBLOCK
 10
2754.726955027132
 20
-424.7984707314108
 30
0.0000000001127424
 11
2754.726955027132
 21
-441.3984707314107
 31
0.0000000001127424
  0
LINE
  5
1ABBF
  8
01
  6
BYBLOCK
 10
2754.726955027132
 20
-441.3984707314107
 30
0.0000000001127424
 11
2753.778426889708
 21
-442.3469988688346
 31
0.0000000001127424
  0
LINE
  5
1ABC0
  8
01
  6
BYBLOCK
 10
2755.575483164555
 20
-442.1499425939869
 30
0.0000000001127424
 11
2754.626955027132
 21
-443.0984707314108
 31
0.0000000001127424
  0
ARC
  5
1ABC1
  8
01
  6
BYBLOCK
 10
2754.726955027132
 20
-441.301414456563
 30
0.0000000001127424
 40
1.2
 50
314.999999999954
 51
0.0
  0
ARC
  5
1ABC2
  8
01
  6
BYBLOCK
 10
2754.626955027132
 20
-443.1955270062585
 30
0.0000000001127424
 40
1.2
 50
134.9999999999539
 51
180.0
  0
CIRCLE
  5
1ABC3
  8
1HIDDEN
 10
2802.926955027132
 20
-459.7984707314108
 30
0.0000000001127424
 40
4.75
  0
LINE
  5
1ABC4
  8
01
  6
BYBLOCK
 10
2754.626955027132
 20
-525.798470731411
 30
0.0000000001127424
 11
2783.717582314833
 21
-525.7984707314108
 31
0.0000000001127424
  0
ARC
  5
1ABC5
  8
01
  6
BYBLOCK
 10
2755.027839209192
 20
-236.2372201894395
 30
0.0000000001127424
 40
1.6
 50
115.944479772022
 51
180.0
  0
ARC
  5
1ABC6
  8
01
  6
BYBLOCK
 10
2755.027839209192
 20
-243.3597212754394
 30
0.0000000001127424
 40
1.6
 50
180.0
 51
244.055520227978
  0
ARC
  5
1ABC7
  8
01
  6
BYBLOCK
 10
2754.327839209192
 20
-244.6372201894394
 30
0.0000000001127424
 40
1.6
 50
0.0
 51
64.05552022797804
  0
ARC
  5
1ABC8
  8
01
  6
BYBLOCK
 10
2754.327839209192
 20
-234.9597212754395
 30
0.0000000001127424
 40
1.6
 50
295.944479772022
 51
0.0
  0
LINE
  5
1ABC9
  8
01
  6
BYBLOCK
 10
2755.927839209192
 20
-234.9597212754395
 30
0.0000000001127424
 11
2755.927839209192
 21
-227.5984707324394
 31
0.0000000001127424
  0
LINE
  5
1ABCA
  8
01
  6
BYBLOCK
 10
2755.027839209192
 20
-243.1984707324395
 30
0.0000000001127424
 11
2755.027839209192
 21
-236.3984707324394
 31
0.0000000001127424
  0
LINE
  5
1ABCB
  8
01
  6
BYBLOCK
 10
2755.927839209192
 20
-251.7984707324395
 30
0.0000000001127424
 11
2755.927839209192
 21
-244.6372201894394
 31
0.0000000001127424
  0
LINE
  5
1ABCC
  8
01
  6
BYBLOCK
 10
2754.327839209192
 20
-234.7984707324395
 30
0.0000000001127424
 11
2754.327839209192
 21
-227.5984707324394
 31
0.0000000001127424
  0
LINE
  5
1ABCD
  8
01
  6
BYBLOCK
 10
2754.327839209192
 20
-244.7984707324395
 30
0.0000000001127424
 11
2754.327839209192
 21
-251.8984707324394
 31
0.0000000001127424
  0
ARC
  5
1ABCE
  8
01
  6
BYBLOCK
 10
2819.327839209192
 20
-231.8984707324394
 30
0.0000000001127424
 40
1.6
 50
0.0
 51
90.0
  0
LINE
  5
1ABCF
  8
01
  6
BYBLOCK
 10
2753.427839209192
 20
-227.3984707324394
 30
0.0000000001127424
 11
2753.427839209192
 21
-252.1984707324393
 31
0.0000000001127424
  0
LINE
  5
1ABD0
  8
01
  6
BYBLOCK
 10
2819.327839209192
 20
-230.2984707324395
 30
0.0000000001127424
 11
2755.927839209192
 21
-230.2984707324395
 31
0.0000000001127424
  0
LINE
  5
1ABD1
  8
01
  6
BYBLOCK
 10
2819.327839209192
 20
-247.4984707324395
 30
0.0000000001127424
 11
2819.327839209192
 21
-230.2984707324395
 31
0.0000000001127424
  0
LINE
  5
1ABD2
  8
01
  6
BYBLOCK
 10
2820.927839209192
 20
-249.0984707324394
 30
0.0000000001127424
 11
2820.927839209192
 21
-231.8984707324394
 31
0.0000000001127424
  0
LINE
  5
1ABD3
  8
01
  6
BYBLOCK
 10
2753.427839209192
 20
-227.5984707324394
 30
0.0000000001127424
 11
2755.927839209192
 21
-227.5984707324394
 31
0.0000000001127424
  0
LINE
  5
1ABD4
  8
01
  6
BYBLOCK
 10
2755.927839209192
 20
-251.7984707324395
 30
0.0000000001127424
 11
2754.327839209192
 21
-251.7984707324395
 31
0.0000000001127424
  0
LINE
  5
1ABD5
  8
01
  6
BYBLOCK
 10
2754.327839209192
 20
-251.8984707324394
 30
0.0000000001127424
 11
2753.427839209192
 21
-251.8984707324394
 31
0.0000000001127424
  0
ARC
  5
1ABD6
  8
01
  6
BYBLOCK
 10
2750.628434136591
 20
-245.4984707324388
 30
0.0000000001127424
 40
0.3000000000000051
 50
232.8678058729389
 51
270.0
  0
LINE
  5
1ABD7
  8
01
  6
BYBLOCK
 10
2751.427839209192
 20
-245.7984707324388
 30
0.0000000001127424
 11
2750.628434136591
 21
-245.7984707324388
 31
0.0000000001127424
  0
LINE
  5
1ABD8
  8
01
  6
BYBLOCK
 10
2741.027839209192
 20
-236.1254818662346
 30
0.0000000001127424
 11
2741.027839209192
 21
-236.2961039217837
 31
0.0000000001127424
  0
ARC
  5
1ABD9
  8
01
  6
BYBLOCK
 10
2741.327839209192
 20
-236.2961039217837
 30
0.0000000001127424
 40
0.3
 50
180.0
 51
217.7405295629614
  0
ARC
  5
1ABDA
  8
01
  6
BYBLOCK
 10
2780.630139808476
 20
-205.8754009778429
 30
0.0000000001127424
 40
50.00000000000002
 50
217.7405295629745
 51
232.8678058729532
  0
LINE
  5
1ABDB
  8
01
  6
BYBLOCK
 10
2740.827839209192
 20
-234.9984707324393
 30
0.0000000001127424
 11
2740.827839209192
 21
-234.2984707324395
 31
0.0000000001127424
  0
ARC
  5
1ABDC
  8
01
  6
BYBLOCK
 10
2741.327839209192
 20
-234.2984707324395
 30
0.0000000001127424
 40
0.5000000000000142
 50
90.0
 51
180.0
  0
LINE
  5
1ABDD
  8
01
  6
BYBLOCK
 10
2751.427839209192
 20
-233.7984707324395
 30
0.0000000001127424
 11
2741.327839209192
 21
-233.7984707324395
 31
0.0000000001127424
  0
LINE
  5
1ABDE
  8
01
  6
BYBLOCK
 10
2740.827839209192
 20
-235.3771503888797
 30
0.0000000001127424
 11
2740.827839209192
 21
-234.9984707324393
 31
0.0000000001127424
  0
POLYLINE
  5
1ABDF
  8
01
  6
BYBLOCK
 66
     1
 10
0.0
 20
0.0
 30
0.0000000001127424
  0
VERTEX
  5
1B8A9
  8
01
  6
BYBLOCK
 10
2740.853571750456
 20
-235.6538008183288
 30
0.0000000001127424
  0
VERTEX
  5
1B8AA
  8
01
  6
BYBLOCK
 10
2740.851436130292
 20
-235.6421643349985
 30
0.0000000001127424
  0
VERTEX
  5
1B8AB
  8
01
  6
BYBLOCK
 10
2740.849395969749
 20
-235.6305273447423
 30
0.0000000001127424
  0
VERTEX
  5
1B8AC
  8
01
  6
BYBLOCK
 10
2740.84745086146
 20
-235.6188912137075
 30
0.0000000001127424
  0
VERTEX
  5
1B8AD
  8
01
  6
BYBLOCK
 10
2740.845600398056
 20
-235.6072573080415
 30
0.0000000001127424
  0
VERTEX
  5
1B8AE
  8
01
  6
BYBLOCK
 10
2740.843844172168
 20
-235.5956269938913
 30
0.0000000001127424
  0
VERTEX
  5
1B8AF
  8
01
  6
BYBLOCK
 10
2740.842181776431
 20
-235.5840016374043
 30
0.0000000001127424
  0
VERTEX
  5
1B8B0
  8
01
  6
BYBLOCK
 10
2740.840612803474
 20
-235.5723826047276
 30
0.0000000001127424
  0
VERTEX
  5
1B8B1
  8
01
  6
BYBLOCK
 10
2740.839136845931
 20
-235.5607712620086
 30
0.0000000001127424
  0
VERTEX
  5
1B8B2
  8
01
  6
BYBLOCK
 10
2740.837753496433
 20
-235.5491689753943
 30
0.0000000001127424
  0
VERTEX
  5
1B8B3
  8
01
  6
BYBLOCK
 10
2740.836462347613
 20
-235.5375771110322
 30
0.0000000001127424
  0
VERTEX
  5
1B8B4
  8
01
  6
BYBLOCK
 10
2740.835262992102
 20
-235.5259970350693
 30
0.0000000001127424
  0
VERTEX
  5
1B8B5
  8
01
  6
BYBLOCK
 10
2740.834155022532
 20
-235.514430113653
 30
0.0000000001127424
  0
VERTEX
  5
1B8B6
  8
01
  6
BYBLOCK
 10
2740.833138031536
 20
-235.5028777129304
 30
0.0000000001127424
  0
VERTEX
  5
1B8B7
  8
01
  6
BYBLOCK
 10
2740.832211611746
 20
-235.4913411990488
 30
0.0000000001127424
  0
VERTEX
  5
1B8B8
  8
01
  6
BYBLOCK
 10
2740.831375355793
 20
-235.4798219381555
 30
0.0000000001127424
  0
VERTEX
  5
1B8B9
  8
01
  6
BYBLOCK
 10
2740.830628856309
 20
-235.4683212963976
 30
0.0000000001127424
  0
VERTEX
  5
1B8BA
  8
01
  6
BYBLOCK
 10
2740.829971705928
 20
-235.4568406399224
 30
0.0000000001127424
  0
VERTEX
  5
1B8BB
  8
01
  6
BYBLOCK
 10
2740.82940349728
 20
-235.4453813348772
 30
0.0000000001127424
  0
VERTEX
  5
1B8BC
  8
01
  6
BYBLOCK
 10
2740.828923822997
 20
-235.4339447474091
 30
0.0000000001127424
  0
VERTEX
  5
1B8BD
  8
01
  6
BYBLOCK
 10
2740.828532275713
 20
-235.4225322436654
 30
0.0000000001127424
  0
VERTEX
  5
1B8BE
  8
01
  6
BYBLOCK
 10
2740.828228448058
 20
-235.4111451897933
 30
0.0000000001127424
  0
VERTEX
  5
1B8BF
  8
01
  6
BYBLOCK
 10
2740.828011932665
 20
-235.3997849519401
 30
0.0000000001127424
  0
VERTEX
  5
1B8C0
  8
01
  6
BYBLOCK
 10
2740.827882322165
 20
-235.3884528962531
 30
0.0000000001127424
  0
VERTEX
  5
1B8C1
  8
01
  6
BYBLOCK
 10
2740.827839209192
 20
-235.3771503888793
 30
0.0000000001127424
  0
SEQEND
  5
1BCB8
  8
01
  6
BYBLOCK
  0
ARC
  5
1ABE0
  8
01
  6
BYBLOCK
 10
2742.327839209192
 20
-235.3771503888797
 30
0.0000000001127424
 40
1.499999999999998
 50
190.628112987605
 51
225.000000000046
  0
LINE
  5
1ABE1
  8
01
  6
BYBLOCK
 10
2751.927839209192
 20
-232.9484707324393
 30
0.0000000001127424
 11
2751.427839209192
 21
-232.9484707324393
 31
0.0000000001127424
  0
LINE
  5
1ABE2
  8
01
  6
BYBLOCK
 10
2751.427839209192
 20
-246.6484707324394
 30
0.0000000001127424
 11
2751.927839209192
 21
-246.6484707324394
 31
0.0000000001127424
  0
LINE
  5
1ABE3
  8
01
  6
BYBLOCK
 10
2751.427839209192
 20
-246.6484707324394
 30
0.0000000001127424
 11
2751.427839209192
 21
-232.9484707324393
 31
0.0000000001127424
  0
LINE
  5
1ABE4
  8
01
  6
BYBLOCK
 10
2751.927839209192
 20
-227.3984707324394
 30
0.0000000001127424
 11
2753.427839209192
 21
-227.3984707324394
 31
0.0000000001127424
  0
LINE
  5
1ABE5
  8
01
  6
BYBLOCK
 10
2751.927839209192
 20
-252.1984707324393
 30
0.0000000001127424
 11
2753.427839209192
 21
-252.1984707324393
 31
0.0000000001127424
  0
LINE
  5
1ABE6
  8
01
  6
BYBLOCK
 10
2751.927839209192
 20
-252.1984707324393
 30
0.0000000001127424
 11
2751.927839209192
 21
-227.3984707324394
 31
0.0000000001127424
  0
LINE
  5
1ABE7
  8
01
  6
BYBLOCK
 10
2820.927839209192
 20
-247.4984707324395
 30
0.0000000001127424
 11
2755.927839209192
 21
-247.4984707324395
 31
0.0000000001127424
  0
LINE
  5
1ABE8
  8
01
  6
BYBLOCK
 10
2820.927839209192
 20
-249.0984707324394
 30
0.0000000001127424
 11
2770.527839209192
 21
-249.0984707324394
 31
0.0000000001127424
  0
LINE
  5
1ABE9
  8
01
  6
BYBLOCK
 10
2773.365097509395
 20
-249.0984707324394
 30
0.0000000001127424
 11
2755.927839209192
 21
-249.0984707324394
 31
0.0000000001127424
  0
LINE
  5
1ABEA
  8
01
  6
BYBLOCK
 10
2750.481392599785
 20
-245.6520241230328
 30
0.0000000001127424
 11
2741.267179037412
 21
-236.4378105606597
 31
0.0000000001127424
  0
ARC
  5
1ABEB
  8
01
  6
BYBLOCK
 10
2750.834945990378
 20
-245.2984707324395
 30
0.0000000001127424
 40
0.5
 50
224.9999999999908
 51
270.0
  0
LINE
  5
1ABEC
  8
01
  6
BYBLOCK
 10
2751.427839209192
 20
-245.7984707324395
 30
0.0000000001127424
 11
2750.834945990378
 21
-245.7984707324395
 31
0.0000000001127424
  0
LINE
  5
1ABEE
  8
01
  6
BYBLOCK
 10
2740.926955027132
 20
-478.7668004643947
 30
0.0000000001127424
 11
2740.926955027132
 21
-496.8301409984006
 31
0.0000000001127424
  0
LINE
  5
1ABEF
  8
01
  6
BYBLOCK
 10
2745.219848245945
 20
-477.7984707313976
 30
0.0000000001127424
 11
2751.926955027132
 21
-477.7984707313976
 31
0.0000000001127424
  0
LINE
  5
1ABF0
  8
01
  6
BYBLOCK
 10
2745.219848245945
 20
-497.7984707313976
 30
0.0000000001127424
 11
2751.926955027132
 21
-497.7984707313976
 31
0.0000000001127424
  0
LINE
  5
1ABF1
  8
01
  6
BYBLOCK
 10
2750.719848245946
 20
-482.5484707313976
 30
0.0000000001127424
 11
2750.719848245945
 21
-493.0484707313976
 31
0.0000000001127424
  0
ARC
  5
1ABF2
  8
01
  6
BYBLOCK
 10
2745.219848245945
 20
-487.7984707313976
 30
0.0000000001127424
 40
10.00000000000009
 50
53.13010235413383
 51
115.4224671781395
  0
ARC
  5
1ABF3
  8
01
  6
BYBLOCK
 10
2745.219848245945
 20
-487.7984707313974
 30
0.0000000001127424
 40
10.00000000000009
 50
244.5775328218606
 51
306.8698976458662
  0
LINE
  5
1ABF4
  8
01
  6
BYBLOCK
 10
2751.219848245946
 20
-479.7984707313976
 30
0.0000000001127424
 11
2751.219848245946
 21
-495.7984707313976
 31
0.0000000001127424
  0
LINE
  5
1ABF5
  8
01
  6
BYBLOCK
 10
2740.926955027132
 20
-482.5484707313976
 30
0.0000000001127424
 11
2750.719848245946
 21
-482.5484707313976
 31
0.0000000001127424
  0
LINE
  5
1ABF6
  8
01
  6
BYBLOCK
 10
2740.926955027132
 20
-493.0484707313976
 30
0.0000000001127424
 11
2750.719848245946
 21
-493.0484707313976
 31
0.0000000001127424
  0
LINE
  5
1ABF7
  8
01
  6
BYBLOCK
 10
2626.527071366877
 20
-423.8984707314114
 30
0.0000000001127424
 11
2639.327071366876
 21
-423.8984707314114
 31
0.0000000001127424
  0
LINE
  5
1ABF8
  8
01
  6
BYBLOCK
 10
2626.527071366877
 20
-553.6984707314114
 30
0.0000000001127424
 11
2639.327071366876
 21
-553.6984707314114
 31
0.0000000001127424
  0
LINE
  5
1ABF9
  8
01
  6
BYBLOCK
 10
2620.527071366877
 20
-429.8984707314114
 30
0.0000000001127424
 11
2620.527071366877
 21
-547.6984707314114
 31
0.0000000001127424
  0
LINE
  5
1ABFA
  8
01
  6
BYBLOCK
 10
2645.327071366876
 20
-429.8984707314114
 30
0.0000000001127424
 11
2645.327071366876
 21
-547.6984707314114
 31
0.0000000001127424
  0
ARC
  5
1ABFB
  8
01
  6
BYBLOCK
 10
2626.527071366877
 20
-547.6984707314114
 30
0.0000000001127424
 40
6.0
 50
180.0
 51
270.0
  0
ARC
  5
1ABFC
  8
01
  6
BYBLOCK
 10
2639.327071366876
 20
-547.6984707314114
 30
0.0000000001127424
 40
6.0
 50
270.0
 51
0.0
  0
ARC
  5
1ABFD
  8
01
  6
BYBLOCK
 10
2626.527071366877
 20
-429.8984707314114
 30
0.0000000001127424
 40
6.0
 50
90.0
 51
180.0
  0
ARC
  5
1ABFE
  8
01
  6
BYBLOCK
 10
2639.327071366876
 20
-429.8984707314114
 30
0.0000000001127424
 40
6.0
 50
0.0
 51
90.0
  0
CIRCLE
  5
1ABFF
  8
01
  6
BYBLOCK
 10
2632.927071366877
 20
-545.7984707314113
 30
0.0000000001127424
 40
2.75
  0
CIRCLE
  5
1AC00
  8
01
  6
BYBLOCK
 10
2632.927071366877
 20
-545.7984707314113
 30
0.0000000001127424
 40
4.25
  0
CIRCLE
  5
1AC01
  8
01
  6
BYBLOCK
 10
2632.927071366877
 20
-431.7984707314115
 30
0.0000000001127424
 40
2.75
  0
CIRCLE
  5
1AC02
  8
01
  6
BYBLOCK
 10
2632.927071366877
 20
-431.7984707314115
 30
0.0000000001127424
 40
4.25
  0
LINE
  5
1AC03
  8
1CENTER
 10
2638.802096774783
 20
-545.7984707314115
 30
0.0000000001127424
 11
2627.052045958971
 21
-545.7984707314115
 31
0.0000000001127424
  0
LINE
  5
1AC04
  8
1CENTER
 10
2632.927071366877
 20
-539.9234453235051
 30
0.0000000001127424
 11
2632.927071366877
 21
-551.6734961393176
 31
0.0000000001127424
  0
LINE
  5
1AC05
  8
1CENTER
 10
2638.802096774783
 20
-431.7984707314115
 30
0.0000000001127424
 11
2627.052045958971
 21
-431.7984707314115
 31
0.0000000001127424
  0
LINE
  5
1AC06
  8
1CENTER
 10
2632.927071366877
 20
-425.9234453235051
 30
0.0000000001127424
 11
2632.927071366877
 21
-437.6734961393176
 31
0.0000000001127424
  0
ARC
  5
1AC07
  8
01
  6
BYBLOCK
 10
2632.927071366877
 20
-487.7984707314113
 30
0.0000000001127424
 40
10.15
 50
231.9925780701392
 51
308.0074219298607
  0
LINE
  5
1AC08
  8
01
  6
BYBLOCK
 10
2626.677071366877
 20
-479.8009711221584
 30
0.0000000001127424
 11
2626.677071366877
 21
-495.7959703406641
 31
0.0000000001127424
  0
LINE
  5
1AC09
  8
01
  6
BYBLOCK
 10
2639.177071366877
 20
-479.8009711221584
 30
0.0000000001127424
 11
2639.177071366877
 21
-495.7959703406641
 31
0.0000000001127424
  0
ARC
  5
1AC0A
  8
01
  6
BYBLOCK
 10
2632.927071366877
 20
-487.7984707314113
 30
0.0000000001127424
 40
10.15
 50
51.99257807013929
 51
128.0074219298607
  0
LINE
  5
1AC0B
  8
01
  6
BYBLOCK
 10
2628.427071366877
 20
-482.5484707314113
 30
0.0000000001127424
 11
2628.427071366877
 21
-493.0484707314113
 31
0.0000000001127424
  0
LINE
  5
1AC0C
  8
01
  6
BYBLOCK
 10
2638.427071366877
 20
-482.5484707314113
 30
0.0000000001127424
 11
2638.427071366877
 21
-493.0484707314113
 31
0.0000000001127424
  0
LINE
  5
1AC0D
  8
01
  6
BYBLOCK
 10
2628.927071366877
 20
-478.469885629693
 30
0.0000000001127424
 11
2628.927071366877
 21
-482.5484707314115
 31
0.0000000001127424
  0
LINE
  5
1AC0E
  8
01
  6
BYBLOCK
 10
2627.427071366877
 20
-482.5484707314115
 30
0.0000000001127424
 11
2627.427071366877
 21
-493.0484707314113
 31
0.0000000001127424
  0
LINE
  5
1AC0F
  8
01
  6
BYBLOCK
 10
2628.927071366877
 20
-493.0484707314113
 30
0.0000000001127424
 11
2628.927071366877
 21
-497.1270558331296
 31
0.0000000001127424
  0
LINE
  5
1AC10
  8
01
  6
BYBLOCK
 10
2627.427071366877
 20
-482.5484707314113
 30
0.0000000001127424
 11
2638.427071366877
 21
-482.5484707314113
 31
0.0000000001127424
  0
LINE
  5
1AC11
  8
01
  6
BYBLOCK
 10
2627.427071366877
 20
-493.0484707314113
 30
0.0000000001127424
 11
2638.427071366877
 21
-493.0484707314113
 31
0.0000000001127424
  0
LINE
  5
1AC13
  8
01
 10
2612.927187706619
 20
-389.798470731411
 30
0.0000000001127424
 11
2612.927187706619
 21
-579.7984707314113
 31
0.0000000001127424
  0
LINE
  5
1AC14
  8
01
 10
2615.055473089052
 20
-509.7984707314113
 30
0.0000000001127424
 11
2592.427187706619
 21
-509.7984707314113
 31
0.0000000001127424
  0
LINE
  5
1AC15
  8
01
 10
2746.926955027419
 20
-545.798470731122
 30
0.0000000001127424
 11
2760.926955027419
 21
-545.798470731122
 31
0.0000000001127424
  0
LINE
  5
1AC16
  8
01
 10
2814.238843294673
 20
-459.7984707314108
 30
0.0000000001127424
 11
2791.615066759589
 21
-459.7984707314108
 31
0.0000000001127424
  0
LINE
  5
1AC17
  8
01
 10
2802.926955027132
 20
-448.4865824638691
 30
0.0000000001127424
 11
2802.926955027132
 21
-471.1103589989525
 31
0.0000000001127424
  0
LINE
  5
1AC18
  8
01
  6
BYBLOCK
 10
2524.927187706623
 20
-478.7668004643947
 30
0.0000000001127424
 11
2524.927187706623
 21
-496.8301409984006
 31
0.0000000001127424
  0
LINE
  5
1AC19
  8
01
  6
BYBLOCK
 10
2520.63429448781
 20
-477.7984707313976
 30
0.0000000001127424
 11
2513.927187706623
 21
-477.7984707313976
 31
0.0000000001127424
  0
LINE
  5
1AC1A
  8
01
  6
BYBLOCK
 10
2520.63429448781
 20
-497.7984707313976
 30
0.0000000001127424
 11
2513.927187706623
 21
-497.7984707313976
 31
0.0000000001127424
  0
ARC
  5
1AC1B
  8
01
  6
BYBLOCK
 10
2520.63429448781
 20
-487.7984707313976
 30
0.0000000001127424
 40
10.00000000000009
 50
64.57753282186054
 51
90.0
  0
LINE
  5
1AC1C
  8
01
  6
CONTINUOUS
 10
2524.427187706623
 20
-496.1132649242284
 30
0.0000000001127424
 11
2513.927187706623
 21
-496.1132649242284
 31
0.0000000001127424
  0
ARC
  5
1AC1D
  8
01
  6
CONTINUOUS
 10
2524.465767953537
 20
-495.6511256934216
 30
0.0000000001127424
 40
0.4637468103423796
 50
265.2279066161988
 51
354.2577450626255
  0
LINE
  5
1AC1E
  8
01
  6
CONTINUOUS
 10
2524.927187706623
 20
-480.3151559578496
 30
0.0000000001127424
 11
2524.927187706623
 21
-495.2817855049454
 31
0.0000000001127424
  0
ARC
  5
1AC1F
  8
01
  6
CONTINUOUS
 10
2524.465767953537
 20
-479.9458157693732
 30
0.0000000001127424
 40
0.4637468103423387
 50
5.742254937374508
 51
94.77209338380122
  0
ARC
  5
1AC20
  8
01
  6
BYBLOCK
 10
2520.63429448781
 20
-487.7984707313974
 30
0.0000000001127424
 40
10.00000000000009
 50
270.0
 51
295.4224671781395
  0
LINE
  5
1AC21
  8
01
  6
CONTINUOUS
 10
2513.927187706623
 20
-479.4836765385664
 30
0.0000000001127424
 11
2524.427187706623
 21
-479.4836765385664
 31
0.0000000001127424
  0
LINE
  5
1AC22
  8
01
 10
2820.926955027132
 20
-492.4491191585137
 30
0.0000000001127424
 11
2820.926955027132
 21
-524.5984707314108
 31
0.0000000001127424
  0
ARC
  5
1AC23
  8
01
 10
2819.926955027132
 20
-524.7984707314108
 30
0.0000000001127424
 40
1.0
 50
270.0
 51
0.0
  0
LINE
  5
1AC24
  8
01
 10
2783.717582314834
 20
-525.7984707314108
 30
0.0000000001127424
 11
2819.926955027132
 21
-525.7984707314106
 31
0.0000000001127424
  0
LINE
  5
1AC25
  8
01
 10
2492.927187706623
 20
-509.7984707314108
 30
0.0000000001127424
 11
2432.927187706623
 21
-509.7984707314108
 31
0.0000000001127424
  0
LINE
  5
1AC26
  8
01
 10
2462.927187706623
 20
-479.7984707314108
 30
0.0000000001127424
 11
2462.927187706623
 21
-539.7984707314108
 31
0.0000000001127424
  0
LINE
  5
1AC27
  8
01
  6
BYBLOCK
 10
2820.926955027132
 20
-463.0163517638325
 30
0.0000000001128561
 11
2820.926955027132
 21
-492.4491191585137
 31
0.0000000001127424
  0
LINE
  5
1AC28
  8
01
  6
BYBLOCK
 10
2754.626955027132
 20
-451.7984707314108
 30
0.0000000001127424
 11
2783.083851949149
 21
-451.7984707314108
 31
0.0000000001128561
  0
ARC
  5
1AC29
  8
1HIDDEN
 10
2819.926955027132
 20
-452.7984707314108
 30
0.0000000001127424
 40
1.0
 50
0.0
 51
90.0
  0
LINE
  5
1AC2A
  8
1HIDDEN
 10
2783.083851949149
 20
-451.7984707314108
 30
0.0000000001128561
 11
2819.926955027132
 21
-451.7984707314108
 31
0.0000000001127424
  0
LINE
  5
1AC2B
  8
1HIDDEN
 10
2820.926955027132
 20
-452.7984707314108
 30
0.0000000001127424
 11
2820.926955027132
 21
-463.0163517638325
 31
0.0000000001128561
  0
LINE
  5
1AC2C
  8
01
 10
2518.927187706623
 20
-431.7984707314108
 30
0.0000000001127424
 11
2504.927187706623
 21
-431.7984707314108
 31
0.0000000001127424
  0
LINE
  5
1AC2D
  8
01
  6
BYBLOCK
 10
2512.427187706623
 20
-423.8984707314107
 30
0.0000000001127424
 11
2512.427187706623
 21
-553.6984707314107
 31
0.0000000001127424
  0
LINE
  5
1AC2E
  8
01
  6
BYBLOCK
 10
2512.427187706623
 20
-552.7984707314108
 30
0.0000000001127424
 11
2509.927187706623
 21
-552.7984707314108
 31
0.0000000001127424
  0
LINE
  5
1AC2F
  8
01
  6
BYBLOCK
 10
2509.927187706623
 20
-552.7984707314108
 30
0.0000000001127424
 11
2509.927187706623
 21
-536.2955270062585
 31
0.0000000001127424
  0
LINE
  5
1AC30
  8
01
  6
BYBLOCK
 10
2513.927187706623
 20
-423.8984707314107
 30
0.0000000001127424
 11
2513.927187706623
 21
-553.6984707314107
 31
0.0000000001127424
  0
LINE
  5
1AC31
  8
01
  6
BYBLOCK
 10
2513.927187706623
 20
-553.6984707314107
 30
0.0000000001127424
 11
2512.427187706623
 21
-553.6984707314107
 31
0.0000000001127424
  0
LINE
  5
1AC32
  8
01
  6
BYBLOCK
 10
2512.427187706623
 20
-424.7984707314108
 30
0.0000000001127424
 11
2509.927187706623
 21
-424.7984707314108
 31
0.0000000001127424
  0
LINE
  5
1AC33
  8
01
  6
BYBLOCK
 10
2513.927187706623
 20
-423.8984707314107
 30
0.0000000001127424
 11
2512.427187706623
 21
-423.8984707314107
 31
0.0000000001127424
  0
LINE
  5
1AC34
  8
01
  6
BYBLOCK
 10
2512.427187706623
 20
-448.7984707314108
 30
0.0000000001127424
 11
2511.227187706623
 21
-448.7984707314108
 31
0.0000000001127424
  0
LINE
  5
1AC35
  8
01
  6
BYBLOCK
 10
2511.227187706623
 20
-443.0984707314105
 30
0.0000000001127424
 11
2511.227187706623
 21
-534.4984707314106
 31
0.0000000001127424
  0
LINE
  5
1AC36
  8
01
  6
BYBLOCK
 10
2511.127187706623
 20
-552.7984707314108
 30
0.0000000001127424
 11
2511.127187706623
 21
-536.1984707314107
 31
0.0000000001127424
  0
LINE
  5
1AC37
  8
01
  6
BYBLOCK
 10
2511.127187706623
 20
-536.1984707314107
 30
0.0000000001127424
 11
2512.075715844047
 21
-535.2499425939868
 31
0.0000000001127424
  0
LINE
  5
1AC38
  8
01
  6
BYBLOCK
 10
2510.2786595692
 20
-535.4469988688345
 30
0.0000000001127424
 11
2511.227187706623
 21
-534.4984707314106
 31
0.0000000001127424
  0
ARC
  5
1AC39
  8
01
  6
BYBLOCK
 10
2511.127187706623
 20
-536.2955270062585
 30
0.0000000001127424
 40
1.2
 50
134.9999999999539
 51
180.0
  0
ARC
  5
1AC3A
  8
01
  6
BYBLOCK
 10
2511.227187706623
 20
-534.4014144565629
 30
0.0000000001127424
 40
1.2
 50
314.999999999954
 51
0.0
  0
LINE
  5
1AC3B
  8
01
  6
BYBLOCK
 10
2509.927187706623
 20
-424.7984707314108
 30
0.0000000001127424
 11
2509.927187706623
 21
-441.301414456563
 31
0.0000000001127424
  0
LINE
  5
1AC3C
  8
01
  6
BYBLOCK
 10
2511.127187706623
 20
-424.7984707314108
 30
0.0000000001127424
 11
2511.127187706623
 21
-441.3984707314107
 31
0.0000000001127424
  0
LINE
  5
1AC3D
  8
01
  6
BYBLOCK
 10
2511.127187706623
 20
-441.3984707314107
 30
0.0000000001127424
 11
2512.075715844047
 21
-442.3469988688346
 31
0.0000000001127424
  0
LINE
  5
1AC3E
  8
01
  6
BYBLOCK
 10
2510.2786595692
 20
-442.1499425939869
 30
0.0000000001127424
 11
2511.227187706623
 21
-443.0984707314108
 31
0.0000000001127424
  0
ARC
  5
1AC3F
  8
01
  6
BYBLOCK
 10
2511.127187706623
 20
-441.301414456563
 30
0.0000000001127424
 40
1.2
 50
180.0
 51
225.000000000046
  0
ARC
  5
1AC40
  8
01
  6
BYBLOCK
 10
2511.227187706623
 20
-443.1955270062585
 30
0.0000000001127424
 40
1.2
 50
0.0
 51
45.00000000004606
  0
LINE
  5
1AC41
  8
01
  6
BYBLOCK
 10
2511.227187706623
 20
-525.798470731411
 30
0.0000000001127424
 11
2482.136560418922
 21
-525.7984707314108
 31
0.0000000001127424
  0
LINE
  5
1AC42
  8
01
  6
BYBLOCK
 10
2520.63429448781
 20
-477.7984707313976
 30
0.0000000001127424
 11
2513.927187706623
 21
-477.7984707313976
 31
0.0000000001127424
  0
LINE
  5
1AC43
  8
01
  6
BYBLOCK
 10
2520.63429448781
 20
-497.7984707313976
 30
0.0000000001127424
 11
2513.927187706623
 21
-497.7984707313976
 31
0.0000000001127424
  0
LINE
  5
1AC44
  8
01
 10
2518.927187706336
 20
-545.798470731122
 30
0.0000000001127424
 11
2504.927187706336
 21
-545.798470731122
 31
0.0000000001127424
  0
LINE
  5
1AC45
  8
01
  6
BYBLOCK
 10
2444.927187706623
 20
-463.0163517638325
 30
0.0000000001128561
 11
2444.927187706623
 21
-492.4491191585137
 31
0.0000000001127424
  0
LINE
  5
1AC46
  8
01
  6
BYBLOCK
 10
2511.227187706623
 20
-451.7984707314108
 30
0.0000000001127424
 11
2482.770290784606
 21
-451.7984707314108
 31
0.0000000001128561
  0
TEXT
  5
1AC49
  8
1TEXT
 10
2444.927087366877
 20
-228.2984707314108
 30
0.0000000001127424
 40
20.0
  1
2-T1C-※-LJ
  0
LINE
  5
1AC63
  8
01
  6
BYBLOCK
 10
2751.927839209192
 20
-259.7984707324395
 30
0.0000000001127424
 11
2905.682219364223
 21
-259.7984707324395
 31
0.0000000001127424
  0
LINE
  5
1AC64
  8
01
 10
2802.927071366875
 20
-254.7984707324395
 30
0.0000000001127424
 11
2802.927071366875
 21
-281.2984707324395
 31
0.0000000001127424
  0
LINE
  5
1AC65
  8
01
 10
2652.926955027132
 20
-389.7971524183081
 30
0.0000000001127424
 11
2652.926955027132
 21
-579.7971524183081
 31
0.0000000001127424
  0
LINE
  5
1AC66
  8
1CENTER
 10
2667.426955027132
 20
-534.797077519404
 30
0.0000000001127424
 11
2667.426955027132
 21
-516.7971524183081
 31
0.0000000001127424
  0
LINE
  5
1AC67
  8
01
 10
2772.926955027132
 20
-509.7971524183081
 30
0.0000000001127424
 11
2832.926955027132
 21
-509.7971524183081
 31
0.0000000001127424
  0
LINE
  5
1AC68
  8
01
 10
2802.926955027132
 20
-479.7971524183081
 30
0.0000000001127424
 11
2802.926955027132
 21
-539.7971524183081
 31
0.0000000001127424
  0
LINE
  5
1AC69
  8
01
 10
2652.926955027132
 20
-484.7971524183081
 30
0.0000000001127424
 11
2652.926955027132
 21
-534.7971524183081
 31
0.0000000001127424
  0
LINE
  5
1AC6A
  8
01
 10
2650.798669644701
 20
-509.7971524183081
 30
0.0000000001127424
 11
2673.426955027132
 21
-509.7971524183081
 31
0.0000000001127424
  0
POLYLINE
  5
1AC6F
  8
01
 66
     1
 10
0.0
 20
0.0
 30
0.0000000001127424
  0
VERTEX
  5
1B8C2
  8
01
 10
2673.278455701796
 20
-491.9017517993593
 30
0.0000000001127424
  0
VERTEX
  5
1B8C3
  8
01
 10
2673.287068370011
 20
-491.9057114674861
 30
0.0000000001127424
  0
VERTEX
  5
1B8C4
  8
01
 10
2673.29568143406
 20
-491.9096702753152
 30
0.0000000001127424
  0
VERTEX
  5
1B8C5
  8
01
 10
2673.304294893813
 20
-491.9136282227871
 30
0.0000000001127424
  0
VERTEX
  5
1B8C6
  8
01
 10
2673.312908749142
 20
-491.9175853098425
 30
0.0000000001127424
  0
VERTEX
  5
1B8C7
  8
01
 10
2673.321522999919
 20
-491.9215415364221
 30
0.0000000001127424
  0
VERTEX
  5
1B8C8
  8
01
 10
2673.330137646013
 20
-491.9254969024668
 30
0.0000000001127424
  0
VERTEX
  5
1B8C9
  8
01
 10
2673.338752687297
 20
-491.9294514079172
 30
0.0000000001127424
  0
VERTEX
  5
1B8CA
  8
01
 10
2673.34736812364
 20
-491.933405052714
 30
0.0000000001127424
  0
VERTEX
  5
1B8CB
  8
01
 10
2673.355983954914
 20
-491.9373578367982
 30
0.0000000001127424
  0
VERTEX
  5
1B8CC
  8
01
 10
2673.364600180991
 20
-491.9413097601104
 30
0.0000000001127424
  0
VERTEX
  5
1B8CD
  8
01
 10
2673.373216801741
 20
-491.9452608225917
 30
0.0000000001127424
  0
VERTEX
  5
1B8CE
  8
01
 10
2673.381833817035
 20
-491.9492110241829
 30
0.0000000001127424
  0
VERTEX
  5
1B8CF
  8
01
 10
2673.390451226744
 20
-491.9531603648248
 30
0.0000000001127424
  0
VERTEX
  5
1B8D0
  8
01
 10
2673.399069030739
 20
-491.9571088444586
 30
0.0000000001127424
  0
VERTEX
  5
1B8D1
  8
01
 10
2673.407687228892
 20
-491.9610564630249
 30
0.0000000001127424
  0
VERTEX
  5
1B8D2
  8
01
 10
2673.416305821072
 20
-491.965003220465
 30
0.0000000001127424
  0
SEQEND
  5
1BCB9
  8
01
  0
POLYLINE
  5
1AC70
  8
01
 66
     1
 10
0.0
 20
0.0
 30
0.0000000001127424
  0
VERTEX
  5
1B8D3
  8
01
 10
2673.441703975229
 20
-491.9809028429313
 30
0.0000000001127424
  0
VERTEX
  5
1B8D4
  8
01
 10
2673.440243961479
 20
-491.9797287037651
 30
0.0000000001127424
  0
VERTEX
  5
1B8D5
  8
01
 10
2673.438764416533
 20
-491.9785766322319
 30
0.0000000001127424
  0
VERTEX
  5
1B8D6
  8
01
 10
2673.437265842686
 20
-491.9774471094308
 30
0.0000000001127424
  0
VERTEX
  5
1B8D7
  8
01
 10
2673.435748757869
 20
-491.9763406011346
 30
0.0000000001127424
  0
VERTEX
  5
1B8D8
  8
01
 10
2673.43421369506
 20
-491.97525755716
 30
0.0000000001127424
  0
VERTEX
  5
1B8D9
  8
01
 10
2673.43266120166
 20
-491.9741984107656
 30
0.0000000001127424
  0
VERTEX
  5
1B8DA
  8
01
 10
2673.431091838854
 20
-491.9731635780793
 30
0.0000000001127424
  0
VERTEX
  5
1B8DB
  8
01
 10
2673.429506180928
 20
-491.9721534575552
 30
0.0000000001127424
  0
VERTEX
  5
1B8DC
  8
01
 10
2673.427904814578
 20
-491.9711684294638
 30
0.0000000001127424
  0
VERTEX
  5
1B8DD
  8
01
 10
2673.426288338179
 20
-491.9702088554147
 30
0.0000000001127424
  0
VERTEX
  5
1B8DE
  8
01
 10
2673.424657361042
 20
-491.9692750779142
 30
0.0000000001127424
  0
VERTEX
  5
1B8DF
  8
01
 10
2673.423012502653
 20
-491.968367419959
 30
0.0000000001127424
  0
VERTEX
  5
1B8E0
  8
01
 10
2673.421354391889
 20
-491.9674861846671
 30
0.0000000001127424
  0
VERTEX
  5
1B8E1
  8
01
 10
2673.419683666212
 20
-491.9666316549444
 30
0.0000000001127424
  0
VERTEX
  5
1B8E2
  8
01
 10
2673.41800097087
 20
-491.9658040931932
 30
0.0000000001127424
  0
VERTEX
  5
1B8E3
  8
01
 10
2673.416306958064
 20
-491.9650037410561
 30
0.0000000001127424
  0
SEQEND
  5
1BCBA
  8
01
  0
POLYLINE
  5
1AC71
  8
01
 66
     1
 10
0.0
 20
0.0
 30
0.0000000001127424
  0
VERTEX
  5
1B8E4
  8
01
 10
2673.40910955341
 20
-491.9620180242359
 30
0.0000000001127424
  0
VERTEX
  5
1B8E5
  8
01
 10
2673.408160387829
 20
-491.9616691778818
 30
0.0000000001127424
  0
VERTEX
  5
1B8E6
  8
01
 10
2673.407207558561
 20
-491.9613294668271
 30
0.0000000001127424
  0
VERTEX
  5
1B8E7
  8
01
 10
2673.406251197657
 20
-491.9609989477977
 30
0.0000000001127424
  0
VERTEX
  5
1B8E8
  8
01
 10
2673.405291438318
 20
-491.9606776749711
 30
0.0000000001127424
  0
VERTEX
  5
1B8E9
  8
01
 10
2673.404328414842
 20
-491.9603656999458
 30
0.0000000001127424
  0
VERTEX
  5
1B8EA
  8
01
 10
2673.403362262555
 20
-491.9600630717158
 30
0.0000000001127424
  0
VERTEX
  5
1B8EB
  8
01
 10
2673.40239311775
 20
-491.9597698366437
 30
0.0000000001127424
  0
VERTEX
  5
1B8EC
  8
01
 10
2673.401421117623
 20
-491.9594860384383
 30
0.0000000001127424
  0
VERTEX
  5
1B8ED
  8
01
 10
2673.400446400208
 20
-491.9592117181322
 30
0.0000000001127424
  0
VERTEX
  5
1B8EE
  8
01
 10
2673.399469104314
 20
-491.9589469140626
 30
0.0000000001127424
  0
VERTEX
  5
1B8EF
  8
01
 10
2673.398489369453
 20
-491.9586916618526
 30
0.0000000001127424
  0
VERTEX
  5
1B8F0
  8
01
 10
2673.397507335781
 20
-491.9584459943965
 30
0.0000000001127424
  0
VERTEX
  5
1B8F1
  8
01
 10
2673.396523144027
 20
-491.9582099418449
 30
0.0000000001127424
  0
VERTEX
  5
1B8F2
  8
01
 10
2673.395536935425
 20
-491.9579835315927
 30
0.0000000001127424
  0
VERTEX
  5
1B8F3
  8
01
 10
2673.394548851651
 20
-491.9577667882697
 30
0.0000000001127424
  0
VERTEX
  5
1B8F4
  8
01
 10
2673.393559034749
 20
-491.9575597337321
 30
0.0000000001127424
  0
SEQEND
  5
1BCBB
  8
01
  0
POLYLINE
  5
1AC72
  8
01
 10
0.0
 20
0.0
 30
0.0
 66
     1
 70
     8
  0
VERTEX
  5
1B8F5
  8
01
 10
2674.847439779581
 20
-492.6789512981736
 30
0.0000000001127424
 70
    32
  0
VERTEX
  5
1B8F6
  8
01
 10
2674.847464070615
 20
-492.6786481223108
 30
0.0000000001127424
 70
    32
  0
VERTEX
  5
1B8F7
  8
01
 10
2674.84748836165
 20
-492.6783449464481
 30
0.0000000001127424
 70
    32
  0
VERTEX
  5
1B8F8
  8
01
 10
2674.847512652686
 20
-492.6780417705853
 30
0.0000000001127424
 70
    32
  0
VERTEX
  5
1B8F9
  8
01
 10
2674.84753694372
 20
-492.6777385947225
 30
0.0000000001127424
 70
    32
  0
VERTEX
  5
1B8FA
  8
01
 10
2674.847561234755
 20
-492.6774354188597
 30
0.0000000001127424
 70
    32
  0
VERTEX
  5
1B8FB
  8
01
 10
2674.84758552579
 20
-492.6771322429969
 30
0.0000000001127424
 70
    32
  0
VERTEX
  5
1B8FC
  8
01
 10
2674.847609816825
 20
-492.6768290671341
 30
0.0000000001127424
 70
    32
  0
VERTEX
  5
1B8FD
  8
01
 10
2674.84763410786
 20
-492.6765258912712
 30
0.0000000001127424
 70
    32
  0
VERTEX
  5
1B8FE
  8
01
 10
2674.847658398895
 20
-492.6762227154084
 30
0.0000000001127424
 70
    32
  0
VERTEX
  5
1B8FF
  8
01
 10
2674.84768268993
 20
-492.6759195395456
 30
0.0000000001127424
 70
    32
  0
VERTEX
  5
1B900
  8
01
 10
2674.847706980965
 20
-492.6756163636827
 30
0.0000000001127424
 70
    32
  0
VERTEX
  5
1B901
  8
01
 10
2674.847731272
 20
-492.6753131878199
 30
0.0000000001127424
 70
    32
  0
VERTEX
  5
1B902
  8
01
 10
2674.847755563035
 20
-492.675010011957
 30
0.0000000001127424
 70
    32
  0
VERTEX
  5
1B903
  8
01
 10
2674.84777985407
 20
-492.6747068360942
 30
0.0000000001127424
 70
    32
  0
VERTEX
  5
1B904
  8
01
 10
2674.847804145105
 20
-492.6744036602313
 30
0.0000000001127424
 70
    32
  0
VERTEX
  5
1B905
  8
01
 10
2674.84782843614
 20
-492.6741004843684
 30
0.0000000001127424
 70
    32
  0
SEQEND
  5
1BCBC
  8
01
  0
LINE
  5
1AC73
  8
01
 10
2658.626955027131
 20
-484.797077519403
 30
0.0000000001127424
 11
2658.626955027131
 21
-534.797077519404
 31
0.0000000001127424
  0
LINE
  5
1AC74
  8
01
 10
2654.626955027131
 20
-484.797077519403
 30
0.0000000001127424
 11
2654.626955027131
 21
-534.797077519404
 31
0.0000000001127424
  0
LINE
  5
1AC75
  8
01
 10
2658.626955027131
 20
-534.797077519404
 30
0.0000000001127424
 11
2654.626955027131
 21
-534.797077519404
 31
0.0000000001127424
  0
LINE
  5
1AC76
  8
01
 10
2658.626955027131
 20
-484.797077519403
 30
0.0000000001127424
 11
2654.626955027131
 21
-484.797077519403
 31
0.0000000001127424
  0
ARC
  5
1AC77
  8
01
 10
2720.784252401704
 20
-584.8967473730477
 30
0.0000000001127424
 40
74.97979918721913
 50
98.6087727063994
 51
118.0236299168886
  0
ARC
  5
1AC78
  8
01
 10
2747.532056051209
 20
-641.6230344822147
 30
0.0000000001127424
 40
137.6558010829148
 50
116.7580761817457
 51
125.3351083491007
  0
ARC
  5
1AC79
  8
01
 10
2637.278248968077
 20
-487.9211940302471
 30
0.0000000001127424
 40
51.50840420052681
 50
294.4859660151362
 51
306.5015976327637
  0
ARC
  5
1AC7A
  8
01
 10
2695.222090776507
 20
-486.6942320740568
 30
0.0000000001127424
 40
10.55957840464655
 50
264.7064877114765
 51
272.347327989484
  0
ARC
  5
1AC7B
  8
01
 10
2700.675286179386
 20
-414.1071250013688
 30
0.0000000001127424
 40
83.34983966754666
 50
257.3874064512713
 51
265.5773302881367
  0
ARC
  5
1AC7C
  8
01
 10
3141.49254796062
 20
482.4954688490466
 30
0.0000000001127424
 40
1081.047914932037
 50
244.0191891617887
 51
244.4944528242154
  0
ARC
  5
1AC7D
  8
01
 10
2691.577448031358
 20
-458.7460927685975
 30
0.0000000001127424
 40
37.81146723568217
 50
245.6625405545555
 51
256.0705420425804
  0
ARC
  5
1AC7E
  8
01
 10
18450.62835394634
 20
32067.83728180619
 30
0.0000000001127424
 40
36180.95233566153
 50
244.1209527919309
 51
244.1373044022354
  0
ARC
  5
1AC7F
  8
01
 10
2680.274963271194
 20
-532.2753186973582
 30
0.0000000001127424
 40
39.4095161311463
 50
41.5620618476807
 51
55.05052839400258
  0
ARC
  5
1AC80
  8
01
 10
2686.842447257318
 20
-524.6702039244251
 30
0.0000000001127424
 40
29.43162331184761
 50
57.04920384907273
 51
75.17853118939972
  0
ARC
  5
1AC81
  8
01
 10
2682.352088913641
 20
-531.6704477041499
 30
0.0000000001127424
 40
37.46547413852948
 50
40.14337613942921
 51
42.97748033608497
  0
ARC
  5
1AC82
  8
01
 10
2695.588928525086
 20
-495.9777775808566
 30
0.0000000001127424
 40
1.268871991168467
 50
272.9658518659851
 51
284.1781281936792
  0
ARC
  5
1AC83
  8
01
 10
2695.837062579883
 20
-496.9675893004464
 30
0.0000000001127424
 40
0.248440728366443
 50
284.6085142048009
 51
306.1786146983602
  0
ARC
  5
1AC84
  8
01
 10
2695.951305546189
 20
-497.1263897793892
 30
0.0000000001127424
 40
0.052843953261427
 50
307.8333043117128
 51
349.3718737423646
  0
ARC
  5
1AC85
  8
01
 10
2695.952332519478
 20
-497.1297605377536
 30
0.0000000001127424
 40
0.0513080807641571
 50
352.8620740455015
 51
22.24131455633427
  0
LINE
  5
1AC86
  8
01
 10
2695.98750270813
 20
-497.0983870620098
 30
0.0000000001127424
 11
2694.371292250823
 21
-496.2178412134958
 31
0.0000000001127424
  0
ARC
  5
1AC87
  8
01
 10
2695.966469472892
 20
-497.1323931277698
 30
0.0000000001127424
 40
0.0399851158945239
 50
33.47227103024409
 51
58.26261966209844
  0
ARC
  5
1AC88
  8
01
 10
2701.752192996829
 20
-428.9166475694769
 30
0.0000000001127424
 40
67.70471447197825
 50
258.700678769546
 51
263.7414015410403
  0
ARC
  5
1AC89
  8
01
 10
2684.045613218555
 20
-525.3081244458813
 30
0.0000000001127424
 40
30.32600447172325
 50
81.57942311876897
 51
89.13287487198495
  0
ARC
  5
1AC8A
  8
01
 10
2684.095390422896
 20
-497.8866776816853
 30
0.0000000001127424
 40
2.929796701681882
 50
81.9720382020952
 51
123.5732909411269
  0
ARC
  5
1AC8B
  8
01
 10
2709.429655727595
 20
-508.7087794682479
 30
0.0000000001127424
 40
1.996953838373148
 50
310.0940408071498
 51
354.9307720048449
  0
ARC
  5
1AC8C
  8
01
 10
2709.491047147222
 20
-508.735484592406
 30
0.0000000001127424
 40
1.933558857340185
 50
355.55828288029
 51
38.74624229264009
  0
ARC
  5
1AC8D
  8
01
 10
2709.434869116444
 20
-508.9523940393406
 30
0.0000000001127424
 40
1.813691215017145
 50
273.980537749734
 51
314.9303267466072
  0
LINE
  5
1AC8E
  8
01
 10
2652.926955027132
 20
-532.2971524183081
 30
0.0000000001127424
 11
2654.626955027131
 21
-532.2971524183081
 31
0.0000000001127424
  0
LINE
  5
1AC8F
  8
01
 10
2652.926955027132
 20
-487.2971524183081
 30
0.0000000001127424
 11
2654.626955027131
 21
-487.2971524183081
 31
0.0000000001127424
  0
POLYLINE
  5
1AC90
  8
01
 10
0.0
 20
0.0
 30
0.0
 66
     1
 70
     8
  0
VERTEX
  5
1B906
  8
01
 10
2674.847439779581
 20
-492.6789512981736
 30
0.0000000001127424
 70
    32
  0
VERTEX
  5
1B907
  8
01
 10
2674.847464070615
 20
-492.6786481223108
 30
0.0000000001127424
 70
    32
  0
VERTEX
  5
1B908
  8
01
 10
2674.84748836165
 20
-492.6783449464481
 30
0.0000000001127424
 70
    32
  0
VERTEX
  5
1B909
  8
01
 10
2674.847512652686
 20
-492.6780417705853
 30
0.0000000001127424
 70
    32
  0
VERTEX
  5
1B90A
  8
01
 10
2674.84753694372
 20
-492.6777385947225
 30
0.0000000001127424
 70
    32
  0
VERTEX
  5
1B90B
  8
01
 10
2674.847561234755
 20
-492.6774354188597
 30
0.0000000001127424
 70
    32
  0
VERTEX
  5
1B90C
  8
01
 10
2674.84758552579
 20
-492.6771322429969
 30
0.0000000001127424
 70
    32
  0
VERTEX
  5
1B90D
  8
01
 10
2674.847609816825
 20
-492.6768290671341
 30
0.0000000001127424
 70
    32
  0
VERTEX
  5
1B90E
  8
01
 10
2674.84763410786
 20
-492.6765258912712
 30
0.0000000001127424
 70
    32
  0
VERTEX
  5
1B90F
  8
01
 10
2674.847658398895
 20
-492.6762227154084
 30
0.0000000001127424
 70
    32
  0
VERTEX
  5
1B910
  8
01
 10
2674.84768268993
 20
-492.6759195395456
 30
0.0000000001127424
 70
    32
  0
VERTEX
  5
1B911
  8
01
 10
2674.847706980965
 20
-492.6756163636827
 30
0.0000000001127424
 70
    32
  0
VERTEX
  5
1B912
  8
01
 10
2674.847731272
 20
-492.6753131878199
 30
0.0000000001127424
 70
    32
  0
VERTEX
  5
1B913
  8
01
 10
2674.847755563035
 20
-492.675010011957
 30
0.0000000001127424
 70
    32
  0
VERTEX
  5
1B914
  8
01
 10
2674.84777985407
 20
-492.6747068360942
 30
0.0000000001127424
 70
    32
  0
VERTEX
  5
1B915
  8
01
 10
2674.847804145105
 20
-492.6744036602313
 30
0.0000000001127424
 70
    32
  0
VERTEX
  5
1B916
  8
01
 10
2674.84782843614
 20
-492.6741004843684
 30
0.0000000001127424
 70
    32
  0
SEQEND
  5
1BCBD
  8
01
  0
POLYLINE
  5
1AC91
  8
01
 10
0.0
 20
0.0
 30
0.0
 66
     1
 70
     8
  0
VERTEX
  5
1B917
  8
01
 10
2674.847439779581
 20
-492.6789512981736
 30
0.0000000001127424
 70
    32
  0
VERTEX
  5
1B918
  8
01
 10
2674.847464070615
 20
-492.6786481223108
 30
0.0000000001127424
 70
    32
  0
VERTEX
  5
1B919
  8
01
 10
2674.84748836165
 20
-492.6783449464481
 30
0.0000000001127424
 70
    32
  0
VERTEX
  5
1B91A
  8
01
 10
2674.847512652686
 20
-492.6780417705853
 30
0.0000000001127424
 70
    32
  0
VERTEX
  5
1B91B
  8
01
 10
2674.84753694372
 20
-492.6777385947225
 30
0.0000000001127424
 70
    32
  0
VERTEX
  5
1B91C
  8
01
 10
2674.847561234755
 20
-492.6774354188597
 30
0.0000000001127424
 70
    32
  0
VERTEX
  5
1B91D
  8
01
 10
2674.84758552579
 20
-492.6771322429969
 30
0.0000000001127424
 70
    32
  0
VERTEX
  5
1B91E
  8
01
 10
2674.847609816825
 20
-492.6768290671341
 30
0.0000000001127424
 70
    32
  0
VERTEX
  5
1B91F
  8
01
 10
2674.84763410786
 20
-492.6765258912712
 30
0.0000000001127424
 70
    32
  0
VERTEX
  5
1B920
  8
01
 10
2674.847658398895
 20
-492.6762227154084
 30
0.0000000001127424
 70
    32
  0
VERTEX
  5
1B921
  8
01
 10
2674.84768268993
 20
-492.6759195395456
 30
0.0000000001127424
 70
    32
  0
VERTEX
  5
1B922
  8
01
 10
2674.847706980965
 20
-492.6756163636827
 30
0.0000000001127424
 70
    32
  0
VERTEX
  5
1B923
  8
01
 10
2674.847731272
 20
-492.6753131878199
 30
0.0000000001127424
 70
    32
  0
VERTEX
  5
1B924
  8
01
 10
2674.847755563035
 20
-492.675010011957
 30
0.0000000001127424
 70
    32
  0
VERTEX
  5
1B925
  8
01
 10
2674.84777985407
 20
-492.6747068360942
 30
0.0000000001127424
 70
    32
  0
VERTEX
  5
1B926
  8
01
 10
2674.847804145105
 20
-492.6744036602313
 30
0.0000000001127424
 70
    32
  0
VERTEX
  5
1B927
  8
01
 10
2674.84782843614
 20
-492.6741004843684
 30
0.0000000001127424
 70
    32
  0
SEQEND
  5
1BCBE
  8
01
  0
POLYLINE
  5
1AC92
  8
01
 10
0.0
 20
0.0
 30
0.0
 66
     1
 70
     8
  0
VERTEX
  5
1B928
  8
01
 10
2674.847439779581
 20
-492.6789512981736
 30
0.0000000001127424
 70
    32
  0
VERTEX
  5
1B929
  8
01
 10
2674.847464070615
 20
-492.6786481223108
 30
0.0000000001127424
 70
    32
  0
VERTEX
  5
1B92A
  8
01
 10
2674.84748836165
 20
-492.6783449464481
 30
0.0000000001127424
 70
    32
  0
VERTEX
  5
1B92B
  8
01
 10
2674.847512652686
 20
-492.6780417705853
 30
0.0000000001127424
 70
    32
  0
VERTEX
  5
1B92C
  8
01
 10
2674.84753694372
 20
-492.6777385947225
 30
0.0000000001127424
 70
    32
  0
VERTEX
  5
1B92D
  8
01
 10
2674.847561234755
 20
-492.6774354188597
 30
0.0000000001127424
 70
    32
  0
VERTEX
  5
1B92E
  8
01
 10
2674.84758552579
 20
-492.6771322429969
 30
0.0000000001127424
 70
    32
  0
VERTEX
  5
1B92F
  8
01
 10
2674.847609816825
 20
-492.6768290671341
 30
0.0000000001127424
 70
    32
  0
VERTEX
  5
1B930
  8
01
 10
2674.84763410786
 20
-492.6765258912712
 30
0.0000000001127424
 70
    32
  0
VERTEX
  5
1B931
  8
01
 10
2674.847658398895
 20
-492.6762227154084
 30
0.0000000001127424
 70
    32
  0
VERTEX
  5
1B932
  8
01
 10
2674.84768268993
 20
-492.6759195395456
 30
0.0000000001127424
 70
    32
  0
VERTEX
  5
1B933
  8
01
 10
2674.847706980965
 20
-492.6756163636827
 30
0.0000000001127424
 70
    32
  0
VERTEX
  5
1B934
  8
01
 10
2674.847731272
 20
-492.6753131878199
 30
0.0000000001127424
 70
    32
  0
VERTEX
  5
1B935
  8
01
 10
2674.847755563035
 20
-492.675010011957
 30
0.0000000001127424
 70
    32
  0
VERTEX
  5
1B936
  8
01
 10
2674.84777985407
 20
-492.6747068360942
 30
0.0000000001127424
 70
    32
  0
VERTEX
  5
1B937
  8
01
 10
2674.847804145105
 20
-492.6744036602313
 30
0.0000000001127424
 70
    32
  0
VERTEX
  5
1B938
  8
01
 10
2674.84782843614
 20
-492.6741004843684
 30
0.0000000001127424
 70
    32
  0
SEQEND
  5
1BCBF
  8
01
  0
POLYLINE
  5
1AC93
  8
01
 10
0.0
 20
0.0
 30
0.0
 66
     1
 70
     8
  0
VERTEX
  5
1B939
  8
01
 10
2674.847439779581
 20
-492.6789512981736
 30
0.0000000001127424
 70
    32
  0
VERTEX
  5
1B93A
  8
01
 10
2674.847464070615
 20
-492.6786481223108
 30
0.0000000001127424
 70
    32
  0
VERTEX
  5
1B93B
  8
01
 10
2674.84748836165
 20
-492.6783449464481
 30
0.0000000001127424
 70
    32
  0
VERTEX
  5
1B93C
  8
01
 10
2674.847512652686
 20
-492.6780417705853
 30
0.0000000001127424
 70
    32
  0
VERTEX
  5
1B93D
  8
01
 10
2674.84753694372
 20
-492.6777385947225
 30
0.0000000001127424
 70
    32
  0
VERTEX
  5
1B93E
  8
01
 10
2674.847561234755
 20
-492.6774354188597
 30
0.0000000001127424
 70
    32
  0
VERTEX
  5
1B93F
  8
01
 10
2674.84758552579
 20
-492.6771322429969
 30
0.0000000001127424
 70
    32
  0
VERTEX
  5
1B940
  8
01
 10
2674.847609816825
 20
-492.6768290671341
 30
0.0000000001127424
 70
    32
  0
VERTEX
  5
1B941
  8
01
 10
2674.84763410786
 20
-492.6765258912712
 30
0.0000000001127424
 70
    32
  0
VERTEX
  5
1B942
  8
01
 10
2674.847658398895
 20
-492.6762227154084
 30
0.0000000001127424
 70
    32
  0
VERTEX
  5
1B943
  8
01
 10
2674.84768268993
 20
-492.6759195395456
 30
0.0000000001127424
 70
    32
  0
VERTEX
  5
1B944
  8
01
 10
2674.847706980965
 20
-492.6756163636827
 30
0.0000000001127424
 70
    32
  0
VERTEX
  5
1B945
  8
01
 10
2674.847731272
 20
-492.6753131878199
 30
0.0000000001127424
 70
    32
  0
VERTEX
  5
1B946
  8
01
 10
2674.847755563035
 20
-492.675010011957
 30
0.0000000001127424
 70
    32
  0
VERTEX
  5
1B947
  8
01
 10
2674.84777985407
 20
-492.6747068360942
 30
0.0000000001127424
 70
    32
  0
VERTEX
  5
1B948
  8
01
 10
2674.847804145105
 20
-492.6744036602313
 30
0.0000000001127424
 70
    32
  0
VERTEX
  5
1B949
  8
01
 10
2674.84782843614
 20
-492.6741004843684
 30
0.0000000001127424
 70
    32
  0
SEQEND
  5
1BCC0
  8
01
  0
POLYLINE
  5
1AC94
  8
01
 10
0.0
 20
0.0
 30
0.0
 66
     1
 70
     8
  0
VERTEX
  5
1B94A
  8
01
 10
2674.847439779581
 20
-492.6789512981736
 30
0.0000000001127424
 70
    32
  0
VERTEX
  5
1B94B
  8
01
 10
2674.847464070615
 20
-492.6786481223108
 30
0.0000000001127424
 70
    32
  0
VERTEX
  5
1B94C
  8
01
 10
2674.84748836165
 20
-492.6783449464481
 30
0.0000000001127424
 70
    32
  0
VERTEX
  5
1B94D
  8
01
 10
2674.847512652686
 20
-492.6780417705853
 30
0.0000000001127424
 70
    32
  0
VERTEX
  5
1B94E
  8
01
 10
2674.84753694372
 20
-492.6777385947225
 30
0.0000000001127424
 70
    32
  0
VERTEX
  5
1B94F
  8
01
 10
2674.847561234755
 20
-492.6774354188597
 30
0.0000000001127424
 70
    32
  0
VERTEX
  5
1B950
  8
01
 10
2674.84758552579
 20
-492.6771322429969
 30
0.0000000001127424
 70
    32
  0
VERTEX
  5
1B951
  8
01
 10
2674.847609816825
 20
-492.6768290671341
 30
0.0000000001127424
 70
    32
  0
VERTEX
  5
1B952
  8
01
 10
2674.84763410786
 20
-492.6765258912712
 30
0.0000000001127424
 70
    32
  0
VERTEX
  5
1B953
  8
01
 10
2674.847658398895
 20
-492.6762227154084
 30
0.0000000001127424
 70
    32
  0
VERTEX
  5
1B954
  8
01
 10
2674.84768268993
 20
-492.6759195395456
 30
0.0000000001127424
 70
    32
  0
VERTEX
  5
1B955
  8
01
 10
2674.847706980965
 20
-492.6756163636827
 30
0.0000000001127424
 70
    32
  0
VERTEX
  5
1B956
  8
01
 10
2674.847731272
 20
-492.6753131878199
 30
0.0000000001127424
 70
    32
  0
VERTEX
  5
1B957
  8
01
 10
2674.847755563035
 20
-492.675010011957
 30
0.0000000001127424
 70
    32
  0
VERTEX
  5
1B958
  8
01
 10
2674.84777985407
 20
-492.6747068360942
 30
0.0000000001127424
 70
    32
  0
VERTEX
  5
1B959
  8
01
 10
2674.847804145105
 20
-492.6744036602313
 30
0.0000000001127424
 70
    32
  0
VERTEX
  5
1B95A
  8
01
 10
2674.84782843614
 20
-492.6741004843684
 30
0.0000000001127424
 70
    32
  0
SEQEND
  5
1BCC1
  8
01
  0
POLYLINE
  5
1AC95
  8
01
 10
0.0
 20
0.0
 30
0.0
 66
     1
 70
     8
  0
VERTEX
  5
1B95B
  8
01
 10
2674.847439779581
 20
-492.6789512981736
 30
0.0000000001127424
 70
    32
  0
VERTEX
  5
1B95C
  8
01
 10
2674.847464070615
 20
-492.6786481223108
 30
0.0000000001127424
 70
    32
  0
VERTEX
  5
1B95D
  8
01
 10
2674.84748836165
 20
-492.6783449464481
 30
0.0000000001127424
 70
    32
  0
VERTEX
  5
1B95E
  8
01
 10
2674.847512652686
 20
-492.6780417705853
 30
0.0000000001127424
 70
    32
  0
VERTEX
  5
1B95F
  8
01
 10
2674.84753694372
 20
-492.6777385947225
 30
0.0000000001127424
 70
    32
  0
VERTEX
  5
1B960
  8
01
 10
2674.847561234755
 20
-492.6774354188597
 30
0.0000000001127424
 70
    32
  0
VERTEX
  5
1B961
  8
01
 10
2674.84758552579
 20
-492.6771322429969
 30
0.0000000001127424
 70
    32
  0
VERTEX
  5
1B962
  8
01
 10
2674.847609816825
 20
-492.6768290671341
 30
0.0000000001127424
 70
    32
  0
VERTEX
  5
1B963
  8
01
 10
2674.84763410786
 20
-492.6765258912712
 30
0.0000000001127424
 70
    32
  0
VERTEX
  5
1B964
  8
01
 10
2674.847658398895
 20
-492.6762227154084
 30
0.0000000001127424
 70
    32
  0
VERTEX
  5
1B965
  8
01
 10
2674.84768268993
 20
-492.6759195395456
 30
0.0000000001127424
 70
    32
  0
VERTEX
  5
1B966
  8
01
 10
2674.847706980965
 20
-492.6756163636827
 30
0.0000000001127424
 70
    32
  0
VERTEX
  5
1B967
  8
01
 10
2674.847731272
 20
-492.6753131878199
 30
0.0000000001127424
 70
    32
  0
VERTEX
  5
1B968
  8
01
 10
2674.847755563035
 20
-492.675010011957
 30
0.0000000001127424
 70
    32
  0
VERTEX
  5
1B969
  8
01
 10
2674.84777985407
 20
-492.6747068360942
 30
0.0000000001127424
 70
    32
  0
VERTEX
  5
1B96A
  8
01
 10
2674.847804145105
 20
-492.6744036602313
 30
0.0000000001127424
 70
    32
  0
VERTEX
  5
1B96B
  8
01
 10
2674.84782843614
 20
-492.6741004843684
 30
0.0000000001127424
 70
    32
  0
SEQEND
  5
1BCC2
  8
01
  0
POLYLINE
  5
1AC96
  8
01
 10
0.0
 20
0.0
 30
0.0
 66
     1
 70
     8
  0
VERTEX
  5
1B96C
  8
01
 10
2674.847439779581
 20
-492.6789512981736
 30
0.0000000001127424
 70
    32
  0
VERTEX
  5
1B96D
  8
01
 10
2674.847464070615
 20
-492.6786481223108
 30
0.0000000001127424
 70
    32
  0
VERTEX
  5
1B96E
  8
01
 10
2674.84748836165
 20
-492.6783449464481
 30
0.0000000001127424
 70
    32
  0
VERTEX
  5
1B96F
  8
01
 10
2674.847512652686
 20
-492.6780417705853
 30
0.0000000001127424
 70
    32
  0
VERTEX
  5
1B970
  8
01
 10
2674.84753694372
 20
-492.6777385947225
 30
0.0000000001127424
 70
    32
  0
VERTEX
  5
1B971
  8
01
 10
2674.847561234755
 20
-492.6774354188597
 30
0.0000000001127424
 70
    32
  0
VERTEX
  5
1B972
  8
01
 10
2674.84758552579
 20
-492.6771322429969
 30
0.0000000001127424
 70
    32
  0
VERTEX
  5
1B973
  8
01
 10
2674.847609816825
 20
-492.6768290671341
 30
0.0000000001127424
 70
    32
  0
VERTEX
  5
1B974
  8
01
 10
2674.84763410786
 20
-492.6765258912712
 30
0.0000000001127424
 70
    32
  0
VERTEX
  5
1B975
  8
01
 10
2674.847658398895
 20
-492.6762227154084
 30
0.0000000001127424
 70
    32
  0
VERTEX
  5
1B976
  8
01
 10
2674.84768268993
 20
-492.6759195395456
 30
0.0000000001127424
 70
    32
  0
VERTEX
  5
1B977
  8
01
 10
2674.847706980965
 20
-492.6756163636827
 30
0.0000000001127424
 70
    32
  0
VERTEX
  5
1B978
  8
01
 10
2674.847731272
 20
-492.6753131878199
 30
0.0000000001127424
 70
    32
  0
VERTEX
  5
1B979
  8
01
 10
2674.847755563035
 20
-492.675010011957
 30
0.0000000001127424
 70
    32
  0
VERTEX
  5
1B97A
  8
01
 10
2674.84777985407
 20
-492.6747068360942
 30
0.0000000001127424
 70
    32
  0
VERTEX
  5
1B97B
  8
01
 10
2674.847804145105
 20
-492.6744036602313
 30
0.0000000001127424
 70
    32
  0
VERTEX
  5
1B97C
  8
01
 10
2674.84782843614
 20
-492.6741004843684
 30
0.0000000001127424
 70
    32
  0
SEQEND
  5
1BCC3
  8
01
  0
LINE
  5
1AC97
  8
01
 10
2652.926955027132
 20
-487.2971524183081
 30
0.0000000001127424
 11
2652.926955027132
 21
-532.2971524183081
 31
0.0000000001127424
  0
LINE
  5
1AC98
  8
01
 10
2822.927070978316
 20
-261.4984707324393
 30
0.0000000001127424
 11
2827.927071366875
 21
-261.4984707324393
 31
0.0000000001127424
  0
LINE
  5
1AC99
  8
01
 10
2825.427071366873
 20
-259.7984707324395
 30
0.0000000001127424
 11
2825.427071366873
 21
-261.4984707324393
 31
0.0000000001127424
  0
LINE
  5
1AC9A
  8
01
 10
2780.427071366875
 20
-259.7984707324395
 30
0.0000000001127424
 11
2780.427071366875
 21
-261.4984707324393
 31
0.0000000001127424
  0
POLYLINE
  5
1AC9B
  8
01
 66
     1
 10
0.0
 20
0.0
 30
0.0000000001127424
  0
VERTEX
  5
1B97D
  8
01
 10
2827.922955885929
 20
-265.5017647448958
 30
0.0000000001127424
  0
VERTEX
  5
1B97E
  8
01
 10
2827.923162083714
 20
-265.5015609794008
 30
0.0000000001127424
  0
VERTEX
  5
1B97F
  8
01
 10
2827.923368200312
 20
-265.501357131552
 30
0.0000000001127424
  0
VERTEX
  5
1B980
  8
01
 10
2827.923574235673
 20
-265.5011532013979
 30
0.0000000001127424
  0
VERTEX
  5
1B981
  8
01
 10
2827.923780189747
 20
-265.500949188987
 30
0.0000000001127424
  0
VERTEX
  5
1B982
  8
01
 10
2827.923986062485
 20
-265.5007450943681
 30
0.0000000001127424
  0
VERTEX
  5
1B983
  8
01
 10
2827.924191853839
 20
-265.5005409175897
 30
0.0000000001127424
  0
VERTEX
  5
1B984
  8
01
 10
2827.924397563758
 20
-265.5003366587005
 30
0.0000000001127424
  0
VERTEX
  5
1B985
  8
01
 10
2827.924603192195
 20
-265.5001323177493
 30
0.0000000001127424
  0
VERTEX
  5
1B986
  8
01
 10
2827.924808739099
 20
-265.4999278947848
 30
0.0000000001127424
  0
VERTEX
  5
1B987
  8
01
 10
2827.925014204421
 20
-265.4997233898558
 30
0.0000000001127424
  0
VERTEX
  5
1B988
  8
01
 10
2827.925219588114
 20
-265.4995188030112
 30
0.0000000001127424
  0
VERTEX
  5
1B989
  8
01
 10
2827.925424890126
 20
-265.4993141342999
 30
0.0000000001127424
  0
VERTEX
  5
1B98A
  8
01
 10
2827.925630110411
 20
-265.4991093837708
 30
0.0000000001127424
  0
VERTEX
  5
1B98B
  8
01
 10
2827.925835248918
 20
-265.4989045514727
 30
0.0000000001127424
  0
VERTEX
  5
1B98C
  8
01
 10
2827.926040305599
 20
-265.4986996374549
 30
0.0000000001127424
  0
VERTEX
  5
1B98D
  8
01
 10
2827.926245280406
 20
-265.4984946417662
 30
0.0000000001127424
  0
SEQEND
  5
1BCC4
  8
01
  0
POLYLINE
  5
1AC9C
  8
01
 10
0.0
 20
0.0
 30
0.0
 66
     1
 70
     8
  0
VERTEX
  5
1B98E
  8
01
 10
2835.139532177597
 20
-318.0831005351729
 30
0.0000000001127424
 70
    32
  0
VERTEX
  5
1B98F
  8
01
 10
2835.139532177616
 20
-318.0832733645892
 30
0.0000000001127424
 70
    32
  0
VERTEX
  5
1B990
  8
01
 10
2835.139532177633
 20
-318.0834129004809
 30
0.0000000001127424
 70
    32
  0
VERTEX
  5
1B991
  8
01
 10
2835.139532177649
 20
-318.0835191232684
 30
0.0000000001127424
 70
    32
  0
VERTEX
  5
1B992
  8
01
 10
2835.139532177663
 20
-318.0835920133723
 30
0.0000000001127424
 70
    32
  0
VERTEX
  5
1B993
  8
01
 10
2835.139532177676
 20
-318.0836315512129
 30
0.0000000001127424
 70
    32
  0
VERTEX
  5
1B994
  8
01
 10
2835.139532177687
 20
-318.0836377172106
 30
0.0000000001127424
 70
    32
  0
VERTEX
  5
1B995
  8
01
 10
2835.139532177698
 20
-318.083610491786
 30
0.0000000001127424
 70
    32
  0
VERTEX
  5
1B996
  8
01
 10
2835.139532177707
 20
-318.0835498553594
 30
0.0000000001127424
 70
    32
  0
VERTEX
  5
1B997
  8
01
 10
2835.139532177715
 20
-318.0834557883512
 30
0.0000000001127424
 70
    32
  0
VERTEX
  5
1B998
  8
01
 10
2835.139532177723
 20
-318.0833282711819
 30
0.0000000001127424
 70
    32
  0
VERTEX
  5
1B999
  8
01
 10
2835.139532177729
 20
-318.083167284272
 30
0.0000000001127424
 70
    32
  0
VERTEX
  5
1B99A
  8
01
 10
2835.139532177734
 20
-318.0829728080417
 30
0.0000000001127424
 70
    32
  0
VERTEX
  5
1B99B
  8
01
 10
2835.139532177739
 20
-318.0827448229117
 30
0.0000000001127424
 70
    32
  0
VERTEX
  5
1B99C
  8
01
 10
2835.139532177742
 20
-318.0824833093022
 30
0.0000000001127424
 70
    32
  0
VERTEX
  5
1B99D
  8
01
 10
2835.139532177745
 20
-318.0821882476338
 30
0.0000000001127424
 70
    32
  0
VERTEX
  5
1B99E
  8
01
 10
2835.139532177748
 20
-318.0818596183269
 30
0.0000000001127424
 70
    32
  0
VERTEX
  5
1B99F
  8
01
 10
2835.13953217775
 20
-318.0814974018018
 30
0.0000000001127424
 70
    32
  0
VERTEX
  5
1B9A0
  8
01
 10
2835.139532177751
 20
-318.081101578479
 30
0.0000000001127424
 70
    32
  0
VERTEX
  5
1B9A1
  8
01
 10
2835.139532177752
 20
-318.080672128779
 30
0.0000000001127424
 70
    32
  0
VERTEX
  5
1B9A2
  8
01
 10
2835.139532177753
 20
-318.0802090331222
 30
0.0000000001127424
 70
    32
  0
VERTEX
  5
1B9A3
  8
01
 10
2835.139532177753
 20
-318.079712271929
 30
0.0000000001127424
 70
    32
  0
VERTEX
  5
1B9A4
  8
01
 10
2835.139532177754
 20
-318.0791818256199
 30
0.0000000001127424
 70
    32
  0
VERTEX
  5
1B9A5
  8
01
 10
2835.139532177754
 20
-318.0786176746152
 30
0.0000000001127424
 70
    32
  0
VERTEX
  5
1B9A6
  8
01
 10
2835.139532177754
 20
-318.0780197993354
 30
0.0000000001127424
 70
    32
  0
SEQEND
  5
1BCC5
  8
01
  0
POLYLINE
  5
1AC9D
  8
01
 10
0.0
 20
0.0
 30
0.0
 66
     1
 70
     8
  0
VERTEX
  5
1B9A7
  8
01
 10
2791.75524553444
 20
-295.6580172866825
 30
0.0000000001127424
 70
    32
  0
VERTEX
  5
1B9A8
  8
01
 10
2791.754681222576
 20
-295.6581051979399
 30
0.0000000001127424
 70
    32
  0
VERTEX
  5
1B9A9
  8
01
 10
2791.754116910712
 20
-295.6581931091973
 30
0.0000000001127424
 70
    32
  0
VERTEX
  5
1B9AA
  8
01
 10
2791.753552598848
 20
-295.6582810204547
 30
0.0000000001127424
 70
    32
  0
VERTEX
  5
1B9AB
  8
01
 10
2791.752988286984
 20
-295.6583689317121
 30
0.0000000001127424
 70
    32
  0
VERTEX
  5
1B9AC
  8
01
 10
2791.75242397512
 20
-295.6584568429694
 30
0.0000000001127424
 70
    32
  0
VERTEX
  5
1B9AD
  8
01
 10
2791.751859663255
 20
-295.6585447542268
 30
0.0000000001127424
 70
    32
  0
VERTEX
  5
1B9AE
  8
01
 10
2791.751295351391
 20
-295.6586326654841
 30
0.0000000001127424
 70
    32
  0
VERTEX
  5
1B9AF
  8
01
 10
2791.750731039527
 20
-295.6587205767414
 30
0.0000000001127424
 70
    32
  0
VERTEX
  5
1B9B0
  8
01
 10
2791.750166727663
 20
-295.6588084879987
 30
0.0000000001127424
 70
    32
  0
VERTEX
  5
1B9B1
  8
01
 10
2791.749602415799
 20
-295.658896399256
 30
0.0000000001127424
 70
    32
  0
VERTEX
  5
1B9B2
  8
01
 10
2791.749038103934
 20
-295.6589843105133
 30
0.0000000001127424
 70
    32
  0
VERTEX
  5
1B9B3
  8
01
 10
2791.74847379207
 20
-295.6590722217705
 30
0.0000000001127424
 70
    32
  0
VERTEX
  5
1B9B4
  8
01
 10
2791.747909480206
 20
-295.6591601330278
 30
0.0000000001127424
 70
    32
  0
VERTEX
  5
1B9B5
  8
01
 10
2791.747345168342
 20
-295.6592480442851
 30
0.0000000001127424
 70
    32
  0
VERTEX
  5
1B9B6
  8
01
 10
2791.746780856477
 20
-295.6593359555422
 30
0.0000000001127424
 70
    32
  0
VERTEX
  5
1B9B7
  8
01
 10
2791.746216544613
 20
-295.6594238667994
 30
0.0000000001127424
 70
    32
  0
SEQEND
  5
1BCC6
  8
01
  0
POLYLINE
  5
1AC9E
  8
01
 10
0.0
 20
0.0
 30
0.0
 66
     1
 70
     8
  0
VERTEX
  5
1B9B8
  8
01
 10
2827.926221354216
 20
-265.4984707353078
 30
0.0000000001127424
 70
    32
  0
VERTEX
  5
1B9B9
  8
01
 10
2827.926112673397
 20
-265.4984707351276
 30
0.0000000001127424
 70
    32
  0
VERTEX
  5
1B9BA
  8
01
 10
2827.926003992578
 20
-265.4984707349474
 30
0.0000000001127424
 70
    32
  0
VERTEX
  5
1B9BB
  8
01
 10
2827.925895311758
 20
-265.4984707347672
 30
0.0000000001127424
 70
    32
  0
VERTEX
  5
1B9BC
  8
01
 10
2827.925786630939
 20
-265.498470734587
 30
0.0000000001127424
 70
    32
  0
VERTEX
  5
1B9BD
  8
01
 10
2827.92567795012
 20
-265.4984707344069
 30
0.0000000001127424
 70
    32
  0
VERTEX
  5
1B9BE
  8
01
 10
2827.9255692693
 20
-265.4984707342267
 30
0.0000000001127424
 70
    32
  0
VERTEX
  5
1B9BF
  8
01
 10
2827.925460588481
 20
-265.4984707340465
 30
0.0000000001127424
 70
    32
  0
VERTEX
  5
1B9C0
  8
01
 10
2827.925351907662
 20
-265.4984707338663
 30
0.0000000001127424
 70
    32
  0
VERTEX
  5
1B9C1
  8
01
 10
2827.925243226843
 20
-265.4984707336861
 30
0.0000000001127424
 70
    32
  0
VERTEX
  5
1B9C2
  8
01
 10
2827.925134546023
 20
-265.4984707335059
 30
0.0000000001127424
 70
    32
  0
VERTEX
  5
1B9C3
  8
01
 10
2827.925025865205
 20
-265.4984707333257
 30
0.0000000001127424
 70
    32
  0
VERTEX
  5
1B9C4
  8
01
 10
2827.924917184385
 20
-265.4984707331455
 30
0.0000000001127424
 70
    32
  0
VERTEX
  5
1B9C5
  8
01
 10
2827.924808503566
 20
-265.4984707329653
 30
0.0000000001127424
 70
    32
  0
VERTEX
  5
1B9C6
  8
01
 10
2827.924699822746
 20
-265.4984707327851
 30
0.0000000001127424
 70
    32
  0
VERTEX
  5
1B9C7
  8
01
 10
2827.924591141928
 20
-265.4984707326049
 30
0.0000000001127424
 70
    32
  0
VERTEX
  5
1B9C8
  8
01
 10
2827.924482461108
 20
-265.4984707324247
 30
0.0000000001127424
 70
    32
  0
SEQEND
  5
1BCC7
  8
01
  0
POLYLINE
  5
1AC9F
  8
01
 10
0.0
 20
0.0
 30
0.0
 66
     1
 70
     8
  0
VERTEX
  5
1B9C9
  8
01
 10
2777.927071366875
 20
-261.4984707324393
 30
0.0000000001127424
 70
    32
  0
VERTEX
  5
1B9CA
  8
01
 10
2777.927071366875
 20
-261.7484707324393
 30
0.0000000001127424
 70
    32
  0
VERTEX
  5
1B9CB
  8
01
 10
2777.927071366875
 20
-261.9984707324393
 30
0.0000000001127424
 70
    32
  0
VERTEX
  5
1B9CC
  8
01
 10
2777.927071366875
 20
-262.2484707324393
 30
0.0000000001127424
 70
    32
  0
VERTEX
  5
1B9CD
  8
01
 10
2777.927071366875
 20
-262.4984707324393
 30
0.0000000001127424
 70
    32
  0
VERTEX
  5
1B9CE
  8
01
 10
2777.927071366875
 20
-262.7484707324393
 30
0.0000000001127424
 70
    32
  0
VERTEX
  5
1B9CF
  8
01
 10
2777.927071366875
 20
-262.9984707324393
 30
0.0000000001127424
 70
    32
  0
VERTEX
  5
1B9D0
  8
01
 10
2777.927071366875
 20
-263.2484707324393
 30
0.0000000001127424
 70
    32
  0
VERTEX
  5
1B9D1
  8
01
 10
2777.927071366875
 20
-263.4984707324393
 30
0.0000000001127424
 70
    32
  0
VERTEX
  5
1B9D2
  8
01
 10
2777.927071366875
 20
-263.7484707324393
 30
0.0000000001127424
 70
    32
  0
VERTEX
  5
1B9D3
  8
01
 10
2777.927071366875
 20
-263.9984707324393
 30
0.0000000001127424
 70
    32
  0
VERTEX
  5
1B9D4
  8
01
 10
2777.927071366875
 20
-264.2484707324393
 30
0.0000000001127424
 70
    32
  0
VERTEX
  5
1B9D5
  8
01
 10
2777.927071366875
 20
-264.4984707324393
 30
0.0000000001127424
 70
    32
  0
VERTEX
  5
1B9D6
  8
01
 10
2777.927071366875
 20
-264.7484707324393
 30
0.0000000001127424
 70
    32
  0
VERTEX
  5
1B9D7
  8
01
 10
2777.927071366875
 20
-264.9984707324393
 30
0.0000000001127424
 70
    32
  0
VERTEX
  5
1B9D8
  8
01
 10
2777.927071366875
 20
-265.2484707324393
 30
0.0000000001127424
 70
    32
  0
VERTEX
  5
1B9D9
  8
01
 10
2777.927071366875
 20
-265.4984707324393
 30
0.0000000001127424
 70
    32
  0
SEQEND
  5
1BCC8
  8
01
  0
POLYLINE
  5
1ACA0
  8
01
 66
     1
 10
0.0
 20
0.0
 30
0.0000000001127424
  0
VERTEX
  5
1B9DA
  8
01
 10
2827.924482461108
 20
-265.4984707324247
 30
0.0000000001127424
  0
VERTEX
  5
1B9DB
  8
01
 10
2827.916771726896
 20
-265.5061824783934
 30
0.0000000001127424
  0
VERTEX
  5
1B9DC
  8
01
 10
2827.90906295889
 20
-265.513896193321
 30
0.0000000001127424
  0
VERTEX
  5
1B9DD
  8
01
 10
2827.901356157841
 20
-265.5216118764557
 30
0.0000000001127424
  0
VERTEX
  5
1B9DE
  8
01
 10
2827.893651324506
 20
-265.5293295270446
 30
0.0000000001127424
  0
VERTEX
  5
1B9DF
  8
01
 10
2827.885948459637
 20
-265.5370491443354
 30
0.0000000001127424
  0
VERTEX
  5
1B9E0
  8
01
 10
2827.878247563987
 20
-265.5447707275745
 30
0.0000000001127424
  0
VERTEX
  5
1B9E1
  8
01
 10
2827.870548638307
 20
-265.5524942760085
 30
0.0000000001127424
  0
VERTEX
  5
1B9E2
  8
01
 10
2827.862851683352
 20
-265.5602197888834
 30
0.0000000001127424
  0
VERTEX
  5
1B9E3
  8
01
 10
2827.855156699872
 20
-265.5679472654447
 30
0.0000000001127424
  0
VERTEX
  5
1B9E4
  8
01
 10
2827.847463688619
 20
-265.5756767049378
 30
0.0000000001127424
  0
VERTEX
  5
1B9E5
  8
01
 10
2827.839772650342
 20
-265.5834081066075
 30
0.0000000001127424
  0
VERTEX
  5
1B9E6
  8
01
 10
2827.832083585794
 20
-265.5911414696983
 30
0.0000000001127424
  0
VERTEX
  5
1B9E7
  8
01
 10
2827.824396495726
 20
-265.5988767934543
 30
0.0000000001127424
  0
VERTEX
  5
1B9E8
  8
01
 10
2827.816711380885
 20
-265.6066140771193
 30
0.0000000001127424
  0
VERTEX
  5
1B9E9
  8
01
 10
2827.809028242022
 20
-265.6143533199365
 30
0.0000000001127424
  0
VERTEX
  5
1B9EA
  8
01
 10
2827.801347079886
 20
-265.6220945211489
 30
0.0000000001127424
  0
SEQEND
  5
1BCC9
  8
01
  0
LINE
  5
1ACA1
  8
01
 10
2823.463020365739
 20
-270.4923977902154
 30
0.0000000001127424
 11
2824.112966990847
 21
-269.7074042741997
 31
0.0000000001127424
  0
ARC
  5
1ACA2
  8
01
 10
2876.95939093321
 20
2753.303943772292
 30
0.0000000001127424
 40
3071.565345893962
 50
268.9696292704473
 51
270.4096535453596
  0
LINE
  5
1ACA3
  8
01
 10
2827.927071366875
 20
-261.4984707324393
 30
0.0000000001127424
 11
2822.927070978316
 21
-261.4984707324393
 31
0.0000000001127424
  0
LINE
  5
1ACA4
  8
01
 10
2782.927070978315
 20
-261.498470732439
 30
0.0000000001127424
 11
2777.927071366875
 21
-261.4984707324393
 31
0.0000000001127424
  0
LINE
  5
1ACA5
  8
01
 10
2827.922955885943
 20
-265.5017647448958
 30
0.0000000001127424
 11
2822.927070978316
 21
-265.5017647448958
 31
0.0000000001127424
  0
LINE
  5
1ACA6
  8
01
 10
2782.927070978315
 20
-265.501764744896
 30
0.0000000001127424
 11
2777.927071366875
 21
-265.5017647448958
 31
0.0000000001127424
  0
LINE
  5
1ACA7
  8
01
 10
2777.927071366875
 20
-261.4984707324393
 30
0.0000000001127424
 11
2777.927071366875
 21
-265.5017647448958
 31
0.0000000001127424
  0
LINE
  5
1ACA8
  8
01
 10
2827.927071366875
 20
-261.4984707324393
 30
0.0000000001127424
 11
2827.924482461108
 21
-265.4984707324247
 31
0.0000000001127424
  0
ARC
  5
1ACA9
  8
01
 10
2820.046598629734
 20
-282.1514831364057
 30
0.0000000001127424
 40
16.71502533770776
 50
106.179356878009
 51
138.2753432356513
  0
ARC
  5
1ACAA
  8
01
 10
2822.662429585097
 20
-284.4129944684746
 30
0.0000000001127424
 40
20.17257792134071
 50
138.4261263608686
 51
165.9891017290348
  0
ARC
  5
1ACAB
  8
01
 10
2824.49062171083
 20
-284.0402717880925
 30
0.0000000001127424
 40
21.87093441027351
 50
168.0964917737715
 51
195.3253673514455
  0
ARC
  5
1ACAC
  8
01
 10
2821.613500668679
 20
-284.3654675084645
 30
0.0000000001127424
 40
19.01542280120887
 50
196.6717279956922
 51
230.5466442848187
  0
ARC
  5
1ACAD
  8
01
 10
2819.069043723756
 20
-288.7963889296943
 30
0.0000000001127424
 40
14.00312600677861
 50
227.0627321641582
 51
267.9595921316337
  0
ARC
  5
1ACAE
  8
01
 10
2819.971667935596
 20
-289.2168076416174
 30
0.0000000001127424
 40
13.64595833581675
 50
264.1063604859633
 51
279.5884251916192
  0
ARC
  5
1ACAF
  8
01
 10
2790.804126179938
 20
32.0734388410674
 30
0.0000000001127424
 40
336.2188308590173
 50
275.3656905796435
 51
280.8930531848424
  0
LINE
  5
1ACB0
  8
01
 10
2854.34154514057
 20
-298.0872775017851
 30
0.0000000001127424
 11
2875.045406555321
 21
-294.6321516528551
 31
0.0000000001127424
  0
ARC
  5
1ACB1
  8
01
 10
2948.396472506739
 20
-638.3979504466979
 30
0.0000000001127424
 40
351.5043432115423
 50
98.32194336654706
 51
102.0448646861141
  0
ARC
  5
1ACB2
  8
01
 10
2901.353043250417
 20
-344.7091571648971
 30
0.0000000001127424
 40
56.09378904943307
 50
78.93762853334144
 51
102.7813012028312
  0
ARC
  5
1ACB3
  8
01
 10
2896.976255819844
 20
-250.8489807712667
 30
0.0000000001127424
 40
67.36197079016037
 50
271.6537595670242
 51
282.9884559605963
  0
ARC
  5
1ACB4
  8
01
 10
2905.618946796577
 20
-318.8816212549546
 30
0.0000000001127424
 40
29.93750703625965
 50
50.49794173540869
 51
77.46555839706305
  0
ARC
  5
1ACB5
  8
01
 10
2905.68867720835
 20
-289.2719312542886
 30
0.0000000001127424
 40
27.96428169569596
 50
283.2880516717933
 51
312.7263447939862
  0
ARC
  5
1ACB6
  8
01
 10
2918.359758040865
 20
-303.4524517004602
 30
0.0000000001127424
 40
9.927840661044746
 50
26.98740582447972
 51
50.59169898531243
  0
ARC
  5
1ACB7
  8
01
 10
2919.236336380921
 20
-302.411820009881
 30
0.0000000001127424
 40
8.690630349575482
 50
359.0904431678201
 51
23.49416543943164
  0
ARC
  5
1ACB8
  8
01
 10
2919.710878247904
 20
-302.9924035704398
 30
0.0000000001127424
 40
8.226909301699713
 50
336.2463090649919
 51
3.084141051271812
  0
ARC
  5
1ACB9
  8
01
 10
2916.740786375912
 20
-301.29081446287
 30
0.0000000001127424
 40
11.63640436824534
 50
312.9029788137788
 51
334.4681727061663
  0
ARC
  5
1ACBA
  8
01
 10
2749.60898868512
 20
237.3705269448837
 30
0.0000000001127424
 40
543.8816576443234
 50
277.5553038976967
 51
281.1365681483641
  0
ARC
  5
1ACBB
  8
01
 10
2703.917263716304
 20
625.6890064954814
 30
0.0000000001127424
 40
934.2005681967211
 50
279.285775720485
 51
281.423434160186
  0
ARC
  5
1ACBC
  8
01
 10
2820.843072899305
 20
-296.6456755878962
 30
0.0000000001127424
 40
5.15116025745746
 50
253.5052345056729
 51
273.0843856353649
  0
ARC
  5
1ACBD
  8
01
 10
2879.123858123566
 20
-315.728689689412
 30
0.0000000001127424
 40
71.72482809106272
 50
135.54744277879
 51
145.9122599963881
  0
ARC
  5
1ACBE
  8
01
 10
2879.335225164724
 20
-317.2505460913226
 30
0.0000000001127424
 40
72.76178146589776
 50
145.0130349996349
 51
155.0485502375248
  0
ARC
  5
1ACBF
  8
01
 10
2826.44573511462
 20
-292.4692597086405
 30
0.0000000001127424
 40
14.35557004281338
 50
155.6747818016501
 51
181.9442963321754
  0
ARC
  5
1ACC0
  8
01
 10
2823.079920963076
 20
-291.515231525309
 30
0.0000000001127424
 40
11.07564289041386
 50
187.4761056788784
 51
219.027544041259
  0
ARC
  5
1ACC1
  8
01
 10
2823.798321049638
 20
-289.1513345430876
 30
0.0000000001127424
 40
13.19504248503225
 50
225.0482745883455
 51
250.4391384827613
  0
ARC
  5
1ACC2
  8
01
 10
2151.450527180733
 20
-578.5679887933811
 30
0.0000000001127424
 40
700.3466176447392
 50
25.31046907029307
 51
26.55240153379512
  0
ARC
  5
1ACC3
  8
01
 10
2474.863944114934
 20
-423.2260043219185
 30
0.0000000001127424
 40
341.574020840444
 50
22.26710475999702
 51
24.94761814099012
  0
ARC
  5
1ACC4
  8
01
 10
2901.935286962323
 20
-248.907030537689
 30
0.0000000001127424
 40
119.7043919156803
 50
202.0237567742716
 51
207.1318929426971
  0
ARC
  5
1ACC5
  8
01
 10
2819.321177675524
 20
-289.0717086148143
 30
0.0000000001127424
 40
27.93129026844504
 50
211.0950023140452
 51
238.550904077064
  0
ARC
  5
1ACC6
  8
01
 10
2821.822777399072
 20
-283.0173942858864
 30
0.0000000001127424
 40
34.41830015685566
 50
240.2522929304488
 51
248.4426130292811
  0
ARC
  5
1ACC7
  8
01
 10
2837.04984938193
 20
-223.8332453552921
 30
0.0000000001127424
 40
95.35952645652287
 50
253.00435909214
 51
259.4154517286338
  0
ARC
  5
1ACC8
  8
01
 10
2822.018097077586
 20
-302.021422857154
 30
0.0000000001127424
 40
15.74604109607406
 50
260.9216705533191
 51
268.9345162609592
  0
ARC
  5
1ACC9
  8
01
 10
2904.939463228434
 20
-326.7499341504099
 30
0.0000000001127424
 40
36.90827984237766
 50
68.08340575248917
 51
85.82953471338062
  0
ARC
  5
1ACCA
  8
01
 10
2905.887177379397
 20
-341.3574457824525
 30
0.0000000001127424
 40
51.44737314533389
 50
88.06583528307533
 51
99.35829378370975
  0
LINE
  5
1ACCB
  8
01
 10
2780.427071366875
 20
-259.7984707324395
 30
0.0000000001127424
 11
2825.427071366873
 21
-259.7984707324395
 31
0.0000000001127424
  0
LINE
  5
1ACCC
  8
01
 10
2816.769073297207
 20
-511.5817695912178
 30
0.0000000001127424
 11
2898.863333558126
 21
-510.6882207359654
 31
0.0000000001127424
  0
LINE
  5
1ACCD
  8
01
 10
2817.089166521265
 20
-497.2408704722134
 30
0.0000000001127424
 11
2898.865476239663
 21
-495.0553499033035
 31
0.0000000001127424
  0
ARC
  5
1ACCE
  8
01
 10
2802.926955027132
 20
-509.7971524183081
 30
0.0000000001127424
 40
24.99979096596576
 50
30.67066781964537
 51
356.1840549373142
  0
ARC
  5
1ACCF
  8
01
 10
2803.103295372867
 20
-515.4557365719161
 30
0.0000000001127424
 40
29.51711322463888
 50
58.16901965993942
 51
64.91934069216303
  0
ARC
  5
1ACD0
  8
01
 10
2808.928748340973
 20
-503.101343671688
 30
0.0000000001127424
 40
15.85826769269537
 50
65.06108856685938
 51
77.43358022767434
  0
ARC
  5
1ACD1
  8
01
 10
2810.693465426823
 20
-495.545169756148
 30
0.0000000001127424
 40
8.099534243652876
 50
77.98844364389373
 51
101.2396936476894
  0
ARC
  5
1ACD2
  8
01
 10
2811.494056609557
 20
-498.4788450791489
 30
0.0000000001127424
 40
11.13503455607863
 50
102.3379328297767
 51
126.4097168783744
  0
ARC
  5
1ACD3
  8
01
 10
2807.974101099083
 20
-493.942062767323
 30
0.0000000001127424
 40
5.396391158680872
 50
124.9230625732206
 51
166.2700422301354
  0
ARC
  5
1ACD4
  8
01
 10
2806.965534997477
 20
-493.6574245772722
 30
0.0000000001127424
 40
4.349245370029341
 50
166.759129010429
 51
182.675333623956
  0
ARC
  5
1ACD5
  8
01
 10
2805.184585114203
 20
-493.7810579652737
 30
0.0000000001127424
 40
2.564783586505675
 50
181.7734477164632
 51
208.3064081362689
  0
ARC
  5
1ACD6
  8
01
 10
2815.023006249031
 20
-440.3349260485516
 30
0.0000000001127424
 40
56.94344149258469
 50
261.9150713707861
 51
272.0794011025137
  0
ARC
  5
1ACD7
  8
01
 10
2805.513724101203
 20
-493.208983304487
 30
0.0000000001127424
 40
3.145102773129
 50
214.651670304116
 51
258.464777224475
  0
ARC
  5
1ACD8
  8
01
 10
2808.872240869655
 20
-481.7463203047105
 30
0.0000000001127424
 40
15.08093668083644
 50
254.6685217954485
 51
262.9238127543682
  0
ARC
  5
1ACD9
  8
01
 10
2903.554947555272
 20
-614.1474522557296
 30
0.0000000001127424
 40
119.1843948843166
 50
85.21275332141903
 51
92.25496207301535
  0
ARC
  5
1ACDA
  8
01
 10
2911.06265611959
 20
-527.9354686356514
 30
0.0000000001127424
 40
32.64785966672855
 50
73.4196890030193
 51
85.71574501937926
  0
ARC
  5
1ACDB
  8
01
 10
2897.272054856313
 20
-402.8074330751483
 30
0.0000000001127424
 40
107.8925229764554
 50
270.8450711585127
 51
278.6514583703841
  0
ARC
  5
1ACDC
  8
01
 10
2909.48197267661
 20
-477.513480236596
 30
0.0000000001127424
 40
32.21063361533734
 50
277.168748607897
 51
289.7736896844871
  0
ARC
  5
1ACDD
  8
01
 10
2916.403736413838
 20
-515.0603599655719
 30
0.0000000001127424
 40
18.83945955420323
 50
57.12041277986722
 51
77.81855510310807
  0
ARC
  5
1ACDE
  8
01
 10
2915.359950270954
 20
-489.5805978206067
 30
0.0000000001127424
 40
18.92204771753521
 50
285.3817907974916
 51
306.5602849771927
  0
ARC
  5
1ACDF
  8
01
 10
2924.32828309034
 20
-502.0113979149196
 30
0.0000000001127424
 40
3.600712235186706
 50
309.7602339458095
 51
0.5561680733788124
  0
ARC
  5
1ACE0
  8
01
 10
2924.530580492897
 20
-501.9107574908217
 30
0.0000000001127424
 40
3.398880028698698
 50
358.8925951720863
 51
51.8270887918262
  0
LINE
  5
1ACE1
  8
01
 10
2835.139624872044
 20
-510.0459544242235
 30
0.0000000001127424
 11
2898.86333355813
 21
-510.6882207359654
 31
0.0000000001127424
  0
ARC
  5
1ACE2
  8
01
 10
2828.963160879456
 20
-1295.629752124484
 30
0.0000000001127424
 40
785.6080778076408
 50
89.54953497189283
 51
91.03283153146577
  0
ARC
  5
1ACE3
  8
01
 10
2822.774999024959
 20
-626.7164194503225
 30
0.0000000001127424
 40
116.8394382932455
 50
93.91269024729569
 51
98.53430409078851
  0
ARC
  5
1ACE4
  8
01
 10
2810.734185439384
 20
-537.4124594015407
 30
0.0000000001127424
 40
26.77127486492728
 50
101.4148434400436
 51
115.0066434464459
  0
ARC
  5
1ACE5
  8
01
 10
2802.903365344278
 20
-521.7067960737536
 30
0.0000000001127424
 40
9.23894837916856
 50
112.1676604002392
 51
137.8572001926417
  0
ARC
  5
1ACE6
  8
01
 10
2802.988791604178
 20
-520.8876829583355
 30
0.0000000001127424
 40
8.77788172044793
 50
142.1998580522941
 51
172.3370119023201
  0
ARC
  5
1ACE7
  8
01
 10
2805.860434598892
 20
-521.7307829179176
 30
0.0000000001127424
 40
11.74502933276003
 50
170.1283092310063
 51
194.1693147909039
  0
ARC
  5
1ACE8
  8
01
 10
2805.468874786077
 20
-521.6593724365671
 30
0.0000000001127424
 40
11.38405962301786
 50
195.0002246762303
 51
220.0465423502911
  0
ARC
  5
1ACE9
  8
01
 10
2806.775664613741
 20
-520.9584178305408
 30
0.0000000001127424
 40
12.83904139673257
 50
218.6888635522039
 51
249.5935846426431
  0
ARC
  5
1ACEA
  8
01
 10
2807.330198794019
 20
-513.793553852986
 30
0.0000000001127424
 40
19.84647679739424
 50
255.3148888289354
 51
283.8029318284479
  0
ARC
  5
1ACEB
  8
01
 10
2804.02713419088
 20
-528.6660573099384
 30
0.0000000001127424
 40
2.778981984552072
 50
81.09162997886553
 51
105.8512747472161
  0
ARC
  5
1ACEC
  8
01
 10
2804.253722932185
 20
-527.1507159799717
 30
0.0000000001127424
 40
1.246878291068781
 50
45.08503790236953
 51
80.59524391974581
  0
ARC
  5
1ACED
  8
01
 10
2804.199814780221
 20
-527.0713788263952
 30
0.0000000001127424
 40
1.232362359911368
 50
350.1927101834384
 51
40.70153424883286
  0
ARC
  5
1ACEE
  8
01
 10
2804.462733365489
 20
-530.4676119996043
 30
0.0000000001127424
 40
4.631586763479185
 50
104.9476370362885
 51
127.5282071782057
  0
ARC
  5
1ACEF
  8
01
 10
2803.768555776568
 20
-529.639789557596
 30
0.0000000001127424
 40
3.552520702786541
 50
126.7822508423358
 51
149.3588573032202
  0
ARC
  5
1ACF0
  8
01
 10
2802.334558690359
 20
-528.8251860800478
 30
0.0000000001127424
 40
1.903809481831612
 50
148.4564254437732
 51
185.0020125448449
  0
ARC
  5
1ACF1
  8
01
 10
2802.555658185834
 20
-526.8564469356229
 30
0.0000000001127424
 40
2.889908447323687
 50
327.5786558395369
 51
351.5462940448909
  0
ARC
  5
1ACF2
  8
01
 10
2801.381229265721
 20
-526.1959448871135
 30
0.0000000001127424
 40
4.236013342244362
 50
308.6432688616882
 51
328.5540725435547
  0
ARC
  5
1ACF3
  8
01
 10
2801.774803164147
 20
-528.8309127684483
 30
0.0000000001127424
 40
1.346376446120278
 50
186.8364960577533
 51
234.6722542324581
  0
ARC
  5
1ACF4
  8
01
 10
2801.834008060773
 20
-526.8323102599575
 30
0.0000000001127424
 40
3.45651100728506
 50
283.0688718287458
 51
309.368469364432
  0
ARC
  5
1ACF5
  8
01
 10
2802.004640618424
 20
-528.5004764566843
 30
0.0000000001127424
 40
1.748873214865161
 50
234.7889203135329
 51
262.0346872525496
  0
ARC
  5
1ACF6
  8
01
 10
2802.09769456985
 20
-527.8692813507828
 30
0.0000000001127424
 40
2.386878064591476
 50
261.9221246985193
 51
282.5317720201044
  0
LINE
  5
1ACF8
  8
01
 10
2777.927071366875
 20
-218.0984707324396
 30
0.0000000001127424
 11
2782.927071110521
 21
-218.0984707324396
 31
0.0000000001127424
  0
LINE
  5
1ACF9
  8
01
 10
2825.427071366873
 20
-219.7984707324395
 30
0.0000000001127424
 11
2825.427071366873
 21
-218.0984707324396
 31
0.0000000001127424
  0
LINE
  5
1ACFA
  8
01
 10
2780.427071366875
 20
-219.7984707324395
 30
0.0000000001127424
 11
2780.427071366875
 21
-218.0984707324396
 31
0.0000000001127424
  0
POLYLINE
  5
1ACFB
  8
01
 66
     1
 10
0.0
 20
0.0
 30
0.0000000001127424
  0
VERTEX
  5
1B9EB
  8
01
 10
2827.922955885929
 20
-214.0951767199831
 30
0.0000000001127424
  0
VERTEX
  5
1B9EC
  8
01
 10
2827.923162083714
 20
-214.0953804854781
 30
0.0000000001127424
  0
VERTEX
  5
1B9ED
  8
01
 10
2827.923368200312
 20
-214.0955843333269
 30
0.0000000001127424
  0
VERTEX
  5
1B9EE
  8
01
 10
2827.923574235673
 20
-214.095788263481
 30
0.0000000001127424
  0
VERTEX
  5
1B9EF
  8
01
 10
2827.923780189747
 20
-214.0959922758919
 30
0.0000000001127424
  0
VERTEX
  5
1B9F0
  8
01
 10
2827.923986062485
 20
-214.0961963705108
 30
0.0000000001127424
  0
VERTEX
  5
1B9F1
  8
01
 10
2827.924191853839
 20
-214.0964005472892
 30
0.0000000001127424
  0
VERTEX
  5
1B9F2
  8
01
 10
2827.924397563758
 20
-214.0966048061784
 30
0.0000000001127424
  0
VERTEX
  5
1B9F3
  8
01
 10
2827.924603192195
 20
-214.0968091471296
 30
0.0000000001127424
  0
VERTEX
  5
1B9F4
  8
01
 10
2827.924808739099
 20
-214.0970135700941
 30
0.0000000001127424
  0
VERTEX
  5
1B9F5
  8
01
 10
2827.925014204421
 20
-214.0972180750231
 30
0.0000000001127424
  0
VERTEX
  5
1B9F6
  8
01
 10
2827.925219588114
 20
-214.0974226618677
 30
0.0000000001127424
  0
VERTEX
  5
1B9F7
  8
01
 10
2827.925424890126
 20
-214.0976273305791
 30
0.0000000001127424
  0
VERTEX
  5
1B9F8
  8
01
 10
2827.925630110411
 20
-214.0978320811082
 30
0.0000000001127424
  0
VERTEX
  5
1B9F9
  8
01
 10
2827.925835248918
 20
-214.0980369134062
 30
0.0000000001127424
  0
VERTEX
  5
1B9FA
  8
01
 10
2827.926040305599
 20
-214.098241827424
 30
0.0000000001127424
  0
VERTEX
  5
1B9FB
  8
01
 10
2827.926245280406
 20
-214.0984468231127
 30
0.0000000001127424
  0
SEQEND
  5
1BCCA
  8
01
  0
POLYLINE
  5
1ACFC
  8
01
 10
0.0
 20
0.0
 30
0.0
 66
     1
 70
     8
  0
VERTEX
  5
1B9FC
  8
01
 10
2835.139532177597
 20
-161.513840929706
 30
0.0000000001127424
 70
    32
  0
VERTEX
  5
1B9FD
  8
01
 10
2835.139532177616
 20
-161.5136681002897
 30
0.0000000001127424
 70
    32
  0
VERTEX
  5
1B9FE
  8
01
 10
2835.139532177633
 20
-161.5135285643981
 30
0.0000000001127424
 70
    32
  0
VERTEX
  5
1B9FF
  8
01
 10
2835.139532177649
 20
-161.5134223416105
 30
0.0000000001127424
 70
    32
  0
VERTEX
  5
1BA00
  8
01
 10
2835.139532177663
 20
-161.5133494515066
 30
0.0000000001127424
 70
    32
  0
VERTEX
  5
1BA01
  8
01
 10
2835.139532177676
 20
-161.513309913666
 30
0.0000000001127424
 70
    32
  0
VERTEX
  5
1BA02
  8
01
 10
2835.139532177687
 20
-161.5133037476682
 30
0.0000000001127424
 70
    32
  0
VERTEX
  5
1BA03
  8
01
 10
2835.139532177698
 20
-161.5133309730929
 30
0.0000000001127424
 70
    32
  0
VERTEX
  5
1BA04
  8
01
 10
2835.139532177707
 20
-161.5133916095195
 30
0.0000000001127424
 70
    32
  0
VERTEX
  5
1BA05
  8
01
 10
2835.139532177715
 20
-161.5134856765277
 30
0.0000000001127424
 70
    32
  0
VERTEX
  5
1BA06
  8
01
 10
2835.139532177723
 20
-161.513613193697
 30
0.0000000001127424
 70
    32
  0
VERTEX
  5
1BA07
  8
01
 10
2835.139532177729
 20
-161.5137741806069
 30
0.0000000001127424
 70
    32
  0
VERTEX
  5
1BA08
  8
01
 10
2835.139532177734
 20
-161.5139686568372
 30
0.0000000001127424
 70
    32
  0
VERTEX
  5
1BA09
  8
01
 10
2835.139532177739
 20
-161.5141966419672
 30
0.0000000001127424
 70
    32
  0
VERTEX
  5
1BA0A
  8
01
 10
2835.139532177742
 20
-161.5144581555767
 30
0.0000000001127424
 70
    32
  0
VERTEX
  5
1BA0B
  8
01
 10
2835.139532177745
 20
-161.5147532172451
 30
0.0000000001127424
 70
    32
  0
VERTEX
  5
1BA0C
  8
01
 10
2835.139532177748
 20
-161.5150818465521
 30
0.0000000001127424
 70
    32
  0
VERTEX
  5
1BA0D
  8
01
 10
2835.13953217775
 20
-161.5154440630771
 30
0.0000000001127424
 70
    32
  0
VERTEX
  5
1BA0E
  8
01
 10
2835.139532177751
 20
-161.5158398863999
 30
0.0000000001127424
 70
    32
  0
VERTEX
  5
1BA0F
  8
01
 10
2835.139532177752
 20
-161.5162693360999
 30
0.0000000001127424
 70
    32
  0
VERTEX
  5
1BA10
  8
01
 10
2835.139532177753
 20
-161.5167324317567
 30
0.0000000001127424
 70
    32
  0
VERTEX
  5
1BA11
  8
01
 10
2835.139532177753
 20
-161.5172291929499
 30
0.0000000001127424
 70
    32
  0
VERTEX
  5
1BA12
  8
01
 10
2835.139532177754
 20
-161.5177596392591
 30
0.0000000001127424
 70
    32
  0
VERTEX
  5
1BA13
  8
01
 10
2835.139532177754
 20
-161.5183237902637
 30
0.0000000001127424
 70
    32
  0
VERTEX
  5
1BA14
  8
01
 10
2835.139532177754
 20
-161.5189216655435
 30
0.0000000001127424
 70
    32
  0
SEQEND
  5
1BCCB
  8
01
  0
POLYLINE
  5
1ACFD
  8
01
 10
0.0
 20
0.0
 30
0.0
 66
     1
 70
     8
  0
VERTEX
  5
1BA15
  8
01
 10
2791.75524553444
 20
-183.9389241781964
 30
0.0000000001127424
 70
    32
  0
VERTEX
  5
1BA16
  8
01
 10
2791.754681222576
 20
-183.938836266939
 30
0.0000000001127424
 70
    32
  0
VERTEX
  5
1BA17
  8
01
 10
2791.754116910712
 20
-183.9387483556816
 30
0.0000000001127424
 70
    32
  0
VERTEX
  5
1BA18
  8
01
 10
2791.753552598848
 20
-183.9386604444242
 30
0.0000000001127424
 70
    32
  0
VERTEX
  5
1BA19
  8
01
 10
2791.752988286984
 20
-183.9385725331668
 30
0.0000000001127424
 70
    32
  0
VERTEX
  5
1BA1A
  8
01
 10
2791.75242397512
 20
-183.9384846219095
 30
0.0000000001127424
 70
    32
  0
VERTEX
  5
1BA1B
  8
01
 10
2791.751859663255
 20
-183.9383967106521
 30
0.0000000001127424
 70
    32
  0
VERTEX
  5
1BA1C
  8
01
 10
2791.751295351391
 20
-183.9383087993948
 30
0.0000000001127424
 70
    32
  0
VERTEX
  5
1BA1D
  8
01
 10
2791.750731039527
 20
-183.9382208881375
 30
0.0000000001127424
 70
    32
  0
VERTEX
  5
1BA1E
  8
01
 10
2791.750166727663
 20
-183.9381329768802
 30
0.0000000001127424
 70
    32
  0
VERTEX
  5
1BA1F
  8
01
 10
2791.749602415799
 20
-183.9380450656229
 30
0.0000000001127424
 70
    32
  0
VERTEX
  5
1BA20
  8
01
 10
2791.749038103934
 20
-183.9379571543656
 30
0.0000000001127424
 70
    32
  0
VERTEX
  5
1BA21
  8
01
 10
2791.74847379207
 20
-183.9378692431084
 30
0.0000000001127424
 70
    32
  0
VERTEX
  5
1BA22
  8
01
 10
2791.747909480206
 20
-183.9377813318511
 30
0.0000000001127424
 70
    32
  0
VERTEX
  5
1BA23
  8
01
 10
2791.747345168342
 20
-183.9376934205939
 30
0.0000000001127424
 70
    32
  0
VERTEX
  5
1BA24
  8
01
 10
2791.746780856477
 20
-183.9376055093367
 30
0.0000000001127424
 70
    32
  0
VERTEX
  5
1BA25
  8
01
 10
2791.746216544613
 20
-183.9375175980794
 30
0.0000000001127424
 70
    32
  0
SEQEND
  5
1BCCC
  8
01
  0
POLYLINE
  5
1ACFE
  8
01
 10
0.0
 20
0.0
 30
0.0
 66
     1
 70
     8
  0
VERTEX
  5
1BA26
  8
01
 10
2827.926221354216
 20
-214.0984707295711
 30
0.0000000001127424
 70
    32
  0
VERTEX
  5
1BA27
  8
01
 10
2827.926112673397
 20
-214.0984707297513
 30
0.0000000001127424
 70
    32
  0
VERTEX
  5
1BA28
  8
01
 10
2827.926003992578
 20
-214.0984707299315
 30
0.0000000001127424
 70
    32
  0
VERTEX
  5
1BA29
  8
01
 10
2827.925895311758
 20
-214.0984707301117
 30
0.0000000001127424
 70
    32
  0
VERTEX
  5
1BA2A
  8
01
 10
2827.925786630939
 20
-214.0984707302919
 30
0.0000000001127424
 70
    32
  0
VERTEX
  5
1BA2B
  8
01
 10
2827.92567795012
 20
-214.0984707304721
 30
0.0000000001127424
 70
    32
  0
VERTEX
  5
1BA2C
  8
01
 10
2827.9255692693
 20
-214.0984707306523
 30
0.0000000001127424
 70
    32
  0
VERTEX
  5
1BA2D
  8
01
 10
2827.925460588481
 20
-214.0984707308324
 30
0.0000000001127424
 70
    32
  0
VERTEX
  5
1BA2E
  8
01
 10
2827.925351907662
 20
-214.0984707310126
 30
0.0000000001127424
 70
    32
  0
VERTEX
  5
1BA2F
  8
01
 10
2827.925243226843
 20
-214.0984707311928
 30
0.0000000001127424
 70
    32
  0
VERTEX
  5
1BA30
  8
01
 10
2827.925134546023
 20
-214.098470731373
 30
0.0000000001127424
 70
    32
  0
VERTEX
  5
1BA31
  8
01
 10
2827.925025865205
 20
-214.0984707315532
 30
0.0000000001127424
 70
    32
  0
VERTEX
  5
1BA32
  8
01
 10
2827.924917184385
 20
-214.0984707317334
 30
0.0000000001127424
 70
    32
  0
VERTEX
  5
1BA33
  8
01
 10
2827.924808503566
 20
-214.0984707319136
 30
0.0000000001127424
 70
    32
  0
VERTEX
  5
1BA34
  8
01
 10
2827.924699822746
 20
-214.0984707320938
 30
0.0000000001127424
 70
    32
  0
VERTEX
  5
1BA35
  8
01
 10
2827.924591141928
 20
-214.098470732274
 30
0.0000000001127424
 70
    32
  0
VERTEX
  5
1BA36
  8
01
 10
2827.924482461108
 20
-214.0984707324542
 30
0.0000000001127424
 70
    32
  0
SEQEND
  5
1BCCD
  8
01
  0
POLYLINE
  5
1ACFF
  8
01
 10
0.0
 20
0.0
 30
0.0
 66
     1
 70
     8
  0
VERTEX
  5
1BA37
  8
01
 10
2777.927071366875
 20
-218.0984707324396
 30
0.0000000001127424
 70
    32
  0
VERTEX
  5
1BA38
  8
01
 10
2777.927071366875
 20
-217.8484707324396
 30
0.0000000001127424
 70
    32
  0
VERTEX
  5
1BA39
  8
01
 10
2777.927071366875
 20
-217.5984707324396
 30
0.0000000001127424
 70
    32
  0
VERTEX
  5
1BA3A
  8
01
 10
2777.927071366875
 20
-217.3484707324396
 30
0.0000000001127424
 70
    32
  0
VERTEX
  5
1BA3B
  8
01
 10
2777.927071366875
 20
-217.0984707324396
 30
0.0000000001127424
 70
    32
  0
VERTEX
  5
1BA3C
  8
01
 10
2777.927071366875
 20
-216.8484707324396
 30
0.0000000001127424
 70
    32
  0
VERTEX
  5
1BA3D
  8
01
 10
2777.927071366875
 20
-216.5984707324396
 30
0.0000000001127424
 70
    32
  0
VERTEX
  5
1BA3E
  8
01
 10
2777.927071366875
 20
-216.3484707324396
 30
0.0000000001127424
 70
    32
  0
VERTEX
  5
1BA3F
  8
01
 10
2777.927071366875
 20
-216.0984707324396
 30
0.0000000001127424
 70
    32
  0
VERTEX
  5
1BA40
  8
01
 10
2777.927071366875
 20
-215.8484707324396
 30
0.0000000001127424
 70
    32
  0
VERTEX
  5
1BA41
  8
01
 10
2777.927071366875
 20
-215.5984707324396
 30
0.0000000001127424
 70
    32
  0
VERTEX
  5
1BA42
  8
01
 10
2777.927071366875
 20
-215.3484707324396
 30
0.0000000001127424
 70
    32
  0
VERTEX
  5
1BA43
  8
01
 10
2777.927071366875
 20
-215.0984707324396
 30
0.0000000001127424
 70
    32
  0
VERTEX
  5
1BA44
  8
01
 10
2777.927071366875
 20
-214.8484707324396
 30
0.0000000001127424
 70
    32
  0
VERTEX
  5
1BA45
  8
01
 10
2777.927071366875
 20
-214.5984707324396
 30
0.0000000001127424
 70
    32
  0
VERTEX
  5
1BA46
  8
01
 10
2777.927071366875
 20
-214.3484707324396
 30
0.0000000001127424
 70
    32
  0
VERTEX
  5
1BA47
  8
01
 10
2777.927071366875
 20
-214.0984707324396
 30
0.0000000001127424
 70
    32
  0
SEQEND
  5
1BCCE
  8
01
  0
POLYLINE
  5
1AD00
  8
01
 66
     1
 10
0.0
 20
0.0
 30
0.0000000001127424
  0
VERTEX
  5
1BA48
  8
01
 10
2827.924482461108
 20
-214.0984707324542
 30
0.0000000001127424
  0
VERTEX
  5
1BA49
  8
01
 10
2827.916771726896
 20
-214.0907589864855
 30
0.0000000001127424
  0
VERTEX
  5
1BA4A
  8
01
 10
2827.90906295889
 20
-214.0830452715579
 30
0.0000000001127424
  0
VERTEX
  5
1BA4B
  8
01
 10
2827.901356157841
 20
-214.0753295884233
 30
0.0000000001127424
  0
VERTEX
  5
1BA4C
  8
01
 10
2827.893651324506
 20
-214.0676119378342
 30
0.0000000001127424
  0
VERTEX
  5
1BA4D
  8
01
 10
2827.885948459637
 20
-214.0598923205435
 30
0.0000000001127424
  0
VERTEX
  5
1BA4E
  8
01
 10
2827.878247563987
 20
-214.0521707373044
 30
0.0000000001127424
  0
VERTEX
  5
1BA4F
  8
01
 10
2827.870548638307
 20
-214.0444471888704
 30
0.0000000001127424
  0
VERTEX
  5
1BA50
  8
01
 10
2827.862851683352
 20
-214.0367216759956
 30
0.0000000001127424
  0
VERTEX
  5
1BA51
  8
01
 10
2827.855156699872
 20
-214.0289941994342
 30
0.0000000001127424
  0
VERTEX
  5
1BA52
  8
01
 10
2827.847463688619
 20
-214.0212647599411
 30
0.0000000001127424
  0
VERTEX
  5
1BA53
  8
01
 10
2827.839772650342
 20
-214.0135333582714
 30
0.0000000001127424
  0
VERTEX
  5
1BA54
  8
01
 10
2827.832083585794
 20
-214.0057999951806
 30
0.0000000001127424
  0
VERTEX
  5
1BA55
  8
01
 10
2827.824396495726
 20
-213.9980646714246
 30
0.0000000001127424
  0
VERTEX
  5
1BA56
  8
01
 10
2827.816711380885
 20
-213.9903273877596
 30
0.0000000001127424
  0
VERTEX
  5
1BA57
  8
01
 10
2827.809028242022
 20
-213.9825881449424
 30
0.0000000001127424
  0
VERTEX
  5
1BA58
  8
01
 10
2827.801347079886
 20
-213.97484694373
 30
0.0000000001127424
  0
SEQEND
  5
1BCCF
  8
01
  0
LINE
  5
1AD01
  8
01
 10
2823.463020365739
 20
-209.1045436746635
 30
0.0000000001127424
 11
2824.112966990847
 21
-209.8895371906792
 31
0.0000000001127424
  0
ARC
  5
1AD02
  8
01
 10
2876.95939093321
 20
-3232.900885237171
 30
0.0000000001127424
 40
3071.565345893962
 50
89.59034645464045
 51
91.03037072955269
  0
LINE
  5
1AD03
  8
01
 10
2827.927071366875
 20
-218.0984707324396
 30
0.0000000001127424
 11
2822.927071110521
 21
-218.0984707324396
 31
0.0000000001127424
  0
LINE
  5
1AD04
  8
01
 10
2782.927071110521
 20
-218.0984707324396
 30
0.0000000001127424
 11
2777.927071366875
 21
-218.0984707324396
 31
0.0000000001127424
  0
LINE
  5
1AD05
  8
01
 10
2827.922955885943
 20
-214.0951767199831
 30
0.0000000001127424
 11
2822.927071110521
 21
-214.0951767199831
 31
0.0000000001127424
  0
LINE
  5
1AD06
  8
01
 10
2782.927071110521
 20
-214.0951767199831
 30
0.0000000001127424
 11
2777.927071366875
 21
-214.0951767199831
 31
0.0000000001127424
  0
LINE
  5
1AD07
  8
01
 10
2777.927071366875
 20
-218.0984707324396
 30
0.0000000001127424
 11
2777.927071366875
 21
-214.0951767199831
 31
0.0000000001127424
  0
LINE
  5
1AD08
  8
01
 10
2827.927071366875
 20
-218.0984707324396
 30
0.0000000001127424
 11
2827.924482461108
 21
-214.0984707324542
 31
0.0000000001127424
  0
ARC
  5
1AD09
  8
01
 10
2820.046598629734
 20
-197.4454583284733
 30
0.0000000001127424
 40
16.71502533770776
 50
221.7246567643487
 51
253.820643121991
  0
ARC
  5
1AD0A
  8
01
 10
2822.662429585097
 20
-195.1839469964043
 30
0.0000000001127424
 40
20.17257792134071
 50
211.3069927425965
 51
221.5738736391314
  0
ARC
  5
1AD0B
  8
01
 10
2824.49062171083
 20
-195.5566696767864
 30
0.0000000001127424
 40
21.87093441027351
 50
164.6746326485545
 51
185.8831779670857
  0
ARC
  5
1AD0C
  8
01
 10
2821.613500668679
 20
-195.2314739564144
 30
0.0000000001127424
 40
19.01542280120887
 50
129.4533557151813
 51
163.3282720043078
  0
ARC
  5
1AD0D
  8
01
 10
2819.069043723756
 20
-190.8005525351846
 30
0.0000000001127424
 40
14.00312600677861
 50
92.0404078683663
 51
132.937267835883
  0
ARC
  5
1AD0E
  8
01
 10
2819.971667935596
 20
-190.3801338232615
 30
0.0000000001127424
 40
13.64595833581675
 50
80.41157480838075
 51
95.89363951403666
  0
ARC
  5
1AD0F
  8
01
 10
2790.804126179938
 20
-511.6703803059463
 30
0.0000000001127424
 40
336.2188308590173
 50
79.10694681515766
 51
84.63430942035653
  0
LINE
  5
1AD10
  8
01
 10
2854.34154514057
 20
-181.5096639630938
 30
0.0000000001127424
 11
2875.045406555321
 21
-184.9647898120238
 31
0.0000000001127424
  0
ARC
  5
1AD11
  8
01
 10
2948.396472506739
 20
158.801008981819
 30
0.0000000001127424
 40
351.5043432115423
 50
257.9551353138859
 51
261.678056633453
  0
ARC
  5
1AD12
  8
01
 10
2901.353043250417
 20
-134.8877842999818
 30
0.0000000001127424
 40
56.09378904943307
 50
257.2186987971688
 51
281.0623714666585
  0
ARC
  5
1AD13
  8
01
 10
2896.976255819844
 20
-228.7479606936122
 30
0.0000000001127424
 40
67.36197079016037
 50
77.0115440394037
 51
88.34624043297578
  0
ARC
  5
1AD14
  8
01
 10
2905.618946796577
 20
-160.7153202099244
 30
0.0000000001127424
 40
29.93750703625965
 50
282.534441602937
 51
309.5020582645772
  0
ARC
  5
1AD15
  8
01
 10
2905.68867720835
 20
-190.3250102105903
 30
0.0000000001127424
 40
27.96428169569596
 50
47.27365520601381
 51
76.71194832820674
  0
ARC
  5
1AD16
  8
01
 10
2918.359758040865
 20
-176.1444897644187
 30
0.0000000001127424
 40
9.927840661044746
 50
309.4083010146875
 51
333.0125941755086
  0
ARC
  5
1AD17
  8
01
 10
2919.236336380921
 20
-177.1851214549979
 30
0.0000000001127424
 40
8.690630349575482
 50
336.5058345605684
 51
0.9095568321798156
  0
ARC
  5
1AD18
  8
01
 10
2919.710878247904
 20
-176.6045378944391
 30
0.0000000001127424
 40
8.226909301699713
 50
356.9158589487282
 51
23.75369093501405
  0
ARC
  5
1AD19
  8
01
 10
2916.740786375912
 20
-178.3061270020089
 30
0.0000000001127424
 40
11.63640436824534
 50
25.53182729383365
 51
47.09702118622121
  0
ARC
  5
1AD1A
  8
01
 10
2749.60898868512
 20
-716.9674684097627
 30
0.0000000001127424
 40
543.8816576443234
 50
78.8634318516359
 51
82.44469610230328
  0
ARC
  5
1AD1B
  8
01
 10
2703.917263716304
 20
-1105.28594796036
 30
0.0000000001127424
 40
934.2005681967211
 50
78.57656583981404
 51
80.71422427951502
  0
ARC
  5
1AD1C
  8
01
 10
2820.843072899305
 20
-182.9512658769827
 30
0.0000000001127424
 40
5.15116025745746
 50
86.91561436463506
 51
106.4947654943271
  0
ARC
  5
1AD1D
  8
01
 10
2879.123858123566
 20
-163.8682517754669
 30
0.0000000001127424
 40
71.72482809106272
 50
214.0877400036119
 51
224.45255722121
  0
ARC
  5
1AD1E
  8
01
 10
2879.335225164724
 20
-162.3463953735563
 30
0.0000000001127424
 40
72.76178146589776
 50
204.9514497624752
 51
214.9869650003652
  0
ARC
  5
1AD1F
  8
01
 10
2826.44573511462
 20
-187.1276817562384
 30
0.0000000001127424
 40
14.35557004281338
 50
178.0557036678246
 51
204.3252181983499
  0
ARC
  5
1AD20
  8
01
 10
2823.079920963076
 20
-188.0817099395699
 30
0.0000000001127424
 40
11.07564289041386
 50
140.972455958741
 51
172.5238943211216
  0
ARC
  5
1AD21
  8
01
 10
2823.798321049638
 20
-190.4456069217913
 30
0.0000000001127424
 40
13.19504248503225
 50
109.5608615172387
 51
134.9517254116545
  0
ARC
  5
1AD22
  8
01
 10
2151.450527180733
 20
98.97104732850221
 30
0.0000000001127424
 40
700.3466176447392
 50
333.4475984661933
 51
334.6895309297187
  0
ARC
  5
1AD23
  8
01
 10
2474.863944114934
 20
-56.37093714296043
 30
0.0000000001127424
 40
341.574020840444
 50
335.0523818590099
 51
337.732895240003
  0
ARC
  5
1AD24
  8
01
 10
2901.935286962323
 20
-230.6899109271899
 30
0.0000000001127424
 40
119.7043919156803
 50
152.8681070573029
 51
157.9762432257405
  0
ARC
  5
1AD25
  8
01
 10
2819.321177675524
 20
-190.5252328500646
 30
0.0000000001127424
 40
27.93129026844504
 50
121.449095922936
 51
148.9049976859481
  0
ARC
  5
1AD26
  8
01
 10
2821.822777399072
 20
-196.5795471789925
 30
0.0000000001127424
 40
34.41830015685566
 50
111.5573869707189
 51
119.7477070695544
  0
ARC
  5
1AD27
  8
01
 10
2837.04984938193
 20
-255.7636961095868
 30
0.0000000001127424
 40
95.35952645652287
 50
100.5845482713662
 51
106.9956409078601
  0
ARC
  5
1AD28
  8
01
 10
2822.018097077586
 20
-177.5755186077249
 30
0.0000000001127424
 40
15.74604109607406
 50
91.06548373904079
 51
99.07832944668091
  0
ARC
  5
1AD29
  8
01
 10
2904.939463228434
 20
-152.847007314469
 30
0.0000000001127424
 40
36.90827984237766
 50
274.1704652866193
 51
291.9165942475108
  0
ARC
  5
1AD2A
  8
01
 10
2905.887177379397
 20
-138.2394956824264
 30
0.0000000001127424
 40
51.44737314533389
 50
260.6417062162902
 51
271.9341647169247
  0
LINE
  5
1AD2B
  8
01
 10
2780.427071366875
 20
-219.7984707324395
 30
0.0000000001127424
 11
2825.427071366873
 21
-219.7984707324395
 31
0.0000000001127424
  0
LINE
  5
1AD2C
  8
01
 10
2612.927187706621
 20
-484.7971524183081
 30
0.0000000001127424
 11
2612.927187706621
 21
-534.7971524183081
 31
0.0000000001127424
  0
POLYLINE
  5
1AD2D
  8
01
 66
     1
 10
0.0
 20
0.0
 30
0.0000000001127424
  0
VERTEX
  5
1BA59
  8
01
 10
2592.575687031957
 20
-491.9017517993593
 30
0.0000000001127424
  0
VERTEX
  5
1BA5A
  8
01
 10
2592.567074363742
 20
-491.9057114674861
 30
0.0000000001127424
  0
VERTEX
  5
1BA5B
  8
01
 10
2592.558461299694
 20
-491.9096702753152
 30
0.0000000001127424
  0
VERTEX
  5
1BA5C
  8
01
 10
2592.54984783994
 20
-491.9136282227871
 30
0.0000000001127424
  0
VERTEX
  5
1BA5D
  8
01
 10
2592.541233984611
 20
-491.9175853098425
 30
0.0000000001127424
  0
VERTEX
  5
1BA5E
  8
01
 10
2592.532619733834
 20
-491.9215415364221
 30
0.0000000001127424
  0
VERTEX
  5
1BA5F
  8
01
 10
2592.52400508774
 20
-491.9254969024668
 30
0.0000000001127424
  0
VERTEX
  5
1BA60
  8
01
 10
2592.515390046457
 20
-491.9294514079172
 30
0.0000000001127424
  0
VERTEX
  5
1BA61
  8
01
 10
2592.506774610114
 20
-491.933405052714
 30
0.0000000001127424
  0
VERTEX
  5
1BA62
  8
01
 10
2592.498158778838
 20
-491.9373578367982
 30
0.0000000001127424
  0
VERTEX
  5
1BA63
  8
01
 10
2592.489542552762
 20
-491.9413097601104
 30
0.0000000001127424
  0
VERTEX
  5
1BA64
  8
01
 10
2592.480925932012
 20
-491.9452608225917
 30
0.0000000001127424
  0
VERTEX
  5
1BA65
  8
01
 10
2592.472308916718
 20
-491.9492110241829
 30
0.0000000001127424
  0
VERTEX
  5
1BA66
  8
01
 10
2592.463691507009
 20
-491.9531603648248
 30
0.0000000001127424
  0
VERTEX
  5
1BA67
  8
01
 10
2592.455073703014
 20
-491.9571088444586
 30
0.0000000001127424
  0
VERTEX
  5
1BA68
  8
01
 10
2592.446455504862
 20
-491.9610564630249
 30
0.0000000001127424
  0
VERTEX
  5
1BA69
  8
01
 10
2592.437836912682
 20
-491.965003220465
 30
0.0000000001127424
  0
SEQEND
  5
1BCD0
  8
01
  0
POLYLINE
  5
1AD2E
  8
01
 66
     1
 10
0.0
 20
0.0
 30
0.0000000001127424
  0
VERTEX
  5
1BA6A
  8
01
 10
2592.412438758524
 20
-491.9809028429313
 30
0.0000000001127424
  0
VERTEX
  5
1BA6B
  8
01
 10
2592.413898772274
 20
-491.9797287037651
 30
0.0000000001127424
  0
VERTEX
  5
1BA6C
  8
01
 10
2592.41537831722
 20
-491.9785766322319
 30
0.0000000001127424
  0
VERTEX
  5
1BA6D
  8
01
 10
2592.416876891068
 20
-491.9774471094308
 30
0.0000000001127424
  0
VERTEX
  5
1BA6E
  8
01
 10
2592.418393975884
 20
-491.9763406011346
 30
0.0000000001127424
  0
VERTEX
  5
1BA6F
  8
01
 10
2592.419929038694
 20
-491.97525755716
 30
0.0000000001127424
  0
VERTEX
  5
1BA70
  8
01
 10
2592.421481532093
 20
-491.9741984107656
 30
0.0000000001127424
  0
VERTEX
  5
1BA71
  8
01
 10
2592.4230508949
 20
-491.9731635780793
 30
0.0000000001127424
  0
VERTEX
  5
1BA72
  8
01
 10
2592.424636552825
 20
-491.9721534575552
 30
0.0000000001127424
  0
VERTEX
  5
1BA73
  8
01
 10
2592.426237919175
 20
-491.9711684294638
 30
0.0000000001127424
  0
VERTEX
  5
1BA74
  8
01
 10
2592.427854395575
 20
-491.9702088554147
 30
0.0000000001127424
  0
VERTEX
  5
1BA75
  8
01
 10
2592.429485372711
 20
-491.9692750779142
 30
0.0000000001127424
  0
VERTEX
  5
1BA76
  8
01
 10
2592.431130231099
 20
-491.968367419959
 30
0.0000000001127424
  0
VERTEX
  5
1BA77
  8
01
 10
2592.432788341865
 20
-491.9674861846671
 30
0.0000000001127424
  0
VERTEX
  5
1BA78
  8
01
 10
2592.434459067541
 20
-491.9666316549444
 30
0.0000000001127424
  0
VERTEX
  5
1BA79
  8
01
 10
2592.436141762883
 20
-491.9658040931932
 30
0.0000000001127424
  0
VERTEX
  5
1BA7A
  8
01
 10
2592.43783577569
 20
-491.9650037410561
 30
0.0000000001127424
  0
SEQEND
  5
1BCD1
  8
01
  0
POLYLINE
  5
1AD2F
  8
01
 66
     1
 10
0.0
 20
0.0
 30
0.0000000001127424
  0
VERTEX
  5
1BA7B
  8
01
 10
2592.445033180343
 20
-491.9620180242359
 30
0.0000000001127424
  0
VERTEX
  5
1BA7C
  8
01
 10
2592.445982345925
 20
-491.9616691778818
 30
0.0000000001127424
  0
VERTEX
  5
1BA7D
  8
01
 10
2592.446935175192
 20
-491.9613294668271
 30
0.0000000001127424
  0
VERTEX
  5
1BA7E
  8
01
 10
2592.447891536096
 20
-491.9609989477977
 30
0.0000000001127424
  0
VERTEX
  5
1BA7F
  8
01
 10
2592.448851295435
 20
-491.9606776749711
 30
0.0000000001127424
  0
VERTEX
  5
1BA80
  8
01
 10
2592.44981431891
 20
-491.9603656999458
 30
0.0000000001127424
  0
VERTEX
  5
1BA81
  8
01
 10
2592.450780471198
 20
-491.9600630717158
 30
0.0000000001127424
  0
VERTEX
  5
1BA82
  8
01
 10
2592.451749616003
 20
-491.9597698366437
 30
0.0000000001127424
  0
VERTEX
  5
1BA83
  8
01
 10
2592.45272161613
 20
-491.9594860384383
 30
0.0000000001127424
  0
VERTEX
  5
1BA84
  8
01
 10
2592.453696333544
 20
-491.9592117181322
 30
0.0000000001127424
  0
VERTEX
  5
1BA85
  8
01
 10
2592.454673629439
 20
-491.9589469140626
 30
0.0000000001127424
  0
VERTEX
  5
1BA86
  8
01
 10
2592.4556533643
 20
-491.9586916618526
 30
0.0000000001127424
  0
VERTEX
  5
1BA87
  8
01
 10
2592.456635397972
 20
-491.9584459943965
 30
0.0000000001127424
  0
VERTEX
  5
1BA88
  8
01
 10
2592.457619589726
 20
-491.9582099418449
 30
0.0000000001127424
  0
VERTEX
  5
1BA89
  8
01
 10
2592.458605798328
 20
-491.9579835315927
 30
0.0000000001127424
  0
VERTEX
  5
1BA8A
  8
01
 10
2592.459593882103
 20
-491.9577667882697
 30
0.0000000001127424
  0
VERTEX
  5
1BA8B
  8
01
 10
2592.460583699004
 20
-491.9575597337321
 30
0.0000000001127424
  0
SEQEND
  5
1BCD2
  8
01
  0
POLYLINE
  5
1AD30
  8
01
 10
0.0
 20
0.0
 30
0.0
 66
     1
 70
     8
  0
VERTEX
  5
1BA8C
  8
01
 10
2591.006702954172
 20
-492.6789512981736
 30
0.0000000001127424
 70
    32
  0
VERTEX
  5
1BA8D
  8
01
 10
2591.006678663138
 20
-492.6786481223108
 30
0.0000000001127424
 70
    32
  0
VERTEX
  5
1BA8E
  8
01
 10
2591.006654372103
 20
-492.6783449464481
 30
0.0000000001127424
 70
    32
  0
VERTEX
  5
1BA8F
  8
01
 10
2591.006630081068
 20
-492.6780417705853
 30
0.0000000001127424
 70
    32
  0
VERTEX
  5
1BA90
  8
01
 10
2591.006605790033
 20
-492.6777385947225
 30
0.0000000001127424
 70
    32
  0
VERTEX
  5
1BA91
  8
01
 10
2591.006581498998
 20
-492.6774354188597
 30
0.0000000001127424
 70
    32
  0
VERTEX
  5
1BA92
  8
01
 10
2591.006557207963
 20
-492.6771322429969
 30
0.0000000001127424
 70
    32
  0
VERTEX
  5
1BA93
  8
01
 10
2591.006532916928
 20
-492.6768290671341
 30
0.0000000001127424
 70
    32
  0
VERTEX
  5
1BA94
  8
01
 10
2591.006508625893
 20
-492.6765258912712
 30
0.0000000001127424
 70
    32
  0
VERTEX
  5
1BA95
  8
01
 10
2591.006484334858
 20
-492.6762227154084
 30
0.0000000001127424
 70
    32
  0
VERTEX
  5
1BA96
  8
01
 10
2591.006460043824
 20
-492.6759195395456
 30
0.0000000001127424
 70
    32
  0
VERTEX
  5
1BA97
  8
01
 10
2591.006435752789
 20
-492.6756163636827
 30
0.0000000001127424
 70
    32
  0
VERTEX
  5
1BA98
  8
01
 10
2591.006411461753
 20
-492.6753131878199
 30
0.0000000001127424
 70
    32
  0
VERTEX
  5
1BA99
  8
01
 10
2591.006387170718
 20
-492.675010011957
 30
0.0000000001127424
 70
    32
  0
VERTEX
  5
1BA9A
  8
01
 10
2591.006362879683
 20
-492.6747068360942
 30
0.0000000001127424
 70
    32
  0
VERTEX
  5
1BA9B
  8
01
 10
2591.006338588648
 20
-492.6744036602313
 30
0.0000000001127424
 70
    32
  0
VERTEX
  5
1BA9C
  8
01
 10
2591.006314297613
 20
-492.6741004843684
 30
0.0000000001127424
 70
    32
  0
SEQEND
  5
1BCD3
  8
01
  0
LINE
  5
1AD31
  8
01
 10
2607.227187706622
 20
-484.797077519403
 30
0.0000000001127424
 11
2607.227187706622
 21
-534.797077519404
 31
0.0000000001127424
  0
LINE
  5
1AD32
  8
01
 10
2611.227187706622
 20
-484.797077519403
 30
0.0000000001127424
 11
2611.227187706622
 21
-534.797077519404
 31
0.0000000001127424
  0
LINE
  5
1AD33
  8
01
 10
2607.227187706622
 20
-534.797077519404
 30
0.0000000001127424
 11
2611.227187706622
 21
-534.797077519404
 31
0.0000000001127424
  0
LINE
  5
1AD34
  8
01
 10
2607.227187706622
 20
-484.797077519403
 30
0.0000000001127424
 11
2611.227187706622
 21
-484.797077519403
 31
0.0000000001127424
  0
ARC
  5
1AD35
  8
01
 10
2545.069890332049
 20
-584.8967473730477
 30
0.0000000001127424
 40
74.97979918721913
 50
61.97637008316968
 51
81.39122729365309
  0
ARC
  5
1AD36
  8
01
 10
2518.322086682544
 20
-641.6230344822147
 30
0.0000000001127424
 40
137.6558010829148
 50
54.66489165089928
 51
63.24192381831256
  0
ARC
  5
1AD37
  8
01
 10
2628.575893765676
 20
-487.9211940302471
 30
0.0000000001127424
 40
51.50840420052681
 50
233.4984023672937
 51
245.5140339849193
  0
ARC
  5
1AD38
  8
01
 10
2570.632051957246
 20
-486.6942320740568
 30
0.0000000001127424
 40
10.55957840464655
 50
267.652672010516
 51
275.2935122885235
  0
ARC
  5
1AD39
  8
01
 10
2565.178856554367
 20
-414.1071250013688
 30
0.0000000001127424
 40
83.34983966754666
 50
274.4226697118633
 51
282.6125935486763
  0
ARC
  5
1AD3A
  8
01
 10
2124.361594773133
 20
482.4954688490466
 30
0.0000000001127424
 40
1081.047914932037
 50
295.5055471758428
 51
295.9808108382113
  0
ARC
  5
1AD3B
  8
01
 10
2574.276694702395
 20
-458.7460927685975
 30
0.0000000001127424
 40
37.81146723568217
 50
283.9294579574196
 51
294.3374594454446
  0
ARC
  5
1AD3C
  8
01
 10
-13184.77421121259
 20
32067.83728180619
 30
0.0000000001127424
 40
36180.95233566153
 50
295.8626955977064
 51
295.8790472080691
  0
ARC
  5
1AD3D
  8
01
 10
2585.579179462559
 20
-532.2753186973582
 30
0.0000000001127424
 40
39.4095161311463
 50
124.9494716059974
 51
138.4379381523328
  0
ARC
  5
1AD3E
  8
01
 10
2579.011695476435
 20
-524.6702039244251
 30
0.0000000001127424
 40
29.43162331184761
 50
104.8214688106003
 51
122.9507961508658
  0
ARC
  5
1AD3F
  8
01
 10
2583.502053820112
 20
-531.6704477041499
 30
0.0000000001127424
 40
37.46547413852948
 50
137.0225196639014
 51
139.8566238605241
  0
ARC
  5
1AD40
  8
01
 10
2570.265214208667
 20
-495.9777775808566
 30
0.0000000001127424
 40
1.268871991168467
 50
255.8218718063744
 51
267.0341481340149
  0
ARC
  5
1AD41
  8
01
 10
2570.017080153871
 20
-496.9675893004464
 30
0.0000000001127424
 40
0.248440728366443
 50
233.8213853016398
 51
255.3914857952527
  0
ARC
  5
1AD42
  8
01
 10
2569.902837187564
 20
-497.1263897793892
 30
0.0000000001127424
 40
0.052843953261427
 50
190.628126257629
 51
232.1666956883484
  0
ARC
  5
1AD43
  8
01
 10
2569.901810214275
 20
-497.1297605377536
 30
0.0000000001127424
 40
0.0513080807641571
 50
157.7586854436778
 51
187.1379259545049
  0
LINE
  5
1AD44
  8
01
 10
2569.866640025623
 20
-497.0983870620098
 30
0.0000000001127424
 11
2571.48285048293
 21
-496.2178412134958
 31
0.0000000001127424
  0
ARC
  5
1AD45
  8
01
 10
2569.887673260861
 20
-497.1323931277698
 30
0.0000000001127424
 40
0.0399851158945239
 50
121.737380337963
 51
146.5277289697685
  0
ARC
  5
1AD46
  8
01
 10
2564.101949736924
 20
-428.9166475694769
 30
0.0000000001127424
 40
67.70471447197825
 50
276.2585984589597
 51
281.299321230454
  0
ARC
  5
1AD47
  8
01
 10
2581.808529515199
 20
-525.3081244458813
 30
0.0000000001127424
 40
30.32600447172325
 50
90.86712512806716
 51
98.42057688123103
  0
ARC
  5
1AD48
  8
01
 10
2581.758752310857
 20
-497.8866776816853
 30
0.0000000001127424
 40
2.929796701681882
 50
56.42670905881165
 51
98.0279617979048
  0
ARC
  5
1AD49
  8
01
 10
2556.424487006158
 20
-508.7087794682479
 30
0.0000000001127424
 40
1.996953838373148
 50
185.0692279951487
 51
229.9059591928501
  0
ARC
  5
1AD4A
  8
01
 10
2556.363095586531
 20
-508.735484592406
 30
0.0000000001127424
 40
1.933558857340185
 50
141.253757707365
 51
184.44171711971
  0
ARC
  5
1AD4B
  8
01
 10
2556.419273617309
 20
-508.9523940393406
 30
0.0000000001127424
 40
1.813691215017145
 50
225.0696732533789
 51
266.019462250266
  0
LINE
  5
1AD4C
  8
01
 10
2612.927187706621
 20
-532.2971524183081
 30
0.0000000001127424
 11
2611.227187706622
 21
-532.2971524183081
 31
0.0000000001127424
  0
LINE
  5
1AD4D
  8
01
 10
2612.927187706621
 20
-487.2971524183081
 30
0.0000000001127424
 11
2611.227187706622
 21
-487.2971524183081
 31
0.0000000001127424
  0
POLYLINE
  5
1AD4E
  8
01
 10
0.0
 20
0.0
 30
0.0
 66
     1
 70
     8
  0
VERTEX
  5
1BA9D
  8
01
 10
2591.006702954172
 20
-492.6789512981736
 30
0.0000000001127424
 70
    32
  0
VERTEX
  5
1BA9E
  8
01
 10
2591.006678663138
 20
-492.6786481223108
 30
0.0000000001127424
 70
    32
  0
VERTEX
  5
1BA9F
  8
01
 10
2591.006654372103
 20
-492.6783449464481
 30
0.0000000001127424
 70
    32
  0
VERTEX
  5
1BAA0
  8
01
 10
2591.006630081068
 20
-492.6780417705853
 30
0.0000000001127424
 70
    32
  0
VERTEX
  5
1BAA1
  8
01
 10
2591.006605790033
 20
-492.6777385947225
 30
0.0000000001127424
 70
    32
  0
VERTEX
  5
1BAA2
  8
01
 10
2591.006581498998
 20
-492.6774354188597
 30
0.0000000001127424
 70
    32
  0
VERTEX
  5
1BAA3
  8
01
 10
2591.006557207963
 20
-492.6771322429969
 30
0.0000000001127424
 70
    32
  0
VERTEX
  5
1BAA4
  8
01
 10
2591.006532916928
 20
-492.6768290671341
 30
0.0000000001127424
 70
    32
  0
VERTEX
  5
1BAA5
  8
01
 10
2591.006508625893
 20
-492.6765258912712
 30
0.0000000001127424
 70
    32
  0
VERTEX
  5
1BAA6
  8
01
 10
2591.006484334858
 20
-492.6762227154084
 30
0.0000000001127424
 70
    32
  0
VERTEX
  5
1BAA7
  8
01
 10
2591.006460043824
 20
-492.6759195395456
 30
0.0000000001127424
 70
    32
  0
VERTEX
  5
1BAA8
  8
01
 10
2591.006435752789
 20
-492.6756163636827
 30
0.0000000001127424
 70
    32
  0
VERTEX
  5
1BAA9
  8
01
 10
2591.006411461753
 20
-492.6753131878199
 30
0.0000000001127424
 70
    32
  0
VERTEX
  5
1BAAA
  8
01
 10
2591.006387170718
 20
-492.675010011957
 30
0.0000000001127424
 70
    32
  0
VERTEX
  5
1BAAB
  8
01
 10
2591.006362879683
 20
-492.6747068360942
 30
0.0000000001127424
 70
    32
  0
VERTEX
  5
1BAAC
  8
01
 10
2591.006338588648
 20
-492.6744036602313
 30
0.0000000001127424
 70
    32
  0
VERTEX
  5
1BAAD
  8
01
 10
2591.006314297613
 20
-492.6741004843684
 30
0.0000000001127424
 70
    32
  0
SEQEND
  5
1BCD4
  8
01
  0
POLYLINE
  5
1AD4F
  8
01
 10
0.0
 20
0.0
 30
0.0
 66
     1
 70
     8
  0
VERTEX
  5
1BAAE
  8
01
 10
2591.006702954172
 20
-492.6789512981736
 30
0.0000000001127424
 70
    32
  0
VERTEX
  5
1BAAF
  8
01
 10
2591.006678663138
 20
-492.6786481223108
 30
0.0000000001127424
 70
    32
  0
VERTEX
  5
1BAB0
  8
01
 10
2591.006654372103
 20
-492.6783449464481
 30
0.0000000001127424
 70
    32
  0
VERTEX
  5
1BAB1
  8
01
 10
2591.006630081068
 20
-492.6780417705853
 30
0.0000000001127424
 70
    32
  0
VERTEX
  5
1BAB2
  8
01
 10
2591.006605790033
 20
-492.6777385947225
 30
0.0000000001127424
 70
    32
  0
VERTEX
  5
1BAB3
  8
01
 10
2591.006581498998
 20
-492.6774354188597
 30
0.0000000001127424
 70
    32
  0
VERTEX
  5
1BAB4
  8
01
 10
2591.006557207963
 20
-492.6771322429969
 30
0.0000000001127424
 70
    32
  0
VERTEX
  5
1BAB5
  8
01
 10
2591.006532916928
 20
-492.6768290671341
 30
0.0000000001127424
 70
    32
  0
VERTEX
  5
1BAB6
  8
01
 10
2591.006508625893
 20
-492.6765258912712
 30
0.0000000001127424
 70
    32
  0
VERTEX
  5
1BAB7
  8
01
 10
2591.006484334858
 20
-492.6762227154084
 30
0.0000000001127424
 70
    32
  0
VERTEX
  5
1BAB8
  8
01
 10
2591.006460043824
 20
-492.6759195395456
 30
0.0000000001127424
 70
    32
  0
VERTEX
  5
1BAB9
  8
01
 10
2591.006435752789
 20
-492.6756163636827
 30
0.0000000001127424
 70
    32
  0
VERTEX
  5
1BABA
  8
01
 10
2591.006411461753
 20
-492.6753131878199
 30
0.0000000001127424
 70
    32
  0
VERTEX
  5
1BABB
  8
01
 10
2591.006387170718
 20
-492.675010011957
 30
0.0000000001127424
 70
    32
  0
VERTEX
  5
1BABC
  8
01
 10
2591.006362879683
 20
-492.6747068360942
 30
0.0000000001127424
 70
    32
  0
VERTEX
  5
1BABD
  8
01
 10
2591.006338588648
 20
-492.6744036602313
 30
0.0000000001127424
 70
    32
  0
VERTEX
  5
1BABE
  8
01
 10
2591.006314297613
 20
-492.6741004843684
 30
0.0000000001127424
 70
    32
  0
SEQEND
  5
1BCD5
  8
01
  0
POLYLINE
  5
1AD50
  8
01
 10
0.0
 20
0.0
 30
0.0
 66
     1
 70
     8
  0
VERTEX
  5
1BABF
  8
01
 10
2591.006702954172
 20
-492.6789512981736
 30
0.0000000001127424
 70
    32
  0
VERTEX
  5
1BAC0
  8
01
 10
2591.006678663138
 20
-492.6786481223108
 30
0.0000000001127424
 70
    32
  0
VERTEX
  5
1BAC1
  8
01
 10
2591.006654372103
 20
-492.6783449464481
 30
0.0000000001127424
 70
    32
  0
VERTEX
  5
1BAC2
  8
01
 10
2591.006630081068
 20
-492.6780417705853
 30
0.0000000001127424
 70
    32
  0
VERTEX
  5
1BAC3
  8
01
 10
2591.006605790033
 20
-492.6777385947225
 30
0.0000000001127424
 70
    32
  0
VERTEX
  5
1BAC4
  8
01
 10
2591.006581498998
 20
-492.6774354188597
 30
0.0000000001127424
 70
    32
  0
VERTEX
  5
1BAC5
  8
01
 10
2591.006557207963
 20
-492.6771322429969
 30
0.0000000001127424
 70
    32
  0
VERTEX
  5
1BAC6
  8
01
 10
2591.006532916928
 20
-492.6768290671341
 30
0.0000000001127424
 70
    32
  0
VERTEX
  5
1BAC7
  8
01
 10
2591.006508625893
 20
-492.6765258912712
 30
0.0000000001127424
 70
    32
  0
VERTEX
  5
1BAC8
  8
01
 10
2591.006484334858
 20
-492.6762227154084
 30
0.0000000001127424
 70
    32
  0
VERTEX
  5
1BAC9
  8
01
 10
2591.006460043824
 20
-492.6759195395456
 30
0.0000000001127424
 70
    32
  0
VERTEX
  5
1BACA
  8
01
 10
2591.006435752789
 20
-492.6756163636827
 30
0.0000000001127424
 70
    32
  0
VERTEX
  5
1BACB
  8
01
 10
2591.006411461753
 20
-492.6753131878199
 30
0.0000000001127424
 70
    32
  0
VERTEX
  5
1BACC
  8
01
 10
2591.006387170718
 20
-492.675010011957
 30
0.0000000001127424
 70
    32
  0
VERTEX
  5
1BACD
  8
01
 10
2591.006362879683
 20
-492.6747068360942
 30
0.0000000001127424
 70
    32
  0
VERTEX
  5
1BACE
  8
01
 10
2591.006338588648
 20
-492.6744036602313
 30
0.0000000001127424
 70
    32
  0
VERTEX
  5
1BACF
  8
01
 10
2591.006314297613
 20
-492.6741004843684
 30
0.0000000001127424
 70
    32
  0
SEQEND
  5
1BCD6
  8
01
  0
POLYLINE
  5
1AD51
  8
01
 10
0.0
 20
0.0
 30
0.0
 66
     1
 70
     8
  0
VERTEX
  5
1BAD0
  8
01
 10
2591.006702954172
 20
-492.6789512981736
 30
0.0000000001127424
 70
    32
  0
VERTEX
  5
1BAD1
  8
01
 10
2591.006678663138
 20
-492.6786481223108
 30
0.0000000001127424
 70
    32
  0
VERTEX
  5
1BAD2
  8
01
 10
2591.006654372103
 20
-492.6783449464481
 30
0.0000000001127424
 70
    32
  0
VERTEX
  5
1BAD3
  8
01
 10
2591.006630081068
 20
-492.6780417705853
 30
0.0000000001127424
 70
    32
  0
VERTEX
  5
1BAD4
  8
01
 10
2591.006605790033
 20
-492.6777385947225
 30
0.0000000001127424
 70
    32
  0
VERTEX
  5
1BAD5
  8
01
 10
2591.006581498998
 20
-492.6774354188597
 30
0.0000000001127424
 70
    32
  0
VERTEX
  5
1BAD6
  8
01
 10
2591.006557207963
 20
-492.6771322429969
 30
0.0000000001127424
 70
    32
  0
VERTEX
  5
1BAD7
  8
01
 10
2591.006532916928
 20
-492.6768290671341
 30
0.0000000001127424
 70
    32
  0
VERTEX
  5
1BAD8
  8
01
 10
2591.006508625893
 20
-492.6765258912712
 30
0.0000000001127424
 70
    32
  0
VERTEX
  5
1BAD9
  8
01
 10
2591.006484334858
 20
-492.6762227154084
 30
0.0000000001127424
 70
    32
  0
VERTEX
  5
1BADA
  8
01
 10
2591.006460043824
 20
-492.6759195395456
 30
0.0000000001127424
 70
    32
  0
VERTEX
  5
1BADB
  8
01
 10
2591.006435752789
 20
-492.6756163636827
 30
0.0000000001127424
 70
    32
  0
VERTEX
  5
1BADC
  8
01
 10
2591.006411461753
 20
-492.6753131878199
 30
0.0000000001127424
 70
    32
  0
VERTEX
  5
1BADD
  8
01
 10
2591.006387170718
 20
-492.675010011957
 30
0.0000000001127424
 70
    32
  0
VERTEX
  5
1BADE
  8
01
 10
2591.006362879683
 20
-492.6747068360942
 30
0.0000000001127424
 70
    32
  0
VERTEX
  5
1BADF
  8
01
 10
2591.006338588648
 20
-492.6744036602313
 30
0.0000000001127424
 70
    32
  0
VERTEX
  5
1BAE0
  8
01
 10
2591.006314297613
 20
-492.6741004843684
 30
0.0000000001127424
 70
    32
  0
SEQEND
  5
1BCD7
  8
01
  0
POLYLINE
  5
1AD52
  8
01
 10
0.0
 20
0.0
 30
0.0
 66
     1
 70
     8
  0
VERTEX
  5
1BAE1
  8
01
 10
2591.006702954172
 20
-492.6789512981736
 30
0.0000000001127424
 70
    32
  0
VERTEX
  5
1BAE2
  8
01
 10
2591.006678663138
 20
-492.6786481223108
 30
0.0000000001127424
 70
    32
  0
VERTEX
  5
1BAE3
  8
01
 10
2591.006654372103
 20
-492.6783449464481
 30
0.0000000001127424
 70
    32
  0
VERTEX
  5
1BAE4
  8
01
 10
2591.006630081068
 20
-492.6780417705853
 30
0.0000000001127424
 70
    32
  0
VERTEX
  5
1BAE5
  8
01
 10
2591.006605790033
 20
-492.6777385947225
 30
0.0000000001127424
 70
    32
  0
VERTEX
  5
1BAE6
  8
01
 10
2591.006581498998
 20
-492.6774354188597
 30
0.0000000001127424
 70
    32
  0
VERTEX
  5
1BAE7
  8
01
 10
2591.006557207963
 20
-492.6771322429969
 30
0.0000000001127424
 70
    32
  0
VERTEX
  5
1BAE8
  8
01
 10
2591.006532916928
 20
-492.6768290671341
 30
0.0000000001127424
 70
    32
  0
VERTEX
  5
1BAE9
  8
01
 10
2591.006508625893
 20
-492.6765258912712
 30
0.0000000001127424
 70
    32
  0
VERTEX
  5
1BAEA
  8
01
 10
2591.006484334858
 20
-492.6762227154084
 30
0.0000000001127424
 70
    32
  0
VERTEX
  5
1BAEB
  8
01
 10
2591.006460043824
 20
-492.6759195395456
 30
0.0000000001127424
 70
    32
  0
VERTEX
  5
1BAEC
  8
01
 10
2591.006435752789
 20
-492.6756163636827
 30
0.0000000001127424
 70
    32
  0
VERTEX
  5
1BAED
  8
01
 10
2591.006411461753
 20
-492.6753131878199
 30
0.0000000001127424
 70
    32
  0
VERTEX
  5
1BAEE
  8
01
 10
2591.006387170718
 20
-492.675010011957
 30
0.0000000001127424
 70
    32
  0
VERTEX
  5
1BAEF
  8
01
 10
2591.006362879683
 20
-492.6747068360942
 30
0.0000000001127424
 70
    32
  0
VERTEX
  5
1BAF0
  8
01
 10
2591.006338588648
 20
-492.6744036602313
 30
0.0000000001127424
 70
    32
  0
VERTEX
  5
1BAF1
  8
01
 10
2591.006314297613
 20
-492.6741004843684
 30
0.0000000001127424
 70
    32
  0
SEQEND
  5
1BCD8
  8
01
  0
POLYLINE
  5
1AD53
  8
01
 10
0.0
 20
0.0
 30
0.0
 66
     1
 70
     8
  0
VERTEX
  5
1BAF2
  8
01
 10
2591.006702954172
 20
-492.6789512981736
 30
0.0000000001127424
 70
    32
  0
VERTEX
  5
1BAF3
  8
01
 10
2591.006678663138
 20
-492.6786481223108
 30
0.0000000001127424
 70
    32
  0
VERTEX
  5
1BAF4
  8
01
 10
2591.006654372103
 20
-492.6783449464481
 30
0.0000000001127424
 70
    32
  0
VERTEX
  5
1BAF5
  8
01
 10
2591.006630081068
 20
-492.6780417705853
 30
0.0000000001127424
 70
    32
  0
VERTEX
  5
1BAF6
  8
01
 10
2591.006605790033
 20
-492.6777385947225
 30
0.0000000001127424
 70
    32
  0
VERTEX
  5
1BAF7
  8
01
 10
2591.006581498998
 20
-492.6774354188597
 30
0.0000000001127424
 70
    32
  0
VERTEX
  5
1BAF8
  8
01
 10
2591.006557207963
 20
-492.6771322429969
 30
0.0000000001127424
 70
    32
  0
VERTEX
  5
1BAF9
  8
01
 10
2591.006532916928
 20
-492.6768290671341
 30
0.0000000001127424
 70
    32
  0
VERTEX
  5
1BAFA
  8
01
 10
2591.006508625893
 20
-492.6765258912712
 30
0.0000000001127424
 70
    32
  0
VERTEX
  5
1BAFB
  8
01
 10
2591.006484334858
 20
-492.6762227154084
 30
0.0000000001127424
 70
    32
  0
VERTEX
  5
1BAFC
  8
01
 10
2591.006460043824
 20
-492.6759195395456
 30
0.0000000001127424
 70
    32
  0
VERTEX
  5
1BAFD
  8
01
 10
2591.006435752789
 20
-492.6756163636827
 30
0.0000000001127424
 70
    32
  0
VERTEX
  5
1BAFE
  8
01
 10
2591.006411461753
 20
-492.6753131878199
 30
0.0000000001127424
 70
    32
  0
VERTEX
  5
1BAFF
  8
01
 10
2591.006387170718
 20
-492.675010011957
 30
0.0000000001127424
 70
    32
  0
VERTEX
  5
1BB00
  8
01
 10
2591.006362879683
 20
-492.6747068360942
 30
0.0000000001127424
 70
    32
  0
VERTEX
  5
1BB01
  8
01
 10
2591.006338588648
 20
-492.6744036602313
 30
0.0000000001127424
 70
    32
  0
VERTEX
  5
1BB02
  8
01
 10
2591.006314297613
 20
-492.6741004843684
 30
0.0000000001127424
 70
    32
  0
SEQEND
  5
1BCD9
  8
01
  0
POLYLINE
  5
1AD54
  8
01
 10
0.0
 20
0.0
 30
0.0
 66
     1
 70
     8
  0
VERTEX
  5
1BB03
  8
01
 10
2591.006702954172
 20
-492.6789512981736
 30
0.0000000001127424
 70
    32
  0
VERTEX
  5
1BB04
  8
01
 10
2591.006678663138
 20
-492.6786481223108
 30
0.0000000001127424
 70
    32
  0
VERTEX
  5
1BB05
  8
01
 10
2591.006654372103
 20
-492.6783449464481
 30
0.0000000001127424
 70
    32
  0
VERTEX
  5
1BB06
  8
01
 10
2591.006630081068
 20
-492.6780417705853
 30
0.0000000001127424
 70
    32
  0
VERTEX
  5
1BB07
  8
01
 10
2591.006605790033
 20
-492.6777385947225
 30
0.0000000001127424
 70
    32
  0
VERTEX
  5
1BB08
  8
01
 10
2591.006581498998
 20
-492.6774354188597
 30
0.0000000001127424
 70
    32
  0
VERTEX
  5
1BB09
  8
01
 10
2591.006557207963
 20
-492.6771322429969
 30
0.0000000001127424
 70
    32
  0
VERTEX
  5
1BB0A
  8
01
 10
2591.006532916928
 20
-492.6768290671341
 30
0.0000000001127424
 70
    32
  0
VERTEX
  5
1BB0B
  8
01
 10
2591.006508625893
 20
-492.6765258912712
 30
0.0000000001127424
 70
    32
  0
VERTEX
  5
1BB0C
  8
01
 10
2591.006484334858
 20
-492.6762227154084
 30
0.0000000001127424
 70
    32
  0
VERTEX
  5
1BB0D
  8
01
 10
2591.006460043824
 20
-492.6759195395456
 30
0.0000000001127424
 70
    32
  0
VERTEX
  5
1BB0E
  8
01
 10
2591.006435752789
 20
-492.6756163636827
 30
0.0000000001127424
 70
    32
  0
VERTEX
  5
1BB0F
  8
01
 10
2591.006411461753
 20
-492.6753131878199
 30
0.0000000001127424
 70
    32
  0
VERTEX
  5
1BB10
  8
01
 10
2591.006387170718
 20
-492.675010011957
 30
0.0000000001127424
 70
    32
  0
VERTEX
  5
1BB11
  8
01
 10
2591.006362879683
 20
-492.6747068360942
 30
0.0000000001127424
 70
    32
  0
VERTEX
  5
1BB12
  8
01
 10
2591.006338588648
 20
-492.6744036602313
 30
0.0000000001127424
 70
    32
  0
VERTEX
  5
1BB13
  8
01
 10
2591.006314297613
 20
-492.6741004843684
 30
0.0000000001127424
 70
    32
  0
SEQEND
  5
1BCDA
  8
01
  0
LINE
  5
1AD55
  8
01
 10
2612.927187706621
 20
-487.2971524183081
 30
0.0000000001127424
 11
2612.927187706621
 21
-532.2971524183081
 31
0.0000000001127424
  0
LINE
  5
1AD56
  8
01
 10
2449.085069436546
 20
-511.5817695912178
 30
0.0000000001127424
 11
2366.990809175627
 21
-510.6882207359654
 31
0.0000000001127424
  0
LINE
  5
1AD57
  8
01
 10
2448.764976212488
 20
-497.2408704722134
 30
0.0000000001127424
 11
2366.98866649409
 21
-495.0553499033035
 31
0.0000000001127424
  0
ARC
  5
1AD58
  8
01
 10
2462.927187706621
 20
-509.7971524183081
 30
0.0000000001127424
 40
24.99979096596576
 50
183.8159450626858
 51
149.329332180349
  0
ARC
  5
1AD59
  8
01
 10
2462.750847360886
 20
-515.4557365719161
 30
0.0000000001127424
 40
29.51711322463888
 50
115.080659307837
 51
121.8309803400606
  0
ARC
  5
1AD5A
  8
01
 10
2456.925394392781
 20
-503.101343671688
 30
0.0000000001127424
 40
15.85826769269537
 50
102.5664197723256
 51
114.9389114331406
  0
ARC
  5
1AD5B
  8
01
 10
2455.16067730693
 20
-495.545169756148
 30
0.0000000001127424
 40
8.099534243652876
 50
78.76030635231065
 51
102.0115563561063
  0
ARC
  5
1AD5C
  8
01
 10
2454.360086124197
 20
-498.4788450791489
 30
0.0000000001127424
 40
11.13503455607863
 50
53.59028312162563
 51
77.66206717022331
  0
ARC
  5
1AD5D
  8
01
 10
2457.88004163467
 20
-493.942062767323
 30
0.0000000001127424
 40
5.396391158680872
 50
13.72995776987091
 51
55.07693742677935
  0
ARC
  5
1AD5E
  8
01
 10
2458.888607736276
 20
-493.6574245772722
 30
0.0000000001127424
 40
4.349245370029341
 50
357.324666376044
 51
13.24087098957739
  0
ARC
  5
1AD5F
  8
01
 10
2460.66955761955
 20
-493.7810579652737
 30
0.0000000001127424
 40
2.564783586505675
 50
331.6935918637139
 51
358.2265522835368
  0
ARC
  5
1AD60
  8
01
 10
2450.831136484722
 20
-440.3349260485516
 30
0.0000000001127424
 40
56.94344149258469
 50
267.9205988974863
 51
278.0849286292139
  0
ARC
  5
1AD61
  8
01
 10
2460.340418632551
 20
-493.208983304487
 30
0.0000000001127424
 40
3.145102773129
 50
281.535222775525
 51
325.3483296958967
  0
ARC
  5
1AD62
  8
01
 10
2456.981901864098
 20
-481.7463203047105
 30
0.0000000001127424
 40
15.08093668083644
 50
277.0761872456318
 51
285.3314782045515
  0
ARC
  5
1AD63
  8
01
 10
2362.299195178482
 20
-614.1474522557296
 30
0.0000000001127424
 40
119.1843948843166
 50
87.74503792698465
 51
94.78724667858097
  0
ARC
  5
1AD64
  8
01
 10
2354.791486614163
 20
-527.9354686356514
 30
0.0000000001127424
 40
32.64785966672855
 50
94.28425498062074
 51
106.5803109969807
  0
ARC
  5
1AD65
  8
01
 10
2368.58208787744
 20
-402.8074330751483
 30
0.0000000001127424
 40
107.8925229764554
 50
261.3485416296159
 51
269.1549288414873
  0
ARC
  5
1AD66
  8
01
 10
2356.372170057143
 20
-477.513480236596
 30
0.0000000001127424
 40
32.21063361533734
 50
250.2263103155129
 51
262.831251392103
  0
ARC
  5
1AD67
  8
01
 10
2349.450406319916
 20
-515.0603599655719
 30
0.0000000001127424
 40
18.83945955420323
 50
102.1814448968919
 51
122.8795872201328
  0
ARC
  5
1AD68
  8
01
 10
2350.494192462799
 20
-489.5805978206067
 30
0.0000000001127424
 40
18.92204771753521
 50
233.4397150227565
 51
254.6182092025084
  0
ARC
  5
1AD69
  8
01
 10
2341.525859643413
 20
-502.0113979149196
 30
0.0000000001127424
 40
3.600712235186706
 50
179.4438319266212
 51
230.2397660542046
  0
ARC
  5
1AD6A
  8
01
 10
2341.323562240857
 20
-501.9107574908217
 30
0.0000000001127424
 40
3.398880028698698
 50
128.1729112081738
 51
181.1074048279137
  0
LINE
  5
1AD6B
  8
01
 10
2430.714517861709
 20
-510.0459544242235
 30
0.0000000001127424
 11
2366.990809175623
 21
-510.6882207359654
 31
0.0000000001127424
  0
ARC
  5
1AD6C
  8
01
 10
2436.890981854297
 20
-1295.629752124484
 30
0.0000000001127424
 40
785.6080778076408
 50
88.96716846853423
 51
90.45046502810717
  0
ARC
  5
1AD6D
  8
01
 10
2443.079143708795
 20
-626.7164194503225
 30
0.0000000001127424
 40
116.8394382932455
 50
81.46569590921149
 51
86.08730975270431
  0
ARC
  5
1AD6E
  8
01
 10
2455.119957294369
 20
-537.4124594015407
 30
0.0000000001127424
 40
26.77127486492728
 50
64.99335655355405
 51
78.5851565599564
  0
ARC
  5
1AD6F
  8
01
 10
2462.950777389476
 20
-521.7067960737536
 30
0.0000000001127424
 40
9.23894837916856
 50
42.14279980735831
 51
67.83233959976079
  0
ARC
  5
1AD70
  8
01
 10
2462.865351129575
 20
-520.8876829583355
 30
0.0000000001127424
 40
8.77788172044793
 50
7.662988097679852
 51
37.80014194772417
  0
ARC
  5
1AD71
  8
01
 10
2459.993708134861
 20
-521.7307829179176
 30
0.0000000001127424
 40
11.74502933276003
 50
345.8306852090835
 51
9.871690768987309
  0
ARC
  5
1AD72
  8
01
 10
2460.385267947676
 20
-521.6593724365671
 30
0.0000000001127424
 40
11.38405962301786
 50
319.9534576497223
 51
344.9997753237635
  0
ARC
  5
1AD73
  8
01
 10
2459.078478120012
 20
-520.9584178305408
 30
0.0000000001127424
 40
12.83904139673257
 50
290.4064153573569
 51
321.3111364477961
  0
ARC
  5
1AD74
  8
01
 10
2458.523943939735
 20
-513.793553852986
 30
0.0000000001127424
 40
19.84647679739424
 50
256.1970681715521
 51
284.6851111710645
  0
ARC
  5
1AD75
  8
01
 10
2461.827008542873
 20
-528.6660573099384
 30
0.0000000001127424
 40
2.778981984552072
 50
74.14872525278386
 51
98.90837002113446
  0
ARC
  5
1AD76
  8
01
 10
2461.600419801568
 20
-527.1507159799717
 30
0.0000000001127424
 40
1.246878291068781
 50
99.40475608025419
 51
134.9149620976443
  0
ARC
  5
1AD77
  8
01
 10
2461.654327953532
 20
-527.0713788263952
 30
0.0000000001127424
 40
1.232362359911368
 50
139.2984657511622
 51
189.8072898165616
  0
ARC
  5
1AD78
  8
01
 10
2461.391409368264
 20
-530.4676119996043
 30
0.0000000001127424
 40
4.631586763479185
 50
52.4717928217903
 51
75.05236296371154
  0
ARC
  5
1AD79
  8
01
 10
2462.085586957185
 20
-529.639789557596
 30
0.0000000001127424
 40
3.552520702786541
 50
30.64114269676199
 51
53.21774915766423
  0
ARC
  5
1AD7A
  8
01
 10
2463.519584043394
 20
-528.8251860800478
 30
0.0000000001127424
 40
1.903809481831612
 50
354.9979874551486
 51
31.54357455622682
  0
ARC
  5
1AD7B
  8
01
 10
2463.29848454792
 20
-526.8564469356229
 30
0.0000000001127424
 40
2.889908447323687
 50
188.453705955109
 51
212.4213441604217
  0
ARC
  5
1AD7C
  8
01
 10
2464.472913468032
 20
-526.1959448871135
 30
0.0000000001127424
 40
4.236013342244362
 50
211.4459274564218
 51
231.3567311383077
  0
ARC
  5
1AD7D
  8
01
 10
2464.079339569606
 20
-528.8309127684483
 30
0.0000000001127424
 40
1.346376446120278
 50
305.3277457675563
 51
353.1635039422531
  0
ARC
  5
1AD7E
  8
01
 10
2464.02013467298
 20
-526.8323102599575
 30
0.0000000001127424
 40
3.45651100728506
 50
230.631530635568
 51
256.9311281712542
  0
ARC
  5
1AD7F
  8
01
 10
2463.849502115329
 20
-528.5004764566843
 30
0.0000000001127424
 40
1.748873214865161
 50
277.9653127474504
 51
305.2110796864671
  0
ARC
  5
1AD80
  8
01
 10
2463.756448163903
 20
-527.8692813507828
 30
0.0000000001127424
 40
2.386878064591476
 50
257.4682279798956
 51
278.0778753014807
  0
LINE
  5
1B05C
  8
1CENTER
 10
2598.427187706621
 20
-534.797077519404
 30
0.0000000001127424
 11
2598.427187706621
 21
-516.7971524183081
 31
0.0000000001127424
  0
LINE
  5
1B4C7
  8
01
 10
2442.927067366873
 20
-454.2984707314106
 30
0.0000000001127424
 11
2442.927067366873
 21
-425.4984707314106
 31
0.0000000001127424
1001
ACAD
1000
DSTYLE
1002
{
1070
     3
1000
φ<>
1070
    40
1040
1.3
1070
    45
1040
0.5
1070
   271
1070
     4
1070
   272
1070
     2
1002
}
  0
LINE
  5
1B4C8
  8
01
 10
2482.927067366873
 20
-454.2984707314106
 30
0.0000000001127424
 11
2482.927067366873
 21
-425.4984707314106
 31
0.0000000001127424
1001
ACAD
1000
DSTYLE
1002
{
1070
     3
1000
φ<>
1070
    40
1040
1.3
1070
    45
1040
0.5
1070
   271
1070
     4
1070
   272
1070
     2
1002
}
  0
LINE
  5
1B4C9
  8
01
 10
2445.527067366873
 20
-426.7984707314106
 30
0.0000000001127424
 11
2480.327067366874
 21
-426.7984707314106
 31
0.0000000001127424
1001
ACAD
1000
DSTYLE
1002
{
1070
     3
1000
φ<>
1070
    40
1040
1.3
1070
    45
1040
0.5
1070
   271
1070
     4
1070
   272
1070
     2
1002
}
  0
LINE
  5
1B4CD
  8
01
 10
2612.927071366878
 20
-434.2984707314106
 30
0.0000000001127424
 11
2612.927071366878
 21
-402.4984707314106
 31
0.0000000001127424
1001
ACAD
1000
DSTYLE
1002
{
1070
    40
1040
1.3
1070
    45
1040
0.5
1070
   341
1005
0
1002
}
  0
LINE
  5
1B4CE
  8
01
 10
2590.926685801159
 20
-449.7984757314096
 30
0.0000000001127424
 11
2590.926685801159
 21
-402.4984707314106
 31
0.0000000001127424
1001
ACAD
1000
DSTYLE
1002
{
1070
    40
1040
1.3
1070
    45
1040
0.5
1070
   341
1005
0
1002
}
  0
LINE
  5
1B4CF
  8
01
 10
2610.327071366878
 20
-403.7984707314106
 30
0.0000000001127424
 11
2593.526685801159
 21
-403.7984707314106
 31
0.0000000001127424
1001
ACAD
1000
DSTYLE
1002
{
1070
    40
1040
1.3
1070
    45
1040
0.5
1070
   341
1005
0
1002
}
  0
LINE
  5
1B4D3
  8
01
 10
2782.926954704672
 20
-454.2984707314106
 30
0.0000000001127424
 11
2782.926954704672
 21
-425.4984707314106
 31
0.0000000001127424
1001
ACAD
1000
DSTYLE
1002
{
1070
     3
1000
φ<>
1070
    40
1040
1.3
1070
    45
1040
0.5
1070
   271
1070
     4
1070
   272
1070
     2
1002
}
  0
LINE
  5
1B4D4
  8
01
 10
2822.926954704672
 20
-454.2984707314106
 30
0.0000000001127424
 11
2822.926954704672
 21
-425.4984707314106
 31
0.0000000001127424
1001
ACAD
1000
DSTYLE
1002
{
1070
     3
1000
φ<>
1070
    40
1040
1.3
1070
    45
1040
0.5
1070
   271
1070
     4
1070
   272
1070
     2
1002
}
  0
LINE
  5
1B4D5
  8
01
 10
2785.526954704672
 20
-426.7984707314106
 30
0.0000000001127424
 11
2820.326954704673
 21
-426.7984707314106
 31
0.0000000001127424
1001
ACAD
1000
DSTYLE
1002
{
1070
     3
1000
φ<>
1070
    40
1040
1.3
1070
    45
1040
0.5
1070
   271
1070
     4
1070
   272
1070
     2
1002
}
  0
LINE
  5
1B4D9
  8
01
 10
2442.927067366873
 20
-454.2984707314106
 30
0.0000000001127424
 11
2442.927067366873
 21
-425.4984707314106
 31
0.0000000001127424
1001
ACAD
1000
DSTYLE
1002
{
1070
     3
1000
φ<>
1070
    40
1040
1.3
1070
    45
1040
0.5
1070
   271
1070
     4
1070
   272
1070
     2
1002
}
  0
LINE
  5
1B4DA
  8
01
 10
2482.927067366873
 20
-454.2984707314106
 30
0.0000000001127424
 11
2482.927067366873
 21
-425.4984707314106
 31
0.0000000001127424
1001
ACAD
1000
DSTYLE
1002
{
1070
     3
1000
φ<>
1070
    40
1040
1.3
1070
    45
1040
0.5
1070
   271
1070
     4
1070
   272
1070
     2
1002
}
  0
LINE
  5
1B4DB
  8
01
 10
2445.527067366873
 20
-426.7984707314106
 30
0.0000000001127424
 11
2480.327067366874
 21
-426.7984707314106
 31
0.0000000001127424
1001
ACAD
1000
DSTYLE
1002
{
1070
     3
1000
φ<>
1070
    40
1040
1.3
1070
    45
1040
0.5
1070
   271
1070
     4
1070
   272
1070
     2
1002
}
  0
LINE
  5
1B4DF
  8
01
 10
2612.927071366878
 20
-434.2984707314106
 30
0.0000000001127424
 11
2612.927071366878
 21
-402.4984707314106
 31
0.0000000001127424
1001
ACAD
1000
DSTYLE
1002
{
1070
    40
1040
1.3
1070
    45
1040
0.5
1070
   341
1005
0
1002
}
  0
LINE
  5
1B4E0
  8
01
 10
2590.927046555867
 20
-451.1780009066347
 30
0.0000000001127424
 11
2590.927046555867
 21
-402.4984707314106
 31
0.0000000001127424
1001
ACAD
1000
DSTYLE
1002
{
1070
    40
1040
1.3
1070
    45
1040
0.5
1070
   341
1005
0
1002
}
  0
LINE
  5
1B4E1
  8
01
 10
2610.327071366878
 20
-403.7984707314106
 30
0.0000000001127424
 11
2593.527046555866
 21
-403.7984707314106
 31
0.0000000001127424
1001
ACAD
1000
DSTYLE
1002
{
1070
    40
1040
1.3
1070
    45
1040
0.5
1070
   341
1005
0
1002
}
  0
LINE
  5
1B4E5
  8
01
 10
2652.927071366877
 20
-434.2984707314106
 30
0.0
 11
2652.927071366877
 21
-402.4984707314106
 31
0.0
1001
ACAD
1000
DSTYLE
1002
{
1070
    40
1040
1.3
1070
    45
1040
0.5
1070
   271
1070
     1
1070
   341
1005
0
1002
}
  0
LINE
  5
1B4E6
  8
01
 10
2661.095655055839
 20
-459.7984691637184
 30
0.0
 11
2661.095655055839
 21
-402.4984707314106
 31
0.0
1001
ACAD
1000
DSTYLE
1002
{
1070
    40
1040
1.3
1070
    45
1040
0.5
1070
   271
1070
     1
1070
   341
1005
0
1002
}
  0
LINE
  5
1B4E7
  8
01
 10
2655.527071366877
 20
-403.7984707314106
 30
0.0
 11
2658.495655055839
 21
-403.7984707314106
 31
0.0
1001
ACAD
1000
DSTYLE
1002
{
1070
    40
1040
1.3
1070
    45
1040
0.5
1070
   271
1070
     1
1070
   341
1005
0
1002
}
  0
TEXT
  5
1B4EB
  8
01
  6
CONTINUOUS
 10
2713.93011612015
 20
-304.7984707324395
 30
0.0000000001127424
 40
4.55
  1
材質：亜鉛ダイキャスト
  0
LINE
  5
1B4EC
  8
01
 10
2740.926955027132
 20
-481.7984714295421
 30
0.0000000001127424
 11
2740.926955027132
 21
-379.0769786467228
 31
0.0000000001127424
1001
ACAD
1000
DSTYLE
1002
{
1070
    40
1040
1.3
1070
    45
1040
0.5
1002
}
  0
LINE
  5
1B4ED
  8
01
 10
2751.926955027132
 20
-423.9271533802532
 30
0.0000000001127424
 11
2751.926955027132
 21
-379.0769786467228
 31
0.0000000001127424
1001
ACAD
1000
DSTYLE
1002
{
1070
    40
1040
1.3
1070
    45
1040
0.5
1002
}
  0
LINE
  5
1B4EE
  8
01
 10
2743.526955027132
 20
-380.3769786467228
 30
0.0000000001127424
 11
2749.326955027132
 21
-380.3769786467228
 31
0.0000000001127424
1001
ACAD
1000
DSTYLE
1002
{
1070
    40
1040
1.3
1070
    45
1040
0.5
1002
}
  0
LINE
  5
1B4F2
  8
01
 10
2820.926955027132
 20
-451.7984707314108
 30
0.0000000001127424
 11
2849.226955027132
 21
-451.7984707314108
 31
0.0000000001127424
1001
ACAD
1000
DSTYLE
1002
{
1070
    40
1040
1.3
1070
    45
1040
0.5
1002
}
  0
LINE
  5
1B4F3
  8
01
 10
2820.926955027132
 20
-525.7984707314113
 30
0.0000000001127424
 11
2849.226955027132
 21
-525.7984707314113
 31
0.0000000001127424
1001
ACAD
1000
DSTYLE
1002
{
1070
    40
1040
1.3
1070
    45
1040
0.5
1002
}
  0
LINE
  5
1B4F4
  8
01
 10
2847.926955027132
 20
-454.3984707314108
 30
0.0000000001127424
 11
2847.926955027132
 21
-523.1984707314112
 31
0.0000000001127424
1001
ACAD
1000
DSTYLE
1002
{
1070
    40
1040
1.3
1070
    45
1040
0.5
1002
}
  0
LINE
  5
1B4F8
  8
01
 10
2820.926955027132
 20
-451.7984707314108
 30
0.0000000001127424
 11
2820.926955027132
 21
-368.9971111786746
 31
0.0000000001127424
1001
ACAD
1000
DSTYLE
1002
{
1070
    40
1040
1.3
1070
    45
1040
0.5
1002
}
  0
LINE
  5
1B4F9
  8
01
 10
2751.926955027132
 20
-423.9271533802532
 30
0.0000000001127424
 11
2751.926955027132
 21
-368.9971111786746
 31
0.0000000001127424
1001
ACAD
1000
DSTYLE
1002
{
1070
    40
1040
1.3
1070
    45
1040
0.5
1002
}
  0
LINE
  5
1B4FA
  8
01
 10
2818.326955027132
 20
-370.2971111786746
 30
0.0000000001127424
 11
2754.526955027132
 21
-370.2971111786746
 31
0.0000000001127424
1001
ACAD
1000
DSTYLE
1002
{
1070
    40
1040
1.3
1070
    45
1040
0.5
1002
}
  0
LINE
  5
1B4FE
  8
01
 10
2751.926955027132
 20
-423.9271533802532
 30
0.0000000001127424
 11
2751.926955027132
 21
-379.0769786467228
 31
0.0000000001127424
1001
ACAD
1000
DSTYLE
1002
{
1070
    40
1040
1.3
1070
    45
1040
0.5
1002
}
  0
LINE
  5
1B4FF
  8
01
 10
2802.926955027132
 20
-459.7984707314108
 30
0.0000000001127424
 11
2802.926955027132
 21
-379.0769786467228
 31
0.0000000001127424
1001
ACAD
1000
DSTYLE
1002
{
1070
    40
1040
1.3
1070
    45
1040
0.5
1002
}
  0
LINE
  5
1B500
  8
01
 10
2754.526955027132
 20
-380.3769786467228
 30
0.0000000001127424
 11
2800.326955027132
 21
-380.3769786467228
 31
0.0000000001127424
1001
ACAD
1000
DSTYLE
1002
{
1070
    40
1040
1.3
1070
    45
1040
0.5
1002
}
  0
LINE
  5
1B504
  8
01
 10
2620.427071366877
 20
-429.7984707314113
 30
0.0000000001127424
 11
2620.427071366877
 21
-379.076978646723
 31
0.0000000001127424
1001
ACAD
1000
DSTYLE
1002
{
1070
    40
1040
1.3
1070
    45
1040
0.5
1002
}
  0
LINE
  5
1B505
  8
01
 10
2645.427071366877
 20
-429.7984707314113
 30
0.0000000001127424
 11
2645.427071366877
 21
-379.076978646723
 31
0.0000000001127424
1001
ACAD
1000
DSTYLE
1002
{
1070
    40
1040
1.3
1070
    45
1040
0.5
1002
}
  0
LINE
  5
1B506
  8
01
 10
2623.027071366876
 20
-380.376978646723
 30
0.0000000001127424
 11
2642.827071366877
 21
-380.376978646723
 31
0.0000000001127424
1001
ACAD
1000
DSTYLE
1002
{
1070
    40
1040
1.3
1070
    45
1040
0.5
1002
}
  0
LINE
  5
1B50A
  8
01
 10
2638.729010970113
 20
-431.798025586995
 30
0.0000000001691137
 11
2719.015142138321
 21
-431.798025586995
 31
0.0000000001691137
1001
ACAD
1000
DSTYLE
1002
{
1070
    40
1040
1.3
1070
    45
1040
0.5
1002
}
  0
LINE
  5
1B50B
  8
01
 10
2638.729010970113
 20
-545.798025586995
 30
0.0000000001691137
 11
2719.015142138321
 21
-545.798025586995
 31
0.0000000001691137
1001
ACAD
1000
DSTYLE
1002
{
1070
    40
1040
1.3
1070
    45
1040
0.5
1002
}
  0
LINE
  5
1B50C
  8
01
 10
2717.715142138321
 20
-434.3980255869951
 30
0.0000000001691137
 11
2717.715142138321
 21
-543.198025586995
 31
0.0000000001691137
1001
ACAD
1000
DSTYLE
1002
{
1070
    40
1040
1.3
1070
    45
1040
0.5
1002
}
  0
LINE
  5
1B510
  8
01
 10
2639.327071366876
 20
-423.8984707314114
 30
0.0000000001691137
 11
2728.379476304545
 21
-423.8984707314115
 31
0.0000000001691137
1001
ACAD
1000
DSTYLE
1002
{
1070
    40
1040
1.3
1070
    45
1040
0.5
1002
}
  0
LINE
  5
1B511
  8
01
 10
2639.253985562206
 20
-553.6980255869948
 30
0.0000000001691137
 11
2728.379476304545
 21
-553.6980255869948
 31
0.0000000001691137
1001
ACAD
1000
DSTYLE
1002
{
1070
    40
1040
1.3
1070
    45
1040
0.5
1002
}
  0
LINE
  5
1B512
  8
01
 10
2727.079476304545
 20
-426.4984707314115
 30
0.0000000001691137
 11
2727.079476304545
 21
-551.0980255869948
 31
0.0000000001691137
1001
ACAD
1000
DSTYLE
1002
{
1070
    40
1040
1.3
1070
    45
1040
0.5
1002
}
  0
LINE
  5
1B516
  8
01
 10
2802.926955027132
 20
-484.7971524183081
 30
0.0000000001127424
 11
2766.626955027132
 21
-484.7971524183081
 31
0.0000000001127424
1001
ACAD
1000
DSTYLE
1002
{
1070
     3
1000
φ<>
1070
    40
1040
1.3
1070
    45
1040
0.5
1002
}
  0
LINE
  5
1B517
  8
01
 10
2802.926955027132
 20
-534.7971524183072
 30
0.0000000001127424
 11
2766.626955027132
 21
-534.7971524183072
 31
0.0000000001127424
1001
ACAD
1000
DSTYLE
1002
{
1070
     3
1000
φ<>
1070
    40
1040
1.3
1070
    45
1040
0.5
1002
}
  0
LINE
  5
1B518
  8
01
 10
2767.926955027132
 20
-487.3971524183081
 30
0.0000000001127424
 11
2767.926955027132
 21
-532.1971524183072
 31
0.0000000001127424
1001
ACAD
1000
DSTYLE
1002
{
1070
     3
1000
φ<>
1070
    40
1040
1.3
1070
    45
1040
0.5
1002
}
  0
LINE
  5
1B51C
  8
01
  6
BYBLOCK
 10
2445.527067366873
 20
-427.4951386254106
 30
0.0000000001127424
 11
2442.927067366873
 21
-426.7984707314106
 31
0.0000000001127424
  0
LINE
  5
1B51D
  8
01
  6
BYBLOCK
 10
2442.927067366873
 20
-426.7984707314106
 30
0.0000000001127424
 11
2445.527067366873
 21
-426.1018028374106
 31
0.0000000001127424
  0
LINE
  5
1B51E
  8
01
  6
BYBLOCK
 10
2442.927067366873
 20
-426.7984707314106
 30
0.0000000001127424
 11
2445.527067366873
 21
-426.7984707314106
 31
0.0000000001127424
  0
LINE
  5
1B51F
  8
01
  6
BYBLOCK
 10
2480.327067366874
 20
-426.1018028374106
 30
0.0000000001127424
 11
2482.927067366873
 21
-426.7984707314106
 31
0.0000000001127424
  0
LINE
  5
1B520
  8
01
  6
BYBLOCK
 10
2482.927067366873
 20
-426.7984707314106
 30
0.0000000001127424
 11
2480.327067366874
 21
-427.4951386254106
 31
0.0000000001127424
  0
LINE
  5
1B521
  8
01
  6
BYBLOCK
 10
2482.927067366873
 20
-426.7984707314106
 30
0.0000000001127424
 11
2480.327067366874
 21
-426.7984707314106
 31
0.0000000001127424
  0
TEXT
  5
1B522
  8
01
  6
CONTINUOUS
 10
2456.08310903354
 20
-425.8884707314106
 30
0.0000000001127424
 40
4.55
  1
φ40
1001
ACAD
1000
DSTYLE
1002
{
1070
     3
1000
φ<>
1070
    40
1040
1.3
1070
    45
1040
0.5
1070
   271
1070
     4
1070
   272
1070
     2
1002
}
  0
LINE
  5
1B523
  8
01
  6
BYBLOCK
 10
2610.327071366878
 20
-403.1018028374106
 30
0.0000000001127424
 11
2612.927071366878
 21
-403.7984707314106
 31
0.0000000001127424
  0
LINE
  5
1B524
  8
01
  6
BYBLOCK
 10
2612.927071366878
 20
-403.7984707314106
 30
0.0000000001127424
 11
2610.327071366878
 21
-404.4951386254106
 31
0.0000000001127424
  0
LINE
  5
1B525
  8
01
  6
BYBLOCK
 10
2612.927071366878
 20
-403.7984707314106
 30
0.0000000001127424
 11
2610.327071366878
 21
-403.7984707314106
 31
0.0000000001127424
  0
LINE
  5
1B526
  8
01
  6
BYBLOCK
 10
2593.526685801159
 20
-404.4951386254106
 30
0.0000000001127424
 11
2590.926685801159
 21
-403.7984707314106
 31
0.0000000001127424
  0
LINE
  5
1B527
  8
01
  6
BYBLOCK
 10
2590.926685801159
 20
-403.7984707314106
 30
0.0000000001127424
 11
2593.526685801159
 21
-403.1018028374106
 31
0.0000000001127424
  0
LINE
  5
1B528
  8
01
  6
BYBLOCK
 10
2590.926685801159
 20
-403.7984707314106
 30
0.0000000001127424
 11
2593.526685801159
 21
-403.7984707314106
 31
0.0000000001127424
  0
TEXT
  5
1B529
  8
01
  6
CONTINUOUS
 10
2598.135211917352
 20
-402.8884707314106
 30
0.0000000001127424
 40
4.55
  1
22
1001
ACAD
1000
DSTYLE
1002
{
1070
    40
1040
1.3
1070
    45
1040
0.5
1070
   341
1005
0
1002
}
  0
LINE
  5
1B52A
  8
01
  6
BYBLOCK
 10
2785.526954704672
 20
-427.4951386254106
 30
0.0000000001127424
 11
2782.926954704672
 21
-426.7984707314106
 31
0.0000000001127424
  0
LINE
  5
1B52B
  8
01
  6
BYBLOCK
 10
2782.926954704672
 20
-426.7984707314106
 30
0.0000000001127424
 11
2785.526954704672
 21
-426.1018028374106
 31
0.0000000001127424
  0
LINE
  5
1B52C
  8
01
  6
BYBLOCK
 10
2782.926954704672
 20
-426.7984707314106
 30
0.0000000001127424
 11
2785.526954704672
 21
-426.7984707314106
 31
0.0000000001127424
  0
LINE
  5
1B52D
  8
01
  6
BYBLOCK
 10
2820.326954704673
 20
-426.1018028374106
 30
0.0000000001127424
 11
2822.926954704672
 21
-426.7984707314106
 31
0.0000000001127424
  0
LINE
  5
1B52E
  8
01
  6
BYBLOCK
 10
2822.926954704672
 20
-426.7984707314106
 30
0.0000000001127424
 11
2820.326954704673
 21
-427.4951386254106
 31
0.0000000001127424
  0
LINE
  5
1B52F
  8
01
  6
BYBLOCK
 10
2822.926954704672
 20
-426.7984707314106
 30
0.0000000001127424
 11
2820.326954704673
 21
-426.7984707314106
 31
0.0000000001127424
  0
TEXT
  5
1B530
  8
01
  6
CONTINUOUS
 10
2796.08299637134
 20
-425.8884707314106
 30
0.0000000001127424
 40
4.55
  1
φ40
1001
ACAD
1000
DSTYLE
1002
{
1070
     3
1000
φ<>
1070
    40
1040
1.3
1070
    45
1040
0.5
1070
   271
1070
     4
1070
   272
1070
     2
1002
}
  0
LINE
  5
1B531
  8
01
  6
BYBLOCK
 10
2445.527067366873
 20
-427.4951386254106
 30
0.0000000001127424
 11
2442.927067366873
 21
-426.7984707314106
 31
0.0000000001127424
  0
LINE
  5
1B532
  8
01
  6
BYBLOCK
 10
2442.927067366873
 20
-426.7984707314106
 30
0.0000000001127424
 11
2445.527067366873
 21
-426.1018028374106
 31
0.0000000001127424
  0
LINE
  5
1B533
  8
01
  6
BYBLOCK
 10
2442.927067366873
 20
-426.7984707314106
 30
0.0000000001127424
 11
2445.527067366873
 21
-426.7984707314106
 31
0.0000000001127424
  0
LINE
  5
1B534
  8
01
  6
BYBLOCK
 10
2480.327067366874
 20
-426.1018028374106
 30
0.0000000001127424
 11
2482.927067366873
 21
-426.7984707314106
 31
0.0000000001127424
  0
LINE
  5
1B535
  8
01
  6
BYBLOCK
 10
2482.927067366873
 20
-426.7984707314106
 30
0.0000000001127424
 11
2480.327067366874
 21
-427.4951386254106
 31
0.0000000001127424
  0
LINE
  5
1B536
  8
01
  6
BYBLOCK
 10
2482.927067366873
 20
-426.7984707314106
 30
0.0000000001127424
 11
2480.327067366874
 21
-426.7984707314106
 31
0.0000000001127424
  0
TEXT
  5
1B537
  8
01
  6
CONTINUOUS
 10
2456.08310903354
 20
-425.8884707314106
 30
0.0000000001127424
 40
4.55
  1
φ40
1001
ACAD
1000
DSTYLE
1002
{
1070
     3
1000
φ<>
1070
    40
1040
1.3
1070
    45
1040
0.5
1070
   271
1070
     4
1070
   272
1070
     2
1002
}
  0
LINE
  5
1B538
  8
01
  6
BYBLOCK
 10
2610.327071366878
 20
-403.1018028374106
 30
0.0000000001127424
 11
2612.927071366878
 21
-403.7984707314106
 31
0.0000000001127424
  0
LINE
  5
1B539
  8
01
  6
BYBLOCK
 10
2612.927071366878
 20
-403.7984707314106
 30
0.0000000001127424
 11
2610.327071366878
 21
-404.4951386254106
 31
0.0000000001127424
  0
LINE
  5
1B53A
  8
01
  6
BYBLOCK
 10
2612.927071366878
 20
-403.7984707314106
 30
0.0000000001127424
 11
2610.327071366878
 21
-403.7984707314106
 31
0.0000000001127424
  0
LINE
  5
1B53B
  8
01
  6
BYBLOCK
 10
2593.527046555866
 20
-404.4951386254106
 30
0.0000000001127424
 11
2590.927046555867
 21
-403.7984707314106
 31
0.0000000001127424
  0
LINE
  5
1B53C
  8
01
  6
BYBLOCK
 10
2590.927046555867
 20
-403.7984707314106
 30
0.0000000001127424
 11
2593.527046555866
 21
-403.1018028374106
 31
0.0000000001127424
  0
LINE
  5
1B53D
  8
01
  6
BYBLOCK
 10
2590.927046555867
 20
-403.7984707314106
 30
0.0000000001127424
 11
2593.527046555866
 21
-403.7984707314106
 31
0.0000000001127424
  0
TEXT
  5
1B53E
  8
01
  6
CONTINUOUS
 10
2598.135392294706
 20
-402.8884707314106
 30
0.0000000001127424
 40
4.55
  1
22
1001
ACAD
1000
DSTYLE
1002
{
1070
    40
1040
1.3
1070
    45
1040
0.5
1070
   341
1005
0
1002
}
  0
LINE
  5
1B53F
  8
01
  6
BYBLOCK
 10
2655.527071366877
 20
-404.4951386254106
 30
0.0
 11
2652.927071366877
 21
-403.7984707314106
 31
0.0
  0
LINE
  5
1B540
  8
01
  6
BYBLOCK
 10
2652.927071366877
 20
-403.7984707314106
 30
0.0
 11
2655.527071366877
 21
-403.1018028374106
 31
0.0
  0
LINE
  5
1B541
  8
01
  6
BYBLOCK
 10
2652.927071366877
 20
-403.7984707314106
 30
0.0
 11
2655.527071366877
 21
-403.7984707314106
 31
0.0
  0
LINE
  5
1B542
  8
01
  6
BYBLOCK
 10
2658.495655055839
 20
-403.1018028374106
 30
0.0
 11
2661.095655055839
 21
-403.7984707314106
 31
0.0
  0
LINE
  5
1B543
  8
01
  6
BYBLOCK
 10
2661.095655055839
 20
-403.7984707314106
 30
0.0
 11
2658.495655055839
 21
-404.4951386254106
 31
0.0
  0
LINE
  5
1B544
  8
01
  6
BYBLOCK
 10
2661.095655055839
 20
-403.7984707314106
 30
0.0
 11
2658.495655055839
 21
-403.7984707314106
 31
0.0
  0
TEXT
  5
1B545
  8
01
  6
CONTINUOUS
 10
2655.494696544691
 20
-402.8884707314106
 30
0.0
 40
4.55
  1
8
1001
ACAD
1000
DSTYLE
1002
{
1070
    40
1040
1.3
1070
    45
1040
0.5
1070
   271
1070
     1
1070
   341
1005
0
1002
}
  0
LINE
  5
1B546
  8
01
  6
BYBLOCK
 10
2743.526955027132
 20
-381.0736465407228
 30
0.0000000001127424
 11
2740.926955027132
 21
-380.3769786467228
 31
0.0000000001127424
  0
LINE
  5
1B547
  8
01
  6
BYBLOCK
 10
2740.926955027132
 20
-380.3769786467228
 30
0.0000000001127424
 11
2743.526955027132
 21
-379.6803107527228
 31
0.0000000001127424
  0
LINE
  5
1B548
  8
01
  6
BYBLOCK
 10
2740.926955027132
 20
-380.3769786467228
 30
0.0000000001127424
 11
2743.526955027132
 21
-380.3769786467228
 31
0.0000000001127424
  0
LINE
  5
1B549
  8
01
  6
BYBLOCK
 10
2749.326955027132
 20
-379.6803107527228
 30
0.0000000001127424
 11
2751.926955027132
 21
-380.3769786467228
 31
0.0000000001127424
  0
LINE
  5
1B54A
  8
01
  6
BYBLOCK
 10
2751.926955027132
 20
-380.3769786467228
 30
0.0000000001127424
 11
2749.326955027132
 21
-381.0736465407228
 31
0.0000000001127424
  0
LINE
  5
1B54B
  8
01
  6
BYBLOCK
 10
2751.926955027132
 20
-380.3769786467228
 30
0.0000000001127424
 11
2749.326955027132
 21
-380.3769786467228
 31
0.0000000001127424
  0
TEXT
  5
1B54C
  8
01
  6
CONTINUOUS
 10
2744.151955027132
 20
-379.4669786467229
 30
0.0000000001127424
 40
4.55
  1
11
1001
ACAD
1000
DSTYLE
1002
{
1070
    40
1040
1.3
1070
    45
1040
0.5
1002
}
  0
LINE
  5
1B54D
  8
01
  6
BYBLOCK
 10
2847.230287133132
 20
-454.3984707314108
 30
0.0000000001127424
 11
2847.926955027132
 21
-451.7984707314108
 31
0.0000000001127424
  0
LINE
  5
1B54E
  8
01
  6
BYBLOCK
 10
2847.926955027132
 20
-451.7984707314108
 30
0.0000000001127424
 11
2848.623622921132
 21
-454.3984707314108
 31
0.0000000001127424
  0
LINE
  5
1B54F
  8
01
  6
BYBLOCK
 10
2847.926955027132
 20
-451.7984707314108
 30
0.0000000001127424
 11
2847.926955027132
 21
-454.3984707314108
 31
0.0000000001127424
  0
LINE
  5
1B550
  8
01
  6
BYBLOCK
 10
2848.623622921132
 20
-523.1984707314112
 30
0.0000000001127424
 11
2847.926955027132
 21
-525.7984707314113
 31
0.0000000001127424
  0
LINE
  5
1B551
  8
01
  6
BYBLOCK
 10
2847.926955027132
 20
-525.7984707314113
 30
0.0000000001127424
 11
2847.230287133132
 21
-523.1984707314112
 31
0.0000000001127424
  0
LINE
  5
1B552
  8
01
  6
BYBLOCK
 10
2847.926955027132
 20
-525.7984707314113
 30
0.0000000001127424
 11
2847.926955027132
 21
-523.1984707314112
 31
0.0000000001127424
  0
TEXT
  5
1B553
  8
01
  6
CONTINUOUS
 10
2847.016955027132
 20
-470.8271266453921
 30
0.0000000001127424
 40
4.55
  1
74
 50
90.0
1001
ACAD
1000
DSTYLE
1002
{
1070
    40
1040
1.3
1070
    45
1040
0.5
1002
}
  0
LINE
  5
1B554
  8
01
  6
BYBLOCK
 10
2818.326955027132
 20
-369.6004432846747
 30
0.0000000001127424
 11
2820.926955027132
 21
-370.2971111786746
 31
0.0000000001127424
  0
LINE
  5
1B555
  8
01
  6
BYBLOCK
 10
2820.926955027132
 20
-370.2971111786746
 30
0.0000000001127424
 11
2818.326955027132
 21
-370.9937790726746
 31
0.0000000001127424
  0
LINE
  5
1B556
  8
01
  6
BYBLOCK
 10
2820.926955027132
 20
-370.2971111786746
 30
0.0000000001127424
 11
2818.326955027132
 21
-370.2971111786746
 31
0.0000000001127424
  0
LINE
  5
1B557
  8
01
  6
BYBLOCK
 10
2754.526955027132
 20
-370.9937790726746
 30
0.0000000001127424
 11
2751.926955027132
 21
-370.2971111786746
 31
0.0000000001127424
  0
LINE
  5
1B558
  8
01
  6
BYBLOCK
 10
2751.926955027132
 20
-370.2971111786746
 30
0.0000000001127424
 11
2754.526955027132
 21
-369.6004432846747
 31
0.0000000001127424
  0
LINE
  5
1B559
  8
01
  6
BYBLOCK
 10
2751.926955027132
 20
-370.2971111786746
 30
0.0000000001127424
 11
2754.526955027132
 21
-370.2971111786746
 31
0.0000000001127424
  0
TEXT
  5
1B55A
  8
01
  6
CONTINUOUS
 10
2782.618436508613
 20
-369.3871111786747
 30
0.0000000001127424
 40
4.55
  1
69
1001
ACAD
1000
DSTYLE
1002
{
1070
    40
1040
1.3
1070
    45
1040
0.5
1002
}
  0
LINE
  5
1B55B
  8
01
  6
BYBLOCK
 10
2754.526955027132
 20
-381.0736465407228
 30
0.0000000001127424
 11
2751.926955027132
 21
-380.3769786467228
 31
0.0000000001127424
  0
LINE
  5
1B55C
  8
01
  6
BYBLOCK
 10
2751.926955027132
 20
-380.3769786467228
 30
0.0000000001127424
 11
2754.526955027132
 21
-379.6803107527228
 31
0.0000000001127424
  0
LINE
  5
1B55D
  8
01
  6
BYBLOCK
 10
2751.926955027132
 20
-380.3769786467228
 30
0.0000000001127424
 11
2754.526955027132
 21
-380.3769786467228
 31
0.0000000001127424
  0
LINE
  5
1B55E
  8
01
  6
BYBLOCK
 10
2800.326955027132
 20
-379.6803107527228
 30
0.0000000001127424
 11
2802.926955027132
 21
-380.3769786467228
 31
0.0000000001127424
  0
LINE
  5
1B55F
  8
01
  6
BYBLOCK
 10
2802.926955027132
 20
-380.3769786467228
 30
0.0000000001127424
 11
2800.326955027132
 21
-381.0736465407228
 31
0.0000000001127424
  0
LINE
  5
1B560
  8
01
  6
BYBLOCK
 10
2802.926955027132
 20
-380.3769786467228
 30
0.0000000001127424
 11
2800.326955027132
 21
-380.3769786467228
 31
0.0000000001127424
  0
TEXT
  5
1B561
  8
01
  6
CONTINUOUS
 10
2774.377823082687
 20
-379.4669786467229
 30
0.0000000001127424
 40
4.55
  1
51
1001
ACAD
1000
DSTYLE
1002
{
1070
    40
1040
1.3
1070
    45
1040
0.5
1002
}
  0
LINE
  5
1B562
  8
01
  6
BYBLOCK
 10
2623.027071366876
 20
-381.073646540723
 30
0.0000000001127424
 11
2620.427071366877
 21
-380.376978646723
 31
0.0000000001127424
  0
LINE
  5
1B563
  8
01
  6
BYBLOCK
 10
2620.427071366877
 20
-380.376978646723
 30
0.0000000001127424
 11
2623.027071366876
 21
-379.6803107527231
 31
0.0000000001127424
  0
LINE
  5
1B564
  8
01
  6
BYBLOCK
 10
2620.427071366877
 20
-380.376978646723
 30
0.0000000001127424
 11
2623.027071366876
 21
-380.376978646723
 31
0.0000000001127424
  0
LINE
  5
1B565
  8
01
  6
BYBLOCK
 10
2642.827071366877
 20
-379.6803107527231
 30
0.0000000001127424
 11
2645.427071366877
 21
-380.376978646723
 31
0.0000000001127424
  0
LINE
  5
1B566
  8
01
  6
BYBLOCK
 10
2645.427071366877
 20
-380.376978646723
 30
0.0000000001127424
 11
2642.827071366877
 21
-381.073646540723
 31
0.0000000001127424
  0
LINE
  5
1B567
  8
01
  6
BYBLOCK
 10
2645.427071366877
 20
-380.376978646723
 30
0.0000000001127424
 11
2642.827071366877
 21
-380.376978646723
 31
0.0000000001127424
  0
TEXT
  5
1B568
  8
01
  6
CONTINUOUS
 10
2629.13540470021
 20
-379.4669786467231
 30
0.0000000001127424
 40
4.55
  1
25
1001
ACAD
1000
DSTYLE
1002
{
1070
    40
1040
1.3
1070
    45
1040
0.5
1002
}
  0
LINE
  5
1B569
  8
01
  6
BYBLOCK
 10
2717.018474244321
 20
-434.3980255869951
 30
0.0000000001691137
 11
2717.715142138321
 21
-431.798025586995
 31
0.0000000001691137
  0
LINE
  5
1B56A
  8
01
  6
BYBLOCK
 10
2717.715142138321
 20
-431.798025586995
 30
0.0000000001691137
 11
2718.41181003232
 21
-434.3980255869951
 31
0.0000000001691137
  0
LINE
  5
1B56B
  8
01
  6
BYBLOCK
 10
2717.715142138321
 20
-431.798025586995
 30
0.0000000001691137
 11
2717.715142138321
 21
-434.3980255869951
 31
0.0000000001691137
  0
LINE
  5
1B56C
  8
01
  6
BYBLOCK
 10
2718.41181003232
 20
-543.198025586995
 30
0.0000000001691137
 11
2717.715142138321
 21
-545.798025586995
 31
0.0000000001691137
  0
LINE
  5
1B56D
  8
01
  6
BYBLOCK
 10
2717.715142138321
 20
-545.798025586995
 30
0.0000000001691137
 11
2717.018474244321
 21
-543.198025586995
 31
0.0000000001691137
  0
LINE
  5
1B56E
  8
01
  6
BYBLOCK
 10
2717.715142138321
 20
-545.798025586995
 30
0.0000000001691137
 11
2717.715142138321
 21
-543.198025586995
 31
0.0000000001691137
  0
TEXT
  5
1B56F
  8
01
  6
CONTINUOUS
 10
2716.805142138321
 20
-464.2150032390732
 30
0.0000000001691137
 40
4.55
  1
114
 50
90.0
1001
ACAD
1000
DSTYLE
1002
{
1070
    40
1040
1.3
1070
    45
1040
0.5
1002
}
  0
LINE
  5
1B570
  8
01
  6
BYBLOCK
 10
2726.382808410545
 20
-426.4984707314115
 30
0.0000000001691137
 11
2727.079476304545
 21
-423.8984707314115
 31
0.0000000001691137
  0
LINE
  5
1B571
  8
01
  6
BYBLOCK
 10
2727.079476304545
 20
-423.8984707314115
 30
0.0000000001691137
 11
2727.776144198545
 21
-426.4984707314115
 31
0.0000000001691137
  0
LINE
  5
1B572
  8
01
  6
BYBLOCK
 10
2727.079476304545
 20
-423.8984707314115
 30
0.0000000001691137
 11
2727.079476304545
 21
-426.4984707314115
 31
0.0000000001691137
  0
LINE
  5
1B573
  8
01
  6
BYBLOCK
 10
2727.776144198545
 20
-551.0980255869948
 30
0.0000000001691137
 11
2727.079476304545
 21
-553.6980255869948
 31
0.0000000001691137
  0
LINE
  5
1B574
  8
01
  6
BYBLOCK
 10
2727.079476304545
 20
-553.6980255869948
 30
0.0000000001691137
 11
2726.382808410545
 21
-551.0980255869948
 31
0.0000000001691137
  0
LINE
  5
1B575
  8
01
  6
BYBLOCK
 10
2727.079476304545
 20
-553.6980255869948
 30
0.0000000001691137
 11
2727.079476304545
 21
-551.0980255869948
 31
0.0000000001691137
  0
TEXT
  5
1B576
  8
01
  6
CONTINUOUS
 10
2726.169476304545
 20
-464.9995672418813
 30
0.0000000001691137
 40
4.55
  1
130
 50
90.0
1001
ACAD
1000
DSTYLE
1002
{
1070
    40
1040
1.3
1070
    45
1040
0.5
1002
}
  0
LINE
  5
1B577
  8
01
  6
BYBLOCK
 10
2767.230287133132
 20
-487.3971524183081
 30
0.0000000001127424
 11
2767.926955027132
 21
-484.7971524183081
 31
0.0000000001127424
  0
LINE
  5
1B578
  8
01
  6
BYBLOCK
 10
2767.926955027132
 20
-484.7971524183081
 30
0.0000000001127424
 11
2768.623622921132
 21
-487.3971524183081
 31
0.0000000001127424
  0
LINE
  5
1B579
  8
01
  6
BYBLOCK
 10
2767.926955027132
 20
-484.7971524183081
 30
0.0000000001127424
 11
2767.926955027132
 21
-487.3971524183081
 31
0.0000000001127424
  0
LINE
  5
1B57A
  8
01
  6
BYBLOCK
 10
2768.623622921132
 20
-532.1971524183072
 30
0.0000000001127424
 11
2767.926955027132
 21
-534.7971524183072
 31
0.0000000001127424
  0
LINE
  5
1B57B
  8
01
  6
BYBLOCK
 10
2767.926955027132
 20
-534.7971524183072
 30
0.0000000001127424
 11
2767.230287133132
 21
-532.1971524183072
 31
0.0000000001127424
  0
LINE
  5
1B57C
  8
01
  6
BYBLOCK
 10
2767.926955027132
 20
-534.7971524183072
 30
0.0000000001127424
 11
2767.926955027132
 21
-532.1971524183072
 31
0.0000000001127424
  0
TEXT
  5
1B57D
  8
01
  6
CONTINUOUS
 10
2767.016955027132
 20
-517.9966553249069
 30
0.0000000001127424
 40
4.55
  1
φ50
 50
90.0
1001
ACAD
1000
DSTYLE
1002
{
1070
     3
1000
φ<>
1070
    40
1040
1.3
1070
    45
1040
0.5
1002
}
  0
LINE
  5
1B57E
  8
1DIM
 10
2432.927075366876
 20
-509.7984707314106
 30
0.0000000001127424
 11
2417.933222964588
 21
-509.7984707314105
 31
0.0000000001127424
1001
ACAD
1000
DSTYLE
1002
{
1070
    40
1040
1.3
1070
    45
1040
0.5
1070
   341
1005
0
1002
}
  0
LINE
  5
1B57F
  8
1DIM
 10
2440.427067366877
 20
-454.2984707314106
 30
0.0000000001127424
 11
2417.933222964588
 21
-454.2984707314105
 31
0.0000000001127424
1001
ACAD
1000
DSTYLE
1002
{
1070
    40
1040
1.3
1070
    45
1040
0.5
1070
   341
1005
0
1002
}
  0
LINE
  5
1B580
  8
1DIM
 10
2419.233222964588
 20
-507.1984707314105
 30
0.0000000001127424
 11
2419.233222964588
 21
-456.8984707314106
 31
0.0000000001127424
1001
ACAD
1000
DSTYLE
1002
{
1070
    40
1040
1.3
1070
    45
1040
0.5
1070
   341
1005
0
1002
}
  0
LINE
  5
1B584
  8
1DIM
 10
2432.927075366876
 20
-509.7984707314106
 30
0.0000000001127424
 11
2417.933222964588
 21
-509.7984707314105
 31
0.0000000001127424
1001
ACAD
1000
DSTYLE
1002
{
1070
    40
1040
1.3
1070
    45
1040
0.5
1070
   341
1005
0
1002
}
  0
LINE
  5
1B585
  8
1DIM
 10
2440.427067366877
 20
-454.2984707314106
 30
0.0000000001127424
 11
2417.933222964588
 21
-454.2984707314105
 31
0.0000000001127424
1001
ACAD
1000
DSTYLE
1002
{
1070
    40
1040
1.3
1070
    45
1040
0.5
1070
   341
1005
0
1002
}
  0
LINE
  5
1B586
  8
1DIM
 10
2419.233222964588
 20
-507.1984707314105
 30
0.0000000001127424
 11
2419.233222964588
 21
-456.8984707314106
 31
0.0000000001127424
1001
ACAD
1000
DSTYLE
1002
{
1070
    40
1040
1.3
1070
    45
1040
0.5
1070
   341
1005
0
1002
}
  0
LINE
  5
1B58B
  8
1DIM
 10
2800.547704296839
 20
-286.2025364480803
 30
0.0000000001127424
 11
2773.08011612015
 21
-305.7084707324395
 31
0.0000000001127424
1001
ACAD
1000
DSTYLE
1002
{
1070
    40
1040
1.3
1070
    45
1040
0.5
1002
}
  0
LINE
  5
1B58C
  8
1DIM
 10
2819.327839209192
 20
-230.2984707324395
 30
0.0000000001127424
 11
2839.888229968905
 21
-230.2984707324395
 31
0.0000000001127424
1001
ACAD
1000
DSTYLE
1002
{
1070
    45
1040
0.5
1070
    40
1040
1.3
1002
}
  0
LINE
  5
1B58D
  8
1DIM
 10
2820.927839209192
 20
-249.0984707324394
 30
0.0000000001127424
 11
2839.888229968905
 21
-249.0984707324394
 31
0.0000000001127424
1001
ACAD
1000
DSTYLE
1002
{
1070
    45
1040
0.5
1070
    40
1040
1.3
1002
}
  0
LINE
  5
1B58E
  8
1DIM
 10
2838.588229968905
 20
-232.8984707324394
 30
0.0000000001127424
 11
2838.588229968905
 21
-246.4984707324394
 31
0.0000000001127424
1001
ACAD
1000
DSTYLE
1002
{
1070
    45
1040
0.5
1070
    40
1040
1.3
1002
}
  0
LINE
  5
1B592
  8
1DIM
 10
2802.927071366875
 20
-281.2984707324395
 30
0.0000000001127424
 11
2802.927071366875
 21
-344.4828937293194
 31
0.0000000001127424
1001
ACAD
1000
DSTYLE
1002
{
1070
    40
1040
1.3
1070
    45
1040
0.5
1002
}
  0
LINE
  5
1B593
  8
1DIM
 10
2927.925871699083
 20
-302.5497758990759
 30
0.0000000001127424
 11
2927.925871699083
 21
-344.4828937293194
 31
0.0000000001127424
1001
ACAD
1000
DSTYLE
1002
{
1070
    40
1040
1.3
1070
    45
1040
0.5
1002
}
  0
LINE
  5
1B594
  8
1DIM
 10
2805.527071366875
 20
-343.1828937293194
 30
0.0000000001127424
 11
2925.325871699084
 21
-343.1828937293194
 31
0.0000000001127424
1001
ACAD
1000
DSTYLE
1002
{
1070
    40
1040
1.3
1070
    45
1040
0.5
1002
}
  0
LINE
  5
1B598
  8
1DIM
 10
2777.928718505974
 20
-265.5017647444101
 30
0.0000000001127424
 11
2777.928718505974
 21
-354.4828937293194
 31
0.0000000001127424
1001
ACAD
1000
DSTYLE
1002
{
1070
    40
1040
1.3
1070
    45
1040
0.5
1002
}
  0
LINE
  5
1B599
  8
1DIM
 10
2927.925871699083
 20
-302.5497758990759
 30
0.0000000001127424
 11
2927.925871699083
 21
-354.4828937293194
 31
0.0000000001127424
1001
ACAD
1000
DSTYLE
1002
{
1070
    40
1040
1.3
1070
    45
1040
0.5
1002
}
  0
LINE
  5
1B59A
  8
1DIM
 10
2780.528718505974
 20
-353.1828937293194
 30
0.0000000001127424
 11
2925.325871699084
 21
-353.1828937293194
 31
0.0000000001127424
1001
ACAD
1000
DSTYLE
1002
{
1070
    40
1040
1.3
1070
    45
1040
0.5
1002
}
  0
LINE
  5
1B59E
  8
1DIM
 10
2901.353043250417
 20
-288.6153681154638
 30
0.0000000001127424
 11
2949.225871699084
 21
-288.6153681154638
 31
0.0000000001127424
1001
ACAD
1000
DSTYLE
1002
{
1070
    40
1040
1.3
1070
    45
1040
0.5
1002
}
  0
LINE
  5
1B59F
  8
1DIM
 10
2905.682219364223
 20
-259.7984707324395
 30
0.0000000001127424
 11
2949.225871699084
 21
-259.7984707324395
 31
0.0000000001127424
1001
ACAD
1000
DSTYLE
1002
{
1070
    40
1040
1.3
1070
    45
1040
0.5
1002
}
  0
LINE
  5
1B5A0
  8
1DIM
 10
2947.925871699083
 20
-286.0153681154638
 30
0.0000000001127424
 11
2947.925871699083
 21
-262.3984707324395
 31
0.0000000001127424
1001
ACAD
1000
DSTYLE
1002
{
1070
    40
1040
1.3
1070
    45
1040
0.5
1002
}
  0
LINE
  5
1B5A4
  8
1DIM
 10
2898.92029143984
 20
-318.1828937293194
 30
0.0000000001127424
 11
2959.225871699084
 21
-318.1828937293195
 31
0.0000000001127424
1001
ACAD
1000
DSTYLE
1002
{
1070
    40
1040
1.3
1070
    45
1040
0.5
1002
}
  0
LINE
  5
1B5A5
  8
1DIM
 10
2905.682219364223
 20
-259.7984707324395
 30
0.0000000001127424
 11
2959.225871699084
 21
-259.7984707324395
 31
0.0000000001127424
1001
ACAD
1000
DSTYLE
1002
{
1070
    40
1040
1.3
1070
    45
1040
0.5
1002
}
  0
LINE
  5
1B5A6
  8
1DIM
 10
2957.925871699083
 20
-315.5828937293194
 30
0.0000000001127424
 11
2957.925871699083
 21
-262.3984707324395
 31
0.0000000001127424
1001
ACAD
1000
DSTYLE
1002
{
1070
    40
1040
1.3
1070
    45
1040
0.5
1002
}
  0
LINE
  5
1B5AA
  8
1DIM
 10
2903.554947555272
 20
-494.9630573714126
 30
0.0000000001127424
 11
2959.226955027132
 21
-494.9630573714126
 31
0.0000000001127424
1001
ACAD
1000
DSTYLE
1002
{
1070
    40
1040
1.3
1070
   271
1070
     0
1002
}
  0
LINE
  5
1B5AB
  8
1DIM
 10
2898.863333558023
 20
-510.6882207359663
 30
0.0000000001127424
 11
2959.226955027132
 21
-510.6882207359664
 31
0.0000000001127424
1001
ACAD
1000
DSTYLE
1002
{
1070
    40
1040
1.3
1070
   271
1070
     0
1002
}
  0
LINE
  5
1B5AC
  8
1DIM
 10
2957.926955027132
 20
-497.5630573714126
 30
0.0000000001127424
 11
2957.926955027132
 21
-508.0882207359663
 31
0.0000000001127424
1001
ACAD
1000
DSTYLE
1002
{
1070
    40
1040
1.3
1070
   271
1070
     0
1002
}
  0
TEXT
  5
1B5B0
  8
1DIM
  6
CONTINUOUS
 10
2445.219702244785
 20
-246.8776849391168
 30
0.0000000001127424
 40
10.0
  1
※には色品番が入ります。
  0
LINE
  5
1B5B1
  8
0
  6
BYBLOCK
 10
2419.929890858588
 20
-507.1984707314105
 30
0.0000000001127424
 11
2419.233222964588
 21
-509.7984707314105
 31
0.0000000001127424
  0
LINE
  5
1B5B2
  8
0
  6
BYBLOCK
 10
2419.233222964588
 20
-509.7984707314105
 30
0.0000000001127424
 11
2418.536555070588
 21
-507.1984707314105
 31
0.0000000001127424
  0
LINE
  5
1B5B3
  8
0
  6
BYBLOCK
 10
2419.233222964588
 20
-509.7984707314105
 30
0.0000000001127424
 11
2419.233222964588
 21
-507.1984707314105
 31
0.0000000001127424
  0
LINE
  5
1B5B4
  8
0
  6
BYBLOCK
 10
2418.536555070588
 20
-456.8984707314106
 30
0.0000000001127424
 11
2419.233222964588
 21
-454.2984707314105
 31
0.0000000001127424
  0
LINE
  5
1B5B5
  8
0
  6
BYBLOCK
 10
2419.233222964588
 20
-454.2984707314105
 30
0.0000000001127424
 11
2419.929890858588
 21
-456.8984707314106
 31
0.0000000001127424
  0
LINE
  5
1B5B6
  8
0
  6
BYBLOCK
 10
2419.233222964588
 20
-454.2984707314105
 30
0.0000000001127424
 11
2419.233222964588
 21
-456.8984707314106
 31
0.0000000001127424
  0
TEXT
  5
1B5B7
  8
1DIM
  6
CONTINUOUS
 10
2418.323222964588
 20
-488.9050679536326
 30
0.0000000001127424
 40
4.55
  1
55.5
 50
90.0
1001
ACAD
1000
DSTYLE
1002
{
1070
    40
1040
1.3
1070
    45
1040
0.5
1070
   341
1005
0
1002
}
  0
LINE
  5
1B5B8
  8
0
  6
BYBLOCK
 10
2419.929890858588
 20
-507.1984707314105
 30
0.0000000001127424
 11
2419.233222964588
 21
-509.7984707314105
 31
0.0000000001127424
  0
LINE
  5
1B5B9
  8
0
  6
BYBLOCK
 10
2419.233222964588
 20
-509.7984707314105
 30
0.0000000001127424
 11
2418.536555070588
 21
-507.1984707314105
 31
0.0000000001127424
  0
LINE
  5
1B5BA
  8
0
  6
BYBLOCK
 10
2419.233222964588
 20
-509.7984707314105
 30
0.0000000001127424
 11
2419.233222964588
 21
-507.1984707314105
 31
0.0000000001127424
  0
LINE
  5
1B5BB
  8
0
  6
BYBLOCK
 10
2418.536555070588
 20
-456.8984707314106
 30
0.0000000001127424
 11
2419.233222964588
 21
-454.2984707314105
 31
0.0000000001127424
  0
LINE
  5
1B5BC
  8
0
  6
BYBLOCK
 10
2419.233222964588
 20
-454.2984707314105
 30
0.0000000001127424
 11
2419.929890858588
 21
-456.8984707314106
 31
0.0000000001127424
  0
LINE
  5
1B5BD
  8
0
  6
BYBLOCK
 10
2419.233222964588
 20
-454.2984707314105
 30
0.0000000001127424
 11
2419.233222964588
 21
-456.8984707314106
 31
0.0000000001127424
  0
TEXT
  5
1B5BE
  8
1DIM
  6
CONTINUOUS
 10
2418.323222964588
 20
-488.9050679536326
 30
0.0000000001127424
 40
4.55
  1
55.5
 50
90.0
1001
ACAD
1000
DSTYLE
1002
{
1070
    40
1040
1.3
1070
    45
1040
0.5
1070
   341
1005
0
1002
}
  0
LINE
  5
1B5BF
  8
0
  6
BYBLOCK
 10
2800.14433372293
 20
-285.6345238297041
 30
0.0000000001127424
 11
2802.667556267193
 21
-284.6971369583143
 31
0.0000000001127424
  0
LINE
  5
1B5C0
  8
0
  6
BYBLOCK
 10
2802.667556267193
 20
-284.6971369583143
 30
0.0000000001127424
 11
2800.951074870748
 21
-286.7705490664565
 31
0.0000000001127424
  0
LINE
  5
1B5C1
  8
0
  6
BYBLOCK
 10
2802.667556267193
 20
-284.6971369583143
 30
0.0000000001127424
 11
2800.547704296839
 21
-286.2025364480803
 31
0.0000000001127424
  0
LINE
  5
1B5C2
  8
0
  6
BYBLOCK
 10
2837.891562074905
 20
-232.8984707324394
 30
0.0000000001127424
 11
2838.588229968905
 21
-230.2984707324395
 31
0.0000000001127424
  0
LINE
  5
1B5C3
  8
0
  6
BYBLOCK
 10
2838.588229968905
 20
-230.2984707324395
 30
0.0000000001127424
 11
2839.284897862904
 21
-232.8984707324394
 31
0.0000000001127424
  0
LINE
  5
1B5C4
  8
0
  6
BYBLOCK
 10
2838.588229968905
 20
-230.2984707324395
 30
0.0000000001127424
 11
2838.588229968905
 21
-232.8984707324394
 31
0.0000000001127424
  0
LINE
  5
1B5C5
  8
0
  6
BYBLOCK
 10
2839.284897862904
 20
-246.4984707324394
 30
0.0000000001127424
 11
2838.588229968905
 21
-249.0984707324394
 31
0.0000000001127424
  0
LINE
  5
1B5C6
  8
0
  6
BYBLOCK
 10
2838.588229968905
 20
-249.0984707324394
 30
0.0000000001127424
 11
2837.891562074905
 21
-246.4984707324394
 31
0.0000000001127424
  0
LINE
  5
1B5C7
  8
0
  6
BYBLOCK
 10
2838.588229968905
 20
-249.0984707324394
 30
0.0000000001127424
 11
2838.588229968905
 21
-246.4984707324394
 31
0.0000000001127424
  0
TEXT
  5
1B5C8
  8
1DIM
  6
CONTINUOUS
 10
2837.678229968905
 20
-242.7328573065138
 30
0.0000000001127424
 40
4.55
  1
19
 50
90.0
1001
ACAD
1000
DSTYLE
1002
{
1070
    45
1040
0.5
1070
    40
1040
1.3
1002
}
  0
LINE
  5
1B5C9
  8
0
  6
BYBLOCK
 10
2805.527071366875
 20
-343.8795616233194
 30
0.0000000001127424
 11
2802.927071366875
 21
-343.1828937293194
 31
0.0000000001127424
  0
LINE
  5
1B5CA
  8
0
  6
BYBLOCK
 10
2802.927071366875
 20
-343.1828937293194
 30
0.0000000001127424
 11
2805.527071366875
 21
-342.4862258353194
 31
0.0000000001127424
  0
LINE
  5
1B5CB
  8
0
  6
BYBLOCK
 10
2802.927071366875
 20
-343.1828937293194
 30
0.0000000001127424
 11
2805.527071366875
 21
-343.1828937293194
 31
0.0000000001127424
  0
LINE
  5
1B5CC
  8
0
  6
BYBLOCK
 10
2925.325871699084
 20
-342.4862258353194
 30
0.0000000001127424
 11
2927.925871699083
 21
-343.1828937293194
 31
0.0000000001127424
  0
LINE
  5
1B5CD
  8
0
  6
BYBLOCK
 10
2927.925871699083
 20
-343.1828937293194
 30
0.0000000001127424
 11
2925.325871699084
 21
-343.8795616233194
 31
0.0000000001127424
  0
LINE
  5
1B5CE
  8
0
  6
BYBLOCK
 10
2927.925871699083
 20
-343.1828937293194
 30
0.0000000001127424
 11
2925.325871699084
 21
-343.1828937293194
 31
0.0000000001127424
  0
TEXT
  5
1B5CF
  8
1DIM
  6
CONTINUOUS
 10
2860.118138199646
 20
-342.2728937293194
 30
0.0000000001127424
 40
4.55
  1
125
1001
ACAD
1000
DSTYLE
1002
{
1070
    40
1040
1.3
1070
    45
1040
0.5
1002
}
  0
LINE
  5
1B5D0
  8
0
  6
BYBLOCK
 10
2780.528718505974
 20
-353.8795616233194
 30
0.0000000001127424
 11
2777.928718505974
 21
-353.1828937293194
 31
0.0000000001127424
  0
LINE
  5
1B5D1
  8
0
  6
BYBLOCK
 10
2777.928718505974
 20
-353.1828937293194
 30
0.0000000001127424
 11
2780.528718505974
 21
-352.4862258353194
 31
0.0000000001127424
  0
LINE
  5
1B5D2
  8
0
  6
BYBLOCK
 10
2777.928718505974
 20
-353.1828937293194
 30
0.0000000001127424
 11
2780.528718505974
 21
-353.1828937293194
 31
0.0000000001127424
  0
LINE
  5
1B5D3
  8
0
  6
BYBLOCK
 10
2925.325871699084
 20
-352.4862258353194
 30
0.0000000001127424
 11
2927.925871699083
 21
-353.1828937293194
 31
0.0000000001127424
  0
LINE
  5
1B5D4
  8
0
  6
BYBLOCK
 10
2927.925871699083
 20
-353.1828937293194
 30
0.0000000001127424
 11
2925.325871699084
 21
-353.8795616233194
 31
0.0000000001127424
  0
LINE
  5
1B5D5
  8
0
  6
BYBLOCK
 10
2927.925871699083
 20
-353.1828937293194
 30
0.0000000001127424
 11
2925.325871699084
 21
-353.1828937293194
 31
0.0000000001127424
  0
TEXT
  5
1B5D6
  8
1DIM
  6
CONTINUOUS
 10
2847.887538158084
 20
-352.2728937293194
 30
0.0000000001127424
 40
4.55
  1
150
1001
ACAD
1000
DSTYLE
1002
{
1070
    40
1040
1.3
1070
    45
1040
0.5
1002
}
  0
LINE
  5
1B5D7
  8
0
  6
BYBLOCK
 10
2948.622539593083
 20
-286.0153681154638
 30
0.0000000001127424
 11
2947.925871699083
 21
-288.6153681154638
 31
0.0000000001127424
  0
LINE
  5
1B5D8
  8
0
  6
BYBLOCK
 10
2947.925871699083
 20
-288.6153681154638
 30
0.0000000001127424
 11
2947.229203805084
 21
-286.0153681154638
 31
0.0000000001127424
  0
LINE
  5
1B5D9
  8
0
  6
BYBLOCK
 10
2947.925871699083
 20
-288.6153681154638
 30
0.0000000001127424
 11
2947.925871699083
 21
-286.0153681154638
 31
0.0000000001127424
  0
LINE
  5
1B5DA
  8
0
  6
BYBLOCK
 10
2947.229203805084
 20
-262.3984707324395
 30
0.0000000001127424
 11
2947.925871699083
 21
-259.7984707324395
 31
0.0000000001127424
  0
LINE
  5
1B5DB
  8
0
  6
BYBLOCK
 10
2947.925871699083
 20
-259.7984707324395
 30
0.0000000001127424
 11
2948.622539593083
 21
-262.3984707324395
 31
0.0000000001127424
  0
LINE
  5
1B5DC
  8
0
  6
BYBLOCK
 10
2947.925871699083
 20
-259.7984707324395
 30
0.0000000001127424
 11
2947.925871699083
 21
-262.3984707324395
 31
0.0000000001127424
  0
TEXT
  5
1B5DD
  8
1DIM
  6
CONTINUOUS
 10
2947.015871699084
 20
-277.9996393313586
 30
0.0000000001127424
 40
4.55
  1
29
 50
90.0
1001
ACAD
1000
DSTYLE
1002
{
1070
    40
1040
1.3
1070
    45
1040
0.5
1002
}
  0
LINE
  5
1B5DE
  8
0
  6
BYBLOCK
 10
2958.622539593083
 20
-315.5828937293194
 30
0.0000000001127424
 11
2957.925871699083
 21
-318.1828937293195
 31
0.0000000001127424
  0
LINE
  5
1B5DF
  8
0
  6
BYBLOCK
 10
2957.925871699083
 20
-318.1828937293195
 30
0.0000000001127424
 11
2957.229203805084
 21
-315.5828937293194
 31
0.0000000001127424
  0
LINE
  5
1B5E0
  8
0
  6
BYBLOCK
 10
2957.925871699083
 20
-318.1828937293195
 30
0.0000000001127424
 11
2957.925871699083
 21
-315.5828937293194
 31
0.0000000001127424
  0
LINE
  5
1B5E1
  8
0
  6
BYBLOCK
 10
2957.229203805084
 20
-262.3984707324395
 30
0.0000000001127424
 11
2957.925871699083
 21
-259.7984707324395
 31
0.0000000001127424
  0
LINE
  5
1B5E2
  8
0
  6
BYBLOCK
 10
2957.925871699083
 20
-259.7984707324395
 30
0.0000000001127424
 11
2958.622539593083
 21
-262.3984707324395
 31
0.0000000001127424
  0
LINE
  5
1B5E3
  8
0
  6
BYBLOCK
 10
2957.925871699083
 20
-259.7984707324395
 30
0.0000000001127424
 11
2957.925871699083
 21
-262.3984707324395
 31
0.0000000001127424
  0
TEXT
  5
1B5E4
  8
1DIM
  6
CONTINUOUS
 10
2957.015871699084
 20
-292.7981475086567
 30
0.0000000001127424
 40
4.55
  1
58
 50
90.0
1001
ACAD
1000
DSTYLE
1002
{
1070
    40
1040
1.3
1070
    45
1040
0.5
1002
}
  0
LINE
  5
1B5E5
  8
0
  6
BYBLOCK
 10
2957.230287133132
 20
-497.5630573714126
 30
0.0000000001127424
 11
2957.926955027132
 21
-494.9630573714126
 31
0.0000000001127424
  0
LINE
  5
1B5E6
  8
0
  6
BYBLOCK
 10
2957.926955027132
 20
-494.9630573714126
 30
0.0000000001127424
 11
2958.623622921132
 21
-497.5630573714126
 31
0.0000000001127424
  0
LINE
  5
1B5E7
  8
0
  6
BYBLOCK
 10
2957.926955027132
 20
-494.9630573714126
 30
0.0000000001127424
 11
2957.926955027132
 21
-497.5630573714126
 31
0.0000000001127424
  0
LINE
  5
1B5E8
  8
0
  6
BYBLOCK
 10
2958.623622921132
 20
-508.0882207359663
 30
0.0000000001127424
 11
2957.926955027132
 21
-510.6882207359664
 31
0.0000000001127424
  0
LINE
  5
1B5E9
  8
0
  6
BYBLOCK
 10
2957.926955027132
 20
-510.6882207359664
 30
0.0000000001127424
 11
2957.230287133132
 21
-508.0882207359663
 31
0.0000000001127424
  0
LINE
  5
1B5EA
  8
0
  6
BYBLOCK
 10
2957.926955027132
 20
-510.6882207359664
 30
0.0000000001127424
 11
2957.926955027132
 21
-508.0882207359663
 31
0.0000000001127424
  0
TEXT
  5
1B5EB
  8
1DIM
  6
CONTINUOUS
 10
2957.016955027132
 20
-505.8589723870223
 30
0.0000000001127424
 40
4.55
  1
16
 50
90.0
1001
ACAD
1000
DSTYLE
1002
{
1070
    40
1040
1.3
1070
   271
1070
     0
1002
}
  0
VIEWPORT
  5
57
 67
     1
  8
0
 10
0.0
 20
0.0
 30
0.0
 40
544.3287197231833
 41
297.0
 68
     1
 69
     1
1001
ACAD
1000
MVIEW
1002
{
1070
    16
1010
0.0
1020
0.0
1030
0.0
1010
0.0
1020
0.0
1030
1.0
1040
0.0
1040
297.0
1040
5.728000000000009
1040
25.33899999999998
1040
50.0
1040
0.0
1040
0.0
1070
    16
1070
   100
1070
     0
1070
     1
1070
     0
1070
     0
1070
     0
1070
     0
1040
0.0
1040
0.0
1040
0.0
1040
10.0
1040
10.0
1040
10.0
1040
10.0
1070
     0
1002
{
1002
}
1002
}
  0
ENDSEC
  0
EOF
