  0
SECTION
  2
HEADER
  9
$ACADVER
  1
AC1012
  9
$DWGCODEPAGE
  3
ansi_932
  9
$INSBASE
 10
0.0
 20
0.0
 30
0.0
  9
$EXTMIN
 10
6462.426874181949
 20
346.7131412605986
 30
0.0
  9
$EXTMAX
 10
7074.726641502461
 20
763.2131412585413
 30
0.0000000001127424
  9
$LIMMIN
 10
0.0
 20
0.0
  9
$LIMMAX
 10
420.0
 20
297.0
  9
$ORTHOMODE
 70
     0
  9
$REGENMODE
 70
     1
  9
$FILLMODE
 70
     1
  9
$QTEXTMODE
 70
     0
  9
$MIRRTEXT
 70
     0
  9
$DRAGMODE
 70
     2
  9
$LTSCALE
 40
0.5
  9
$OSMODE
 70
 16383
  9
$ATTMODE
 70
     1
  9
$TEXTSIZE
 40
4.0
  9
$TRACEWID
 40
1.0
  9
$TEXTSTYLE
  7
STANDARD
  9
$CLAYER
  8
1TEXT
  9
$CELTYPE
  6
BYLAYER
  9
$CECOLOR
 62
   256
  9
$CELTSCALE
 40
1.0
  9
$DELOBJ
 70
     1
  9
$DISPSILH
 70
     0
  9
$DIMSCALE
 40
1.0
  9
$DIMASZ
 40
2.0
  9
$DIMEXO
 40
0.0
  9
$DIMDLI
 40
7.0
  9
$DIMRND
 40
0.0
  9
$DIMDLE
 40
0.0
  9
$DIMEXE
 40
1.0
  9
$DIMTP
 40
0.0
  9
$DIMTM
 40
0.0
  9
$DIMTXT
 40
3.5
  9
$DIMCEN
 40
0.0
  9
$DIMTSZ
 40
0.0
  9
$DIMTOL
 70
     0
  9
$DIMLIM
 70
     0
  9
$DIMTIH
 70
     0
  9
$DIMTOH
 70
     0
  9
$DIMSE1
 70
     0
  9
$DIMSE2
 70
     0
  9
$DIMTAD
 70
     1
  9
$DIMZIN
 70
     8
  9
$DIMBLK
  1

  9
$DIMASO
 70
     1
  9
$DIMSHO
 70
     1
  9
$DIMPOST
  1
 
  9
$DIMAPOST
  1

  9
$DIMALT
 70
     0
  9
$DIMALTD
 70
     2
  9
$DIMALTF
 40
25.4
  9
$DIMLFAC
 40
1.0
  9
$DIMTOFL
 70
     1
  9
$DIMTVP
 40
0.0
  9
$DIMTIX
 70
     0
  9
$DIMSOXD
 70
     0
  9
$DIMSAH
 70
     1
  9
$DIMBLK1
  1
OPEN30
  9
$DIMBLK2
  1
OPEN30
  9
$DIMSTYLE
  2
NEWX10
  9
$DIMCLRD
 70
   256
  9
$DIMCLRE
 70
   256
  9
$DIMCLRT
 70
   201
  9
$DIMTFAC
 40
0.7
  9
$DIMGAP
 40
0.7
  9
$DIMJUST
 70
     0
  9
$DIMSD1
 70
     0
  9
$DIMSD2
 70
     0
  9
$DIMTOLJ
 70
     1
  9
$DIMTZIN
 70
     8
  9
$DIMALTZ
 70
     0
  9
$DIMALTTZ
 70
     0
  9
$DIMFIT
 70
     2
  9
$DIMUPT
 70
     0
  9
$DIMUNIT
 70
     2
  9
$DIMDEC
 70
     2
  9
$DIMTDEC
 70
     4
  9
$DIMALTU
 70
     2
  9
$DIMALTTD
 70
     2
  9
$DIMTXSTY
  7
STANDARD
  9
$DIMAUNIT
 70
     0
  9
$LUNITS
 70
     2
  9
$LUPREC
 70
     4
  9
$SKETCHINC
 40
1.0
  9
$FILLETRAD
 40
0.0
  9
$AUNITS
 70
     0
  9
$AUPREC
 70
     2
  9
$MENU
  1
acad
  9
$ELEVATION
 40
0.0
  9
$PELEVATION
 40
0.0
  9
$THICKNESS
 40
0.0
  9
$LIMCHECK
 70
     0
  9
$CHAMFERA
 40
10.0
  9
$CHAMFERB
 40
10.0
  9
$CHAMFERC
 40
20.0
  9
$CHAMFERD
 40
0.0
  9
$SKPOLY
 70
     0
  9
$TDCREATE
 40
2451318.621352917
  9
$TDUPDATE
 40
2458967.579720984
  9
$TDINDWG
 40
1.4829655324
  9
$TDUSRTIMER
 40
1.4829655324
  9
$USRTIMER
 70
     1
  9
$ANGBASE
 50
0.0
  9
$ANGDIR
 70
     0
  9
$PDMODE
 70
     0
  9
$PDSIZE
 40
0.0
  9
$PLINEWID
 40
0.0
  9
$COORDS
 70
     2
  9
$SPLFRAME
 70
     0
  9
$SPLINETYPE
 70
     6
  9
$SPLINESEGS
 70
     8
  9
$ATTDIA
 70
     0
  9
$ATTREQ
 70
     1
  9
$HANDLING
 70
     1
  9
$HANDSEED
  5
E5A9
  9
$SURFTAB1
 70
     6
  9
$SURFTAB2
 70
     6
  9
$SURFTYPE
 70
     6
  9
$SURFU
 70
     6
  9
$SURFV
 70
     6
  9
$UCSNAME
  2

  9
$UCSORG
 10
0.0
 20
0.0
 30
0.0
  9
$UCSXDIR
 10
1.0
 20
0.0
 30
0.0
  9
$UCSYDIR
 10
0.0
 20
1.0
 30
0.0
  9
$PUCSNAME
  2

  9
$PUCSORG
 10
0.0
 20
0.0
 30
0.0
  9
$PUCSXDIR
 10
1.0
 20
0.0
 30
0.0
  9
$PUCSYDIR
 10
0.0
 20
1.0
 30
0.0
  9
$USERI1
 70
     0
  9
$USERI2
 70
     0
  9
$USERI3
 70
     0
  9
$USERI4
 70
     0
  9
$USERI5
 70
     0
  9
$USERR1
 40
0.0
  9
$USERR2
 40
0.0
  9
$USERR3
 40
0.0
  9
$USERR4
 40
0.0
  9
$USERR5
 40
0.0
  9
$WORLDVIEW
 70
     1
  9
$SHADEDGE
 70
     3
  9
$SHADEDIF
 70
    70
  9
$TILEMODE
 70
     1
  9
$MAXACTVP
 70
    48
  9
$PINSBASE
 10
0.0
 20
0.0
 30
0.0
  9
$PLIMCHECK
 70
     0
  9
$PEXTMIN
 10
1.000000000000000E+20
 20
1.000000000000000E+20
 30
1.000000000000000E+20
  9
$PEXTMAX
 10
-1.000000000000000E+20
 20
-1.000000000000000E+20
 30
-1.000000000000000E+20
  9
$PLIMMIN
 10
0.0
 20
0.0
  9
$PLIMMAX
 10
420.0
 20
297.0
  9
$UNITMODE
 70
     0
  9
$VISRETAIN
 70
     1
  9
$PLINEGEN
 70
     0
  9
$PSLTSCALE
 70
     1
  9
$TREEDEPTH
 70
  3020
  9
$PICKSTYLE
 70
     0
  9
$CMLSTYLE
  2
STANDARD
  9
$CMLJUST
 70
     0
  9
$CMLSCALE
 40
20.0
  9
$SAVEIMAGES
 70
     1
  0
ENDSEC
  0
SECTION
  2
CLASSES
  0
CLASS
  1
DICTIONARYVAR
  2
AcDbDictionaryVar
  3
ObjectDBX Classes
 90
        0
280
     0
281
     0
  0
CLASS
  1
IDBUFFER
  2
AcDbIdBuffer
  3
ObjectDBX Classes
 90
    32768
280
     0
281
     0
  0
CLASS
  1
LWPOLYLINE
  2
AcDbPolyline
  3
ObjectDBX Classes
 90
    32768
280
     0
281
     1
  0
CLASS
  1
ACDBDICTIONARYWDFLT
  2
AcDbDictionaryWithDefault
  3
ObjectDBX Classes
 90
    32768
280
     0
281
     0
  0
CLASS
  1
ACDBPLACEHOLDER
  2
AcDbPlaceHolder
  3
ObjectDBX Classes
 90
        0
280
     0
281
     0
  0
CLASS
  1
LAYOUT
  2
AcDbLayout
  3
ObjectDBX Classes
 90
        0
280
     0
281
     0
  0
CLASS
  1
TABLESTYLE
  2
AcDbTableStyle
  3
ObjectDBX Classes
 90
     4095
280
     0
281
     0
  0
CLASS
  1
SORTENTSTABLE
  2
AcDbSortentsTable
  3
ObjectDBX Classes
 90
    32768
280
     0
281
     0
  0
CLASS
  1
MATERIAL
  2
AcDbMaterial
  3
ObjectDBX Classes
 90
     1153
280
     0
281
     0
  0
CLASS
  1
VISUALSTYLE
  2
AcDbVisualStyle
  3
ObjectDBX Classes
 90
     4095
280
     0
281
     0
  0
CLASS
  1
SCALE
  2
AcDbScale
  3
ObjectDBX Classes
 90
     1153
280
     0
281
     0
  0
CLASS
  1
MLEADERSTYLE
  2
AcDbMLeaderStyle
  3
ACDB_MLEADERSTYLE_CLASS
 90
     4095
280
     0
281
     0
  0
CLASS
  1
CELLSTYLEMAP
  2
AcDbCellStyleMap
  3
ObjectDBX Classes
 90
     1152
280
     0
281
     0
  0
CLASS
  1
SUN
  2
AcDbSun
  3
SCENEOE
 90
     1153
280
     0
281
     0
  0
CLASS
  1
XRECORD
  2
AcDbXrecord
  3
ObjectDBX Classes
 90
    32768
280
     0
281
     0
  0
CLASS
  1
HATCH
  2
AcDbHatch
  3
ObjectDBX Classes
 90
    32768
280
     0
281
     1
  0
ENDSEC
  0
SECTION
  2
TABLES
  0
TABLE
  2
VPORT
  5
8
330
0
100
AcDbSymbolTable
 70
     1
  0
VPORT
  5
952D
330
8
100
AcDbSymbolTableRecord
100
AcDbViewportTableRecord
  2
*ACTIVE
 70
     0
 10
0.0
 20
0.0
 11
1.0
 21
1.0
 12
6768.576757842206
 22
554.96314125957
 13
0.0
 23
0.0
 14
10.0
 24
10.0
 15
10.0
 25
10.0
 16
0.0
 26
0.0
 36
1.0
 17
0.0
 27
0.0
 37
0.0
 40
447.1894736820017
 41
1.803066037735849
 42
50.0
 43
0.0
 44
0.0
 50
0.0
 51
0.0
 71
    16
 72
   100
 73
     1
 74
     1
 75
     0
 76
     0
 77
     0
 78
     0
1001
ACAD_NAV_VCDISPLAY
1070
     3
  0
ENDTAB
  0
TABLE
  2
LTYPE
  5
5
330
0
100
AcDbSymbolTable
 70
     3
  0
LTYPE
  5
12
330
5
100
AcDbSymbolTableRecord
100
AcDbLinetypeTableRecord
  2
BYBLOCK
 70
     0
  3

 72
    65
 73
     0
 40
0.0
  0
LTYPE
  5
13
330
5
100
AcDbSymbolTableRecord
100
AcDbLinetypeTableRecord
  2
BYLAYER
 70
     0
  3

 72
    65
 73
     0
 40
0.0
  0
LTYPE
  5
14
330
5
100
AcDbSymbolTableRecord
100
AcDbLinetypeTableRecord
  2
CONTINUOUS
 70
     0
  3
Solid line
 72
    65
 73
     0
 40
0.0
  0
LTYPE
  5
2C03
330
5
100
AcDbSymbolTableRecord
100
AcDbLinetypeTableRecord
  2
HIDDEN
 70
     0
  3
Hidden __ __ __ __ __ __ __ __ __ __ __ __ __ _
 72
    65
 73
     2
 40
9.524999999999999
 49
6.35
 74
     0
 49
-3.175
 74
     0
  0
LTYPE
  5
9837
330
5
100
AcDbSymbolTableRecord
100
AcDbLinetypeTableRecord
  2
CENTER2
 70
     0
  3
Center (.5x) ___ _ ___ _ ___ _ ___ _ ___ _ ___
 72
    65
 73
     4
 40
28.575
 49
19.05
 74
     0
 49
-3.175
 74
     0
 49
3.175
 74
     0
 49
-3.175
 74
     0
  0
ENDTAB
  0
TABLE
  2
LAYER
  5
2
102
{ACAD_XDICTIONARY
360
96D9
102
}
330
0
100
AcDbSymbolTable
 70
     6
  0
LAYER
  5
E
102
{ACAD_XDICTIONARY
360
9593
102
}
330
2
100
AcDbSymbolTableRecord
100
AcDbLayerTableRecord
  2
0
 70
     0
 62
     7
  6
CONTINUOUS
  0
LAYER
  5
29
102
{ACAD_XDICTIONARY
360
9595
102
}
330
2
100
AcDbSymbolTableRecord
100
AcDbLayerTableRecord
  2
1CENTER
 70
     0
 62
     7
  6
CENTER2
  0
LAYER
  5
31
102
{ACAD_XDICTIONARY
360
9597
102
}
330
2
100
AcDbSymbolTableRecord
100
AcDbLayerTableRecord
  2
1TEXT
 70
     0
 62
     7
  6
CONTINUOUS
  0
LAYER
  5
243
102
{ACAD_XDICTIONARY
360
959D
102
}
330
2
100
AcDbSymbolTableRecord
100
AcDbLayerTableRecord
  2
01
 70
     0
 62
     1
  6
CONTINUOUS
  0
LAYER
  5
24E
102
{ACAD_XDICTIONARY
360
95A3
102
}
330
2
100
AcDbSymbolTableRecord
100
AcDbLayerTableRecord
  2
1DIM
 70
     0
 62
     7
  6
CONTINUOUS
  0
LAYER
  5
2C05
102
{ACAD_XDICTIONARY
360
95AF
102
}
330
2
100
AcDbSymbolTableRecord
100
AcDbLayerTableRecord
  2
1HIDDEN
 70
     0
 62
     7
  6
HIDDEN
  0
ENDTAB
  0
TABLE
  2
STYLE
  5
3
330
0
100
AcDbSymbolTable
 70
     1
  0
STYLE
  5
F
330
3
100
AcDbSymbolTableRecord
100
AcDbTextStyleTableRecord
  2
STANDARD
 70
     0
 40
0.0
 41
1.0
 50
0.0
 71
     0
 42
4.0
  3
txt.shx
  4
extfont.shx
  0
ENDTAB
  0
TABLE
  2
VIEW
  5
6
330
0
100
AcDbSymbolTable
 70
     0
  0
ENDTAB
  0
TABLE
  2
UCS
  5
7
330
0
100
AcDbSymbolTable
 70
     0
  0
ENDTAB
  0
TABLE
  2
APPID
  5
9
330
0
100
AcDbSymbolTable
 70
    15
  0
APPID
  5
10
330
9
100
AcDbSymbolTableRecord
100
AcDbRegAppTableRecord
  2
ACAD
 70
     0
  0
APPID
  5
21
330
9
100
AcDbSymbolTableRecord
100
AcDbRegAppTableRecord
  2
DRAWINGVARIABLESXDATA
 70
     0
  0
APPID
  5
64
330
9
100
AcDbSymbolTableRecord
100
AcDbRegAppTableRecord
  2
CONTENTTABDATA
 70
     0
  0
APPID
  5
65
330
9
100
AcDbSymbolTableRecord
100
AcDbRegAppTableRecord
  2
CONTENTCURRENTTAB
 70
     0
  0
APPID
  5
66
330
9
100
AcDbSymbolTableRecord
100
AcDbRegAppTableRecord
  2
CONTENTBLOCKDESCRIPTION
 70
     0
  0
APPID
  5
67
330
9
100
AcDbSymbolTableRecord
100
AcDbRegAppTableRecord
  2
CONTENTBLOCKICON
 70
     0
  0
APPID
  5
68
330
9
100
AcDbSymbolTableRecord
100
AcDbRegAppTableRecord
  2
CONTENTLONGBLOCKNAME
 70
     0
  0
APPID
  5
2AE
330
9
100
AcDbSymbolTableRecord
100
AcDbRegAppTableRecord
  2
ACAD_PSEXT
 70
     0
  0
APPID
  5
9585
330
9
100
AcDbSymbolTableRecord
100
AcDbRegAppTableRecord
  2
ACAD_MLEADERVER
 70
     0
  0
APPID
  5
A2E3
330
9
100
AcDbSymbolTableRecord
100
AcDbRegAppTableRecord
  2
ACADANNOTATIVE
 70
     0
  0
APPID
  5
A2E4
330
9
100
AcDbSymbolTableRecord
100
AcDbRegAppTableRecord
  2
ACDBBLOCKREPETAG
 70
     0
  0
APPID
  5
AEB1
330
9
100
AcDbSymbolTableRecord
100
AcDbRegAppTableRecord
  2
ACAD_NAV_VCDISPLAY
 70
     0
  0
APPID
  5
B6A4
330
9
100
AcDbSymbolTableRecord
100
AcDbRegAppTableRecord
  2
ACAECLAYERSTANDARD
 70
     0
  0
APPID
  5
E1DF
330
9
100
AcDbSymbolTableRecord
100
AcDbRegAppTableRecord
  2
ACAD_EXEMPT_FROM_CAD_STAND
 70
     0
  0
APPID
  5
E1F0
330
9
100
AcDbSymbolTableRecord
100
AcDbRegAppTableRecord
  2
ACAD_OBJECT_CHANGE_GUID
 70
     0
  0
ENDTAB
  0
TABLE
  2
DIMSTYLE
  5
A
330
0
100
AcDbSymbolTable
 70
     1
  0
DIMSTYLE
105
48
330
A
100
AcDbSymbolTableRecord
100
AcDbDimStyleTableRecord
  2
NEWX10
 70
     0
  3
 
  4

  5

  6
OPEN30
  7
OPEN30
 40
1.0
 41
2.0
 42
0.0
 43
7.0
 44
1.0
 45
0.0
 46
0.0
 47
0.0
 48
0.0
140
3.5
141
0.0
142
0.0
143
25.4
144
1.0
145
0.0
146
0.7
147
0.7
 71
     0
 72
     0
 73
     0
 74
     0
 75
     0
 76
     0
 77
     1
 78
     8
170
     0
171
     2
172
     1
173
     1
174
     0
175
     0
176
   256
177
   256
178
   201
179
     2
270
     2
271
     2
272
     4
273
     2
274
     2
340
F
275
     0
280
     0
281
     0
282
     0
283
     1
284
     8
285
     0
286
     0
287
     2
288
     0
  0
ENDTAB
  0
TABLE
  2
BLOCK_RECORD
  5
1
330
0
100
AcDbSymbolTable
 70
     8
  0
BLOCK_RECORD
  5
18
102
{ACAD_XDICTIONARY
360
88F
102
}
330
1
100
AcDbSymbolTableRecord
100
AcDbBlockTableRecord
  2
*MODEL_SPACE
  0
BLOCK_RECORD
  5
15
330
1
100
AcDbSymbolTableRecord
100
AcDbBlockTableRecord
  2
*PAPER_SPACE
  0
BLOCK_RECORD
  5
42
330
1
100
AcDbSymbolTableRecord
100
AcDbBlockTableRecord
  2
_OPEN30
  0
BLOCK_RECORD
  5
A333
330
1
100
AcDbSymbolTableRecord
100
AcDbBlockTableRecord
  2
A3WAKUKAWAJUN2017_HYOUDAI_
  0
BLOCK_RECORD
  5
E409
330
1
100
AcDbSymbolTableRecord
100
AcDbBlockTableRecord
  2
*X175
  0
BLOCK_RECORD
  5
E457
330
1
100
AcDbSymbolTableRecord
100
AcDbBlockTableRecord
  2
*X176
  0
BLOCK_RECORD
  5
E4A9
330
1
100
AcDbSymbolTableRecord
100
AcDbBlockTableRecord
  2
*X177
  0
BLOCK_RECORD
  5
E4FA
330
1
100
AcDbSymbolTableRecord
100
AcDbBlockTableRecord
  2
*X178
  0
BLOCK_RECORD
  5
E537
330
1
100
AcDbSymbolTableRecord
100
AcDbBlockTableRecord
  2
*X179
  0
BLOCK_RECORD
  5
E577
330
1
100
AcDbSymbolTableRecord
100
AcDbBlockTableRecord
  2
*X180
  0
ENDTAB
  0
ENDSEC
  0
SECTION
  2
BLOCKS
  0
BLOCK
  5
19
330
18
100
AcDbEntity
  8
0
100
AcDbBlockBegin
  2
*MODEL_SPACE
 70
     0
 10
0.0
 20
0.0
 30
0.0
  3
*MODEL_SPACE
  1

  0
ENDBLK
  5
1A
330
18
100
AcDbEntity
  8
0
100
AcDbBlockEnd
  0
BLOCK
  5
16
330
15
100
AcDbEntity
 67
     1
  8
0
100
AcDbBlockBegin
  2
*PAPER_SPACE
 70
     0
 10
0.0
 20
0.0
 30
0.0
  3
*PAPER_SPACE
  1

  0
ENDBLK
  5
17
330
15
100
AcDbEntity
 67
     1
  8
0
100
AcDbBlockEnd
  0
BLOCK
  5
43
330
42
100
AcDbEntity
  8
0
100
AcDbBlockBegin
  2
_OPEN30
 70
     0
 10
0.0
 20
0.0
 30
0.0
  3
_OPEN30
  1

  0
LINE
  5
44
330
42
100
AcDbEntity
  8
0
  6
BYBLOCK
 62
     0
100
AcDbLine
 10
-1.0
 20
0.26794919
 30
0.0
 11
0.0
 21
0.0
 31
0.0
  0
LINE
  5
45
330
42
100
AcDbEntity
  8
0
  6
BYBLOCK
 62
     0
100
AcDbLine
 10
0.0
 20
0.0
 30
0.0
 11
-1.0
 21
-0.26794919
 31
0.0
  0
LINE
  5
46
330
42
100
AcDbEntity
  8
0
  6
BYBLOCK
 62
     0
100
AcDbLine
 10
0.0
 20
0.0
 30
0.0
 11
-1.0
 21
0.0
 31
0.0
  0
ENDBLK
  5
47
330
42
100
AcDbEntity
  8
0
100
AcDbBlockEnd
  0
BLOCK
  5
AA56
330
A333
100
AcDbEntity
  8
0
100
AcDbBlockBegin
  2
A3WAKUKAWAJUN2017_HYOUDAI_
 70
     0
 10
0.0
 20
0.0
 30
0.0
  3
A3WAKUKAWAJUN2017_HYOUDAI_
  1

  0
LINE
  5
A335
330
A333
100
AcDbEntity
  8
0
100
AcDbLine
 10
13.26299999998673
 20
-0.0001000000000317
 30
0.0
 11
9.236999999990758
 21
8.999899999990987
 31
0.0
1001
ACAD
1000
ASC_BOUNDS
1002
{
1070
    19
1005
A376
1002
}
  0
LINE
  5
A336
330
A333
100
AcDbEntity
  8
0
100
AcDbLine
 10
5.657999999994331
 20
0.9999999999989768
 30
0.0
 11
9.236999999990758
 21
8.999999999991019
 31
0.0
1001
ACAD
1000
ASC_BOUNDS
1002
{
1070
    19
1005
A376
1002
}
  0
LINE
  5
A337
330
A333
100
AcDbEntity
  8
0
100
AcDbLine
 10
18.59199999998134
 20
-0.2368999999997641
 30
0.0
 11
16.46099999998353
 21
5.432899999994561
 31
0.0
1001
ACAD
1000
ASC_BOUNDS
1002
{
1070
    19
1005
A377
1002
}
  0
LINE
  5
A338
330
A333
100
AcDbEntity
  8
0
100
AcDbLine
 10
18.59199999998134
 20
-0.2368999999997641
 30
0.0
 11
22.38199999997767
 21
8.763099999991255
 31
0.0
1001
ACAD
1000
ASC_BOUNDS
1002
{
1070
    19
1005
A377
1002
}
  0
LINE
  5
A339
330
A333
100
AcDbEntity
  8
0
100
AcDbLine
 10
14.32899999998563
 20
-0.2368999999997641
 30
0.0
 11
16.46099999998353
 21
5.432899999994561
 31
0.0
1001
ACAD
1000
ASC_BOUNDS
1002
{
1070
    19
1005
A377
1002
}
  0
LINE
  5
A33A
330
A333
100
AcDbEntity
  8
0
100
AcDbLine
 10
14.32899999998563
 20
-0.2368999999997641
 30
0.0
 11
10.53899999998941
 21
8.763099999991255
 31
0.0
1001
ACAD
1000
ASC_BOUNDS
1002
{
1070
    19
1005
A377
1002
}
  0
LINE
  5
A33B
330
A333
100
AcDbEntity
  8
0
100
AcDbLine
 10
19.53899999998043
 20
-0.0001000000000317
 30
0.0
 11
23.56599999997638
 21
8.999899999990987
 31
0.0
1001
ACAD
1000
ASC_BOUNDS
1002
{
1070
    19
1005
A378
1002
}
  0
LINE
  5
A33C
330
A333
100
AcDbEntity
  8
0
100
AcDbLine
 10
26.97358892824991
 20
1.383099999991202
 30
0.0
 11
23.56599999997638
 21
8.999899999990987
 31
0.0
1001
ACAD
1000
ASC_BOUNDS
1002
{
1070
    19
1005
A378
1002
}
  0
LINE
  5
A33D
330
A333
100
AcDbEntity
  8
0
100
AcDbLine
 10
5.657999999994331
 20
0.9999999999989768
 30
0.0
 11
3.181999999996833
 21
4.668599999995308
 31
0.0
1001
ACAD
1000
ASC_BOUNDS
1002
{
1070
    19
1005
A376
1002
}
  0
LINE
  5
A33E
330
A333
100
AcDbEntity
  8
0
100
AcDbLine
 10
4.617999999995391
 20
-0.0001000000000317
 30
0.0
 11
1.420999999998571
 21
4.736799999995242
 31
0.0
1001
ACAD
1000
ASC_BOUNDS
1002
{
1070
    19
1005
A376
1002
}
  0
LINE
  5
A33F
330
A333
100
AcDbEntity
  8
0
100
AcDbLine
 10
1.420999999998571
 20
8.763099999991255
 30
0.0
 11
1.420999999998571
 21
0.0
 31
0.0
1001
ACAD
1000
ASC_BOUNDS
1002
{
1070
    19
1005
A37B
1002
}
  0
LINE
  5
A340
330
A333
100
AcDbEntity
  8
0
100
AcDbLine
 10
0.0
 20
8.763099999991255
 30
0.0
 11
0.0
 21
0.0
 31
0.0
1001
ACAD
1000
ASC_BOUNDS
1002
{
1070
    19
1005
A37B
1002
}
  0
LINE
  5
A341
330
A333
100
AcDbEntity
  8
0
100
AcDbLine
 10
6.766999999993232
 20
-0.0001000000000317
 30
0.0
 11
7.826999999992154
 21
2.368399999997621
 31
0.0
1001
ACAD
1000
ASC_BOUNDS
1002
{
1070
    19
1005
A376
1002
}
  0
LINE
  5
A342
330
A333
100
AcDbEntity
  8
0
100
AcDbLine
 10
0.0
 20
0.0
 30
0.0
 11
1.420999999998571
 21
0.0
 31
0.0
1001
ACAD
1000
ASC_BOUNDS
1002
{
1070
    19
1005
A37B
1002
}
  0
LINE
  5
A343
330
A333
100
AcDbEntity
  8
0
100
AcDbLine
 10
4.617999999995391
 20
0.0
 30
0.0
 11
6.766999999993232
 21
0.0
 31
0.0
1001
ACAD
1000
ASC_BOUNDS
1002
{
1070
    19
1005
A376
1002
}
  0
LINE
  5
A344
330
A333
100
AcDbEntity
  8
0
100
AcDbLine
 10
11.70599999998831
 20
-0.0001000000000317
 30
0.0
 11
10.64699999998936
 21
2.368399999997621
 31
0.0
1001
ACAD
1000
ASC_BOUNDS
1002
{
1070
    19
1005
A376
1002
}
  0
LINE
  5
A345
330
A333
100
AcDbEntity
  8
0
100
AcDbLine
 10
7.826999999992154
 20
2.368399999997621
 30
0.0
 11
10.64699999998936
 21
2.368399999997621
 31
0.0
1001
ACAD
1000
ASC_BOUNDS
1002
{
1070
    19
1005
A376
1002
}
  0
LINE
  5
A346
330
A333
100
AcDbEntity
  8
0
100
AcDbLine
 10
11.70599999998831
 20
0.0
 30
0.0
 11
13.26299999998673
 21
0.0
 31
0.0
1001
ACAD
1000
ASC_BOUNDS
1002
{
1070
    19
1005
A376
1002
}
  0
LINE
  5
A347
330
A333
100
AcDbEntity
  8
0
100
AcDbLine
 10
22.15599999997789
 20
2.368399999997621
 30
0.0
 11
24.97599999997499
 21
2.368399999997621
 31
0.0
1001
ACAD
1000
ASC_BOUNDS
1002
{
1070
    19
1005
A378
1002
}
  0
LINE
  5
A348
330
A333
100
AcDbEntity
  8
0
100
AcDbLine
 10
19.53899999998043
 20
0.0
 30
0.0
 11
21.09599999997886
 21
0.0
 31
0.0
1001
ACAD
1000
ASC_BOUNDS
1002
{
1070
    19
1005
A378
1002
}
  0
LINE
  5
A349
330
A333
100
AcDbEntity
  8
0
100
AcDbLine
 10
21.09599999997886
 20
-0.0001000000000317
 30
0.0
 11
22.15599999997789
 21
2.368399999997621
 31
0.0
1001
ACAD
1000
ASC_BOUNDS
1002
{
1070
    19
1005
A378
1002
}
  0
LINE
  5
A34A
330
A333
100
AcDbEntity
  8
0
100
AcDbLine
 10
26.02015566812236
 20
0.0330999999912365
 30
0.0
 11
24.97599999997499
 21
2.368399999997621
 31
0.0
1001
ACAD
1000
ASC_BOUNDS
1002
{
1070
    19
1005
A378
1002
}
  0
LINE
  5
A34B
330
A333
100
AcDbEntity
  8
0
100
AcDbLine
 10
14.32399999998563
 20
3.315799999996671
 30
0.0
 11
16.46099999998353
 21
8.999899999990987
 31
0.0
1001
ACAD
1000
ASC_BOUNDS
1002
{
1070
    19
1005
A377
1002
}
  0
LINE
  5
A34C
330
A333
100
AcDbEntity
  8
0
100
AcDbLine
 10
6.432999999993513
 20
8.763099999991255
 30
0.0
 11
3.181999999996833
 21
4.668599999995308
 31
0.0
1001
ACAD
1000
ASC_BOUNDS
1002
{
1070
    19
1005
A376
1002
}
  0
LINE
  5
A34D
330
A333
100
AcDbEntity
  8
0
100
AcDbLine
 10
4.617999999995391
 20
8.763099999991255
 30
0.0
 11
1.420999999998571
 21
4.736799999995242
 31
0.0
1001
ACAD
1000
ASC_BOUNDS
1002
{
1070
    19
1005
A376
1002
}
  0
LINE
  5
A34E
330
A333
100
AcDbEntity
  8
0
100
AcDbLine
 10
0.0
 20
8.763099999991255
 30
0.0
 11
1.420999999998571
 21
8.763099999991255
 31
0.0
1001
ACAD
1000
ASC_BOUNDS
1002
{
1070
    19
1005
A37B
1002
}
  0
LINE
  5
A34F
330
A333
100
AcDbEntity
  8
0
100
AcDbLine
 10
4.617999999995391
 20
8.763099999991255
 30
0.0
 11
6.432999999993513
 21
8.763099999991255
 31
0.0
1001
ACAD
1000
ASC_BOUNDS
1002
{
1070
    19
1005
A376
1002
}
  0
LINE
  5
A350
330
A333
100
AcDbEntity
  8
0
100
AcDbLine
 10
14.32399999998563
 20
3.315799999996671
 30
0.0
 11
12.02999999998792
 21
8.763099999991255
 31
0.0
1001
ACAD
1000
ASC_BOUNDS
1002
{
1070
    19
1005
A377
1002
}
  0
LINE
  5
A351
330
A333
100
AcDbEntity
  8
0
100
AcDbLine
 10
10.06399999998996
 20
3.670999999996297
 30
0.0
 11
9.236999999990758
 21
5.5200999999945
 31
0.0
1001
ACAD
1000
ASC_BOUNDS
1002
{
1070
    19
1005
A376
1002
}
  0
LINE
  5
A352
330
A333
100
AcDbEntity
  8
0
100
AcDbLine
 10
8.409999999991555
 20
3.670999999996297
 30
0.0
 11
9.236999999990758
 21
5.5200999999945
 31
0.0
1001
ACAD
1000
ASC_BOUNDS
1002
{
1070
    19
1005
A376
1002
}
  0
LINE
  5
A353
330
A333
100
AcDbEntity
  8
0
100
AcDbLine
 10
8.409999999991555
 20
3.670999999996297
 30
0.0
 11
10.06399999998996
 21
3.670999999996297
 31
0.0
1001
ACAD
1000
ASC_BOUNDS
1002
{
1070
    19
1005
A376
1002
}
  0
LINE
  5
A354
330
A333
100
AcDbEntity
  8
0
100
AcDbLine
 10
10.53899999998941
 20
8.763099999991255
 30
0.0
 11
12.02999999998792
 21
8.763099999991255
 31
0.0
1001
ACAD
1000
ASC_BOUNDS
1002
{
1070
    19
1005
A377
1002
}
  0
LINE
  5
A355
330
A333
100
AcDbEntity
  8
0
100
AcDbLine
 10
22.7389999999773
 20
3.670999999996297
 30
0.0
 11
23.56599999997638
 21
5.5200999999945
 31
0.0
1001
ACAD
1000
ASC_BOUNDS
1002
{
1070
    19
1005
A378
1002
}
  0
LINE
  5
A356
330
A333
100
AcDbEntity
  8
0
100
AcDbLine
 10
22.7389999999773
 20
3.670999999996297
 30
0.0
 11
24.39299999997559
 21
3.670999999996297
 31
0.0
1001
ACAD
1000
ASC_BOUNDS
1002
{
1070
    19
1005
A378
1002
}
  0
LINE
  5
A357
330
A333
100
AcDbEntity
  8
0
100
AcDbLine
 10
18.59799999998143
 20
3.315799999996671
 30
0.0
 11
20.89099999997916
 21
8.763099999991255
 31
0.0
1001
ACAD
1000
ASC_BOUNDS
1002
{
1070
    19
1005
A377
1002
}
  0
LINE
  5
A358
330
A333
100
AcDbEntity
  8
0
100
AcDbLine
 10
18.59799999998143
 20
3.315799999996671
 30
0.0
 11
16.46099999998353
 21
8.999899999990987
 31
0.0
1001
ACAD
1000
ASC_BOUNDS
1002
{
1070
    19
1005
A377
1002
}
  0
LINE
  5
A359
330
A333
100
AcDbEntity
  8
0
100
AcDbLine
 10
20.89099999997916
 20
8.763099999991255
 30
0.0
 11
22.38199999997767
 21
8.763099999991255
 31
0.0
1001
ACAD
1000
ASC_BOUNDS
1002
{
1070
    19
1005
A377
1002
}
  0
LINE
  5
A35A
330
A333
100
AcDbEntity
  8
0
100
AcDbLine
 10
24.39299999997559
 20
3.670999999996297
 30
0.0
 11
23.56599999997638
 21
5.5200999999945
 31
0.0
1001
ACAD
1000
ASC_BOUNDS
1002
{
1070
    19
1005
A378
1002
}
  0
LINE
  5
A35B
330
A333
100
AcDbEntity
  8
0
100
AcDbLine
 10
44.99999999995498
 20
-0.2368999999997641
 30
0.0
 11
40.02599999995994
 21
5.341799999994635
 31
0.0
1001
ACAD
1000
ASC_BOUNDS
1002
{
1070
    19
1005
A37A
1002
}
  0
LINE
  5
A35C
330
A333
100
AcDbEntity
  8
0
100
AcDbLine
 10
40.02599999995994
 20
5.341799999994635
 30
0.0
 11
40.02599999995994
 21
0.0
 31
0.0
1001
ACAD
1000
ASC_BOUNDS
1002
{
1070
    19
1005
A37A
1002
}
  0
LINE
  5
A35D
330
A333
100
AcDbEntity
  8
0
100
AcDbLine
 10
38.60499999996136
 20
8.999999999991019
 30
0.0
 11
38.60499999996136
 21
0.0
 31
0.0
1001
ACAD
1000
ASC_BOUNDS
1002
{
1070
    19
1005
A37A
1002
}
  0
LINE
  5
A35E
330
A333
100
AcDbEntity
  8
0
100
AcDbLine
 10
44.99999999995498
 20
8.763099999991255
 30
0.0
 11
44.99999999995498
 21
-0.2368999999997641
 31
0.0
1001
ACAD
1000
ASC_BOUNDS
1002
{
1070
    19
1005
A37A
1002
}
  0
LINE
  5
A35F
330
A333
100
AcDbEntity
  8
0
100
AcDbLine
 10
38.60499999996136
 20
0.0
 30
0.0
 11
40.02599999995994
 21
0.0
 31
0.0
1001
ACAD
1000
ASC_BOUNDS
1002
{
1070
    19
1005
A37A
1002
}
  0
LINE
  5
A360
330
A333
100
AcDbEntity
  8
0
100
AcDbLine
 10
43.57899999995641
 20
3.421199999996588
 30
0.0
 11
38.60499999996136
 21
8.999899999990987
 31
0.0
1001
ACAD
1000
ASC_BOUNDS
1002
{
1070
    19
1005
A37A
1002
}
  0
LINE
  5
A361
330
A333
100
AcDbEntity
  8
0
100
AcDbLine
 10
43.57899999995641
 20
8.763099999991255
 30
0.0
 11
43.57899999995641
 21
3.421199999996588
 31
0.0
1001
ACAD
1000
ASC_BOUNDS
1002
{
1070
    19
1005
A37A
1002
}
  0
LINE
  5
A362
330
A333
100
AcDbEntity
  8
0
100
AcDbLine
 10
43.57899999995641
 20
8.763099999991255
 30
0.0
 11
44.99999999995498
 21
8.763099999991255
 31
0.0
1001
ACAD
1000
ASC_BOUNDS
1002
{
1070
    19
1005
A37A
1002
}
  0
LINE
  5
A363
330
A333
100
AcDbEntity
  8
0
100
AcDbLine
 10
37.67199999996831
 20
8.763099999991255
 30
0.0
 11
36.23199999996837
 21
8.763099999991255
 31
0.0
  0
LINE
  5
A364
330
A333
100
AcDbEntity
  8
0
100
AcDbLine
 10
31.64199999996833
 20
8.763099999991255
 30
0.0
 11
31.64199999996833
 21
2.481619422925121
 31
0.0
  0
LINE
  5
A365
330
A333
100
AcDbEntity
  8
0
100
AcDbLine
 10
37.67199999996831
 20
8.763099999991255
 30
0.0
 11
37.67199999996831
 21
2.481619422925121
 31
0.0
  0
LINE
  5
A366
330
A333
100
AcDbEntity
  8
0
100
AcDbLine
 10
36.23199999996837
 20
8.763099999991255
 30
0.0
 11
36.23199999996837
 21
2.481619422925064
 31
0.0
  0
LINE
  5
A367
330
A333
100
AcDbEntity
  8
0
100
AcDbLine
 10
33.08199999996839
 20
8.763099999991255
 30
0.0
 11
33.08199999996839
 21
2.481619422925121
 31
0.0
  0
ARC
  5
A368
330
A333
100
AcDbEntity
  8
0
100
AcDbCircle
 10
34.65699999996832
 20
3.183099999991214
 30
0.0
 40
3.420000000000007
100
AcDbArc
 50
240.0000000000255
 51
299.9999999999766
  0
ARC
  5
A369
330
A333
100
AcDbEntity
  8
0
100
AcDbCircle
 10
34.65699999996832
 20
3.183099999991214
 30
0.0
 40
1.97999999999999
100
AcDbArc
 50
240.000000000026
 51
299.9999999999703
  0
LINE
  5
A36A
330
A333
100
AcDbEntity
  8
0
100
AcDbLine
 10
33.08199999996828
 20
8.763099999991255
 30
0.0
 11
31.64199999996833
 21
8.763099999991255
 31
0.0
  0
ARC
  5
A36B
330
A333
100
AcDbEntity
  8
0
100
AcDbCircle
 10
35.06199999996829
 20
2.481619422925064
 30
0.0
 40
1.17
100
AcDbArc
 50
299.9999999999699
 51
0.0
  0
ARC
  5
A36C
330
A333
100
AcDbEntity
  8
0
100
AcDbCircle
 10
34.25199999996835
 20
2.481619422925121
 30
0.0
 40
1.17
100
AcDbArc
 50
180.0
 51
240.0000000000238
  0
ARC
  5
A36D
330
A333
100
AcDbEntity
  8
0
100
AcDbCircle
 10
35.06199999996841
 20
2.481619422925121
 30
0.0
 40
2.61
100
AcDbArc
 50
299.9999999999756
 51
0.0
  0
ARC
  5
A36E
330
A333
100
AcDbEntity
  8
0
100
AcDbCircle
 10
34.25199999996835
 20
2.481619422925121
 30
0.0
 40
2.61
100
AcDbArc
 50
180.0
 51
240.0000000000244
  0
LINE
  5
A36F
330
A333
100
AcDbEntity
  8
0
100
AcDbLine
 10
29.30199999996933
 20
8.763099999991255
 30
0.0
 11
30.74199999996927
 21
8.763099999991255
 31
0.0
1001
ACAD
1000
ASC_BOUNDS
1002
{
1070
    19
1005
A378
1002
}
  0
LINE
  5
A370
330
A333
100
AcDbEntity
  8
0
100
AcDbLine
 10
30.74199999996927
 20
8.763099999991255
 30
0.0
 11
30.74199999996927
 21
2.373099999991211
 31
0.0
1001
ACAD
1000
ASC_BOUNDS
1002
{
1070
    19
1005
A378
1002
}
  0
LINE
  5
A371
330
A333
100
AcDbEntity
  8
0
100
AcDbLine
 10
26.02015566812236
 20
0.0330999999912365
 30
0.0
 11
28.40199999996923
 21
0.0330999999912365
 31
0.0
1001
ACAD
1000
ASC_BOUNDS
1002
{
1070
    19
1005
A378
1002
}
  0
LINE
  5
A372
330
A333
100
AcDbEntity
  8
0
100
AcDbLine
 10
29.30199999996933
 20
8.763099999991255
 30
0.0
 11
29.30199999996933
 21
2.283099999991236
 31
0.0
1001
ACAD
1000
ASC_BOUNDS
1002
{
1070
    19
1005
A378
1002
}
  0
LINE
  5
A373
330
A333
100
AcDbEntity
  8
0
100
AcDbLine
 10
26.97358892824991
 20
1.383099999991202
 30
0.0
 11
28.40199999996923
 21
1.383099999991202
 31
0.0
1001
ACAD
1000
ASC_BOUNDS
1002
{
1070
    19
1005
A378
1002
}
  0
ARC
  5
A374
330
A333
100
AcDbEntity
  8
0
100
AcDbCircle
 10
28.40199999996923
 20
2.283099999991236
 30
0.0
 40
0.9
100
AcDbArc
 50
270.0
 51
0.0
1001
ACAD
1000
ASC_BOUNDS
1002
{
1070
    19
1005
A378
1002
}
  0
ARC
  5
A375
330
A333
100
AcDbEntity
  8
0
100
AcDbCircle
 10
28.40199999996923
 20
2.373099999991211
 30
0.0
 40
2.34
100
AcDbArc
 50
270.0
 51
0.0
1001
ACAD
1000
ASC_BOUNDS
1002
{
1070
    19
1005
A378
1002
}
  0
INSERT
  5
A376
330
A333
100
AcDbEntity
  8
0
100
AcDbBlockReference
  2
*X175
 10
0.0
 20
0.0
 30
0.0
1001
ACAD
1000
HATCH
1002
{
1070
    19
1000
ANSI37
1040
0.15
1040
0.0
1000
ASC_BOUNDS
1070
     2
1070
     2
1070
    12
1005
A335
1005
A336
1005
A33D
1005
A34C
1005
A34F
1005
A34D
1005
A33E
1005
A343
1005
A341
1005
A345
1005
A344
1005
A346
1070
     2
1070
     3
1005
A351
1005
A353
1005
A352
1000
ASC_SEEDPOINT
1011
3.614004224891801
1021
2.996669441146025
1031
0.0
1000
R14_HATCH_DATA
1000
A376
1011
1.0
1021
0.0
1031
0.0
1011
0.0
1021
1.0
1031
0.0
1011
0.0
1021
0.0
1031
1.0
1040
0.0
1010
0.0
1020
0.0
1030
1.0
1000
ANSI37
1070
     0
1070
     1
1071
        2
1071
        7
1070
     0
1070
     1
1071
       17
1040
13.26299999998673
1040
-0.0001000000000317
1040
9.236999999990758
1040
8.999899999990987
1040
9.236999999990758
1040
8.999999999991019
1040
5.657999999994331
1040
0.9999999999989768
1040
3.181999999996833
1040
4.668599999995308
1040
6.432999999993513
1040
8.763099999991255
1040
4.617999999995391
1040
8.763099999991255
1040
1.420999999998571
1040
4.736799999995242
1040
4.617999999995391
1040
-0.0001000000000317
1040
4.617999999995391
1040
0.0
1040
6.766999999993232
1040
0.0
1040
6.766999999993232
1040
-0.0001000000000317
1040
7.826999999992154
1040
2.368399999997621
1040
10.64699999998936
1040
2.368399999997621
1040
11.70599999998831
1040
-0.0001000000000317
1040
11.70599999998831
1040
0.0
1040
13.26299999998673
1040
0.0
1071
       12
1005
A335
1005
A336
1005
A33D
1005
A34C
1005
A34F
1005
A34D
1005
A33E
1005
A343
1005
A341
1005
A345
1005
A344
1005
A346
1071
       22
1070
     0
1070
     1
1071
        3
1040
9.236999999990758
1040
5.5200999999945
1040
10.06399999998996
1040
3.670999999996297
1040
8.409999999991555
1040
3.670999999996297
1071
        3
1005
A351
1005
A353
1005
A352
1070
     0
1070
     1
1040
0.0
1040
0.15
1070
     0
1070
     2
1040
0.7853981633974483
1040
49.29960901727088
1040
-10.17736998311392
1040
-0.3367596045400932
1040
0.3367596045400932
1070
     0
1040
2.356194490192345
1040
49.29960901727088
1040
-10.17736998311392
1040
-0.3367596045400932
1040
-0.3367596045400932
1070
     0
1040
0.0110235143455945
1071
        2
1040
3.614004224891801
1040
2.996669441146025
1040
0.0
1040
3.614004224891801
1040
2.996669441146025
1040
0.0
1002
}
  0
INSERT
  5
A377
330
A333
100
AcDbEntity
  8
0
100
AcDbBlockReference
  2
*X176
 10
0.0
 20
0.0
 30
0.0
1001
ACAD
1000
HATCH
1002
{
1070
    19
1000
ANSI37
1040
0.15
1040
0.0
1000
ASC_BOUNDS
1070
     1
1070
     2
1070
    10
1005
A337
1005
A338
1005
A359
1005
A357
1005
A358
1005
A34B
1005
A350
1005
A354
1005
A33A
1005
A339
1000
ASC_SEEDPOINT
1011
14.73245321214324
1021
2.798246178283421
1031
0.0
1000
R14_HATCH_DATA
1000
A377
1011
1.0
1021
0.0
1031
0.0
1011
0.0
1021
1.0
1031
0.0
1011
0.0
1021
0.0
1031
1.0
1040
0.0
1010
0.0
1020
0.0
1030
1.0
1000
ANSI37
1070
     0
1070
     1
1071
        1
1071
        7
1070
     0
1070
     1
1071
       10
1040
16.46099999998353
1040
5.432899999994561
1040
18.59199999998134
1040
-0.2368999999997641
1040
22.38199999997767
1040
8.763099999991255
1040
20.89099999997916
1040
8.763099999991255
1040
18.59799999998143
1040
3.315799999996671
1040
16.46099999998353
1040
8.999899999990987
1040
14.32399999998563
1040
3.315799999996671
1040
12.02999999998792
1040
8.763099999991255
1040
10.53899999998941
1040
8.763099999991255
1040
14.32899999998563
1040
-0.2368999999997641
1071
       10
1005
A337
1005
A338
1005
A359
1005
A357
1005
A358
1005
A34B
1005
A350
1005
A354
1005
A33A
1005
A339
1070
     0
1070
     1
1040
0.0
1040
0.15
1070
     0
1070
     2
1040
0.7853981633974483
1040
49.29960901727088
1040
-10.17736998311392
1040
-0.3367596045400932
1040
0.3367596045400932
1070
     0
1040
2.356194490192345
1040
49.29960901727088
1040
-10.17736998311392
1040
-0.3367596045400932
1040
-0.3367596045400932
1070
     0
1040
0.0110235143455945
1071
        1
1040
14.73245321214324
1040
2.798246178283421
1040
0.0
1002
}
  0
INSERT
  5
A378
330
A333
100
AcDbEntity
  8
0
100
AcDbBlockReference
  2
*X177
 10
0.0
 20
0.0
 30
0.0
1001
ACAD
1000
HATCH
1002
{
1070
    19
1000
ANSI37
1040
0.15
1040
0.0
1000
ASC_BOUNDS
1070
     2
1070
     2
1070
    13
1005
A33B
1005
A348
1005
A349
1005
A347
1005
A34A
1005
A371
1005
A375
1005
A370
1005
A36F
1005
A372
1005
A374
1005
A373
1005
A33C
1070
     2
1070
     3
1005
A355
1005
A35A
1005
A356
1000
ASC_SEEDPOINT
1011
21.97929957367762
1021
3.294304244259308
1031
0.0
1000
R14_HATCH_DATA
1000
A378
1011
1.0
1021
0.0
1031
0.0
1011
0.0
1021
1.0
1031
0.0
1011
0.0
1021
0.0
1031
1.0
1040
0.0
1010
0.0
1020
0.0
1030
1.0
1000
ANSI37
1070
     0
1070
     1
1071
        2
1071
        7
1070
     1
1070
     1
1071
       15
1040
23.56599999997638
1040
8.999899999990987
1040
0.0
1040
19.53899999998043
1040
-0.0001000000000317
1040
0.0
1040
19.53899999998043
1040
0.0
1040
0.0
1040
21.09599999997886
1040
0.0
1040
0.0
1040
21.09599999997886
1040
-0.0001000000000317
1040
0.0
1040
22.15599999997789
1040
2.368399999997621
1040
0.0
1040
24.97599999997499
1040
2.368399999997621
1040
0.0
1040
26.02015566812236
1040
0.0330999999912365
1040
0.0
1040
28.40199999996923
1040
0.0330999999912365
1040
0.414213562373095
1040
30.74199999996923
1040
2.373099999991211
1040
0.0
1040
30.74199999996927
1040
8.763099999991255
1040
0.0
1040
29.30199999996933
1040
8.763099999991255
1040
0.0
1040
29.30199999996933
1040
2.283099999991236
1040
-0.414213562373095
1040
28.40199999996923
1040
1.383099999991237
1040
0.0
1040
26.97358892824991
1040
1.383099999991202
1040
0.0
1071
       13
1005
A33B
1005
A348
1005
A349
1005
A347
1005
A34A
1005
A371
1005
A375
1005
A370
1005
A36F
1005
A372
1005
A374
1005
A373
1005
A33C
1071
       22
1070
     0
1070
     1
1071
        3
1040
22.7389999999773
1040
3.670999999996297
1040
23.56599999997638
1040
5.5200999999945
1040
24.39299999997559
1040
3.670999999996297
1071
        3
1005
A355
1005
A35A
1005
A356
1070
     0
1070
     1
1040
0.0
1040
0.15
1070
     0
1070
     2
1040
0.7853981633974483
1040
49.29960901727088
1040
-10.17736998311392
1040
-0.3367596045400932
1040
0.3367596045400932
1070
     0
1040
2.356194490192345
1040
49.29960901727088
1040
-10.17736998311392
1040
-0.3367596045400932
1040
-0.3367596045400932
1070
     0
1040
0.0110235143455945
1071
        2
1040
21.97929957367762
1040
3.294304244259308
1040
0.0
1040
21.97929957367762
1040
3.294304244259308
1040
0.0
1002
}
  0
INSERT
  5
A379
330
A333
100
AcDbEntity
  8
0
100
AcDbBlockReference
  2
*X178
 10
0.0
 20
0.0
 30
0.0
1001
ACAD
1000
HATCH
1002
{
1070
    19
1000
ANSI37
1040
0.15
1040
0.0
1000
R14_HATCH_DATA
1000
A379
1011
1.0
1021
0.0
1031
0.0
1011
0.0
1021
1.0
1031
0.0
1011
0.0
1021
0.0
1031
1.0
1040
0.0
1010
0.0
1020
0.0
1030
1.0
1000
ANSI37
1070
     0
1070
     1
1071
        1
1071
        7
1070
     1
1070
     1
1071
       12
1040
31.64199999996833
1040
2.481619422925121
1040
0.2679491924310942
1040
32.94699999997067
1040
0.2212931190493919
1040
0.2679491924301353
1040
36.36699999995983
1040
0.2212931190459813
1040
0.2679491924321411
1040
37.67199999996831
1040
2.481619422928361
1040
0.0
1040
37.67199999996831
1040
8.763099999991255
1040
0.0
1040
36.23199999996837
1040
8.763099999991255
1040
0.0
1040
36.23199999996837
1040
2.481619422925064
1040
-0.2679491924310291
1040
35.64699999996708
1040
1.468369700498386
1040
-0.267949192430519
1040
33.66699999997093
1040
1.468369700497703
1040
-0.267949192431809
1040
33.08199999996839
1040
2.481619422926997
1040
0.0
1040
33.08199999996839
1040
8.763099999991255
1040
0.0
1040
31.64199999996833
1040
8.763099999991255
1040
0.0
1071
        0
1070
     0
1070
     1
1040
0.0
1040
0.15
1070
     0
1070
     2
1040
0.7853981633974483
1040
49.29960901727088
1040
-10.17736998311392
1040
-0.3367596045400932
1040
0.3367596045400932
1070
     0
1040
2.356194490192345
1040
49.29960901727088
1040
-10.17736998311392
1040
-0.3367596045400932
1040
-0.3367596045400932
1070
     0
1040
0.0110235143455945
1071
        1
1040
32.30357378967278
1040
3.988785755459219
1040
0.0
1002
}
  0
INSERT
  5
A37A
330
A333
100
AcDbEntity
  8
0
100
AcDbBlockReference
  2
*X179
 10
0.0
 20
0.0
 30
0.0
1001
ACAD
1000
HATCH
1002
{
1070
    19
1000
ANSI37
1040
0.15
1040
0.0
1000
ASC_BOUNDS
1070
     1
1070
     2
1070
     8
1005
A35B
1005
A35E
1005
A362
1005
A361
1005
A360
1005
A35D
1005
A35F
1005
A35C
1000
ASC_SEEDPOINT
1011
39.74896370716704
1021
4.484843821435049
1031
0.0
1000
R14_HATCH_DATA
1000
A37A
1011
1.0
1021
0.0
1031
0.0
1011
0.0
1021
1.0
1031
0.0
1011
0.0
1021
0.0
1031
1.0
1040
0.0
1010
0.0
1020
0.0
1030
1.0
1000
ANSI37
1070
     0
1070
     1
1071
        1
1071
        7
1070
     0
1070
     1
1071
        9
1040
40.02599999995994
1040
5.341799999994635
1040
44.99999999995498
1040
-0.2368999999997641
1040
44.99999999995498
1040
8.763099999991255
1040
43.57899999995641
1040
8.763099999991255
1040
43.57899999995641
1040
3.421199999996588
1040
38.60499999996136
1040
8.999899999990987
1040
38.60499999996136
1040
8.999999999991019
1040
38.60499999996136
1040
0.0
1040
40.02599999995994
1040
0.0
1071
        8
1005
A35B
1005
A35E
1005
A362
1005
A361
1005
A360
1005
A35D
1005
A35F
1005
A35C
1070
     0
1070
     1
1040
0.0
1040
0.15
1070
     0
1070
     2
1040
0.7853981633974483
1040
49.29960901727088
1040
-10.17736998311392
1040
-0.3367596045400932
1040
0.3367596045400932
1070
     0
1040
2.356194490192345
1040
49.29960901727088
1040
-10.17736998311392
1040
-0.3367596045400932
1040
-0.3367596045400932
1070
     0
1040
0.0110235143455945
1071
        1
1040
39.74896370716704
1040
4.484843821435049
1040
0.0
1002
}
  0
INSERT
  5
A37B
330
A333
100
AcDbEntity
  8
0
100
AcDbBlockReference
  2
*X180
 10
0.0
 20
0.0
 30
0.0
1001
ACAD
1000
HATCH
1002
{
1070
    19
1000
ANSI37
1040
0.15
1040
0.0
1000
ASC_BOUNDS
1070
     1
1070
     2
1070
     4
1005
A33F
1005
A34E
1005
A340
1005
A342
1000
ASC_SEEDPOINT
1011
1.079051535452663
1021
4.148538732891836
1031
0.0
1000
R14_HATCH_DATA
1000
A37B
1011
1.0
1021
0.0
1031
0.0
1011
0.0
1021
1.0
1031
0.0
1011
0.0
1021
0.0
1031
1.0
1040
0.0
1010
0.0
1020
0.0
1030
1.0
1000
ANSI37
1070
     0
1070
     1
1071
        1
1071
        7
1070
     0
1070
     1
1071
        4
1040
1.420999999998571
1040
0.0
1040
1.420999999998571
1040
8.763099999991255
1040
0.0
1040
8.763099999991255
1040
0.0
1040
0.0
1071
        4
1005
A33F
1005
A34E
1005
A340
1005
A342
1070
     0
1070
     1
1040
0.0
1040
0.15
1070
     0
1070
     2
1040
0.7853981633974483
1040
49.29960901727088
1040
-10.17736998311392
1040
-0.3367596045400932
1040
0.3367596045400932
1070
     0
1040
2.356194490192345
1040
49.29960901727088
1040
-10.17736998311392
1040
-0.3367596045400932
1040
-0.3367596045400932
1070
     0
1040
0.0053004257112761
1071
        1
1040
1.079051535452663
1040
4.148538732891836
1040
0.0
1002
}
  0
ENDBLK
  5
AA57
330
A333
100
AcDbEntity
  8
0
100
AcDbBlockEnd
  0
BLOCK
  5
E597
330
E409
100
AcDbEntity
  8
0
100
AcDbBlockBegin
  2
*X175
 70
     1
 10
0.0
 20
0.0
 30
0.0
  3
*X175
  1

  0
LINE
  5
E40A
330
E409
100
AcDbEntity
  8
0
  6
CONTINUOUS
100
AcDbLine
 10
3.418023043697893
 20
7.251849696850613
 30
0.0
 11
4.929273346838536
 21
8.763099999991255
 31
0.0
  0
LINE
  5
E40B
330
E409
100
AcDbEntity
  8
0
  6
CONTINUOUS
100
AcDbLine
 10
1.483656411257782
 20
4.643963855330318
 30
0.0
 11
5.60279255591872
 21
8.763099999991255
 31
0.0
  0
LINE
  5
E40C
330
E409
100
AcDbEntity
  8
0
  6
CONTINUOUS
100
AcDbLine
 10
1.755053947328235
 20
4.241842182320584
 30
0.0
 11
6.276311764998907
 21
8.763099999991255
 31
0.0
  0
LINE
  5
E40D
330
E409
100
AcDbEntity
  8
0
  6
CONTINUOUS
100
AcDbLine
 10
2.026451483398688
 20
3.839720509310849
 30
0.0
 11
4.441040904851878
 21
6.254309930764039
 31
0.0
  0
LINE
  5
E40E
330
E409
100
AcDbEntity
  8
0
  6
CONTINUOUS
100
AcDbLine
 10
2.297849019469139
 20
3.437598836301114
 30
0.0
 11
3.321765168359338
 21
4.461514985191313
 31
0.0
  0
LINE
  5
E40F
330
E409
100
AcDbEntity
  8
0
  6
CONTINUOUS
100
AcDbLine
 10
2.569246555539591
 20
3.03547716329138
 30
0.0
 11
3.593163397972743
 21
4.059394005724531
 31
0.0
  0
LINE
  5
E410
330
E409
100
AcDbEntity
  8
0
  6
CONTINUOUS
100
AcDbLine
 10
2.840644091610043
 20
2.633355490281646
 30
0.0
 11
3.864561627586149
 21
3.657273026257751
 31
0.0
  0
LINE
  5
E411
330
E409
100
AcDbEntity
  8
0
  6
CONTINUOUS
100
AcDbLine
 10
3.112041627680496
 20
2.231233817271911
 30
0.0
 11
4.135959857199554
 21
3.25515204679097
 31
0.0
  0
LINE
  5
E412
330
E409
100
AcDbEntity
  8
0
  6
CONTINUOUS
100
AcDbLine
 10
3.383439163750948
 20
1.829112144262177
 30
0.0
 11
4.40735808681296
 21
2.853031067324189
 31
0.0
  0
LINE
  5
E413
330
E409
100
AcDbEntity
  8
0
  6
CONTINUOUS
100
AcDbLine
 10
3.654836699821399
 20
1.426990471252442
 30
0.0
 11
4.678756316426365
 21
2.450910087857407
 31
0.0
  0
LINE
  5
E414
330
E409
100
AcDbEntity
  8
0
  6
CONTINUOUS
100
AcDbLine
 10
3.926234235891853
 20
1.024868798242709
 30
0.0
 11
4.95015454603977
 21
2.048789108390626
 31
0.0
  0
LINE
  5
E415
330
E409
100
AcDbEntity
  8
0
  6
CONTINUOUS
100
AcDbLine
 10
4.197631771962304
 20
0.6227471252329737
 30
0.0
 11
5.221552775653176
 21
1.646668128923846
 31
0.0
  0
LINE
  5
E416
330
E409
100
AcDbEntity
  8
0
  6
CONTINUOUS
100
AcDbLine
 10
8.715877546767851
 20
7.835069736359266
 30
0.0
 11
9.435953450375058
 21
8.555145639966472
 31
0.0
  0
LINE
  5
E417
330
E409
100
AcDbEntity
  8
0
  6
CONTINUOUS
100
AcDbLine
 10
8.170620868422267
 20
6.616293848933497
 30
0.0
 11
9.644120833743461
 21
8.08979381425469
 31
0.0
  0
LINE
  5
E418
330
E409
100
AcDbEntity
  8
0
  6
CONTINUOUS
100
AcDbLine
 10
7.625364190076684
 20
5.397517961507727
 30
0.0
 11
9.852288217111864
 21
7.624441988542907
 31
0.0
  0
LINE
  5
E419
330
E409
100
AcDbEntity
  8
0
  6
CONTINUOUS
100
AcDbLine
 10
7.080107511731101
 20
4.178742074081957
 30
0.0
 11
10.06045560048027
 21
7.159090162831124
 31
0.0
  0
LINE
  5
E41A
330
E409
100
AcDbEntity
  8
0
  6
CONTINUOUS
100
AcDbLine
 10
6.534850833385518
 20
2.959966186656187
 30
0.0
 11
10.26862298384867
 21
6.693738337119342
 31
0.0
  0
LINE
  5
E41B
330
E409
100
AcDbEntity
  8
0
  6
CONTINUOUS
100
AcDbLine
 10
4.469029308032756
 20
0.2206254522232385
 30
0.0
 11
5.492951005266582
 21
1.244547149457064
 31
0.0
  0
LINE
  5
E41C
330
E409
100
AcDbEntity
  8
0
  6
CONTINUOUS
100
AcDbLine
 10
5.989594155039935
 20
1.741190299230417
 30
0.0
 11
8.806950407233131
 21
4.558546551423613
 31
0.0
  0
LINE
  5
E41D
330
E409
100
AcDbEntity
  8
0
  6
CONTINUOUS
100
AcDbLine
 10
9.401251593263643
 20
5.152847737454126
 30
0.0
 11
10.47679036721708
 21
6.228386511407559
 31
0.0
  0
LINE
  5
E41E
330
E409
100
AcDbEntity
  8
0
  6
CONTINUOUS
100
AcDbLine
 10
4.921837203428691
 20
-0.0000858614610131
 30
0.0
 11
8.592923064886001
 21
3.670999999996297
 31
0.0
  0
LINE
  5
E41F
330
E409
100
AcDbEntity
  8
0
  6
CONTINUOUS
100
AcDbLine
 10
9.609390446785305
 20
4.6874673818956
 30
0.0
 11
10.68495775058548
 21
5.763034685695775
 31
0.0
  0
LINE
  5
E420
330
E409
100
AcDbEntity
  8
0
  6
CONTINUOUS
100
AcDbLine
 10
5.595387755019432
 20
-0.0000545189504582
 30
0.0
 11
7.716137258923768
 21
2.120694984953879
 31
0.0
  0
LINE
  5
E421
330
E409
100
AcDbEntity
  8
0
  6
CONTINUOUS
100
AcDbLine
 10
6.268938306610172
 20
-0.000023176439905
 30
0.0
 11
7.170485805526503
 21
0.9015243224764267
 31
0.0
  0
LINE
  5
E422
330
E409
100
AcDbEntity
  8
0
  6
CONTINUOUS
100
AcDbLine
 10
7.963842273967511
 20
2.368399999997621
 30
0.0
 11
9.266442273966188
 21
3.670999999996297
 31
0.0
  0
LINE
  5
E423
330
E409
100
AcDbEntity
  8
0
  6
CONTINUOUS
100
AcDbLine
 10
8.637361483047696
 20
2.368399999997621
 30
0.0
 11
9.939961483046375
 21
3.670999999996297
 31
0.0
  0
LINE
  5
E424
330
E409
100
AcDbEntity
  8
0
  6
CONTINUOUS
100
AcDbLine
 10
9.817529300306965
 20
4.222087026337075
 30
0.0
 11
10.89312513395388
 21
5.297682859983993
 31
0.0
  0
LINE
  5
E425
330
E409
100
AcDbEntity
  8
0
  6
CONTINUOUS
100
AcDbLine
 10
10.02566815382863
 20
3.756706670778549
 30
0.0
 11
11.10129251732229
 21
4.832331034272211
 31
0.0
  0
LINE
  5
E426
330
E409
100
AcDbEntity
  8
0
  6
CONTINUOUS
100
AcDbLine
 10
9.310880692127883
 20
2.368399999997621
 30
0.0
 11
11.30945990069069
 21
4.366979208560428
 31
0.0
  0
LINE
  5
E427
330
E409
100
AcDbEntity
  8
0
  6
CONTINUOUS
100
AcDbLine
 10
9.98439990120807
 20
2.36839999999762
 30
0.0
 11
11.5176272840591
 21
3.901627382848645
 31
0.0
  0
LINE
  5
E428
330
E409
100
AcDbEntity
  8
0
  6
CONTINUOUS
100
AcDbLine
 10
10.65037369446246
 20
2.36085458417182
 30
0.0
 11
11.7257946674275
 21
3.436275557136862
 31
0.0
  0
LINE
  5
E429
330
E409
100
AcDbEntity
  8
0
  6
CONTINUOUS
100
AcDbLine
 10
10.85847197087848
 20
1.895433651507656
 30
0.0
 11
11.9339620507959
 21
2.97092373142508
 31
0.0
  0
LINE
  5
E42A
330
E409
100
AcDbEntity
  8
0
  6
CONTINUOUS
100
AcDbLine
 10
11.0665702472945
 20
1.430012718843491
 30
0.0
 11
12.14212943416431
 21
2.505571905713296
 31
0.0
  0
LINE
  5
E42B
330
E409
100
AcDbEntity
  8
0
  6
CONTINUOUS
100
AcDbLine
 10
11.27466852371052
 20
0.9645917861793256
 30
0.0
 11
12.35029681753271
 21
2.040220080001513
 31
0.0
  0
LINE
  5
E42C
330
E409
100
AcDbEntity
  8
0
  6
CONTINUOUS
100
AcDbLine
 10
11.48276680012654
 20
0.4991708535151611
 30
0.0
 11
12.55846420090111
 21
1.57486825428973
 31
0.0
  0
LINE
  5
E42D
330
E409
100
AcDbEntity
  8
0
  6
CONTINUOUS
100
AcDbLine
 10
11.69086507654257
 20
0.0337499208509957
 30
0.0
 11
12.76663158426952
 21
1.109516428577947
 31
0.0
  0
LINE
  5
E42E
330
E409
100
AcDbEntity
  8
0
  6
CONTINUOUS
100
AcDbLine
 10
12.33057447873954
 20
-0.0000598860322123
 30
0.0
 11
12.97479896763792
 21
0.6441646028661663
 31
0.0
  0
LINE
  5
E42F
330
E409
100
AcDbEntity
  8
0
  6
CONTINUOUS
100
AcDbLine
 10
13.00413694809395
 20
-0.0000166257579952
 30
0.0
 11
13.18296635100632
 21
0.1788127771543824
 31
0.0
  0
LINE
  5
E430
330
E409
100
AcDbEntity
  8
0
  6
CONTINUOUS
100
AcDbLine
 10
4.772852165289667
 20
-0.000092794222212
 30
0.0
 11
4.296495091028902
 21
0.4762642800385528
 31
0.0
  0
LINE
  5
E431
330
E409
100
AcDbEntity
  8
0
  6
CONTINUOUS
100
AcDbLine
 10
5.446340034776103
 20
-0.0000614546284616
 30
0.0
 11
2.898195908335625
 21
2.548082671812017
 31
0.0
  0
LINE
  5
E432
330
E409
100
AcDbEntity
  8
0
  6
CONTINUOUS
100
AcDbLine
 10
6.119827904262539
 20
-0.0000301150347113
 30
0.0
 11
1.499896725642348
 21
4.61990106358548
 31
0.0
  0
LINE
  5
E433
330
E409
100
AcDbEntity
  8
0
  6
CONTINUOUS
100
AcDbLine
 10
6.775136745476159
 20
0.0181802528318542
 30
0.0
 11
5.699826040202669
 21
1.093490958105344
 31
0.0
  0
LINE
  5
E434
330
E409
100
AcDbEntity
  8
0
  6
CONTINUOUS
100
AcDbLine
 10
6.983376846288489
 20
0.4834593610997118
 30
0.0
 11
5.908008617934405
 21
1.558827589453796
 31
0.0
  0
LINE
  5
E435
330
E409
100
AcDbEntity
  8
0
  6
CONTINUOUS
100
AcDbLine
 10
5.377063484962296
 20
1.416253513345719
 30
0.0
 11
1.702276957014131
 21
5.091040041293883
 31
0.0
  0
LINE
  5
E436
330
E409
100
AcDbEntity
  8
0
  6
CONTINUOUS
100
AcDbLine
 10
3.978745891735324
 20
3.488090315652877
 30
0.0
 11
2.000373521109399
 21
5.466462686278803
 31
0.0
  0
LINE
  5
E437
330
E409
100
AcDbEntity
  8
0
  6
CONTINUOUS
100
AcDbLine
 10
7.191616947100819
 20
0.948738469367568
 30
0.0
 11
6.11619119566614
 21
2.024164220802247
 31
0.0
  0
LINE
  5
E438
330
E409
100
AcDbEntity
  8
0
  6
CONTINUOUS
100
AcDbLine
 10
7.399857047913149
 20
1.414017577635424
 30
0.0
 11
6.324373773397875
 21
2.489500852150698
 31
0.0
  0
LINE
  5
E439
330
E409
100
AcDbEntity
  8
0
  6
CONTINUOUS
100
AcDbLine
 10
7.608097148725479
 20
1.879296685903281
 30
0.0
 11
6.53255635112961
 21
2.95483748349915
 31
0.0
  0
LINE
  5
E43A
330
E409
100
AcDbEntity
  8
0
  6
CONTINUOUS
100
AcDbLine
 10
7.816337249537808
 20
2.344575794171138
 30
0.0
 11
6.740738928861345
 21
3.420174114847601
 31
0.0
  0
LINE
  5
E43B
330
E409
100
AcDbEntity
  8
0
  6
CONTINUOUS
100
AcDbLine
 10
3.310241080789734
 20
4.830114335678653
 30
0.0
 11
2.298470085204666
 21
5.84188533126372
 31
0.0
  0
LINE
  5
E43C
330
E409
100
AcDbEntity
  8
0
  6
CONTINUOUS
100
AcDbLine
 10
3.60832983563551
 20
5.205544789913063
 30
0.0
 11
2.596566649299935
 21
6.217307976248638
 31
0.0
  0
LINE
  5
E43D
330
E409
100
AcDbEntity
  8
0
  6
CONTINUOUS
100
AcDbLine
 10
3.906418590481286
 20
5.580975244147473
 30
0.0
 11
2.894663213395203
 21
6.592730621233557
 31
0.0
  0
LINE
  5
E43E
330
E409
100
AcDbEntity
  8
0
  6
CONTINUOUS
100
AcDbLine
 10
4.204507345327062
 20
5.956405698381884
 30
0.0
 11
3.192759777490472
 21
6.968153266218474
 31
0.0
  0
LINE
  5
E43F
330
E409
100
AcDbEntity
  8
0
  6
CONTINUOUS
100
AcDbLine
 10
8.466032252791512
 20
2.368399999997621
 30
0.0
 11
6.948921506593081
 21
3.885510746196053
 31
0.0
  0
LINE
  5
E440
330
E409
100
AcDbEntity
  8
0
  6
CONTINUOUS
100
AcDbLine
 10
9.139551461871699
 20
2.36839999999762
 30
0.0
 11
7.157104084324816
 21
4.350847377544504
 31
0.0
  0
LINE
  5
E441
330
E409
100
AcDbEntity
  8
0
  6
CONTINUOUS
100
AcDbLine
 10
4.502596100172839
 20
6.331836152616295
 30
0.0
 11
3.49085634158574
 21
7.343575911203393
 31
0.0
  0
LINE
  5
E442
330
E409
100
AcDbEntity
  8
0
  6
CONTINUOUS
100
AcDbLine
 10
4.800684855018615
 20
6.707266606850705
 30
0.0
 11
3.788952905681008
 21
7.718998556188312
 31
0.0
  0
LINE
  5
E443
330
E409
100
AcDbEntity
  8
0
  6
CONTINUOUS
100
AcDbLine
 10
12.18154012887317
 20
-0.0000694579236642
 30
0.0
 11
11.32140332908496
 21
0.8600673418645499
 31
0.0
  0
LINE
  5
E444
330
E409
100
AcDbEntity
  8
0
  6
CONTINUOUS
100
AcDbLine
 10
12.85501608323566
 20
-0.0000262032059659
 30
0.0
 11
10.77672456435345
 21
2.078265315676246
 31
0.0
  0
LINE
  5
E445
330
E409
100
AcDbEntity
  8
0
  6
CONTINUOUS
100
AcDbLine
 10
9.813070670951886
 20
2.36839999999762
 30
0.0
 11
8.51047067095321
 21
3.670999999996297
 31
0.0
  0
LINE
  5
E446
330
E409
100
AcDbEntity
  8
0
  6
CONTINUOUS
100
AcDbLine
 10
10.48658988003207
 20
2.36839999999762
 30
0.0
 11
9.183989880033396
 21
3.670999999996297
 31
0.0
  0
LINE
  5
E447
330
E409
100
AcDbEntity
  8
0
  6
CONTINUOUS
100
AcDbLine
 10
8.441048632286794
 20
3.740422038662712
 30
0.0
 11
7.365286662056551
 21
4.816184008892956
 31
0.0
  0
LINE
  5
E448
330
E409
100
AcDbEntity
  8
0
  6
CONTINUOUS
100
AcDbLine
 10
8.649187485808454
 20
4.205802394221237
 30
0.0
 11
7.573469239788285
 21
5.281520640241407
 31
0.0
  0
LINE
  5
E449
330
E409
100
AcDbEntity
  8
0
  6
CONTINUOUS
100
AcDbLine
 10
5.098773609864391
 20
7.082697061085115
 30
0.0
 11
4.087049469776277
 21
8.09442120117323
 31
0.0
  0
LINE
  5
E44A
330
E409
100
AcDbEntity
  8
0
  6
CONTINUOUS
100
AcDbLine
 10
5.396862364710167
 20
7.458127515319526
 30
0.0
 11
4.385146033871544
 21
8.469843846158149
 31
0.0
  0
LINE
  5
E44B
330
E409
100
AcDbEntity
  8
0
  6
CONTINUOUS
100
AcDbLine
 10
13.04801363231285
 20
0.4804954567970334
 30
0.0
 11
9.85750908911358
 21
3.670999999996297
 31
0.0
  0
LINE
  5
E44C
330
E409
100
AcDbEntity
  8
0
  6
CONTINUOUS
100
AcDbLine
 10
8.857326339330116
 20
4.671182749779763
 30
0.0
 11
7.781651817520021
 21
5.746857271589858
 31
0.0
  0
LINE
  5
E44D
330
E409
100
AcDbEntity
  8
0
  6
CONTINUOUS
100
AcDbLine
 10
5.694951119555943
 20
7.833557969553937
 30
0.0
 11
4.765409089118624
 21
8.763099999991255
 31
0.0
  0
LINE
  5
E44E
330
E409
100
AcDbEntity
  8
0
  6
CONTINUOUS
100
AcDbLine
 10
12.50286117236978
 20
1.699167125820288
 30
0.0
 11
9.68611877250287
 21
4.515909525687196
 31
0.0
  0
LINE
  5
E44F
330
E409
100
AcDbEntity
  8
0
  6
CONTINUOUS
100
AcDbLine
 10
9.065465192851777
 20
5.136563105338288
 30
0.0
 11
7.989834395251757
 21
6.21219390293831
 31
0.0
  0
LINE
  5
E450
330
E409
100
AcDbEntity
  8
0
  6
CONTINUOUS
100
AcDbLine
 10
5.993039874401719
 20
8.208988423788346
 30
0.0
 11
5.43892829819881
 21
8.763099999991255
 31
0.0
  0
LINE
  5
E451
330
E409
100
AcDbEntity
  8
0
  6
CONTINUOUS
100
AcDbLine
 10
11.95770871242671
 20
2.917838794843543
 30
0.0
 11
8.19801697298349
 21
6.677530534286761
 31
0.0
  0
LINE
  5
E452
330
E409
100
AcDbEntity
  8
0
  6
CONTINUOUS
100
AcDbLine
 10
6.291128629247495
 20
8.584418878022756
 30
0.0
 11
6.112447507278997
 21
8.763099999991255
 31
0.0
  0
LINE
  5
E453
330
E409
100
AcDbEntity
  8
0
  6
CONTINUOUS
100
AcDbLine
 10
11.41255625248364
 20
4.136510463866797
 30
0.0
 11
8.406199550715227
 21
7.142867165635211
 31
0.0
  0
LINE
  5
E454
330
E409
100
AcDbEntity
  8
0
  6
CONTINUOUS
100
AcDbLine
 10
10.86740379254057
 20
5.355182132890051
 30
0.0
 11
8.614382128446962
 21
7.608203796983664
 31
0.0
  0
LINE
  5
E455
330
E409
100
AcDbEntity
  8
0
  6
CONTINUOUS
100
AcDbLine
 10
10.3222513325975
 20
6.573853801913305
 30
0.0
 11
8.822564706178696
 21
8.073540428332114
 31
0.0
  0
LINE
  5
E456
330
E409
100
AcDbEntity
  8
0
  6
CONTINUOUS
100
AcDbLine
 10
9.777098872654436
 20
7.792525470936562
 30
0.0
 11
9.030747283910433
 21
8.538877059680566
 31
0.0
  0
ENDBLK
  5
E598
330
E409
100
AcDbEntity
  8
0
100
AcDbBlockEnd
  0
BLOCK
  5
E599
330
E457
100
AcDbEntity
  8
0
100
AcDbBlockBegin
  2
*X176
 70
     1
 10
0.0
 20
0.0
 30
0.0
  3
*X176
  1

  0
LINE
  5
E458
330
E457
100
AcDbEntity
  8
0
  6
CONTINUOUS
100
AcDbLine
 10
10.67292308101235
 20
8.445076852443387
 30
0.0
 11
10.99094622856022
 21
8.763099999991255
 31
0.0
  0
LINE
  5
E459
330
E457
100
AcDbEntity
  8
0
  6
CONTINUOUS
100
AcDbLine
 10
10.87250383178748
 20
7.971138394138331
 30
0.0
 11
11.6644654376404
 21
8.763099999991255
 31
0.0
  0
LINE
  5
E45A
330
E457
100
AcDbEntity
  8
0
  6
CONTINUOUS
100
AcDbLine
 10
11.07208458256261
 20
7.497199935833273
 30
0.0
 11
12.12126590876355
 21
8.546381262034211
 31
0.0
  0
LINE
  5
E45B
330
E457
100
AcDbEntity
  8
0
  6
CONTINUOUS
100
AcDbLine
 10
11.27166533333774
 20
7.023261477528216
 30
0.0
 11
12.32085164573666
 21
8.072447789927136
 31
0.0
  0
LINE
  5
E45C
330
E457
100
AcDbEntity
  8
0
  6
CONTINUOUS
100
AcDbLine
 10
11.47124608411287
 20
6.549323019223158
 30
0.0
 11
12.52043738270977
 21
7.59851431782006
 31
0.0
  0
LINE
  5
E45D
330
E457
100
AcDbEntity
  8
0
  6
CONTINUOUS
100
AcDbLine
 10
11.670826834888
 20
6.075384560918101
 30
0.0
 11
12.72002311968288
 21
7.124580845712984
 31
0.0
  0
LINE
  5
E45E
330
E457
100
AcDbEntity
  8
0
  6
CONTINUOUS
100
AcDbLine
 10
11.87040758566313
 20
5.601446102613043
 30
0.0
 11
12.91960885665599
 21
6.650647373605907
 31
0.0
  0
LINE
  5
E45F
330
E457
100
AcDbEntity
  8
0
  6
CONTINUOUS
100
AcDbLine
 10
12.06998833643825
 20
5.127507644307986
 30
0.0
 11
13.1191945936291
 21
6.176713901498832
 31
0.0
  0
LINE
  5
E460
330
E457
100
AcDbEntity
  8
0
  6
CONTINUOUS
100
AcDbLine
 10
12.26956908721338
 20
4.65356918600293
 30
0.0
 11
13.31878033060221
 21
5.702780429391757
 31
0.0
  0
LINE
  5
E461
330
E457
100
AcDbEntity
  8
0
  6
CONTINUOUS
100
AcDbLine
 10
12.46914983798851
 20
4.179630727697873
 30
0.0
 11
13.51836606757532
 21
5.228846957284683
 31
0.0
  0
LINE
  5
E462
330
E457
100
AcDbEntity
  8
0
  6
CONTINUOUS
100
AcDbLine
 10
12.66873058876364
 20
3.705692269392816
 30
0.0
 11
13.71795180454843
 21
4.754913485177607
 31
0.0
  0
LINE
  5
E463
330
E457
100
AcDbEntity
  8
0
  6
CONTINUOUS
100
AcDbLine
 10
12.86831133953877
 20
3.231753811087759
 30
0.0
 11
13.91753754152154
 21
4.280980013070531
 31
0.0
  0
LINE
  5
E464
330
E457
100
AcDbEntity
  8
0
  6
CONTINUOUS
100
AcDbLine
 10
13.0678920903139
 20
2.757815352782702
 30
0.0
 11
14.11712327849465
 21
3.807046540963456
 31
0.0
  0
LINE
  5
E465
330
E457
100
AcDbEntity
  8
0
  6
CONTINUOUS
100
AcDbLine
 10
13.26747284108903
 20
2.283876894477644
 30
0.0
 11
14.31670901546777
 21
3.333113068856379
 31
0.0
  0
LINE
  5
E466
330
E457
100
AcDbEntity
  8
0
  6
CONTINUOUS
100
AcDbLine
 10
16.36767838827179
 20
8.751678487061342
 30
0.0
 11
16.50332410898388
 21
8.887324207773432
 31
0.0
  0
LINE
  5
E467
330
E457
100
AcDbEntity
  8
0
  6
CONTINUOUS
100
AcDbLine
 10
15.96190732182191
 20
7.67238821153127
 30
0.0
 11
16.68735328004734
 21
8.397834169756699
 31
0.0
  0
LINE
  5
E468
330
E457
100
AcDbEntity
  8
0
  6
CONTINUOUS
100
AcDbLine
 10
15.55613625537202
 20
6.593097936001196
 30
0.0
 11
16.87138245111079
 21
7.908344131739965
 31
0.0
  0
LINE
  5
E469
330
E457
100
AcDbEntity
  8
0
  6
CONTINUOUS
100
AcDbLine
 10
15.15036518892213
 20
5.513807660471122
 30
0.0
 11
17.05541162217424
 21
7.418854093723231
 31
0.0
  0
LINE
  5
E46A
330
E457
100
AcDbEntity
  8
0
  6
CONTINUOUS
100
AcDbLine
 10
14.74459412247225
 20
4.434517384941048
 30
0.0
 11
17.2394407932377
 21
6.929364055706499
 31
0.0
  0
LINE
  5
E46B
330
E457
100
AcDbEntity
  8
0
  6
CONTINUOUS
100
AcDbLine
 10
14.33882305602236
 20
3.355227109410975
 30
0.0
 11
17.42346996430115
 21
6.439874017689766
 31
0.0
  0
LINE
  5
E46C
330
E457
100
AcDbEntity
  8
0
  6
CONTINUOUS
100
AcDbLine
 10
13.46705359186416
 20
1.809938436172586
 30
0.0
 11
16.0819338255367
 21
4.424818669845129
 31
0.0
  0
LINE
  5
E46D
330
E457
100
AcDbEntity
  8
0
  6
CONTINUOUS
100
AcDbLine
 10
16.63283254238972
 20
4.975717386698149
 30
0.0
 11
17.60749913536461
 21
5.950383979673033
 31
0.0
  0
LINE
  5
E46E
330
E457
100
AcDbEntity
  8
0
  6
CONTINUOUS
100
AcDbLine
 10
13.66663434263929
 20
1.335999977867529
 30
0.0
 11
15.67604797733754
 21
3.345413612565779
 31
0.0
  0
LINE
  5
E46F
330
E457
100
AcDbEntity
  8
0
  6
CONTINUOUS
100
AcDbLine
 10
13.86621509341442
 20
0.8620615195624723
 30
0.0
 11
15.27016212913838
 21
2.26600855528643
 31
0.0
  0
LINE
  5
E470
330
E457
100
AcDbEntity
  8
0
  6
CONTINUOUS
100
AcDbLine
 10
16.81682257348267
 20
4.486188208710908
 30
0.0
 11
17.79152830642806
 21
5.460893941656299
 31
0.0
  0
LINE
  5
E471
330
E457
100
AcDbEntity
  8
0
  6
CONTINUOUS
100
AcDbLine
 10
17.00081260457561
 20
3.996659030723667
 30
0.0
 11
17.97555747749151
 21
4.971403903639565
 31
0.0
  0
LINE
  5
E472
330
E457
100
AcDbEntity
  8
0
  6
CONTINUOUS
100
AcDbLine
 10
20.74362343514722
 20
8.412989070375462
 30
0.0
 11
21.09373436476302
 21
8.763099999991256
 31
0.0
  0
LINE
  5
E473
330
E457
100
AcDbEntity
  8
0
  6
CONTINUOUS
100
AcDbLine
 10
20.25401257174777
 20
7.249858997895826
 30
0.0
 11
21.7672535738432
 21
8.763099999991255
 31
0.0
  0
LINE
  5
E474
330
E457
100
AcDbEntity
  8
0
  6
CONTINUOUS
100
AcDbLine
 10
14.06579584418955
 20
0.3881230612574149
 30
0.0
 11
14.86427628093921
 21
1.186603498007082
 31
0.0
  0
LINE
  5
E475
330
E457
100
AcDbEntity
  8
0
  6
CONTINUOUS
100
AcDbLine
 10
14.26537659496467
 20
-0.0858153970476412
 30
0.0
 11
14.45839043274005
 21
0.1071984407277329
 31
0.0
  0
LINE
  5
E476
330
E457
100
AcDbEntity
  8
0
  6
CONTINUOUS
100
AcDbLine
 10
17.18480263566856
 20
3.507129852736426
 30
0.0
 11
18.15958664855496
 21
4.481913865622833
 31
0.0
  0
LINE
  5
E477
330
E457
100
AcDbEntity
  8
0
  6
CONTINUOUS
100
AcDbLine
 10
17.3687926667615
 20
3.017600674749186
 30
0.0
 11
18.34361581961842
 21
3.9924238276061
 31
0.0
  0
LINE
  5
E478
330
E457
100
AcDbEntity
  8
0
  6
CONTINUOUS
100
AcDbLine
 10
19.76440170834832
 20
6.086728925416191
 30
0.0
 11
22.33924590259489
 21
8.661573119662755
 31
0.0
  0
LINE
  5
E479
330
E457
100
AcDbEntity
  8
0
  6
CONTINUOUS
100
AcDbLine
 10
19.27479084494887
 20
4.923598852936555
 30
0.0
 11
21.84929622842713
 21
7.498104236414807
 31
0.0
  0
LINE
  5
E47A
330
E457
100
AcDbEntity
  8
0
  6
CONTINUOUS
100
AcDbLine
 10
17.55278269785445
 20
2.528071496761945
 30
0.0
 11
18.52764499068187
 21
3.502933789589366
 31
0.0
  0
LINE
  5
E47B
330
E457
100
AcDbEntity
  8
0
  6
CONTINUOUS
100
AcDbLine
 10
18.78517998154942
 20
3.760468780456919
 30
0.0
 11
21.35934655425936
 21
6.33463535316686
 31
0.0
  0
LINE
  5
E47C
330
E457
100
AcDbEntity
  8
0
  6
CONTINUOUS
100
AcDbLine
 10
17.73677272894739
 20
2.038542318774704
 30
0.0
 11
20.8693968800916
 21
5.171166469918914
 31
0.0
  0
LINE
  5
E47D
330
E457
100
AcDbEntity
  8
0
  6
CONTINUOUS
100
AcDbLine
 10
17.92076276004034
 20
1.549013140787464
 30
0.0
 11
20.37944720592384
 21
4.007697586670968
 31
0.0
  0
LINE
  5
E47E
330
E457
100
AcDbEntity
  8
0
  6
CONTINUOUS
100
AcDbLine
 10
18.10475279113329
 20
1.059483962800223
 30
0.0
 11
19.88949753175608
 21
2.84422870342302
 31
0.0
  0
LINE
  5
E47F
330
E457
100
AcDbEntity
  8
0
  6
CONTINUOUS
100
AcDbLine
 10
18.28874282222623
 20
0.5699547848129822
 30
0.0
 11
19.39954785758832
 21
1.680759820175074
 31
0.0
  0
LINE
  5
E480
330
E457
100
AcDbEntity
  8
0
  6
CONTINUOUS
100
AcDbLine
 10
18.47273285331918
 20
0.0804256068257416
 30
0.0
 11
18.90959818342056
 21
0.517290936927127
 31
0.0
  0
LINE
  5
E481
330
E457
100
AcDbEntity
  8
0
  6
CONTINUOUS
100
AcDbLine
 10
14.3590401358224
 20
-0.1570118376323384
 30
0.0
 11
14.24903296539946
 21
-0.0470046672093929
 31
0.0
  0
LINE
  5
E482
330
E457
100
AcDbEntity
  8
0
  6
CONTINUOUS
100
AcDbLine
 10
14.54309291258661
 20
0.332454594683643
 30
0.0
 11
13.75908329123172
 21
1.116464216038529
 31
0.0
  0
LINE
  5
E483
330
E457
100
AcDbEntity
  8
0
  6
CONTINUOUS
100
AcDbLine
 10
14.72714568935081
 20
0.8219210269996244
 30
0.0
 11
13.26913361706399
 21
2.27993309928645
 31
0.0
  0
LINE
  5
E484
330
E457
100
AcDbEntity
  8
0
  6
CONTINUOUS
100
AcDbLine
 10
14.91119846611502
 20
1.311387459315606
 30
0.0
 11
12.77918394289625
 21
3.443401982534371
 31
0.0
  0
LINE
  5
E485
330
E457
100
AcDbEntity
  8
0
  6
CONTINUOUS
100
AcDbLine
 10
15.09525124287922
 20
1.800853891631587
 30
0.0
 11
12.28923426872852
 21
4.606870865782293
 31
0.0
  0
LINE
  5
E486
330
E457
100
AcDbEntity
  8
0
  6
CONTINUOUS
100
AcDbLine
 10
15.27930401964343
 20
2.290320323947569
 30
0.0
 11
11.79928459456078
 21
5.770339749030213
 31
0.0
  0
LINE
  5
E487
330
E457
100
AcDbEntity
  8
0
  6
CONTINUOUS
100
AcDbLine
 10
15.46335679640763
 20
2.77978675626355
 30
0.0
 11
14.48885470994921
 21
3.754288842721972
 31
0.0
  0
LINE
  5
E488
330
E457
100
AcDbEntity
  8
0
  6
CONTINUOUS
100
AcDbLine
 10
13.88507249233704
 20
4.358071060334137
 30
0.0
 11
11.30933492039305
 21
6.933808632278135
 31
0.0
  0
LINE
  5
E489
330
E457
100
AcDbEntity
  8
0
  6
CONTINUOUS
100
AcDbLine
 10
18.75840522805855
 20
0.1582575336928151
 30
0.0
 11
18.25383727664818
 21
0.6628254851031863
 31
0.0
  0
LINE
  5
E48A
330
E457
100
AcDbEntity
  8
0
  6
CONTINUOUS
100
AcDbLine
 10
15.64740957317184
 20
3.269253188579531
 30
0.0
 11
14.67288388101266
 21
4.243778880738705
 31
0.0
  0
LINE
  5
E48B
330
E457
100
AcDbEntity
  8
0
  6
CONTINUOUS
100
AcDbLine
 10
13.39509276772158
 20
5.521569994029786
 30
0.0
 11
10.81938524622531
 21
8.097277515526056
 31
0.0
  0
LINE
  5
E48C
330
E457
100
AcDbEntity
  8
0
  6
CONTINUOUS
100
AcDbLine
 10
18.95798597883369
 20
0.6321959919978686
 30
0.0
 11
17.84825644852853
 21
1.741925522303024
 31
0.0
  0
LINE
  5
E48D
330
E457
100
AcDbEntity
  8
0
  6
CONTINUOUS
100
AcDbLine
 10
19.15756672960882
 20
1.106134450302922
 30
0.0
 11
17.44267562040888
 21
2.821025559502861
 31
0.0
  0
LINE
  5
E48E
330
E457
100
AcDbEntity
  8
0
  6
CONTINUOUS
100
AcDbLine
 10
15.83146234993604
 20
3.758719620895513
 30
0.0
 11
14.85691305207612
 21
4.733268918755439
 31
0.0
  0
LINE
  5
E48F
330
E457
100
AcDbEntity
  8
0
  6
CONTINUOUS
100
AcDbLine
 10
16.01551512670025
 20
4.248186053211494
 30
0.0
 11
15.04094222313957
 21
5.222758956772172
 31
0.0
  0
LINE
  5
E490
330
E457
100
AcDbEntity
  8
0
  6
CONTINUOUS
100
AcDbLine
 10
12.90511304310612
 20
6.685068927725435
 30
0.0
 11
10.8270819708403
 21
8.763099999991255
 31
0.0
  0
LINE
  5
E491
330
E457
100
AcDbEntity
  8
0
  6
CONTINUOUS
100
AcDbLine
 10
12.41513331849066
 20
7.848567861421083
 30
0.0
 11
11.50060117992049
 21
8.763099999991255
 31
0.0
  0
LINE
  5
E492
330
E457
100
AcDbEntity
  8
0
  6
CONTINUOUS
100
AcDbLine
 10
19.35714748038395
 20
1.580072908607975
 30
0.0
 11
17.03709479228923
 21
3.900125596702697
 31
0.0
  0
LINE
  5
E493
330
E457
100
AcDbEntity
  8
0
  6
CONTINUOUS
100
AcDbLine
 10
19.55672823115909
 20
2.054011366913028
 30
0.0
 11
16.63151396416958
 21
4.979225633902534
 31
0.0
  0
LINE
  5
E494
330
E457
100
AcDbEntity
  8
0
  6
CONTINUOUS
100
AcDbLine
 10
16.19956790346445
 20
4.737652485527476
 30
0.0
 11
15.22497139420302
 21
5.712248994788904
 31
0.0
  0
LINE
  5
E495
330
E457
100
AcDbEntity
  8
0
  6
CONTINUOUS
100
AcDbLine
 10
16.38362068022866
 20
5.227118917843457
 30
0.0
 11
15.40900056526648
 21
6.201739032805637
 31
0.0
  0
LINE
  5
E496
330
E457
100
AcDbEntity
  8
0
  6
CONTINUOUS
100
AcDbLine
 10
19.75630898193422
 20
2.527949825218081
 30
0.0
 11
18.70774536448286
 21
3.576513442669441
 31
0.0
  0
LINE
  5
E497
330
E457
100
AcDbEntity
  8
0
  6
CONTINUOUS
100
AcDbLine
 10
19.95588973270936
 20
3.001888283523134
 30
0.0
 11
18.90726987211446
 21
4.050508144118028
 31
0.0
  0
LINE
  5
E498
330
E457
100
AcDbEntity
  8
0
  6
CONTINUOUS
100
AcDbLine
 10
20.15547048348449
 20
3.475826741828186
 30
0.0
 11
19.10679437974606
 21
4.524502845566614
 31
0.0
  0
LINE
  5
E499
330
E457
100
AcDbEntity
  8
0
  6
CONTINUOUS
100
AcDbLine
 10
20.35505123425962
 20
3.94976520013324
 30
0.0
 11
19.30631888737766
 21
4.998497547015201
 31
0.0
  0
LINE
  5
E49A
330
E457
100
AcDbEntity
  8
0
  6
CONTINUOUS
100
AcDbLine
 10
20.55463198503475
 20
4.423703658438292
 30
0.0
 11
19.50584339500926
 21
5.472492248463787
 31
0.0
  0
LINE
  5
E49B
330
E457
100
AcDbEntity
  8
0
  6
CONTINUOUS
100
AcDbLine
 10
18.37481191085755
 20
3.909446896294752
 30
0.0
 11
15.59302973632993
 21
6.691229070822371
 31
0.0
  0
LINE
  5
E49C
330
E457
100
AcDbEntity
  8
0
  6
CONTINUOUS
100
AcDbLine
 10
17.96904084440766
 20
4.988737171824825
 30
0.0
 11
15.77705890739338
 21
7.180719108839104
 31
0.0
  0
LINE
  5
E49D
330
E457
100
AcDbEntity
  8
0
  6
CONTINUOUS
100
AcDbLine
 10
17.56326977795777
 20
6.068027447354899
 30
0.0
 11
15.96108807845684
 21
7.670209146855838
 31
0.0
  0
LINE
  5
E49E
330
E457
100
AcDbEntity
  8
0
  6
CONTINUOUS
100
AcDbLine
 10
17.15749871150789
 20
7.147317722884972
 30
0.0
 11
16.14511724952029
 21
8.15969918487257
 31
0.0
  0
LINE
  5
E49F
330
E457
100
AcDbEntity
  8
0
  6
CONTINUOUS
100
AcDbLine
 10
16.751727645058
 20
8.226607998415046
 30
0.0
 11
16.32914642058374
 21
8.649189222889303
 31
0.0
  0
LINE
  5
E4A0
330
E457
100
AcDbEntity
  8
0
  6
CONTINUOUS
100
AcDbLine
 10
20.75421273580989
 20
4.897642116743345
 30
0.0
 11
19.70536790264086
 21
5.946486949912374
 31
0.0
  0
LINE
  5
E4A1
330
E457
100
AcDbEntity
  8
0
  6
CONTINUOUS
100
AcDbLine
 10
20.95379348658502
 20
5.371580575048398
 30
0.0
 11
19.90489241027246
 21
6.42048165136096
 31
0.0
  0
LINE
  5
E4A2
330
E457
100
AcDbEntity
  8
0
  6
CONTINUOUS
100
AcDbLine
 10
21.15337423736015
 20
5.845519033353452
 30
0.0
 11
20.10441691790406
 21
6.894476352809547
 31
0.0
  0
LINE
  5
E4A3
330
E457
100
AcDbEntity
  8
0
  6
CONTINUOUS
100
AcDbLine
 10
21.35295498813529
 20
6.319457491658505
 30
0.0
 11
20.30394142553566
 21
7.368471054258134
 31
0.0
  0
LINE
  5
E4A4
330
E457
100
AcDbEntity
  8
0
  6
CONTINUOUS
100
AcDbLine
 10
21.55253573891042
 20
6.793395949963558
 30
0.0
 11
20.50346593316726
 21
7.842465755706721
 31
0.0
  0
LINE
  5
E4A5
330
E457
100
AcDbEntity
  8
0
  6
CONTINUOUS
100
AcDbLine
 10
21.75211648968556
 20
7.267334408268612
 30
0.0
 11
20.70299044079886
 21
8.316460457155308
 31
0.0
  0
LINE
  5
E4A6
330
E457
100
AcDbEntity
  8
0
  6
CONTINUOUS
100
AcDbLine
 10
21.95169724046069
 20
7.741272866573663
 30
0.0
 11
20.9298701070431
 21
8.763099999991256
 31
0.0
  0
LINE
  5
E4A7
330
E457
100
AcDbEntity
  8
0
  6
CONTINUOUS
100
AcDbLine
 10
22.15127799123582
 20
8.215211324878716
 30
0.0
 11
21.60338931612328
 21
8.763099999991256
 31
0.0
  0
LINE
  5
E4A8
330
E457
100
AcDbEntity
  8
0
  6
CONTINUOUS
100
AcDbLine
 10
22.35085874201096
 20
8.689149783183769
 30
0.0
 11
22.27690852520347
 21
8.763099999991255
 31
0.0
  0
ENDBLK
  5
E59A
330
E457
100
AcDbEntity
  8
0
100
AcDbBlockEnd
  0
BLOCK
  5
E59B
330
E4A9
100
AcDbEntity
  8
0
100
AcDbBlockBegin
  2
*X177
 70
     1
 10
0.0
 20
0.0
 30
0.0
  3
*X177
  1

  0
LINE
  5
E4AA
330
E4A9
100
AcDbEntity
  8
0
  6
CONTINUOUS
100
AcDbLine
 10
23.19462913593892
 20
8.169917934846424
 30
0.0
 11
23.70775465517246
 21
8.683043454079957
 31
0.0
  0
LINE
  5
E4AB
330
E4A9
100
AcDbEntity
  8
0
  6
CONTINUOUS
100
AcDbLine
 10
22.64923161835078
 20
6.951001208178088
 30
0.0
 11
23.9159364069932
 21
8.217705996820516
 31
0.0
  0
LINE
  5
E4AC
330
E4A9
100
AcDbEntity
  8
0
  6
CONTINUOUS
100
AcDbLine
 10
22.10383410076263
 20
5.732084481509751
 30
0.0
 11
24.12411815881395
 21
7.752368539561078
 31
0.0
  0
LINE
  5
E4AD
330
E4A9
100
AcDbEntity
  8
0
  6
CONTINUOUS
100
AcDbLine
 10
21.55843658317447
 20
4.513167754841414
 30
0.0
 11
24.3322999106347
 21
7.287031082301639
 31
0.0
  0
LINE
  5
E4AE
330
E4A9
100
AcDbEntity
  8
0
  6
CONTINUOUS
100
AcDbLine
 10
21.01303906558632
 20
3.294251028173077
 30
0.0
 11
24.54048166245544
 21
6.821693625042199
 31
0.0
  0
LINE
  5
E4AF
330
E4A9
100
AcDbEntity
  8
0
  6
CONTINUOUS
100
AcDbLine
 10
20.46764154799817
 20
2.075334301504738
 30
0.0
 11
23.28571549467848
 21
4.89340824818505
 31
0.0
  0
LINE
  5
E4B0
330
E4A9
100
AcDbEntity
  8
0
  6
CONTINUOUS
100
AcDbLine
 10
19.92224403041002
 20
0.8564175748364002
 30
0.0
 11
22.74075865492779
 21
3.674932199354171
 31
0.0
  0
LINE
  5
E4B1
330
E4A9
100
AcDbEntity
  8
0
  6
CONTINUOUS
100
AcDbLine
 10
23.67305085490148
 20
5.280743608408048
 30
0.0
 11
24.74866341427619
 21
6.356356167782759
 31
0.0
  0
LINE
  5
E4B2
330
E4A9
100
AcDbEntity
  8
0
  6
CONTINUOUS
100
AcDbLine
 10
23.88118970842314
 20
4.815363252849522
 30
0.0
 11
24.95684516609694
 21
5.89101871052332
 31
0.0
  0
LINE
  5
E4B3
330
E4A9
100
AcDbEntity
  8
0
  6
CONTINUOUS
100
AcDbLine
 10
19.73925852647308
 20
-0.0000871381807288
 30
0.0
 11
23.4103456646501
 21
3.670999999996297
 31
0.0
  0
LINE
  5
E4B4
330
E4A9
100
AcDbEntity
  8
0
  6
CONTINUOUS
100
AcDbLine
 10
24.0893285619448
 20
4.349982897290997
 30
0.0
 11
25.16502691791769
 21
5.42568125326388
 31
0.0
  0
LINE
  5
E4B5
330
E4A9
100
AcDbEntity
  8
0
  6
CONTINUOUS
100
AcDbLine
 10
20.41282099582748
 20
-0.0000438779065108
 30
0.0
 11
21.64944178675636
 21
1.236576913022366
 31
0.0
  0
LINE
  5
E4B6
330
E4A9
100
AcDbEntity
  8
0
  6
CONTINUOUS
100
AcDbLine
 10
22.78126487373161
 20
2.36839999999762
 30
0.0
 11
24.08386487373029
 21
3.670999999996297
 31
0.0
  0
LINE
  5
E4B7
330
E4A9
100
AcDbEntity
  8
0
  6
CONTINUOUS
100
AcDbLine
 10
24.29746741546646
 20
3.884602541732471
 30
0.0
 11
25.37320866973843
 21
4.960343796004441
 31
0.0
  0
LINE
  5
E4B8
330
E4A9
100
AcDbEntity
  8
0
  6
CONTINUOUS
100
AcDbLine
 10
21.08638346518189
 20
-0.0000006176322938
 30
0.0
 11
21.10379033335899
 21
0.0174062505448083
 31
0.0
  0
LINE
  5
E4B9
330
E4A9
100
AcDbEntity
  8
0
  6
CONTINUOUS
100
AcDbLine
 10
23.4547840828118
 20
2.36839999999762
 30
0.0
 11
25.58139042155918
 21
4.495006338745002
 31
0.0
  0
LINE
  5
E4BA
330
E4A9
100
AcDbEntity
  8
0
  6
CONTINUOUS
100
AcDbLine
 10
29.30199999996933
 20
8.215615917155148
 30
0.0
 11
29.84948408280543
 21
8.763099999991255
 31
0.0
  0
LINE
  5
E4BB
330
E4A9
100
AcDbEntity
  8
0
  6
CONTINUOUS
100
AcDbLine
 10
24.12830329189199
 20
2.36839999999762
 30
0.0
 11
25.78957217337993
 21
4.029668881485562
 31
0.0
  0
LINE
  5
E4BC
330
E4A9
100
AcDbEntity
  8
0
  6
CONTINUOUS
100
AcDbLine
 10
29.30199999996933
 20
7.54209670807496
 30
0.0
 11
30.52300329188562
 21
8.763099999991255
 31
0.0
  0
LINE
  5
E4BD
330
E4A9
100
AcDbEntity
  8
0
  6
CONTINUOUS
100
AcDbLine
 10
24.80182250097217
 20
2.36839999999762
 30
0.0
 11
25.99775392520067
 21
3.564331424226122
 31
0.0
  0
LINE
  5
E4BE
330
E4A9
100
AcDbEntity
  8
0
  6
CONTINUOUS
100
AcDbLine
 10
29.30199999996933
 20
6.868577498994774
 30
0.0
 11
30.74199999996926
 21
8.308577498994712
 31
0.0
  0
LINE
  5
E4BF
330
E4A9
100
AcDbEntity
  8
0
  6
CONTINUOUS
100
AcDbLine
 10
25.13028238392013
 20
2.023340673865392
 30
0.0
 11
26.20593567702142
 21
3.098993966966683
 31
0.0
  0
LINE
  5
E4C0
330
E4A9
100
AcDbEntity
  8
0
  6
CONTINUOUS
100
AcDbLine
 10
25.33838066033617
 20
1.557919741201244
 30
0.0
 11
26.41411742884217
 21
2.633656509707244
 31
0.0
  0
LINE
  5
E4C1
330
E4A9
100
AcDbEntity
  8
0
  6
CONTINUOUS
100
AcDbLine
 10
25.54647893675221
 20
1.092498808537098
 30
0.0
 11
26.62229918066291
 21
2.168319052447804
 31
0.0
  0
LINE
  5
E4C2
330
E4A9
100
AcDbEntity
  8
0
  6
CONTINUOUS
100
AcDbLine
 10
25.75457721316825
 20
0.62707787587295
 30
0.0
 11
26.83048093248366
 21
1.702981595188365
 31
0.0
  0
LINE
  5
E4C3
330
E4A9
100
AcDbEntity
  8
0
  6
CONTINUOUS
100
AcDbLine
 10
29.30199999996933
 20
6.195058289914587
 30
0.0
 11
30.74199999996926
 21
7.635058289914522
 31
0.0
  0
LINE
  5
E4C4
330
E4A9
100
AcDbEntity
  8
0
  6
CONTINUOUS
100
AcDbLine
 10
29.30199999996933
 20
5.521539080834401
 30
0.0
 11
30.74199999996926
 21
6.961539080834331
 31
0.0
  0
LINE
  5
E4C5
330
E4A9
100
AcDbEntity
  8
0
  6
CONTINUOUS
100
AcDbLine
 10
29.30199999996933
 20
4.848019871754214
 30
0.0
 11
30.74199999996925
 21
6.288019871754143
 31
0.0
  0
LINE
  5
E4C6
330
E4A9
100
AcDbEntity
  8
0
  6
CONTINUOUS
100
AcDbLine
 10
29.30199999996933
 20
4.174500662674028
 30
0.0
 11
30.74199999996925
 21
5.614500662673953
 31
0.0
  0
LINE
  5
E4C7
330
E4A9
100
AcDbEntity
  8
0
  6
CONTINUOUS
100
AcDbLine
 10
25.96267548958429
 20
0.1616569432088024
 30
0.0
 11
27.18411854636669
 21
1.383099999991207
 31
0.0
  0
LINE
  5
E4C8
330
E4A9
100
AcDbEntity
  8
0
  6
CONTINUOUS
100
AcDbLine
 10
29.30199999996933
 20
3.500981453593841
 30
0.0
 11
30.74199999996925
 21
4.940981453593762
 31
0.0
  0
LINE
  5
E4C9
330
E4A9
100
AcDbEntity
  8
0
  6
CONTINUOUS
100
AcDbLine
 10
26.50763775544691
 20
0.0330999999912356
 30
0.0
 11
27.85763775544689
 21
1.383099999991223
 31
0.0
  0
LINE
  5
E4CA
330
E4A9
100
AcDbEntity
  8
0
  6
CONTINUOUS
100
AcDbLine
 10
29.30199999996933
 20
2.827462244513656
 30
0.0
 11
30.74199999996925
 21
4.267462244513574
 31
0.0
  0
LINE
  5
E4CB
330
E4A9
100
AcDbEntity
  8
0
  6
CONTINUOUS
100
AcDbLine
 10
27.18115696452709
 20
0.0330999999912356
 30
0.0
 11
28.55073879889363
 21
1.402681834357775
 31
0.0
  0
LINE
  5
E4CC
330
E4A9
100
AcDbEntity
  8
0
  6
CONTINUOUS
100
AcDbLine
 10
29.28241816560272
 20
2.134361201066866
 30
0.0
 11
30.74199999996924
 21
3.593943035433383
 31
0.0
  0
LINE
  5
E4CD
330
E4A9
100
AcDbEntity
  8
0
  6
CONTINUOUS
100
AcDbLine
 10
27.85467617360728
 20
0.0330999999912356
 30
0.0
 11
30.74199999996924
 21
2.920423826353195
 31
0.0
  0
LINE
  5
E4CE
330
E4A9
100
AcDbEntity
  8
0
  6
CONTINUOUS
100
AcDbLine
 10
28.53897559587887
 20
0.0438802131826428
 30
0.0
 11
30.73121978677781
 21
2.236124404081585
 31
0.0
  0
LINE
  5
E4CF
330
E4A9
100
AcDbEntity
  8
0
  6
CONTINUOUS
100
AcDbLine
 10
29.45140055588722
 20
0.2827859641107988
 30
0.0
 11
30.49231403584965
 21
1.323699444073236
 31
0.0
  0
LINE
  5
E4D0
330
E4A9
100
AcDbEntity
  8
0
  6
CONTINUOUS
100
AcDbLine
 10
19.59027867740337
 20
-0.0000967065718083
 30
0.0
 11
19.55485265190471
 21
0.035329318926844
 31
0.0
  0
LINE
  5
E4D1
330
E4A9
100
AcDbEntity
  8
0
  6
CONTINUOUS
100
AcDbLine
 10
20.26375463176586
 20
-0.0000534518541091
 30
0.0
 11
19.76305575737534
 21
0.5006454225364014
 31
0.0
  0
LINE
  5
E4D2
330
E4A9
100
AcDbEntity
  8
0
  6
CONTINUOUS
100
AcDbLine
 10
20.93723058612834
 20
-0.0000101971364099
 30
0.0
 11
19.97125886284597
 21
0.965961526145958
 31
0.0
  0
LINE
  5
E4D3
330
E4A9
100
AcDbEntity
  8
0
  6
CONTINUOUS
100
AcDbLine
 10
21.25514828313686
 20
0.355591314935257
 30
0.0
 11
20.1794619683166
 21
1.431277629755512
 31
0.0
  0
LINE
  5
E4D4
330
E4A9
100
AcDbEntity
  8
0
  6
CONTINUOUS
100
AcDbLine
 10
21.46338838394921
 20
0.8208704232030986
 30
0.0
 11
20.38766507378723
 21
1.896593733365069
 31
0.0
  0
LINE
  5
E4D5
330
E4A9
100
AcDbEntity
  8
0
  6
CONTINUOUS
100
AcDbLine
 10
21.67162848476155
 20
1.28614953147094
 30
0.0
 11
20.59586817925786
 21
2.361909836974626
 31
0.0
  0
LINE
  5
E4D6
330
E4A9
100
AcDbEntity
  8
0
  6
CONTINUOUS
100
AcDbLine
 10
21.8798685855739
 20
1.751428639738782
 30
0.0
 11
20.80407128472849
 21
2.827225940584183
 31
0.0
  0
LINE
  5
E4D7
330
E4A9
100
AcDbEntity
  8
0
  6
CONTINUOUS
100
AcDbLine
 10
22.08810868638624
 20
2.216707748006623
 30
0.0
 11
21.01227439019912
 21
3.292542044193739
 31
0.0
  0
LINE
  5
E4D8
330
E4A9
100
AcDbEntity
  8
0
  6
CONTINUOUS
100
AcDbLine
 10
22.60993564347543
 20
2.36839999999762
 30
0.0
 11
21.22047749566975
 21
3.757858147803296
 31
0.0
  0
LINE
  5
E4D9
330
E4A9
100
AcDbEntity
  8
0
  6
CONTINUOUS
100
AcDbLine
 10
23.28345485255561
 20
2.36839999999762
 30
0.0
 11
21.42868060114038
 21
4.223174251412853
 31
0.0
  0
LINE
  5
E4DA
330
E4A9
100
AcDbEntity
  8
0
  6
CONTINUOUS
100
AcDbLine
 10
26.29227406164219
 20
0.0330999999912356
 30
0.0
 11
25.80009199592872
 21
0.5252820657046957
 31
0.0
  0
LINE
  5
E4DB
330
E4A9
100
AcDbEntity
  8
0
  6
CONTINUOUS
100
AcDbLine
 10
23.9569740616358
 20
2.36839999999762
 30
0.0
 11
21.63688370661101
 21
4.688490355022409
 31
0.0
  0
LINE
  5
E4DC
330
E4A9
100
AcDbEntity
  8
0
  6
CONTINUOUS
100
AcDbLine
 10
26.96579327072237
 20
0.0330999999912356
 30
0.0
 11
25.2554132311971
 21
1.743480039516508
 31
0.0
  0
LINE
  5
E4DD
330
E4A9
100
AcDbEntity
  8
0
  6
CONTINUOUS
100
AcDbLine
 10
24.63049327071599
 20
2.36839999999762
 30
0.0
 11
23.32789327071731
 21
3.670999999996297
 31
0.0
  0
LINE
  5
E4DE
330
E4A9
100
AcDbEntity
  8
0
  6
CONTINUOUS
100
AcDbLine
 10
22.92098674744635
 20
4.077906523267254
 30
0.0
 11
21.84508681208164
 21
5.153806458631966
 31
0.0
  0
LINE
  5
E4DF
330
E4A9
100
AcDbEntity
  8
0
  6
CONTINUOUS
100
AcDbLine
 10
27.63931247980256
 20
0.0330999999912356
 30
0.0
 11
24.0014124797975
 21
3.670999999996297
 31
0.0
  0
LINE
  5
E4E0
330
E4A9
100
AcDbEntity
  8
0
  6
CONTINUOUS
100
AcDbLine
 10
23.129125600968
 20
4.5432868788258
 30
0.0
 11
22.05328991755227
 21
5.619122562241522
 31
0.0
  0
LINE
  5
E4E1
330
E4A9
100
AcDbEntity
  8
0
  6
CONTINUOUS
100
AcDbLine
 10
28.31283168888275
 20
0.0330999999912356
 30
0.0
 11
24.16488385994816
 21
4.181047828925828
 31
0.0
  0
LINE
  5
E4E2
330
E4A9
100
AcDbEntity
  8
0
  6
CONTINUOUS
100
AcDbLine
 10
23.33726445448964
 20
5.008667234384345
 30
0.0
 11
22.2614930230229
 21
6.084438665851079
 31
0.0
  0
LINE
  5
E4E3
330
E4A9
100
AcDbEntity
  8
0
  6
CONTINUOUS
100
AcDbLine
 10
28.92085740005492
 20
0.0985934978992438
 30
0.0
 11
27.63635089796295
 21
1.383099999991217
 31
0.0
  0
LINE
  5
E4E4
330
E4A9
100
AcDbEntity
  8
0
  6
CONTINUOUS
100
AcDbLine
 10
26.43704649509776
 20
2.582404402856405
 30
0.0
 11
23.61992702019732
 21
5.399523877756844
 31
0.0
  0
LINE
  5
E4E5
330
E4A9
100
AcDbEntity
  8
0
  6
CONTINUOUS
100
AcDbLine
 10
23.54540330801128
 20
5.47404758994289
 30
0.0
 11
22.46969612849353
 21
6.549754769460635
 31
0.0
  0
LINE
  5
E4E6
330
E4A9
100
AcDbEntity
  8
0
  6
CONTINUOUS
100
AcDbLine
 10
29.42225615078443
 20
0.2707139562499279
 30
0.0
 11
28.30987010704312
 21
1.383099999991234
 31
0.0
  0
LINE
  5
E4E7
330
E4A9
100
AcDbEntity
  8
0
  6
CONTINUOUS
100
AcDbLine
 10
25.89179548232307
 20
3.801174624711282
 30
0.0
 11
22.67789923396416
 21
7.015070873070191
 31
0.0
  0
LINE
  5
E4E8
330
E4A9
100
AcDbEntity
  8
0
  6
CONTINUOUS
100
AcDbLine
 10
29.83624534690007
 20
0.5302439692144705
 30
0.0
 11
28.85811781497101
 21
1.508371501143527
 31
0.0
  0
LINE
  5
E4E9
330
E4A9
100
AcDbEntity
  8
0
  6
CONTINUOUS
100
AcDbLine
 10
25.34654446954838
 20
5.01994484656616
 30
0.0
 11
22.88610233943479
 21
7.480386976679748
 31
0.0
  0
LINE
  5
E4EA
330
E4A9
100
AcDbEntity
  8
0
  6
CONTINUOUS
100
AcDbLine
 10
30.17865975401872
 20
0.8613487711760022
 30
0.0
 11
29.18888744090175
 21
1.851121084292977
 31
0.0
  0
LINE
  5
E4EB
330
E4A9
100
AcDbEntity
  8
0
  6
CONTINUOUS
100
AcDbLine
 10
24.80129345677369
 20
6.238715068421037
 30
0.0
 11
23.09430544490542
 21
7.945703080289305
 31
0.0
  0
LINE
  5
E4EC
330
E4A9
100
AcDbEntity
  8
0
  6
CONTINUOUS
100
AcDbLine
 10
30.45496647202376
 20
1.258561262251155
 30
0.0
 11
29.30199999996933
 21
2.411527734305588
 31
0.0
  0
LINE
  5
E4ED
330
E4A9
100
AcDbEntity
  8
0
  6
CONTINUOUS
100
AcDbLine
 10
24.256042443999
 20
7.457485290275915
 30
0.0
 11
23.30250855037605
 21
8.411019183898862
 31
0.0
  0
LINE
  5
E4EE
330
E4A9
100
AcDbEntity
  8
0
  6
CONTINUOUS
100
AcDbLine
 10
30.64868582078271
 20
1.738361122572387
 30
0.0
 11
29.30199999996933
 21
3.085046943385775
 31
0.0
  0
LINE
  5
E4EF
330
E4A9
100
AcDbEntity
  8
0
  6
CONTINUOUS
100
AcDbLine
 10
23.71079143122431
 20
8.676255512130794
 30
0.0
 11
23.51071165584668
 21
8.876335287508416
 31
0.0
  0
LINE
  5
E4F0
330
E4A9
100
AcDbEntity
  8
0
  6
CONTINUOUS
100
AcDbLine
 10
30.73802122914428
 20
2.322544923291007
 30
0.0
 11
29.30199999996933
 21
3.758566152465961
 31
0.0
  0
LINE
  5
E4F1
330
E4A9
100
AcDbEntity
  8
0
  6
CONTINUOUS
100
AcDbLine
 10
30.74199999996924
 20
2.992085361546236
 30
0.0
 11
29.30199999996933
 21
4.432085361546148
 31
0.0
  0
LINE
  5
E4F2
330
E4A9
100
AcDbEntity
  8
0
  6
CONTINUOUS
100
AcDbLine
 10
30.74199999996924
 20
3.665604570626419
 30
0.0
 11
29.30199999996933
 21
5.105604570626333
 31
0.0
  0
LINE
  5
E4F3
330
E4A9
100
AcDbEntity
  8
0
  6
CONTINUOUS
100
AcDbLine
 10
30.74199999996925
 20
4.339123779706602
 30
0.0
 11
29.30199999996933
 21
5.77912377970652
 31
0.0
  0
LINE
  5
E4F4
330
E4A9
100
AcDbEntity
  8
0
  6
CONTINUOUS
100
AcDbLine
 10
30.74199999996925
 20
5.012642988786785
 30
0.0
 11
29.30199999996933
 21
6.452642988786707
 31
0.0
  0
LINE
  5
E4F5
330
E4A9
100
AcDbEntity
  8
0
  6
CONTINUOUS
100
AcDbLine
 10
30.74199999996925
 20
5.68616219786697
 30
0.0
 11
29.30199999996933
 21
7.126162197866894
 31
0.0
  0
LINE
  5
E4F6
330
E4A9
100
AcDbEntity
  8
0
  6
CONTINUOUS
100
AcDbLine
 10
30.74199999996925
 20
6.359681406947153
 30
0.0
 11
29.30199999996933
 21
7.799681406947081
 31
0.0
  0
LINE
  5
E4F7
330
E4A9
100
AcDbEntity
  8
0
  6
CONTINUOUS
100
AcDbLine
 10
30.74199999996926
 20
7.033200616027337
 30
0.0
 11
29.30199999996933
 21
8.473200616027269
 31
0.0
  0
LINE
  5
E4F8
330
E4A9
100
AcDbEntity
  8
0
  6
CONTINUOUS
100
AcDbLine
 10
30.74199999996926
 20
7.706719825107518
 30
0.0
 11
29.68561982508552
 21
8.763099999991255
 31
0.0
  0
LINE
  5
E4F9
330
E4A9
100
AcDbEntity
  8
0
  6
CONTINUOUS
100
AcDbLine
 10
30.74199999996926
 20
8.380239034187703
 30
0.0
 11
30.35913903416571
 21
8.763099999991255
 31
0.0
  0
ENDBLK
  5
E59C
330
E4A9
100
AcDbEntity
  8
0
100
AcDbBlockEnd
  0
BLOCK
  5
E59D
330
E4FA
100
AcDbEntity
  8
0
100
AcDbBlockBegin
  2
*X178
 70
     1
 10
0.0
 20
0.0
 30
0.0
  3
*X178
  1

  0
LINE
  5
E4FB
330
E4FA
100
AcDbEntity
  8
0
  6
CONTINUOUS
100
AcDbLine
 10
31.64199999996833
 20
8.535058289913598
 30
0.0
 11
31.87004171004599
 21
8.763099999991255
 31
0.0
  0
LINE
  5
E4FC
330
E4FA
100
AcDbEntity
  8
0
  6
CONTINUOUS
100
AcDbLine
 10
31.64199999996833
 20
7.861539080833412
 30
0.0
 11
32.54356091912618
 21
8.763099999991255
 31
0.0
  0
LINE
  5
E4FD
330
E4FA
100
AcDbEntity
  8
0
  6
CONTINUOUS
100
AcDbLine
 10
31.64199999996833
 20
7.188019871753226
 30
0.0
 11
33.08199999996839
 21
8.628019871753281
 31
0.0
  0
LINE
  5
E4FE
330
E4FA
100
AcDbEntity
  8
0
  6
CONTINUOUS
100
AcDbLine
 10
31.64199999996833
 20
6.51450066267304
 30
0.0
 11
33.08199999996839
 21
7.954500662673095
 31
0.0
  0
LINE
  5
E4FF
330
E4FA
100
AcDbEntity
  8
0
  6
CONTINUOUS
100
AcDbLine
 10
31.64199999996833
 20
5.840981453592853
 30
0.0
 11
33.08199999996839
 21
7.280981453592908
 31
0.0
  0
LINE
  5
E500
330
E4FA
100
AcDbEntity
  8
0
  6
CONTINUOUS
100
AcDbLine
 10
31.64199999996833
 20
5.167462244512667
 30
0.0
 11
33.08199999996839
 21
6.607462244512721
 31
0.0
  0
LINE
  5
E501
330
E4FA
100
AcDbEntity
  8
0
  6
CONTINUOUS
100
AcDbLine
 10
31.64199999996833
 20
4.493943035432481
 30
0.0
 11
33.08199999996839
 21
5.933943035432535
 31
0.0
  0
LINE
  5
E502
330
E4FA
100
AcDbEntity
  8
0
  6
CONTINUOUS
100
AcDbLine
 10
31.64199999996833
 20
3.820423826352293
 30
0.0
 11
33.08199999996839
 21
5.260423826352348
 31
0.0
  0
LINE
  5
E503
330
E4FA
100
AcDbEntity
  8
0
  6
CONTINUOUS
100
AcDbLine
 10
31.64199999996833
 20
3.146904617272106
 30
0.0
 11
33.08199999996839
 21
4.586904617272161
 31
0.0
  0
LINE
  5
E504
330
E4FA
100
AcDbEntity
  8
0
  6
CONTINUOUS
100
AcDbLine
 10
36.23199999996837
 20
8.410423826352325
 30
0.0
 11
36.5846761736073
 21
8.763099999991255
 31
0.0
  0
LINE
  5
E505
330
E4FA
100
AcDbEntity
  8
0
  6
CONTINUOUS
100
AcDbLine
 10
36.23199999996837
 20
7.73690461727214
 30
0.0
 11
37.25819538268748
 21
8.763099999991255
 31
0.0
  0
LINE
  5
E506
330
E4FA
100
AcDbEntity
  8
0
  6
CONTINUOUS
100
AcDbLine
 10
31.64257403601376
 20
2.473959444237348
 30
0.0
 11
33.08199999996839
 21
3.913385408191974
 31
0.0
  0
LINE
  5
E507
330
E4FA
100
AcDbEntity
  8
0
  6
CONTINUOUS
100
AcDbLine
 10
36.23199999996837
 20
7.063385408191953
 30
0.0
 11
37.67199999996831
 21
8.503385408191894
 31
0.0
  0
LINE
  5
E508
330
E4FA
100
AcDbEntity
  8
0
  6
CONTINUOUS
100
AcDbLine
 10
31.72013636841932
 20
1.87800256756272
 30
0.0
 11
33.08199999996839
 21
3.239866199111788
 31
0.0
  0
LINE
  5
E509
330
E4FA
100
AcDbEntity
  8
0
  6
CONTINUOUS
100
AcDbLine
 10
36.23199999996837
 20
6.389866199111767
 30
0.0
 11
37.67199999996831
 21
7.829866199111708
 31
0.0
  0
LINE
  5
E50A
330
E4FA
100
AcDbEntity
  8
0
  6
CONTINUOUS
100
AcDbLine
 10
31.89042734314753
 20
1.374774333210744
 30
0.0
 11
33.08199999996839
 21
2.566346990031601
 31
0.0
  0
LINE
  5
E50B
330
E4FA
100
AcDbEntity
  8
0
  6
CONTINUOUS
100
AcDbLine
 10
36.23199999996837
 20
5.71634699003158
 30
0.0
 11
37.67199999996831
 21
7.156346990031521
 31
0.0
  0
LINE
  5
E50C
330
E4FA
100
AcDbEntity
  8
0
  6
CONTINUOUS
100
AcDbLine
 10
32.14210568064475
 20
0.952933461627778
 30
0.0
 11
33.18745552475986
 21
1.998283305742888
 31
0.0
  0
LINE
  5
E50D
330
E4FA
100
AcDbEntity
  8
0
  6
CONTINUOUS
100
AcDbLine
 10
36.23199999996837
 20
5.042827780951393
 30
0.0
 11
37.67199999996831
 21
6.482827780951334
 31
0.0
  0
LINE
  5
E50E
330
E4FA
100
AcDbEntity
  8
0
  6
CONTINUOUS
100
AcDbLine
 10
32.45820639400955
 20
0.5955149659123915
 30
0.0
 11
33.47242681921943
 21
1.60973539112227
 31
0.0
  0
LINE
  5
E50F
330
E4FA
100
AcDbEntity
  8
0
  6
CONTINUOUS
100
AcDbLine
 10
36.23199999996837
 20
4.369308571871207
 30
0.0
 11
37.67199999996831
 21
5.809308571871147
 31
0.0
  0
LINE
  5
E510
330
E4FA
100
AcDbEntity
  8
0
  6
CONTINUOUS
100
AcDbLine
 10
32.83432456621412
 20
0.2981139290367771
 30
0.0
 11
33.89722476612215
 21
1.361014128944803
 31
0.0
  0
LINE
  5
E511
330
E4FA
100
AcDbEntity
  8
0
  6
CONTINUOUS
100
AcDbLine
 10
36.23199999996837
 20
3.69578936279102
 30
0.0
 11
37.67199999996831
 21
5.135789362790962
 31
0.0
  0
LINE
  5
E512
330
E4FA
100
AcDbEntity
  8
0
  6
CONTINUOUS
100
AcDbLine
 10
33.2711633111245
 20
0.0614334648669672
 30
0.0
 11
34.43247338014423
 21
1.222743533886696
 31
0.0
  0
LINE
  5
E513
330
E4FA
100
AcDbEntity
  8
0
  6
CONTINUOUS
100
AcDbLine
 10
36.23199999996837
 20
3.022270153710834
 30
0.0
 11
37.67199999996831
 21
4.462270153710775
 31
0.0
  0
LINE
  5
E514
330
E4FA
100
AcDbEntity
  8
0
  6
CONTINUOUS
100
AcDbLine
 10
33.76515245874577
 20
-0.1180965965919523
 30
0.0
 11
35.1587445516215
 21
1.27549549628378
 31
0.0
  0
LINE
  5
E515
330
E4FA
100
AcDbEntity
  8
0
  6
CONTINUOUS
100
AcDbLine
 10
36.21639478609585
 20
2.333145730758136
 30
0.0
 11
37.67199999996831
 21
3.788750944630588
 31
0.0
  0
LINE
  5
E516
330
E4FA
100
AcDbEntity
  8
0
  6
CONTINUOUS
100
AcDbLine
 10
34.34060583368432
 20
-0.2161624307335863
 30
0.0
 11
37.67199999996831
 21
3.115231735550401
 31
0.0
  0
LINE
  5
E517
330
E4FA
100
AcDbEntity
  8
0
  6
CONTINUOUS
100
AcDbLine
 10
35.01698193613905
 20
-0.2133055373590427
 30
0.0
 11
37.66876712070525
 21
2.438479647207154
 31
0.0
  0
LINE
  5
E518
330
E4FA
100
AcDbEntity
  8
0
  6
CONTINUOUS
100
AcDbLine
 10
35.90743367693304
 20
0.0036269943547609
 30
0.0
 11
37.51723902192366
 21
1.613432339345381
 31
0.0
  0
LINE
  5
E519
330
E4FA
100
AcDbEntity
  8
0
  6
CONTINUOUS
100
AcDbLine
 10
32.55309425579761
 20
0.5074718966376706
 30
0.0
 11
32.27784730925847
 21
0.7827188431768102
 31
0.0
  0
LINE
  5
E51A
330
E4FA
100
AcDbEntity
  8
0
  6
CONTINUOUS
100
AcDbLine
 10
33.87496468909684
 20
-0.1408793275813673
 30
0.0
 11
31.67993083278052
 21
2.054154528734943
 31
0.0
  0
LINE
  5
E51B
330
E4FA
100
AcDbEntity
  8
0
  6
CONTINUOUS
100
AcDbLine
 10
34.64362813207632
 20
-0.2360235614806649
 30
0.0
 11
31.64199999996833
 21
2.765604570627322
 31
0.0
  0
LINE
  5
E51C
330
E4FA
100
AcDbEntity
  8
0
  6
CONTINUOUS
100
AcDbLine
 10
35.25801106796118
 20
-0.1768872882853429
 30
0.0
 11
31.64199999996833
 21
3.439123779707508
 31
0.0
  0
LINE
  5
E51D
330
E4FA
100
AcDbEntity
  8
0
  6
CONTINUOUS
100
AcDbLine
 10
35.79065650332146
 20
-0.0360135145654361
 30
0.0
 11
34.54143210838231
 21
1.213210880373721
 31
0.0
  0
LINE
  5
E51E
330
E4FA
100
AcDbEntity
  8
0
  6
CONTINUOUS
100
AcDbLine
 10
33.08199999996839
 20
2.67264298878764
 30
0.0
 11
31.64199999996833
 21
4.112642988787695
 31
0.0
  0
LINE
  5
E51F
330
E4FA
100
AcDbEntity
  8
0
  6
CONTINUOUS
100
AcDbLine
 10
36.25975597779143
 20
0.1684062200447833
 30
0.0
 11
35.15395110240023
 21
1.274211095435983
 31
0.0
  0
LINE
  5
E520
330
E4FA
100
AcDbEntity
  8
0
  6
CONTINUOUS
100
AcDbLine
 10
33.08199999996839
 20
3.346162197867826
 30
0.0
 11
31.64199999996833
 21
4.786162197867881
 31
0.0
  0
LINE
  5
E521
330
E4FA
100
AcDbEntity
  8
0
  6
CONTINUOUS
100
AcDbLine
 10
36.67226329638774
 20
0.4294181105286579
 30
0.0
 11
35.63766478748767
 21
1.464016619428737
 31
0.0
  0
LINE
  5
E522
330
E4FA
100
AcDbEntity
  8
0
  6
CONTINUOUS
100
AcDbLine
 10
33.08199999996839
 20
4.019681406948012
 30
0.0
 11
31.64199999996833
 21
5.459681406948068
 31
0.0
  0
LINE
  5
E523
330
E4FA
100
AcDbEntity
  8
0
  6
CONTINUOUS
100
AcDbLine
 10
37.01677749710036
 20
0.7584231188962329
 30
0.0
 11
35.99563422741351
 21
1.779566388583076
 31
0.0
  0
LINE
  5
E524
330
E4FA
100
AcDbEntity
  8
0
  6
CONTINUOUS
100
AcDbLine
 10
33.08199999996839
 20
4.693200616028199
 30
0.0
 11
31.64199999996833
 21
6.133200616028255
 31
0.0
  0
LINE
  5
E525
330
E4FA
100
AcDbEntity
  8
0
  6
CONTINUOUS
100
AcDbLine
 10
37.29859977568887
 20
1.1501200493879
 30
0.0
 11
36.20680593341555
 21
2.241913891661226
 31
0.0
  0
LINE
  5
E526
330
E4FA
100
AcDbEntity
  8
0
  6
CONTINUOUS
100
AcDbLine
 10
33.08199999996839
 20
5.366719825108386
 30
0.0
 11
31.64199999996833
 21
6.80671982510844
 31
0.0
  0
LINE
  5
E527
330
E4FA
100
AcDbEntity
  8
0
  6
CONTINUOUS
100
AcDbLine
 10
37.5148623517228
 20
1.607376682434161
 30
0.0
 11
36.23199999996837
 21
2.890239034188594
 31
0.0
  0
LINE
  5
E528
330
E4FA
100
AcDbEntity
  8
0
  6
CONTINUOUS
100
AcDbLine
 10
33.08199999996839
 20
6.040239034188573
 30
0.0
 11
31.64199999996833
 21
7.480239034188627
 31
0.0
  0
LINE
  5
E529
330
E4FA
100
AcDbEntity
  8
0
  6
CONTINUOUS
100
AcDbLine
 10
37.64705163358367
 20
2.148706609653477
 30
0.0
 11
36.23199999996837
 21
3.56375824326878
 31
0.0
  0
LINE
  5
E52A
330
E4FA
100
AcDbEntity
  8
0
  6
CONTINUOUS
100
AcDbLine
 10
33.08199999996839
 20
6.713758243268758
 30
0.0
 11
31.64199999996833
 21
8.153758243268815
 31
0.0
  0
LINE
  5
E52B
330
E4FA
100
AcDbEntity
  8
0
  6
CONTINUOUS
100
AcDbLine
 10
37.67199999996831
 20
2.797277452349026
 30
0.0
 11
36.23199999996837
 21
4.237277452348967
 31
0.0
  0
LINE
  5
E52C
330
E4FA
100
AcDbEntity
  8
0
  6
CONTINUOUS
100
AcDbLine
 10
37.67199999996831
 20
3.470796661429213
 30
0.0
 11
36.23199999996837
 21
4.910796661429154
 31
0.0
  0
LINE
  5
E52D
330
E4FA
100
AcDbEntity
  8
0
  6
CONTINUOUS
100
AcDbLine
 10
37.67199999996831
 20
4.144315870509399
 30
0.0
 11
36.23199999996837
 21
5.58431587050934
 31
0.0
  0
LINE
  5
E52E
330
E4FA
100
AcDbEntity
  8
0
  6
CONTINUOUS
100
AcDbLine
 10
33.08199999996839
 20
7.387277452348945
 30
0.0
 11
31.70617745232608
 21
8.763099999991255
 31
0.0
  0
LINE
  5
E52F
330
E4FA
100
AcDbEntity
  8
0
  6
CONTINUOUS
100
AcDbLine
 10
33.08199999996839
 20
8.060796661429132
 30
0.0
 11
32.37969666140626
 21
8.763099999991255
 31
0.0
  0
LINE
  5
E530
330
E4FA
100
AcDbEntity
  8
0
  6
CONTINUOUS
100
AcDbLine
 10
33.08199999996839
 20
8.734315870509318
 30
0.0
 11
33.05321587048645
 21
8.763099999991255
 31
0.0
  0
LINE
  5
E531
330
E4FA
100
AcDbEntity
  8
0
  6
CONTINUOUS
100
AcDbLine
 10
37.67199999996831
 20
4.817835079589585
 30
0.0
 11
36.23199999996837
 21
6.257835079589526
 31
0.0
  0
LINE
  5
E532
330
E4FA
100
AcDbEntity
  8
0
  6
CONTINUOUS
100
AcDbLine
 10
37.67199999996831
 20
5.491354288669771
 30
0.0
 11
36.23199999996837
 21
6.931354288669713
 31
0.0
  0
LINE
  5
E533
330
E4FA
100
AcDbEntity
  8
0
  6
CONTINUOUS
100
AcDbLine
 10
37.67199999996831
 20
6.164873497749958
 30
0.0
 11
36.23199999996837
 21
7.6048734977499
 31
0.0
  0
LINE
  5
E534
330
E4FA
100
AcDbEntity
  8
0
  6
CONTINUOUS
100
AcDbLine
 10
37.67199999996831
 20
6.838392706830144
 30
0.0
 11
36.23199999996837
 21
8.278392706830086
 31
0.0
  0
LINE
  5
E535
330
E4FA
100
AcDbEntity
  8
0
  6
CONTINUOUS
100
AcDbLine
 10
37.67199999996831
 20
7.511911915910332
 30
0.0
 11
36.42081191588738
 21
8.763099999991255
 31
0.0
  0
LINE
  5
E536
330
E4FA
100
AcDbEntity
  8
0
  6
CONTINUOUS
100
AcDbLine
 10
37.67199999996831
 20
8.185431124990519
 30
0.0
 11
37.09433112496757
 21
8.763099999991255
 31
0.0
  0
ENDBLK
  5
E59E
330
E4FA
100
AcDbEntity
  8
0
100
AcDbBlockEnd
  0
BLOCK
  5
E59F
330
E537
100
AcDbEntity
  8
0
100
AcDbBlockBegin
  2
*X179
 70
     1
 10
0.0
 20
0.0
 30
0.0
  3
*X179
  1

  0
LINE
  5
E538
330
E537
100
AcDbEntity
  8
0
  6
CONTINUOUS
100
AcDbLine
 10
38.60499999996136
 20
8.762866199104765
 30
0.0
 11
38.71672554182345
 21
8.874591740966855
 31
0.0
  0
LINE
  5
E539
330
E537
100
AcDbEntity
  8
0
  6
CONTINUOUS
100
AcDbLine
 10
38.60499999996136
 20
8.089346990024577
 30
0.0
 11
39.03418785440363
 21
8.518534844466847
 31
0.0
  0
LINE
  5
E53A
330
E537
100
AcDbEntity
  8
0
  6
CONTINUOUS
100
AcDbLine
 10
38.60499999996136
 20
7.41582778094439
 30
0.0
 11
39.35165016698382
 21
8.16247794796684
 31
0.0
  0
LINE
  5
E53B
330
E537
100
AcDbEntity
  8
0
  6
CONTINUOUS
100
AcDbLine
 10
38.60499999996136
 20
6.742308571864204
 30
0.0
 11
39.66911247956399
 21
7.806421051466834
 31
0.0
  0
LINE
  5
E53C
330
E537
100
AcDbEntity
  8
0
  6
CONTINUOUS
100
AcDbLine
 10
38.60499999996136
 20
6.068789362784018
 30
0.0
 11
39.98657479214418
 21
7.450364154966827
 31
0.0
  0
LINE
  5
E53D
330
E537
100
AcDbEntity
  8
0
  6
CONTINUOUS
100
AcDbLine
 10
38.60499999996136
 20
5.395270153703832
 30
0.0
 11
40.30403710472435
 21
7.09430725846682
 31
0.0
  0
LINE
  5
E53E
330
E537
100
AcDbEntity
  8
0
  6
CONTINUOUS
100
AcDbLine
 10
38.60499999996136
 20
4.721750944623645
 30
0.0
 11
40.62149941730453
 21
6.738250361966813
 31
0.0
  0
LINE
  5
E53F
330
E537
100
AcDbEntity
  8
0
  6
CONTINUOUS
100
AcDbLine
 10
38.60499999996136
 20
4.048231735543458
 30
0.0
 11
40.93896172988471
 21
6.382193465466806
 31
0.0
  0
LINE
  5
E540
330
E537
100
AcDbEntity
  8
0
  6
CONTINUOUS
100
AcDbLine
 10
38.60499999996136
 20
3.374712526463272
 30
0.0
 11
40.02599999995994
 21
4.795712526461843
 31
0.0
  0
LINE
  5
E541
330
E537
100
AcDbEntity
  8
0
  6
CONTINUOUS
100
AcDbLine
 10
38.60499999996136
 20
2.701193317383085
 30
0.0
 11
40.02599999995994
 21
4.122193317381657
 31
0.0
  0
LINE
  5
E542
330
E537
100
AcDbEntity
  8
0
  6
CONTINUOUS
100
AcDbLine
 10
40.28339754687704
 20
5.053110073378947
 30
0.0
 11
41.25642404246489
 21
6.026136568966799
 31
0.0
  0
LINE
  5
E543
330
E537
100
AcDbEntity
  8
0
  6
CONTINUOUS
100
AcDbLine
 10
40.60085985945722
 20
4.697053176878939
 30
0.0
 11
41.57388635504507
 21
5.670079672466793
 31
0.0
  0
LINE
  5
E544
330
E537
100
AcDbEntity
  8
0
  6
CONTINUOUS
100
AcDbLine
 10
43.57899999995641
 20
8.348712526458318
 30
0.0
 11
43.99338747348935
 21
8.763099999991255
 31
0.0
  0
LINE
  5
E545
330
E537
100
AcDbEntity
  8
0
  6
CONTINUOUS
100
AcDbLine
 10
43.57899999995641
 20
7.675193317378131
 30
0.0
 11
44.66690668256953
 21
8.763099999991255
 31
0.0
  0
LINE
  5
E546
330
E537
100
AcDbEntity
  8
0
  6
CONTINUOUS
100
AcDbLine
 10
38.60499999996136
 20
2.027674108302898
 30
0.0
 11
40.02599999995994
 21
3.44867410830147
 31
0.0
  0
LINE
  5
E547
330
E537
100
AcDbEntity
  8
0
  6
CONTINUOUS
100
AcDbLine
 10
38.60499999996136
 20
1.354154899222712
 30
0.0
 11
40.02599999995994
 21
2.775154899221284
 31
0.0
  0
LINE
  5
E548
330
E537
100
AcDbEntity
  8
0
  6
CONTINUOUS
100
AcDbLine
 10
38.60499999996136
 20
0.6806356901425255
 30
0.0
 11
40.02599999995994
 21
2.101635690141098
 31
0.0
  0
LINE
  5
E549
330
E537
100
AcDbEntity
  8
0
  6
CONTINUOUS
100
AcDbLine
 10
38.60499999996136
 20
0.0071164810623383
 30
0.0
 11
40.02599999995994
 21
1.428116481060911
 31
0.0
  0
LINE
  5
E54A
330
E537
100
AcDbEntity
  8
0
  6
CONTINUOUS
100
AcDbLine
 10
40.9183221720374
 20
4.340996280378933
 30
0.0
 11
41.89134866762525
 21
5.314022775966786
 31
0.0
  0
LINE
  5
E54B
330
E537
100
AcDbEntity
  8
0
  6
CONTINUOUS
100
AcDbLine
 10
41.23578448461758
 20
3.984939383878926
 30
0.0
 11
42.20881098020543
 21
4.957965879466778
 31
0.0
  0
LINE
  5
E54C
330
E537
100
AcDbEntity
  8
0
  6
CONTINUOUS
100
AcDbLine
 10
41.55324679719776
 20
3.628882487378919
 30
0.0
 11
42.52627329278561
 21
4.601908982966772
 31
0.0
  0
LINE
  5
E54D
330
E537
100
AcDbEntity
  8
0
  6
CONTINUOUS
100
AcDbLine
 10
41.87070910977793
 20
3.272825590878912
 30
0.0
 11
42.84373560536579
 21
4.245852086466765
 31
0.0
  0
LINE
  5
E54E
330
E537
100
AcDbEntity
  8
0
  6
CONTINUOUS
100
AcDbLine
 10
43.57899999995641
 20
7.001674108297943
 30
0.0
 11
44.99999999995498
 21
8.422674108296516
 31
0.0
  0
LINE
  5
E54F
330
E537
100
AcDbEntity
  8
0
  6
CONTINUOUS
100
AcDbLine
 10
43.57899999995641
 20
6.328154899217758
 30
0.0
 11
44.99999999995498
 21
7.749154899216329
 31
0.0
  0
LINE
  5
E550
330
E537
100
AcDbEntity
  8
0
  6
CONTINUOUS
100
AcDbLine
 10
43.57899999995641
 20
5.654635690137571
 30
0.0
 11
44.99999999995498
 21
7.075635690136142
 31
0.0
  0
LINE
  5
E551
330
E537
100
AcDbEntity
  8
0
  6
CONTINUOUS
100
AcDbLine
 10
43.57899999995641
 20
4.981116481057384
 30
0.0
 11
44.99999999995498
 21
6.402116481055955
 31
0.0
  0
LINE
  5
E552
330
E537
100
AcDbEntity
  8
0
  6
CONTINUOUS
100
AcDbLine
 10
39.27140272797921
 20
-0.0000000000000009
 30
0.0
 11
40.02599999995994
 21
0.7545972719807246
 31
0.0
  0
LINE
  5
E553
330
E537
100
AcDbEntity
  8
0
  6
CONTINUOUS
100
AcDbLine
 10
39.9449219370594
 20
-0.0000000000000009
 30
0.0
 11
40.02599999995994
 21
0.0810780629005379
 31
0.0
  0
LINE
  5
E554
330
E537
100
AcDbEntity
  8
0
  6
CONTINUOUS
100
AcDbLine
 10
42.18817142235812
 20
2.916768694378905
 30
0.0
 11
43.16119791794597
 21
3.889795189966758
 31
0.0
  0
LINE
  5
E555
330
E537
100
AcDbEntity
  8
0
  6
CONTINUOUS
100
AcDbLine
 10
42.50563373493829
 20
2.560711797878898
 30
0.0
 11
43.47866023052615
 21
3.533738293466751
 31
0.0
  0
LINE
  5
E556
330
E537
100
AcDbEntity
  8
0
  6
CONTINUOUS
100
AcDbLine
 10
43.57899999995641
 20
4.307597271977198
 30
0.0
 11
44.99999999995498
 21
5.728597271975769
 31
0.0
  0
LINE
  5
E557
330
E537
100
AcDbEntity
  8
0
  6
CONTINUOUS
100
AcDbLine
 10
43.57899999995641
 20
3.634078062897011
 30
0.0
 11
44.99999999995498
 21
5.055078062895582
 31
0.0
  0
LINE
  5
E558
330
E537
100
AcDbEntity
  8
0
  6
CONTINUOUS
100
AcDbLine
 10
42.82309604751848
 20
2.204654901378891
 30
0.0
 11
44.99999999995498
 21
4.381558853815395
 31
0.0
  0
LINE
  5
E559
330
E537
100
AcDbEntity
  8
0
  6
CONTINUOUS
100
AcDbLine
 10
43.14055836009865
 20
1.848598004878885
 30
0.0
 11
44.99999999995498
 21
3.70803964473521
 31
0.0
  0
LINE
  5
E55A
330
E537
100
AcDbEntity
  8
0
  6
CONTINUOUS
100
AcDbLine
 10
43.45802067267883
 20
1.492541108378878
 30
0.0
 11
44.99999999995498
 21
3.034520435655023
 31
0.0
  0
LINE
  5
E55B
330
E537
100
AcDbEntity
  8
0
  6
CONTINUOUS
100
AcDbLine
 10
43.77548298525902
 20
1.136484211878871
 30
0.0
 11
44.99999999995498
 21
2.361001226574837
 31
0.0
  0
LINE
  5
E55C
330
E537
100
AcDbEntity
  8
0
  6
CONTINUOUS
100
AcDbLine
 10
44.09294529783919
 20
0.7804273153788639
 30
0.0
 11
44.99999999995498
 21
1.687482017494649
 31
0.0
  0
LINE
  5
E55D
330
E537
100
AcDbEntity
  8
0
  6
CONTINUOUS
100
AcDbLine
 10
44.41040761041938
 20
0.4243704188788566
 30
0.0
 11
44.99999999995498
 21
1.013962808414463
 31
0.0
  0
LINE
  5
E55E
330
E537
100
AcDbEntity
  8
0
  6
CONTINUOUS
100
AcDbLine
 10
44.72786992299955
 20
0.0683135223788494
 30
0.0
 11
44.99999999995498
 21
0.340443599334276
 31
0.0
  0
LINE
  5
E55F
330
E537
100
AcDbEntity
  8
0
  6
CONTINUOUS
100
AcDbLine
 10
39.12223903415696
 20
-0.0000000000000009
 30
0.0
 11
38.60499999996136
 21
0.5172390341955961
 31
0.0
  0
LINE
  5
E560
330
E537
100
AcDbEntity
  8
0
  6
CONTINUOUS
100
AcDbLine
 10
39.79575824323715
 20
-0.0000000000000009
 30
0.0
 11
38.60499999996136
 21
1.190758243275783
 31
0.0
  0
LINE
  5
E561
330
E537
100
AcDbEntity
  8
0
  6
CONTINUOUS
100
AcDbLine
 10
40.02599999995994
 20
0.443277452357397
 30
0.0
 11
38.60499999996136
 21
1.864277452355969
 31
0.0
  0
LINE
  5
E562
330
E537
100
AcDbEntity
  8
0
  6
CONTINUOUS
100
AcDbLine
 10
40.02599999995994
 20
1.116796661437583
 30
0.0
 11
38.60499999996136
 21
2.537796661436155
 31
0.0
  0
LINE
  5
E563
330
E537
100
AcDbEntity
  8
0
  6
CONTINUOUS
100
AcDbLine
 10
40.02599999995994
 20
1.79031587051777
 30
0.0
 11
38.60499999996136
 21
3.211315870516341
 31
0.0
  0
LINE
  5
E564
330
E537
100
AcDbEntity
  8
0
  6
CONTINUOUS
100
AcDbLine
 10
40.02599999995994
 20
2.463835079597956
 30
0.0
 11
38.60499999996136
 21
3.884835079596527
 31
0.0
  0
LINE
  5
E565
330
E537
100
AcDbEntity
  8
0
  6
CONTINUOUS
100
AcDbLine
 10
40.02599999995994
 20
3.137354288678143
 30
0.0
 11
38.60499999996136
 21
4.558354288676714
 31
0.0
  0
LINE
  5
E566
330
E537
100
AcDbEntity
  8
0
  6
CONTINUOUS
100
AcDbLine
 10
40.02599999995994
 20
3.810873497758329
 30
0.0
 11
38.60499999996136
 21
5.2318734977569
 31
0.0
  0
LINE
  5
E567
330
E537
100
AcDbEntity
  8
0
  6
CONTINUOUS
100
AcDbLine
 10
40.02599999995994
 20
4.484392706838515
 30
0.0
 11
38.60499999996136
 21
5.905392706837086
 31
0.0
  0
LINE
  5
E568
330
E537
100
AcDbEntity
  8
0
  6
CONTINUOUS
100
AcDbLine
 10
44.99999999995498
 20
0.183911915923658
 30
0.0
 11
41.53858364506288
 21
3.64532827081576
 31
0.0
  0
LINE
  5
E569
330
E537
100
AcDbEntity
  8
0
  6
CONTINUOUS
100
AcDbLine
 10
40.02599999995994
 20
5.157911915918703
 30
0.0
 11
38.60499999996136
 21
6.578911915917274
 31
0.0
  0
LINE
  5
E56A
330
E537
100
AcDbEntity
  8
0
  6
CONTINUOUS
100
AcDbLine
 10
44.99999999995498
 20
0.8574311250038447
 30
0.0
 11
38.60499999996136
 21
7.25243112499746
 31
0.0
  0
LINE
  5
E56B
330
E537
100
AcDbEntity
  8
0
  6
CONTINUOUS
100
AcDbLine
 10
44.99999999995498
 20
1.530950334084031
 30
0.0
 11
38.60499999996136
 21
7.925950334077647
 31
0.0
  0
LINE
  5
E56C
330
E537
100
AcDbEntity
  8
0
  6
CONTINUOUS
100
AcDbLine
 10
44.99999999995498
 20
2.204469543164218
 30
0.0
 11
43.57899999995641
 21
3.625469543162789
 31
0.0
  0
LINE
  5
E56D
330
E537
100
AcDbEntity
  8
0
  6
CONTINUOUS
100
AcDbLine
 10
41.89876730984767
 20
5.305702233271528
 30
0.0
 11
38.60499999996136
 21
8.599469543157834
 31
0.0
  0
LINE
  5
E56E
330
E537
100
AcDbEntity
  8
0
  6
CONTINUOUS
100
AcDbLine
 10
44.99999999995498
 20
2.877988752244405
 30
0.0
 11
43.57899999995641
 21
4.298988752242975
 31
0.0
  0
LINE
  5
E56F
330
E537
100
AcDbEntity
  8
0
  6
CONTINUOUS
100
AcDbLine
 10
44.99999999995498
 20
3.551507961324591
 30
0.0
 11
43.57899999995641
 21
4.972507961323163
 31
0.0
  0
LINE
  5
E570
330
E537
100
AcDbEntity
  8
0
  6
CONTINUOUS
100
AcDbLine
 10
44.99999999995498
 20
4.225027170404777
 30
0.0
 11
43.57899999995641
 21
5.646027170403348
 31
0.0
  0
LINE
  5
E571
330
E537
100
AcDbEntity
  8
0
  6
CONTINUOUS
100
AcDbLine
 10
44.99999999995498
 20
4.898546379484964
 30
0.0
 11
43.57899999995641
 21
6.319546379483535
 31
0.0
  0
LINE
  5
E572
330
E537
100
AcDbEntity
  8
0
  6
CONTINUOUS
100
AcDbLine
 10
44.99999999995498
 20
5.572065588565151
 30
0.0
 11
43.57899999995641
 21
6.993065588563722
 31
0.0
  0
LINE
  5
E573
330
E537
100
AcDbEntity
  8
0
  6
CONTINUOUS
100
AcDbLine
 10
44.99999999995498
 20
6.245584797645336
 30
0.0
 11
43.57899999995641
 21
7.666584797643908
 31
0.0
  0
LINE
  5
E574
330
E537
100
AcDbEntity
  8
0
  6
CONTINUOUS
100
AcDbLine
 10
44.99999999995498
 20
6.919104006725522
 30
0.0
 11
43.57899999995641
 21
8.340104006724093
 31
0.0
  0
LINE
  5
E575
330
E537
100
AcDbEntity
  8
0
  6
CONTINUOUS
100
AcDbLine
 10
44.99999999995498
 20
7.592623215805709
 30
0.0
 11
43.82952321576943
 21
8.763099999991255
 31
0.0
  0
LINE
  5
E576
330
E537
100
AcDbEntity
  8
0
  6
CONTINUOUS
100
AcDbLine
 10
44.99999999995498
 20
8.266142424885896
 30
0.0
 11
44.50304242484962
 21
8.763099999991255
 31
0.0
  0
ENDBLK
  5
E5A0
330
E537
100
AcDbEntity
  8
0
100
AcDbBlockEnd
  0
BLOCK
  5
E5A1
330
E577
100
AcDbEntity
  8
0
100
AcDbBlockBegin
  2
*X180
 70
     1
 10
0.0
 20
0.0
 30
0.0
  3
*X180
  1

  0
LINE
  5
E578
330
E577
100
AcDbEntity
  8
0
  6
CONTINUOUS
100
AcDbLine
 10
0.0
 20
8.548461116714023
 30
0.0
 11
0.2146388832772324
 21
8.763099999991255
 31
0.0
  0
LINE
  5
E579
330
E577
100
AcDbEntity
  8
0
  6
CONTINUOUS
100
AcDbLine
 10
-0.0000000000000002
 20
7.874941907633837
 30
0.0
 11
0.8881580923574184
 21
8.763099999991255
 31
0.0
  0
LINE
  5
E57A
330
E577
100
AcDbEntity
  8
0
  6
CONTINUOUS
100
AcDbLine
 10
0.0
 20
7.20142269855365
 30
0.0
 11
1.420999999998572
 21
8.622422698552223
 31
0.0
  0
LINE
  5
E57B
330
E577
100
AcDbEntity
  8
0
  6
CONTINUOUS
100
AcDbLine
 10
-0.0000000000000001
 20
6.527903489473465
 30
0.0
 11
1.420999999998571
 21
7.948903489472036
 31
0.0
  0
LINE
  5
E57C
330
E577
100
AcDbEntity
  8
0
  6
CONTINUOUS
100
AcDbLine
 10
-0.0000000000000002
 20
5.854384280393278
 30
0.0
 11
1.420999999998571
 21
7.275384280391849
 31
0.0
  0
LINE
  5
E57D
330
E577
100
AcDbEntity
  8
0
  6
CONTINUOUS
100
AcDbLine
 10
-0.0000000000000002
 20
5.180865071313091
 30
0.0
 11
1.420999999998571
 21
6.601865071311663
 31
0.0
  0
LINE
  5
E57E
330
E577
100
AcDbEntity
  8
0
  6
CONTINUOUS
100
AcDbLine
 10
0.0
 20
4.507345862232905
 30
0.0
 11
1.420999999998571
 21
5.928345862231477
 31
0.0
  0
LINE
  5
E57F
330
E577
100
AcDbEntity
  8
0
  6
CONTINUOUS
100
AcDbLine
 10
-0.0000000000000003
 20
3.833826653152718
 30
0.0
 11
1.420999999998571
 21
5.25482665315129
 31
0.0
  0
LINE
  5
E580
330
E577
100
AcDbEntity
  8
0
  6
CONTINUOUS
100
AcDbLine
 10
-0.0000000000000002
 20
3.160307444072532
 30
0.0
 11
1.420999999998571
 21
4.581307444071103
 31
0.0
  0
LINE
  5
E581
330
E577
100
AcDbEntity
  8
0
  6
CONTINUOUS
100
AcDbLine
 10
-0.0000000000000001
 20
2.486788234992345
 30
0.0
 11
1.420999999998571
 21
3.907788234990917
 31
0.0
  0
LINE
  5
E582
330
E577
100
AcDbEntity
  8
0
  6
CONTINUOUS
100
AcDbLine
 10
-0.0000000000000006
 20
1.813269025912159
 30
0.0
 11
1.420999999998571
 21
3.234269025910731
 31
0.0
  0
LINE
  5
E583
330
E577
100
AcDbEntity
  8
0
  6
CONTINUOUS
100
AcDbLine
 10
0.0
 20
1.139749816831973
 30
0.0
 11
1.420999999998571
 21
2.560749816830544
 31
0.0
  0
LINE
  5
E584
330
E577
100
AcDbEntity
  8
0
  6
CONTINUOUS
100
AcDbLine
 10
0.0000000000000002
 20
0.466230607751787
 30
0.0
 11
1.420999999998571
 21
1.887230607750358
 31
0.0
  0
LINE
  5
E585
330
E577
100
AcDbEntity
  8
0
  6
CONTINUOUS
100
AcDbLine
 10
0.2072886013284003
 20
-0.0000000000000009
 30
0.0
 11
1.420999999998571
 21
1.213711398670171
 31
0.0
  0
LINE
  5
E586
330
E577
100
AcDbEntity
  8
0
  6
CONTINUOUS
100
AcDbLine
 10
0.8808078104085864
 20
-0.0000000000000009
 30
0.0
 11
1.420999999998571
 21
0.5401921895899839
 31
0.0
  0
LINE
  5
E587
330
E577
100
AcDbEntity
  8
0
  6
CONTINUOUS
100
AcDbLine
 10
0.0581249075061505
 20
-0.0000000000000009
 30
0.0
 11
-0.0000000000000002
 21
0.0581249075061496
 31
0.0
  0
LINE
  5
E588
330
E577
100
AcDbEntity
  8
0
  6
CONTINUOUS
100
AcDbLine
 10
0.7316441165863372
 20
-0.0000000000000009
 30
0.0
 11
-0.0000000000000002
 21
0.7316441165863363
 31
0.0
  0
LINE
  5
E589
330
E577
100
AcDbEntity
  8
0
  6
CONTINUOUS
100
AcDbLine
 10
1.405163325666523
 20
-0.0000000000000009
 30
0.0
 11
-0.0000000000000002
 21
1.405163325666523
 31
0.0
  0
LINE
  5
E58A
330
E577
100
AcDbEntity
  8
0
  6
CONTINUOUS
100
AcDbLine
 10
1.420999999998572
 20
0.6576825347481381
 30
0.0
 11
-0.0000000000000001
 21
2.07868253474671
 31
0.0
  0
LINE
  5
E58B
330
E577
100
AcDbEntity
  8
0
  6
CONTINUOUS
100
AcDbLine
 10
1.420999999998571
 20
1.331201743828324
 30
0.0
 11
-0.0000000000000001
 21
2.752201743826896
 31
0.0
  0
LINE
  5
E58C
330
E577
100
AcDbEntity
  8
0
  6
CONTINUOUS
100
AcDbLine
 10
1.420999999998571
 20
2.004720952908511
 30
0.0
 11
-0.0000000000000002
 21
3.425720952907082
 31
0.0
  0
LINE
  5
E58D
330
E577
100
AcDbEntity
  8
0
  6
CONTINUOUS
100
AcDbLine
 10
1.420999999998571
 20
2.678240161988697
 30
0.0
 11
-0.0000000000000001
 21
4.099240161987269
 31
0.0
  0
LINE
  5
E58E
330
E577
100
AcDbEntity
  8
0
  6
CONTINUOUS
100
AcDbLine
 10
1.420999999998572
 20
3.351759371068884
 30
0.0
 11
0.0
 21
4.772759371067455
 31
0.0
  0
LINE
  5
E58F
330
E577
100
AcDbEntity
  8
0
  6
CONTINUOUS
100
AcDbLine
 10
1.420999999998571
 20
4.02527858014907
 30
0.0
 11
-0.0000000000000003
 21
5.446278580147642
 31
0.0
  0
LINE
  5
E590
330
E577
100
AcDbEntity
  8
0
  6
CONTINUOUS
100
AcDbLine
 10
1.420999999998571
 20
4.698797789229257
 30
0.0
 11
0.0
 21
6.119797789227828
 31
0.0
  0
LINE
  5
E591
330
E577
100
AcDbEntity
  8
0
  6
CONTINUOUS
100
AcDbLine
 10
1.420999999998571
 20
5.372316998309444
 30
0.0
 11
-0.0000000000000001
 21
6.793316998308015
 31
0.0
  0
LINE
  5
E592
330
E577
100
AcDbEntity
  8
0
  6
CONTINUOUS
100
AcDbLine
 10
1.420999999998572
 20
6.045836207389629
 30
0.0
 11
-0.0000000000000004
 21
7.466836207388202
 31
0.0
  0
LINE
  5
E593
330
E577
100
AcDbEntity
  8
0
  6
CONTINUOUS
100
AcDbLine
 10
1.420999999998571
 20
6.719355416469816
 30
0.0
 11
0.0
 21
8.140355416468388
 31
0.0
  0
LINE
  5
E594
330
E577
100
AcDbEntity
  8
0
  6
CONTINUOUS
100
AcDbLine
 10
1.420999999998571
 20
7.392874625550003
 30
0.0
 11
0.0507746255573185
 21
8.763099999991255
 31
0.0
  0
LINE
  5
E595
330
E577
100
AcDbEntity
  8
0
  6
CONTINUOUS
100
AcDbLine
 10
1.420999999998571
 20
8.06639383463019
 30
0.0
 11
0.7242938346375052
 21
8.763099999991255
 31
0.0
  0
LINE
  5
E596
330
E577
100
AcDbEntity
  8
0
  6
CONTINUOUS
100
AcDbLine
 10
1.420999999998571
 20
8.739913043710375
 30
0.0
 11
1.397813043717691
 21
8.763099999991255
 31
0.0
  0
ENDBLK
  5
E5A2
330
E577
100
AcDbEntity
  8
0
100
AcDbBlockEnd
  0
ENDSEC
  0
SECTION
  2
ENTITIES
  0
LINE
  5
C827
330
18
100
AcDbEntity
  8
01
100
AcDbLine
 10
6555.426753842206
 20
466.7131412605995
 30
0.0000000000563712
 11
6581.426753842206
 21
466.7131412605995
 31
0.0000000000563712
  0
LINE
  5
C828
330
18
100
AcDbEntity
  8
01
100
AcDbLine
 10
6590.926753842206
 20
472.2131412605995
 30
0.0000000000563712
 11
6545.926753842206
 21
472.2131412605995
 31
0.0000000000563712
  0
LINE
  5
C829
330
18
100
AcDbEntity
  8
01
100
AcDbLine
 10
6568.426753842206
 20
494.7131412605995
 30
0.0000000000563712
 11
6568.426753842206
 21
449.7131412605995
 31
0.0000000000563712
  0
LINE
  5
C96C
330
18
100
AcDbEntity
  8
1CENTER
100
AcDbLine
 10
6908.426769807056
 20
732.0497719222046
 30
0.0000000000563712
 11
6908.426769807056
 21
687.7630282080834
 31
0.0000000000563712
  0
LINE
  5
C96D
330
18
100
AcDbEntity
  8
01
100
AcDbLine
 10
6888.92675758585
 20
713.0131412595711
 30
0.0000000000563712
 11
6927.926757585849
 21
713.0131412595713
 31
0.0000000000563712
  0
LINE
  5
C96E
330
18
100
AcDbEntity
  8
01
100
AcDbLine
 10
6928.42675758585
 20
706.7131412595711
 30
0.0000000000563712
 11
6888.42675758585
 21
706.7131412595706
 31
0.0000000000563712
  0
LINE
  5
C96F
330
18
100
AcDbEntity
  8
01
100
AcDbLine
 10
6928.42675758585
 20
706.7131412595711
 30
0.0000000000563712
 11
6928.426757585849
 21
712.5131412595713
 31
0.0000000000563712
  0
ARC
  5
C970
330
18
100
AcDbEntity
  8
01
100
AcDbCircle
 10
6927.92675758585
 20
712.5131412595711
 30
0.0000000000563712
 40
0.5
100
AcDbArc
 50
0.0
 51
90.0
  0
LINE
  5
C971
330
18
100
AcDbEntity
  8
01
100
AcDbLine
 10
6888.42675758585
 20
706.7131412595706
 30
0.0000000000563712
 11
6888.42675758585
 21
712.5131412595711
 31
0.0000000000563712
  0
ARC
  5
C972
330
18
100
AcDbEntity
  8
01
100
AcDbCircle
 10
6888.92675758585
 20
712.5131412595711
 30
0.0000000000563712
 40
0.5
100
AcDbArc
 50
90.0
 51
180.0
  0
LINE
  5
C973
330
18
100
AcDbEntity
  8
01
100
AcDbLine
 10
6904.926769807063
 20
714.2131379263708
 30
0.0000000000563885
 11
6899.176769807057
 21
714.2131379263717
 31
0.0000000000563885
  0
LINE
  5
C974
330
18
100
AcDbEntity
  8
01
100
AcDbLine
 10
6905.926769807065
 20
727.7131608705774
 30
0.0000000000563885
 11
6905.926769807063
 21
715.2131379263708
 31
0.0000000000563885
  0
LINE
  5
C975
330
18
100
AcDbEntity
  8
01
100
AcDbLine
 10
6910.926769807065
 20
727.7131608705756
 30
0.0000000000563885
 11
6910.926769807065
 21
715.2131379263726
 31
0.0000000000563885
  0
ARC
  5
C976
330
18
100
AcDbEntity
  8
01
100
AcDbCircle
 10
6909.926769807065
 20
727.7131608705774
 30
0.0000000000563885
 40
1.0
100
AcDbArc
 50
0.0000000000521102
 51
90.0
  0
ARC
  5
C977
330
18
100
AcDbEntity
  8
01
100
AcDbCircle
 10
6906.926769807065
 20
727.7131608705774
 30
0.0000000000563885
 40
1.0
100
AcDbArc
 50
90.0
 51
180.0
  0
LINE
  5
C978
330
18
100
AcDbEntity
  8
01
100
AcDbLine
 10
6909.926769807065
 20
728.7131608705793
 30
0.0000000000563885
 11
6906.926769807065
 21
728.7131608705793
 31
0.0000000000563885
  0
LINE
  5
C979
330
18
100
AcDbEntity
  8
01
100
AcDbLine
 10
6917.676769807056
 20
714.2131379263726
 30
0.0000000000563885
 11
6911.926769807065
 21
714.2131379263726
 31
0.0000000000563885
  0
ARC
  5
C97A
330
18
100
AcDbEntity
  8
01
100
AcDbCircle
 10
6911.926769807065
 20
715.2131379263726
 30
0.0000000000563885
 40
1.0
100
AcDbArc
 50
180.0
 51
270.0
  0
ARC
  5
C97B
330
18
100
AcDbEntity
  8
01
100
AcDbCircle
 10
6904.926769807063
 20
715.2131379263708
 30
0.0000000000563885
 40
1.0
100
AcDbArc
 50
270.0
 51
0.0
  0
LINE
  5
C97C
330
18
100
AcDbEntity
  8
01
100
AcDbLine
 10
6898.676769807057
 20
713.7131379263722
 30
0.000000000112646
 11
6898.676769807057
 21
713.0131412595713
 31
0.0000000001126239
  0
ARC
  5
C97D
330
18
100
AcDbEntity
  8
01
100
AcDbCircle
 10
6899.176769807057
 20
713.7131379263722
 30
0.000000000112646
 40
0.5
100
AcDbArc
 50
90.0
 51
180.0
  0
LINE
  5
C97E
330
18
100
AcDbEntity
  8
01
100
AcDbLine
 10
6918.176769807056
 20
713.7131379263722
 30
0.000000000112646
 11
6918.176769807056
 21
713.0131412595713
 31
0.0000000001126239
  0
ARC
  5
C97F
330
18
100
AcDbEntity
  8
01
100
AcDbCircle
 10
6917.676769807056
 20
713.7131379263722
 30
0.000000000112646
 40
0.5
100
AcDbArc
 50
0.0
 51
90.0
  0
LINE
  5
C980
330
18
100
AcDbEntity
  8
1CENTER
100
AcDbLine
 10
6908.426745232437
 20
657.8885248715169
 30
0.0000000000563712
 11
6908.426745232437
 21
669.8885248715169
 31
0.0000000000563712
  0
LINE
  5
C981
330
18
100
AcDbEntity
  8
01
100
AcDbLine
 10
6927.926757453643
 20
660.413141259568
 30
0.0000000000563712
 11
6888.926757453643
 21
660.4131412595732
 31
0.0000000000563712
  0
LINE
  5
C982
330
18
100
AcDbEntity
  8
01
100
AcDbLine
 10
6888.426757453644
 20
666.7131412595736
 30
0.0000000000563712
 11
6928.426757453644
 21
666.7131412595681
 31
0.0000000000563712
  0
LINE
  5
C983
330
18
100
AcDbEntity
  8
01
100
AcDbLine
 10
6888.426757453644
 20
666.7131412595736
 30
0.0000000000563712
 11
6888.426757453643
 21
660.9131412595734
 31
0.0000000000563712
  0
ARC
  5
C984
330
18
100
AcDbEntity
  8
01
100
AcDbCircle
 10
6888.926757453643
 20
660.9131412595736
 30
0.0000000000563712
 40
0.5
100
AcDbArc
 50
179.9999999999739
 51
270.0
  0
LINE
  5
C985
330
18
100
AcDbEntity
  8
01
100
AcDbLine
 10
6928.426757453644
 20
666.7131412595681
 30
0.0000000000563712
 11
6928.426757453643
 21
660.913141259568
 31
0.0000000000563712
  0
ARC
  5
C986
330
18
100
AcDbEntity
  8
01
100
AcDbCircle
 10
6927.926757453643
 20
660.913141259568
 30
0.0000000000563712
 40
0.5
100
AcDbArc
 50
270.0
 51
0.0
  0
ARC
  5
C987
330
18
100
AcDbEntity
  8
01
100
AcDbCircle
 10
6908.426747911499
 20
664.5631358816956
 30
0.0000000000562575
 40
6.0
100
AcDbArc
 50
234.3146660000189
 51
256.8165180000145
  0
LINE
  5
C988
330
18
100
AcDbEntity
  8
01
100
AcDbLine
 10
6904.926747911499
 20
659.6897358816955
 30
0.0000000000562575
 11
6904.926747911498
 21
660.4131412595709
 31
0.0000000000562575
  0
LINE
  5
C989
330
18
100
AcDbEntity
  8
01
100
AcDbLine
 10
6911.926747911499
 20
659.6897358816955
 30
0.0000000000562575
 11
6911.926747911499
 21
660.41314125957
 31
0.0000000000562575
  0
LINE
  5
C98A
330
18
100
AcDbEntity
  8
01
100
AcDbLine
 10
6909.426747911499
 20
659.0125874222931
 30
0.0000000000562575
 11
6909.426747911499
 21
660.4131412595705
 31
0.0000000000562575
  0
ARC
  5
C98B
330
18
100
AcDbEntity
  8
01
100
AcDbCircle
 10
6907.126744911498
 20
659.0133658816956
 30
0.0000000000562575
 40
0.30000001
100
AcDbArc
 50
256.8165179999623
 51
0.0
  0
ARC
  5
C98C
330
18
100
AcDbEntity
  8
01
100
AcDbCircle
 10
6909.726746911499
 20
659.0133658816956
 30
0.0000000000562575
 40
0.30000001
100
AcDbArc
 50
179.9999969999697
 51
283.1834799999676
  0
LINE
  5
C98D
330
18
100
AcDbEntity
  8
01
100
AcDbLine
 10
6907.426747911499
 20
659.0133658816956
 30
0.0000000000562575
 11
6907.426747911499
 21
660.4131412595707
 31
0.0000000000562575
  0
ARC
  5
C98E
330
18
100
AcDbEntity
  8
01
100
AcDbCircle
 10
6908.426747911499
 20
664.5631358816956
 30
0.0000000000562575
 40
6.0
100
AcDbArc
 50
283.1834825033476
 51
305.6853299999988
  0
LINE
  5
C98F
330
18
100
AcDbEntity
  8
1CENTER
100
AcDbLine
 10
6568.426753842206
 20
460.7131412605995
 30
0.0000000000563712
 11
6568.426753842206
 21
472.7131412605995
 31
0.0000000000563712
  0
LINE
  5
C990
330
18
100
AcDbEntity
  8
1CENTER
100
AcDbLine
 10
6562.426753842206
 20
466.7131412605995
 30
0.0000000000563712
 11
6574.426753842206
 21
466.7131412605995
 31
0.0000000000563712
  0
LINE
  5
C991
330
18
100
AcDbEntity
  8
01
100
AcDbLine
 10
6587.926753842205
 20
492.2131412605995
 30
0.0000000000563712
 11
6548.926753842205
 21
492.2131412605993
 31
0.0000000000563712
  0
ARC
  5
C992
330
18
100
AcDbEntity
  8
01
100
AcDbCircle
 10
6548.926753842205
 20
491.7131412605993
 30
0.0000000000563712
 40
0.5
100
AcDbArc
 50
90.0
 51
180.0
  0
LINE
  5
C993
330
18
100
AcDbEntity
  8
01
100
AcDbLine
 10
6587.926753842205
 20
452.2131412605995
 30
0.0000000000563712
 11
6548.926753842205
 21
452.2131412605991
 31
0.0000000000563712
  0
ARC
  5
C994
330
18
100
AcDbEntity
  8
01
100
AcDbCircle
 10
6587.926753842205
 20
452.7131412605995
 30
0.0000000000563712
 40
0.5
100
AcDbArc
 50
270.0
 51
0.0
  0
LINE
  5
C995
330
18
100
AcDbEntity
  8
01
100
AcDbLine
 10
6588.426753842205
 20
452.7131412605995
 30
0.0000000000563712
 11
6588.426753842205
 21
491.7131412605995
 31
0.0000000000563712
  0
ARC
  5
C996
330
18
100
AcDbEntity
  8
01
100
AcDbCircle
 10
6587.926753842205
 20
491.7131412605995
 30
0.0000000000563712
 40
0.5
100
AcDbArc
 50
0.0
 51
90.0
  0
LINE
  5
C997
330
18
100
AcDbEntity
  8
01
100
AcDbLine
 10
6548.426753842205
 20
452.7131412605991
 30
0.0000000000563712
 11
6548.426753842205
 21
491.7131412605993
 31
0.0000000000563712
  0
ARC
  5
C998
330
18
100
AcDbEntity
  8
01
100
AcDbCircle
 10
6548.926753842205
 20
452.7131412605991
 30
0.0000000000563712
 40
0.5
100
AcDbArc
 50
180.0
 51
270.0
  0
ARC
  5
C999
330
18
100
AcDbEntity
  8
01
100
AcDbCircle
 10
6570.426753842206
 20
475.7443371946938
 30
0.0000000000563712
 40
0.5000000000000013
100
AcDbArc
 50
0.0
 51
77.51311018581228
  0
ARC
  5
C99A
330
18
100
AcDbEntity
  8
01
100
AcDbCircle
 10
6566.426753842206
 20
457.6819453265052
 30
0.0000000000563712
 40
0.5000000000000029
100
AcDbArc
 50
180.0
 51
257.5131101858646
  0
ARC
  5
C99B
330
18
100
AcDbEntity
  8
01
100
AcDbCircle
 10
6570.426753842206
 20
457.6819453265052
 30
0.0000000000563712
 40
0.5000000000000013
100
AcDbArc
 50
282.4868898141877
 51
0.0
  0
ARC
  5
C99C
330
18
100
AcDbEntity
  8
01
100
AcDbCircle
 10
6568.426753842206
 20
466.7131412605995
 30
0.0000000000563712
 40
9.749999999999995
100
AcDbArc
 50
77.51311018581228
 51
102.4868898141877
  0
ARC
  5
C99D
330
18
100
AcDbEntity
  8
01
100
AcDbCircle
 10
6566.426753842206
 20
475.7443371946938
 30
0.0000000000563712
 40
0.5000000000000029
100
AcDbArc
 50
102.4868898141354
 51
180.0
  0
ARC
  5
C99E
330
18
100
AcDbEntity
  8
01
100
AcDbCircle
 10
6568.426753842206
 20
466.7131412605995
 30
0.0000000000563712
 40
9.75
100
AcDbArc
 50
257.5131101858123
 51
282.4868898141877
  0
LINE
  5
C99F
330
18
100
AcDbEntity
  8
01
100
AcDbLine
 10
6570.926753842206
 20
475.7443371946938
 30
0.0000000000563712
 11
6570.926753842206
 21
457.6819453265052
 31
0.0000000000563712
  0
LINE
  5
C9A0
330
18
100
AcDbEntity
  8
01
100
AcDbLine
 10
6565.926753842206
 20
457.6819453265052
 30
0.0000000000563712
 11
6565.926753842206
 21
475.7443371946938
 31
0.0000000000563712
  0
SPLINE
  5
C9A1
330
18
100
AcDbEntity
  8
01
100
AcDbSpline
210
0.0
220
0.0
230
1.0
 70
     8
 71
     3
 72
    18
 73
    14
 74
     0
 42
0.0000000001
 43
0.0000000001
 40
0.0
 40
0.0
 40
0.0
 40
0.0
 40
0.2500000000000002
 40
0.2500000000000002
 40
0.375
 40
0.375
 40
0.4999999999999998
 40
0.4999999999999998
 40
0.6249999999999996
 40
0.6249999999999996
 40
0.7499999999999993
 40
0.7499999999999993
 40
1.0
 40
1.0
 40
1.0
 40
1.0
 10
6572.115943031395
 20
457.6880438580022
 30
0.0000000000563712
 10
6571.92268197412
 20
457.6090445329655
 30
0.0000000000563712
 10
6571.730360362391
 20
457.5377769983959
 30
0.0000000000563712
 10
6571.451034903932
 20
457.4435198872225
 30
0.0000000000563712
 10
6571.361541761424
 20
457.4148866620346
 30
0.0000000000563712
 10
6571.190264553632
 20
457.3625515862341
 30
0.0000000000563712
 10
6571.107615140461
 20
457.3386194213133
 30
0.0000000000563712
 10
6570.956142001021
 20
457.2966200049666
 30
0.0000000000563712
 10
6570.887470430065
 20
457.2785581374073
 30
0.0000000000563712
 10
6570.765102455805
 20
457.2474869992466
 30
0.0000000000563712
 10
6570.711262219189
 20
457.2344554666397
 30
0.0000000000563712
 10
6570.581907931957
 20
457.2039003618793
 30
0.0000000000563712
 10
6570.534861950315
 20
457.193772573311
 30
0.0000000000563712
 10
6570.534861950315
 20
457.193772573311
 30
0.0000000000563712
  0
SPLINE
  5
C9A2
330
18
100
AcDbEntity
  8
01
100
AcDbSpline
210
0.0
220
0.0
230
1.0
 70
     8
 71
     3
 72
    18
 73
    14
 74
     0
 42
0.0000000001
 43
0.0000000001
 40
0.0
 40
0.0
 40
0.0
 40
0.0
 40
0.2500000000000002
 40
0.2500000000000002
 40
0.3750000000000002
 40
0.3750000000000002
 40
0.5000000000000002
 40
0.5000000000000002
 40
0.6250000000000002
 40
0.6250000000000002
 40
0.7500000000000001
 40
0.7500000000000001
 40
1.0
 40
1.0
 40
1.0
 40
1.0
 10
6564.737564653016
 20
475.7382386631969
 30
0.0000000000563712
 10
6564.930825710293
 20
475.8172379882335
 30
0.0000000000563712
 10
6565.12314732202
 20
475.8885055228029
 30
0.0000000000563712
 10
6565.402472780481
 20
475.9827626339766
 30
0.0000000000563712
 10
6565.491965922989
 20
476.0113958591644
 30
0.0000000000563712
 10
6565.663243130781
 20
476.063730934965
 30
0.0000000000563712
 10
6565.74589254395
 20
476.0876630998857
 30
0.0000000000563712
 10
6565.897365683391
 20
476.1296625162322
 30
0.0000000000563712
 10
6565.966037254348
 20
476.1477243837917
 30
0.0000000000563712
 10
6566.088405228607
 20
476.1787955219525
 30
0.0000000000563712
 10
6566.142245465224
 20
476.1918270545593
 30
0.0000000000563712
 10
6566.271599752455
 20
476.2223821593197
 30
0.0000000000563712
 10
6566.318645734098
 20
476.232509947888
 30
0.0000000000563712
 10
6566.318645734098
 20
476.232509947888
 30
0.0000000000563712
  0
SPLINE
  5
C9A3
330
18
100
AcDbEntity
  8
01
100
AcDbSpline
210
0.0
220
0.0
230
1.0
 70
     8
 71
     3
 72
    16
 73
    12
 74
     0
 42
0.0000000001
 43
0.0000000001
 40
0.0
 40
0.0
 40
0.0
 40
0.0
 40
0.1249999999999998
 40
0.1249999999999998
 40
0.2499999999999997
 40
0.2499999999999997
 40
0.4999999999999998
 40
0.4999999999999998
 40
0.7499999999999999
 40
0.7499999999999999
 40
1.0
 40
1.0
 40
1.0
 40
1.0
 10
6566.318645734098
 20
457.193772573311
 30
0.0000000000563712
 10
6566.318645734098
 20
457.193772573311
 30
0.0000000000563712
 10
6566.307230211971
 20
457.1962805293019
 30
0.0000000000563712
 10
6566.26279715563
 20
457.2062853104621
 30
0.0000000000563712
 10
6566.229101555076
 20
457.2139419755117
 30
0.0000000000563712
 10
6566.099754233615
 20
457.2444864800443
 30
0.0000000000563712
 10
6565.973298353309
 20
457.2755866338214
 30
0.0000000000563712
 10
6565.672352152313
 20
457.3589896421929
 30
0.0000000000563712
 10
6565.495558717545
 20
457.4121385717156
 30
0.0000000000563712
 10
6565.125862445542
 20
457.5368308983191
 30
0.0000000000563712
 10
6564.930791287308
 20
457.6090586040498
 30
0.0000000000563712
 10
6564.737564653016
 20
457.6880438580022
 30
0.0000000000563712
  0
SPLINE
  5
C9A4
330
18
100
AcDbEntity
  8
01
100
AcDbSpline
210
0.0
220
0.0
230
1.0
 70
     8
 71
     3
 72
    16
 73
    12
 74
     0
 42
0.0000000001
 43
0.0000000001
 40
0.0
 40
0.0
 40
0.0
 40
0.0
 40
0.1249999999999997
 40
0.1249999999999997
 40
0.2499999999999993
 40
0.2499999999999993
 40
0.4999999999999996
 40
0.4999999999999996
 40
0.7499999999999998
 40
0.7499999999999998
 40
1.0
 40
1.0
 40
1.0
 40
1.0
 10
6570.534861950315
 20
476.232509947888
 30
0.0000000000563712
 10
6570.534861950315
 20
476.232509947888
 30
0.0000000000563712
 10
6570.54627747244
 20
476.2300019918969
 30
0.0000000000563712
 10
6570.590710528782
 20
476.2199972107367
 30
0.0000000000563712
 10
6570.624406129335
 20
476.2123405456871
 30
0.0000000000563712
 10
6570.753753450797
 20
476.1817960411545
 30
0.0000000000563712
 10
6570.880209331104
 20
476.1506958873777
 30
0.0000000000563712
 10
6571.1811555321
 20
476.0672928790061
 30
0.0000000000563712
 10
6571.357948966866
 20
476.0141439494835
 30
0.0000000000563712
 10
6571.72764523887
 20
475.88945162288
 30
0.0000000000563712
 10
6571.922716397105
 20
475.8172239171492
 30
0.0000000000563712
 10
6572.115943031395
 20
475.7382386631969
 30
0.0000000000563712
  0
ARC
  5
C9A5
330
18
100
AcDbEntity
  8
01
100
AcDbCircle
 10
6568.426753842206
 20
466.7131412605995
 30
0.0000000000563712
 40
9.750000000000005
100
AcDbArc
 50
112.2332717982963
 51
247.7667282017037
  0
ARC
  5
C9A6
330
18
100
AcDbEntity
  8
01
100
AcDbCircle
 10
6568.426753842206
 20
466.7131412605995
 30
0.0000000000563712
 40
9.750000000000009
100
AcDbArc
 50
292.2332717982963
 51
67.7667282017037
  0
CIRCLE
  5
C9A7
330
18
100
AcDbEntity
  8
01
100
AcDbCircle
 10
6568.426753842206
 20
466.7131412605995
 30
0.0000000000563712
 40
10.3
  0
LINE
  5
C9A8
330
18
100
AcDbEntity
  8
01
100
AcDbLine
 10
6764.726757842207
 20
452.7131461247893
 30
0.0000000000563712
 11
6764.726757842208
 21
491.7131461247889
 31
0.0000000000563712
  0
LINE
  5
C9A9
330
18
100
AcDbEntity
  8
01
100
AcDbLine
 10
6758.426757842208
 20
492.2131461247893
 30
0.0000000000563712
 11
6758.426757842204
 21
452.2131461247891
 31
0.0000000000563712
  0
LINE
  5
C9AA
330
18
100
AcDbEntity
  8
01
100
AcDbLine
 10
6758.426757842204
 20
452.2131461247891
 30
0.0000000000563712
 11
6764.226757842208
 21
452.2131461247893
 31
0.0000000000563712
  0
ARC
  5
C9AB
330
18
100
AcDbEntity
  8
01
100
AcDbCircle
 10
6764.226757842208
 20
452.7131461247893
 30
0.0000000000563712
 40
0.5
100
AcDbArc
 50
270.0
 51
0.0
  0
LINE
  5
C9AC
330
18
100
AcDbEntity
  8
01
100
AcDbLine
 10
6758.426757842208
 20
492.2131461247893
 30
0.0000000000563712
 11
6764.226757842208
 21
492.2131461247889
 31
0.0000000000563712
  0
ARC
  5
C9AD
330
18
100
AcDbEntity
  8
01
100
AcDbCircle
 10
6764.226757842208
 20
491.7131461247889
 30
0.0000000000563712
 40
0.5
100
AcDbArc
 50
0.0
 51
90.0
  0
LINE
  5
C9AE
330
18
100
AcDbEntity
  8
01
100
AcDbLine
 10
6712.126757842208
 20
452.7131412605995
 30
0.0000000000563712
 11
6712.126757842208
 21
491.7131412605991
 31
0.0000000000563712
  0
LINE
  5
C9AF
330
18
100
AcDbEntity
  8
01
100
AcDbLine
 10
6718.426757842208
 20
492.2131412605995
 30
0.0000000000563712
 11
6718.426757842203
 21
452.2131412605993
 31
0.0000000000563712
  0
LINE
  5
C9B0
330
18
100
AcDbEntity
  8
01
100
AcDbLine
 10
6718.426757842203
 20
452.2131412605993
 30
0.0000000000563712
 11
6712.626757842208
 21
452.2131412605995
 31
0.0000000000563712
  0
ARC
  5
C9B1
330
18
100
AcDbEntity
  8
01
100
AcDbCircle
 10
6712.626757842208
 20
452.7131412605995
 30
0.0000000000563712
 40
0.5
100
AcDbArc
 50
180.0
 51
270.0
  0
LINE
  5
C9B2
330
18
100
AcDbEntity
  8
01
100
AcDbLine
 10
6718.426757842208
 20
492.2131412605995
 30
0.0000000000563712
 11
6712.626757842208
 21
492.2131412605991
 31
0.0000000000563712
  0
ARC
  5
C9B3
330
18
100
AcDbEntity
  8
01
100
AcDbCircle
 10
6712.626757842208
 20
491.7131412605991
 30
0.0000000000563712
 40
0.5
100
AcDbArc
 50
90.0
 51
180.0
  0
SPLINE
  5
C9B4
330
18
100
AcDbEntity
  8
01
100
AcDbSpline
210
0.0
220
0.0
230
1.0
 70
    24
 71
     1
 72
     4
 73
     2
 74
     0
 42
0.0000000001
 43
0.0000000001
 40
0.1160848018737504
 40
0.1160848018737504
 40
1.0
 40
1.0
 10
6712.126757842208
 20
456.9631412605922
 30
0.0000000000563712
 10
6697.426733031196
 20
456.9631412605922
 30
0.0000000000563712
  0
SPLINE
  5
C9B5
330
18
100
AcDbEntity
  8
01
100
AcDbSpline
210
0.0
220
0.0
230
1.0
 70
    24
 71
     1
 72
     4
 73
     2
 74
     0
 42
0.0000000001
 43
0.0000000001
 40
0.0
 40
0.0
 40
0.8839151981262495
 40
0.8839151981262495
 10
6697.426733031196
 20
476.4631412605922
 30
0.0000000000563712
 10
6712.126757842208
 20
476.4631412605922
 30
0.0000000000563712
  0
ARC
  5
C9B6
330
18
100
AcDbEntity
  8
01
100
AcDbCircle
 10
6697.426733031196
 20
457.9631412605922
 30
0.0000000000563712
 40
1.0
100
AcDbArc
 50
180.0
 51
270.0
  0
ARC
  5
C9B7
330
18
100
AcDbEntity
  8
01
100
AcDbCircle
 10
6697.426733031196
 20
475.4631412605922
 30
0.0000000000563712
 40
1.0
100
AcDbArc
 50
90.0
 51
180.0
  0
LINE
  5
C9B8
330
18
100
AcDbEntity
  8
01
100
AcDbLine
 10
6710.926733031196
 20
475.275413155364
 30
0.0000000000563712
 11
6710.926733031196
 21
458.1508693658204
 31
0.0000000000563712
  0
SPLINE
  5
C9B9
330
18
100
AcDbEntity
  8
01
100
AcDbSpline
210
0.0
220
0.0
230
1.0
 70
     8
 71
     3
 72
    14
 73
    10
 74
     0
 42
0.0000000001
 43
0.0000000001
 40
0.0
 40
0.0
 40
0.0
 40
0.0
 40
0.25
 40
0.25
 40
0.5
 40
0.5
 40
0.75
 40
0.75
 40
1.0
 40
1.0
 40
1.0
 40
1.0
 10
6709.926733031196
 20
475.7443371946865
 30
0.0000000000563712
 10
6710.066700708949
 20
475.7443371946865
 30
0.0000000000563712
 10
6710.205121983094
 20
475.7347012393798
 30
0.0000000000563712
 10
6710.455172323049
 20
475.695620330438
 30
0.0000000000563712
 10
6710.567489885878
 20
475.6658141955643
 30
0.0000000000563712
 10
6710.748537256964
 20
475.5848944587804
 30
0.0000000000563712
 10
6710.816337893269
 20
475.5345049225889
 30
0.0000000000563712
 10
6710.905956809812
 20
475.415135333574
 30
0.0000000000563712
 10
6710.926733031196
 20
475.3483358828626
 30
0.0000000000563712
 10
6710.926733031196
 20
475.275413155364
 30
0.0000000000563712
  0
SPLINE
  5
C9BA
330
18
100
AcDbEntity
  8
01
100
AcDbSpline
210
0.0
220
0.0
230
1.0
 70
     8
 71
     3
 72
    14
 73
    10
 74
     0
 42
0.0000000001
 43
0.0000000001
 40
0.0
 40
0.0
 40
0.0
 40
0.0
 40
0.25
 40
0.25
 40
0.5
 40
0.5
 40
0.75
 40
0.75
 40
1.0
 40
1.0
 40
1.0
 40
1.0
 10
6710.926733031196
 20
458.1508693658204
 30
0.0000000000563712
 10
6710.926733031196
 20
458.077952678686
 30
0.0000000000563712
 10
6710.905372623934
 20
458.0101679828251
 30
0.0000000000563712
 10
6710.816233432259
 20
457.8918411088614
 30
0.0000000000563712
 10
6710.747300802104
 20
457.8407282540934
 30
0.0000000000563712
 10
6710.567253361738
 20
457.7604706619395
 30
0.0000000000563712
 10
6710.454547688243
 20
457.730507842233
 30
0.0000000000563712
 10
6710.203977074623
 20
457.6914594666989
 30
0.0000000000563712
 10
6710.066590925306
 20
457.681945326498
 30
0.0000000000563712
 10
6709.926733031196
 20
457.681945326498
 30
0.0000000000563712
  0
LINE
  5
C9BB
330
18
100
AcDbEntity
  8
01
100
AcDbLine
 10
6709.926733031196
 20
457.681945326498
 30
0.0000000000563712
 11
6697.426733031196
 21
457.681945326498
 31
0.0000000000563712
  0
LINE
  5
C9BC
330
18
100
AcDbEntity
  8
01
100
AcDbLine
 10
6697.426733031196
 20
475.7443371946865
 30
0.0000000000563712
 11
6709.926733031196
 21
475.7443371946865
 31
0.0000000000563712
  0
SPLINE
  5
C9BD
330
18
100
AcDbEntity
  8
01
100
AcDbSpline
210
0.0
220
0.0
230
1.0
 70
     8
 71
     3
 72
    14
 73
    10
 74
     0
 42
0.0000000001
 43
0.0000000001
 40
0.0
 40
0.0
 40
0.0
 40
0.0
 40
0.2500000000000001
 40
0.2500000000000001
 40
0.5000000000000002
 40
0.5000000000000002
 40
0.7500000000000003
 40
0.7500000000000003
 40
1.0
 40
1.0
 40
1.0
 40
1.0
 10
6697.426733031196
 20
475.7443371946865
 30
0.0000000000563712
 10
6697.289524116268
 20
475.7443371946865
 30
0.0000000000563712
 10
6697.154520570756
 20
475.7329623845912
 30
0.0000000000563712
 10
6696.907184112103
 20
475.6900075172709
 30
0.0000000000563712
 10
6696.796682682738
 20
475.6587631901664
 30
0.0000000000563712
 10
6696.61448900921
 20
475.5815776727754
 30
0.0000000000563712
 10
6696.545495906825
 20
475.5372370575158
 30
0.0000000000563712
 10
6696.450728368339
 20
475.4392554061376
 30
0.0000000000563712
 10
6696.426733031196
 20
475.3867619831208
 30
0.0000000000563712
 10
6696.426733031196
 20
475.3336110853757
 30
0.0000000000563712
  0
SPLINE
  5
C9BE
330
18
100
AcDbEntity
  8
01
100
AcDbSpline
210
0.0
220
0.0
230
1.0
 70
     8
 71
     3
 72
    14
 73
    10
 74
     0
 42
0.0000000001
 43
0.0000000001
 40
0.0
 40
0.0
 40
0.0
 40
0.0
 40
0.2500000000000001
 40
0.2500000000000001
 40
0.5000000000000002
 40
0.5000000000000002
 40
0.7500000000000003
 40
0.7500000000000003
 40
1.0
 40
1.0
 40
1.0
 40
1.0
 10
6697.426733031196
 20
457.681945326498
 30
0.0000000000563712
 10
6697.289524116268
 20
457.681945326498
 30
0.0000000000563712
 10
6697.154520570756
 20
457.6933201365932
 30
0.0000000000563712
 10
6696.907184112103
 20
457.7362750039135
 30
0.0000000000563712
 10
6696.796682682738
 20
457.7675193310181
 30
0.0000000000563712
 10
6696.61448900921
 20
457.8447048484093
 30
0.0000000000563712
 10
6696.545495906825
 20
457.8890454636687
 30
0.0000000000563712
 10
6696.450728368339
 20
457.9870271150471
 30
0.0000000000563712
 10
6696.426733031196
 20
458.0395205380637
 30
0.0000000000563712
 10
6696.426733031196
 20
458.0926714358088
 30
0.0000000000563712
  0
LINE
  5
C9BF
330
18
100
AcDbEntity
  8
01
100
AcDbLine
 10
6696.426733031196
 20
475.3336110853757
 30
0.0000000000563712
 11
6696.426733031196
 21
458.0926714358088
 31
0.0000000000563712
  0
LINE
  5
C9C0
330
18
100
AcDbEntity
  8
01
100
AcDbLine
 10
6696.426733031196
 20
458.0926714358088
 30
0.0000000000563712
 11
6696.426733031196
 21
457.9631412605922
 31
0.0000000000563712
  0
LINE
  5
C9C1
330
18
100
AcDbEntity
  8
01
100
AcDbLine
 10
6765.468741531168
 20
470.2131425815378
 30
0.0000000001126251
 11
6764.726757842207
 21
470.2131425815376
 31
0.0000000001126251
  0
LINE
  5
C9C2
330
18
100
AcDbEntity
  8
01
100
AcDbLine
 10
6765.468741531168
 20
463.2131425815378
 30
0.0000000001126251
 11
6764.726757842207
 21
463.2131425815378
 31
0.0000000001126251
  0
ARC
  5
C9C3
330
18
100
AcDbEntity
  8
01
100
AcDbCircle
 10
6760.595341531168
 20
466.7131425815378
 30
0.0000000001126251
 40
6.0
100
AcDbArc
 50
324.3146699999846
 51
35.68533471264553
  0
LINE
  5
C9C4
330
18
100
AcDbEntity
  8
1CENTER
100
AcDbLine
 10
6908.426649502464
 20
460.7131418605995
 30
0.0000000000563712
 11
6908.426649502464
 21
472.7131418605995
 31
0.0000000000563712
  0
LINE
  5
C9C5
330
18
100
AcDbEntity
  8
1CENTER
100
AcDbLine
 10
6902.426649502464
 20
466.7131418605995
 30
0.0000000000563712
 11
6914.426649502464
 21
466.7131418605995
 31
0.0000000000563712
  0
LINE
  5
C9C6
330
18
100
AcDbEntity
  8
01
100
AcDbLine
 10
6888.926649502466
 20
492.2131420647274
 30
0.0000000000563712
 11
6927.926649502465
 21
492.2131420647272
 31
0.0000000000563712
  0
ARC
  5
C9C7
330
18
100
AcDbEntity
  8
01
100
AcDbCircle
 10
6927.926649502465
 20
491.7131420647272
 30
0.0000000000563712
 40
0.5
100
AcDbArc
 50
0.0
 51
90.0
  0
LINE
  5
C9C8
330
18
100
AcDbEntity
  8
01
100
AcDbLine
 10
6888.926649502465
 20
452.2131420647274
 30
0.0000000000563712
 11
6927.926649502465
 21
452.213142064727
 31
0.0000000000563712
  0
ARC
  5
C9C9
330
18
100
AcDbEntity
  8
01
100
AcDbCircle
 10
6888.926649502465
 20
452.7131420647274
 30
0.0000000000563712
 40
0.5
100
AcDbArc
 50
180.0
 51
270.0
  0
LINE
  5
C9CA
330
18
100
AcDbEntity
  8
01
100
AcDbLine
 10
6888.426649502465
 20
452.7131420647274
 30
0.0000000000563712
 11
6888.426649502466
 21
491.7131420647274
 31
0.0000000000563712
  0
ARC
  5
C9CB
330
18
100
AcDbEntity
  8
01
100
AcDbCircle
 10
6888.926649502466
 20
491.7131420647274
 30
0.0000000000563712
 40
0.5
100
AcDbArc
 50
90.0
 51
180.0
  0
LINE
  5
C9CC
330
18
100
AcDbEntity
  8
01
100
AcDbLine
 10
6928.426649502465
 20
452.713142064727
 30
0.0000000000563712
 11
6928.426649502465
 21
491.7131420647272
 31
0.0000000000563712
  0
ARC
  5
C9CD
330
18
100
AcDbEntity
  8
01
100
AcDbCircle
 10
6927.926649502465
 20
452.713142064727
 30
0.0000000000563712
 40
0.5
100
AcDbArc
 50
270.0
 51
0.0
  0
CIRCLE
  5
C9CE
330
18
100
AcDbEntity
  8
01
100
AcDbCircle
 10
6908.426649824924
 20
466.7131422688553
 30
0.0000000000563712
 40
3.75
  0
CIRCLE
  5
C9CF
330
18
100
AcDbEntity
  8
01
100
AcDbCircle
 10
6908.426649824924
 20
466.7131420647274
 30
0.0000000000563712
 40
3.5000005
  0
LINE
  5
C9D0
330
18
100
AcDbEntity
  8
01
100
AcDbLine
 10
6909.426649824924
 20
463.3590392647275
 30
0.0000000000563712
 11
6909.426649824924
 21
470.0672460647274
 31
0.0000000000563712
  0
LINE
  5
C9D1
330
18
100
AcDbEntity
  8
01
100
AcDbLine
 10
6907.426649824924
 20
463.3590392647275
 30
0.0000000000563712
 11
6907.426649824924
 21
470.0672460647274
 31
0.0000000000563712
  0
LINE
  5
C9D2
330
18
100
AcDbEntity
  8
01
100
AcDbLine
 10
6885.926649502464
 20
472.2131412605995
 30
0.0000000000563712
 11
6930.926649502464
 21
472.2131412605995
 31
0.0000000000563712
  0
LINE
  5
C9D3
330
18
100
AcDbEntity
  8
01
100
AcDbLine
 10
6908.426649502464
 20
494.7131412605995
 30
0.0000000000563712
 11
6908.426649502464
 21
449.7131412605995
 31
0.0000000000563712
  0
LINE
  5
CF6F
330
18
100
AcDbEntity
  8
01
100
AcDbLine
 10
6852.426641502461
 20
494.7131412605991
 30
0.0000000000563712
 11
6866.426641502461
 21
494.7131412605991
 31
0.0000000000563712
  0
LINE
  5
CF70
330
18
100
AcDbEntity
  8
01
100
AcDbLine
 10
6857.427525684521
 20
706.7131412595704
 30
0.0000000000563712
 11
7011.181905839554
 21
706.7131412595704
 31
0.0000000000563712
  0
LINE
  5
CF71
330
18
100
AcDbEntity
  8
01
  6
BYBLOCK
100
AcDbLine
 10
6857.427525684521
 20
706.7131412595704
 30
0.0000000000563712
 11
6857.427525684521
 21
666.7131412595704
 31
0.0000000000563712
  0
LINE
  5
CF75
330
18
100
AcDbEntity
  8
01
100
AcDbLine
 10
6908.426757842206
 20
701.7131412585418
 30
0.0000000000563712
 11
6908.426757842206
 21
732.6312214477907
 31
0.0000000000563712
  0
LINE
  5
CF76
330
18
100
AcDbEntity
  8
01
  6
BYBLOCK
100
AcDbLine
 10
6858.926641502461
 20
502.6131412605991
 30
0.0000000000563712
 11
6858.926641502461
 21
372.8131412605992
 31
0.0000000000563712
  0
LINE
  5
CF77
330
18
100
AcDbEntity
  8
01
  6
BYBLOCK
100
AcDbLine
 10
6858.926641502461
 20
373.7131412605991
 30
0.0000000000563712
 11
6861.426641502461
 21
373.7131412605991
 31
0.0000000000563712
  0
LINE
  5
CF78
330
18
100
AcDbEntity
  8
01
  6
BYBLOCK
100
AcDbLine
 10
6861.426641502461
 20
373.7131412605991
 30
0.0000000000563712
 11
6861.426641502461
 21
390.2160849857514
 31
0.0000000000563712
  0
LINE
  5
CF79
330
18
100
AcDbEntity
  8
01
  6
BYBLOCK
100
AcDbLine
 10
6857.426641502461
 20
502.6131412605991
 30
0.0000000000563712
 11
6857.426641502461
 21
372.8131412605992
 31
0.0000000000563712
  0
LINE
  5
CF7A
330
18
100
AcDbEntity
  8
01
  6
BYBLOCK
100
AcDbLine
 10
6857.426641502461
 20
372.8131412605992
 30
0.0000000000563712
 11
6858.926641502461
 21
372.8131412605992
 31
0.0000000000563712
  0
LINE
  5
CF7B
330
18
100
AcDbEntity
  8
01
  6
BYBLOCK
100
AcDbLine
 10
6858.926641502461
 20
501.7131412605991
 30
0.0000000000563712
 11
6861.426641502461
 21
501.7131412605991
 31
0.0000000000563712
  0
LINE
  5
CF7C
330
18
100
AcDbEntity
  8
01
  6
BYBLOCK
100
AcDbLine
 10
6857.426641502461
 20
502.6131412605991
 30
0.0000000000563712
 11
6858.926641502461
 21
502.6131412605991
 31
0.0000000000563712
  0
LINE
  5
CF7D
330
18
100
AcDbEntity
  8
01
  6
BYBLOCK
100
AcDbLine
 10
6858.926641502461
 20
477.7131412605991
 30
0.0000000000563712
 11
6860.12664150246
 21
477.7131412605991
 31
0.0000000000563712
  0
ARC
  5
CF7E
330
18
100
AcDbEntity
  8
1HIDDEN
100
AcDbCircle
 10
6925.426641502461
 20
473.7131412605991
 30
0.0000000000563712
 40
1.0
100
AcDbArc
 50
0.0
 51
90.0
  0
LINE
  5
CF7F
330
18
100
AcDbEntity
  8
01
  6
BYBLOCK
100
AcDbLine
 10
6860.12664150246
 20
483.4131412605993
 30
0.0000000000563712
 11
6860.12664150246
 21
392.0131412605992
 31
0.0000000000563712
  0
LINE
  5
CF80
330
18
100
AcDbEntity
  8
01
  6
BYBLOCK
100
AcDbLine
 10
6860.226641502461
 20
373.7131412605991
 30
0.0000000000563712
 11
6860.226641502461
 21
390.3131412605992
 31
0.0000000000563712
  0
LINE
  5
CF81
330
18
100
AcDbEntity
  8
01
  6
BYBLOCK
100
AcDbLine
 10
6860.226641502461
 20
390.3131412605992
 30
0.0000000000563712
 11
6859.278113365037
 21
391.2616693980231
 31
0.0000000000563712
  0
LINE
  5
CF82
330
18
100
AcDbEntity
  8
01
  6
BYBLOCK
100
AcDbLine
 10
6861.075169639884
 20
391.0646131231754
 30
0.0000000000563712
 11
6860.12664150246
 21
392.0131412605992
 31
0.0000000000563712
  0
ARC
  5
CF83
330
18
100
AcDbEntity
  8
01
  6
BYBLOCK
100
AcDbCircle
 10
6860.226641502461
 20
390.2160849857514
 30
0.0000000000563712
 40
1.2
100
AcDbArc
 50
0.0
 51
45.00000000005527
  0
ARC
  5
CF84
330
18
100
AcDbEntity
  8
01
  6
BYBLOCK
100
AcDbCircle
 10
6860.12664150246
 20
392.110197535447
 30
0.0000000000563712
 40
1.2
100
AcDbArc
 50
180.0
 51
225.0000000000553
  0
LINE
  5
CF85
330
18
100
AcDbEntity
  8
01
  6
BYBLOCK
100
AcDbLine
 10
6861.426641502461
 20
501.7131412605991
 30
0.0000000000563712
 11
6861.426641502461
 21
485.2101975354469
 31
0.0000000000563712
  0
LINE
  5
CF86
330
18
100
AcDbEntity
  8
01
  6
BYBLOCK
100
AcDbLine
 10
6860.226641502461
 20
501.7131412605991
 30
0.0000000000563712
 11
6860.226641502461
 21
485.1131412605991
 31
0.0000000000563712
  0
LINE
  5
CF87
330
18
100
AcDbEntity
  8
01
  6
BYBLOCK
100
AcDbLine
 10
6860.226641502461
 20
485.1131412605991
 30
0.0000000000563712
 11
6859.278113365037
 21
484.1646131231753
 31
0.0000000000563712
  0
LINE
  5
CF88
330
18
100
AcDbEntity
  8
01
  6
BYBLOCK
100
AcDbLine
 10
6861.075169639884
 20
484.361669398023
 30
0.0000000000563712
 11
6860.12664150246
 21
483.4131412605991
 31
0.0000000000563712
  0
ARC
  5
CF89
330
18
100
AcDbEntity
  8
01
  6
BYBLOCK
100
AcDbCircle
 10
6860.226641502461
 20
485.2101975354469
 30
0.0000000000563712
 40
1.2
100
AcDbArc
 50
314.9999999999447
 51
0.0
  0
ARC
  5
CF8A
330
18
100
AcDbEntity
  8
01
  6
BYBLOCK
100
AcDbCircle
 10
6860.12664150246
 20
483.3160849857513
 30
0.0000000000563712
 40
1.2
100
AcDbArc
 50
134.9999999999447
 51
180.0
  0
CIRCLE
  5
CF8B
330
18
100
AcDbEntity
  8
1HIDDEN
100
AcDbCircle
 10
6908.426641502461
 20
466.7131412605991
 30
0.0000000000563712
 40
4.75
  0
LINE
  5
CF8C
330
18
100
AcDbEntity
  8
01
  6
BYBLOCK
100
AcDbLine
 10
6860.12664150246
 20
400.7131412605988
 30
0.0000000000563712
 11
6881.926641502465
 21
400.7131412605991
 31
0.0000000000563712
  0
ARC
  5
CF8D
330
18
100
AcDbEntity
  8
01
  6
BYBLOCK
100
AcDbCircle
 10
6860.527525684522
 20
690.2743918025703
 30
0.0000000000563712
 40
1.6
100
AcDbArc
 50
115.9444797719666
 51
180.0
  0
ARC
  5
CF8E
330
18
100
AcDbEntity
  8
01
  6
BYBLOCK
100
AcDbCircle
 10
6860.527525684522
 20
683.1518907165705
 30
0.0000000000563712
 40
1.6
100
AcDbArc
 50
180.0
 51
244.0555202280334
  0
ARC
  5
CF8F
330
18
100
AcDbEntity
  8
01
  6
BYBLOCK
100
AcDbCircle
 10
6859.827525684521
 20
681.8743918025707
 30
0.0000000000563712
 40
1.6
100
AcDbArc
 50
0.0
 51
64.05552022803343
  0
ARC
  5
CF90
330
18
100
AcDbEntity
  8
01
  6
BYBLOCK
100
AcDbCircle
 10
6859.827525684521
 20
691.5518907165701
 30
0.0000000000563712
 40
1.6
100
AcDbArc
 50
295.9444797719666
 51
0.0
  0
LINE
  5
CF91
330
18
100
AcDbEntity
  8
01
  6
BYBLOCK
100
AcDbLine
 10
6861.427525684521
 20
691.5518907165701
 30
0.0000000000563712
 11
6861.427525684521
 21
698.9131412595702
 31
0.0000000000563712
  0
LINE
  5
CF92
330
18
100
AcDbEntity
  8
01
  6
BYBLOCK
100
AcDbLine
 10
6860.527525684522
 20
683.3131412595703
 30
0.0000000000563712
 11
6860.527525684522
 21
690.1131412595705
 31
0.0000000000563712
  0
LINE
  5
CF93
330
18
100
AcDbEntity
  8
01
  6
BYBLOCK
100
AcDbLine
 10
6861.427525684521
 20
674.7131412595704
 30
0.0000000000563712
 11
6861.427525684521
 21
681.8743918025707
 31
0.0000000000563712
  0
LINE
  5
CF94
330
18
100
AcDbEntity
  8
01
  6
BYBLOCK
100
AcDbLine
 10
6859.827525684521
 20
691.7131412595704
 30
0.0000000000563712
 11
6859.827525684521
 21
698.9131412595702
 31
0.0000000000563712
  0
LINE
  5
CF95
330
18
100
AcDbEntity
  8
01
  6
BYBLOCK
100
AcDbLine
 10
6859.827525684521
 20
681.7131412595704
 30
0.0000000000563712
 11
6859.827525684521
 21
674.6131412595705
 31
0.0000000000563712
  0
ARC
  5
CF96
330
18
100
AcDbEntity
  8
01
  6
BYBLOCK
100
AcDbCircle
 10
6924.827525684521
 20
694.6131412595705
 30
0.0000000000563712
 40
1.6
100
AcDbArc
 50
0.0
 51
90.0
  0
LINE
  5
CF97
330
18
100
AcDbEntity
  8
01
  6
BYBLOCK
100
AcDbLine
 10
6858.927525684521
 20
699.1131412595705
 30
0.0000000000563712
 11
6858.927525684521
 21
674.3131412595708
 31
0.0000000000563712
  0
LINE
  5
CF98
330
18
100
AcDbEntity
  8
01
  6
BYBLOCK
100
AcDbLine
 10
6924.827525684521
 20
696.2131412595704
 30
0.0000000000563712
 11
6861.427525684521
 21
696.2131412595704
 31
0.0000000000563712
  0
LINE
  5
CF99
330
18
100
AcDbEntity
  8
01
  6
BYBLOCK
100
AcDbLine
 10
6924.827525684521
 20
679.0131412595706
 30
0.0000000000563712
 11
6924.827525684521
 21
696.2131412595704
 31
0.0000000000563712
  0
LINE
  5
CF9A
330
18
100
AcDbEntity
  8
01
  6
BYBLOCK
100
AcDbLine
 10
6926.427525684521
 20
677.4131412595702
 30
0.0000000000563712
 11
6926.427525684521
 21
694.6131412595705
 31
0.0000000000563712
  0
LINE
  5
CF9B
330
18
100
AcDbEntity
  8
01
  6
BYBLOCK
100
AcDbLine
 10
6858.927525684521
 20
698.9131412595702
 30
0.0000000000563712
 11
6861.427525684521
 21
698.9131412595702
 31
0.0000000000563712
  0
LINE
  5
CF9C
330
18
100
AcDbEntity
  8
01
  6
BYBLOCK
100
AcDbLine
 10
6861.427525684521
 20
674.7131412595704
 30
0.0000000000563712
 11
6859.827525684521
 21
674.7131412595704
 31
0.0000000000563712
  0
LINE
  5
CF9D
330
18
100
AcDbEntity
  8
01
  6
BYBLOCK
100
AcDbLine
 10
6859.827525684521
 20
674.6131412595705
 30
0.0000000000563712
 11
6858.927525684521
 21
674.6131412595705
 31
0.0000000000563712
  0
ARC
  5
CF9E
330
18
100
AcDbEntity
  8
01
  6
BYBLOCK
100
AcDbCircle
 10
6856.12812061192
 20
681.0131412595711
 30
0.0000000000563712
 40
0.3000000000000051
100
AcDbArc
 50
232.8678058729389
 51
270.0
  0
LINE
  5
CF9F
330
18
100
AcDbEntity
  8
01
  6
BYBLOCK
100
AcDbLine
 10
6856.927525684521
 20
680.7131412595713
 30
0.0000000000563712
 11
6856.12812061192
 21
680.7131412595713
 31
0.0000000000563712
  0
LINE
  5
CFA0
330
18
100
AcDbEntity
  8
01
  6
BYBLOCK
100
AcDbLine
 10
6846.527525684522
 20
690.3861301257753
 30
0.0000000000563712
 11
6846.527525684522
 21
690.2155080702264
 31
0.0000000000563712
  0
ARC
  5
CFA1
330
18
100
AcDbEntity
  8
01
  6
BYBLOCK
100
AcDbCircle
 10
6846.827525684521
 20
690.2155080702264
 30
0.0000000000563712
 40
0.3
100
AcDbArc
 50
180.0
 51
217.7405295629614
  0
ARC
  5
CFA2
330
18
100
AcDbEntity
  8
01
  6
BYBLOCK
100
AcDbCircle
 10
6886.129826283805
 20
720.6362110141667
 30
0.0000000000563712
 40
50.00000000000002
100
AcDbArc
 50
217.7405295629717
 51
232.8678058729428
  0
LINE
  5
CFA3
330
18
100
AcDbEntity
  8
01
  6
BYBLOCK
100
AcDbLine
 10
6846.327525684521
 20
691.5131412595706
 30
0.0000000000563712
 11
6846.327525684521
 21
692.2131412595704
 31
0.0000000000563712
  0
ARC
  5
CFA4
330
18
100
AcDbEntity
  8
01
  6
BYBLOCK
100
AcDbCircle
 10
6846.827525684521
 20
692.2131412595704
 30
0.0000000000563712
 40
0.5000000000000142
100
AcDbArc
 50
90.0
 51
180.0
  0
LINE
  5
CFA5
330
18
100
AcDbEntity
  8
01
  6
BYBLOCK
100
AcDbLine
 10
6856.927525684521
 20
692.7131412595704
 30
0.0000000000563712
 11
6846.827525684521
 21
692.7131412595704
 31
0.0000000000563712
  0
LINE
  5
CFA6
330
18
100
AcDbEntity
  8
01
  6
BYBLOCK
100
AcDbLine
 10
6846.327525684521
 20
691.1344616031301
 30
0.0000000000563712
 11
6846.327525684521
 21
691.5131412595706
 31
0.0000000000563712
  0
SPLINE
  5
CFA7
330
18
100
AcDbEntity
  8
01
  6
BYBLOCK
100
AcDbSpline
210
0.0
220
0.0
230
1.0
 70
     8
 71
     3
 72
     8
 73
     4
 74
     0
 42
0.0000000001
 43
0.0000000001
 40
0.0
 40
0.0
 40
0.0
 40
0.0
 40
1.0
 40
1.0
 40
1.0
 40
1.0
 10
6846.353258225785
 20
690.8578111736811
 30
0.0000000000563712
 10
6846.335790339674
 20
690.9508973695615
 30
0.0000000000563712
 10
6846.327525684521
 20
691.044163380453
 30
0.0000000000563712
 10
6846.327525684521
 20
691.1344616031306
 30
0.0000000000563712
  0
ARC
  5
CFA8
330
18
100
AcDbEntity
  8
01
  6
BYBLOCK
100
AcDbCircle
 10
6847.827525684521
 20
691.1344616031301
 30
0.0000000000563712
 40
1.499999999999998
100
AcDbArc
 50
190.628112987605
 51
225.0000000000553
  0
LINE
  5
CFA9
330
18
100
AcDbEntity
  8
01
  6
BYBLOCK
100
AcDbLine
 10
6857.427525684521
 20
693.5631412595708
 30
0.0000000000563712
 11
6856.927525684521
 21
693.5631412595708
 31
0.0000000000563712
  0
LINE
  5
CFAA
330
18
100
AcDbEntity
  8
01
  6
BYBLOCK
100
AcDbLine
 10
6856.927525684521
 20
679.8631412595705
 30
0.0000000000563712
 11
6857.427525684521
 21
679.8631412595705
 31
0.0000000000563712
  0
LINE
  5
CFAB
330
18
100
AcDbEntity
  8
01
  6
BYBLOCK
100
AcDbLine
 10
6856.927525684521
 20
679.8631412595705
 30
0.0000000000563712
 11
6856.927525684521
 21
693.5631412595708
 31
0.0000000000563712
  0
LINE
  5
CFAC
330
18
100
AcDbEntity
  8
01
  6
BYBLOCK
100
AcDbLine
 10
6857.427525684521
 20
699.1131412595705
 30
0.0000000000563712
 11
6858.927525684521
 21
699.1131412595705
 31
0.0000000000563712
  0
LINE
  5
CFAD
330
18
100
AcDbEntity
  8
01
  6
BYBLOCK
100
AcDbLine
 10
6857.427525684521
 20
674.3131412595708
 30
0.0000000000563712
 11
6858.927525684521
 21
674.3131412595708
 31
0.0000000000563712
  0
LINE
  5
CFAE
330
18
100
AcDbEntity
  8
01
  6
BYBLOCK
100
AcDbLine
 10
6857.427525684521
 20
674.3131412595708
 30
0.0000000000563712
 11
6857.427525684521
 21
699.1131412595705
 31
0.0000000000563712
  0
LINE
  5
CFAF
330
18
100
AcDbEntity
  8
01
  6
BYBLOCK
100
AcDbLine
 10
6926.427525684521
 20
679.0131412595706
 30
0.0000000000563712
 11
6861.427525684521
 21
679.0131412595706
 31
0.0000000000563712
  0
LINE
  5
CFB0
330
18
100
AcDbEntity
  8
01
  6
BYBLOCK
100
AcDbLine
 10
6926.427525684521
 20
677.4131412595702
 30
0.0000000000563712
 11
6876.027525684522
 21
677.4131412595702
 31
0.0000000000563712
  0
LINE
  5
CFB1
330
18
100
AcDbEntity
  8
01
  6
BYBLOCK
100
AcDbLine
 10
6878.864783984724
 20
677.4131412595702
 30
0.0000000000563712
 11
6861.427525684521
 21
677.4131412595702
 31
0.0000000000563712
  0
LINE
  5
CFB2
330
18
100
AcDbEntity
  8
01
  6
BYBLOCK
100
AcDbLine
 10
6855.981079075114
 20
680.8595878689771
 30
0.0000000000563712
 11
6846.76686551274
 21
690.0738014313501
 31
0.0000000000563712
  0
ARC
  5
CFB3
330
18
100
AcDbEntity
  8
01
  6
BYBLOCK
100
AcDbCircle
 10
6856.334632465707
 20
681.2131412595704
 30
0.0000000000563712
 40
0.5
100
AcDbArc
 50
224.9999999999908
 51
270.0
  0
LINE
  5
CFB4
330
18
100
AcDbEntity
  8
01
  6
BYBLOCK
100
AcDbLine
 10
6856.927525684521
 20
680.7131412595704
 30
0.0000000000563712
 11
6856.334632465707
 21
680.7131412595704
 31
0.0000000000563712
  0
LINE
  5
CFB6
330
18
100
AcDbEntity
  8
01
  6
BYBLOCK
100
AcDbLine
 10
6846.426641502461
 20
447.7448115276152
 30
0.0000000000563712
 11
6846.426641502461
 21
429.6814709936093
 31
0.0000000000563712
  0
LINE
  5
CFB7
330
18
100
AcDbEntity
  8
01
  6
BYBLOCK
100
AcDbLine
 10
6850.719534721275
 20
448.7131412606122
 30
0.0000000000563712
 11
6857.426641502461
 21
448.7131412606122
 31
0.0000000000563712
  0
LINE
  5
CFB8
330
18
100
AcDbEntity
  8
01
  6
BYBLOCK
100
AcDbLine
 10
6850.719534721275
 20
428.7131412606122
 30
0.0000000000563712
 11
6857.426641502461
 21
428.7131412606122
 31
0.0000000000563712
  0
LINE
  5
CFB9
330
18
100
AcDbEntity
  8
01
  6
BYBLOCK
100
AcDbLine
 10
6856.219534721275
 20
443.9631412606122
 30
0.0000000000563712
 11
6856.219534721275
 21
433.4631412606122
 31
0.0000000000563712
  0
ARC
  5
CFBA
330
18
100
AcDbEntity
  8
01
  6
BYBLOCK
100
AcDbCircle
 10
6850.719534721275
 20
438.7131412606122
 30
0.0000000000563712
 40
10.00000000000009
100
AcDbArc
 50
53.13010235413383
 51
115.4224671781395
  0
ARC
  5
CFBB
330
18
100
AcDbEntity
  8
01
  6
BYBLOCK
100
AcDbCircle
 10
6850.719534721275
 20
438.7131412606125
 30
0.0000000000563712
 40
10.00000000000009
100
AcDbArc
 50
244.5775328218606
 51
306.8698976458662
  0
LINE
  5
CFBC
330
18
100
AcDbEntity
  8
01
  6
BYBLOCK
100
AcDbLine
 10
6856.719534721275
 20
446.7131412606122
 30
0.0000000000563712
 11
6856.719534721275
 21
430.7131412606122
 31
0.0000000000563712
  0
LINE
  5
CFBD
330
18
100
AcDbEntity
  8
01
  6
BYBLOCK
100
AcDbLine
 10
6846.426641502461
 20
443.9631412606122
 30
0.0000000000563712
 11
6856.219534721275
 21
443.9631412606122
 31
0.0000000000563712
  0
LINE
  5
CFBE
330
18
100
AcDbEntity
  8
01
  6
BYBLOCK
100
AcDbLine
 10
6846.426641502461
 20
433.4631412606122
 30
0.0000000000563712
 11
6856.219534721275
 21
433.4631412606122
 31
0.0000000000563712
  0
LINE
  5
CFBF
330
18
100
AcDbEntity
  8
01
  6
BYBLOCK
100
AcDbLine
 10
6732.026757842206
 20
502.6131412605985
 30
0.0000000000563712
 11
6744.826757842206
 21
502.6131412605985
 31
0.0000000000563712
  0
LINE
  5
CFC0
330
18
100
AcDbEntity
  8
01
  6
BYBLOCK
100
AcDbLine
 10
6732.026757842206
 20
372.8131412605985
 30
0.0000000000563712
 11
6744.826757842206
 21
372.8131412605985
 31
0.0000000000563712
  0
LINE
  5
CFC1
330
18
100
AcDbEntity
  8
01
  6
BYBLOCK
100
AcDbLine
 10
6726.026757842206
 20
496.6131412605985
 30
0.0000000000563712
 11
6726.026757842206
 21
378.8131412605985
 31
0.0000000000563712
  0
LINE
  5
CFC2
330
18
100
AcDbEntity
  8
01
  6
BYBLOCK
100
AcDbLine
 10
6750.826757842206
 20
496.6131412605985
 30
0.0000000000563712
 11
6750.826757842206
 21
378.8131412605985
 31
0.0000000000563712
  0
ARC
  5
CFC3
330
18
100
AcDbEntity
  8
01
  6
BYBLOCK
100
AcDbCircle
 10
6732.026757842206
 20
378.8131412605985
 30
0.0000000000563712
 40
6.0
100
AcDbArc
 50
180.0
 51
270.0
  0
ARC
  5
CFC4
330
18
100
AcDbEntity
  8
01
  6
BYBLOCK
100
AcDbCircle
 10
6744.826757842206
 20
378.8131412605985
 30
0.0000000000563712
 40
6.0
100
AcDbArc
 50
270.0
 51
0.0
  0
ARC
  5
CFC5
330
18
100
AcDbEntity
  8
01
  6
BYBLOCK
100
AcDbCircle
 10
6732.026757842206
 20
496.6131412605985
 30
0.0000000000563712
 40
6.0
100
AcDbArc
 50
90.0
 51
180.0
  0
ARC
  5
CFC6
330
18
100
AcDbEntity
  8
01
  6
BYBLOCK
100
AcDbCircle
 10
6744.826757842206
 20
496.6131412605985
 30
0.0000000000563712
 40
6.0
100
AcDbArc
 50
0.0
 51
90.0
  0
CIRCLE
  5
CFC7
330
18
100
AcDbEntity
  8
01
  6
BYBLOCK
100
AcDbCircle
 10
6738.426757842206
 20
380.7131412605986
 30
0.0000000000563712
 40
2.75
  0
CIRCLE
  5
CFC8
330
18
100
AcDbEntity
  8
01
  6
BYBLOCK
100
AcDbCircle
 10
6738.426757842206
 20
380.7131412605986
 30
0.0000000000563712
 40
4.25
  0
CIRCLE
  5
CFC9
330
18
100
AcDbEntity
  8
01
  6
BYBLOCK
100
AcDbCircle
 10
6738.426757842206
 20
494.7131412605984
 30
0.0000000000563712
 40
2.75
  0
CIRCLE
  5
CFCA
330
18
100
AcDbEntity
  8
01
  6
BYBLOCK
100
AcDbCircle
 10
6738.426757842206
 20
494.7131412605984
 30
0.0000000000563712
 40
4.25
  0
LINE
  5
CFCB
330
18
100
AcDbEntity
  8
1CENTER
100
AcDbLine
 10
6744.301783250112
 20
380.7131412605984
 30
0.0000000000563712
 11
6732.5517324343
 21
380.7131412605984
 31
0.0000000000563712
  0
LINE
  5
CFCC
330
18
100
AcDbEntity
  8
1CENTER
100
AcDbLine
 10
6738.426757842206
 20
386.5881666685048
 30
0.0000000000563712
 11
6738.426757842206
 21
374.8381158526922
 31
0.0000000000563712
  0
LINE
  5
CFCD
330
18
100
AcDbEntity
  8
1CENTER
100
AcDbLine
 10
6744.301783250112
 20
494.7131412605984
 30
0.0000000000563712
 11
6732.5517324343
 21
494.7131412605984
 31
0.0000000000563712
  0
LINE
  5
CFCE
330
18
100
AcDbEntity
  8
1CENTER
100
AcDbLine
 10
6738.426757842206
 20
500.5881666685048
 30
0.0000000000563712
 11
6738.426757842206
 21
488.8381158526922
 31
0.0000000000563712
  0
ARC
  5
CFCF
330
18
100
AcDbEntity
  8
01
  6
BYBLOCK
100
AcDbCircle
 10
6738.426757842206
 20
438.7131412605986
 30
0.0000000000563712
 40
10.15
100
AcDbArc
 50
231.9925780701392
 51
308.0074219298607
  0
LINE
  5
CFD0
330
18
100
AcDbEntity
  8
01
  6
BYBLOCK
100
AcDbLine
 10
6732.176757842206
 20
446.7106408698514
 30
0.0000000000563712
 11
6732.176757842206
 21
430.7156416513458
 31
0.0000000000563712
  0
LINE
  5
CFD1
330
18
100
AcDbEntity
  8
01
  6
BYBLOCK
100
AcDbLine
 10
6744.676757842206
 20
446.7106408698514
 30
0.0000000000563712
 11
6744.676757842206
 21
430.7156416513458
 31
0.0000000000563712
  0
ARC
  5
CFD2
330
18
100
AcDbEntity
  8
01
  6
BYBLOCK
100
AcDbCircle
 10
6738.426757842206
 20
438.7131412605986
 30
0.0000000000563712
 40
10.15
100
AcDbArc
 50
51.99257807013929
 51
128.0074219298607
  0
LINE
  5
CFD3
330
18
100
AcDbEntity
  8
01
  6
BYBLOCK
100
AcDbLine
 10
6733.926757842206
 20
443.9631412605986
 30
0.0000000000563712
 11
6733.926757842206
 21
433.4631412605986
 31
0.0000000000563712
  0
LINE
  5
CFD4
330
18
100
AcDbEntity
  8
01
  6
BYBLOCK
100
AcDbLine
 10
6743.926757842206
 20
443.9631412605986
 30
0.0000000000563712
 11
6743.926757842206
 21
433.4631412605986
 31
0.0000000000563712
  0
LINE
  5
CFD5
330
18
100
AcDbEntity
  8
01
  6
BYBLOCK
100
AcDbLine
 10
6734.426757842206
 20
448.0417263623169
 30
0.0000000000563712
 11
6734.426757842206
 21
443.9631412605984
 31
0.0000000000563712
  0
LINE
  5
CFD6
330
18
100
AcDbEntity
  8
01
  6
BYBLOCK
100
AcDbLine
 10
6732.926757842206
 20
443.9631412605984
 30
0.0000000000563712
 11
6732.926757842206
 21
433.4631412605986
 31
0.0000000000563712
  0
LINE
  5
CFD7
330
18
100
AcDbEntity
  8
01
  6
BYBLOCK
100
AcDbLine
 10
6734.426757842206
 20
433.4631412605986
 30
0.0000000000563712
 11
6734.426757842206
 21
429.3845561588803
 31
0.0000000000563712
  0
LINE
  5
CFD8
330
18
100
AcDbEntity
  8
01
  6
BYBLOCK
100
AcDbLine
 10
6732.926757842206
 20
443.9631412605986
 30
0.0000000000563712
 11
6743.926757842206
 21
443.9631412605986
 31
0.0000000000563712
  0
LINE
  5
CFD9
330
18
100
AcDbEntity
  8
01
  6
BYBLOCK
100
AcDbLine
 10
6732.926757842206
 20
433.4631412605986
 30
0.0000000000563712
 11
6743.926757842206
 21
433.4631412605986
 31
0.0000000000563712
  0
LINE
  5
CFDD
330
18
100
AcDbEntity
  8
01
100
AcDbLine
 10
6718.426874181949
 20
536.7131412605991
 30
0.0000000000563712
 11
6718.426874181949
 21
346.7131412605986
 31
0.0000000000563712
  0
LINE
  5
CFDE
330
18
100
AcDbEntity
  8
01
100
AcDbLine
 10
6718.426874181949
 20
441.7131412605986
 30
0.0000000000563712
 11
6718.426874181949
 21
391.7131412605986
 31
0.0000000000563712
  0
LINE
  5
CFDF
330
18
100
AcDbEntity
  8
01
100
AcDbLine
 10
6709.926874181949
 20
392.7131412605986
 30
0.0000000000563712
 11
6709.926874181949
 21
440.7131412605986
 31
0.0000000000563712
  0
LINE
  5
CFE0
330
18
100
AcDbEntity
  8
01
100
AcDbLine
 10
6718.426874181949
 20
391.7131412605986
 30
0.0000000000563712
 11
6710.926874181949
 21
391.7131412605986
 31
0.0000000000563712
  0
ARC
  5
CFE1
330
18
100
AcDbEntity
  8
01
100
AcDbCircle
 10
6710.926874181949
 20
392.7131412605986
 30
0.0000000000563712
 40
1.0
100
AcDbArc
 50
180.0
 51
270.0
  0
LINE
  5
CFE2
330
18
100
AcDbEntity
  8
01
100
AcDbLine
 10
6718.426874181949
 20
441.7131412605986
 30
0.0000000000563712
 11
6710.926874181949
 21
441.7131412605986
 31
0.0000000000563712
  0
ARC
  5
CFE3
330
18
100
AcDbEntity
  8
01
100
AcDbCircle
 10
6710.926874181949
 20
440.7131412605986
 30
0.0000000000563712
 40
1.0
100
AcDbArc
 50
90.0
 51
180.0
  0
LINE
  5
CFE4
330
18
100
AcDbEntity
  8
01
100
AcDbLine
 10
6720.555159564381
 20
416.7131412605986
 30
0.0000000000563712
 11
6697.926874181949
 21
416.7131412605986
 31
0.0000000000563712
  0
POINT
  5
CFE5
330
18
100
AcDbEntity
  8
01
100
AcDbPoint
 10
6703.926757842206
 20
416.7131412605986
 30
0.0000000000563712
 50
180.0
  0
CIRCLE
  5
CFE6
330
18
100
AcDbEntity
  8
01
100
AcDbCircle
 10
6703.926757842206
 20
416.7131412605986
 30
0.0000000000563712
 40
2.5
  0
CIRCLE
  5
CFE7
330
18
100
AcDbEntity
  8
01
100
AcDbCircle
 10
6703.926757842206
 20
416.7131412605986
 30
0.0000000000563712
 40
3.0
  0
LINE
  5
CFE9
330
18
100
AcDbEntity
  8
1CENTER
100
AcDbLine
 10
6703.926757842206
 20
410.7131412605986
 30
0.0000000000563712
 11
6703.926757842206
 21
422.7131412605986
 31
0.0000000000563712
  0
LINE
  5
CFEA
330
18
100
AcDbEntity
  8
01
100
AcDbLine
 10
6852.426641502749
 20
380.7131412608878
 30
0.0000000000563712
 11
6866.426641502749
 21
380.7131412608878
 31
0.0000000000563712
  0
LINE
  5
CFEB
330
18
100
AcDbEntity
  8
01
100
AcDbLine
 10
6919.738529770002
 20
466.7131412605991
 30
0.0000000000563712
 11
6897.114753234919
 21
466.7131412605991
 31
0.0000000000563712
  0
LINE
  5
CFEC
330
18
100
AcDbEntity
  8
01
100
AcDbLine
 10
6908.426641502461
 20
478.0250295281407
 30
0.0000000000563712
 11
6908.426641502461
 21
455.4012529930574
 31
0.0000000000563712
  0
LINE
  5
CFED
330
18
100
AcDbEntity
  8
01
  6
BYBLOCK
100
AcDbLine
 10
6630.426874181951
 20
447.7448115276152
 30
0.0000000000563712
 11
6630.426874181951
 21
429.6814709936093
 31
0.0000000000563712
  0
LINE
  5
CFEE
330
18
100
AcDbEntity
  8
01
  6
BYBLOCK
100
AcDbLine
 10
6626.133980963137
 20
448.7131412606122
 30
0.0000000000563712
 11
6619.426874181951
 21
448.7131412606122
 31
0.0000000000563712
  0
LINE
  5
CFEF
330
18
100
AcDbEntity
  8
01
  6
BYBLOCK
100
AcDbLine
 10
6626.133980963137
 20
428.7131412606122
 30
0.0000000000563712
 11
6619.426874181951
 21
428.7131412606122
 31
0.0000000000563712
  0
ARC
  5
CFF0
330
18
100
AcDbEntity
  8
01
  6
BYBLOCK
100
AcDbCircle
 10
6626.133980963137
 20
438.7131412606122
 30
0.0000000000563712
 40
10.00000000000009
100
AcDbArc
 50
64.57753282186054
 51
90.0
  0
LINE
  5
CFF1
330
18
100
AcDbEntity
  8
01
  6
CONTINUOUS
100
AcDbLine
 10
6629.926874181951
 20
430.3983470677815
 30
0.0000000000563712
 11
6619.426874181951
 21
430.3983470677815
 31
0.0000000000563712
  0
ARC
  5
CFF2
330
18
100
AcDbEntity
  8
01
  6
CONTINUOUS
100
AcDbCircle
 10
6629.965454428864
 20
430.8604862985883
 30
0.0000000000563712
 40
0.4637468103423796
100
AcDbArc
 50
265.2279066161988
 51
354.2577450626242
  0
LINE
  5
CFF3
330
18
100
AcDbEntity
  8
01
  6
CONTINUOUS
100
AcDbLine
 10
6630.426874181951
 20
446.1964560341603
 30
0.0000000000563712
 11
6630.426874181951
 21
431.2298264870644
 31
0.0000000000563712
  0
ARC
  5
CFF4
330
18
100
AcDbEntity
  8
01
  6
CONTINUOUS
100
AcDbCircle
 10
6629.965454428864
 20
446.5657962226367
 30
0.0000000000563712
 40
0.4637468103423387
100
AcDbArc
 50
5.742254937375811
 51
94.77209338380122
  0
ARC
  5
CFF5
330
18
100
AcDbEntity
  8
01
  6
BYBLOCK
100
AcDbCircle
 10
6626.133980963137
 20
438.7131412606125
 30
0.0000000000563712
 40
10.00000000000009
100
AcDbArc
 50
270.0
 51
295.4224671781395
  0
LINE
  5
CFF6
330
18
100
AcDbEntity
  8
01
  6
CONTINUOUS
100
AcDbLine
 10
6619.426874181951
 20
447.0279354534434
 30
0.0000000000563712
 11
6629.926874181951
 21
447.0279354534434
 31
0.0000000000563712
  0
LINE
  5
CFF7
330
18
100
AcDbEntity
  8
01
100
AcDbLine
 10
6926.426641502461
 20
443.2131412605972
 30
0.0000000000563712
 11
6926.426641502461
 21
401.7131412605991
 31
0.0000000000563712
  0
ARC
  5
CFF8
330
18
100
AcDbEntity
  8
01
100
AcDbCircle
 10
6925.426641502461
 20
401.7131412605991
 30
0.0000000000563712
 40
1.0
100
AcDbArc
 50
270.0
 51
0.0
  0
LINE
  5
CFF9
330
18
100
AcDbEntity
  8
01
100
AcDbLine
 10
6881.926641502465
 20
400.7131412605991
 30
0.0000000000563712
 11
6925.426641502461
 21
400.7131412605993
 31
0.0000000000563712
  0
LINE
  5
CFFA
330
18
100
AcDbEntity
  8
01
100
AcDbLine
 10
6598.426874181951
 20
416.7131412605991
 30
0.0000000000563712
 11
6538.426874181951
 21
416.7131412605991
 31
0.0000000000563712
  0
LINE
  5
CFFB
330
18
100
AcDbEntity
  8
01
100
AcDbLine
 10
6568.426874181951
 20
446.7131412605991
 30
0.0000000000563712
 11
6568.426874181951
 21
386.7131412605991
 31
0.0000000000563712
  0
LINE
  5
CFFC
330
18
100
AcDbEntity
  8
01
100
AcDbLine
 10
6881.926757842208
 20
706.7131412595704
 30
0.0000000000563712
 11
6934.926757842204
 21
706.7131412595704
 31
0.0000000000563712
  0
LINE
  5
CFFD
330
18
100
AcDbEntity
  8
01
100
AcDbLine
 10
6882.426757842208
 20
715.2131412595704
 30
0.0000000000563712
 11
6905.926769807063
 21
715.2131412595704
 31
0.0000000000563712
  0
LINE
  5
CFFE
330
18
100
AcDbEntity
  8
01
100
AcDbLine
 10
6910.926769807065
 20
715.2131412595702
 30
0.0000000000563712
 11
6934.426757842204
 21
715.2131412595704
 31
0.0000000000563712
  0
LINE
  5
CFFF
330
18
100
AcDbEntity
  8
01
100
AcDbLine
 10
6934.926757842204
 20
706.7131412595704
 30
0.0000000000563712
 11
6934.926757842204
 21
714.7131412595704
 31
0.0000000000563712
  0
LINE
  5
D000
330
18
100
AcDbEntity
  8
01
100
AcDbLine
 10
6881.926757842208
 20
706.7131412595704
 30
0.0000000000563712
 11
6881.926757842208
 21
714.7131412595704
 31
0.0000000000563712
  0
ARC
  5
D001
330
18
100
AcDbEntity
  8
01
100
AcDbCircle
 10
6882.426757842208
 20
714.7131412595704
 30
0.0000000000563712
 40
0.5
100
AcDbArc
 50
90.0
 51
180.0
  0
ARC
  5
D002
330
18
100
AcDbEntity
  8
01
100
AcDbCircle
 10
6934.426757842204
 20
714.7131412595704
 30
0.0000000000563712
 40
0.5
100
AcDbArc
 50
0.0
 51
90.0
  0
LINE
  5
D003
330
18
100
AcDbEntity
  8
1HIDDEN
100
AcDbLine
 10
6926.426641502461
 20
473.7131412605991
 30
0.0000000000563712
 11
6926.426641502461
 21
452.2131414647263
 31
0.0000000000563712
  0
LINE
  5
D004
330
18
100
AcDbEntity
  8
01
  6
BYBLOCK
100
AcDbLine
 10
6860.12664150246
 20
474.7131412605991
 30
0.0000000000563712
 11
6888.426641502463
 21
474.7131412605991
 31
0.0000000000563712
  0
LINE
  5
D005
330
18
100
AcDbEntity
  8
1HIDDEN
100
AcDbLine
 10
6888.426641502463
 20
474.7131412605991
 30
0.0000000000563712
 11
6925.426641502461
 21
474.7131412605991
 31
0.0000000000563712
  0
LINE
  5
D006
330
18
100
AcDbEntity
  8
01
  6
BYBLOCK
100
AcDbLine
 10
6926.426641502463
 20
452.2131414647263
 30
0.0000000000563712
 11
6926.426641502463
 21
443.2131412605972
 31
0.0000000000563712
  0
LINE
  5
D007
330
18
100
AcDbEntity
  8
01
100
AcDbLine
 10
6624.426874181951
 20
494.7131412605991
 30
0.0000000000563712
 11
6610.426874181951
 21
494.7131412605991
 31
0.0000000000563712
  0
LINE
  5
D008
330
18
100
AcDbEntity
  8
01
  6
BYBLOCK
100
AcDbLine
 10
6617.926874181951
 20
502.6131412605991
 30
0.0000000000563712
 11
6617.926874181951
 21
372.8131412605992
 31
0.0000000000563712
  0
LINE
  5
D009
330
18
100
AcDbEntity
  8
01
  6
BYBLOCK
100
AcDbLine
 10
6617.926874181951
 20
373.7131412605991
 30
0.0000000000563712
 11
6615.426874181951
 21
373.7131412605991
 31
0.0000000000563712
  0
LINE
  5
D00A
330
18
100
AcDbEntity
  8
01
  6
BYBLOCK
100
AcDbLine
 10
6615.426874181951
 20
373.7131412605991
 30
0.0000000000563712
 11
6615.426874181951
 21
390.2160849857514
 31
0.0000000000563712
  0
LINE
  5
D00B
330
18
100
AcDbEntity
  8
01
  6
BYBLOCK
100
AcDbLine
 10
6619.426874181951
 20
502.6131412605991
 30
0.0000000000563712
 11
6619.426874181951
 21
372.8131412605992
 31
0.0000000000563712
  0
LINE
  5
D00C
330
18
100
AcDbEntity
  8
01
  6
BYBLOCK
100
AcDbLine
 10
6619.426874181951
 20
372.8131412605992
 30
0.0000000000563712
 11
6617.926874181951
 21
372.8131412605992
 31
0.0000000000563712
  0
LINE
  5
D00D
330
18
100
AcDbEntity
  8
01
  6
BYBLOCK
100
AcDbLine
 10
6617.926874181951
 20
501.7131412605991
 30
0.0000000000563712
 11
6615.426874181951
 21
501.7131412605991
 31
0.0000000000563712
  0
LINE
  5
D00E
330
18
100
AcDbEntity
  8
01
  6
BYBLOCK
100
AcDbLine
 10
6619.426874181951
 20
502.6131412605991
 30
0.0000000000563712
 11
6617.926874181951
 21
502.6131412605991
 31
0.0000000000563712
  0
LINE
  5
D00F
330
18
100
AcDbEntity
  8
01
  6
BYBLOCK
100
AcDbLine
 10
6617.926874181951
 20
477.7131412605991
 30
0.0000000000563712
 11
6616.72687418195
 21
477.7131412605991
 31
0.0000000000563712
  0
LINE
  5
D010
330
18
100
AcDbEntity
  8
01
  6
BYBLOCK
100
AcDbLine
 10
6616.72687418195
 20
483.4131412605993
 30
0.0000000000563712
 11
6616.72687418195
 21
392.0131412605992
 31
0.0000000000563712
  0
LINE
  5
D011
330
18
100
AcDbEntity
  8
01
  6
BYBLOCK
100
AcDbLine
 10
6616.626874181949
 20
373.7131412605991
 30
0.0000000000563712
 11
6616.626874181949
 21
390.3131412605992
 31
0.0000000000563712
  0
LINE
  5
D012
330
18
100
AcDbEntity
  8
01
  6
BYBLOCK
100
AcDbLine
 10
6616.626874181949
 20
390.3131412605992
 30
0.0000000000563712
 11
6617.575402319375
 21
391.2616693980231
 31
0.0000000000563712
  0
LINE
  5
D013
330
18
100
AcDbEntity
  8
01
  6
BYBLOCK
100
AcDbLine
 10
6615.778346044526
 20
391.0646131231754
 30
0.0000000000563712
 11
6616.72687418195
 21
392.0131412605992
 31
0.0000000000563712
  0
ARC
  5
D014
330
18
100
AcDbEntity
  8
01
  6
BYBLOCK
100
AcDbCircle
 10
6616.626874181949
 20
390.2160849857514
 30
0.0000000000563712
 40
1.2
100
AcDbArc
 50
134.9999999999447
 51
180.0
  0
ARC
  5
D015
330
18
100
AcDbEntity
  8
01
  6
BYBLOCK
100
AcDbCircle
 10
6616.72687418195
 20
392.110197535447
 30
0.0000000000563712
 40
1.2
100
AcDbArc
 50
314.9999999999447
 51
0.0
  0
LINE
  5
D016
330
18
100
AcDbEntity
  8
01
  6
BYBLOCK
100
AcDbLine
 10
6615.426874181951
 20
501.7131412605991
 30
0.0000000000563712
 11
6615.426874181951
 21
485.2101975354469
 31
0.0000000000563712
  0
LINE
  5
D017
330
18
100
AcDbEntity
  8
01
  6
BYBLOCK
100
AcDbLine
 10
6616.626874181949
 20
501.7131412605991
 30
0.0000000000563712
 11
6616.626874181949
 21
485.1131412605991
 31
0.0000000000563712
  0
LINE
  5
D018
330
18
100
AcDbEntity
  8
01
  6
BYBLOCK
100
AcDbLine
 10
6616.626874181949
 20
485.1131412605991
 30
0.0000000000563712
 11
6617.575402319375
 21
484.1646131231753
 31
0.0000000000563712
  0
LINE
  5
D019
330
18
100
AcDbEntity
  8
01
  6
BYBLOCK
100
AcDbLine
 10
6615.778346044526
 20
484.361669398023
 30
0.0000000000563712
 11
6616.72687418195
 21
483.4131412605991
 31
0.0000000000563712
  0
ARC
  5
D01A
330
18
100
AcDbEntity
  8
01
  6
BYBLOCK
100
AcDbCircle
 10
6616.626874181949
 20
485.2101975354469
 30
0.0000000000563712
 40
1.2
100
AcDbArc
 50
180.0
 51
225.0000000000553
  0
ARC
  5
D01B
330
18
100
AcDbEntity
  8
01
  6
BYBLOCK
100
AcDbCircle
 10
6616.72687418195
 20
483.3160849857513
 30
0.0000000000563712
 40
1.2
100
AcDbArc
 50
0.0
 51
45.00000000005527
  0
LINE
  5
D01C
330
18
100
AcDbEntity
  8
01
  6
BYBLOCK
100
AcDbLine
 10
6616.72687418195
 20
400.7131412605988
 30
0.0000000000563712
 11
6594.926874181947
 21
400.7131412605991
 31
0.0000000000563712
  0
LINE
  5
D01D
330
18
100
AcDbEntity
  8
01
  6
BYBLOCK
100
AcDbLine
 10
6630.426874181951
 20
447.7448115276152
 30
0.0000000000563712
 11
6630.426874181951
 21
429.6814709936093
 31
0.0000000000563712
  0
LINE
  5
D01E
330
18
100
AcDbEntity
  8
01
  6
BYBLOCK
100
AcDbLine
 10
6626.133980963137
 20
448.7131412606122
 30
0.0000000000563712
 11
6619.426874181951
 21
448.7131412606122
 31
0.0000000000563712
  0
LINE
  5
D01F
330
18
100
AcDbEntity
  8
01
  6
BYBLOCK
100
AcDbLine
 10
6626.133980963137
 20
428.7131412606122
 30
0.0000000000563712
 11
6619.426874181951
 21
428.7131412606122
 31
0.0000000000563712
  0
LINE
  5
D020
330
18
100
AcDbEntity
  8
01
100
AcDbLine
 10
6624.426874181663
 20
380.7131412608878
 30
0.0000000000563712
 11
6610.426874181663
 21
380.7131412608878
 31
0.0000000000563712
  0
LINE
  5
D021
330
18
100
AcDbEntity
  8
01
100
AcDbLine
 10
6598.426874181951
 20
416.7131412605991
 30
0.0000000000563712
 11
6538.426874181951
 21
416.7131412605991
 31
0.0000000000563712
  0
LINE
  5
D022
330
18
100
AcDbEntity
  8
01
100
AcDbLine
 10
6568.426874181951
 20
446.7131412605991
 30
0.0000000000563712
 11
6568.426874181951
 21
386.7131412605991
 31
0.0000000000563712
  0
LINE
  5
D023
330
18
100
AcDbEntity
  8
01
  6
BYBLOCK
100
AcDbLine
 10
6616.72687418195
 20
474.7131412605991
 30
0.0000000000563712
 11
6588.426874181949
 21
474.7131412605991
 31
0.0000000000563712
  0
LINE
  5
D024
330
18
100
AcDbEntity
  8
01
  6
BYBLOCK
100
AcDbLine
 10
6550.426874181947
 20
452.2131414647263
 30
0.0000000000563712
 11
6550.426874181947
 21
443.2131412605972
 31
0.0000000000563712
  0
TEXT
  5
D025
330
18
100
AcDbEntity
  8
1TEXT
100
AcDbText
 10
6550.426773842206
 20
698.2131412605991
 30
0.0
 40
20.0
  1
2-V1T-X-LJ-2
100
AcDbText
  0
TEXT
  5
D026
330
18
100
AcDbEntity
  8
1TEXT
100
AcDbText
 10
6562.626773842207
 20
659.9631412605991
 30
0.0
 40
6.0
  1
表面処理
 72
     1
 11
6576.526773842206
 21
659.9631412605991
 31
0.0
100
AcDbText
  0
TEXT
  5
D027
330
18
100
AcDbEntity
  8
1TEXT
100
AcDbText
 10
6562.326773842206
 20
649.7102082713122
 30
0.0
 40
6.0
  1
クローム
 72
     1
 11
6576.526773842206
 21
649.7102082713122
 31
0.0
100
AcDbText
  0
LINE
  5
D028
330
18
100
AcDbEntity
  8
1DIM
100
AcDbLine
 10
6550.426773842206
 20
668.2131412605991
 30
0.0000000000563712
 11
6655.426773842206
 21
668.2131412605991
 31
0.0000000000563712
  0
LINE
  5
D029
330
18
100
AcDbEntity
  8
1DIM
100
AcDbLine
 10
6550.426773842206
 20
657.7131412605991
 30
0.0000000000563712
 11
6655.426773842206
 21
657.7131412605991
 31
0.0000000000563712
  0
LINE
  5
D02A
330
18
100
AcDbEntity
  8
1DIM
100
AcDbLine
 10
6550.426773842206
 20
647.2131412605991
 30
0.0000000000563712
 11
6655.426773842206
 21
647.2131412605991
 31
0.0000000000563712
  0
LINE
  5
D02B
330
18
100
AcDbEntity
  8
1DIM
100
AcDbLine
 10
6550.426773842206
 20
647.2131412605991
 30
0.0000000000563712
 11
6655.426773842206
 21
647.2131412605991
 31
0.0000000000563712
  0
LINE
  5
D02C
330
18
100
AcDbEntity
  8
1DIM
100
AcDbLine
 10
6602.926773842206
 20
668.2131412605991
 30
0.0000000000563712
 11
6602.926773842206
 21
647.2131412605991
 31
0.0000000000563712
  0
TEXT
  5
D02D
330
18
100
AcDbEntity
  8
1TEXT
100
AcDbText
 10
6604.526773842206
 20
649.1416057851252
 30
0.0
 40
6.0
  1
2-V1T-C-LJ-2
 41
0.6999999999999998
 72
     1
 11
6629.026773842206
 21
649.1416057851252
 31
0.0
100
AcDbText
  0
TEXT
  5
D02E
330
18
100
AcDbEntity
  8
1TEXT
100
AcDbText
 10
6618.726773842206
 20
659.9631412605991
 30
0.0
 40
6.0
  1
コード
 72
     1
 11
6629.026773842206
 21
659.9631412605991
 31
0.0
100
AcDbText
  0
LINE
  5
D02F
330
18
100
AcDbEntity
  8
1DIM
100
AcDbLine
 10
6655.426773842206
 20
647.2131412605991
 30
0.0000000000563712
 11
6655.426773842206
 21
668.2131412605991
 31
0.0000000000563712
  0
LINE
  5
D030
330
18
100
AcDbEntity
  8
1DIM
100
AcDbLine
 10
6550.426773842206
 20
647.2131412605991
 30
0.0000000000563712
 11
6655.426773842206
 21
647.2131412605991
 31
0.0000000000563712
  0
LINE
  5
D031
330
18
100
AcDbEntity
  8
1DIM
100
AcDbLine
 10
6602.926773842206
 20
647.2131412605991
 30
0.0000000000563712
 11
6602.926773842206
 21
636.7131412605991
 31
0.0000000000563712
  0
LINE
  5
D032
330
18
100
AcDbEntity
  8
1DIM
100
AcDbLine
 10
6550.426773842206
 20
636.7131412605991
 30
0.0000000000563712
 11
6655.426773842206
 21
636.7131412605991
 31
0.0000000000563712
  0
TEXT
  5
D033
330
18
100
AcDbEntity
  8
1TEXT
100
AcDbText
 10
6551.726773842206
 20
639.2467708432428
 30
0.0
 40
6.0
  1
サテンニッケル
 72
     1
 11
6576.526773842206
 21
639.2467708432428
 31
0.0
100
AcDbText
  0
LINE
  5
D034
330
18
100
AcDbEntity
  8
1DIM
100
AcDbLine
 10
6550.426773842206
 20
636.7131412605991
 30
0.0000000000563712
 11
6550.426773842206
 21
647.2131412605991
 31
0.0000000000563712
  0
LINE
  5
D035
330
18
100
AcDbEntity
  8
1DIM
100
AcDbLine
 10
6655.426773842206
 20
636.7131412605991
 30
0.0000000000563712
 11
6655.426773842206
 21
647.2131412605991
 31
0.0000000000563712
  0
TEXT
  5
D036
330
18
100
AcDbEntity
  8
1TEXT
100
AcDbText
 10
6604.526773842206
 20
638.6416057851252
 30
0.0
 40
6.0
  1
2-V1T-N-LJ-2
 41
0.6999999999999998
 72
     1
 11
6629.026773842206
 21
638.6416057851252
 31
0.0
100
AcDbText
  0
LINE
  5
D037
330
18
100
AcDbEntity
  8
1DIM
100
AcDbLine
 10
6550.426773842206
 20
647.2131412605991
 30
0.0000000000563712
 11
6550.426773842206
 21
668.2131412605991
 31
0.0000000000563712
  0
POINT
  5
D03E
330
18
100
AcDbEntity
  8
01
100
AcDbPoint
 10
6772.926641502461
 20
416.7144595737022
 30
0.0000000000563712
  0
LINE
  5
D03F
330
18
100
AcDbEntity
  8
01
100
AcDbLine
 10
6772.526641492463
 20
414.9644595737022
 30
0.0000000000563712
 11
6772.526641492463
 21
415.8144595937024
 31
0.0000000000563712
  0
LINE
  5
D040
330
18
100
AcDbEntity
  8
01
100
AcDbLine
 10
6773.326641512464
 20
414.9644595737022
 30
0.0000000000563712
 11
6773.326641512464
 21
415.8144595937024
 31
0.0000000000563712
  0
LINE
  5
D041
330
18
100
AcDbEntity
  8
01
100
AcDbLine
 10
6772.026641522461
 20
416.3144595637018
 30
0.0000000000563712
 11
6771.176641502461
 21
416.3144595637018
 31
0.0000000000563712
  0
LINE
  5
D042
330
18
100
AcDbEntity
  8
01
100
AcDbLine
 10
6772.026641522461
 20
417.1144595837018
 30
0.0000000000563712
 11
6771.176641502461
 21
417.1144595837018
 31
0.0000000000563712
  0
LINE
  5
D043
330
18
100
AcDbEntity
  8
01
100
AcDbLine
 10
6771.176641502461
 20
416.3144595637018
 30
0.0000000000563712
 11
6771.176641502461
 21
417.1144595837018
 31
0.0000000000563712
  0
LINE
  5
D044
330
18
100
AcDbEntity
  8
01
100
AcDbLine
 10
6773.326641512464
 20
414.9644595737022
 30
0.0000000000563712
 11
6772.526641492463
 21
414.9644595737022
 31
0.0000000000563712
  0
LINE
  5
D045
330
18
100
AcDbEntity
  8
01
100
AcDbLine
 10
6773.326641512464
 20
418.4644595737022
 30
0.0000000000563712
 11
6773.326641512464
 21
417.6144595537021
 31
0.0000000000563712
  0
LINE
  5
D046
330
18
100
AcDbEntity
  8
01
100
AcDbLine
 10
6772.526641492463
 20
418.4644595737022
 30
0.0000000000563712
 11
6772.526641492463
 21
417.6144595537021
 31
0.0000000000563712
  0
LINE
  5
D047
330
18
100
AcDbEntity
  8
01
100
AcDbLine
 10
6773.826641482461
 20
417.1144595837018
 30
0.0000000000563712
 11
6774.676641502461
 21
417.1144595837018
 31
0.0000000000563712
  0
LINE
  5
D048
330
18
100
AcDbEntity
  8
01
100
AcDbLine
 10
6773.826641482461
 20
416.3144595637018
 30
0.0000000000563712
 11
6774.676641502461
 21
416.3144595637018
 31
0.0000000000563712
  0
LINE
  5
D049
330
18
100
AcDbEntity
  8
01
100
AcDbLine
 10
6774.676641502461
 20
417.1144595837018
 30
0.0000000000563712
 11
6774.676641502461
 21
416.3144595637018
 31
0.0000000000563712
  0
LINE
  5
D04A
330
18
100
AcDbEntity
  8
01
100
AcDbLine
 10
6772.526641492463
 20
418.4644595737022
 30
0.0000000000563712
 11
6773.326641512464
 21
418.4644595737022
 31
0.0000000000563712
  0
CIRCLE
  5
D04B
330
18
100
AcDbEntity
  8
01
100
AcDbCircle
 10
6772.926641502461
 20
416.7144595737022
 30
0.0000000000563712
 40
2.5
  0
ARC
  5
D04C
330
18
100
AcDbEntity
  8
01
100
AcDbCircle
 10
6773.826641482461
 20
417.6144595537021
 30
0.0000000000563712
 40
0.5
100
AcDbArc
 50
179.999989999999
 51
270.0
  0
ARC
  5
D04D
330
18
100
AcDbEntity
  8
01
100
AcDbCircle
 10
6773.826641482461
 20
415.8144595937024
 30
0.0000000000563712
 40
0.5
100
AcDbArc
 50
90.00000299998466
 51
180.000010000001
  0
ARC
  5
D04E
330
18
100
AcDbEntity
  8
01
100
AcDbCircle
 10
6772.026641522461
 20
415.8144595937024
 30
0.0000000000563712
 40
0.5
100
AcDbArc
 50
0.0
 51
90.00000299998466
  0
ARC
  5
D04F
330
18
100
AcDbEntity
  8
01
100
AcDbCircle
 10
6772.026641522461
 20
417.6144595537021
 30
0.0000000000563712
 40
0.5
100
AcDbArc
 50
270.0
 51
0.0
  0
LINE
  5
D051
330
18
100
AcDbEntity
  8
1CENTER
100
AcDbLine
 10
6772.926641502461
 20
410.7144595737022
 30
0.0000000000563712
 11
6772.926641502461
 21
422.7144595737022
 31
0.0000000000563712
  0
LINE
  5
D052
330
18
100
AcDbEntity
  8
01
100
AcDbLine
 10
6756.298356120031
 20
416.7144595737022
 30
0.0000000000563712
 11
6778.926641502461
 21
416.7144595737022
 31
0.0000000000563712
  0
LINE
  5
D053
330
18
100
AcDbEntity
  8
01
  6
BYBLOCK
100
AcDbLine
 10
6857.427409344778
 20
666.7131412605995
 30
0.0000000001127424
 11
7011.181789499809
 21
666.7131412605995
 31
0.0000000001127424
  0
LINE
  5
D054
330
18
100
AcDbEntity
  8
1CENTER
100
AcDbLine
 10
6892.342966738521
 20
652.2131492938524
 30
0.0000000001127424
 11
6900.476639100369
 21
652.2131412606022
 31
0.0000000001127424
  0
LINE
  5
D055
330
18
100
AcDbEntity
  8
01
100
AcDbLine
 10
6908.426641502461
 20
671.7131412605995
 30
0.0000000001127424
 11
6908.426641502461
 21
645.2131412605995
 31
0.0000000001127424
  0
LINE
  5
D05B
330
18
100
AcDbEntity
  8
01
100
AcDbLine
 10
6758.426641502461
 20
536.7144595737022
 30
0.0000000000563712
 11
6758.426641502461
 21
346.7144595737022
 31
0.0000000000563712
  0
LINE
  5
D05C
330
18
100
AcDbEntity
  8
01
100
AcDbLine
 10
6878.426641502461
 20
416.7144595737022
 30
0.0000000000563712
 11
6938.426641502461
 21
416.7144595737022
 31
0.0000000000563712
  0
LINE
  5
D05D
330
18
100
AcDbEntity
  8
01
100
AcDbLine
 10
6908.426641502461
 20
446.7144595737022
 30
0.0000000000563712
 11
6908.426641502461
 21
386.7144595737022
 31
0.0000000000563712
  0
LINE
  5
D05F
330
18
100
AcDbEntity
  8
01
100
AcDbLine
 10
6934.426641502461
 20
443.2144595737004
 30
0.0000000000563712
 11
6882.426641502465
 21
443.2144595737004
 31
0.0000000000563712
  0
LINE
  5
D060
330
18
100
AcDbEntity
  8
01
100
AcDbLine
 10
6882.426641502465
 20
390.2144595737004
 30
0.0000000000563712
 11
6934.426641502461
 21
390.2144595737004
 31
0.0000000000563712
  0
LINE
  5
D061
330
18
100
AcDbEntity
  8
01
100
AcDbLine
 10
6881.926641502465
 20
442.7144595737004
 30
0.0000000000563712
 11
6881.926641502465
 21
390.7144595737004
 31
0.0000000000563712
  0
ARC
  5
D062
330
18
100
AcDbEntity
  8
01
100
AcDbCircle
 10
6882.426641502465
 20
390.7144595737004
 30
0.0000000000563712
 40
0.5
100
AcDbArc
 50
180.0
 51
270.0
  0
ARC
  5
D063
330
18
100
AcDbEntity
  8
01
100
AcDbCircle
 10
6882.426641502465
 20
442.7144595737004
 30
0.0000000000563712
 40
0.5
100
AcDbArc
 50
90.0
 51
180.0
  0
LINE
  5
D064
330
18
100
AcDbEntity
  8
01
100
AcDbLine
 10
6934.926641502461
 20
442.7144595737004
 30
0.0000000000563712
 11
6934.926641502461
 21
426.2144595737022
 31
0.0000000000563712
  0
LINE
  5
D065
330
18
100
AcDbEntity
  8
01
100
AcDbLine
 10
6934.926641502461
 20
407.2144595737022
 30
0.0000000000563712
 11
6934.926641502461
 21
390.7144595737004
 31
0.0000000000563712
  0
ARC
  5
D066
330
18
100
AcDbEntity
  8
01
100
AcDbCircle
 10
6934.426641502461
 20
390.7144595737004
 30
0.0000000000563712
 40
0.5
100
AcDbArc
 50
270.0
 51
0.0
  0
ARC
  5
D067
330
18
100
AcDbEntity
  8
01
100
AcDbCircle
 10
6934.426641502461
 20
442.7144595737004
 30
0.0000000000563712
 40
0.5
100
AcDbArc
 50
0.0
 51
90.0
  0
LINE
  5
D068
330
18
100
AcDbEntity
  8
01
100
AcDbLine
 10
6881.926641502465
 20
666.7131412605995
 30
0.0000000001127424
 11
6934.926641502461
 21
666.7131412605995
 31
0.0000000001127424
  0
LINE
  5
D069
330
18
100
AcDbEntity
  8
01
100
AcDbLine
 10
6882.426641502465
 20
658.2131412605995
 30
0.0000000001127424
 11
6934.426641502461
 21
658.2131412605995
 31
0.0000000001127424
  0
LINE
  5
D06A
330
18
100
AcDbEntity
  8
01
100
AcDbLine
 10
6934.926641502461
 20
666.7131412605995
 30
0.0000000001127424
 11
6934.926641502461
 21
658.7131412605995
 31
0.0000000001127424
  0
LINE
  5
D06B
330
18
100
AcDbEntity
  8
01
100
AcDbLine
 10
6881.926641502465
 20
666.7131412605995
 30
0.0000000001127424
 11
6881.926641502465
 21
658.7131412605995
 31
0.0000000001127424
  0
ARC
  5
D06C
330
18
100
AcDbEntity
  8
01
100
AcDbCircle
 10
6882.426641502465
 20
658.7131412605995
 30
0.0000000001127424
 40
0.5
100
AcDbArc
 50
180.0
 51
270.0
  0
ARC
  5
D06D
330
18
100
AcDbEntity
  8
01
100
AcDbCircle
 10
6934.426641502461
 20
658.7131412605995
 30
0.0000000001127424
 40
0.5
100
AcDbArc
 50
270.0
 51
0.0
  0
LINE
  5
D06E
330
18
100
AcDbEntity
  8
01
100
AcDbLine
 10
6758.426641502461
 20
390.2144595737032
 30
0.0000000000563712
 11
6758.426641502461
 21
443.2144595737004
 31
0.0000000000563712
  0
LINE
  5
D06F
330
18
100
AcDbEntity
  8
01
100
AcDbLine
 10
6766.926641502461
 20
390.7144595737032
 30
0.0000000000563712
 11
6766.926641502461
 21
442.7144595737004
 31
0.0000000000563712
  0
LINE
  5
D070
330
18
100
AcDbEntity
  8
01
100
AcDbLine
 10
6758.426641502461
 20
443.2144595737004
 30
0.0000000000563712
 11
6766.426641502461
 21
443.2144595737004
 31
0.0000000000563712
  0
LINE
  5
D071
330
18
100
AcDbEntity
  8
01
100
AcDbLine
 10
6758.426641502461
 20
390.2144595737032
 30
0.0000000000563712
 11
6766.426641502461
 21
390.2144595737032
 31
0.0000000000563712
  0
ARC
  5
D072
330
18
100
AcDbEntity
  8
01
100
AcDbCircle
 10
6766.426641502461
 20
390.7144595737032
 30
0.0000000000563712
 40
0.5
100
AcDbArc
 50
270.0
 51
0.0
  0
ARC
  5
D073
330
18
100
AcDbEntity
  8
01
100
AcDbCircle
 10
6766.426641502461
 20
442.7144595737004
 30
0.0000000000563712
 40
0.5
100
AcDbArc
 50
0.0
 51
90.0
  0
LINE
  5
D074
330
18
100
AcDbEntity
  8
01
100
AcDbLine
 10
6919.064885958549
 20
629.2131412605995
 30
0.0000000001127424
 11
7013.426641502461
 21
629.2131412605995
 31
0.0000000001127424
  0
LINE
  5
D075
330
18
100
AcDbEntity
  8
01
100
AcDbLine
 10
6900.038570169074
 20
610.2131412605995
 30
0.0000000001127424
 11
7013.426641502461
 21
610.2131412605995
 31
0.0000000001127424
  0
ARC
  5
D076
330
18
100
AcDbEntity
  8
01
100
AcDbCircle
 10
6900.038570169074
 20
611.2131412605995
 30
0.0000000001127424
 40
1.0
100
AcDbArc
 50
180.7538483330612
 51
270.0
  0
LINE
  5
D077
330
18
100
AcDbEntity
  8
01
100
AcDbLine
 10
6918.051641502461
 20
629.2131412605995
 30
0.0000000001127424
 11
6899.338029259248
 21
610.4995290173883
 31
0.0000000001127424
  0
LINE
  5
D078
330
18
100
AcDbEntity
  8
01
100
AcDbLine
 10
6899.038656722933
 20
611.1999845047294
 30
0.0000000001127424
 11
6898.426641502459
 21
657.7131412605995
 31
0.0000000001127424
  0
LINE
  5
D079
330
18
100
AcDbEntity
  8
01
100
AcDbLine
 10
6918.064972512408
 20
630.2262980164701
 30
0.0000000001127424
 11
6918.426641502461
 21
657.7131412605995
 31
0.0000000001127424
  0
LINE
  5
D07A
330
18
100
AcDbEntity
  8
01
100
AcDbLine
 10
6918.426641502461
 20
657.7131412605995
 30
0.0000000001127424
 11
6898.426641502459
 21
657.7131412605995
 31
0.0000000001127424
  0
ARC
  5
D07B
330
18
100
AcDbEntity
  8
01
100
AcDbCircle
 10
6919.064885958549
 20
630.2131412605995
 30
0.0000000001127424
 40
1.0
100
AcDbArc
 50
179.2461516669388
 51
270.0
  0
ARC
  5
D07C
330
18
100
AcDbEntity
  8
01
100
AcDbCircle
 10
7013.426641502461
 20
611.2131412605995
 30
0.0000000001127424
 40
1.0
100
AcDbArc
 50
270.0
 51
0.0
  0
LINE
  5
D07D
330
18
100
AcDbEntity
  8
01
100
AcDbLine
 10
7014.426641502461
 20
628.2131412605995
 30
0.0000000001127424
 11
7014.426641502461
 21
611.2131412605995
 31
0.0000000001127424
  0
ARC
  5
D07E
330
18
100
AcDbEntity
  8
01
100
AcDbCircle
 10
7013.426641502461
 20
628.2131412605995
 30
0.0000000001127424
 40
1.0
100
AcDbArc
 50
0.0
 51
90.0
  0
ARC
  5
D07F
330
18
100
AcDbEntity
  8
01
100
AcDbCircle
 10
6805.526642245556
 20
416.7144595737027
 30
0.0000000000563712
 40
9.5
100
AcDbArc
 50
270.0
 51
90.0
  0
LINE
  5
D080
330
18
100
AcDbEntity
  8
01
100
AcDbLine
 10
6767.426641502461
 20
406.7144595737022
 30
0.0000000000563712
 11
6767.42664150246
 21
426.7144595737032
 31
0.0000000000563712
  0
LINE
  5
D081
330
18
100
AcDbEntity
  8
01
100
AcDbLine
 10
6805.526642245556
 20
426.2144595737022
 30
0.0000000000563712
 11
6767.526642245556
 21
426.7144595737032
 31
0.0000000000563712
  0
LINE
  5
D082
330
18
100
AcDbEntity
  8
01
100
AcDbLine
 10
6805.526642245555
 20
407.2144595737022
 30
0.0000000000563712
 11
6767.526642245556
 21
406.7144595737032
 31
0.0000000000563712
  0
LINE
  5
D083
330
18
100
AcDbEntity
  8
01
100
AcDbLine
 10
6908.426641502461
 20
426.2144595737022
 30
0.0000000000563712
 11
7013.426641502461
 21
426.2144595737022
 31
0.0000000000563712
  0
LINE
  5
D084
330
18
100
AcDbEntity
  8
01
100
AcDbLine
 10
6908.426641502461
 20
407.2144595737022
 30
0.0000000000563712
 11
7013.426641502461
 21
407.2144595737022
 31
0.0000000000563712
  0
ELLIPSE
  5
D085
330
18
100
AcDbEntity
  8
01
100
AcDbEllipse
 10
6908.426641502461
 20
416.7144595737022
 30
0.0000000000563712
 11
-9.626666666667004
 21
0.0
 31
0.0
210
0.0
220
0.0
230
1.0
 40
0.9868421052631231
 41
4.71238898038469
 42
7.853981633974483
  0
LINE
  5
D086
330
18
100
AcDbEntity
  8
01
100
AcDbLine
 10
7014.426641502461
 20
425.2144595737022
 30
0.0000000000563712
 11
7014.426641502461
 21
408.2144595737022
 31
0.0000000000563712
  0
ARC
  5
D087
330
18
100
AcDbEntity
  8
01
100
AcDbCircle
 10
7013.426641502461
 20
408.2144595737022
 30
0.0000000000563712
 40
1.0
100
AcDbArc
 50
270.0
 51
0.0
  0
ARC
  5
D088
330
18
100
AcDbEntity
  8
01
100
AcDbCircle
 10
7013.426641502461
 20
425.2144595737022
 30
0.0000000000563712
 40
1.0
100
AcDbArc
 50
0.0
 51
90.0
  0
LINE
  5
D089
330
18
100
AcDbEntity
  8
1CENTER
100
AcDbLine
 10
6892.342966738521
 20
721.2131332252884
 30
0.0000000001127424
 11
6900.476639100369
 21
721.2131412585386
 31
0.0000000001127424
  0
LINE
  5
D08A
330
18
100
AcDbEntity
  8
01
100
AcDbLine
 10
6919.064885958549
 20
744.2131412585413
 30
0.0000000001127424
 11
7013.426641502461
 21
744.2131412585413
 31
0.0000000001127424
  0
LINE
  5
D08B
330
18
100
AcDbEntity
  8
01
100
AcDbLine
 10
6900.038570169074
 20
763.2131412585413
 30
0.0000000001127424
 11
7013.426641502461
 21
763.2131412585413
 31
0.0000000001127424
  0
ARC
  5
D08C
330
18
100
AcDbEntity
  8
01
100
AcDbCircle
 10
6900.038570169074
 20
762.2131412585413
 30
0.0000000001127424
 40
1.0
100
AcDbArc
 50
90.0
 51
179.2461516669388
  0
LINE
  5
D08D
330
18
100
AcDbEntity
  8
01
100
AcDbLine
 10
6918.051641502461
 20
744.2131412585413
 30
0.0000000001127424
 11
6899.338029259248
 21
762.9267535017525
 31
0.0000000001127424
  0
LINE
  5
D08E
330
18
100
AcDbEntity
  8
01
100
AcDbLine
 10
6899.038656722933
 20
762.2262980144114
 30
0.0000000001127424
 11
6898.426641502459
 21
715.7131412585413
 31
0.0000000001127424
  0
LINE
  5
D08F
330
18
100
AcDbEntity
  8
01
100
AcDbLine
 10
6918.064972512408
 20
743.1999845026708
 30
0.0000000001127424
 11
6918.426641502461
 21
715.7131412585413
 31
0.0000000001127424
  0
LINE
  5
D090
330
18
100
AcDbEntity
  8
01
100
AcDbLine
 10
6918.426641502461
 20
715.7131412585413
 30
0.0000000001127424
 11
6910.926769807065
 21
715.7131412585413
 31
0.0000000001127424
  0
LINE
  5
D091
330
18
100
AcDbEntity
  8
01
100
AcDbLine
 10
6905.926769807063
 20
715.7131412585413
 30
0.0000000001127424
 11
6898.426641502459
 21
715.7131412585413
 31
0.0000000001127424
  0
ARC
  5
D092
330
18
100
AcDbEntity
  8
01
100
AcDbCircle
 10
6919.064885958549
 20
743.2131412585413
 30
0.0000000001127424
 40
1.0
100
AcDbArc
 50
90.0
 51
180.7538483330612
  0
ARC
  5
D093
330
18
100
AcDbEntity
  8
01
100
AcDbCircle
 10
7013.426641502461
 20
762.2131412585413
 30
0.0000000001127424
 40
1.0
100
AcDbArc
 50
0.0
 51
90.0
  0
LINE
  5
D094
330
18
100
AcDbEntity
  8
01
100
AcDbLine
 10
7014.426641502461
 20
745.2131412585413
 30
0.0000000001127424
 11
7014.426641502461
 21
762.2131412585413
 31
0.0000000001127424
  0
ARC
  5
D095
330
18
100
AcDbEntity
  8
01
100
AcDbCircle
 10
7013.426641502461
 20
745.2131412585413
 30
0.0000000001127424
 40
1.0
100
AcDbArc
 50
270.0
 51
0.0
  0
ARC
  5
D096
330
18
100
AcDbEntity
  8
01
100
AcDbCircle
 10
6671.326873438855
 20
416.7144595737027
 30
0.0000000000563712
 40
9.5
100
AcDbArc
 50
90.0
 51
270.0
  0
LINE
  5
D097
330
18
100
AcDbEntity
  8
01
100
AcDbLine
 10
6709.42687418195
 20
406.7144595737022
 30
0.0000000000563712
 11
6709.426874181951
 21
426.7144595737032
 31
0.0000000000563712
  0
LINE
  5
D098
330
18
100
AcDbEntity
  8
01
100
AcDbLine
 10
6671.326873438855
 20
426.2144595737022
 30
0.0000000000563712
 11
6709.326873438855
 21
426.7144595737032
 31
0.0000000000563712
  0
LINE
  5
D099
330
18
100
AcDbEntity
  8
01
100
AcDbLine
 10
6671.326873438856
 20
407.2144595737022
 30
0.0000000000563712
 11
6709.326873438855
 21
406.7144595737032
 31
0.0000000000563712
  0
LINE
  5
D09A
330
18
100
AcDbEntity
  8
01
100
AcDbLine
 10
6568.426874181951
 20
446.7144595737022
 30
0.0000000000563712
 11
6568.426874181951
 21
386.7144595737022
 31
0.0000000000563712
  0
LINE
  5
D09B
330
18
100
AcDbEntity
  8
01
100
AcDbLine
 10
6542.426874181951
 20
443.2144595737004
 30
0.0000000000563712
 11
6594.426874181947
 21
443.2144595737004
 31
0.0000000000563712
  0
LINE
  5
D09C
330
18
100
AcDbEntity
  8
01
100
AcDbLine
 10
6594.426874181947
 20
390.2144595737004
 30
0.0000000000563712
 11
6542.426874181951
 21
390.2144595737004
 31
0.0000000000563712
  0
LINE
  5
D09D
330
18
100
AcDbEntity
  8
01
100
AcDbLine
 10
6594.926874181947
 20
442.7144595737004
 30
0.0000000000563712
 11
6594.926874181947
 21
390.7144595737004
 31
0.0000000000563712
  0
ARC
  5
D09E
330
18
100
AcDbEntity
  8
01
100
AcDbCircle
 10
6594.426874181947
 20
390.7144595737004
 30
0.0000000000563712
 40
0.5
100
AcDbArc
 50
270.0
 51
0.0
  0
ARC
  5
D09F
330
18
100
AcDbEntity
  8
01
100
AcDbCircle
 10
6594.426874181947
 20
442.7144595737004
 30
0.0000000000563712
 40
0.5
100
AcDbArc
 50
0.0
 51
90.0
  0
LINE
  5
D0A0
330
18
100
AcDbEntity
  8
01
100
AcDbLine
 10
6541.926874181951
 20
442.7144595737004
 30
0.0000000000563712
 11
6541.926874181951
 21
426.2144595737022
 31
0.0000000000563712
  0
LINE
  5
D0A1
330
18
100
AcDbEntity
  8
01
100
AcDbLine
 10
6541.92687418195
 20
407.2144595737022
 30
0.0000000000563712
 11
6541.926874181951
 21
390.7144595737004
 31
0.0000000000563712
  0
ARC
  5
D0A2
330
18
100
AcDbEntity
  8
01
100
AcDbCircle
 10
6542.426874181951
 20
390.7144595737004
 30
0.0000000000563712
 40
0.5
100
AcDbArc
 50
180.0
 51
270.0
  0
ARC
  5
D0A3
330
18
100
AcDbEntity
  8
01
100
AcDbCircle
 10
6542.426874181951
 20
442.7144595737004
 30
0.0000000000563712
 40
0.5
100
AcDbArc
 50
90.0
 51
180.0
  0
LINE
  5
D0A4
330
18
100
AcDbEntity
  8
01
100
AcDbLine
 10
6568.426874181949
 20
426.2144595737022
 30
0.0000000000563712
 11
6463.426874181949
 21
426.2144595737022
 31
0.0000000000563712
  0
LINE
  5
D0A5
330
18
100
AcDbEntity
  8
01
100
AcDbLine
 10
6568.426874181951
 20
407.2144595737022
 30
0.0000000000563712
 11
6463.426874181951
 21
407.2144595737022
 31
0.0000000000563712
  0
ELLIPSE
  5
D0A6
330
18
100
AcDbEntity
  8
01
100
AcDbEllipse
 10
6568.426874181951
 20
416.7144595737022
 30
0.0000000000563712
 11
9.626666666667004
 21
0.0
 31
0.0
210
0.0
220
0.0
230
-1.0
 40
0.9868421052631231
 41
4.71238898038469
 42
7.853981633974483
  0
LINE
  5
D0A7
330
18
100
AcDbEntity
  8
01
100
AcDbLine
 10
6462.426874181949
 20
425.2144595737022
 30
0.0000000000563712
 11
6462.426874181951
 21
408.2144595737022
 31
0.0000000000563712
  0
ARC
  5
D0A8
330
18
100
AcDbEntity
  8
01
100
AcDbCircle
 10
6463.426874181951
 20
408.2144595737022
 30
0.0000000000563712
 40
1.0
100
AcDbArc
 50
180.0
 51
270.0
  0
ARC
  5
D0A9
330
18
100
AcDbEntity
  8
01
100
AcDbCircle
 10
6463.426874181949
 20
425.2144595737022
 30
0.0000000000563712
 40
1.0
100
AcDbArc
 50
90.0
 51
180.0
  0
LINE
  5
E303
330
18
100
AcDbEntity
  8
01
100
AcDbLine
 10
6718.426757842208
 20
492.2131412605995
 30
0.0
 11
6718.426757842208
 21
524.0131412605995
 31
0.0
1001
ACAD
1000
DSTYLE
1002
{
1070
    40
1040
1.3
1070
    45
1040
0.5
1070
   341
1005
0
1002
}
  0
LINE
  5
E304
330
18
100
AcDbEntity
  8
01
100
AcDbLine
 10
6696.426372276488
 20
476.7131362606005
 30
0.0
 11
6696.426372276488
 21
524.0131412605995
 31
0.0
1001
ACAD
1000
DSTYLE
1002
{
1070
    40
1040
1.3
1070
    45
1040
0.5
1070
   341
1005
0
1002
}
  0
LINE
  5
E305
330
18
100
AcDbEntity
  8
01
100
AcDbLine
 10
6715.826757842207
 20
522.7131412605995
 30
0.0
 11
6699.026372276488
 21
522.7131412605995
 31
0.0
1001
ACAD
1000
DSTYLE
1002
{
1070
    40
1040
1.3
1070
    45
1040
0.5
1070
   341
1005
0
1002
}
  0
LINE
  5
E309
330
18
100
AcDbEntity
  8
01
100
AcDbLine
 10
6758.426757842208
 20
492.2131412605995
 30
0.0
 11
6758.426757842208
 21
524.0131412605995
 31
0.0
1001
ACAD
1000
DSTYLE
1002
{
1070
    40
1040
1.3
1070
    45
1040
0.5
1070
   271
1070
     1
1070
   341
1005
0
1002
}
  0
LINE
  5
E30A
330
18
100
AcDbEntity
  8
01
100
AcDbLine
 10
6766.595341531168
 20
466.7131428282917
 30
0.0
 11
6766.595341531168
 21
524.0131412605995
 31
0.0
1001
ACAD
1000
DSTYLE
1002
{
1070
    40
1040
1.3
1070
    45
1040
0.5
1070
   271
1070
     1
1070
   341
1005
0
1002
}
  0
LINE
  5
E30B
330
18
100
AcDbEntity
  8
01
100
AcDbLine
 10
6761.026757842208
 20
522.7131412605995
 30
0.0
 11
6763.995341531167
 21
522.7131412605995
 31
0.0
1001
ACAD
1000
DSTYLE
1002
{
1070
    40
1040
1.3
1070
    45
1040
0.5
1070
   271
1070
     1
1070
   341
1005
0
1002
}
  0
LINE
  5
E30F
330
18
100
AcDbEntity
  8
01
100
AcDbLine
 10
6548.426769197291
 20
491.7131412605995
 30
0.0
 11
6548.426769197291
 21
501.0131412605995
 31
0.0
1001
ACAD
1000
DSTYLE
1002
{
1070
     3
1000
□<>
1070
    40
1040
1.3
1070
    45
1040
0.5
1070
   271
1070
     1
1070
   272
1070
     2
1002
}
  0
LINE
  5
E310
330
18
100
AcDbEntity
  8
01
100
AcDbLine
 10
6588.426769197291
 20
491.7131412605991
 30
0.0
 11
6588.426769197291
 21
501.0131412605995
 31
0.0
1001
ACAD
1000
DSTYLE
1002
{
1070
     3
1000
□<>
1070
    40
1040
1.3
1070
    45
1040
0.5
1070
   271
1070
     1
1070
   272
1070
     2
1002
}
  0
LINE
  5
E311
330
18
100
AcDbEntity
  8
01
100
AcDbLine
 10
6551.026769197291
 20
499.7131412605995
 30
0.0
 11
6585.826769197291
 21
499.7131412605995
 31
0.0
1001
ACAD
1000
DSTYLE
1002
{
1070
     3
1000
□<>
1070
    40
1040
1.3
1070
    45
1040
0.5
1070
   271
1070
     1
1070
   272
1070
     2
1002
}
  0
LINE
  5
E315
330
18
100
AcDbEntity
  8
01
100
AcDbLine
 10
6888.426649180004
 20
491.7131412605995
 30
0.0
 11
6888.426649180004
 21
501.0131412605995
 31
0.0
1001
ACAD
1000
DSTYLE
1002
{
1070
     3
1000
□<>
1070
    40
1040
1.3
1070
    45
1040
0.5
1070
   271
1070
     1
1070
   272
1070
     2
1002
}
  0
LINE
  5
E316
330
18
100
AcDbEntity
  8
01
100
AcDbLine
 10
6928.426649180004
 20
491.7131412605991
 30
0.0
 11
6928.426649180004
 21
501.0131412605995
 31
0.0
1001
ACAD
1000
DSTYLE
1002
{
1070
     3
1000
□<>
1070
    40
1040
1.3
1070
    45
1040
0.5
1070
   271
1070
     1
1070
   272
1070
     2
1002
}
  0
LINE
  5
E317
330
18
100
AcDbEntity
  8
01
100
AcDbLine
 10
6891.026649180005
 20
499.7131412605995
 30
0.0
 11
6925.826649180004
 21
499.7131412605995
 31
0.0
1001
ACAD
1000
DSTYLE
1002
{
1070
     3
1000
□<>
1070
    40
1040
1.3
1070
    45
1040
0.5
1070
   271
1070
     1
1070
   272
1070
     2
1002
}
  0
TEXT
  5
E31B
330
18
100
AcDbEntity
  8
01
  6
CONTINUOUS
100
AcDbText
 10
6819.429802595479
 20
629.2964745929037
 30
0.0000000000563712
 40
4.55
  1
材質：亜鉛ダイキャスト
100
AcDbText
  0
TEXT
  5
E31C
330
18
100
AcDbEntity
  8
01
  6
CONTINUOUS
100
AcDbText
 10
6829.743135928813
 20
621.7131412595703
 30
0.0000000000563712
 40
4.55
  1
仕上げ：各種メッキ
100
AcDbText
  0
LINE
  5
E31D
330
18
100
AcDbEntity
  8
01
100
AcDbLine
 10
6846.426641502461
 20
444.7131405624677
 30
0.0
 11
6846.426641502461
 21
547.434633345287
 31
0.0
1001
ACAD
1000
DSTYLE
1002
{
1070
    40
1040
1.3
1070
    45
1040
0.5
1002
}
  0
LINE
  5
E31E
330
18
100
AcDbEntity
  8
01
100
AcDbLine
 10
6857.426641502461
 20
502.5844586117566
 30
0.0
 11
6857.426641502461
 21
547.434633345287
 31
0.0
1001
ACAD
1000
DSTYLE
1002
{
1070
    40
1040
1.3
1070
    45
1040
0.5
1002
}
  0
LINE
  5
E31F
330
18
100
AcDbEntity
  8
01
100
AcDbLine
 10
6849.026641502462
 20
546.134633345287
 30
0.0
 11
6854.826641502461
 21
546.134633345287
 31
0.0
1001
ACAD
1000
DSTYLE
1002
{
1070
    40
1040
1.3
1070
    45
1040
0.5
1002
}
  0
LINE
  5
E323
330
18
100
AcDbEntity
  8
01
100
AcDbLine
 10
6926.426641502461
 20
474.7057687529909
 30
0.0
 11
6954.726641502461
 21
474.7057687529909
 31
0.0
1001
ACAD
1000
DSTYLE
1002
{
1070
    40
1040
1.3
1070
    45
1040
0.5
1002
}
  0
LINE
  5
E324
330
18
100
AcDbEntity
  8
01
100
AcDbLine
 10
6926.426641502461
 20
400.7131412605986
 30
0.0
 11
6954.726641502461
 21
400.7131412605986
 31
0.0
1001
ACAD
1000
DSTYLE
1002
{
1070
    40
1040
1.3
1070
    45
1040
0.5
1002
}
  0
LINE
  5
E325
330
18
100
AcDbEntity
  8
01
100
AcDbLine
 10
6953.426641502461
 20
472.1057687529909
 30
0.0
 11
6953.426641502461
 21
403.3131412605986
 31
0.0
1001
ACAD
1000
DSTYLE
1002
{
1070
    40
1040
1.3
1070
    45
1040
0.5
1002
}
  0
LINE
  5
E329
330
18
100
AcDbEntity
  8
01
100
AcDbLine
 10
6926.426641502461
 20
474.7057687529909
 30
0.0
 11
6926.426641502461
 21
557.5145008133352
 31
0.0
1001
ACAD
1000
DSTYLE
1002
{
1070
    40
1040
1.3
1070
    45
1040
0.5
1002
}
  0
LINE
  5
E32A
330
18
100
AcDbEntity
  8
01
100
AcDbLine
 10
6857.426641502461
 20
502.5844586117566
 30
0.0
 11
6857.426641502461
 21
557.5145008133352
 31
0.0
1001
ACAD
1000
DSTYLE
1002
{
1070
    40
1040
1.3
1070
    45
1040
0.5
1002
}
  0
LINE
  5
E32B
330
18
100
AcDbEntity
  8
01
100
AcDbLine
 10
6923.826641502461
 20
556.2145008133352
 30
0.0
 11
6860.026641502462
 21
556.2145008133352
 31
0.0
1001
ACAD
1000
DSTYLE
1002
{
1070
    40
1040
1.3
1070
    45
1040
0.5
1002
}
  0
LINE
  5
E32F
330
18
100
AcDbEntity
  8
01
100
AcDbLine
 10
6857.426641502461
 20
502.5844586117566
 30
0.0
 11
6857.426641502461
 21
547.434633345287
 31
0.0
1001
ACAD
1000
DSTYLE
1002
{
1070
    40
1040
1.3
1070
    45
1040
0.5
1002
}
  0
LINE
  5
E330
330
18
100
AcDbEntity
  8
01
100
AcDbLine
 10
6908.426641502461
 20
466.7131412605991
 30
0.0
 11
6908.426641502461
 21
547.434633345287
 31
0.0
1001
ACAD
1000
DSTYLE
1002
{
1070
    40
1040
1.3
1070
    45
1040
0.5
1002
}
  0
LINE
  5
E331
330
18
100
AcDbEntity
  8
01
100
AcDbLine
 10
6860.026641502462
 20
546.134633345287
 30
0.0
 11
6905.826641502461
 21
546.134633345287
 31
0.0
1001
ACAD
1000
DSTYLE
1002
{
1070
    40
1040
1.3
1070
    45
1040
0.5
1002
}
  0
LINE
  5
E335
330
18
100
AcDbEntity
  8
01
100
AcDbLine
 10
6744.301783250112
 20
494.7131412605984
 30
0.0
 11
6824.587914418319
 21
494.7131412605983
 31
0.0
1001
ACAD
1000
DSTYLE
1002
{
1070
    40
1040
1.3
1070
    45
1040
0.5
1002
}
  0
LINE
  5
E336
330
18
100
AcDbEntity
  8
01
100
AcDbLine
 10
6744.301783250112
 20
380.7131412605984
 30
0.0
 11
6824.587914418319
 21
380.7131412605983
 31
0.0
1001
ACAD
1000
DSTYLE
1002
{
1070
    40
1040
1.3
1070
    45
1040
0.5
1002
}
  0
LINE
  5
E337
330
18
100
AcDbEntity
  8
01
100
AcDbLine
 10
6823.287914418319
 20
492.1131412605983
 30
0.0
 11
6823.287914418319
 21
383.3131412605983
 31
0.0
1001
ACAD
1000
DSTYLE
1002
{
1070
    40
1040
1.3
1070
    45
1040
0.5
1002
}
  0
LINE
  5
E33B
330
18
100
AcDbEntity
  8
01
100
AcDbLine
 10
6744.899843646876
 20
502.612696116182
 30
0.0
 11
6833.952248584544
 21
502.6126961161819
 31
0.0
1001
ACAD
1000
DSTYLE
1002
{
1070
    40
1040
1.3
1070
    45
1040
0.5
1002
}
  0
LINE
  5
E33C
330
18
100
AcDbEntity
  8
01
100
AcDbLine
 10
6744.826757842206
 20
372.8131412605985
 30
0.0
 11
6833.952248584544
 21
372.8131412605985
 31
0.0
1001
ACAD
1000
DSTYLE
1002
{
1070
    40
1040
1.3
1070
    45
1040
0.5
1002
}
  0
LINE
  5
E33D
330
18
100
AcDbEntity
  8
01
100
AcDbLine
 10
6832.652248584543
 20
500.0126961161819
 30
0.0
 11
6832.652248584543
 21
375.4131412605985
 31
0.0
1001
ACAD
1000
DSTYLE
1002
{
1070
    40
1040
1.3
1070
    45
1040
0.5
1002
}
  0
LINE
  5
E341
330
18
100
AcDbEntity
  8
01
100
AcDbLine
 10
6725.926757842206
 20
496.7131412605986
 30
0.0
 11
6725.926757842206
 21
547.434633345287
 31
0.0
1001
ACAD
1000
DSTYLE
1002
{
1070
    40
1040
1.3
1070
    45
1040
0.5
1002
}
  0
LINE
  5
E342
330
18
100
AcDbEntity
  8
01
100
AcDbLine
 10
6750.926757842206
 20
496.7131412605986
 30
0.0
 11
6750.926757842206
 21
547.434633345287
 31
0.0
1001
ACAD
1000
DSTYLE
1002
{
1070
    40
1040
1.3
1070
    45
1040
0.5
1002
}
  0
LINE
  5
E343
330
18
100
AcDbEntity
  8
01
100
AcDbLine
 10
6728.526757842206
 20
546.134633345287
 30
0.0
 11
6748.326757842206
 21
546.134633345287
 31
0.0
1001
ACAD
1000
DSTYLE
1002
{
1070
    40
1040
1.3
1070
    45
1040
0.5
1002
}
  0
LINE
  5
E347
330
18
100
AcDbEntity
  8
01
100
AcDbLine
 10
6705.225795947883
 20
417.4631412605986
 30
0.0
 11
6703.926757842206
 21
418.2131412605986
 31
0.0
  0
LINE
  5
E348
330
18
100
AcDbEntity
  8
01
100
AcDbLine
 10
6703.926757842206
 20
418.2131412605986
 30
0.0
 11
6702.627719736529
 21
417.4631412605986
 31
0.0
  0
LINE
  5
E349
330
18
100
AcDbEntity
  8
01
100
AcDbLine
 10
6702.627719736529
 20
417.4631412605986
 30
0.0
 11
6702.627719736529
 21
415.9631412605986
 31
0.0
  0
LINE
  5
E34A
330
18
100
AcDbEntity
  8
01
100
AcDbLine
 10
6702.627719736529
 20
415.9631412605986
 30
0.0
 11
6703.926757842206
 21
415.2131412605986
 31
0.0
  0
LINE
  5
E34B
330
18
100
AcDbEntity
  8
01
100
AcDbLine
 10
6703.926757842206
 20
415.2131412605986
 30
0.0
 11
6705.225795947883
 21
415.9631412605986
 31
0.0
  0
LINE
  5
E34C
330
18
100
AcDbEntity
  8
01
100
AcDbLine
 10
6705.225795947883
 20
415.9631412605986
 30
0.0
 11
6705.225795947883
 21
417.4631412605986
 31
0.0
  0
CIRCLE
  5
E34D
330
18
100
AcDbEntity
  8
01
100
AcDbCircle
 10
6772.926641502461
 20
416.7144595737022
 30
0.0000000000563712
 40
3.0
  0
LINE
  5
E34E
330
18
100
AcDbEntity
  8
01
100
AcDbLine
 10
6882.426641502465
 20
443.2144595737004
 30
0.0
 11
6872.126641502461
 21
443.2144595737004
 31
0.0
1001
ACAD
1000
DSTYLE
1002
{
1070
     3
1000
□<>
1070
    40
1040
1.3
1070
    45
1040
0.5
1002
}
  0
LINE
  5
E34F
330
18
100
AcDbEntity
  8
01
100
AcDbLine
 10
6882.426641502465
 20
390.2144595737004
 30
0.0
 11
6872.126641502461
 21
390.2144595737004
 31
0.0
1001
ACAD
1000
DSTYLE
1002
{
1070
     3
1000
□<>
1070
    40
1040
1.3
1070
    45
1040
0.5
1002
}
  0
LINE
  5
E350
330
18
100
AcDbEntity
  8
01
100
AcDbLine
 10
6873.426641502461
 20
440.6144595737004
 30
0.0
 11
6873.426641502461
 21
392.8144595737004
 31
0.0
1001
ACAD
1000
DSTYLE
1002
{
1070
     3
1000
□<>
1070
    40
1040
1.3
1070
    45
1040
0.5
1002
}
  0
LINE
  5
E354
330
18
100
AcDbEntity
  8
01
  6
BYBLOCK
100
AcDbLine
 10
6715.826757842207
 20
523.4098091545995
 30
0.0
 11
6718.426757842208
 21
522.7131412605995
 31
0.0
  0
LINE
  5
E355
330
18
100
AcDbEntity
  8
01
  6
BYBLOCK
100
AcDbLine
 10
6718.426757842208
 20
522.7131412605995
 30
0.0
 11
6715.826757842207
 21
522.0164733665995
 31
0.0
  0
LINE
  5
E356
330
18
100
AcDbEntity
  8
01
  6
BYBLOCK
100
AcDbLine
 10
6718.426757842208
 20
522.7131412605995
 30
0.0
 11
6715.826757842207
 21
522.7131412605995
 31
0.0
  0
LINE
  5
E357
330
18
100
AcDbEntity
  8
01
  6
BYBLOCK
100
AcDbLine
 10
6699.026372276488
 20
522.0164733665995
 30
0.0
 11
6696.426372276488
 21
522.7131412605995
 31
0.0
  0
LINE
  5
E358
330
18
100
AcDbEntity
  8
01
  6
BYBLOCK
100
AcDbLine
 10
6696.426372276488
 20
522.7131412605995
 30
0.0
 11
6699.026372276488
 21
523.4098091545995
 31
0.0
  0
LINE
  5
E359
330
18
100
AcDbEntity
  8
01
  6
BYBLOCK
100
AcDbLine
 10
6696.426372276488
 20
522.7131412605995
 30
0.0
 11
6699.026372276488
 21
522.7131412605995
 31
0.0
  0
TEXT
  5
E35A
330
18
100
AcDbEntity
  8
01
  6
CONTINUOUS
100
AcDbText
 10
6703.634898392681
 20
523.6231412605995
 30
0.0
 40
4.55
  1
22
100
AcDbText
1001
ACAD
1000
DSTYLE
1002
{
1070
    40
1040
1.3
1070
    45
1040
0.5
1070
   341
1005
0
1002
}
  0
LINE
  5
E35B
330
18
100
AcDbEntity
  8
01
  6
BYBLOCK
100
AcDbLine
 10
6761.026757842208
 20
522.0164733665995
 30
0.0
 11
6758.426757842208
 21
522.7131412605995
 31
0.0
  0
LINE
  5
E35C
330
18
100
AcDbEntity
  8
01
  6
BYBLOCK
100
AcDbLine
 10
6758.426757842208
 20
522.7131412605995
 30
0.0
 11
6761.026757842208
 21
523.4098091545995
 31
0.0
  0
LINE
  5
E35D
330
18
100
AcDbEntity
  8
01
  6
BYBLOCK
100
AcDbLine
 10
6758.426757842208
 20
522.7131412605995
 30
0.0
 11
6761.026757842208
 21
522.7131412605995
 31
0.0
  0
LINE
  5
E35E
330
18
100
AcDbEntity
  8
01
  6
BYBLOCK
100
AcDbLine
 10
6763.995341531167
 20
523.4098091545995
 30
0.0
 11
6766.595341531168
 21
522.7131412605995
 31
0.0
  0
LINE
  5
E35F
330
18
100
AcDbEntity
  8
01
  6
BYBLOCK
100
AcDbLine
 10
6766.595341531168
 20
522.7131412605995
 30
0.0
 11
6763.995341531167
 21
522.0164733665995
 31
0.0
  0
LINE
  5
E360
330
18
100
AcDbEntity
  8
01
  6
BYBLOCK
100
AcDbLine
 10
6766.595341531168
 20
522.7131412605995
 30
0.0
 11
6763.995341531167
 21
522.7131412605995
 31
0.0
  0
TEXT
  5
E361
330
18
100
AcDbEntity
  8
01
  6
CONTINUOUS
100
AcDbText
 10
6760.994383020021
 20
523.6231412605995
 30
0.0
 40
4.55
  1
8
100
AcDbText
1001
ACAD
1000
DSTYLE
1002
{
1070
    40
1040
1.3
1070
    45
1040
0.5
1070
   271
1070
     1
1070
   341
1005
0
1002
}
  0
LINE
  5
E362
330
18
100
AcDbEntity
  8
01
  6
BYBLOCK
100
AcDbLine
 10
6551.026769197291
 20
499.0164733665995
 30
0.0
 11
6548.426769197291
 21
499.7131412605995
 31
0.0
  0
LINE
  5
E363
330
18
100
AcDbEntity
  8
01
  6
BYBLOCK
100
AcDbLine
 10
6548.426769197291
 20
499.7131412605995
 30
0.0
 11
6551.026769197291
 21
500.4098091545995
 31
0.0
  0
LINE
  5
E364
330
18
100
AcDbEntity
  8
01
  6
BYBLOCK
100
AcDbLine
 10
6548.426769197291
 20
499.7131412605995
 30
0.0
 11
6551.026769197291
 21
499.7131412605995
 31
0.0
  0
LINE
  5
E365
330
18
100
AcDbEntity
  8
01
  6
BYBLOCK
100
AcDbLine
 10
6585.826769197291
 20
500.4098091545995
 30
0.0
 11
6588.426769197291
 21
499.7131412605995
 31
0.0
  0
LINE
  5
E366
330
18
100
AcDbEntity
  8
01
  6
BYBLOCK
100
AcDbLine
 10
6588.426769197291
 20
499.7131412605995
 30
0.0
 11
6585.826769197291
 21
499.0164733665995
 31
0.0
  0
LINE
  5
E367
330
18
100
AcDbEntity
  8
01
  6
BYBLOCK
100
AcDbLine
 10
6588.426769197291
 20
499.7131412605995
 30
0.0
 11
6585.826769197291
 21
499.7131412605995
 31
0.0
  0
TEXT
  5
E368
330
18
100
AcDbEntity
  8
01
  6
CONTINUOUS
100
AcDbText
 10
6562.037810863958
 20
500.6231412605995
 30
0.0
 40
4.55
  1
□40
100
AcDbText
1001
ACAD
1000
DSTYLE
1002
{
1070
     3
1000
□<>
1070
    40
1040
1.3
1070
    45
1040
0.5
1070
   271
1070
     1
1070
   272
1070
     2
1002
}
  0
LINE
  5
E369
330
18
100
AcDbEntity
  8
01
  6
BYBLOCK
100
AcDbLine
 10
6891.026649180005
 20
499.0164733665995
 30
0.0
 11
6888.426649180004
 21
499.7131412605995
 31
0.0
  0
LINE
  5
E36A
330
18
100
AcDbEntity
  8
01
  6
BYBLOCK
100
AcDbLine
 10
6888.426649180004
 20
499.7131412605995
 30
0.0
 11
6891.026649180005
 21
500.4098091545995
 31
0.0
  0
LINE
  5
E36B
330
18
100
AcDbEntity
  8
01
  6
BYBLOCK
100
AcDbLine
 10
6888.426649180004
 20
499.7131412605995
 30
0.0
 11
6891.026649180005
 21
499.7131412605995
 31
0.0
  0
LINE
  5
E36C
330
18
100
AcDbEntity
  8
01
  6
BYBLOCK
100
AcDbLine
 10
6925.826649180004
 20
500.4098091545995
 30
0.0
 11
6928.426649180004
 21
499.7131412605995
 31
0.0
  0
LINE
  5
E36D
330
18
100
AcDbEntity
  8
01
  6
BYBLOCK
100
AcDbLine
 10
6928.426649180004
 20
499.7131412605995
 30
0.0
 11
6925.826649180004
 21
499.0164733665995
 31
0.0
  0
LINE
  5
E36E
330
18
100
AcDbEntity
  8
01
  6
BYBLOCK
100
AcDbLine
 10
6928.426649180004
 20
499.7131412605995
 30
0.0
 11
6925.826649180004
 21
499.7131412605995
 31
0.0
  0
TEXT
  5
E36F
330
18
100
AcDbEntity
  8
01
  6
CONTINUOUS
100
AcDbText
 10
6902.037690846671
 20
500.6231412605995
 30
0.0
 40
4.55
  1
□40
100
AcDbText
1001
ACAD
1000
DSTYLE
1002
{
1070
     3
1000
□<>
1070
    40
1040
1.3
1070
    45
1040
0.5
1070
   271
1070
     1
1070
   272
1070
     2
1002
}
  0
LINE
  5
E370
330
18
100
AcDbEntity
  8
01
  6
BYBLOCK
100
AcDbLine
 10
6849.026641502462
 20
545.437965451287
 30
0.0
 11
6846.426641502461
 21
546.134633345287
 31
0.0
  0
LINE
  5
E371
330
18
100
AcDbEntity
  8
01
  6
BYBLOCK
100
AcDbLine
 10
6846.426641502461
 20
546.134633345287
 30
0.0
 11
6849.026641502462
 21
546.8313012392871
 31
0.0
  0
LINE
  5
E372
330
18
100
AcDbEntity
  8
01
  6
BYBLOCK
100
AcDbLine
 10
6846.426641502461
 20
546.134633345287
 30
0.0
 11
6849.026641502462
 21
546.134633345287
 31
0.0
  0
LINE
  5
E373
330
18
100
AcDbEntity
  8
01
  6
BYBLOCK
100
AcDbLine
 10
6854.826641502461
 20
546.8313012392871
 30
0.0
 11
6857.426641502461
 21
546.134633345287
 31
0.0
  0
LINE
  5
E374
330
18
100
AcDbEntity
  8
01
  6
BYBLOCK
100
AcDbLine
 10
6857.426641502461
 20
546.134633345287
 30
0.0
 11
6854.826641502461
 21
545.437965451287
 31
0.0
  0
LINE
  5
E375
330
18
100
AcDbEntity
  8
01
  6
BYBLOCK
100
AcDbLine
 10
6857.426641502461
 20
546.134633345287
 30
0.0
 11
6854.826641502461
 21
546.134633345287
 31
0.0
  0
TEXT
  5
E376
330
18
100
AcDbEntity
  8
01
  6
CONTINUOUS
100
AcDbText
 10
6849.651641502462
 20
547.044633345287
 30
0.0
 40
4.55
  1
11
100
AcDbText
1001
ACAD
1000
DSTYLE
1002
{
1070
    40
1040
1.3
1070
    45
1040
0.5
1002
}
  0
LINE
  5
E377
330
18
100
AcDbEntity
  8
01
  6
BYBLOCK
100
AcDbLine
 10
6952.729973608461
 20
472.1057687529909
 30
0.0
 11
6953.426641502461
 21
474.7057687529909
 31
0.0
  0
LINE
  5
E378
330
18
100
AcDbEntity
  8
01
  6
BYBLOCK
100
AcDbLine
 10
6953.426641502461
 20
474.7057687529909
 30
0.0
 11
6954.123309396461
 21
472.1057687529909
 31
0.0
  0
LINE
  5
E379
330
18
100
AcDbEntity
  8
01
  6
BYBLOCK
100
AcDbLine
 10
6953.426641502461
 20
474.7057687529909
 30
0.0
 11
6953.426641502461
 21
472.1057687529909
 31
0.0
  0
LINE
  5
E37A
330
18
100
AcDbEntity
  8
01
  6
BYBLOCK
100
AcDbLine
 10
6954.123309396461
 20
403.3131412605986
 30
0.0
 11
6953.426641502461
 21
400.7131412605986
 31
0.0
  0
LINE
  5
E37B
330
18
100
AcDbEntity
  8
01
  6
BYBLOCK
100
AcDbLine
 10
6953.426641502461
 20
400.7131412605986
 30
0.0
 11
6952.729973608461
 21
403.3131412605986
 31
0.0
  0
LINE
  5
E37C
330
18
100
AcDbEntity
  8
01
  6
BYBLOCK
100
AcDbLine
 10
6953.426641502461
 20
400.7131412605986
 30
0.0
 11
6953.426641502461
 21
403.3131412605986
 31
0.0
  0
TEXT
  5
E37D
330
18
100
AcDbEntity
  8
01
  6
CONTINUOUS
100
AcDbText
 10
6952.516641502461
 20
455.6844853466173
 30
0.0
 40
4.55
  1
74
 50
90.0
100
AcDbText
1001
ACAD
1000
DSTYLE
1002
{
1070
    40
1040
1.3
1070
    45
1040
0.5
1002
}
  0
LINE
  5
E37E
330
18
100
AcDbEntity
  8
01
  6
BYBLOCK
100
AcDbLine
 10
6923.826641502461
 20
556.9111687073353
 30
0.0
 11
6926.426641502461
 21
556.2145008133352
 31
0.0
  0
LINE
  5
E37F
330
18
100
AcDbEntity
  8
01
  6
BYBLOCK
100
AcDbLine
 10
6926.426641502461
 20
556.2145008133352
 30
0.0
 11
6923.826641502461
 21
555.5178329193352
 31
0.0
  0
LINE
  5
E380
330
18
100
AcDbEntity
  8
01
  6
BYBLOCK
100
AcDbLine
 10
6926.426641502461
 20
556.2145008133352
 30
0.0
 11
6923.826641502461
 21
556.2145008133352
 31
0.0
  0
LINE
  5
E381
330
18
100
AcDbEntity
  8
01
  6
BYBLOCK
100
AcDbLine
 10
6860.026641502462
 20
555.5178329193352
 30
0.0
 11
6857.426641502461
 21
556.2145008133352
 31
0.0
  0
LINE
  5
E382
330
18
100
AcDbEntity
  8
01
  6
BYBLOCK
100
AcDbLine
 10
6857.426641502461
 20
556.2145008133352
 30
0.0
 11
6860.026641502462
 21
556.9111687073353
 31
0.0
  0
LINE
  5
E383
330
18
100
AcDbEntity
  8
01
  6
BYBLOCK
100
AcDbLine
 10
6857.426641502461
 20
556.2145008133352
 30
0.0
 11
6860.026641502462
 21
556.2145008133352
 31
0.0
  0
TEXT
  5
E384
330
18
100
AcDbEntity
  8
01
  6
CONTINUOUS
100
AcDbText
 10
6888.118122983943
 20
557.1245008133352
 30
0.0
 40
4.55
  1
69
100
AcDbText
1001
ACAD
1000
DSTYLE
1002
{
1070
    40
1040
1.3
1070
    45
1040
0.5
1002
}
  0
LINE
  5
E385
330
18
100
AcDbEntity
  8
01
  6
BYBLOCK
100
AcDbLine
 10
6860.026641502462
 20
545.437965451287
 30
0.0
 11
6857.426641502461
 21
546.134633345287
 31
0.0
  0
LINE
  5
E386
330
18
100
AcDbEntity
  8
01
  6
BYBLOCK
100
AcDbLine
 10
6857.426641502461
 20
546.134633345287
 30
0.0
 11
6860.026641502462
 21
546.8313012392871
 31
0.0
  0
LINE
  5
E387
330
18
100
AcDbEntity
  8
01
  6
BYBLOCK
100
AcDbLine
 10
6857.426641502461
 20
546.134633345287
 30
0.0
 11
6860.026641502462
 21
546.134633345287
 31
0.0
  0
LINE
  5
E388
330
18
100
AcDbEntity
  8
01
  6
BYBLOCK
100
AcDbLine
 10
6905.826641502461
 20
546.8313012392871
 30
0.0
 11
6908.426641502461
 21
546.134633345287
 31
0.0
  0
LINE
  5
E389
330
18
100
AcDbEntity
  8
01
  6
BYBLOCK
100
AcDbLine
 10
6908.426641502461
 20
546.134633345287
 30
0.0
 11
6905.826641502461
 21
545.437965451287
 31
0.0
  0
LINE
  5
E38A
330
18
100
AcDbEntity
  8
01
  6
BYBLOCK
100
AcDbLine
 10
6908.426641502461
 20
546.134633345287
 30
0.0
 11
6905.826641502461
 21
546.134633345287
 31
0.0
  0
TEXT
  5
E38B
330
18
100
AcDbEntity
  8
01
  6
CONTINUOUS
100
AcDbText
 10
6879.877509558017
 20
547.044633345287
 30
0.0
 40
4.55
  1
51
100
AcDbText
1001
ACAD
1000
DSTYLE
1002
{
1070
    40
1040
1.3
1070
    45
1040
0.5
1002
}
  0
LINE
  5
E38C
330
18
100
AcDbEntity
  8
01
  6
BYBLOCK
100
AcDbLine
 10
6822.591246524319
 20
492.1131412605983
 30
0.0
 11
6823.287914418319
 21
494.7131412605983
 31
0.0
  0
LINE
  5
E38D
330
18
100
AcDbEntity
  8
01
  6
BYBLOCK
100
AcDbLine
 10
6823.287914418319
 20
494.7131412605983
 30
0.0
 11
6823.984582312319
 21
492.1131412605983
 31
0.0
  0
LINE
  5
E38E
330
18
100
AcDbEntity
  8
01
  6
BYBLOCK
100
AcDbLine
 10
6823.287914418319
 20
494.7131412605983
 30
0.0
 11
6823.287914418319
 21
492.1131412605983
 31
0.0
  0
LINE
  5
E38F
330
18
100
AcDbEntity
  8
01
  6
BYBLOCK
100
AcDbLine
 10
6823.984582312319
 20
383.3131412605983
 30
0.0
 11
6823.287914418319
 21
380.7131412605983
 31
0.0
  0
LINE
  5
E390
330
18
100
AcDbEntity
  8
01
  6
BYBLOCK
100
AcDbLine
 10
6823.287914418319
 20
380.7131412605983
 30
0.0
 11
6822.591246524319
 21
383.3131412605983
 31
0.0
  0
LINE
  5
E391
330
18
100
AcDbEntity
  8
01
  6
BYBLOCK
100
AcDbLine
 10
6823.287914418319
 20
380.7131412605983
 30
0.0
 11
6823.287914418319
 21
383.3131412605983
 31
0.0
  0
TEXT
  5
E392
330
18
100
AcDbEntity
  8
01
  6
CONTINUOUS
100
AcDbText
 10
6822.377914418318
 20
462.2961636085201
 30
0.0
 40
4.55
  1
114
 50
90.0
100
AcDbText
1001
ACAD
1000
DSTYLE
1002
{
1070
    40
1040
1.3
1070
    45
1040
0.5
1002
}
  0
LINE
  5
E393
330
18
100
AcDbEntity
  8
01
  6
BYBLOCK
100
AcDbLine
 10
6831.955580690544
 20
500.0126961161819
 30
0.0
 11
6832.652248584543
 21
502.6126961161819
 31
0.0
  0
LINE
  5
E394
330
18
100
AcDbEntity
  8
01
  6
BYBLOCK
100
AcDbLine
 10
6832.652248584543
 20
502.6126961161819
 30
0.0
 11
6833.348916478543
 21
500.0126961161819
 31
0.0
  0
LINE
  5
E395
330
18
100
AcDbEntity
  8
01
  6
BYBLOCK
100
AcDbLine
 10
6832.652248584543
 20
502.6126961161819
 30
0.0
 11
6832.652248584543
 21
500.0126961161819
 31
0.0
  0
LINE
  5
E396
330
18
100
AcDbEntity
  8
01
  6
BYBLOCK
100
AcDbLine
 10
6833.348916478543
 20
375.4131412605985
 30
0.0
 11
6832.652248584543
 21
372.8131412605985
 31
0.0
  0
LINE
  5
E397
330
18
100
AcDbEntity
  8
01
  6
BYBLOCK
100
AcDbLine
 10
6832.652248584543
 20
372.8131412605985
 30
0.0
 11
6831.955580690544
 21
375.4131412605985
 31
0.0
  0
LINE
  5
E398
330
18
100
AcDbEntity
  8
01
  6
BYBLOCK
100
AcDbLine
 10
6832.652248584543
 20
372.8131412605985
 30
0.0
 11
6832.652248584543
 21
375.4131412605985
 31
0.0
  0
TEXT
  5
E399
330
18
100
AcDbEntity
  8
01
  6
CONTINUOUS
100
AcDbText
 10
6831.742248584544
 20
461.511599605712
 30
0.0
 40
4.55
  1
130
 50
90.0
100
AcDbText
1001
ACAD
1000
DSTYLE
1002
{
1070
    40
1040
1.3
1070
    45
1040
0.5
1002
}
  0
LINE
  5
E39A
330
18
100
AcDbEntity
  8
01
  6
BYBLOCK
100
AcDbLine
 10
6728.526757842206
 20
545.437965451287
 30
0.0
 11
6725.926757842206
 21
546.134633345287
 31
0.0
  0
LINE
  5
E39B
330
18
100
AcDbEntity
  8
01
  6
BYBLOCK
100
AcDbLine
 10
6725.926757842206
 20
546.134633345287
 30
0.0
 11
6728.526757842206
 21
546.8313012392871
 31
0.0
  0
LINE
  5
E39C
330
18
100
AcDbEntity
  8
01
  6
BYBLOCK
100
AcDbLine
 10
6725.926757842206
 20
546.134633345287
 30
0.0
 11
6728.526757842206
 21
546.134633345287
 31
0.0
  0
LINE
  5
E39D
330
18
100
AcDbEntity
  8
01
  6
BYBLOCK
100
AcDbLine
 10
6748.326757842206
 20
546.8313012392871
 30
0.0
 11
6750.926757842206
 21
546.134633345287
 31
0.0
  0
LINE
  5
E39E
330
18
100
AcDbEntity
  8
01
  6
BYBLOCK
100
AcDbLine
 10
6750.926757842206
 20
546.134633345287
 30
0.0
 11
6748.326757842206
 21
545.437965451287
 31
0.0
  0
LINE
  5
E39F
330
18
100
AcDbEntity
  8
01
  6
BYBLOCK
100
AcDbLine
 10
6750.926757842206
 20
546.134633345287
 30
0.0
 11
6748.326757842206
 21
546.134633345287
 31
0.0
  0
TEXT
  5
E3A0
330
18
100
AcDbEntity
  8
01
  6
CONTINUOUS
100
AcDbText
 10
6734.635091175539
 20
547.044633345287
 30
0.0
 40
4.55
  1
25
100
AcDbText
1001
ACAD
1000
DSTYLE
1002
{
1070
    40
1040
1.3
1070
    45
1040
0.5
1002
}
  0
LINE
  5
E3A1
330
18
100
AcDbEntity
  8
01
  6
BYBLOCK
100
AcDbLine
 10
6872.729973608461
 20
440.6144595737004
 30
0.0
 11
6873.426641502461
 21
443.2144595737004
 31
0.0
  0
LINE
  5
E3A2
330
18
100
AcDbEntity
  8
01
  6
BYBLOCK
100
AcDbLine
 10
6873.426641502461
 20
443.2144595737004
 30
0.0
 11
6874.123309396461
 21
440.6144595737004
 31
0.0
  0
LINE
  5
E3A3
330
18
100
AcDbEntity
  8
01
  6
BYBLOCK
100
AcDbLine
 10
6873.426641502461
 20
443.2144595737004
 30
0.0
 11
6873.426641502461
 21
440.6144595737004
 31
0.0
  0
LINE
  5
E3A4
330
18
100
AcDbEntity
  8
01
  6
BYBLOCK
100
AcDbLine
 10
6874.123309396461
 20
392.8144595737004
 30
0.0
 11
6873.426641502461
 21
390.2144595737004
 31
0.0
  0
LINE
  5
E3A5
330
18
100
AcDbEntity
  8
01
  6
BYBLOCK
100
AcDbLine
 10
6873.426641502461
 20
390.2144595737004
 30
0.0
 11
6872.729973608461
 21
392.8144595737004
 31
0.0
  0
LINE
  5
E3A6
330
18
100
AcDbEntity
  8
01
  6
BYBLOCK
100
AcDbLine
 10
6873.426641502461
 20
390.2144595737004
 30
0.0
 11
6873.426641502461
 21
392.8144595737004
 31
0.0
  0
TEXT
  5
E3A7
330
18
100
AcDbEntity
  8
01
  6
CONTINUOUS
100
AcDbText
 10
6872.516641502461
 20
408.6855816671041
 30
0.0
 40
4.55
  1
□53
 50
90.0
100
AcDbText
1001
ACAD
1000
DSTYLE
1002
{
1070
     3
1000
□<>
1070
    40
1040
1.3
1070
    45
1040
0.5
1002
}
  0
LINE
  5
E3A8
330
18
100
AcDbEntity
  8
1DIM
100
AcDbLine
 10
6538.426761842205
 20
416.7131412605993
 30
0.0
 11
6523.432909439917
 21
416.7131412605993
 31
0.0
1001
ACAD
1000
DSTYLE
1002
{
1070
    40
1040
1.3
1070
    45
1040
0.5
1070
   341
1005
0
1002
}
  0
LINE
  5
E3A9
330
18
100
AcDbEntity
  8
1DIM
100
AcDbLine
 10
6545.926753842206
 20
472.2131412605995
 30
0.0
 11
6523.432909439917
 21
472.2131412605996
 31
0.0
1001
ACAD
1000
DSTYLE
1002
{
1070
    40
1040
1.3
1070
    45
1040
0.5
1070
   341
1005
0
1002
}
  0
LINE
  5
E3AA
330
18
100
AcDbEntity
  8
1DIM
100
AcDbLine
 10
6524.732909439917
 20
419.3131412605994
 30
0.0
 11
6524.732909439917
 21
469.6131412605995
 31
0.0
1001
ACAD
1000
DSTYLE
1002
{
1070
    40
1040
1.3
1070
    45
1040
0.5
1070
   341
1005
0
1002
}
  0
SOLID
  5
E3AE
330
18
100
AcDbEntity
  8
1DIM
100
AcDbTrace
 10
6905.796490857208
 20
640.6623842056553
 30
0.0000000000563712
 11
6908.167242742522
 21
641.8144750336955
 31
0.0000000000563712
 12
6906.298290687129
 22
639.955766882204
 32
0.0000000000563712
 13
6906.298290687129
 23
639.955766882204
 33
0.0000000000563712
1001
ACAD
1000
DSTYLE
1002
{
1070
    40
1040
1.3
1070
    45
1040
0.5
1002
}
  0
LINE
  5
E3AF
330
18
100
AcDbEntity
  8
1DIM
100
AcDbLine
 10
6906.047390772168
 20
640.3090755439296
 30
0.0000000000563712
 11
6878.579802595479
 21
620.8031412595705
 31
0.0000000000563712
1001
ACAD
1000
DSTYLE
1002
{
1070
    40
1040
1.3
1070
    45
1040
0.5
1002
}
  0
LINE
  5
E3B0
330
18
100
AcDbEntity
  8
1DIM
100
AcDbLine
 10
6924.827525684521
 20
696.2131412595704
 30
0.0
 11
6945.387916444234
 21
696.2131412595704
 31
0.0
1001
ACAD
1000
DSTYLE
1002
{
1070
    45
1040
0.5
1070
    40
1040
1.3
1002
}
  0
LINE
  5
E3B1
330
18
100
AcDbEntity
  8
1DIM
100
AcDbLine
 10
6926.427525684521
 20
677.4131412595702
 30
0.0
 11
6945.387916444234
 21
677.4131412595702
 31
0.0
1001
ACAD
1000
DSTYLE
1002
{
1070
    45
1040
0.5
1070
    40
1040
1.3
1002
}
  0
LINE
  5
E3B2
330
18
100
AcDbEntity
  8
1DIM
100
AcDbLine
 10
6944.087916444234
 20
693.6131412595704
 30
0.0
 11
6944.087916444234
 21
680.0131412595703
 31
0.0
1001
ACAD
1000
DSTYLE
1002
{
1070
    45
1040
0.5
1070
    40
1040
1.3
1002
}
  0
LINE
  5
E3B6
330
18
100
AcDbEntity
  8
1DIM
100
AcDbLine
 10
6908.426641502461
 20
645.2131412605995
 30
0.0000000001127424
 11
6908.426641502461
 21
580.4131412605996
 31
0.0000000001127424
1001
ACAD
1000
DSTYLE
1002
{
1070
    40
1040
1.3
1070
    45
1040
0.5
1002
}
  0
LINE
  5
E3B7
330
18
100
AcDbEntity
  8
1DIM
100
AcDbLine
 10
7014.426641502461
 20
611.2131412605995
 30
0.0000000001127424
 11
7014.426641502461
 21
580.4131412605996
 31
0.0000000001127424
1001
ACAD
1000
DSTYLE
1002
{
1070
    40
1040
1.3
1070
    45
1040
0.5
1002
}
  0
LINE
  5
E3B8
330
18
100
AcDbEntity
  8
1DIM
100
AcDbLine
 10
6911.026641502462
 20
581.7131412605995
 30
0.0000000001127424
 11
7011.826641502461
 21
581.7131412605995
 31
0.0000000001127424
1001
ACAD
1000
DSTYLE
1002
{
1070
    40
1040
1.3
1070
    45
1040
0.5
1002
}
  0
LINE
  5
E3BC
330
18
100
AcDbEntity
  8
1DIM
100
AcDbLine
 10
6898.426641502459
 20
657.7131412605995
 30
0.0000000001127424
 11
6898.426641502459
 21
570.4131412605996
 31
0.0000000001127424
1001
ACAD
1000
DSTYLE
1002
{
1070
    40
1040
1.3
1070
    45
1040
0.5
1002
}
  0
LINE
  5
E3BD
330
18
100
AcDbEntity
  8
1DIM
100
AcDbLine
 10
7014.426641502461
 20
611.2131412605995
 30
0.0000000001127424
 11
7014.426641502461
 21
570.4131412605996
 31
0.0000000001127424
1001
ACAD
1000
DSTYLE
1002
{
1070
    40
1040
1.3
1070
    45
1040
0.5
1002
}
  0
LINE
  5
E3BE
330
18
100
AcDbEntity
  8
1DIM
100
AcDbLine
 10
6901.02664150246
 20
571.7131412605995
 30
0.0000000001127424
 11
7011.826641502461
 21
571.7131412605995
 31
0.0000000001127424
1001
ACAD
1000
DSTYLE
1002
{
1070
    40
1040
1.3
1070
    45
1040
0.5
1002
}
  0
LINE
  5
E3C2
330
18
100
AcDbEntity
  8
1DIM
100
AcDbLine
 10
7013.426641502461
 20
629.2131412605995
 30
0.0000000001127424
 11
7064.726641502461
 21
629.2131412605995
 31
0.0000000001127424
1001
ACAD
1000
DSTYLE
1002
{
1070
    40
1040
1.3
1070
    45
1040
0.5
1002
}
  0
LINE
  5
E3C3
330
18
100
AcDbEntity
  8
1DIM
100
AcDbLine
 10
7011.181789499809
 20
666.7131412605995
 30
0.0000000001127424
 11
7064.726641502461
 21
666.7131412605995
 31
0.0000000001127424
1001
ACAD
1000
DSTYLE
1002
{
1070
    40
1040
1.3
1070
    45
1040
0.5
1002
}
  0
LINE
  5
E3C4
330
18
100
AcDbEntity
  8
1DIM
100
AcDbLine
 10
7063.426641502461
 20
631.8131412605995
 30
0.0000000001127424
 11
7063.426641502461
 21
664.1131412605995
 31
0.0000000001127424
1001
ACAD
1000
DSTYLE
1002
{
1070
    40
1040
1.3
1070
    45
1040
0.5
1002
}
  0
LINE
  5
E3C8
330
18
100
AcDbEntity
  8
1DIM
100
AcDbLine
 10
7013.426641502461
 20
610.2131412605995
 30
0.0000000001127424
 11
7074.726641502461
 21
610.2131412605995
 31
0.0000000001127424
1001
ACAD
1000
DSTYLE
1002
{
1070
    40
1040
1.3
1070
    45
1040
0.5
1002
}
  0
LINE
  5
E3C9
330
18
100
AcDbEntity
  8
1DIM
100
AcDbLine
 10
7011.181789499809
 20
666.7131412605995
 30
0.0000000001127424
 11
7074.726641502461
 21
666.7131412605995
 31
0.0000000001127424
1001
ACAD
1000
DSTYLE
1002
{
1070
    40
1040
1.3
1070
    45
1040
0.5
1002
}
  0
LINE
  5
E3CA
330
18
100
AcDbEntity
  8
1DIM
100
AcDbLine
 10
7073.426641502461
 20
612.8131412605995
 30
0.0000000001127424
 11
7073.426641502461
 21
664.1131412605995
 31
0.0000000001127424
1001
ACAD
1000
DSTYLE
1002
{
1070
    40
1040
1.3
1070
    45
1040
0.5
1002
}
  0
LINE
  5
E3CE
330
18
100
AcDbEntity
  8
1DIM
100
AcDbLine
 10
7013.426641502461
 20
407.2144595737022
 30
0.0
 11
7064.726641502461
 21
407.2144595737022
 31
0.0
1001
ACAD
1000
DSTYLE
1002
{
1070
     3
1000
φ<>
1070
    40
1040
1.3
1070
    45
1040
0.5
1002
}
  0
LINE
  5
E3CF
330
18
100
AcDbEntity
  8
1DIM
100
AcDbLine
 10
7013.426641502461
 20
426.2144595737022
 30
0.0
 11
7064.726641502461
 21
426.2144595737022
 31
0.0
1001
ACAD
1000
DSTYLE
1002
{
1070
     3
1000
φ<>
1070
    40
1040
1.3
1070
    45
1040
0.5
1002
}
  0
LINE
  5
E3D0
330
18
100
AcDbEntity
  8
1DIM
100
AcDbLine
 10
7063.426641502461
 20
409.8144595737022
 30
0.0
 11
7063.426641502461
 21
423.6144595737022
 31
0.0
1001
ACAD
1000
DSTYLE
1002
{
1070
     3
1000
φ<>
1070
    40
1040
1.3
1070
    45
1040
0.5
1002
}
  0
LINE
  5
E3D4
330
18
100
AcDbEntity
  8
0
  6
BYBLOCK
100
AcDbLine
 10
6525.429577333917
 20
419.3131412605994
 30
0.0
 11
6524.732909439917
 21
416.7131412605993
 31
0.0
  0
LINE
  5
E3D5
330
18
100
AcDbEntity
  8
0
  6
BYBLOCK
100
AcDbLine
 10
6524.732909439917
 20
416.7131412605993
 30
0.0
 11
6524.036241545918
 21
419.3131412605994
 31
0.0
  0
LINE
  5
E3D6
330
18
100
AcDbEntity
  8
0
  6
BYBLOCK
100
AcDbLine
 10
6524.732909439917
 20
416.7131412605993
 30
0.0
 11
6524.732909439917
 21
419.3131412605994
 31
0.0
  0
LINE
  5
E3D7
330
18
100
AcDbEntity
  8
0
  6
BYBLOCK
100
AcDbLine
 10
6524.036241545918
 20
469.6131412605995
 30
0.0
 11
6524.732909439917
 21
472.2131412605996
 31
0.0
  0
LINE
  5
E3D8
330
18
100
AcDbEntity
  8
0
  6
BYBLOCK
100
AcDbLine
 10
6524.732909439917
 20
472.2131412605996
 30
0.0
 11
6525.429577333917
 21
469.6131412605995
 31
0.0
  0
LINE
  5
E3D9
330
18
100
AcDbEntity
  8
0
  6
BYBLOCK
100
AcDbLine
 10
6524.732909439917
 20
472.2131412605996
 30
0.0
 11
6524.732909439917
 21
469.6131412605995
 31
0.0
  0
TEXT
  5
E3DA
330
18
100
AcDbEntity
  8
1DIM
  6
CONTINUOUS
100
AcDbText
 10
6523.822909439918
 20
437.6065440383782
 30
0.0
 40
4.55
  1
55.5
 50
90.0
100
AcDbText
1001
ACAD
1000
DSTYLE
1002
{
1070
    40
1040
1.3
1070
    45
1040
0.5
1070
   341
1005
0
1002
}
  0
LINE
  5
E3DB
330
18
100
AcDbEntity
  8
0
  6
BYBLOCK
100
AcDbLine
 10
6943.391248550234
 20
693.6131412595704
 30
0.0
 11
6944.087916444234
 21
696.2131412595704
 31
0.0
  0
LINE
  5
E3DC
330
18
100
AcDbEntity
  8
0
  6
BYBLOCK
100
AcDbLine
 10
6944.087916444234
 20
696.2131412595704
 30
0.0
 11
6944.784584338234
 21
693.6131412595704
 31
0.0
  0
LINE
  5
E3DD
330
18
100
AcDbEntity
  8
0
  6
BYBLOCK
100
AcDbLine
 10
6944.087916444234
 20
696.2131412595704
 30
0.0
 11
6944.087916444234
 21
693.6131412595704
 31
0.0
  0
LINE
  5
E3DE
330
18
100
AcDbEntity
  8
0
  6
BYBLOCK
100
AcDbLine
 10
6944.784584338234
 20
680.0131412595703
 30
0.0
 11
6944.087916444234
 21
677.4131412595702
 31
0.0
  0
LINE
  5
E3DF
330
18
100
AcDbEntity
  8
0
  6
BYBLOCK
100
AcDbLine
 10
6944.087916444234
 20
677.4131412595702
 30
0.0
 11
6943.391248550234
 21
680.0131412595703
 31
0.0
  0
LINE
  5
E3E0
330
18
100
AcDbEntity
  8
0
  6
BYBLOCK
100
AcDbLine
 10
6944.087916444234
 20
677.4131412595702
 30
0.0
 11
6944.087916444234
 21
680.0131412595703
 31
0.0
  0
TEXT
  5
E3E1
330
18
100
AcDbEntity
  8
1DIM
  6
CONTINUOUS
100
AcDbText
 10
6943.177916444233
 20
683.7787546854961
 30
0.0
 40
4.55
  1
19
 50
90.0
100
AcDbText
1001
ACAD
1000
DSTYLE
1002
{
1070
    45
1040
0.5
1070
    40
1040
1.3
1002
}
  0
LINE
  5
E3E2
330
18
100
AcDbEntity
  8
0
  6
BYBLOCK
100
AcDbLine
 10
6911.026641502462
 20
581.0164733665995
 30
0.0000000001127424
 11
6908.426641502461
 21
581.7131412605995
 31
0.0000000001127424
  0
LINE
  5
E3E3
330
18
100
AcDbEntity
  8
0
  6
BYBLOCK
100
AcDbLine
 10
6908.426641502461
 20
581.7131412605995
 30
0.0000000001127424
 11
6911.026641502462
 21
582.4098091545995
 31
0.0000000001127424
  0
LINE
  5
E3E4
330
18
100
AcDbEntity
  8
0
  6
BYBLOCK
100
AcDbLine
 10
6908.426641502461
 20
581.7131412605995
 30
0.0000000001127424
 11
6911.026641502462
 21
581.7131412605995
 31
0.0000000001127424
  0
LINE
  5
E3E5
330
18
100
AcDbEntity
  8
0
  6
BYBLOCK
100
AcDbLine
 10
7011.826641502461
 20
582.4098091545995
 30
0.0000000001127424
 11
7014.426641502461
 21
581.7131412605995
 31
0.0000000001127424
  0
LINE
  5
E3E6
330
18
100
AcDbEntity
  8
0
  6
BYBLOCK
100
AcDbLine
 10
7014.426641502461
 20
581.7131412605995
 30
0.0000000001127424
 11
7011.826641502461
 21
581.0164733665995
 31
0.0000000001127424
  0
LINE
  5
E3E7
330
18
100
AcDbEntity
  8
0
  6
BYBLOCK
100
AcDbLine
 10
7014.426641502461
 20
581.7131412605995
 30
0.0000000001127424
 11
7011.826641502461
 21
581.7131412605995
 31
0.0000000001127424
  0
TEXT
  5
E3E8
330
18
100
AcDbEntity
  8
1DIM
  6
CONTINUOUS
100
AcDbText
 10
6956.497474835794
 20
582.6231412605995
 30
0.0000000001127424
 40
4.55
  1
106
100
AcDbText
1001
ACAD
1000
DSTYLE
1002
{
1070
    40
1040
1.3
1070
    45
1040
0.5
1002
}
  0
LINE
  5
E3E9
330
18
100
AcDbEntity
  8
0
  6
BYBLOCK
100
AcDbLine
 10
6901.02664150246
 20
571.0164733665995
 30
0.0000000001127424
 11
6898.426641502459
 21
571.7131412605995
 31
0.0000000001127424
  0
LINE
  5
E3EA
330
18
100
AcDbEntity
  8
0
  6
BYBLOCK
100
AcDbLine
 10
6898.426641502459
 20
571.7131412605995
 30
0.0000000001127424
 11
6901.02664150246
 21
572.4098091545995
 31
0.0000000001127424
  0
LINE
  5
E3EB
330
18
100
AcDbEntity
  8
0
  6
BYBLOCK
100
AcDbLine
 10
6898.426641502459
 20
571.7131412605995
 30
0.0000000001127424
 11
6901.02664150246
 21
571.7131412605995
 31
0.0000000001127424
  0
LINE
  5
E3EC
330
18
100
AcDbEntity
  8
0
  6
BYBLOCK
100
AcDbLine
 10
7011.826641502461
 20
572.4098091545995
 30
0.0000000001127424
 11
7014.426641502461
 21
571.7131412605995
 31
0.0000000001127424
  0
LINE
  5
E3ED
330
18
100
AcDbEntity
  8
0
  6
BYBLOCK
100
AcDbLine
 10
7014.426641502461
 20
571.7131412605995
 30
0.0000000001127424
 11
7011.826641502461
 21
571.0164733665995
 31
0.0000000001127424
  0
LINE
  5
E3EE
330
18
100
AcDbEntity
  8
0
  6
BYBLOCK
100
AcDbLine
 10
7014.426641502461
 20
571.7131412605995
 30
0.0000000001127424
 11
7011.826641502461
 21
571.7131412605995
 31
0.0000000001127424
  0
TEXT
  5
E3EF
330
18
100
AcDbEntity
  8
1DIM
  6
CONTINUOUS
100
AcDbText
 10
6951.87664150246
 20
572.6231412605995
 30
0.0000000001127424
 40
4.55
  1
116
100
AcDbText
1001
ACAD
1000
DSTYLE
1002
{
1070
    40
1040
1.3
1070
    45
1040
0.5
1002
}
  0
LINE
  5
E3F0
330
18
100
AcDbEntity
  8
0
  6
BYBLOCK
100
AcDbLine
 10
7064.123309396461
 20
631.8131412605995
 30
0.0000000001127424
 11
7063.426641502461
 21
629.2131412605995
 31
0.0000000001127424
  0
LINE
  5
E3F1
330
18
100
AcDbEntity
  8
0
  6
BYBLOCK
100
AcDbLine
 10
7063.426641502461
 20
629.2131412605995
 30
0.0000000001127424
 11
7062.729973608461
 21
631.8131412605995
 31
0.0000000001127424
  0
LINE
  5
E3F2
330
18
100
AcDbEntity
  8
0
  6
BYBLOCK
100
AcDbLine
 10
7063.426641502461
 20
629.2131412605995
 30
0.0000000001127424
 11
7063.426641502461
 21
631.8131412605995
 31
0.0000000001127424
  0
LINE
  5
E3F3
330
18
100
AcDbEntity
  8
0
  6
BYBLOCK
100
AcDbLine
 10
7062.729973608461
 20
664.1131412605995
 30
0.0000000001127424
 11
7063.426641502461
 21
666.7131412605995
 31
0.0000000001127424
  0
LINE
  5
E3F4
330
18
100
AcDbEntity
  8
0
  6
BYBLOCK
100
AcDbLine
 10
7063.426641502461
 20
666.7131412605995
 30
0.0000000001127424
 11
7064.123309396461
 21
664.1131412605995
 31
0.0000000001127424
  0
LINE
  5
E3F5
330
18
100
AcDbEntity
  8
0
  6
BYBLOCK
100
AcDbLine
 10
7063.426641502461
 20
666.7131412605995
 30
0.0000000001127424
 11
7063.426641502461
 21
664.1131412605995
 31
0.0000000001127424
  0
TEXT
  5
E3F6
330
18
100
AcDbEntity
  8
1DIM
  6
CONTINUOUS
100
AcDbText
 10
7062.516641502461
 20
641.1381412606006
 30
0.0000000001127424
 40
4.55
  1
37.5
 50
90.0
100
AcDbText
1001
ACAD
1000
DSTYLE
1002
{
1070
    40
1040
1.3
1070
    45
1040
0.5
1002
}
  0
LINE
  5
E3F7
330
18
100
AcDbEntity
  8
0
  6
BYBLOCK
100
AcDbLine
 10
7074.123309396461
 20
612.8131412605995
 30
0.0000000001127424
 11
7073.426641502461
 21
610.2131412605995
 31
0.0000000001127424
  0
LINE
  5
E3F8
330
18
100
AcDbEntity
  8
0
  6
BYBLOCK
100
AcDbLine
 10
7073.426641502461
 20
610.2131412605995
 30
0.0000000001127424
 11
7072.729973608461
 21
612.8131412605995
 31
0.0000000001127424
  0
LINE
  5
E3F9
330
18
100
AcDbEntity
  8
0
  6
BYBLOCK
100
AcDbLine
 10
7073.426641502461
 20
610.2131412605995
 30
0.0000000001127424
 11
7073.426641502461
 21
612.8131412605995
 31
0.0000000001127424
  0
LINE
  5
E3FA
330
18
100
AcDbEntity
  8
0
  6
BYBLOCK
100
AcDbLine
 10
7072.729973608461
 20
664.1131412605995
 30
0.0000000001127424
 11
7073.426641502461
 21
666.7131412605995
 31
0.0000000001127424
  0
LINE
  5
E3FB
330
18
100
AcDbEntity
  8
0
  6
BYBLOCK
100
AcDbLine
 10
7073.426641502461
 20
666.7131412605995
 30
0.0000000001127424
 11
7074.123309396461
 21
664.1131412605995
 31
0.0000000001127424
  0
LINE
  5
E3FC
330
18
100
AcDbEntity
  8
0
  6
BYBLOCK
100
AcDbLine
 10
7073.426641502461
 20
666.7131412605995
 30
0.0000000001127424
 11
7073.426641502461
 21
664.1131412605995
 31
0.0000000001127424
  0
TEXT
  5
E3FD
330
18
100
AcDbEntity
  8
1DIM
  6
CONTINUOUS
100
AcDbText
 10
7072.516641502461
 20
631.6065440383782
 30
0.0000000001127424
 40
4.55
  1
56.5
 50
90.0
100
AcDbText
1001
ACAD
1000
DSTYLE
1002
{
1070
    40
1040
1.3
1070
    45
1040
0.5
1002
}
  0
LINE
  5
E3FE
330
18
100
AcDbEntity
  8
0
  6
BYBLOCK
100
AcDbLine
 10
7064.123309396461
 20
409.8144595737022
 30
0.0
 11
7063.426641502461
 21
407.2144595737022
 31
0.0
  0
LINE
  5
E3FF
330
18
100
AcDbEntity
  8
0
  6
BYBLOCK
100
AcDbLine
 10
7063.426641502461
 20
407.2144595737022
 30
0.0
 11
7062.729973608461
 21
409.8144595737022
 31
0.0
  0
LINE
  5
E400
330
18
100
AcDbEntity
  8
0
  6
BYBLOCK
100
AcDbLine
 10
7063.426641502461
 20
407.2144595737022
 30
0.0
 11
7063.426641502461
 21
409.8144595737022
 31
0.0
  0
LINE
  5
E401
330
18
100
AcDbEntity
  8
0
  6
BYBLOCK
100
AcDbLine
 10
7062.729973608461
 20
423.6144595737022
 30
0.0
 11
7063.426641502461
 21
426.2144595737022
 31
0.0
  0
LINE
  5
E402
330
18
100
AcDbEntity
  8
0
  6
BYBLOCK
100
AcDbLine
 10
7063.426641502461
 20
426.2144595737022
 30
0.0
 11
7064.123309396461
 21
423.6144595737022
 31
0.0
  0
LINE
  5
E403
330
18
100
AcDbEntity
  8
0
  6
BYBLOCK
100
AcDbLine
 10
7063.426641502461
 20
426.2144595737022
 30
0.0
 11
7063.426641502461
 21
423.6144595737022
 31
0.0
  0
TEXT
  5
E404
330
18
100
AcDbEntity
  8
1DIM
  6
CONTINUOUS
100
AcDbText
 10
7062.516641502461
 20
410.3434063329632
 30
0.0
 40
4.55
  1
φ19
 50
90.0
100
AcDbText
1001
ACAD
1000
DSTYLE
1002
{
1070
     3
1000
φ<>
1070
    40
1040
1.3
1070
    45
1040
0.5
1002
}
  0
VIEWPORT
  5
57
330
15
100
AcDbEntity
 67
     1
  8
0
100
AcDbViewport
 68
     1
 10
0.0
 20
0.0
 30
0.0
 40
535.5106132075471
 41
296.9999999999999
 68
     1
 69
     1
1001
ACAD
1000
MVIEW
1002
{
1070
    16
1010
0.0
1020
0.0
1030
0.0
1010
0.0
1020
0.0
1030
1.0
1040
0.0
1040
296.9999999999999
1040
5.728000000000009
1040
25.339
1040
50.0
1040
0.0
1040
0.0
1070
    16
1070
   100
1070
     0
1070
     1
1070
     0
1070
     0
1070
     0
1070
     0
1040
0.0
1040
0.0
1040
0.0
1040
10.0
1040
10.0
1040
10.0
1040
10.0
1070
     0
1002
{
1002
}
1002
}
  0
ENDSEC
  0
SECTION
  2
OBJECTS
  0
DICTIONARY
  5
C
330
0
100
AcDbDictionary
  3
ACAD_CIP_PREVIOUS_PRODUCT_INFO
350
AEA8
  3
ACAD_COLOR
350
18D
  3
ACAD_GROUP
350
D
  3
ACAD_LAYOUT
350
18E
  3
ACAD_MATERIAL
350
18C
  3
ACAD_MLEADERSTYLE
350
9583
  3
ACAD_MLINESTYLE
350
1B
  3
ACAD_PLOTSETTINGS
350
18F
  3
ACAD_SCALELIST
350
9561
  3
ACAD_VISUALSTYLE
350
9550
  3
ACDBHEADERROUNDTRIPXREC
350
E405
  3
ACDBVARIABLEDICTIONARY
350
37
  3
CONTENTDICTIONARY
350
D8
  3
DRAWINGVARIABLESDICT
350
20
  3
DWGPROPS
350
E408
1001
ACAD
1000
TREAT_AS_HARD
1070
     0
  0
DICTIONARY
  5
96D9
330
2
100
AcDbDictionary
  3
ACAD_LAYERSTATES
360
96DA
1001
ACAD
1000
TREAT_AS_HARD
1070
     1
  0
DICTIONARY
  5
9593
330
E
100
AcDbDictionary
  3
ADSK_XREC_LAYER_RECONCILED
360
9594
1001
ACAD
1000
TREAT_AS_HARD
1070
     1
  0
DICTIONARY
  5
9595
330
29
100
AcDbDictionary
  3
ADSK_XREC_LAYER_RECONCILED
360
9596
1001
ACAD
1000
TREAT_AS_HARD
1070
     1
  0
DICTIONARY
  5
9597
330
31
100
AcDbDictionary
  3
ADSK_XREC_LAYER_RECONCILED
360
9598
1001
ACAD
1000
TREAT_AS_HARD
1070
     1
  0
DICTIONARY
  5
959D
330
243
100
AcDbDictionary
  3
ADSK_XREC_LAYER_RECONCILED
360
959E
1001
ACAD
1000
TREAT_AS_HARD
1070
     1
  0
DICTIONARY
  5
95A3
330
24E
100
AcDbDictionary
  3
ADSK_XREC_LAYER_RECONCILED
360
95A4
1001
ACAD
1000
TREAT_AS_HARD
1070
     1
  0
DICTIONARY
  5
95AF
330
2C05
100
AcDbDictionary
  3
ADSK_XREC_LAYER_RECONCILED
360
95B0
1001
ACAD
1000
TREAT_AS_HARD
1070
     1
  0
DICTIONARY
  5
88F
330
18
100
AcDbDictionary
  3
ACAD_SORTENTS
360
890
1001
ACAD
1000
TREAT_AS_HARD
1070
     1
  0
XRECORD
  5
AEA8
102
{ACAD_REACTORS
330
C
102
}
330
C
100
AcDbXrecord
300
ACDLT
300
2012
300
ACDLT_F_S
  0
DICTIONARY
  5
18D
102
{ACAD_REACTORS
330
C
102
}
330
C
100
AcDbDictionary
1001
ACAD
1000
TREAT_AS_HARD
1070
     0
  0
DICTIONARY
  5
D
102
{ACAD_REACTORS
330
C
102
}
330
C
100
AcDbDictionary
1001
ACAD
1000
TREAT_AS_HARD
1070
     0
  0
DICTIONARY
  5
18E
102
{ACAD_REACTORS
330
C
102
}
330
C
100
AcDbDictionary
1001
ACAD
1000
TREAT_AS_HARD
1070
     0
  0
DICTIONARY
  5
18C
102
{ACAD_REACTORS
330
C
102
}
330
C
100
AcDbDictionary
  3
BYBLOCK
350
9540
  3
BYLAYER
350
9538
  3
GLOBAL
350
9548
1001
ACAD
1000
TREAT_AS_HARD
1070
     0
  0
DICTIONARY
  5
9583
102
{ACAD_REACTORS
330
C
102
}
330
C
100
AcDbDictionary
  3
STANDARD
350
9584
1001
ACAD
1000
TREAT_AS_HARD
1070
     0
  0
DICTIONARY
  5
1B
102
{ACAD_REACTORS
330
C
102
}
330
C
100
AcDbDictionary
  3
STANDARD
350
1C
1001
ACAD
1000
TREAT_AS_HARD
1070
     0
  0
DICTIONARY
  5
18F
102
{ACAD_REACTORS
330
C
102
}
330
C
100
AcDbDictionary
1001
ACAD
1000
TREAT_AS_HARD
1070
     0
  0
DICTIONARY
  5
9561
102
{ACAD_REACTORS
330
C
102
}
330
C
100
AcDbDictionary
  3
A0
350
9562
  3
A1
350
9563
  3
A2
350
9564
  3
A3
350
9565
  3
A4
350
9566
  3
A5
350
9567
  3
A6
350
9568
  3
A7
350
9569
  3
A8
350
956A
  3
A9
350
956B
  3
B0
350
956C
  3
B1
350
956D
  3
B2
350
956E
  3
B3
350
956F
  3
B4
350
9570
  3
B5
350
9571
  3
B6
350
9572
  3
B7
350
9573
  3
B8
350
9574
  3
B9
350
9575
  3
C0
350
9576
  3
C1
350
9577
  3
C2
350
9578
  3
C3
350
9579
  3
C4
350
957A
  3
C5
350
957B
  3
C6
350
957C
  3
C7
350
957D
  3
C8
350
957E
  3
C9
350
957F
  3
D0
350
9580
  3
D1
350
9581
  3
D2
350
9582
1001
ACAD
1000
TREAT_AS_HARD
1070
     0
  0
DICTIONARY
  5
9550
102
{ACAD_REACTORS
330
C
102
}
330
C
100
AcDbDictionary
  3
2DWIREFRAME
350
9556
  3
3D_HIDDEN
350
9558
  3
3DWIREFRAME
350
9557
  3
BASIC
350
9555
  3
BRIGHTEN
350
955C
  3
COLORCHANGE
350
9560
  3
CONCEPTUAL
350
9559
  3
DIM
350
955B
  3
EDGECOLOROFF
350
A211
  3
FACEPATTERN
350
955F
  3
FLAT
350
9551
  3
FLATWITHEDGES
350
9552
  3
GOURAUD
350
9553
  3
GOURAUDWITHEDGES
350
9554
  3
HIDDEN
350
A260
  3
JITTEROFF
350
A20F
  3
LINEPATTERN
350
955E
  3
MODELING
350
A266
  3
OVERHANGOFF
350
A210
  3
REALISTIC
350
955A
  3
SHADED
350
A265
  3
SHADED_WITH_EDGES
350
A264
  3
SHADES_OF_GRAY
350
A261
  3
SKETCHY
350
A262
  3
THICKEN
350
955D
  3
WIREFRAME
350
A25F
  3
X-RAY
350
A263
1001
ACAD
1000
TREAT_AS_HARD
1070
     0
  0
DICTIONARY
  5
E405
102
{ACAD_REACTORS
330
C
102
}
330
C
100
AcDbDictionary
  3
COLORDICT
350
E406
  3
MATERIALDICT
350
E407
1001
ACAD
1000
TREAT_AS_HARD
1070
     0
  0
DICTIONARY
  5
37
102
{ACAD_REACTORS
330
C
102
}
330
C
100
AcDbDictionary
  3
CANNOSCALE
350
AAE0
  3
CMLEADERSTYLE
350
9627
  3
CTABLESTYLE
350
29E
  3
DIMADEC
350
38
  3
DIMASSOC
350
1CE
  3
HIDETEXT
350
704E
  3
INDEXCTL
350
962A
  3
INTERSECTIONCOLOR
350
7052
  3
INTERSECTIONDISPLAY
350
7051
  3
MSLTSCALE
350
AB30
  3
OBSCOLOR
350
704F
  3
OBSLTYPE
350
7050
  3
PROJECTNAME
350
1CF
  3
SORTENTS
350
9629
  3
XCLIPFRAME
350
E1EF
1001
ACAD
1000
TREAT_AS_HARD
1070
     0
  0
DICTIONARY
  5
D8
102
{ACAD_REACTORS
330
C
102
}
330
C
100
AcDbDictionary
1001
ACAD
1000
TREAT_AS_HARD
1070
     0
  0
DICTIONARY
  5
20
102
{ACAD_REACTORS
330
C
102
}
330
C
100
AcDbDictionary
1001
DRAWINGVARIABLESXDATA
1000
POLARANG
1000
0.261799387799149410000000
1000
POLARMODE
1000
1
1000
POLARSTYLE
1000
1
1001
ACAD
1000
TREAT_AS_HARD
1070
     0
  0
XRECORD
  5
E408
102
{ACAD_REACTORS
330
C
102
}
330
C
100
AcDbXrecord
  1
DWGPROPS COOKIE
  2

  3

  4

  6

  7

  8
3684
  9

300
=
301
=
302
=
303
=
304
=
305
=
306
=
307
=
308
=
309
=
 40
0.0
 41
2451318.246352917
 42
2458967.204720984
  1

 90
        0
  0
DICTIONARY
  5
96DA
102
{ACAD_REACTORS
330
96D9
102
}
330
96D9
100
AcDbDictionary
1001
ACAD
1000
TREAT_AS_HARD
1070
     0
  0
ACAD_PROXY_OBJECT
  5
9594
102
{ACAD_REACTORS
330
9593
102
}
330
9593
100
AcDbZombieObject
 90
      499
 91
      514
 93
       34
310
40C8804040
  0
ACAD_PROXY_OBJECT
  5
9596
102
{ACAD_REACTORS
330
9595
102
}
330
9595
100
AcDbZombieObject
 90
      499
 91
      514
 93
       34
310
40C8804040
  0
ACAD_PROXY_OBJECT
  5
9598
102
{ACAD_REACTORS
330
9597
102
}
330
9597
100
AcDbZombieObject
 90
      499
 91
      514
 93
       34
310
40C8804040
  0
ACAD_PROXY_OBJECT
  5
959E
102
{ACAD_REACTORS
330
959D
102
}
330
959D
100
AcDbZombieObject
 90
      499
 91
      514
 93
       34
310
40C8804040
  0
ACAD_PROXY_OBJECT
  5
95A4
102
{ACAD_REACTORS
330
95A3
102
}
330
95A3
100
AcDbZombieObject
 90
      499
 91
      514
 93
       34
310
40C8804040
  0
ACAD_PROXY_OBJECT
  5
95B0
102
{ACAD_REACTORS
330
95AF
102
}
330
95AF
100
AcDbZombieObject
 90
      499
 91
      514
 93
       34
310
40C8804040
  0
SORTENTSTABLE
  5
890
102
{ACAD_REACTORS
330
88F
102
}
330
88F
100
AcDbSortentsTable
330
18
331
0
  5
C992
331
C96C
  5
C9A0
331
C96D
  5
C9A1
331
C96E
  5
C9A2
331
C96F
  5
C9A3
331
C970
  5
C9A4
331
C971
  5
C9A5
331
C972
  5
C9A6
331
C973
  5
C9A7
331
C974
  5
C9A8
331
C975
  5
C9A9
331
C976
  5
C9AA
331
C977
  5
C9AB
331
C978
  5
C9AC
331
C979
  5
C9AD
331
C97A
  5
C9AE
331
C97B
  5
C9AF
331
C97C
  5
C9B0
331
C97D
  5
C9B1
331
C97E
  5
C9B2
331
C97F
  5
C9B3
331
C980
  5
C9B4
331
C981
  5
C9B5
331
C982
  5
C9B6
331
C983
  5
C9B7
331
C984
  5
C9B8
331
C985
  5
C9B9
331
C986
  5
C9BA
331
C987
  5
C9BB
331
C988
  5
C9BC
331
C989
  5
C9BD
331
C98A
  5
C9BE
331
C98B
  5
C9BF
331
C98C
  5
C9C0
331
C98D
  5
C9C1
331
C98E
  5
C9C2
331
C98F
  5
C9C3
331
C990
  5
C9C4
331
C991
  5
C9C5
331
C992
  5
C9C6
331
C993
  5
C9C7
331
C994
  5
C9C8
331
C995
  5
C9C9
331
C996
  5
C9CA
331
C997
  5
C9CB
331
C998
  5
C9CC
331
C999
  5
C9CD
331
C99A
  5
C9CE
331
C99B
  5
C9CF
331
C99C
  5
C9D0
331
C99D
  5
C9D1
331
C99E
  5
C9D2
331
C99F
  5
C9D3
331
C9A0
  5
CF6D
331
C9A1
  5
CF6F
331
C9A2
  5
CF70
331
C9A3
  5
CF71
331
C9A4
  5
CF75
331
C9A5
  5
CF76
331
C9A6
  5
CF77
331
C9A7
  5
CF78
331
C9A8
  5
CF79
331
C9A9
  5
CF7A
331
C9AA
  5
CF7B
331
C9AB
  5
CF7C
331
C9AC
  5
CF7D
331
C9AD
  5
CF7E
331
C9AE
  5
CF7F
331
C9AF
  5
CF80
331
C9B0
  5
CF81
331
C9B1
  5
CF82
331
C9B2
  5
CF83
331
C9B3
  5
CF84
331
C9B4
  5
CF85
331
C9B5
  5
CF89
331
C9B6
  5
CF8A
331
C9B7
  5
CF8B
331
C9B8
  5
CF8C
331
C9B9
  5
CF8D
331
C9BA
  5
CF8E
331
C9BB
  5
CF92
331
C9BC
  5
CF93
331
C9BD
  5
CF94
331
C9BE
  5
CF95
331
C9BF
  5
CF96
331
C9C0
  5
CF97
331
C9C1
  5
CF9B
331
C9C2
  5
CF9C
331
C9C3
  5
CF9D
331
C9C4
  5
CFA1
331
C9C5
  5
CFA2
331
C9C6
  5
CFA3
331
C9C7
  5
CFA7
331
C9C8
  5
CFA8
331
C9C9
  5
CFA9
331
C9CA
  5
CFAA
331
C9CB
  5
CFAB
331
C9CC
  5
CFAC
331
C9CD
  5
CFAD
331
C9CE
  5
CFAE
331
C9CF
  5
CFAF
331
C9D0
  5
CFB0
331
C9D1
  5
CFB1
331
C9D2
  5
CFB2
331
C9D3
  5
CFB4
331
0
  5
CFB3
331
CF6F
  5
CFCD
331
CF70
  5
CFCE
331
CF71
  5
CFCF
331
CF75
  5
CFF2
331
CF76
  5
CFF3
331
CF77
  5
CFF4
331
CF78
  5
CFF5
331
CF79
  5
CFF6
331
CF7A
  5
CFF7
331
CF7B
  5
CFF8
331
CF7C
  5
CFF9
331
CF7D
  5
CFFA
331
CF7E
  5
CFFB
331
CF7F
  5
CFFC
331
CF80
  5
CFFD
331
CF81
  5
CFFE
331
CF82
  5
CFFF
331
CF83
  5
D000
331
CF84
  5
D001
331
CF85
  5
D002
331
CF86
  5
D003
331
CF87
  5
D004
331
CF88
  5
D005
331
CF89
  5
D006
331
CF8A
  5
D007
331
CF8B
  5
D008
331
CF8C
  5
D009
331
CF8D
  5
D00A
331
CF8E
  5
D00B
331
CF8F
  5
D00C
331
CF90
  5
D00D
331
CF91
  5
D00E
331
CF92
  5
D00F
331
CF93
  5
D010
331
CF94
  5
D011
331
CF95
  5
D012
331
CF96
  5
D016
331
CF97
  5
D017
331
CF98
  5
D018
331
CF99
  5
D01C
331
CF9A
  5
D01D
331
CF9B
  5
D01E
331
CF9C
  5
D022
331
CF9D
  5
D023
331
CF9E
  5
D024
331
CF9F
  5
D025
331
CFA0
  5
D026
331
CFA1
  5
D027
331
CFA2
  5
D028
331
CFA3
  5
D029
331
CFA4
  5
D02A
331
CFA5
  5
D02B
331
CFA6
  5
D02D
331
CFA7
  5
D02E
331
CFA8
  5
D02F
331
CFA9
  5
D030
331
CFAA
  5
D031
331
CFAB
  5
D032
331
CFAC
  5
D033
331
CFAD
  5
D034
331
CFAE
  5
D035
331
CFAF
  5
D036
331
CFB0
  5
D037
331
CFB1
  5
D041
331
CFB2
  5
D042
331
CFB3
  5
D043
331
CFB4
  5
D044
331
0
  5
D02C
331
CFB6
  5
D04F
331
CFB7
  5
D051
331
CFB8
  5
D052
331
CFB9
  5
D053
331
CFBA
  5
D054
331
CFBB
  5
D055
331
CFBC
  5
D056
331
CFBD
  5
D057
331
CFBE
  5
D058
331
CFBF
  5
D059
331
CFC0
  5
D05A
331
CFC1
  5
D05B
331
CFC2
  5
D05C
331
CFC3
  5
D05D
331
CFC4
  5
D05F
331
CFC5
  5
D060
331
CFC6
  5
D061
331
CFC7
  5
D062
331
CFC8
  5
D063
331
CFC9
  5
D064
331
CFCA
  5
D065
331
CFCB
  5
D066
331
CFCC
  5
D067
331
CFCD
  5
D068
331
CFCE
  5
D069
331
CFCF
  5
D06A
331
CFD0
  5
D06B
331
CFD1
  5
D06C
331
CFD2
  5
D06D
331
CFD3
  5
D06E
331
CFD4
  5
D06F
331
CFD5
  5
D070
331
CFD6
  5
D071
331
CFD7
  5
D072
331
CFD8
  5
D073
331
CFD9
  5
D074
331
CFDD
  5
D093
331
CFDE
  5
D094
331
CFDF
  5
D095
331
CFE0
  5
D096
331
CFE1
  5
D097
331
CFE2
  5
D098
331
CFE3
  5
D099
331
CFE4
  5
D09A
331
CFE5
  5
D09B
331
CFE6
  5
D09C
331
CFE7
  5
D09D
331
CFE9
  5
D0A4
331
CFEA
  5
D0A5
331
CFEB
  5
D0A6
331
CFEC
  5
D0A7
331
CFED
  5
D0A8
331
CFEE
  5
D0A9
331
CFEF
  5
E303
331
CFF0
  5
E304
331
CFF1
  5
E305
331
CFF2
  5
E309
331
CFF3
  5
E30A
331
CFF4
  5
E30B
331
CFF5
  5
E30C
331
CFF6
  5
E30D
331
CFF7
  5
E30E
331
CFF8
  5
E30F
331
CFF9
  5
E310
331
CFFA
  5
E311
331
CFFB
  5
E312
331
CFFC
  5
E313
331
CFFD
  5
E314
331
CFFE
  5
E315
331
CFFF
  5
E316
331
D000
  5
E317
331
D001
  5
E318
331
D002
  5
E319
331
D003
  5
E31A
331
D004
  5
E31B
331
D005
  5
E31C
331
D006
  5
E31D
331
D007
  5
E31E
331
D008
  5
E31F
331
D009
  5
E320
331
D00A
  5
E321
331
D00B
  5
E322
331
D00C
  5
E323
331
D00D
  5
E324
331
D00E
  5
E325
331
D00F
  5
E326
331
D010
  5
E327
331
D011
  5
E328
331
D012
  5
E329
331
D013
  5
E32A
331
D014
  5
E32B
331
D015
  5
E32C
331
D016
  5
E32D
331
D017
  5
E32E
331
D018
  5
E32F
331
D019
  5
E330
331
D01A
  5
E331
331
D01B
  5
E332
331
D01C
  5
E333
331
D01D
  5
E334
331
D01E
  5
E335
331
D01F
  5
E336
331
D020
  5
E337
331
D021
  5
E338
331
D022
  5
E339
331
D023
  5
E33A
331
D024
  5
E33B
331
D025
  5
E33C
331
D026
  5
E33D
331
D027
  5
E33E
331
D028
  5
E33F
331
D029
  5
E340
331
D02A
  5
E341
331
D02B
  5
E342
331
D02C
  5
E343
331
D02D
  5
E344
331
D02E
  5
E345
331
D02F
  5
E346
331
D030
  5
E347
331
D031
  5
E348
331
D032
  5
E349
331
D033
  5
E34A
331
D034
  5
E350
331
D035
  5
E351
331
D036
  5
E352
331
D037
  5
E353
331
D03E
  5
E354
331
D03F
  5
E355
331
D040
  5
E356
331
D041
  5
E357
331
D042
  5
E358
331
D043
  5
E359
331
D044
  5
E35A
331
D045
  5
E35B
331
D046
  5
E35C
331
D047
  5
E35D
331
D048
  5
E35E
331
D049
  5
E35F
331
D04A
  5
E360
331
D04B
  5
E364
331
D04C
  5
E365
331
D04D
  5
E366
331
D04E
  5
E36A
331
D04F
  5
E36B
331
D051
  5
E370
331
D052
  5
E371
331
D053
  5
E372
331
D054
  5
E376
331
D055
  5
E377
331
0
  5
E34B
331
0
  5
E34C
331
0
  5
E34D
331
0
  5
E34E
331
0
  5
E34F
331
D05B
  5
E3AD
331
D05C
  5
E3AE
331
D05D
  5
E3AF
331
D05F
  5
E3BA
331
D060
  5
E3BB
331
D061
  5
E3BC
331
D062
  5
E3BD
331
D063
  5
E3BE
331
D064
  5
E3BF
331
D065
  5
E3C0
331
D066
  5
E3C1
331
D067
  5
E3C2
331
D068
  5
E3C3
331
D069
  5
E3C4
331
D06A
  5
E3C5
331
D06B
  5
E3C6
331
D06C
  5
E3C7
331
D06D
  5
E3C8
331
D06E
  5
E3C9
331
D06F
  5
E3CA
331
D070
  5
E3CB
331
D071
  5
E3CC
331
D072
  5
E3CD
331
D073
  5
E3CE
331
D074
  5
E3CF
331
D075
  5
E3D0
331
D076
  5
E3D1
331
D077
  5
E3D2
331
D078
  5
E3D3
331
D079
  5
E3D4
331
D07A
  5
E3D5
331
D07B
  5
E3D6
331
D07C
  5
E3D7
331
D07D
  5
E3D8
331
D07E
  5
E3D9
331
D07F
  5
E3DA
331
D080
  5
E3DB
331
D081
  5
E3DC
331
D082
  5
E3DD
331
D083
  5
E3DE
331
D084
  5
E3DF
331
D085
  5
E3E0
331
D086
  5
E3E1
331
D087
  5
E3E2
331
D088
  5
E3E3
331
D089
  5
E3E4
331
D08A
  5
E3E5
331
D08B
  5
E3E6
331
D08C
  5
E3E7
331
D08D
  5
E3E8
331
D08E
  5
E3E9
331
D08F
  5
E3EA
331
D090
  5
E3EB
331
D091
  5
E3EC
331
D092
  5
E3ED
331
D093
  5
E3EE
331
D094
  5
E3EF
331
D095
  5
E3F0
331
D096
  5
E3F1
331
D097
  5
E3F2
331
D098
  5
E3F3
331
D099
  5
E3F4
331
D09A
  5
E3F5
331
D09B
  5
E3F6
331
D09C
  5
E3F7
331
D09D
  5
E3F8
331
D09E
  5
E3F9
331
D09F
  5
E3FA
331
D0A0
  5
E3FB
331
D0A1
  5
E3FC
331
D0A2
  5
E3FD
331
D0A3
  5
E3FE
331
D0A4
  5
E3FF
331
D0A5
  5
E400
331
D0A6
  5
E401
331
D0A7
  5
E402
331
D0A8
  5
E403
331
D0A9
  5
E404
331
E303
  5
C8D5
331
E304
  5
C96C
331
E305
  5
C96D
331
0
  5
C96E
331
0
  5
C96F
331
0
  5
C970
331
E309
  5
C97E
331
E30A
  5
C97F
331
E30B
  5
C980
331
0
  5
C974
331
0
  5
C975
331
0
  5
C976
331
E30F
  5
C988
331
E310
  5
C989
331
E311
  5
C98A
331
0
  5
C97A
331
0
  5
C97B
331
0
  5
C97C
331
E315
  5
CFB5
331
E316
  5
CFB6
331
E317
  5
CFB7
331
0
  5
CF86
331
0
  5
CF87
331
0
  5
CF88
331
E31B
  5
CFBF
331
E31C
  5
CFC0
331
E31D
  5
CFC3
331
E31E
  5
CFC4
331
E31F
  5
CFC5
331
0
  5
CF8F
331
0
  5
CF90
331
0
  5
CF91
331
E323
  5
CFD0
331
E324
  5
CFD1
331
E325
  5
CFD2
331
0
  5
CF98
331
0
  5
CF99
331
0
  5
CF9A
331
E329
  5
CFDD
331
E32A
  5
CFDE
331
E32B
  5
CFDF
331
0
  5
CF9E
331
0
  5
CF9F
331
0
  5
CFA0
331
E32F
  5
CFE7
331
E330
  5
CFE9
331
E331
  5
CFEA
331
0
  5
CFA4
331
0
  5
CFA5
331
0
  5
CFA6
331
E335
  5
D075
331
E336
  5
D076
331
E337
  5
D077
331
0
  5
D013
331
0
  5
D014
331
0
  5
D015
331
E33B
  5
D07F
331
E33C
  5
D080
331
E33D
  5
D081
331
0
  5
D019
331
0
  5
D01A
331
0
  5
D01B
331
E341
  5
D089
331
E342
  5
D08A
331
E343
  5
D08B
331
0
  5
D01F
331
0
  5
D020
331
0
  5
D021
331
E347
  5
D09E
331
E348
  5
D09F
331
E349
  5
D0A0
331
E34A
  5
D0A1
331
E34B
  5
D0A2
331
E34C
  5
D0A3
331
E34D
  5
E36C
331
E34E
  5
E3B0
331
E34F
  5
E3B1
331
E350
  5
E3B2
331
0
  5
E306
331
0
  5
E307
331
0
  5
E308
331
E354
  5
C971
331
E355
  5
C972
331
E356
  5
C973
331
E357
  5
C977
331
E358
  5
C978
331
E359
  5
C979
331
E35A
  5
C97D
331
E35B
  5
C981
331
E35C
  5
C982
331
E35D
  5
C983
331
E35E
  5
C984
331
E35F
  5
C985
331
E360
  5
C986
331
E361
  5
C987
331
E362
  5
C98B
331
E363
  5
C98C
331
E364
  5
C98D
331
E365
  5
C98E
331
E366
  5
C98F
331
E367
  5
C990
331
E368
  5
C991
331
E369
  5
CFB8
331
E36A
  5
CFB9
331
E36B
  5
CFBA
331
E36C
  5
CFBB
331
E36D
  5
CFBC
331
E36E
  5
CFBD
331
E36F
  5
CFBE
331
E370
  5
CFC6
331
E371
  5
CFC7
331
E372
  5
CFC8
331
E373
  5
CFC9
331
E374
  5
CFCA
331
E375
  5
CFCB
331
E376
  5
CFCC
331
E377
  5
CFD3
331
E378
  5
CFD4
331
E379
  5
CFD5
331
E37A
  5
CFD6
331
E37B
  5
CFD7
331
E37C
  5
CFD8
331
E37D
  5
CFD9
331
E37E
  5
CFE0
331
E37F
  5
CFE1
331
E380
  5
CFE2
331
E381
  5
CFE3
331
E382
  5
CFE4
331
E383
  5
CFE5
331
E384
  5
CFE6
331
E385
  5
CFEB
331
E386
  5
CFEC
331
E387
  5
CFED
331
E388
  5
CFEE
331
E389
  5
CFEF
331
E38A
  5
CFF0
331
E38B
  5
CFF1
331
E38C
  5
D078
331
E38D
  5
D079
331
E38E
  5
D07A
331
E38F
  5
D07B
331
E390
  5
D07C
331
E391
  5
D07D
331
E392
  5
D07E
331
E393
  5
D082
331
E394
  5
D083
331
E395
  5
D084
331
E396
  5
D085
331
E397
  5
D086
331
E398
  5
D087
331
E399
  5
D088
331
E39A
  5
D08C
331
E39B
  5
D08D
331
E39C
  5
D08E
331
E39D
  5
D08F
331
E39E
  5
D090
331
E39F
  5
D091
331
E3A0
  5
D092
331
E3A1
  5
E3B3
331
E3A2
  5
E3B4
331
E3A3
  5
E3B5
331
E3A4
  5
E3B6
331
E3A5
  5
E3B7
331
E3A6
  5
E3B8
331
E3A7
  5
E3B9
331
E3A8
  5
C993
331
E3A9
  5
C994
331
E3AA
  5
C995
331
0
  5
C996
331
0
  5
C997
331
0
  5
C998
331
E3AE
  5
CFC1
331
E3AF
  5
CFC2
331
E3B0
  5
D045
331
E3B1
  5
D046
331
E3B2
  5
D047
331
0
  5
D03E
331
0
  5
D03F
331
0
  5
D040
331
E3B6
  5
E378
331
E3B7
  5
E37C
331
E3B8
  5
E37D
331
0
  5
E361
331
0
  5
E362
331
0
  5
E363
331
E3BC
  5
E385
331
E3BD
  5
E386
331
E3BE
  5
E387
331
0
  5
E367
331
0
  5
E368
331
0
  5
E369
331
E3C2
  5
E38F
331
E3C3
  5
E390
331
E3C4
  5
E391
331
0
  5
E36D
331
0
  5
E36E
331
0
  5
E36F
331
E3C8
  5
E399
331
E3C9
  5
E39A
331
E3CA
  5
E39B
331
0
  5
E373
331
0
  5
E374
331
0
  5
E375
331
E3CE
  5
E3A3
331
E3CF
  5
E3A4
331
E3D0
  5
E3A5
331
0
  5
E379
331
0
  5
E37A
331
0
  5
E37B
331
E3D4
  5
C999
331
E3D5
  5
C99A
331
E3D6
  5
C99B
331
E3D7
  5
C99C
331
E3D8
  5
C99D
331
E3D9
  5
C99E
331
E3DA
  5
C99F
331
E3DB
  5
D048
331
E3DC
  5
D049
331
E3DD
  5
D04A
331
E3DE
  5
D04B
331
E3DF
  5
D04C
331
E3E0
  5
D04D
331
E3E1
  5
D04E
331
E3E2
  5
E37E
331
E3E3
  5
E37F
331
E3E4
  5
E380
331
E3E5
  5
E381
331
E3E6
  5
E382
331
E3E7
  5
E383
331
E3E8
  5
E384
331
E3E9
  5
E388
331
E3EA
  5
E389
331
E3EB
  5
E38A
331
E3EC
  5
E38B
331
E3ED
  5
E38C
331
E3EE
  5
E38D
331
E3EF
  5
E38E
331
E3F0
  5
E392
331
E3F1
  5
E393
331
E3F2
  5
E394
331
E3F3
  5
E395
331
E3F4
  5
E396
331
E3F5
  5
E397
331
E3F6
  5
E398
331
E3F7
  5
E39C
331
E3F8
  5
E39D
331
E3F9
  5
E39E
331
E3FA
  5
E39F
331
E3FB
  5
E3A0
331
E3FC
  5
E3A1
331
E3FD
  5
E3A2
331
E3FE
  5
E3A6
331
E3FF
  5
E3A7
331
E400
  5
E3A8
331
E401
  5
E3A9
331
E402
  5
E3AA
331
E403
  5
E3AB
331
E404
  5
E3AC
  0
MATERIAL
  5
9540
102
{ACAD_REACTORS
330
18C
102
}
102
{ACAD_XDICTIONARY
360
E5A3
102
}
330
18C
100
AcDbMaterial
  1
BYBLOCK
 72
     0
 73
     2
 43
0.0208333333333333
 43
0.0
 43
0.0
 43
0.0
 43
0.0
 43
0.0208333333333333
 43
0.0
 43
0.0
 43
0.0
 43
0.0
 43
1.0
 43
0.0
 43
0.0
 43
0.0
 43
0.0
 43
1.0
 77
     0
 78
     2
 47
0.0208333333333333
 47
0.0
 47
0.0
 47
0.0
 47
0.0
 47
0.0208333333333333
 47
0.0
 47
0.0
 47
0.0
 47
0.0
 47
1.0
 47
0.0
 47
0.0
 47
0.0
 47
0.0
 47
1.0
171
     0
172
     2
 49
0.0208333333333333
 49
0.0
 49
0.0
 49
0.0
 49
0.0
 49
0.0208333333333333
 49
0.0
 49
0.0
 49
0.0
 49
0.0
 49
1.0
 49
0.0
 49
0.0
 49
0.0
 49
0.0
 49
1.0
175
     0
176
     2
142
0.0208333333333333
142
0.0
142
0.0
142
0.0
142
0.0
142
0.0208333333333333
142
0.0
142
0.0
142
0.0
142
0.0
142
1.0
142
0.0
142
0.0
142
0.0
142
0.0
142
1.0
179
     0
270
     2
144
0.0208333333333333
144
0.0
144
0.0
144
0.0
144
0.0
144
0.0208333333333333
144
0.0
144
0.0
144
0.0
144
0.0
144
1.0
144
0.0
144
0.0
144
0.0
144
0.0
144
1.0
274
     2
147
0.0208333333333333
147
0.0
147
0.0
147
0.0
147
0.0
147
0.0208333333333333
147
0.0
147
0.0
147
0.0
147
0.0
147
1.0
147
0.0
147
0.0
147
0.0
147
0.0
147
1.0
  0
MATERIAL
  5
9538
102
{ACAD_REACTORS
330
18C
102
}
102
{ACAD_XDICTIONARY
360
E5A5
102
}
330
18C
100
AcDbMaterial
  1
BYLAYER
 72
     0
 73
     2
 43
0.0208333333333333
 43
0.0
 43
0.0
 43
0.0
 43
0.0
 43
0.0208333333333333
 43
0.0
 43
0.0
 43
0.0
 43
0.0
 43
1.0
 43
0.0
 43
0.0
 43
0.0
 43
0.0
 43
1.0
 77
     0
 78
     2
 47
0.0208333333333333
 47
0.0
 47
0.0
 47
0.0
 47
0.0
 47
0.0208333333333333
 47
0.0
 47
0.0
 47
0.0
 47
0.0
 47
1.0
 47
0.0
 47
0.0
 47
0.0
 47
0.0
 47
1.0
171
     0
172
     2
 49
0.0208333333333333
 49
0.0
 49
0.0
 49
0.0
 49
0.0
 49
0.0208333333333333
 49
0.0
 49
0.0
 49
0.0
 49
0.0
 49
1.0
 49
0.0
 49
0.0
 49
0.0
 49
0.0
 49
1.0
175
     0
176
     2
142
0.0208333333333333
142
0.0
142
0.0
142
0.0
142
0.0
142
0.0208333333333333
142
0.0
142
0.0
142
0.0
142
0.0
142
1.0
142
0.0
142
0.0
142
0.0
142
0.0
142
1.0
179
     0
270
     2
144
0.0208333333333333
144
0.0
144
0.0
144
0.0
144
0.0
144
0.0208333333333333
144
0.0
144
0.0
144
0.0
144
0.0
144
1.0
144
0.0
144
0.0
144
0.0
144
0.0
144
1.0
274
     2
147
0.0208333333333333
147
0.0
147
0.0
147
0.0
147
0.0
147
0.0208333333333333
147
0.0
147
0.0
147
0.0
147
0.0
147
1.0
147
0.0
147
0.0
147
0.0
147
0.0
147
1.0
  0
MATERIAL
  5
9548
102
{ACAD_REACTORS
330
18C
102
}
102
{ACAD_XDICTIONARY
360
E5A7
102
}
330
18C
100
AcDbMaterial
  1
GLOBAL
 72
     0
 73
     2
 43
0.0208333333333333
 43
0.0
 43
0.0
 43
0.0
 43
0.0
 43
0.0208333333333333
 43
0.0
 43
0.0
 43
0.0
 43
0.0
 43
1.0
 43
0.0
 43
0.0
 43
0.0
 43
0.0
 43
1.0
 77
     0
 78
     2
 47
0.0208333333333333
 47
0.0
 47
0.0
 47
0.0
 47
0.0
 47
0.0208333333333333
 47
0.0
 47
0.0
 47
0.0
 47
0.0
 47
1.0
 47
0.0
 47
0.0
 47
0.0
 47
0.0
 47
1.0
171
     0
172
     2
 49
0.0208333333333333
 49
0.0
 49
0.0
 49
0.0
 49
0.0
 49
0.0208333333333333
 49
0.0
 49
0.0
 49
0.0
 49
0.0
 49
1.0
 49
0.0
 49
0.0
 49
0.0
 49
0.0
 49
1.0
175
     0
176
     2
142
0.0208333333333333
142
0.0
142
0.0
142
0.0
142
0.0
142
0.0208333333333333
142
0.0
142
0.0
142
0.0
142
0.0
142
1.0
142
0.0
142
0.0
142
0.0
142
0.0
142
1.0
179
     0
270
     2
144
0.0208333333333333
144
0.0
144
0.0
144
0.0
144
0.0
144
0.0208333333333333
144
0.0
144
0.0
144
0.0
144
0.0
144
1.0
144
0.0
144
0.0
144
0.0
144
0.0
144
1.0
274
     2
147
0.0208333333333333
147
0.0
147
0.0
147
0.0
147
0.0
147
0.0208333333333333
147
0.0
147
0.0
147
0.0
147
0.0
147
1.0
147
0.0
147
0.0
147
0.0
147
0.0
147
1.0
  0
ACAD_PROXY_OBJECT
  5
9584
102
{ACAD_REACTORS
330
9583
102
}
330
9583
100
AcDbZombieObject
 90
      499
 91
      511
 93
      610
310
40901902A4063FBFFFFFE000000000000002040AD7A3703D0AD73F4214DD185B99185C990000000000000104090141901A00000000000004100000000000000041025764000000000000300FC0
340
12
340
0
340
F
340
0
 94
        0
1001
ACAD_MLEADERVER
1070
     2
  0
MLINESTYLE
  5
1C
102
{ACAD_REACTORS
330
1B
102
}
330
1B
100
AcDbMlineStyle
  2
STANDARD
 70
     0
  3

 62
   256
 51
90.0
 52
90.0
 71
     2
 49
0.5
 62
   256
  6
BYLAYER
 49
-0.5
 62
   256
  6
BYLAYER
  0
ACAD_PROXY_OBJECT
  5
9562
102
{ACAD_REACTORS
330
9561
102
}
330
9561
100
AcDbZombieObject
 90
      499
 91
      510
 93
       41
310
903313A31580
  0
ACAD_PROXY_OBJECT
  5
9563
102
{ACAD_REACTORS
330
9561
102
}
330
9561
100
AcDbZombieObject
 90
      499
 91
      510
 93
      105
310
903313A324000000000000004000
  0
ACAD_PROXY_OBJECT
  5
9564
102
{ACAD_REACTORS
330
9561
102
}
330
9561
100
AcDbZombieObject
 90
      499
 91
      510
 93
      105
310
903313A344000000000000104000
  0
ACAD_PROXY_OBJECT
  5
9565
102
{ACAD_REACTORS
330
9561
102
}
330
9561
100
AcDbZombieObject
 90
      499
 91
      510
 93
      105
310
903313A354000000000000144000
  0
ACAD_PROXY_OBJECT
  5
9566
102
{ACAD_REACTORS
330
9561
102
}
330
9561
100
AcDbZombieObject
 90
      499
 91
      510
 93
      105
310
903313A384000000000000204000
  0
ACAD_PROXY_OBJECT
  5
9567
102
{ACAD_REACTORS
330
9561
102
}
330
9561
100
AcDbZombieObject
 90
      499
 91
      510
 93
      113
310
904313A31304000000000000244000
  0
ACAD_PROXY_OBJECT
  5
9568
102
{ACAD_REACTORS
330
9561
102
}
330
9561
100
AcDbZombieObject
 90
      499
 91
      510
 93
      113
310
904313A31364000000000000304000
  0
ACAD_PROXY_OBJECT
  5
9569
102
{ACAD_REACTORS
330
9561
102
}
330
9561
100
AcDbZombieObject
 90
      499
 91
      510
 93
      113
310
904313A32304000000000000344000
  0
ACAD_PROXY_OBJECT
  5
956A
102
{ACAD_REACTORS
330
9561
102
}
330
9561
100
AcDbZombieObject
 90
      499
 91
      510
 93
      113
310
904313A333040000000000003E4000
  0
ACAD_PROXY_OBJECT
  5
956B
102
{ACAD_REACTORS
330
9561
102
}
330
9561
100
AcDbZombieObject
 90
      499
 91
      510
 93
      113
310
904313A34304000000000000444000
  0
ACAD_PROXY_OBJECT
  5
956C
102
{ACAD_REACTORS
330
9561
102
}
330
9561
100
AcDbZombieObject
 90
      499
 91
      510
 93
      113
310
904313A35304000000000000494000
  0
ACAD_PROXY_OBJECT
  5
956D
102
{ACAD_REACTORS
330
9561
102
}
330
9561
100
AcDbZombieObject
 90
      499
 91
      510
 93
      121
310
905313A3130304000000000000594000
  0
ACAD_PROXY_OBJECT
  5
956E
102
{ACAD_REACTORS
330
9561
102
}
330
9561
100
AcDbZombieObject
 90
      499
 91
      510
 93
      105
310
903323A310000000000000010100
  0
ACAD_PROXY_OBJECT
  5
956F
102
{ACAD_REACTORS
330
9561
102
}
330
9561
100
AcDbZombieObject
 90
      499
 91
      510
 93
      105
310
903343A310000000000000410100
  0
ACAD_PROXY_OBJECT
  5
9570
102
{ACAD_REACTORS
330
9561
102
}
330
9561
100
AcDbZombieObject
 90
      499
 91
      510
 93
      105
310
903383A310000000000000810100
  0
ACAD_PROXY_OBJECT
  5
9571
102
{ACAD_REACTORS
330
9561
102
}
330
9561
100
AcDbZombieObject
 90
      499
 91
      510
 93
      113
310
90431303A310000000000000910100
  0
ACAD_PROXY_OBJECT
  5
9572
102
{ACAD_REACTORS
330
9561
102
}
330
9561
100
AcDbZombieObject
 90
      499
 91
      510
 93
      121
310
9053130303A310000000000001650100
  0
ACAD_PROXY_OBJECT
  5
9573
102
{ACAD_REACTORS
330
9561
102
}
330
9561
100
AcDbZombieObject
 90
      499
 91
      510
 93
      257
310
90E312F31323822203D2031272D3022000000000000200FC000000000000284000
  0
ACAD_PROXY_OBJECT
  5
9574
102
{ACAD_REACTORS
330
9561
102
}
330
9561
100
AcDbZombieObject
 90
      499
 91
      510
 93
      249
310
90D312F363422203D2031272D3022000000000000240FC000000000000284000
  0
ACAD_PROXY_OBJECT
  5
9575
102
{ACAD_REACTORS
330
9561
102
}
330
9561
100
AcDbZombieObject
 90
      499
 91
      510
 93
      249
310
90D312F333222203D2031272D3022000000000000280FC000000000000284000
  0
ACAD_PROXY_OBJECT
  5
9576
102
{ACAD_REACTORS
330
9561
102
}
330
9561
100
AcDbZombieObject
 90
      499
 91
      510
 93
      249
310
90D312F313622203D2031272D30220000000000002C0FC000000000000284000
  0
ACAD_PROXY_OBJECT
  5
9577
102
{ACAD_REACTORS
330
9561
102
}
330
9561
100
AcDbZombieObject
 90
      499
 91
      510
 93
      249
310
90D332F333222203D2031272D30220000000000002E0FC000000000000284000
  0
ACAD_PROXY_OBJECT
  5
9578
102
{ACAD_REACTORS
330
9561
102
}
330
9561
100
AcDbZombieObject
 90
      499
 91
      510
 93
      241
310
90C312F3822203D2031272D3022000000000000300FC000000000000284000
  0
ACAD_PROXY_OBJECT
  5
9579
102
{ACAD_REACTORS
330
9561
102
}
330
9561
100
AcDbZombieObject
 90
      499
 91
      510
 93
      249
310
90D332F313622203D2031272D3022000000000000320FC000000000000284000
  0
ACAD_PROXY_OBJECT
  5
957A
102
{ACAD_REACTORS
330
9561
102
}
330
9561
100
AcDbZombieObject
 90
      499
 91
      510
 93
      241
310
90C312F3422203D2031272D3022000000000000340FC000000000000284000
  0
ACAD_PROXY_OBJECT
  5
957B
102
{ACAD_REACTORS
330
9561
102
}
330
9561
100
AcDbZombieObject
 90
      499
 91
      510
 93
      241
310
90C332F3822203D2031272D3022000000000000360FC000000000000284000
  0
ACAD_PROXY_OBJECT
  5
957C
102
{ACAD_REACTORS
330
9561
102
}
330
9561
100
AcDbZombieObject
 90
      499
 91
      510
 93
      241
310
90C312F3222203D2031272D3022000000000000380FC000000000000284000
  0
ACAD_PROXY_OBJECT
  5
957D
102
{ACAD_REACTORS
330
9561
102
}
330
9561
100
AcDbZombieObject
 90
      499
 91
      510
 93
      241
310
90C332F3422203D2031272D30220000000000003A0FC000000000000284000
  0
ACAD_PROXY_OBJECT
  5
957E
102
{ACAD_REACTORS
330
9561
102
}
330
9561
100
AcDbZombieObject
 90
      499
 91
      510
 93
      161
310
90A3122203D2031272D30224000000000000284000
  0
ACAD_PROXY_OBJECT
  5
957F
102
{ACAD_REACTORS
330
9561
102
}
330
9561
100
AcDbZombieObject
 90
      499
 91
      510
 93
      257
310
90E312D312F3222203D2031272D30220000000000003E0FC000000000000284000
  0
ACAD_PROXY_OBJECT
  5
9580
102
{ACAD_REACTORS
330
9561
102
}
330
9561
100
AcDbZombieObject
 90
      499
 91
      510
 93
      225
310
90A3322203D2031272D302200000000000002100000000000000284000
  0
ACAD_PROXY_OBJECT
  5
9581
102
{ACAD_REACTORS
330
9561
102
}
330
9561
100
AcDbZombieObject
 90
      499
 91
      510
 93
      225
310
90A3622203D2031272D302200000000000006100000000000000284000
  0
ACAD_PROXY_OBJECT
  5
9582
102
{ACAD_REACTORS
330
9561
102
}
330
9561
100
AcDbZombieObject
 90
      499
 91
      510
 93
      249
310
90D31272D3022203D2031272D30220000000000000A100000000000000284000
  0
ACAD_PROXY_OBJECT
  5
9556
102
{ACAD_REACTORS
330
9550
102
}
330
9550
100
AcDbZombieObject
 90
      499
 91
      509
 93
      436
310
42CC9915DA5C99599C985B595049028333333333333E3BF0000000000000FB0107901411070040501600405405064090741402480A0340
1001
ACAD
1000
AcDbSavedByObjectVersion
1070
     0
  0
ACAD_PROXY_OBJECT
  5
9558
102
{ACAD_REACTORS
330
9550
102
}
330
9550
100
AcDbZombieObject
 90
      499
 91
      509
 93
      500
310
424CD108121A5919195B90640502408333333333333E3BF0000000000000FB01079024090700405020000000000001110200405405064090740C02480A0340
1001
ACAD
1000
AcDbSavedByObjectVersion
1070
     0
  0
ACAD_PROXY_OBJECT
  5
9557
102
{ACAD_REACTORS
330
9550
102
}
330
9550
100
AcDbZombieObject
 90
      499
 91
      509
 93
      436
310
42CCD915DA5C99599C985B595059028333333333333E3BF0000000000000FB0107901411070040501600405405064090741402480A0340
1001
ACAD
1000
AcDbSavedByObjectVersion
1070
     0
  0
ACAD_PROXY_OBJECT
  5
9555
102
{ACAD_REACTORS
330
9550
102
}
330
9550
100
AcDbZombieObject
 90
      499
 91
      509
 93
      388
310
4150985CDA58D07406404333333333333E3BF0000000000000FB0107A41107004050150841D405064090741402480A0350
1001
ACAD
1000
AcDbSavedByObjectVersion
1070
     0
  0
ACAD_PROXY_OBJECT
  5
955C
102
{ACAD_REACTORS
330
9550
102
}
330
9550
100
AcDbZombieObject
 90
      499
 91
      509
 93
      428
310
42109C9A59DA1D195B90C409028333333333333E3BF0000000000000FB010790141107004050150841D405064090741402480A029950
1001
ACAD
1000
AcDbSavedByObjectVersion
1070
     0
  0
ACAD_PROXY_OBJECT
  5
9560
102
{ACAD_REACTORS
330
9550
102
}
330
9550
100
AcDbZombieObject
 90
      499
 91
      509
 93
      452
310
42D0DBDB1BDC90DA185B99D95104090240C333333333333E3BF0000000000000FB0108901411070040501508421405064090741402480A0350
1001
ACAD
1000
AcDbSavedByObjectVersion
1070
     0
  0
ACAD_PROXY_OBJECT
  5
9559
102
{ACAD_REACTORS
330
9550
102
}
330
9550
100
AcDbZombieObject
 90
      499
 91
      509
 93
      500
310
4290DBDB98D95C1D1D585B10940D028333333333333E3BF0000000000000FB0107902409070040501000000000000111010841D405064090740C02480A0340
1001
ACAD
1000
AcDbSavedByObjectVersion
1070
     0
  0
ACAD_PROXY_OBJECT
  5
955B
102
{ACAD_REACTORS
330
9550
102
}
330
9550
100
AcDbZombieObject
 90
      499
 91
      509
 93
      412
310
40D11A5B50B409028333333333333E3BF0000000000000FB010790141107004050150841D405064090741402480A02677FFFFFD0
1001
ACAD
1000
AcDbSavedByObjectVersion
1070
     0
  0
ACAD_PROXY_OBJECT
  5
A211
102
{ACAD_REACTORS
330
9550
102
}
330
9550
100
AcDbZombieObject
 90
      499
 91
      509
 93
      452
310
43115919D950DBDB1BDC93D999916409028333333333333E3BF0000000000000FB010790141107004050150841D405064090741402480A0350
1001
ACAD
1000
AcDbSavedByObjectVersion
1070
     0
  0
ACAD_PROXY_OBJECT
  5
955F
102
{ACAD_REACTORS
330
9550
102
}
330
9550
100
AcDbZombieObject
 90
      499
 91
      509
 93
      444
310
42D19858D95C185D1D195C9B90F409028333333333333E3BF0000000000000FB010790141107004050150841D405064090741402480A0350
1001
ACAD
1000
AcDbSavedByObjectVersion
1070
     0
  0
ACAD_PROXY_OBJECT
  5
9551
102
{ACAD_REACTORS
330
9550
102
}
330
9550
100
AcDbZombieObject
 90
      499
 91
      509
 93
      388
310
41119B185D240901404333333333333E3BF0000000000000F9010740A41107004050150841D405064090741402480A1B50
1001
ACAD
1000
AcDbSavedByObjectVersion
1070
     0
  0
ACAD_PROXY_OBJECT
  5
9552
102
{ACAD_REACTORS
330
9550
102
}
330
9550
100
AcDbZombieObject
 90
      499
 91
      509
 93
      476
310
43519B185D15DA5D1A115919D95CD0140901404333333333333E3BF0000000000000F9010740901411070040501600405405064090741402480A1B50
1001
ACAD
1000
AcDbSavedByObjectVersion
1070
     0
  0
ACAD_PROXY_OBJECT
  5
9553
102
{ACAD_REACTORS
330
9550
102
}
330
9550
100
AcDbZombieObject
 90
      499
 91
      509
 93
      412
310
41D1DBDD5C985D5910240902404333333333333E3BF0000000000000F9010740A411070040501641D405064090741402480A1B50
1001
ACAD
1000
AcDbSavedByObjectVersion
1070
     0
  0
ACAD_PROXY_OBJECT
  5
9554
102
{ACAD_REACTORS
330
9550
102
}
330
9550
100
AcDbZombieObject
 90
      499
 91
      509
 93
      500
310
4411DBDD5C985D5915DA5D1A115919D95CD0340902404333333333333E3BF0000000000000F9010740901411070040501600405405064090741402480A1B50
1001
ACAD
1000
AcDbSavedByObjectVersion
1070
     0
  0
ACAD_PROXY_OBJECT
  5
A260
102
{ACAD_REACTORS
330
9550
102
}
330
9550
100
AcDbZombieObject
 90
      499
 91
      509
 93
      476
310
41921A5919195B90640502408333333333333E3BF0000000000000FB01079024090700405020000000000001110200405405064090740C02480A0340
1001
ACAD
1000
AcDbSavedByObjectVersion
1070
     0
  0
ACAD_PROXY_OBJECT
  5
A20F
102
{ACAD_REACTORS
330
9550
102
}
330
9550
100
AcDbZombieObject
 90
      499
 91
      509
 93
      428
310
42529A5D1D195C93D999914409028333333333333E3BF0000000000000FB010790141107004050150A41D405064090741402480A0350
1001
ACAD
1000
AcDbSavedByObjectVersion
1070
     0
  0
ACAD_PROXY_OBJECT
  5
955E
102
{ACAD_REACTORS
330
9550
102
}
330
9550
100
AcDbZombieObject
 90
      499
 91
      509
 93
      444
310
42D31A5B995C185D1D195C9B90E409028333333333333E3BF0000000000000FB010790141107004050750841D405064090741402483A0350
1001
ACAD
1000
AcDbSavedByObjectVersion
1070
     0
  0
ACAD_PROXY_OBJECT
  5
A266
102
{ACAD_REACTORS
330
9550
102
}
330
9550
100
AcDbZombieObject
 90
      499
 91
      509
 93
      484
310
42135BD9195B1A5B99D0A409028333333333333E3BF0000000000000F901074090290700405010000000000201990108421405064090741402480A1B40
1001
ACAD
1000
AcDbSavedByObjectVersion
1070
     0
  0
ACAD_PROXY_OBJECT
  5
A210
102
{ACAD_REACTORS
330
9550
102
}
330
9550
100
AcDbZombieObject
 90
      499
 91
      509
 93
      444
310
42D3DD995C9A185B99D3D999915409028333333333333E3BF0000000000000FB010790141107004050150941D405064090741402480A0350
1001
ACAD
1000
AcDbSavedByObjectVersion
1070
     0
  0
ACAD_PROXY_OBJECT
  5
955A
102
{ACAD_REACTORS
330
9550
102
}
330
9550
100
AcDbZombieObject
 90
      499
 91
      509
 93
      420
310
425499585B1A5CDD1A58D08409028333333333333E3BF0000000000000FB01079019070040501508421405064090741402480A1B40
1001
ACAD
1000
AcDbSavedByObjectVersion
1070
     0
  0
ACAD_PROXY_OBJECT
  5
A265
102
{ACAD_REACTORS
330
9550
102
}
330
9550
100
AcDbZombieObject
 90
      499
 91
      509
 93
      420
310
4194DA1859195911B40902404333333333333E3BF0000000000000F9010740A41107004050150800405405064090840C02480A0B40
1001
ACAD
1000
AcDbSavedByObjectVersion
1070
     0
  0
ACAD_PROXY_OBJECT
  5
A264
102
{ACAD_REACTORS
330
9550
102
}
330
9550
100
AcDbZombieObject
 90
      499
 91
      509
 93
      516
310
4454DA18591959081DDA5D1A08195919D95CD1A40902404333333333333E3BF0000000000000F901074090142907004050250800405405064090740C02480A0B40
1001
ACAD
1000
AcDbSavedByObjectVersion
1070
     0
  0
ACAD_PROXY_OBJECT
  5
A261
102
{ACAD_REACTORS
330
9550
102
}
330
9550
100
AcDbZombieObject
 90
      499
 91
      509
 93
      532
310
4394DA1859195CC81BD98811DC985E5174090240C333333333333E3BF0000000000000FB01079024090741D01000000000000111010841D405064090740C02480A0340
1001
ACAD
1000
AcDbSavedByObjectVersion
1070
     0
  0
ACAD_PROXY_OBJECT
  5
A262
102
{ACAD_REACTORS
330
9550
102
}
330
9550
100
AcDbZombieObject
 90
      499
 91
      509
 93
      476
310
41D4DAD95D18DA1E51840502408333333333333E3BF0000000000000FB01079024090741D01000000000000111010B41D405064090741802480A0340
1001
ACAD
1000
AcDbSavedByObjectVersion
1070
     0
  0
ACAD_PROXY_OBJECT
  5
955D
102
{ACAD_REACTORS
330
9550
102
}
330
9550
100
AcDbZombieObject
 90
      499
 91
      509
 93
      412
310
41D51A1A58DAD95B90D409028333333333333E3BF0000000000000FB010790141107004050150C41D405064090741402480A0350
1001
ACAD
1000
AcDbSavedByObjectVersion
1070
     0
  0
ACAD_PROXY_OBJECT
  5
A25F
102
{ACAD_REACTORS
330
9550
102
}
330
9550
100
AcDbZombieObject
 90
      499
 91
      509
 93
      420
310
4255DA5C99599C985B595059028333333333333E3BF0000000000000FB0107901411070040501600405405064090740C02480A0340
1001
ACAD
1000
AcDbSavedByObjectVersion
1070
     0
  0
ACAD_PROXY_OBJECT
  5
A263
102
{ACAD_REACTORS
330
9550
102
}
330
9550
100
AcDbZombieObject
 90
      499
 91
      509
 93
      404
310
41560B54985E51940902404000000000000E03F0000000000000FB010740501907004050150841D405064090740C02480A1B40
1001
ACAD
1000
AcDbSavedByObjectVersion
1070
     0
  0
XRECORD
  5
E406
102
{ACAD_REACTORS
330
E405
102
}
330
E405
100
AcDbXrecord
340
18D
  0
XRECORD
  5
E407
102
{ACAD_REACTORS
330
E405
102
}
330
E405
100
AcDbXrecord
340
18C
  0
DICTIONARYVAR
  5
AAE0
102
{ACAD_REACTORS
330
37
102
}
330
37
100
DictionaryVariables
280
     0
  1
1:1
  0
DICTIONARYVAR
  5
9627
102
{ACAD_REACTORS
330
37
102
}
330
37
100
DictionaryVariables
280
     0
  1
Standard
  0
DICTIONARYVAR
  5
29E
102
{ACAD_REACTORS
330
37
102
}
330
37
100
DictionaryVariables
280
     0
  1
Standard
  0
DICTIONARYVAR
  5
38
102
{ACAD_REACTORS
330
37
102
}
330
37
100
DictionaryVariables
280
     0
  1
-1
  0
DICTIONARYVAR
  5
1CE
102
{ACAD_REACTORS
330
37
102
}
330
37
100
DictionaryVariables
280
     0
  1
2
  0
DICTIONARYVAR
  5
704E
102
{ACAD_REACTORS
330
37
102
}
330
37
100
DictionaryVariables
280
     0
  1
1
  0
DICTIONARYVAR
  5
962A
102
{ACAD_REACTORS
330
37
102
}
330
37
100
DictionaryVariables
280
     0
  1
0
  0
DICTIONARYVAR
  5
7052
102
{ACAD_REACTORS
330
37
102
}
330
37
100
DictionaryVariables
280
     0
  1
8
  0
DICTIONARYVAR
  5
7051
102
{ACAD_REACTORS
330
37
102
}
330
37
100
DictionaryVariables
280
     0
  1
1
  0
DICTIONARYVAR
  5
AB30
102
{ACAD_REACTORS
330
37
102
}
330
37
100
DictionaryVariables
280
     0
  1
0
  0
DICTIONARYVAR
  5
704F
102
{ACAD_REACTORS
330
37
102
}
330
37
100
DictionaryVariables
280
     0
  1
8
  0
DICTIONARYVAR
  5
7050
102
{ACAD_REACTORS
330
37
102
}
330
37
100
DictionaryVariables
280
     0
  1
2
  0
DICTIONARYVAR
  5
1CF
102
{ACAD_REACTORS
330
37
102
}
330
37
100
DictionaryVariables
280
     0
  1

  0
DICTIONARYVAR
  5
9629
102
{ACAD_REACTORS
330
37
102
}
330
37
100
DictionaryVariables
280
     0
  1
127
  0
DICTIONARYVAR
  5
E1EF
102
{ACAD_REACTORS
330
37
102
}
330
37
100
DictionaryVariables
280
     0
  1
2
  0
DICTIONARY
  5
E5A3
330
9540
100
AcDbDictionary
  3
ACAD_XREC_ROUNDTRIP
360
E5A4
1001
ACAD
1000
TREAT_AS_HARD
1070
     1
  0
DICTIONARY
  5
E5A5
330
9538
100
AcDbDictionary
  3
ACAD_XREC_ROUNDTRIP
360
E5A6
1001
ACAD
1000
TREAT_AS_HARD
1070
     1
  0
DICTIONARY
  5
E5A7
330
9548
100
AcDbDictionary
  3
ACAD_XREC_ROUNDTRIP
360
E5A8
1001
ACAD
1000
TREAT_AS_HARD
1070
     1
  0
XRECORD
  5
E5A4
102
{ACAD_REACTORS
330
E5A3
102
}
330
E5A3
100
AcDbXrecord
102
MATERIAL
148
0.0
149
0.0
149
0.0
 93
        0
 94
      127
282
     0
 72
     0
 77
     0
171
     0
175
     0
179
     0
273
     0
  0
XRECORD
  5
E5A6
102
{ACAD_REACTORS
330
E5A5
102
}
330
E5A5
100
AcDbXrecord
102
MATERIAL
148
0.0
149
0.0
149
0.0
 93
        0
 94
      127
282
     0
 72
     0
 77
     0
171
     0
175
     0
179
     0
273
     0
  0
XRECORD
  5
E5A8
102
{ACAD_REACTORS
330
E5A7
102
}
330
E5A7
100
AcDbXrecord
102
MATERIAL
148
0.0
149
0.0
149
0.0
 93
        0
 94
      127
282
     0
 72
     0
 77
     0
171
     0
175
     0
179
     0
273
     0
  0
ENDSEC
  0
EOF
