  0
SECTION
  2
HEADER
  9
$ACADVER
  1
AC1012
  9
$DWGCODEPAGE
  3
ansi_932
  9
$INSBASE
 10
0.0
 20
0.0
 30
0.0
  9
$EXTMIN
 10
2806.313049396211
 20
-817.5984509326895
 30
0.0
  9
$EXTMAX
 10
3429.200873289094
 20
-390.218624951213
 30
0.0000000003382273
  9
$LIMMIN
 10
0.0
 20
0.0
  9
$LIMMAX
 10
420.0
 20
297.0
  9
$ORTHOMODE
 70
     0
  9
$REGENMODE
 70
     1
  9
$FILLMODE
 70
     1
  9
$QTEXTMODE
 70
     0
  9
$MIRRTEXT
 70
     0
  9
$DRAGMODE
 70
     2
  9
$LTSCALE
 40
0.5
  9
$OSMODE
 70
 12415
  9
$ATTMODE
 70
     1
  9
$TEXTSIZE
 40
4.0
  9
$TRACEWID
 40
1.0
  9
$TEXTSTYLE
  7
STANDARD
  9
$CLAYER
  8
1TEXT
  9
$CELTYPE
  6
BYLAYER
  9
$CECOLOR
 62
   256
  9
$CELTSCALE
 40
1.0
  9
$DELOBJ
 70
     1
  9
$DISPSILH
 70
     0
  9
$DIMSCALE
 40
1.0
  9
$DIMASZ
 40
2.0
  9
$DIMEXO
 40
0.0
  9
$DIMDLI
 40
7.0
  9
$DIMRND
 40
0.0
  9
$DIMDLE
 40
0.0
  9
$DIMEXE
 40
1.0
  9
$DIMTP
 40
0.0
  9
$DIMTM
 40
0.0
  9
$DIMTXT
 40
3.5
  9
$DIMCEN
 40
0.0
  9
$DIMTSZ
 40
0.0
  9
$DIMTOL
 70
     0
  9
$DIMLIM
 70
     0
  9
$DIMTIH
 70
     0
  9
$DIMTOH
 70
     0
  9
$DIMSE1
 70
     0
  9
$DIMSE2
 70
     0
  9
$DIMTAD
 70
     1
  9
$DIMZIN
 70
     8
  9
$DIMBLK
  1

  9
$DIMASO
 70
     1
  9
$DIMSHO
 70
     1
  9
$DIMPOST
  1
 
  9
$DIMAPOST
  1

  9
$DIMALT
 70
     0
  9
$DIMALTD
 70
     2
  9
$DIMALTF
 40
25.4
  9
$DIMLFAC
 40
1.0
  9
$DIMTOFL
 70
     1
  9
$DIMTVP
 40
0.0
  9
$DIMTIX
 70
     0
  9
$DIMSOXD
 70
     0
  9
$DIMSAH
 70
     1
  9
$DIMBLK1
  1
OPEN30
  9
$DIMBLK2
  1
OPEN30
  9
$DIMSTYLE
  2
NEWX10
  9
$DIMCLRD
 70
   256
  9
$DIMCLRE
 70
   256
  9
$DIMCLRT
 70
   201
  9
$DIMTFAC
 40
0.7
  9
$DIMGAP
 40
0.7
  9
$DIMJUST
 70
     0
  9
$DIMSD1
 70
     0
  9
$DIMSD2
 70
     0
  9
$DIMTOLJ
 70
     1
  9
$DIMTZIN
 70
     8
  9
$DIMALTZ
 70
     0
  9
$DIMALTTZ
 70
     0
  9
$DIMFIT
 70
     3
  9
$DIMUPT
 70
     0
  9
$DIMUNIT
 70
     2
  9
$DIMDEC
 70
     2
  9
$DIMTDEC
 70
     4
  9
$DIMALTU
 70
     2
  9
$DIMALTTD
 70
     2
  9
$DIMTXSTY
  7
STANDARD
  9
$DIMAUNIT
 70
     0
  9
$LUNITS
 70
     2
  9
$LUPREC
 70
     4
  9
$SKETCHINC
 40
1.0
  9
$FILLETRAD
 40
0.0
  9
$AUNITS
 70
     0
  9
$AUPREC
 70
     2
  9
$MENU
  1
acad
  9
$ELEVATION
 40
0.0
  9
$PELEVATION
 40
0.0
  9
$THICKNESS
 40
0.0
  9
$LIMCHECK
 70
     0
  9
$CHAMFERA
 40
10.0
  9
$CHAMFERB
 40
10.0
  9
$CHAMFERC
 40
20.0
  9
$CHAMFERD
 40
0.0
  9
$SKPOLY
 70
     0
  9
$TDCREATE
 40
2451318.621352917
  9
$TDUPDATE
 40
2459373.581258276
  9
$TDINDWG
 40
1.6538212616
  9
$TDUSRTIMER
 40
1.6538212616
  9
$USRTIMER
 70
     1
  9
$ANGBASE
 50
0.0
  9
$ANGDIR
 70
     0
  9
$PDMODE
 70
     0
  9
$PDSIZE
 40
0.0
  9
$PLINEWID
 40
0.0
  9
$COORDS
 70
     2
  9
$SPLFRAME
 70
     0
  9
$SPLINETYPE
 70
     6
  9
$SPLINESEGS
 70
     8
  9
$ATTDIA
 70
     0
  9
$ATTREQ
 70
     1
  9
$HANDLING
 70
     1
  9
$HANDSEED
  5
1BC31
  9
$SURFTAB1
 70
     6
  9
$SURFTAB2
 70
     6
  9
$SURFTYPE
 70
     6
  9
$SURFU
 70
     6
  9
$SURFV
 70
     6
  9
$UCSNAME
  2

  9
$UCSORG
 10
0.0
 20
0.0
 30
0.0
  9
$UCSXDIR
 10
1.0
 20
0.0
 30
0.0
  9
$UCSYDIR
 10
0.0
 20
1.0
 30
0.0
  9
$PUCSNAME
  2

  9
$PUCSORG
 10
0.0
 20
0.0
 30
0.0
  9
$PUCSXDIR
 10
1.0
 20
0.0
 30
0.0
  9
$PUCSYDIR
 10
0.0
 20
1.0
 30
0.0
  9
$USERI1
 70
     0
  9
$USERI2
 70
     0
  9
$USERI3
 70
     0
  9
$USERI4
 70
     0
  9
$USERI5
 70
     0
  9
$USERR1
 40
0.0
  9
$USERR2
 40
0.0
  9
$USERR3
 40
0.0
  9
$USERR4
 40
0.0
  9
$USERR5
 40
0.0
  9
$WORLDVIEW
 70
     1
  9
$SHADEDGE
 70
     3
  9
$SHADEDIF
 70
    70
  9
$TILEMODE
 70
     1
  9
$MAXACTVP
 70
    48
  9
$PINSBASE
 10
0.0
 20
0.0
 30
0.0
  9
$PLIMCHECK
 70
     0
  9
$PEXTMIN
 10
1.000000000000000E+20
 20
1.000000000000000E+20
 30
1.000000000000000E+20
  9
$PEXTMAX
 10
-1.000000000000000E+20
 20
-1.000000000000000E+20
 30
-1.000000000000000E+20
  9
$PLIMMIN
 10
0.0
 20
0.0
  9
$PLIMMAX
 10
420.0
 20
297.0
  9
$UNITMODE
 70
     0
  9
$VISRETAIN
 70
     1
  9
$PLINEGEN
 70
     0
  9
$PSLTSCALE
 70
     1
  9
$TREEDEPTH
 70
  3020
  9
$PICKSTYLE
 70
     0
  9
$CMLSTYLE
  2
STANDARD
  9
$CMLJUST
 70
     0
  9
$CMLSCALE
 40
20.0
  9
$SAVEIMAGES
 70
     1
  0
ENDSEC
  0
SECTION
  2
CLASSES
  0
CLASS
  1
DICTIONARYVAR
  2
AcDbDictionaryVar
  3
ObjectDBX Classes
 90
        0
280
     0
281
     0
  0
CLASS
  1
IDBUFFER
  2
AcDbIdBuffer
  3
ObjectDBX Classes
 90
    32768
280
     0
281
     0
  0
CLASS
  1
LWPOLYLINE
  2
AcDbPolyline
  3
ObjectDBX Classes
 90
    32768
280
     0
281
     1
  0
CLASS
  1
ACDBDICTIONARYWDFLT
  2
AcDbDictionaryWithDefault
  3
ObjectDBX Classes
 90
    32768
280
     0
281
     0
  0
CLASS
  1
ACDBPLACEHOLDER
  2
AcDbPlaceHolder
  3
ObjectDBX Classes
 90
        0
280
     0
281
     0
  0
CLASS
  1
LAYOUT
  2
AcDbLayout
  3
ObjectDBX Classes
 90
        0
280
     0
281
     0
  0
CLASS
  1
TABLESTYLE
  2
AcDbTableStyle
  3
ObjectDBX Classes
 90
     4095
280
     0
281
     0
  0
CLASS
  1
SORTENTSTABLE
  2
AcDbSortentsTable
  3
ObjectDBX Classes
 90
    32768
280
     0
281
     0
  0
CLASS
  1
MATERIAL
  2
AcDbMaterial
  3
ObjectDBX Classes
 90
     1153
280
     0
281
     0
  0
CLASS
  1
VISUALSTYLE
  2
AcDbVisualStyle
  3
ObjectDBX Classes
 90
     4095
280
     0
281
     0
  0
CLASS
  1
SCALE
  2
AcDbScale
  3
ObjectDBX Classes
 90
     1153
280
     0
281
     0
  0
CLASS
  1
MLEADERSTYLE
  2
AcDbMLeaderStyle
  3
ACDB_MLEADERSTYLE_CLASS
 90
     4095
280
     0
281
     0
  0
CLASS
  1
CELLSTYLEMAP
  2
AcDbCellStyleMap
  3
ObjectDBX Classes
 90
     1152
280
     0
281
     0
  0
CLASS
  1
SUN
  2
AcDbSun
  3
SCENEOE
 90
     1153
280
     0
281
     0
  0
CLASS
  1
XRECORD
  2
AcDbXrecord
  3
ObjectDBX Classes
 90
    32768
280
     0
281
     0
  0
CLASS
  1
HATCH
  2
AcDbHatch
  3
ObjectDBX Classes
 90
    32768
280
     0
281
     1
  0
ENDSEC
  0
SECTION
  2
TABLES
  0
TABLE
  2
VPORT
  5
8
330
0
100
AcDbSymbolTable
 70
     1
  0
VPORT
  5
D991
330
8
100
AcDbSymbolTableRecord
100
AcDbViewportTableRecord
  2
*ACTIVE
 70
     0
 10
0.0
 20
0.0
 11
1.0
 21
1.0
 12
3117.756961342652
 22
-603.9085379419512
 13
0.0
 23
0.0
 14
10.0
 24
10.0
 15
10.0
 25
10.0
 16
0.0
 26
0.0
 36
1.0
 17
0.0
 27
0.0
 37
0.0
 40
458.8709710537959
 41
1.858156028368794
 42
50.0
 43
0.0
 44
0.0
 50
0.0
 51
0.0
 71
    16
 72
  1000
 73
     1
 74
     1
 75
     0
 76
     0
 77
     0
 78
     0
1001
ACAD_NAV_VCDISPLAY
1070
     3
  0
ENDTAB
  0
TABLE
  2
LTYPE
  5
5
330
0
100
AcDbSymbolTable
 70
     3
  0
LTYPE
  5
12
330
5
100
AcDbSymbolTableRecord
100
AcDbLinetypeTableRecord
  2
BYBLOCK
 70
     0
  3

 72
    65
 73
     0
 40
0.0
  0
LTYPE
  5
13
330
5
100
AcDbSymbolTableRecord
100
AcDbLinetypeTableRecord
  2
BYLAYER
 70
     0
  3

 72
    65
 73
     0
 40
0.0
  0
LTYPE
  5
14
330
5
100
AcDbSymbolTableRecord
100
AcDbLinetypeTableRecord
  2
CONTINUOUS
 70
     0
  3
Solid line
 72
    65
 73
     0
 40
0.0
  0
LTYPE
  5
2C03
330
5
100
AcDbSymbolTableRecord
100
AcDbLinetypeTableRecord
  2
HIDDEN
 70
     0
  3
Hidden __ __ __ __ __ __ __ __ __ __ __ __ __ _
 72
    65
 73
     2
 40
9.524999999999999
 49
6.35
 74
     0
 49
-3.175
 74
     0
  0
LTYPE
  5
13839
330
5
100
AcDbSymbolTableRecord
100
AcDbLinetypeTableRecord
  2
CENTER2
 70
     0
  3
Center (.5x) ___ _ ___ _ ___ _ ___ _ ___ _ ___
 72
    65
 73
     4
 40
28.575
 49
19.05
 74
     0
 49
-3.175
 74
     0
 49
3.175
 74
     0
 49
-3.175
 74
     0
  0
ENDTAB
  0
TABLE
  2
LAYER
  5
2
102
{ACAD_XDICTIONARY
360
E6A6
102
}
330
0
100
AcDbSymbolTable
 70
     6
  0
LAYER
  5
E
102
{ACAD_XDICTIONARY
360
DA05
102
}
330
2
100
AcDbSymbolTableRecord
100
AcDbLayerTableRecord
  2
0
 70
     0
 62
     7
  6
CONTINUOUS
  0
LAYER
  5
29
102
{ACAD_XDICTIONARY
360
DA07
102
}
330
2
100
AcDbSymbolTableRecord
100
AcDbLayerTableRecord
  2
1CENTER
 70
     0
 62
     7
  6
CENTER2
  0
LAYER
  5
31
102
{ACAD_XDICTIONARY
360
DA09
102
}
330
2
100
AcDbSymbolTableRecord
100
AcDbLayerTableRecord
  2
1TEXT
 70
     0
 62
     7
  6
CONTINUOUS
  0
LAYER
  5
243
102
{ACAD_XDICTIONARY
360
DA0F
102
}
330
2
100
AcDbSymbolTableRecord
100
AcDbLayerTableRecord
  2
01
 70
     0
 62
     1
  6
CONTINUOUS
  0
LAYER
  5
24E
102
{ACAD_XDICTIONARY
360
DA15
102
}
330
2
100
AcDbSymbolTableRecord
100
AcDbLayerTableRecord
  2
1DIM
 70
     0
 62
     7
  6
CONTINUOUS
  0
LAYER
  5
2C05
102
{ACAD_XDICTIONARY
360
DA23
102
}
330
2
100
AcDbSymbolTableRecord
100
AcDbLayerTableRecord
  2
1HIDDEN
 70
     0
 62
     7
  6
HIDDEN
  0
ENDTAB
  0
TABLE
  2
STYLE
  5
3
330
0
100
AcDbSymbolTable
 70
     1
  0
STYLE
  5
F
330
3
100
AcDbSymbolTableRecord
100
AcDbTextStyleTableRecord
  2
STANDARD
 70
     0
 40
0.0
 41
1.0
 50
0.0
 71
     0
 42
4.0
  3
txt.shx
  4
extfont.shx
  0
ENDTAB
  0
TABLE
  2
VIEW
  5
6
330
0
100
AcDbSymbolTable
 70
     0
  0
ENDTAB
  0
TABLE
  2
UCS
  5
7
330
0
100
AcDbSymbolTable
 70
     5
  0
UCS
  5
1AFAC
330
7
100
AcDbSymbolTableRecord
100
AcDbUCSTableRecord
  2
U
 70
     0
 10
0.0
 20
0.0
 30
0.0
 11
1.0
 21
0.0
 31
0.0
 12
0.0
 22
2.220446049250313E-16
 32
1.0
 79
     0
146
0.0
  0
UCS
  5
1AFAD
330
7
100
AcDbSymbolTableRecord
100
AcDbUCSTableRecord
  2
L
 70
     0
 10
0.0
 20
0.0
 30
0.0
 11
-2.220446049250313E-16
 21
-1.0
 31
2.220446049250313E-16
 12
0.0
 22
2.220446049250313E-16
 32
1.0
 79
     0
146
0.0
  0
UCS
  5
1AFAE
330
7
100
AcDbSymbolTableRecord
100
AcDbUCSTableRecord
  2
R
 70
     0
 10
0.0
 20
0.0
 30
0.0
 11
3.445092848397667E-16
 21
1.0
 31
-2.220446049250313E-16
 12
0.0
 22
2.220446049250313E-16
 32
1.0
 79
     0
146
0.0
  0
UCS
  5
1AFAF
330
7
100
AcDbSymbolTableRecord
100
AcDbUCSTableRecord
  2
ISOME
 70
     0
 10
0.0
 20
0.0
 30
0.0
 11
0.7071450863198265
 21
-0.7070684729403536
 31
-3.830824619466267E-5
 12
0.4082704059428734
 22
0.4082704077401151
 32
0.8164744636514736
 79
     0
146
0.0
  0
UCS
  5
1AFB0
330
7
100
AcDbSymbolTableRecord
100
AcDbUCSTableRecord
  2
PERSPECTIVE
 70
     0
 10
0.0
 20
0.0
 30
0.0
 11
0.8191477691768964
 21
-0.5735823260466403
 31
-0.0004974931557765462
 12
0.1584844715982971
 22
0.225502028986108
 32
0.961265575782966
 79
     0
146
0.0
  0
ENDTAB
  0
TABLE
  2
APPID
  5
9
330
0
100
AcDbSymbolTable
 70
    19
  0
APPID
  5
10
330
9
100
AcDbSymbolTableRecord
100
AcDbRegAppTableRecord
  2
ACAD
 70
     0
  0
APPID
  5
21
330
9
100
AcDbSymbolTableRecord
100
AcDbRegAppTableRecord
  2
DRAWINGVARIABLESXDATA
 70
     0
  0
APPID
  5
64
330
9
100
AcDbSymbolTableRecord
100
AcDbRegAppTableRecord
  2
CONTENTTABDATA
 70
     0
  0
APPID
  5
65
330
9
100
AcDbSymbolTableRecord
100
AcDbRegAppTableRecord
  2
CONTENTCURRENTTAB
 70
     0
  0
APPID
  5
66
330
9
100
AcDbSymbolTableRecord
100
AcDbRegAppTableRecord
  2
CONTENTBLOCKDESCRIPTION
 70
     0
  0
APPID
  5
67
330
9
100
AcDbSymbolTableRecord
100
AcDbRegAppTableRecord
  2
CONTENTBLOCKICON
 70
     0
  0
APPID
  5
68
330
9
100
AcDbSymbolTableRecord
100
AcDbRegAppTableRecord
  2
CONTENTLONGBLOCKNAME
 70
     0
  0
APPID
  5
2AE
330
9
100
AcDbSymbolTableRecord
100
AcDbRegAppTableRecord
  2
ACAD_PSEXT
 70
     0
  0
APPID
  5
D9E9
330
9
100
AcDbSymbolTableRecord
100
AcDbRegAppTableRecord
  2
ACAD_MLEADERVER
 70
     0
  0
APPID
  5
19D01
330
9
100
AcDbSymbolTableRecord
100
AcDbRegAppTableRecord
  2
ACADANNOTATIVE
 70
     0
  0
APPID
  5
19D02
330
9
100
AcDbSymbolTableRecord
100
AcDbRegAppTableRecord
  2
ACDBBLOCKREPETAG
 70
     0
  0
APPID
  5
1A67E
330
9
100
AcDbSymbolTableRecord
100
AcDbRegAppTableRecord
  2
ACAD_OBJECT_CHANGE_GUID
 70
     0
  0
APPID
  5
1A7E3
330
9
100
AcDbSymbolTableRecord
100
AcDbRegAppTableRecord
  2
ACAD_NAV_VCDISPLAY
 70
     0
  0
APPID
  5
1A8F2
330
9
100
AcDbSymbolTableRecord
100
AcDbRegAppTableRecord
  2
ACAECLAYERSTANDARD
 70
     0
  0
APPID
  5
1AEBA
330
9
100
AcDbSymbolTableRecord
100
AcDbRegAppTableRecord
  2
ACAD_EXEMPT_FROM_CAD_STAND
 70
     0
  0
APPID
  5
1B452
330
9
100
AcDbSymbolTableRecord
100
AcDbRegAppTableRecord
  2
ACAD_DSTYLE_DIMJOGGED_JOGA
 70
     0
  0
APPID
  5
1B453
330
9
100
AcDbSymbolTableRecord
100
AcDbRegAppTableRecord
  2
ACAD_DSTYLE_DIM_LINETYPE
 70
     0
  0
APPID
  5
1B454
330
9
100
AcDbSymbolTableRecord
100
AcDbRegAppTableRecord
  2
ACAD_DSTYLE_DIM_EXT1_LINET
 70
     0
  0
APPID
  5
1B455
330
9
100
AcDbSymbolTableRecord
100
AcDbRegAppTableRecord
  2
ACAD_DSTYLE_DIM_EXT2_LINET
 70
     0
  0
ENDTAB
  0
TABLE
  2
DIMSTYLE
  5
A
330
0
100
AcDbSymbolTable
 70
     2
  0
DIMSTYLE
105
48
102
{ACAD_REACTORS
102
}
330
A
100
AcDbSymbolTableRecord
100
AcDbDimStyleTableRecord
  2
NEWX10
 70
     0
  3
 
  4

  5

  6
OPEN30
  7
OPEN30
 40
1.0
 41
2.0
 42
0.0
 43
7.0
 44
1.0
 45
0.0
 46
0.0
 47
0.0
 48
0.0
140
3.5
141
0.0
142
0.0
143
25.4
144
1.0
145
0.0
146
0.7
147
0.7
 71
     0
 72
     0
 73
     0
 74
     0
 75
     0
 76
     0
 77
     1
 78
     8
170
     0
171
     2
172
     1
173
     1
174
     0
175
     0
176
   256
177
   256
178
   201
179
     1
270
     2
271
     2
272
     4
273
     2
274
     2
340
F
275
     0
280
     0
281
     0
282
     0
283
     1
284
     8
285
     0
286
     0
287
     3
288
     0
  0
DIMSTYLE
105
1B1C8
330
A
100
AcDbSymbolTableRecord
100
AcDbDimStyleTableRecord
  2
ISO-25
 70
     0
  3

  4

  5

  6

  7

 40
1.0
 41
20.0
 42
3.0
 43
3.75
 44
2.0
 45
0.0
 46
0.0
 47
0.0
 48
0.0
140
30.0
141
5.0
142
0.0
143
0.03937
144
1.0
145
0.0
146
1.0
147
8.0
 71
     0
 72
     0
 73
     0
 74
     0
 75
     0
 76
     0
 77
     1
 78
     8
170
     0
171
     3
172
     1
173
     0
174
     0
175
     0
176
     1
177
     1
178
     1
179
     2
270
     2
271
     2
272
     2
273
     2
274
     3
340
F
275
     0
280
     0
281
     0
282
     0
283
     0
284
     8
285
     0
286
     0
287
     3
288
     0
  0
ENDTAB
  0
TABLE
  2
BLOCK_RECORD
  5
1
330
0
100
AcDbSymbolTable
 70
     8
  0
BLOCK_RECORD
  5
18
102
{ACAD_XDICTIONARY
360
88F
102
}
330
1
100
AcDbSymbolTableRecord
100
AcDbBlockTableRecord
  2
*MODEL_SPACE
  0
BLOCK_RECORD
  5
15
330
1
100
AcDbSymbolTableRecord
100
AcDbBlockTableRecord
  2
*PAPER_SPACE
  0
BLOCK_RECORD
  5
42
330
1
100
AcDbSymbolTableRecord
100
AcDbBlockTableRecord
  2
_OPEN30
  0
BLOCK_RECORD
  5
19D51
330
1
100
AcDbSymbolTableRecord
100
AcDbBlockTableRecord
  2
A3WAKUKAWAJUN2017_HYOUDAI_
  0
BLOCK_RECORD
  5
1BA91
330
1
100
AcDbSymbolTableRecord
100
AcDbBlockTableRecord
  2
*X79
  0
BLOCK_RECORD
  5
1BADF
330
1
100
AcDbSymbolTableRecord
100
AcDbBlockTableRecord
  2
*X80
  0
BLOCK_RECORD
  5
1BB31
330
1
100
AcDbSymbolTableRecord
100
AcDbBlockTableRecord
  2
*X81
  0
BLOCK_RECORD
  5
1BB82
330
1
100
AcDbSymbolTableRecord
100
AcDbBlockTableRecord
  2
*X82
  0
BLOCK_RECORD
  5
1BBBF
330
1
100
AcDbSymbolTableRecord
100
AcDbBlockTableRecord
  2
*X83
  0
BLOCK_RECORD
  5
1BBFF
330
1
100
AcDbSymbolTableRecord
100
AcDbBlockTableRecord
  2
*X84
  0
ENDTAB
  0
ENDSEC
  0
SECTION
  2
BLOCKS
  0
BLOCK
  5
19
330
18
100
AcDbEntity
  8
0
100
AcDbBlockBegin
  2
*MODEL_SPACE
 70
     0
 10
0.0
 20
0.0
 30
0.0
  3
*MODEL_SPACE
  1

  0
ENDBLK
  5
1A
330
18
100
AcDbEntity
  8
0
100
AcDbBlockEnd
  0
BLOCK
  5
16
330
15
100
AcDbEntity
 67
     1
  8
0
100
AcDbBlockBegin
  2
*PAPER_SPACE
 70
     0
 10
0.0
 20
0.0
 30
0.0
  3
*PAPER_SPACE
  1

  0
ENDBLK
  5
17
330
15
100
AcDbEntity
 67
     1
  8
0
100
AcDbBlockEnd
  0
BLOCK
  5
43
330
42
100
AcDbEntity
  8
0
100
AcDbBlockBegin
  2
_OPEN30
 70
     0
 10
0.0
 20
0.0
 30
0.0
  3
_OPEN30
  1

  0
LINE
  5
44
330
42
100
AcDbEntity
  8
0
  6
BYBLOCK
 62
     0
100
AcDbLine
 10
-1.0
 20
0.26794919
 30
0.0
 11
0.0
 21
0.0
 31
0.0
  0
LINE
  5
45
330
42
100
AcDbEntity
  8
0
  6
BYBLOCK
 62
     0
100
AcDbLine
 10
0.0
 20
0.0
 30
0.0
 11
-1.0
 21
-0.26794919
 31
0.0
  0
LINE
  5
46
330
42
100
AcDbEntity
  8
0
  6
BYBLOCK
 62
     0
100
AcDbLine
 10
0.0
 20
0.0
 30
0.0
 11
-1.0
 21
0.0
 31
0.0
  0
ENDBLK
  5
47
330
42
100
AcDbEntity
  8
0
100
AcDbBlockEnd
  0
BLOCK
  5
1A474
330
19D51
100
AcDbEntity
  8
0
100
AcDbBlockBegin
  2
A3WAKUKAWAJUN2017_HYOUDAI_
 70
     0
 10
0.0
 20
0.0
 30
0.0
  3
A3WAKUKAWAJUN2017_HYOUDAI_
  1

  0
LINE
  5
19D53
330
19D51
100
AcDbEntity
  8
0
100
AcDbLine
 10
13.26299999998673
 20
-0.0001000000000317
 30
0.0
 11
9.236999999990758
 21
8.999899999990987
 31
0.0
1001
ACAD
1000
ASC_BOUNDS
1002
{
1070
    19
1005
19D94
1002
}
  0
LINE
  5
19D54
330
19D51
100
AcDbEntity
  8
0
100
AcDbLine
 10
5.657999999994331
 20
0.9999999999989768
 30
0.0
 11
9.236999999990758
 21
8.999999999991019
 31
0.0
1001
ACAD
1000
ASC_BOUNDS
1002
{
1070
    19
1005
19D94
1002
}
  0
LINE
  5
19D55
330
19D51
100
AcDbEntity
  8
0
100
AcDbLine
 10
18.59199999998134
 20
-0.2368999999997641
 30
0.0
 11
16.46099999998353
 21
5.432899999994561
 31
0.0
1001
ACAD
1000
ASC_BOUNDS
1002
{
1070
    19
1005
19D95
1002
}
  0
LINE
  5
19D56
330
19D51
100
AcDbEntity
  8
0
100
AcDbLine
 10
18.59199999998134
 20
-0.2368999999997641
 30
0.0
 11
22.38199999997767
 21
8.763099999991255
 31
0.0
1001
ACAD
1000
ASC_BOUNDS
1002
{
1070
    19
1005
19D95
1002
}
  0
LINE
  5
19D57
330
19D51
100
AcDbEntity
  8
0
100
AcDbLine
 10
14.32899999998563
 20
-0.2368999999997641
 30
0.0
 11
16.46099999998353
 21
5.432899999994561
 31
0.0
1001
ACAD
1000
ASC_BOUNDS
1002
{
1070
    19
1005
19D95
1002
}
  0
LINE
  5
19D58
330
19D51
100
AcDbEntity
  8
0
100
AcDbLine
 10
14.32899999998563
 20
-0.2368999999997641
 30
0.0
 11
10.53899999998941
 21
8.763099999991255
 31
0.0
1001
ACAD
1000
ASC_BOUNDS
1002
{
1070
    19
1005
19D95
1002
}
  0
LINE
  5
19D59
330
19D51
100
AcDbEntity
  8
0
100
AcDbLine
 10
19.53899999998043
 20
-0.0001000000000317
 30
0.0
 11
23.56599999997638
 21
8.999899999990987
 31
0.0
1001
ACAD
1000
ASC_BOUNDS
1002
{
1070
    19
1005
19D96
1002
}
  0
LINE
  5
19D5A
330
19D51
100
AcDbEntity
  8
0
100
AcDbLine
 10
26.97358892824991
 20
1.383099999991202
 30
0.0
 11
23.56599999997638
 21
8.999899999990987
 31
0.0
1001
ACAD
1000
ASC_BOUNDS
1002
{
1070
    19
1005
19D96
1002
}
  0
LINE
  5
19D5B
330
19D51
100
AcDbEntity
  8
0
100
AcDbLine
 10
5.657999999994331
 20
0.9999999999989768
 30
0.0
 11
3.181999999996833
 21
4.668599999995308
 31
0.0
1001
ACAD
1000
ASC_BOUNDS
1002
{
1070
    19
1005
19D94
1002
}
  0
LINE
  5
19D5C
330
19D51
100
AcDbEntity
  8
0
100
AcDbLine
 10
4.617999999995391
 20
-0.0001000000000317
 30
0.0
 11
1.420999999998571
 21
4.736799999995242
 31
0.0
1001
ACAD
1000
ASC_BOUNDS
1002
{
1070
    19
1005
19D94
1002
}
  0
LINE
  5
19D5D
330
19D51
100
AcDbEntity
  8
0
100
AcDbLine
 10
1.420999999998571
 20
8.763099999991255
 30
0.0
 11
1.420999999998571
 21
0.0
 31
0.0
1001
ACAD
1000
ASC_BOUNDS
1002
{
1070
    19
1005
19D99
1002
}
  0
LINE
  5
19D5E
330
19D51
100
AcDbEntity
  8
0
100
AcDbLine
 10
0.0
 20
8.763099999991255
 30
0.0
 11
0.0
 21
0.0
 31
0.0
1001
ACAD
1000
ASC_BOUNDS
1002
{
1070
    19
1005
19D99
1002
}
  0
LINE
  5
19D5F
330
19D51
100
AcDbEntity
  8
0
100
AcDbLine
 10
6.766999999993232
 20
-0.0001000000000317
 30
0.0
 11
7.826999999992154
 21
2.368399999997621
 31
0.0
1001
ACAD
1000
ASC_BOUNDS
1002
{
1070
    19
1005
19D94
1002
}
  0
LINE
  5
19D60
330
19D51
100
AcDbEntity
  8
0
100
AcDbLine
 10
0.0
 20
0.0
 30
0.0
 11
1.420999999998571
 21
0.0
 31
0.0
1001
ACAD
1000
ASC_BOUNDS
1002
{
1070
    19
1005
19D99
1002
}
  0
LINE
  5
19D61
330
19D51
100
AcDbEntity
  8
0
100
AcDbLine
 10
4.617999999995391
 20
0.0
 30
0.0
 11
6.766999999993232
 21
0.0
 31
0.0
1001
ACAD
1000
ASC_BOUNDS
1002
{
1070
    19
1005
19D94
1002
}
  0
LINE
  5
19D62
330
19D51
100
AcDbEntity
  8
0
100
AcDbLine
 10
11.70599999998831
 20
-0.0001000000000317
 30
0.0
 11
10.64699999998936
 21
2.368399999997621
 31
0.0
1001
ACAD
1000
ASC_BOUNDS
1002
{
1070
    19
1005
19D94
1002
}
  0
LINE
  5
19D63
330
19D51
100
AcDbEntity
  8
0
100
AcDbLine
 10
7.826999999992154
 20
2.368399999997621
 30
0.0
 11
10.64699999998936
 21
2.368399999997621
 31
0.0
1001
ACAD
1000
ASC_BOUNDS
1002
{
1070
    19
1005
19D94
1002
}
  0
LINE
  5
19D64
330
19D51
100
AcDbEntity
  8
0
100
AcDbLine
 10
11.70599999998831
 20
0.0
 30
0.0
 11
13.26299999998673
 21
0.0
 31
0.0
1001
ACAD
1000
ASC_BOUNDS
1002
{
1070
    19
1005
19D94
1002
}
  0
LINE
  5
19D65
330
19D51
100
AcDbEntity
  8
0
100
AcDbLine
 10
22.15599999997789
 20
2.368399999997621
 30
0.0
 11
24.97599999997499
 21
2.368399999997621
 31
0.0
1001
ACAD
1000
ASC_BOUNDS
1002
{
1070
    19
1005
19D96
1002
}
  0
LINE
  5
19D66
330
19D51
100
AcDbEntity
  8
0
100
AcDbLine
 10
19.53899999998043
 20
0.0
 30
0.0
 11
21.09599999997886
 21
0.0
 31
0.0
1001
ACAD
1000
ASC_BOUNDS
1002
{
1070
    19
1005
19D96
1002
}
  0
LINE
  5
19D67
330
19D51
100
AcDbEntity
  8
0
100
AcDbLine
 10
21.09599999997886
 20
-0.0001000000000317
 30
0.0
 11
22.15599999997789
 21
2.368399999997621
 31
0.0
1001
ACAD
1000
ASC_BOUNDS
1002
{
1070
    19
1005
19D96
1002
}
  0
LINE
  5
19D68
330
19D51
100
AcDbEntity
  8
0
100
AcDbLine
 10
26.02015566812236
 20
0.0330999999912365
 30
0.0
 11
24.97599999997499
 21
2.368399999997621
 31
0.0
1001
ACAD
1000
ASC_BOUNDS
1002
{
1070
    19
1005
19D96
1002
}
  0
LINE
  5
19D69
330
19D51
100
AcDbEntity
  8
0
100
AcDbLine
 10
14.32399999998563
 20
3.315799999996671
 30
0.0
 11
16.46099999998353
 21
8.999899999990987
 31
0.0
1001
ACAD
1000
ASC_BOUNDS
1002
{
1070
    19
1005
19D95
1002
}
  0
LINE
  5
19D6A
330
19D51
100
AcDbEntity
  8
0
100
AcDbLine
 10
6.432999999993513
 20
8.763099999991255
 30
0.0
 11
3.181999999996833
 21
4.668599999995308
 31
0.0
1001
ACAD
1000
ASC_BOUNDS
1002
{
1070
    19
1005
19D94
1002
}
  0
LINE
  5
19D6B
330
19D51
100
AcDbEntity
  8
0
100
AcDbLine
 10
4.617999999995391
 20
8.763099999991255
 30
0.0
 11
1.420999999998571
 21
4.736799999995242
 31
0.0
1001
ACAD
1000
ASC_BOUNDS
1002
{
1070
    19
1005
19D94
1002
}
  0
LINE
  5
19D6C
330
19D51
100
AcDbEntity
  8
0
100
AcDbLine
 10
0.0
 20
8.763099999991255
 30
0.0
 11
1.420999999998571
 21
8.763099999991255
 31
0.0
1001
ACAD
1000
ASC_BOUNDS
1002
{
1070
    19
1005
19D99
1002
}
  0
LINE
  5
19D6D
330
19D51
100
AcDbEntity
  8
0
100
AcDbLine
 10
4.617999999995391
 20
8.763099999991255
 30
0.0
 11
6.432999999993513
 21
8.763099999991255
 31
0.0
1001
ACAD
1000
ASC_BOUNDS
1002
{
1070
    19
1005
19D94
1002
}
  0
LINE
  5
19D6E
330
19D51
100
AcDbEntity
  8
0
100
AcDbLine
 10
14.32399999998563
 20
3.315799999996671
 30
0.0
 11
12.02999999998792
 21
8.763099999991255
 31
0.0
1001
ACAD
1000
ASC_BOUNDS
1002
{
1070
    19
1005
19D95
1002
}
  0
LINE
  5
19D6F
330
19D51
100
AcDbEntity
  8
0
100
AcDbLine
 10
10.06399999998996
 20
3.670999999996297
 30
0.0
 11
9.236999999990758
 21
5.5200999999945
 31
0.0
1001
ACAD
1000
ASC_BOUNDS
1002
{
1070
    19
1005
19D94
1002
}
  0
LINE
  5
19D70
330
19D51
100
AcDbEntity
  8
0
100
AcDbLine
 10
8.409999999991555
 20
3.670999999996297
 30
0.0
 11
9.236999999990758
 21
5.5200999999945
 31
0.0
1001
ACAD
1000
ASC_BOUNDS
1002
{
1070
    19
1005
19D94
1002
}
  0
LINE
  5
19D71
330
19D51
100
AcDbEntity
  8
0
100
AcDbLine
 10
8.409999999991555
 20
3.670999999996297
 30
0.0
 11
10.06399999998996
 21
3.670999999996297
 31
0.0
1001
ACAD
1000
ASC_BOUNDS
1002
{
1070
    19
1005
19D94
1002
}
  0
LINE
  5
19D72
330
19D51
100
AcDbEntity
  8
0
100
AcDbLine
 10
10.53899999998941
 20
8.763099999991255
 30
0.0
 11
12.02999999998792
 21
8.763099999991255
 31
0.0
1001
ACAD
1000
ASC_BOUNDS
1002
{
1070
    19
1005
19D95
1002
}
  0
LINE
  5
19D73
330
19D51
100
AcDbEntity
  8
0
100
AcDbLine
 10
22.7389999999773
 20
3.670999999996297
 30
0.0
 11
23.56599999997638
 21
5.5200999999945
 31
0.0
1001
ACAD
1000
ASC_BOUNDS
1002
{
1070
    19
1005
19D96
1002
}
  0
LINE
  5
19D74
330
19D51
100
AcDbEntity
  8
0
100
AcDbLine
 10
22.7389999999773
 20
3.670999999996297
 30
0.0
 11
24.39299999997559
 21
3.670999999996297
 31
0.0
1001
ACAD
1000
ASC_BOUNDS
1002
{
1070
    19
1005
19D96
1002
}
  0
LINE
  5
19D75
330
19D51
100
AcDbEntity
  8
0
100
AcDbLine
 10
18.59799999998143
 20
3.315799999996671
 30
0.0
 11
20.89099999997916
 21
8.763099999991255
 31
0.0
1001
ACAD
1000
ASC_BOUNDS
1002
{
1070
    19
1005
19D95
1002
}
  0
LINE
  5
19D76
330
19D51
100
AcDbEntity
  8
0
100
AcDbLine
 10
18.59799999998143
 20
3.315799999996671
 30
0.0
 11
16.46099999998353
 21
8.999899999990987
 31
0.0
1001
ACAD
1000
ASC_BOUNDS
1002
{
1070
    19
1005
19D95
1002
}
  0
LINE
  5
19D77
330
19D51
100
AcDbEntity
  8
0
100
AcDbLine
 10
20.89099999997916
 20
8.763099999991255
 30
0.0
 11
22.38199999997767
 21
8.763099999991255
 31
0.0
1001
ACAD
1000
ASC_BOUNDS
1002
{
1070
    19
1005
19D95
1002
}
  0
LINE
  5
19D78
330
19D51
100
AcDbEntity
  8
0
100
AcDbLine
 10
24.39299999997559
 20
3.670999999996297
 30
0.0
 11
23.56599999997638
 21
5.5200999999945
 31
0.0
1001
ACAD
1000
ASC_BOUNDS
1002
{
1070
    19
1005
19D96
1002
}
  0
LINE
  5
19D79
330
19D51
100
AcDbEntity
  8
0
100
AcDbLine
 10
44.99999999995498
 20
-0.2368999999997641
 30
0.0
 11
40.02599999995994
 21
5.341799999994635
 31
0.0
1001
ACAD
1000
ASC_BOUNDS
1002
{
1070
    19
1005
19D98
1002
}
  0
LINE
  5
19D7A
330
19D51
100
AcDbEntity
  8
0
100
AcDbLine
 10
40.02599999995994
 20
5.341799999994635
 30
0.0
 11
40.02599999995994
 21
0.0
 31
0.0
1001
ACAD
1000
ASC_BOUNDS
1002
{
1070
    19
1005
19D98
1002
}
  0
LINE
  5
19D7B
330
19D51
100
AcDbEntity
  8
0
100
AcDbLine
 10
38.60499999996136
 20
8.999999999991019
 30
0.0
 11
38.60499999996136
 21
0.0
 31
0.0
1001
ACAD
1000
ASC_BOUNDS
1002
{
1070
    19
1005
19D98
1002
}
  0
LINE
  5
19D7C
330
19D51
100
AcDbEntity
  8
0
100
AcDbLine
 10
44.99999999995498
 20
8.763099999991255
 30
0.0
 11
44.99999999995498
 21
-0.2368999999997641
 31
0.0
1001
ACAD
1000
ASC_BOUNDS
1002
{
1070
    19
1005
19D98
1002
}
  0
LINE
  5
19D7D
330
19D51
100
AcDbEntity
  8
0
100
AcDbLine
 10
38.60499999996136
 20
0.0
 30
0.0
 11
40.02599999995994
 21
0.0
 31
0.0
1001
ACAD
1000
ASC_BOUNDS
1002
{
1070
    19
1005
19D98
1002
}
  0
LINE
  5
19D7E
330
19D51
100
AcDbEntity
  8
0
100
AcDbLine
 10
43.57899999995641
 20
3.421199999996588
 30
0.0
 11
38.60499999996136
 21
8.999899999990987
 31
0.0
1001
ACAD
1000
ASC_BOUNDS
1002
{
1070
    19
1005
19D98
1002
}
  0
LINE
  5
19D7F
330
19D51
100
AcDbEntity
  8
0
100
AcDbLine
 10
43.57899999995641
 20
8.763099999991255
 30
0.0
 11
43.57899999995641
 21
3.421199999996588
 31
0.0
1001
ACAD
1000
ASC_BOUNDS
1002
{
1070
    19
1005
19D98
1002
}
  0
LINE
  5
19D80
330
19D51
100
AcDbEntity
  8
0
100
AcDbLine
 10
43.57899999995641
 20
8.763099999991255
 30
0.0
 11
44.99999999995498
 21
8.763099999991255
 31
0.0
1001
ACAD
1000
ASC_BOUNDS
1002
{
1070
    19
1005
19D98
1002
}
  0
LINE
  5
19D81
330
19D51
100
AcDbEntity
  8
0
100
AcDbLine
 10
37.67199999996831
 20
8.763099999991255
 30
0.0
 11
36.23199999996837
 21
8.763099999991255
 31
0.0
  0
LINE
  5
19D82
330
19D51
100
AcDbEntity
  8
0
100
AcDbLine
 10
31.64199999996833
 20
8.763099999991255
 30
0.0
 11
31.64199999996833
 21
2.481619422925121
 31
0.0
  0
LINE
  5
19D83
330
19D51
100
AcDbEntity
  8
0
100
AcDbLine
 10
37.67199999996831
 20
8.763099999991255
 30
0.0
 11
37.67199999996831
 21
2.481619422925121
 31
0.0
  0
LINE
  5
19D84
330
19D51
100
AcDbEntity
  8
0
100
AcDbLine
 10
36.23199999996837
 20
8.763099999991255
 30
0.0
 11
36.23199999996837
 21
2.481619422925064
 31
0.0
  0
LINE
  5
19D85
330
19D51
100
AcDbEntity
  8
0
100
AcDbLine
 10
33.08199999996839
 20
8.763099999991255
 30
0.0
 11
33.08199999996839
 21
2.481619422925121
 31
0.0
  0
ARC
  5
19D86
330
19D51
100
AcDbEntity
  8
0
100
AcDbCircle
 10
34.65699999996832
 20
3.183099999991214
 30
0.0
 40
3.420000000000007
100
AcDbArc
 50
240.0000000000255
 51
299.9999999999766
  0
ARC
  5
19D87
330
19D51
100
AcDbEntity
  8
0
100
AcDbCircle
 10
34.65699999996832
 20
3.183099999991214
 30
0.0
 40
1.97999999999999
100
AcDbArc
 50
240.000000000026
 51
299.9999999999703
  0
LINE
  5
19D88
330
19D51
100
AcDbEntity
  8
0
100
AcDbLine
 10
33.08199999996828
 20
8.763099999991255
 30
0.0
 11
31.64199999996833
 21
8.763099999991255
 31
0.0
  0
ARC
  5
19D89
330
19D51
100
AcDbEntity
  8
0
100
AcDbCircle
 10
35.06199999996829
 20
2.481619422925064
 30
0.0
 40
1.17
100
AcDbArc
 50
299.9999999999699
 51
0.0
  0
ARC
  5
19D8A
330
19D51
100
AcDbEntity
  8
0
100
AcDbCircle
 10
34.25199999996835
 20
2.481619422925121
 30
0.0
 40
1.17
100
AcDbArc
 50
180.0
 51
240.0000000000238
  0
ARC
  5
19D8B
330
19D51
100
AcDbEntity
  8
0
100
AcDbCircle
 10
35.06199999996841
 20
2.481619422925121
 30
0.0
 40
2.61
100
AcDbArc
 50
299.9999999999756
 51
0.0
  0
ARC
  5
19D8C
330
19D51
100
AcDbEntity
  8
0
100
AcDbCircle
 10
34.25199999996835
 20
2.481619422925121
 30
0.0
 40
2.61
100
AcDbArc
 50
180.0
 51
240.0000000000244
  0
LINE
  5
19D8D
330
19D51
100
AcDbEntity
  8
0
100
AcDbLine
 10
29.30199999996933
 20
8.763099999991255
 30
0.0
 11
30.74199999996927
 21
8.763099999991255
 31
0.0
1001
ACAD
1000
ASC_BOUNDS
1002
{
1070
    19
1005
19D96
1002
}
  0
LINE
  5
19D8E
330
19D51
100
AcDbEntity
  8
0
100
AcDbLine
 10
30.74199999996927
 20
8.763099999991255
 30
0.0
 11
30.74199999996927
 21
2.373099999991211
 31
0.0
1001
ACAD
1000
ASC_BOUNDS
1002
{
1070
    19
1005
19D96
1002
}
  0
LINE
  5
19D8F
330
19D51
100
AcDbEntity
  8
0
100
AcDbLine
 10
26.02015566812236
 20
0.0330999999912365
 30
0.0
 11
28.40199999996923
 21
0.0330999999912365
 31
0.0
1001
ACAD
1000
ASC_BOUNDS
1002
{
1070
    19
1005
19D96
1002
}
  0
LINE
  5
19D90
330
19D51
100
AcDbEntity
  8
0
100
AcDbLine
 10
29.30199999996933
 20
8.763099999991255
 30
0.0
 11
29.30199999996933
 21
2.283099999991236
 31
0.0
1001
ACAD
1000
ASC_BOUNDS
1002
{
1070
    19
1005
19D96
1002
}
  0
LINE
  5
19D91
330
19D51
100
AcDbEntity
  8
0
100
AcDbLine
 10
26.97358892824991
 20
1.383099999991202
 30
0.0
 11
28.40199999996923
 21
1.383099999991202
 31
0.0
1001
ACAD
1000
ASC_BOUNDS
1002
{
1070
    19
1005
19D96
1002
}
  0
ARC
  5
19D92
330
19D51
100
AcDbEntity
  8
0
100
AcDbCircle
 10
28.40199999996923
 20
2.283099999991236
 30
0.0
 40
0.9
100
AcDbArc
 50
270.0
 51
0.0
1001
ACAD
1000
ASC_BOUNDS
1002
{
1070
    19
1005
19D96
1002
}
  0
ARC
  5
19D93
330
19D51
100
AcDbEntity
  8
0
100
AcDbCircle
 10
28.40199999996923
 20
2.373099999991211
 30
0.0
 40
2.34
100
AcDbArc
 50
270.0
 51
0.0
1001
ACAD
1000
ASC_BOUNDS
1002
{
1070
    19
1005
19D96
1002
}
  0
INSERT
  5
19D94
330
19D51
100
AcDbEntity
  8
0
100
AcDbBlockReference
  2
*X79
 10
0.0
 20
0.0
 30
0.0
1001
ACAD
1000
HATCH
1002
{
1070
    19
1000
ANSI37
1040
0.15
1040
0.0
1000
ASC_BOUNDS
1070
     2
1070
     2
1070
    12
1005
19D53
1005
19D54
1005
19D5B
1005
19D6A
1005
19D6D
1005
19D6B
1005
19D5C
1005
19D61
1005
19D5F
1005
19D63
1005
19D62
1005
19D64
1070
     2
1070
     3
1005
19D6F
1005
19D71
1005
19D70
1000
ASC_SEEDPOINT
1011
3.614004224891801
1021
2.996669441146025
1031
0.0
1000
R14_HATCH_DATA
1000
19D94
1011
1.0
1021
0.0
1031
0.0
1011
0.0
1021
1.0
1031
0.0
1011
0.0
1021
0.0
1031
1.0
1040
0.0
1010
0.0
1020
0.0
1030
1.0
1000
ANSI37
1070
     0
1070
     1
1071
        2
1071
        7
1070
     0
1070
     1
1071
       17
1040
13.26299999998673
1040
-0.0001000000000317
1040
9.236999999990758
1040
8.999899999990987
1040
9.236999999990758
1040
8.999999999991019
1040
5.657999999994331
1040
0.9999999999989768
1040
3.181999999996833
1040
4.668599999995308
1040
6.432999999993513
1040
8.763099999991255
1040
4.617999999995391
1040
8.763099999991255
1040
1.420999999998571
1040
4.736799999995242
1040
4.617999999995391
1040
-0.0001000000000317
1040
4.617999999995391
1040
0.0
1040
6.766999999993232
1040
0.0
1040
6.766999999993232
1040
-0.0001000000000317
1040
7.826999999992154
1040
2.368399999997621
1040
10.64699999998936
1040
2.368399999997621
1040
11.70599999998831
1040
-0.0001000000000317
1040
11.70599999998831
1040
0.0
1040
13.26299999998673
1040
0.0
1071
       12
1005
19D53
1005
19D54
1005
19D5B
1005
19D6A
1005
19D6D
1005
19D6B
1005
19D5C
1005
19D61
1005
19D5F
1005
19D63
1005
19D62
1005
19D64
1071
       22
1070
     0
1070
     1
1071
        3
1040
9.236999999990758
1040
5.5200999999945
1040
10.06399999998996
1040
3.670999999996297
1040
8.409999999991555
1040
3.670999999996297
1071
        3
1005
19D6F
1005
19D71
1005
19D70
1070
     0
1070
     1
1040
0.0
1040
0.15
1070
     0
1070
     2
1040
0.7853981633974483
1040
49.29960901727088
1040
-10.17736998311392
1040
-0.3367596045400932
1040
0.3367596045400932
1070
     0
1040
2.356194490192345
1040
49.29960901727088
1040
-10.17736998311392
1040
-0.3367596045400932
1040
-0.3367596045400932
1070
     0
1040
0.0110235143455945
1071
        2
1040
3.614004224891801
1040
2.996669441146025
1040
0.0
1040
3.614004224891801
1040
2.996669441146025
1040
0.0
1002
}
  0
INSERT
  5
19D95
330
19D51
100
AcDbEntity
  8
0
100
AcDbBlockReference
  2
*X80
 10
0.0
 20
0.0
 30
0.0
1001
ACAD
1000
HATCH
1002
{
1070
    19
1000
ANSI37
1040
0.15
1040
0.0
1000
ASC_BOUNDS
1070
     1
1070
     2
1070
    10
1005
19D55
1005
19D56
1005
19D77
1005
19D75
1005
19D76
1005
19D69
1005
19D6E
1005
19D72
1005
19D58
1005
19D57
1000
ASC_SEEDPOINT
1011
14.73245321214324
1021
2.798246178283421
1031
0.0
1000
R14_HATCH_DATA
1000
19D95
1011
1.0
1021
0.0
1031
0.0
1011
0.0
1021
1.0
1031
0.0
1011
0.0
1021
0.0
1031
1.0
1040
0.0
1010
0.0
1020
0.0
1030
1.0
1000
ANSI37
1070
     0
1070
     1
1071
        1
1071
        7
1070
     0
1070
     1
1071
       10
1040
16.46099999998353
1040
5.432899999994561
1040
18.59199999998134
1040
-0.2368999999997641
1040
22.38199999997767
1040
8.763099999991255
1040
20.89099999997916
1040
8.763099999991255
1040
18.59799999998143
1040
3.315799999996671
1040
16.46099999998353
1040
8.999899999990987
1040
14.32399999998563
1040
3.315799999996671
1040
12.02999999998792
1040
8.763099999991255
1040
10.53899999998941
1040
8.763099999991255
1040
14.32899999998563
1040
-0.2368999999997641
1071
       10
1005
19D55
1005
19D56
1005
19D77
1005
19D75
1005
19D76
1005
19D69
1005
19D6E
1005
19D72
1005
19D58
1005
19D57
1070
     0
1070
     1
1040
0.0
1040
0.15
1070
     0
1070
     2
1040
0.7853981633974483
1040
49.29960901727088
1040
-10.17736998311392
1040
-0.3367596045400932
1040
0.3367596045400932
1070
     0
1040
2.356194490192345
1040
49.29960901727088
1040
-10.17736998311392
1040
-0.3367596045400932
1040
-0.3367596045400932
1070
     0
1040
0.0110235143455945
1071
        1
1040
14.73245321214324
1040
2.798246178283421
1040
0.0
1002
}
  0
INSERT
  5
19D96
330
19D51
100
AcDbEntity
  8
0
100
AcDbBlockReference
  2
*X81
 10
0.0
 20
0.0
 30
0.0
1001
ACAD
1000
HATCH
1002
{
1070
    19
1000
ANSI37
1040
0.15
1040
0.0
1000
ASC_BOUNDS
1070
     2
1070
     2
1070
    13
1005
19D59
1005
19D66
1005
19D67
1005
19D65
1005
19D68
1005
19D8F
1005
19D93
1005
19D8E
1005
19D8D
1005
19D90
1005
19D92
1005
19D91
1005
19D5A
1070
     2
1070
     3
1005
19D73
1005
19D78
1005
19D74
1000
ASC_SEEDPOINT
1011
21.97929957367762
1021
3.294304244259308
1031
0.0
1000
R14_HATCH_DATA
1000
19D96
1011
1.0
1021
0.0
1031
0.0
1011
0.0
1021
1.0
1031
0.0
1011
0.0
1021
0.0
1031
1.0
1040
0.0
1010
0.0
1020
0.0
1030
1.0
1000
ANSI37
1070
     0
1070
     1
1071
        2
1071
        7
1070
     1
1070
     1
1071
       15
1040
23.56599999997638
1040
8.999899999990987
1040
0.0
1040
19.53899999998043
1040
-0.0001000000000317
1040
0.0
1040
19.53899999998043
1040
0.0
1040
0.0
1040
21.09599999997886
1040
0.0
1040
0.0
1040
21.09599999997886
1040
-0.0001000000000317
1040
0.0
1040
22.15599999997789
1040
2.368399999997621
1040
0.0
1040
24.97599999997499
1040
2.368399999997621
1040
0.0
1040
26.02015566812236
1040
0.0330999999912365
1040
0.0
1040
28.40199999996923
1040
0.0330999999912365
1040
0.414213562373095
1040
30.74199999996923
1040
2.373099999991211
1040
0.0
1040
30.74199999996927
1040
8.763099999991255
1040
0.0
1040
29.30199999996933
1040
8.763099999991255
1040
0.0
1040
29.30199999996933
1040
2.283099999991236
1040
-0.414213562373095
1040
28.40199999996923
1040
1.383099999991237
1040
0.0
1040
26.97358892824991
1040
1.383099999991202
1040
0.0
1071
       13
1005
19D59
1005
19D66
1005
19D67
1005
19D65
1005
19D68
1005
19D8F
1005
19D93
1005
19D8E
1005
19D8D
1005
19D90
1005
19D92
1005
19D91
1005
19D5A
1071
       22
1070
     0
1070
     1
1071
        3
1040
22.7389999999773
1040
3.670999999996297
1040
23.56599999997638
1040
5.5200999999945
1040
24.39299999997559
1040
3.670999999996297
1071
        3
1005
19D73
1005
19D78
1005
19D74
1070
     0
1070
     1
1040
0.0
1040
0.15
1070
     0
1070
     2
1040
0.7853981633974483
1040
49.29960901727088
1040
-10.17736998311392
1040
-0.3367596045400932
1040
0.3367596045400932
1070
     0
1040
2.356194490192345
1040
49.29960901727088
1040
-10.17736998311392
1040
-0.3367596045400932
1040
-0.3367596045400932
1070
     0
1040
0.0110235143455945
1071
        2
1040
21.97929957367762
1040
3.294304244259308
1040
0.0
1040
21.97929957367762
1040
3.294304244259308
1040
0.0
1002
}
  0
INSERT
  5
19D97
330
19D51
100
AcDbEntity
  8
0
100
AcDbBlockReference
  2
*X82
 10
0.0
 20
0.0
 30
0.0
1001
ACAD
1000
HATCH
1002
{
1070
    19
1000
ANSI37
1040
0.15
1040
0.0
1000
R14_HATCH_DATA
1000
19D97
1011
1.0
1021
0.0
1031
0.0
1011
0.0
1021
1.0
1031
0.0
1011
0.0
1021
0.0
1031
1.0
1040
0.0
1010
0.0
1020
0.0
1030
1.0
1000
ANSI37
1070
     0
1070
     1
1071
        1
1071
        7
1070
     1
1070
     1
1071
       12
1040
31.64199999996833
1040
2.481619422925121
1040
0.2679491924310942
1040
32.94699999997067
1040
0.2212931190493919
1040
0.2679491924301353
1040
36.36699999995983
1040
0.2212931190459813
1040
0.2679491924321411
1040
37.67199999996831
1040
2.481619422928361
1040
0.0
1040
37.67199999996831
1040
8.763099999991255
1040
0.0
1040
36.23199999996837
1040
8.763099999991255
1040
0.0
1040
36.23199999996837
1040
2.481619422925064
1040
-0.2679491924310291
1040
35.64699999996708
1040
1.468369700498386
1040
-0.267949192430519
1040
33.66699999997093
1040
1.468369700497703
1040
-0.267949192431809
1040
33.08199999996839
1040
2.481619422926997
1040
0.0
1040
33.08199999996839
1040
8.763099999991255
1040
0.0
1040
31.64199999996833
1040
8.763099999991255
1040
0.0
1071
        0
1070
     0
1070
     1
1040
0.0
1040
0.15
1070
     0
1070
     2
1040
0.7853981633974483
1040
49.29960901727088
1040
-10.17736998311392
1040
-0.3367596045400932
1040
0.3367596045400932
1070
     0
1040
2.356194490192345
1040
49.29960901727088
1040
-10.17736998311392
1040
-0.3367596045400932
1040
-0.3367596045400932
1070
     0
1040
0.0110235143455945
1071
        1
1040
32.30357378967278
1040
3.988785755459219
1040
0.0
1002
}
  0
INSERT
  5
19D98
330
19D51
100
AcDbEntity
  8
0
100
AcDbBlockReference
  2
*X83
 10
0.0
 20
0.0
 30
0.0
1001
ACAD
1000
HATCH
1002
{
1070
    19
1000
ANSI37
1040
0.15
1040
0.0
1000
ASC_BOUNDS
1070
     1
1070
     2
1070
     8
1005
19D79
1005
19D7C
1005
19D80
1005
19D7F
1005
19D7E
1005
19D7B
1005
19D7D
1005
19D7A
1000
ASC_SEEDPOINT
1011
39.74896370716704
1021
4.484843821435049
1031
0.0
1000
R14_HATCH_DATA
1000
19D98
1011
1.0
1021
0.0
1031
0.0
1011
0.0
1021
1.0
1031
0.0
1011
0.0
1021
0.0
1031
1.0
1040
0.0
1010
0.0
1020
0.0
1030
1.0
1000
ANSI37
1070
     0
1070
     1
1071
        1
1071
        7
1070
     0
1070
     1
1071
        9
1040
40.02599999995994
1040
5.341799999994635
1040
44.99999999995498
1040
-0.2368999999997641
1040
44.99999999995498
1040
8.763099999991255
1040
43.57899999995641
1040
8.763099999991255
1040
43.57899999995641
1040
3.421199999996588
1040
38.60499999996136
1040
8.999899999990987
1040
38.60499999996136
1040
8.999999999991019
1040
38.60499999996136
1040
0.0
1040
40.02599999995994
1040
0.0
1071
        8
1005
19D79
1005
19D7C
1005
19D80
1005
19D7F
1005
19D7E
1005
19D7B
1005
19D7D
1005
19D7A
1070
     0
1070
     1
1040
0.0
1040
0.15
1070
     0
1070
     2
1040
0.7853981633974483
1040
49.29960901727088
1040
-10.17736998311392
1040
-0.3367596045400932
1040
0.3367596045400932
1070
     0
1040
2.356194490192345
1040
49.29960901727088
1040
-10.17736998311392
1040
-0.3367596045400932
1040
-0.3367596045400932
1070
     0
1040
0.0110235143455945
1071
        1
1040
39.74896370716704
1040
4.484843821435049
1040
0.0
1002
}
  0
INSERT
  5
19D99
330
19D51
100
AcDbEntity
  8
0
100
AcDbBlockReference
  2
*X84
 10
0.0
 20
0.0
 30
0.0
1001
ACAD
1000
HATCH
1002
{
1070
    19
1000
ANSI37
1040
0.15
1040
0.0
1000
ASC_BOUNDS
1070
     1
1070
     2
1070
     4
1005
19D5D
1005
19D6C
1005
19D5E
1005
19D60
1000
ASC_SEEDPOINT
1011
1.079051535452663
1021
4.148538732891836
1031
0.0
1000
R14_HATCH_DATA
1000
19D99
1011
1.0
1021
0.0
1031
0.0
1011
0.0
1021
1.0
1031
0.0
1011
0.0
1021
0.0
1031
1.0
1040
0.0
1010
0.0
1020
0.0
1030
1.0
1000
ANSI37
1070
     0
1070
     1
1071
        1
1071
        7
1070
     0
1070
     1
1071
        4
1040
1.420999999998571
1040
0.0
1040
1.420999999998571
1040
8.763099999991255
1040
0.0
1040
8.763099999991255
1040
0.0
1040
0.0
1071
        4
1005
19D5D
1005
19D6C
1005
19D5E
1005
19D60
1070
     0
1070
     1
1040
0.0
1040
0.15
1070
     0
1070
     2
1040
0.7853981633974483
1040
49.29960901727088
1040
-10.17736998311392
1040
-0.3367596045400932
1040
0.3367596045400932
1070
     0
1040
2.356194490192345
1040
49.29960901727088
1040
-10.17736998311392
1040
-0.3367596045400932
1040
-0.3367596045400932
1070
     0
1040
0.0053004257112761
1071
        1
1040
1.079051535452663
1040
4.148538732891836
1040
0.0
1002
}
  0
ENDBLK
  5
1A475
330
19D51
100
AcDbEntity
  8
0
100
AcDbBlockEnd
  0
BLOCK
  5
1BC1F
330
1BA91
100
AcDbEntity
  8
0
100
AcDbBlockBegin
  2
*X79
 70
     1
 10
0.0
 20
0.0
 30
0.0
  3
*X79
  1

  0
LINE
  5
1BA92
330
1BA91
100
AcDbEntity
  8
0
  6
CONTINUOUS
100
AcDbLine
 10
3.418023043697893
 20
7.251849696850613
 30
0.0
 11
4.929273346838536
 21
8.763099999991255
 31
0.0
  0
LINE
  5
1BA93
330
1BA91
100
AcDbEntity
  8
0
  6
CONTINUOUS
100
AcDbLine
 10
1.483656411257782
 20
4.643963855330318
 30
0.0
 11
5.60279255591872
 21
8.763099999991255
 31
0.0
  0
LINE
  5
1BA94
330
1BA91
100
AcDbEntity
  8
0
  6
CONTINUOUS
100
AcDbLine
 10
1.755053947328235
 20
4.241842182320584
 30
0.0
 11
6.276311764998907
 21
8.763099999991255
 31
0.0
  0
LINE
  5
1BA95
330
1BA91
100
AcDbEntity
  8
0
  6
CONTINUOUS
100
AcDbLine
 10
2.026451483398688
 20
3.839720509310849
 30
0.0
 11
4.441040904851878
 21
6.254309930764039
 31
0.0
  0
LINE
  5
1BA96
330
1BA91
100
AcDbEntity
  8
0
  6
CONTINUOUS
100
AcDbLine
 10
2.297849019469139
 20
3.437598836301114
 30
0.0
 11
3.321765168359338
 21
4.461514985191313
 31
0.0
  0
LINE
  5
1BA97
330
1BA91
100
AcDbEntity
  8
0
  6
CONTINUOUS
100
AcDbLine
 10
2.569246555539591
 20
3.03547716329138
 30
0.0
 11
3.593163397972743
 21
4.059394005724531
 31
0.0
  0
LINE
  5
1BA98
330
1BA91
100
AcDbEntity
  8
0
  6
CONTINUOUS
100
AcDbLine
 10
2.840644091610043
 20
2.633355490281646
 30
0.0
 11
3.864561627586149
 21
3.657273026257751
 31
0.0
  0
LINE
  5
1BA99
330
1BA91
100
AcDbEntity
  8
0
  6
CONTINUOUS
100
AcDbLine
 10
3.112041627680496
 20
2.231233817271911
 30
0.0
 11
4.135959857199554
 21
3.25515204679097
 31
0.0
  0
LINE
  5
1BA9A
330
1BA91
100
AcDbEntity
  8
0
  6
CONTINUOUS
100
AcDbLine
 10
3.383439163750948
 20
1.829112144262177
 30
0.0
 11
4.40735808681296
 21
2.853031067324189
 31
0.0
  0
LINE
  5
1BA9B
330
1BA91
100
AcDbEntity
  8
0
  6
CONTINUOUS
100
AcDbLine
 10
3.654836699821399
 20
1.426990471252442
 30
0.0
 11
4.678756316426365
 21
2.450910087857407
 31
0.0
  0
LINE
  5
1BA9C
330
1BA91
100
AcDbEntity
  8
0
  6
CONTINUOUS
100
AcDbLine
 10
3.926234235891853
 20
1.024868798242709
 30
0.0
 11
4.95015454603977
 21
2.048789108390626
 31
0.0
  0
LINE
  5
1BA9D
330
1BA91
100
AcDbEntity
  8
0
  6
CONTINUOUS
100
AcDbLine
 10
4.197631771962304
 20
0.6227471252329737
 30
0.0
 11
5.221552775653176
 21
1.646668128923846
 31
0.0
  0
LINE
  5
1BA9E
330
1BA91
100
AcDbEntity
  8
0
  6
CONTINUOUS
100
AcDbLine
 10
8.715877546767851
 20
7.835069736359266
 30
0.0
 11
9.435953450375058
 21
8.555145639966472
 31
0.0
  0
LINE
  5
1BA9F
330
1BA91
100
AcDbEntity
  8
0
  6
CONTINUOUS
100
AcDbLine
 10
8.170620868422267
 20
6.616293848933497
 30
0.0
 11
9.644120833743461
 21
8.08979381425469
 31
0.0
  0
LINE
  5
1BAA0
330
1BA91
100
AcDbEntity
  8
0
  6
CONTINUOUS
100
AcDbLine
 10
7.625364190076684
 20
5.397517961507727
 30
0.0
 11
9.852288217111864
 21
7.624441988542907
 31
0.0
  0
LINE
  5
1BAA1
330
1BA91
100
AcDbEntity
  8
0
  6
CONTINUOUS
100
AcDbLine
 10
7.080107511731101
 20
4.178742074081957
 30
0.0
 11
10.06045560048027
 21
7.159090162831124
 31
0.0
  0
LINE
  5
1BAA2
330
1BA91
100
AcDbEntity
  8
0
  6
CONTINUOUS
100
AcDbLine
 10
6.534850833385518
 20
2.959966186656187
 30
0.0
 11
10.26862298384867
 21
6.693738337119342
 31
0.0
  0
LINE
  5
1BAA3
330
1BA91
100
AcDbEntity
  8
0
  6
CONTINUOUS
100
AcDbLine
 10
4.469029308032756
 20
0.2206254522232385
 30
0.0
 11
5.492951005266582
 21
1.244547149457064
 31
0.0
  0
LINE
  5
1BAA4
330
1BA91
100
AcDbEntity
  8
0
  6
CONTINUOUS
100
AcDbLine
 10
5.989594155039935
 20
1.741190299230417
 30
0.0
 11
8.806950407233131
 21
4.558546551423613
 31
0.0
  0
LINE
  5
1BAA5
330
1BA91
100
AcDbEntity
  8
0
  6
CONTINUOUS
100
AcDbLine
 10
9.401251593263643
 20
5.152847737454126
 30
0.0
 11
10.47679036721708
 21
6.228386511407559
 31
0.0
  0
LINE
  5
1BAA6
330
1BA91
100
AcDbEntity
  8
0
  6
CONTINUOUS
100
AcDbLine
 10
4.921837203428691
 20
-0.0000858614610131
 30
0.0
 11
8.592923064886001
 21
3.670999999996297
 31
0.0
  0
LINE
  5
1BAA7
330
1BA91
100
AcDbEntity
  8
0
  6
CONTINUOUS
100
AcDbLine
 10
9.609390446785305
 20
4.6874673818956
 30
0.0
 11
10.68495775058548
 21
5.763034685695775
 31
0.0
  0
LINE
  5
1BAA8
330
1BA91
100
AcDbEntity
  8
0
  6
CONTINUOUS
100
AcDbLine
 10
5.595387755019432
 20
-0.0000545189504582
 30
0.0
 11
7.716137258923768
 21
2.120694984953879
 31
0.0
  0
LINE
  5
1BAA9
330
1BA91
100
AcDbEntity
  8
0
  6
CONTINUOUS
100
AcDbLine
 10
6.268938306610172
 20
-0.000023176439905
 30
0.0
 11
7.170485805526503
 21
0.9015243224764267
 31
0.0
  0
LINE
  5
1BAAA
330
1BA91
100
AcDbEntity
  8
0
  6
CONTINUOUS
100
AcDbLine
 10
7.963842273967511
 20
2.368399999997621
 30
0.0
 11
9.266442273966188
 21
3.670999999996297
 31
0.0
  0
LINE
  5
1BAAB
330
1BA91
100
AcDbEntity
  8
0
  6
CONTINUOUS
100
AcDbLine
 10
8.637361483047696
 20
2.368399999997621
 30
0.0
 11
9.939961483046375
 21
3.670999999996297
 31
0.0
  0
LINE
  5
1BAAC
330
1BA91
100
AcDbEntity
  8
0
  6
CONTINUOUS
100
AcDbLine
 10
9.817529300306965
 20
4.222087026337075
 30
0.0
 11
10.89312513395388
 21
5.297682859983993
 31
0.0
  0
LINE
  5
1BAAD
330
1BA91
100
AcDbEntity
  8
0
  6
CONTINUOUS
100
AcDbLine
 10
10.02566815382863
 20
3.756706670778549
 30
0.0
 11
11.10129251732229
 21
4.832331034272211
 31
0.0
  0
LINE
  5
1BAAE
330
1BA91
100
AcDbEntity
  8
0
  6
CONTINUOUS
100
AcDbLine
 10
9.310880692127883
 20
2.368399999997621
 30
0.0
 11
11.30945990069069
 21
4.366979208560428
 31
0.0
  0
LINE
  5
1BAAF
330
1BA91
100
AcDbEntity
  8
0
  6
CONTINUOUS
100
AcDbLine
 10
9.98439990120807
 20
2.36839999999762
 30
0.0
 11
11.5176272840591
 21
3.901627382848645
 31
0.0
  0
LINE
  5
1BAB0
330
1BA91
100
AcDbEntity
  8
0
  6
CONTINUOUS
100
AcDbLine
 10
10.65037369446246
 20
2.36085458417182
 30
0.0
 11
11.7257946674275
 21
3.436275557136862
 31
0.0
  0
LINE
  5
1BAB1
330
1BA91
100
AcDbEntity
  8
0
  6
CONTINUOUS
100
AcDbLine
 10
10.85847197087848
 20
1.895433651507656
 30
0.0
 11
11.9339620507959
 21
2.97092373142508
 31
0.0
  0
LINE
  5
1BAB2
330
1BA91
100
AcDbEntity
  8
0
  6
CONTINUOUS
100
AcDbLine
 10
11.0665702472945
 20
1.430012718843491
 30
0.0
 11
12.14212943416431
 21
2.505571905713296
 31
0.0
  0
LINE
  5
1BAB3
330
1BA91
100
AcDbEntity
  8
0
  6
CONTINUOUS
100
AcDbLine
 10
11.27466852371052
 20
0.9645917861793256
 30
0.0
 11
12.35029681753271
 21
2.040220080001513
 31
0.0
  0
LINE
  5
1BAB4
330
1BA91
100
AcDbEntity
  8
0
  6
CONTINUOUS
100
AcDbLine
 10
11.48276680012654
 20
0.4991708535151611
 30
0.0
 11
12.55846420090111
 21
1.57486825428973
 31
0.0
  0
LINE
  5
1BAB5
330
1BA91
100
AcDbEntity
  8
0
  6
CONTINUOUS
100
AcDbLine
 10
11.69086507654257
 20
0.0337499208509957
 30
0.0
 11
12.76663158426952
 21
1.109516428577947
 31
0.0
  0
LINE
  5
1BAB6
330
1BA91
100
AcDbEntity
  8
0
  6
CONTINUOUS
100
AcDbLine
 10
12.33057447873954
 20
-0.0000598860322123
 30
0.0
 11
12.97479896763792
 21
0.6441646028661663
 31
0.0
  0
LINE
  5
1BAB7
330
1BA91
100
AcDbEntity
  8
0
  6
CONTINUOUS
100
AcDbLine
 10
13.00413694809395
 20
-0.0000166257579952
 30
0.0
 11
13.18296635100632
 21
0.1788127771543824
 31
0.0
  0
LINE
  5
1BAB8
330
1BA91
100
AcDbEntity
  8
0
  6
CONTINUOUS
100
AcDbLine
 10
4.772852165289667
 20
-0.000092794222212
 30
0.0
 11
4.296495091028902
 21
0.4762642800385528
 31
0.0
  0
LINE
  5
1BAB9
330
1BA91
100
AcDbEntity
  8
0
  6
CONTINUOUS
100
AcDbLine
 10
5.446340034776103
 20
-0.0000614546284616
 30
0.0
 11
2.898195908335625
 21
2.548082671812017
 31
0.0
  0
LINE
  5
1BABA
330
1BA91
100
AcDbEntity
  8
0
  6
CONTINUOUS
100
AcDbLine
 10
6.119827904262539
 20
-0.0000301150347113
 30
0.0
 11
1.499896725642348
 21
4.61990106358548
 31
0.0
  0
LINE
  5
1BABB
330
1BA91
100
AcDbEntity
  8
0
  6
CONTINUOUS
100
AcDbLine
 10
6.775136745476159
 20
0.0181802528318542
 30
0.0
 11
5.699826040202669
 21
1.093490958105344
 31
0.0
  0
LINE
  5
1BABC
330
1BA91
100
AcDbEntity
  8
0
  6
CONTINUOUS
100
AcDbLine
 10
6.983376846288489
 20
0.4834593610997118
 30
0.0
 11
5.908008617934405
 21
1.558827589453796
 31
0.0
  0
LINE
  5
1BABD
330
1BA91
100
AcDbEntity
  8
0
  6
CONTINUOUS
100
AcDbLine
 10
5.377063484962296
 20
1.416253513345719
 30
0.0
 11
1.702276957014131
 21
5.091040041293883
 31
0.0
  0
LINE
  5
1BABE
330
1BA91
100
AcDbEntity
  8
0
  6
CONTINUOUS
100
AcDbLine
 10
3.978745891735324
 20
3.488090315652877
 30
0.0
 11
2.000373521109399
 21
5.466462686278803
 31
0.0
  0
LINE
  5
1BABF
330
1BA91
100
AcDbEntity
  8
0
  6
CONTINUOUS
100
AcDbLine
 10
7.191616947100819
 20
0.948738469367568
 30
0.0
 11
6.11619119566614
 21
2.024164220802247
 31
0.0
  0
LINE
  5
1BAC0
330
1BA91
100
AcDbEntity
  8
0
  6
CONTINUOUS
100
AcDbLine
 10
7.399857047913149
 20
1.414017577635424
 30
0.0
 11
6.324373773397875
 21
2.489500852150698
 31
0.0
  0
LINE
  5
1BAC1
330
1BA91
100
AcDbEntity
  8
0
  6
CONTINUOUS
100
AcDbLine
 10
7.608097148725479
 20
1.879296685903281
 30
0.0
 11
6.53255635112961
 21
2.95483748349915
 31
0.0
  0
LINE
  5
1BAC2
330
1BA91
100
AcDbEntity
  8
0
  6
CONTINUOUS
100
AcDbLine
 10
7.816337249537808
 20
2.344575794171138
 30
0.0
 11
6.740738928861345
 21
3.420174114847601
 31
0.0
  0
LINE
  5
1BAC3
330
1BA91
100
AcDbEntity
  8
0
  6
CONTINUOUS
100
AcDbLine
 10
3.310241080789734
 20
4.830114335678653
 30
0.0
 11
2.298470085204666
 21
5.84188533126372
 31
0.0
  0
LINE
  5
1BAC4
330
1BA91
100
AcDbEntity
  8
0
  6
CONTINUOUS
100
AcDbLine
 10
3.60832983563551
 20
5.205544789913063
 30
0.0
 11
2.596566649299935
 21
6.217307976248638
 31
0.0
  0
LINE
  5
1BAC5
330
1BA91
100
AcDbEntity
  8
0
  6
CONTINUOUS
100
AcDbLine
 10
3.906418590481286
 20
5.580975244147473
 30
0.0
 11
2.894663213395203
 21
6.592730621233557
 31
0.0
  0
LINE
  5
1BAC6
330
1BA91
100
AcDbEntity
  8
0
  6
CONTINUOUS
100
AcDbLine
 10
4.204507345327062
 20
5.956405698381884
 30
0.0
 11
3.192759777490472
 21
6.968153266218474
 31
0.0
  0
LINE
  5
1BAC7
330
1BA91
100
AcDbEntity
  8
0
  6
CONTINUOUS
100
AcDbLine
 10
8.466032252791512
 20
2.368399999997621
 30
0.0
 11
6.948921506593081
 21
3.885510746196053
 31
0.0
  0
LINE
  5
1BAC8
330
1BA91
100
AcDbEntity
  8
0
  6
CONTINUOUS
100
AcDbLine
 10
9.139551461871699
 20
2.36839999999762
 30
0.0
 11
7.157104084324816
 21
4.350847377544504
 31
0.0
  0
LINE
  5
1BAC9
330
1BA91
100
AcDbEntity
  8
0
  6
CONTINUOUS
100
AcDbLine
 10
4.502596100172839
 20
6.331836152616295
 30
0.0
 11
3.49085634158574
 21
7.343575911203393
 31
0.0
  0
LINE
  5
1BACA
330
1BA91
100
AcDbEntity
  8
0
  6
CONTINUOUS
100
AcDbLine
 10
4.800684855018615
 20
6.707266606850705
 30
0.0
 11
3.788952905681008
 21
7.718998556188312
 31
0.0
  0
LINE
  5
1BACB
330
1BA91
100
AcDbEntity
  8
0
  6
CONTINUOUS
100
AcDbLine
 10
12.18154012887317
 20
-0.0000694579236642
 30
0.0
 11
11.32140332908496
 21
0.8600673418645499
 31
0.0
  0
LINE
  5
1BACC
330
1BA91
100
AcDbEntity
  8
0
  6
CONTINUOUS
100
AcDbLine
 10
12.85501608323566
 20
-0.0000262032059659
 30
0.0
 11
10.77672456435345
 21
2.078265315676246
 31
0.0
  0
LINE
  5
1BACD
330
1BA91
100
AcDbEntity
  8
0
  6
CONTINUOUS
100
AcDbLine
 10
9.813070670951886
 20
2.36839999999762
 30
0.0
 11
8.51047067095321
 21
3.670999999996297
 31
0.0
  0
LINE
  5
1BACE
330
1BA91
100
AcDbEntity
  8
0
  6
CONTINUOUS
100
AcDbLine
 10
10.48658988003207
 20
2.36839999999762
 30
0.0
 11
9.183989880033396
 21
3.670999999996297
 31
0.0
  0
LINE
  5
1BACF
330
1BA91
100
AcDbEntity
  8
0
  6
CONTINUOUS
100
AcDbLine
 10
8.441048632286794
 20
3.740422038662712
 30
0.0
 11
7.365286662056551
 21
4.816184008892956
 31
0.0
  0
LINE
  5
1BAD0
330
1BA91
100
AcDbEntity
  8
0
  6
CONTINUOUS
100
AcDbLine
 10
8.649187485808454
 20
4.205802394221237
 30
0.0
 11
7.573469239788285
 21
5.281520640241407
 31
0.0
  0
LINE
  5
1BAD1
330
1BA91
100
AcDbEntity
  8
0
  6
CONTINUOUS
100
AcDbLine
 10
5.098773609864391
 20
7.082697061085115
 30
0.0
 11
4.087049469776277
 21
8.09442120117323
 31
0.0
  0
LINE
  5
1BAD2
330
1BA91
100
AcDbEntity
  8
0
  6
CONTINUOUS
100
AcDbLine
 10
5.396862364710167
 20
7.458127515319526
 30
0.0
 11
4.385146033871544
 21
8.469843846158149
 31
0.0
  0
LINE
  5
1BAD3
330
1BA91
100
AcDbEntity
  8
0
  6
CONTINUOUS
100
AcDbLine
 10
13.04801363231285
 20
0.4804954567970334
 30
0.0
 11
9.85750908911358
 21
3.670999999996297
 31
0.0
  0
LINE
  5
1BAD4
330
1BA91
100
AcDbEntity
  8
0
  6
CONTINUOUS
100
AcDbLine
 10
8.857326339330116
 20
4.671182749779763
 30
0.0
 11
7.781651817520021
 21
5.746857271589858
 31
0.0
  0
LINE
  5
1BAD5
330
1BA91
100
AcDbEntity
  8
0
  6
CONTINUOUS
100
AcDbLine
 10
5.694951119555943
 20
7.833557969553937
 30
0.0
 11
4.765409089118624
 21
8.763099999991255
 31
0.0
  0
LINE
  5
1BAD6
330
1BA91
100
AcDbEntity
  8
0
  6
CONTINUOUS
100
AcDbLine
 10
12.50286117236978
 20
1.699167125820288
 30
0.0
 11
9.68611877250287
 21
4.515909525687196
 31
0.0
  0
LINE
  5
1BAD7
330
1BA91
100
AcDbEntity
  8
0
  6
CONTINUOUS
100
AcDbLine
 10
9.065465192851777
 20
5.136563105338288
 30
0.0
 11
7.989834395251757
 21
6.21219390293831
 31
0.0
  0
LINE
  5
1BAD8
330
1BA91
100
AcDbEntity
  8
0
  6
CONTINUOUS
100
AcDbLine
 10
5.993039874401719
 20
8.208988423788346
 30
0.0
 11
5.43892829819881
 21
8.763099999991255
 31
0.0
  0
LINE
  5
1BAD9
330
1BA91
100
AcDbEntity
  8
0
  6
CONTINUOUS
100
AcDbLine
 10
11.95770871242671
 20
2.917838794843543
 30
0.0
 11
8.19801697298349
 21
6.677530534286761
 31
0.0
  0
LINE
  5
1BADA
330
1BA91
100
AcDbEntity
  8
0
  6
CONTINUOUS
100
AcDbLine
 10
6.291128629247495
 20
8.584418878022756
 30
0.0
 11
6.112447507278997
 21
8.763099999991255
 31
0.0
  0
LINE
  5
1BADB
330
1BA91
100
AcDbEntity
  8
0
  6
CONTINUOUS
100
AcDbLine
 10
11.41255625248364
 20
4.136510463866797
 30
0.0
 11
8.406199550715227
 21
7.142867165635211
 31
0.0
  0
LINE
  5
1BADC
330
1BA91
100
AcDbEntity
  8
0
  6
CONTINUOUS
100
AcDbLine
 10
10.86740379254057
 20
5.355182132890051
 30
0.0
 11
8.614382128446962
 21
7.608203796983664
 31
0.0
  0
LINE
  5
1BADD
330
1BA91
100
AcDbEntity
  8
0
  6
CONTINUOUS
100
AcDbLine
 10
10.3222513325975
 20
6.573853801913305
 30
0.0
 11
8.822564706178696
 21
8.073540428332114
 31
0.0
  0
LINE
  5
1BADE
330
1BA91
100
AcDbEntity
  8
0
  6
CONTINUOUS
100
AcDbLine
 10
9.777098872654436
 20
7.792525470936562
 30
0.0
 11
9.030747283910433
 21
8.538877059680566
 31
0.0
  0
ENDBLK
  5
1BC20
330
1BA91
100
AcDbEntity
  8
0
100
AcDbBlockEnd
  0
BLOCK
  5
1BC21
330
1BADF
100
AcDbEntity
  8
0
100
AcDbBlockBegin
  2
*X80
 70
     1
 10
0.0
 20
0.0
 30
0.0
  3
*X80
  1

  0
LINE
  5
1BAE0
330
1BADF
100
AcDbEntity
  8
0
  6
CONTINUOUS
100
AcDbLine
 10
10.67292308101235
 20
8.445076852443387
 30
0.0
 11
10.99094622856022
 21
8.763099999991255
 31
0.0
  0
LINE
  5
1BAE1
330
1BADF
100
AcDbEntity
  8
0
  6
CONTINUOUS
100
AcDbLine
 10
10.87250383178748
 20
7.971138394138331
 30
0.0
 11
11.6644654376404
 21
8.763099999991255
 31
0.0
  0
LINE
  5
1BAE2
330
1BADF
100
AcDbEntity
  8
0
  6
CONTINUOUS
100
AcDbLine
 10
11.07208458256261
 20
7.497199935833273
 30
0.0
 11
12.12126590876355
 21
8.546381262034211
 31
0.0
  0
LINE
  5
1BAE3
330
1BADF
100
AcDbEntity
  8
0
  6
CONTINUOUS
100
AcDbLine
 10
11.27166533333774
 20
7.023261477528216
 30
0.0
 11
12.32085164573666
 21
8.072447789927136
 31
0.0
  0
LINE
  5
1BAE4
330
1BADF
100
AcDbEntity
  8
0
  6
CONTINUOUS
100
AcDbLine
 10
11.47124608411287
 20
6.549323019223158
 30
0.0
 11
12.52043738270977
 21
7.59851431782006
 31
0.0
  0
LINE
  5
1BAE5
330
1BADF
100
AcDbEntity
  8
0
  6
CONTINUOUS
100
AcDbLine
 10
11.670826834888
 20
6.075384560918101
 30
0.0
 11
12.72002311968288
 21
7.124580845712984
 31
0.0
  0
LINE
  5
1BAE6
330
1BADF
100
AcDbEntity
  8
0
  6
CONTINUOUS
100
AcDbLine
 10
11.87040758566313
 20
5.601446102613043
 30
0.0
 11
12.91960885665599
 21
6.650647373605907
 31
0.0
  0
LINE
  5
1BAE7
330
1BADF
100
AcDbEntity
  8
0
  6
CONTINUOUS
100
AcDbLine
 10
12.06998833643825
 20
5.127507644307986
 30
0.0
 11
13.1191945936291
 21
6.176713901498832
 31
0.0
  0
LINE
  5
1BAE8
330
1BADF
100
AcDbEntity
  8
0
  6
CONTINUOUS
100
AcDbLine
 10
12.26956908721338
 20
4.65356918600293
 30
0.0
 11
13.31878033060221
 21
5.702780429391757
 31
0.0
  0
LINE
  5
1BAE9
330
1BADF
100
AcDbEntity
  8
0
  6
CONTINUOUS
100
AcDbLine
 10
12.46914983798851
 20
4.179630727697873
 30
0.0
 11
13.51836606757532
 21
5.228846957284683
 31
0.0
  0
LINE
  5
1BAEA
330
1BADF
100
AcDbEntity
  8
0
  6
CONTINUOUS
100
AcDbLine
 10
12.66873058876364
 20
3.705692269392816
 30
0.0
 11
13.71795180454843
 21
4.754913485177607
 31
0.0
  0
LINE
  5
1BAEB
330
1BADF
100
AcDbEntity
  8
0
  6
CONTINUOUS
100
AcDbLine
 10
12.86831133953877
 20
3.231753811087759
 30
0.0
 11
13.91753754152154
 21
4.280980013070531
 31
0.0
  0
LINE
  5
1BAEC
330
1BADF
100
AcDbEntity
  8
0
  6
CONTINUOUS
100
AcDbLine
 10
13.0678920903139
 20
2.757815352782702
 30
0.0
 11
14.11712327849465
 21
3.807046540963456
 31
0.0
  0
LINE
  5
1BAED
330
1BADF
100
AcDbEntity
  8
0
  6
CONTINUOUS
100
AcDbLine
 10
13.26747284108903
 20
2.283876894477644
 30
0.0
 11
14.31670901546777
 21
3.333113068856379
 31
0.0
  0
LINE
  5
1BAEE
330
1BADF
100
AcDbEntity
  8
0
  6
CONTINUOUS
100
AcDbLine
 10
16.36767838827179
 20
8.751678487061342
 30
0.0
 11
16.50332410898388
 21
8.887324207773432
 31
0.0
  0
LINE
  5
1BAEF
330
1BADF
100
AcDbEntity
  8
0
  6
CONTINUOUS
100
AcDbLine
 10
15.96190732182191
 20
7.67238821153127
 30
0.0
 11
16.68735328004734
 21
8.397834169756699
 31
0.0
  0
LINE
  5
1BAF0
330
1BADF
100
AcDbEntity
  8
0
  6
CONTINUOUS
100
AcDbLine
 10
15.55613625537202
 20
6.593097936001196
 30
0.0
 11
16.87138245111079
 21
7.908344131739965
 31
0.0
  0
LINE
  5
1BAF1
330
1BADF
100
AcDbEntity
  8
0
  6
CONTINUOUS
100
AcDbLine
 10
15.15036518892213
 20
5.513807660471122
 30
0.0
 11
17.05541162217424
 21
7.418854093723231
 31
0.0
  0
LINE
  5
1BAF2
330
1BADF
100
AcDbEntity
  8
0
  6
CONTINUOUS
100
AcDbLine
 10
14.74459412247225
 20
4.434517384941048
 30
0.0
 11
17.2394407932377
 21
6.929364055706499
 31
0.0
  0
LINE
  5
1BAF3
330
1BADF
100
AcDbEntity
  8
0
  6
CONTINUOUS
100
AcDbLine
 10
14.33882305602236
 20
3.355227109410975
 30
0.0
 11
17.42346996430115
 21
6.439874017689766
 31
0.0
  0
LINE
  5
1BAF4
330
1BADF
100
AcDbEntity
  8
0
  6
CONTINUOUS
100
AcDbLine
 10
13.46705359186416
 20
1.809938436172586
 30
0.0
 11
16.0819338255367
 21
4.424818669845129
 31
0.0
  0
LINE
  5
1BAF5
330
1BADF
100
AcDbEntity
  8
0
  6
CONTINUOUS
100
AcDbLine
 10
16.63283254238972
 20
4.975717386698149
 30
0.0
 11
17.60749913536461
 21
5.950383979673033
 31
0.0
  0
LINE
  5
1BAF6
330
1BADF
100
AcDbEntity
  8
0
  6
CONTINUOUS
100
AcDbLine
 10
13.66663434263929
 20
1.335999977867529
 30
0.0
 11
15.67604797733754
 21
3.345413612565779
 31
0.0
  0
LINE
  5
1BAF7
330
1BADF
100
AcDbEntity
  8
0
  6
CONTINUOUS
100
AcDbLine
 10
13.86621509341442
 20
0.8620615195624723
 30
0.0
 11
15.27016212913838
 21
2.26600855528643
 31
0.0
  0
LINE
  5
1BAF8
330
1BADF
100
AcDbEntity
  8
0
  6
CONTINUOUS
100
AcDbLine
 10
16.81682257348267
 20
4.486188208710908
 30
0.0
 11
17.79152830642806
 21
5.460893941656299
 31
0.0
  0
LINE
  5
1BAF9
330
1BADF
100
AcDbEntity
  8
0
  6
CONTINUOUS
100
AcDbLine
 10
17.00081260457561
 20
3.996659030723667
 30
0.0
 11
17.97555747749151
 21
4.971403903639565
 31
0.0
  0
LINE
  5
1BAFA
330
1BADF
100
AcDbEntity
  8
0
  6
CONTINUOUS
100
AcDbLine
 10
20.74362343514722
 20
8.412989070375462
 30
0.0
 11
21.09373436476302
 21
8.763099999991256
 31
0.0
  0
LINE
  5
1BAFB
330
1BADF
100
AcDbEntity
  8
0
  6
CONTINUOUS
100
AcDbLine
 10
20.25401257174777
 20
7.249858997895826
 30
0.0
 11
21.7672535738432
 21
8.763099999991255
 31
0.0
  0
LINE
  5
1BAFC
330
1BADF
100
AcDbEntity
  8
0
  6
CONTINUOUS
100
AcDbLine
 10
14.06579584418955
 20
0.3881230612574149
 30
0.0
 11
14.86427628093921
 21
1.186603498007082
 31
0.0
  0
LINE
  5
1BAFD
330
1BADF
100
AcDbEntity
  8
0
  6
CONTINUOUS
100
AcDbLine
 10
14.26537659496467
 20
-0.0858153970476412
 30
0.0
 11
14.45839043274005
 21
0.1071984407277329
 31
0.0
  0
LINE
  5
1BAFE
330
1BADF
100
AcDbEntity
  8
0
  6
CONTINUOUS
100
AcDbLine
 10
17.18480263566856
 20
3.507129852736426
 30
0.0
 11
18.15958664855496
 21
4.481913865622833
 31
0.0
  0
LINE
  5
1BAFF
330
1BADF
100
AcDbEntity
  8
0
  6
CONTINUOUS
100
AcDbLine
 10
17.3687926667615
 20
3.017600674749186
 30
0.0
 11
18.34361581961842
 21
3.9924238276061
 31
0.0
  0
LINE
  5
1BB00
330
1BADF
100
AcDbEntity
  8
0
  6
CONTINUOUS
100
AcDbLine
 10
19.76440170834832
 20
6.086728925416191
 30
0.0
 11
22.33924590259489
 21
8.661573119662755
 31
0.0
  0
LINE
  5
1BB01
330
1BADF
100
AcDbEntity
  8
0
  6
CONTINUOUS
100
AcDbLine
 10
19.27479084494887
 20
4.923598852936555
 30
0.0
 11
21.84929622842713
 21
7.498104236414807
 31
0.0
  0
LINE
  5
1BB02
330
1BADF
100
AcDbEntity
  8
0
  6
CONTINUOUS
100
AcDbLine
 10
17.55278269785445
 20
2.528071496761945
 30
0.0
 11
18.52764499068187
 21
3.502933789589366
 31
0.0
  0
LINE
  5
1BB03
330
1BADF
100
AcDbEntity
  8
0
  6
CONTINUOUS
100
AcDbLine
 10
18.78517998154942
 20
3.760468780456919
 30
0.0
 11
21.35934655425936
 21
6.33463535316686
 31
0.0
  0
LINE
  5
1BB04
330
1BADF
100
AcDbEntity
  8
0
  6
CONTINUOUS
100
AcDbLine
 10
17.73677272894739
 20
2.038542318774704
 30
0.0
 11
20.8693968800916
 21
5.171166469918914
 31
0.0
  0
LINE
  5
1BB05
330
1BADF
100
AcDbEntity
  8
0
  6
CONTINUOUS
100
AcDbLine
 10
17.92076276004034
 20
1.549013140787464
 30
0.0
 11
20.37944720592384
 21
4.007697586670968
 31
0.0
  0
LINE
  5
1BB06
330
1BADF
100
AcDbEntity
  8
0
  6
CONTINUOUS
100
AcDbLine
 10
18.10475279113329
 20
1.059483962800223
 30
0.0
 11
19.88949753175608
 21
2.84422870342302
 31
0.0
  0
LINE
  5
1BB07
330
1BADF
100
AcDbEntity
  8
0
  6
CONTINUOUS
100
AcDbLine
 10
18.28874282222623
 20
0.5699547848129822
 30
0.0
 11
19.39954785758832
 21
1.680759820175074
 31
0.0
  0
LINE
  5
1BB08
330
1BADF
100
AcDbEntity
  8
0
  6
CONTINUOUS
100
AcDbLine
 10
18.47273285331918
 20
0.0804256068257416
 30
0.0
 11
18.90959818342056
 21
0.517290936927127
 31
0.0
  0
LINE
  5
1BB09
330
1BADF
100
AcDbEntity
  8
0
  6
CONTINUOUS
100
AcDbLine
 10
14.3590401358224
 20
-0.1570118376323384
 30
0.0
 11
14.24903296539946
 21
-0.0470046672093929
 31
0.0
  0
LINE
  5
1BB0A
330
1BADF
100
AcDbEntity
  8
0
  6
CONTINUOUS
100
AcDbLine
 10
14.54309291258661
 20
0.332454594683643
 30
0.0
 11
13.75908329123172
 21
1.116464216038529
 31
0.0
  0
LINE
  5
1BB0B
330
1BADF
100
AcDbEntity
  8
0
  6
CONTINUOUS
100
AcDbLine
 10
14.72714568935081
 20
0.8219210269996244
 30
0.0
 11
13.26913361706399
 21
2.27993309928645
 31
0.0
  0
LINE
  5
1BB0C
330
1BADF
100
AcDbEntity
  8
0
  6
CONTINUOUS
100
AcDbLine
 10
14.91119846611502
 20
1.311387459315606
 30
0.0
 11
12.77918394289625
 21
3.443401982534371
 31
0.0
  0
LINE
  5
1BB0D
330
1BADF
100
AcDbEntity
  8
0
  6
CONTINUOUS
100
AcDbLine
 10
15.09525124287922
 20
1.800853891631587
 30
0.0
 11
12.28923426872852
 21
4.606870865782293
 31
0.0
  0
LINE
  5
1BB0E
330
1BADF
100
AcDbEntity
  8
0
  6
CONTINUOUS
100
AcDbLine
 10
15.27930401964343
 20
2.290320323947569
 30
0.0
 11
11.79928459456078
 21
5.770339749030213
 31
0.0
  0
LINE
  5
1BB0F
330
1BADF
100
AcDbEntity
  8
0
  6
CONTINUOUS
100
AcDbLine
 10
15.46335679640763
 20
2.77978675626355
 30
0.0
 11
14.48885470994921
 21
3.754288842721972
 31
0.0
  0
LINE
  5
1BB10
330
1BADF
100
AcDbEntity
  8
0
  6
CONTINUOUS
100
AcDbLine
 10
13.88507249233704
 20
4.358071060334137
 30
0.0
 11
11.30933492039305
 21
6.933808632278135
 31
0.0
  0
LINE
  5
1BB11
330
1BADF
100
AcDbEntity
  8
0
  6
CONTINUOUS
100
AcDbLine
 10
18.75840522805855
 20
0.1582575336928151
 30
0.0
 11
18.25383727664818
 21
0.6628254851031863
 31
0.0
  0
LINE
  5
1BB12
330
1BADF
100
AcDbEntity
  8
0
  6
CONTINUOUS
100
AcDbLine
 10
15.64740957317184
 20
3.269253188579531
 30
0.0
 11
14.67288388101266
 21
4.243778880738705
 31
0.0
  0
LINE
  5
1BB13
330
1BADF
100
AcDbEntity
  8
0
  6
CONTINUOUS
100
AcDbLine
 10
13.39509276772158
 20
5.521569994029786
 30
0.0
 11
10.81938524622531
 21
8.097277515526056
 31
0.0
  0
LINE
  5
1BB14
330
1BADF
100
AcDbEntity
  8
0
  6
CONTINUOUS
100
AcDbLine
 10
18.95798597883369
 20
0.6321959919978686
 30
0.0
 11
17.84825644852853
 21
1.741925522303024
 31
0.0
  0
LINE
  5
1BB15
330
1BADF
100
AcDbEntity
  8
0
  6
CONTINUOUS
100
AcDbLine
 10
19.15756672960882
 20
1.106134450302922
 30
0.0
 11
17.44267562040888
 21
2.821025559502861
 31
0.0
  0
LINE
  5
1BB16
330
1BADF
100
AcDbEntity
  8
0
  6
CONTINUOUS
100
AcDbLine
 10
15.83146234993604
 20
3.758719620895513
 30
0.0
 11
14.85691305207612
 21
4.733268918755439
 31
0.0
  0
LINE
  5
1BB17
330
1BADF
100
AcDbEntity
  8
0
  6
CONTINUOUS
100
AcDbLine
 10
16.01551512670025
 20
4.248186053211494
 30
0.0
 11
15.04094222313957
 21
5.222758956772172
 31
0.0
  0
LINE
  5
1BB18
330
1BADF
100
AcDbEntity
  8
0
  6
CONTINUOUS
100
AcDbLine
 10
12.90511304310612
 20
6.685068927725435
 30
0.0
 11
10.8270819708403
 21
8.763099999991255
 31
0.0
  0
LINE
  5
1BB19
330
1BADF
100
AcDbEntity
  8
0
  6
CONTINUOUS
100
AcDbLine
 10
12.41513331849066
 20
7.848567861421083
 30
0.0
 11
11.50060117992049
 21
8.763099999991255
 31
0.0
  0
LINE
  5
1BB1A
330
1BADF
100
AcDbEntity
  8
0
  6
CONTINUOUS
100
AcDbLine
 10
19.35714748038395
 20
1.580072908607975
 30
0.0
 11
17.03709479228923
 21
3.900125596702697
 31
0.0
  0
LINE
  5
1BB1B
330
1BADF
100
AcDbEntity
  8
0
  6
CONTINUOUS
100
AcDbLine
 10
19.55672823115909
 20
2.054011366913028
 30
0.0
 11
16.63151396416958
 21
4.979225633902534
 31
0.0
  0
LINE
  5
1BB1C
330
1BADF
100
AcDbEntity
  8
0
  6
CONTINUOUS
100
AcDbLine
 10
16.19956790346445
 20
4.737652485527476
 30
0.0
 11
15.22497139420302
 21
5.712248994788904
 31
0.0
  0
LINE
  5
1BB1D
330
1BADF
100
AcDbEntity
  8
0
  6
CONTINUOUS
100
AcDbLine
 10
16.38362068022866
 20
5.227118917843457
 30
0.0
 11
15.40900056526648
 21
6.201739032805637
 31
0.0
  0
LINE
  5
1BB1E
330
1BADF
100
AcDbEntity
  8
0
  6
CONTINUOUS
100
AcDbLine
 10
19.75630898193422
 20
2.527949825218081
 30
0.0
 11
18.70774536448286
 21
3.576513442669441
 31
0.0
  0
LINE
  5
1BB1F
330
1BADF
100
AcDbEntity
  8
0
  6
CONTINUOUS
100
AcDbLine
 10
19.95588973270936
 20
3.001888283523134
 30
0.0
 11
18.90726987211446
 21
4.050508144118028
 31
0.0
  0
LINE
  5
1BB20
330
1BADF
100
AcDbEntity
  8
0
  6
CONTINUOUS
100
AcDbLine
 10
20.15547048348449
 20
3.475826741828186
 30
0.0
 11
19.10679437974606
 21
4.524502845566614
 31
0.0
  0
LINE
  5
1BB21
330
1BADF
100
AcDbEntity
  8
0
  6
CONTINUOUS
100
AcDbLine
 10
20.35505123425962
 20
3.94976520013324
 30
0.0
 11
19.30631888737766
 21
4.998497547015201
 31
0.0
  0
LINE
  5
1BB22
330
1BADF
100
AcDbEntity
  8
0
  6
CONTINUOUS
100
AcDbLine
 10
20.55463198503475
 20
4.423703658438292
 30
0.0
 11
19.50584339500926
 21
5.472492248463787
 31
0.0
  0
LINE
  5
1BB23
330
1BADF
100
AcDbEntity
  8
0
  6
CONTINUOUS
100
AcDbLine
 10
18.37481191085755
 20
3.909446896294752
 30
0.0
 11
15.59302973632993
 21
6.691229070822371
 31
0.0
  0
LINE
  5
1BB24
330
1BADF
100
AcDbEntity
  8
0
  6
CONTINUOUS
100
AcDbLine
 10
17.96904084440766
 20
4.988737171824825
 30
0.0
 11
15.77705890739338
 21
7.180719108839104
 31
0.0
  0
LINE
  5
1BB25
330
1BADF
100
AcDbEntity
  8
0
  6
CONTINUOUS
100
AcDbLine
 10
17.56326977795777
 20
6.068027447354899
 30
0.0
 11
15.96108807845684
 21
7.670209146855838
 31
0.0
  0
LINE
  5
1BB26
330
1BADF
100
AcDbEntity
  8
0
  6
CONTINUOUS
100
AcDbLine
 10
17.15749871150789
 20
7.147317722884972
 30
0.0
 11
16.14511724952029
 21
8.15969918487257
 31
0.0
  0
LINE
  5
1BB27
330
1BADF
100
AcDbEntity
  8
0
  6
CONTINUOUS
100
AcDbLine
 10
16.751727645058
 20
8.226607998415046
 30
0.0
 11
16.32914642058374
 21
8.649189222889303
 31
0.0
  0
LINE
  5
1BB28
330
1BADF
100
AcDbEntity
  8
0
  6
CONTINUOUS
100
AcDbLine
 10
20.75421273580989
 20
4.897642116743345
 30
0.0
 11
19.70536790264086
 21
5.946486949912374
 31
0.0
  0
LINE
  5
1BB29
330
1BADF
100
AcDbEntity
  8
0
  6
CONTINUOUS
100
AcDbLine
 10
20.95379348658502
 20
5.371580575048398
 30
0.0
 11
19.90489241027246
 21
6.42048165136096
 31
0.0
  0
LINE
  5
1BB2A
330
1BADF
100
AcDbEntity
  8
0
  6
CONTINUOUS
100
AcDbLine
 10
21.15337423736015
 20
5.845519033353452
 30
0.0
 11
20.10441691790406
 21
6.894476352809547
 31
0.0
  0
LINE
  5
1BB2B
330
1BADF
100
AcDbEntity
  8
0
  6
CONTINUOUS
100
AcDbLine
 10
21.35295498813529
 20
6.319457491658505
 30
0.0
 11
20.30394142553566
 21
7.368471054258134
 31
0.0
  0
LINE
  5
1BB2C
330
1BADF
100
AcDbEntity
  8
0
  6
CONTINUOUS
100
AcDbLine
 10
21.55253573891042
 20
6.793395949963558
 30
0.0
 11
20.50346593316726
 21
7.842465755706721
 31
0.0
  0
LINE
  5
1BB2D
330
1BADF
100
AcDbEntity
  8
0
  6
CONTINUOUS
100
AcDbLine
 10
21.75211648968556
 20
7.267334408268612
 30
0.0
 11
20.70299044079886
 21
8.316460457155308
 31
0.0
  0
LINE
  5
1BB2E
330
1BADF
100
AcDbEntity
  8
0
  6
CONTINUOUS
100
AcDbLine
 10
21.95169724046069
 20
7.741272866573663
 30
0.0
 11
20.9298701070431
 21
8.763099999991256
 31
0.0
  0
LINE
  5
1BB2F
330
1BADF
100
AcDbEntity
  8
0
  6
CONTINUOUS
100
AcDbLine
 10
22.15127799123582
 20
8.215211324878716
 30
0.0
 11
21.60338931612328
 21
8.763099999991256
 31
0.0
  0
LINE
  5
1BB30
330
1BADF
100
AcDbEntity
  8
0
  6
CONTINUOUS
100
AcDbLine
 10
22.35085874201096
 20
8.689149783183769
 30
0.0
 11
22.27690852520347
 21
8.763099999991255
 31
0.0
  0
ENDBLK
  5
1BC22
330
1BADF
100
AcDbEntity
  8
0
100
AcDbBlockEnd
  0
BLOCK
  5
1BC23
330
1BB31
100
AcDbEntity
  8
0
100
AcDbBlockBegin
  2
*X81
 70
     1
 10
0.0
 20
0.0
 30
0.0
  3
*X81
  1

  0
LINE
  5
1BB32
330
1BB31
100
AcDbEntity
  8
0
  6
CONTINUOUS
100
AcDbLine
 10
23.19462913593892
 20
8.169917934846424
 30
0.0
 11
23.70775465517246
 21
8.683043454079957
 31
0.0
  0
LINE
  5
1BB33
330
1BB31
100
AcDbEntity
  8
0
  6
CONTINUOUS
100
AcDbLine
 10
22.64923161835078
 20
6.951001208178088
 30
0.0
 11
23.9159364069932
 21
8.217705996820516
 31
0.0
  0
LINE
  5
1BB34
330
1BB31
100
AcDbEntity
  8
0
  6
CONTINUOUS
100
AcDbLine
 10
22.10383410076263
 20
5.732084481509751
 30
0.0
 11
24.12411815881395
 21
7.752368539561078
 31
0.0
  0
LINE
  5
1BB35
330
1BB31
100
AcDbEntity
  8
0
  6
CONTINUOUS
100
AcDbLine
 10
21.55843658317447
 20
4.513167754841414
 30
0.0
 11
24.3322999106347
 21
7.287031082301639
 31
0.0
  0
LINE
  5
1BB36
330
1BB31
100
AcDbEntity
  8
0
  6
CONTINUOUS
100
AcDbLine
 10
21.01303906558632
 20
3.294251028173077
 30
0.0
 11
24.54048166245544
 21
6.821693625042199
 31
0.0
  0
LINE
  5
1BB37
330
1BB31
100
AcDbEntity
  8
0
  6
CONTINUOUS
100
AcDbLine
 10
20.46764154799817
 20
2.075334301504738
 30
0.0
 11
23.28571549467848
 21
4.89340824818505
 31
0.0
  0
LINE
  5
1BB38
330
1BB31
100
AcDbEntity
  8
0
  6
CONTINUOUS
100
AcDbLine
 10
19.92224403041002
 20
0.8564175748364002
 30
0.0
 11
22.74075865492779
 21
3.674932199354171
 31
0.0
  0
LINE
  5
1BB39
330
1BB31
100
AcDbEntity
  8
0
  6
CONTINUOUS
100
AcDbLine
 10
23.67305085490148
 20
5.280743608408048
 30
0.0
 11
24.74866341427619
 21
6.356356167782759
 31
0.0
  0
LINE
  5
1BB3A
330
1BB31
100
AcDbEntity
  8
0
  6
CONTINUOUS
100
AcDbLine
 10
23.88118970842314
 20
4.815363252849522
 30
0.0
 11
24.95684516609694
 21
5.89101871052332
 31
0.0
  0
LINE
  5
1BB3B
330
1BB31
100
AcDbEntity
  8
0
  6
CONTINUOUS
100
AcDbLine
 10
19.73925852647308
 20
-0.0000871381807288
 30
0.0
 11
23.4103456646501
 21
3.670999999996297
 31
0.0
  0
LINE
  5
1BB3C
330
1BB31
100
AcDbEntity
  8
0
  6
CONTINUOUS
100
AcDbLine
 10
24.0893285619448
 20
4.349982897290997
 30
0.0
 11
25.16502691791769
 21
5.42568125326388
 31
0.0
  0
LINE
  5
1BB3D
330
1BB31
100
AcDbEntity
  8
0
  6
CONTINUOUS
100
AcDbLine
 10
20.41282099582748
 20
-0.0000438779065108
 30
0.0
 11
21.64944178675636
 21
1.236576913022366
 31
0.0
  0
LINE
  5
1BB3E
330
1BB31
100
AcDbEntity
  8
0
  6
CONTINUOUS
100
AcDbLine
 10
22.78126487373161
 20
2.36839999999762
 30
0.0
 11
24.08386487373029
 21
3.670999999996297
 31
0.0
  0
LINE
  5
1BB3F
330
1BB31
100
AcDbEntity
  8
0
  6
CONTINUOUS
100
AcDbLine
 10
24.29746741546646
 20
3.884602541732471
 30
0.0
 11
25.37320866973843
 21
4.960343796004441
 31
0.0
  0
LINE
  5
1BB40
330
1BB31
100
AcDbEntity
  8
0
  6
CONTINUOUS
100
AcDbLine
 10
21.08638346518189
 20
-0.0000006176322938
 30
0.0
 11
21.10379033335899
 21
0.0174062505448083
 31
0.0
  0
LINE
  5
1BB41
330
1BB31
100
AcDbEntity
  8
0
  6
CONTINUOUS
100
AcDbLine
 10
23.4547840828118
 20
2.36839999999762
 30
0.0
 11
25.58139042155918
 21
4.495006338745002
 31
0.0
  0
LINE
  5
1BB42
330
1BB31
100
AcDbEntity
  8
0
  6
CONTINUOUS
100
AcDbLine
 10
29.30199999996933
 20
8.215615917155148
 30
0.0
 11
29.84948408280543
 21
8.763099999991255
 31
0.0
  0
LINE
  5
1BB43
330
1BB31
100
AcDbEntity
  8
0
  6
CONTINUOUS
100
AcDbLine
 10
24.12830329189199
 20
2.36839999999762
 30
0.0
 11
25.78957217337993
 21
4.029668881485562
 31
0.0
  0
LINE
  5
1BB44
330
1BB31
100
AcDbEntity
  8
0
  6
CONTINUOUS
100
AcDbLine
 10
29.30199999996933
 20
7.54209670807496
 30
0.0
 11
30.52300329188562
 21
8.763099999991255
 31
0.0
  0
LINE
  5
1BB45
330
1BB31
100
AcDbEntity
  8
0
  6
CONTINUOUS
100
AcDbLine
 10
24.80182250097217
 20
2.36839999999762
 30
0.0
 11
25.99775392520067
 21
3.564331424226122
 31
0.0
  0
LINE
  5
1BB46
330
1BB31
100
AcDbEntity
  8
0
  6
CONTINUOUS
100
AcDbLine
 10
29.30199999996933
 20
6.868577498994774
 30
0.0
 11
30.74199999996926
 21
8.308577498994712
 31
0.0
  0
LINE
  5
1BB47
330
1BB31
100
AcDbEntity
  8
0
  6
CONTINUOUS
100
AcDbLine
 10
25.13028238392013
 20
2.023340673865392
 30
0.0
 11
26.20593567702142
 21
3.098993966966683
 31
0.0
  0
LINE
  5
1BB48
330
1BB31
100
AcDbEntity
  8
0
  6
CONTINUOUS
100
AcDbLine
 10
25.33838066033617
 20
1.557919741201244
 30
0.0
 11
26.41411742884217
 21
2.633656509707244
 31
0.0
  0
LINE
  5
1BB49
330
1BB31
100
AcDbEntity
  8
0
  6
CONTINUOUS
100
AcDbLine
 10
25.54647893675221
 20
1.092498808537098
 30
0.0
 11
26.62229918066291
 21
2.168319052447804
 31
0.0
  0
LINE
  5
1BB4A
330
1BB31
100
AcDbEntity
  8
0
  6
CONTINUOUS
100
AcDbLine
 10
25.75457721316825
 20
0.62707787587295
 30
0.0
 11
26.83048093248366
 21
1.702981595188365
 31
0.0
  0
LINE
  5
1BB4B
330
1BB31
100
AcDbEntity
  8
0
  6
CONTINUOUS
100
AcDbLine
 10
29.30199999996933
 20
6.195058289914587
 30
0.0
 11
30.74199999996926
 21
7.635058289914522
 31
0.0
  0
LINE
  5
1BB4C
330
1BB31
100
AcDbEntity
  8
0
  6
CONTINUOUS
100
AcDbLine
 10
29.30199999996933
 20
5.521539080834401
 30
0.0
 11
30.74199999996926
 21
6.961539080834331
 31
0.0
  0
LINE
  5
1BB4D
330
1BB31
100
AcDbEntity
  8
0
  6
CONTINUOUS
100
AcDbLine
 10
29.30199999996933
 20
4.848019871754214
 30
0.0
 11
30.74199999996925
 21
6.288019871754143
 31
0.0
  0
LINE
  5
1BB4E
330
1BB31
100
AcDbEntity
  8
0
  6
CONTINUOUS
100
AcDbLine
 10
29.30199999996933
 20
4.174500662674028
 30
0.0
 11
30.74199999996925
 21
5.614500662673953
 31
0.0
  0
LINE
  5
1BB4F
330
1BB31
100
AcDbEntity
  8
0
  6
CONTINUOUS
100
AcDbLine
 10
25.96267548958429
 20
0.1616569432088024
 30
0.0
 11
27.18411854636669
 21
1.383099999991207
 31
0.0
  0
LINE
  5
1BB50
330
1BB31
100
AcDbEntity
  8
0
  6
CONTINUOUS
100
AcDbLine
 10
29.30199999996933
 20
3.500981453593841
 30
0.0
 11
30.74199999996925
 21
4.940981453593762
 31
0.0
  0
LINE
  5
1BB51
330
1BB31
100
AcDbEntity
  8
0
  6
CONTINUOUS
100
AcDbLine
 10
26.50763775544691
 20
0.0330999999912356
 30
0.0
 11
27.85763775544689
 21
1.383099999991223
 31
0.0
  0
LINE
  5
1BB52
330
1BB31
100
AcDbEntity
  8
0
  6
CONTINUOUS
100
AcDbLine
 10
29.30199999996933
 20
2.827462244513656
 30
0.0
 11
30.74199999996925
 21
4.267462244513574
 31
0.0
  0
LINE
  5
1BB53
330
1BB31
100
AcDbEntity
  8
0
  6
CONTINUOUS
100
AcDbLine
 10
27.18115696452709
 20
0.0330999999912356
 30
0.0
 11
28.6224847300034
 21
1.474427765467545
 31
0.0
  0
LINE
  5
1BB54
330
1BB31
100
AcDbEntity
  8
0
  6
CONTINUOUS
100
AcDbLine
 10
29.21067223449293
 20
2.062615269957069
 30
0.0
 11
30.74199999996924
 21
3.593943035433383
 31
0.0
  0
LINE
  5
1BB55
330
1BB31
100
AcDbEntity
  8
0
  6
CONTINUOUS
100
AcDbLine
 10
27.85467617360728
 20
0.0330999999912356
 30
0.0
 11
30.74199999996924
 21
2.920423826353195
 31
0.0
  0
LINE
  5
1BB56
330
1BB31
100
AcDbEntity
  8
0
  6
CONTINUOUS
100
AcDbLine
 10
28.57438609860264
 20
0.0792907159064073
 30
0.0
 11
30.69580928405405
 21
2.200713901357819
 31
0.0
  0
LINE
  5
1BB57
330
1BB31
100
AcDbEntity
  8
0
  6
CONTINUOUS
100
AcDbLine
 10
29.49443044814297
 20
0.3258158563665496
 30
0.0
 11
30.44928414359389
 21
1.280669551817477
 31
0.0
  0
LINE
  5
1BB58
330
1BB31
100
AcDbEntity
  8
0
  6
CONTINUOUS
100
AcDbLine
 10
19.59027867740337
 20
-0.0000967065718083
 30
0.0
 11
19.55485265190471
 21
0.035329318926844
 31
0.0
  0
LINE
  5
1BB59
330
1BB31
100
AcDbEntity
  8
0
  6
CONTINUOUS
100
AcDbLine
 10
20.26375463176586
 20
-0.0000534518541091
 30
0.0
 11
19.76305575737534
 21
0.5006454225364014
 31
0.0
  0
LINE
  5
1BB5A
330
1BB31
100
AcDbEntity
  8
0
  6
CONTINUOUS
100
AcDbLine
 10
20.93723058612834
 20
-0.0000101971364099
 30
0.0
 11
19.97125886284597
 21
0.965961526145958
 31
0.0
  0
LINE
  5
1BB5B
330
1BB31
100
AcDbEntity
  8
0
  6
CONTINUOUS
100
AcDbLine
 10
21.25514828313686
 20
0.355591314935257
 30
0.0
 11
20.1794619683166
 21
1.431277629755512
 31
0.0
  0
LINE
  5
1BB5C
330
1BB31
100
AcDbEntity
  8
0
  6
CONTINUOUS
100
AcDbLine
 10
21.46338838394921
 20
0.8208704232030986
 30
0.0
 11
20.38766507378723
 21
1.896593733365069
 31
0.0
  0
LINE
  5
1BB5D
330
1BB31
100
AcDbEntity
  8
0
  6
CONTINUOUS
100
AcDbLine
 10
21.67162848476155
 20
1.28614953147094
 30
0.0
 11
20.59586817925786
 21
2.361909836974626
 31
0.0
  0
LINE
  5
1BB5E
330
1BB31
100
AcDbEntity
  8
0
  6
CONTINUOUS
100
AcDbLine
 10
21.8798685855739
 20
1.751428639738782
 30
0.0
 11
20.80407128472849
 21
2.827225940584183
 31
0.0
  0
LINE
  5
1BB5F
330
1BB31
100
AcDbEntity
  8
0
  6
CONTINUOUS
100
AcDbLine
 10
22.08810868638624
 20
2.216707748006623
 30
0.0
 11
21.01227439019912
 21
3.292542044193739
 31
0.0
  0
LINE
  5
1BB60
330
1BB31
100
AcDbEntity
  8
0
  6
CONTINUOUS
100
AcDbLine
 10
22.60993564347543
 20
2.36839999999762
 30
0.0
 11
21.22047749566975
 21
3.757858147803296
 31
0.0
  0
LINE
  5
1BB61
330
1BB31
100
AcDbEntity
  8
0
  6
CONTINUOUS
100
AcDbLine
 10
23.28345485255561
 20
2.36839999999762
 30
0.0
 11
21.42868060114038
 21
4.223174251412853
 31
0.0
  0
LINE
  5
1BB62
330
1BB31
100
AcDbEntity
  8
0
  6
CONTINUOUS
100
AcDbLine
 10
26.29227406164219
 20
0.0330999999912356
 30
0.0
 11
25.80009199592872
 21
0.5252820657046957
 31
0.0
  0
LINE
  5
1BB63
330
1BB31
100
AcDbEntity
  8
0
  6
CONTINUOUS
100
AcDbLine
 10
23.9569740616358
 20
2.36839999999762
 30
0.0
 11
21.63688370661101
 21
4.688490355022409
 31
0.0
  0
LINE
  5
1BB64
330
1BB31
100
AcDbEntity
  8
0
  6
CONTINUOUS
100
AcDbLine
 10
26.96579327072237
 20
0.0330999999912356
 30
0.0
 11
25.2554132311971
 21
1.743480039516508
 31
0.0
  0
LINE
  5
1BB65
330
1BB31
100
AcDbEntity
  8
0
  6
CONTINUOUS
100
AcDbLine
 10
24.63049327071599
 20
2.36839999999762
 30
0.0
 11
23.32789327071731
 21
3.670999999996297
 31
0.0
  0
LINE
  5
1BB66
330
1BB31
100
AcDbEntity
  8
0
  6
CONTINUOUS
100
AcDbLine
 10
22.92098674744635
 20
4.077906523267254
 30
0.0
 11
21.84508681208164
 21
5.153806458631966
 31
0.0
  0
LINE
  5
1BB67
330
1BB31
100
AcDbEntity
  8
0
  6
CONTINUOUS
100
AcDbLine
 10
27.63931247980256
 20
0.0330999999912356
 30
0.0
 11
24.0014124797975
 21
3.670999999996297
 31
0.0
  0
LINE
  5
1BB68
330
1BB31
100
AcDbEntity
  8
0
  6
CONTINUOUS
100
AcDbLine
 10
23.129125600968
 20
4.5432868788258
 30
0.0
 11
22.05328991755227
 21
5.619122562241522
 31
0.0
  0
LINE
  5
1BB69
330
1BB31
100
AcDbEntity
  8
0
  6
CONTINUOUS
100
AcDbLine
 10
28.31283168888275
 20
0.0330999999912356
 30
0.0
 11
24.16488385994816
 21
4.181047828925828
 31
0.0
  0
LINE
  5
1BB6A
330
1BB31
100
AcDbEntity
  8
0
  6
CONTINUOUS
100
AcDbLine
 10
23.33726445448964
 20
5.008667234384345
 30
0.0
 11
22.2614930230229
 21
6.084438665851079
 31
0.0
  0
LINE
  5
1BB6B
330
1BB31
100
AcDbEntity
  8
0
  6
CONTINUOUS
100
AcDbLine
 10
28.86286302309502
 20
0.1565878748591523
 30
0.0
 11
27.63635089796295
 21
1.383099999991217
 31
0.0
  0
LINE
  5
1BB6C
330
1BB31
100
AcDbEntity
  8
0
  6
CONTINUOUS
100
AcDbLine
 10
26.43704649509776
 20
2.582404402856405
 30
0.0
 11
23.61992702019732
 21
5.399523877756844
 31
0.0
  0
LINE
  5
1BB6D
330
1BB31
100
AcDbEntity
  8
0
  6
CONTINUOUS
100
AcDbLine
 10
23.54540330801128
 20
5.47404758994289
 30
0.0
 11
22.46969612849353
 21
6.549754769460635
 31
0.0
  0
LINE
  5
1BB6E
330
1BB31
100
AcDbEntity
  8
0
  6
CONTINUOUS
100
AcDbLine
 10
29.39405087596853
 20
0.2989192310658284
 30
0.0
 11
28.30987010704312
 21
1.383099999991234
 31
0.0
  0
LINE
  5
1BB6F
330
1BB31
100
AcDbEntity
  8
0
  6
CONTINUOUS
100
AcDbLine
 10
25.89179548232307
 20
3.801174624711282
 30
0.0
 11
22.67789923396416
 21
7.015070873070191
 31
0.0
  0
LINE
  5
1BB70
330
1BB31
100
AcDbEntity
  8
0
  6
CONTINUOUS
100
AcDbLine
 10
29.79594438047407
 20
0.570544935640473
 30
0.0
 11
28.81310432793121
 21
1.553384988183336
 31
0.0
  0
LINE
  5
1BB71
330
1BB31
100
AcDbEntity
  8
0
  6
CONTINUOUS
100
AcDbLine
 10
25.34654446954838
 20
5.01994484656616
 30
0.0
 11
22.88610233943479
 21
7.480386976679748
 31
0.0
  0
LINE
  5
1BB72
330
1BB31
100
AcDbEntity
  8
0
  6
CONTINUOUS
100
AcDbLine
 10
30.13270398501416
 20
0.9073045401805646
 30
0.0
 11
29.14234640337737
 21
1.897662121817355
 31
0.0
  0
LINE
  5
1BB73
330
1BB31
100
AcDbEntity
  8
0
  6
CONTINUOUS
100
AcDbLine
 10
24.80129345677369
 20
6.238715068421037
 30
0.0
 11
23.09430544490542
 21
7.945703080289305
 31
0.0
  0
LINE
  5
1BB74
330
1BB31
100
AcDbEntity
  8
0
  6
CONTINUOUS
100
AcDbLine
 10
30.44581292956759
 20
1.26771480470732
 30
0.0
 11
29.30199999996933
 21
2.411527734305588
 31
0.0
  0
LINE
  5
1BB75
330
1BB31
100
AcDbEntity
  8
0
  6
CONTINUOUS
100
AcDbLine
 10
30.58814428577427
 20
1.798902657580827
 30
0.0
 11
29.30199999996933
 21
3.085046943385775
 31
0.0
  0
LINE
  5
1BB76
330
1BB31
100
AcDbEntity
  8
0
  6
CONTINUOUS
100
AcDbLine
 10
24.256042443999
 20
7.457485290275915
 30
0.0
 11
23.30250855037605
 21
8.411019183898862
 31
0.0
  0
LINE
  5
1BB77
330
1BB31
100
AcDbEntity
  8
0
  6
CONTINUOUS
100
AcDbLine
 10
23.71079143122431
 20
8.676255512130794
 30
0.0
 11
23.51071165584668
 21
8.876335287508418
 31
0.0
  0
LINE
  5
1BB78
330
1BB31
100
AcDbEntity
  8
0
  6
CONTINUOUS
100
AcDbLine
 10
30.73047564198095
 20
2.330090510454333
 30
0.0
 11
29.30199999996933
 21
3.758566152465961
 31
0.0
  0
LINE
  5
1BB79
330
1BB31
100
AcDbEntity
  8
0
  6
CONTINUOUS
100
AcDbLine
 10
30.74199999996924
 20
2.992085361546236
 30
0.0
 11
29.30199999996933
 21
4.432085361546148
 31
0.0
  0
LINE
  5
1BB7A
330
1BB31
100
AcDbEntity
  8
0
  6
CONTINUOUS
100
AcDbLine
 10
30.74199999996924
 20
3.665604570626419
 30
0.0
 11
29.30199999996933
 21
5.105604570626333
 31
0.0
  0
LINE
  5
1BB7B
330
1BB31
100
AcDbEntity
  8
0
  6
CONTINUOUS
100
AcDbLine
 10
30.74199999996925
 20
4.339123779706602
 30
0.0
 11
29.30199999996933
 21
5.77912377970652
 31
0.0
  0
LINE
  5
1BB7C
330
1BB31
100
AcDbEntity
  8
0
  6
CONTINUOUS
100
AcDbLine
 10
30.74199999996925
 20
5.012642988786785
 30
0.0
 11
29.30199999996933
 21
6.452642988786707
 31
0.0
  0
LINE
  5
1BB7D
330
1BB31
100
AcDbEntity
  8
0
  6
CONTINUOUS
100
AcDbLine
 10
30.74199999996925
 20
5.68616219786697
 30
0.0
 11
29.30199999996933
 21
7.126162197866894
 31
0.0
  0
LINE
  5
1BB7E
330
1BB31
100
AcDbEntity
  8
0
  6
CONTINUOUS
100
AcDbLine
 10
30.74199999996925
 20
6.359681406947153
 30
0.0
 11
29.30199999996933
 21
7.799681406947081
 31
0.0
  0
LINE
  5
1BB7F
330
1BB31
100
AcDbEntity
  8
0
  6
CONTINUOUS
100
AcDbLine
 10
30.74199999996926
 20
7.033200616027337
 30
0.0
 11
29.30199999996933
 21
8.473200616027269
 31
0.0
  0
LINE
  5
1BB80
330
1BB31
100
AcDbEntity
  8
0
  6
CONTINUOUS
100
AcDbLine
 10
30.74199999996926
 20
7.706719825107518
 30
0.0
 11
29.68561982508552
 21
8.763099999991255
 31
0.0
  0
LINE
  5
1BB81
330
1BB31
100
AcDbEntity
  8
0
  6
CONTINUOUS
100
AcDbLine
 10
30.74199999996926
 20
8.380239034187703
 30
0.0
 11
30.35913903416571
 21
8.763099999991255
 31
0.0
  0
ENDBLK
  5
1BC24
330
1BB31
100
AcDbEntity
  8
0
100
AcDbBlockEnd
  0
BLOCK
  5
1BC25
330
1BB82
100
AcDbEntity
  8
0
100
AcDbBlockBegin
  2
*X82
 70
     1
 10
0.0
 20
0.0
 30
0.0
  3
*X82
  1

  0
LINE
  5
1BB83
330
1BB82
100
AcDbEntity
  8
0
  6
CONTINUOUS
100
AcDbLine
 10
31.64199999996833
 20
8.5350582899136
 30
0.0
 11
31.87004171004599
 21
8.763099999991255
 31
0.0
  0
LINE
  5
1BB84
330
1BB82
100
AcDbEntity
  8
0
  6
CONTINUOUS
100
AcDbLine
 10
31.64199999996833
 20
7.861539080833413
 30
0.0
 11
32.54356091912618
 21
8.763099999991255
 31
0.0
  0
LINE
  5
1BB85
330
1BB82
100
AcDbEntity
  8
0
  6
CONTINUOUS
100
AcDbLine
 10
31.64199999996833
 20
7.188019871753227
 30
0.0
 11
33.08199999996839
 21
8.628019871753281
 31
0.0
  0
LINE
  5
1BB86
330
1BB82
100
AcDbEntity
  8
0
  6
CONTINUOUS
100
AcDbLine
 10
31.64199999996833
 20
6.514500662673041
 30
0.0
 11
33.08199999996839
 21
7.954500662673095
 31
0.0
  0
LINE
  5
1BB87
330
1BB82
100
AcDbEntity
  8
0
  6
CONTINUOUS
100
AcDbLine
 10
31.64199999996833
 20
5.840981453592855
 30
0.0
 11
33.08199999996839
 21
7.28098145359291
 31
0.0
  0
LINE
  5
1BB88
330
1BB82
100
AcDbEntity
  8
0
  6
CONTINUOUS
100
AcDbLine
 10
31.64199999996833
 20
5.167462244512668
 30
0.0
 11
33.08199999996839
 21
6.607462244512723
 31
0.0
  0
LINE
  5
1BB89
330
1BB82
100
AcDbEntity
  8
0
  6
CONTINUOUS
100
AcDbLine
 10
31.64199999996833
 20
4.493943035432482
 30
0.0
 11
33.08199999996839
 21
5.933943035432536
 31
0.0
  0
LINE
  5
1BB8A
330
1BB82
100
AcDbEntity
  8
0
  6
CONTINUOUS
100
AcDbLine
 10
31.64199999996833
 20
3.820423826352294
 30
0.0
 11
33.08199999996839
 21
5.260423826352349
 31
0.0
  0
LINE
  5
1BB8B
330
1BB82
100
AcDbEntity
  8
0
  6
CONTINUOUS
100
AcDbLine
 10
31.64199999996833
 20
3.146904617272108
 30
0.0
 11
33.08199999996839
 21
4.586904617272163
 31
0.0
  0
LINE
  5
1BB8C
330
1BB82
100
AcDbEntity
  8
0
  6
CONTINUOUS
100
AcDbLine
 10
36.23199999996837
 20
8.410423826352327
 30
0.0
 11
36.58467617360729
 21
8.763099999991255
 31
0.0
  0
LINE
  5
1BB8D
330
1BB82
100
AcDbEntity
  8
0
  6
CONTINUOUS
100
AcDbLine
 10
36.23199999996837
 20
7.73690461727214
 30
0.0
 11
37.25819538268748
 21
8.763099999991255
 31
0.0
  0
LINE
  5
1BB8E
330
1BB82
100
AcDbEntity
  8
0
  6
CONTINUOUS
100
AcDbLine
 10
31.64323424774199
 20
2.474619655965573
 30
0.0
 11
33.08199999996839
 21
3.913385408191976
 31
0.0
  0
LINE
  5
1BB8F
330
1BB82
100
AcDbEntity
  8
0
  6
CONTINUOUS
100
AcDbLine
 10
31.74419223861915
 20
1.902058437762552
 30
0.0
 11
33.08199999996839
 21
3.239866199111789
 31
0.0
  0
LINE
  5
1BB90
330
1BB82
100
AcDbEntity
  8
0
  6
CONTINUOUS
100
AcDbLine
 10
36.23199999996837
 20
7.063385408191953
 30
0.0
 11
37.67199999996831
 21
8.503385408191894
 31
0.0
  0
LINE
  5
1BB91
330
1BB82
100
AcDbEntity
  8
0
  6
CONTINUOUS
100
AcDbLine
 10
36.23199999996837
 20
6.389866199111767
 30
0.0
 11
37.67199999996831
 21
7.829866199111708
 31
0.0
  0
LINE
  5
1BB92
330
1BB82
100
AcDbEntity
  8
0
  6
CONTINUOUS
100
AcDbLine
 10
31.91111233414976
 20
1.39545932421297
 30
0.0
 11
33.08199999996839
 21
2.566346990031603
 31
0.0
  0
LINE
  5
1BB93
330
1BB82
100
AcDbEntity
  8
0
  6
CONTINUOUS
100
AcDbLine
 10
36.23199999996837
 20
5.71634699003158
 30
0.0
 11
37.67199999996831
 21
7.156346990031522
 31
0.0
  0
LINE
  5
1BB94
330
1BB82
100
AcDbEntity
  8
0
  6
CONTINUOUS
100
AcDbLine
 10
32.1576374746103
 20
0.9684652555933289
 30
0.0
 11
33.20642631446081
 21
2.017254095443838
 31
0.0
  0
LINE
  5
1BB95
330
1BB82
100
AcDbEntity
  8
0
  6
CONTINUOUS
100
AcDbLine
 10
36.23199999996837
 20
5.042827780951393
 30
0.0
 11
37.67199999996831
 21
6.482827780951334
 31
0.0
  0
LINE
  5
1BB96
330
1BB82
100
AcDbEntity
  8
0
  6
CONTINUOUS
100
AcDbLine
 10
32.47774023927325
 20
0.6150488111760914
 30
0.0
 11
33.49903056428258
 21
1.636339136185419
 31
0.0
  0
LINE
  5
1BB97
330
1BB82
100
AcDbEntity
  8
0
  6
CONTINUOUS
100
AcDbLine
 10
36.23199999996837
 20
4.369308571871207
 30
0.0
 11
37.67199999996831
 21
5.809308571871148
 31
0.0
  0
LINE
  5
1BB98
330
1BB82
100
AcDbEntity
  8
0
  6
CONTINUOUS
100
AcDbLine
 10
32.84396249154443
 20
0.3077518543670883
 30
0.0
 11
33.93324121824649
 21
1.397030581069146
 31
0.0
  0
LINE
  5
1BB99
330
1BB82
100
AcDbEntity
  8
0
  6
CONTINUOUS
100
AcDbLine
 10
36.23199999996837
 20
3.695789362791021
 30
0.0
 11
37.67199999996831
 21
5.135789362790963
 31
0.0
  0
LINE
  5
1BB9A
330
1BB82
100
AcDbEntity
  8
0
  6
CONTINUOUS
100
AcDbLine
 10
33.30186329036846
 20
0.0921334441109263
 30
0.0
 11
34.46442907112041
 21
1.254699224862875
 31
0.0
  0
LINE
  5
1BB9B
330
1BB82
100
AcDbEntity
  8
0
  6
CONTINUOUS
100
AcDbLine
 10
36.23199999996837
 20
3.022270153710834
 30
0.0
 11
37.67199999996831
 21
4.462270153710776
 31
0.0
  0
LINE
  5
1BB9C
330
1BB82
100
AcDbEntity
  8
0
  6
CONTINUOUS
100
AcDbLine
 10
33.79565647746294
 20
-0.0875925778747773
 30
0.0
 11
35.24350171668284
 21
1.360252661345124
 31
0.0
  0
LINE
  5
1BB9D
330
1BB82
100
AcDbEntity
  8
0
  6
CONTINUOUS
100
AcDbLine
 10
36.18336676155003
 20
2.300117706212308
 30
0.0
 11
37.67199999996831
 21
3.788750944630589
 31
0.0
  0
LINE
  5
1BB9E
330
1BB82
100
AcDbEntity
  8
0
  6
CONTINUOUS
100
AcDbLine
 10
34.37182574910968
 20
-0.184942515308224
 30
0.0
 11
37.67199999996831
 21
3.115231735550402
 31
0.0
  0
LINE
  5
1BB9F
330
1BB82
100
AcDbEntity
  8
0
  6
CONTINUOUS
100
AcDbLine
 10
35.0453449581892
 20
-0.1849425153088955
 30
0.0
 11
37.66345697088136
 21
2.433169497383271
 31
0.0
  0
LINE
  5
1BBA0
330
1BB82
100
AcDbEntity
  8
0
  6
CONTINUOUS
100
AcDbLine
 10
35.98667157609191
 20
0.0828648935136398
 30
0.0
 11
37.51927401744566
 21
1.615467334867382
 31
0.0
  0
LINE
  5
1BBA1
330
1BB82
100
AcDbEntity
  8
0
  6
CONTINUOUS
100
AcDbLine
 10
32.27747408544484
 20
0.7830920669904482
 30
0.0
 11
32.24716210471949
 21
0.8134040477157893
 31
0.0
  0
LINE
  5
1BBA2
330
1BB82
100
AcDbEntity
  8
0
  6
CONTINUOUS
100
AcDbLine
 10
33.83656881101902
 20
-0.1024834495035494
 30
0.0
 11
31.72538911593758
 21
2.008696245577891
 31
0.0
  0
LINE
  5
1BBA3
330
1BB82
100
AcDbEntity
  8
0
  6
CONTINUOUS
100
AcDbLine
 10
34.5925470859041
 20
-0.1849425153084434
 30
0.0
 11
31.64199999996833
 21
2.765604570627322
 31
0.0
  0
LINE
  5
1BBA4
330
1BB82
100
AcDbEntity
  8
0
  6
CONTINUOUS
100
AcDbLine
 10
35.26201302775981
 20
-0.1808892480839752
 30
0.0
 11
31.64199999996833
 21
3.439123779707508
 31
0.0
  0
LINE
  5
1BBA5
330
1BB82
100
AcDbEntity
  8
0
  6
CONTINUOUS
100
AcDbLine
 10
35.75580621485512
 20
-0.0011632260990879
 30
0.0
 11
34.51294304365551
 21
1.241699945100514
 31
0.0
  0
LINE
  5
1BBA6
330
1BB82
100
AcDbEntity
  8
0
  6
CONTINUOUS
100
AcDbLine
 10
33.08199999996839
 20
2.672642988787641
 30
0.0
 11
31.64199999996833
 21
4.112642988787695
 31
0.0
  0
LINE
  5
1BBA7
330
1BB82
100
AcDbEntity
  8
0
  6
CONTINUOUS
100
AcDbLine
 10
36.24959940195042
 20
0.1785627958857976
 30
0.0
 11
35.10501653033629
 21
1.323145667499924
 31
0.0
  0
LINE
  5
1BBA8
330
1BB82
100
AcDbEntity
  8
0
  6
CONTINUOUS
100
AcDbLine
 10
33.08199999996839
 20
3.346162197867827
 30
0.0
 11
31.64199999996833
 21
4.786162197867881
 31
0.0
  0
LINE
  5
1BBA9
330
1BB82
100
AcDbEntity
  8
0
  6
CONTINUOUS
100
AcDbLine
 10
36.64615197150552
 20
0.4555294354108876
 30
0.0
 11
35.6362043832099
 21
1.465477023706505
 31
0.0
  0
LINE
  5
1BBAA
330
1BB82
100
AcDbEntity
  8
0
  6
CONTINUOUS
100
AcDbLine
 10
33.08199999996839
 20
4.019681406948013
 30
0.0
 11
31.64199999996833
 21
5.459681406948068
 31
0.0
  0
LINE
  5
1BBAB
330
1BB82
100
AcDbEntity
  8
0
  6
CONTINUOUS
100
AcDbLine
 10
37.0123742237774
 20
0.7628263922191891
 30
0.0
 11
35.97691545773309
 21
1.798285158263504
 31
0.0
  0
LINE
  5
1BBAC
330
1BB82
100
AcDbEntity
  8
0
  6
CONTINUOUS
100
AcDbLine
 10
33.08199999996839
 20
4.6932006160282
 30
0.0
 11
31.64199999996833
 21
6.133200616028255
 31
0.0
  0
LINE
  5
1BBAD
330
1BB82
100
AcDbEntity
  8
0
  6
CONTINUOUS
100
AcDbLine
 10
37.27491524157143
 20
1.173804583505349
 30
0.0
 11
36.17602012811361
 21
2.272699696963169
 31
0.0
  0
LINE
  5
1BBAE
330
1BB82
100
AcDbEntity
  8
0
  6
CONTINUOUS
100
AcDbLine
 10
33.08199999996839
 20
5.366719825108387
 30
0.0
 11
31.64199999996833
 21
6.806719825108441
 31
0.0
  0
LINE
  5
1BBAF
330
1BB82
100
AcDbEntity
  8
0
  6
CONTINUOUS
100
AcDbLine
 10
37.51739996707661
 20
1.604839067080355
 30
0.0
 11
36.23199999996837
 21
2.890239034188595
 31
0.0
  0
LINE
  5
1BBB0
330
1BB82
100
AcDbEntity
  8
0
  6
CONTINUOUS
100
AcDbLine
 10
37.6183579579535
 20
2.177400285283649
 30
0.0
 11
36.23199999996837
 21
3.563758243268782
 31
0.0
  0
LINE
  5
1BBB1
330
1BB82
100
AcDbEntity
  8
0
  6
CONTINUOUS
100
AcDbLine
 10
33.08199999996839
 20
6.040239034188573
 30
0.0
 11
31.64199999996833
 21
7.480239034188628
 31
0.0
  0
LINE
  5
1BBB2
330
1BB82
100
AcDbEntity
  8
0
  6
CONTINUOUS
100
AcDbLine
 10
33.08199999996839
 20
6.713758243268759
 30
0.0
 11
31.64199999996833
 21
8.153758243268815
 31
0.0
  0
LINE
  5
1BBB3
330
1BB82
100
AcDbEntity
  8
0
  6
CONTINUOUS
100
AcDbLine
 10
37.67199999996831
 20
2.797277452349027
 30
0.0
 11
36.23199999996837
 21
4.237277452348969
 31
0.0
  0
LINE
  5
1BBB4
330
1BB82
100
AcDbEntity
  8
0
  6
CONTINUOUS
100
AcDbLine
 10
37.67199999996831
 20
3.470796661429214
 30
0.0
 11
36.23199999996837
 21
4.910796661429155
 31
0.0
  0
LINE
  5
1BBB5
330
1BB82
100
AcDbEntity
  8
0
  6
CONTINUOUS
100
AcDbLine
 10
37.67199999996831
 20
4.1443158705094
 30
0.0
 11
36.23199999996837
 21
5.584315870509341
 31
0.0
  0
LINE
  5
1BBB6
330
1BB82
100
AcDbEntity
  8
0
  6
CONTINUOUS
100
AcDbLine
 10
33.08199999996839
 20
7.387277452348946
 30
0.0
 11
31.70617745232608
 21
8.763099999991255
 31
0.0
  0
LINE
  5
1BBB7
330
1BB82
100
AcDbEntity
  8
0
  6
CONTINUOUS
100
AcDbLine
 10
33.08199999996839
 20
8.060796661429134
 30
0.0
 11
32.37969666140626
 21
8.763099999991255
 31
0.0
  0
LINE
  5
1BBB8
330
1BB82
100
AcDbEntity
  8
0
  6
CONTINUOUS
100
AcDbLine
 10
33.08199999996839
 20
8.734315870509318
 30
0.0
 11
33.05321587048645
 21
8.763099999991255
 31
0.0
  0
LINE
  5
1BBB9
330
1BB82
100
AcDbEntity
  8
0
  6
CONTINUOUS
100
AcDbLine
 10
37.67199999996831
 20
4.817835079589586
 30
0.0
 11
36.23199999996837
 21
6.257835079589528
 31
0.0
  0
LINE
  5
1BBBA
330
1BB82
100
AcDbEntity
  8
0
  6
CONTINUOUS
100
AcDbLine
 10
37.67199999996831
 20
5.491354288669772
 30
0.0
 11
36.23199999996837
 21
6.931354288669715
 31
0.0
  0
LINE
  5
1BBBB
330
1BB82
100
AcDbEntity
  8
0
  6
CONTINUOUS
100
AcDbLine
 10
37.67199999996831
 20
6.164873497749959
 30
0.0
 11
36.23199999996837
 21
7.6048734977499
 31
0.0
  0
LINE
  5
1BBBC
330
1BB82
100
AcDbEntity
  8
0
  6
CONTINUOUS
100
AcDbLine
 10
37.67199999996831
 20
6.838392706830145
 30
0.0
 11
36.23199999996837
 21
8.278392706830086
 31
0.0
  0
LINE
  5
1BBBD
330
1BB82
100
AcDbEntity
  8
0
  6
CONTINUOUS
100
AcDbLine
 10
37.67199999996831
 20
7.511911915910333
 30
0.0
 11
36.42081191588738
 21
8.763099999991255
 31
0.0
  0
LINE
  5
1BBBE
330
1BB82
100
AcDbEntity
  8
0
  6
CONTINUOUS
100
AcDbLine
 10
37.67199999996831
 20
8.185431124990519
 30
0.0
 11
37.09433112496757
 21
8.763099999991255
 31
0.0
  0
ENDBLK
  5
1BC26
330
1BB82
100
AcDbEntity
  8
0
100
AcDbBlockEnd
  0
BLOCK
  5
1BC27
330
1BBBF
100
AcDbEntity
  8
0
100
AcDbBlockBegin
  2
*X83
 70
     1
 10
0.0
 20
0.0
 30
0.0
  3
*X83
  1

  0
LINE
  5
1BBC0
330
1BBBF
100
AcDbEntity
  8
0
  6
CONTINUOUS
100
AcDbLine
 10
38.60499999996136
 20
8.762866199104765
 30
0.0
 11
38.71672554182345
 21
8.874591740966855
 31
0.0
  0
LINE
  5
1BBC1
330
1BBBF
100
AcDbEntity
  8
0
  6
CONTINUOUS
100
AcDbLine
 10
38.60499999996136
 20
8.089346990024577
 30
0.0
 11
39.03418785440363
 21
8.518534844466847
 31
0.0
  0
LINE
  5
1BBC2
330
1BBBF
100
AcDbEntity
  8
0
  6
CONTINUOUS
100
AcDbLine
 10
38.60499999996136
 20
7.41582778094439
 30
0.0
 11
39.35165016698382
 21
8.16247794796684
 31
0.0
  0
LINE
  5
1BBC3
330
1BBBF
100
AcDbEntity
  8
0
  6
CONTINUOUS
100
AcDbLine
 10
38.60499999996136
 20
6.742308571864204
 30
0.0
 11
39.66911247956399
 21
7.806421051466834
 31
0.0
  0
LINE
  5
1BBC4
330
1BBBF
100
AcDbEntity
  8
0
  6
CONTINUOUS
100
AcDbLine
 10
38.60499999996136
 20
6.068789362784018
 30
0.0
 11
39.98657479214418
 21
7.450364154966827
 31
0.0
  0
LINE
  5
1BBC5
330
1BBBF
100
AcDbEntity
  8
0
  6
CONTINUOUS
100
AcDbLine
 10
38.60499999996136
 20
5.395270153703832
 30
0.0
 11
40.30403710472435
 21
7.09430725846682
 31
0.0
  0
LINE
  5
1BBC6
330
1BBBF
100
AcDbEntity
  8
0
  6
CONTINUOUS
100
AcDbLine
 10
38.60499999996136
 20
4.721750944623645
 30
0.0
 11
40.62149941730453
 21
6.738250361966813
 31
0.0
  0
LINE
  5
1BBC7
330
1BBBF
100
AcDbEntity
  8
0
  6
CONTINUOUS
100
AcDbLine
 10
38.60499999996136
 20
4.048231735543458
 30
0.0
 11
40.93896172988471
 21
6.382193465466806
 31
0.0
  0
LINE
  5
1BBC8
330
1BBBF
100
AcDbEntity
  8
0
  6
CONTINUOUS
100
AcDbLine
 10
38.60499999996136
 20
3.374712526463272
 30
0.0
 11
40.02599999995994
 21
4.795712526461843
 31
0.0
  0
LINE
  5
1BBC9
330
1BBBF
100
AcDbEntity
  8
0
  6
CONTINUOUS
100
AcDbLine
 10
38.60499999996136
 20
2.701193317383085
 30
0.0
 11
40.02599999995994
 21
4.122193317381657
 31
0.0
  0
LINE
  5
1BBCA
330
1BBBF
100
AcDbEntity
  8
0
  6
CONTINUOUS
100
AcDbLine
 10
40.28339754687704
 20
5.053110073378947
 30
0.0
 11
41.25642404246489
 21
6.026136568966799
 31
0.0
  0
LINE
  5
1BBCB
330
1BBBF
100
AcDbEntity
  8
0
  6
CONTINUOUS
100
AcDbLine
 10
40.60085985945722
 20
4.697053176878939
 30
0.0
 11
41.57388635504507
 21
5.670079672466793
 31
0.0
  0
LINE
  5
1BBCC
330
1BBBF
100
AcDbEntity
  8
0
  6
CONTINUOUS
100
AcDbLine
 10
43.57899999995641
 20
8.348712526458318
 30
0.0
 11
43.99338747348935
 21
8.763099999991255
 31
0.0
  0
LINE
  5
1BBCD
330
1BBBF
100
AcDbEntity
  8
0
  6
CONTINUOUS
100
AcDbLine
 10
43.57899999995641
 20
7.675193317378131
 30
0.0
 11
44.66690668256953
 21
8.763099999991255
 31
0.0
  0
LINE
  5
1BBCE
330
1BBBF
100
AcDbEntity
  8
0
  6
CONTINUOUS
100
AcDbLine
 10
38.60499999996136
 20
2.027674108302898
 30
0.0
 11
40.02599999995994
 21
3.44867410830147
 31
0.0
  0
LINE
  5
1BBCF
330
1BBBF
100
AcDbEntity
  8
0
  6
CONTINUOUS
100
AcDbLine
 10
38.60499999996136
 20
1.354154899222712
 30
0.0
 11
40.02599999995994
 21
2.775154899221284
 31
0.0
  0
LINE
  5
1BBD0
330
1BBBF
100
AcDbEntity
  8
0
  6
CONTINUOUS
100
AcDbLine
 10
38.60499999996136
 20
0.6806356901425255
 30
0.0
 11
40.02599999995994
 21
2.101635690141098
 31
0.0
  0
LINE
  5
1BBD1
330
1BBBF
100
AcDbEntity
  8
0
  6
CONTINUOUS
100
AcDbLine
 10
38.60499999996136
 20
0.0071164810623383
 30
0.0
 11
40.02599999995994
 21
1.428116481060911
 31
0.0
  0
LINE
  5
1BBD2
330
1BBBF
100
AcDbEntity
  8
0
  6
CONTINUOUS
100
AcDbLine
 10
40.9183221720374
 20
4.340996280378933
 30
0.0
 11
41.89134866762525
 21
5.314022775966786
 31
0.0
  0
LINE
  5
1BBD3
330
1BBBF
100
AcDbEntity
  8
0
  6
CONTINUOUS
100
AcDbLine
 10
41.23578448461758
 20
3.984939383878926
 30
0.0
 11
42.20881098020543
 21
4.957965879466778
 31
0.0
  0
LINE
  5
1BBD4
330
1BBBF
100
AcDbEntity
  8
0
  6
CONTINUOUS
100
AcDbLine
 10
41.55324679719776
 20
3.628882487378919
 30
0.0
 11
42.52627329278561
 21
4.601908982966772
 31
0.0
  0
LINE
  5
1BBD5
330
1BBBF
100
AcDbEntity
  8
0
  6
CONTINUOUS
100
AcDbLine
 10
41.87070910977793
 20
3.272825590878912
 30
0.0
 11
42.84373560536579
 21
4.245852086466765
 31
0.0
  0
LINE
  5
1BBD6
330
1BBBF
100
AcDbEntity
  8
0
  6
CONTINUOUS
100
AcDbLine
 10
43.57899999995641
 20
7.001674108297943
 30
0.0
 11
44.99999999995498
 21
8.422674108296516
 31
0.0
  0
LINE
  5
1BBD7
330
1BBBF
100
AcDbEntity
  8
0
  6
CONTINUOUS
100
AcDbLine
 10
43.57899999995641
 20
6.328154899217758
 30
0.0
 11
44.99999999995498
 21
7.749154899216329
 31
0.0
  0
LINE
  5
1BBD8
330
1BBBF
100
AcDbEntity
  8
0
  6
CONTINUOUS
100
AcDbLine
 10
43.57899999995641
 20
5.654635690137571
 30
0.0
 11
44.99999999995498
 21
7.075635690136142
 31
0.0
  0
LINE
  5
1BBD9
330
1BBBF
100
AcDbEntity
  8
0
  6
CONTINUOUS
100
AcDbLine
 10
43.57899999995641
 20
4.981116481057384
 30
0.0
 11
44.99999999995498
 21
6.402116481055955
 31
0.0
  0
LINE
  5
1BBDA
330
1BBBF
100
AcDbEntity
  8
0
  6
CONTINUOUS
100
AcDbLine
 10
39.27140272797921
 20
-0.0000000000000009
 30
0.0
 11
40.02599999995994
 21
0.7545972719807246
 31
0.0
  0
LINE
  5
1BBDB
330
1BBBF
100
AcDbEntity
  8
0
  6
CONTINUOUS
100
AcDbLine
 10
39.9449219370594
 20
-0.0000000000000009
 30
0.0
 11
40.02599999995994
 21
0.0810780629005379
 31
0.0
  0
LINE
  5
1BBDC
330
1BBBF
100
AcDbEntity
  8
0
  6
CONTINUOUS
100
AcDbLine
 10
42.18817142235812
 20
2.916768694378905
 30
0.0
 11
43.16119791794597
 21
3.889795189966758
 31
0.0
  0
LINE
  5
1BBDD
330
1BBBF
100
AcDbEntity
  8
0
  6
CONTINUOUS
100
AcDbLine
 10
42.50563373493829
 20
2.560711797878898
 30
0.0
 11
43.47866023052615
 21
3.533738293466751
 31
0.0
  0
LINE
  5
1BBDE
330
1BBBF
100
AcDbEntity
  8
0
  6
CONTINUOUS
100
AcDbLine
 10
43.57899999995641
 20
4.307597271977198
 30
0.0
 11
44.99999999995498
 21
5.728597271975769
 31
0.0
  0
LINE
  5
1BBDF
330
1BBBF
100
AcDbEntity
  8
0
  6
CONTINUOUS
100
AcDbLine
 10
43.57899999995641
 20
3.634078062897011
 30
0.0
 11
44.99999999995498
 21
5.055078062895582
 31
0.0
  0
LINE
  5
1BBE0
330
1BBBF
100
AcDbEntity
  8
0
  6
CONTINUOUS
100
AcDbLine
 10
42.82309604751848
 20
2.204654901378891
 30
0.0
 11
44.99999999995498
 21
4.381558853815395
 31
0.0
  0
LINE
  5
1BBE1
330
1BBBF
100
AcDbEntity
  8
0
  6
CONTINUOUS
100
AcDbLine
 10
43.14055836009865
 20
1.848598004878885
 30
0.0
 11
44.99999999995498
 21
3.70803964473521
 31
0.0
  0
LINE
  5
1BBE2
330
1BBBF
100
AcDbEntity
  8
0
  6
CONTINUOUS
100
AcDbLine
 10
43.45802067267883
 20
1.492541108378878
 30
0.0
 11
44.99999999995498
 21
3.034520435655023
 31
0.0
  0
LINE
  5
1BBE3
330
1BBBF
100
AcDbEntity
  8
0
  6
CONTINUOUS
100
AcDbLine
 10
43.77548298525902
 20
1.136484211878871
 30
0.0
 11
44.99999999995498
 21
2.361001226574837
 31
0.0
  0
LINE
  5
1BBE4
330
1BBBF
100
AcDbEntity
  8
0
  6
CONTINUOUS
100
AcDbLine
 10
44.09294529783919
 20
0.7804273153788639
 30
0.0
 11
44.99999999995498
 21
1.687482017494649
 31
0.0
  0
LINE
  5
1BBE5
330
1BBBF
100
AcDbEntity
  8
0
  6
CONTINUOUS
100
AcDbLine
 10
44.41040761041938
 20
0.4243704188788566
 30
0.0
 11
44.99999999995498
 21
1.013962808414463
 31
0.0
  0
LINE
  5
1BBE6
330
1BBBF
100
AcDbEntity
  8
0
  6
CONTINUOUS
100
AcDbLine
 10
44.72786992299955
 20
0.0683135223788494
 30
0.0
 11
44.99999999995498
 21
0.340443599334276
 31
0.0
  0
LINE
  5
1BBE7
330
1BBBF
100
AcDbEntity
  8
0
  6
CONTINUOUS
100
AcDbLine
 10
39.12223903415696
 20
-0.0000000000000009
 30
0.0
 11
38.60499999996136
 21
0.5172390341955961
 31
0.0
  0
LINE
  5
1BBE8
330
1BBBF
100
AcDbEntity
  8
0
  6
CONTINUOUS
100
AcDbLine
 10
39.79575824323715
 20
-0.0000000000000009
 30
0.0
 11
38.60499999996136
 21
1.190758243275783
 31
0.0
  0
LINE
  5
1BBE9
330
1BBBF
100
AcDbEntity
  8
0
  6
CONTINUOUS
100
AcDbLine
 10
40.02599999995994
 20
0.443277452357397
 30
0.0
 11
38.60499999996136
 21
1.864277452355969
 31
0.0
  0
LINE
  5
1BBEA
330
1BBBF
100
AcDbEntity
  8
0
  6
CONTINUOUS
100
AcDbLine
 10
40.02599999995994
 20
1.116796661437583
 30
0.0
 11
38.60499999996136
 21
2.537796661436155
 31
0.0
  0
LINE
  5
1BBEB
330
1BBBF
100
AcDbEntity
  8
0
  6
CONTINUOUS
100
AcDbLine
 10
40.02599999995994
 20
1.79031587051777
 30
0.0
 11
38.60499999996136
 21
3.211315870516341
 31
0.0
  0
LINE
  5
1BBEC
330
1BBBF
100
AcDbEntity
  8
0
  6
CONTINUOUS
100
AcDbLine
 10
40.02599999995994
 20
2.463835079597956
 30
0.0
 11
38.60499999996136
 21
3.884835079596527
 31
0.0
  0
LINE
  5
1BBED
330
1BBBF
100
AcDbEntity
  8
0
  6
CONTINUOUS
100
AcDbLine
 10
40.02599999995994
 20
3.137354288678143
 30
0.0
 11
38.60499999996136
 21
4.558354288676714
 31
0.0
  0
LINE
  5
1BBEE
330
1BBBF
100
AcDbEntity
  8
0
  6
CONTINUOUS
100
AcDbLine
 10
40.02599999995994
 20
3.810873497758329
 30
0.0
 11
38.60499999996136
 21
5.2318734977569
 31
0.0
  0
LINE
  5
1BBEF
330
1BBBF
100
AcDbEntity
  8
0
  6
CONTINUOUS
100
AcDbLine
 10
40.02599999995994
 20
4.484392706838515
 30
0.0
 11
38.60499999996136
 21
5.905392706837086
 31
0.0
  0
LINE
  5
1BBF0
330
1BBBF
100
AcDbEntity
  8
0
  6
CONTINUOUS
100
AcDbLine
 10
44.99999999995498
 20
0.183911915923658
 30
0.0
 11
41.53858364506288
 21
3.64532827081576
 31
0.0
  0
LINE
  5
1BBF1
330
1BBBF
100
AcDbEntity
  8
0
  6
CONTINUOUS
100
AcDbLine
 10
40.02599999995994
 20
5.157911915918703
 30
0.0
 11
38.60499999996136
 21
6.578911915917274
 31
0.0
  0
LINE
  5
1BBF2
330
1BBBF
100
AcDbEntity
  8
0
  6
CONTINUOUS
100
AcDbLine
 10
44.99999999995498
 20
0.8574311250038447
 30
0.0
 11
38.60499999996136
 21
7.25243112499746
 31
0.0
  0
LINE
  5
1BBF3
330
1BBBF
100
AcDbEntity
  8
0
  6
CONTINUOUS
100
AcDbLine
 10
44.99999999995498
 20
1.530950334084031
 30
0.0
 11
38.60499999996136
 21
7.925950334077647
 31
0.0
  0
LINE
  5
1BBF4
330
1BBBF
100
AcDbEntity
  8
0
  6
CONTINUOUS
100
AcDbLine
 10
44.99999999995498
 20
2.204469543164218
 30
0.0
 11
43.57899999995641
 21
3.625469543162789
 31
0.0
  0
LINE
  5
1BBF5
330
1BBBF
100
AcDbEntity
  8
0
  6
CONTINUOUS
100
AcDbLine
 10
41.89876730984767
 20
5.305702233271528
 30
0.0
 11
38.60499999996136
 21
8.599469543157834
 31
0.0
  0
LINE
  5
1BBF6
330
1BBBF
100
AcDbEntity
  8
0
  6
CONTINUOUS
100
AcDbLine
 10
44.99999999995498
 20
2.877988752244405
 30
0.0
 11
43.57899999995641
 21
4.298988752242975
 31
0.0
  0
LINE
  5
1BBF7
330
1BBBF
100
AcDbEntity
  8
0
  6
CONTINUOUS
100
AcDbLine
 10
44.99999999995498
 20
3.551507961324591
 30
0.0
 11
43.57899999995641
 21
4.972507961323163
 31
0.0
  0
LINE
  5
1BBF8
330
1BBBF
100
AcDbEntity
  8
0
  6
CONTINUOUS
100
AcDbLine
 10
44.99999999995498
 20
4.225027170404777
 30
0.0
 11
43.57899999995641
 21
5.646027170403348
 31
0.0
  0
LINE
  5
1BBF9
330
1BBBF
100
AcDbEntity
  8
0
  6
CONTINUOUS
100
AcDbLine
 10
44.99999999995498
 20
4.898546379484964
 30
0.0
 11
43.57899999995641
 21
6.319546379483535
 31
0.0
  0
LINE
  5
1BBFA
330
1BBBF
100
AcDbEntity
  8
0
  6
CONTINUOUS
100
AcDbLine
 10
44.99999999995498
 20
5.572065588565151
 30
0.0
 11
43.57899999995641
 21
6.993065588563722
 31
0.0
  0
LINE
  5
1BBFB
330
1BBBF
100
AcDbEntity
  8
0
  6
CONTINUOUS
100
AcDbLine
 10
44.99999999995498
 20
6.245584797645336
 30
0.0
 11
43.57899999995641
 21
7.666584797643908
 31
0.0
  0
LINE
  5
1BBFC
330
1BBBF
100
AcDbEntity
  8
0
  6
CONTINUOUS
100
AcDbLine
 10
44.99999999995498
 20
6.919104006725522
 30
0.0
 11
43.57899999995641
 21
8.340104006724093
 31
0.0
  0
LINE
  5
1BBFD
330
1BBBF
100
AcDbEntity
  8
0
  6
CONTINUOUS
100
AcDbLine
 10
44.99999999995498
 20
7.592623215805709
 30
0.0
 11
43.82952321576943
 21
8.763099999991255
 31
0.0
  0
LINE
  5
1BBFE
330
1BBBF
100
AcDbEntity
  8
0
  6
CONTINUOUS
100
AcDbLine
 10
44.99999999995498
 20
8.266142424885896
 30
0.0
 11
44.50304242484962
 21
8.763099999991255
 31
0.0
  0
ENDBLK
  5
1BC28
330
1BBBF
100
AcDbEntity
  8
0
100
AcDbBlockEnd
  0
BLOCK
  5
1BC29
330
1BBFF
100
AcDbEntity
  8
0
100
AcDbBlockBegin
  2
*X84
 70
     1
 10
0.0
 20
0.0
 30
0.0
  3
*X84
  1

  0
LINE
  5
1BC00
330
1BBFF
100
AcDbEntity
  8
0
  6
CONTINUOUS
100
AcDbLine
 10
0.0
 20
8.548461116714023
 30
0.0
 11
0.2146388832772324
 21
8.763099999991255
 31
0.0
  0
LINE
  5
1BC01
330
1BBFF
100
AcDbEntity
  8
0
  6
CONTINUOUS
100
AcDbLine
 10
-0.0000000000000002
 20
7.874941907633837
 30
0.0
 11
0.8881580923574184
 21
8.763099999991255
 31
0.0
  0
LINE
  5
1BC02
330
1BBFF
100
AcDbEntity
  8
0
  6
CONTINUOUS
100
AcDbLine
 10
0.0
 20
7.20142269855365
 30
0.0
 11
1.420999999998572
 21
8.622422698552223
 31
0.0
  0
LINE
  5
1BC03
330
1BBFF
100
AcDbEntity
  8
0
  6
CONTINUOUS
100
AcDbLine
 10
-0.0000000000000001
 20
6.527903489473465
 30
0.0
 11
1.420999999998571
 21
7.948903489472036
 31
0.0
  0
LINE
  5
1BC04
330
1BBFF
100
AcDbEntity
  8
0
  6
CONTINUOUS
100
AcDbLine
 10
-0.0000000000000002
 20
5.854384280393278
 30
0.0
 11
1.420999999998571
 21
7.275384280391849
 31
0.0
  0
LINE
  5
1BC05
330
1BBFF
100
AcDbEntity
  8
0
  6
CONTINUOUS
100
AcDbLine
 10
-0.0000000000000002
 20
5.180865071313091
 30
0.0
 11
1.420999999998571
 21
6.601865071311663
 31
0.0
  0
LINE
  5
1BC06
330
1BBFF
100
AcDbEntity
  8
0
  6
CONTINUOUS
100
AcDbLine
 10
0.0
 20
4.507345862232905
 30
0.0
 11
1.420999999998571
 21
5.928345862231477
 31
0.0
  0
LINE
  5
1BC07
330
1BBFF
100
AcDbEntity
  8
0
  6
CONTINUOUS
100
AcDbLine
 10
-0.0000000000000003
 20
3.833826653152718
 30
0.0
 11
1.420999999998571
 21
5.25482665315129
 31
0.0
  0
LINE
  5
1BC08
330
1BBFF
100
AcDbEntity
  8
0
  6
CONTINUOUS
100
AcDbLine
 10
-0.0000000000000002
 20
3.160307444072532
 30
0.0
 11
1.420999999998571
 21
4.581307444071103
 31
0.0
  0
LINE
  5
1BC09
330
1BBFF
100
AcDbEntity
  8
0
  6
CONTINUOUS
100
AcDbLine
 10
-0.0000000000000001
 20
2.486788234992345
 30
0.0
 11
1.420999999998571
 21
3.907788234990917
 31
0.0
  0
LINE
  5
1BC0A
330
1BBFF
100
AcDbEntity
  8
0
  6
CONTINUOUS
100
AcDbLine
 10
-0.0000000000000006
 20
1.813269025912159
 30
0.0
 11
1.420999999998571
 21
3.234269025910731
 31
0.0
  0
LINE
  5
1BC0B
330
1BBFF
100
AcDbEntity
  8
0
  6
CONTINUOUS
100
AcDbLine
 10
0.0
 20
1.139749816831973
 30
0.0
 11
1.420999999998571
 21
2.560749816830544
 31
0.0
  0
LINE
  5
1BC0C
330
1BBFF
100
AcDbEntity
  8
0
  6
CONTINUOUS
100
AcDbLine
 10
0.0000000000000002
 20
0.466230607751787
 30
0.0
 11
1.420999999998571
 21
1.887230607750358
 31
0.0
  0
LINE
  5
1BC0D
330
1BBFF
100
AcDbEntity
  8
0
  6
CONTINUOUS
100
AcDbLine
 10
0.2072886013284003
 20
-0.0000000000000009
 30
0.0
 11
1.420999999998571
 21
1.213711398670171
 31
0.0
  0
LINE
  5
1BC0E
330
1BBFF
100
AcDbEntity
  8
0
  6
CONTINUOUS
100
AcDbLine
 10
0.8808078104085864
 20
-0.0000000000000009
 30
0.0
 11
1.420999999998571
 21
0.5401921895899839
 31
0.0
  0
LINE
  5
1BC0F
330
1BBFF
100
AcDbEntity
  8
0
  6
CONTINUOUS
100
AcDbLine
 10
0.0581249075061505
 20
-0.0000000000000009
 30
0.0
 11
-0.0000000000000002
 21
0.0581249075061496
 31
0.0
  0
LINE
  5
1BC10
330
1BBFF
100
AcDbEntity
  8
0
  6
CONTINUOUS
100
AcDbLine
 10
0.7316441165863372
 20
-0.0000000000000009
 30
0.0
 11
-0.0000000000000002
 21
0.7316441165863363
 31
0.0
  0
LINE
  5
1BC11
330
1BBFF
100
AcDbEntity
  8
0
  6
CONTINUOUS
100
AcDbLine
 10
1.405163325666523
 20
-0.0000000000000009
 30
0.0
 11
-0.0000000000000002
 21
1.405163325666523
 31
0.0
  0
LINE
  5
1BC12
330
1BBFF
100
AcDbEntity
  8
0
  6
CONTINUOUS
100
AcDbLine
 10
1.420999999998572
 20
0.6576825347481381
 30
0.0
 11
-0.0000000000000001
 21
2.07868253474671
 31
0.0
  0
LINE
  5
1BC13
330
1BBFF
100
AcDbEntity
  8
0
  6
CONTINUOUS
100
AcDbLine
 10
1.420999999998571
 20
1.331201743828324
 30
0.0
 11
-0.0000000000000001
 21
2.752201743826896
 31
0.0
  0
LINE
  5
1BC14
330
1BBFF
100
AcDbEntity
  8
0
  6
CONTINUOUS
100
AcDbLine
 10
1.420999999998571
 20
2.004720952908511
 30
0.0
 11
-0.0000000000000002
 21
3.425720952907082
 31
0.0
  0
LINE
  5
1BC15
330
1BBFF
100
AcDbEntity
  8
0
  6
CONTINUOUS
100
AcDbLine
 10
1.420999999998571
 20
2.678240161988697
 30
0.0
 11
-0.0000000000000001
 21
4.099240161987269
 31
0.0
  0
LINE
  5
1BC16
330
1BBFF
100
AcDbEntity
  8
0
  6
CONTINUOUS
100
AcDbLine
 10
1.420999999998572
 20
3.351759371068884
 30
0.0
 11
0.0
 21
4.772759371067455
 31
0.0
  0
LINE
  5
1BC17
330
1BBFF
100
AcDbEntity
  8
0
  6
CONTINUOUS
100
AcDbLine
 10
1.420999999998571
 20
4.02527858014907
 30
0.0
 11
-0.0000000000000003
 21
5.446278580147642
 31
0.0
  0
LINE
  5
1BC18
330
1BBFF
100
AcDbEntity
  8
0
  6
CONTINUOUS
100
AcDbLine
 10
1.420999999998571
 20
4.698797789229257
 30
0.0
 11
0.0
 21
6.119797789227828
 31
0.0
  0
LINE
  5
1BC19
330
1BBFF
100
AcDbEntity
  8
0
  6
CONTINUOUS
100
AcDbLine
 10
1.420999999998571
 20
5.372316998309444
 30
0.0
 11
-0.0000000000000001
 21
6.793316998308015
 31
0.0
  0
LINE
  5
1BC1A
330
1BBFF
100
AcDbEntity
  8
0
  6
CONTINUOUS
100
AcDbLine
 10
1.420999999998572
 20
6.045836207389629
 30
0.0
 11
-0.0000000000000004
 21
7.466836207388202
 31
0.0
  0
LINE
  5
1BC1B
330
1BBFF
100
AcDbEntity
  8
0
  6
CONTINUOUS
100
AcDbLine
 10
1.420999999998571
 20
6.719355416469816
 30
0.0
 11
0.0
 21
8.140355416468388
 31
0.0
  0
LINE
  5
1BC1C
330
1BBFF
100
AcDbEntity
  8
0
  6
CONTINUOUS
100
AcDbLine
 10
1.420999999998571
 20
7.392874625550003
 30
0.0
 11
0.0507746255573185
 21
8.763099999991255
 31
0.0
  0
LINE
  5
1BC1D
330
1BBFF
100
AcDbEntity
  8
0
  6
CONTINUOUS
100
AcDbLine
 10
1.420999999998571
 20
8.06639383463019
 30
0.0
 11
0.7242938346375052
 21
8.763099999991255
 31
0.0
  0
LINE
  5
1BC1E
330
1BBFF
100
AcDbEntity
  8
0
  6
CONTINUOUS
100
AcDbLine
 10
1.420999999998571
 20
8.739913043710375
 30
0.0
 11
1.397813043717691
 21
8.763099999991255
 31
0.0
  0
ENDBLK
  5
1BC2A
330
1BBFF
100
AcDbEntity
  8
0
100
AcDbBlockEnd
  0
ENDSEC
  0
SECTION
  2
ENTITIES
  0
LINE
  5
1AADF
330
18
100
AcDbEntity
  8
01
100
AcDbLine
 10
2909.900985628838
 20
-697.5984509326888
 30
0.0000000001127424
 11
2935.900985628838
 21
-697.5984509326888
 31
0.0000000001127424
  0
LINE
  5
1AAE0
330
18
100
AcDbEntity
  8
01
100
AcDbLine
 10
2945.400985628838
 20
-692.0984509326888
 30
0.0000000001127424
 11
2900.400985628838
 21
-692.0984509326888
 31
0.0000000001127424
  0
LINE
  5
1AAE1
330
18
100
AcDbEntity
  8
01
100
AcDbLine
 10
2922.900985628838
 20
-669.5984509326888
 30
0.0000000001127424
 11
2922.900985628838
 21
-714.5984509326888
 31
0.0000000001127424
  0
LINE
  5
1AAE2
330
18
100
AcDbEntity
  8
01
100
AcDbLine
 10
3240.400881289096
 20
-692.0984509326888
 30
0.0000000001127424
 11
3285.400881289096
 21
-692.0984509326888
 31
0.0000000001127424
  0
LINE
  5
1AAE3
330
18
100
AcDbEntity
  8
01
100
AcDbLine
 10
3262.900881289096
 20
-669.5984509326888
 30
0.0000000001127424
 11
3262.900881289096
 21
-714.5984509326888
 31
0.0000000001127424
  0
LINE
  5
1AAE4
330
18
100
AcDbEntity
  8
01
100
AcDbLine
 10
3260.400989694935
 20
-436.6445677819395
 30
0.0000000000564898
 11
3260.400989694935
 21
-449.1445907261425
 31
0.0000000000564898
  0
LINE
  5
1AAE5
330
18
100
AcDbEntity
  8
01
100
AcDbLine
 10
3265.400989694935
 20
-436.6445677819377
 30
0.0000000000564898
 11
3265.400989694935
 21
-449.1445907261443
 31
0.0000000000564898
  0
LINE
  5
1AAE6
330
18
100
AcDbEntity
  8
01
100
AcDbLine
 10
3072.90098962884
 20
-672.0984509326906
 30
0.0000000001127424
 11
3072.900989628836
 21
-712.0984509326911
 31
0.0000000001127424
  0
LINE
  5
1AAE7
330
18
100
AcDbEntity
  8
01
100
AcDbLine
 10
3072.90098962884
 20
-712.0984509326911
 30
0.0000000001127424
 11
3067.100989628841
 21
-712.0984509326906
 31
0.0000000001127424
  0
ARC
  5
1AAE8
330
18
100
AcDbEntity
  8
01
100
AcDbCircle
 10
3067.100989628841
 20
-711.5984509326906
 30
0.0000000001127424
 40
0.5
100
AcDbArc
 50
180.0
 51
270.0
  0
LINE
  5
1AAE9
330
18
100
AcDbEntity
  8
01
100
AcDbLine
 10
3072.90098962884
 20
-672.0984509326906
 30
0.0000000001127424
 11
3067.100989628841
 21
-672.0984509326915
 31
0.0000000001127424
  0
ARC
  5
1AAEA
330
18
100
AcDbEntity
  8
01
100
AcDbCircle
 10
3067.100989628841
 20
-672.5984509326915
 30
0.0000000001127424
 40
0.5
100
AcDbArc
 50
90.0
 51
180.0
  0
LINE
  5
1AAEB
330
18
100
AcDbEntity
  8
01
100
AcDbLine
 10
3071.40098962884
 20
-712.0984509326979
 30
0.0000000001127424
 11
3072.90098962884
 21
-712.0984509326979
 31
0.0000000001127424
  0
LINE
  5
1AAED
330
18
100
AcDbEntity
  8
01
100
AcDbLine
 10
3262.900873289093
 20
-492.5984509326886
 30
0.0000000001127424
 11
3262.900873289093
 21
-519.0984509326886
 31
0.0000000001127424
  0
LINE
  5
1AAEE
330
18
100
AcDbEntity
  8
01
100
AcDbLine
 10
3262.900873289093
 20
-462.5984509347459
 30
0.0000000001127424
 11
3262.900873289093
 21
-433.3071778431054
 31
0.0000000001127424
  0
LINE
  5
1AAF1
330
18
100
AcDbEntity
  8
01
100
AcDbLine
 10
3242.900989240276
 20
-497.5984509337175
 30
0.0000000001127424
 11
3282.900989240276
 21
-497.5984509337168
 31
0.0000000001127424
  0
LINE
  5
1AAF2
330
18
100
AcDbEntity
  8
01
100
AcDbLine
 10
3282.400989240276
 20
-503.8984509337172
 30
0.0000000001127424
 11
3243.400989240276
 21
-503.8984509337176
 31
0.0000000001127424
  0
CIRCLE
  5
1AAF3
330
18
100
AcDbEntity
  8
01
100
AcDbCircle
 10
3262.900902050515
 20
-692.098474693377
 30
0.0000000001128561
 40
19.99999999999963
  0
LINE
  5
1AAF4
330
18
100
AcDbEntity
  8
01
100
AcDbLine
 10
3242.900989240276
 20
-497.5984509337175
 30
0.0000000001127424
 11
3242.900989240276
 21
-503.3984509337176
 31
0.0000000001127424
  0
ARC
  5
1AAF5
330
18
100
AcDbEntity
  8
01
100
AcDbCircle
 10
3243.400989240276
 20
-503.3984509337172
 30
0.0000000001127424
 40
0.5
100
AcDbArc
 50
180.0
 51
270.0
  0
CIRCLE
  5
1AAF6
330
18
100
AcDbEntity
  8
01
100
AcDbCircle
 10
3262.900902372973
 20
-697.5984744892489
 30
0.0000000001128561
 40
3.75
  0
CIRCLE
  5
1AAF7
330
18
100
AcDbEntity
  8
01
100
AcDbCircle
 10
3262.900902372973
 20
-697.5984746933768
 30
0.0000000001128561
 40
3.5000005
  0
LINE
  5
1AAF8
330
18
100
AcDbEntity
  8
01
100
AcDbLine
 10
3261.900902372973
 20
-700.9525774933768
 30
0.0000000001128561
 11
3261.900902372973
 21
-694.2443706933768
 31
0.0000000001128561
  0
LINE
  5
1AAF9
330
18
100
AcDbEntity
  8
01
100
AcDbLine
 10
3263.900902372973
 20
-700.9525774933768
 30
0.0000000001128561
 11
3263.900902372973
 21
-694.2443706933768
 31
0.0000000001128561
  0
ARC
  5
1AAFA
330
18
100
AcDbEntity
  8
01
100
AcDbCircle
 10
3262.900979698131
 20
-499.7484563115925
 30
0.0000000001126288
 40
6.0
100
AcDbArc
 50
234.3146660000189
 51
256.8165180000145
  0
LINE
  5
1AAFB
330
18
100
AcDbEntity
  8
01
100
AcDbLine
 10
3259.400979698131
 20
-504.6218563115926
 30
0.0000000001126288
 11
3259.40097969813
 21
-503.8984509337174
 31
0.0000000001126288
  0
LINE
  5
1AAFC
330
18
100
AcDbEntity
  8
01
100
AcDbLine
 10
3266.400979698131
 20
-504.6218563115926
 30
0.0000000001126288
 11
3266.400979698131
 21
-503.8984509337174
 31
0.0000000001126288
  0
LINE
  5
1AAFD
330
18
100
AcDbEntity
  8
01
100
AcDbLine
 10
3263.900979698131
 20
-505.299004770995
 30
0.0000000001126288
 11
3263.900979698131
 21
-503.8984509337174
 31
0.0000000001126288
  0
ARC
  5
1AAFE
330
18
100
AcDbEntity
  8
01
100
AcDbCircle
 10
3261.600976698131
 20
-505.2982263115925
 30
0.0000000001126288
 40
0.30000001
100
AcDbArc
 50
256.8165180001219
 51
0.0
  0
ARC
  5
1AAFF
330
18
100
AcDbEntity
  8
01
100
AcDbCircle
 10
3264.200978698131
 20
-505.2982263115925
 30
0.0000000001126288
 40
0.30000001
100
AcDbArc
 50
179.9999969999697
 51
283.1834799999676
  0
LINE
  5
1AB00
330
18
100
AcDbEntity
  8
01
100
AcDbLine
 10
3261.900979698131
 20
-505.2982263115925
 30
0.0000000001126288
 11
3261.900979698131
 21
-503.8984509337174
 31
0.0000000001126288
  0
ARC
  5
1AB01
330
18
100
AcDbEntity
  8
01
100
AcDbCircle
 10
3262.900979698131
 20
-499.7484563115925
 30
0.0000000001126288
 40
6.0
100
AcDbArc
 50
283.1834825033476
 51
305.6853299999988
  0
LINE
  5
1AB02
330
18
100
AcDbEntity
  8
01
100
AcDbLine
 10
3282.900989240276
 20
-497.5984509337168
 30
0.0000000001127424
 11
3282.900989240276
 21
-503.3984509337172
 31
0.0000000001127424
  0
ARC
  5
1AB03
330
18
100
AcDbEntity
  8
01
100
AcDbCircle
 10
3282.400989240276
 20
-503.3984509337172
 30
0.0000000001127424
 40
0.5
100
AcDbArc
 50
270.0
 51
0.0
  0
LINE
  5
1AB04
330
18
100
AcDbEntity
  8
01
100
AcDbLine
 10
3112.90098962884
 20
-672.0984509326888
 30
0.0000000001127427
 11
3112.900989628835
 21
-712.0984509326888
 31
0.0000000001127427
  0
LINE
  5
1AB06
330
18
100
AcDbEntity
  8
01
100
AcDbLine
 10
2909.900985628838
 20
-697.5984509326888
 30
0.0000000001127424
 11
2935.900985628838
 21
-697.5984509326888
 31
0.0000000001127424
  0
LINE
  5
1AB07
330
18
100
AcDbEntity
  8
01
100
AcDbLine
 10
2945.400985628838
 20
-692.0984509326888
 30
0.0000000001127424
 11
2900.400985628838
 21
-692.0984509326888
 31
0.0000000001127424
  0
LINE
  5
1AB08
330
18
100
AcDbEntity
  8
01
100
AcDbLine
 10
2922.900985628838
 20
-669.5984509326888
 30
0.0000000001127424
 11
2922.900985628838
 21
-714.5984509326888
 31
0.0000000001127424
  0
LINE
  5
1AB0A
330
18
100
AcDbEntity
  8
01
100
AcDbLine
 10
3262.900873289093
 20
-462.5984509347463
 30
0.0000000001127424
 11
3262.900873289093
 21
-432.9701269318884
 31
0.0000000001127424
  0
LINE
  5
1AB0C
330
18
100
AcDbEntity
  8
01
100
AcDbLine
 10
3066.600989628841
 20
-711.5984509326888
 30
0.0000000001127427
 11
3066.600989628841
 21
-672.5984509326893
 31
0.0000000001127427
  0
CIRCLE
  5
1AB0D
330
18
100
AcDbEntity
  8
01
100
AcDbCircle
 10
2922.900985628837
 20
-692.0984509326888
 30
0.0000000001127424
 40
20.00000000000007
  0
ARC
  5
1AB0E
330
18
100
AcDbEntity
  8
01
100
AcDbCircle
 10
2924.900985628838
 20
-688.5672549985948
 30
0.0000000001127424
 40
0.5000000000000013
100
AcDbArc
 50
0.0
 51
77.51311018581228
  0
ARC
  5
1AB0F
330
18
100
AcDbEntity
  8
01
100
AcDbCircle
 10
2920.900985628838
 20
-706.6296468667831
 30
0.0000000001127424
 40
0.5000000000000029
100
AcDbArc
 50
180.0
 51
257.5131101858123
  0
ARC
  5
1AB10
330
18
100
AcDbEntity
  8
01
100
AcDbCircle
 10
2924.900985628838
 20
-706.6296468667831
 30
0.0000000001127424
 40
0.5000000000000013
100
AcDbArc
 50
282.4868898141877
 51
0.0
  0
ARC
  5
1AB11
330
18
100
AcDbEntity
  8
01
100
AcDbCircle
 10
2922.900985628838
 20
-697.5984509326888
 30
0.0000000001127424
 40
9.749999999999995
100
AcDbArc
 50
77.51311018586458
 51
102.4868898141354
  0
ARC
  5
1AB12
330
18
100
AcDbEntity
  8
01
100
AcDbCircle
 10
2920.900985628838
 20
-688.5672549985948
 30
0.0000000001127424
 40
0.5000000000000029
100
AcDbArc
 50
102.4868898141877
 51
180.0
  0
ARC
  5
1AB13
330
18
100
AcDbEntity
  8
01
100
AcDbCircle
 10
2922.900985628838
 20
-697.5984509326888
 30
0.0000000001127424
 40
9.75
100
AcDbArc
 50
257.5131101858646
 51
282.4868898141354
  0
LINE
  5
1AB14
330
18
100
AcDbEntity
  8
01
100
AcDbLine
 10
2925.400985628838
 20
-688.5672549985948
 30
0.0000000001127424
 11
2925.400985628838
 21
-706.6296468667831
 31
0.0000000001127424
  0
LINE
  5
1AB15
330
18
100
AcDbEntity
  8
01
100
AcDbLine
 10
2920.400985628838
 20
-706.6296468667831
 30
0.0000000001127424
 11
2920.400985628838
 21
-688.5672549985948
 31
0.0000000001127424
  0
SPLINE
  5
1AB16
330
18
100
AcDbEntity
  8
01
100
AcDbSpline
210
0.0
220
0.0
230
1.0
 70
     8
 71
     3
 72
    18
 73
    14
 74
     0
 42
0.0000000001
 43
0.0000000001
 40
0.0
 40
0.0
 40
0.0
 40
0.0
 40
0.2500000000000002
 40
0.2500000000000002
 40
0.375
 40
0.375
 40
0.4999999999999998
 40
0.4999999999999998
 40
0.6249999999999996
 40
0.6249999999999996
 40
0.7499999999999993
 40
0.7499999999999993
 40
1.0
 40
1.0
 40
1.0
 40
1.0
 10
2926.590174818028
 20
-706.6235483352862
 30
0.0000000001127424
 10
2926.396913760752
 20
-706.7025476603228
 30
0.0000000001127424
 10
2926.204592149023
 20
-706.7738151948924
 30
0.0000000001127424
 10
2925.925266690564
 20
-706.8680723060661
 30
0.0000000001127424
 10
2925.835773548056
 20
-706.8967055312537
 30
0.0000000001127424
 10
2925.664496340264
 20
-706.9490406070545
 30
0.0000000001127424
 10
2925.581846927094
 20
-706.972972771975
 30
0.0000000001127424
 10
2925.430373787653
 20
-707.0149721883217
 30
0.0000000001127424
 10
2925.361702216697
 20
-707.0330340558812
 30
0.0000000001127424
 10
2925.239334242438
 20
-707.0641051940418
 30
0.0000000001127424
 10
2925.185494005821
 20
-707.0771367266486
 30
0.0000000001127424
 10
2925.05613971859
 20
-707.1076918314093
 30
0.0000000001127424
 10
2925.009093736947
 20
-707.1178196199774
 30
0.0000000001127424
 10
2925.009093736947
 20
-707.1178196199774
 30
0.0000000001127424
  0
SPLINE
  5
1AB17
330
18
100
AcDbEntity
  8
01
100
AcDbSpline
210
0.0
220
0.0
230
1.0
 70
     8
 71
     3
 72
    18
 73
    14
 74
     0
 42
0.0000000001
 43
0.0000000001
 40
0.0
 40
0.0
 40
0.0
 40
0.0
 40
0.2500000000000002
 40
0.2500000000000002
 40
0.3750000000000002
 40
0.3750000000000002
 40
0.5000000000000002
 40
0.5000000000000002
 40
0.6250000000000002
 40
0.6250000000000002
 40
0.7500000000000001
 40
0.7500000000000001
 40
1.0
 40
1.0
 40
1.0
 40
1.0
 10
2919.211796439649
 20
-688.5733535300915
 30
0.0000000001127424
 10
2919.405057496925
 20
-688.4943542050548
 30
0.0000000001127424
 10
2919.597379108654
 20
-688.4230866704854
 30
0.0000000001127424
 10
2919.876704567113
 20
-688.3288295593118
 30
0.0000000001127424
 10
2919.966197709621
 20
-688.3001963341239
 30
0.0000000001127424
 10
2920.137474917413
 20
-688.2478612583234
 30
0.0000000001127424
 10
2920.220124330583
 20
-688.2239290934026
 30
0.0000000001127424
 10
2920.371597470024
 20
-688.1819296770561
 30
0.0000000001127424
 10
2920.44026904098
 20
-688.1638678094967
 30
0.0000000001127424
 10
2920.562637015239
 20
-688.1327966713359
 30
0.0000000001127424
 10
2920.616477251856
 20
-688.119765138729
 30
0.0000000001127424
 10
2920.745831539087
 20
-688.0892100339686
 30
0.0000000001127424
 10
2920.79287752073
 20
-688.0790822454005
 30
0.0000000001127424
 10
2920.79287752073
 20
-688.0790822454005
 30
0.0000000001127424
  0
SPLINE
  5
1AB18
330
18
100
AcDbEntity
  8
01
100
AcDbSpline
210
0.0
220
0.0
230
1.0
 70
     8
 71
     3
 72
    16
 73
    12
 74
     0
 42
0.0000000001
 43
0.0000000001
 40
0.0
 40
0.0
 40
0.0
 40
0.0
 40
0.1249999999999998
 40
0.1249999999999998
 40
0.2499999999999997
 40
0.2499999999999997
 40
0.4999999999999998
 40
0.4999999999999998
 40
0.7499999999999999
 40
0.7499999999999999
 40
1.0
 40
1.0
 40
1.0
 40
1.0
 10
2920.79287752073
 20
-707.1178196199774
 30
0.0000000001127424
 10
2920.79287752073
 20
-707.1178196199774
 30
0.0000000001127424
 10
2920.781461998604
 20
-707.1153116639864
 30
0.0000000001127424
 10
2920.737028942262
 20
-707.1053068828262
 30
0.0000000001127424
 10
2920.703333341709
 20
-707.0976502177766
 30
0.0000000001127424
 10
2920.573986020248
 20
-707.067105713244
 30
0.0000000001127424
 10
2920.447530139941
 20
-707.036005559467
 30
0.0000000001127424
 10
2920.146583938945
 20
-706.9526025510954
 30
0.0000000001127424
 10
2919.969790504178
 20
-706.8994536215728
 30
0.0000000001127424
 10
2919.600094232174
 20
-706.7747612949693
 30
0.0000000001127424
 10
2919.40502307394
 20
-706.7025335892386
 30
0.0000000001127424
 10
2919.211796439649
 20
-706.6235483352862
 30
0.0000000001127424
  0
SPLINE
  5
1AB19
330
18
100
AcDbEntity
  8
01
100
AcDbSpline
210
0.0
220
0.0
230
1.0
 70
     8
 71
     3
 72
    16
 73
    12
 74
     0
 42
0.0000000001
 43
0.0000000001
 40
0.0
 40
0.0
 40
0.0
 40
0.0
 40
0.1249999999999997
 40
0.1249999999999997
 40
0.2499999999999993
 40
0.2499999999999993
 40
0.4999999999999996
 40
0.4999999999999996
 40
0.7499999999999998
 40
0.7499999999999998
 40
1.0
 40
1.0
 40
1.0
 40
1.0
 10
2925.009093736947
 20
-688.0790822454005
 30
0.0000000001127424
 10
2925.009093736947
 20
-688.0790822454005
 30
0.0000000001127424
 10
2925.020509259073
 20
-688.0815902013915
 30
0.0000000001127424
 10
2925.064942315415
 20
-688.0915949825517
 30
0.0000000001127424
 10
2925.098637915968
 20
-688.0992516476012
 30
0.0000000001127424
 10
2925.227985237429
 20
-688.1297961521338
 30
0.0000000001127424
 10
2925.354441117736
 20
-688.1608963059107
 30
0.0000000001127424
 10
2925.655387318732
 20
-688.2442993142822
 30
0.0000000001127424
 10
2925.832180753499
 20
-688.2974482438049
 30
0.0000000001127424
 10
2926.201877025503
 20
-688.4221405704084
 30
0.0000000001127424
 10
2926.396948183737
 20
-688.4943682761391
 30
0.0000000001127424
 10
2926.590174818028
 20
-688.5733535300915
 30
0.0000000001127424
  0
ARC
  5
1AB1A
330
18
100
AcDbEntity
  8
01
100
AcDbCircle
 10
2922.900985628838
 20
-697.5984509326888
 30
0.0000000001127424
 40
9.750000000000005
100
AcDbArc
 50
112.2332717982963
 51
247.7667282017037
  0
ARC
  5
1AB1B
330
18
100
AcDbEntity
  8
01
100
AcDbCircle
 10
2922.900985628838
 20
-697.5984509326888
 30
0.0000000001127424
 40
9.750000000000009
100
AcDbArc
 50
292.2332717982963
 51
67.7667282017037
  0
CIRCLE
  5
1AB1C
330
18
100
AcDbEntity
  8
01
100
AcDbCircle
 10
2922.900985628838
 20
-697.5984509326888
 30
0.0000000001127424
 40
10.3
  0
SPLINE
  5
1AB1D
330
18
100
AcDbEntity
  8
01
100
AcDbSpline
210
0.0
220
0.0
230
1.0
 70
    24
 71
     1
 72
     4
 73
     2
 74
     0
 42
0.0000000001
 43
0.0000000001
 40
0.1160848018737504
 40
0.1160848018737504
 40
1.0
 40
1.0
 10
3066.600989628841
 20
-707.3484509326961
 30
0.0000000001127427
 10
3051.900964817828
 20
-707.3484509326961
 30
0.0000000001127427
  0
SPLINE
  5
1AB1E
330
18
100
AcDbEntity
  8
01
100
AcDbSpline
210
0.0
220
0.0
230
1.0
 70
    24
 71
     1
 72
     4
 73
     2
 74
     0
 42
0.0000000001
 43
0.0000000001
 40
0.0
 40
0.0
 40
0.8839151981262495
 40
0.8839151981262495
 10
3051.900964817828
 20
-687.8484509326961
 30
0.0000000001127427
 10
3066.60098962884
 20
-687.8484509326961
 30
0.0000000001127427
  0
ARC
  5
1AB1F
330
18
100
AcDbEntity
  8
01
100
AcDbCircle
 10
3051.900964817828
 20
-706.3484509326961
 30
0.0000000001127427
 40
1.0
100
AcDbArc
 50
180.0
 51
270.0
  0
ARC
  5
1AB20
330
18
100
AcDbEntity
  8
01
100
AcDbCircle
 10
3051.900964817828
 20
-688.8484509326961
 30
0.0000000001127427
 40
1.0
100
AcDbArc
 50
90.0
 51
180.0
  0
LINE
  5
1AB21
330
18
100
AcDbEntity
  8
01
100
AcDbLine
 10
3065.400964817828
 20
-689.0361790379243
 30
0.0000000001127427
 11
3065.400964817828
 21
-706.1607228274679
 31
0.0000000001127427
  0
SPLINE
  5
1AB22
330
18
100
AcDbEntity
  8
01
100
AcDbSpline
210
0.0
220
0.0
230
1.0
 70
     8
 71
     3
 72
    14
 73
    10
 74
     0
 42
0.0000000001
 43
0.0000000001
 40
0.0
 40
0.0
 40
0.0
 40
0.0
 40
0.25
 40
0.25
 40
0.5
 40
0.5
 40
0.75
 40
0.75
 40
1.0
 40
1.0
 40
1.0
 40
1.0
 10
3064.400964817828
 20
-688.567254998602
 30
0.0000000001127427
 10
3064.540932495581
 20
-688.567254998602
 30
0.0000000001127427
 10
3064.679353769726
 20
-688.5768909539088
 30
0.0000000001127427
 10
3064.929404109681
 20
-688.6159718628503
 30
0.0000000001127427
 10
3065.04172167251
 20
-688.645777997724
 30
0.0000000001127427
 10
3065.222769043597
 20
-688.726697734508
 30
0.0000000001127427
 10
3065.290569679901
 20
-688.7770872706997
 30
0.0000000001127427
 10
3065.380188596444
 20
-688.8964568597144
 30
0.0000000001127427
 10
3065.400964817828
 20
-688.9632563104258
 30
0.0000000001127427
 10
3065.400964817828
 20
-689.0361790379243
 30
0.0000000001127427
  0
SPLINE
  5
1AB23
330
18
100
AcDbEntity
  8
01
100
AcDbSpline
210
0.0
220
0.0
230
1.0
 70
     8
 71
     3
 72
    14
 73
    10
 74
     0
 42
0.0000000001
 43
0.0000000001
 40
0.0
 40
0.0
 40
0.0
 40
0.0
 40
0.25
 40
0.25
 40
0.5
 40
0.5
 40
0.75
 40
0.75
 40
1.0
 40
1.0
 40
1.0
 40
1.0
 10
3065.400964817828
 20
-706.1607228274679
 30
0.0000000001127427
 10
3065.400964817828
 20
-706.2336395146024
 30
0.0000000001127427
 10
3065.379604410567
 20
-706.3014242104632
 30
0.0000000001127427
 10
3065.290465218891
 20
-706.4197510844269
 30
0.0000000001127427
 10
3065.221532588736
 20
-706.4708639391952
 30
0.0000000001127427
 10
3065.04148514837
 20
-706.5511215313488
 30
0.0000000001127427
 10
3064.928779474875
 20
-706.5810843510553
 30
0.0000000001127427
 10
3064.678208861255
 20
-706.6201327265894
 30
0.0000000001127427
 10
3064.540822711938
 20
-706.6296468667904
 30
0.0000000001127427
 10
3064.400964817828
 20
-706.6296468667904
 30
0.0000000001127427
  0
LINE
  5
1AB24
330
18
100
AcDbEntity
  8
01
100
AcDbLine
 10
3064.400964817828
 20
-706.6296468667904
 30
0.0000000001127427
 11
3051.900964817828
 21
-706.6296468667904
 31
0.0000000001127427
  0
LINE
  5
1AB25
330
18
100
AcDbEntity
  8
01
100
AcDbLine
 10
3051.900964817828
 20
-688.567254998602
 30
0.0000000001127427
 11
3064.400964817828
 21
-688.567254998602
 31
0.0000000001127427
  0
SPLINE
  5
1AB26
330
18
100
AcDbEntity
  8
01
100
AcDbSpline
210
0.0
220
0.0
230
1.0
 70
     8
 71
     3
 72
    14
 73
    10
 74
     0
 42
0.0000000001
 43
0.0000000001
 40
0.0
 40
0.0
 40
0.0
 40
0.0
 40
0.2500000000000001
 40
0.2500000000000001
 40
0.5000000000000002
 40
0.5000000000000002
 40
0.7500000000000003
 40
0.7500000000000003
 40
1.0
 40
1.0
 40
1.0
 40
1.0
 10
3051.900964817828
 20
-688.567254998602
 30
0.0000000001127427
 10
3051.7637559029
 20
-688.567254998602
 30
0.0000000001127427
 10
3051.628752357388
 20
-688.5786298086971
 30
0.0000000001127427
 10
3051.381415898735
 20
-688.6215846760174
 30
0.0000000001127427
 10
3051.27091446937
 20
-688.652829003122
 30
0.0000000001127427
 10
3051.088720795842
 20
-688.7300145205131
 30
0.0000000001127427
 10
3051.019727693457
 20
-688.7743551357726
 30
0.0000000001127427
 10
3050.924960154971
 20
-688.8723367871507
 30
0.0000000001127427
 10
3050.900964817828
 20
-688.9248302101676
 30
0.0000000001127427
 10
3050.900964817828
 20
-688.9779811079129
 30
0.0000000001127427
  0
SPLINE
  5
1AB27
330
18
100
AcDbEntity
  8
01
100
AcDbSpline
210
0.0
220
0.0
230
1.0
 70
     8
 71
     3
 72
    14
 73
    10
 74
     0
 42
0.0000000001
 43
0.0000000001
 40
0.0
 40
0.0
 40
0.0
 40
0.0
 40
0.2500000000000001
 40
0.2500000000000001
 40
0.5000000000000002
 40
0.5000000000000002
 40
0.7500000000000003
 40
0.7500000000000003
 40
1.0
 40
1.0
 40
1.0
 40
1.0
 10
3051.900964817828
 20
-706.6296468667904
 30
0.0000000001127427
 10
3051.7637559029
 20
-706.6296468667904
 30
0.0000000001127427
 10
3051.628752357388
 20
-706.6182720566951
 30
0.0000000001127427
 10
3051.381415898735
 20
-706.5753171893748
 30
0.0000000001127427
 10
3051.27091446937
 20
-706.5440728622702
 30
0.0000000001127427
 10
3051.088720795842
 20
-706.4668873448791
 30
0.0000000001127427
 10
3051.019727693457
 20
-706.4225467296196
 30
0.0000000001127427
 10
3050.924960154971
 20
-706.3245650782414
 30
0.0000000001127427
 10
3050.900964817828
 20
-706.2720716552249
 30
0.0000000001127427
 10
3050.900964817828
 20
-706.2189207574795
 30
0.0000000001127427
  0
LINE
  5
1AB28
330
18
100
AcDbEntity
  8
01
100
AcDbLine
 10
3050.900964817828
 20
-688.9779811079129
 30
0.0000000001127427
 11
3050.900964817828
 21
-706.2189207574795
 31
0.0000000001127427
  0
LINE
  5
1AB29
330
18
100
AcDbEntity
  8
01
100
AcDbLine
 10
3050.900964817828
 20
-706.2189207574795
 30
0.0000000001127427
 11
3050.900964817828
 21
-706.3484509326961
 31
0.0000000001127427
  0
LINE
  5
1AB2A
330
18
100
AcDbEntity
  8
01
100
AcDbLine
 10
3243.400989372482
 20
-451.2984509337175
 30
0.0000000001127424
 11
3282.400989372482
 21
-451.2984509337173
 31
0.0000000001127424
  0
LINE
  5
1AB2B
330
18
100
AcDbEntity
  8
01
100
AcDbLine
 10
3282.900989372482
 20
-457.5984509337175
 30
0.0000000001127424
 11
3242.900989372482
 21
-457.5984509337179
 31
0.0000000001127424
  0
LINE
  5
1AB2C
330
18
100
AcDbEntity
  8
01
100
AcDbLine
 10
3282.900989372482
 20
-457.5984509337175
 30
0.0000000001127424
 11
3282.900989372482
 21
-451.7984509337173
 31
0.0000000001127424
  0
ARC
  5
1AB2D
330
18
100
AcDbEntity
  8
01
100
AcDbCircle
 10
3282.400989372482
 20
-451.7984509337175
 30
0.0000000001127424
 40
0.5
100
AcDbArc
 50
0.0
 51
90.0
  0
LINE
  5
1AB2E
330
18
100
AcDbEntity
  8
01
100
AcDbLine
 10
3242.900989372482
 20
-457.5984509337179
 30
0.0000000001127424
 11
3242.900989372482
 21
-451.7984509337175
 31
0.0000000001127424
  0
ARC
  5
1AB2F
330
18
100
AcDbEntity
  8
01
100
AcDbCircle
 10
3243.400989372482
 20
-451.7984509337175
 30
0.0000000001127424
 40
0.5
100
AcDbArc
 50
90.0
 51
180.0
  0
LINE
  5
1AB30
330
18
100
AcDbEntity
  8
01
100
AcDbLine
 10
3259.401001593696
 20
-450.0984542669178
 30
0.0000000000565071
 11
3253.65100159369
 21
-450.0984542669166
 31
0.0000000000565071
  0
LINE
  5
1AB31
330
18
100
AcDbEntity
  8
01
100
AcDbLine
 10
3260.401001593697
 20
-436.5984313227111
 30
0.0000000000565071
 11
3260.401001593696
 21
-449.0984542669178
 31
0.0000000000565071
  0
LINE
  5
1AB32
330
18
100
AcDbEntity
  8
01
100
AcDbLine
 10
3265.401001593697
 20
-436.5984313227129
 30
0.0000000000565071
 11
3265.401001593697
 21
-449.098454266916
 31
0.0000000000565071
  0
ARC
  5
1AB33
330
18
100
AcDbEntity
  8
01
100
AcDbCircle
 10
3264.401001593698
 20
-436.5984313227111
 30
0.0000000000565071
 40
1.0
100
AcDbArc
 50
0.0000000000521102
 51
90.0
  0
ARC
  5
1AB34
330
18
100
AcDbEntity
  8
01
100
AcDbCircle
 10
3261.401001593698
 20
-436.5984313227111
 30
0.0000000000565071
 40
1.0
100
AcDbArc
 50
90.0
 51
180.0
  0
LINE
  5
1AB35
330
18
100
AcDbEntity
  8
01
100
AcDbLine
 10
3264.401001593697
 20
-435.5984313227093
 30
0.0000000000565071
 11
3261.401001593698
 21
-435.5984313227093
 31
0.0000000000565071
  0
LINE
  5
1AB36
330
18
100
AcDbEntity
  8
01
100
AcDbLine
 10
3272.151001593689
 20
-450.098454266916
 30
0.0000000000565071
 11
3266.401001593697
 21
-450.098454266916
 31
0.0000000000565071
  0
ARC
  5
1AB37
330
18
100
AcDbEntity
  8
01
100
AcDbCircle
 10
3266.401001593698
 20
-449.098454266916
 30
0.0000000000565071
 40
1.0
100
AcDbArc
 50
180.0
 51
270.0
  0
ARC
  5
1AB38
330
18
100
AcDbEntity
  8
01
100
AcDbCircle
 10
3259.401001593696
 20
-449.0984542669178
 30
0.0000000000565071
 40
1.0
100
AcDbArc
 50
270.0
 51
0.0
  0
LINE
  5
1AB39
330
18
100
AcDbEntity
  8
01
100
AcDbLine
 10
3253.151001593689
 20
-450.5984542669164
 30
0.0000000001127646
 11
3253.151001593689
 21
-451.2984509337173
 31
0.0000000001127424
  0
ARC
  5
1AB3A
330
18
100
AcDbEntity
  8
01
100
AcDbCircle
 10
3253.65100159369
 20
-450.5984542669164
 30
0.0000000001127646
 40
0.5
100
AcDbArc
 50
90.0
 51
180.0
  0
LINE
  5
1AB3B
330
18
100
AcDbEntity
  8
01
100
AcDbLine
 10
3272.651001593689
 20
-450.5984542669164
 30
0.0000000001127646
 11
3272.651001593689
 21
-451.2984509337173
 31
0.0000000001127424
  0
ARC
  5
1AB3C
330
18
100
AcDbEntity
  8
01
100
AcDbCircle
 10
3272.151001593689
 20
-450.5984542669164
 30
0.0000000001127646
 40
0.5
100
AcDbArc
 50
0.0
 51
90.0
  0
LINE
  5
1AB3E
330
18
100
AcDbEntity
  8
01
100
AcDbLine
 10
3119.20098962884
 20
-711.598446068499
 30
0.0000000000564849
 11
3119.20098962884
 21
-672.5984460684995
 31
0.0000000000564849
  0
LINE
  5
1AB3F
330
18
100
AcDbEntity
  8
01
100
AcDbLine
 10
3112.900989628835
 20
-712.0984460684992
 30
0.0000000000564849
 11
3118.70098962884
 21
-712.098446068499
 31
0.0000000000564849
  0
ARC
  5
1AB40
330
18
100
AcDbEntity
  8
01
100
AcDbCircle
 10
3118.70098962884
 20
-711.598446068499
 30
0.0000000000564849
 40
0.5
100
AcDbArc
 50
270.0
 51
0.0
  0
LINE
  5
1AB41
330
18
100
AcDbEntity
  8
01
100
AcDbLine
 10
3112.90098962884
 20
-672.098446068499
 30
0.0000000000564849
 11
3118.70098962884
 21
-672.0984460684995
 31
0.0000000000564849
  0
ARC
  5
1AB42
330
18
100
AcDbEntity
  8
01
100
AcDbCircle
 10
3118.70098962884
 20
-672.5984460684995
 30
0.0000000000564849
 40
0.5
100
AcDbArc
 50
0.0
 51
90.0
  0
LINE
  5
1AB43
330
18
100
AcDbEntity
  8
01
100
AcDbLine
 10
3119.9429733178
 20
-694.0984496117505
 30
0.0000000001127388
 11
3119.200989628839
 21
-694.0984496117508
 31
0.0000000001127388
  0
LINE
  5
1AB44
330
18
100
AcDbEntity
  8
01
100
AcDbLine
 10
3119.9429733178
 20
-701.0984496117505
 30
0.0000000001127388
 11
3119.200989628839
 21
-701.0984496117505
 31
0.0000000001127388
  0
ARC
  5
1AB45
330
18
100
AcDbEntity
  8
01
100
AcDbCircle
 10
3115.0695733178
 20
-697.5984496117505
 30
0.0000000001127388
 40
6.0
100
AcDbArc
 50
324.3146699999792
 51
35.68533471265081
  0
LINE
  5
1AB50
330
18
100
AcDbEntity
  8
01
100
AcDbLine
 10
3206.900873289093
 20
-669.598450932689
 30
0.0000000001127424
 11
3220.900873289093
 21
-669.598450932689
 31
0.0000000001127424
  0
LINE
  5
1AB51
330
18
100
AcDbEntity
  8
01
100
AcDbLine
 10
3211.901757471153
 20
-457.5984509337177
 30
0.0000000001127424
 11
3365.656137626186
 21
-457.5984509337177
 31
0.0000000001127424
  0
LINE
  5
1AB52
330
18
100
AcDbEntity
  8
01
  6
BYBLOCK
100
AcDbLine
 10
3211.901757471153
 20
-457.5984509337177
 30
0.0000000001127424
 11
3211.901757471153
 21
-497.5984509337177
 31
0.0000000001127424
  0
LINE
  5
1AB56
330
18
100
AcDbEntity
  8
01
100
AcDbLine
 10
3262.900873289092
 20
-462.5984509347463
 30
0.0000000001127424
 11
3262.900873289092
 21
-431.6803707454974
 31
0.0000000001127424
  0
LINE
  5
1AB57
330
18
100
AcDbEntity
  8
01
100
AcDbLine
 10
3237.900873289093
 20
-457.5984509337168
 30
0.0000000001127424
 11
3287.900873289093
 21
-457.5984509337191
 31
0.0000000001127424
  0
LINE
  5
1AB58
330
18
100
AcDbEntity
  8
01
100
AcDbLine
 10
3238.90087328909
 20
-449.0984509337168
 30
0.0000000001127424
 11
3260.400989694935
 21
-449.0984509337184
 31
0.0000000001127424
  0
LINE
  5
1AB59
330
18
100
AcDbEntity
  8
01
100
AcDbLine
 10
3265.400989694936
 20
-449.0984509337186
 30
0.0000000001127424
 11
3286.900873289093
 21
-449.0984509337204
 31
0.0000000001127424
  0
ARC
  5
1AB5A
330
18
100
AcDbEntity
  8
01
100
AcDbCircle
 10
3238.90087328909
 20
-450.0984509337168
 30
0.0000000001127424
 40
1.0
100
AcDbArc
 50
90.0
 51
180.0000000000261
  0
LINE
  5
1AB5B
330
18
100
AcDbEntity
  8
01
100
AcDbLine
 10
3287.900873289093
 20
-457.5984509337191
 30
0.0000000001127424
 11
3287.900873289093
 21
-450.0984509337204
 31
0.0000000001127424
  0
ARC
  5
1AB5C
330
18
100
AcDbEntity
  8
01
100
AcDbCircle
 10
3286.900873289093
 20
-450.0984509337204
 30
0.0000000001127424
 40
1.0
100
AcDbArc
 50
0.0
 51
90.0
  0
LINE
  5
1AB5D
330
18
100
AcDbEntity
  8
01
100
AcDbLine
 10
3237.900873289093
 20
-457.5984509337168
 30
0.0000000001127424
 11
3237.90087328909
 21
-450.0984509337172
 31
0.0000000001127424
  0
LINE
  5
1AB5E
330
18
100
AcDbEntity
  8
01
  6
BYBLOCK
100
AcDbLine
 10
3213.400873289093
 20
-661.698450932689
 30
0.0000000001127424
 11
3213.400873289093
 21
-791.4984509326889
 31
0.0000000001127424
  0
LINE
  5
1AB5F
330
18
100
AcDbEntity
  8
01
  6
BYBLOCK
100
AcDbLine
 10
3213.400873289093
 20
-790.598450932689
 30
0.0000000001127424
 11
3215.900873289093
 21
-790.598450932689
 31
0.0000000001127424
  0
LINE
  5
1AB60
330
18
100
AcDbEntity
  8
01
  6
BYBLOCK
100
AcDbLine
 10
3215.900873289093
 20
-790.598450932689
 30
0.0000000001127424
 11
3215.900873289093
 21
-774.0955072075367
 31
0.0000000001127424
  0
LINE
  5
1AB61
330
18
100
AcDbEntity
  8
01
  6
BYBLOCK
100
AcDbLine
 10
3211.900873289093
 20
-661.698450932689
 30
0.0000000001127424
 11
3211.900873289093
 21
-791.4984509326889
 31
0.0000000001127424
  0
LINE
  5
1AB62
330
18
100
AcDbEntity
  8
01
  6
BYBLOCK
100
AcDbLine
 10
3211.900873289093
 20
-791.4984509326889
 30
0.0000000001127424
 11
3213.400873289093
 21
-791.4984509326889
 31
0.0000000001127424
  0
LINE
  5
1AB63
330
18
100
AcDbEntity
  8
01
  6
BYBLOCK
100
AcDbLine
 10
3213.400873289093
 20
-662.598450932689
 30
0.0000000001127424
 11
3215.900873289093
 21
-662.598450932689
 31
0.0000000001127424
  0
LINE
  5
1AB64
330
18
100
AcDbEntity
  8
01
  6
BYBLOCK
100
AcDbLine
 10
3211.900873289093
 20
-661.698450932689
 30
0.0000000001127424
 11
3213.400873289093
 21
-661.698450932689
 31
0.0000000001127424
  0
LINE
  5
1AB65
330
18
100
AcDbEntity
  8
01
  6
BYBLOCK
100
AcDbLine
 10
3213.400873289093
 20
-686.598450932689
 30
0.0000000001127424
 11
3214.600873289093
 21
-686.598450932689
 31
0.0000000001127424
  0
LINE
  5
1AB66
330
18
100
AcDbEntity
  8
01
  6
BYBLOCK
100
AcDbLine
 10
3214.600873289093
 20
-680.8984509326888
 30
0.0000000001127424
 11
3214.600873289093
 21
-772.2984509326889
 31
0.0000000001127424
  0
LINE
  5
1AB67
330
18
100
AcDbEntity
  8
01
  6
BYBLOCK
100
AcDbLine
 10
3214.700873289094
 20
-790.598450932689
 30
0.0000000001127424
 11
3214.700873289094
 21
-773.9984509326889
 31
0.0000000001127424
  0
LINE
  5
1AB68
330
18
100
AcDbEntity
  8
01
  6
BYBLOCK
100
AcDbLine
 10
3214.700873289094
 20
-773.9984509326889
 30
0.0000000001127424
 11
3213.752345151669
 21
-773.049922795265
 31
0.0000000001127424
  0
LINE
  5
1AB69
330
18
100
AcDbEntity
  8
01
  6
BYBLOCK
100
AcDbLine
 10
3215.549401426517
 20
-773.2469790701127
 30
0.0000000001127424
 11
3214.600873289093
 21
-772.2984509326889
 31
0.0000000001127424
  0
ARC
  5
1AB6A
330
18
100
AcDbEntity
  8
01
  6
BYBLOCK
100
AcDbCircle
 10
3214.700873289094
 20
-774.0955072075367
 30
0.0000000001127424
 40
1.2
100
AcDbArc
 50
0.0
 51
45.00000000005527
  0
ARC
  5
1AB6B
330
18
100
AcDbEntity
  8
01
  6
BYBLOCK
100
AcDbCircle
 10
3214.600873289093
 20
-772.2013946578411
 30
0.0000000001127424
 40
1.2
100
AcDbArc
 50
180.0
 51
225.0000000000553
  0
LINE
  5
1AB6C
330
18
100
AcDbEntity
  8
01
  6
BYBLOCK
100
AcDbLine
 10
3215.900873289093
 20
-662.598450932689
 30
0.0000000001127424
 11
3215.900873289093
 21
-679.1013946578412
 31
0.0000000001127424
  0
LINE
  5
1AB6D
330
18
100
AcDbEntity
  8
01
  6
BYBLOCK
100
AcDbLine
 10
3214.700873289094
 20
-662.598450932689
 30
0.0000000001127424
 11
3214.700873289094
 21
-679.198450932689
 31
0.0000000001127424
  0
LINE
  5
1AB6E
330
18
100
AcDbEntity
  8
01
  6
BYBLOCK
100
AcDbLine
 10
3214.700873289094
 20
-679.198450932689
 30
0.0000000001127424
 11
3213.752345151669
 21
-680.1469790701128
 31
0.0000000001127424
  0
LINE
  5
1AB6F
330
18
100
AcDbEntity
  8
01
  6
BYBLOCK
100
AcDbLine
 10
3215.549401426517
 20
-679.9499227952651
 30
0.0000000001127424
 11
3214.600873289093
 21
-680.898450932689
 31
0.0000000001127424
  0
ARC
  5
1AB70
330
18
100
AcDbEntity
  8
01
  6
BYBLOCK
100
AcDbCircle
 10
3214.700873289094
 20
-679.1013946578412
 30
0.0000000001127424
 40
1.2
100
AcDbArc
 50
314.9999999999447
 51
0.0
  0
ARC
  5
1AB71
330
18
100
AcDbEntity
  8
01
  6
BYBLOCK
100
AcDbCircle
 10
3214.600873289093
 20
-680.9955072075368
 30
0.0000000001127424
 40
1.2
100
AcDbArc
 50
134.9999999999447
 51
180.0
  0
CIRCLE
  5
1AB72
330
18
100
AcDbEntity
  8
1HIDDEN
100
AcDbCircle
 10
3262.900873289093
 20
-697.598450932689
 30
0.0000000001127424
 40
4.75
  0
LINE
  5
1AB73
330
18
100
AcDbEntity
  8
01
  6
BYBLOCK
100
AcDbLine
 10
3214.600873289093
 20
-763.5984509326893
 30
0.0000000001127424
 11
3243.691500576794
 21
-763.598450932689
 31
0.0000000001127424
  0
ARC
  5
1AB74
330
18
100
AcDbEntity
  8
01
  6
BYBLOCK
100
AcDbCircle
 10
3215.001757471154
 20
-474.0372003907178
 30
0.0000000001127424
 40
1.6
100
AcDbArc
 50
115.944479772022
 51
180.0
  0
ARC
  5
1AB75
330
18
100
AcDbEntity
  8
01
  6
BYBLOCK
100
AcDbCircle
 10
3215.001757471154
 20
-481.1597014767176
 30
0.0000000001127424
 40
1.6
100
AcDbArc
 50
180.0
 51
244.055520227978
  0
ARC
  5
1AB76
330
18
100
AcDbEntity
  8
01
  6
BYBLOCK
100
AcDbCircle
 10
3214.301757471153
 20
-482.4372003907176
 30
0.0000000001127424
 40
1.6
100
AcDbArc
 50
0.0
 51
64.05552022797804
  0
ARC
  5
1AB77
330
18
100
AcDbEntity
  8
01
  6
BYBLOCK
100
AcDbCircle
 10
3214.301757471153
 20
-472.7597014767177
 30
0.0000000001127424
 40
1.6
100
AcDbArc
 50
295.944479772022
 51
0.0
  0
LINE
  5
1AB78
330
18
100
AcDbEntity
  8
01
  6
BYBLOCK
100
AcDbLine
 10
3215.901757471153
 20
-472.7597014767177
 30
0.0000000001127424
 11
3215.901757471153
 21
-465.3984509337176
 31
0.0000000001127424
  0
LINE
  5
1AB79
330
18
100
AcDbEntity
  8
01
  6
BYBLOCK
100
AcDbLine
 10
3215.001757471154
 20
-480.9984509337178
 30
0.0000000001127424
 11
3215.001757471154
 21
-474.1984509337176
 31
0.0000000001127424
  0
LINE
  5
1AB7A
330
18
100
AcDbEntity
  8
01
  6
BYBLOCK
100
AcDbLine
 10
3215.901757471153
 20
-489.5984509337177
 30
0.0000000001127424
 11
3215.901757471153
 21
-482.4372003907176
 31
0.0000000001127424
  0
LINE
  5
1AB7B
330
18
100
AcDbEntity
  8
01
  6
BYBLOCK
100
AcDbLine
 10
3214.301757471153
 20
-472.5984509337177
 30
0.0000000001127424
 11
3214.301757471154
 21
-465.3984509337176
 31
0.0000000001127424
  0
LINE
  5
1AB7C
330
18
100
AcDbEntity
  8
01
  6
BYBLOCK
100
AcDbLine
 10
3214.301757471153
 20
-482.5984509337177
 30
0.0000000001127424
 11
3214.301757471153
 21
-489.6984509337176
 31
0.0000000001127424
  0
ARC
  5
1AB7D
330
18
100
AcDbEntity
  8
01
  6
BYBLOCK
100
AcDbCircle
 10
3279.301757471153
 20
-469.6984509337176
 30
0.0000000001127424
 40
1.6
100
AcDbArc
 50
0.0
 51
90.0
  0
LINE
  5
1AB7E
330
18
100
AcDbEntity
  8
01
  6
BYBLOCK
100
AcDbLine
 10
3213.401757471153
 20
-465.1984509337176
 30
0.0000000001127424
 11
3213.401757471153
 21
-489.9984509337175
 31
0.0000000001127424
  0
LINE
  5
1AB7F
330
18
100
AcDbEntity
  8
01
  6
BYBLOCK
100
AcDbLine
 10
3279.301757471153
 20
-468.0984509337177
 30
0.0000000001127424
 11
3215.901757471153
 21
-468.0984509337177
 31
0.0000000001127424
  0
LINE
  5
1AB80
330
18
100
AcDbEntity
  8
01
  6
BYBLOCK
100
AcDbLine
 10
3279.301757471153
 20
-485.2984509337177
 30
0.0000000001127424
 11
3279.301757471153
 21
-468.0984509337177
 31
0.0000000001127424
  0
LINE
  5
1AB81
330
18
100
AcDbEntity
  8
01
  6
BYBLOCK
100
AcDbLine
 10
3280.901757471153
 20
-486.8984509337176
 30
0.0000000001127424
 11
3280.901757471153
 21
-469.6984509337176
 31
0.0000000001127424
  0
LINE
  5
1AB82
330
18
100
AcDbEntity
  8
01
  6
BYBLOCK
100
AcDbLine
 10
3213.401757471153
 20
-465.3984509337176
 30
0.0000000001127424
 11
3215.901757471153
 21
-465.3984509337176
 31
0.0000000001127424
  0
LINE
  5
1AB83
330
18
100
AcDbEntity
  8
01
  6
BYBLOCK
100
AcDbLine
 10
3215.901757471153
 20
-489.5984509337177
 30
0.0000000001127424
 11
3214.301757471153
 21
-489.5984509337177
 31
0.0000000001127424
  0
LINE
  5
1AB84
330
18
100
AcDbEntity
  8
01
  6
BYBLOCK
100
AcDbLine
 10
3214.301757471153
 20
-489.6984509337176
 30
0.0000000001127424
 11
3213.401757471153
 21
-489.6984509337176
 31
0.0000000001127424
  0
ARC
  5
1AB85
330
18
100
AcDbEntity
  8
01
  6
BYBLOCK
100
AcDbCircle
 10
3210.602352398552
 20
-483.298450933717
 30
0.0000000001127424
 40
0.3000000000000051
100
AcDbArc
 50
232.8678058729389
 51
270.0
  0
LINE
  5
1AB86
330
18
100
AcDbEntity
  8
01
  6
BYBLOCK
100
AcDbLine
 10
3211.401757471153
 20
-483.598450933717
 30
0.0000000001127424
 11
3210.602352398552
 21
-483.598450933717
 31
0.0000000001127424
  0
LINE
  5
1AB87
330
18
100
AcDbEntity
  8
01
  6
BYBLOCK
100
AcDbLine
 10
3201.001757471154
 20
-473.9254620675129
 30
0.0000000001127424
 11
3201.001757471154
 21
-474.0960841230619
 31
0.0000000001127424
  0
ARC
  5
1AB88
330
18
100
AcDbEntity
  8
01
  6
BYBLOCK
100
AcDbCircle
 10
3201.301757471153
 20
-474.0960841230619
 30
0.0000000001127424
 40
0.3
100
AcDbArc
 50
180.0
 51
217.7405295629614
  0
ARC
  5
1AB89
330
18
100
AcDbEntity
  8
01
  6
BYBLOCK
100
AcDbCircle
 10
3240.604058070438
 20
-443.6753811791211
 30
0.0000000001127424
 40
50.00000000000002
100
AcDbArc
 50
217.7405295629665
 51
232.8678058729428
  0
LINE
  5
1AB8A
330
18
100
AcDbEntity
  8
01
  6
BYBLOCK
100
AcDbLine
 10
3200.801757471153
 20
-472.7984509337175
 30
0.0000000001127424
 11
3200.801757471153
 21
-472.0984509337177
 31
0.0000000001127424
  0
ARC
  5
1AB8B
330
18
100
AcDbEntity
  8
01
  6
BYBLOCK
100
AcDbCircle
 10
3201.301757471153
 20
-472.0984509337177
 30
0.0000000001127424
 40
0.5000000000000142
100
AcDbArc
 50
90.0
 51
180.0
  0
LINE
  5
1AB8C
330
18
100
AcDbEntity
  8
01
  6
BYBLOCK
100
AcDbLine
 10
3211.401757471153
 20
-471.5984509337177
 30
0.0000000001127424
 11
3201.301757471153
 21
-471.5984509337177
 31
0.0000000001127424
  0
LINE
  5
1AB8D
330
18
100
AcDbEntity
  8
01
  6
BYBLOCK
100
AcDbLine
 10
3200.801757471153
 20
-473.177130590158
 30
0.0000000001127424
 11
3200.801757471153
 21
-472.7984509337175
 31
0.0000000001127424
  0
SPLINE
  5
1AB8E
330
18
100
AcDbEntity
  8
01
  6
BYBLOCK
100
AcDbSpline
210
0.0
220
0.0
230
1.0
 70
     8
 71
     3
 72
     8
 73
     4
 74
     0
 42
0.0000000001
 43
0.0000000001
 40
0.0
 40
0.0
 40
0.0
 40
0.0
 40
1.0
 40
1.0
 40
1.0
 40
1.0
 10
3200.827490012418
 20
-473.453781019607
 30
0.0000000001127424
 10
3200.810022126307
 20
-473.3606948237266
 30
0.0000000001127424
 10
3200.801757471153
 20
-473.2674288128351
 30
0.0000000001127424
 10
3200.801757471153
 20
-473.1771305901575
 30
0.0000000001127424
  0
ARC
  5
1AB8F
330
18
100
AcDbEntity
  8
01
  6
BYBLOCK
100
AcDbCircle
 10
3202.301757471153
 20
-473.177130590158
 30
0.0000000001127424
 40
1.499999999999998
100
AcDbArc
 50
190.628112987605
 51
225.0000000000553
  0
LINE
  5
1AB90
330
18
100
AcDbEntity
  8
01
  6
BYBLOCK
100
AcDbLine
 10
3211.901757471153
 20
-470.7484509337175
 30
0.0000000001127424
 11
3211.401757471153
 21
-470.7484509337175
 31
0.0000000001127424
  0
LINE
  5
1AB91
330
18
100
AcDbEntity
  8
01
  6
BYBLOCK
100
AcDbLine
 10
3211.401757471153
 20
-484.4484509337176
 30
0.0000000001127424
 11
3211.901757471153
 21
-484.4484509337176
 31
0.0000000001127424
  0
LINE
  5
1AB92
330
18
100
AcDbEntity
  8
01
  6
BYBLOCK
100
AcDbLine
 10
3211.401757471153
 20
-484.4484509337176
 30
0.0000000001127424
 11
3211.401757471153
 21
-470.7484509337175
 31
0.0000000001127424
  0
LINE
  5
1AB93
330
18
100
AcDbEntity
  8
01
  6
BYBLOCK
100
AcDbLine
 10
3211.901757471153
 20
-465.1984509337176
 30
0.0000000001127424
 11
3213.401757471153
 21
-465.1984509337176
 31
0.0000000001127424
  0
LINE
  5
1AB94
330
18
100
AcDbEntity
  8
01
  6
BYBLOCK
100
AcDbLine
 10
3211.901757471153
 20
-489.9984509337175
 30
0.0000000001127424
 11
3213.401757471153
 21
-489.9984509337175
 31
0.0000000001127424
  0
LINE
  5
1AB95
330
18
100
AcDbEntity
  8
01
  6
BYBLOCK
100
AcDbLine
 10
3211.901757471153
 20
-489.9984509337175
 30
0.0000000001127424
 11
3211.901757471153
 21
-465.1984509337176
 31
0.0000000001127424
  0
LINE
  5
1AB96
330
18
100
AcDbEntity
  8
01
  6
BYBLOCK
100
AcDbLine
 10
3280.901757471153
 20
-485.2984509337177
 30
0.0000000001127424
 11
3215.901757471153
 21
-485.2984509337177
 31
0.0000000001127424
  0
LINE
  5
1AB97
330
18
100
AcDbEntity
  8
01
  6
BYBLOCK
100
AcDbLine
 10
3280.901757471153
 20
-486.8984509337176
 30
0.0000000001127424
 11
3230.501757471154
 21
-486.8984509337176
 31
0.0000000001127424
  0
LINE
  5
1AB98
330
18
100
AcDbEntity
  8
01
  6
BYBLOCK
100
AcDbLine
 10
3233.339015771357
 20
-486.8984509337176
 30
0.0000000001127424
 11
3215.901757471153
 21
-486.8984509337176
 31
0.0000000001127424
  0
LINE
  5
1AB99
330
18
100
AcDbEntity
  8
01
  6
BYBLOCK
100
AcDbLine
 10
3210.455310861747
 20
-483.452004324311
 30
0.0000000001127424
 11
3201.241097299373
 21
-474.237790761938
 31
0.0000000001127424
  0
ARC
  5
1AB9A
330
18
100
AcDbEntity
  8
01
  6
BYBLOCK
100
AcDbCircle
 10
3210.80886425234
 20
-483.0984509337177
 30
0.0000000001127424
 40
0.5
100
AcDbArc
 50
224.9999999999908
 51
270.0
  0
LINE
  5
1AB9B
330
18
100
AcDbEntity
  8
01
  6
BYBLOCK
100
AcDbLine
 10
3211.401757471153
 20
-483.5984509337177
 30
0.0000000001127424
 11
3210.80886425234
 21
-483.5984509337177
 31
0.0000000001127424
  0
LINE
  5
1AB9D
330
18
100
AcDbEntity
  8
01
  6
BYBLOCK
100
AcDbLine
 10
3200.900873289093
 20
-716.5667806656729
 30
0.0000000001127424
 11
3200.900873289093
 21
-734.6301211996788
 31
0.0000000001127424
  0
LINE
  5
1AB9E
330
18
100
AcDbEntity
  8
01
  6
BYBLOCK
100
AcDbLine
 10
3205.193766507907
 20
-715.5984509326759
 30
0.0000000001127424
 11
3211.900873289093
 21
-715.5984509326759
 31
0.0000000001127424
  0
LINE
  5
1AB9F
330
18
100
AcDbEntity
  8
01
  6
BYBLOCK
100
AcDbLine
 10
3205.193766507907
 20
-735.5984509326759
 30
0.0000000001127424
 11
3211.900873289093
 21
-735.5984509326759
 31
0.0000000001127424
  0
LINE
  5
1ABA0
330
18
100
AcDbEntity
  8
01
  6
BYBLOCK
100
AcDbLine
 10
3210.693766507908
 20
-720.3484509326759
 30
0.0000000001127424
 11
3210.693766507907
 21
-730.8484509326759
 31
0.0000000001127424
  0
ARC
  5
1ABA1
330
18
100
AcDbEntity
  8
01
  6
BYBLOCK
100
AcDbCircle
 10
3205.193766507907
 20
-725.5984509326759
 30
0.0000000001127424
 40
10.00000000000009
100
AcDbArc
 50
53.13010235413383
 51
115.4224671781395
  0
ARC
  5
1ABA2
330
18
100
AcDbEntity
  8
01
  6
BYBLOCK
100
AcDbCircle
 10
3205.193766507907
 20
-725.5984509326756
 30
0.0000000001127424
 40
10.00000000000009
100
AcDbArc
 50
244.5775328218606
 51
306.8698976458662
  0
LINE
  5
1ABA3
330
18
100
AcDbEntity
  8
01
  6
BYBLOCK
100
AcDbLine
 10
3211.193766507908
 20
-717.5984509326759
 30
0.0000000001127424
 11
3211.193766507908
 21
-733.5984509326759
 31
0.0000000001127424
  0
LINE
  5
1ABA4
330
18
100
AcDbEntity
  8
01
  6
BYBLOCK
100
AcDbLine
 10
3200.900873289093
 20
-720.3484509326759
 30
0.0000000001127424
 11
3210.693766507908
 21
-720.3484509326759
 31
0.0000000001127424
  0
LINE
  5
1ABA5
330
18
100
AcDbEntity
  8
01
  6
BYBLOCK
100
AcDbLine
 10
3200.900873289093
 20
-730.8484509326759
 30
0.0000000001127424
 11
3210.693766507908
 21
-730.8484509326759
 31
0.0000000001127424
  0
LINE
  5
1ABA6
330
18
100
AcDbEntity
  8
01
  6
BYBLOCK
100
AcDbLine
 10
3086.500989628838
 20
-661.6984509326896
 30
0.0000000001127424
 11
3099.300989628838
 21
-661.6984509326896
 31
0.0000000001127424
  0
LINE
  5
1ABA7
330
18
100
AcDbEntity
  8
01
  6
BYBLOCK
100
AcDbLine
 10
3086.500989628838
 20
-791.4984509326896
 30
0.0000000001127424
 11
3099.300989628838
 21
-791.4984509326896
 31
0.0000000001127424
  0
LINE
  5
1ABA8
330
18
100
AcDbEntity
  8
01
  6
BYBLOCK
100
AcDbLine
 10
3080.500989628838
 20
-667.6984509326896
 30
0.0000000001127424
 11
3080.500989628838
 21
-785.4984509326896
 31
0.0000000001127424
  0
LINE
  5
1ABA9
330
18
100
AcDbEntity
  8
01
  6
BYBLOCK
100
AcDbLine
 10
3105.300989628838
 20
-667.6984509326896
 30
0.0000000001127424
 11
3105.300989628838
 21
-785.4984509326896
 31
0.0000000001127424
  0
ARC
  5
1ABAA
330
18
100
AcDbEntity
  8
01
  6
BYBLOCK
100
AcDbCircle
 10
3086.500989628838
 20
-785.4984509326896
 30
0.0000000001127424
 40
6.0
100
AcDbArc
 50
180.0
 51
270.0
  0
ARC
  5
1ABAB
330
18
100
AcDbEntity
  8
01
  6
BYBLOCK
100
AcDbCircle
 10
3099.300989628838
 20
-785.4984509326896
 30
0.0000000001127424
 40
6.0
100
AcDbArc
 50
270.0
 51
0.0
  0
ARC
  5
1ABAC
330
18
100
AcDbEntity
  8
01
  6
BYBLOCK
100
AcDbCircle
 10
3086.500989628838
 20
-667.6984509326896
 30
0.0000000001127424
 40
6.0
100
AcDbArc
 50
90.0
 51
180.0
  0
ARC
  5
1ABAD
330
18
100
AcDbEntity
  8
01
  6
BYBLOCK
100
AcDbCircle
 10
3099.300989628838
 20
-667.6984509326896
 30
0.0000000001127424
 40
6.0
100
AcDbArc
 50
0.0
 51
90.0
  0
CIRCLE
  5
1ABAE
330
18
100
AcDbEntity
  8
01
  6
BYBLOCK
100
AcDbCircle
 10
3092.900989628838
 20
-783.5984509326895
 30
0.0000000001127424
 40
2.75
  0
CIRCLE
  5
1ABAF
330
18
100
AcDbEntity
  8
01
  6
BYBLOCK
100
AcDbCircle
 10
3092.900989628838
 20
-783.5984509326895
 30
0.0000000001127424
 40
4.25
  0
CIRCLE
  5
1ABB0
330
18
100
AcDbEntity
  8
01
  6
BYBLOCK
100
AcDbCircle
 10
3092.900989628838
 20
-669.5984509326897
 30
0.0000000001127424
 40
2.75
  0
CIRCLE
  5
1ABB1
330
18
100
AcDbEntity
  8
01
  6
BYBLOCK
100
AcDbCircle
 10
3092.900989628838
 20
-669.5984509326897
 30
0.0000000001127424
 40
4.25
  0
LINE
  5
1ABB2
330
18
100
AcDbEntity
  8
1CENTER
100
AcDbLine
 10
3098.776015036744
 20
-783.5984509326897
 30
0.0000000001127424
 11
3087.025964220932
 21
-783.5984509326897
 31
0.0000000001127424
  0
LINE
  5
1ABB3
330
18
100
AcDbEntity
  8
1CENTER
100
AcDbLine
 10
3092.900989628838
 20
-777.7234255247834
 30
0.0000000001127424
 11
3092.900989628838
 21
-789.4734763405959
 31
0.0000000001127424
  0
LINE
  5
1ABB4
330
18
100
AcDbEntity
  8
1CENTER
100
AcDbLine
 10
3098.776015036744
 20
-669.5984509326897
 30
0.0000000001127424
 11
3087.025964220932
 21
-669.5984509326897
 31
0.0000000001127424
  0
LINE
  5
1ABB5
330
18
100
AcDbEntity
  8
1CENTER
100
AcDbLine
 10
3092.900989628838
 20
-663.7234255247834
 30
0.0000000001127424
 11
3092.900989628838
 21
-675.4734763405959
 31
0.0000000001127424
  0
ARC
  5
1ABB6
330
18
100
AcDbEntity
  8
01
  6
BYBLOCK
100
AcDbCircle
 10
3092.900989628838
 20
-725.5984509326895
 30
0.0000000001127424
 40
10.15
100
AcDbArc
 50
231.9925780701392
 51
308.0074219298607
  0
LINE
  5
1ABB7
330
18
100
AcDbEntity
  8
01
  6
BYBLOCK
100
AcDbLine
 10
3086.650989628838
 20
-717.6009513234367
 30
0.0000000001127424
 11
3086.650989628838
 21
-733.5959505419423
 31
0.0000000001127424
  0
LINE
  5
1ABB8
330
18
100
AcDbEntity
  8
01
  6
BYBLOCK
100
AcDbLine
 10
3099.150989628838
 20
-717.6009513234367
 30
0.0000000001127424
 11
3099.150989628838
 21
-733.5959505419423
 31
0.0000000001127424
  0
ARC
  5
1ABB9
330
18
100
AcDbEntity
  8
01
  6
BYBLOCK
100
AcDbCircle
 10
3092.900989628838
 20
-725.5984509326895
 30
0.0000000001127424
 40
10.15
100
AcDbArc
 50
51.99257807013929
 51
128.0074219298607
  0
LINE
  5
1ABBA
330
18
100
AcDbEntity
  8
01
  6
BYBLOCK
100
AcDbLine
 10
3088.400989628838
 20
-720.3484509326895
 30
0.0000000001127424
 11
3088.400989628838
 21
-730.8484509326895
 31
0.0000000001127424
  0
LINE
  5
1ABBB
330
18
100
AcDbEntity
  8
01
  6
BYBLOCK
100
AcDbLine
 10
3098.400989628838
 20
-720.3484509326895
 30
0.0000000001127424
 11
3098.400989628838
 21
-730.8484509326895
 31
0.0000000001127424
  0
LINE
  5
1ABBC
330
18
100
AcDbEntity
  8
01
  6
BYBLOCK
100
AcDbLine
 10
3088.900989628838
 20
-716.2698658309712
 30
0.0000000001127424
 11
3088.900989628838
 21
-720.3484509326897
 31
0.0000000001127424
  0
LINE
  5
1ABBD
330
18
100
AcDbEntity
  8
01
  6
BYBLOCK
100
AcDbLine
 10
3087.400989628838
 20
-720.3484509326897
 30
0.0000000001127424
 11
3087.400989628838
 21
-730.8484509326895
 31
0.0000000001127424
  0
LINE
  5
1ABBE
330
18
100
AcDbEntity
  8
01
  6
BYBLOCK
100
AcDbLine
 10
3088.900989628838
 20
-730.8484509326895
 30
0.0000000001127424
 11
3088.900989628838
 21
-734.9270360344078
 31
0.0000000001127424
  0
LINE
  5
1ABBF
330
18
100
AcDbEntity
  8
01
  6
BYBLOCK
100
AcDbLine
 10
3087.400989628838
 20
-720.3484509326895
 30
0.0000000001127424
 11
3098.400989628838
 21
-720.3484509326895
 31
0.0000000001127424
  0
LINE
  5
1ABC0
330
18
100
AcDbEntity
  8
01
  6
BYBLOCK
100
AcDbLine
 10
3087.400989628838
 20
-730.8484509326895
 30
0.0000000001127424
 11
3098.400989628838
 21
-730.8484509326895
 31
0.0000000001127424
  0
LINE
  5
1ABC2
330
18
100
AcDbEntity
  8
01
100
AcDbLine
 10
3072.901105968581
 20
-627.5984509326893
 30
0.0000000001127424
 11
3072.901105968581
 21
-817.5984509326895
 31
0.0000000001127424
  0
LINE
  5
1ABC3
330
18
100
AcDbEntity
  8
01
100
AcDbLine
 10
3072.901105968581
 20
-722.5984509326895
 30
0.0000000001127424
 11
3072.901105968581
 21
-772.5984509326895
 31
0.0000000001127424
  0
LINE
  5
1ABC4
330
18
100
AcDbEntity
  8
01
100
AcDbLine
 10
3064.401105968581
 20
-771.5984509326895
 30
0.0000000001127424
 11
3064.401105968581
 21
-723.5984509326895
 31
0.0000000001127424
  0
LINE
  5
1ABC5
330
18
100
AcDbEntity
  8
01
100
AcDbLine
 10
3072.901105968581
 20
-772.5984509326895
 30
0.0000000001127424
 11
3065.401105968581
 21
-772.5984509326895
 31
0.0000000001127424
  0
ARC
  5
1ABC6
330
18
100
AcDbEntity
  8
01
100
AcDbCircle
 10
3065.401105968581
 20
-771.5984509326895
 30
0.0000000001127424
 40
1.0
100
AcDbArc
 50
180.0
 51
270.0
  0
LINE
  5
1ABC7
330
18
100
AcDbEntity
  8
01
100
AcDbLine
 10
3072.901105968581
 20
-722.5984509326895
 30
0.0000000001127424
 11
3065.401105968581
 21
-722.5984509326895
 31
0.0000000001127424
  0
ARC
  5
1ABC8
330
18
100
AcDbEntity
  8
01
100
AcDbCircle
 10
3065.401105968581
 20
-723.5984509326895
 30
0.0000000001127424
 40
1.0
100
AcDbArc
 50
90.0
 51
180.0
  0
LINE
  5
1ABC9
330
18
100
AcDbEntity
  8
01
100
AcDbLine
 10
3075.029391351013
 20
-747.5984509326895
 30
0.0000000001127424
 11
3052.401105968581
 21
-747.5984509326895
 31
0.0000000001127424
  0
POINT
  5
1ABCA
330
18
100
AcDbEntity
  8
01
100
AcDbPoint
 10
3058.400989628838
 20
-747.5984509326895
 30
0.0000000001127424
 50
180.0
  0
CIRCLE
  5
1ABCB
330
18
100
AcDbEntity
  8
01
100
AcDbCircle
 10
3058.400989628838
 20
-747.5984509326895
 30
0.0000000001127424
 40
2.5
  0
CIRCLE
  5
1ABCC
330
18
100
AcDbEntity
  8
01
100
AcDbCircle
 10
3058.400989628838
 20
-747.5984509326895
 30
0.0000000001127424
 40
3.0
  0
LINE
  5
1ABCE
330
18
100
AcDbEntity
  8
1CENTER
100
AcDbLine
 10
3058.400989628838
 20
-753.5984509326895
 30
0.0000000001127424
 11
3058.400989628838
 21
-741.5984509326895
 31
0.0000000001127424
  0
LINE
  5
1ABCF
330
18
100
AcDbEntity
  8
01
100
AcDbLine
 10
3206.900873289381
 20
-783.5984509324003
 30
0.0000000001127424
 11
3220.900873289381
 21
-783.5984509324003
 31
0.0000000001127424
  0
LINE
  5
1ABD0
330
18
100
AcDbEntity
  8
01
100
AcDbLine
 10
3274.212761556634
 20
-697.598450932689
 30
0.0000000001127424
 11
3251.588985021551
 21
-697.598450932689
 31
0.0000000001127424
  0
LINE
  5
1ABD1
330
18
100
AcDbEntity
  8
01
100
AcDbLine
 10
3262.900873289093
 20
-686.2865626651474
 30
0.0000000001127424
 11
3262.900873289093
 21
-708.9103392002307
 31
0.0000000001127424
  0
LINE
  5
1ABD2
330
18
100
AcDbEntity
  8
01
  6
BYBLOCK
100
AcDbLine
 10
2984.901105968584
 20
-716.5667806656729
 30
0.0000000001127424
 11
2984.901105968584
 21
-734.6301211996788
 31
0.0000000001127424
  0
LINE
  5
1ABD3
330
18
100
AcDbEntity
  8
01
  6
BYBLOCK
100
AcDbLine
 10
2980.608212749771
 20
-715.5984509326759
 30
0.0000000001127424
 11
2973.901105968584
 21
-715.5984509326759
 31
0.0000000001127424
  0
LINE
  5
1ABD4
330
18
100
AcDbEntity
  8
01
  6
BYBLOCK
100
AcDbLine
 10
2980.608212749771
 20
-735.5984509326759
 30
0.0000000001127424
 11
2973.901105968584
 21
-735.5984509326759
 31
0.0000000001127424
  0
ARC
  5
1ABD5
330
18
100
AcDbEntity
  8
01
  6
BYBLOCK
100
AcDbCircle
 10
2980.608212749771
 20
-725.5984509326759
 30
0.0000000001127424
 40
10.00000000000009
100
AcDbArc
 50
64.57753282186054
 51
90.0
  0
LINE
  5
1ABD6
330
18
100
AcDbEntity
  8
01
  6
CONTINUOUS
100
AcDbLine
 10
2984.401105968584
 20
-733.9132451255066
 30
0.0000000001127424
 11
2973.901105968584
 21
-733.9132451255066
 31
0.0000000001127424
  0
ARC
  5
1ABD7
330
18
100
AcDbEntity
  8
01
  6
CONTINUOUS
100
AcDbCircle
 10
2984.439686215498
 20
-733.4511058946998
 30
0.0000000001127424
 40
0.4637468103423796
100
AcDbArc
 50
265.2279066161988
 51
354.2577450626268
  0
LINE
  5
1ABD8
330
18
100
AcDbEntity
  8
01
  6
CONTINUOUS
100
AcDbLine
 10
2984.901105968584
 20
-718.1151361591278
 30
0.0000000001127424
 11
2984.901105968584
 21
-733.0817657062237
 31
0.0000000001127424
  0
ARC
  5
1ABD9
330
18
100
AcDbEntity
  8
01
  6
CONTINUOUS
100
AcDbCircle
 10
2984.439686215498
 20
-717.7457959706514
 30
0.0000000001127424
 40
0.4637468103423387
100
AcDbArc
 50
5.742254937373203
 51
94.77209338380122
  0
ARC
  5
1ABDA
330
18
100
AcDbEntity
  8
01
  6
BYBLOCK
100
AcDbCircle
 10
2980.608212749771
 20
-725.5984509326756
 30
0.0000000001127424
 40
10.00000000000009
100
AcDbArc
 50
270.0
 51
295.4224671781395
  0
LINE
  5
1ABDB
330
18
100
AcDbEntity
  8
01
  6
CONTINUOUS
100
AcDbLine
 10
2973.901105968584
 20
-717.2836567398447
 30
0.0000000001127424
 11
2984.401105968584
 21
-717.2836567398447
 31
0.0000000001127424
  0
LINE
  5
1ABDC
330
18
100
AcDbEntity
  8
01
100
AcDbLine
 10
3280.900873289093
 20
-730.2490993597919
 30
0.0000000001127424
 11
3280.900873289093
 21
-762.398450932689
 31
0.0000000001127424
  0
ARC
  5
1ABDD
330
18
100
AcDbEntity
  8
01
100
AcDbCircle
 10
3279.900873289093
 20
-762.598450932689
 30
0.0000000001127424
 40
1.0
100
AcDbArc
 50
270.0
 51
0.0
  0
LINE
  5
1ABDE
330
18
100
AcDbEntity
  8
01
100
AcDbLine
 10
3243.691500576795
 20
-763.598450932689
 30
0.0000000001127424
 11
3279.900873289093
 21
-763.5984509326888
 31
0.0000000001127424
  0
LINE
  5
1ABDF
330
18
100
AcDbEntity
  8
01
100
AcDbLine
 10
2952.901105968584
 20
-747.598450932689
 30
0.0000000001127424
 11
2892.901105968584
 21
-747.598450932689
 31
0.0000000001127424
  0
LINE
  5
1ABE0
330
18
100
AcDbEntity
  8
01
100
AcDbLine
 10
2922.901105968584
 20
-717.598450932689
 30
0.0000000001127424
 11
2922.901105968584
 21
-777.598450932689
 31
0.0000000001127424
  0
LINE
  5
1ABE1
330
18
100
AcDbEntity
  8
01
  6
BYBLOCK
100
AcDbLine
 10
3280.900873289093
 20
-700.8163319651107
 30
0.0000000001128561
 11
3280.900873289093
 21
-730.2490993597919
 31
0.0000000001127424
  0
LINE
  5
1ABE2
330
18
100
AcDbEntity
  8
01
  6
BYBLOCK
100
AcDbLine
 10
3214.600873289093
 20
-689.598450932689
 30
0.0000000001127424
 11
3243.05777021111
 21
-689.598450932689
 31
0.0000000001128561
  0
ARC
  5
1ABE3
330
18
100
AcDbEntity
  8
1HIDDEN
100
AcDbCircle
 10
3279.900873289093
 20
-690.598450932689
 30
0.0000000001127424
 40
1.0
100
AcDbArc
 50
0.0
 51
90.0
  0
LINE
  5
1ABE4
330
18
100
AcDbEntity
  8
1HIDDEN
100
AcDbLine
 10
3243.05777021111
 20
-689.598450932689
 30
0.0000000001128561
 11
3279.900873289093
 21
-689.598450932689
 31
0.0000000001127424
  0
LINE
  5
1ABE5
330
18
100
AcDbEntity
  8
1HIDDEN
100
AcDbLine
 10
3280.900873289093
 20
-690.598450932689
 30
0.0000000001127424
 11
3280.900873289093
 21
-700.8163319651107
 31
0.0000000001128561
  0
LINE
  5
1ABE6
330
18
100
AcDbEntity
  8
01
100
AcDbLine
 10
2978.901105968584
 20
-669.598450932689
 30
0.0000000001127424
 11
2964.901105968584
 21
-669.598450932689
 31
0.0000000001127424
  0
LINE
  5
1ABE7
330
18
100
AcDbEntity
  8
01
  6
BYBLOCK
100
AcDbLine
 10
2972.401105968584
 20
-661.698450932689
 30
0.0000000001127424
 11
2972.401105968584
 21
-791.4984509326889
 31
0.0000000001127424
  0
LINE
  5
1ABE8
330
18
100
AcDbEntity
  8
01
  6
BYBLOCK
100
AcDbLine
 10
2972.401105968584
 20
-790.598450932689
 30
0.0000000001127424
 11
2969.901105968584
 21
-790.598450932689
 31
0.0000000001127424
  0
LINE
  5
1ABE9
330
18
100
AcDbEntity
  8
01
  6
BYBLOCK
100
AcDbLine
 10
2969.901105968584
 20
-790.598450932689
 30
0.0000000001127424
 11
2969.901105968584
 21
-774.0955072075367
 31
0.0000000001127424
  0
LINE
  5
1ABEA
330
18
100
AcDbEntity
  8
01
  6
BYBLOCK
100
AcDbLine
 10
2973.901105968584
 20
-661.698450932689
 30
0.0000000001127424
 11
2973.901105968584
 21
-791.4984509326889
 31
0.0000000001127424
  0
LINE
  5
1ABEB
330
18
100
AcDbEntity
  8
01
  6
BYBLOCK
100
AcDbLine
 10
2973.901105968584
 20
-791.4984509326889
 30
0.0000000001127424
 11
2972.401105968584
 21
-791.4984509326889
 31
0.0000000001127424
  0
LINE
  5
1ABEC
330
18
100
AcDbEntity
  8
01
  6
BYBLOCK
100
AcDbLine
 10
2972.401105968584
 20
-662.598450932689
 30
0.0000000001127424
 11
2969.901105968584
 21
-662.598450932689
 31
0.0000000001127424
  0
LINE
  5
1ABED
330
18
100
AcDbEntity
  8
01
  6
BYBLOCK
100
AcDbLine
 10
2973.901105968584
 20
-661.698450932689
 30
0.0000000001127424
 11
2972.401105968584
 21
-661.698450932689
 31
0.0000000001127424
  0
LINE
  5
1ABEE
330
18
100
AcDbEntity
  8
01
  6
BYBLOCK
100
AcDbLine
 10
2972.401105968584
 20
-686.598450932689
 30
0.0000000001127424
 11
2971.201105968585
 21
-686.598450932689
 31
0.0000000001127424
  0
LINE
  5
1ABEF
330
18
100
AcDbEntity
  8
01
  6
BYBLOCK
100
AcDbLine
 10
2971.201105968585
 20
-680.8984509326888
 30
0.0000000001127424
 11
2971.201105968585
 21
-772.2984509326889
 31
0.0000000001127424
  0
LINE
  5
1ABF0
330
18
100
AcDbEntity
  8
01
  6
BYBLOCK
100
AcDbLine
 10
2971.101105968584
 20
-790.598450932689
 30
0.0000000001127424
 11
2971.101105968584
 21
-773.9984509326889
 31
0.0000000001127424
  0
LINE
  5
1ABF1
330
18
100
AcDbEntity
  8
01
  6
BYBLOCK
100
AcDbLine
 10
2971.101105968584
 20
-773.9984509326889
 30
0.0000000001127424
 11
2972.049634106009
 21
-773.049922795265
 31
0.0000000001127424
  0
LINE
  5
1ABF2
330
18
100
AcDbEntity
  8
01
  6
BYBLOCK
100
AcDbLine
 10
2970.252577831161
 20
-773.2469790701127
 30
0.0000000001127424
 11
2971.201105968585
 21
-772.2984509326889
 31
0.0000000001127424
  0
ARC
  5
1ABF3
330
18
100
AcDbEntity
  8
01
  6
BYBLOCK
100
AcDbCircle
 10
2971.101105968584
 20
-774.0955072075367
 30
0.0000000001127424
 40
1.2
100
AcDbArc
 50
134.9999999999447
 51
180.0
  0
ARC
  5
1ABF4
330
18
100
AcDbEntity
  8
01
  6
BYBLOCK
100
AcDbCircle
 10
2971.201105968585
 20
-772.2013946578411
 30
0.0000000001127424
 40
1.2
100
AcDbArc
 50
314.9999999999447
 51
0.0
  0
LINE
  5
1ABF5
330
18
100
AcDbEntity
  8
01
  6
BYBLOCK
100
AcDbLine
 10
2969.901105968584
 20
-662.598450932689
 30
0.0000000001127424
 11
2969.901105968584
 21
-679.1013946578412
 31
0.0000000001127424
  0
LINE
  5
1ABF6
330
18
100
AcDbEntity
  8
01
  6
BYBLOCK
100
AcDbLine
 10
2971.101105968584
 20
-662.598450932689
 30
0.0000000001127424
 11
2971.101105968584
 21
-679.198450932689
 31
0.0000000001127424
  0
LINE
  5
1ABF7
330
18
100
AcDbEntity
  8
01
  6
BYBLOCK
100
AcDbLine
 10
2971.101105968584
 20
-679.198450932689
 30
0.0000000001127424
 11
2972.049634106009
 21
-680.1469790701128
 31
0.0000000001127424
  0
LINE
  5
1ABF8
330
18
100
AcDbEntity
  8
01
  6
BYBLOCK
100
AcDbLine
 10
2970.252577831161
 20
-679.9499227952651
 30
0.0000000001127424
 11
2971.201105968585
 21
-680.898450932689
 31
0.0000000001127424
  0
ARC
  5
1ABF9
330
18
100
AcDbEntity
  8
01
  6
BYBLOCK
100
AcDbCircle
 10
2971.101105968584
 20
-679.1013946578412
 30
0.0000000001127424
 40
1.2
100
AcDbArc
 50
180.0
 51
225.0000000000553
  0
ARC
  5
1ABFA
330
18
100
AcDbEntity
  8
01
  6
BYBLOCK
100
AcDbCircle
 10
2971.201105968585
 20
-680.9955072075368
 30
0.0000000001127424
 40
1.2
100
AcDbArc
 50
0.0
 51
45.00000000005527
  0
LINE
  5
1ABFB
330
18
100
AcDbEntity
  8
01
  6
BYBLOCK
100
AcDbLine
 10
2971.201105968585
 20
-763.5984509326893
 30
0.0000000001127424
 11
2942.109380546034
 21
-763.598450932689
 31
0.0000000001127424
  0
LINE
  5
1ABFC
330
18
100
AcDbEntity
  8
01
  6
BYBLOCK
100
AcDbLine
 10
2980.608212749771
 20
-715.5984509326759
 30
0.0000000001127424
 11
2973.901105968584
 21
-715.5984509326759
 31
0.0000000001127424
  0
LINE
  5
1ABFD
330
18
100
AcDbEntity
  8
01
  6
BYBLOCK
100
AcDbLine
 10
2980.608212749771
 20
-735.5984509326759
 30
0.0000000001127424
 11
2973.901105968584
 21
-735.5984509326759
 31
0.0000000001127424
  0
LINE
  5
1ABFE
330
18
100
AcDbEntity
  8
01
100
AcDbLine
 10
2978.901105968297
 20
-783.5984509324003
 30
0.0000000001127424
 11
2964.901105968297
 21
-783.5984509324003
 31
0.0000000001127424
  0
LINE
  5
1ABFF
330
18
100
AcDbEntity
  8
01
  6
BYBLOCK
100
AcDbLine
 10
2904.901105968584
 20
-700.8163319651107
 30
0.0000000001128561
 11
2904.901105968584
 21
-730.2477810466876
 31
0.0000000001127425
  0
LINE
  5
1AC00
330
18
100
AcDbEntity
  8
01
  6
BYBLOCK
100
AcDbLine
 10
2971.201105968585
 20
-689.598450932689
 30
0.0000000001127424
 11
2942.744209046567
 21
-689.598450932689
 31
0.0000000001128561
  0
TEXT
  5
1AC03
330
18
100
AcDbEntity
  8
1TEXT
100
AcDbText
 10
2806.313049396211
 20
-466.098450932689
 30
0.0000000001127424
 40
20.0
  1
2-V6C-X-LJ-X106
100
AcDbText
  0
TEXT
  5
1AC04
330
18
100
AcDbEntity
  8
1TEXT
100
AcDbText
 10
2917.101005628838
 20
-504.348450932689
 30
0.0000000001127424
 40
6.0
  1
表面処理
 72
     1
 11
2931.001005628838
 21
-504.348450932689
 31
0.0000000001127424
100
AcDbText
  0
TEXT
  5
1AC05
330
18
100
AcDbEntity
  8
1TEXT
100
AcDbText
 10
2916.801005628839
 20
-514.6013839219759
 30
0.0000000001127424
 40
6.0
  1
クローム
 72
     1
 11
2931.001005628838
 21
-514.6013839219759
 31
0.0000000001127424
100
AcDbText
  0
LINE
  5
1AC06
330
18
100
AcDbEntity
  8
1DIM
100
AcDbLine
 10
2904.901005628838
 20
-496.098450932689
 30
0.0000000001127424
 11
3024.901005628838
 21
-496.098450932689
 31
0.0000000001127424
  0
LINE
  5
1AC07
330
18
100
AcDbEntity
  8
1DIM
100
AcDbLine
 10
2904.901005628838
 20
-506.598450932689
 30
0.0000000001127424
 11
3024.901005628838
 21
-506.598450932689
 31
0.0000000001127424
  0
LINE
  5
1AC08
330
18
100
AcDbEntity
  8
1DIM
100
AcDbLine
 10
2904.901005628838
 20
-517.098450932689
 30
0.0000000001127424
 11
3009.901005628838
 21
-517.098450932689
 31
0.0000000001127424
  0
LINE
  5
1AC09
330
18
100
AcDbEntity
  8
1DIM
100
AcDbLine
 10
2904.901005628838
 20
-517.098450932689
 30
0.0000000001127424
 11
3009.901005628838
 21
-517.098450932689
 31
0.0000000001127424
  0
LINE
  5
1AC0A
330
18
100
AcDbEntity
  8
1DIM
100
AcDbLine
 10
2957.401005628838
 20
-496.098450932689
 30
0.0000000001127424
 11
2957.401005628838
 21
-517.098450932689
 31
0.0000000001127424
  0
LINE
  5
1AC20
330
18
100
AcDbEntity
  8
1DIM
100
AcDbLine
 10
2904.901005628838
 20
-517.098450932689
 30
0.0000000001127424
 11
3024.901005628838
 21
-517.098450932689
 31
0.0000000001127424
  0
LINE
  5
1AC21
330
18
100
AcDbEntity
  8
1DIM
100
AcDbLine
 10
2957.401005628838
 20
-517.098450932689
 30
0.0000000001127424
 11
2957.401005628838
 21
-527.598450932689
 31
0.0000000001127424
  0
LINE
  5
1AC22
330
18
100
AcDbEntity
  8
1DIM
100
AcDbLine
 10
2904.901005628838
 20
-527.598450932689
 30
0.0000000001127424
 11
3024.901005628838
 21
-527.598450932689
 31
0.0000000001127424
  0
TEXT
  5
1AC23
330
18
100
AcDbEntity
  8
1TEXT
100
AcDbText
 10
2906.201005628838
 20
-525.0648213500453
 30
0.0000000001127424
 40
6.0
  1
サテンニッケル
 72
     1
 11
2931.001005628838
 21
-525.0648213500453
 31
0.0000000001127424
100
AcDbText
  0
LINE
  5
1AC24
330
18
100
AcDbEntity
  8
1DIM
100
AcDbLine
 10
2904.901005628838
 20
-527.598450932689
 30
0.0000000001127424
 11
2904.901005628838
 21
-517.098450932689
 31
0.0000000001127424
  0
LINE
  5
1AC27
330
18
100
AcDbEntity
  8
1DIM
100
AcDbLine
 10
2904.901005628838
 20
-517.098450932689
 30
0.0000000001127424
 11
2904.901005628838
 21
-496.098450932689
 31
0.0000000001127424
  0
LINE
  5
1AC43
330
18
100
AcDbEntity
  8
01
100
AcDbLine
 10
3238.900989628836
 20
-506.0984509337177
 30
0.0000000001127424
 11
3286.900989628836
 21
-506.0984509337177
 31
0.0000000001127424
  0
LINE
  5
1AC44
330
18
100
AcDbEntity
  8
01
100
AcDbLine
 10
3237.900989628836
 20
-497.5984509337177
 30
0.0000000001127424
 11
3237.900989628836
 21
-505.0984509337177
 31
0.0000000001127424
  0
ARC
  5
1AC45
330
18
100
AcDbEntity
  8
01
100
AcDbCircle
 10
3238.900989628836
 20
-505.0984509337177
 30
0.0000000001127424
 40
1.0
100
AcDbArc
 50
180.0
 51
270.0
  0
LINE
  5
1AC46
330
18
100
AcDbEntity
  8
01
100
AcDbLine
 10
3287.900989628836
 20
-497.5984509337177
 30
0.0000000001127424
 11
3287.900989628836
 21
-505.0984509337177
 31
0.0000000001127424
  0
ARC
  5
1AC47
330
18
100
AcDbEntity
  8
01
100
AcDbCircle
 10
3286.900989628836
 20
-505.0984509337177
 30
0.0000000001127424
 40
1.0
100
AcDbArc
 50
270.0
 51
0.0
  0
ARC
  5
1AC48
330
18
100
AcDbEntity
  8
01
100
AcDbCircle
 10
3262.900873289093
 20
-747.5971326195863
 30
0.0000000001127424
 40
25.0
100
AcDbArc
 50
17.2175114318013
 51
342.7824885682009
  0
LINE
  5
1AC4A
330
18
100
AcDbEntity
  8
01
100
AcDbLine
 10
3112.900873289093
 20
-722.5971326195863
 30
0.0000000001127424
 11
3112.900873289093
 21
-772.5971326195863
 31
0.0000000001127424
  0
LINE
  5
1AC4B
330
18
100
AcDbEntity
  8
01
100
AcDbLine
 10
3121.400873289093
 20
-771.5971326195863
 30
0.0000000001127424
 11
3121.400873289093
 21
-723.5971326195863
 31
0.0000000001127424
  0
LINE
  5
1AC4C
330
18
100
AcDbEntity
  8
01
100
AcDbLine
 10
3112.900873289093
 20
-772.5971326195863
 30
0.0000000001127424
 11
3120.400873289093
 21
-772.5971326195863
 31
0.0000000001127424
  0
ARC
  5
1AC4D
330
18
100
AcDbEntity
  8
01
100
AcDbCircle
 10
3120.400873289093
 20
-771.5971326195863
 30
0.0000000001127424
 40
1.0
100
AcDbArc
 50
270.0
 51
0.0
  0
LINE
  5
1AC4E
330
18
100
AcDbEntity
  8
01
100
AcDbLine
 10
3112.900873289093
 20
-722.5971326195863
 30
0.0000000001127424
 11
3120.400873289093
 21
-722.5971326195863
 31
0.0000000001127424
  0
ARC
  5
1AC4F
330
18
100
AcDbEntity
  8
01
100
AcDbCircle
 10
3120.400873289093
 20
-723.5971326195863
 30
0.0000000001127424
 40
1.0
100
AcDbArc
 50
0.0
 51
90.0
  0
POINT
  5
1AC50
330
18
100
AcDbEntity
  8
01
100
AcDbPoint
 10
3127.400873289093
 20
-747.5971326195863
 30
0.0000000001127424
  0
LINE
  5
1AC51
330
18
100
AcDbEntity
  8
01
100
AcDbLine
 10
3127.000873279095
 20
-749.3471326195863
 30
0.0000000001127424
 11
3127.000873279095
 21
-748.4971325995862
 31
0.0000000001127424
  0
LINE
  5
1AC52
330
18
100
AcDbEntity
  8
01
100
AcDbLine
 10
3127.800873299096
 20
-749.3471326195863
 30
0.0000000001127424
 11
3127.800873299096
 21
-748.4971325995862
 31
0.0000000001127424
  0
LINE
  5
1AC53
330
18
100
AcDbEntity
  8
01
100
AcDbLine
 10
3126.500873309094
 20
-747.9971326295868
 30
0.0000000001127424
 11
3125.650873289093
 21
-747.9971326295868
 31
0.0000000001127424
  0
LINE
  5
1AC54
330
18
100
AcDbEntity
  8
01
100
AcDbLine
 10
3126.500873309094
 20
-747.1971326095868
 30
0.0000000001127424
 11
3125.650873289093
 21
-747.1971326095868
 31
0.0000000001127424
  0
LINE
  5
1AC55
330
18
100
AcDbEntity
  8
01
100
AcDbLine
 10
3125.650873289093
 20
-747.9971326295868
 30
0.0000000001127424
 11
3125.650873289093
 21
-747.1971326095868
 31
0.0000000001127424
  0
LINE
  5
1AC56
330
18
100
AcDbEntity
  8
01
100
AcDbLine
 10
3127.800873299096
 20
-749.3471326195863
 30
0.0000000001127424
 11
3127.000873279095
 21
-749.3471326195863
 31
0.0000000001127424
  0
LINE
  5
1AC57
330
18
100
AcDbEntity
  8
01
100
AcDbLine
 10
3127.800873299096
 20
-745.8471326195863
 30
0.0000000001127424
 11
3127.800873299096
 21
-746.6971326395865
 31
0.0000000001127424
  0
LINE
  5
1AC58
330
18
100
AcDbEntity
  8
01
100
AcDbLine
 10
3127.000873279095
 20
-745.8471326195863
 30
0.0000000001127424
 11
3127.000873279095
 21
-746.6971326395865
 31
0.0000000001127424
  0
LINE
  5
1AC59
330
18
100
AcDbEntity
  8
01
100
AcDbLine
 10
3128.300873269093
 20
-747.1971326095868
 30
0.0000000001127424
 11
3129.150873289093
 21
-747.1971326095868
 31
0.0000000001127424
  0
LINE
  5
1AC5A
330
18
100
AcDbEntity
  8
01
100
AcDbLine
 10
3128.300873269093
 20
-747.9971326295868
 30
0.0000000001127424
 11
3129.150873289093
 21
-747.9971326295868
 31
0.0000000001127424
  0
LINE
  5
1AC5B
330
18
100
AcDbEntity
  8
01
100
AcDbLine
 10
3129.150873289093
 20
-747.1971326095868
 30
0.0000000001127424
 11
3129.150873289093
 21
-747.9971326295868
 31
0.0000000001127424
  0
LINE
  5
1AC5C
330
18
100
AcDbEntity
  8
01
100
AcDbLine
 10
3127.000873279095
 20
-745.8471326195863
 30
0.0000000001127424
 11
3127.800873299096
 21
-745.8471326195863
 31
0.0000000001127424
  0
CIRCLE
  5
1AC5D
330
18
100
AcDbEntity
  8
01
100
AcDbCircle
 10
3127.400873289093
 20
-747.5971326195863
 30
0.0000000001127424
 40
2.5
  0
ARC
  5
1AC5E
330
18
100
AcDbEntity
  8
01
100
AcDbCircle
 10
3128.300873269093
 20
-746.6971326395865
 30
0.0000000001127424
 40
0.5
100
AcDbArc
 50
179.999989999999
 51
270.0
  0
ARC
  5
1AC5F
330
18
100
AcDbEntity
  8
01
100
AcDbCircle
 10
3128.300873269093
 20
-748.4971325995862
 30
0.0000000001127424
 40
0.5
100
AcDbArc
 50
90.00000299998466
 51
180.000010000001
  0
ARC
  5
1AC60
330
18
100
AcDbEntity
  8
01
100
AcDbCircle
 10
3126.500873309094
 20
-748.4971325995862
 30
0.0000000001127424
 40
0.5
100
AcDbArc
 50
0.0
 51
90.00000299998466
  0
ARC
  5
1AC61
330
18
100
AcDbEntity
  8
01
100
AcDbCircle
 10
3126.500873309094
 20
-746.6971326395865
 30
0.0000000001127424
 40
0.5
100
AcDbArc
 50
270.0
 51
0.0
  0
LINE
  5
1AC63
330
18
100
AcDbEntity
  8
1CENTER
100
AcDbLine
 10
3127.400873289093
 20
-753.5971326195863
 30
0.0000000001127424
 11
3127.400873289093
 21
-741.5971326195863
 31
0.0000000001127424
  0
LINE
  5
1AC64
330
18
100
AcDbEntity
  8
01
100
AcDbLine
 10
3110.772587906663
 20
-747.5971326195863
 30
0.0000000001127424
 11
3133.400873289093
 21
-747.5971326195863
 31
0.0000000001127424
  0
LINE
  5
1AC65
330
18
100
AcDbEntity
  8
01
100
AcDbLine
 10
3237.900989628836
 20
-497.5984509337177
 30
0.0000000001127424
 11
3287.900989628836
 21
-497.5984509337177
 31
0.0000000001127424
  0
LINE
  5
1AC66
330
18
100
AcDbEntity
  8
01
  6
BYBLOCK
100
AcDbLine
 10
3211.901757471153
 20
-497.5984509337177
 30
0.0000000001127424
 11
3365.656137626184
 21
-497.5984509337177
 31
0.0000000001127424
  0
LINE
  5
1AC67
330
18
100
AcDbEntity
  8
1CENTER
100
AcDbLine
 10
3246.817314864896
 20
-512.0984429004648
 30
0.0000000001127424
 11
3254.950987226744
 21
-512.098450933715
 31
0.0000000001127424
  0
LINE
  5
1AC68
330
18
100
AcDbEntity
  8
01
100
AcDbLine
 10
3262.900989628836
 20
-492.5984509337177
 30
0.0000000001127424
 11
3262.900989628836
 21
-519.0984509337177
 31
0.0000000001127424
  0
LINE
  5
1AC6E
330
18
100
AcDbEntity
  8
01
100
AcDbLine
 10
3112.900873289093
 20
-627.5971326195863
 30
0.0000000001127424
 11
3112.900873289093
 21
-817.5971326195863
 31
0.0000000001127424
  0
LINE
  5
1AC6F
330
18
100
AcDbEntity
  8
01
100
AcDbLine
 10
3232.900873289093
 20
-747.5971326195863
 30
0.0000000001127424
 11
3292.900873289093
 21
-747.5971326195863
 31
0.0000000001127424
  0
LINE
  5
1AC70
330
18
100
AcDbEntity
  8
01
100
AcDbLine
 10
3262.900873289093
 20
-717.5971326195863
 30
0.0000000001127424
 11
3262.900873289093
 21
-777.5971326195863
 31
0.0000000001127424
  0
LINE
  5
1AC71
330
18
100
AcDbEntity
  8
01
100
AcDbLine
 10
3283.900873289093
 20
-541.0984509337177
 30
0.0000000001127424
 11
3273.876524649598
 21
-541.0984509337177
 31
0.0000000001127424
  0
LINE
  5
1AC72
330
18
100
AcDbEntity
  8
01
100
AcDbLine
 10
3283.900873289093
 20
-561.5984509337178
 30
0.0000000001127424
 11
3253.900989628836
 21
-561.5984509337177
 31
0.0000000001127424
  0
LINE
  5
1AC73
330
18
100
AcDbEntity
  8
01
100
AcDbLine
 10
3252.866400045304
 20
-559.5984509337172
 30
0.0000000001127424
 11
3252.866400045304
 21
-533.5984509337181
 31
0.0000000001127424
  0
LINE
  5
1AC74
330
18
100
AcDbEntity
  8
01
100
AcDbLine
 10
3251.900989628838
 20
-506.5984509337177
 30
0.0000000001127424
 11
3251.900989628838
 21
-559.5984509337172
 31
0.0000000001127424
  0
ARC
  5
1AC75
330
18
100
AcDbEntity
  8
01
100
AcDbCircle
 10
3254.866400045305
 20
-559.5984509337172
 30
0.0000000001127424
 40
2.0
100
AcDbArc
 50
180.0
 51
269.9999999999479
  0
ARC
  5
1AC76
330
18
100
AcDbEntity
  8
01
100
AcDbCircle
 10
3253.900989628836
 20
-559.5984509337177
 30
0.0000000001127424
 40
2.0
100
AcDbArc
 50
180.0
 51
270.0
  0
LINE
  5
1AC77
330
18
100
AcDbEntity
  8
01
100
AcDbLine
 10
3273.900989628836
 20
-506.5984509337177
 30
0.0000000001127424
 11
3273.900989628838
 21
-540.0984509337177
 31
0.0000000001127424
  0
ARC
  5
1AC78
330
18
100
AcDbEntity
  8
01
100
AcDbCircle
 10
3271.876524649598
 20
-533.5984509337181
 30
0.0000000001127424
 40
1.0
100
AcDbArc
 50
0.0
 51
90.0
  0
ARC
  5
1AC79
330
18
100
AcDbEntity
  8
01
100
AcDbCircle
 10
3273.876524649598
 20
-540.0984509337181
 30
0.0000000001127424
 40
1.0
100
AcDbArc
 50
180.0
 51
270.0
  0
ARC
  5
1AC7A
330
18
100
AcDbEntity
  8
01
100
AcDbCircle
 10
3253.866400045304
 20
-533.5984509337172
 30
0.0000000001127424
 40
1.0
100
AcDbArc
 50
89.99999999994789
 51
180.0000000000261
  0
LINE
  5
1AC7B
330
18
100
AcDbEntity
  8
01
100
AcDbLine
 10
3271.876524649598
 20
-532.5984509337181
 30
0.0000000001127424
 11
3253.866400045304
 21
-532.5984509337181
 31
0.0000000001127424
  0
ARC
  5
1AC7C
330
18
100
AcDbEntity
  8
01
100
AcDbCircle
 10
3274.900989628838
 20
-540.0984509337177
 30
0.0000000001127424
 40
1.0
100
AcDbArc
 50
180.0
 51
270.0
  0
LINE
  5
1AC7D
330
18
100
AcDbEntity
  8
01
100
AcDbLine
 10
3272.876524649598
 20
-540.0984509337177
 30
0.0000000001127424
 11
3272.876524649598
 21
-533.5984509337181
 31
0.0000000001127424
  0
LINE
  5
1AC7E
330
18
100
AcDbEntity
  8
01
100
AcDbLine
 10
3251.900989628838
 20
-506.5984509337177
 30
0.0000000001127424
 11
3273.900989628836
 21
-506.5984509337177
 31
0.0000000001127424
  0
LINE
  5
1AC82
330
18
100
AcDbEntity
  8
01
100
AcDbLine
 10
3121.900873289094
 20
-737.5971326195863
 30
0.0000000001127424
 11
3146.900873289094
 21
-737.5971326195868
 31
0.0000000001127424
  0
LINE
  5
1AC83
330
18
100
AcDbEntity
  8
01
100
AcDbLine
 10
3121.900873289093
 20
-757.5971326195854
 30
0.0000000001127424
 11
3146.900873289094
 21
-757.5971326195863
 31
0.0000000001127424
  0
LINE
  5
1AC84
330
18
100
AcDbEntity
  8
01
100
AcDbLine
 10
3121.900873289093
 20
-757.5971326195854
 30
0.0000000001127424
 11
3121.900873289094
 21
-737.5971326195863
 31
0.0000000001127424
  0
LINE
  5
1AC85
330
18
100
AcDbEntity
  8
01
100
AcDbLine
 10
3148.900873289094
 20
-752.0971326195859
 30
0.0000000001127424
 11
3175.900873289093
 21
-752.0971326195854
 31
0.0000000001127424
  0
LINE
  5
1AC86
330
18
100
AcDbEntity
  8
01
100
AcDbLine
 10
3148.900873289094
 20
-743.097132619585
 30
0.0000000001127424
 11
3175.900873289093
 21
-743.0971326195859
 31
0.0000000001127424
  0
ARC
  5
1AC87
330
18
100
AcDbEntity
  8
01
100
AcDbCircle
 10
3148.900873289094
 20
-742.0971326195854
 30
0.0000000001127424
 40
1.0
100
AcDbArc
 50
180.0
 51
270.0
  0
ARC
  5
1AC88
330
18
100
AcDbEntity
  8
01
100
AcDbCircle
 10
3148.900873289094
 20
-753.0971326195863
 30
0.0000000001127424
 40
1.0
100
AcDbArc
 50
90.0
 51
180.0
  0
LINE
  5
1AC89
330
18
100
AcDbEntity
  8
01
100
AcDbLine
 10
3147.900873289094
 20
-742.097132619585
 30
0.0000000001127424
 11
3147.900873289094
 21
-738.5971326195868
 31
0.0000000001127424
  0
ARC
  5
1AC8A
330
18
100
AcDbEntity
  8
01
100
AcDbCircle
 10
3146.900873289094
 20
-738.5971326195863
 30
0.0000000001127424
 40
1.0
100
AcDbArc
 50
359.9999999999479
 51
90.0
  0
ARC
  5
1AC8B
330
18
100
AcDbEntity
  8
01
100
AcDbCircle
 10
3146.900873289094
 20
-756.5971326195863
 30
0.0000000001127424
 40
1.0
100
AcDbArc
 50
269.9999999999479
 51
359.999999999974
  0
LINE
  5
1AC8C
330
18
100
AcDbEntity
  8
01
100
AcDbLine
 10
3147.900873289094
 20
-756.5971326195863
 30
0.0000000001127424
 11
3147.900873289094
 21
-753.0971326195859
 31
0.0000000001127424
  0
ARC
  5
1AC8D
330
18
100
AcDbEntity
  8
01
100
AcDbCircle
 10
3175.900873289093
 20
-744.0971326195863
 30
0.0000000001127424
 40
1.0
100
AcDbArc
 50
0.0
 51
90.0
  0
ARC
  5
1AC8E
330
18
100
AcDbEntity
  8
01
100
AcDbCircle
 10
3175.900873289093
 20
-751.0971326195859
 30
0.0000000001127424
 40
1.0
100
AcDbArc
 50
270.0
 51
0.0
  0
LINE
  5
1AC8F
330
18
100
AcDbEntity
  8
01
100
AcDbLine
 10
3176.900873289093
 20
-744.0971326195859
 30
0.0000000001127424
 11
3176.900873289093
 21
-751.0971326195854
 31
0.0000000001127424
  0
LINE
  5
1AC90
330
18
100
AcDbEntity
  8
01
100
AcDbLine
 10
3283.900873289094
 20
-752.0971326195862
 30
0.0000000001127424
 11
3253.533376291496
 21
-752.0971326195863
 31
0.0000000001127424
  0
LINE
  5
1AC91
330
18
100
AcDbEntity
  8
01
100
AcDbLine
 10
3283.900873289094
 20
-743.0971326195862
 30
0.0000000001127424
 11
3253.533376291496
 21
-743.0971326195863
 31
0.0000000001127424
  0
ARC
  5
1AC92
330
18
100
AcDbEntity
  8
01
100
AcDbCircle
 10
3262.900873289093
 20
-747.5971326195863
 30
0.0000000001127424
 40
11.00000000000227
100
AcDbArc
 50
24.1477399170122
 51
335.8522600829996
  0
ARC
  5
1AC93
330
18
100
AcDbEntity
  8
01
100
AcDbCircle
 10
3253.533376291496
 20
-751.0971326195863
 30
0.0000000001127424
 40
1.0
100
AcDbArc
 50
200.487315114694
 51
270.0
  0
ARC
  5
1AC94
330
18
100
AcDbEntity
  8
01
100
AcDbCircle
 10
3253.533376291496
 20
-744.0971326195863
 30
0.0000000001127424
 40
1.0
100
AcDbArc
 50
90.0
 51
159.512684885306
  0
LINE
  5
1AC98
330
18
100
AcDbEntity
  8
1CENTER
100
AcDbLine
 10
3246.817314864896
 20
-443.0984589669706
 30
0.0000000001127424
 11
3254.950987226744
 21
-443.0984509337204
 31
0.0000000001127424
  0
LINE
  5
1AC99
330
18
100
AcDbEntity
  8
01
100
AcDbLine
 10
3283.900873289093
 20
-414.0984509337176
 30
0.0000000001127424
 11
3273.876524649598
 21
-414.0984509337177
 31
0.0000000001127424
  0
LINE
  5
1AC9A
330
18
100
AcDbEntity
  8
01
100
AcDbLine
 10
3283.900873289093
 20
-393.5984509337176
 30
0.0000000001127424
 11
3253.900989628836
 21
-393.5984509337177
 31
0.0000000001127424
  0
LINE
  5
1AC9B
330
18
100
AcDbEntity
  8
01
100
AcDbLine
 10
3252.866400045304
 20
-395.5984509337181
 30
0.0000000001127424
 11
3252.866400045304
 21
-421.5984509337172
 31
0.0000000001127424
  0
LINE
  5
1AC9C
330
18
100
AcDbEntity
  8
01
100
AcDbLine
 10
3251.900989628838
 20
-448.5984509337177
 30
0.0000000001127424
 11
3251.900989628838
 21
-395.5984509337181
 31
0.0000000001127424
  0
ARC
  5
1AC9D
330
18
100
AcDbEntity
  8
01
100
AcDbCircle
 10
3254.866400045305
 20
-395.5984509337181
 30
0.0000000001127424
 40
2.0
100
AcDbArc
 50
90.00000000005213
 51
180.0
  0
ARC
  5
1AC9E
330
18
100
AcDbEntity
  8
01
100
AcDbCircle
 10
3253.900989628836
 20
-395.5984509337177
 30
0.0000000001127424
 40
2.0
100
AcDbArc
 50
90.0
 51
180.0
  0
LINE
  5
1AC9F
330
18
100
AcDbEntity
  8
01
100
AcDbLine
 10
3273.900989628836
 20
-448.5984509337177
 30
0.0000000001127424
 11
3273.900989628838
 21
-415.0984509337177
 31
0.0000000001127424
  0
ARC
  5
1ACA0
330
18
100
AcDbEntity
  8
01
100
AcDbCircle
 10
3271.876524649598
 20
-421.5984509337172
 30
0.0000000001127424
 40
1.0
100
AcDbArc
 50
270.0
 51
0.0
  0
ARC
  5
1ACA1
330
18
100
AcDbEntity
  8
01
100
AcDbCircle
 10
3273.876524649598
 20
-415.0984509337172
 30
0.0000000001127424
 40
1.0
100
AcDbArc
 50
90.0
 51
180.0
  0
ARC
  5
1ACA2
330
18
100
AcDbEntity
  8
01
100
AcDbCircle
 10
3253.866400045304
 20
-421.5984509337181
 30
0.0000000001127424
 40
1.0
100
AcDbArc
 50
179.9999999999739
 51
270.0000000000521
  0
LINE
  5
1ACA3
330
18
100
AcDbEntity
  8
01
100
AcDbLine
 10
3271.876524649598
 20
-422.5984509337172
 30
0.0000000001127424
 11
3253.866400045304
 21
-422.5984509337172
 31
0.0000000001127424
  0
ARC
  5
1ACA4
330
18
100
AcDbEntity
  8
01
100
AcDbCircle
 10
3274.900989628838
 20
-415.0984509337177
 30
0.0000000001127424
 40
1.0
100
AcDbArc
 50
90.0
 51
180.0
  0
LINE
  5
1ACA5
330
18
100
AcDbEntity
  8
01
100
AcDbLine
 10
3272.876524649598
 20
-415.0984509337177
 30
0.0000000001127424
 11
3272.876524649598
 21
-421.5984509337172
 31
0.0000000001127424
  0
LINE
  5
1ACA6
330
18
100
AcDbEntity
  8
01
100
AcDbLine
 10
3251.900989628838
 20
-448.5984509337177
 30
0.0000000001127424
 11
3260.400989694935
 21
-448.5984509337179
 31
0.0000000001127424
  0
LINE
  5
1ACA7
330
18
100
AcDbEntity
  8
01
100
AcDbLine
 10
3265.400989694936
 20
-448.5984509337177
 30
0.0000000001127424
 11
3273.900989628836
 21
-448.5984509337177
 31
0.0000000001127424
  0
LINE
  5
1ACAB
330
18
100
AcDbEntity
  8
01
100
AcDbLine
 10
3063.901105968582
 20
-737.5971326195863
 30
0.0000000001127424
 11
3038.901105968582
 21
-737.5971326195868
 31
0.0000000001127424
  0
LINE
  5
1ACAC
330
18
100
AcDbEntity
  8
01
100
AcDbLine
 10
3063.901105968583
 20
-757.5971326195854
 30
0.0000000001127424
 11
3038.901105968582
 21
-757.5971326195863
 31
0.0000000001127424
  0
LINE
  5
1ACAD
330
18
100
AcDbEntity
  8
01
100
AcDbLine
 10
3063.901105968583
 20
-757.5971326195854
 30
0.0000000001127424
 11
3063.901105968582
 21
-737.5971326195863
 31
0.0000000001127424
  0
LINE
  5
1ACAE
330
18
100
AcDbEntity
  8
01
100
AcDbLine
 10
3036.901105968582
 20
-752.0971326195859
 30
0.0000000001127424
 11
3009.901105968583
 21
-752.0971326195854
 31
0.0000000001127424
  0
LINE
  5
1ACAF
330
18
100
AcDbEntity
  8
01
100
AcDbLine
 10
3036.901105968582
 20
-743.097132619585
 30
0.0000000001127424
 11
3009.901105968583
 21
-743.0971326195859
 31
0.0000000001127424
  0
ARC
  5
1ACB0
330
18
100
AcDbEntity
  8
01
100
AcDbCircle
 10
3036.901105968582
 20
-742.0971326195854
 30
0.0000000001127424
 40
1.0
100
AcDbArc
 50
270.0
 51
0.0
  0
ARC
  5
1ACB1
330
18
100
AcDbEntity
  8
01
100
AcDbCircle
 10
3036.901105968582
 20
-753.0971326195863
 30
0.0000000001127424
 40
1.0
100
AcDbArc
 50
0.0
 51
90.0
  0
LINE
  5
1ACB2
330
18
100
AcDbEntity
  8
01
100
AcDbLine
 10
3037.901105968582
 20
-742.097132619585
 30
0.0000000001127424
 11
3037.901105968582
 21
-738.5971326195868
 31
0.0000000001127424
  0
ARC
  5
1ACB3
330
18
100
AcDbEntity
  8
01
100
AcDbCircle
 10
3038.901105968582
 20
-738.5971326195863
 30
0.0000000001127424
 40
1.0
100
AcDbArc
 50
90.0
 51
180.0000000000521
  0
ARC
  5
1ACB4
330
18
100
AcDbEntity
  8
01
100
AcDbCircle
 10
3038.901105968582
 20
-756.5971326195863
 30
0.0000000001127424
 40
1.0
100
AcDbArc
 50
180.0000000000261
 51
270.0000000001043
  0
LINE
  5
1ACB5
330
18
100
AcDbEntity
  8
01
100
AcDbLine
 10
3037.901105968582
 20
-756.5971326195863
 30
0.0000000001127424
 11
3037.901105968582
 21
-753.0971326195859
 31
0.0000000001127424
  0
ARC
  5
1ACB6
330
18
100
AcDbEntity
  8
01
100
AcDbCircle
 10
3009.901105968583
 20
-744.0971326195863
 30
0.0000000001127424
 40
1.0
100
AcDbArc
 50
90.0
 51
180.0
  0
ARC
  5
1ACB7
330
18
100
AcDbEntity
  8
01
100
AcDbCircle
 10
3009.901105968583
 20
-751.0971326195859
 30
0.0000000001127424
 40
1.0
100
AcDbArc
 50
180.0
 51
270.0
  0
LINE
  5
1ACB8
330
18
100
AcDbEntity
  8
01
100
AcDbLine
 10
3008.901105968583
 20
-744.0971326195859
 30
0.0000000001127424
 11
3008.901105968583
 21
-751.0971326195854
 31
0.0000000001127424
  0
LINE
  5
1ACB9
330
18
100
AcDbEntity
  8
01
100
AcDbLine
 10
2901.900873289092
 20
-752.0971326195862
 30
0.0000000001127424
 11
2932.26860296618
 21
-752.0971326195863
 31
0.0000000001127424
  0
LINE
  5
1ACBA
330
18
100
AcDbEntity
  8
01
100
AcDbLine
 10
2901.900873289092
 20
-743.0971326195862
 30
0.0000000001127424
 11
2932.26860296618
 21
-743.0971326195863
 31
0.0000000001127424
  0
ARC
  5
1ACBB
330
18
100
AcDbEntity
  8
01
100
AcDbCircle
 10
2922.901105968583
 20
-747.5971326195863
 30
0.0000000001127424
 40
11.00000000000227
100
AcDbArc
 50
204.1477399170003
 51
155.8522600829878
  0
ARC
  5
1ACBC
330
18
100
AcDbEntity
  8
01
100
AcDbCircle
 10
2932.26860296618
 20
-751.0971326195863
 30
0.0000000001127424
 40
1.0
100
AcDbArc
 50
270.0
 51
339.5126848853212
  0
ARC
  5
1ACBD
330
18
100
AcDbEntity
  8
01
100
AcDbCircle
 10
2932.26860296618
 20
-744.0971326195863
 30
0.0000000001127424
 40
1.0
100
AcDbArc
 50
20.48731511467875
 51
90.0
  0
ARC
  5
1ACC1
330
18
100
AcDbEntity
  8
01
100
AcDbCircle
 10
2922.901105968583
 20
-747.5971326195863
 30
0.0000000001127424
 40
25.0
100
AcDbArc
 50
197.2175114317991
 51
162.7824885681987
  0
LINE
  5
1B359
330
18
100
AcDbEntity
  8
01
100
AcDbLine
 10
3370.900873289094
 20
-753.7971326195857
 30
0.0000000001127424
 11
3370.900873289094
 21
-741.3971326195858
 31
0.0000000001127424
  0
LINE
  5
1B35A
330
18
100
AcDbEntity
  8
01
100
AcDbLine
 10
3369.700873289094
 20
-740.1971326195859
 30
0.0000000001127424
 11
3284.400873289094
 21
-740.1971326195859
 31
0.0000000001141035
  0
LINE
  5
1B35B
330
18
100
AcDbEntity
  8
01
100
AcDbLine
 10
3369.700873289094
 20
-754.9971326195857
 30
0.0000000001127424
 11
3284.400873289094
 21
-754.9971326195857
 31
0.0000000001141035
  0
LINE
  5
1B35C
330
18
100
AcDbEntity
  8
01
100
AcDbLine
 10
3283.900873289094
 20
-754.4971326195857
 30
0.0000000001141035
 11
3283.900873289094
 21
-740.6971326195859
 31
0.0000000001141035
  0
ARC
  5
1B35D
330
18
100
AcDbEntity
  8
01
100
AcDbCircle
 10
3369.700873289094
 20
-753.7971326195857
 30
0.0000000001127424
 40
1.2
100
AcDbArc
 50
270.0
 51
0.0
  0
ARC
  5
1B35E
330
18
100
AcDbEntity
  8
01
100
AcDbCircle
 10
3369.700873289094
 20
-741.3971326195858
 30
0.0000000001127424
 40
1.2
100
AcDbArc
 50
0.0
 51
90.0
  0
ARC
  5
1B35F
330
18
100
AcDbEntity
  8
01
100
AcDbCircle
 10
3284.400873289094
 20
-740.6971326195859
 30
0.0000000001141035
 40
0.5
100
AcDbArc
 50
90.0
 51
180.0
  0
ARC
  5
1B360
330
18
100
AcDbEntity
  8
01
100
AcDbCircle
 10
3284.400873289094
 20
-754.4971326195857
 30
0.0000000001141035
 40
0.5
100
AcDbArc
 50
180.0
 51
270.0
  0
ARC
  5
1B361
330
18
100
AcDbEntity
  8
01
  6
CONTINUOUS
100
AcDbCircle
 10
3178.000919223668
 20
-752.8835110871398
 30
0.0000000001127424
 40
1.999999999999992
100
AcDbArc
 50
271.0987031458957
 51
357.0000000000011
  0
LINE
  5
1B362
330
18
100
AcDbEntity
  8
01
  6
CONTINUOUS
100
AcDbLine
 10
3152.256894313363
 20
-752.0971326195859
 30
0.0000000001127424
 11
3152.30359228501
 21
-752.9881829996256
 31
0.0000000001127424
  0
ARC
  5
1B363
330
18
100
AcDbEntity
  8
01
  6
CONTINUOUS
100
AcDbCircle
 10
3154.300851354519
 20
-742.3107541520316
 30
0.0000000001127424
 40
1.999999999999965
100
AcDbArc
 50
91.09870314589574
 51
177.0000000000011
  0
ARC
  5
1B364
330
18
100
AcDbEntity
  8
01
  6
CONTINUOUS
100
AcDbCircle
 10
3154.300851354519
 20
-752.8835110871397
 30
0.0000000001127424
 40
2.000000000000075
100
AcDbArc
 50
182.9999999999989
 51
268.9012968541043
  0
ARC
  5
1B365
330
18
100
AcDbEntity
  8
01
  6
CONTINUOUS
100
AcDbCircle
 10
3178.000919223668
 20
-742.3107541520316
 30
0.0000000001127424
 40
1.999999999999964
100
AcDbArc
 50
2.99999999999892
 51
88.90129685410426
  0
LINE
  5
1B366
330
18
100
AcDbEntity
  8
01
  6
CONTINUOUS
100
AcDbLine
 10
3180.280711271598
 20
-747.5971326195856
 30
0.0000000001127424
 11
3179.998178293178
 21
-742.2060822395457
 31
0.0000000001127424
  0
ARC
  5
1B367
330
18
100
AcDbEntity
  8
01
  6
CONTINUOUS
100
AcDbCircle
 10
3166.150885289094
 20
-1360.197132619586
 30
0.0000000001127424
 40
619.9999999999999
100
AcDbArc
 50
88.90129685411058
 51
91.09870314588952
  0
LINE
  5
1B368
330
18
100
AcDbEntity
  8
01
  6
CONTINUOUS
100
AcDbLine
 10
3152.30359228501
 20
-742.2060822395457
 30
0.0000000001127424
 11
3152.256894313363
 21
-743.0971326195851
 31
0.0000000001127424
  0
ARC
  5
1B369
330
18
100
AcDbEntity
  8
01
  6
CONTINUOUS
100
AcDbCircle
 10
3166.150885289094
 20
-134.9971326195862
 30
0.0000000001127424
 40
619.9999999999998
100
AcDbArc
 50
268.9012968541106
 51
271.0987031458894
  0
LINE
  5
1B36A
330
18
100
AcDbEntity
  8
01
  6
CONTINUOUS
100
AcDbLine
 10
3179.998178293178
 20
-752.9881829996257
 30
0.0000000001127424
 11
3180.280711271598
 21
-747.5971326195856
 31
0.0000000001127424
  0
ELLIPSE
  5
1B3C6
330
18
100
AcDbEntity
  8
01
  6
CONTINUOUS
100
AcDbEllipse
 10
3369.700873289094
 20
-537.9202717664107
 30
0.0000000001141035
 11
2.943185851874405E-16
 21
-1.201646815197478
 31
0.0
210
0.0
220
0.0
230
-1.0
 40
0.9986295347545635
 41
3.141592653589793
 42
4.712388980384704
  0
LINE
  5
1B3C7
330
18
100
AcDbEntity
  8
01
  6
CONTINUOUS
100
AcDbLine
 10
3369.700873289094
 20
-536.7186249512132
 30
0.0000000001141035
 11
3284.400873289093
 21
-536.7186249512132
 31
0.0000000001136993
  0
ELLIPSE
  5
1B3C8
330
18
100
AcDbEntity
  8
01
  6
CONTINUOUS
100
AcDbEllipse
 10
3369.700873289094
 20
-563.7766301010249
 30
0.0000000001141035
 11
2.943185851874405E-16
 21
-1.201646815197478
 31
0.0
210
0.0
220
0.0
230
-1.0
 40
0.9986295347545635
 41
4.712388980384704
 42
6.283185307179586
  0
LINE
  5
1B3C9
330
18
100
AcDbEntity
  8
01
  6
CONTINUOUS
100
AcDbLine
 10
3284.400873289093
 20
-564.9782769162224
 30
0.0000000001141035
 11
3369.700873289094
 21
-564.9782769162224
 31
0.0000000001141035
  0
LINE
  5
1B3CA
330
18
100
AcDbEntity
  8
01
  6
CONTINUOUS
100
AcDbLine
 10
3370.900873289093
 20
-563.776630101025
 30
0.0000000001141035
 11
3370.900873289093
 21
-537.9202717664108
 31
0.0000000001141035
  0
LINE
  5
1B3CB
330
18
100
AcDbEntity
  8
01
  6
CONTINUOUS
100
AcDbLine
 10
3283.900873289093
 20
-537.2186249512132
 30
0.0000000001141035
 11
3283.900873289093
 21
-564.4782769162224
 31
0.0000000001141035
  0
ARC
  5
1B3CC
330
18
100
AcDbEntity
  8
01
  6
CONTINUOUS
100
AcDbCircle
 10
3284.400873289093
 20
-537.2186249512132
 30
0.0000000001141035
 40
0.5
100
AcDbArc
 50
90.00000000187596
 51
180.0000001394141
  0
ARC
  5
1B3CD
330
18
100
AcDbEntity
  8
01
  6
CONTINUOUS
100
AcDbCircle
 10
3284.400873289093
 20
-564.4782769162224
 30
0.0000000001141035
 40
0.5
100
AcDbArc
 50
180.0
 51
270.0
  0
ELLIPSE
  5
1B40E
330
18
100
AcDbEntity
  8
01
  6
CONTINUOUS
100
AcDbEllipse
 10
3369.700873289094
 20
-417.2766301010247
 30
0.0000000001141035
 11
2.943185851874405E-16
 21
1.201646815197478
 31
0.0
210
0.0
220
0.0
230
1.0
 40
0.9986295347545635
 41
3.141592653589793
 42
4.712388980384704
  0
LINE
  5
1B40F
330
18
100
AcDbEntity
  8
01
  6
CONTINUOUS
100
AcDbLine
 10
3369.700873289094
 20
-418.4782769162222
 30
0.0000000001141035
 11
3284.400873289093
 21
-418.4782769162222
 31
0.0000000001136993
  0
ELLIPSE
  5
1B410
330
18
100
AcDbEntity
  8
01
  6
CONTINUOUS
100
AcDbEllipse
 10
3369.700873289094
 20
-391.4202717664105
 30
0.0000000001141035
 11
2.943185851874405E-16
 21
1.201646815197478
 31
0.0
210
0.0
220
0.0
230
1.0
 40
0.9986295347545635
 41
4.712388980384704
 42
6.283185307179586
  0
LINE
  5
1B411
330
18
100
AcDbEntity
  8
01
  6
CONTINUOUS
100
AcDbLine
 10
3284.400873289093
 20
-390.218624951213
 30
0.0000000001141035
 11
3369.700873289094
 21
-390.218624951213
 31
0.0000000001141035
  0
LINE
  5
1B412
330
18
100
AcDbEntity
  8
01
  6
CONTINUOUS
100
AcDbLine
 10
3370.900873289093
 20
-391.4202717664103
 30
0.0000000001141035
 11
3370.900873289093
 21
-417.2766301010246
 31
0.0000000001141035
  0
LINE
  5
1B413
330
18
100
AcDbEntity
  8
01
  6
CONTINUOUS
100
AcDbLine
 10
3283.900873289093
 20
-417.9782769162222
 30
0.0000000001141035
 11
3283.900873289093
 21
-390.718624951213
 31
0.0000000001141035
  0
ARC
  5
1B414
330
18
100
AcDbEntity
  8
01
  6
CONTINUOUS
100
AcDbCircle
 10
3284.400873289093
 20
-417.9782769162222
 30
0.0000000001141035
 40
0.5
100
AcDbArc
 50
179.9999998348765
 51
269.999999998124
  0
ARC
  5
1B415
330
18
100
AcDbEntity
  8
01
  6
CONTINUOUS
100
AcDbCircle
 10
3284.400873289093
 20
-390.718624951213
 30
0.0000000001141035
 40
0.5
100
AcDbArc
 50
90.0
 51
180.0
  0
LINE
  5
1B416
330
18
100
AcDbEntity
  8
01
100
AcDbLine
 10
2814.900873289092
 20
-753.7971326195857
 30
0.0000000001127424
 11
2814.900873289092
 21
-741.3971326195858
 31
0.0000000001127424
  0
LINE
  5
1B417
330
18
100
AcDbEntity
  8
01
100
AcDbLine
 10
2816.100873289092
 20
-740.1971326195859
 30
0.0000000001127424
 11
2901.400873289092
 21
-740.1971326195859
 31
0.0000000001141035
  0
LINE
  5
1B418
330
18
100
AcDbEntity
  8
01
100
AcDbLine
 10
2816.100873289092
 20
-754.9971326195857
 30
0.0000000001127424
 11
2901.400873289092
 21
-754.9971326195857
 31
0.0000000001141035
  0
LINE
  5
1B419
330
18
100
AcDbEntity
  8
01
100
AcDbLine
 10
2901.900873289092
 20
-754.4971326195857
 30
0.0000000001141035
 11
2901.900873289092
 21
-740.6971326195859
 31
0.0000000001141035
  0
ARC
  5
1B41A
330
18
100
AcDbEntity
  8
01
100
AcDbCircle
 10
2816.100873289092
 20
-753.7971326195857
 30
0.0000000001127424
 40
1.2
100
AcDbArc
 50
180.0
 51
270.0
  0
ARC
  5
1B41B
330
18
100
AcDbEntity
  8
01
100
AcDbCircle
 10
2816.100873289092
 20
-741.3971326195858
 30
0.0000000001127424
 40
1.2
100
AcDbArc
 50
90.0
 51
180.0
  0
ARC
  5
1B41C
330
18
100
AcDbEntity
  8
01
100
AcDbCircle
 10
2901.400873289092
 20
-740.6971326195859
 30
0.0000000001141035
 40
0.5
100
AcDbArc
 50
0.0
 51
90.0
  0
ARC
  5
1B41D
330
18
100
AcDbEntity
  8
01
100
AcDbCircle
 10
2901.400873289092
 20
-754.4971326195857
 30
0.0000000001141035
 40
0.5
100
AcDbArc
 50
270.0
 51
0.0
  0
ARC
  5
1B41E
330
18
100
AcDbEntity
  8
01
  6
CONTINUOUS
100
AcDbCircle
 10
3007.800827354518
 20
-752.8835110871398
 30
0.0000000001127424
 40
1.999999999999992
100
AcDbArc
 50
182.9999999999989
 51
268.9012968541043
  0
LINE
  5
1B41F
330
18
100
AcDbEntity
  8
01
  6
CONTINUOUS
100
AcDbLine
 10
3033.544852264824
 20
-752.0971326195859
 30
0.0000000001127424
 11
3033.498154293176
 21
-752.9881829996256
 31
0.0000000001127424
  0
ARC
  5
1B420
330
18
100
AcDbEntity
  8
01
  6
CONTINUOUS
100
AcDbCircle
 10
3031.500895223668
 20
-742.3107541520316
 30
0.0000000001127424
 40
1.999999999999965
100
AcDbArc
 50
2.99999999999892
 51
88.90129685410426
  0
ARC
  5
1B421
330
18
100
AcDbEntity
  8
01
  6
CONTINUOUS
100
AcDbCircle
 10
3031.500895223668
 20
-752.8835110871397
 30
0.0000000001127424
 40
2.000000000000075
100
AcDbArc
 50
271.0987031458957
 51
357.0000000000011
  0
ARC
  5
1B422
330
18
100
AcDbEntity
  8
01
  6
CONTINUOUS
100
AcDbCircle
 10
3007.800827354518
 20
-742.3107541520316
 30
0.0000000001127424
 40
1.999999999999964
100
AcDbArc
 50
91.09870314589574
 51
177.0000000000011
  0
LINE
  5
1B423
330
18
100
AcDbEntity
  8
01
  6
CONTINUOUS
100
AcDbLine
 10
3005.521035306589
 20
-747.5971326195856
 30
0.0000000001127424
 11
3005.803568285009
 21
-742.2060822395457
 31
0.0000000001127424
  0
ARC
  5
1B424
330
18
100
AcDbEntity
  8
01
  6
CONTINUOUS
100
AcDbCircle
 10
3019.650861289093
 20
-1360.197132619586
 30
0.0000000001127424
 40
619.9999999999999
100
AcDbArc
 50
88.9012968541105
 51
91.09870314588943
  0
LINE
  5
1B425
330
18
100
AcDbEntity
  8
01
  6
CONTINUOUS
100
AcDbLine
 10
3033.498154293176
 20
-742.2060822395457
 30
0.0000000001127424
 11
3033.544852264824
 21
-743.0971326195851
 31
0.0000000001127424
  0
ARC
  5
1B426
330
18
100
AcDbEntity
  8
01
  6
CONTINUOUS
100
AcDbCircle
 10
3019.650861289093
 20
-134.9971326195862
 30
0.0000000001127424
 40
619.9999999999998
100
AcDbArc
 50
268.9012968541106
 51
271.0987031458894
  0
LINE
  5
1B427
330
18
100
AcDbEntity
  8
01
  6
CONTINUOUS
100
AcDbLine
 10
3005.803568285009
 20
-752.9881829996257
 30
0.0000000001127424
 11
3005.521035306589
 21
-747.5971326195856
 31
0.0000000001127424
  0
TEXT
  5
1B528
330
18
100
AcDbEntity
  8
1TEXT
100
AcDbText
 10
2961.571277629701
 20
-515.1699864081629
 30
0.0000000001127424
 40
6.0
  1
2-V6C-C-LJ-X106
 41
0.6999999999999998
 72
     1
 11
2992.035860963034
 21
-515.1699864081629
 31
0.0000000001127424
100
AcDbText
  0
TEXT
  5
1B529
330
18
100
AcDbEntity
  8
1TEXT
100
AcDbText
 10
2982.198883970268
 20
-504.348450932689
 30
0.0000000001127424
 40
6.0
  1
コード
 72
     1
 11
2992.498883970268
 21
-504.348450932689
 31
0.0000000001127424
100
AcDbText
  0
TEXT
  5
1B52F
330
18
100
AcDbEntity
  8
1TEXT
100
AcDbText
 10
2961.571277629701
 20
-525.6699864081629
 30
0.0000000001127424
 40
6.0
  1
2-V6C-N-LJ-X106
 41
0.6999999999999998
 72
     1
 11
2992.035860963034
 21
-525.6699864081629
 31
0.0000000001127424
100
AcDbText
  0
LINE
  5
1B531
330
18
100
AcDbEntity
  8
1DIM
100
AcDbLine
 10
3024.901005628838
 20
-527.598450932689
 30
0.0000000001127424
 11
3024.901005628838
 21
-496.098450932689
 31
0.0000000001127424
  0
LINE
  5
1B94D
330
18
100
AcDbEntity
  8
01
100
AcDbLine
 10
2902.900985628835
 20
-692.0984509326888
 30
0.0000000002254849
 11
2902.900985628835
 21
-663.2984509326889
 31
0.0000000002254849
1001
ACAD
1000
DSTYLE
1002
{
1070
     3
1000
φ<>
1070
    40
1040
1.3
1070
    45
1040
0.5
1070
   271
1070
     4
1070
   272
1070
     2
1002
}
  0
LINE
  5
1B94E
330
18
100
AcDbEntity
  8
01
100
AcDbLine
 10
2942.900985628835
 20
-692.0984509326888
 30
0.0000000002254849
 11
2942.900985628835
 21
-663.2984509326889
 31
0.0000000002254849
1001
ACAD
1000
DSTYLE
1002
{
1070
     3
1000
φ<>
1070
    40
1040
1.3
1070
    45
1040
0.5
1070
   271
1070
     4
1070
   272
1070
     2
1002
}
  0
LINE
  5
1B94F
330
18
100
AcDbEntity
  8
01
100
AcDbLine
 10
2905.500985628835
 20
-664.5984509326888
 30
0.0000000002254849
 11
2940.300985628835
 21
-664.5984509326888
 31
0.0000000002254849
1001
ACAD
1000
DSTYLE
1002
{
1070
     3
1000
φ<>
1070
    40
1040
1.3
1070
    45
1040
0.5
1070
   271
1070
     4
1070
   272
1070
     2
1002
}
  0
LINE
  5
1B953
330
18
100
AcDbEntity
  8
01
100
AcDbLine
 10
3072.90098962884
 20
-672.0984509326888
 30
0.0000000002254849
 11
3072.90098962884
 21
-640.2984509326889
 31
0.0000000002254849
1001
ACAD
1000
DSTYLE
1002
{
1070
    40
1040
1.3
1070
    45
1040
0.5
1070
   341
1005
0
1002
}
  0
LINE
  5
1B954
330
18
100
AcDbEntity
  8
01
100
AcDbLine
 10
3050.90060406312
 20
-687.5984559326878
 30
0.0000000002254849
 11
3050.90060406312
 21
-640.2984509326889
 31
0.0000000002254849
1001
ACAD
1000
DSTYLE
1002
{
1070
    40
1040
1.3
1070
    45
1040
0.5
1070
   341
1005
0
1002
}
  0
LINE
  5
1B955
330
18
100
AcDbEntity
  8
01
100
AcDbLine
 10
3070.30098962884
 20
-641.5984509326888
 30
0.0000000002254849
 11
3053.50060406312
 21
-641.5984509326888
 31
0.0000000002254849
1001
ACAD
1000
DSTYLE
1002
{
1070
    40
1040
1.3
1070
    45
1040
0.5
1070
   341
1005
0
1002
}
  0
LINE
  5
1B959
330
18
100
AcDbEntity
  8
01
100
AcDbLine
 10
3242.900872966634
 20
-692.0984509326888
 30
0.0000000002254849
 11
3242.900872966634
 21
-663.2984509326889
 31
0.0000000002254849
1001
ACAD
1000
DSTYLE
1002
{
1070
     3
1000
φ<>
1070
    40
1040
1.3
1070
    45
1040
0.5
1070
   271
1070
     4
1070
   272
1070
     2
1002
}
  0
LINE
  5
1B95A
330
18
100
AcDbEntity
  8
01
100
AcDbLine
 10
3282.900872966634
 20
-692.0984509326888
 30
0.0000000002254849
 11
3282.900872966634
 21
-663.2984509326889
 31
0.0000000002254849
1001
ACAD
1000
DSTYLE
1002
{
1070
     3
1000
φ<>
1070
    40
1040
1.3
1070
    45
1040
0.5
1070
   271
1070
     4
1070
   272
1070
     2
1002
}
  0
LINE
  5
1B95B
330
18
100
AcDbEntity
  8
01
100
AcDbLine
 10
3245.500872966634
 20
-664.5984509326888
 30
0.0000000002254849
 11
3280.300872966634
 21
-664.5984509326888
 31
0.0000000002254849
1001
ACAD
1000
DSTYLE
1002
{
1070
     3
1000
φ<>
1070
    40
1040
1.3
1070
    45
1040
0.5
1070
   271
1070
     4
1070
   272
1070
     2
1002
}
  0
LINE
  5
1B95F
330
18
100
AcDbEntity
  8
01
100
AcDbLine
 10
2902.900985628835
 20
-692.0984509326888
 30
0.0000000002254849
 11
2902.900985628835
 21
-663.2984509326889
 31
0.0000000002254849
1001
ACAD
1000
DSTYLE
1002
{
1070
     3
1000
φ<>
1070
    40
1040
1.3
1070
    45
1040
0.5
1070
   271
1070
     4
1070
   272
1070
     2
1002
}
  0
LINE
  5
1B960
330
18
100
AcDbEntity
  8
01
100
AcDbLine
 10
2942.900985628835
 20
-692.0984509326888
 30
0.0000000002254849
 11
2942.900985628835
 21
-663.2984509326889
 31
0.0000000002254849
1001
ACAD
1000
DSTYLE
1002
{
1070
     3
1000
φ<>
1070
    40
1040
1.3
1070
    45
1040
0.5
1070
   271
1070
     4
1070
   272
1070
     2
1002
}
  0
LINE
  5
1B961
330
18
100
AcDbEntity
  8
01
100
AcDbLine
 10
2905.500985628835
 20
-664.5984509326888
 30
0.0000000002254849
 11
2940.300985628835
 21
-664.5984509326888
 31
0.0000000002254849
1001
ACAD
1000
DSTYLE
1002
{
1070
     3
1000
φ<>
1070
    40
1040
1.3
1070
    45
1040
0.5
1070
   271
1070
     4
1070
   272
1070
     2
1002
}
  0
LINE
  5
1B965
330
18
100
AcDbEntity
  8
01
100
AcDbLine
 10
3072.90098962884
 20
-672.0984509326888
 30
0.0000000002254849
 11
3072.90098962884
 21
-640.2984509326889
 31
0.0000000002254849
1001
ACAD
1000
DSTYLE
1002
{
1070
    40
1040
1.3
1070
    45
1040
0.5
1070
   341
1005
0
1002
}
  0
LINE
  5
1B966
330
18
100
AcDbEntity
  8
01
100
AcDbLine
 10
3050.900964817828
 20
-688.9779811079129
 30
0.0000000002254849
 11
3050.900964817828
 21
-640.2984509326889
 31
0.0000000002254849
1001
ACAD
1000
DSTYLE
1002
{
1070
    40
1040
1.3
1070
    45
1040
0.5
1070
   341
1005
0
1002
}
  0
LINE
  5
1B967
330
18
100
AcDbEntity
  8
01
100
AcDbLine
 10
3070.30098962884
 20
-641.5984509326888
 30
0.0000000002254849
 11
3053.500964817828
 21
-641.5984509326888
 31
0.0000000002254849
1001
ACAD
1000
DSTYLE
1002
{
1070
    40
1040
1.3
1070
    45
1040
0.5
1070
   341
1005
0
1002
}
  0
LINE
  5
1B96B
330
18
100
AcDbEntity
  8
01
100
AcDbLine
 10
3112.900989628839
 20
-672.0984509326888
 30
0.0000000000564849
 11
3112.900989628839
 21
-640.2984509326889
 31
0.0000000000564849
1001
ACAD
1000
DSTYLE
1002
{
1070
    40
1040
1.3
1070
    45
1040
0.5
1070
   271
1070
     1
1070
   341
1005
0
1002
}
  0
LINE
  5
1B96C
330
18
100
AcDbEntity
  8
01
100
AcDbLine
 10
3121.0695733178
 20
-697.5984493649967
 30
0.0000000000564849
 11
3121.0695733178
 21
-640.2984509326889
 31
0.0000000000564849
1001
ACAD
1000
DSTYLE
1002
{
1070
    40
1040
1.3
1070
    45
1040
0.5
1070
   271
1070
     1
1070
   341
1005
0
1002
}
  0
LINE
  5
1B96D
330
18
100
AcDbEntity
  8
01
100
AcDbLine
 10
3115.500989628839
 20
-641.5984509326888
 30
0.0000000000564849
 11
3118.4695733178
 21
-641.5984509326888
 31
0.0000000000564849
1001
ACAD
1000
DSTYLE
1002
{
1070
    40
1040
1.3
1070
    45
1040
0.5
1070
   271
1070
     1
1070
   341
1005
0
1002
}
  0
TEXT
  5
1B971
330
18
100
AcDbEntity
  8
01
  6
CONTINUOUS
100
AcDbText
 10
3173.904034382112
 20
-535.0151176003844
 30
0.0000000001127424
 40
4.55
  1
材質：亜鉛ダイキャスト
100
AcDbText
  0
TEXT
  5
1B972
330
18
100
AcDbEntity
  8
01
  6
CONTINUOUS
100
AcDbText
 10
3184.217367715445
 20
-542.5984509337178
 30
0.0000000001127424
 40
4.55
  1
仕上げ：各種メッキ
100
AcDbText
  0
LINE
  5
1B973
330
18
100
AcDbEntity
  8
01
100
AcDbLine
 10
3200.900873289093
 20
-719.5984516308204
 30
0.0000000002254849
 11
3200.900873289093
 21
-616.8769588480011
 31
0.0000000002254849
1001
ACAD
1000
DSTYLE
1002
{
1070
    40
1040
1.3
1070
    45
1040
0.5
1002
}
  0
LINE
  5
1B974
330
18
100
AcDbEntity
  8
01
100
AcDbLine
 10
3211.900873289093
 20
-661.7271335815315
 30
0.0000000002254849
 11
3211.900873289093
 21
-616.8769588480011
 31
0.0000000002254849
1001
ACAD
1000
DSTYLE
1002
{
1070
    40
1040
1.3
1070
    45
1040
0.5
1002
}
  0
LINE
  5
1B975
330
18
100
AcDbEntity
  8
01
100
AcDbLine
 10
3203.500873289093
 20
-618.176958848001
 30
0.0000000002254849
 11
3209.300873289093
 21
-618.176958848001
 31
0.0000000002254849
1001
ACAD
1000
DSTYLE
1002
{
1070
    40
1040
1.3
1070
    45
1040
0.5
1002
}
  0
LINE
  5
1B979
330
18
100
AcDbEntity
  8
01
100
AcDbLine
 10
3280.900873289093
 20
-689.598450932689
 30
0.0000000002254849
 11
3309.200873289094
 21
-689.598450932689
 31
0.0000000002254849
1001
ACAD
1000
DSTYLE
1002
{
1070
    40
1040
1.3
1070
    45
1040
0.5
1002
}
  0
LINE
  5
1B97A
330
18
100
AcDbEntity
  8
01
100
AcDbLine
 10
3280.900873289093
 20
-763.5984509326895
 30
0.0000000002254849
 11
3309.200873289094
 21
-763.5984509326895
 31
0.0000000002254849
1001
ACAD
1000
DSTYLE
1002
{
1070
    40
1040
1.3
1070
    45
1040
0.5
1002
}
  0
LINE
  5
1B97B
330
18
100
AcDbEntity
  8
01
100
AcDbLine
 10
3307.900873289093
 20
-692.1984509326891
 30
0.0000000002254849
 11
3307.900873289093
 21
-760.9984509326895
 31
0.0000000002254849
1001
ACAD
1000
DSTYLE
1002
{
1070
    40
1040
1.3
1070
    45
1040
0.5
1002
}
  0
LINE
  5
1B97F
330
18
100
AcDbEntity
  8
01
100
AcDbLine
 10
3280.900873289093
 20
-689.598450932689
 30
0.0000000002254849
 11
3280.900873289093
 21
-606.7970913799529
 31
0.0000000002254849
1001
ACAD
1000
DSTYLE
1002
{
1070
    40
1040
1.3
1070
    45
1040
0.5
1002
}
  0
LINE
  5
1B980
330
18
100
AcDbEntity
  8
01
100
AcDbLine
 10
3211.900873289093
 20
-661.7271335815315
 30
0.0000000002254849
 11
3211.900873289093
 21
-606.7970913799529
 31
0.0000000002254849
1001
ACAD
1000
DSTYLE
1002
{
1070
    40
1040
1.3
1070
    45
1040
0.5
1002
}
  0
LINE
  5
1B981
330
18
100
AcDbEntity
  8
01
100
AcDbLine
 10
3278.300873289093
 20
-608.0970913799529
 30
0.0000000002254849
 11
3214.500873289093
 21
-608.0970913799529
 31
0.0000000002254849
1001
ACAD
1000
DSTYLE
1002
{
1070
    40
1040
1.3
1070
    45
1040
0.5
1002
}
  0
LINE
  5
1B985
330
18
100
AcDbEntity
  8
01
100
AcDbLine
 10
3211.900873289093
 20
-661.7271335815315
 30
0.0000000002254849
 11
3211.900873289093
 21
-616.8769588480011
 31
0.0000000002254849
1001
ACAD
1000
DSTYLE
1002
{
1070
    40
1040
1.3
1070
    45
1040
0.5
1002
}
  0
LINE
  5
1B986
330
18
100
AcDbEntity
  8
01
100
AcDbLine
 10
3262.900873289093
 20
-697.598450932689
 30
0.0000000002254849
 11
3262.900873289093
 21
-616.8769588480011
 31
0.0000000002254849
1001
ACAD
1000
DSTYLE
1002
{
1070
    40
1040
1.3
1070
    45
1040
0.5
1002
}
  0
LINE
  5
1B987
330
18
100
AcDbEntity
  8
01
100
AcDbLine
 10
3214.500873289093
 20
-618.176958848001
 30
0.0000000002254849
 11
3260.300873289093
 21
-618.176958848001
 31
0.0000000002254849
1001
ACAD
1000
DSTYLE
1002
{
1070
    40
1040
1.3
1070
    45
1040
0.5
1002
}
  0
LINE
  5
1B98B
330
18
100
AcDbEntity
  8
01
100
AcDbLine
 10
3080.400989628838
 20
-667.5984509326895
 30
0.0000000002254849
 11
3080.400989628838
 21
-616.8769588480013
 31
0.0000000002254849
1001
ACAD
1000
DSTYLE
1002
{
1070
    40
1040
1.3
1070
    45
1040
0.5
1002
}
  0
LINE
  5
1B98C
330
18
100
AcDbEntity
  8
01
100
AcDbLine
 10
3105.400989628838
 20
-667.5984509326895
 30
0.0000000002254849
 11
3105.400989628838
 21
-616.8769588480013
 31
0.0000000002254849
1001
ACAD
1000
DSTYLE
1002
{
1070
    40
1040
1.3
1070
    45
1040
0.5
1002
}
  0
LINE
  5
1B98D
330
18
100
AcDbEntity
  8
01
100
AcDbLine
 10
3083.000989628838
 20
-618.1769588480013
 30
0.0000000002254849
 11
3102.800989628838
 21
-618.1769588480013
 31
0.0000000002254849
1001
ACAD
1000
DSTYLE
1002
{
1070
    40
1040
1.3
1070
    45
1040
0.5
1002
}
  0
LINE
  5
1B991
330
18
100
AcDbEntity
  8
01
100
AcDbLine
 10
3059.700027734515
 20
-746.8484509326895
 30
0.0
 11
3058.400989628838
 21
-746.0984509326895
 31
0.0
  0
LINE
  5
1B992
330
18
100
AcDbEntity
  8
01
100
AcDbLine
 10
3058.400989628838
 20
-746.0984509326895
 30
0.0
 11
3057.101951523161
 21
-746.8484509326895
 31
0.0
  0
LINE
  5
1B993
330
18
100
AcDbEntity
  8
01
100
AcDbLine
 10
3057.101951523161
 20
-746.8484509326895
 30
0.0
 11
3057.101951523161
 21
-748.3484509326895
 31
0.0
  0
LINE
  5
1B994
330
18
100
AcDbEntity
  8
01
100
AcDbLine
 10
3057.101951523161
 20
-748.3484509326895
 30
0.0
 11
3058.400989628838
 21
-749.0984509326895
 31
0.0
  0
LINE
  5
1B995
330
18
100
AcDbEntity
  8
01
100
AcDbLine
 10
3058.400989628838
 20
-749.0984509326895
 30
0.0
 11
3059.700027734515
 21
-748.3484509326895
 31
0.0
  0
LINE
  5
1B996
330
18
100
AcDbEntity
  8
01
100
AcDbLine
 10
3059.700027734515
 20
-748.3484509326895
 30
0.0
 11
3059.700027734515
 21
-746.8484509326895
 31
0.0
  0
LINE
  5
1B997
330
18
100
AcDbEntity
  8
01
100
AcDbLine
 10
3098.702929232074
 20
-669.5980057882732
 30
0.0000000003382273
 11
3178.989060400282
 21
-669.5980057882732
 31
0.0000000003382273
1001
ACAD
1000
DSTYLE
1002
{
1070
    40
1040
1.3
1070
    45
1040
0.5
1002
}
  0
LINE
  5
1B998
330
18
100
AcDbEntity
  8
01
100
AcDbLine
 10
3098.702929232074
 20
-783.5980057882732
 30
0.0000000003382273
 11
3178.989060400282
 21
-783.5980057882732
 31
0.0000000003382273
1001
ACAD
1000
DSTYLE
1002
{
1070
    40
1040
1.3
1070
    45
1040
0.5
1002
}
  0
LINE
  5
1B999
330
18
100
AcDbEntity
  8
01
100
AcDbLine
 10
3177.689060400282
 20
-672.1980057882732
 30
0.0000000003382273
 11
3177.689060400282
 21
-780.9980057882732
 31
0.0000000003382273
1001
ACAD
1000
DSTYLE
1002
{
1070
    40
1040
1.3
1070
    45
1040
0.5
1002
}
  0
LINE
  5
1B99D
330
18
100
AcDbEntity
  8
01
100
AcDbLine
 10
3099.300989628838
 20
-661.6984509326896
 30
0.0000000003382273
 11
3188.353394566507
 21
-661.6984509326896
 31
0.0000000003382273
1001
ACAD
1000
DSTYLE
1002
{
1070
    40
1040
1.3
1070
    45
1040
0.5
1002
}
  0
LINE
  5
1B99E
330
18
100
AcDbEntity
  8
01
100
AcDbLine
 10
3099.227903824168
 20
-791.4980057882731
 30
0.0000000003382273
 11
3188.353394566507
 21
-791.4980057882731
 31
0.0000000003382273
1001
ACAD
1000
DSTYLE
1002
{
1070
    40
1040
1.3
1070
    45
1040
0.5
1002
}
  0
LINE
  5
1B99F
330
18
100
AcDbEntity
  8
01
100
AcDbLine
 10
3187.053394566507
 20
-664.2984509326897
 30
0.0000000003382273
 11
3187.053394566507
 21
-788.898005788273
 31
0.0000000003382273
1001
ACAD
1000
DSTYLE
1002
{
1070
    40
1040
1.3
1070
    45
1040
0.5
1002
}
  0
LINE
  5
1B9A3
330
18
100
AcDbEntity
  8
01
100
AcDbLine
 10
3262.900873289093
 20
-722.5971326195863
 30
0.0000000002254849
 11
3226.600873289093
 21
-722.5971326195863
 31
0.0000000002254849
1001
ACAD
1000
DSTYLE
1002
{
1070
     3
1000
φ<>
1070
    40
1040
1.3
1070
    45
1040
0.5
1002
}
  0
LINE
  5
1B9A4
330
18
100
AcDbEntity
  8
01
100
AcDbLine
 10
3262.900873289093
 20
-772.5971326195854
 30
0.0000000002254849
 11
3226.600873289093
 21
-772.5971326195854
 31
0.0000000002254849
1001
ACAD
1000
DSTYLE
1002
{
1070
     3
1000
φ<>
1070
    40
1040
1.3
1070
    45
1040
0.5
1002
}
  0
LINE
  5
1B9A5
330
18
100
AcDbEntity
  8
01
100
AcDbLine
 10
3227.900873289093
 20
-725.1971326195863
 30
0.0000000002254849
 11
3227.900873289093
 21
-769.9971326195854
 31
0.0000000002254849
1001
ACAD
1000
DSTYLE
1002
{
1070
     3
1000
φ<>
1070
    40
1040
1.3
1070
    45
1040
0.5
1002
}
  0
CIRCLE
  5
1B9A9
330
18
100
AcDbEntity
  8
01
100
AcDbCircle
 10
3127.400873289093
 20
-747.5971326195863
 30
0.0000000001127424
 40
3.0
  0
TEXT
  5
1B9AA
330
18
100
AcDbEntity
  8
01
  6
CONTINUOUS
100
AcDbText
 10
3300.541561586227
 20
-517.7486039051714
 30
0.0
 40
4.55
  1
材質：ポリプロピレン（銅粉入り）
100
AcDbText
1001
ACADANNOTATIVE
1000
AnnotativeData
1002
{
1070
     1
1070
     0
1002
}
  0
TEXT
  5
1B9AB
330
18
100
AcDbEntity
  8
01
  6
CONTINUOUS
100
AcDbText
 10
3300.693228252893
 20
-525.3319372385048
 30
0.0
 40
4.55
  1
仕上げ：ブラック
100
AcDbText
1001
ACADANNOTATIVE
1000
AnnotativeData
1002
{
1070
     1
1070
     0
1002
}
  0
LINE
  5
1B9AC
330
18
100
AcDbEntity
  8
01
  6
BYBLOCK
100
AcDbLine
 10
2905.500985628835
 20
-665.2951188266888
 30
0.0000000002254849
 11
2902.900985628835
 21
-664.5984509326888
 31
0.0000000002254849
  0
LINE
  5
1B9AD
330
18
100
AcDbEntity
  8
01
  6
BYBLOCK
100
AcDbLine
 10
2902.900985628835
 20
-664.5984509326888
 30
0.0000000002254849
 11
2905.500985628835
 21
-663.9017830386888
 31
0.0000000002254849
  0
LINE
  5
1B9AE
330
18
100
AcDbEntity
  8
01
  6
BYBLOCK
100
AcDbLine
 10
2902.900985628835
 20
-664.5984509326888
 30
0.0000000002254849
 11
2905.500985628835
 21
-664.5984509326888
 31
0.0000000002254849
  0
LINE
  5
1B9AF
330
18
100
AcDbEntity
  8
01
  6
BYBLOCK
100
AcDbLine
 10
2940.300985628835
 20
-663.9017830386888
 30
0.0000000002254849
 11
2942.900985628835
 21
-664.5984509326888
 31
0.0000000002254849
  0
LINE
  5
1B9B0
330
18
100
AcDbEntity
  8
01
  6
BYBLOCK
100
AcDbLine
 10
2942.900985628835
 20
-664.5984509326888
 30
0.0000000002254849
 11
2940.300985628835
 21
-665.2951188266888
 31
0.0000000002254849
  0
LINE
  5
1B9B1
330
18
100
AcDbEntity
  8
01
  6
BYBLOCK
100
AcDbLine
 10
2942.900985628835
 20
-664.5984509326888
 30
0.0000000002254849
 11
2940.300985628835
 21
-664.5984509326888
 31
0.0000000002254849
  0
TEXT
  5
1B9B2
330
18
100
AcDbEntity
  8
01
  6
CONTINUOUS
100
AcDbText
 10
2916.057027295502
 20
-663.6884509326889
 30
0.0000000002254849
 40
4.55
  1
φ40
100
AcDbText
1001
ACAD
1000
DSTYLE
1002
{
1070
     3
1000
φ<>
1070
    40
1040
1.3
1070
    45
1040
0.5
1070
   271
1070
     4
1070
   272
1070
     2
1002
}
  0
LINE
  5
1B9B3
330
18
100
AcDbEntity
  8
01
  6
BYBLOCK
100
AcDbLine
 10
3070.30098962884
 20
-640.9017830386888
 30
0.0000000002254849
 11
3072.90098962884
 21
-641.5984509326888
 31
0.0000000002254849
  0
LINE
  5
1B9B4
330
18
100
AcDbEntity
  8
01
  6
BYBLOCK
100
AcDbLine
 10
3072.90098962884
 20
-641.5984509326888
 30
0.0000000002254849
 11
3070.30098962884
 21
-642.2951188266888
 31
0.0000000002254849
  0
LINE
  5
1B9B5
330
18
100
AcDbEntity
  8
01
  6
BYBLOCK
100
AcDbLine
 10
3072.90098962884
 20
-641.5984509326888
 30
0.0000000002254849
 11
3070.30098962884
 21
-641.5984509326888
 31
0.0000000002254849
  0
LINE
  5
1B9B6
330
18
100
AcDbEntity
  8
01
  6
BYBLOCK
100
AcDbLine
 10
3053.50060406312
 20
-642.2951188266888
 30
0.0000000002254849
 11
3050.90060406312
 21
-641.5984509326888
 31
0.0000000002254849
  0
LINE
  5
1B9B7
330
18
100
AcDbEntity
  8
01
  6
BYBLOCK
100
AcDbLine
 10
3050.90060406312
 20
-641.5984509326888
 30
0.0000000002254849
 11
3053.50060406312
 21
-640.9017830386888
 31
0.0000000002254849
  0
LINE
  5
1B9B8
330
18
100
AcDbEntity
  8
01
  6
BYBLOCK
100
AcDbLine
 10
3050.90060406312
 20
-641.5984509326888
 30
0.0000000002254849
 11
3053.50060406312
 21
-641.5984509326888
 31
0.0000000002254849
  0
TEXT
  5
1B9B9
330
18
100
AcDbEntity
  8
01
  6
CONTINUOUS
100
AcDbText
 10
3058.109130179314
 20
-640.6884509326889
 30
0.0000000002254849
 40
4.55
  1
22
100
AcDbText
1001
ACAD
1000
DSTYLE
1002
{
1070
    40
1040
1.3
1070
    45
1040
0.5
1070
   341
1005
0
1002
}
  0
LINE
  5
1B9BA
330
18
100
AcDbEntity
  8
01
  6
BYBLOCK
100
AcDbLine
 10
3245.500872966634
 20
-665.2951188266888
 30
0.0000000002254849
 11
3242.900872966634
 21
-664.5984509326888
 31
0.0000000002254849
  0
LINE
  5
1B9BB
330
18
100
AcDbEntity
  8
01
  6
BYBLOCK
100
AcDbLine
 10
3242.900872966634
 20
-664.5984509326888
 30
0.0000000002254849
 11
3245.500872966634
 21
-663.9017830386888
 31
0.0000000002254849
  0
LINE
  5
1B9BC
330
18
100
AcDbEntity
  8
01
  6
BYBLOCK
100
AcDbLine
 10
3242.900872966634
 20
-664.5984509326888
 30
0.0000000002254849
 11
3245.500872966634
 21
-664.5984509326888
 31
0.0000000002254849
  0
LINE
  5
1B9BD
330
18
100
AcDbEntity
  8
01
  6
BYBLOCK
100
AcDbLine
 10
3280.300872966634
 20
-663.9017830386888
 30
0.0000000002254849
 11
3282.900872966634
 21
-664.5984509326888
 31
0.0000000002254849
  0
LINE
  5
1B9BE
330
18
100
AcDbEntity
  8
01
  6
BYBLOCK
100
AcDbLine
 10
3282.900872966634
 20
-664.5984509326888
 30
0.0000000002254849
 11
3280.300872966634
 21
-665.2951188266888
 31
0.0000000002254849
  0
LINE
  5
1B9BF
330
18
100
AcDbEntity
  8
01
  6
BYBLOCK
100
AcDbLine
 10
3282.900872966634
 20
-664.5984509326888
 30
0.0000000002254849
 11
3280.300872966634
 21
-664.5984509326888
 31
0.0000000002254849
  0
TEXT
  5
1B9C0
330
18
100
AcDbEntity
  8
01
  6
CONTINUOUS
100
AcDbText
 10
3256.056914633301
 20
-663.6884509326889
 30
0.0000000002254849
 40
4.55
  1
φ40
100
AcDbText
1001
ACAD
1000
DSTYLE
1002
{
1070
     3
1000
φ<>
1070
    40
1040
1.3
1070
    45
1040
0.5
1070
   271
1070
     4
1070
   272
1070
     2
1002
}
  0
LINE
  5
1B9C1
330
18
100
AcDbEntity
  8
01
  6
BYBLOCK
100
AcDbLine
 10
2905.500985628835
 20
-665.2951188266888
 30
0.0000000002254849
 11
2902.900985628835
 21
-664.5984509326888
 31
0.0000000002254849
  0
LINE
  5
1B9C2
330
18
100
AcDbEntity
  8
01
  6
BYBLOCK
100
AcDbLine
 10
2902.900985628835
 20
-664.5984509326888
 30
0.0000000002254849
 11
2905.500985628835
 21
-663.9017830386888
 31
0.0000000002254849
  0
LINE
  5
1B9C3
330
18
100
AcDbEntity
  8
01
  6
BYBLOCK
100
AcDbLine
 10
2902.900985628835
 20
-664.5984509326888
 30
0.0000000002254849
 11
2905.500985628835
 21
-664.5984509326888
 31
0.0000000002254849
  0
LINE
  5
1B9C4
330
18
100
AcDbEntity
  8
01
  6
BYBLOCK
100
AcDbLine
 10
2940.300985628835
 20
-663.9017830386888
 30
0.0000000002254849
 11
2942.900985628835
 21
-664.5984509326888
 31
0.0000000002254849
  0
LINE
  5
1B9C5
330
18
100
AcDbEntity
  8
01
  6
BYBLOCK
100
AcDbLine
 10
2942.900985628835
 20
-664.5984509326888
 30
0.0000000002254849
 11
2940.300985628835
 21
-665.2951188266888
 31
0.0000000002254849
  0
LINE
  5
1B9C6
330
18
100
AcDbEntity
  8
01
  6
BYBLOCK
100
AcDbLine
 10
2942.900985628835
 20
-664.5984509326888
 30
0.0000000002254849
 11
2940.300985628835
 21
-664.5984509326888
 31
0.0000000002254849
  0
TEXT
  5
1B9C7
330
18
100
AcDbEntity
  8
01
  6
CONTINUOUS
100
AcDbText
 10
2916.057027295502
 20
-663.6884509326889
 30
0.0000000002254849
 40
4.55
  1
φ40
100
AcDbText
1001
ACAD
1000
DSTYLE
1002
{
1070
     3
1000
φ<>
1070
    40
1040
1.3
1070
    45
1040
0.5
1070
   271
1070
     4
1070
   272
1070
     2
1002
}
  0
LINE
  5
1B9C8
330
18
100
AcDbEntity
  8
01
  6
BYBLOCK
100
AcDbLine
 10
3070.30098962884
 20
-640.9017830386888
 30
0.0000000002254849
 11
3072.90098962884
 21
-641.5984509326888
 31
0.0000000002254849
  0
LINE
  5
1B9C9
330
18
100
AcDbEntity
  8
01
  6
BYBLOCK
100
AcDbLine
 10
3072.90098962884
 20
-641.5984509326888
 30
0.0000000002254849
 11
3070.30098962884
 21
-642.2951188266888
 31
0.0000000002254849
  0
LINE
  5
1B9CA
330
18
100
AcDbEntity
  8
01
  6
BYBLOCK
100
AcDbLine
 10
3072.90098962884
 20
-641.5984509326888
 30
0.0000000002254849
 11
3070.30098962884
 21
-641.5984509326888
 31
0.0000000002254849
  0
LINE
  5
1B9CB
330
18
100
AcDbEntity
  8
01
  6
BYBLOCK
100
AcDbLine
 10
3053.500964817828
 20
-642.2951188266888
 30
0.0000000002254849
 11
3050.900964817828
 21
-641.5984509326888
 31
0.0000000002254849
  0
LINE
  5
1B9CC
330
18
100
AcDbEntity
  8
01
  6
BYBLOCK
100
AcDbLine
 10
3050.900964817828
 20
-641.5984509326888
 30
0.0000000002254849
 11
3053.500964817828
 21
-640.9017830386888
 31
0.0000000002254849
  0
LINE
  5
1B9CD
330
18
100
AcDbEntity
  8
01
  6
BYBLOCK
100
AcDbLine
 10
3050.900964817828
 20
-641.5984509326888
 30
0.0000000002254849
 11
3053.500964817828
 21
-641.5984509326888
 31
0.0000000002254849
  0
TEXT
  5
1B9CE
330
18
100
AcDbEntity
  8
01
  6
CONTINUOUS
100
AcDbText
 10
3058.109310556667
 20
-640.6884509326889
 30
0.0000000002254849
 40
4.55
  1
22
100
AcDbText
1001
ACAD
1000
DSTYLE
1002
{
1070
    40
1040
1.3
1070
    45
1040
0.5
1070
   341
1005
0
1002
}
  0
LINE
  5
1B9CF
330
18
100
AcDbEntity
  8
01
  6
BYBLOCK
100
AcDbLine
 10
3115.500989628839
 20
-642.2951188266888
 30
0.0000000000564849
 11
3112.900989628839
 21
-641.5984509326888
 31
0.0000000000564849
  0
LINE
  5
1B9D0
330
18
100
AcDbEntity
  8
01
  6
BYBLOCK
100
AcDbLine
 10
3112.900989628839
 20
-641.5984509326888
 30
0.0000000000564849
 11
3115.500989628839
 21
-640.9017830386888
 31
0.0000000000564849
  0
LINE
  5
1B9D1
330
18
100
AcDbEntity
  8
01
  6
BYBLOCK
100
AcDbLine
 10
3112.900989628839
 20
-641.5984509326888
 30
0.0000000000564849
 11
3115.500989628839
 21
-641.5984509326888
 31
0.0000000000564849
  0
LINE
  5
1B9D2
330
18
100
AcDbEntity
  8
01
  6
BYBLOCK
100
AcDbLine
 10
3118.4695733178
 20
-640.9017830386888
 30
0.0000000000564849
 11
3121.0695733178
 21
-641.5984509326888
 31
0.0000000000564849
  0
LINE
  5
1B9D3
330
18
100
AcDbEntity
  8
01
  6
BYBLOCK
100
AcDbLine
 10
3121.0695733178
 20
-641.5984509326888
 30
0.0000000000564849
 11
3118.4695733178
 21
-642.2951188266888
 31
0.0000000000564849
  0
LINE
  5
1B9D4
330
18
100
AcDbEntity
  8
01
  6
BYBLOCK
100
AcDbLine
 10
3121.0695733178
 20
-641.5984509326888
 30
0.0000000000564849
 11
3118.4695733178
 21
-641.5984509326888
 31
0.0000000000564849
  0
TEXT
  5
1B9D5
330
18
100
AcDbEntity
  8
01
  6
CONTINUOUS
100
AcDbText
 10
3115.468614806653
 20
-640.6884509326889
 30
0.0000000000564849
 40
4.55
  1
8
100
AcDbText
1001
ACAD
1000
DSTYLE
1002
{
1070
    40
1040
1.3
1070
    45
1040
0.5
1070
   271
1070
     1
1070
   341
1005
0
1002
}
  0
LINE
  5
1B9D6
330
18
100
AcDbEntity
  8
01
  6
BYBLOCK
100
AcDbLine
 10
3203.500873289093
 20
-618.8736267420011
 30
0.0000000002254849
 11
3200.900873289093
 21
-618.176958848001
 31
0.0000000002254849
  0
LINE
  5
1B9D7
330
18
100
AcDbEntity
  8
01
  6
BYBLOCK
100
AcDbLine
 10
3200.900873289093
 20
-618.176958848001
 30
0.0000000002254849
 11
3203.500873289093
 21
-617.480290954001
 31
0.0000000002254849
  0
LINE
  5
1B9D8
330
18
100
AcDbEntity
  8
01
  6
BYBLOCK
100
AcDbLine
 10
3200.900873289093
 20
-618.176958848001
 30
0.0000000002254849
 11
3203.500873289093
 21
-618.176958848001
 31
0.0000000002254849
  0
LINE
  5
1B9D9
330
18
100
AcDbEntity
  8
01
  6
BYBLOCK
100
AcDbLine
 10
3209.300873289093
 20
-617.480290954001
 30
0.0000000002254849
 11
3211.900873289093
 21
-618.176958848001
 31
0.0000000002254849
  0
LINE
  5
1B9DA
330
18
100
AcDbEntity
  8
01
  6
BYBLOCK
100
AcDbLine
 10
3211.900873289093
 20
-618.176958848001
 30
0.0000000002254849
 11
3209.300873289093
 21
-618.8736267420011
 31
0.0000000002254849
  0
LINE
  5
1B9DB
330
18
100
AcDbEntity
  8
01
  6
BYBLOCK
100
AcDbLine
 10
3211.900873289093
 20
-618.176958848001
 30
0.0000000002254849
 11
3209.300873289093
 21
-618.176958848001
 31
0.0000000002254849
  0
TEXT
  5
1B9DC
330
18
100
AcDbEntity
  8
01
  6
CONTINUOUS
100
AcDbText
 10
3204.125873289093
 20
-617.2669588480011
 30
0.0000000002254849
 40
4.55
  1
11
100
AcDbText
1001
ACAD
1000
DSTYLE
1002
{
1070
    40
1040
1.3
1070
    45
1040
0.5
1002
}
  0
LINE
  5
1B9DD
330
18
100
AcDbEntity
  8
01
  6
BYBLOCK
100
AcDbLine
 10
3307.204205395094
 20
-692.1984509326891
 30
0.0000000002254849
 11
3307.900873289093
 21
-689.598450932689
 31
0.0000000002254849
  0
LINE
  5
1B9DE
330
18
100
AcDbEntity
  8
01
  6
BYBLOCK
100
AcDbLine
 10
3307.900873289093
 20
-689.598450932689
 30
0.0000000002254849
 11
3308.597541183093
 21
-692.1984509326891
 31
0.0000000002254849
  0
LINE
  5
1B9DF
330
18
100
AcDbEntity
  8
01
  6
BYBLOCK
100
AcDbLine
 10
3307.900873289093
 20
-689.598450932689
 30
0.0000000002254849
 11
3307.900873289093
 21
-692.1984509326891
 31
0.0000000002254849
  0
LINE
  5
1B9E0
330
18
100
AcDbEntity
  8
01
  6
BYBLOCK
100
AcDbLine
 10
3308.597541183093
 20
-760.9984509326895
 30
0.0000000002254849
 11
3307.900873289093
 21
-763.5984509326895
 31
0.0000000002254849
  0
LINE
  5
1B9E1
330
18
100
AcDbEntity
  8
01
  6
BYBLOCK
100
AcDbLine
 10
3307.900873289093
 20
-763.5984509326895
 30
0.0000000002254849
 11
3307.204205395094
 21
-760.9984509326895
 31
0.0000000002254849
  0
LINE
  5
1B9E2
330
18
100
AcDbEntity
  8
01
  6
BYBLOCK
100
AcDbLine
 10
3307.900873289093
 20
-763.5984509326895
 30
0.0000000002254849
 11
3307.900873289093
 21
-760.9984509326895
 31
0.0000000002254849
  0
TEXT
  5
1B9E3
330
18
100
AcDbEntity
  8
01
  6
CONTINUOUS
100
AcDbText
 10
3306.990873289094
 20
-708.6271068466704
 30
0.0000000002254849
 40
4.55
  1
74
 50
90.0
100
AcDbText
1001
ACAD
1000
DSTYLE
1002
{
1070
    40
1040
1.3
1070
    45
1040
0.5
1002
}
  0
LINE
  5
1B9E4
330
18
100
AcDbEntity
  8
01
  6
BYBLOCK
100
AcDbLine
 10
3278.300873289093
 20
-607.4004234859528
 30
0.0000000002254849
 11
3280.900873289093
 21
-608.0970913799529
 31
0.0000000002254849
  0
LINE
  5
1B9E5
330
18
100
AcDbEntity
  8
01
  6
BYBLOCK
100
AcDbLine
 10
3280.900873289093
 20
-608.0970913799529
 30
0.0000000002254849
 11
3278.300873289093
 21
-608.7937592739529
 31
0.0000000002254849
  0
LINE
  5
1B9E6
330
18
100
AcDbEntity
  8
01
  6
BYBLOCK
100
AcDbLine
 10
3280.900873289093
 20
-608.0970913799529
 30
0.0000000002254849
 11
3278.300873289093
 21
-608.0970913799529
 31
0.0000000002254849
  0
LINE
  5
1B9E7
330
18
100
AcDbEntity
  8
01
  6
BYBLOCK
100
AcDbLine
 10
3214.500873289093
 20
-608.7937592739529
 30
0.0000000002254849
 11
3211.900873289093
 21
-608.0970913799529
 31
0.0000000002254849
  0
LINE
  5
1B9E8
330
18
100
AcDbEntity
  8
01
  6
BYBLOCK
100
AcDbLine
 10
3211.900873289093
 20
-608.0970913799529
 30
0.0000000002254849
 11
3214.500873289093
 21
-607.4004234859528
 31
0.0000000002254849
  0
LINE
  5
1B9E9
330
18
100
AcDbEntity
  8
01
  6
BYBLOCK
100
AcDbLine
 10
3211.900873289093
 20
-608.0970913799529
 30
0.0000000002254849
 11
3214.500873289093
 21
-608.0970913799529
 31
0.0000000002254849
  0
TEXT
  5
1B9EA
330
18
100
AcDbEntity
  8
01
  6
CONTINUOUS
100
AcDbText
 10
3242.592354770575
 20
-607.1870913799529
 30
0.0000000002254849
 40
4.55
  1
69
100
AcDbText
1001
ACAD
1000
DSTYLE
1002
{
1070
    40
1040
1.3
1070
    45
1040
0.5
1002
}
  0
LINE
  5
1B9EB
330
18
100
AcDbEntity
  8
01
  6
BYBLOCK
100
AcDbLine
 10
3214.500873289093
 20
-618.8736267420011
 30
0.0000000002254849
 11
3211.900873289093
 21
-618.176958848001
 31
0.0000000002254849
  0
LINE
  5
1B9EC
330
18
100
AcDbEntity
  8
01
  6
BYBLOCK
100
AcDbLine
 10
3211.900873289093
 20
-618.176958848001
 30
0.0000000002254849
 11
3214.500873289093
 21
-617.480290954001
 31
0.0000000002254849
  0
LINE
  5
1B9ED
330
18
100
AcDbEntity
  8
01
  6
BYBLOCK
100
AcDbLine
 10
3211.900873289093
 20
-618.176958848001
 30
0.0000000002254849
 11
3214.500873289093
 21
-618.176958848001
 31
0.0000000002254849
  0
LINE
  5
1B9EE
330
18
100
AcDbEntity
  8
01
  6
BYBLOCK
100
AcDbLine
 10
3260.300873289093
 20
-617.480290954001
 30
0.0000000002254849
 11
3262.900873289093
 21
-618.176958848001
 31
0.0000000002254849
  0
LINE
  5
1B9EF
330
18
100
AcDbEntity
  8
01
  6
BYBLOCK
100
AcDbLine
 10
3262.900873289093
 20
-618.176958848001
 30
0.0000000002254849
 11
3260.300873289093
 21
-618.8736267420011
 31
0.0000000002254849
  0
LINE
  5
1B9F0
330
18
100
AcDbEntity
  8
01
  6
BYBLOCK
100
AcDbLine
 10
3262.900873289093
 20
-618.176958848001
 30
0.0000000002254849
 11
3260.300873289093
 21
-618.176958848001
 31
0.0000000002254849
  0
TEXT
  5
1B9F1
330
18
100
AcDbEntity
  8
01
  6
CONTINUOUS
100
AcDbText
 10
3234.351741344649
 20
-617.2669588480011
 30
0.0000000002254849
 40
4.55
  1
51
100
AcDbText
1001
ACAD
1000
DSTYLE
1002
{
1070
    40
1040
1.3
1070
    45
1040
0.5
1002
}
  0
LINE
  5
1B9F2
330
18
100
AcDbEntity
  8
01
  6
BYBLOCK
100
AcDbLine
 10
3083.000989628838
 20
-618.8736267420013
 30
0.0000000002254849
 11
3080.400989628838
 21
-618.1769588480013
 31
0.0000000002254849
  0
LINE
  5
1B9F3
330
18
100
AcDbEntity
  8
01
  6
BYBLOCK
100
AcDbLine
 10
3080.400989628838
 20
-618.1769588480013
 30
0.0000000002254849
 11
3083.000989628838
 21
-617.4802909540012
 31
0.0000000002254849
  0
LINE
  5
1B9F4
330
18
100
AcDbEntity
  8
01
  6
BYBLOCK
100
AcDbLine
 10
3080.400989628838
 20
-618.1769588480013
 30
0.0000000002254849
 11
3083.000989628838
 21
-618.1769588480013
 31
0.0000000002254849
  0
LINE
  5
1B9F5
330
18
100
AcDbEntity
  8
01
  6
BYBLOCK
100
AcDbLine
 10
3102.800989628838
 20
-617.4802909540012
 30
0.0000000002254849
 11
3105.400989628838
 21
-618.1769588480013
 31
0.0000000002254849
  0
LINE
  5
1B9F6
330
18
100
AcDbEntity
  8
01
  6
BYBLOCK
100
AcDbLine
 10
3105.400989628838
 20
-618.1769588480013
 30
0.0000000002254849
 11
3102.800989628838
 21
-618.8736267420013
 31
0.0000000002254849
  0
LINE
  5
1B9F7
330
18
100
AcDbEntity
  8
01
  6
BYBLOCK
100
AcDbLine
 10
3105.400989628838
 20
-618.1769588480013
 30
0.0000000002254849
 11
3102.800989628838
 21
-618.1769588480013
 31
0.0000000002254849
  0
TEXT
  5
1B9F8
330
18
100
AcDbEntity
  8
01
  6
CONTINUOUS
100
AcDbText
 10
3089.109322962172
 20
-617.2669588480013
 30
0.0000000002254849
 40
4.55
  1
25
100
AcDbText
1001
ACAD
1000
DSTYLE
1002
{
1070
    40
1040
1.3
1070
    45
1040
0.5
1002
}
  0
LINE
  5
1B9F9
330
18
100
AcDbEntity
  8
01
  6
BYBLOCK
100
AcDbLine
 10
3176.992392506282
 20
-672.1980057882732
 30
0.0000000003382273
 11
3177.689060400282
 21
-669.5980057882732
 31
0.0000000003382273
  0
LINE
  5
1B9FA
330
18
100
AcDbEntity
  8
01
  6
BYBLOCK
100
AcDbLine
 10
3177.689060400282
 20
-669.5980057882732
 30
0.0000000003382273
 11
3178.385728294282
 21
-672.1980057882732
 31
0.0000000003382273
  0
LINE
  5
1B9FB
330
18
100
AcDbEntity
  8
01
  6
BYBLOCK
100
AcDbLine
 10
3177.689060400282
 20
-669.5980057882732
 30
0.0000000003382273
 11
3177.689060400282
 21
-672.1980057882732
 31
0.0000000003382273
  0
LINE
  5
1B9FC
330
18
100
AcDbEntity
  8
01
  6
BYBLOCK
100
AcDbLine
 10
3178.385728294282
 20
-780.9980057882732
 30
0.0000000003382273
 11
3177.689060400282
 21
-783.5980057882732
 31
0.0000000003382273
  0
LINE
  5
1B9FD
330
18
100
AcDbEntity
  8
01
  6
BYBLOCK
100
AcDbLine
 10
3177.689060400282
 20
-783.5980057882732
 30
0.0000000003382273
 11
3176.992392506282
 21
-780.9980057882732
 31
0.0000000003382273
  0
LINE
  5
1B9FE
330
18
100
AcDbEntity
  8
01
  6
BYBLOCK
100
AcDbLine
 10
3177.689060400282
 20
-783.5980057882732
 30
0.0000000003382273
 11
3177.689060400282
 21
-780.9980057882732
 31
0.0000000003382273
  0
TEXT
  5
1B9FF
330
18
100
AcDbEntity
  8
01
  6
CONTINUOUS
100
AcDbText
 10
3176.779060400282
 20
-702.0149834403514
 30
0.0000000003382273
 40
4.55
  1
114
 50
90.0
100
AcDbText
1001
ACAD
1000
DSTYLE
1002
{
1070
    40
1040
1.3
1070
    45
1040
0.5
1002
}
  0
LINE
  5
1BA00
330
18
100
AcDbEntity
  8
01
  6
BYBLOCK
100
AcDbLine
 10
3186.356726672507
 20
-664.2984509326897
 30
0.0000000003382273
 11
3187.053394566507
 21
-661.6984509326896
 31
0.0000000003382273
  0
LINE
  5
1BA01
330
18
100
AcDbEntity
  8
01
  6
BYBLOCK
100
AcDbLine
 10
3187.053394566507
 20
-661.6984509326896
 30
0.0000000003382273
 11
3187.750062460506
 21
-664.2984509326897
 31
0.0000000003382273
  0
LINE
  5
1BA02
330
18
100
AcDbEntity
  8
01
  6
BYBLOCK
100
AcDbLine
 10
3187.053394566507
 20
-661.6984509326896
 30
0.0000000003382273
 11
3187.053394566507
 21
-664.2984509326897
 31
0.0000000003382273
  0
LINE
  5
1BA03
330
18
100
AcDbEntity
  8
01
  6
BYBLOCK
100
AcDbLine
 10
3187.750062460506
 20
-788.898005788273
 30
0.0000000003382273
 11
3187.053394566507
 21
-791.4980057882731
 31
0.0000000003382273
  0
LINE
  5
1BA04
330
18
100
AcDbEntity
  8
01
  6
BYBLOCK
100
AcDbLine
 10
3187.053394566507
 20
-791.4980057882731
 30
0.0000000003382273
 11
3186.356726672507
 21
-788.898005788273
 31
0.0000000003382273
  0
LINE
  5
1BA05
330
18
100
AcDbEntity
  8
01
  6
BYBLOCK
100
AcDbLine
 10
3187.053394566507
 20
-791.4980057882731
 30
0.0000000003382273
 11
3187.053394566507
 21
-788.898005788273
 31
0.0000000003382273
  0
TEXT
  5
1BA06
330
18
100
AcDbEntity
  8
01
  6
CONTINUOUS
100
AcDbText
 10
3186.143394566507
 20
-702.7995474431596
 30
0.0000000003382273
 40
4.55
  1
130
 50
90.0
100
AcDbText
1001
ACAD
1000
DSTYLE
1002
{
1070
    40
1040
1.3
1070
    45
1040
0.5
1002
}
  0
LINE
  5
1BA07
330
18
100
AcDbEntity
  8
01
  6
BYBLOCK
100
AcDbLine
 10
3227.204205395094
 20
-725.1971326195863
 30
0.0000000002254849
 11
3227.900873289093
 21
-722.5971326195863
 31
0.0000000002254849
  0
LINE
  5
1BA08
330
18
100
AcDbEntity
  8
01
  6
BYBLOCK
100
AcDbLine
 10
3227.900873289093
 20
-722.5971326195863
 30
0.0000000002254849
 11
3228.597541183093
 21
-725.1971326195863
 31
0.0000000002254849
  0
LINE
  5
1BA09
330
18
100
AcDbEntity
  8
01
  6
BYBLOCK
100
AcDbLine
 10
3227.900873289093
 20
-722.5971326195863
 30
0.0000000002254849
 11
3227.900873289093
 21
-725.1971326195863
 31
0.0000000002254849
  0
LINE
  5
1BA0A
330
18
100
AcDbEntity
  8
01
  6
BYBLOCK
100
AcDbLine
 10
3228.597541183093
 20
-769.9971326195854
 30
0.0000000002254849
 11
3227.900873289093
 21
-772.5971326195854
 31
0.0000000002254849
  0
LINE
  5
1BA0B
330
18
100
AcDbEntity
  8
01
  6
BYBLOCK
100
AcDbLine
 10
3227.900873289093
 20
-772.5971326195854
 30
0.0000000002254849
 11
3227.204205395094
 21
-769.9971326195854
 31
0.0000000002254849
  0
LINE
  5
1BA0C
330
18
100
AcDbEntity
  8
01
  6
BYBLOCK
100
AcDbLine
 10
3227.900873289093
 20
-772.5971326195854
 30
0.0000000002254849
 11
3227.900873289093
 21
-769.9971326195854
 31
0.0000000002254849
  0
TEXT
  5
1BA0D
330
18
100
AcDbEntity
  8
01
  6
CONTINUOUS
100
AcDbText
 10
3226.990873289094
 20
-755.7966355261851
 30
0.0000000002254849
 40
4.55
  1
φ50
 50
90.0
100
AcDbText
1001
ACAD
1000
DSTYLE
1002
{
1070
     3
1000
φ<>
1070
    40
1040
1.3
1070
    45
1040
0.5
1002
}
  0
LINE
  5
1BA0E
330
18
100
AcDbEntity
  8
1DIM
100
AcDbLine
 10
2892.900993628838
 20
-747.5984509326888
 30
0.0000000002254849
 11
2877.907141226549
 21
-747.5984509326888
 31
0.0000000002254849
1001
ACAD
1000
DSTYLE
1002
{
1070
    40
1040
1.3
1070
    45
1040
0.5
1070
   341
1005
0
1002
}
  0
LINE
  5
1BA0F
330
18
100
AcDbEntity
  8
1DIM
100
AcDbLine
 10
2900.400985628838
 20
-692.0984509326888
 30
0.0000000002254849
 11
2877.907141226549
 21
-692.0984509326888
 31
0.0000000002254849
1001
ACAD
1000
DSTYLE
1002
{
1070
    40
1040
1.3
1070
    45
1040
0.5
1070
   341
1005
0
1002
}
  0
LINE
  5
1BA10
330
18
100
AcDbEntity
  8
1DIM
100
AcDbLine
 10
2879.20714122655
 20
-744.9984509326888
 30
0.0000000002254849
 11
2879.20714122655
 21
-694.6984509326888
 31
0.0000000002254849
1001
ACAD
1000
DSTYLE
1002
{
1070
    40
1040
1.3
1070
    45
1040
0.5
1070
   341
1005
0
1002
}
  0
LINE
  5
1BA14
330
18
100
AcDbEntity
  8
1DIM
100
AcDbLine
 10
2892.900993628838
 20
-747.5984509326888
 30
0.0000000002254849
 11
2877.907141226549
 21
-747.5984509326888
 31
0.0000000002254849
1001
ACAD
1000
DSTYLE
1002
{
1070
    40
1040
1.3
1070
    45
1040
0.5
1070
   341
1005
0
1002
}
  0
LINE
  5
1BA15
330
18
100
AcDbEntity
  8
1DIM
100
AcDbLine
 10
2900.400985628838
 20
-692.0984509326888
 30
0.0000000002254849
 11
2877.907141226549
 21
-692.0984509326888
 31
0.0000000002254849
1001
ACAD
1000
DSTYLE
1002
{
1070
    40
1040
1.3
1070
    45
1040
0.5
1070
   341
1005
0
1002
}
  0
LINE
  5
1BA16
330
18
100
AcDbEntity
  8
1DIM
100
AcDbLine
 10
2879.20714122655
 20
-744.9984509326888
 30
0.0000000002254849
 11
2879.20714122655
 21
-694.6984509326888
 31
0.0000000002254849
1001
ACAD
1000
DSTYLE
1002
{
1070
    40
1040
1.3
1070
    45
1040
0.5
1070
   341
1005
0
1002
}
  0
LINE
  5
1BA1B
330
18
100
AcDbEntity
  8
1DIM
100
AcDbLine
 10
3260.5216225588
 20
-524.0025166493585
 30
0.0000000001127424
 11
3233.054034382111
 21
-543.5084509337177
 31
0.0000000001127424
1001
ACAD
1000
DSTYLE
1002
{
1070
    40
1040
1.3
1070
    45
1040
0.5
1002
}
  0
LINE
  5
1BA1C
330
18
100
AcDbEntity
  8
1DIM
100
AcDbLine
 10
3279.301757471153
 20
-468.0984509337177
 30
0.0000000002254849
 11
3299.862148230866
 21
-468.0984509337177
 31
0.0000000002254849
1001
ACAD
1000
DSTYLE
1002
{
1070
    45
1040
0.5
1070
    40
1040
1.3
1002
}
  0
LINE
  5
1BA1D
330
18
100
AcDbEntity
  8
1DIM
100
AcDbLine
 10
3280.901757471153
 20
-486.8984509337176
 30
0.0000000002254849
 11
3299.862148230866
 21
-486.8984509337176
 31
0.0000000002254849
1001
ACAD
1000
DSTYLE
1002
{
1070
    45
1040
0.5
1070
    40
1040
1.3
1002
}
  0
LINE
  5
1BA1E
330
18
100
AcDbEntity
  8
1DIM
100
AcDbLine
 10
3298.562148230866
 20
-470.6984509337177
 30
0.0000000002254849
 11
3298.562148230866
 21
-484.2984509337176
 31
0.0000000002254849
1001
ACAD
1000
DSTYLE
1002
{
1070
    45
1040
0.5
1070
    40
1040
1.3
1002
}
  0
LINE
  5
1BA22
330
18
100
AcDbEntity
  8
1DIM
100
AcDbLine
 10
3369.700873289094
 20
-754.9971326195857
 30
0.0000000001127424
 11
3419.200873289094
 21
-754.9971326195857
 31
0.0000000001127424
1001
ACAD
1000
DSTYLE
1002
{
1070
    40
1040
1.3
1070
    45
1040
0.5
1002
}
  0
LINE
  5
1BA23
330
18
100
AcDbEntity
  8
1DIM
100
AcDbLine
 10
3369.700873289094
 20
-740.1971326195859
 30
0.0000000001127424
 11
3419.200873289094
 21
-740.1971326195859
 31
0.0000000001127424
1001
ACAD
1000
DSTYLE
1002
{
1070
    40
1040
1.3
1070
    45
1040
0.5
1002
}
  0
LINE
  5
1BA24
330
18
100
AcDbEntity
  8
1DIM
100
AcDbLine
 10
3417.900873289093
 20
-752.3971326195857
 30
0.0000000001127424
 11
3417.900873289093
 21
-742.7971326195859
 31
0.0000000001127424
1001
ACAD
1000
DSTYLE
1002
{
1070
    40
1040
1.3
1070
    45
1040
0.5
1002
}
  0
LINE
  5
1BA28
330
18
100
AcDbEntity
  8
1DIM
100
AcDbLine
 10
3262.900873289093
 20
-519.0984509337171
 30
0.0000000001127424
 11
3262.900873289093
 21
-583.8984509337171
 31
0.0000000001127424
1001
ACAD
1000
DSTYLE
1002
{
1070
    40
1040
1.3
1070
    45
1040
0.5
1002
}
  0
LINE
  5
1BA29
330
18
100
AcDbEntity
  8
1DIM
100
AcDbLine
 10
3370.900873289093
 20
-563.776630101025
 30
0.0000000001127424
 11
3370.900873289093
 21
-583.8984509337171
 31
0.0000000001127424
1001
ACAD
1000
DSTYLE
1002
{
1070
    40
1040
1.3
1070
    45
1040
0.5
1002
}
  0
LINE
  5
1BA2A
330
18
100
AcDbEntity
  8
1DIM
100
AcDbLine
 10
3265.500873289093
 20
-582.5984509337171
 30
0.0000000001127424
 11
3368.300873289093
 21
-582.5984509337171
 31
0.0000000001127424
1001
ACAD
1000
DSTYLE
1002
{
1070
    40
1040
1.3
1070
    45
1040
0.5
1002
}
  0
LINE
  5
1BA2E
330
18
100
AcDbEntity
  8
1DIM
100
AcDbLine
 10
3251.900873289093
 20
-559.5984509337171
 30
0.0000000001127424
 11
3251.900873289093
 21
-593.8984509337171
 31
0.0000000001127424
1001
ACAD
1000
DSTYLE
1002
{
1070
    40
1040
1.3
1070
    45
1040
0.5
1002
}
  0
LINE
  5
1BA2F
330
18
100
AcDbEntity
  8
1DIM
100
AcDbLine
 10
3370.900873289093
 20
-563.776630101025
 30
0.0000000001127424
 11
3370.900873289093
 21
-593.8984509337171
 31
0.0000000001127424
1001
ACAD
1000
DSTYLE
1002
{
1070
    40
1040
1.3
1070
    45
1040
0.5
1002
}
  0
LINE
  5
1BA30
330
18
100
AcDbEntity
  8
1DIM
100
AcDbLine
 10
3254.500873289093
 20
-592.5984509337171
 30
0.0000000001127424
 11
3368.300873289093
 21
-592.5984509337171
 31
0.0000000001127424
1001
ACAD
1000
DSTYLE
1002
{
1070
    40
1040
1.3
1070
    45
1040
0.5
1002
}
  0
LINE
  5
1BA34
330
18
100
AcDbEntity
  8
1DIM
100
AcDbLine
 10
3369.700873289094
 20
-536.7186249512132
 30
0.0000000001127424
 11
3419.200873289094
 21
-536.7186249512132
 31
0.0000000001127424
1001
ACAD
1000
DSTYLE
1002
{
1070
    40
1040
1.3
1070
    45
1040
0.5
1002
}
  0
LINE
  5
1BA35
330
18
100
AcDbEntity
  8
1DIM
100
AcDbLine
 10
3365.656021286442
 20
-497.5984509337171
 30
0.0000000001127424
 11
3419.200873289094
 21
-497.5984509337171
 31
0.0000000001127424
1001
ACAD
1000
DSTYLE
1002
{
1070
    40
1040
1.3
1070
    45
1040
0.5
1002
}
  0
LINE
  5
1BA36
330
18
100
AcDbEntity
  8
1DIM
100
AcDbLine
 10
3417.900873289093
 20
-534.1186249512132
 30
0.0000000001127424
 11
3417.900873289093
 21
-500.1984509337171
 31
0.0000000001127424
1001
ACAD
1000
DSTYLE
1002
{
1070
    40
1040
1.3
1070
    45
1040
0.5
1002
}
  0
LINE
  5
1BA3A
330
18
100
AcDbEntity
  8
1DIM
100
AcDbLine
 10
3369.700873289094
 20
-564.9782769162224
 30
0.0000000001127424
 11
3429.200873289094
 21
-564.9782769162224
 31
0.0000000001127424
1001
ACAD
1000
DSTYLE
1002
{
1070
    40
1040
1.3
1070
    45
1040
0.5
1002
}
  0
LINE
  5
1BA3B
330
18
100
AcDbEntity
  8
1DIM
100
AcDbLine
 10
3365.656021286442
 20
-497.5984509337171
 30
0.0000000001127424
 11
3429.200873289094
 21
-497.5984509337171
 31
0.0000000001127424
1001
ACAD
1000
DSTYLE
1002
{
1070
    40
1040
1.3
1070
    45
1040
0.5
1002
}
  0
LINE
  5
1BA3C
330
18
100
AcDbEntity
  8
1DIM
100
AcDbLine
 10
3427.900873289093
 20
-562.3782769162224
 30
0.0000000001127424
 11
3427.900873289093
 21
-500.1984509337171
 31
0.0000000001127424
1001
ACAD
1000
DSTYLE
1002
{
1070
    40
1040
1.3
1070
    45
1040
0.5
1002
}
  0
LINE
  5
1BA40
330
18
100
AcDbEntity
  8
1DIM
100
AcDbLine
 10
3283.900873289093
 20
-564.4782769162224
 30
0.0000000001141035
 11
3283.900873289093
 21
-574.8397545139261
 31
0.0000000001141035
1001
ACAD
1000
DSTYLE
1002
{
1070
    40
1040
1.3
1070
    45
1040
0.5
1002
}
  0
LINE
  5
1BA41
330
18
100
AcDbEntity
  8
1DIM
100
AcDbLine
 10
3370.900873289093
 20
-563.776630101025
 30
0.0000000001141035
 11
3370.900873289093
 21
-574.8397545139261
 31
0.0000000001141035
1001
ACAD
1000
DSTYLE
1002
{
1070
    40
1040
1.3
1070
    45
1040
0.5
1002
}
  0
LINE
  5
1BA42
330
18
100
AcDbEntity
  8
1DIM
100
AcDbLine
 10
3286.500873289093
 20
-573.5397545139261
 30
0.0000000001141035
 11
3368.300873289093
 21
-573.5397545139261
 31
0.0000000001141035
1001
ACAD
1000
DSTYLE
1002
{
1070
    40
1040
1.3
1070
    45
1040
0.5
1002
}
  0
LINE
  5
1BA47
330
18
100
AcDbEntity
  8
1DIM
100
AcDbLine
 10
3293.384530640285
 20
-534.5855418690393
 30
0.0
 11
3299.93489491956
 21
-526.2419372385048
 31
0.0
1001
ACAD
1000
DSTYLE
1002
{
1070
    40
1040
1.3
1070
    45
1040
0.5
1002
}
  0
LINE
  5
1BA48
330
18
100
AcDbEntity
  8
0
  6
BYBLOCK
100
AcDbLine
 10
2879.903809120549
 20
-744.9984509326888
 30
0.0000000002254849
 11
2879.20714122655
 21
-747.5984509326888
 31
0.0000000002254849
  0
LINE
  5
1BA49
330
18
100
AcDbEntity
  8
0
  6
BYBLOCK
100
AcDbLine
 10
2879.20714122655
 20
-747.5984509326888
 30
0.0000000002254849
 11
2878.51047333255
 21
-744.9984509326888
 31
0.0000000002254849
  0
LINE
  5
1BA4A
330
18
100
AcDbEntity
  8
0
  6
BYBLOCK
100
AcDbLine
 10
2879.20714122655
 20
-747.5984509326888
 30
0.0000000002254849
 11
2879.20714122655
 21
-744.9984509326888
 31
0.0000000002254849
  0
LINE
  5
1BA4B
330
18
100
AcDbEntity
  8
0
  6
BYBLOCK
100
AcDbLine
 10
2878.51047333255
 20
-694.6984509326888
 30
0.0000000002254849
 11
2879.20714122655
 21
-692.0984509326888
 31
0.0000000002254849
  0
LINE
  5
1BA4C
330
18
100
AcDbEntity
  8
0
  6
BYBLOCK
100
AcDbLine
 10
2879.20714122655
 20
-692.0984509326888
 30
0.0000000002254849
 11
2879.903809120549
 21
-694.6984509326888
 31
0.0000000002254849
  0
LINE
  5
1BA4D
330
18
100
AcDbEntity
  8
0
  6
BYBLOCK
100
AcDbLine
 10
2879.20714122655
 20
-692.0984509326888
 30
0.0000000002254849
 11
2879.20714122655
 21
-694.6984509326888
 31
0.0000000002254849
  0
TEXT
  5
1BA4E
330
18
100
AcDbEntity
  8
1DIM
  6
CONTINUOUS
100
AcDbText
 10
2878.29714122655
 20
-726.7050481549109
 30
0.0000000002254849
 40
4.55
  1
55.5
 50
90.0
100
AcDbText
1001
ACAD
1000
DSTYLE
1002
{
1070
    40
1040
1.3
1070
    45
1040
0.5
1070
   341
1005
0
1002
}
  0
LINE
  5
1BA4F
330
18
100
AcDbEntity
  8
0
  6
BYBLOCK
100
AcDbLine
 10
2879.903809120549
 20
-744.9984509326888
 30
0.0000000002254849
 11
2879.20714122655
 21
-747.5984509326888
 31
0.0000000002254849
  0
LINE
  5
1BA50
330
18
100
AcDbEntity
  8
0
  6
BYBLOCK
100
AcDbLine
 10
2879.20714122655
 20
-747.5984509326888
 30
0.0000000002254849
 11
2878.51047333255
 21
-744.9984509326888
 31
0.0000000002254849
  0
LINE
  5
1BA51
330
18
100
AcDbEntity
  8
0
  6
BYBLOCK
100
AcDbLine
 10
2879.20714122655
 20
-747.5984509326888
 30
0.0000000002254849
 11
2879.20714122655
 21
-744.9984509326888
 31
0.0000000002254849
  0
LINE
  5
1BA52
330
18
100
AcDbEntity
  8
0
  6
BYBLOCK
100
AcDbLine
 10
2878.51047333255
 20
-694.6984509326888
 30
0.0000000002254849
 11
2879.20714122655
 21
-692.0984509326888
 31
0.0000000002254849
  0
LINE
  5
1BA53
330
18
100
AcDbEntity
  8
0
  6
BYBLOCK
100
AcDbLine
 10
2879.20714122655
 20
-692.0984509326888
 30
0.0000000002254849
 11
2879.903809120549
 21
-694.6984509326888
 31
0.0000000002254849
  0
LINE
  5
1BA54
330
18
100
AcDbEntity
  8
0
  6
BYBLOCK
100
AcDbLine
 10
2879.20714122655
 20
-692.0984509326888
 30
0.0000000002254849
 11
2879.20714122655
 21
-694.6984509326888
 31
0.0000000002254849
  0
TEXT
  5
1BA55
330
18
100
AcDbEntity
  8
1DIM
  6
CONTINUOUS
100
AcDbText
 10
2878.29714122655
 20
-726.7050481549109
 30
0.0000000002254849
 40
4.55
  1
55.5
 50
90.0
100
AcDbText
1001
ACAD
1000
DSTYLE
1002
{
1070
    40
1040
1.3
1070
    45
1040
0.5
1070
   341
1005
0
1002
}
  0
LINE
  5
1BA56
330
18
100
AcDbEntity
  8
0
  6
BYBLOCK
100
AcDbLine
 10
3260.118251984891
 20
-523.4345040309823
 30
0.0000000001127424
 11
3262.641474529154
 21
-522.4971171595926
 31
0.0000000001127424
  0
LINE
  5
1BA57
330
18
100
AcDbEntity
  8
0
  6
BYBLOCK
100
AcDbLine
 10
3262.641474529154
 20
-522.4971171595926
 30
0.0000000001127424
 11
3260.924993132709
 21
-524.5705292677346
 31
0.0000000001127424
  0
LINE
  5
1BA58
330
18
100
AcDbEntity
  8
0
  6
BYBLOCK
100
AcDbLine
 10
3262.641474529154
 20
-522.4971171595926
 30
0.0000000001127424
 11
3260.5216225588
 21
-524.0025166493585
 31
0.0000000001127424
  0
LINE
  5
1BA59
330
18
100
AcDbEntity
  8
0
  6
BYBLOCK
100
AcDbLine
 10
3297.865480336866
 20
-470.6984509337177
 30
0.0000000002254849
 11
3298.562148230866
 21
-468.0984509337177
 31
0.0000000002254849
  0
LINE
  5
1BA5A
330
18
100
AcDbEntity
  8
0
  6
BYBLOCK
100
AcDbLine
 10
3298.562148230866
 20
-468.0984509337177
 30
0.0000000002254849
 11
3299.258816124866
 21
-470.6984509337177
 31
0.0000000002254849
  0
LINE
  5
1BA5B
330
18
100
AcDbEntity
  8
0
  6
BYBLOCK
100
AcDbLine
 10
3298.562148230866
 20
-468.0984509337177
 30
0.0000000002254849
 11
3298.562148230866
 21
-470.6984509337177
 31
0.0000000002254849
  0
LINE
  5
1BA5C
330
18
100
AcDbEntity
  8
0
  6
BYBLOCK
100
AcDbLine
 10
3299.258816124866
 20
-484.2984509337176
 30
0.0000000002254849
 11
3298.562148230866
 21
-486.8984509337176
 31
0.0000000002254849
  0
LINE
  5
1BA5D
330
18
100
AcDbEntity
  8
0
  6
BYBLOCK
100
AcDbLine
 10
3298.562148230866
 20
-486.8984509337176
 30
0.0000000002254849
 11
3297.865480336866
 21
-484.2984509337176
 31
0.0000000002254849
  0
LINE
  5
1BA5E
330
18
100
AcDbEntity
  8
0
  6
BYBLOCK
100
AcDbLine
 10
3298.562148230866
 20
-486.8984509337176
 30
0.0000000002254849
 11
3298.562148230866
 21
-484.2984509337176
 31
0.0000000002254849
  0
TEXT
  5
1BA5F
330
18
100
AcDbEntity
  8
1DIM
  6
CONTINUOUS
100
AcDbText
 10
3297.652148230866
 20
-480.532837507792
 30
0.0000000002254849
 40
4.55
  1
19
 50
90.0
100
AcDbText
1001
ACAD
1000
DSTYLE
1002
{
1070
    45
1040
0.5
1070
    40
1040
1.3
1002
}
  0
LINE
  5
1BA60
330
18
100
AcDbEntity
  8
0
  6
BYBLOCK
100
AcDbLine
 10
3418.597541183093
 20
-752.3971326195857
 30
0.0000000001127424
 11
3417.900873289093
 21
-754.9971326195857
 31
0.0000000001127424
  0
LINE
  5
1BA61
330
18
100
AcDbEntity
  8
0
  6
BYBLOCK
100
AcDbLine
 10
3417.900873289093
 20
-754.9971326195857
 30
0.0000000001127424
 11
3417.204205395094
 21
-752.3971326195857
 31
0.0000000001127424
  0
LINE
  5
1BA62
330
18
100
AcDbEntity
  8
0
  6
BYBLOCK
100
AcDbLine
 10
3417.900873289093
 20
-754.9971326195857
 30
0.0000000001127424
 11
3417.900873289093
 21
-752.3971326195857
 31
0.0000000001127424
  0
LINE
  5
1BA63
330
18
100
AcDbEntity
  8
0
  6
BYBLOCK
100
AcDbLine
 10
3417.204205395094
 20
-742.7971326195859
 30
0.0000000001127424
 11
3417.900873289093
 21
-740.1971326195859
 31
0.0000000001127424
  0
LINE
  5
1BA64
330
18
100
AcDbEntity
  8
0
  6
BYBLOCK
100
AcDbLine
 10
3417.900873289093
 20
-740.1971326195859
 30
0.0000000001127424
 11
3418.597541183093
 21
-742.7971326195859
 31
0.0000000001127424
  0
LINE
  5
1BA65
330
18
100
AcDbEntity
  8
0
  6
BYBLOCK
100
AcDbLine
 10
3417.900873289093
 20
-740.1971326195859
 30
0.0000000001127424
 11
3417.900873289093
 21
-742.7971326195859
 31
0.0000000001127424
  0
TEXT
  5
1BA66
330
18
100
AcDbEntity
  8
1DIM
  6
CONTINUOUS
100
AcDbText
 10
3416.990873289094
 20
-750.6304659529196
 30
0.0000000001127424
 40
4.55
  1
15
 50
90.0
100
AcDbText
1001
ACAD
1000
DSTYLE
1002
{
1070
    40
1040
1.3
1070
    45
1040
0.5
1002
}
  0
LINE
  5
1BA67
330
18
100
AcDbEntity
  8
0
  6
BYBLOCK
100
AcDbLine
 10
3265.500873289093
 20
-583.2951188277171
 30
0.0000000001127424
 11
3262.900873289093
 21
-582.5984509337171
 31
0.0000000001127424
  0
LINE
  5
1BA68
330
18
100
AcDbEntity
  8
0
  6
BYBLOCK
100
AcDbLine
 10
3262.900873289093
 20
-582.5984509337171
 30
0.0000000001127424
 11
3265.500873289093
 21
-581.9017830397171
 31
0.0000000001127424
  0
LINE
  5
1BA69
330
18
100
AcDbEntity
  8
0
  6
BYBLOCK
100
AcDbLine
 10
3262.900873289093
 20
-582.5984509337171
 30
0.0000000001127424
 11
3265.500873289093
 21
-582.5984509337171
 31
0.0000000001127424
  0
LINE
  5
1BA6A
330
18
100
AcDbEntity
  8
0
  6
BYBLOCK
100
AcDbLine
 10
3368.300873289093
 20
-581.9017830397171
 30
0.0000000001127424
 11
3370.900873289093
 21
-582.5984509337171
 31
0.0000000001127424
  0
LINE
  5
1BA6B
330
18
100
AcDbEntity
  8
0
  6
BYBLOCK
100
AcDbLine
 10
3370.900873289093
 20
-582.5984509337171
 30
0.0000000001127424
 11
3368.300873289093
 21
-583.2951188277171
 31
0.0000000001127424
  0
LINE
  5
1BA6C
330
18
100
AcDbEntity
  8
0
  6
BYBLOCK
100
AcDbLine
 10
3370.900873289093
 20
-582.5984509337171
 30
0.0000000001127424
 11
3368.300873289093
 21
-582.5984509337171
 31
0.0000000001127424
  0
TEXT
  5
1BA6D
330
18
100
AcDbEntity
  8
1DIM
  6
CONTINUOUS
100
AcDbText
 10
3311.971706622427
 20
-581.6884509337171
 30
0.0000000001127424
 40
4.55
  1
108
100
AcDbText
1001
ACAD
1000
DSTYLE
1002
{
1070
    40
1040
1.3
1070
    45
1040
0.5
1002
}
  0
LINE
  5
1BA6E
330
18
100
AcDbEntity
  8
0
  6
BYBLOCK
100
AcDbLine
 10
3254.500873289093
 20
-593.2951188277171
 30
0.0000000001127424
 11
3251.900873289093
 21
-592.5984509337171
 31
0.0000000001127424
  0
LINE
  5
1BA6F
330
18
100
AcDbEntity
  8
0
  6
BYBLOCK
100
AcDbLine
 10
3251.900873289093
 20
-592.5984509337171
 30
0.0000000001127424
 11
3254.500873289093
 21
-591.9017830397171
 31
0.0000000001127424
  0
LINE
  5
1BA70
330
18
100
AcDbEntity
  8
0
  6
BYBLOCK
100
AcDbLine
 10
3251.900873289093
 20
-592.5984509337171
 30
0.0000000001127424
 11
3254.500873289093
 21
-592.5984509337171
 31
0.0000000001127424
  0
LINE
  5
1BA71
330
18
100
AcDbEntity
  8
0
  6
BYBLOCK
100
AcDbLine
 10
3368.300873289093
 20
-591.9017830397171
 30
0.0000000001127424
 11
3370.900873289093
 21
-592.5984509337171
 31
0.0000000001127424
  0
LINE
  5
1BA72
330
18
100
AcDbEntity
  8
0
  6
BYBLOCK
100
AcDbLine
 10
3370.900873289093
 20
-592.5984509337171
 30
0.0000000001127424
 11
3368.300873289093
 21
-593.2951188277171
 31
0.0000000001127424
  0
LINE
  5
1BA73
330
18
100
AcDbEntity
  8
0
  6
BYBLOCK
100
AcDbLine
 10
3370.900873289093
 20
-592.5984509337171
 30
0.0000000001127424
 11
3368.300873289093
 21
-592.5984509337171
 31
0.0000000001127424
  0
TEXT
  5
1BA74
330
18
100
AcDbEntity
  8
1DIM
  6
CONTINUOUS
100
AcDbText
 10
3306.849820048353
 20
-591.6884509337171
 30
0.0000000001127424
 40
4.55
  1
119
100
AcDbText
1001
ACAD
1000
DSTYLE
1002
{
1070
    40
1040
1.3
1070
    45
1040
0.5
1002
}
  0
LINE
  5
1BA75
330
18
100
AcDbEntity
  8
0
  6
BYBLOCK
100
AcDbLine
 10
3418.597541183093
 20
-534.1186249512132
 30
0.0000000001127424
 11
3417.900873289093
 21
-536.7186249512132
 31
0.0000000001127424
  0
LINE
  5
1BA76
330
18
100
AcDbEntity
  8
0
  6
BYBLOCK
100
AcDbLine
 10
3417.900873289093
 20
-536.7186249512132
 30
0.0000000001127424
 11
3417.204205395094
 21
-534.1186249512132
 31
0.0000000001127424
  0
LINE
  5
1BA77
330
18
100
AcDbEntity
  8
0
  6
BYBLOCK
100
AcDbLine
 10
3417.900873289093
 20
-536.7186249512132
 30
0.0000000001127424
 11
3417.900873289093
 21
-534.1186249512132
 31
0.0000000001127424
  0
LINE
  5
1BA78
330
18
100
AcDbEntity
  8
0
  6
BYBLOCK
100
AcDbLine
 10
3417.204205395094
 20
-500.1984509337171
 30
0.0000000001127424
 11
3417.900873289093
 21
-497.5984509337171
 31
0.0000000001127424
  0
LINE
  5
1BA79
330
18
100
AcDbEntity
  8
0
  6
BYBLOCK
100
AcDbLine
 10
3417.900873289093
 20
-497.5984509337171
 30
0.0000000001127424
 11
3418.597541183093
 21
-500.1984509337171
 31
0.0000000001127424
  0
LINE
  5
1BA7A
330
18
100
AcDbEntity
  8
0
  6
BYBLOCK
100
AcDbLine
 10
3417.900873289093
 20
-497.5984509337171
 30
0.0000000001127424
 11
3417.900873289093
 21
-500.1984509337171
 31
0.0000000001127424
  0
TEXT
  5
1BA7B
330
18
100
AcDbEntity
  8
1DIM
  6
CONTINUOUS
100
AcDbText
 10
3416.990873289094
 20
-520.9512578498725
 30
0.0000000001127424
 40
4.55
  1
39
 50
90.0
100
AcDbText
1001
ACAD
1000
DSTYLE
1002
{
1070
    40
1040
1.3
1070
    45
1040
0.5
1002
}
  0
LINE
  5
1BA7C
330
18
100
AcDbEntity
  8
0
  6
BYBLOCK
100
AcDbLine
 10
3428.597541183093
 20
-562.3782769162224
 30
0.0000000001127424
 11
3427.900873289093
 21
-564.9782769162224
 31
0.0000000001127424
  0
LINE
  5
1BA7D
330
18
100
AcDbEntity
  8
0
  6
BYBLOCK
100
AcDbLine
 10
3427.900873289093
 20
-564.9782769162224
 30
0.0000000001127424
 11
3427.204205395094
 21
-562.3782769162224
 31
0.0000000001127424
  0
LINE
  5
1BA7E
330
18
100
AcDbEntity
  8
0
  6
BYBLOCK
100
AcDbLine
 10
3427.900873289093
 20
-564.9782769162224
 30
0.0000000001127424
 11
3427.900873289093
 21
-562.3782769162224
 31
0.0000000001127424
  0
LINE
  5
1BA7F
330
18
100
AcDbEntity
  8
0
  6
BYBLOCK
100
AcDbLine
 10
3427.204205395094
 20
-500.1984509337171
 30
0.0000000001127424
 11
3427.900873289093
 21
-497.5984509337171
 31
0.0000000001127424
  0
LINE
  5
1BA80
330
18
100
AcDbEntity
  8
0
  6
BYBLOCK
100
AcDbLine
 10
3427.900873289093
 20
-497.5984509337171
 30
0.0000000001127424
 11
3428.597541183093
 21
-500.1984509337171
 31
0.0000000001127424
  0
LINE
  5
1BA81
330
18
100
AcDbEntity
  8
0
  6
BYBLOCK
100
AcDbLine
 10
3427.900873289093
 20
-497.5984509337171
 30
0.0000000001127424
 11
3427.900873289093
 21
-500.1984509337171
 31
0.0000000001127424
  0
TEXT
  5
1BA82
330
18
100
AcDbEntity
  8
1DIM
  6
CONTINUOUS
100
AcDbText
 10
3426.990873289094
 20
-538.1291625360809
 30
0.0000000001127424
 40
4.55
  1
67.5
 50
90.0
100
AcDbText
1001
ACAD
1000
DSTYLE
1002
{
1070
    40
1040
1.3
1070
    45
1040
0.5
1002
}
  0
LINE
  5
1BA83
330
18
100
AcDbEntity
  8
0
  6
BYBLOCK
100
AcDbLine
 10
3286.500873289093
 20
-574.2364224079262
 30
0.0000000001141035
 11
3283.900873289093
 21
-573.5397545139261
 31
0.0000000001141035
  0
LINE
  5
1BA84
330
18
100
AcDbEntity
  8
0
  6
BYBLOCK
100
AcDbLine
 10
3283.900873289093
 20
-573.5397545139261
 30
0.0000000001141035
 11
3286.500873289093
 21
-572.8430866199261
 31
0.0000000001141035
  0
LINE
  5
1BA85
330
18
100
AcDbEntity
  8
0
  6
BYBLOCK
100
AcDbLine
 10
3283.900873289093
 20
-573.5397545139261
 30
0.0000000001141035
 11
3286.500873289093
 21
-573.5397545139261
 31
0.0000000001141035
  0
LINE
  5
1BA86
330
18
100
AcDbEntity
  8
0
  6
BYBLOCK
100
AcDbLine
 10
3368.300873289093
 20
-572.8430866199261
 30
0.0000000001141035
 11
3370.900873289093
 21
-573.5397545139261
 31
0.0000000001141035
  0
LINE
  5
1BA87
330
18
100
AcDbEntity
  8
0
  6
BYBLOCK
100
AcDbLine
 10
3370.900873289093
 20
-573.5397545139261
 30
0.0000000001141035
 11
3368.300873289093
 21
-574.2364224079262
 31
0.0000000001141035
  0
LINE
  5
1BA88
330
18
100
AcDbEntity
  8
0
  6
BYBLOCK
100
AcDbLine
 10
3370.900873289093
 20
-573.5397545139261
 30
0.0000000001141035
 11
3368.300873289093
 21
-573.5397545139261
 31
0.0000000001141035
  0
TEXT
  5
1BA89
330
18
100
AcDbEntity
  8
1DIM
  6
CONTINUOUS
100
AcDbText
 10
3323.609206622427
 20
-572.6297545139262
 30
0.0000000001141035
 40
4.55
  1
87
100
AcDbText
1001
ACAD
1000
DSTYLE
1002
{
1070
    40
1040
1.3
1070
    45
1040
0.5
1002
}
  0
LINE
  5
1BA8A
330
18
100
AcDbEntity
  8
0
  6
BYBLOCK
100
AcDbLine
 10
3293.932503238257
 20
-535.0157420391957
 30
0.0
 11
3291.779001733269
 21
-536.6306034643796
 31
0.0
  0
LINE
  5
1BA8B
330
18
100
AcDbEntity
  8
0
  6
BYBLOCK
100
AcDbLine
 10
3291.779001733269
 20
-536.6306034643796
 30
0.0
 11
3292.836558042313
 21
-534.1553416988827
 31
0.0
  0
LINE
  5
1BA8C
330
18
100
AcDbEntity
  8
0
  6
BYBLOCK
100
AcDbLine
 10
3291.779001733269
 20
-536.6306034643796
 30
0.0
 11
3293.384530640285
 21
-534.5855418690393
 31
0.0
  0
VIEWPORT
  5
57
330
15
100
AcDbEntity
 67
     1
  8
0
100
AcDbViewport
 68
     1
 10
0.0
 20
0.0
 30
0.0
 40
551.8723404255319
 41
297.0
 68
     1
 69
     1
1001
ACAD
1000
MVIEW
1002
{
1070
    16
1010
0.0
1020
0.0
1030
0.0
1010
0.0
1020
0.0
1030
1.0
1040
0.0
1040
297.0
1040
5.728000000000009
1040
25.33900000000001
1040
50.0
1040
0.0
1040
0.0
1070
    16
1070
   100
1070
     0
1070
     1
1070
     0
1070
     0
1070
     0
1070
     0
1040
0.0
1040
0.0
1040
0.0
1040
10.0
1040
10.0
1040
10.0
1040
10.0
1070
     0
1002
{
1002
}
1002
}
  0
ENDSEC
  0
SECTION
  2
OBJECTS
  0
DICTIONARY
  5
C
330
0
100
AcDbDictionary
  3
ACAD_CIP_PREVIOUS_PRODUCT_INFO
350
1A7DA
  3
ACAD_COLOR
350
18D
  3
ACAD_GROUP
350
D
  3
ACAD_LAYOUT
350
18E
  3
ACAD_MATERIAL
350
18C
  3
ACAD_MLEADERSTYLE
350
D9E7
  3
ACAD_MLINESTYLE
350
1B
  3
ACAD_PLOTSETTINGS
350
18F
  3
ACAD_SCALELIST
350
D9C5
  3
ACAD_VISUALSTYLE
350
D9B4
  3
ACDBHEADERROUNDTRIPXREC
350
1BA8D
  3
ACDBVARIABLEDICTIONARY
350
37
  3
AEC_PROPERTY_SET_DEFS
350
1AADC
  3
CONTENTDICTIONARY
350
D8
  3
DRAWINGVARIABLESDICT
350
20
  3
DWGPROPS
350
1BA90
1001
ACAD
1000
TREAT_AS_HARD
1070
     0
  0
DICTIONARY
  5
E6A6
330
2
100
AcDbDictionary
  3
ACAD_LAYERSTATES
360
E6A7
1001
ACAD
1000
TREAT_AS_HARD
1070
     1
  0
DICTIONARY
  5
DA05
330
E
100
AcDbDictionary
  3
ADSK_XREC_LAYER_RECONCILED
360
DA06
1001
ACAD
1000
TREAT_AS_HARD
1070
     1
  0
DICTIONARY
  5
DA07
330
29
100
AcDbDictionary
  3
ADSK_XREC_LAYER_RECONCILED
360
DA08
1001
ACAD
1000
TREAT_AS_HARD
1070
     1
  0
DICTIONARY
  5
DA09
330
31
100
AcDbDictionary
  3
ADSK_XREC_LAYER_RECONCILED
360
DA0A
1001
ACAD
1000
TREAT_AS_HARD
1070
     1
  0
DICTIONARY
  5
DA0F
330
243
100
AcDbDictionary
  3
ADSK_XREC_LAYER_RECONCILED
360
DA10
1001
ACAD
1000
TREAT_AS_HARD
1070
     1
  0
DICTIONARY
  5
DA15
330
24E
100
AcDbDictionary
  3
ADSK_XREC_LAYER_RECONCILED
360
DA16
1001
ACAD
1000
TREAT_AS_HARD
1070
     1
  0
DICTIONARY
  5
DA23
330
2C05
100
AcDbDictionary
  3
ADSK_XREC_LAYER_RECONCILED
360
DA24
1001
ACAD
1000
TREAT_AS_HARD
1070
     1
  0
DICTIONARY
  5
88F
330
18
100
AcDbDictionary
  3
ACAD_SORTENTS
360
890
1001
ACAD
1000
TREAT_AS_HARD
1070
     1
  0
XRECORD
  5
1A7DA
102
{ACAD_REACTORS
330
C
102
}
330
C
100
AcDbXrecord
300
ACDLT
300
2012
300
ACDLT_F_S
  0
DICTIONARY
  5
18D
102
{ACAD_REACTORS
330
C
102
}
330
C
100
AcDbDictionary
1001
ACAD
1000
TREAT_AS_HARD
1070
     0
  0
DICTIONARY
  5
D
102
{ACAD_REACTORS
330
C
102
}
330
C
100
AcDbDictionary
1001
ACAD
1000
TREAT_AS_HARD
1070
     0
  0
DICTIONARY
  5
18E
102
{ACAD_REACTORS
330
C
102
}
330
C
100
AcDbDictionary
1001
ACAD
1000
TREAT_AS_HARD
1070
     0
  0
DICTIONARY
  5
18C
102
{ACAD_REACTORS
330
C
102
}
330
C
100
AcDbDictionary
  3
BYBLOCK
350
D9A4
  3
BYLAYER
350
D99C
  3
GLOBAL
350
D9AC
1001
ACAD
1000
TREAT_AS_HARD
1070
     0
  0
DICTIONARY
  5
D9E7
102
{ACAD_REACTORS
330
C
102
}
330
C
100
AcDbDictionary
  3
STANDARD
350
D9E8
1001
ACAD
1000
TREAT_AS_HARD
1070
     0
  0
DICTIONARY
  5
1B
102
{ACAD_REACTORS
330
C
102
}
330
C
100
AcDbDictionary
  3
STANDARD
350
1C
1001
ACAD
1000
TREAT_AS_HARD
1070
     0
  0
DICTIONARY
  5
18F
102
{ACAD_REACTORS
330
C
102
}
330
C
100
AcDbDictionary
1001
ACAD
1000
TREAT_AS_HARD
1070
     0
  0
DICTIONARY
  5
D9C5
102
{ACAD_REACTORS
330
C
102
}
330
C
100
AcDbDictionary
  3
A0
350
D9C6
  3
A1
350
D9C7
  3
A2
350
D9C8
  3
A3
350
D9C9
  3
A4
350
D9CA
  3
A5
350
D9CB
  3
A6
350
D9CC
  3
A7
350
D9CD
  3
A8
350
D9CE
  3
A9
350
D9CF
  3
B0
350
D9D0
  3
B1
350
D9D1
  3
B2
350
D9D2
  3
B3
350
D9D3
  3
B4
350
D9D4
  3
B5
350
D9D5
  3
B6
350
D9D6
  3
B7
350
D9D7
  3
B8
350
D9D8
  3
B9
350
D9D9
  3
C0
350
D9DA
  3
C1
350
D9DB
  3
C2
350
D9DC
  3
C3
350
D9DD
  3
C4
350
D9DE
  3
C5
350
D9DF
  3
C6
350
D9E0
  3
C7
350
D9E1
  3
C8
350
D9E2
  3
C9
350
D9E3
  3
D0
350
D9E4
  3
D1
350
D9E5
  3
D2
350
D9E6
1001
ACAD
1000
TREAT_AS_HARD
1070
     0
  0
DICTIONARY
  5
D9B4
102
{ACAD_REACTORS
330
C
102
}
330
C
100
AcDbDictionary
  3
2DWIREFRAME
350
D9BA
  3
3D_HIDDEN
350
D9BC
  3
3DWIREFRAME
350
D9BB
  3
BASIC
350
D9B9
  3
BRIGHTEN
350
D9C0
  3
COLORCHANGE
350
D9C4
  3
CONCEPTUAL
350
D9BD
  3
DIM
350
D9BF
  3
EDGECOLOROFF
350
19C2F
  3
FACEPATTERN
350
D9C3
  3
FLAT
350
D9B5
  3
FLATWITHEDGES
350
D9B6
  3
GOURAUD
350
D9B7
  3
GOURAUDWITHEDGES
350
D9B8
  3
HIDDEN
350
19C7E
  3
JITTEROFF
350
19C2D
  3
LINEPATTERN
350
D9C2
  3
MODELING
350
1AFCC
  3
OVERHANGOFF
350
19C2E
  3
REALISTIC
350
D9BE
  3
SHADED
350
19C83
  3
SHADED_WITH_EDGES
350
19C82
  3
SHADES_OF_GRAY
350
19C7F
  3
SKETCHY
350
19C80
  3
THICKEN
350
D9C1
  3
WIREFRAME
350
19C7D
  3
X-RAY
350
19C81
1001
ACAD
1000
TREAT_AS_HARD
1070
     0
  0
DICTIONARY
  5
1BA8D
102
{ACAD_REACTORS
330
C
102
}
330
C
100
AcDbDictionary
  3
COLORDICT
350
1BA8E
  3
MATERIALDICT
350
1BA8F
1001
ACAD
1000
TREAT_AS_HARD
1070
     0
  0
DICTIONARY
  5
37
102
{ACAD_REACTORS
330
C
102
}
330
C
100
AcDbDictionary
  3
CANNOSCALE
350
1AFF4
  3
CMLEADERSTYLE
350
DA6A
  3
CTABLESTYLE
350
29E
  3
DIMADEC
350
38
  3
DIMASSOC
350
1CE
  3
HIDETEXT
350
704E
  3
INDEXCTL
350
DA6D
  3
INTERSECTIONCOLOR
350
7052
  3
INTERSECTIONDISPLAY
350
7051
  3
LAYEREVAL
350
1AFC9
  3
LAYERNOTIFY
350
1AFCA
  3
MSLTSCALE
350
1A516
  3
OBSCOLOR
350
704F
  3
OBSLTYPE
350
7050
  3
PROJECTNAME
350
1CF
  3
SORTENTS
350
DA6C
  3
XCLIPFRAME
350
1AFCB
1001
ACAD
1000
TREAT_AS_HARD
1070
     0
  0
DICTIONARY
  5
1AADC
102
{ACAD_REACTORS
330
C
102
}
330
C
100
AcDbDictionary
1001
ACAD
1000
TREAT_AS_HARD
1070
     0
  0
DICTIONARY
  5
D8
102
{ACAD_REACTORS
330
C
102
}
330
C
100
AcDbDictionary
1001
ACAD
1000
TREAT_AS_HARD
1070
     0
  0
DICTIONARY
  5
20
102
{ACAD_REACTORS
330
C
102
}
330
C
100
AcDbDictionary
1001
DRAWINGVARIABLESXDATA
1000
POLARANG
1000
0.261799387799149410000000
1000
POLARMODE
1000
1
1000
POLARSTYLE
1000
1
1001
ACAD
1000
TREAT_AS_HARD
1070
     0
  0
XRECORD
  5
1BA90
102
{ACAD_REACTORS
330
C
102
}
330
C
100
AcDbXrecord
  1
DWGPROPS COOKIE
  2

  3

  4

  6

  7

  8
3684
  9

300
=
301
=
302
=
303
=
304
=
305
=
306
=
307
=
308
=
309
=
 40
0.0
 41
2451318.246352917
 42
2459373.206258276
  1

 90
        0
  0
DICTIONARY
  5
E6A7
102
{ACAD_REACTORS
330
E6A6
102
}
330
E6A6
100
AcDbDictionary
1001
ACAD
1000
TREAT_AS_HARD
1070
     0
  0
ACAD_PROXY_OBJECT
  5
DA06
102
{ACAD_REACTORS
330
DA05
102
}
330
DA05
100
AcDbZombieObject
 90
      499
 91
      514
 93
       34
310
40C8804040
  0
ACAD_PROXY_OBJECT
  5
DA08
102
{ACAD_REACTORS
330
DA07
102
}
330
DA07
100
AcDbZombieObject
 90
      499
 91
      514
 93
       34
310
40C8804040
  0
ACAD_PROXY_OBJECT
  5
DA0A
102
{ACAD_REACTORS
330
DA09
102
}
330
DA09
100
AcDbZombieObject
 90
      499
 91
      514
 93
       34
310
40C8804040
  0
ACAD_PROXY_OBJECT
  5
DA10
102
{ACAD_REACTORS
330
DA0F
102
}
330
DA0F
100
AcDbZombieObject
 90
      499
 91
      514
 93
       34
310
40C8804040
  0
ACAD_PROXY_OBJECT
  5
DA16
102
{ACAD_REACTORS
330
DA15
102
}
330
DA15
100
AcDbZombieObject
 90
      499
 91
      514
 93
       34
310
40C8804040
  0
ACAD_PROXY_OBJECT
  5
DA24
102
{ACAD_REACTORS
330
DA23
102
}
330
DA23
100
AcDbZombieObject
 90
      499
 91
      514
 93
       34
310
40C8804040
  0
SORTENTSTABLE
  5
890
102
{ACAD_REACTORS
330
88F
102
}
330
88F
100
AcDbSortentsTable
330
18
331
1AADF
  5
1AAED
331
1AAE0
  5
1AAEE
331
1AAE1
  5
1AAF0
331
1AAE2
  5
1AAF1
331
1AAE3
  5
1AAF2
331
1AAE4
  5
1AAF3
331
1AAE5
  5
1AAF4
331
1AAE6
  5
1AAF5
331
1AAE7
  5
1AAF6
331
1AAE8
  5
1AAFA
331
1AAE9
  5
1AAFB
331
1AAEA
  5
1AAFC
331
1AAEB
  5
1AAFD
331
1AAED
  5
1AB0D
331
1AAEE
  5
1AB0E
331
0
  5
1AB19
331
1AAF1
  5
1AB2D
331
1AAF2
  5
1AB2E
331
1AAF3
  5
1AB2F
331
1AAF4
  5
1AB30
331
1AAF5
  5
1AB31
331
1AAF6
  5
1AB32
331
1AAF7
  5
1AB33
331
1AAF8
  5
1AB34
331
1AAF9
  5
1AB35
331
1AAFA
  5
1AB36
331
1AAFB
  5
1AB37
331
1AAFC
  5
1AB38
331
1AAFD
  5
1AB39
331
1AAFE
  5
1AB3A
331
1AAFF
  5
1AB3B
331
1AB00
  5
1AB3C
331
1AB01
  5
1AB3E
331
1AB02
  5
1AB3F
331
1AB03
  5
1AB40
331
1AB04
  5
1AB41
331
1AB06
  5
1AB58
331
1AB07
  5
1AB5A
331
1AB08
  5
1AB5B
331
1AB0A
  5
1AB69
331
0
  5
1AB59
331
1AB0C
  5
1AB77
331
1AB0D
  5
1AB78
331
1AB0E
  5
1AB79
331
1AB0F
  5
1AB7A
331
1AB10
  5
1AB7B
331
1AB11
  5
1AB7F
331
1AB12
  5
1AB80
331
1AB13
  5
1AB81
331
1AB14
  5
1AB82
331
1AB15
  5
1AB83
331
1AB16
  5
1AB84
331
1AB17
  5
1AB88
331
1AB18
  5
1AB89
331
1AB19
  5
1AB8A
331
1AB1A
  5
1AB8E
331
1AB1B
  5
1AB8F
331
1AB1C
  5
1AB90
331
1AB1D
  5
1AB94
331
1AB1E
  5
1AB95
331
1AB1F
  5
1AB96
331
1AB20
  5
1AB97
331
1AB21
  5
1AB98
331
1AB22
  5
1AB99
331
1AB23
  5
1AB9A
331
1AB24
  5
1AB9B
331
1AB25
  5
1AB9C
331
1AB26
  5
1AB9D
331
1AB27
  5
1AB9E
331
1AB28
  5
1AB9F
331
1AB29
  5
1ABA0
331
1AB2A
  5
1ABA1
331
1AB2B
  5
1ABA2
331
1AB2C
  5
1ABA3
331
1AB2D
  5
1ABA4
331
1AB2E
  5
1ABA5
331
1AB2F
  5
1ABA6
331
1AB30
  5
1ABA7
331
1AB31
  5
1ABA8
331
1AB32
  5
1ABA9
331
1AB33
  5
1ABAA
331
1AB34
  5
1ABAB
331
1AB35
  5
1ABAC
331
1AB36
  5
1ABAD
331
1AB37
  5
1ABAF
331
1AB38
  5
1ABB0
331
1AB39
  5
1ABB1
331
1AB3A
  5
1ABB2
331
1AB3B
  5
1ABB3
331
1AB3C
  5
1ABB4
331
1AB3E
  5
1ABC0
331
1AB3F
  5
1ABC2
331
1AB40
  5
1ABC3
331
1AB41
  5
1ABC4
331
1AB42
  5
1ABC5
331
1AB43
  5
1ABC6
331
1AB44
  5
1ABC7
331
1AB45
  5
1ABC8
331
0
  5
1ABAE
331
1AB50
  5
1ABDA
331
1AB51
  5
1ABDB
331
1AB52
  5
1ABDC
331
1AB56
  5
1ABFB
331
1AB57
  5
1ABFC
331
1AB58
  5
1ABFD
331
1AB59
  5
1ABFE
331
1AB5A
  5
1ABFF
331
1AB5B
  5
1AC00
331
1AB5C
  5
1AC03
331
1AB5D
  5
1AC04
331
1AB5E
  5
1AC05
331
1AB5F
  5
1AC09
331
1AB60
  5
1AC0A
331
1AB61
  5
1AC20
331
1AB62
  5
1AC21
331
1AB63
  5
1AC22
331
1AB64
  5
1AC23
331
1AB65
  5
1AC24
331
1AB66
  5
1AC27
331
1AB67
  5
1AC43
331
1AB68
  5
1AC44
331
1AB69
  5
1AC45
331
1AB6A
  5
1AC46
331
1AB6B
  5
1AC47
331
1AB6C
  5
1AC48
331
1AB6D
  5
1AC4A
331
1AB6E
  5
1AC4B
331
1AB6F
  5
1AC4C
331
1AB70
  5
1AC4D
331
1AB71
  5
1AC4E
331
1AB72
  5
1AC4F
331
1AB73
  5
1AC50
331
1AB74
  5
1AC51
331
1AB75
  5
1AC52
331
1AB76
  5
1AC53
331
1AB77
  5
1AC54
331
1AB78
  5
1AC55
331
1AB79
  5
1AC56
331
1AB7A
  5
1AC57
331
1AB7B
  5
1AC58
331
1AB7C
  5
1AC59
331
1AB7D
  5
1AC5B
331
1AB7E
  5
1AC5C
331
1AB7F
  5
1AC5D
331
1AB80
  5
1AC5E
331
1AB81
  5
1AC5F
331
1AB82
  5
1AC60
331
1AB83
  5
1AC61
331
1AB84
  5
1AC63
331
1AB85
  5
1AC64
331
1AB86
  5
1AC65
331
1AB87
  5
1AC66
331
1AB88
  5
1AC67
331
1AB89
  5
1AC68
331
1AB8A
  5
1AC6E
331
1AB8B
  5
1AC6F
331
1AB8C
  5
1AC70
331
1AB8D
  5
1AC71
331
1AB8E
  5
1AC75
331
1AB8F
  5
1AC76
331
1AB90
  5
1AC77
331
1AB91
  5
1AC78
331
1AB92
  5
1AC79
331
1AB93
  5
1AC7A
331
1AB94
  5
1AC7B
331
1AB95
  5
1AC7C
331
1AB96
  5
1AC7D
331
1AB97
  5
1AC7E
331
1AB98
  5
1AC82
331
1AB99
  5
1AC83
331
1AB9A
  5
1AC84
331
1AB9B
  5
1AC85
331
0
  5
1AC5A
331
1AB9D
  5
1AC99
331
1AB9E
  5
1AC9A
331
1AB9F
  5
1AC9B
331
1ABA0
  5
1AC9C
331
1ABA1
  5
1AC9D
331
1ABA2
  5
1AC9E
331
1ABA3
  5
1AC9F
331
1ABA4
  5
1ACA0
331
1ABA5
  5
1ACA1
331
1ABA6
  5
1ACA2
331
1ABA7
  5
1ACA3
331
1ABA8
  5
1ACA4
331
1ABA9
  5
1ACA5
331
1ABAA
  5
1ACA6
331
1ABAB
  5
1ACA7
331
1ABAC
  5
1ACAB
331
1ABAD
  5
1ACAC
331
1ABAE
  5
1ACAD
331
1ABAF
  5
1ACAE
331
1ABB0
  5
1ACAF
331
1ABB1
  5
1ACB0
331
1ABB2
  5
1ACB1
331
1ABB3
  5
1ACB5
331
1ABB4
  5
1ACB6
331
1ABB5
  5
1ACB7
331
1ABB6
  5
1ACB8
331
1ABB7
  5
1ACB9
331
1ABB8
  5
1ACBA
331
1ABB9
  5
1ACBB
331
1ABBA
  5
1ACBC
331
1ABBB
  5
1ACBD
331
1ABBC
  5
1ACC1
331
1ABBD
  5
1B308
331
1ABBE
  5
1B359
331
1ABBF
  5
1B35A
331
1ABC0
  5
1B35B
331
1ABC2
  5
1B366
331
1ABC3
  5
1B367
331
1ABC4
  5
1B368
331
1ABC5
  5
1B369
331
1ABC6
  5
1B36A
331
1ABC7
  5
1B3C2
331
1ABC8
  5
1B3C3
331
1ABC9
  5
1B3C4
331
1ABCA
  5
1B3C5
331
1ABCB
  5
1B3C6
331
1ABCC
  5
1B3C7
331
1ABCE
  5
1B3CE
331
1ABCF
  5
1B40E
331
1ABD0
  5
1B40F
331
1ABD1
  5
1B410
331
1ABD2
  5
1B411
331
1ABD3
  5
1B412
331
1ABD4
  5
1B413
331
1ABD5
  5
1B414
331
1ABD6
  5
1B415
331
1ABD7
  5
1B416
331
1ABD8
  5
1B417
331
1ABD9
  5
1B418
331
1ABDA
  5
1B419
331
1ABDB
  5
1B41A
331
1ABDC
  5
1B41B
331
1ABDD
  5
1B41C
331
1ABDE
  5
1B41D
331
1ABDF
  5
1B41E
331
1ABE0
  5
1B41F
331
1ABE1
  5
1B420
331
1ABE2
  5
1B421
331
1ABE3
  5
1B422
331
1ABE4
  5
1B423
331
1ABE5
  5
1B424
331
1ABE6
  5
1B425
331
1ABE7
  5
1B426
331
1ABE8
  5
1B427
331
1ABE9
  5
1B528
331
1ABEA
  5
1B529
331
1ABEB
  5
1B52F
331
1ABEC
  5
1B531
331
1ABED
  5
1B7B9
331
1ABEE
  5
1B94D
331
1ABEF
  5
1B94E
331
1ABF0
  5
1B94F
331
1ABF1
  5
1B950
331
1ABF2
  5
1B951
331
1ABF3
  5
1B952
331
1ABF4
  5
1B953
331
1ABF5
  5
1B954
331
1ABF6
  5
1B955
331
1ABF7
  5
1B956
331
1ABF8
  5
1B957
331
1ABF9
  5
1B958
331
1ABFA
  5
1B959
331
1ABFB
  5
1B95A
331
1ABFC
  5
1B95B
331
1ABFD
  5
1B95C
331
1ABFE
  5
1B95D
331
1ABFF
  5
1B95E
331
1AC00
  5
1B95F
331
1AC03
  5
1B974
331
1AC04
  5
1B975
331
1AC05
  5
1B976
331
1AC06
  5
1B977
331
1AC07
  5
1B978
331
1AC08
  5
1B979
331
1AC09
  5
1B97A
331
1AC0A
  5
1B97B
331
1AC20
  5
1B97C
331
1AC21
  5
1B97D
331
1AC22
  5
1B97E
331
1AC23
  5
1B97F
331
1AC24
  5
1B980
331
1AC27
  5
1B981
331
1AC43
  5
1B982
331
1AC44
  5
1B983
331
1AC45
  5
1B984
331
1AC46
  5
1B985
331
1AC47
  5
1B986
331
1AC48
  5
1B987
331
1AC4A
  5
1B992
331
1AC4B
  5
1B993
331
1AC4C
  5
1B994
331
1AC4D
  5
1B995
331
1AC4E
  5
1B996
331
1AC4F
  5
1B997
331
1AC50
  5
1B998
331
1AC51
  5
1B999
331
1AC52
  5
1B99A
331
1AC53
  5
1B99B
331
1AC54
  5
1B99C
331
1AC55
  5
1B99D
331
1AC56
  5
1B99E
331
1AC57
  5
1B99F
331
1AC58
  5
1B9A0
331
1AC59
  5
1B9A1
331
1AC5A
  5
1B9A2
331
1AC5B
  5
1B9A3
331
1AC5C
  5
1B9A4
331
1AC5D
  5
1B9A5
331
1AC5E
  5
1B9A6
331
1AC5F
  5
1B9A7
331
1AC60
  5
1B9A8
331
1AC61
  5
1B9A9
331
1AC63
  5
1B9AB
331
1AC64
  5
1B9AC
331
1AC65
  5
1B9AD
331
1AC66
  5
1B9AE
331
1AC67
  5
1B9AF
331
1AC68
  5
1B9B0
331
1AC6E
  5
1B9B1
331
1AC6F
  5
1B9B2
331
1AC70
  5
1B9B3
331
1AC71
  5
1B9B4
331
1AC72
  5
1B9B5
331
1AC73
  5
1B9B6
331
1AC74
  5
1B9B7
331
1AC75
  5
1B9B8
331
1AC76
  5
1B9B9
331
1AC77
  5
1B9BA
331
1AC78
  5
1B9BB
331
1AC79
  5
1B9BC
331
1AC7A
  5
1B9BD
331
1AC7B
  5
1B9BE
331
1AC7C
  5
1B9BF
331
1AC7D
  5
1B9C0
331
1AC7E
  5
1B9C1
331
1AC82
  5
1B9C2
331
1AC83
  5
1B9C3
331
1AC84
  5
1B9C4
331
1AC85
  5
1B9C5
331
1AC86
  5
1B9C6
331
1AC87
  5
1B9C7
331
1AC88
  5
1B9C8
331
1AC89
  5
1B9C9
331
1AC8A
  5
1B9CA
331
1AC8B
  5
1B9CB
331
1AC8C
  5
1B9CC
331
1AC8D
  5
1B9CE
331
1AC8E
  5
1B9CF
331
1AC8F
  5
1B9D0
331
1AC90
  5
1B9D1
331
1AC91
  5
1B9D2
331
1AC92
  5
1B9D3
331
1AC93
  5
1B9D4
331
1AC94
  5
1B9D5
331
1AC98
  5
1B9D6
331
1AC99
  5
1B9D7
331
1AC9A
  5
1B9D8
331
1AC9B
  5
1B9D9
331
1AC9C
  5
1B9DA
331
1AC9D
  5
1B9DB
331
1AC9E
  5
1B9DC
331
1AC9F
  5
1B9DD
331
1ACA0
  5
1B9DE
331
1ACA1
  5
1B9DF
331
1ACA2
  5
1B9E4
331
1ACA3
  5
1B9E5
331
1ACA4
  5
1B9E6
331
1ACA5
  5
1B9E7
331
1ACA6
  5
1B9E8
331
1ACA7
  5
1B9ED
331
1ACAB
  5
1B9EE
331
1ACAC
  5
1B9EF
331
1ACAD
  5
1B9F0
331
1ACAE
  5
1B9F1
331
1ACAF
  5
1B9F2
331
1ACB0
  5
1B9F3
331
1ACB1
  5
1B9F4
331
1ACB2
  5
1B9F5
331
1ACB3
  5
1B9F6
331
1ACB4
  5
1B9F7
331
1ACB5
  5
1B9F8
331
1ACB6
  5
1B9F9
331
1ACB7
  5
1B9FA
331
1ACB8
  5
1B9FB
331
1ACB9
  5
1B9FC
331
1ACBA
  5
1B9FD
331
1ACBB
  5
1B9FE
331
1ACBC
  5
1B9FF
331
1ACBD
  5
1BA00
331
1ACC1
  5
1BA01
331
0
  5
1B9CD
331
1B359
  5
1BA19
331
1B35A
  5
1BA1A
331
1B35B
  5
1BA1B
331
1B35C
  5
1BA1C
331
1B35D
  5
1BA1D
331
1B35E
  5
1BA1E
331
1B35F
  5
1BA1F
331
1B360
  5
1BA20
331
1B361
  5
1BA21
331
1B362
  5
1BA22
331
1B363
  5
1BA26
331
1B364
  5
1BA27
331
1B365
  5
1BA28
331
1B366
  5
1BA29
331
1B367
  5
1BA2A
331
1B368
  5
1BA2B
331
1B369
  5
1BA2C
331
1B36A
  5
1BA2D
331
0
  5
1B9E0
331
0
  5
1B9E1
331
0
  5
1B9E2
331
0
  5
1B9E3
331
1B3C6
  5
1BA57
331
1B3C7
  5
1BA58
331
1B3C8
  5
1BA59
331
1B3C9
  5
1BA5A
331
1B3CA
  5
1BA5B
331
1B3CB
  5
1BA5C
331
1B3CC
  5
1BA5D
331
1B3CD
  5
1BA5E
331
0
  5
1B9EC
331
1B40E
  5
1BA69
331
1B40F
  5
1BA6A
331
1B410
  5
1BA6B
331
1B411
  5
1BA6C
331
1B412
  5
1BA6D
331
1B413
  5
1BA6E
331
1B414
  5
1BA6F
331
1B415
  5
1BA70
331
1B416
  5
1BA71
331
1B417
  5
1BA72
331
1B418
  5
1BA73
331
1B419
  5
1BA74
331
1B41A
  5
1BA75
331
1B41B
  5
1BA76
331
1B41C
  5
1BA77
331
1B41D
  5
1BA78
331
1B41E
  5
1BA79
331
1B41F
  5
1BA7A
331
1B420
  5
1BA7B
331
1B421
  5
1BA7C
331
1B422
  5
1BA7D
331
1B423
  5
1BA7E
331
1B424
  5
1BA7F
331
1B425
  5
1BA80
331
1B426
  5
1BA81
331
1B427
  5
1BA82
331
1B528
  5
1BA83
331
1B529
  5
1BA84
331
1B52F
  5
1BA85
331
1B531
  5
1BA86
331
0
  5
1BA0D
331
1B94D
  5
1AADF
331
1B94E
  5
1AAE0
331
1B94F
  5
1AAE1
331
0
  5
1AAE2
331
0
  5
1AAE3
331
0
  5
1AAE4
331
1B953
  5
1AAFE
331
1B954
  5
1AB02
331
1B955
  5
1AB03
331
0
  5
1AAF7
331
0
  5
1AAF8
331
0
  5
1AAF9
331
1B959
  5
1AB0F
331
1B95A
  5
1AB10
331
1B95B
  5
1AB11
331
0
  5
1AAFF
331
0
  5
1AB00
331
0
  5
1AB01
331
1B95F
  5
1AB42
331
1B960
  5
1AB43
331
1B961
  5
1AB44
331
0
  5
1AB1C
331
0
  5
1AB1D
331
0
  5
1AB1E
331
1B965
  5
1AB5C
331
1B966
  5
1AB5D
331
1B967
  5
1AB5E
331
0
  5
1AB25
331
0
  5
1AB26
331
0
  5
1AB27
331
1B96B
  5
1ABB5
331
1B96C
  5
1ABB6
331
1B96D
  5
1ABB7
331
0
  5
1AB6B
331
0
  5
1AB6C
331
0
  5
1AB6D
331
1B971
  5
1ABC9
331
1B972
  5
1ABCA
331
1B973
  5
1ABD0
331
1B974
  5
1ABD1
331
1B975
  5
1ABD2
331
0
  5
1AB7C
331
0
  5
1AB7D
331
0
  5
1AB7E
331
1B979
  5
1ABDD
331
1B97A
  5
1ABDE
331
1B97B
  5
1ABDF
331
0
  5
1AB85
331
0
  5
1AB86
331
0
  5
1AB87
331
1B97F
  5
1ABE7
331
1B980
  5
1ABE8
331
1B981
  5
1ABE9
331
0
  5
1AB8B
331
0
  5
1AB8C
331
0
  5
1AB8D
331
1B985
  5
1ABF1
331
1B986
  5
1ABF2
331
1B987
  5
1ABF3
331
0
  5
1AB91
331
0
  5
1AB92
331
0
  5
1AB93
331
1B98B
  5
1B35C
331
1B98C
  5
1B35D
331
1B98D
  5
1B35E
331
0
  5
1AC06
331
0
  5
1AC07
331
0
  5
1AC08
331
1B991
  5
1B3C8
331
1B992
  5
1B3C9
331
1B993
  5
1B3CA
331
1B994
  5
1B3CB
331
1B995
  5
1B3CC
331
1B996
  5
1B3CD
331
1B997
  5
1B960
331
1B998
  5
1B961
331
1B999
  5
1B962
331
0
  5
1AC8C
331
0
  5
1AC8D
331
0
  5
1AC8E
331
1B99D
  5
1B96A
331
1B99E
  5
1B96B
331
1B99F
  5
1B96C
331
0
  5
1AC92
331
0
  5
1AC93
331
0
  5
1AC94
331
1B9A3
  5
1B988
331
1B9A4
  5
1B989
331
1B9A5
  5
1B98A
331
0
  5
1ACB2
331
0
  5
1ACB3
331
0
  5
1ACB4
331
1B9A9
  5
1B9AA
331
1B9AA
  5
1BA87
331
1B9AB
  5
1BA88
331
1B9AC
  5
1AAE5
331
1B9AD
  5
1AAE6
331
1B9AE
  5
1AAE7
331
1B9AF
  5
1AAE8
331
1B9B0
  5
1AAE9
331
1B9B1
  5
1AAEA
331
1B9B2
  5
1AAEB
331
1B9B3
  5
1AB04
331
1B9B4
  5
1AB06
331
1B9B5
  5
1AB07
331
1B9B6
  5
1AB08
331
1B9B7
  5
1AB0A
331
1B9B8
  5
1AB0B
331
1B9B9
  5
1AB0C
331
1B9BA
  5
1AB12
331
1B9BB
  5
1AB13
331
1B9BC
  5
1AB14
331
1B9BD
  5
1AB15
331
1B9BE
  5
1AB16
331
1B9BF
  5
1AB17
331
1B9C0
  5
1AB18
331
1B9C1
  5
1AB45
331
1B9C2
  5
1AB47
331
1B9C3
  5
1AB50
331
1B9C4
  5
1AB51
331
1B9C5
  5
1AB52
331
1B9C6
  5
1AB56
331
1B9C7
  5
1AB57
331
1B9C8
  5
1AB5F
331
1B9C9
  5
1AB60
331
1B9CA
  5
1AB61
331
1B9CB
  5
1AB62
331
1B9CC
  5
1AB66
331
1B9CD
  5
1AB67
331
1B9CE
  5
1AB68
331
1B9CF
  5
1ABB8
331
1B9D0
  5
1ABB9
331
1B9D1
  5
1ABBA
331
1B9D2
  5
1ABBC
331
1B9D3
  5
1ABBD
331
1B9D4
  5
1ABBE
331
1B9D5
  5
1ABBF
331
1B9D6
  5
1ABD3
331
1B9D7
  5
1ABD4
331
1B9D8
  5
1ABD5
331
1B9D9
  5
1ABD6
331
1B9DA
  5
1ABD7
331
1B9DB
  5
1ABD8
331
1B9DC
  5
1ABD9
331
1B9DD
  5
1ABE0
331
1B9DE
  5
1ABE1
331
1B9DF
  5
1ABE2
331
1B9E0
  5
1ABE3
331
1B9E1
  5
1ABE4
331
1B9E2
  5
1ABE5
331
1B9E3
  5
1ABE6
331
1B9E4
  5
1ABEA
331
1B9E5
  5
1ABEB
331
1B9E6
  5
1ABEC
331
1B9E7
  5
1ABED
331
1B9E8
  5
1ABEE
331
1B9E9
  5
1ABEF
331
1B9EA
  5
1ABF0
331
1B9EB
  5
1ABF4
331
1B9EC
  5
1ABF5
331
1B9ED
  5
1ABF6
331
1B9EE
  5
1ABF7
331
1B9EF
  5
1ABF8
331
1B9F0
  5
1ABF9
331
1B9F1
  5
1ABFA
331
1B9F2
  5
1B35F
331
1B9F3
  5
1B360
331
1B9F4
  5
1B361
331
1B9F5
  5
1B362
331
1B9F6
  5
1B363
331
1B9F7
  5
1B364
331
1B9F8
  5
1B365
331
1B9F9
  5
1B963
331
1B9FA
  5
1B964
331
1B9FB
  5
1B965
331
1B9FC
  5
1B966
331
1B9FD
  5
1B967
331
1B9FE
  5
1B968
331
1B9FF
  5
1B969
331
1BA00
  5
1B96D
331
1BA01
  5
1B96E
331
1BA02
  5
1B96F
331
1BA03
  5
1B970
331
1BA04
  5
1B971
331
1BA05
  5
1B972
331
1BA06
  5
1B973
331
1BA07
  5
1B98B
331
1BA08
  5
1B98C
331
1BA09
  5
1B98D
331
1BA0A
  5
1B98E
331
1BA0B
  5
1B98F
331
1BA0C
  5
1B990
331
1BA0D
  5
1B991
331
1BA0E
  5
1AB1A
331
1BA0F
  5
1AB1B
331
1BA10
  5
1AB1F
331
0
  5
1AB20
331
0
  5
1AB21
331
0
  5
1AB22
331
1BA14
  5
1AB6A
331
1BA15
  5
1AB6E
331
1BA16
  5
1AB6F
331
0
  5
1AB63
331
0
  5
1AB64
331
0
  5
1AB65
331
0
  5
1ABBB
331
1BA1B
  5
1ABCF
331
1BA1C
  5
1AC86
331
1BA1D
  5
1AC87
331
1BA1E
  5
1AC88
331
0
  5
1AC72
331
0
  5
1AC73
331
0
  5
1AC74
331
1BA22
  5
1BA05
331
1BA23
  5
1BA06
331
1BA24
  5
1BA07
331
0
  5
1B9E9
331
0
  5
1B9EA
331
0
  5
1B9EB
331
1BA28
  5
1BA2E
331
1BA29
  5
1BA2F
331
1BA2A
  5
1BA30
331
0
  5
1BA02
331
0
  5
1BA03
331
0
  5
1BA04
331
1BA2E
  5
1BA38
331
1BA2F
  5
1BA39
331
1BA30
  5
1BA3A
331
0
  5
1BA08
331
0
  5
1BA09
331
0
  5
1BA0A
331
1BA34
  5
1BA42
331
1BA35
  5
1BA43
331
1BA36
  5
1BA44
331
0
  5
1BA0F
331
0
  5
1BA10
331
0
  5
1BA11
331
1BA3A
  5
1BA4D
331
1BA3B
  5
1BA4E
331
1BA3C
  5
1BA4F
331
0
  5
1BA15
331
0
  5
1BA16
331
0
  5
1BA17
331
1BA40
  5
1BA5F
331
1BA41
  5
1BA60
331
1BA42
  5
1BA61
331
0
  5
1BA23
331
0
  5
1BA24
331
0
  5
1BA25
331
1BA47
  5
1BA8C
331
1BA48
  5
1AB23
331
1BA49
  5
1AB24
331
1BA4A
  5
1AB28
331
1BA4B
  5
1AB29
331
1BA4C
  5
1AB2A
331
1BA4D
  5
1AB2B
331
1BA4E
  5
1AB2C
331
1BA4F
  5
1AB70
331
1BA50
  5
1AB71
331
1BA51
  5
1AB72
331
1BA52
  5
1AB73
331
1BA53
  5
1AB74
331
1BA54
  5
1AB75
331
1BA55
  5
1AB76
331
1BA56
  5
1ABCB
331
1BA57
  5
1ABCC
331
1BA58
  5
1ABCE
331
1BA59
  5
1AC89
331
1BA5A
  5
1AC8A
331
1BA5B
  5
1AC8B
331
1BA5C
  5
1AC8F
331
1BA5D
  5
1AC90
331
1BA5E
  5
1AC91
331
1BA5F
  5
1AC98
331
1BA60
  5
1BA0B
331
1BA61
  5
1BA0C
331
1BA62
  5
1BA0E
331
1BA63
  5
1BA12
331
1BA64
  5
1BA13
331
1BA65
  5
1BA14
331
1BA66
  5
1BA18
331
1BA67
  5
1BA31
331
1BA68
  5
1BA32
331
1BA69
  5
1BA33
331
1BA6A
  5
1BA34
331
1BA6B
  5
1BA35
331
1BA6C
  5
1BA36
331
1BA6D
  5
1BA37
331
1BA6E
  5
1BA3B
331
1BA6F
  5
1BA3C
331
1BA70
  5
1BA3D
331
1BA71
  5
1BA3E
331
1BA72
  5
1BA3F
331
1BA73
  5
1BA40
331
1BA74
  5
1BA41
331
1BA75
  5
1BA45
331
1BA76
  5
1BA47
331
1BA77
  5
1BA48
331
1BA78
  5
1BA49
331
1BA79
  5
1BA4A
331
1BA7A
  5
1BA4B
331
1BA7B
  5
1BA4C
331
1BA7C
  5
1BA50
331
1BA7D
  5
1BA51
331
1BA7E
  5
1BA52
331
1BA7F
  5
1BA53
331
1BA80
  5
1BA54
331
1BA81
  5
1BA55
331
1BA82
  5
1BA56
331
1BA83
  5
1BA62
331
1BA84
  5
1BA63
331
1BA85
  5
1BA64
331
1BA86
  5
1BA65
331
1BA87
  5
1BA66
331
1BA88
  5
1BA67
331
1BA89
  5
1BA68
331
1BA8A
  5
1BA89
331
1BA8B
  5
1BA8A
331
1BA8C
  5
1BA8B
  0
MATERIAL
  5
D9A4
102
{ACAD_REACTORS
330
18C
102
}
102
{ACAD_XDICTIONARY
360
1BC2B
102
}
330
18C
100
AcDbMaterial
  1
BYBLOCK
 72
     0
 73
     2
 43
0.0208333333333333
 43
0.0
 43
0.0
 43
0.0
 43
0.0
 43
0.0208333333333333
 43
0.0
 43
0.0
 43
0.0
 43
0.0
 43
1.0
 43
0.0
 43
0.0
 43
0.0
 43
0.0
 43
1.0
 77
     0
 78
     2
 47
0.0208333333333333
 47
0.0
 47
0.0
 47
0.0
 47
0.0
 47
0.0208333333333333
 47
0.0
 47
0.0
 47
0.0
 47
0.0
 47
1.0
 47
0.0
 47
0.0
 47
0.0
 47
0.0
 47
1.0
171
     0
172
     2
 49
0.0208333333333333
 49
0.0
 49
0.0
 49
0.0
 49
0.0
 49
0.0208333333333333
 49
0.0
 49
0.0
 49
0.0
 49
0.0
 49
1.0
 49
0.0
 49
0.0
 49
0.0
 49
0.0
 49
1.0
175
     0
176
     2
142
0.0208333333333333
142
0.0
142
0.0
142
0.0
142
0.0
142
0.0208333333333333
142
0.0
142
0.0
142
0.0
142
0.0
142
1.0
142
0.0
142
0.0
142
0.0
142
0.0
142
1.0
179
     0
270
     2
144
0.0208333333333333
144
0.0
144
0.0
144
0.0
144
0.0
144
0.0208333333333333
144
0.0
144
0.0
144
0.0
144
0.0
144
1.0
144
0.0
144
0.0
144
0.0
144
0.0
144
1.0
274
     2
147
0.0208333333333333
147
0.0
147
0.0
147
0.0
147
0.0
147
0.0208333333333333
147
0.0
147
0.0
147
0.0
147
0.0
147
1.0
147
0.0
147
0.0
147
0.0
147
0.0
147
1.0
  0
MATERIAL
  5
D99C
102
{ACAD_REACTORS
330
18C
102
}
102
{ACAD_XDICTIONARY
360
1BC2D
102
}
330
18C
100
AcDbMaterial
  1
BYLAYER
 72
     0
 73
     2
 43
0.0208333333333333
 43
0.0
 43
0.0
 43
0.0
 43
0.0
 43
0.0208333333333333
 43
0.0
 43
0.0
 43
0.0
 43
0.0
 43
1.0
 43
0.0
 43
0.0
 43
0.0
 43
0.0
 43
1.0
 77
     0
 78
     2
 47
0.0208333333333333
 47
0.0
 47
0.0
 47
0.0
 47
0.0
 47
0.0208333333333333
 47
0.0
 47
0.0
 47
0.0
 47
0.0
 47
1.0
 47
0.0
 47
0.0
 47
0.0
 47
0.0
 47
1.0
171
     0
172
     2
 49
0.0208333333333333
 49
0.0
 49
0.0
 49
0.0
 49
0.0
 49
0.0208333333333333
 49
0.0
 49
0.0
 49
0.0
 49
0.0
 49
1.0
 49
0.0
 49
0.0
 49
0.0
 49
0.0
 49
1.0
175
     0
176
     2
142
0.0208333333333333
142
0.0
142
0.0
142
0.0
142
0.0
142
0.0208333333333333
142
0.0
142
0.0
142
0.0
142
0.0
142
1.0
142
0.0
142
0.0
142
0.0
142
0.0
142
1.0
179
     0
270
     2
144
0.0208333333333333
144
0.0
144
0.0
144
0.0
144
0.0
144
0.0208333333333333
144
0.0
144
0.0
144
0.0
144
0.0
144
1.0
144
0.0
144
0.0
144
0.0
144
0.0
144
1.0
274
     2
147
0.0208333333333333
147
0.0
147
0.0
147
0.0
147
0.0
147
0.0208333333333333
147
0.0
147
0.0
147
0.0
147
0.0
147
1.0
147
0.0
147
0.0
147
0.0
147
0.0
147
1.0
  0
MATERIAL
  5
D9AC
102
{ACAD_REACTORS
330
18C
102
}
102
{ACAD_XDICTIONARY
360
1BC2F
102
}
330
18C
100
AcDbMaterial
  1
GLOBAL
 72
     0
 73
     2
 43
0.0208333333333333
 43
0.0
 43
0.0
 43
0.0
 43
0.0
 43
0.0208333333333333
 43
0.0
 43
0.0
 43
0.0
 43
0.0
 43
1.0
 43
0.0
 43
0.0
 43
0.0
 43
0.0
 43
1.0
 77
     0
 78
     2
 47
0.0208333333333333
 47
0.0
 47
0.0
 47
0.0
 47
0.0
 47
0.0208333333333333
 47
0.0
 47
0.0
 47
0.0
 47
0.0
 47
1.0
 47
0.0
 47
0.0
 47
0.0
 47
0.0
 47
1.0
171
     0
172
     2
 49
0.0208333333333333
 49
0.0
 49
0.0
 49
0.0
 49
0.0
 49
0.0208333333333333
 49
0.0
 49
0.0
 49
0.0
 49
0.0
 49
1.0
 49
0.0
 49
0.0
 49
0.0
 49
0.0
 49
1.0
175
     0
176
     2
142
0.0208333333333333
142
0.0
142
0.0
142
0.0
142
0.0
142
0.0208333333333333
142
0.0
142
0.0
142
0.0
142
0.0
142
1.0
142
0.0
142
0.0
142
0.0
142
0.0
142
1.0
179
     0
270
     2
144
0.0208333333333333
144
0.0
144
0.0
144
0.0
144
0.0
144
0.0208333333333333
144
0.0
144
0.0
144
0.0
144
0.0
144
1.0
144
0.0
144
0.0
144
0.0
144
0.0
144
1.0
274
     2
147
0.0208333333333333
147
0.0
147
0.0
147
0.0
147
0.0
147
0.0208333333333333
147
0.0
147
0.0
147
0.0
147
0.0
147
1.0
147
0.0
147
0.0
147
0.0
147
0.0
147
1.0
  0
ACAD_PROXY_OBJECT
  5
D9E8
102
{ACAD_REACTORS
330
D9E7
102
}
330
D9E7
100
AcDbZombieObject
 90
      499
 91
      511
 93
      610
310
40901902A4063FBFFFFFE000000000000002040AD7A3703D0AD73F4214DD185B99185C990000000000000104090141901A00000000000004100000000000000041025764000000000000300FC0
340
12
340
0
340
F
340
0
 94
        0
1001
ACAD_MLEADERVER
1070
     2
  0
MLINESTYLE
  5
1C
102
{ACAD_REACTORS
330
1B
102
}
330
1B
100
AcDbMlineStyle
  2
STANDARD
 70
     0
  3

 62
   256
 51
90.0
 52
90.0
 71
     2
 49
0.5
 62
   256
  6
BYLAYER
 49
-0.5
 62
   256
  6
BYLAYER
  0
ACAD_PROXY_OBJECT
  5
D9C6
102
{ACAD_REACTORS
330
D9C5
102
}
330
D9C5
100
AcDbZombieObject
 90
      499
 91
      510
 93
       41
310
903313A31580
  0
ACAD_PROXY_OBJECT
  5
D9C7
102
{ACAD_REACTORS
330
D9C5
102
}
330
D9C5
100
AcDbZombieObject
 90
      499
 91
      510
 93
      105
310
903313A324000000000000004000
  0
ACAD_PROXY_OBJECT
  5
D9C8
102
{ACAD_REACTORS
330
D9C5
102
}
330
D9C5
100
AcDbZombieObject
 90
      499
 91
      510
 93
      105
310
903313A344000000000000104000
  0
ACAD_PROXY_OBJECT
  5
D9C9
102
{ACAD_REACTORS
330
D9C5
102
}
330
D9C5
100
AcDbZombieObject
 90
      499
 91
      510
 93
      105
310
903313A354000000000000144000
  0
ACAD_PROXY_OBJECT
  5
D9CA
102
{ACAD_REACTORS
330
D9C5
102
}
330
D9C5
100
AcDbZombieObject
 90
      499
 91
      510
 93
      105
310
903313A384000000000000204000
  0
ACAD_PROXY_OBJECT
  5
D9CB
102
{ACAD_REACTORS
330
D9C5
102
}
330
D9C5
100
AcDbZombieObject
 90
      499
 91
      510
 93
      113
310
904313A31304000000000000244000
  0
ACAD_PROXY_OBJECT
  5
D9CC
102
{ACAD_REACTORS
330
D9C5
102
}
330
D9C5
100
AcDbZombieObject
 90
      499
 91
      510
 93
      113
310
904313A31364000000000000304000
  0
ACAD_PROXY_OBJECT
  5
D9CD
102
{ACAD_REACTORS
330
D9C5
102
}
330
D9C5
100
AcDbZombieObject
 90
      499
 91
      510
 93
      113
310
904313A32304000000000000344000
  0
ACAD_PROXY_OBJECT
  5
D9CE
102
{ACAD_REACTORS
330
D9C5
102
}
330
D9C5
100
AcDbZombieObject
 90
      499
 91
      510
 93
      113
310
904313A333040000000000003E4000
  0
ACAD_PROXY_OBJECT
  5
D9CF
102
{ACAD_REACTORS
330
D9C5
102
}
330
D9C5
100
AcDbZombieObject
 90
      499
 91
      510
 93
      113
310
904313A34304000000000000444000
  0
ACAD_PROXY_OBJECT
  5
D9D0
102
{ACAD_REACTORS
330
D9C5
102
}
330
D9C5
100
AcDbZombieObject
 90
      499
 91
      510
 93
      113
310
904313A35304000000000000494000
  0
ACAD_PROXY_OBJECT
  5
D9D1
102
{ACAD_REACTORS
330
D9C5
102
}
330
D9C5
100
AcDbZombieObject
 90
      499
 91
      510
 93
      121
310
905313A3130304000000000000594000
  0
ACAD_PROXY_OBJECT
  5
D9D2
102
{ACAD_REACTORS
330
D9C5
102
}
330
D9C5
100
AcDbZombieObject
 90
      499
 91
      510
 93
      105
310
903323A310000000000000010100
  0
ACAD_PROXY_OBJECT
  5
D9D3
102
{ACAD_REACTORS
330
D9C5
102
}
330
D9C5
100
AcDbZombieObject
 90
      499
 91
      510
 93
      105
310
903343A310000000000000410100
  0
ACAD_PROXY_OBJECT
  5
D9D4
102
{ACAD_REACTORS
330
D9C5
102
}
330
D9C5
100
AcDbZombieObject
 90
      499
 91
      510
 93
      105
310
903383A310000000000000810100
  0
ACAD_PROXY_OBJECT
  5
D9D5
102
{ACAD_REACTORS
330
D9C5
102
}
330
D9C5
100
AcDbZombieObject
 90
      499
 91
      510
 93
      113
310
90431303A310000000000000910100
  0
ACAD_PROXY_OBJECT
  5
D9D6
102
{ACAD_REACTORS
330
D9C5
102
}
330
D9C5
100
AcDbZombieObject
 90
      499
 91
      510
 93
      121
310
9053130303A310000000000001650100
  0
ACAD_PROXY_OBJECT
  5
D9D7
102
{ACAD_REACTORS
330
D9C5
102
}
330
D9C5
100
AcDbZombieObject
 90
      499
 91
      510
 93
      257
310
90E312F31323822203D2031272D3022000000000000200FC000000000000284000
  0
ACAD_PROXY_OBJECT
  5
D9D8
102
{ACAD_REACTORS
330
D9C5
102
}
330
D9C5
100
AcDbZombieObject
 90
      499
 91
      510
 93
      249
310
90D312F363422203D2031272D3022000000000000240FC000000000000284000
  0
ACAD_PROXY_OBJECT
  5
D9D9
102
{ACAD_REACTORS
330
D9C5
102
}
330
D9C5
100
AcDbZombieObject
 90
      499
 91
      510
 93
      249
310
90D312F333222203D2031272D3022000000000000280FC000000000000284000
  0
ACAD_PROXY_OBJECT
  5
D9DA
102
{ACAD_REACTORS
330
D9C5
102
}
330
D9C5
100
AcDbZombieObject
 90
      499
 91
      510
 93
      249
310
90D312F313622203D2031272D30220000000000002C0FC000000000000284000
  0
ACAD_PROXY_OBJECT
  5
D9DB
102
{ACAD_REACTORS
330
D9C5
102
}
330
D9C5
100
AcDbZombieObject
 90
      499
 91
      510
 93
      249
310
90D332F333222203D2031272D30220000000000002E0FC000000000000284000
  0
ACAD_PROXY_OBJECT
  5
D9DC
102
{ACAD_REACTORS
330
D9C5
102
}
330
D9C5
100
AcDbZombieObject
 90
      499
 91
      510
 93
      241
310
90C312F3822203D2031272D3022000000000000300FC000000000000284000
  0
ACAD_PROXY_OBJECT
  5
D9DD
102
{ACAD_REACTORS
330
D9C5
102
}
330
D9C5
100
AcDbZombieObject
 90
      499
 91
      510
 93
      249
310
90D332F313622203D2031272D3022000000000000320FC000000000000284000
  0
ACAD_PROXY_OBJECT
  5
D9DE
102
{ACAD_REACTORS
330
D9C5
102
}
330
D9C5
100
AcDbZombieObject
 90
      499
 91
      510
 93
      241
310
90C312F3422203D2031272D3022000000000000340FC000000000000284000
  0
ACAD_PROXY_OBJECT
  5
D9DF
102
{ACAD_REACTORS
330
D9C5
102
}
330
D9C5
100
AcDbZombieObject
 90
      499
 91
      510
 93
      241
310
90C332F3822203D2031272D3022000000000000360FC000000000000284000
  0
ACAD_PROXY_OBJECT
  5
D9E0
102
{ACAD_REACTORS
330
D9C5
102
}
330
D9C5
100
AcDbZombieObject
 90
      499
 91
      510
 93
      241
310
90C312F3222203D2031272D3022000000000000380FC000000000000284000
  0
ACAD_PROXY_OBJECT
  5
D9E1
102
{ACAD_REACTORS
330
D9C5
102
}
330
D9C5
100
AcDbZombieObject
 90
      499
 91
      510
 93
      241
310
90C332F3422203D2031272D30220000000000003A0FC000000000000284000
  0
ACAD_PROXY_OBJECT
  5
D9E2
102
{ACAD_REACTORS
330
D9C5
102
}
330
D9C5
100
AcDbZombieObject
 90
      499
 91
      510
 93
      161
310
90A3122203D2031272D30224000000000000284000
  0
ACAD_PROXY_OBJECT
  5
D9E3
102
{ACAD_REACTORS
330
D9C5
102
}
330
D9C5
100
AcDbZombieObject
 90
      499
 91
      510
 93
      257
310
90E312D312F3222203D2031272D30220000000000003E0FC000000000000284000
  0
ACAD_PROXY_OBJECT
  5
D9E4
102
{ACAD_REACTORS
330
D9C5
102
}
330
D9C5
100
AcDbZombieObject
 90
      499
 91
      510
 93
      225
310
90A3322203D2031272D302200000000000002100000000000000284000
  0
ACAD_PROXY_OBJECT
  5
D9E5
102
{ACAD_REACTORS
330
D9C5
102
}
330
D9C5
100
AcDbZombieObject
 90
      499
 91
      510
 93
      225
310
90A3622203D2031272D302200000000000006100000000000000284000
  0
ACAD_PROXY_OBJECT
  5
D9E6
102
{ACAD_REACTORS
330
D9C5
102
}
330
D9C5
100
AcDbZombieObject
 90
      499
 91
      510
 93
      249
310
90D31272D3022203D2031272D30220000000000000A100000000000000284000
  0
ACAD_PROXY_OBJECT
  5
D9BA
102
{ACAD_REACTORS
330
D9B4
102
}
330
D9B4
100
AcDbZombieObject
 90
      499
 91
      509
 93
      436
310
42CC9915DA5C99599C985B595049028333333333333E3BF0000000000000FB0107901411070040501600405405064090741402480A0340
1001
ACAD
1000
AcDbSavedByObjectVersion
1070
     0
  0
ACAD_PROXY_OBJECT
  5
D9BC
102
{ACAD_REACTORS
330
D9B4
102
}
330
D9B4
100
AcDbZombieObject
 90
      499
 91
      509
 93
      500
310
424CD108121A5919195B90640502408333333333333E3BF0000000000000FB01079024090700405020000000000001110200405405064090740C02480A0340
1001
ACAD
1000
AcDbSavedByObjectVersion
1070
     0
  0
ACAD_PROXY_OBJECT
  5
D9BB
102
{ACAD_REACTORS
330
D9B4
102
}
330
D9B4
100
AcDbZombieObject
 90
      499
 91
      509
 93
      436
310
42CCD915DA5C99599C985B595059028333333333333E3BF0000000000000FB0107901411070040501600405405064090741402480A0340
1001
ACAD
1000
AcDbSavedByObjectVersion
1070
     0
  0
ACAD_PROXY_OBJECT
  5
D9B9
102
{ACAD_REACTORS
330
D9B4
102
}
330
D9B4
100
AcDbZombieObject
 90
      499
 91
      509
 93
      388
310
4150985CDA58D07406404333333333333E3BF0000000000000FB0107A41107004050150841D405064090741402480A0350
1001
ACAD
1000
AcDbSavedByObjectVersion
1070
     0
  0
ACAD_PROXY_OBJECT
  5
D9C0
102
{ACAD_REACTORS
330
D9B4
102
}
330
D9B4
100
AcDbZombieObject
 90
      499
 91
      509
 93
      428
310
42109C9A59DA1D195B90C409028333333333333E3BF0000000000000FB010790141107004050150841D405064090741402480A029950
1001
ACAD
1000
AcDbSavedByObjectVersion
1070
     0
  0
ACAD_PROXY_OBJECT
  5
D9C4
102
{ACAD_REACTORS
330
D9B4
102
}
330
D9B4
100
AcDbZombieObject
 90
      499
 91
      509
 93
      452
310
42D0DBDB1BDC90DA185B99D95104090240C333333333333E3BF0000000000000FB0108901411070040501508421405064090741402480A0350
1001
ACAD
1000
AcDbSavedByObjectVersion
1070
     0
  0
ACAD_PROXY_OBJECT
  5
D9BD
102
{ACAD_REACTORS
330
D9B4
102
}
330
D9B4
100
AcDbZombieObject
 90
      499
 91
      509
 93
      500
310
4290DBDB98D95C1D1D585B10940D028333333333333E3BF0000000000000FB0107902409070040501000000000000111010841D405064090740C02480A0340
1001
ACAD
1000
AcDbSavedByObjectVersion
1070
     0
  0
ACAD_PROXY_OBJECT
  5
D9BF
102
{ACAD_REACTORS
330
D9B4
102
}
330
D9B4
100
AcDbZombieObject
 90
      499
 91
      509
 93
      412
310
40D11A5B50B409028333333333333E3BF0000000000000FB010790141107004050150841D405064090741402480A02677FFFFFD0
1001
ACAD
1000
AcDbSavedByObjectVersion
1070
     0
  0
ACAD_PROXY_OBJECT
  5
19C2F
102
{ACAD_REACTORS
330
D9B4
102
}
330
D9B4
100
AcDbZombieObject
 90
      499
 91
      509
 93
      452
310
43115919D950DBDB1BDC93D999916409028333333333333E3BF0000000000000FB010790141107004050150841D405064090741402480A0350
1001
ACAD
1000
AcDbSavedByObjectVersion
1070
     0
  0
ACAD_PROXY_OBJECT
  5
D9C3
102
{ACAD_REACTORS
330
D9B4
102
}
330
D9B4
100
AcDbZombieObject
 90
      499
 91
      509
 93
      444
310
42D19858D95C185D1D195C9B90F409028333333333333E3BF0000000000000FB010790141107004050150841D405064090741402480A0350
1001
ACAD
1000
AcDbSavedByObjectVersion
1070
     0
  0
ACAD_PROXY_OBJECT
  5
D9B5
102
{ACAD_REACTORS
330
D9B4
102
}
330
D9B4
100
AcDbZombieObject
 90
      499
 91
      509
 93
      388
310
41119B185D240901404333333333333E3BF0000000000000F9010740A41107004050150841D405064090741402480A1B50
1001
ACAD
1000
AcDbSavedByObjectVersion
1070
     0
  0
ACAD_PROXY_OBJECT
  5
D9B6
102
{ACAD_REACTORS
330
D9B4
102
}
330
D9B4
100
AcDbZombieObject
 90
      499
 91
      509
 93
      476
310
43519B185D15DA5D1A115919D95CD0140901404333333333333E3BF0000000000000F9010740901411070040501600405405064090741402480A1B50
1001
ACAD
1000
AcDbSavedByObjectVersion
1070
     0
  0
ACAD_PROXY_OBJECT
  5
D9B7
102
{ACAD_REACTORS
330
D9B4
102
}
330
D9B4
100
AcDbZombieObject
 90
      499
 91
      509
 93
      412
310
41D1DBDD5C985D5910240902404333333333333E3BF0000000000000F9010740A411070040501641D405064090741402480A1B50
1001
ACAD
1000
AcDbSavedByObjectVersion
1070
     0
  0
ACAD_PROXY_OBJECT
  5
D9B8
102
{ACAD_REACTORS
330
D9B4
102
}
330
D9B4
100
AcDbZombieObject
 90
      499
 91
      509
 93
      500
310
4411DBDD5C985D5915DA5D1A115919D95CD0340902404333333333333E3BF0000000000000F9010740901411070040501600405405064090741402480A1B50
1001
ACAD
1000
AcDbSavedByObjectVersion
1070
     0
  0
ACAD_PROXY_OBJECT
  5
19C7E
102
{ACAD_REACTORS
330
D9B4
102
}
330
D9B4
100
AcDbZombieObject
 90
      499
 91
      509
 93
      476
310
41921A5919195B90640502408333333333333E3BF0000000000000FB01079024090700405020000000000001110200405405064090740C02480A0340
1001
ACAD
1000
AcDbSavedByObjectVersion
1070
     0
  0
ACAD_PROXY_OBJECT
  5
19C2D
102
{ACAD_REACTORS
330
D9B4
102
}
330
D9B4
100
AcDbZombieObject
 90
      499
 91
      509
 93
      428
310
42529A5D1D195C93D999914409028333333333333E3BF0000000000000FB010790141107004050150A41D405064090741402480A0350
1001
ACAD
1000
AcDbSavedByObjectVersion
1070
     0
  0
ACAD_PROXY_OBJECT
  5
D9C2
102
{ACAD_REACTORS
330
D9B4
102
}
330
D9B4
100
AcDbZombieObject
 90
      499
 91
      509
 93
      444
310
42D31A5B995C185D1D195C9B90E409028333333333333E3BF0000000000000FB010790141107004050750841D405064090741402483A0350
1001
ACAD
1000
AcDbSavedByObjectVersion
1070
     0
  0
ACAD_PROXY_OBJECT
  5
1AFCC
102
{ACAD_REACTORS
330
D9B4
102
}
330
D9B4
100
AcDbZombieObject
 90
      499
 91
      509
 93
      484
310
42135BD9195B1A5B99D0A409038333333333333E33F0000000000000F901074090290700405010000000000201990108421405064090741402480A1B40
1001
ACAD
1000
AcDbSavedByObjectVersion
1070
     0
  0
ACAD_PROXY_OBJECT
  5
19C2E
102
{ACAD_REACTORS
330
D9B4
102
}
330
D9B4
100
AcDbZombieObject
 90
      499
 91
      509
 93
      444
310
42D3DD995C9A185B99D3D999915409028333333333333E3BF0000000000000FB010790141107004050150941D405064090741402480A0350
1001
ACAD
1000
AcDbSavedByObjectVersion
1070
     0
  0
ACAD_PROXY_OBJECT
  5
D9BE
102
{ACAD_REACTORS
330
D9B4
102
}
330
D9B4
100
AcDbZombieObject
 90
      499
 91
      509
 93
      420
310
425499585B1A5CDD1A58D08409028333333333333E3BF0000000000000FB01079019070040501508421405064090741402480A1B40
1001
ACAD
1000
AcDbSavedByObjectVersion
1070
     0
  0
ACAD_PROXY_OBJECT
  5
19C83
102
{ACAD_REACTORS
330
D9B4
102
}
330
D9B4
100
AcDbZombieObject
 90
      499
 91
      509
 93
      420
310
4194DA1859195911B40902404333333333333E3BF0000000000000F9010740A41107004050150800405405064090840C02480A0B40
1001
ACAD
1000
AcDbSavedByObjectVersion
1070
     0
  0
ACAD_PROXY_OBJECT
  5
19C82
102
{ACAD_REACTORS
330
D9B4
102
}
330
D9B4
100
AcDbZombieObject
 90
      499
 91
      509
 93
      516
310
4454DA18591959081DDA5D1A08195919D95CD1A40902404333333333333E3BF0000000000000F901074090142907004050250800405405064090740C02480A0B40
1001
ACAD
1000
AcDbSavedByObjectVersion
1070
     0
  0
ACAD_PROXY_OBJECT
  5
19C7F
102
{ACAD_REACTORS
330
D9B4
102
}
330
D9B4
100
AcDbZombieObject
 90
      499
 91
      509
 93
      532
310
4394DA1859195CC81BD98811DC985E5174090240C333333333333E3BF0000000000000FB01079024090741D01000000000000111010841D405064090740C02480A0340
1001
ACAD
1000
AcDbSavedByObjectVersion
1070
     0
  0
ACAD_PROXY_OBJECT
  5
19C80
102
{ACAD_REACTORS
330
D9B4
102
}
330
D9B4
100
AcDbZombieObject
 90
      499
 91
      509
 93
      476
310
41D4DAD95D18DA1E51840502408333333333333E3BF0000000000000FB01079024090741D01000000000000111010B41D405064090741802480A0340
1001
ACAD
1000
AcDbSavedByObjectVersion
1070
     0
  0
ACAD_PROXY_OBJECT
  5
D9C1
102
{ACAD_REACTORS
330
D9B4
102
}
330
D9B4
100
AcDbZombieObject
 90
      499
 91
      509
 93
      412
310
41D51A1A58DAD95B90D409028333333333333E3BF0000000000000FB010790141107004050150C41D405064090741402480A0350
1001
ACAD
1000
AcDbSavedByObjectVersion
1070
     0
  0
ACAD_PROXY_OBJECT
  5
19C7D
102
{ACAD_REACTORS
330
D9B4
102
}
330
D9B4
100
AcDbZombieObject
 90
      499
 91
      509
 93
      420
310
4255DA5C99599C985B595059028333333333333E3BF0000000000000FB0107901411070040501600405405064090740C02480A0340
1001
ACAD
1000
AcDbSavedByObjectVersion
1070
     0
  0
ACAD_PROXY_OBJECT
  5
19C81
102
{ACAD_REACTORS
330
D9B4
102
}
330
D9B4
100
AcDbZombieObject
 90
      499
 91
      509
 93
      404
310
41560B54985E51940902404000000000000E03F0000000000000FB010740501907004050150841D405064090740C02480A1B40
1001
ACAD
1000
AcDbSavedByObjectVersion
1070
     0
  0
XRECORD
  5
1BA8E
102
{ACAD_REACTORS
330
1BA8D
102
}
330
1BA8D
100
AcDbXrecord
340
18D
  0
XRECORD
  5
1BA8F
102
{ACAD_REACTORS
330
1BA8D
102
}
330
1BA8D
100
AcDbXrecord
340
18C
  0
DICTIONARYVAR
  5
1AFF4
102
{ACAD_REACTORS
330
37
102
}
330
37
100
DictionaryVariables
280
     0
  1
1:1
  0
DICTIONARYVAR
  5
DA6A
102
{ACAD_REACTORS
330
37
102
}
330
37
100
DictionaryVariables
280
     0
  1
Standard
  0
DICTIONARYVAR
  5
29E
102
{ACAD_REACTORS
330
37
102
}
330
37
100
DictionaryVariables
280
     0
  1
Standard
  0
DICTIONARYVAR
  5
38
102
{ACAD_REACTORS
330
37
102
}
330
37
100
DictionaryVariables
280
     0
  1
-1
  0
DICTIONARYVAR
  5
1CE
102
{ACAD_REACTORS
330
37
102
}
330
37
100
DictionaryVariables
280
     0
  1
2
  0
DICTIONARYVAR
  5
704E
102
{ACAD_REACTORS
330
37
102
}
330
37
100
DictionaryVariables
280
     0
  1
1
  0
DICTIONARYVAR
  5
DA6D
102
{ACAD_REACTORS
330
37
102
}
330
37
100
DictionaryVariables
280
     0
  1
0
  0
DICTIONARYVAR
  5
7052
102
{ACAD_REACTORS
330
37
102
}
330
37
100
DictionaryVariables
280
     0
  1
8
  0
DICTIONARYVAR
  5
7051
102
{ACAD_REACTORS
330
37
102
}
330
37
100
DictionaryVariables
280
     0
  1
1
  0
DICTIONARYVAR
  5
1AFC9
102
{ACAD_REACTORS
330
37
102
}
330
37
100
DictionaryVariables
280
     0
  1
0
  0
DICTIONARYVAR
  5
1AFCA
102
{ACAD_REACTORS
330
37
102
}
330
37
100
DictionaryVariables
280
     0
  1
0
  0
DICTIONARYVAR
  5
1A516
102
{ACAD_REACTORS
330
37
102
}
330
37
100
DictionaryVariables
280
     0
  1
0
  0
DICTIONARYVAR
  5
704F
102
{ACAD_REACTORS
330
37
102
}
330
37
100
DictionaryVariables
280
     0
  1
120
  0
DICTIONARYVAR
  5
7050
102
{ACAD_REACTORS
330
37
102
}
330
37
100
DictionaryVariables
280
     0
  1
0
  0
DICTIONARYVAR
  5
1CF
102
{ACAD_REACTORS
330
37
102
}
330
37
100
DictionaryVariables
280
     0
  1

  0
DICTIONARYVAR
  5
DA6C
102
{ACAD_REACTORS
330
37
102
}
330
37
100
DictionaryVariables
280
     0
  1
127
  0
DICTIONARYVAR
  5
1AFCB
102
{ACAD_REACTORS
330
37
102
}
330
37
100
DictionaryVariables
280
     0
  1
2
  0
DICTIONARY
  5
1BC2B
330
D9A4
100
AcDbDictionary
  3
ACAD_XREC_ROUNDTRIP
360
1BC2C
1001
ACAD
1000
TREAT_AS_HARD
1070
     1
  0
DICTIONARY
  5
1BC2D
330
D99C
100
AcDbDictionary
  3
ACAD_XREC_ROUNDTRIP
360
1BC2E
1001
ACAD
1000
TREAT_AS_HARD
1070
     1
  0
DICTIONARY
  5
1BC2F
330
D9AC
100
AcDbDictionary
  3
ACAD_XREC_ROUNDTRIP
360
1BC30
1001
ACAD
1000
TREAT_AS_HARD
1070
     1
  0
XRECORD
  5
1BC2C
102
{ACAD_REACTORS
330
1BC2B
102
}
330
1BC2B
100
AcDbXrecord
102
MATERIAL
148
0.0
149
0.0
149
0.0
 93
        0
 94
      127
282
     0
 72
     0
 77
     0
171
     0
175
     0
179
     0
273
     0
  0
XRECORD
  5
1BC2E
102
{ACAD_REACTORS
330
1BC2D
102
}
330
1BC2D
100
AcDbXrecord
102
MATERIAL
148
0.0
149
0.0
149
0.0
 93
        0
 94
      127
282
     0
 72
     0
 77
     0
171
     0
175
     0
179
     0
273
     0
  0
XRECORD
  5
1BC30
102
{ACAD_REACTORS
330
1BC2F
102
}
330
1BC2F
100
AcDbXrecord
102
MATERIAL
148
0.0
149
0.0
149
0.0
 93
        0
 94
      127
282
     0
 72
     0
 77
     0
171
     0
175
     0
179
     0
273
     0
  0
ENDSEC
  0
EOF
