  0
SECTION
  2
HEADER
  9
$ACADVER
  1
AC1009
  9
$INSBASE
 10
0.0
 20
0.0
 30
0.0
  9
$EXTMIN
 10
547.18767316632375
 20
-1472.9126913893799
 30
-0.0000000000001137
  9
$EXTMAX
 10
1147.487781506069
 20
-1074.476726301966
 30
0.0000000000562575
  9
$LIMMIN
 10
0.0
 20
0.0
  9
$LIMMAX
 10
420.0
 20
297.0
  9
$ORTHOMODE
 70
     0
  9
$REGENMODE
 70
     1
  9
$FILLMODE
 70
     1
  9
$QTEXTMODE
 70
     0
  9
$MIRRTEXT
 70
     0
  9
$DRAGMODE
 70
     2
  9
$LTSCALE
 40
0.5
  9
$OSMODE
 70
  2175
  9
$ATTMODE
 70
     1
  9
$TEXTSIZE
 40
4.0
  9
$TRACEWID
 40
1.0
  9
$TEXTSTYLE
  7
STANDARD
  9
$CLAYER
  8
1TEXT
  9
$CELTYPE
  6
BYLAYER
  9
$CECOLOR
 62
   256
  9
$DIMSCALE
 40
1.0
  9
$DIMASZ
 40
2.0
  9
$DIMEXO
 40
0.0
  9
$DIMDLI
 40
7.0
  9
$DIMRND
 40
0.0
  9
$DIMDLE
 40
0.0
  9
$DIMEXE
 40
1.0
  9
$DIMTP
 40
0.0
  9
$DIMTM
 40
0.0
  9
$DIMTXT
 40
3.5
  9
$DIMCEN
 40
0.0
  9
$DIMTSZ
 40
0.0
  9
$DIMTOL
 70
     0
  9
$DIMLIM
 70
     0
  9
$DIMTIH
 70
     0
  9
$DIMTOH
 70
     0
  9
$DIMSE1
 70
     0
  9
$DIMSE2
 70
     0
  9
$DIMTAD
 70
     1
  9
$DIMZIN
 70
     8
  9
$DIMBLK
  1

  9
$DIMASO
 70
     1
  9
$DIMSHO
 70
     1
  9
$DIMPOST
  1
 
  9
$DIMAPOST
  1

  9
$DIMALT
 70
     0
  9
$DIMALTD
 70
     2
  9
$DIMALTF
 40
25.399999999999999
  9
$DIMLFAC
 40
1.0
  9
$DIMTOFL
 70
     1
  9
$DIMTVP
 40
0.0
  9
$DIMTIX
 70
     0
  9
$DIMSOXD
 70
     0
  9
$DIMSAH
 70
     1
  9
$DIMBLK1
  1
OPEN30
  9
$DIMBLK2
  1
OPEN30
  9
$DIMSTYLE
  2
NEWX10
  9
$DIMCLRD
 70
   256
  9
$DIMCLRE
 70
   256
  9
$DIMCLRT
 70
   201
  9
$DIMTFAC
 40
0.7
  9
$DIMGAP
 40
0.7
  9
$LUNITS
 70
     2
  9
$LUPREC
 70
     4
  9
$SKETCHINC
 40
1.0
  9
$FILLETRAD
 40
0.0
  9
$AUNITS
 70
     0
  9
$AUPREC
 70
     2
  9
$MENU
  1
acad
  9
$ELEVATION
 40
0.0
  9
$PELEVATION
 40
0.0
  9
$THICKNESS
 40
0.0
  9
$LIMCHECK
 70
     0
  9
$BLIPMODE
 70
     0
  9
$CHAMFERA
 40
10.0
  9
$CHAMFERB
 40
10.0
  9
$SKPOLY
 70
     0
  9
$TDCREATE
 40
2451318.621352917
  9
$TDUPDATE
 40
2456016.7696446301
  9
$TDINDWG
 40
0.4426458449
  9
$TDUSRTIMER
 40
0.4426458449
  9
$USRTIMER
 70
     1
  9
$ANGBASE
 50
0.0
  9
$ANGDIR
 70
     0
  9
$PDMODE
 70
     0
  9
$PDSIZE
 40
0.0
  9
$PLINEWID
 40
0.0
  9
$COORDS
 70
     2
  9
$SPLFRAME
 70
     0
  9
$SPLINETYPE
 70
     6
  9
$SPLINESEGS
 70
     8
  9
$ATTDIA
 70
     0
  9
$ATTREQ
 70
     1
  9
$HANDLING
 70
     1
  9
$HANDSEED
  5
E673
  9
$SURFTAB1
 70
     6
  9
$SURFTAB2
 70
     6
  9
$SURFTYPE
 70
     6
  9
$SURFU
 70
     6
  9
$SURFV
 70
     6
  9
$UCSNAME
  2

  9
$UCSORG
 10
0.0
 20
0.0
 30
0.0
  9
$UCSXDIR
 10
1.0
 20
0.0
 30
0.0
  9
$UCSYDIR
 10
0.0
 20
1.0
 30
0.0
  9
$PUCSNAME
  2

  9
$PUCSORG
 10
0.0
 20
0.0
 30
0.0
  9
$PUCSXDIR
 10
1.0
 20
0.0
 30
0.0
  9
$PUCSYDIR
 10
0.0
 20
1.0
 30
0.0
  9
$USERI1
 70
     0
  9
$USERI2
 70
     0
  9
$USERI3
 70
     0
  9
$USERI4
 70
     0
  9
$USERI5
 70
     0
  9
$USERR1
 40
0.0
  9
$USERR2
 40
0.0
  9
$USERR3
 40
0.0
  9
$USERR4
 40
0.0
  9
$USERR5
 40
0.0
  9
$WORLDVIEW
 70
     1
  9
$SHADEDGE
 70
     3
  9
$SHADEDIF
 70
    70
  9
$TILEMODE
 70
     1
  9
$MAXACTVP
 70
    48
  9
$PLIMCHECK
 70
     0
  9
$PEXTMIN
 10
1.0000000000000000E+020
 20
1.0000000000000000E+020
 30
1.0000000000000000E+020
  9
$PEXTMAX
 10
-1.0000000000000000E+020
 20
-1.0000000000000000E+020
 30
-1.0000000000000000E+020
  9
$PLIMMIN
 10
0.0
 20
0.0
  9
$PLIMMAX
 10
420.0
 20
297.0
  9
$UNITMODE
 70
     0
  9
$VISRETAIN
 70
     1
  9
$PLINEGEN
 70
     0
  9
$PSLTSCALE
 70
     1
  0
ENDSEC
  0
SECTION
  2
TABLES
  0
TABLE
  2
VPORT
 70
     1
  0
VPORT
  2
*ACTIVE
 70
     0
 10
0.0
 20
0.0
 11
1.0
 21
1.0
 12
847.3263001463115
 22
-1273.6570753184681
 13
0.0
 23
0.0
 14
10.0
 24
10.0
 15
10.0
 25
10.0
 16
0.0
 26
0.0
 36
1.0
 17
0.0
 27
0.0
 37
0.0
 40
423.02451105074681
 41
1.5395095367847409
 42
50.0
 43
0.0
 44
0.0
 50
0.0
 51
0.0
 71
     0
 72
   100
 73
     1
 74
     1
 75
     0
 76
     0
 77
     0
 78
     0
  0
ENDTAB
  0
TABLE
  2
LTYPE
 70
    12
  0
LTYPE
  2
CONTINUOUS
 70
     0
  3
Solid line
 72
    65
 73
     0
 40
0.0
  0
LTYPE
  2
XREF1|CENTER2
 70
    48
  3
Center (.5x) ___ _ ___ _ ___ _ ___ _ ___ _ ___
 72
    65
 73
     4
 40
28.574999999999999
 49
19.050000000000001
 49
-3.1749999999999989
 49
3.1749999999999989
 49
-3.1749999999999989
  0
LTYPE
  2
A3WAKUDAKE|CENTER2
 70
    48
  3
Center (.5x) ___ _ ___ _ ___ _ ___ _ ___ _ ___
 72
    65
 73
     4
 40
28.574999999999999
 49
19.050000000000001
 49
-3.1749999999999989
 49
3.1749999999999989
 49
-3.1749999999999989
  0
ENDTAB
  0
TABLE
  2
LAYER
 70
    36
  0
LAYER
  2
0
 70
     0
 62
     7
  6
CONTINUOUS
  0
LAYER
  2
1TEXT
 70
     0
 62
     7
  6
CONTINUOUS
  0
LAYER
  2
01
 70
     0
 62
     1
  6
CONTINUOUS
  0
LAYER
  2
A3WAKUDAKE|THICK
 70
    48
 62
     7
  6
CONTINUOUS
  0
LAYER
  2
A3WAKUDAKE|POINT
 70
    48
 62
     7
  6
CONTINUOUS
  0
LAYER
  2
A3WAKUDAKE|1CENTER
 70
    48
 62
     7
  6
A3WAKUDAKE|CENTER2
  0
LAYER
  2
A3WAKUDAKE|0-6
 70
    48
 62
     7
  6
CONTINUOUS
  0
LAYER
  2
A3WAKUDAKE|1DIM
 70
    48
 62
     7
  6
CONTINUOUS
  0
LAYER
  2
XREF1|1CENTER
 70
    48
 62
     7
  6
XREF1|CENTER2
  0
ENDTAB
  0
TABLE
  2
STYLE
 70
     4
  0
STYLE
  2
STANDARD
 70
     0
 40
0.0
 41
1.0
 50
0.0
 71
     0
 42
4.0
  3
romans.shx
  4
extfont2.shx
  0
ENDTAB
  0
TABLE
  2
VIEW
 70
     5
  0
ENDTAB
  0
TABLE
  2
UCS
 70
     0
  0
ENDTAB
  0
TABLE
  2
APPID
 70
     9
  0
APPID
  2
ACAD
 70
     0
  0
APPID
  2
DRAWINGVARIABLESXDATA
 70
     0
  0
APPID
  2
CONTENTTABDATA
 70
     0
  0
APPID
  2
CONTENTCURRENTTAB
 70
     0
  0
APPID
  2
CONTENTBLOCKDESCRIPTION
 70
     0
  0
APPID
  2
CONTENTBLOCKICON
 70
     0
  0
APPID
  2
CONTENTLONGBLOCKNAME
 70
     0
  0
APPID
  2
ACAD_PSEXT
 70
     0
  0
APPID
  2
ACAD_MLEADERVER
 70
     0
  0
ENDTAB
  0
TABLE
  2
DIMSTYLE
 70
     5
  0
DIMSTYLE
  2
NEWX10
 70
     0
  3
 
  4

  5

  6
OPEN30
  7
OPEN30
 40
1.0
 41
2.0
 42
0.0
 43
7.0
 44
1.0
 45
0.0
 46
0.0
 47
0.0
 48
0.0
140
3.5
141
0.0
142
0.0
143
25.399999999999999
144
1.0
145
0.0
146
0.7
147
0.7
 71
     0
 72
     0
 73
     0
 74
     0
 75
     0
 76
     0
 77
     1
 78
     8
170
     0
171
     2
172
     1
173
     1
174
     0
175
     0
176
   256
177
   256
178
   201
  0
ENDTAB
  0
ENDSEC
  0
SECTION
  2
BLOCKS
  0
BLOCK
  8
0
  2
$MODEL_SPACE
 70
     0
 10
0.0
 20
0.0
 30
0.0
  3
$MODEL_SPACE
  1

  0
ENDBLK
  5
1A
  8
0
  0
BLOCK
 67
     1
  8
0
  2
$PAPER_SPACE
 70
     0
 10
0.0
 20
0.0
 30
0.0
  3
$PAPER_SPACE
  1

  0
ENDBLK
  5
17
 67
     1
  8
0
  0
BLOCK
  8
0
  2
_OPEN30
 70
     0
 10
0.0
 20
0.0
 30
0.0
  3
_OPEN30
  1

  0
LINE
  5
44
  8
0
  6
BYBLOCK
 62
     0
 10
-1.0
 20
0.26794919
 30
0.0
 11
0.0
 21
0.0
 31
0.0
  0
LINE
  5
45
  8
0
  6
BYBLOCK
 62
     0
 10
0.0
 20
0.0
 30
0.0
 11
-1.0
 21
-0.26794919
 31
0.0
  0
LINE
  5
46
  8
0
  6
BYBLOCK
 62
     0
 10
0.0
 20
0.0
 30
0.0
 11
-1.0
 21
0.0
 31
0.0
  0
ENDBLK
  5
47
  8
0
  0
BLOCK
  8
0
  2
XREF1
 70
    36
 10
0.0
 20
0.0
 30
0.0
  3
XREF1
  1
D:\ACLT\FORMAT\KAWAJUN(9)図面用.dwg
  0
ENDBLK
  5
5D
  8
0
  0
BLOCK
  8
0
  2
A3WAKUDAKE
 70
    36
 10
0.0
 20
0.0
 30
0.0
  3
A3WAKUDAKE
  1
D:\ACLT\FORMAT\A3WAKUdake.dwg
  0
ENDBLK
  5
6A0
  8
0
  0
BLOCK
  8
0
  2
*U27
 70
     1
 10
0.0
 20
0.0
 30
0.0
  3
*U27
  1

  0
TEXT
  5
E562
  8
1TEXT
 62
   201
 10
1043.3489401080969
 20
-1150.4100847237421
 30
0.0
 40
3.5
  1
20.5
 50
90.0
  0
ENDBLK
  5
E564
  8
0
  0
BLOCK
  8
0
  2
*U28
 70
     1
 10
0.0
 20
0.0
 30
0.0
  3
*U28
  1

  0
TEXT
  5
E566
  8
1TEXT
 62
   201
 10
5506.9158361993859
 20
-1203.61055353047
 30
0.0
 40
4.5499999999999989
  1
20.5
 50
90.0
  0
ENDBLK
  5
E568
  8
0
  0
ENDSEC
  0
SECTION
  2
ENTITIES
  0
TEXT
  5
221C
  8
01
 10
649.18768516632463
 20
-1136.57675138938
 30
0.0
 40
20.0
  1
2-V8C-X-LW
  0
LINE
  5
4E0E
  8
01
 10
649.18768516632406
 20
-1198.0767513893809
 30
0.0
 11
754.18768516632406
 21
-1198.0767513893809
 31
0.0
  0
TEXT
  5
4E0F
  8
01
 10
650.88768516632365
 20
-1195.543121806737
 30
0.0
 40
6.0
  1
パールクローム
 72
     1
 11
675.28768516632363
 21
-1195.543121806737
 31
0.0
  0
TEXT
  5
4E10
  8
01
 10
661.6876851663236
 20
-1174.82675138938
 30
0.0
 40
6.0
  1
表面処理
 72
     1
 11
675.28768516632363
 21
-1174.82675138938
 31
0.0
  0
TEXT
  5
4E11
  8
01
 10
661.6876851663236
 20
-1185.079684378667
 30
0.0
 40
6.0
  1
クローム
 72
     1
 11
675.28768516632363
 21
-1185.079684378667
 31
0.0
  0
LINE
  5
4E12
  8
01
 10
649.18768516632406
 20
-1166.57675138938
 30
0.0
 11
754.18768516632406
 21
-1166.57675138938
 31
0.0
  0
LINE
  5
4E13
  8
01
 10
649.18768516632406
 20
-1177.07675138938
 30
0.0
 11
754.18768516632406
 21
-1177.07675138938
 31
0.0
  0
LINE
  5
4E14
  8
01
 10
649.18768516632406
 20
-1187.57675138938
 30
0.0
 11
754.18768516632406
 21
-1187.57675138938
 31
0.0
  0
LINE
  5
4E15
  8
01
 10
649.18768516632406
 20
-1187.57675138938
 30
0.0
 11
754.18768516632406
 21
-1187.57675138938
 31
0.0
  0
LINE
  5
4E16
  8
01
 10
701.68768516632417
 20
-1166.57675138938
 30
0.0
 11
701.68768516632417
 21
-1208.5767513893809
 31
0.0
  0
TEXT
  5
4E17
  8
01
 10
705.78768516632499
 20
-1185.648286864855
 30
0.0
 40
6.0
  1
2-V8C-C-LW
 41
0.7
 72
     1
 11
727.78768516632499
 21
-1185.648286864855
 31
0.0
  0
TEXT
  5
4E18
  8
01
 10
717.78768516632363
 20
-1174.82675138938
 30
0.0
 40
6.0
  1
コード
 72
     1
 11
727.78768516632363
 21
-1174.82675138938
 31
0.0
  0
LINE
  5
4E19
  8
01
 10
649.18768516632406
 20
-1208.5767513893809
 30
0.0
 11
754.18768516632406
 21
-1208.5767513893809
 31
0.0
  0
TEXT
  5
4E1A
  8
01
 10
650.88768516632365
 20
-1206.043121806737
 30
0.0
 40
6.0
  1
サテンニッケル
 72
     1
 11
675.28768516632363
 21
-1206.043121806737
 31
0.0
  0
LINE
  5
4E1B
  8
01
 10
649.18768516632406
 20
-1208.5767513893809
 30
0.0
 11
649.18768516632406
 21
-1166.57675138938
 31
0.0
  0
LINE
  5
4E1C
  8
01
 10
754.18768516632406
 20
-1208.5767513893809
 30
0.0
 11
754.18768516632406
 21
-1166.57675138938
 31
0.0
  0
TEXT
  5
4E1D
  8
01
 10
705.78768516632499
 20
-1196.148286864855
 30
0.0
 40
6.0
  1
2-V8C-B-LW
 41
0.7
 72
     1
 11
727.78768516632499
 21
-1196.148286864855
 31
0.0
  0
TEXT
  5
4E1E
  8
01
 10
705.68768516632497
 20
-1206.648286864855
 30
0.0
 40
6.0
  1
2-V8C-N-LW
 41
0.7
 72
     1
 11
727.78768516632499
 21
-1206.648286864855
 31
0.0
  0
LINE
  5
DD3B
  8
01
 10
854.18766916632421
 20
-1325.57937138938
 30
0.0
 11
854.18766916632421
 21
-1472.9126913893799
 31
0.0
  0
LINE
  5
DD3C
  8
01
 10
814.18766916632421
 20
-1325.57937138938
 30
0.0
 11
814.18766916632421
 21
-1472.9126913893799
 31
0.0
  0
LINE
  5
DD3D
  8
01
 10
712.78767516632468
 20
-1332.07675138938
 30
0.0
 11
712.78767516632468
 21
-1355.17672138938
 31
0.0
  0
LINE
  5
DD3E
  8
01
 10
711.1876691663241
 20
-1332.07675138938
 30
0.0
 11
711.1876691663241
 21
-1355.07675138938
 31
0.0
  0
LINE
  5
DD3F
  8
01
 10
713.58767816632508
 20
-1332.07675138938
 30
0.0
 11
713.58767816632508
 21
-1462.07675138938
 31
0.0
  0
LINE
  5
DD40
  8
01
 10
715.1876691663241
 20
-1332.07675138938
 30
0.0
 11
715.1876691663241
 21
-1462.07675138938
 31
0.0
  0
LINE
  5
DD42
  8
01
 10
712.18766916632421
 20
-1434.0767513893809
 30
0.0
 11
683.39704587862229
 21
-1434.0767513893809
 31
0.0
  0
LINE
  5
DD43
  8
01
 10
646.18768516632406
 20
-1371.2945740533221
 30
0.0
 11
646.18768516632406
 21
-1400.7273873664581
 31
0.0
  0
LINE
  5
DD44
  8
01
 10
721.18766916632228
 20
-1386.0767513893809
 30
0.0
 11
715.1876691663241
 21
-1386.0767513893809
 31
0.0
  0
LINE
  5
DD45
  8
01
 10
726.18766916632421
 20
-1391.0767513893809
 30
0.0
 11
716.18766916632421
 21
-1391.0767513893809
 31
0.0
  0
POLYLINE
  5
DD46
  8
01
 10
726.18766916632421
 20
-1389.64517138938
 30
0.0
 66
     1
 70
     8
  0
VERTEX
  8
01
  5
E56F
 10
726.188
 20
-1389.65
 30
0.000000
  70
    32
  0
VERTEX
  8
01
  5
E570
 10
726.186
 20
-1389.56
 30
0.000000
  70
    32
  0
VERTEX
  8
01
  5
E571
 10
726.182
 20
-1389.47
 30
0.000000
  70
    32
  0
VERTEX
  8
01
  5
E572
 10
726.174
 20
-1389.38
 30
0.000000
  70
    32
  0
VERTEX
  8
01
  5
E573
 10
726.164
 20
-1389.30
 30
0.000000
  70
    32
  0
VERTEX
  8
01
  5
E574
 10
726.150
 20
-1389.21
 30
0.000000
  70
    32
  0
VERTEX
  8
01
  5
E575
 10
726.134
 20
-1389.12
 30
0.000000
  70
    32
  0
VERTEX
  8
01
  5
E576
 10
726.114
 20
-1389.04
 30
0.000000
  70
    32
  0
VERTEX
  8
01
  5
E577
 10
726.092
 20
-1388.95
 30
0.000000
  70
    32
  0
VERTEX
  8
01
  5
E578
 10
726.066
 20
-1388.86
 30
0.000000
  70
    32
  0
VERTEX
  8
01
  5
E579
 10
726.038
 20
-1388.78
 30
0.000000
  70
    32
  0
VERTEX
  8
01
  5
E57A
 10
726.007
 20
-1388.69
 30
0.000000
  70
    32
  0
VERTEX
  8
01
  5
E57B
 10
725.972
 20
-1388.61
 30
0.000000
  70
    32
  0
VERTEX
  8
01
  5
E57C
 10
725.935
 20
-1388.53
 30
0.000000
  70
    32
  0
VERTEX
  8
01
  5
E57D
 10
725.895
 20
-1388.44
 30
0.000000
  70
    32
  0
VERTEX
  8
01
  5
E57E
 10
725.853
 20
-1388.36
 30
0.000000
  70
    32
  0
VERTEX
  8
01
  5
E57F
 10
725.807
 20
-1388.28
 30
0.000000
  70
    32
  0
VERTEX
  8
01
  5
E580
 10
725.759
 20
-1388.20
 30
0.000000
  70
    32
  0
VERTEX
  8
01
  5
E581
 10
725.708
 20
-1388.12
 30
0.000000
  70
    32
  0
VERTEX
  8
01
  5
E582
 10
725.654
 20
-1388.04
 30
0.000000
  70
    32
  0
VERTEX
  8
01
  5
E583
 10
725.597
 20
-1387.96
 30
0.000000
  70
    32
  0
VERTEX
  8
01
  5
E584
 10
725.538
 20
-1387.89
 30
0.000000
  70
    32
  0
VERTEX
  8
01
  5
E585
 10
725.476
 20
-1387.81
 30
0.000000
  70
    32
  0
VERTEX
  8
01
  5
E586
 10
725.412
 20
-1387.74
 30
0.000000
  70
    32
  0
VERTEX
  8
01
  5
E587
 10
725.345
 20
-1387.66
 30
0.000000
  70
    32
  0
VERTEX
  8
01
  5
E588
 10
725.276
 20
-1387.59
 30
0.000000
  70
    32
  0
VERTEX
  8
01
  5
E589
 10
725.204
 20
-1387.52
 30
0.000000
  70
    32
  0
VERTEX
  8
01
  5
E58A
 10
725.129
 20
-1387.45
 30
0.000000
  70
    32
  0
VERTEX
  8
01
  5
E58B
 10
725.053
 20
-1387.38
 30
0.000000
  70
    32
  0
VERTEX
  8
01
  5
E58C
 10
724.974
 20
-1387.31
 30
0.000000
  70
    32
  0
VERTEX
  8
01
  5
E58D
 10
724.892
 20
-1387.25
 30
0.000000
  70
    32
  0
VERTEX
  8
01
  5
E58E
 10
724.809
 20
-1387.18
 30
0.000000
  70
    32
  0
VERTEX
  8
01
  5
E58F
 10
724.723
 20
-1387.12
 30
0.000000
  70
    32
  0
VERTEX
  8
01
  5
E590
 10
724.635
 20
-1387.06
 30
0.000000
  70
    32
  0
VERTEX
  8
01
  5
E591
 10
724.545
 20
-1387.00
 30
0.000000
  70
    32
  0
VERTEX
  8
01
  5
E592
 10
724.454
 20
-1386.94
 30
0.000000
  70
    32
  0
VERTEX
  8
01
  5
E593
 10
724.360
 20
-1386.89
 30
0.000000
  70
    32
  0
VERTEX
  8
01
  5
E594
 10
724.264
 20
-1386.83
 30
0.000000
  70
    32
  0
VERTEX
  8
01
  5
E595
 10
724.166
 20
-1386.78
 30
0.000000
  70
    32
  0
VERTEX
  8
01
  5
E596
 10
724.067
 20
-1386.73
 30
0.000000
  70
    32
  0
VERTEX
  8
01
  5
E597
 10
723.966
 20
-1386.68
 30
0.000000
  70
    32
  0
VERTEX
  8
01
  5
E598
 10
723.863
 20
-1386.63
 30
0.000000
  70
    32
  0
VERTEX
  8
01
  5
E599
 10
723.758
 20
-1386.58
 30
0.000000
  70
    32
  0
VERTEX
  8
01
  5
E59A
 10
723.652
 20
-1386.54
 30
0.000000
  70
    32
  0
VERTEX
  8
01
  5
E59B
 10
723.545
 20
-1386.50
 30
0.000000
  70
    32
  0
VERTEX
  8
01
  5
E59C
 10
723.436
 20
-1386.46
 30
0.000000
  70
    32
  0
VERTEX
  8
01
  5
E59D
 10
723.325
 20
-1386.42
 30
0.000000
  70
    32
  0
VERTEX
  8
01
  5
E59E
 10
723.214
 20
-1386.38
 30
0.000000
  70
    32
  0
VERTEX
  8
01
  5
E59F
 10
723.101
 20
-1386.35
 30
0.000000
  70
    32
  0
VERTEX
  8
01
  5
E5A0
 10
722.987
 20
-1386.32
 30
0.000000
  70
    32
  0
VERTEX
  8
01
  5
E5A1
 10
722.872
 20
-1386.29
 30
0.000000
  70
    32
  0
VERTEX
  8
01
  5
E5A2
 10
722.756
 20
-1386.26
 30
0.000000
  70
    32
  0
VERTEX
  8
01
  5
E5A3
 10
722.639
 20
-1386.23
 30
0.000000
  70
    32
  0
VERTEX
  8
01
  5
E5A4
 10
722.521
 20
-1386.21
 30
0.000000
  70
    32
  0
VERTEX
  8
01
  5
E5A5
 10
722.403
 20
-1386.18
 30
0.000000
  70
    32
  0
VERTEX
  8
01
  5
E5A6
 10
722.283
 20
-1386.16
 30
0.000000
  70
    32
  0
VERTEX
  8
01
  5
E5A7
 10
722.163
 20
-1386.15
 30
0.000000
  70
    32
  0
VERTEX
  8
01
  5
E5A8
 10
722.042
 20
-1386.13
 30
0.000000
  70
    32
  0
VERTEX
  8
01
  5
E5A9
 10
721.921
 20
-1386.12
 30
0.000000
  70
    32
  0
VERTEX
  8
01
  5
E5AA
 10
721.800
 20
-1386.10
 30
0.000000
  70
    32
  0
VERTEX
  8
01
  5
E5AB
 10
721.678
 20
-1386.09
 30
0.000000
  70
    32
  0
VERTEX
  8
01
  5
E5AC
 10
721.555
 20
-1386.09
 30
0.000000
  70
    32
  0
VERTEX
  8
01
  5
E5AD
 10
721.433
 20
-1386.08
 30
0.000000
  70
    32
  0
VERTEX
  8
01
  5
E5AE
 10
721.310
 20
-1386.08
 30
0.000000
  70
    32
  0
VERTEX
  8
01
  5
E5AF
 10
721.188
 20
-1386.08
 30
0.000000
  70
    32
  0
VERTEX
  8
01
  5
E5B0
 10
721.065
 20
-1386.08
 30
0.000000
  70
    32
  0
VERTEX
  8
01
  5
E5B1
 10
720.942
 20
-1386.08
 30
0.000000
  70
    32
  0
VERTEX
  8
01
  5
E5B2
 10
720.820
 20
-1386.09
 30
0.000000
  70
    32
  0
VERTEX
  8
01
  5
E5B3
 10
720.698
 20
-1386.09
 30
0.000000
  70
    32
  0
VERTEX
  8
01
  5
E5B4
 10
720.576
 20
-1386.10
 30
0.000000
  70
    32
  0
VERTEX
  8
01
  5
E5B5
 10
720.454
 20
-1386.12
 30
0.000000
  70
    32
  0
VERTEX
  8
01
  5
E5B6
 10
720.333
 20
-1386.13
 30
0.000000
  70
    32
  0
VERTEX
  8
01
  5
E5B7
 10
720.212
 20
-1386.15
 30
0.000000
  70
    32
  0
VERTEX
  8
01
  5
E5B8
 10
720.092
 20
-1386.16
 30
0.000000
  70
    32
  0
VERTEX
  8
01
  5
E5B9
 10
719.973
 20
-1386.18
 30
0.000000
  70
    32
  0
VERTEX
  8
01
  5
E5BA
 10
719.854
 20
-1386.21
 30
0.000000
  70
    32
  0
VERTEX
  8
01
  5
E5BB
 10
719.736
 20
-1386.23
 30
0.000000
  70
    32
  0
VERTEX
  8
01
  5
E5BC
 10
719.619
 20
-1386.26
 30
0.000000
  70
    32
  0
VERTEX
  8
01
  5
E5BD
 10
719.503
 20
-1386.29
 30
0.000000
  70
    32
  0
VERTEX
  8
01
  5
E5BE
 10
719.388
 20
-1386.32
 30
0.000000
  70
    32
  0
VERTEX
  8
01
  5
E5BF
 10
719.274
 20
-1386.35
 30
0.000000
  70
    32
  0
VERTEX
  8
01
  5
E5C0
 10
719.161
 20
-1386.38
 30
0.000000
  70
    32
  0
VERTEX
  8
01
  5
E5C1
 10
719.050
 20
-1386.42
 30
0.000000
  70
    32
  0
VERTEX
  8
01
  5
E5C2
 10
718.940
 20
-1386.46
 30
0.000000
  70
    32
  0
VERTEX
  8
01
  5
E5C3
 10
718.831
 20
-1386.50
 30
0.000000
  70
    32
  0
VERTEX
  8
01
  5
E5C4
 10
718.723
 20
-1386.54
 30
0.000000
  70
    32
  0
VERTEX
  8
01
  5
E5C5
 10
718.617
 20
-1386.58
 30
0.000000
  70
    32
  0
VERTEX
  8
01
  5
E5C6
 10
718.513
 20
-1386.63
 30
0.000000
  70
    32
  0
VERTEX
  8
01
  5
E5C7
 10
718.410
 20
-1386.68
 30
0.000000
  70
    32
  0
VERTEX
  8
01
  5
E5C8
 10
718.309
 20
-1386.73
 30
0.000000
  70
    32
  0
VERTEX
  8
01
  5
E5C9
 10
718.209
 20
-1386.78
 30
0.000000
  70
    32
  0
VERTEX
  8
01
  5
E5CA
 10
718.112
 20
-1386.83
 30
0.000000
  70
    32
  0
VERTEX
  8
01
  5
E5CB
 10
718.016
 20
-1386.89
 30
0.000000
  70
    32
  0
VERTEX
  8
01
  5
E5CC
 10
717.922
 20
-1386.94
 30
0.000000
  70
    32
  0
VERTEX
  8
01
  5
E5CD
 10
717.830
 20
-1387.00
 30
0.000000
  70
    32
  0
VERTEX
  8
01
  5
E5CE
 10
717.740
 20
-1387.06
 30
0.000000
  70
    32
  0
VERTEX
  8
01
  5
E5CF
 10
717.652
 20
-1387.12
 30
0.000000
  70
    32
  0
VERTEX
  8
01
  5
E5D0
 10
717.566
 20
-1387.18
 30
0.000000
  70
    32
  0
VERTEX
  8
01
  5
E5D1
 10
717.483
 20
-1387.25
 30
0.000000
  70
    32
  0
VERTEX
  8
01
  5
E5D2
 10
717.402
 20
-1387.31
 30
0.000000
  70
    32
  0
VERTEX
  8
01
  5
E5D3
 10
717.323
 20
-1387.38
 30
0.000000
  70
    32
  0
VERTEX
  8
01
  5
E5D4
 10
717.246
 20
-1387.45
 30
0.000000
  70
    32
  0
VERTEX
  8
01
  5
E5D5
 10
717.172
 20
-1387.52
 30
0.000000
  70
    32
  0
VERTEX
  8
01
  5
E5D6
 10
717.100
 20
-1387.59
 30
0.000000
  70
    32
  0
VERTEX
  8
01
  5
E5D7
 10
717.030
 20
-1387.66
 30
0.000000
  70
    32
  0
VERTEX
  8
01
  5
E5D8
 10
716.963
 20
-1387.74
 30
0.000000
  70
    32
  0
VERTEX
  8
01
  5
E5D9
 10
716.899
 20
-1387.81
 30
0.000000
  70
    32
  0
VERTEX
  8
01
  5
E5DA
 10
716.837
 20
-1387.89
 30
0.000000
  70
    32
  0
VERTEX
  8
01
  5
E5DB
 10
716.778
 20
-1387.96
 30
0.000000
  70
    32
  0
VERTEX
  8
01
  5
E5DC
 10
716.722
 20
-1388.04
 30
0.000000
  70
    32
  0
VERTEX
  8
01
  5
E5DD
 10
716.668
 20
-1388.12
 30
0.000000
  70
    32
  0
VERTEX
  8
01
  5
E5DE
 10
716.617
 20
-1388.20
 30
0.000000
  70
    32
  0
VERTEX
  8
01
  5
E5DF
 10
716.568
 20
-1388.28
 30
0.000000
  70
    32
  0
VERTEX
  8
01
  5
E5E0
 10
716.523
 20
-1388.36
 30
0.000000
  70
    32
  0
VERTEX
  8
01
  5
E5E1
 10
716.480
 20
-1388.44
 30
0.000000
  70
    32
  0
VERTEX
  8
01
  5
E5E2
 10
716.440
 20
-1388.53
 30
0.000000
  70
    32
  0
VERTEX
  8
01
  5
E5E3
 10
716.403
 20
-1388.61
 30
0.000000
  70
    32
  0
VERTEX
  8
01
  5
E5E4
 10
716.369
 20
-1388.69
 30
0.000000
  70
    32
  0
VERTEX
  8
01
  5
E5E5
 10
716.338
 20
-1388.78
 30
0.000000
  70
    32
  0
VERTEX
  8
01
  5
E5E6
 10
716.309
 20
-1388.86
 30
0.000000
  70
    32
  0
VERTEX
  8
01
  5
E5E7
 10
716.284
 20
-1388.95
 30
0.000000
  70
    32
  0
VERTEX
  8
01
  5
E5E8
 10
716.261
 20
-1389.04
 30
0.000000
  70
    32
  0
VERTEX
  8
01
  5
E5E9
 10
716.242
 20
-1389.12
 30
0.000000
  70
    32
  0
VERTEX
  8
01
  5
E5EA
 10
716.225
 20
-1389.21
 30
0.000000
  70
    32
  0
VERTEX
  8
01
  5
E5EB
 10
716.212
 20
-1389.30
 30
0.000000
  70
    32
  0
VERTEX
  8
01
  5
E5EC
 10
716.201
 20
-1389.38
 30
0.000000
  70
    32
  0
VERTEX
  8
01
  5
E5ED
 10
716.194
 20
-1389.47
 30
0.000000
  70
    32
  0
VERTEX
  8
01
  5
E5EE
 10
716.189
 20
-1389.56
 30
0.000000
  70
    32
  0
VERTEX
  8
01
  5
E5EF
 10
716.188
 20
-1389.65
 30
0.000000
  70
    32
  0
SEQEND
  8
01
  5
E5F0
  0
LINE
  5
DD47
  8
01
 10
721.18766916632421
 20
-1406.0767513893809
 30
0.0
 11
715.1876691663241
 21
-1406.0767513893809
 31
0.0
  0
LINE
  5
DD48
  8
01
 10
726.18766916632421
 20
-1401.07675138938
 30
0.0
 11
716.18766916632421
 21
-1401.07675138938
 31
0.0
  0
POLYLINE
  5
DD49
  8
01
 10
726.18766916632421
 20
-1402.5083313893799
 30
0.0
 66
     1
 70
     8
  0
VERTEX
  8
01
  5
E5F1
 10
726.188
 20
-1402.51
 30
0.000000
  70
    32
  0
VERTEX
  8
01
  5
E5F2
 10
726.186
 20
-1402.60
 30
0.000000
  70
    32
  0
VERTEX
  8
01
  5
E5F3
 10
726.182
 20
-1402.68
 30
0.000000
  70
    32
  0
VERTEX
  8
01
  5
E5F4
 10
726.174
 20
-1402.77
 30
0.000000
  70
    32
  0
VERTEX
  8
01
  5
E5F5
 10
726.164
 20
-1402.86
 30
0.000000
  70
    32
  0
VERTEX
  8
01
  5
E5F6
 10
726.150
 20
-1402.95
 30
0.000000
  70
    32
  0
VERTEX
  8
01
  5
E5F7
 10
726.134
 20
-1403.03
 30
0.000000
  70
    32
  0
VERTEX
  8
01
  5
E5F8
 10
726.114
 20
-1403.12
 30
0.000000
  70
    32
  0
VERTEX
  8
01
  5
E5F9
 10
726.092
 20
-1403.20
 30
0.000000
  70
    32
  0
VERTEX
  8
01
  5
E5FA
 10
726.066
 20
-1403.29
 30
0.000000
  70
    32
  0
VERTEX
  8
01
  5
E5FB
 10
726.038
 20
-1403.38
 30
0.000000
  70
    32
  0
VERTEX
  8
01
  5
E5FC
 10
726.007
 20
-1403.46
 30
0.000000
  70
    32
  0
VERTEX
  8
01
  5
E5FD
 10
725.972
 20
-1403.54
 30
0.000000
  70
    32
  0
VERTEX
  8
01
  5
E5FE
 10
725.935
 20
-1403.63
 30
0.000000
  70
    32
  0
VERTEX
  8
01
  5
E5FF
 10
725.895
 20
-1403.71
 30
0.000000
  70
    32
  0
VERTEX
  8
01
  5
E600
 10
725.853
 20
-1403.79
 30
0.000000
  70
    32
  0
VERTEX
  8
01
  5
E601
 10
725.807
 20
-1403.87
 30
0.000000
  70
    32
  0
VERTEX
  8
01
  5
E602
 10
725.759
 20
-1403.95
 30
0.000000
  70
    32
  0
VERTEX
  8
01
  5
E603
 10
725.708
 20
-1404.03
 30
0.000000
  70
    32
  0
VERTEX
  8
01
  5
E604
 10
725.654
 20
-1404.11
 30
0.000000
  70
    32
  0
VERTEX
  8
01
  5
E605
 10
725.597
 20
-1404.19
 30
0.000000
  70
    32
  0
VERTEX
  8
01
  5
E606
 10
725.538
 20
-1404.27
 30
0.000000
  70
    32
  0
VERTEX
  8
01
  5
E607
 10
725.476
 20
-1404.34
 30
0.000000
  70
    32
  0
VERTEX
  8
01
  5
E608
 10
725.412
 20
-1404.42
 30
0.000000
  70
    32
  0
VERTEX
  8
01
  5
E609
 10
725.345
 20
-1404.49
 30
0.000000
  70
    32
  0
VERTEX
  8
01
  5
E60A
 10
725.276
 20
-1404.56
 30
0.000000
  70
    32
  0
VERTEX
  8
01
  5
E60B
 10
725.204
 20
-1404.63
 30
0.000000
  70
    32
  0
VERTEX
  8
01
  5
E60C
 10
725.129
 20
-1404.70
 30
0.000000
  70
    32
  0
VERTEX
  8
01
  5
E60D
 10
725.053
 20
-1404.77
 30
0.000000
  70
    32
  0
VERTEX
  8
01
  5
E60E
 10
724.974
 20
-1404.84
 30
0.000000
  70
    32
  0
VERTEX
  8
01
  5
E60F
 10
724.892
 20
-1404.90
 30
0.000000
  70
    32
  0
VERTEX
  8
01
  5
E610
 10
724.809
 20
-1404.97
 30
0.000000
  70
    32
  0
VERTEX
  8
01
  5
E611
 10
724.723
 20
-1405.03
 30
0.000000
  70
    32
  0
VERTEX
  8
01
  5
E612
 10
724.635
 20
-1405.09
 30
0.000000
  70
    32
  0
VERTEX
  8
01
  5
E613
 10
724.545
 20
-1405.15
 30
0.000000
  70
    32
  0
VERTEX
  8
01
  5
E614
 10
724.454
 20
-1405.21
 30
0.000000
  70
    32
  0
VERTEX
  8
01
  5
E615
 10
724.360
 20
-1405.27
 30
0.000000
  70
    32
  0
VERTEX
  8
01
  5
E616
 10
724.264
 20
-1405.32
 30
0.000000
  70
    32
  0
VERTEX
  8
01
  5
E617
 10
724.166
 20
-1405.37
 30
0.000000
  70
    32
  0
VERTEX
  8
01
  5
E618
 10
724.067
 20
-1405.43
 30
0.000000
  70
    32
  0
VERTEX
  8
01
  5
E619
 10
723.966
 20
-1405.48
 30
0.000000
  70
    32
  0
VERTEX
  8
01
  5
E61A
 10
723.863
 20
-1405.52
 30
0.000000
  70
    32
  0
VERTEX
  8
01
  5
E61B
 10
723.758
 20
-1405.57
 30
0.000000
  70
    32
  0
VERTEX
  8
01
  5
E61C
 10
723.652
 20
-1405.61
 30
0.000000
  70
    32
  0
VERTEX
  8
01
  5
E61D
 10
723.545
 20
-1405.66
 30
0.000000
  70
    32
  0
VERTEX
  8
01
  5
E61E
 10
723.436
 20
-1405.70
 30
0.000000
  70
    32
  0
VERTEX
  8
01
  5
E61F
 10
723.325
 20
-1405.73
 30
0.000000
  70
    32
  0
VERTEX
  8
01
  5
E620
 10
723.214
 20
-1405.77
 30
0.000000
  70
    32
  0
VERTEX
  8
01
  5
E621
 10
723.101
 20
-1405.81
 30
0.000000
  70
    32
  0
VERTEX
  8
01
  5
E622
 10
722.987
 20
-1405.84
 30
0.000000
  70
    32
  0
VERTEX
  8
01
  5
E623
 10
722.872
 20
-1405.87
 30
0.000000
  70
    32
  0
VERTEX
  8
01
  5
E624
 10
722.756
 20
-1405.90
 30
0.000000
  70
    32
  0
VERTEX
  8
01
  5
E625
 10
722.639
 20
-1405.92
 30
0.000000
  70
    32
  0
VERTEX
  8
01
  5
E626
 10
722.521
 20
-1405.95
 30
0.000000
  70
    32
  0
VERTEX
  8
01
  5
E627
 10
722.403
 20
-1405.97
 30
0.000000
  70
    32
  0
VERTEX
  8
01
  5
E628
 10
722.283
 20
-1405.99
 30
0.000000
  70
    32
  0
VERTEX
  8
01
  5
E629
 10
722.163
 20
-1406.01
 30
0.000000
  70
    32
  0
VERTEX
  8
01
  5
E62A
 10
722.042
 20
-1406.02
 30
0.000000
  70
    32
  0
VERTEX
  8
01
  5
E62B
 10
721.921
 20
-1406.04
 30
0.000000
  70
    32
  0
VERTEX
  8
01
  5
E62C
 10
721.800
 20
-1406.05
 30
0.000000
  70
    32
  0
VERTEX
  8
01
  5
E62D
 10
721.678
 20
-1406.06
 30
0.000000
  70
    32
  0
VERTEX
  8
01
  5
E62E
 10
721.555
 20
-1406.07
 30
0.000000
  70
    32
  0
VERTEX
  8
01
  5
E62F
 10
721.433
 20
-1406.07
 30
0.000000
  70
    32
  0
VERTEX
  8
01
  5
E630
 10
721.310
 20
-1406.08
 30
0.000000
  70
    32
  0
VERTEX
  8
01
  5
E631
 10
721.188
 20
-1406.08
 30
0.000000
  70
    32
  0
VERTEX
  8
01
  5
E632
 10
721.065
 20
-1406.08
 30
0.000000
  70
    32
  0
VERTEX
  8
01
  5
E633
 10
720.942
 20
-1406.07
 30
0.000000
  70
    32
  0
VERTEX
  8
01
  5
E634
 10
720.820
 20
-1406.07
 30
0.000000
  70
    32
  0
VERTEX
  8
01
  5
E635
 10
720.698
 20
-1406.06
 30
0.000000
  70
    32
  0
VERTEX
  8
01
  5
E636
 10
720.576
 20
-1406.05
 30
0.000000
  70
    32
  0
VERTEX
  8
01
  5
E637
 10
720.454
 20
-1406.04
 30
0.000000
  70
    32
  0
VERTEX
  8
01
  5
E638
 10
720.333
 20
-1406.02
 30
0.000000
  70
    32
  0
VERTEX
  8
01
  5
E639
 10
720.212
 20
-1406.01
 30
0.000000
  70
    32
  0
VERTEX
  8
01
  5
E63A
 10
720.092
 20
-1405.99
 30
0.000000
  70
    32
  0
VERTEX
  8
01
  5
E63B
 10
719.973
 20
-1405.97
 30
0.000000
  70
    32
  0
VERTEX
  8
01
  5
E63C
 10
719.854
 20
-1405.95
 30
0.000000
  70
    32
  0
VERTEX
  8
01
  5
E63D
 10
719.736
 20
-1405.92
 30
0.000000
  70
    32
  0
VERTEX
  8
01
  5
E63E
 10
719.619
 20
-1405.90
 30
0.000000
  70
    32
  0
VERTEX
  8
01
  5
E63F
 10
719.503
 20
-1405.87
 30
0.000000
  70
    32
  0
VERTEX
  8
01
  5
E640
 10
719.388
 20
-1405.84
 30
0.000000
  70
    32
  0
VERTEX
  8
01
  5
E641
 10
719.274
 20
-1405.81
 30
0.000000
  70
    32
  0
VERTEX
  8
01
  5
E642
 10
719.161
 20
-1405.77
 30
0.000000
  70
    32
  0
VERTEX
  8
01
  5
E643
 10
719.050
 20
-1405.73
 30
0.000000
  70
    32
  0
VERTEX
  8
01
  5
E644
 10
718.940
 20
-1405.70
 30
0.000000
  70
    32
  0
VERTEX
  8
01
  5
E645
 10
718.831
 20
-1405.66
 30
0.000000
  70
    32
  0
VERTEX
  8
01
  5
E646
 10
718.723
 20
-1405.61
 30
0.000000
  70
    32
  0
VERTEX
  8
01
  5
E647
 10
718.617
 20
-1405.57
 30
0.000000
  70
    32
  0
VERTEX
  8
01
  5
E648
 10
718.513
 20
-1405.52
 30
0.000000
  70
    32
  0
VERTEX
  8
01
  5
E649
 10
718.410
 20
-1405.48
 30
0.000000
  70
    32
  0
VERTEX
  8
01
  5
E64A
 10
718.309
 20
-1405.43
 30
0.000000
  70
    32
  0
VERTEX
  8
01
  5
E64B
 10
718.209
 20
-1405.37
 30
0.000000
  70
    32
  0
VERTEX
  8
01
  5
E64C
 10
718.112
 20
-1405.32
 30
0.000000
  70
    32
  0
VERTEX
  8
01
  5
E64D
 10
718.016
 20
-1405.27
 30
0.000000
  70
    32
  0
VERTEX
  8
01
  5
E64E
 10
717.922
 20
-1405.21
 30
0.000000
  70
    32
  0
VERTEX
  8
01
  5
E64F
 10
717.830
 20
-1405.15
 30
0.000000
  70
    32
  0
VERTEX
  8
01
  5
E650
 10
717.740
 20
-1405.09
 30
0.000000
  70
    32
  0
VERTEX
  8
01
  5
E651
 10
717.652
 20
-1405.03
 30
0.000000
  70
    32
  0
VERTEX
  8
01
  5
E652
 10
717.566
 20
-1404.97
 30
0.000000
  70
    32
  0
VERTEX
  8
01
  5
E653
 10
717.483
 20
-1404.90
 30
0.000000
  70
    32
  0
VERTEX
  8
01
  5
E654
 10
717.402
 20
-1404.84
 30
0.000000
  70
    32
  0
VERTEX
  8
01
  5
E655
 10
717.323
 20
-1404.77
 30
0.000000
  70
    32
  0
VERTEX
  8
01
  5
E656
 10
717.246
 20
-1404.70
 30
0.000000
  70
    32
  0
VERTEX
  8
01
  5
E657
 10
717.172
 20
-1404.63
 30
0.000000
  70
    32
  0
VERTEX
  8
01
  5
E658
 10
717.100
 20
-1404.56
 30
0.000000
  70
    32
  0
VERTEX
  8
01
  5
E659
 10
717.030
 20
-1404.49
 30
0.000000
  70
    32
  0
VERTEX
  8
01
  5
E65A
 10
716.963
 20
-1404.42
 30
0.000000
  70
    32
  0
VERTEX
  8
01
  5
E65B
 10
716.899
 20
-1404.34
 30
0.000000
  70
    32
  0
VERTEX
  8
01
  5
E65C
 10
716.837
 20
-1404.27
 30
0.000000
  70
    32
  0
VERTEX
  8
01
  5
E65D
 10
716.778
 20
-1404.19
 30
0.000000
  70
    32
  0
VERTEX
  8
01
  5
E65E
 10
716.722
 20
-1404.11
 30
0.000000
  70
    32
  0
VERTEX
  8
01
  5
E65F
 10
716.668
 20
-1404.03
 30
0.000000
  70
    32
  0
VERTEX
  8
01
  5
E660
 10
716.617
 20
-1403.95
 30
0.000000
  70
    32
  0
VERTEX
  8
01
  5
E661
 10
716.568
 20
-1403.87
 30
0.000000
  70
    32
  0
VERTEX
  8
01
  5
E662
 10
716.523
 20
-1403.79
 30
0.000000
  70
    32
  0
VERTEX
  8
01
  5
E663
 10
716.480
 20
-1403.71
 30
0.000000
  70
    32
  0
VERTEX
  8
01
  5
E664
 10
716.440
 20
-1403.63
 30
0.000000
  70
    32
  0
VERTEX
  8
01
  5
E665
 10
716.403
 20
-1403.54
 30
0.000000
  70
    32
  0
VERTEX
  8
01
  5
E666
 10
716.369
 20
-1403.46
 30
0.000000
  70
    32
  0
VERTEX
  8
01
  5
E667
 10
716.338
 20
-1403.38
 30
0.000000
  70
    32
  0
VERTEX
  8
01
  5
E668
 10
716.309
 20
-1403.29
 30
0.000000
  70
    32
  0
VERTEX
  8
01
  5
E669
 10
716.284
 20
-1403.20
 30
0.000000
  70
    32
  0
VERTEX
  8
01
  5
E66A
 10
716.261
 20
-1403.12
 30
0.000000
  70
    32
  0
VERTEX
  8
01
  5
E66B
 10
716.242
 20
-1403.03
 30
0.000000
  70
    32
  0
VERTEX
  8
01
  5
E66C
 10
716.225
 20
-1402.95
 30
0.000000
  70
    32
  0
VERTEX
  8
01
  5
E66D
 10
716.212
 20
-1402.86
 30
0.000000
  70
    32
  0
VERTEX
  8
01
  5
E66E
 10
716.201
 20
-1402.77
 30
0.000000
  70
    32
  0
VERTEX
  8
01
  5
E66F
 10
716.194
 20
-1402.68
 30
0.000000
  70
    32
  0
VERTEX
  8
01
  5
E670
 10
716.189
 20
-1402.60
 30
0.000000
  70
    32
  0
VERTEX
  8
01
  5
E671
 10
716.188
 20
-1402.51
 30
0.000000
  70
    32
  0
SEQEND
  8
01
  5
E672
  0
LINE
  5
DD4A
  8
01
 10
726.18766916632421
 20
-1389.64517138938
 30
0.0
 11
726.18766916632421
 21
-1402.5083313893811
 31
0.0
  0
LINE
  5
DD4B
  8
01
 10
716.18766916632421
 20
-1389.64517138938
 30
0.0
 11
716.18766916632421
 21
-1402.5083313893781
 31
0.0
  0
LINE
  5
DD4C
  8
01
 10
712.18765416632459
 20
-1356.07675138938
 30
0.0
 11
711.18765416632459
 21
-1355.07675138938
 31
0.0
  0
LINE
  5
DD4D
  8
01
 10
713.58767116632453
 20
-1355.9767713893809
 30
0.0
 11
712.78769016632441
 21
-1355.17679138938
 31
0.0
  0
LINE
  5
DD4E
  8
01
 10
713.58767116632453
 20
-1438.1767613893801
 30
0.0
 11
712.78766816632424
 21
-1438.9767413893801
 31
0.0
  0
LINE
  5
DD4F
  8
01
 10
712.18761616632435
 20
-1438.0767813893799
 30
0.0
 11
711.18763116632397
 21
-1439.0767813893799
 31
0.0
  0
LINE
  5
DD50
  8
01
 10
715.1876691663241
 20
-1462.07675138938
 30
0.0
 11
711.1876691663241
 21
-1462.07675138938
 31
0.0
  0
LINE
  5
DD51
  8
01
 10
712.78767516632468
 20
-1462.07675138938
 30
0.0
 11
712.78767516632468
 21
-1438.9767413893801
 31
0.0
  0
LINE
  5
DD52
  8
01
 10
711.1876691663241
 20
-1462.07675138938
 30
0.0
 11
711.1876691663241
 21
-1439.07675138938
 31
0.0
  0
LINE
  5
DD53
  8
01
 10
712.18766916632421
 20
-1356.07675138938
 30
0.0
 11
712.18766916632421
 21
-1438.07675138938
 31
0.0
  0
LINE
  5
DD54
  8
01
 10
715.1876691663241
 20
-1332.07675138938
 30
0.0
 11
711.1876691663241
 21
-1332.07675138938
 31
0.0
  0
LINE
  5
DD55
  8
01
 10
821.6876691663241
 20
-1338.07675138938
 30
0.0
 11
821.6876691663241
 21
-1456.0767513893809
 31
0.0
  0
LINE
  5
DD56
  8
01
 10
846.6876691663241
 20
-1338.07675138938
 30
0.0
 11
846.6876691663241
 21
-1456.0767513893809
 31
0.0
  0
ARC
  5
DD57
  8
01
 10
840.68766916632421
 20
-1456.0767513893809
 30
0.0
 40
6.0
 50
270.0
 51
0.0
  0
ARC
  5
DD58
  8
01
 10
827.6876691663241
 20
-1456.0767513893809
 30
0.0
 40
6.0
 50
180.0
 51
270.0
  0
LINE
  5
DD59
  8
01
 10
841.9376691663241
 20
-1389.64517138938
 30
0.0
 11
841.9376691663241
 21
-1402.5083313893799
 31
0.0
  0
LINE
  5
DD5A
  8
01
 10
840.93766916632421
 20
-1391.0767513893809
 30
0.0
 11
840.93766916632421
 21
-1401.07675138938
 31
0.0
  0
LINE
  5
DD5B
  8
01
 10
827.43766916632421
 20
-1391.0767513893809
 30
0.0
 11
827.43766916632421
 21
-1401.07675138938
 31
0.0
  0
LINE
  5
DD5C
  8
01
 10
826.43766916632421
 20
-1389.64517138938
 30
0.0
 11
826.43766916632421
 21
-1402.5083313893799
 31
0.0
  0
ARC
  5
DD5D
  8
01
 10
834.1876691663241
 20
-1395.87674138938
 30
0.0
 40
10.199999999999999
 50
220.55307999997021
 51
319.44692000002982
  0
LINE
  5
DD5E
  8
01
 10
827.43766916632421
 20
-1401.07675138938
 30
0.0
 11
840.93766916632421
 21
-1401.07675138938
 31
0.0
  0
LINE
  5
DD5F
  8
01
 10
827.43766916632421
 20
-1391.0767513893809
 30
0.0
 11
840.93766916632421
 21
-1391.0767513893809
 31
0.0
  0
ARC
  5
DD60
  8
01
 10
834.1876691663241
 20
-1396.27676138938
 30
0.0
 40
10.199999999999999
 50
40.553083999981077
 51
139.44692000002979
  0
CIRCLE
  5
DD61
  8
01
 10
834.1876691663241
 20
-1454.07675138938
 30
0.0
 40
4.5
  0
CIRCLE
  5
DD62
  8
01
 10
834.1876691663241
 20
-1454.07675138938
 30
0.0
 40
2.75
  0
LINE
  5
DD63
  8
01
 10
827.6876691663241
 20
-1462.07675138938
 30
0.0
 11
840.68766916632421
 21
-1462.07675138938
 31
0.0
  0
ARC
  5
DD64
  8
01
 10
840.68766916632421
 20
-1338.07675138938
 30
0.0
 40
6.0
 50
0.0
 51
90.0
  0
ARC
  5
DD66
  8
01
 10
827.6876691663241
 20
-1338.07675138938
 30
0.0
 40
6.0
 50
90.0
 51
180.0
  0
LINE
  5
DD67
  8
01
 10
827.6876691663241
 20
-1332.07675138938
 30
0.0
 11
840.68766916632421
 21
-1332.07675138938
 31
0.0
  0
CIRCLE
  5
DD68
  8
01
 10
834.1876691663241
 20
-1340.07675138938
 30
0.0
 40
4.5
  0
CIRCLE
  5
DD69
  8
01
 10
834.1876691663241
 20
-1340.07675138938
 30
0.0
 40
2.75
  0
LINE
  5
DD6D
  8
01
 10
955.58767516632406
 20
-1332.07675138938
 30
0.0
 11
955.58767516632406
 21
-1355.17672138938
 31
0.0
  0
LINE
  5
DD6E
  8
01
 10
957.18766516632468
 20
-1332.07675138938
 30
0.0
 11
957.18766516632468
 21
-1355.07675138938
 31
0.0
  0
LINE
  5
DD6F
  8
01
 10
954.78767516632468
 20
-1332.07675138938
 30
0.0
 11
954.78767516632468
 21
-1462.07675138938
 31
0.0
  0
LINE
  5
DD70
  8
01
 10
953.18766516632456
 20
-1332.07675138938
 30
0.0
 11
953.18766516632456
 21
-1462.07675138938
 31
0.0
  0
LINE
  5
DD72
  8
01
 10
956.18766516632468
 20
-1434.0767513893809
 30
0.0
 11
984.97829245402625
 21
-1434.0767513893809
 31
0.0
  0
LINE
  5
DD73
  8
01
 10
984.97829245402545
 20
-1434.07675138938
 30
0.0
 11
1022.187665166325
 21
-1434.0767513893809
 31
0.0
  0
LINE
  5
DD74
  8
01
 10
956.18767516632454
 20
-1356.07675138938
 30
0.0
 11
957.18767516632454
 21
-1355.07675138938
 31
0.0
  0
LINE
  5
DD75
  8
01
 10
954.78766516632504
 20
-1355.9767713893809
 30
0.0
 11
955.58767516632406
 21
-1355.17672138938
 31
0.0
  0
LINE
  5
DD76
  8
01
 10
946.18766516632456
 20
-1386.0767513893809
 30
0.0
 11
953.18766516632456
 21
-1386.0767513893809
 31
0.0
  0
LINE
  5
DD77
  8
01
 10
946.18766516632456
 20
-1406.0767513893809
 30
0.0
 11
953.18766516632456
 21
-1406.0767513893809
 31
0.0
  0
LINE
  5
DD78
  8
01
 10
942.26976516632431
 20
-1402.8830213893809
 30
0.0
 11
953.18766516632456
 21
-1402.8830213893809
 31
0.0
  0
LINE
  5
DD79
  8
01
 10
942.26976516632431
 20
-1389.27047138938
 30
0.0
 11
953.18766516632456
 21
-1389.27047138938
 31
0.0
  0
LINE
  5
DD7A
  8
01
 10
942.18766516632468
 20
-1390.0767513893809
 30
0.0
 11
942.18766516632468
 21
-1402.0767513893809
 31
0.0
  0
ARC
  5
DD7B
  8
01
 10
946.18766516632456
 20
-1402.0767513893809
 30
0.0
 40
4.0
 50
179.999989999999
 51
270.0
  0
ARC
  5
DD7C
  8
01
 10
946.18766516632456
 20
-1390.0767513893809
 30
0.0
 40
4.0
 50
90.000002999984659
 51
180.000010000001
  0
LINE
  5
DD7D
  8
01
 10
954.78766516632504
 20
-1438.1767613893801
 30
0.0
 11
955.58767516632406
 21
-1438.9767413893801
 31
0.0
  0
LINE
  5
DD7E
  8
01
 10
956.18771516632512
 20
-1438.0767813893799
 30
0.0
 11
957.18769516632403
 21
-1439.07675138938
 31
0.0
  0
LINE
  5
DD7F
  8
01
 10
948.18766516632468
 20
-1454.07675138938
 30
0.0
 11
962.18766516632456
 21
-1454.07675138938
 31
0.0
  0
LINE
  5
DD80
  8
01
 10
953.18766516632456
 20
-1462.07675138938
 30
0.0
 11
957.18766516632468
 21
-1462.07675138938
 31
0.0
  0
LINE
  5
DD81
  8
01
 10
955.58767516632406
 20
-1462.07675138938
 30
0.0
 11
955.58767516632406
 21
-1438.9767413893801
 31
0.0
  0
LINE
  5
DD82
  8
01
 10
957.18766516632468
 20
-1462.07675138938
 30
0.0
 11
957.18766516632468
 21
-1439.07675138938
 31
0.0
  0
LINE
  5
DD83
  8
01
 10
956.18766516632468
 20
-1356.07675138938
 30
0.0
 11
956.18766516632468
 21
-1438.07675138938
 31
0.0
  0
LINE
  5
DD84
  8
01
 10
1022.187665166325
 20
-1370.8253852399041
 30
0.0
 11
1022.187665166325
 21
-1400.7273998164831
 31
0.0
  0
LINE
  5
DD85
  8
01
 10
1022.187665166325
 20
-1400.7273998164831
 30
0.0
 11
1022.187665166325
 21
-1434.0767513893809
 31
0.0
  0
LINE
  5
DD87
  8
01
 10
953.18766516632456
 20
-1332.07675138938
 30
0.0
 11
957.18766516632468
 21
-1332.07675138938
 31
0.0
  0
LINE
  5
DD88
  8
01
 10
948.18766516632468
 20
-1340.07675138938
 30
0.0
 11
962.18766516632456
 21
-1340.07675138938
 31
0.0
  0
LINE
  5
DD89
  8
01
 10
720.18767316632375
 20
-1454.07675138938
 30
0.0
 11
706.18767316632375
 21
-1454.07675138938
 31
0.0
  0
LINE
  5
DD8A
  8
01
 10
720.18767316632375
 20
-1340.07675138938
 30
0.0
 11
706.18767316632375
 21
-1340.07675138938
 31
0.0
  0
LINE
  5
DD8B
  8
01
 10
840.68766916632421
 20
-1340.07675138938
 30
0.0
 11
827.6876691663241
 21
-1340.07675138938
 31
0.0
  0
LINE
  5
DD8C
  8
01
 10
834.1876691663241
 20
-1333.5767513893809
 30
0.0
 11
834.1876691663241
 21
-1346.57675138938
 31
0.0
  0
LINE
  5
DD8D
  8
01
 10
840.68766916632421
 20
-1454.07675138938
 30
0.0
 11
827.6876691663241
 21
-1454.07675138938
 31
0.0
  0
LINE
  5
DD8E
  8
01
 10
834.1876691663241
 20
-1447.57675138938
 30
0.0
 11
834.1876691663241
 21
-1460.5767513893809
 31
0.0
  0
LINE
  5
DD8F
  8
01
 10
694.18767316632375
 20
-1418.0767513893809
 30
0.0
 11
634.18767316632375
 21
-1418.0767513893809
 31
0.0
  0
LINE
  5
DD90
  8
01
 10
664.18767316632375
 20
-1388.0767513893809
 30
0.0
 11
664.18767316632375
 21
-1448.0767513893809
 31
0.0
  0
LINE
  5
DD91
  8
01
 10
974.18766516632468
 20
-1418.0767513893809
 30
0.0
 11
1034.187665166324
 21
-1418.0767513893809
 31
0.0
  0
LINE
  5
DD92
  8
01
 10
1004.187665166324
 20
-1388.0767513893809
 30
0.0
 11
1004.187665166324
 21
-1448.0767513893809
 31
0.0
  0
POINT
  5
DD93
  8
01
 10
868.78766990942086
 20
-1418.0767513893809
 30
0.0
  0
LINE
  5
DD94
  8
01
 10
868.38766989942087
 20
-1419.82675138938
 30
0.0
 11
868.38766989942087
 21
-1418.9767513693801
 31
0.0
  0
LINE
  5
DD95
  8
01
 10
869.18766991942084
 20
-1419.82675138938
 30
0.0
 11
869.18766991942084
 21
-1418.9767513693801
 31
0.0
  0
LINE
  5
DD96
  8
01
 10
867.88766992942101
 20
-1418.4767513993811
 30
0.0
 11
867.03766990942086
 21
-1418.4767513993811
 31
0.0
  0
LINE
  5
DD97
  8
01
 10
867.88766992942101
 20
-1417.6767513793809
 30
0.0
 11
867.03766990942086
 21
-1417.6767513793809
 31
0.0
  0
LINE
  5
DD98
  8
01
 10
867.03766990942086
 20
-1418.4767513993811
 30
0.0
 11
867.03766990942086
 21
-1417.6767513793809
 31
0.0
  0
LINE
  5
DD99
  8
01
 10
869.18766991942084
 20
-1419.82675138938
 30
0.0
 11
868.38766989942087
 21
-1419.82675138938
 31
0.0
  0
LINE
  5
DD9A
  8
01
 10
869.18766991942084
 20
-1416.32675138938
 30
0.0
 11
869.18766991942084
 21
-1417.176751409381
 31
0.0
  0
LINE
  5
DD9B
  8
01
 10
868.38766989942087
 20
-1416.32675138938
 30
0.0
 11
868.38766989942087
 21
-1417.176751409381
 31
0.0
  0
LINE
  5
DD9C
  8
01
 10
869.6876698894207
 20
-1417.6767513793809
 30
0.0
 11
870.53766990942086
 21
-1417.6767513793809
 31
0.0
  0
LINE
  5
DD9D
  8
01
 10
869.6876698894207
 20
-1418.4767513993811
 30
0.0
 11
870.53766990942086
 21
-1418.4767513993811
 31
0.0
  0
LINE
  5
DD9E
  8
01
 10
870.53766990942086
 20
-1417.6767513793809
 30
0.0
 11
870.53766990942086
 21
-1418.4767513993811
 31
0.0
  0
LINE
  5
DD9F
  8
01
 10
868.38766989942087
 20
-1416.32675138938
 30
0.0
 11
869.18766991942084
 21
-1416.32675138938
 31
0.0
  0
CIRCLE
  5
DDA0
  8
01
 10
868.78766990942086
 20
-1418.0767513893809
 30
0.0
 40
2.5
  0
ARC
  5
DDA1
  8
01
 10
869.6876698894207
 20
-1417.176751409381
 30
0.0
 40
0.5
 50
179.999989999999
 51
270.0
  0
ARC
  5
DDA2
  8
01
 10
869.6876698894207
 20
-1418.9767513693801
 30
0.0
 40
0.5
 50
90.00000299999769
 51
180.000010000001
  0
ARC
  5
DDA3
  8
01
 10
867.88766992942101
 20
-1418.9767513693801
 30
0.0
 40
0.5
 50
0.0
 51
90.00000299999769
  0
ARC
  5
DDA4
  8
01
 10
867.88766992942101
 20
-1417.176751409381
 30
0.0
 40
0.5
 50
270.0
 51
0.0
  0
POINT
  5
DDA6
  8
01
 10
799.58766842322984
 20
-1418.0767513893809
 30
0.0
 50
180.0
  0
CIRCLE
  5
DDA7
  8
01
 10
799.58766842322984
 20
-1418.0767513893809
 30
0.0
 40
2.5
  0
LINE
  5
DDAA
  8
01
 10
651.18766516632331
 20
-1368.0767513893809
 30
0.0
 11
677.18766516632331
 21
-1368.0767513893809
 31
0.0
  0
LINE
  5
DDAB
  8
01
 10
686.68766516632331
 20
-1362.57675138938
 30
0.0
 11
641.6876651663232
 21
-1362.57675138938
 31
0.0
  0
LINE
  5
DDAC
  8
01
 10
664.18766516632331
 20
-1340.07675138938
 30
0.0
 11
664.18766516632331
 21
-1385.07675138938
 31
0.0
  0
LINE
  5
DDAD
  8
01
 10
1017.187673166325
 20
-1368.0767513893809
 30
0.0
 11
991.18767316632545
 21
-1368.0767513893809
 31
0.0
  0
LINE
  5
DDAE
  8
01
 10
981.68767316632545
 20
-1362.57675138938
 30
0.0
 11
1026.6876731663251
 21
-1362.57675138938
 31
0.0
  0
LINE
  5
DDAF
  8
01
 10
1004.187673166325
 20
-1340.07675138938
 30
0.0
 11
1004.187673166325
 21
-1385.07675138938
 31
0.0
  0
LINE
  5
DDB4
  8
01
 10
784.18766916632421
 20
-1418.0767513893809
 30
0.0
 11
819.18766916632421
 21
-1418.0767513893809
 31
0.0
  0
LINE
  5
DDB5
  8
01
 10
849.1876691663241
 20
-1418.0767513893809
 30
0.0
 11
884.18766916632433
 21
-1418.0767513893809
 31
0.0
  0
ARC
  5
DDB8
  8
01
 10
1004.187665166324
 20
-1418.0767513893809
 30
0.0
 40
25.0
 50
25.594552278391891
 51
334.4054477216082
  0
LINE
  5
DDB9
  8
01
 10
863.28766990941983
 20
-1428.8767513893811
 30
0.0
 11
905.98489427169045
 21
-1428.8767513893811
 31
0.0
  0
LINE
  5
DDBA
  8
01
 10
863.28766990941983
 20
-1407.27675138938
 30
0.0
 11
905.98489427168658
 21
-1407.27675138938
 31
0.0
  0
LINE
  5
DDBB
  8
01
 10
863.28766990941983
 20
-1407.27675138938
 30
0.0
 11
863.28766990941983
 21
-1428.8767513893811
 31
0.0
  0
ARC
  5
DDBC
  8
01
 10
907.28766990942177
 20
-1425.5767513893809
 30
0.0
 40
1.0
 50
303.69006752596351
 51
56.309932474036472
  0
ARC
  5
DDBD
  8
01
 10
907.28766990942177
 20
-1422.5767513893809
 30
0.0
 40
1.0
 50
303.69006752596351
 51
56.309932474036472
  0
ARC
  5
DDBE
  8
01
 10
908.28766990942165
 20
-1424.0767513893809
 30
0.0
 40
0.802775637732001
 50
123.6900675259635
 51
236.30993247403649
  0
ARC
  5
DDBF
  8
01
 10
908.28766990942165
 20
-1427.0767513893809
 30
0.0
 40
0.802775637732001
 50
123.6900675259635
 51
180.0
  0
LINE
  5
DDC1
  8
01
 10
907.48489427169034
 20
-1427.07675138938
 30
0.0
 11
907.48489427169034
 21
-1427.3767513893811
 31
0.0
  0
ARC
  5
DDC2
  8
01
 10
905.98489427169045
 20
-1427.3767513893811
 30
0.0
 40
1.5
 50
270.0
 51
0.0
  0
LINE
  5
DDC3
  8
01
 10
907.48489427168761
 20
-1408.7767513893691
 30
0.0
 11
907.48489427169034
 21
-1409.07675138938
 31
0.0
  0
ARC
  5
DDC4
  8
01
 10
907.28766990942177
 20
-1416.5767513893809
 30
0.0
 40
1.0
 50
303.69006752596351
 51
56.309932474036472
  0
ARC
  5
DDC5
  8
01
 10
908.28766990942165
 20
-1415.0767513893809
 30
0.0
 40
0.8027756377319024
 50
123.6900675259635
 51
236.30993247403649
  0
ARC
  5
DDC6
  8
01
 10
907.28766990942177
 20
-1413.5767513893809
 30
0.0
 40
1.0
 50
303.69006752596351
 51
56.309932474036472
  0
ARC
  5
DDC7
  8
01
 10
908.28766990942165
 20
-1412.0767513893809
 30
0.0
 40
0.8027756377319891
 50
123.6900675259635
 51
236.30993247403649
  0
ARC
  5
DDC9
  8
01
 10
908.28766990942165
 20
-1409.0767513893809
 30
0.0
 40
0.8027756377320127
 50
180.0
 51
236.30993247403649
  0
ARC
  5
DDCB
  8
01
 10
907.28766990942177
 20
-1410.5767513893809
 30
0.0
 40
1.0
 50
303.69006752596351
 51
56.309932474036472
  0
ARC
  5
DDCC
  8
01
 10
908.28766990942165
 20
-1418.0767513893809
 30
0.0
 40
0.802775637731926
 50
123.6900675259635
 51
236.30993247403649
  0
ARC
  5
DDCD
  8
01
 10
907.28766990942177
 20
-1419.5767513893809
 30
0.0
 40
1.0
 50
303.69006752596351
 51
56.309932474036472
  0
ARC
  5
DDCE
  8
01
 10
908.28766990942165
 20
-1421.0767513893809
 30
0.0
 40
0.802775637732001
 50
123.6900675259635
 51
236.30993247403649
  0
ARC
  5
DDCF
  8
01
 10
905.98489427168658
 20
-1408.7767513893809
 30
0.0
 40
1.5
 50
0.0000000004168817
 51
90.0
  0
LINE
  5
DDD0
  8
01
 10
994.88766516632529
 20
-1428.876751389382
 30
0.0
 11
1119.6876651663249
 21
-1428.8767513893811
 31
0.0
  0
LINE
  5
DDD1
  8
01
 10
994.88766516632438
 20
-1407.27675138938
 30
0.0
 11
1119.6876651663249
 21
-1407.27675138938
 31
0.0
  0
LINE
  5
DDD2
  8
01
 10
993.3876651663245
 20
-1410.5767513893809
 30
0.0
 11
1121.187665166324
 21
-1410.57675138938
 31
0.0
  0
LINE
  5
DDD3
  8
01
 10
993.3876651663245
 20
-1413.5767513893809
 30
0.0
 11
1121.187665166324
 21
-1413.5767513893809
 31
0.0
  0
LINE
  5
DDD4
  8
01
 10
993.3876651663245
 20
-1416.5767513893809
 30
0.0
 11
1121.187665166324
 21
-1416.57675138938
 31
0.0
  0
LINE
  5
DDD5
  8
01
 10
993.38766516632541
 20
-1419.5767513893809
 30
0.0
 11
1121.187665166324
 21
-1419.5767513893809
 31
0.0
  0
LINE
  5
DDD6
  8
01
 10
993.38766516632541
 20
-1422.5767513893809
 30
0.0
 11
1121.187665166324
 21
-1422.5767513893809
 31
0.0
  0
LINE
  5
DDD7
  8
01
 10
993.38766516632541
 20
-1425.5767513893809
 30
0.0
 11
1121.187665166324
 21
-1425.57675138938
 31
0.0
  0
ARC
  5
DDD8
  8
01
 10
994.88766516632529
 20
-1427.376751389382
 30
0.0
 40
1.5
 50
180.0
 51
270.0
  0
LINE
  5
DDD9
  8
01
 10
993.38766516632541
 20
-1427.376751389382
 30
0.0
 11
993.3876651663245
 21
-1408.77675138938
 31
0.0
  0
ARC
  5
DDDA
  8
01
 10
994.88766516632438
 20
-1408.77675138938
 30
0.0
 40
1.5
 50
90.0
 51
180.0
  0
ARC
  5
DDDB
  8
01
 10
1119.6876651663249
 20
-1427.3767513893811
 30
0.0
 40
1.5
 50
270.0
 51
0.0
  0
LINE
  5
DDDC
  8
01
 10
1121.187665166324
 20
-1427.3767513893811
 30
0.0
 11
1121.187665166324
 21
-1408.77675138938
 31
0.0
  0
ARC
  5
DDDD
  8
01
 10
1119.6876651663249
 20
-1408.77675138938
 30
0.0
 40
1.5
 50
0.0
 51
90.0
  0
ARC
  5
DDDE
  8
01
 10
664.18767316632375
 20
-1418.0767513893809
 30
0.0
 40
25.0
 50
205.59455227839189
 51
154.40544772160811
  0
LINE
  5
DDDF
  8
01
 10
805.08766842323064
 20
-1428.8767513893811
 30
0.0
 11
762.39044406096025
 21
-1428.8767513893811
 31
0.0
  0
LINE
  5
DDE0
  8
01
 10
805.08766842323064
 20
-1407.27675138938
 30
0.0
 11
762.39044406096389
 21
-1407.27675138938
 31
0.0
  0
LINE
  5
DDE1
  8
01
 10
805.08766842323064
 20
-1407.27675138938
 30
0.0
 11
805.08766842323064
 21
-1428.8767513893811
 31
0.0
  0
ARC
  5
DDE2
  8
01
 10
761.08766842322893
 20
-1425.5767513893809
 30
0.0
 40
1.0
 50
123.6900675259635
 51
236.30993247403649
  0
ARC
  5
DDE3
  8
01
 10
761.08766842322893
 20
-1422.5767513893809
 30
0.0
 40
1.0
 50
123.6900675259635
 51
236.30993247403649
  0
ARC
  5
DDE4
  8
01
 10
760.08766842322893
 20
-1424.0767513893809
 30
0.0
 40
0.802775637732001
 50
303.69006752596351
 51
56.309932474036472
  0
ARC
  5
DDE5
  8
01
 10
760.08766842322893
 20
-1427.0767513893809
 30
0.0
 40
0.802775637732001
 50
0.0
 51
56.309932474036472
  0
LINE
  5
DDE7
  8
01
 10
760.89044406096025
 20
-1427.07675138938
 30
0.0
 11
760.89044406096025
 21
-1427.3767513893811
 31
0.0
  0
ARC
  5
DDE8
  8
01
 10
762.39044406096025
 20
-1427.3767513893811
 30
0.0
 40
1.5
 50
180.0
 51
270.0
  0
LINE
  5
DDE9
  8
01
 10
760.89044406096309
 20
-1408.7767513893691
 30
0.0
 11
760.89044406096025
 21
-1409.07675138938
 31
0.0
  0
ARC
  5
DDEA
  8
01
 10
761.08766842322893
 20
-1416.5767513893809
 30
0.0
 40
1.0
 50
123.6900675259635
 51
236.30993247403649
  0
ARC
  5
DDEB
  8
01
 10
760.08766842322893
 20
-1415.0767513893809
 30
0.0
 40
0.8027756377319024
 50
303.69006752596351
 51
56.309932474036472
  0
ARC
  5
DDEC
  8
01
 10
761.08766842322893
 20
-1413.5767513893809
 30
0.0
 40
1.0
 50
123.6900675259635
 51
236.30993247403649
  0
ARC
  5
DDED
  8
01
 10
760.08766842322893
 20
-1412.0767513893809
 30
0.0
 40
0.8027756377319891
 50
303.69006752596351
 51
56.309932474036472
  0
ARC
  5
DDEF
  8
01
 10
760.08766842322893
 20
-1409.0767513893809
 30
0.0
 40
0.8027756377320127
 50
303.69006752596351
 51
0.0
  0
ARC
  5
DDF1
  8
01
 10
761.08766842322893
 20
-1410.5767513893809
 30
0.0
 40
1.0
 50
123.6900675259635
 51
236.30993247403649
  0
ARC
  5
DDF2
  8
01
 10
760.08766842322893
 20
-1418.0767513893809
 30
0.0
 40
0.802775637731926
 50
303.69006752596351
 51
56.309932474036472
  0
ARC
  5
DDF3
  8
01
 10
761.08766842322893
 20
-1419.5767513893809
 30
0.0
 40
1.0
 50
123.6900675259635
 51
236.30993247403649
  0
ARC
  5
DDF4
  8
01
 10
760.08766842322893
 20
-1421.0767513893809
 30
0.0
 40
0.802775637732001
 50
303.69006752596351
 51
56.309932474036472
  0
ARC
  5
DDF5
  8
01
 10
762.39044406096389
 20
-1408.7767513893809
 30
0.0
 40
1.5
 50
90.0
 51
179.99999999958311
  0
LINE
  5
DDF6
  8
01
 10
673.48767316632302
 20
-1428.876751389382
 30
0.0
 11
548.68767316632375
 21
-1428.8767513893811
 31
0.0
  0
LINE
  5
DDF7
  8
01
 10
673.48767316632393
 20
-1407.27675138938
 30
0.0
 11
548.68767316632375
 21
-1407.27675138938
 31
0.0
  0
LINE
  5
DDF8
  8
01
 10
674.98767316632393
 20
-1410.5767513893809
 30
0.0
 11
547.18767316632375
 21
-1410.57675138938
 31
0.0
  0
LINE
  5
DDF9
  8
01
 10
674.98767316632393
 20
-1413.5767513893809
 30
0.0
 11
547.18767316632375
 21
-1413.5767513893809
 31
0.0
  0
LINE
  5
DDFA
  8
01
 10
674.98767316632393
 20
-1416.5767513893809
 30
0.0
 11
547.18767316632375
 21
-1416.57675138938
 31
0.0
  0
LINE
  5
DDFB
  8
01
 10
674.98767316632291
 20
-1419.5767513893809
 30
0.0
 11
547.18767316632375
 21
-1419.5767513893809
 31
0.0
  0
LINE
  5
DDFC
  8
01
 10
674.98767316632291
 20
-1422.5767513893809
 30
0.0
 11
547.18767316632375
 21
-1422.5767513893809
 31
0.0
  0
LINE
  5
DDFD
  8
01
 10
674.98767316632291
 20
-1425.5767513893809
 30
0.0
 11
547.18767316632375
 21
-1425.57675138938
 31
0.0
  0
ARC
  5
DDFE
  8
01
 10
673.48767316632302
 20
-1427.376751389382
 30
0.0
 40
1.5
 50
270.0
 51
0.0
  0
LINE
  5
DDFF
  8
01
 10
674.98767316632291
 20
-1427.376751389382
 30
0.0
 11
674.98767316632393
 21
-1408.77675138938
 31
0.0
  0
ARC
  5
DE00
  8
01
 10
673.48767316632393
 20
-1408.77675138938
 30
0.0
 40
1.5
 50
0.0
 51
90.0
  0
ARC
  5
DE01
  8
01
 10
548.68767316632375
 20
-1427.3767513893811
 30
0.0
 40
1.5
 50
180.0
 51
270.0
  0
LINE
  5
DE02
  8
01
 10
547.18767316632375
 20
-1427.3767513893811
 30
0.0
 11
547.18767316632375
 21
-1408.77675138938
 31
0.0
  0
ARC
  5
DE03
  8
01
 10
548.68767316632375
 20
-1408.77675138938
 30
0.0
 40
1.5
 50
90.0
 51
180.0
  0
LINE
  5
DE07
  8
01
 10
957.18854934838453
 20
-1138.5767513904091
 30
0.0
 11
1023.188549348384
 21
-1138.5767513904091
 31
0.0
  0
LINE
  5
DE08
  8
01
 10
957.18854934838453
 20
-1140.1767213904091
 30
0.0
 11
1023.188549348384
 21
-1140.1767213904091
 31
0.0
  0
LINE
  5
DE09
  8
01
 10
954.78855934838475
 20
-1157.5767513904091
 30
0.0
 11
1023.188549348384
 21
-1157.5767513904091
 31
0.0
  0
LINE
  5
DE0A
  8
01
 10
956.38853934838562
 20
-1143.0767513904091
 30
0.0
 11
957.18854934838453
 21
-1142.276731390408
 31
0.0
  0
LINE
  5
DE0B
  8
01
 10
957.18854934838453
 20
-1137.5767513904091
 30
0.0
 11
957.18854934838453
 21
-1142.276731390408
 31
0.0
  0
LINE
  5
DE0C
  8
01
 10
954.78855934838475
 20
-1143.0767213904089
 30
0.0
 11
955.5885493483861
 21
-1142.2767613904091
 31
0.0
  0
LINE
  5
DE0D
  8
01
 10
942.18854934838475
 20
-1155.8267513904091
 30
0.0
 11
953.18854934838464
 21
-1155.8267513904091
 31
0.0
  0
LINE
  5
DE0E
  8
01
 10
942.18854934838475
 20
-1155.8267513904091
 30
0.0
 11
942.18854934838475
 21
-1153.8267513904091
 31
0.0
  0
LINE
  5
DE0F
  8
01
 10
953.18854934838464
 20
-1135.5767513904091
 30
0.0
 11
954.78855934838475
 21
-1135.5767513904091
 31
0.0
  0
LINE
  5
DE10
  8
01
 10
954.78855934838475
 20
-1135.5767513904091
 30
0.0
 11
954.78855934838475
 21
-1143.0767513904091
 31
0.0
  0
LINE
  5
DE11
  8
01
 10
955.58855934838596
 20
-1137.5767513904091
 30
0.0
 11
955.58855934838596
 21
-1142.276731390408
 31
0.0
  0
LINE
  5
DE12
  8
01
 10
954.78855934838475
 20
-1137.5767513904091
 30
0.0
 11
957.18854934838453
 21
-1137.5767513904091
 31
0.0
  0
LINE
  5
DE13
  8
01
 10
957.18854934838453
 20
-1153.8767413904079
 30
0.0
 11
957.18854934838453
 21
-1157.5767513904091
 31
0.0
  0
LINE
  5
DE14
  8
01
 10
956.38855934838512
 20
-1153.0767213904089
 30
0.0
 11
957.18854934838453
 21
-1153.8767413904079
 31
0.0
  0
LINE
  5
DE15
  8
01
 10
957.18854934838453
 20
-1155.976741390409
 30
0.0
 11
961.78855934838475
 21
-1155.976741390409
 31
0.0
  0
LINE
  5
DE16
  8
01
 10
954.788549348385
 20
-1153.0767213904089
 30
0.0
 11
955.58855934838596
 21
-1153.8767413904079
 31
0.0
  0
LINE
  5
DE17
  8
01
 10
954.78855934838475
 20
-1153.0767513904091
 30
0.0
 11
954.78855934838475
 21
-1160.5767513904091
 31
0.0
  0
LINE
  5
DE18
  8
01
 10
953.18854934838464
 20
-1160.5767513904091
 30
0.0
 11
954.78855934838475
 21
-1160.5767513904091
 31
0.0
  0
LINE
  5
DE19
  8
01
 10
955.58855934838596
 20
-1153.8767413904079
 30
0.0
 11
955.58855934838596
 21
-1157.5767513904091
 31
0.0
  0
LINE
  5
DE1A
  8
01
 10
953.18854934838464
 20
-1128.0767513904091
 30
0.0
 11
953.18854934838464
 21
-1168.0767513904091
 31
0.0
  0
LINE
  5
DE1B
  8
01
 10
961.78855934838475
 20
-1140.1767213904091
 30
0.0
 11
961.78855934838475
 21
-1157.5767513904091
 31
0.0
  0
LINE
  5
DE1C
  8
01
 10
956.38854934838525
 20
-1143.0767513904091
 30
0.0
 11
956.38854934838525
 21
-1153.0767513904091
 31
0.0
  0
LINE
  5
DE1D
  8
01
 10
954.78855934838475
 20
-1143.0767513904091
 30
0.0
 11
954.78855934838475
 21
-1153.0767513904091
 31
0.0
  0
ARC
  5
DE1E
  8
01
 10
985.8580493483845
 20
-1178.1778313904081
 30
0.0
 40
50.0
 50
130.7976899999976
 51
150.85500000003
  0
LINE
  5
DE1F
  8
01
 10
1021.588549348386
 20
-1140.1767213904091
 30
0.0
 11
1021.588549348386
 21
-1157.5767513904091
 31
0.0
  0
LINE
  5
DE20
  8
01
 10
1023.188549348384
 20
-1138.5767513904091
 30
0.0
 11
1023.188549348384
 21
-1157.5767513904091
 31
0.0
  0
LINE
  5
DE21
  8
01
 10
1004.187781506069
 20
-1163.0767513904091
 30
0.0
 11
1004.187781506069
 21
-1198.0767513904091
 31
0.0
  0
LINE
  5
DE22
  8
01
 10
953.18854934838464
 20
-1168.0767513904091
 30
0.0
 11
1106.9429295034161
 21
-1168.0767513904091
 31
0.0
  0
LINE
  5
DE23
  8
01
 10
953.18854934838464
 20
-1128.0767513904091
 30
0.0
 11
1106.9429295034161
 21
-1128.0767513904091
 31
0.0
  0
LINE
  5
DE24
  8
01
 10
1004.187781506069
 20
-1165.239675894825
 30
0.0
 11
1004.187781506069
 21
-1187.867961277256
 31
0.0
  0
LINE
  5
DE25
  8
01
 10
988.10410674212699
 20
-1182.6767441002501
 30
0.0
 11
996.23777910397484
 21
-1182.6767521335009
 31
0.0
  0
LINE
  5
DE26
  8
01
 10
1016.987917899925
 20
-1210.676714588272
 30
0.0
 11
1119.191305084898
 21
-1210.6764148051529
 31
0.0
  0
LINE
  5
DE27
  8
01
 10
1120.487912033524
 20
-1220.873973584733
 30
0.0
 11
994.08791203352439
 21
-1220.8739735847289
 31
0.0
  0
LINE
  5
DE28
  8
01
 10
994.88791203352275
 20
-1221.676749222461
 30
0.0
 11
1119.6879120335229
 21
-1221.6767492224619
 31
0.0
  0
LINE
  5
DE29
  8
01
 10
1014.987912033522
 20
-1208.67671458828
 30
0.0
 11
1014.987912033522
 21
-1177.1767204545461
 31
0.0
  0
ARC
  5
DE2A
  8
01
 10
1016.987912033522
 20
-1208.67671458828
 30
0.0
 40
2.0
 50
180.0
 51
270.00016806005829
  0
LINE
  5
DE2B
  8
01
 10
993.38791203352275
 20
-1177.1767838116959
 30
0.0
 11
993.38791203352275
 21
-1220.176780878654
 31
0.0
  0
LINE
  5
DE2C
  8
01
 10
993.38791203352275
 20
-1177.1767838116959
 30
0.0
 11
1014.987912033522
 21
-1177.1767204545461
 31
0.0
  0
ARC
  5
DE2D
  8
01
 10
994.08791203352439
 20
-1220.1739735847291
 30
0.0
 40
0.7
 50
180.0
 51
270.0
  0
ARC
  5
DE2E
  8
01
 10
994.88791766275472
 20
-1220.1767764788519
 30
0.0
 40
1.5
 50
180.00016806005829
 51
270.00016807110558
  0
LINE
  5
DE2F
  8
01
 10
1121.18790762508
 20
-1220.173630377825
 30
0.0
 11
1121.1878856342109
 21
-1212.676406015587
 31
0.0
  0
ARC
  5
DE30
  8
01
 10
1119.1878856342189
 20
-1212.6764118819899
 30
0.0
 40
2.0
 50
0.0001680600582898
 51
90.000168060058257
  0
ARC
  5
DE31
  8
01
 10
1120.487912033524
 20
-1220.1739735847329
 30
0.0
 40
0.7
 50
270.0
 51
0.0
  0
ARC
  5
DE32
  8
01
 10
1119.687907633228
 20
-1220.1764104153569
 30
0.0
 40
1.5
 50
270.00016806005829
 51
0.0001680600582898
  0
LINE
  5
DE33
  8
01
 10
1106.9429295034161
 20
-1168.0767513904091
 30
0.0
 11
1137.487781506069
 21
-1168.0767513904091
 31
0.0
  0
LINE
  5
DE34
  8
01
 10
1119.191305084898
 20
-1210.6764148051529
 30
0.0
 11
1137.487781506069
 21
-1210.6764148051529
 31
0.0
  0
LINE
  5
DE35
  8
01
 10
1136.1877815060691
 20
-1170.676751390409
 30
0.0
 11
1136.1877815060691
 21
-1208.076414805153
 31
0.0
  0
LINE
  5
DE39
  8
01
 10
1106.9429295034161
 20
-1168.0767513904091
 30
0.0
 11
1147.487781506069
 21
-1168.0767513904091
 31
0.0
  0
LINE
  5
DE3A
  8
01
 10
1119.6879120335229
 20
-1221.6767492224619
 30
0.0
 11
1147.487781506069
 21
-1221.6767492224619
 31
0.0
  0
LINE
  5
DE3B
  8
01
 10
1146.1877815060691
 20
-1170.676751390409
 30
0.0
 11
1146.1877815060691
 21
-1219.076749222462
 31
0.0
  0
LINE
  5
DE41
  8
01
 10
979.18778150606931
 20
-1168.0767513904091
 30
0.0
 11
979.18778150606931
 21
-1176.0767513904091
 31
0.0
  0
LINE
  5
DE42
  8
01
 10
1029.1877815060691
 20
-1168.0767513904091
 30
0.0
 11
1029.1877815060691
 21
-1176.0767513904091
 31
0.0
  0
LINE
  5
DE43
  8
01
 10
979.18778150606931
 20
-1168.0767513904091
 30
0.0
 11
1029.1877815060691
 21
-1168.0767513904091
 31
0.0
  0
LINE
  5
DE44
  8
01
 10
979.6877815060692
 20
-1176.5767513904091
 30
0.0
 11
1028.6877815060691
 21
-1176.5767513904091
 31
0.0
  0
ARC
  5
DE45
  8
01
 10
979.6877815060692
 20
-1176.0767513904091
 30
0.0
 40
0.5
 50
179.99999999997391
 51
270.0
  0
ARC
  5
DE46
  8
01
 10
1028.6877815060691
 20
-1176.0767513904091
 30
0.0
 40
0.5
 50
270.0
 51
0.0
  0
LINE
  5
DE4A
  8
01
 10
1004.187781506069
 20
-1133.0767513904091
 30
0.0
 11
1004.187781506069
 21
-1098.0767513904091
 31
0.0
  0
LINE
  5
DE4B
  8
01
 10
1004.187781506069
 20
-1130.9138268859931
 30
0.0
 11
1004.187781506069
 21
-1108.2855415035619
 31
0.0
  0
LINE
  5
DE4C
  8
01
 10
988.10410674212699
 20
-1113.4767586805681
 30
0.0
 11
996.23777910397484
 21
-1113.476750647317
 31
0.0
  0
LINE
  5
DE4D
  8
01
 10
1016.987917899925
 20
-1085.476788192547
 30
0.0
 11
1119.191305084898
 21
-1085.477087975665
 31
0.0
  0
LINE
  5
DE4E
  8
01
 10
1120.487912033524
 20
-1075.2795291960849
 30
0.0
 11
994.08791203352439
 21
-1075.279529196089
 31
0.0
  0
LINE
  5
DE4F
  8
01
 10
994.88791203352275
 20
-1074.476753558358
 30
0.0
 11
1119.6879120335229
 21
-1074.476753558356
 31
0.0
  0
LINE
  5
DE50
  8
01
 10
1014.987912033522
 20
-1087.4767881925379
 30
0.0
 11
1014.987912033522
 21
-1118.976782326273
 31
0.0
  0
ARC
  5
DE51
  8
01
 10
1016.987912033522
 20
-1087.4767881925379
 30
0.0
 40
2.0
 50
89.999831939941714
 51
180.0
  0
LINE
  5
DE52
  8
01
 10
993.38791203352275
 20
-1118.976718969122
 30
0.0
 11
993.38791203352275
 21
-1075.9767219021639
 31
0.0
  0
LINE
  5
DE53
  8
01
 10
993.38791203352275
 20
-1118.976718969122
 30
0.0
 11
1001.687781506062
 21
-1118.9767433143111
 31
0.0
  0
LINE
  5
DE54
  8
01
 10
1006.687781506064
 20
-1118.9767579803181
 30
0.0
 11
1014.987912033522
 21
-1118.976782326273
 31
0.0
  0
ARC
  5
DE55
  8
01
 10
994.08791203352439
 20
-1075.9795291960891
 30
0.0
 40
0.7
 50
90.0
 51
180.0
  0
ARC
  5
DE56
  8
01
 10
994.88791766275472
 20
-1075.976726301966
 30
0.0
 40
1.5
 50
89.999831928894366
 51
179.99983193994171
  0
LINE
  5
DE57
  8
01
 10
1121.18790762508
 20
-1075.9798724029929
 30
0.0
 11
1121.1878856342109
 21
-1083.477096765231
 31
0.0
  0
ARC
  5
DE58
  8
01
 10
1119.1878856342189
 20
-1083.477090898828
 30
0.0
 40
2.0
 50
269.99983193994171
 51
359.9998319399416
  0
ARC
  5
DE59
  8
01
 10
1120.487912033524
 20
-1075.9795291960861
 30
0.0
 40
0.7
 50
0.0
 51
90.0
  0
ARC
  5
DE5A
  8
01
 10
1119.687907633228
 20
-1075.977092365461
 30
0.0
 40
1.5
 50
359.9998319399416
 51
89.999831939941714
  0
LINE
  5
DE5B
  8
01
 10
979.18778150606931
 20
-1128.0767513904091
 30
0.0
 11
979.18778150606931
 21
-1120.0767513904091
 31
0.0
  0
LINE
  5
DE5C
  8
01
 10
1029.1877815060691
 20
-1128.0767513904091
 30
0.0
 11
1029.1877815060691
 21
-1120.0767513904091
 31
0.0
  0
LINE
  5
DE5D
  8
01
 10
979.18778150606931
 20
-1128.0767513904091
 30
0.0
 11
1029.1877815060691
 21
-1128.0767513904091
 31
0.0
  0
LINE
  5
DE5E
  8
01
 10
979.6877815060692
 20
-1119.5767513904091
 30
0.0
 11
1001.687781506062
 21
-1119.57675139041
 31
0.0
  0
LINE
  5
DE5F
  8
01
 10
1006.687781506064
 20
-1119.5767513904091
 30
0.0
 11
1028.6877815060691
 21
-1119.5767513904091
 31
0.0
  0
ARC
  5
DE60
  8
01
 10
979.6877815060692
 20
-1120.0767513904091
 30
0.0
 40
0.5
 50
90.0
 51
180.0
  0
ARC
  5
DE61
  8
01
 10
1028.6877815060691
 20
-1120.0767513904091
 30
0.0
 40
0.5
 50
359.99999999997402
 51
90.0
  0
LINE
  5
DE66
  8
01
 10
984.18778118361115
 20
-1128.0767513904091
 30
0.0
 11
984.18778118361115
 21
-1122.2767513904089
 31
0.0
  0
LINE
  5
DE67
  8
01
 10
1024.18778118361
 20
-1128.0767513904091
 30
0.0
 11
1024.18778118361
 21
-1122.2767513904089
 31
0.0
  0
LINE
  5
DE68
  8
01
 10
984.68778118361115
 20
-1121.7767513904089
 30
0.0
 11
1023.68778118361
 21
-1121.7767513904089
 31
0.0
  0
ARC
  5
DE69
  8
01
 10
984.68778118361115
 20
-1122.2767513904089
 30
0.0
 40
0.5
 50
89.999999999986969
 51
180.0
  0
ARC
  5
DE6A
  8
01
 10
1023.68778118361
 20
-1122.2767513904089
 30
0.0
 40
0.5
 50
0.0
 51
90.0
  0
ARC
  5
DE6B
  8
01
 10
1007.6877815060629
 20
-1119.576774334618
 30
0.0
 40
1.0
 50
180.0
 51
270.00000000001302
  0
LINE
  5
DE6C
  8
01
 10
1007.687781506064
 20
-1120.5767743346171
 30
0.0
 11
1014.687786506061
 21
-1120.5767743346159
 31
0.0
  0
ARC
  5
DE6D
  8
01
 10
1014.687786506061
 20
-1121.0767743346159
 30
0.0
 40
0.5
 50
0.0
 51
90.000000000013017
  0
ARC
  5
DE6E
  8
01
 10
1000.687781506061
 20
-1119.5767743346159
 30
0.0
 40
1.0
 50
270.0
 51
0.0
  0
ARC
  5
DE6F
  8
01
 10
993.68778650606191
 20
-1121.0767743346159
 30
0.0
 40
0.5
 50
90.0
 51
180.0
  0
LINE
  5
DE70
  8
01
 10
1001.687781506062
 20
-1107.0767513904129
 30
0.0
 11
1001.687781506062
 21
-1119.5767743346159
 31
0.0
  0
ARC
  5
DE71
  8
01
 10
1002.687781506061
 20
-1107.0767513904109
 30
0.0
 40
1.0
 50
90.0
 51
179.9999999999479
  0
LINE
  5
DE72
  8
01
 10
1002.687781506062
 20
-1106.0767513904091
 30
0.0
 11
1005.687781506061
 21
-1106.0767513904091
 31
0.0
  0
ARC
  5
DE73
  8
01
 10
1005.687781506061
 20
-1107.0767513904109
 30
0.0
 40
1.0
 50
0.0
 51
90.0
  0
LINE
  5
DE74
  8
01
 10
1006.687781506062
 20
-1107.0767513904109
 30
0.0
 11
1006.687781506064
 21
-1119.576774334618
 31
0.0
  0
LINE
  5
DE75
  8
01
 10
993.68778650606191
 20
-1120.5767743346159
 30
0.0
 11
1000.687781506062
 21
-1120.5767743346159
 31
0.0
  0
LINE
  5
DE76
  8
01
 10
993.1877865060618
 20
-1121.0767743346159
 30
0.0
 11
993.1877865060618
 21
-1121.7767513904089
 31
0.0
  0
LINE
  5
DE77
  8
01
 10
1015.187786506062
 20
-1121.0767743346159
 30
0.0
 11
1015.187786506062
 21
-1121.7767513904089
 31
0.0
  0
LINE
  5
DE78
  8
01
 10
984.18778118361115
 20
-1128.0767513904091
 30
0.0
 11
1024.18778118361
 21
-1128.0767513904091
 31
0.0
  0
LINE
  5
DE79
  8
01
 10
984.18778118361115
 20
-1168.0767513904091
 30
0.0
 11
984.18778118361115
 21
-1173.876751390409
 31
0.0
  0
LINE
  5
DE7A
  8
01
 10
1024.18778118361
 20
-1168.0767513904091
 30
0.0
 11
1024.18778118361
 21
-1173.876751390409
 31
0.0
  0
LINE
  5
DE7B
  8
01
 10
984.18778118361126
 20
-1168.0767513904091
 30
0.0
 11
1024.18778118361
 21
-1168.0767513904091
 31
0.0
  0
LINE
  5
DE7C
  8
01
 10
984.68778118361115
 20
-1174.376751390409
 30
0.0
 11
1023.68778118361
 21
-1174.376751390409
 31
0.0
  0
ARC
  5
DE7D
  8
01
 10
984.68778118361115
 20
-1173.876751390409
 30
0.0
 40
0.5
 50
180.0
 51
270.0
  0
ARC
  5
DE7E
  8
01
 10
1023.68778118361
 20
-1173.876751390409
 30
0.0
 40
0.5
 50
270.0
 51
0.0
  0
LINE
  5
DE7F
  8
01
 10
1005.187782827007
 20
-1175.776521390409
 30
-0.0000000000001137
 11
1005.187782827007
 21
-1174.376751390409
 31
-0.0000000000001137
  0
ARC
  5
DE80
  8
01
 10
1002.887783827007
 20
-1175.776521390409
 30
-0.0000000000001137
 40
0.30000001
 50
256.81652000001901
 51
0.0000029999846689
  0
ARC
  5
DE81
  8
01
 10
1004.187782827007
 20
-1170.2267513904089
 30
-0.0000000000001137
 40
6.0
 50
283.18348199999821
 51
305.68533399999461
  0
ARC
  5
DE82
  8
01
 10
1005.487785827007
 20
-1175.776521390409
 30
-0.0000000000001137
 40
0.30000001
 50
180.0
 51
283.18348199999821
  0
LINE
  5
DE83
  8
01
 10
1007.687782827007
 20
-1175.10015139041
 30
-0.0000000000001137
 11
1007.687782827007
 21
-1174.376751390409
 31
-0.0000000000001137
  0
LINE
  5
DE84
  8
01
 10
1000.687782827007
 20
-1175.10015139041
 30
-0.0000000000001137
 11
1000.687782827007
 21
-1174.376751390409
 31
-0.0000000000001137
  0
ARC
  5
DE85
  8
01
 10
1004.187782827007
 20
-1170.2267513904089
 30
-0.0000000000001137
 40
6.0
 50
234.3146700000031
 51
256.8165174966523
  0
LINE
  5
DE86
  8
01
 10
1003.187782827007
 20
-1175.7772998498119
 30
-0.0000000000001137
 11
1003.187782827007
 21
-1174.376751390409
 31
-0.0000000000001137
  0
LINE
  5
DE87
  8
01
 10
816.28800263248877
 20
-1418.0767513893809
 30
0.0
 11
803.80995052169214
 21
-1418.0767513893809
 31
0.0
  0
LINE
  5
DE88
  8
01
 10
852.08733569901221
 20
-1418.0767513893809
 30
0.0
 11
864.56538780980907
 21
-1418.0767513893809
 31
0.0
  0
LINE
  5
DE89
  8
01
 10
814.1876691663233
 20
-1393.07675138938
 30
0.0
 11
814.18766916632512
 21
-1443.07675138938
 31
0.0
  0
LINE
  5
DE8A
  8
01
 10
805.68766916632353
 20
-1393.5767513893779
 30
0.0
 11
805.68766916632694
 21
-1442.57675138938
 31
0.0
  0
LINE
  5
DE8B
  8
01
 10
814.18766916632524
 20
-1443.07675138938
 30
0.0
 11
806.18766916632683
 21
-1443.07675138938
 31
0.0
  0
ARC
  5
DE8C
  8
01
 10
806.18766916632683
 20
-1442.57675138938
 30
0.0
 40
0.5
 50
180.0
 51
270.0
  0
LINE
  5
DE8D
  8
01
 10
814.1876691663233
 20
-1393.07675138938
 30
0.0
 11
806.18766916632376
 21
-1393.0767513893779
 31
0.0
  0
ARC
  5
DE8E
  8
01
 10
806.18766916632342
 20
-1393.5767513893779
 30
0.0
 40
0.5
 50
89.999999999973952
 51
180.0
  0
LINE
  5
DE8F
  8
01
 10
854.18766916632717
 20
-1393.07675138938
 30
0.0
 11
854.18766916632535
 21
-1443.07675138938
 31
0.0
  0
LINE
  5
DE90
  8
01
 10
862.68766916632694
 20
-1393.5767513893779
 30
0.0
 11
862.68766916632376
 21
-1442.57675138938
 31
0.0
  0
LINE
  5
DE91
  8
01
 10
854.18766916632512
 20
-1443.07675138938
 30
0.0
 11
862.18766916632364
 21
-1443.07675138938
 31
0.0
  0
ARC
  5
DE92
  8
01
 10
862.18766916632364
 20
-1442.57675138938
 30
0.0
 40
0.5
 50
270.0
 51
0.0
  0
LINE
  5
DE93
  8
01
 10
854.1876691663274
 20
-1393.07675138938
 30
0.0
 11
862.18766916632694
 21
-1393.0767513893779
 31
0.0
  0
ARC
  5
DE94
  8
01
 10
862.18766916632694
 20
-1393.5767513893779
 30
0.0
 40
0.5
 50
0.0
 51
90.000000000013031
  0
LINE
  5
DE9B
  8
01
 10
860.48766916632803
 20
-1382.076751389365
 30
0.0000000000562575
 11
860.48766916632803
 21
-1343.076751389365
 31
0.0000000000562575
  0
LINE
  5
DE9C
  8
01
 10
854.18766916632808
 20
-1342.576751389365
 30
0.0000000000562575
 11
854.18766916632364
 21
-1382.576751389372
 31
0.0000000000562575
  0
LINE
  5
DE9D
  8
01
 10
854.18766916632785
 20
-1382.576751389365
 30
0.0000000000562575
 11
859.98766916632815
 21
-1382.576751389365
 31
0.0000000000562575
  0
ARC
  5
DE9E
  8
01
 10
859.98766916632815
 20
-1382.076751389365
 30
0.0000000000562575
 40
0.5
 50
270.0
 51
0.0
  0
LINE
  5
DE9F
  8
01
 10
854.18766916632808
 20
-1342.576751389365
 30
0.0000000000562575
 11
859.98766916632815
 21
-1342.5767513893661
 31
0.0000000000562575
  0
ARC
  5
DEA0
  8
01
 10
859.98766916632815
 20
-1343.076751389365
 30
0.0000000000562575
 40
0.5
 50
0.0
 51
90.0
  0
LINE
  5
DEA1
  8
01
 10
865.4111608484186
 20
-1368.076751389372
 30
0.0
 11
850.26475747164193
 21
-1368.076751389372
 31
0.0
  0
LINE
  5
DEA2
  8
01
 10
861.21106916632834
 20
-1364.576750068434
 30
-0.0000000000001137
 11
860.48766916632803
 21
-1364.576750068434
 31
-0.0000000000001137
  0
LINE
  5
DEA3
  8
01
 10
861.21106916632834
 20
-1371.576750068434
 30
-0.0000000000001137
 11
860.48766916632803
 21
-1371.576750068434
 31
-0.0000000000001137
  0
LINE
  5
DEA4
  8
01
 10
807.88766916632801
 20
-1382.076751389372
 30
0.0
 11
807.88766916632801
 21
-1343.0767513893729
 31
0.0
  0
LINE
  5
DEA5
  8
01
 10
814.18766916632808
 20
-1342.576751389372
 30
0.0
 11
814.18766916632376
 21
-1382.576751389372
 31
0.0
  0
LINE
  5
DEA6
  8
01
 10
814.18766916632819
 20
-1382.576751389372
 30
0.0
 11
808.38766916632812
 21
-1382.576751389372
 31
0.0
  0
ARC
  5
DEA7
  8
01
 10
808.38766916632812
 20
-1382.076751389372
 30
0.0
 40
0.5
 50
180.0
 51
270.0
  0
LINE
  5
DEA8
  8
01
 10
814.18766916632808
 20
-1342.576751389372
 30
0.0
 11
808.38766916632812
 21
-1342.5767513893729
 31
0.0
  0
ARC
  5
DEA9
  8
01
 10
808.38766916632812
 20
-1343.0767513893729
 30
0.0
 40
0.5
 50
90.0
 51
180.0
  0
LINE
  5
DEAA
  8
01
 10
789.85965212662575
 20
-1368.07675138938
 30
0.0
 11
816.77159652112925
 21
-1368.07675138938
 31
0.0
  0
LINE
  5
DEAB
  8
01
 10
793.18728360060663
 20
-1379.0767563893719
 30
0.0
 11
807.88766916632801
 21
-1379.0767563893719
 31
0.0
  0
LINE
  5
DEAC
  8
01
 10
806.68730654481828
 20
-1357.5767563893719
 30
0.0
 11
806.68730654481351
 21
-1378.5767563893719
 31
0.0
  0
LINE
  5
DEAD
  8
01
 10
793.18728360060857
 20
-1357.076756389373
 30
0.0
 11
807.88766916632801
 21
-1357.0767563893719
 31
0.0
  0
ARC
  5
DEAE
  8
01
 10
793.18728360060857
 20
-1358.076756389371
 30
0.0
 40
1.0
 50
90.0
 51
180.0
  0
LINE
  5
DEAF
  8
01
 10
792.18728360060663
 20
-1358.076756389371
 30
0.0
 11
792.18728360060663
 21
-1378.0767563893701
 31
0.0
  0
ARC
  5
DEB0
  8
01
 10
793.18728360060663
 20
-1378.0767563893701
 30
0.0
 40
1.0
 50
180.0
 51
270.0
  0
ARC
  5
DEB1
  8
01
 10
807.18730654481351
 20
-1357.5767563893719
 30
0.0
 40
0.5
 50
90.0
 51
179.99999999997391
  0
ARC
  5
DEB2
  8
01
 10
807.18730654481351
 20
-1378.5767563893719
 30
0.0
 40
0.5
 50
179.99999999997391
 51
270.0
  0
LINE
  5
DEB5
  8
01
 10
855.68766916632637
 20
-1382.576751389372
 30
0.0000000000562575
 11
854.18766916632649
 21
-1382.576751389372
 31
0.0000000000562575
  0
LINE
  5
DEB6
  8
01
 10
812.68766916632956
 20
-1382.5767513893791
 30
0.0
 11
814.18766916632967
 21
-1382.5767513893791
 31
0.0
  0
ARC
  5
DEB7
  8
01
 10
855.42603425408834
 20
-1368.076750100256
 30
-0.0000000000001137
 40
6.7614049222401134
 50
328.82566316459219
 51
31.174340835420569
  0
LINE
  5
DEB8
  8
01
 10
664.18767316632375
 20
-1384.83117705056
 30
0.0
 11
664.18767316632398
 21
-1339.595639457234
 31
0.0
  0
LINE
  5
DEB9
  8
01
 10
651.78736830585569
 20
-1368.0767513893809
 30
0.0
 11
676.38603224106191
 21
-1368.0767513893809
 31
0.0
  0
CIRCLE
  5
DEBA
  8
01
 10
664.18767316632398
 20
-1368.0767513893809
 30
0.0
 40
11.30000000000109
  0
LINE
  5
DEBB
  8
01
 10
666.68767316632386
 20
-1357.76899241858
 30
0.0
 11
666.68767316632386
 21
-1378.3845103601809
 31
0.0
  0
LINE
  5
DEBC
  8
01
 10
661.68767316632386
 20
-1357.76899241858
 30
0.0
 11
661.68767316632386
 21
-1378.3845103601809
 31
0.0
  0
ARC
  5
DEBD
  8
01
 10
662.18767316632386
 20
-1357.76899241858
 30
0.0
 40
0.5
 50
100.98058072142879
 51
180.0
  0
ARC
  5
DEBE
  8
01
 10
666.18767316632386
 20
-1357.76899241858
 30
0.0
 40
0.5
 50
0.0
 51
79.019419278571149
  0
ARC
  5
DEBF
  8
01
 10
662.18767316632386
 20
-1378.3845103601809
 30
0.0
 40
0.5
 50
180.0
 51
259.01941927857121
  0
ARC
  5
DEC0
  8
01
 10
666.18767316632386
 20
-1378.3845103601809
 30
0.0
 40
0.5
 50
280.98058072142891
 51
0.0
  0
CIRCLE
  5
DEC1
  8
01
 10
664.18767316632216
 20
-1362.57675138938
 30
0.0
 40
20.000000000000071
  0
CIRCLE
  5
DEC2
  8
01
 10
664.18767316632375
 20
-1368.0767513893809
 30
0.0
 40
11.0
  0
CIRCLE
  5
DEC5
  8
01
 10
1004.187665166324
 20
-1368.0767511852359
 30
0.0
 40
3.75
  0
CIRCLE
  5
DEC6
  8
01
 10
1004.187665166324
 20
-1368.0767513893641
 30
0.0
 40
3.5000004999999992
  0
LINE
  5
DEC7
  8
01
 10
1005.187665166324
 20
-1371.430854189364
 30
0.0
 11
1005.187665166324
 21
-1364.7226473893641
 31
0.0
  0
LINE
  5
DEC8
  8
01
 10
1003.187665166324
 20
-1371.430854189364
 30
0.0
 11
1003.187665166324
 21
-1364.7226473893641
 31
0.0
  0
CIRCLE
  5
DEC9
  8
01
 10
1004.1876648438659
 20
-1362.5767513893641
 30
0.0
 40
19.99999999999962
  0
LINE
  5
E273
  8
01
 10
1022.187665166325
 20
-1359.57675138938
 30
0.0
 11
1022.187665166325
 21
-1371.2945486106671
 31
0.0
  0
LINE
  5
E274
  8
01
 10
1001.187665166324
 20
-1359.57675138938
 30
0.0
 11
1007.187665166324
 21
-1359.57675138938
 31
0.0
  0
LINE
  5
E275
  8
01
 10
1014.187665166325
 20
-1359.57675138938
 30
0.0
 11
1022.187665166325
 21
-1359.57675138938
 31
0.0
  0
LINE
  5
E276
  8
01
 10
1001.187665166324
 20
-1360.57675138938
 30
0.0
 11
1001.187665166324
 21
-1359.57675138938
 31
0.0
  0
LINE
  5
E277
  8
01
 10
1007.187665166324
 20
-1360.5767513893809
 30
0.0
 11
1007.187665166324
 21
-1359.57675138938
 31
0.0
  0
ARC
  5
E278
  8
01
 10
997.68766516632445
 20
-1360.5767513893809
 30
0.0
 40
3.5
 50
179.99999999998701
 51
0.0000000000130276
  0
ARC
  5
E279
  8
01
 10
1010.687665166325
 20
-1360.5767513893809
 30
0.0
 40
3.5
 50
180.0
 51
0.0
  0
CIRCLE
  5
E27A
  8
01
 10
1004.187665166036
 20
-1368.076751389669
 30
0.0
 40
6.0
  0
LINE
  5
E27B
  8
01
 10
994.18766516632445
 20
-1359.57675138938
 30
0.0
 11
984.41394491058077
 21
-1359.57675138938
 31
0.0
  0
LINE
  5
E27C
  8
01
  6
BYBLOCK
 10
984.41394491058077
 20
-1359.57675138938
 30
0.0
 11
956.18766516632468
 21
-1359.57675138938
 31
0.0
  0
LINE
  5
E27D
  8
01
 10
994.18766516632434
 20
-1360.57675138938
 30
0.0
 11
994.18766516632445
 21
-1359.57675138938
 31
0.0
  0
LINE
  5
E27E
  8
01
 10
1014.187665166325
 20
-1360.5767513893809
 30
0.0
 11
1014.187665166325
 21
-1359.57675138938
 31
0.0
  0
LINE
  5
E27F
  8
01
  6
BYBLOCK
 10
683.96138509960645
 20
-1359.57675138938
 30
0.0
 11
712.18767316632375
 21
-1359.57675138938
 31
0.0
  0
LINE
  5
E280
  8
01
  6
BYBLOCK
 10
1010.188549348096
 20
-1137.8267513904091
 30
0.0
 11
998.18854934809588
 21
-1137.8267513904091
 31
0.0
  0
LINE
  5
E281
  8
01
  6
BYBLOCK
 10
998.18854934809588
 20
-1158.3267513904091
 30
0.0
 11
1010.188549348096
 21
-1158.3267513904091
 31
0.0
  0
LINE
  5
E282
  8
01
  6
BYBLOCK
 10
998.18854934809588
 20
-1158.3267513904091
 30
0.0
 11
998.18854934809588
 21
-1157.5767513904091
 31
0.0
  0
LINE
  5
E283
  8
01
  6
BYBLOCK
 10
998.18854934809588
 20
-1138.5767513904091
 30
0.0
 11
998.18854934809588
 21
-1137.8267513904091
 31
0.0
  0
LINE
  5
E284
  8
01
  6
BYBLOCK
 10
1010.188549348096
 20
-1158.3267513904091
 30
0.0
 11
1010.188549348096
 21
-1157.5767513904091
 31
0.0
  0
LINE
  5
E285
  8
01
  6
BYBLOCK
 10
1010.188549348096
 20
-1138.5767513904091
 30
0.0
 11
1010.188549348096
 21
-1137.8267513904091
 31
0.0
  0
LINE
  5
E3F7
  8
01
 10
1010.188549348095
 20
-1137.8267513904091
 30
0.0
 11
1045.3489401080969
 21
-1137.8267513904091
 31
0.0
  0
LINE
  5
E3F8
  8
01
 10
1010.188549348095
 20
-1158.3267513904091
 30
0.0
 11
1045.3489401080969
 21
-1158.3267513904091
 31
0.0
  0
LINE
  5
E3F9
  8
01
 10
1044.048940108097
 20
-1140.426751390409
 30
0.0
 11
1044.048940108097
 21
-1155.7267513904089
 31
0.0
  0
TEXT
  5
E3FD
  8
01
 10
914.58415959267415
 20
-1198.493418057076
 30
0.0
 40
4.5499999999999989
  1
材質：亜鉛ダイキャスト
  0
TEXT
  5
E3FE
  8
01
 10
925.50415959267411
 20
-1206.0767513904091
 30
0.0
 40
4.5499999999999989
  1
仕上げ：各種メッキ
  0
SOLID
  5
E3FF
  8
01
 10
1001.610520805608
 20
-1187.2307395303189
 30
0.0
 11
1003.928266406385
 21
-1185.9754176162839
 31
0.0
 12
1002.1429357831749
 22
-1187.91458556765
 32
0.0
 13
1002.1429357831749
 23
-1187.91458556765
 33
0.0
1001
ACAD
1000
DSTYLE
1002
{
1070
    40
1040
1.3
1002
}
  0
LINE
  5
E401
  8
01
 10
1022.187665166325
 20
-1359.57675138938
 30
0.0
 11
1050.4876651663251
 21
-1359.57675138938
 31
0.0
  0
LINE
  5
E402
  8
01
 10
1022.187665166325
 20
-1434.0767513893809
 30
0.0
 11
1050.4876651663251
 21
-1434.0767513893809
 31
0.0
  0
LINE
  5
E403
  8
01
 10
1049.1876651663249
 20
-1362.1767513893799
 30
0.0
 11
1049.1876651663249
 21
-1431.476751389381
 31
0.0
  0
LINE
  5
E407
  8
01
 10
984.18766516632286
 20
-1362.57675138938
 30
0.0
 11
984.18766516632286
 21
-1333.7767513893809
 31
0.0
  0
LINE
  5
E408
  8
01
 10
1024.1876651663231
 20
-1362.57675138938
 30
0.0
 11
1024.1876651663231
 21
-1333.7767513893809
 31
0.0
  0
LINE
  5
E409
  8
01
 10
986.78766516632288
 20
-1335.0767513893809
 30
0.0
 11
1021.5876651663229
 21
-1335.0767513893809
 31
0.0
  0
LINE
  5
E40D
  8
01
 10
644.18767316632193
 20
-1362.57675138938
 30
0.0
 11
644.18767316632193
 21
-1333.7767513893809
 31
0.0
  0
LINE
  5
E40E
  8
01
 10
684.18767316632238
 20
-1362.57675138938
 30
0.0
 11
684.18767316632238
 21
-1333.7767513893809
 31
0.0
  0
LINE
  5
E40F
  8
01
 10
646.78767316632195
 20
-1335.0767513893809
 30
0.0
 11
681.58767316632225
 21
-1335.0767513893809
 31
0.0
  0
LINE
  5
E413
  8
01
 10
854.18766916632421
 20
-1325.57937138938
 30
0.0000000000562575
 11
854.18766916632421
 21
-1310.77675138938
 31
0.0000000000562575
  0
LINE
  5
E414
  8
01
 10
862.18743917632833
 20
-1368.076750100256
 30
0.0000000000562575
 11
862.18743917632833
 21
-1310.77675138938
 31
0.0000000000562575
  0
LINE
  5
E415
  8
01
 10
856.78766916632424
 20
-1312.07675138938
 30
0.0000000000562575
 11
859.5874391763283
 21
-1312.07675138938
 31
0.0000000000562575
  0
LINE
  5
E419
  8
01
 10
814.18766916632421
 20
-1325.57937138938
 30
0.0
 11
814.18766916632421
 21
-1310.77675138938
 31
0.0
  0
LINE
  5
E41A
  8
01
 10
792.18728360060868
 20
-1358.076756389371
 30
0.0
 11
792.18728360060868
 21
-1310.77675138938
 31
0.0
  0
LINE
  5
E41B
  8
01
 10
811.58766916632419
 20
-1312.07675138938
 30
0.0
 11
794.78728360060859
 21
-1312.07675138938
 31
0.0
  0
LINE
  5
E41F
  8
01
 10
1121.18790762508
 20
-1220.173630377825
 30
0.0
 11
1121.18790762508
 21
-1247.976749222461
 31
0.0
  0
LINE
  5
E420
  8
01
 10
993.38791203352275
 20
-1220.176780878654
 30
0.0
 11
993.38791203352275
 21
-1247.976749222461
 31
0.0
  0
LINE
  5
E421
  8
01
 10
1118.5879076250801
 20
-1246.676749222461
 30
0.0
 11
995.98791203352278
 21
-1246.676749222461
 31
0.0
  0
LINE
  5
E425
  8
01
 10
1121.1877815060691
 20
-1220.1958620366061
 30
0.0
 11
1121.1877815060691
 21
-1237.976749222461
 31
0.0
  0
LINE
  5
E426
  8
01
 10
1004.187781506069
 20
-1187.967962020351
 30
0.0
 11
1004.187781506069
 21
-1237.976749222461
 31
0.0
  0
LINE
  5
E427
  8
01
 10
1118.5877815060689
 20
-1236.676749222461
 30
0.0
 11
1006.787781506069
 21
-1236.676749222461
 31
0.0
  0
TEXT
  5
E42B
  8
01
 10
1145.277781506069
 20
-1202.4600836397681
 30
0.0
 40
4.5499999999999989
  1
53.5
 50
90.0
  0
LINE
  5
E42C
  8
01
  6
BYBLOCK
 10
1146.8844494000689
 20
-1219.076749222462
 30
0.0
 11
1146.1877815060691
 21
-1221.6767492224619
 31
0.0
  0
LINE
  5
E42D
  8
01
  6
BYBLOCK
 10
1146.1877815060691
 20
-1221.6767492224619
 30
0.0
 11
1145.4911136120691
 21
-1219.076749222462
 31
0.0
  0
LINE
  5
E42E
  8
01
  6
BYBLOCK
 10
1146.1877815060691
 20
-1221.6767492224619
 30
0.0
 11
1146.1877815060691
 21
-1219.076749222462
 31
0.0
  0
LINE
  5
E42F
  8
01
  6
BYBLOCK
 10
1145.4911136120691
 20
-1170.676751390409
 30
0.0
 11
1146.1877815060691
 21
-1168.0767513904091
 31
0.0
  0
LINE
  5
E430
  8
01
  6
BYBLOCK
 10
1146.1877815060691
 20
-1168.0767513904091
 30
0.0
 11
1146.8844494000689
 21
-1170.676751390409
 31
0.0
  0
LINE
  5
E431
  8
01
  6
BYBLOCK
 10
1146.1877815060691
 20
-1168.0767513904091
 30
0.0
 11
1146.1877815060691
 21
-1170.676751390409
 31
0.0
  0
TEXT
  5
E432
  8
01
 10
1135.277781506069
 20
-1196.959916431113
 30
0.0
 40
4.5499999999999989
  1
42.5
 50
90.0
  0
LINE
  5
E433
  8
01
  6
BYBLOCK
 10
1136.8844494000689
 20
-1208.076414805153
 30
0.0
 11
1136.1877815060691
 21
-1210.6764148051529
 31
0.0
  0
LINE
  5
E434
  8
01
  6
BYBLOCK
 10
1136.1877815060691
 20
-1210.6764148051529
 30
0.0
 11
1135.4911136120691
 21
-1208.076414805153
 31
0.0
  0
LINE
  5
E435
  8
01
  6
BYBLOCK
 10
1136.1877815060691
 20
-1210.6764148051529
 30
0.0
 11
1136.1877815060691
 21
-1208.076414805153
 31
0.0
  0
LINE
  5
E436
  8
01
  6
BYBLOCK
 10
1135.4911136120691
 20
-1170.676751390409
 30
0.0
 11
1136.1877815060691
 21
-1168.0767513904091
 31
0.0
  0
LINE
  5
E437
  8
01
  6
BYBLOCK
 10
1136.1877815060691
 20
-1168.0767513904091
 30
0.0
 11
1136.8844494000689
 21
-1170.676751390409
 31
0.0
  0
LINE
  5
E438
  8
01
  6
BYBLOCK
 10
1136.1877815060691
 20
-1168.0767513904091
 30
0.0
 11
1136.1877815060691
 21
-1170.676751390409
 31
0.0
  0
LINE
  5
E44F
  8
01
 10
1119.6876651663249
 20
-1407.27675138938
 30
0.0
 11
1137.4876651663239
 21
-1407.27675138938
 31
0.0
  0
LINE
  5
E450
  8
01
 10
1119.6876651663249
 20
-1428.8767513893811
 30
0.0
 11
1137.4876651663239
 21
-1428.8767513893811
 31
0.0
  0
LINE
  5
E451
  8
01
 10
1136.187665166324
 20
-1409.8767513893799
 30
0.0
 11
1136.187665166324
 21
-1426.2767513893809
 31
0.0
  0
LINE
  5
E455
  8
01
 10
840.68766916632421
 20
-1332.07675138938
 30
0.0
 11
895.48766916632394
 21
-1332.07675138938
 31
0.0
  0
LINE
  5
E456
  8
01
 10
840.68766916632421
 20
-1462.07675138938
 30
0.0
 11
895.48766916632394
 21
-1462.07675138938
 31
0.0
  0
LINE
  5
E457
  8
01
 10
894.18766916632387
 20
-1334.6767513893799
 30
0.0
 11
894.18766916632387
 21
-1459.476751389381
 31
0.0
  0
LINE
  5
E45B
  8
01
 10
840.68766916632421
 20
-1340.07675138938
 30
0.0
 11
879.99126020288077
 21
-1340.07675138938
 31
0.0
  0
LINE
  5
E45C
  8
01
 10
840.68766916632421
 20
-1454.07675138938
 30
0.0
 11
879.99126020288077
 21
-1454.07675138938
 31
0.0
  0
LINE
  5
E45D
  8
01
 10
878.69126020288081
 20
-1342.6767513893799
 30
0.0
 11
878.69126020288081
 21
-1451.476751389381
 31
0.0
  0
LINE
  5
E461
  8
01
 10
634.18767316632375
 20
-1418.0767513893809
 30
0.0
 11
619.88768516632422
 21
-1418.0767513893809
 31
0.0
  0
LINE
  5
E462
  8
01
 10
641.68766516632309
 20
-1362.57675138938
 30
0.0
 11
619.88768516632422
 21
-1362.57675138938
 31
0.0
  0
LINE
  5
E463
  8
01
 10
621.18768516632406
 20
-1415.476751389381
 30
0.0
 11
621.18768516632406
 21
-1365.1767513893799
 31
0.0
  0
LINE
  5
E467
  8
01
 10
634.18767316632375
 20
-1418.0767513893809
 30
0.0
 11
629.88768516632422
 21
-1418.0767513893809
 31
0.0
  0
LINE
  5
E468
  8
01
 10
651.18766516632297
 20
-1368.0767513893809
 30
0.0
 11
629.88768516632422
 21
-1368.0767513893809
 31
0.0
  0
LINE
  5
E469
  8
01
 10
631.18768516632406
 20
-1415.476751389381
 30
0.0
 11
631.18768516632406
 21
-1370.6767513893799
 31
0.0
  0
LINE
  5
E46D
  8
01
 10
800.8867065289063
 20
-1417.3267513893809
 30
0.0
 11
799.58766842322984
 21
-1416.57675138938
 31
0.0
  0
LINE
  5
E46E
  8
01
 10
799.58766842322984
 20
-1416.57675138938
 30
0.0
 11
798.28863031755327
 21
-1417.3267513893809
 31
0.0
  0
LINE
  5
E46F
  8
01
 10
798.28863031755327
 20
-1417.3267513893809
 30
0.0
 11
798.28863031755327
 21
-1418.8267513893809
 31
0.0
  0
LINE
  5
E470
  8
01
 10
798.28863031755327
 20
-1418.8267513893809
 30
0.0
 11
799.58766842322984
 21
-1419.5767513893809
 31
0.0
  0
LINE
  5
E471
  8
01
 10
799.58766842322984
 20
-1419.5767513893809
 30
0.0
 11
800.8867065289063
 21
-1418.8267513893809
 31
0.0
  0
LINE
  5
E472
  8
01
 10
800.8867065289063
 20
-1418.8267513893809
 30
0.0
 11
800.8867065289063
 21
-1417.3267513893809
 31
0.0
  0
CIRCLE
  5
E473
  8
01
 10
799.58766842322984
 20
-1418.0767513893809
 30
0.0
 40
3.0
  0
CIRCLE
  5
E474
  8
01
 10
868.78766990942086
 20
-1418.0767513893809
 30
0.0
 40
3.0
  0
LINE
  5
E475
  8
01
 10
953.18766516632456
 20
-1332.07675138938
 30
0.0
 11
953.18766516632456
 21
-1310.77675138938
 31
0.0
  0
LINE
  5
E476
  8
01
 10
1004.187665166324
 20
-1387.546387298544
 30
0.0
 11
1004.187665166324
 21
-1310.77675138938
 31
0.0
  0
LINE
  5
E477
  8
01
 10
955.78766516632481
 20
-1312.07675138938
 30
0.0
 11
1001.587665166324
 21
-1312.07675138938
 31
0.0
  0
LINE
  5
E47B
  8
01
 10
1022.187665166325
 20
-1360.0767513893809
 30
0.0
 11
1022.187665166325
 21
-1300.7767513893809
 31
0.0
  0
LINE
  5
E47C
  8
01
 10
953.18766516632456
 20
-1332.07675138938
 30
0.0
 11
953.18766516632456
 21
-1300.7767513893809
 31
0.0
  0
LINE
  5
E47D
  8
01
 10
1019.587665166324
 20
-1302.07675138938
 30
0.0
 11
955.78766516632481
 21
-1302.07675138938
 31
0.0
  0
LINE
  5
E481
  8
01
 10
942.18766516632468
 20
-1390.0767520875111
 30
0.0
 11
942.18766516632468
 21
-1310.77675138938
 31
0.0
  0
LINE
  5
E482
  8
01
 10
953.18766516632456
 20
-1332.07675138938
 30
0.0
 11
953.18766516632456
 21
-1310.77675138938
 31
0.0
  0
LINE
  5
E483
  8
01
 10
944.78766516632459
 20
-1312.07675138938
 30
0.0
 11
950.58766516632465
 21
-1312.07675138938
 31
0.0
  0
LINE
  5
E487
  8
01
 10
821.6876691663241
 20
-1338.07675138938
 30
0.0
 11
821.6876691663241
 21
-1310.77675138938
 31
0.0
  0
LINE
  5
E488
  8
01
 10
846.6876691663241
 20
-1338.07675138938
 30
0.0
 11
846.6876691663241
 21
-1310.77675138938
 31
0.0
  0
LINE
  5
E489
  8
01
 10
824.28766916632424
 20
-1312.07675138938
 30
0.0
 11
844.08766916632408
 21
-1312.07675138938
 31
0.0
  0
TEXT
  5
E48D
  8
01
 10
829.85433583299096
 20
-1311.1667513893799
 30
0.0
 40
4.5499999999999989
  1
25
  0
LINE
  5
E48E
  8
01
  6
BYBLOCK
 10
844.08766916632408
 20
-1311.3800834953811
 30
0.0
 11
846.6876691663241
 21
-1312.07675138938
 31
0.0
  0
LINE
  5
E48F
  8
01
  6
BYBLOCK
 10
846.6876691663241
 20
-1312.07675138938
 30
0.0
 11
844.08766916632408
 21
-1312.7734192833809
 31
0.0
  0
LINE
  5
E490
  8
01
  6
BYBLOCK
 10
846.6876691663241
 20
-1312.07675138938
 30
0.0
 11
844.08766916632408
 21
-1312.07675138938
 31
0.0
  0
LINE
  5
E491
  8
01
  6
BYBLOCK
 10
824.28766916632424
 20
-1312.7734192833809
 30
0.0
 11
821.6876691663241
 21
-1312.07675138938
 31
0.0
  0
LINE
  5
E492
  8
01
  6
BYBLOCK
 10
821.6876691663241
 20
-1312.07675138938
 30
0.0
 11
824.28766916632424
 21
-1311.3800834953811
 31
0.0
  0
LINE
  5
E493
  8
01
  6
BYBLOCK
 10
821.6876691663241
 20
-1312.07675138938
 30
0.0
 11
824.28766916632424
 21
-1312.07675138938
 31
0.0
  0
TEXT
  5
E494
  8
01
 10
943.67933183299135
 20
-1311.1667513893799
 30
0.0
 40
4.5499999999999989
  1
11
  0
LINE
  5
E495
  8
01
  6
BYBLOCK
 10
950.58766516632465
 20
-1311.3800834953811
 30
0.0
 11
953.18766516632456
 21
-1312.07675138938
 31
0.0
  0
LINE
  5
E496
  8
01
  6
BYBLOCK
 10
953.18766516632456
 20
-1312.07675138938
 30
0.0
 11
950.58766516632465
 21
-1312.7734192833809
 31
0.0
  0
LINE
  5
E497
  8
01
  6
BYBLOCK
 10
953.18766516632456
 20
-1312.07675138938
 30
0.0
 11
950.58766516632465
 21
-1312.07675138938
 31
0.0
  0
LINE
  5
E498
  8
01
  6
BYBLOCK
 10
944.78766516632459
 20
-1312.7734192833809
 30
0.0
 11
942.18766516632468
 21
-1312.07675138938
 31
0.0
  0
LINE
  5
E499
  8
01
  6
BYBLOCK
 10
942.18766516632468
 20
-1312.07675138938
 30
0.0
 11
944.78766516632459
 21
-1311.3800834953811
 31
0.0
  0
LINE
  5
E49A
  8
01
  6
BYBLOCK
 10
942.18766516632468
 20
-1312.07675138938
 30
0.0
 11
944.78766516632459
 21
-1312.07675138938
 31
0.0
  0
TEXT
  5
E49B
  8
01
 10
983.35433183299142
 20
-1301.1667513893799
 30
0.0
 40
4.5499999999999989
  1
69
  0
LINE
  5
E49C
  8
01
  6
BYBLOCK
 10
955.78766516632481
 20
-1302.77341928338
 30
0.0
 11
953.18766516632456
 21
-1302.07675138938
 31
0.0
  0
LINE
  5
E49D
  8
01
  6
BYBLOCK
 10
953.18766516632456
 20
-1302.07675138938
 30
0.0
 11
955.78766516632481
 21
-1301.3800834953811
 31
0.0
  0
LINE
  5
E49E
  8
01
  6
BYBLOCK
 10
953.18766516632456
 20
-1302.07675138938
 30
0.0
 11
955.78766516632481
 21
-1302.07675138938
 31
0.0
  0
LINE
  5
E49F
  8
01
  6
BYBLOCK
 10
1019.587665166324
 20
-1301.3800834953811
 30
0.0
 11
1022.187665166325
 21
-1302.07675138938
 31
0.0
  0
LINE
  5
E4A0
  8
01
  6
BYBLOCK
 10
1022.187665166325
 20
-1302.07675138938
 30
0.0
 11
1019.587665166324
 21
-1302.77341928338
 31
0.0
  0
LINE
  5
E4A1
  8
01
  6
BYBLOCK
 10
1022.187665166325
 20
-1302.07675138938
 30
0.0
 11
1019.587665166324
 21
-1302.07675138938
 31
0.0
  0
TEXT
  5
E4A2
  8
01
 10
975.00433183299128
 20
-1311.1667513893799
 30
0.0
 40
4.5499999999999989
  1
51
  0
LINE
  5
E4A3
  8
01
  6
BYBLOCK
 10
1001.587665166324
 20
-1311.3800834953811
 30
0.0
 11
1004.187665166324
 21
-1312.07675138938
 31
0.0
  0
LINE
  5
E4A4
  8
01
  6
BYBLOCK
 10
1004.187665166324
 20
-1312.07675138938
 30
0.0
 11
1001.587665166324
 21
-1312.7734192833809
 31
0.0
  0
LINE
  5
E4A5
  8
01
  6
BYBLOCK
 10
1004.187665166324
 20
-1312.07675138938
 30
0.0
 11
1001.587665166324
 21
-1312.07675138938
 31
0.0
  0
LINE
  5
E4A6
  8
01
  6
BYBLOCK
 10
955.78766516632481
 20
-1312.7734192833809
 30
0.0
 11
953.18766516632456
 21
-1312.07675138938
 31
0.0
  0
LINE
  5
E4A7
  8
01
  6
BYBLOCK
 10
953.18766516632456
 20
-1312.07675138938
 30
0.0
 11
955.78766516632481
 21
-1311.3800834953811
 31
0.0
  0
LINE
  5
E4A8
  8
01
  6
BYBLOCK
 10
953.18766516632456
 20
-1312.07675138938
 30
0.0
 11
955.78766516632481
 21
-1312.07675138938
 31
0.0
  0
TEXT
  5
E4A9
  8
01
 10
630.27768516632443
 20
-1397.4100847227139
 30
0.0
 40
4.5499999999999989
  1
50
 50
90.0
  0
LINE
  5
E4AA
  8
01
  6
BYBLOCK
 10
630.49101727232414
 20
-1370.6767513893799
 30
0.0
 11
631.18768516632406
 21
-1368.0767513893809
 31
0.0
  0
LINE
  5
E4AB
  8
01
  6
BYBLOCK
 10
631.18768516632406
 20
-1368.0767513893809
 30
0.0
 11
631.8843530603242
 21
-1370.6767513893799
 31
0.0
  0
LINE
  5
E4AC
  8
01
  6
BYBLOCK
 10
631.18768516632406
 20
-1368.0767513893809
 30
0.0
 11
631.18768516632406
 21
-1370.6767513893799
 31
0.0
  0
LINE
  5
E4AD
  8
01
  6
BYBLOCK
 10
631.8843530603242
 20
-1415.476751389381
 30
0.0
 11
631.18768516632406
 21
-1418.0767513893809
 31
0.0
  0
LINE
  5
E4AE
  8
01
  6
BYBLOCK
 10
631.18768516632406
 20
-1418.0767513893809
 30
0.0
 11
630.49101727232414
 21
-1415.476751389381
 31
0.0
  0
LINE
  5
E4AF
  8
01
  6
BYBLOCK
 10
631.18768516632406
 20
-1418.0767513893809
 30
0.0
 11
631.18768516632406
 21
-1415.476751389381
 31
0.0
  0
TEXT
  5
E4B0
  8
01
 10
620.27768516632443
 20
-1397.9100847227139
 30
0.0
 40
4.5499999999999989
  1
55.5
 50
90.0
  0
LINE
  5
E4B1
  8
01
  6
BYBLOCK
 10
620.49101727232414
 20
-1365.1767513893799
 30
0.0
 11
621.18768516632406
 21
-1362.57675138938
 31
0.0
  0
LINE
  5
E4B2
  8
01
  6
BYBLOCK
 10
621.18768516632406
 20
-1362.57675138938
 30
0.0
 11
621.88435306032409
 21
-1365.1767513893799
 31
0.0
  0
LINE
  5
E4B3
  8
01
  6
BYBLOCK
 10
621.18768516632406
 20
-1362.57675138938
 30
0.0
 11
621.18768516632406
 21
-1365.1767513893799
 31
0.0
  0
LINE
  5
E4B4
  8
01
  6
BYBLOCK
 10
621.88435306032409
 20
-1415.476751389381
 30
0.0
 11
621.18768516632406
 21
-1418.0767513893809
 31
0.0
  0
LINE
  5
E4B5
  8
01
  6
BYBLOCK
 10
621.18768516632406
 20
-1418.0767513893809
 30
0.0
 11
620.49101727232414
 21
-1415.476751389381
 31
0.0
  0
LINE
  5
E4B6
  8
01
  6
BYBLOCK
 10
621.18768516632406
 20
-1418.0767513893809
 30
0.0
 11
621.18768516632406
 21
-1415.476751389381
 31
0.0
  0
TEXT
  5
E4B7
  8
01
 10
877.78126020288107
 20
-1386.196364042399
 30
0.0
 40
4.5499999999999989
  1
114
 50
90.0
  0
LINE
  5
E4B8
  8
01
  6
BYBLOCK
 10
879.38792809688073
 20
-1451.476751389381
 30
0.0
 11
878.69126020288081
 21
-1454.07675138938
 31
0.0
  0
LINE
  5
E4B9
  8
01
  6
BYBLOCK
 10
878.69126020288081
 20
-1454.07675138938
 30
0.0
 11
877.99459230888078
 21
-1451.476751389381
 31
0.0
  0
LINE
  5
E4BA
  8
01
  6
BYBLOCK
 10
878.69126020288081
 20
-1454.07675138938
 30
0.0
 11
878.69126020288081
 21
-1451.476751389381
 31
0.0
  0
LINE
  5
E4BB
  8
01
  6
BYBLOCK
 10
877.99459230888078
 20
-1342.6767513893799
 30
0.0
 11
878.69126020288081
 21
-1340.07675138938
 31
0.0
  0
LINE
  5
E4BC
  8
01
  6
BYBLOCK
 10
878.69126020288081
 20
-1340.07675138938
 30
0.0
 11
879.38792809688073
 21
-1342.6767513893799
 31
0.0
  0
LINE
  5
E4BD
  8
01
  6
BYBLOCK
 10
878.69126020288081
 20
-1340.07675138938
 30
0.0
 11
878.69126020288081
 21
-1342.6767513893799
 31
0.0
  0
TEXT
  5
E4BE
  8
01
 10
893.27766916632424
 20
-1386.0880307090661
 30
0.0
 40
4.5499999999999989
  1
130
 50
90.0
  0
LINE
  5
E4BF
  8
01
  6
BYBLOCK
 10
894.88433706032401
 20
-1459.476751389381
 30
0.0
 11
894.18766916632387
 21
-1462.07675138938
 31
0.0
  0
LINE
  5
E4C0
  8
01
  6
BYBLOCK
 10
894.18766916632387
 20
-1462.07675138938
 30
0.0
 11
893.49100127232396
 21
-1459.476751389381
 31
0.0
  0
LINE
  5
E4C1
  8
01
  6
BYBLOCK
 10
894.18766916632387
 20
-1462.07675138938
 30
0.0
 11
894.18766916632387
 21
-1459.476751389381
 31
0.0
  0
LINE
  5
E4C2
  8
01
  6
BYBLOCK
 10
893.49100127232396
 20
-1334.6767513893799
 30
0.0
 11
894.18766916632387
 21
-1332.07675138938
 31
0.0
  0
LINE
  5
E4C3
  8
01
  6
BYBLOCK
 10
894.18766916632387
 20
-1332.07675138938
 30
0.0
 11
894.88433706032401
 21
-1334.6767513893799
 31
0.0
  0
LINE
  5
E4C4
  8
01
  6
BYBLOCK
 10
894.18766916632387
 20
-1332.07675138938
 30
0.0
 11
894.18766916632387
 21
-1334.6767513893799
 31
0.0
  0
TEXT
  5
E4C5
  8
01
 10
1135.2776651663251
 20
-1422.4100847227139
 30
0.0
 40
4.5499999999999989
  1
22
 50
90.0
  0
LINE
  5
E4C6
  8
01
  6
BYBLOCK
 10
1136.8843330603249
 20
-1426.2767513893809
 30
0.0
 11
1136.187665166324
 21
-1428.8767513893811
 31
0.0
  0
LINE
  5
E4C7
  8
01
  6
BYBLOCK
 10
1136.187665166324
 20
-1428.8767513893811
 30
0.0
 11
1135.4909972723251
 21
-1426.2767513893809
 31
0.0
  0
LINE
  5
E4C8
  8
01
  6
BYBLOCK
 10
1136.187665166324
 20
-1428.8767513893811
 30
0.0
 11
1136.187665166324
 21
-1426.2767513893809
 31
0.0
  0
LINE
  5
E4C9
  8
01
  6
BYBLOCK
 10
1135.4909972723251
 20
-1409.8767513893799
 30
0.0
 11
1136.187665166324
 21
-1407.27675138938
 31
0.0
  0
LINE
  5
E4CA
  8
01
  6
BYBLOCK
 10
1136.187665166324
 20
-1407.27675138938
 30
0.0
 11
1136.8843330603249
 21
-1409.8767513893799
 31
0.0
  0
LINE
  5
E4CB
  8
01
  6
BYBLOCK
 10
1136.187665166324
 20
-1407.27675138938
 30
0.0
 11
1136.187665166324
 21
-1409.8767513893799
 31
0.0
  0
LINE
  5
E4CC
  8
01
 10
1004.187665166324
 20
-1393.07675138938
 30
0.0
 11
967.88766516632438
 21
-1393.07675138938
 31
0.0
  0
LINE
  5
E4CD
  8
01
 10
1004.187665166324
 20
-1443.07675138938
 30
0.0
 11
967.88766516632438
 21
-1443.07675138938
 31
0.0
  0
LINE
  5
E4CE
  8
01
 10
969.18766516632445
 20
-1395.676751389381
 30
0.0
 11
969.18766516632445
 21
-1440.4767513893801
 31
0.0
  0
TEXT
  5
E4D2
  8
01
 10
1055.862781506069
 20
-1235.7667492224609
 30
0.0
 40
4.5499999999999989
  1
117
  0
LINE
  5
E4D3
  8
01
  6
BYBLOCK
 10
1006.787781506069
 20
-1237.373417116461
 30
0.0
 11
1004.187781506069
 21
-1236.676749222461
 31
0.0
  0
LINE
  5
E4D4
  8
01
  6
BYBLOCK
 10
1004.187781506069
 20
-1236.676749222461
 30
0.0
 11
1006.787781506069
 21
-1235.980081328461
 31
0.0
  0
LINE
  5
E4D5
  8
01
  6
BYBLOCK
 10
1004.187781506069
 20
-1236.676749222461
 30
0.0
 11
1006.787781506069
 21
-1236.676749222461
 31
0.0
  0
LINE
  5
E4D6
  8
01
  6
BYBLOCK
 10
1118.5877815060689
 20
-1235.980081328461
 30
0.0
 11
1121.1877815060691
 21
-1236.676749222461
 31
0.0
  0
LINE
  5
E4D7
  8
01
  6
BYBLOCK
 10
1121.1877815060691
 20
-1236.676749222461
 30
0.0
 11
1118.5877815060689
 21
-1237.373417116461
 31
0.0
  0
LINE
  5
E4D8
  8
01
  6
BYBLOCK
 10
1121.1877815060691
 20
-1236.676749222461
 30
0.0
 11
1118.5877815060689
 21
-1236.676749222461
 31
0.0
  0
TEXT
  5
E4D9
  8
01
 10
1050.462909829301
 20
-1245.76674922246
 30
0.0
 40
4.5499999999999989
  1
128
  0
LINE
  5
E4DA
  8
01
  6
BYBLOCK
 10
995.98791203352278
 20
-1247.373417116461
 30
0.0
 11
993.38791203352275
 21
-1246.676749222461
 31
0.0
  0
LINE
  5
E4DB
  8
01
  6
BYBLOCK
 10
993.38791203352275
 20
-1246.676749222461
 30
0.0
 11
995.98791203352278
 21
-1245.9800813284601
 31
0.0
  0
LINE
  5
E4DC
  8
01
  6
BYBLOCK
 10
993.38791203352275
 20
-1246.676749222461
 30
0.0
 11
995.98791203352278
 21
-1246.676749222461
 31
0.0
  0
LINE
  5
E4DD
  8
01
  6
BYBLOCK
 10
1118.5879076250801
 20
-1245.9800813284601
 30
0.0
 11
1121.18790762508
 21
-1246.676749222461
 31
0.0
  0
LINE
  5
E4DE
  8
01
  6
BYBLOCK
 10
1121.18790762508
 20
-1246.676749222461
 30
0.0
 11
1118.5879076250801
 21
-1247.373417116461
 31
0.0
  0
LINE
  5
E4DF
  8
01
  6
BYBLOCK
 10
1121.18790762508
 20
-1246.676749222461
 30
0.0
 11
1118.5879076250801
 21
-1246.676749222461
 31
0.0
  0
TEXT
  5
E4E0
  8
01
 10
800.48721055645035
 20
-1311.1667513893799
 30
0.0
 40
4.5499999999999989
  1
22
  0
LINE
  5
E4E1
  8
01
  6
BYBLOCK
 10
794.78728360060859
 20
-1312.7734192833809
 30
0.0
 11
792.18728360060868
 21
-1312.07675138938
 31
0.0
  0
LINE
  5
E4E2
  8
01
  6
BYBLOCK
 10
792.18728360060868
 20
-1312.07675138938
 30
0.0
 11
794.78728360060859
 21
-1311.3800834953811
 31
0.0
  0
LINE
  5
E4E3
  8
01
  6
BYBLOCK
 10
792.18728360060868
 20
-1312.07675138938
 30
0.0
 11
794.78728360060859
 21
-1312.07675138938
 31
0.0
  0
LINE
  5
E4E4
  8
01
  6
BYBLOCK
 10
811.58766916632419
 20
-1311.3800834953811
 30
0.0
 11
814.18766916632421
 21
-1312.07675138938
 31
0.0
  0
LINE
  5
E4E5
  8
01
  6
BYBLOCK
 10
814.18766916632421
 20
-1312.07675138938
 30
0.0
 11
811.58766916632419
 21
-1312.7734192833809
 31
0.0
  0
LINE
  5
E4E6
  8
01
  6
BYBLOCK
 10
814.18766916632421
 20
-1312.07675138938
 30
0.0
 11
811.58766916632419
 21
-1312.07675138938
 31
0.0
  0
TEXT
  5
E4E7
  8
01
 10
856.02088750465964
 20
-1311.1667513893799
 30
0.0000000000562575
 40
4.5499999999999989
  1
8
  0
LINE
  5
E4E8
  8
01
  6
BYBLOCK
 10
859.5874391763283
 20
-1311.3800834953811
 30
0.0000000000562575
 11
862.18743917632833
 21
-1312.07675138938
 31
0.0000000000562575
  0
LINE
  5
E4E9
  8
01
  6
BYBLOCK
 10
862.18743917632833
 20
-1312.07675138938
 30
0.0000000000562575
 11
859.5874391763283
 21
-1312.7734192833809
 31
0.0000000000562575
  0
LINE
  5
E4EA
  8
01
  6
BYBLOCK
 10
862.18743917632833
 20
-1312.07675138938
 30
0.0000000000562575
 11
859.5874391763283
 21
-1312.07675138938
 31
0.0000000000562575
  0
LINE
  5
E4EB
  8
01
  6
BYBLOCK
 10
856.78766916632424
 20
-1312.7734192833809
 30
0.0000000000562575
 11
854.18766916632421
 21
-1312.07675138938
 31
0.0000000000562575
  0
LINE
  5
E4EC
  8
01
  6
BYBLOCK
 10
854.18766916632421
 20
-1312.07675138938
 30
0.0000000000562575
 11
856.78766916632424
 21
-1311.3800834953811
 31
0.0000000000562575
  0
LINE
  5
E4ED
  8
01
  6
BYBLOCK
 10
854.18766916632421
 20
-1312.07675138938
 30
0.0000000000562575
 11
856.78766916632424
 21
-1312.07675138938
 31
0.0000000000562575
  0
TEXT
  5
E4EE
  8
01
 10
656.99433983298889
 20
-1334.1667513893799
 30
0.0
 40
4.5499999999999989
  1
\U+03C640
  0
LINE
  5
E4EF
  8
01
  6
BYBLOCK
 10
681.58767316632225
 20
-1334.3800834953799
 30
0.0
 11
684.18767316632238
 21
-1335.0767513893809
 31
0.0
  0
LINE
  5
E4F0
  8
01
  6
BYBLOCK
 10
684.18767316632238
 20
-1335.0767513893809
 30
0.0
 11
681.58767316632225
 21
-1335.7734192833809
 31
0.0
  0
LINE
  5
E4F1
  8
01
  6
BYBLOCK
 10
684.18767316632238
 20
-1335.0767513893809
 30
0.0
 11
681.58767316632225
 21
-1335.0767513893809
 31
0.0
  0
LINE
  5
E4F2
  8
01
  6
BYBLOCK
 10
646.78767316632195
 20
-1335.7734192833809
 30
0.0
 11
644.18767316632193
 21
-1335.0767513893809
 31
0.0
  0
LINE
  5
E4F3
  8
01
  6
BYBLOCK
 10
644.18767316632193
 20
-1335.0767513893809
 30
0.0
 11
646.78767316632195
 21
-1334.3800834953799
 31
0.0
  0
LINE
  5
E4F4
  8
01
  6
BYBLOCK
 10
644.18767316632193
 20
-1335.0767513893809
 30
0.0
 11
646.78767316632195
 21
-1335.0767513893809
 31
0.0
  0
TEXT
  5
E4F5
  8
01
 10
996.99433183298981
 20
-1334.1667513893799
 30
0.0
 40
4.5499999999999989
  1
\U+03C640
  0
LINE
  5
E4F6
  8
01
  6
BYBLOCK
 10
1021.5876651663229
 20
-1334.3800834953799
 30
0.0
 11
1024.1876651663231
 21
-1335.0767513893809
 31
0.0
  0
LINE
  5
E4F7
  8
01
  6
BYBLOCK
 10
1024.1876651663231
 20
-1335.0767513893809
 30
0.0
 11
1021.5876651663229
 21
-1335.7734192833809
 31
0.0
  0
LINE
  5
E4F8
  8
01
  6
BYBLOCK
 10
1024.1876651663231
 20
-1335.0767513893809
 30
0.0
 11
1021.5876651663229
 21
-1335.0767513893809
 31
0.0
  0
LINE
  5
E4F9
  8
01
  6
BYBLOCK
 10
986.78766516632288
 20
-1335.7734192833809
 30
0.0
 11
984.18766516632286
 21
-1335.0767513893809
 31
0.0
  0
LINE
  5
E4FA
  8
01
  6
BYBLOCK
 10
984.18766516632286
 20
-1335.0767513893809
 30
0.0
 11
986.78766516632288
 21
-1334.3800834953799
 31
0.0
  0
LINE
  5
E4FB
  8
01
  6
BYBLOCK
 10
984.18766516632286
 20
-1335.0767513893809
 30
0.0
 11
986.78766516632288
 21
-1335.0767513893809
 31
0.0
  0
TEXT
  5
E4FC
  8
01
 10
1048.2776651663251
 20
-1404.4100847227139
 30
0.0
 40
4.5499999999999989
  1
74.5
 50
90.0
  0
LINE
  5
E4FD
  8
01
  6
BYBLOCK
 10
1049.884333060324
 20
-1431.476751389381
 30
0.0
 11
1049.1876651663249
 21
-1434.0767513893809
 31
0.0
  0
LINE
  5
E4FE
  8
01
  6
BYBLOCK
 10
1049.1876651663249
 20
-1434.0767513893809
 30
0.0
 11
1048.490997272324
 21
-1431.476751389381
 31
0.0
  0
LINE
  5
E4FF
  8
01
  6
BYBLOCK
 10
1049.1876651663249
 20
-1434.0767513893809
 30
0.0
 11
1049.1876651663249
 21
-1431.476751389381
 31
0.0
  0
LINE
  5
E500
  8
01
  6
BYBLOCK
 10
1048.490997272324
 20
-1362.1767513893799
 30
0.0
 11
1049.1876651663249
 21
-1359.57675138938
 31
0.0
  0
LINE
  5
E501
  8
01
  6
BYBLOCK
 10
1049.1876651663249
 20
-1359.57675138938
 30
0.0
 11
1049.884333060324
 21
-1362.1767513893799
 31
0.0
  0
LINE
  5
E502
  8
01
  6
BYBLOCK
 10
1049.1876651663249
 20
-1359.57675138938
 30
0.0
 11
1049.1876651663249
 21
-1362.1767513893799
 31
0.0
  0
LINE
  5
E503
  8
01
 10
1001.876728294392
 20
-1187.5726625489849
 30
0.0
 11
976.94082625934084
 21
-1206.9867513904089
 31
0.0
1001
ACAD
1000
DSTYLE
1002
{
1070
    40
1040
1.3
1002
}
  0
LINE
  5
E504
  8
01
 10
976.94082625934084
 20
-1206.9867513904089
 30
0.0
 11
973.43082625934085
 21
-1206.9867513904089
 31
0.0
1001
ACAD
1000
DSTYLE
1002
{
1070
    40
1040
1.3
1002
}
  0
TEXT
  5
E505
  8
01
 10
1043.1389401080969
 20
-1155.6600847237421
 30
0.0
 40
4.5499999999999989
  1
20.5
 50
90.0
  0
LINE
  5
E506
  8
01
  6
BYBLOCK
 10
1044.745608002097
 20
-1155.7267513904089
 30
0.0
 11
1044.048940108097
 21
-1158.3267513904091
 31
0.0
  0
LINE
  5
E507
  8
01
  6
BYBLOCK
 10
1044.048940108097
 20
-1158.3267513904091
 30
0.0
 11
1043.352272214097
 21
-1155.7267513904089
 31
0.0
  0
LINE
  5
E508
  8
01
  6
BYBLOCK
 10
1044.048940108097
 20
-1158.3267513904091
 30
0.0
 11
1044.048940108097
 21
-1155.7267513904089
 31
0.0
  0
LINE
  5
E509
  8
01
  6
BYBLOCK
 10
1043.352272214097
 20
-1140.426751390409
 30
0.0
 11
1044.048940108097
 21
-1137.8267513904091
 31
0.0
  0
LINE
  5
E50A
  8
01
  6
BYBLOCK
 10
1044.048940108097
 20
-1137.8267513904091
 30
0.0
 11
1044.745608002097
 21
-1140.426751390409
 31
0.0
  0
LINE
  5
E50B
  8
01
  6
BYBLOCK
 10
1044.048940108097
 20
-1137.8267513904091
 30
0.0
 11
1044.048940108097
 21
-1140.426751390409
 31
0.0
  0
TEXT
  5
E50C
  8
01
 10
968.2776651663246
 20
-1426.6098306848689
 30
0.0
 40
4.5499999999999989
  1
\U+03C650
 50
90.0
  0
LINE
  5
E50D
  8
01
  6
BYBLOCK
 10
969.88433306032437
 20
-1440.4767513893801
 30
0.0
 11
969.18766516632445
 21
-1443.07675138938
 31
0.0
  0
LINE
  5
E50E
  8
01
  6
BYBLOCK
 10
969.18766516632445
 20
-1443.07675138938
 30
0.0
 11
968.49099727232453
 21
-1440.4767513893801
 31
0.0
  0
LINE
  5
E50F
  8
01
  6
BYBLOCK
 10
969.18766516632445
 20
-1443.07675138938
 30
0.0
 11
969.18766516632445
 21
-1440.4767513893801
 31
0.0
  0
LINE
  5
E510
  8
01
  6
BYBLOCK
 10
968.49099727232453
 20
-1395.676751389381
 30
0.0
 11
969.18766516632445
 21
-1393.07675138938
 31
0.0
  0
LINE
  5
E511
  8
01
  6
BYBLOCK
 10
969.18766516632445
 20
-1393.07675138938
 30
0.0
 11
969.88433306032437
 21
-1395.676751389381
 31
0.0
  0
LINE
  5
E512
  8
01
  6
BYBLOCK
 10
969.18766516632445
 20
-1393.07675138938
 30
0.0
 11
969.18766516632445
 21
-1395.676751389381
 31
0.0
  0
VIEWPORT
  5
57
 67
     1
  8
0
 10
10.300854394508089
 20
17.565658765306811
 30
0.0
 40
436.73568300434312
 41
283.68494807538752
 68
     1
 69
     1
1001
ACAD
1000
MVIEW
1002
{
1070
    16
1010
0.0
1020
0.0
1030
0.0
1010
0.0
1020
0.0
1030
1.0
1040
0.0
1040
283.68494807538752
1040
10.300854394508089
1040
17.565658765306811
1040
50.0
1040
0.0
1040
0.0
1070
     0
1070
   100
1070
     1
1070
     1
1070
     0
1070
     0
1070
     0
1070
     0
1040
0.0
1040
0.0
1040
0.0
1040
10.0
1040
10.0
1040
10.0
1040
10.0
1070
     0
1002
{
1002
}
1002
}
  0
ENDSEC
  0
EOF
