  0
SECTION
  2
HEADER
  9
$ACADVER
  1
AC1012
  9
$DWGCODEPAGE
  3
ansi_932
  9
$INSBASE
 10
0.0
 20
0.0
 30
0.0
  9
$EXTMIN
 10
1881.137735967169
 20
-768.929888311422
 30
0.0
  9
$EXTMAX
 10
2502.437619627422
 20
-334.9277883124504
 30
0.0000000001691139
  9
$LIMMIN
 10
0.0
 20
0.0
  9
$LIMMAX
 10
420.0
 20
297.0
  9
$ORTHOMODE
 70
     0
  9
$REGENMODE
 70
     1
  9
$FILLMODE
 70
     1
  9
$QTEXTMODE
 70
     0
  9
$MIRRTEXT
 70
     0
  9
$DRAGMODE
 70
     2
  9
$LTSCALE
 40
0.5
  9
$OSMODE
 70
 14463
  9
$ATTMODE
 70
     1
  9
$TEXTSIZE
 40
4.0
  9
$TRACEWID
 40
1.0
  9
$TEXTSTYLE
  7
STANDARD
  9
$CLAYER
  8
1TEXT
  9
$CELTYPE
  6
BYLAYER
  9
$CECOLOR
 62
   256
  9
$CELTSCALE
 40
1.0
  9
$DELOBJ
 70
     1
  9
$DISPSILH
 70
     0
  9
$DIMSCALE
 40
1.0
  9
$DIMASZ
 40
2.0
  9
$DIMEXO
 40
0.0
  9
$DIMDLI
 40
7.0
  9
$DIMRND
 40
0.0
  9
$DIMDLE
 40
0.0
  9
$DIMEXE
 40
1.0
  9
$DIMTP
 40
0.0
  9
$DIMTM
 40
0.0
  9
$DIMTXT
 40
3.5
  9
$DIMCEN
 40
0.0
  9
$DIMTSZ
 40
0.0
  9
$DIMTOL
 70
     0
  9
$DIMLIM
 70
     0
  9
$DIMTIH
 70
     0
  9
$DIMTOH
 70
     0
  9
$DIMSE1
 70
     0
  9
$DIMSE2
 70
     0
  9
$DIMTAD
 70
     1
  9
$DIMZIN
 70
     8
  9
$DIMBLK
  1

  9
$DIMASO
 70
     1
  9
$DIMSHO
 70
     1
  9
$DIMPOST
  1
 
  9
$DIMAPOST
  1

  9
$DIMALT
 70
     0
  9
$DIMALTD
 70
     2
  9
$DIMALTF
 40
25.4
  9
$DIMLFAC
 40
1.0
  9
$DIMTOFL
 70
     1
  9
$DIMTVP
 40
0.0
  9
$DIMTIX
 70
     0
  9
$DIMSOXD
 70
     0
  9
$DIMSAH
 70
     1
  9
$DIMBLK1
  1
OPEN30
  9
$DIMBLK2
  1
OPEN30
  9
$DIMSTYLE
  2
NEWX10
  9
$DIMCLRD
 70
   256
  9
$DIMCLRE
 70
   256
  9
$DIMCLRT
 70
   201
  9
$DIMTFAC
 40
0.7
  9
$DIMGAP
 40
0.7
  9
$DIMJUST
 70
     0
  9
$DIMSD1
 70
     0
  9
$DIMSD2
 70
     0
  9
$DIMTOLJ
 70
     1
  9
$DIMTZIN
 70
     8
  9
$DIMALTZ
 70
     0
  9
$DIMALTTZ
 70
     0
  9
$DIMFIT
 70
     2
  9
$DIMUPT
 70
     0
  9
$DIMUNIT
 70
     2
  9
$DIMDEC
 70
     2
  9
$DIMTDEC
 70
     4
  9
$DIMALTU
 70
     2
  9
$DIMALTTD
 70
     2
  9
$DIMTXSTY
  7
STANDARD
  9
$DIMAUNIT
 70
     0
  9
$LUNITS
 70
     2
  9
$LUPREC
 70
     4
  9
$SKETCHINC
 40
1.0
  9
$FILLETRAD
 40
0.0
  9
$AUNITS
 70
     0
  9
$AUPREC
 70
     2
  9
$MENU
  1
acad
  9
$ELEVATION
 40
0.0
  9
$PELEVATION
 40
0.0
  9
$THICKNESS
 40
0.0
  9
$LIMCHECK
 70
     0
  9
$CHAMFERA
 40
10.0
  9
$CHAMFERB
 40
10.0
  9
$CHAMFERC
 40
20.0
  9
$CHAMFERD
 40
0.0
  9
$SKPOLY
 70
     0
  9
$TDCREATE
 40
2451318.621352917
  9
$TDUPDATE
 40
2458150.638200035
  9
$TDINDWG
 40
1.6404422569
  9
$TDUSRTIMER
 40
1.6404422569
  9
$USRTIMER
 70
     1
  9
$ANGBASE
 50
0.0
  9
$ANGDIR
 70
     0
  9
$PDMODE
 70
     0
  9
$PDSIZE
 40
0.0
  9
$PLINEWID
 40
0.0
  9
$COORDS
 70
     2
  9
$SPLFRAME
 70
     0
  9
$SPLINETYPE
 70
     6
  9
$SPLINESEGS
 70
     8
  9
$ATTDIA
 70
     0
  9
$ATTREQ
 70
     1
  9
$HANDLING
 70
     1
  9
$HANDSEED
  5
1B1EC
  9
$SURFTAB1
 70
     6
  9
$SURFTAB2
 70
     6
  9
$SURFTYPE
 70
     6
  9
$SURFU
 70
     6
  9
$SURFV
 70
     6
  9
$UCSNAME
  2

  9
$UCSORG
 10
0.0
 20
0.0
 30
0.0
  9
$UCSXDIR
 10
1.0
 20
0.0
 30
0.0
  9
$UCSYDIR
 10
0.0
 20
1.0
 30
0.0
  9
$PUCSNAME
  2

  9
$PUCSORG
 10
0.0
 20
0.0
 30
0.0
  9
$PUCSXDIR
 10
1.0
 20
0.0
 30
0.0
  9
$PUCSYDIR
 10
0.0
 20
1.0
 30
0.0
  9
$USERI1
 70
     0
  9
$USERI2
 70
     0
  9
$USERI3
 70
     0
  9
$USERI4
 70
     0
  9
$USERI5
 70
     0
  9
$USERR1
 40
0.0
  9
$USERR2
 40
0.0
  9
$USERR3
 40
0.0
  9
$USERR4
 40
0.0
  9
$USERR5
 40
0.0
  9
$WORLDVIEW
 70
     1
  9
$SHADEDGE
 70
     3
  9
$SHADEDIF
 70
    70
  9
$TILEMODE
 70
     1
  9
$MAXACTVP
 70
    48
  9
$PINSBASE
 10
0.0
 20
0.0
 30
0.0
  9
$PLIMCHECK
 70
     0
  9
$PEXTMIN
 10
1.000000000000000E+20
 20
1.000000000000000E+20
 30
1.000000000000000E+20
  9
$PEXTMAX
 10
-1.000000000000000E+20
 20
-1.000000000000000E+20
 30
-1.000000000000000E+20
  9
$PLIMMIN
 10
0.0
 20
0.0
  9
$PLIMMAX
 10
420.0
 20
297.0
  9
$UNITMODE
 70
     0
  9
$VISRETAIN
 70
     1
  9
$PLINEGEN
 70
     0
  9
$PSLTSCALE
 70
     1
  9
$TREEDEPTH
 70
  3020
  9
$PICKSTYLE
 70
     1
  9
$CMLSTYLE
  2
STANDARD
  9
$CMLJUST
 70
     0
  9
$CMLSCALE
 40
20.0
  9
$SAVEIMAGES
 70
     1
  0
ENDSEC
  0
SECTION
  2
CLASSES
  0
CLASS
  1
DICTIONARYVAR
  2
AcDbDictionaryVar
  3
ObjectDBX Classes
 90
        0
280
     0
281
     0
  0
CLASS
  1
IDBUFFER
  2
AcDbIdBuffer
  3
ObjectDBX Classes
 90
    32768
280
     0
281
     0
  0
CLASS
  1
LWPOLYLINE
  2
AcDbPolyline
  3
ObjectDBX Classes
 90
    32768
280
     0
281
     1
  0
CLASS
  1
ACDBDICTIONARYWDFLT
  2
AcDbDictionaryWithDefault
  3
ObjectDBX Classes
 90
    32768
280
     0
281
     0
  0
CLASS
  1
ACDBPLACEHOLDER
  2
AcDbPlaceHolder
  3
ObjectDBX Classes
 90
        0
280
     0
281
     0
  0
CLASS
  1
LAYOUT
  2
AcDbLayout
  3
ObjectDBX Classes
 90
        0
280
     0
281
     0
  0
CLASS
  1
TABLESTYLE
  2
AcDbTableStyle
  3
ObjectDBX Classes
 90
     4095
280
     0
281
     0
  0
CLASS
  1
SORTENTSTABLE
  2
AcDbSortentsTable
  3
ObjectDBX Classes
 90
    32768
280
     0
281
     0
  0
CLASS
  1
MATERIAL
  2
AcDbMaterial
  3
ObjectDBX Classes
 90
     1153
280
     0
281
     0
  0
CLASS
  1
VISUALSTYLE
  2
AcDbVisualStyle
  3
ObjectDBX Classes
 90
     4095
280
     0
281
     0
  0
CLASS
  1
SCALE
  2
AcDbScale
  3
ObjectDBX Classes
 90
     1153
280
     0
281
     0
  0
CLASS
  1
MLEADERSTYLE
  2
AcDbMLeaderStyle
  3
ACDB_MLEADERSTYLE_CLASS
 90
     4095
280
     0
281
     0
  0
CLASS
  1
CELLSTYLEMAP
  2
AcDbCellStyleMap
  3
ObjectDBX Classes
 90
     1152
280
     0
281
     0
  0
CLASS
  1
SUN
  2
AcDbSun
  3
SCENEOE
 90
     1153
280
     0
281
     0
  0
CLASS
  1
XRECORD
  2
AcDbXrecord
  3
ObjectDBX Classes
 90
    32768
280
     0
281
     0
  0
CLASS
  1
HATCH
  2
AcDbHatch
  3
ObjectDBX Classes
 90
    32768
280
     0
281
     1
  0
ENDSEC
  0
SECTION
  2
TABLES
  0
TABLE
  2
VPORT
  5
8
330
0
100
AcDbSymbolTable
 70
     1
  0
VPORT
  5
D991
330
8
100
AcDbSymbolTableRecord
100
AcDbViewportTableRecord
  2
*ACTIVE
 70
     0
 10
0.0
 20
0.0
 11
1.0
 21
1.0
 12
2191.787677797296
 22
-551.9288383119363
 13
0.0
 23
0.0
 14
10.0
 24
10.0
 15
10.0
 25
10.0
 16
0.0
 26
0.0
 36
1.0
 17
0.0
 27
0.0
 37
0.0
 40
465.981202104159
 41
2.233782129742962
 42
50.0
 43
0.0
 44
0.0
 50
0.0
 51
0.0
 71
    16
 72
   100
 73
     1
 74
     1
 75
     0
 76
     0
 77
     0
 78
     0
  0
ENDTAB
  0
TABLE
  2
LTYPE
  5
5
330
0
100
AcDbSymbolTable
 70
     2
  0
LTYPE
  5
12
330
5
100
AcDbSymbolTableRecord
100
AcDbLinetypeTableRecord
  2
BYBLOCK
 70
     0
  3

 72
    65
 73
     0
 40
0.0
  0
LTYPE
  5
13
330
5
100
AcDbSymbolTableRecord
100
AcDbLinetypeTableRecord
  2
BYLAYER
 70
     0
  3

 72
    65
 73
     0
 40
0.0
  0
LTYPE
  5
14
330
5
100
AcDbSymbolTableRecord
100
AcDbLinetypeTableRecord
  2
CONTINUOUS
 70
     0
  3
Solid line
 72
    65
 73
     0
 40
0.0
  0
LTYPE
  5
13839
330
5
100
AcDbSymbolTableRecord
100
AcDbLinetypeTableRecord
  2
CENTER2
 70
     0
  3
Center (.5x) ___ _ ___ _ ___ _ ___ _ ___ _ ___
 72
    65
 73
     4
 40
28.575
 49
19.05
 74
     0
 49
-3.175
 74
     0
 49
3.175
 74
     0
 49
-3.175
 74
     0
  0
ENDTAB
  0
TABLE
  2
LAYER
  5
2
102
{ACAD_XDICTIONARY
360
E6A6
102
}
330
0
100
AcDbSymbolTable
 70
     5
  0
LAYER
  5
E
102
{ACAD_XDICTIONARY
360
DA05
102
}
330
2
100
AcDbSymbolTableRecord
100
AcDbLayerTableRecord
  2
0
 70
     0
 62
     7
  6
CONTINUOUS
  0
LAYER
  5
29
102
{ACAD_XDICTIONARY
360
DA07
102
}
330
2
100
AcDbSymbolTableRecord
100
AcDbLayerTableRecord
  2
1CENTER
 70
     0
 62
     7
  6
CENTER2
  0
LAYER
  5
31
102
{ACAD_XDICTIONARY
360
DA09
102
}
330
2
100
AcDbSymbolTableRecord
100
AcDbLayerTableRecord
  2
1TEXT
 70
     0
 62
     7
  6
CONTINUOUS
  0
LAYER
  5
243
102
{ACAD_XDICTIONARY
360
DA0F
102
}
330
2
100
AcDbSymbolTableRecord
100
AcDbLayerTableRecord
  2
01
 70
     0
 62
     1
  6
CONTINUOUS
  0
LAYER
  5
24E
102
{ACAD_XDICTIONARY
360
DA15
102
}
330
2
100
AcDbSymbolTableRecord
100
AcDbLayerTableRecord
  2
1DIM
 70
     0
 62
     7
  6
CONTINUOUS
  0
ENDTAB
  0
TABLE
  2
STYLE
  5
3
330
0
100
AcDbSymbolTable
 70
     1
  0
STYLE
  5
F
330
3
100
AcDbSymbolTableRecord
100
AcDbTextStyleTableRecord
  2
STANDARD
 70
     0
 40
0.0
 41
1.0
 50
0.0
 71
     0
 42
4.0
  3
txt.shx
  4
extfont.shx
  0
ENDTAB
  0
TABLE
  2
VIEW
  5
6
330
0
100
AcDbSymbolTable
 70
     0
  0
ENDTAB
  0
TABLE
  2
UCS
  5
7
330
0
100
AcDbSymbolTable
 70
     0
  0
ENDTAB
  0
TABLE
  2
APPID
  5
9
330
0
100
AcDbSymbolTable
 70
    13
  0
APPID
  5
10
330
9
100
AcDbSymbolTableRecord
100
AcDbRegAppTableRecord
  2
ACAD
 70
     0
  0
APPID
  5
21
330
9
100
AcDbSymbolTableRecord
100
AcDbRegAppTableRecord
  2
DRAWINGVARIABLESXDATA
 70
     0
  0
APPID
  5
64
330
9
100
AcDbSymbolTableRecord
100
AcDbRegAppTableRecord
  2
CONTENTTABDATA
 70
     0
  0
APPID
  5
65
330
9
100
AcDbSymbolTableRecord
100
AcDbRegAppTableRecord
  2
CONTENTCURRENTTAB
 70
     0
  0
APPID
  5
66
330
9
100
AcDbSymbolTableRecord
100
AcDbRegAppTableRecord
  2
CONTENTBLOCKDESCRIPTION
 70
     0
  0
APPID
  5
67
330
9
100
AcDbSymbolTableRecord
100
AcDbRegAppTableRecord
  2
CONTENTBLOCKICON
 70
     0
  0
APPID
  5
68
330
9
100
AcDbSymbolTableRecord
100
AcDbRegAppTableRecord
  2
CONTENTLONGBLOCKNAME
 70
     0
  0
APPID
  5
2AE
330
9
100
AcDbSymbolTableRecord
100
AcDbRegAppTableRecord
  2
ACAD_PSEXT
 70
     0
  0
APPID
  5
D9E9
330
9
100
AcDbSymbolTableRecord
100
AcDbRegAppTableRecord
  2
ACAD_MLEADERVER
 70
     0
  0
APPID
  5
19D01
330
9
100
AcDbSymbolTableRecord
100
AcDbRegAppTableRecord
  2
ACADANNOTATIVE
 70
     0
  0
APPID
  5
19D02
330
9
100
AcDbSymbolTableRecord
100
AcDbRegAppTableRecord
  2
ACDBBLOCKREPETAG
 70
     0
  0
APPID
  5
1A67E
330
9
100
AcDbSymbolTableRecord
100
AcDbRegAppTableRecord
  2
ACAD_OBJECT_CHANGE_GUID
 70
     0
  0
APPID
  5
1A7E7
330
9
100
AcDbSymbolTableRecord
100
AcDbRegAppTableRecord
  2
ACAECLAYERSTANDARD
 70
     0
  0
ENDTAB
  0
TABLE
  2
DIMSTYLE
  5
A
330
0
100
AcDbSymbolTable
 70
     1
  0
DIMSTYLE
105
48
330
A
100
AcDbSymbolTableRecord
100
AcDbDimStyleTableRecord
  2
NEWX10
 70
     0
  3
 
  4

  5

  6
OPEN30
  7
OPEN30
 40
1.0
 41
2.0
 42
0.0
 43
7.0
 44
1.0
 45
0.0
 46
0.0
 47
0.0
 48
0.0
140
3.5
141
0.0
142
0.0
143
25.4
144
1.0
145
0.0
146
0.7
147
0.7
 71
     0
 72
     0
 73
     0
 74
     0
 75
     0
 76
     0
 77
     1
 78
     8
170
     0
171
     2
172
     1
173
     1
174
     0
175
     0
176
   256
177
   256
178
   201
179
     2
270
     2
271
     2
272
     4
273
     2
274
     2
340
F
275
     0
280
     0
281
     0
282
     0
283
     1
284
     8
285
     0
286
     0
287
     2
288
     0
  0
ENDTAB
  0
TABLE
  2
BLOCK_RECORD
  5
1
330
0
100
AcDbSymbolTable
 70
     8
  0
BLOCK_RECORD
  5
18
102
{ACAD_XDICTIONARY
360
88F
102
}
330
1
100
AcDbSymbolTableRecord
100
AcDbBlockTableRecord
  2
*MODEL_SPACE
  0
BLOCK_RECORD
  5
15
330
1
100
AcDbSymbolTableRecord
100
AcDbBlockTableRecord
  2
*PAPER_SPACE
  0
BLOCK_RECORD
  5
42
330
1
100
AcDbSymbolTableRecord
100
AcDbBlockTableRecord
  2
_OPEN30
  0
BLOCK_RECORD
  5
19D51
330
1
100
AcDbSymbolTableRecord
100
AcDbBlockTableRecord
  2
A3WAKUKAWAJUN2017_HYOUDAI_
  0
BLOCK_RECORD
  5
1B04C
330
1
100
AcDbSymbolTableRecord
100
AcDbBlockTableRecord
  2
*X152
  0
BLOCK_RECORD
  5
1B09A
330
1
100
AcDbSymbolTableRecord
100
AcDbBlockTableRecord
  2
*X153
  0
BLOCK_RECORD
  5
1B0EC
330
1
100
AcDbSymbolTableRecord
100
AcDbBlockTableRecord
  2
*X154
  0
BLOCK_RECORD
  5
1B13D
330
1
100
AcDbSymbolTableRecord
100
AcDbBlockTableRecord
  2
*X155
  0
BLOCK_RECORD
  5
1B17A
330
1
100
AcDbSymbolTableRecord
100
AcDbBlockTableRecord
  2
*X156
  0
BLOCK_RECORD
  5
1B1BA
330
1
100
AcDbSymbolTableRecord
100
AcDbBlockTableRecord
  2
*X157
  0
ENDTAB
  0
ENDSEC
  0
SECTION
  2
BLOCKS
  0
BLOCK
  5
19
330
18
100
AcDbEntity
  8
0
100
AcDbBlockBegin
  2
*MODEL_SPACE
 70
     0
 10
0.0
 20
0.0
 30
0.0
  3
*MODEL_SPACE
  1

  0
ENDBLK
  5
1A
330
18
100
AcDbEntity
  8
0
100
AcDbBlockEnd
  0
BLOCK
  5
16
330
15
100
AcDbEntity
 67
     1
  8
0
100
AcDbBlockBegin
  2
*PAPER_SPACE
 70
     0
 10
0.0
 20
0.0
 30
0.0
  3
*PAPER_SPACE
  1

  0
ENDBLK
  5
17
330
15
100
AcDbEntity
 67
     1
  8
0
100
AcDbBlockEnd
  0
BLOCK
  5
43
330
42
100
AcDbEntity
  8
0
100
AcDbBlockBegin
  2
_OPEN30
 70
     0
 10
0.0
 20
0.0
 30
0.0
  3
_OPEN30
  1

  0
LINE
  5
44
330
42
100
AcDbEntity
  8
0
  6
BYBLOCK
 62
     0
100
AcDbLine
 10
-1.0
 20
0.26794919
 30
0.0
 11
0.0
 21
0.0
 31
0.0
  0
LINE
  5
45
330
42
100
AcDbEntity
  8
0
  6
BYBLOCK
 62
     0
100
AcDbLine
 10
0.0
 20
0.0
 30
0.0
 11
-1.0
 21
-0.26794919
 31
0.0
  0
LINE
  5
46
330
42
100
AcDbEntity
  8
0
  6
BYBLOCK
 62
     0
100
AcDbLine
 10
0.0
 20
0.0
 30
0.0
 11
-1.0
 21
0.0
 31
0.0
  0
ENDBLK
  5
47
330
42
100
AcDbEntity
  8
0
100
AcDbBlockEnd
  0
BLOCK
  5
1A474
330
19D51
100
AcDbEntity
  8
0
100
AcDbBlockBegin
  2
A3WAKUKAWAJUN2017_HYOUDAI_
 70
     0
 10
0.0
 20
0.0
 30
0.0
  3
A3WAKUKAWAJUN2017_HYOUDAI_
  1

  0
LINE
  5
19D53
330
19D51
100
AcDbEntity
  8
0
100
AcDbLine
 10
13.26299999998673
 20
-0.0001000000000317
 30
0.0
 11
9.236999999990758
 21
8.999899999990987
 31
0.0
1001
ACAD
1000
ASC_BOUNDS
1002
{
1070
    19
1005
19D94
1002
}
  0
LINE
  5
19D54
330
19D51
100
AcDbEntity
  8
0
100
AcDbLine
 10
5.657999999994331
 20
0.9999999999989768
 30
0.0
 11
9.236999999990758
 21
8.999999999991019
 31
0.0
1001
ACAD
1000
ASC_BOUNDS
1002
{
1070
    19
1005
19D94
1002
}
  0
LINE
  5
19D55
330
19D51
100
AcDbEntity
  8
0
100
AcDbLine
 10
18.59199999998134
 20
-0.2368999999997641
 30
0.0
 11
16.46099999998353
 21
5.432899999994561
 31
0.0
1001
ACAD
1000
ASC_BOUNDS
1002
{
1070
    19
1005
19D95
1002
}
  0
LINE
  5
19D56
330
19D51
100
AcDbEntity
  8
0
100
AcDbLine
 10
18.59199999998134
 20
-0.2368999999997641
 30
0.0
 11
22.38199999997767
 21
8.763099999991255
 31
0.0
1001
ACAD
1000
ASC_BOUNDS
1002
{
1070
    19
1005
19D95
1002
}
  0
LINE
  5
19D57
330
19D51
100
AcDbEntity
  8
0
100
AcDbLine
 10
14.32899999998563
 20
-0.2368999999997641
 30
0.0
 11
16.46099999998353
 21
5.432899999994561
 31
0.0
1001
ACAD
1000
ASC_BOUNDS
1002
{
1070
    19
1005
19D95
1002
}
  0
LINE
  5
19D58
330
19D51
100
AcDbEntity
  8
0
100
AcDbLine
 10
14.32899999998563
 20
-0.2368999999997641
 30
0.0
 11
10.53899999998941
 21
8.763099999991255
 31
0.0
1001
ACAD
1000
ASC_BOUNDS
1002
{
1070
    19
1005
19D95
1002
}
  0
LINE
  5
19D59
330
19D51
100
AcDbEntity
  8
0
100
AcDbLine
 10
19.53899999998043
 20
-0.0001000000000317
 30
0.0
 11
23.56599999997638
 21
8.999899999990987
 31
0.0
1001
ACAD
1000
ASC_BOUNDS
1002
{
1070
    19
1005
19D96
1002
}
  0
LINE
  5
19D5A
330
19D51
100
AcDbEntity
  8
0
100
AcDbLine
 10
26.97358892824991
 20
1.383099999991202
 30
0.0
 11
23.56599999997638
 21
8.999899999990987
 31
0.0
1001
ACAD
1000
ASC_BOUNDS
1002
{
1070
    19
1005
19D96
1002
}
  0
LINE
  5
19D5B
330
19D51
100
AcDbEntity
  8
0
100
AcDbLine
 10
5.657999999994331
 20
0.9999999999989768
 30
0.0
 11
3.181999999996833
 21
4.668599999995308
 31
0.0
1001
ACAD
1000
ASC_BOUNDS
1002
{
1070
    19
1005
19D94
1002
}
  0
LINE
  5
19D5C
330
19D51
100
AcDbEntity
  8
0
100
AcDbLine
 10
4.617999999995391
 20
-0.0001000000000317
 30
0.0
 11
1.420999999998571
 21
4.736799999995242
 31
0.0
1001
ACAD
1000
ASC_BOUNDS
1002
{
1070
    19
1005
19D94
1002
}
  0
LINE
  5
19D5D
330
19D51
100
AcDbEntity
  8
0
100
AcDbLine
 10
1.420999999998571
 20
8.763099999991255
 30
0.0
 11
1.420999999998571
 21
0.0
 31
0.0
1001
ACAD
1000
ASC_BOUNDS
1002
{
1070
    19
1005
19D99
1002
}
  0
LINE
  5
19D5E
330
19D51
100
AcDbEntity
  8
0
100
AcDbLine
 10
0.0
 20
8.763099999991255
 30
0.0
 11
0.0
 21
0.0
 31
0.0
1001
ACAD
1000
ASC_BOUNDS
1002
{
1070
    19
1005
19D99
1002
}
  0
LINE
  5
19D5F
330
19D51
100
AcDbEntity
  8
0
100
AcDbLine
 10
6.766999999993232
 20
-0.0001000000000317
 30
0.0
 11
7.826999999992154
 21
2.368399999997621
 31
0.0
1001
ACAD
1000
ASC_BOUNDS
1002
{
1070
    19
1005
19D94
1002
}
  0
LINE
  5
19D60
330
19D51
100
AcDbEntity
  8
0
100
AcDbLine
 10
0.0
 20
0.0
 30
0.0
 11
1.420999999998571
 21
0.0
 31
0.0
1001
ACAD
1000
ASC_BOUNDS
1002
{
1070
    19
1005
19D99
1002
}
  0
LINE
  5
19D61
330
19D51
100
AcDbEntity
  8
0
100
AcDbLine
 10
4.617999999995391
 20
0.0
 30
0.0
 11
6.766999999993232
 21
0.0
 31
0.0
1001
ACAD
1000
ASC_BOUNDS
1002
{
1070
    19
1005
19D94
1002
}
  0
LINE
  5
19D62
330
19D51
100
AcDbEntity
  8
0
100
AcDbLine
 10
11.70599999998831
 20
-0.0001000000000317
 30
0.0
 11
10.64699999998936
 21
2.368399999997621
 31
0.0
1001
ACAD
1000
ASC_BOUNDS
1002
{
1070
    19
1005
19D94
1002
}
  0
LINE
  5
19D63
330
19D51
100
AcDbEntity
  8
0
100
AcDbLine
 10
7.826999999992154
 20
2.368399999997621
 30
0.0
 11
10.64699999998936
 21
2.368399999997621
 31
0.0
1001
ACAD
1000
ASC_BOUNDS
1002
{
1070
    19
1005
19D94
1002
}
  0
LINE
  5
19D64
330
19D51
100
AcDbEntity
  8
0
100
AcDbLine
 10
11.70599999998831
 20
0.0
 30
0.0
 11
13.26299999998673
 21
0.0
 31
0.0
1001
ACAD
1000
ASC_BOUNDS
1002
{
1070
    19
1005
19D94
1002
}
  0
LINE
  5
19D65
330
19D51
100
AcDbEntity
  8
0
100
AcDbLine
 10
22.15599999997789
 20
2.368399999997621
 30
0.0
 11
24.97599999997499
 21
2.368399999997621
 31
0.0
1001
ACAD
1000
ASC_BOUNDS
1002
{
1070
    19
1005
19D96
1002
}
  0
LINE
  5
19D66
330
19D51
100
AcDbEntity
  8
0
100
AcDbLine
 10
19.53899999998043
 20
0.0
 30
0.0
 11
21.09599999997886
 21
0.0
 31
0.0
1001
ACAD
1000
ASC_BOUNDS
1002
{
1070
    19
1005
19D96
1002
}
  0
LINE
  5
19D67
330
19D51
100
AcDbEntity
  8
0
100
AcDbLine
 10
21.09599999997886
 20
-0.0001000000000317
 30
0.0
 11
22.15599999997789
 21
2.368399999997621
 31
0.0
1001
ACAD
1000
ASC_BOUNDS
1002
{
1070
    19
1005
19D96
1002
}
  0
LINE
  5
19D68
330
19D51
100
AcDbEntity
  8
0
100
AcDbLine
 10
26.02015566812236
 20
0.0330999999912365
 30
0.0
 11
24.97599999997499
 21
2.368399999997621
 31
0.0
1001
ACAD
1000
ASC_BOUNDS
1002
{
1070
    19
1005
19D96
1002
}
  0
LINE
  5
19D69
330
19D51
100
AcDbEntity
  8
0
100
AcDbLine
 10
14.32399999998563
 20
3.315799999996671
 30
0.0
 11
16.46099999998353
 21
8.999899999990987
 31
0.0
1001
ACAD
1000
ASC_BOUNDS
1002
{
1070
    19
1005
19D95
1002
}
  0
LINE
  5
19D6A
330
19D51
100
AcDbEntity
  8
0
100
AcDbLine
 10
6.432999999993513
 20
8.763099999991255
 30
0.0
 11
3.181999999996833
 21
4.668599999995308
 31
0.0
1001
ACAD
1000
ASC_BOUNDS
1002
{
1070
    19
1005
19D94
1002
}
  0
LINE
  5
19D6B
330
19D51
100
AcDbEntity
  8
0
100
AcDbLine
 10
4.617999999995391
 20
8.763099999991255
 30
0.0
 11
1.420999999998571
 21
4.736799999995242
 31
0.0
1001
ACAD
1000
ASC_BOUNDS
1002
{
1070
    19
1005
19D94
1002
}
  0
LINE
  5
19D6C
330
19D51
100
AcDbEntity
  8
0
100
AcDbLine
 10
0.0
 20
8.763099999991255
 30
0.0
 11
1.420999999998571
 21
8.763099999991255
 31
0.0
1001
ACAD
1000
ASC_BOUNDS
1002
{
1070
    19
1005
19D99
1002
}
  0
LINE
  5
19D6D
330
19D51
100
AcDbEntity
  8
0
100
AcDbLine
 10
4.617999999995391
 20
8.763099999991255
 30
0.0
 11
6.432999999993513
 21
8.763099999991255
 31
0.0
1001
ACAD
1000
ASC_BOUNDS
1002
{
1070
    19
1005
19D94
1002
}
  0
LINE
  5
19D6E
330
19D51
100
AcDbEntity
  8
0
100
AcDbLine
 10
14.32399999998563
 20
3.315799999996671
 30
0.0
 11
12.02999999998792
 21
8.763099999991255
 31
0.0
1001
ACAD
1000
ASC_BOUNDS
1002
{
1070
    19
1005
19D95
1002
}
  0
LINE
  5
19D6F
330
19D51
100
AcDbEntity
  8
0
100
AcDbLine
 10
10.06399999998996
 20
3.670999999996297
 30
0.0
 11
9.236999999990758
 21
5.5200999999945
 31
0.0
1001
ACAD
1000
ASC_BOUNDS
1002
{
1070
    19
1005
19D94
1002
}
  0
LINE
  5
19D70
330
19D51
100
AcDbEntity
  8
0
100
AcDbLine
 10
8.409999999991555
 20
3.670999999996297
 30
0.0
 11
9.236999999990758
 21
5.5200999999945
 31
0.0
1001
ACAD
1000
ASC_BOUNDS
1002
{
1070
    19
1005
19D94
1002
}
  0
LINE
  5
19D71
330
19D51
100
AcDbEntity
  8
0
100
AcDbLine
 10
8.409999999991555
 20
3.670999999996297
 30
0.0
 11
10.06399999998996
 21
3.670999999996297
 31
0.0
1001
ACAD
1000
ASC_BOUNDS
1002
{
1070
    19
1005
19D94
1002
}
  0
LINE
  5
19D72
330
19D51
100
AcDbEntity
  8
0
100
AcDbLine
 10
10.53899999998941
 20
8.763099999991255
 30
0.0
 11
12.02999999998792
 21
8.763099999991255
 31
0.0
1001
ACAD
1000
ASC_BOUNDS
1002
{
1070
    19
1005
19D95
1002
}
  0
LINE
  5
19D73
330
19D51
100
AcDbEntity
  8
0
100
AcDbLine
 10
22.7389999999773
 20
3.670999999996297
 30
0.0
 11
23.56599999997638
 21
5.5200999999945
 31
0.0
1001
ACAD
1000
ASC_BOUNDS
1002
{
1070
    19
1005
19D96
1002
}
  0
LINE
  5
19D74
330
19D51
100
AcDbEntity
  8
0
100
AcDbLine
 10
22.7389999999773
 20
3.670999999996297
 30
0.0
 11
24.39299999997559
 21
3.670999999996297
 31
0.0
1001
ACAD
1000
ASC_BOUNDS
1002
{
1070
    19
1005
19D96
1002
}
  0
LINE
  5
19D75
330
19D51
100
AcDbEntity
  8
0
100
AcDbLine
 10
18.59799999998143
 20
3.315799999996671
 30
0.0
 11
20.89099999997916
 21
8.763099999991255
 31
0.0
1001
ACAD
1000
ASC_BOUNDS
1002
{
1070
    19
1005
19D95
1002
}
  0
LINE
  5
19D76
330
19D51
100
AcDbEntity
  8
0
100
AcDbLine
 10
18.59799999998143
 20
3.315799999996671
 30
0.0
 11
16.46099999998353
 21
8.999899999990987
 31
0.0
1001
ACAD
1000
ASC_BOUNDS
1002
{
1070
    19
1005
19D95
1002
}
  0
LINE
  5
19D77
330
19D51
100
AcDbEntity
  8
0
100
AcDbLine
 10
20.89099999997916
 20
8.763099999991255
 30
0.0
 11
22.38199999997767
 21
8.763099999991255
 31
0.0
1001
ACAD
1000
ASC_BOUNDS
1002
{
1070
    19
1005
19D95
1002
}
  0
LINE
  5
19D78
330
19D51
100
AcDbEntity
  8
0
100
AcDbLine
 10
24.39299999997559
 20
3.670999999996297
 30
0.0
 11
23.56599999997638
 21
5.5200999999945
 31
0.0
1001
ACAD
1000
ASC_BOUNDS
1002
{
1070
    19
1005
19D96
1002
}
  0
LINE
  5
19D79
330
19D51
100
AcDbEntity
  8
0
100
AcDbLine
 10
44.99999999995498
 20
-0.2368999999997641
 30
0.0
 11
40.02599999995994
 21
5.341799999994635
 31
0.0
1001
ACAD
1000
ASC_BOUNDS
1002
{
1070
    19
1005
19D98
1002
}
  0
LINE
  5
19D7A
330
19D51
100
AcDbEntity
  8
0
100
AcDbLine
 10
40.02599999995994
 20
5.341799999994635
 30
0.0
 11
40.02599999995994
 21
0.0
 31
0.0
1001
ACAD
1000
ASC_BOUNDS
1002
{
1070
    19
1005
19D98
1002
}
  0
LINE
  5
19D7B
330
19D51
100
AcDbEntity
  8
0
100
AcDbLine
 10
38.60499999996136
 20
8.999999999991019
 30
0.0
 11
38.60499999996136
 21
0.0
 31
0.0
1001
ACAD
1000
ASC_BOUNDS
1002
{
1070
    19
1005
19D98
1002
}
  0
LINE
  5
19D7C
330
19D51
100
AcDbEntity
  8
0
100
AcDbLine
 10
44.99999999995498
 20
8.763099999991255
 30
0.0
 11
44.99999999995498
 21
-0.2368999999997641
 31
0.0
1001
ACAD
1000
ASC_BOUNDS
1002
{
1070
    19
1005
19D98
1002
}
  0
LINE
  5
19D7D
330
19D51
100
AcDbEntity
  8
0
100
AcDbLine
 10
38.60499999996136
 20
0.0
 30
0.0
 11
40.02599999995994
 21
0.0
 31
0.0
1001
ACAD
1000
ASC_BOUNDS
1002
{
1070
    19
1005
19D98
1002
}
  0
LINE
  5
19D7E
330
19D51
100
AcDbEntity
  8
0
100
AcDbLine
 10
43.57899999995641
 20
3.421199999996588
 30
0.0
 11
38.60499999996136
 21
8.999899999990987
 31
0.0
1001
ACAD
1000
ASC_BOUNDS
1002
{
1070
    19
1005
19D98
1002
}
  0
LINE
  5
19D7F
330
19D51
100
AcDbEntity
  8
0
100
AcDbLine
 10
43.57899999995641
 20
8.763099999991255
 30
0.0
 11
43.57899999995641
 21
3.421199999996588
 31
0.0
1001
ACAD
1000
ASC_BOUNDS
1002
{
1070
    19
1005
19D98
1002
}
  0
LINE
  5
19D80
330
19D51
100
AcDbEntity
  8
0
100
AcDbLine
 10
43.57899999995641
 20
8.763099999991255
 30
0.0
 11
44.99999999995498
 21
8.763099999991255
 31
0.0
1001
ACAD
1000
ASC_BOUNDS
1002
{
1070
    19
1005
19D98
1002
}
  0
LINE
  5
19D81
330
19D51
100
AcDbEntity
  8
0
100
AcDbLine
 10
37.67199999996831
 20
8.763099999991255
 30
0.0
 11
36.23199999996837
 21
8.763099999991255
 31
0.0
  0
LINE
  5
19D82
330
19D51
100
AcDbEntity
  8
0
100
AcDbLine
 10
31.64199999996833
 20
8.763099999991255
 30
0.0
 11
31.64199999996833
 21
2.481619422925121
 31
0.0
  0
LINE
  5
19D83
330
19D51
100
AcDbEntity
  8
0
100
AcDbLine
 10
37.67199999996831
 20
8.763099999991255
 30
0.0
 11
37.67199999996831
 21
2.481619422925121
 31
0.0
  0
LINE
  5
19D84
330
19D51
100
AcDbEntity
  8
0
100
AcDbLine
 10
36.23199999996837
 20
8.763099999991255
 30
0.0
 11
36.23199999996837
 21
2.481619422925064
 31
0.0
  0
LINE
  5
19D85
330
19D51
100
AcDbEntity
  8
0
100
AcDbLine
 10
33.08199999996839
 20
8.763099999991255
 30
0.0
 11
33.08199999996839
 21
2.481619422925121
 31
0.0
  0
ARC
  5
19D86
330
19D51
100
AcDbEntity
  8
0
100
AcDbCircle
 10
34.65699999996832
 20
3.183099999991214
 30
0.0
 40
3.420000000000007
100
AcDbArc
 50
240.0000000000255
 51
299.9999999999766
  0
ARC
  5
19D87
330
19D51
100
AcDbEntity
  8
0
100
AcDbCircle
 10
34.65699999996832
 20
3.183099999991214
 30
0.0
 40
1.97999999999999
100
AcDbArc
 50
240.000000000026
 51
299.9999999999703
  0
LINE
  5
19D88
330
19D51
100
AcDbEntity
  8
0
100
AcDbLine
 10
33.08199999996828
 20
8.763099999991255
 30
0.0
 11
31.64199999996833
 21
8.763099999991255
 31
0.0
  0
ARC
  5
19D89
330
19D51
100
AcDbEntity
  8
0
100
AcDbCircle
 10
35.06199999996829
 20
2.481619422925064
 30
0.0
 40
1.17
100
AcDbArc
 50
299.9999999999699
 51
0.0
  0
ARC
  5
19D8A
330
19D51
100
AcDbEntity
  8
0
100
AcDbCircle
 10
34.25199999996835
 20
2.481619422925121
 30
0.0
 40
1.17
100
AcDbArc
 50
180.0
 51
240.0000000000238
  0
ARC
  5
19D8B
330
19D51
100
AcDbEntity
  8
0
100
AcDbCircle
 10
35.06199999996841
 20
2.481619422925121
 30
0.0
 40
2.61
100
AcDbArc
 50
299.9999999999756
 51
0.0
  0
ARC
  5
19D8C
330
19D51
100
AcDbEntity
  8
0
100
AcDbCircle
 10
34.25199999996835
 20
2.481619422925121
 30
0.0
 40
2.61
100
AcDbArc
 50
180.0
 51
240.0000000000244
  0
LINE
  5
19D8D
330
19D51
100
AcDbEntity
  8
0
100
AcDbLine
 10
29.30199999996933
 20
8.763099999991255
 30
0.0
 11
30.74199999996927
 21
8.763099999991255
 31
0.0
1001
ACAD
1000
ASC_BOUNDS
1002
{
1070
    19
1005
19D96
1002
}
  0
LINE
  5
19D8E
330
19D51
100
AcDbEntity
  8
0
100
AcDbLine
 10
30.74199999996927
 20
8.763099999991255
 30
0.0
 11
30.74199999996927
 21
2.373099999991211
 31
0.0
1001
ACAD
1000
ASC_BOUNDS
1002
{
1070
    19
1005
19D96
1002
}
  0
LINE
  5
19D8F
330
19D51
100
AcDbEntity
  8
0
100
AcDbLine
 10
26.02015566812236
 20
0.0330999999912365
 30
0.0
 11
28.40199999996923
 21
0.0330999999912365
 31
0.0
1001
ACAD
1000
ASC_BOUNDS
1002
{
1070
    19
1005
19D96
1002
}
  0
LINE
  5
19D90
330
19D51
100
AcDbEntity
  8
0
100
AcDbLine
 10
29.30199999996933
 20
8.763099999991255
 30
0.0
 11
29.30199999996933
 21
2.283099999991236
 31
0.0
1001
ACAD
1000
ASC_BOUNDS
1002
{
1070
    19
1005
19D96
1002
}
  0
LINE
  5
19D91
330
19D51
100
AcDbEntity
  8
0
100
AcDbLine
 10
26.97358892824991
 20
1.383099999991202
 30
0.0
 11
28.40199999996923
 21
1.383099999991202
 31
0.0
1001
ACAD
1000
ASC_BOUNDS
1002
{
1070
    19
1005
19D96
1002
}
  0
ARC
  5
19D92
330
19D51
100
AcDbEntity
  8
0
100
AcDbCircle
 10
28.40199999996923
 20
2.283099999991236
 30
0.0
 40
0.9
100
AcDbArc
 50
270.0
 51
0.0
1001
ACAD
1000
ASC_BOUNDS
1002
{
1070
    19
1005
19D96
1002
}
  0
ARC
  5
19D93
330
19D51
100
AcDbEntity
  8
0
100
AcDbCircle
 10
28.40199999996923
 20
2.373099999991211
 30
0.0
 40
2.34
100
AcDbArc
 50
270.0
 51
0.0
1001
ACAD
1000
ASC_BOUNDS
1002
{
1070
    19
1005
19D96
1002
}
  0
INSERT
  5
19D94
330
19D51
100
AcDbEntity
  8
0
100
AcDbBlockReference
  2
*X152
 10
0.0
 20
0.0
 30
0.0
1001
ACAD
1000
HATCH
1002
{
1070
    19
1000
ANSI37
1040
0.15
1040
0.0
1000
ASC_BOUNDS
1070
     2
1070
     2
1070
    12
1005
19D53
1005
19D54
1005
19D5B
1005
19D6A
1005
19D6D
1005
19D6B
1005
19D5C
1005
19D61
1005
19D5F
1005
19D63
1005
19D62
1005
19D64
1070
     2
1070
     3
1005
19D6F
1005
19D71
1005
19D70
1000
ASC_SEEDPOINT
1011
3.614004224891801
1021
2.996669441146025
1031
0.0
1000
R14_HATCH_DATA
1000
19D94
1011
1.0
1021
0.0
1031
0.0
1011
0.0
1021
1.0
1031
0.0
1011
0.0
1021
0.0
1031
1.0
1040
0.0
1010
0.0
1020
0.0
1030
1.0
1000
ANSI37
1070
     0
1070
     1
1071
        2
1071
        7
1070
     0
1070
     1
1071
       17
1040
13.26299999998673
1040
-0.0001000000000317
1040
9.236999999990758
1040
8.999899999990987
1040
9.236999999990758
1040
8.999999999991019
1040
5.657999999994331
1040
0.9999999999989768
1040
3.181999999996833
1040
4.668599999995308
1040
6.432999999993513
1040
8.763099999991255
1040
4.617999999995391
1040
8.763099999991255
1040
1.420999999998571
1040
4.736799999995242
1040
4.617999999995391
1040
-0.0001000000000317
1040
4.617999999995391
1040
0.0
1040
6.766999999993232
1040
0.0
1040
6.766999999993232
1040
-0.0001000000000317
1040
7.826999999992154
1040
2.368399999997621
1040
10.64699999998936
1040
2.368399999997621
1040
11.70599999998831
1040
-0.0001000000000317
1040
11.70599999998831
1040
0.0
1040
13.26299999998673
1040
0.0
1071
       12
1005
19D53
1005
19D54
1005
19D5B
1005
19D6A
1005
19D6D
1005
19D6B
1005
19D5C
1005
19D61
1005
19D5F
1005
19D63
1005
19D62
1005
19D64
1071
       22
1070
     0
1070
     1
1071
        3
1040
9.236999999990758
1040
5.5200999999945
1040
10.06399999998996
1040
3.670999999996297
1040
8.409999999991555
1040
3.670999999996297
1071
        3
1005
19D6F
1005
19D71
1005
19D70
1070
     0
1070
     1
1040
0.0
1040
0.15
1070
     0
1070
     2
1040
0.7853981633974483
1040
49.29960901727088
1040
-10.17736998311392
1040
-0.3367596045400932
1040
0.3367596045400932
1070
     0
1040
2.356194490192345
1040
49.29960901727088
1040
-10.17736998311392
1040
-0.3367596045400932
1040
-0.3367596045400932
1070
     0
1040
0.0110235143455945
1071
        2
1040
3.614004224891801
1040
2.996669441146025
1040
0.0
1040
3.614004224891801
1040
2.996669441146025
1040
0.0
1002
}
  0
INSERT
  5
19D95
330
19D51
100
AcDbEntity
  8
0
100
AcDbBlockReference
  2
*X153
 10
0.0
 20
0.0
 30
0.0
1001
ACAD
1000
HATCH
1002
{
1070
    19
1000
ANSI37
1040
0.15
1040
0.0
1000
ASC_BOUNDS
1070
     1
1070
     2
1070
    10
1005
19D55
1005
19D56
1005
19D77
1005
19D75
1005
19D76
1005
19D69
1005
19D6E
1005
19D72
1005
19D58
1005
19D57
1000
ASC_SEEDPOINT
1011
14.73245321214324
1021
2.798246178283421
1031
0.0
1000
R14_HATCH_DATA
1000
19D95
1011
1.0
1021
0.0
1031
0.0
1011
0.0
1021
1.0
1031
0.0
1011
0.0
1021
0.0
1031
1.0
1040
0.0
1010
0.0
1020
0.0
1030
1.0
1000
ANSI37
1070
     0
1070
     1
1071
        1
1071
        7
1070
     0
1070
     1
1071
       10
1040
16.46099999998353
1040
5.432899999994561
1040
18.59199999998134
1040
-0.2368999999997641
1040
22.38199999997767
1040
8.763099999991255
1040
20.89099999997916
1040
8.763099999991255
1040
18.59799999998143
1040
3.315799999996671
1040
16.46099999998353
1040
8.999899999990987
1040
14.32399999998563
1040
3.315799999996671
1040
12.02999999998792
1040
8.763099999991255
1040
10.53899999998941
1040
8.763099999991255
1040
14.32899999998563
1040
-0.2368999999997641
1071
       10
1005
19D55
1005
19D56
1005
19D77
1005
19D75
1005
19D76
1005
19D69
1005
19D6E
1005
19D72
1005
19D58
1005
19D57
1070
     0
1070
     1
1040
0.0
1040
0.15
1070
     0
1070
     2
1040
0.7853981633974483
1040
49.29960901727088
1040
-10.17736998311392
1040
-0.3367596045400932
1040
0.3367596045400932
1070
     0
1040
2.356194490192345
1040
49.29960901727088
1040
-10.17736998311392
1040
-0.3367596045400932
1040
-0.3367596045400932
1070
     0
1040
0.0110235143455945
1071
        1
1040
14.73245321214324
1040
2.798246178283421
1040
0.0
1002
}
  0
INSERT
  5
19D96
330
19D51
100
AcDbEntity
  8
0
100
AcDbBlockReference
  2
*X154
 10
0.0
 20
0.0
 30
0.0
1001
ACAD
1000
HATCH
1002
{
1070
    19
1000
ANSI37
1040
0.15
1040
0.0
1000
ASC_BOUNDS
1070
     2
1070
     2
1070
    13
1005
19D59
1005
19D66
1005
19D67
1005
19D65
1005
19D68
1005
19D8F
1005
19D93
1005
19D8E
1005
19D8D
1005
19D90
1005
19D92
1005
19D91
1005
19D5A
1070
     2
1070
     3
1005
19D73
1005
19D78
1005
19D74
1000
ASC_SEEDPOINT
1011
21.97929957367762
1021
3.294304244259308
1031
0.0
1000
R14_HATCH_DATA
1000
19D96
1011
1.0
1021
0.0
1031
0.0
1011
0.0
1021
1.0
1031
0.0
1011
0.0
1021
0.0
1031
1.0
1040
0.0
1010
0.0
1020
0.0
1030
1.0
1000
ANSI37
1070
     0
1070
     1
1071
        2
1071
        7
1070
     1
1070
     1
1071
       15
1040
23.56599999997638
1040
8.999899999990987
1040
0.0
1040
19.53899999998043
1040
-0.0001000000000317
1040
0.0
1040
19.53899999998043
1040
0.0
1040
0.0
1040
21.09599999997886
1040
0.0
1040
0.0
1040
21.09599999997886
1040
-0.0001000000000317
1040
0.0
1040
22.15599999997789
1040
2.368399999997621
1040
0.0
1040
24.97599999997499
1040
2.368399999997621
1040
0.0
1040
26.02015566812236
1040
0.0330999999912365
1040
0.0
1040
28.40199999996923
1040
0.0330999999912365
1040
0.414213562373095
1040
30.74199999996923
1040
2.373099999991211
1040
0.0
1040
30.74199999996927
1040
8.763099999991255
1040
0.0
1040
29.30199999996933
1040
8.763099999991255
1040
0.0
1040
29.30199999996933
1040
2.283099999991236
1040
-0.414213562373095
1040
28.40199999996923
1040
1.383099999991237
1040
0.0
1040
26.97358892824991
1040
1.383099999991202
1040
0.0
1071
       13
1005
19D59
1005
19D66
1005
19D67
1005
19D65
1005
19D68
1005
19D8F
1005
19D93
1005
19D8E
1005
19D8D
1005
19D90
1005
19D92
1005
19D91
1005
19D5A
1071
       22
1070
     0
1070
     1
1071
        3
1040
22.7389999999773
1040
3.670999999996297
1040
23.56599999997638
1040
5.5200999999945
1040
24.39299999997559
1040
3.670999999996297
1071
        3
1005
19D73
1005
19D78
1005
19D74
1070
     0
1070
     1
1040
0.0
1040
0.15
1070
     0
1070
     2
1040
0.7853981633974483
1040
49.29960901727088
1040
-10.17736998311392
1040
-0.3367596045400932
1040
0.3367596045400932
1070
     0
1040
2.356194490192345
1040
49.29960901727088
1040
-10.17736998311392
1040
-0.3367596045400932
1040
-0.3367596045400932
1070
     0
1040
0.0110235143455945
1071
        2
1040
21.97929957367762
1040
3.294304244259308
1040
0.0
1040
21.97929957367762
1040
3.294304244259308
1040
0.0
1002
}
  0
INSERT
  5
19D97
330
19D51
100
AcDbEntity
  8
0
100
AcDbBlockReference
  2
*X155
 10
0.0
 20
0.0
 30
0.0
1001
ACAD
1000
HATCH
1002
{
1070
    19
1000
ANSI37
1040
0.15
1040
0.0
1000
R14_HATCH_DATA
1000
19D97
1011
1.0
1021
0.0
1031
0.0
1011
0.0
1021
1.0
1031
0.0
1011
0.0
1021
0.0
1031
1.0
1040
0.0
1010
0.0
1020
0.0
1030
1.0
1000
ANSI37
1070
     0
1070
     1
1071
        1
1071
        7
1070
     1
1070
     1
1071
       12
1040
31.64199999996833
1040
2.481619422925121
1040
0.2679491924310942
1040
32.94699999997067
1040
0.2212931190493919
1040
0.2679491924301353
1040
36.36699999995983
1040
0.2212931190459813
1040
0.2679491924321411
1040
37.67199999996831
1040
2.481619422928361
1040
0.0
1040
37.67199999996831
1040
8.763099999991255
1040
0.0
1040
36.23199999996837
1040
8.763099999991255
1040
0.0
1040
36.23199999996837
1040
2.481619422925064
1040
-0.2679491924310291
1040
35.64699999996708
1040
1.468369700498386
1040
-0.267949192430519
1040
33.66699999997093
1040
1.468369700497703
1040
-0.267949192431809
1040
33.08199999996839
1040
2.481619422926997
1040
0.0
1040
33.08199999996839
1040
8.763099999991255
1040
0.0
1040
31.64199999996833
1040
8.763099999991255
1040
0.0
1071
        0
1070
     0
1070
     1
1040
0.0
1040
0.15
1070
     0
1070
     2
1040
0.7853981633974483
1040
49.29960901727088
1040
-10.17736998311392
1040
-0.3367596045400932
1040
0.3367596045400932
1070
     0
1040
2.356194490192345
1040
49.29960901727088
1040
-10.17736998311392
1040
-0.3367596045400932
1040
-0.3367596045400932
1070
     0
1040
0.0110235143455945
1071
        1
1040
32.30357378967278
1040
3.988785755459219
1040
0.0
1002
}
  0
INSERT
  5
19D98
330
19D51
100
AcDbEntity
  8
0
100
AcDbBlockReference
  2
*X156
 10
0.0
 20
0.0
 30
0.0
1001
ACAD
1000
HATCH
1002
{
1070
    19
1000
ANSI37
1040
0.15
1040
0.0
1000
ASC_BOUNDS
1070
     1
1070
     2
1070
     8
1005
19D79
1005
19D7C
1005
19D80
1005
19D7F
1005
19D7E
1005
19D7B
1005
19D7D
1005
19D7A
1000
ASC_SEEDPOINT
1011
39.74896370716704
1021
4.484843821435049
1031
0.0
1000
R14_HATCH_DATA
1000
19D98
1011
1.0
1021
0.0
1031
0.0
1011
0.0
1021
1.0
1031
0.0
1011
0.0
1021
0.0
1031
1.0
1040
0.0
1010
0.0
1020
0.0
1030
1.0
1000
ANSI37
1070
     0
1070
     1
1071
        1
1071
        7
1070
     0
1070
     1
1071
        9
1040
40.02599999995994
1040
5.341799999994635
1040
44.99999999995498
1040
-0.2368999999997641
1040
44.99999999995498
1040
8.763099999991255
1040
43.57899999995641
1040
8.763099999991255
1040
43.57899999995641
1040
3.421199999996588
1040
38.60499999996136
1040
8.999899999990987
1040
38.60499999996136
1040
8.999999999991019
1040
38.60499999996136
1040
0.0
1040
40.02599999995994
1040
0.0
1071
        8
1005
19D79
1005
19D7C
1005
19D80
1005
19D7F
1005
19D7E
1005
19D7B
1005
19D7D
1005
19D7A
1070
     0
1070
     1
1040
0.0
1040
0.15
1070
     0
1070
     2
1040
0.7853981633974483
1040
49.29960901727088
1040
-10.17736998311392
1040
-0.3367596045400932
1040
0.3367596045400932
1070
     0
1040
2.356194490192345
1040
49.29960901727088
1040
-10.17736998311392
1040
-0.3367596045400932
1040
-0.3367596045400932
1070
     0
1040
0.0110235143455945
1071
        1
1040
39.74896370716704
1040
4.484843821435049
1040
0.0
1002
}
  0
INSERT
  5
19D99
330
19D51
100
AcDbEntity
  8
0
100
AcDbBlockReference
  2
*X157
 10
0.0
 20
0.0
 30
0.0
1001
ACAD
1000
HATCH
1002
{
1070
    19
1000
ANSI37
1040
0.15
1040
0.0
1000
ASC_BOUNDS
1070
     1
1070
     2
1070
     4
1005
19D5D
1005
19D6C
1005
19D5E
1005
19D60
1000
ASC_SEEDPOINT
1011
1.079051535452663
1021
4.148538732891836
1031
0.0
1000
R14_HATCH_DATA
1000
19D99
1011
1.0
1021
0.0
1031
0.0
1011
0.0
1021
1.0
1031
0.0
1011
0.0
1021
0.0
1031
1.0
1040
0.0
1010
0.0
1020
0.0
1030
1.0
1000
ANSI37
1070
     0
1070
     1
1071
        1
1071
        7
1070
     0
1070
     1
1071
        4
1040
1.420999999998571
1040
0.0
1040
1.420999999998571
1040
8.763099999991255
1040
0.0
1040
8.763099999991255
1040
0.0
1040
0.0
1071
        4
1005
19D5D
1005
19D6C
1005
19D5E
1005
19D60
1070
     0
1070
     1
1040
0.0
1040
0.15
1070
     0
1070
     2
1040
0.7853981633974483
1040
49.29960901727088
1040
-10.17736998311392
1040
-0.3367596045400932
1040
0.3367596045400932
1070
     0
1040
2.356194490192345
1040
49.29960901727088
1040
-10.17736998311392
1040
-0.3367596045400932
1040
-0.3367596045400932
1070
     0
1040
0.0053004257112761
1071
        1
1040
1.079051535452663
1040
4.148538732891836
1040
0.0
1002
}
  0
ENDBLK
  5
1A475
330
19D51
100
AcDbEntity
  8
0
100
AcDbBlockEnd
  0
BLOCK
  5
1B1DA
330
1B04C
100
AcDbEntity
  8
0
100
AcDbBlockBegin
  2
*X152
 70
     1
 10
0.0
 20
0.0
 30
0.0
  3
*X152
  1

  0
LINE
  5
1B04D
330
1B04C
100
AcDbEntity
  8
0
  6
CONTINUOUS
100
AcDbLine
 10
3.418023043697893
 20
7.251849696850613
 30
0.0
 11
4.929273346838536
 21
8.763099999991255
 31
0.0
  0
LINE
  5
1B04E
330
1B04C
100
AcDbEntity
  8
0
  6
CONTINUOUS
100
AcDbLine
 10
1.483656411257782
 20
4.643963855330318
 30
0.0
 11
5.60279255591872
 21
8.763099999991255
 31
0.0
  0
LINE
  5
1B04F
330
1B04C
100
AcDbEntity
  8
0
  6
CONTINUOUS
100
AcDbLine
 10
1.755053947328235
 20
4.241842182320584
 30
0.0
 11
6.276311764998907
 21
8.763099999991255
 31
0.0
  0
LINE
  5
1B050
330
1B04C
100
AcDbEntity
  8
0
  6
CONTINUOUS
100
AcDbLine
 10
2.026451483398688
 20
3.839720509310849
 30
0.0
 11
4.441040904851878
 21
6.254309930764039
 31
0.0
  0
LINE
  5
1B051
330
1B04C
100
AcDbEntity
  8
0
  6
CONTINUOUS
100
AcDbLine
 10
2.297849019469139
 20
3.437598836301114
 30
0.0
 11
3.321765168359338
 21
4.461514985191313
 31
0.0
  0
LINE
  5
1B052
330
1B04C
100
AcDbEntity
  8
0
  6
CONTINUOUS
100
AcDbLine
 10
2.569246555539591
 20
3.03547716329138
 30
0.0
 11
3.593163397972743
 21
4.059394005724531
 31
0.0
  0
LINE
  5
1B053
330
1B04C
100
AcDbEntity
  8
0
  6
CONTINUOUS
100
AcDbLine
 10
2.840644091610043
 20
2.633355490281646
 30
0.0
 11
3.864561627586149
 21
3.657273026257751
 31
0.0
  0
LINE
  5
1B054
330
1B04C
100
AcDbEntity
  8
0
  6
CONTINUOUS
100
AcDbLine
 10
3.112041627680496
 20
2.231233817271911
 30
0.0
 11
4.135959857199554
 21
3.25515204679097
 31
0.0
  0
LINE
  5
1B055
330
1B04C
100
AcDbEntity
  8
0
  6
CONTINUOUS
100
AcDbLine
 10
3.383439163750948
 20
1.829112144262177
 30
0.0
 11
4.40735808681296
 21
2.853031067324189
 31
0.0
  0
LINE
  5
1B056
330
1B04C
100
AcDbEntity
  8
0
  6
CONTINUOUS
100
AcDbLine
 10
3.654836699821399
 20
1.426990471252442
 30
0.0
 11
4.678756316426365
 21
2.450910087857407
 31
0.0
  0
LINE
  5
1B057
330
1B04C
100
AcDbEntity
  8
0
  6
CONTINUOUS
100
AcDbLine
 10
3.926234235891853
 20
1.024868798242709
 30
0.0
 11
4.95015454603977
 21
2.048789108390626
 31
0.0
  0
LINE
  5
1B058
330
1B04C
100
AcDbEntity
  8
0
  6
CONTINUOUS
100
AcDbLine
 10
4.197631771962304
 20
0.6227471252329737
 30
0.0
 11
5.221552775653176
 21
1.646668128923846
 31
0.0
  0
LINE
  5
1B059
330
1B04C
100
AcDbEntity
  8
0
  6
CONTINUOUS
100
AcDbLine
 10
8.715877546767851
 20
7.835069736359266
 30
0.0
 11
9.435953450375058
 21
8.555145639966472
 31
0.0
  0
LINE
  5
1B05A
330
1B04C
100
AcDbEntity
  8
0
  6
CONTINUOUS
100
AcDbLine
 10
8.170620868422267
 20
6.616293848933497
 30
0.0
 11
9.644120833743461
 21
8.08979381425469
 31
0.0
  0
LINE
  5
1B05B
330
1B04C
100
AcDbEntity
  8
0
  6
CONTINUOUS
100
AcDbLine
 10
7.625364190076684
 20
5.397517961507727
 30
0.0
 11
9.852288217111864
 21
7.624441988542907
 31
0.0
  0
LINE
  5
1B05C
330
1B04C
100
AcDbEntity
  8
0
  6
CONTINUOUS
100
AcDbLine
 10
7.080107511731101
 20
4.178742074081957
 30
0.0
 11
10.06045560048027
 21
7.159090162831124
 31
0.0
  0
LINE
  5
1B05D
330
1B04C
100
AcDbEntity
  8
0
  6
CONTINUOUS
100
AcDbLine
 10
6.534850833385518
 20
2.959966186656187
 30
0.0
 11
10.26862298384867
 21
6.693738337119342
 31
0.0
  0
LINE
  5
1B05E
330
1B04C
100
AcDbEntity
  8
0
  6
CONTINUOUS
100
AcDbLine
 10
4.469029308032756
 20
0.2206254522232385
 30
0.0
 11
5.492951005266582
 21
1.244547149457064
 31
0.0
  0
LINE
  5
1B05F
330
1B04C
100
AcDbEntity
  8
0
  6
CONTINUOUS
100
AcDbLine
 10
5.989594155039935
 20
1.741190299230417
 30
0.0
 11
8.806950407233131
 21
4.558546551423613
 31
0.0
  0
LINE
  5
1B060
330
1B04C
100
AcDbEntity
  8
0
  6
CONTINUOUS
100
AcDbLine
 10
9.401251593263643
 20
5.152847737454126
 30
0.0
 11
10.47679036721708
 21
6.228386511407559
 31
0.0
  0
LINE
  5
1B061
330
1B04C
100
AcDbEntity
  8
0
  6
CONTINUOUS
100
AcDbLine
 10
4.921837203428691
 20
-0.0000858614610131
 30
0.0
 11
8.592923064886001
 21
3.670999999996297
 31
0.0
  0
LINE
  5
1B062
330
1B04C
100
AcDbEntity
  8
0
  6
CONTINUOUS
100
AcDbLine
 10
9.609390446785305
 20
4.6874673818956
 30
0.0
 11
10.68495775058548
 21
5.763034685695775
 31
0.0
  0
LINE
  5
1B063
330
1B04C
100
AcDbEntity
  8
0
  6
CONTINUOUS
100
AcDbLine
 10
5.595387755019432
 20
-0.0000545189504582
 30
0.0
 11
7.716137258923768
 21
2.120694984953879
 31
0.0
  0
LINE
  5
1B064
330
1B04C
100
AcDbEntity
  8
0
  6
CONTINUOUS
100
AcDbLine
 10
6.268938306610172
 20
-0.000023176439905
 30
0.0
 11
7.170485805526503
 21
0.9015243224764267
 31
0.0
  0
LINE
  5
1B065
330
1B04C
100
AcDbEntity
  8
0
  6
CONTINUOUS
100
AcDbLine
 10
7.963842273967511
 20
2.368399999997621
 30
0.0
 11
9.266442273966188
 21
3.670999999996297
 31
0.0
  0
LINE
  5
1B066
330
1B04C
100
AcDbEntity
  8
0
  6
CONTINUOUS
100
AcDbLine
 10
8.637361483047696
 20
2.368399999997621
 30
0.0
 11
9.939961483046375
 21
3.670999999996297
 31
0.0
  0
LINE
  5
1B067
330
1B04C
100
AcDbEntity
  8
0
  6
CONTINUOUS
100
AcDbLine
 10
9.817529300306965
 20
4.222087026337075
 30
0.0
 11
10.89312513395388
 21
5.297682859983993
 31
0.0
  0
LINE
  5
1B068
330
1B04C
100
AcDbEntity
  8
0
  6
CONTINUOUS
100
AcDbLine
 10
10.02566815382863
 20
3.756706670778549
 30
0.0
 11
11.10129251732229
 21
4.832331034272211
 31
0.0
  0
LINE
  5
1B069
330
1B04C
100
AcDbEntity
  8
0
  6
CONTINUOUS
100
AcDbLine
 10
9.310880692127883
 20
2.368399999997621
 30
0.0
 11
11.30945990069069
 21
4.366979208560428
 31
0.0
  0
LINE
  5
1B06A
330
1B04C
100
AcDbEntity
  8
0
  6
CONTINUOUS
100
AcDbLine
 10
9.98439990120807
 20
2.36839999999762
 30
0.0
 11
11.5176272840591
 21
3.901627382848645
 31
0.0
  0
LINE
  5
1B06B
330
1B04C
100
AcDbEntity
  8
0
  6
CONTINUOUS
100
AcDbLine
 10
10.65037369446246
 20
2.36085458417182
 30
0.0
 11
11.7257946674275
 21
3.436275557136862
 31
0.0
  0
LINE
  5
1B06C
330
1B04C
100
AcDbEntity
  8
0
  6
CONTINUOUS
100
AcDbLine
 10
10.85847197087848
 20
1.895433651507656
 30
0.0
 11
11.9339620507959
 21
2.97092373142508
 31
0.0
  0
LINE
  5
1B06D
330
1B04C
100
AcDbEntity
  8
0
  6
CONTINUOUS
100
AcDbLine
 10
11.0665702472945
 20
1.430012718843491
 30
0.0
 11
12.14212943416431
 21
2.505571905713296
 31
0.0
  0
LINE
  5
1B06E
330
1B04C
100
AcDbEntity
  8
0
  6
CONTINUOUS
100
AcDbLine
 10
11.27466852371052
 20
0.9645917861793256
 30
0.0
 11
12.35029681753271
 21
2.040220080001513
 31
0.0
  0
LINE
  5
1B06F
330
1B04C
100
AcDbEntity
  8
0
  6
CONTINUOUS
100
AcDbLine
 10
11.48276680012654
 20
0.4991708535151611
 30
0.0
 11
12.55846420090111
 21
1.57486825428973
 31
0.0
  0
LINE
  5
1B070
330
1B04C
100
AcDbEntity
  8
0
  6
CONTINUOUS
100
AcDbLine
 10
11.69086507654257
 20
0.0337499208509957
 30
0.0
 11
12.76663158426952
 21
1.109516428577947
 31
0.0
  0
LINE
  5
1B071
330
1B04C
100
AcDbEntity
  8
0
  6
CONTINUOUS
100
AcDbLine
 10
12.33057447873954
 20
-0.0000598860322123
 30
0.0
 11
12.97479896763792
 21
0.6441646028661663
 31
0.0
  0
LINE
  5
1B072
330
1B04C
100
AcDbEntity
  8
0
  6
CONTINUOUS
100
AcDbLine
 10
13.00413694809395
 20
-0.0000166257579952
 30
0.0
 11
13.18296635100632
 21
0.1788127771543824
 31
0.0
  0
LINE
  5
1B073
330
1B04C
100
AcDbEntity
  8
0
  6
CONTINUOUS
100
AcDbLine
 10
4.772852165289667
 20
-0.000092794222212
 30
0.0
 11
4.296495091028902
 21
0.4762642800385528
 31
0.0
  0
LINE
  5
1B074
330
1B04C
100
AcDbEntity
  8
0
  6
CONTINUOUS
100
AcDbLine
 10
5.446340034776103
 20
-0.0000614546284616
 30
0.0
 11
2.898195908335625
 21
2.548082671812017
 31
0.0
  0
LINE
  5
1B075
330
1B04C
100
AcDbEntity
  8
0
  6
CONTINUOUS
100
AcDbLine
 10
6.119827904262539
 20
-0.0000301150347113
 30
0.0
 11
1.499896725642348
 21
4.61990106358548
 31
0.0
  0
LINE
  5
1B076
330
1B04C
100
AcDbEntity
  8
0
  6
CONTINUOUS
100
AcDbLine
 10
6.775136745476159
 20
0.0181802528318542
 30
0.0
 11
5.699826040202669
 21
1.093490958105344
 31
0.0
  0
LINE
  5
1B077
330
1B04C
100
AcDbEntity
  8
0
  6
CONTINUOUS
100
AcDbLine
 10
6.983376846288489
 20
0.4834593610997118
 30
0.0
 11
5.908008617934405
 21
1.558827589453796
 31
0.0
  0
LINE
  5
1B078
330
1B04C
100
AcDbEntity
  8
0
  6
CONTINUOUS
100
AcDbLine
 10
5.377063484962296
 20
1.416253513345719
 30
0.0
 11
1.702276957014131
 21
5.091040041293883
 31
0.0
  0
LINE
  5
1B079
330
1B04C
100
AcDbEntity
  8
0
  6
CONTINUOUS
100
AcDbLine
 10
3.978745891735324
 20
3.488090315652877
 30
0.0
 11
2.000373521109399
 21
5.466462686278803
 31
0.0
  0
LINE
  5
1B07A
330
1B04C
100
AcDbEntity
  8
0
  6
CONTINUOUS
100
AcDbLine
 10
7.191616947100819
 20
0.948738469367568
 30
0.0
 11
6.11619119566614
 21
2.024164220802247
 31
0.0
  0
LINE
  5
1B07B
330
1B04C
100
AcDbEntity
  8
0
  6
CONTINUOUS
100
AcDbLine
 10
7.399857047913149
 20
1.414017577635424
 30
0.0
 11
6.324373773397875
 21
2.489500852150698
 31
0.0
  0
LINE
  5
1B07C
330
1B04C
100
AcDbEntity
  8
0
  6
CONTINUOUS
100
AcDbLine
 10
7.608097148725479
 20
1.879296685903281
 30
0.0
 11
6.53255635112961
 21
2.95483748349915
 31
0.0
  0
LINE
  5
1B07D
330
1B04C
100
AcDbEntity
  8
0
  6
CONTINUOUS
100
AcDbLine
 10
7.816337249537808
 20
2.344575794171138
 30
0.0
 11
6.740738928861345
 21
3.420174114847601
 31
0.0
  0
LINE
  5
1B07E
330
1B04C
100
AcDbEntity
  8
0
  6
CONTINUOUS
100
AcDbLine
 10
3.310241080789734
 20
4.830114335678653
 30
0.0
 11
2.298470085204666
 21
5.84188533126372
 31
0.0
  0
LINE
  5
1B07F
330
1B04C
100
AcDbEntity
  8
0
  6
CONTINUOUS
100
AcDbLine
 10
3.60832983563551
 20
5.205544789913063
 30
0.0
 11
2.596566649299935
 21
6.217307976248638
 31
0.0
  0
LINE
  5
1B080
330
1B04C
100
AcDbEntity
  8
0
  6
CONTINUOUS
100
AcDbLine
 10
3.906418590481286
 20
5.580975244147473
 30
0.0
 11
2.894663213395203
 21
6.592730621233557
 31
0.0
  0
LINE
  5
1B081
330
1B04C
100
AcDbEntity
  8
0
  6
CONTINUOUS
100
AcDbLine
 10
4.204507345327062
 20
5.956405698381884
 30
0.0
 11
3.192759777490472
 21
6.968153266218474
 31
0.0
  0
LINE
  5
1B082
330
1B04C
100
AcDbEntity
  8
0
  6
CONTINUOUS
100
AcDbLine
 10
8.466032252791512
 20
2.368399999997621
 30
0.0
 11
6.948921506593081
 21
3.885510746196053
 31
0.0
  0
LINE
  5
1B083
330
1B04C
100
AcDbEntity
  8
0
  6
CONTINUOUS
100
AcDbLine
 10
9.139551461871699
 20
2.36839999999762
 30
0.0
 11
7.157104084324816
 21
4.350847377544504
 31
0.0
  0
LINE
  5
1B084
330
1B04C
100
AcDbEntity
  8
0
  6
CONTINUOUS
100
AcDbLine
 10
4.502596100172839
 20
6.331836152616295
 30
0.0
 11
3.49085634158574
 21
7.343575911203393
 31
0.0
  0
LINE
  5
1B085
330
1B04C
100
AcDbEntity
  8
0
  6
CONTINUOUS
100
AcDbLine
 10
4.800684855018615
 20
6.707266606850705
 30
0.0
 11
3.788952905681008
 21
7.718998556188312
 31
0.0
  0
LINE
  5
1B086
330
1B04C
100
AcDbEntity
  8
0
  6
CONTINUOUS
100
AcDbLine
 10
12.18154012887317
 20
-0.0000694579236642
 30
0.0
 11
11.32140332908496
 21
0.8600673418645499
 31
0.0
  0
LINE
  5
1B087
330
1B04C
100
AcDbEntity
  8
0
  6
CONTINUOUS
100
AcDbLine
 10
12.85501608323566
 20
-0.0000262032059659
 30
0.0
 11
10.77672456435345
 21
2.078265315676246
 31
0.0
  0
LINE
  5
1B088
330
1B04C
100
AcDbEntity
  8
0
  6
CONTINUOUS
100
AcDbLine
 10
9.813070670951886
 20
2.36839999999762
 30
0.0
 11
8.51047067095321
 21
3.670999999996297
 31
0.0
  0
LINE
  5
1B089
330
1B04C
100
AcDbEntity
  8
0
  6
CONTINUOUS
100
AcDbLine
 10
10.48658988003207
 20
2.36839999999762
 30
0.0
 11
9.183989880033396
 21
3.670999999996297
 31
0.0
  0
LINE
  5
1B08A
330
1B04C
100
AcDbEntity
  8
0
  6
CONTINUOUS
100
AcDbLine
 10
8.441048632286794
 20
3.740422038662712
 30
0.0
 11
7.365286662056551
 21
4.816184008892956
 31
0.0
  0
LINE
  5
1B08B
330
1B04C
100
AcDbEntity
  8
0
  6
CONTINUOUS
100
AcDbLine
 10
8.649187485808454
 20
4.205802394221237
 30
0.0
 11
7.573469239788285
 21
5.281520640241407
 31
0.0
  0
LINE
  5
1B08C
330
1B04C
100
AcDbEntity
  8
0
  6
CONTINUOUS
100
AcDbLine
 10
5.098773609864391
 20
7.082697061085115
 30
0.0
 11
4.087049469776277
 21
8.09442120117323
 31
0.0
  0
LINE
  5
1B08D
330
1B04C
100
AcDbEntity
  8
0
  6
CONTINUOUS
100
AcDbLine
 10
5.396862364710167
 20
7.458127515319526
 30
0.0
 11
4.385146033871544
 21
8.469843846158149
 31
0.0
  0
LINE
  5
1B08E
330
1B04C
100
AcDbEntity
  8
0
  6
CONTINUOUS
100
AcDbLine
 10
13.04801363231285
 20
0.4804954567970334
 30
0.0
 11
9.85750908911358
 21
3.670999999996297
 31
0.0
  0
LINE
  5
1B08F
330
1B04C
100
AcDbEntity
  8
0
  6
CONTINUOUS
100
AcDbLine
 10
8.857326339330116
 20
4.671182749779763
 30
0.0
 11
7.781651817520021
 21
5.746857271589858
 31
0.0
  0
LINE
  5
1B090
330
1B04C
100
AcDbEntity
  8
0
  6
CONTINUOUS
100
AcDbLine
 10
5.694951119555943
 20
7.833557969553937
 30
0.0
 11
4.765409089118624
 21
8.763099999991255
 31
0.0
  0
LINE
  5
1B091
330
1B04C
100
AcDbEntity
  8
0
  6
CONTINUOUS
100
AcDbLine
 10
12.50286117236978
 20
1.699167125820288
 30
0.0
 11
9.68611877250287
 21
4.515909525687196
 31
0.0
  0
LINE
  5
1B092
330
1B04C
100
AcDbEntity
  8
0
  6
CONTINUOUS
100
AcDbLine
 10
9.065465192851777
 20
5.136563105338288
 30
0.0
 11
7.989834395251757
 21
6.21219390293831
 31
0.0
  0
LINE
  5
1B093
330
1B04C
100
AcDbEntity
  8
0
  6
CONTINUOUS
100
AcDbLine
 10
5.993039874401719
 20
8.208988423788346
 30
0.0
 11
5.43892829819881
 21
8.763099999991255
 31
0.0
  0
LINE
  5
1B094
330
1B04C
100
AcDbEntity
  8
0
  6
CONTINUOUS
100
AcDbLine
 10
11.95770871242671
 20
2.917838794843543
 30
0.0
 11
8.19801697298349
 21
6.677530534286761
 31
0.0
  0
LINE
  5
1B095
330
1B04C
100
AcDbEntity
  8
0
  6
CONTINUOUS
100
AcDbLine
 10
6.291128629247495
 20
8.584418878022756
 30
0.0
 11
6.112447507278997
 21
8.763099999991255
 31
0.0
  0
LINE
  5
1B096
330
1B04C
100
AcDbEntity
  8
0
  6
CONTINUOUS
100
AcDbLine
 10
11.41255625248364
 20
4.136510463866797
 30
0.0
 11
8.406199550715227
 21
7.142867165635211
 31
0.0
  0
LINE
  5
1B097
330
1B04C
100
AcDbEntity
  8
0
  6
CONTINUOUS
100
AcDbLine
 10
10.86740379254057
 20
5.355182132890051
 30
0.0
 11
8.614382128446962
 21
7.608203796983664
 31
0.0
  0
LINE
  5
1B098
330
1B04C
100
AcDbEntity
  8
0
  6
CONTINUOUS
100
AcDbLine
 10
10.3222513325975
 20
6.573853801913305
 30
0.0
 11
8.822564706178696
 21
8.073540428332114
 31
0.0
  0
LINE
  5
1B099
330
1B04C
100
AcDbEntity
  8
0
  6
CONTINUOUS
100
AcDbLine
 10
9.777098872654436
 20
7.792525470936562
 30
0.0
 11
9.030747283910433
 21
8.538877059680566
 31
0.0
  0
ENDBLK
  5
1B1DB
330
1B04C
100
AcDbEntity
  8
0
100
AcDbBlockEnd
  0
BLOCK
  5
1B1DC
330
1B09A
100
AcDbEntity
  8
0
100
AcDbBlockBegin
  2
*X153
 70
     1
 10
0.0
 20
0.0
 30
0.0
  3
*X153
  1

  0
LINE
  5
1B09B
330
1B09A
100
AcDbEntity
  8
0
  6
CONTINUOUS
100
AcDbLine
 10
10.67292308101235
 20
8.445076852443387
 30
0.0
 11
10.99094622856022
 21
8.763099999991255
 31
0.0
  0
LINE
  5
1B09C
330
1B09A
100
AcDbEntity
  8
0
  6
CONTINUOUS
100
AcDbLine
 10
10.87250383178748
 20
7.971138394138331
 30
0.0
 11
11.6644654376404
 21
8.763099999991255
 31
0.0
  0
LINE
  5
1B09D
330
1B09A
100
AcDbEntity
  8
0
  6
CONTINUOUS
100
AcDbLine
 10
11.07208458256261
 20
7.497199935833273
 30
0.0
 11
12.12126590876355
 21
8.546381262034211
 31
0.0
  0
LINE
  5
1B09E
330
1B09A
100
AcDbEntity
  8
0
  6
CONTINUOUS
100
AcDbLine
 10
11.27166533333774
 20
7.023261477528216
 30
0.0
 11
12.32085164573666
 21
8.072447789927136
 31
0.0
  0
LINE
  5
1B09F
330
1B09A
100
AcDbEntity
  8
0
  6
CONTINUOUS
100
AcDbLine
 10
11.47124608411287
 20
6.549323019223158
 30
0.0
 11
12.52043738270977
 21
7.59851431782006
 31
0.0
  0
LINE
  5
1B0A0
330
1B09A
100
AcDbEntity
  8
0
  6
CONTINUOUS
100
AcDbLine
 10
11.670826834888
 20
6.075384560918101
 30
0.0
 11
12.72002311968288
 21
7.124580845712984
 31
0.0
  0
LINE
  5
1B0A1
330
1B09A
100
AcDbEntity
  8
0
  6
CONTINUOUS
100
AcDbLine
 10
11.87040758566313
 20
5.601446102613043
 30
0.0
 11
12.91960885665599
 21
6.650647373605907
 31
0.0
  0
LINE
  5
1B0A2
330
1B09A
100
AcDbEntity
  8
0
  6
CONTINUOUS
100
AcDbLine
 10
12.06998833643825
 20
5.127507644307986
 30
0.0
 11
13.1191945936291
 21
6.176713901498832
 31
0.0
  0
LINE
  5
1B0A3
330
1B09A
100
AcDbEntity
  8
0
  6
CONTINUOUS
100
AcDbLine
 10
12.26956908721338
 20
4.65356918600293
 30
0.0
 11
13.31878033060221
 21
5.702780429391757
 31
0.0
  0
LINE
  5
1B0A4
330
1B09A
100
AcDbEntity
  8
0
  6
CONTINUOUS
100
AcDbLine
 10
12.46914983798851
 20
4.179630727697873
 30
0.0
 11
13.51836606757532
 21
5.228846957284683
 31
0.0
  0
LINE
  5
1B0A5
330
1B09A
100
AcDbEntity
  8
0
  6
CONTINUOUS
100
AcDbLine
 10
12.66873058876364
 20
3.705692269392816
 30
0.0
 11
13.71795180454843
 21
4.754913485177607
 31
0.0
  0
LINE
  5
1B0A6
330
1B09A
100
AcDbEntity
  8
0
  6
CONTINUOUS
100
AcDbLine
 10
12.86831133953877
 20
3.231753811087759
 30
0.0
 11
13.91753754152154
 21
4.280980013070531
 31
0.0
  0
LINE
  5
1B0A7
330
1B09A
100
AcDbEntity
  8
0
  6
CONTINUOUS
100
AcDbLine
 10
13.0678920903139
 20
2.757815352782702
 30
0.0
 11
14.11712327849465
 21
3.807046540963456
 31
0.0
  0
LINE
  5
1B0A8
330
1B09A
100
AcDbEntity
  8
0
  6
CONTINUOUS
100
AcDbLine
 10
13.26747284108903
 20
2.283876894477644
 30
0.0
 11
14.31670901546777
 21
3.333113068856379
 31
0.0
  0
LINE
  5
1B0A9
330
1B09A
100
AcDbEntity
  8
0
  6
CONTINUOUS
100
AcDbLine
 10
16.36767838827179
 20
8.751678487061342
 30
0.0
 11
16.50332410898388
 21
8.887324207773432
 31
0.0
  0
LINE
  5
1B0AA
330
1B09A
100
AcDbEntity
  8
0
  6
CONTINUOUS
100
AcDbLine
 10
15.96190732182191
 20
7.67238821153127
 30
0.0
 11
16.68735328004734
 21
8.397834169756699
 31
0.0
  0
LINE
  5
1B0AB
330
1B09A
100
AcDbEntity
  8
0
  6
CONTINUOUS
100
AcDbLine
 10
15.55613625537202
 20
6.593097936001196
 30
0.0
 11
16.87138245111079
 21
7.908344131739965
 31
0.0
  0
LINE
  5
1B0AC
330
1B09A
100
AcDbEntity
  8
0
  6
CONTINUOUS
100
AcDbLine
 10
15.15036518892213
 20
5.513807660471122
 30
0.0
 11
17.05541162217424
 21
7.418854093723231
 31
0.0
  0
LINE
  5
1B0AD
330
1B09A
100
AcDbEntity
  8
0
  6
CONTINUOUS
100
AcDbLine
 10
14.74459412247225
 20
4.434517384941048
 30
0.0
 11
17.2394407932377
 21
6.929364055706499
 31
0.0
  0
LINE
  5
1B0AE
330
1B09A
100
AcDbEntity
  8
0
  6
CONTINUOUS
100
AcDbLine
 10
14.33882305602236
 20
3.355227109410975
 30
0.0
 11
17.42346996430115
 21
6.439874017689766
 31
0.0
  0
LINE
  5
1B0AF
330
1B09A
100
AcDbEntity
  8
0
  6
CONTINUOUS
100
AcDbLine
 10
13.46705359186416
 20
1.809938436172586
 30
0.0
 11
16.0819338255367
 21
4.424818669845129
 31
0.0
  0
LINE
  5
1B0B0
330
1B09A
100
AcDbEntity
  8
0
  6
CONTINUOUS
100
AcDbLine
 10
16.63283254238972
 20
4.975717386698149
 30
0.0
 11
17.60749913536461
 21
5.950383979673033
 31
0.0
  0
LINE
  5
1B0B1
330
1B09A
100
AcDbEntity
  8
0
  6
CONTINUOUS
100
AcDbLine
 10
13.66663434263929
 20
1.335999977867529
 30
0.0
 11
15.67604797733754
 21
3.345413612565779
 31
0.0
  0
LINE
  5
1B0B2
330
1B09A
100
AcDbEntity
  8
0
  6
CONTINUOUS
100
AcDbLine
 10
13.86621509341442
 20
0.8620615195624723
 30
0.0
 11
15.27016212913838
 21
2.26600855528643
 31
0.0
  0
LINE
  5
1B0B3
330
1B09A
100
AcDbEntity
  8
0
  6
CONTINUOUS
100
AcDbLine
 10
16.81682257348267
 20
4.486188208710908
 30
0.0
 11
17.79152830642806
 21
5.460893941656299
 31
0.0
  0
LINE
  5
1B0B4
330
1B09A
100
AcDbEntity
  8
0
  6
CONTINUOUS
100
AcDbLine
 10
17.00081260457561
 20
3.996659030723667
 30
0.0
 11
17.97555747749151
 21
4.971403903639565
 31
0.0
  0
LINE
  5
1B0B5
330
1B09A
100
AcDbEntity
  8
0
  6
CONTINUOUS
100
AcDbLine
 10
20.74362343514722
 20
8.412989070375462
 30
0.0
 11
21.09373436476302
 21
8.763099999991256
 31
0.0
  0
LINE
  5
1B0B6
330
1B09A
100
AcDbEntity
  8
0
  6
CONTINUOUS
100
AcDbLine
 10
20.25401257174777
 20
7.249858997895826
 30
0.0
 11
21.7672535738432
 21
8.763099999991255
 31
0.0
  0
LINE
  5
1B0B7
330
1B09A
100
AcDbEntity
  8
0
  6
CONTINUOUS
100
AcDbLine
 10
14.06579584418955
 20
0.3881230612574149
 30
0.0
 11
14.86427628093921
 21
1.186603498007082
 31
0.0
  0
LINE
  5
1B0B8
330
1B09A
100
AcDbEntity
  8
0
  6
CONTINUOUS
100
AcDbLine
 10
14.26537659496467
 20
-0.0858153970476412
 30
0.0
 11
14.45839043274005
 21
0.1071984407277329
 31
0.0
  0
LINE
  5
1B0B9
330
1B09A
100
AcDbEntity
  8
0
  6
CONTINUOUS
100
AcDbLine
 10
17.18480263566856
 20
3.507129852736426
 30
0.0
 11
18.15958664855496
 21
4.481913865622833
 31
0.0
  0
LINE
  5
1B0BA
330
1B09A
100
AcDbEntity
  8
0
  6
CONTINUOUS
100
AcDbLine
 10
17.3687926667615
 20
3.017600674749186
 30
0.0
 11
18.34361581961842
 21
3.9924238276061
 31
0.0
  0
LINE
  5
1B0BB
330
1B09A
100
AcDbEntity
  8
0
  6
CONTINUOUS
100
AcDbLine
 10
19.76440170834832
 20
6.086728925416191
 30
0.0
 11
22.33924590259489
 21
8.661573119662755
 31
0.0
  0
LINE
  5
1B0BC
330
1B09A
100
AcDbEntity
  8
0
  6
CONTINUOUS
100
AcDbLine
 10
19.27479084494887
 20
4.923598852936555
 30
0.0
 11
21.84929622842713
 21
7.498104236414807
 31
0.0
  0
LINE
  5
1B0BD
330
1B09A
100
AcDbEntity
  8
0
  6
CONTINUOUS
100
AcDbLine
 10
17.55278269785445
 20
2.528071496761945
 30
0.0
 11
18.52764499068187
 21
3.502933789589366
 31
0.0
  0
LINE
  5
1B0BE
330
1B09A
100
AcDbEntity
  8
0
  6
CONTINUOUS
100
AcDbLine
 10
18.78517998154942
 20
3.760468780456919
 30
0.0
 11
21.35934655425936
 21
6.33463535316686
 31
0.0
  0
LINE
  5
1B0BF
330
1B09A
100
AcDbEntity
  8
0
  6
CONTINUOUS
100
AcDbLine
 10
17.73677272894739
 20
2.038542318774704
 30
0.0
 11
20.8693968800916
 21
5.171166469918914
 31
0.0
  0
LINE
  5
1B0C0
330
1B09A
100
AcDbEntity
  8
0
  6
CONTINUOUS
100
AcDbLine
 10
17.92076276004034
 20
1.549013140787464
 30
0.0
 11
20.37944720592384
 21
4.007697586670968
 31
0.0
  0
LINE
  5
1B0C1
330
1B09A
100
AcDbEntity
  8
0
  6
CONTINUOUS
100
AcDbLine
 10
18.10475279113329
 20
1.059483962800223
 30
0.0
 11
19.88949753175608
 21
2.84422870342302
 31
0.0
  0
LINE
  5
1B0C2
330
1B09A
100
AcDbEntity
  8
0
  6
CONTINUOUS
100
AcDbLine
 10
18.28874282222623
 20
0.5699547848129822
 30
0.0
 11
19.39954785758832
 21
1.680759820175074
 31
0.0
  0
LINE
  5
1B0C3
330
1B09A
100
AcDbEntity
  8
0
  6
CONTINUOUS
100
AcDbLine
 10
18.47273285331918
 20
0.0804256068257416
 30
0.0
 11
18.90959818342056
 21
0.517290936927127
 31
0.0
  0
LINE
  5
1B0C4
330
1B09A
100
AcDbEntity
  8
0
  6
CONTINUOUS
100
AcDbLine
 10
14.3590401358224
 20
-0.1570118376323384
 30
0.0
 11
14.24903296539946
 21
-0.0470046672093929
 31
0.0
  0
LINE
  5
1B0C5
330
1B09A
100
AcDbEntity
  8
0
  6
CONTINUOUS
100
AcDbLine
 10
14.54309291258661
 20
0.332454594683643
 30
0.0
 11
13.75908329123172
 21
1.116464216038529
 31
0.0
  0
LINE
  5
1B0C6
330
1B09A
100
AcDbEntity
  8
0
  6
CONTINUOUS
100
AcDbLine
 10
14.72714568935081
 20
0.8219210269996244
 30
0.0
 11
13.26913361706399
 21
2.27993309928645
 31
0.0
  0
LINE
  5
1B0C7
330
1B09A
100
AcDbEntity
  8
0
  6
CONTINUOUS
100
AcDbLine
 10
14.91119846611502
 20
1.311387459315606
 30
0.0
 11
12.77918394289625
 21
3.443401982534371
 31
0.0
  0
LINE
  5
1B0C8
330
1B09A
100
AcDbEntity
  8
0
  6
CONTINUOUS
100
AcDbLine
 10
15.09525124287922
 20
1.800853891631587
 30
0.0
 11
12.28923426872852
 21
4.606870865782293
 31
0.0
  0
LINE
  5
1B0C9
330
1B09A
100
AcDbEntity
  8
0
  6
CONTINUOUS
100
AcDbLine
 10
15.27930401964343
 20
2.290320323947569
 30
0.0
 11
11.79928459456078
 21
5.770339749030213
 31
0.0
  0
LINE
  5
1B0CA
330
1B09A
100
AcDbEntity
  8
0
  6
CONTINUOUS
100
AcDbLine
 10
15.46335679640763
 20
2.77978675626355
 30
0.0
 11
14.48885470994921
 21
3.754288842721972
 31
0.0
  0
LINE
  5
1B0CB
330
1B09A
100
AcDbEntity
  8
0
  6
CONTINUOUS
100
AcDbLine
 10
13.88507249233704
 20
4.358071060334137
 30
0.0
 11
11.30933492039305
 21
6.933808632278135
 31
0.0
  0
LINE
  5
1B0CC
330
1B09A
100
AcDbEntity
  8
0
  6
CONTINUOUS
100
AcDbLine
 10
18.75840522805855
 20
0.1582575336928151
 30
0.0
 11
18.25383727664818
 21
0.6628254851031863
 31
0.0
  0
LINE
  5
1B0CD
330
1B09A
100
AcDbEntity
  8
0
  6
CONTINUOUS
100
AcDbLine
 10
15.64740957317184
 20
3.269253188579531
 30
0.0
 11
14.67288388101266
 21
4.243778880738705
 31
0.0
  0
LINE
  5
1B0CE
330
1B09A
100
AcDbEntity
  8
0
  6
CONTINUOUS
100
AcDbLine
 10
13.39509276772158
 20
5.521569994029786
 30
0.0
 11
10.81938524622531
 21
8.097277515526056
 31
0.0
  0
LINE
  5
1B0CF
330
1B09A
100
AcDbEntity
  8
0
  6
CONTINUOUS
100
AcDbLine
 10
18.95798597883369
 20
0.6321959919978686
 30
0.0
 11
17.84825644852853
 21
1.741925522303024
 31
0.0
  0
LINE
  5
1B0D0
330
1B09A
100
AcDbEntity
  8
0
  6
CONTINUOUS
100
AcDbLine
 10
19.15756672960882
 20
1.106134450302922
 30
0.0
 11
17.44267562040888
 21
2.821025559502861
 31
0.0
  0
LINE
  5
1B0D1
330
1B09A
100
AcDbEntity
  8
0
  6
CONTINUOUS
100
AcDbLine
 10
15.83146234993604
 20
3.758719620895513
 30
0.0
 11
14.85691305207612
 21
4.733268918755439
 31
0.0
  0
LINE
  5
1B0D2
330
1B09A
100
AcDbEntity
  8
0
  6
CONTINUOUS
100
AcDbLine
 10
16.01551512670025
 20
4.248186053211494
 30
0.0
 11
15.04094222313957
 21
5.222758956772172
 31
0.0
  0
LINE
  5
1B0D3
330
1B09A
100
AcDbEntity
  8
0
  6
CONTINUOUS
100
AcDbLine
 10
12.90511304310612
 20
6.685068927725435
 30
0.0
 11
10.8270819708403
 21
8.763099999991255
 31
0.0
  0
LINE
  5
1B0D4
330
1B09A
100
AcDbEntity
  8
0
  6
CONTINUOUS
100
AcDbLine
 10
12.41513331849066
 20
7.848567861421083
 30
0.0
 11
11.50060117992049
 21
8.763099999991255
 31
0.0
  0
LINE
  5
1B0D5
330
1B09A
100
AcDbEntity
  8
0
  6
CONTINUOUS
100
AcDbLine
 10
19.35714748038395
 20
1.580072908607975
 30
0.0
 11
17.03709479228923
 21
3.900125596702697
 31
0.0
  0
LINE
  5
1B0D6
330
1B09A
100
AcDbEntity
  8
0
  6
CONTINUOUS
100
AcDbLine
 10
19.55672823115909
 20
2.054011366913028
 30
0.0
 11
16.63151396416958
 21
4.979225633902534
 31
0.0
  0
LINE
  5
1B0D7
330
1B09A
100
AcDbEntity
  8
0
  6
CONTINUOUS
100
AcDbLine
 10
16.19956790346445
 20
4.737652485527476
 30
0.0
 11
15.22497139420302
 21
5.712248994788904
 31
0.0
  0
LINE
  5
1B0D8
330
1B09A
100
AcDbEntity
  8
0
  6
CONTINUOUS
100
AcDbLine
 10
16.38362068022866
 20
5.227118917843457
 30
0.0
 11
15.40900056526648
 21
6.201739032805637
 31
0.0
  0
LINE
  5
1B0D9
330
1B09A
100
AcDbEntity
  8
0
  6
CONTINUOUS
100
AcDbLine
 10
19.75630898193422
 20
2.527949825218081
 30
0.0
 11
18.70774536448286
 21
3.576513442669441
 31
0.0
  0
LINE
  5
1B0DA
330
1B09A
100
AcDbEntity
  8
0
  6
CONTINUOUS
100
AcDbLine
 10
19.95588973270936
 20
3.001888283523134
 30
0.0
 11
18.90726987211446
 21
4.050508144118028
 31
0.0
  0
LINE
  5
1B0DB
330
1B09A
100
AcDbEntity
  8
0
  6
CONTINUOUS
100
AcDbLine
 10
20.15547048348449
 20
3.475826741828186
 30
0.0
 11
19.10679437974606
 21
4.524502845566614
 31
0.0
  0
LINE
  5
1B0DC
330
1B09A
100
AcDbEntity
  8
0
  6
CONTINUOUS
100
AcDbLine
 10
20.35505123425962
 20
3.94976520013324
 30
0.0
 11
19.30631888737766
 21
4.998497547015201
 31
0.0
  0
LINE
  5
1B0DD
330
1B09A
100
AcDbEntity
  8
0
  6
CONTINUOUS
100
AcDbLine
 10
20.55463198503475
 20
4.423703658438292
 30
0.0
 11
19.50584339500926
 21
5.472492248463787
 31
0.0
  0
LINE
  5
1B0DE
330
1B09A
100
AcDbEntity
  8
0
  6
CONTINUOUS
100
AcDbLine
 10
18.37481191085755
 20
3.909446896294752
 30
0.0
 11
15.59302973632993
 21
6.691229070822371
 31
0.0
  0
LINE
  5
1B0DF
330
1B09A
100
AcDbEntity
  8
0
  6
CONTINUOUS
100
AcDbLine
 10
17.96904084440766
 20
4.988737171824825
 30
0.0
 11
15.77705890739338
 21
7.180719108839104
 31
0.0
  0
LINE
  5
1B0E0
330
1B09A
100
AcDbEntity
  8
0
  6
CONTINUOUS
100
AcDbLine
 10
17.56326977795777
 20
6.068027447354899
 30
0.0
 11
15.96108807845684
 21
7.670209146855838
 31
0.0
  0
LINE
  5
1B0E1
330
1B09A
100
AcDbEntity
  8
0
  6
CONTINUOUS
100
AcDbLine
 10
17.15749871150789
 20
7.147317722884972
 30
0.0
 11
16.14511724952029
 21
8.15969918487257
 31
0.0
  0
LINE
  5
1B0E2
330
1B09A
100
AcDbEntity
  8
0
  6
CONTINUOUS
100
AcDbLine
 10
16.751727645058
 20
8.226607998415046
 30
0.0
 11
16.32914642058374
 21
8.649189222889303
 31
0.0
  0
LINE
  5
1B0E3
330
1B09A
100
AcDbEntity
  8
0
  6
CONTINUOUS
100
AcDbLine
 10
20.75421273580989
 20
4.897642116743345
 30
0.0
 11
19.70536790264086
 21
5.946486949912374
 31
0.0
  0
LINE
  5
1B0E4
330
1B09A
100
AcDbEntity
  8
0
  6
CONTINUOUS
100
AcDbLine
 10
20.95379348658502
 20
5.371580575048398
 30
0.0
 11
19.90489241027246
 21
6.42048165136096
 31
0.0
  0
LINE
  5
1B0E5
330
1B09A
100
AcDbEntity
  8
0
  6
CONTINUOUS
100
AcDbLine
 10
21.15337423736015
 20
5.845519033353452
 30
0.0
 11
20.10441691790406
 21
6.894476352809547
 31
0.0
  0
LINE
  5
1B0E6
330
1B09A
100
AcDbEntity
  8
0
  6
CONTINUOUS
100
AcDbLine
 10
21.35295498813529
 20
6.319457491658505
 30
0.0
 11
20.30394142553566
 21
7.368471054258134
 31
0.0
  0
LINE
  5
1B0E7
330
1B09A
100
AcDbEntity
  8
0
  6
CONTINUOUS
100
AcDbLine
 10
21.55253573891042
 20
6.793395949963558
 30
0.0
 11
20.50346593316726
 21
7.842465755706721
 31
0.0
  0
LINE
  5
1B0E8
330
1B09A
100
AcDbEntity
  8
0
  6
CONTINUOUS
100
AcDbLine
 10
21.75211648968556
 20
7.267334408268612
 30
0.0
 11
20.70299044079886
 21
8.316460457155308
 31
0.0
  0
LINE
  5
1B0E9
330
1B09A
100
AcDbEntity
  8
0
  6
CONTINUOUS
100
AcDbLine
 10
21.95169724046069
 20
7.741272866573663
 30
0.0
 11
20.9298701070431
 21
8.763099999991256
 31
0.0
  0
LINE
  5
1B0EA
330
1B09A
100
AcDbEntity
  8
0
  6
CONTINUOUS
100
AcDbLine
 10
22.15127799123582
 20
8.215211324878716
 30
0.0
 11
21.60338931612328
 21
8.763099999991256
 31
0.0
  0
LINE
  5
1B0EB
330
1B09A
100
AcDbEntity
  8
0
  6
CONTINUOUS
100
AcDbLine
 10
22.35085874201096
 20
8.689149783183769
 30
0.0
 11
22.27690852520347
 21
8.763099999991255
 31
0.0
  0
ENDBLK
  5
1B1DD
330
1B09A
100
AcDbEntity
  8
0
100
AcDbBlockEnd
  0
BLOCK
  5
1B1DE
330
1B0EC
100
AcDbEntity
  8
0
100
AcDbBlockBegin
  2
*X154
 70
     1
 10
0.0
 20
0.0
 30
0.0
  3
*X154
  1

  0
LINE
  5
1B0ED
330
1B0EC
100
AcDbEntity
  8
0
  6
CONTINUOUS
100
AcDbLine
 10
23.19462913593892
 20
8.169917934846424
 30
0.0
 11
23.70775465517246
 21
8.683043454079957
 31
0.0
  0
LINE
  5
1B0EE
330
1B0EC
100
AcDbEntity
  8
0
  6
CONTINUOUS
100
AcDbLine
 10
22.64923161835078
 20
6.951001208178088
 30
0.0
 11
23.9159364069932
 21
8.217705996820516
 31
0.0
  0
LINE
  5
1B0EF
330
1B0EC
100
AcDbEntity
  8
0
  6
CONTINUOUS
100
AcDbLine
 10
22.10383410076263
 20
5.732084481509751
 30
0.0
 11
24.12411815881395
 21
7.752368539561078
 31
0.0
  0
LINE
  5
1B0F0
330
1B0EC
100
AcDbEntity
  8
0
  6
CONTINUOUS
100
AcDbLine
 10
21.55843658317447
 20
4.513167754841414
 30
0.0
 11
24.3322999106347
 21
7.287031082301639
 31
0.0
  0
LINE
  5
1B0F1
330
1B0EC
100
AcDbEntity
  8
0
  6
CONTINUOUS
100
AcDbLine
 10
21.01303906558632
 20
3.294251028173077
 30
0.0
 11
24.54048166245544
 21
6.821693625042199
 31
0.0
  0
LINE
  5
1B0F2
330
1B0EC
100
AcDbEntity
  8
0
  6
CONTINUOUS
100
AcDbLine
 10
20.46764154799817
 20
2.075334301504738
 30
0.0
 11
23.28571549467848
 21
4.89340824818505
 31
0.0
  0
LINE
  5
1B0F3
330
1B0EC
100
AcDbEntity
  8
0
  6
CONTINUOUS
100
AcDbLine
 10
19.92224403041002
 20
0.8564175748364002
 30
0.0
 11
22.74075865492779
 21
3.674932199354171
 31
0.0
  0
LINE
  5
1B0F4
330
1B0EC
100
AcDbEntity
  8
0
  6
CONTINUOUS
100
AcDbLine
 10
23.67305085490148
 20
5.280743608408048
 30
0.0
 11
24.74866341427619
 21
6.356356167782759
 31
0.0
  0
LINE
  5
1B0F5
330
1B0EC
100
AcDbEntity
  8
0
  6
CONTINUOUS
100
AcDbLine
 10
23.88118970842314
 20
4.815363252849522
 30
0.0
 11
24.95684516609694
 21
5.89101871052332
 31
0.0
  0
LINE
  5
1B0F6
330
1B0EC
100
AcDbEntity
  8
0
  6
CONTINUOUS
100
AcDbLine
 10
19.73925852647308
 20
-0.0000871381807288
 30
0.0
 11
23.4103456646501
 21
3.670999999996297
 31
0.0
  0
LINE
  5
1B0F7
330
1B0EC
100
AcDbEntity
  8
0
  6
CONTINUOUS
100
AcDbLine
 10
24.0893285619448
 20
4.349982897290997
 30
0.0
 11
25.16502691791769
 21
5.42568125326388
 31
0.0
  0
LINE
  5
1B0F8
330
1B0EC
100
AcDbEntity
  8
0
  6
CONTINUOUS
100
AcDbLine
 10
20.41282099582748
 20
-0.0000438779065108
 30
0.0
 11
21.64944178675636
 21
1.236576913022366
 31
0.0
  0
LINE
  5
1B0F9
330
1B0EC
100
AcDbEntity
  8
0
  6
CONTINUOUS
100
AcDbLine
 10
22.78126487373161
 20
2.36839999999762
 30
0.0
 11
24.08386487373029
 21
3.670999999996297
 31
0.0
  0
LINE
  5
1B0FA
330
1B0EC
100
AcDbEntity
  8
0
  6
CONTINUOUS
100
AcDbLine
 10
24.29746741546646
 20
3.884602541732471
 30
0.0
 11
25.37320866973843
 21
4.960343796004441
 31
0.0
  0
LINE
  5
1B0FB
330
1B0EC
100
AcDbEntity
  8
0
  6
CONTINUOUS
100
AcDbLine
 10
21.08638346518189
 20
-0.0000006176322938
 30
0.0
 11
21.10379033335899
 21
0.0174062505448083
 31
0.0
  0
LINE
  5
1B0FC
330
1B0EC
100
AcDbEntity
  8
0
  6
CONTINUOUS
100
AcDbLine
 10
23.4547840828118
 20
2.36839999999762
 30
0.0
 11
25.58139042155918
 21
4.495006338745002
 31
0.0
  0
LINE
  5
1B0FD
330
1B0EC
100
AcDbEntity
  8
0
  6
CONTINUOUS
100
AcDbLine
 10
29.30199999996933
 20
8.215615917155148
 30
0.0
 11
29.84948408280543
 21
8.763099999991255
 31
0.0
  0
LINE
  5
1B0FE
330
1B0EC
100
AcDbEntity
  8
0
  6
CONTINUOUS
100
AcDbLine
 10
24.12830329189199
 20
2.36839999999762
 30
0.0
 11
25.78957217337993
 21
4.029668881485562
 31
0.0
  0
LINE
  5
1B0FF
330
1B0EC
100
AcDbEntity
  8
0
  6
CONTINUOUS
100
AcDbLine
 10
29.30199999996933
 20
7.54209670807496
 30
0.0
 11
30.52300329188562
 21
8.763099999991255
 31
0.0
  0
LINE
  5
1B100
330
1B0EC
100
AcDbEntity
  8
0
  6
CONTINUOUS
100
AcDbLine
 10
24.80182250097217
 20
2.36839999999762
 30
0.0
 11
25.99775392520067
 21
3.564331424226122
 31
0.0
  0
LINE
  5
1B101
330
1B0EC
100
AcDbEntity
  8
0
  6
CONTINUOUS
100
AcDbLine
 10
29.30199999996933
 20
6.868577498994774
 30
0.0
 11
30.74199999996926
 21
8.308577498994712
 31
0.0
  0
LINE
  5
1B102
330
1B0EC
100
AcDbEntity
  8
0
  6
CONTINUOUS
100
AcDbLine
 10
25.13028238392013
 20
2.023340673865392
 30
0.0
 11
26.20593567702142
 21
3.098993966966683
 31
0.0
  0
LINE
  5
1B103
330
1B0EC
100
AcDbEntity
  8
0
  6
CONTINUOUS
100
AcDbLine
 10
25.33838066033617
 20
1.557919741201244
 30
0.0
 11
26.41411742884217
 21
2.633656509707244
 31
0.0
  0
LINE
  5
1B104
330
1B0EC
100
AcDbEntity
  8
0
  6
CONTINUOUS
100
AcDbLine
 10
25.54647893675221
 20
1.092498808537098
 30
0.0
 11
26.62229918066291
 21
2.168319052447804
 31
0.0
  0
LINE
  5
1B105
330
1B0EC
100
AcDbEntity
  8
0
  6
CONTINUOUS
100
AcDbLine
 10
25.75457721316825
 20
0.62707787587295
 30
0.0
 11
26.83048093248366
 21
1.702981595188365
 31
0.0
  0
LINE
  5
1B106
330
1B0EC
100
AcDbEntity
  8
0
  6
CONTINUOUS
100
AcDbLine
 10
29.30199999996933
 20
6.195058289914587
 30
0.0
 11
30.74199999996926
 21
7.635058289914522
 31
0.0
  0
LINE
  5
1B107
330
1B0EC
100
AcDbEntity
  8
0
  6
CONTINUOUS
100
AcDbLine
 10
29.30199999996933
 20
5.521539080834401
 30
0.0
 11
30.74199999996926
 21
6.961539080834331
 31
0.0
  0
LINE
  5
1B108
330
1B0EC
100
AcDbEntity
  8
0
  6
CONTINUOUS
100
AcDbLine
 10
29.30199999996933
 20
4.848019871754214
 30
0.0
 11
30.74199999996925
 21
6.288019871754143
 31
0.0
  0
LINE
  5
1B109
330
1B0EC
100
AcDbEntity
  8
0
  6
CONTINUOUS
100
AcDbLine
 10
29.30199999996933
 20
4.174500662674028
 30
0.0
 11
30.74199999996925
 21
5.614500662673953
 31
0.0
  0
LINE
  5
1B10A
330
1B0EC
100
AcDbEntity
  8
0
  6
CONTINUOUS
100
AcDbLine
 10
25.96267548958429
 20
0.1616569432088024
 30
0.0
 11
27.18411854636669
 21
1.383099999991207
 31
0.0
  0
LINE
  5
1B10B
330
1B0EC
100
AcDbEntity
  8
0
  6
CONTINUOUS
100
AcDbLine
 10
29.30199999996933
 20
3.500981453593841
 30
0.0
 11
30.74199999996925
 21
4.940981453593762
 31
0.0
  0
LINE
  5
1B10C
330
1B0EC
100
AcDbEntity
  8
0
  6
CONTINUOUS
100
AcDbLine
 10
26.50763775544691
 20
0.0330999999912356
 30
0.0
 11
27.85763775544689
 21
1.383099999991223
 31
0.0
  0
LINE
  5
1B10D
330
1B0EC
100
AcDbEntity
  8
0
  6
CONTINUOUS
100
AcDbLine
 10
29.30199999996933
 20
2.827462244513656
 30
0.0
 11
30.74199999996925
 21
4.267462244513574
 31
0.0
  0
LINE
  5
1B10E
330
1B0EC
100
AcDbEntity
  8
0
  6
CONTINUOUS
100
AcDbLine
 10
27.18115696452709
 20
0.0330999999912356
 30
0.0
 11
28.55073879889363
 21
1.402681834357775
 31
0.0
  0
LINE
  5
1B10F
330
1B0EC
100
AcDbEntity
  8
0
  6
CONTINUOUS
100
AcDbLine
 10
29.28241816560272
 20
2.134361201066866
 30
0.0
 11
30.74199999996924
 21
3.593943035433383
 31
0.0
  0
LINE
  5
1B110
330
1B0EC
100
AcDbEntity
  8
0
  6
CONTINUOUS
100
AcDbLine
 10
27.85467617360728
 20
0.0330999999912356
 30
0.0
 11
30.74199999996924
 21
2.920423826353195
 31
0.0
  0
LINE
  5
1B111
330
1B0EC
100
AcDbEntity
  8
0
  6
CONTINUOUS
100
AcDbLine
 10
28.53897559587887
 20
0.0438802131826428
 30
0.0
 11
30.73121978677781
 21
2.236124404081585
 31
0.0
  0
LINE
  5
1B112
330
1B0EC
100
AcDbEntity
  8
0
  6
CONTINUOUS
100
AcDbLine
 10
29.45140055588722
 20
0.2827859641107988
 30
0.0
 11
30.49231403584965
 21
1.323699444073236
 31
0.0
  0
LINE
  5
1B113
330
1B0EC
100
AcDbEntity
  8
0
  6
CONTINUOUS
100
AcDbLine
 10
19.59027867740337
 20
-0.0000967065718083
 30
0.0
 11
19.55485265190471
 21
0.035329318926844
 31
0.0
  0
LINE
  5
1B114
330
1B0EC
100
AcDbEntity
  8
0
  6
CONTINUOUS
100
AcDbLine
 10
20.26375463176586
 20
-0.0000534518541091
 30
0.0
 11
19.76305575737534
 21
0.5006454225364014
 31
0.0
  0
LINE
  5
1B115
330
1B0EC
100
AcDbEntity
  8
0
  6
CONTINUOUS
100
AcDbLine
 10
20.93723058612834
 20
-0.0000101971364099
 30
0.0
 11
19.97125886284597
 21
0.965961526145958
 31
0.0
  0
LINE
  5
1B116
330
1B0EC
100
AcDbEntity
  8
0
  6
CONTINUOUS
100
AcDbLine
 10
21.25514828313686
 20
0.355591314935257
 30
0.0
 11
20.1794619683166
 21
1.431277629755512
 31
0.0
  0
LINE
  5
1B117
330
1B0EC
100
AcDbEntity
  8
0
  6
CONTINUOUS
100
AcDbLine
 10
21.46338838394921
 20
0.8208704232030986
 30
0.0
 11
20.38766507378723
 21
1.896593733365069
 31
0.0
  0
LINE
  5
1B118
330
1B0EC
100
AcDbEntity
  8
0
  6
CONTINUOUS
100
AcDbLine
 10
21.67162848476155
 20
1.28614953147094
 30
0.0
 11
20.59586817925786
 21
2.361909836974626
 31
0.0
  0
LINE
  5
1B119
330
1B0EC
100
AcDbEntity
  8
0
  6
CONTINUOUS
100
AcDbLine
 10
21.8798685855739
 20
1.751428639738782
 30
0.0
 11
20.80407128472849
 21
2.827225940584183
 31
0.0
  0
LINE
  5
1B11A
330
1B0EC
100
AcDbEntity
  8
0
  6
CONTINUOUS
100
AcDbLine
 10
22.08810868638624
 20
2.216707748006623
 30
0.0
 11
21.01227439019912
 21
3.292542044193739
 31
0.0
  0
LINE
  5
1B11B
330
1B0EC
100
AcDbEntity
  8
0
  6
CONTINUOUS
100
AcDbLine
 10
22.60993564347543
 20
2.36839999999762
 30
0.0
 11
21.22047749566975
 21
3.757858147803296
 31
0.0
  0
LINE
  5
1B11C
330
1B0EC
100
AcDbEntity
  8
0
  6
CONTINUOUS
100
AcDbLine
 10
23.28345485255561
 20
2.36839999999762
 30
0.0
 11
21.42868060114038
 21
4.223174251412853
 31
0.0
  0
LINE
  5
1B11D
330
1B0EC
100
AcDbEntity
  8
0
  6
CONTINUOUS
100
AcDbLine
 10
26.29227406164219
 20
0.0330999999912356
 30
0.0
 11
25.80009199592872
 21
0.5252820657046957
 31
0.0
  0
LINE
  5
1B11E
330
1B0EC
100
AcDbEntity
  8
0
  6
CONTINUOUS
100
AcDbLine
 10
23.9569740616358
 20
2.36839999999762
 30
0.0
 11
21.63688370661101
 21
4.688490355022409
 31
0.0
  0
LINE
  5
1B11F
330
1B0EC
100
AcDbEntity
  8
0
  6
CONTINUOUS
100
AcDbLine
 10
26.96579327072237
 20
0.0330999999912356
 30
0.0
 11
25.2554132311971
 21
1.743480039516508
 31
0.0
  0
LINE
  5
1B120
330
1B0EC
100
AcDbEntity
  8
0
  6
CONTINUOUS
100
AcDbLine
 10
24.63049327071599
 20
2.36839999999762
 30
0.0
 11
23.32789327071731
 21
3.670999999996297
 31
0.0
  0
LINE
  5
1B121
330
1B0EC
100
AcDbEntity
  8
0
  6
CONTINUOUS
100
AcDbLine
 10
22.92098674744635
 20
4.077906523267254
 30
0.0
 11
21.84508681208164
 21
5.153806458631966
 31
0.0
  0
LINE
  5
1B122
330
1B0EC
100
AcDbEntity
  8
0
  6
CONTINUOUS
100
AcDbLine
 10
27.63931247980256
 20
0.0330999999912356
 30
0.0
 11
24.0014124797975
 21
3.670999999996297
 31
0.0
  0
LINE
  5
1B123
330
1B0EC
100
AcDbEntity
  8
0
  6
CONTINUOUS
100
AcDbLine
 10
23.129125600968
 20
4.5432868788258
 30
0.0
 11
22.05328991755227
 21
5.619122562241522
 31
0.0
  0
LINE
  5
1B124
330
1B0EC
100
AcDbEntity
  8
0
  6
CONTINUOUS
100
AcDbLine
 10
28.31283168888275
 20
0.0330999999912356
 30
0.0
 11
24.16488385994816
 21
4.181047828925828
 31
0.0
  0
LINE
  5
1B125
330
1B0EC
100
AcDbEntity
  8
0
  6
CONTINUOUS
100
AcDbLine
 10
23.33726445448964
 20
5.008667234384345
 30
0.0
 11
22.2614930230229
 21
6.084438665851079
 31
0.0
  0
LINE
  5
1B126
330
1B0EC
100
AcDbEntity
  8
0
  6
CONTINUOUS
100
AcDbLine
 10
28.92085740005492
 20
0.0985934978992438
 30
0.0
 11
27.63635089796295
 21
1.383099999991217
 31
0.0
  0
LINE
  5
1B127
330
1B0EC
100
AcDbEntity
  8
0
  6
CONTINUOUS
100
AcDbLine
 10
26.43704649509776
 20
2.582404402856405
 30
0.0
 11
23.61992702019732
 21
5.399523877756844
 31
0.0
  0
LINE
  5
1B128
330
1B0EC
100
AcDbEntity
  8
0
  6
CONTINUOUS
100
AcDbLine
 10
23.54540330801128
 20
5.47404758994289
 30
0.0
 11
22.46969612849353
 21
6.549754769460635
 31
0.0
  0
LINE
  5
1B129
330
1B0EC
100
AcDbEntity
  8
0
  6
CONTINUOUS
100
AcDbLine
 10
29.42225615078443
 20
0.2707139562499279
 30
0.0
 11
28.30987010704312
 21
1.383099999991234
 31
0.0
  0
LINE
  5
1B12A
330
1B0EC
100
AcDbEntity
  8
0
  6
CONTINUOUS
100
AcDbLine
 10
25.89179548232307
 20
3.801174624711282
 30
0.0
 11
22.67789923396416
 21
7.015070873070191
 31
0.0
  0
LINE
  5
1B12B
330
1B0EC
100
AcDbEntity
  8
0
  6
CONTINUOUS
100
AcDbLine
 10
29.83624534690007
 20
0.5302439692144705
 30
0.0
 11
28.85811781497101
 21
1.508371501143527
 31
0.0
  0
LINE
  5
1B12C
330
1B0EC
100
AcDbEntity
  8
0
  6
CONTINUOUS
100
AcDbLine
 10
25.34654446954838
 20
5.01994484656616
 30
0.0
 11
22.88610233943479
 21
7.480386976679748
 31
0.0
  0
LINE
  5
1B12D
330
1B0EC
100
AcDbEntity
  8
0
  6
CONTINUOUS
100
AcDbLine
 10
30.17865975401872
 20
0.8613487711760022
 30
0.0
 11
29.18888744090175
 21
1.851121084292977
 31
0.0
  0
LINE
  5
1B12E
330
1B0EC
100
AcDbEntity
  8
0
  6
CONTINUOUS
100
AcDbLine
 10
24.80129345677369
 20
6.238715068421037
 30
0.0
 11
23.09430544490542
 21
7.945703080289305
 31
0.0
  0
LINE
  5
1B12F
330
1B0EC
100
AcDbEntity
  8
0
  6
CONTINUOUS
100
AcDbLine
 10
30.45496647202376
 20
1.258561262251155
 30
0.0
 11
29.30199999996933
 21
2.411527734305588
 31
0.0
  0
LINE
  5
1B130
330
1B0EC
100
AcDbEntity
  8
0
  6
CONTINUOUS
100
AcDbLine
 10
24.256042443999
 20
7.457485290275915
 30
0.0
 11
23.30250855037605
 21
8.411019183898862
 31
0.0
  0
LINE
  5
1B131
330
1B0EC
100
AcDbEntity
  8
0
  6
CONTINUOUS
100
AcDbLine
 10
30.64868582078271
 20
1.738361122572387
 30
0.0
 11
29.30199999996933
 21
3.085046943385775
 31
0.0
  0
LINE
  5
1B132
330
1B0EC
100
AcDbEntity
  8
0
  6
CONTINUOUS
100
AcDbLine
 10
23.71079143122431
 20
8.676255512130794
 30
0.0
 11
23.51071165584668
 21
8.876335287508416
 31
0.0
  0
LINE
  5
1B133
330
1B0EC
100
AcDbEntity
  8
0
  6
CONTINUOUS
100
AcDbLine
 10
30.73802122914428
 20
2.322544923291007
 30
0.0
 11
29.30199999996933
 21
3.758566152465961
 31
0.0
  0
LINE
  5
1B134
330
1B0EC
100
AcDbEntity
  8
0
  6
CONTINUOUS
100
AcDbLine
 10
30.74199999996924
 20
2.992085361546236
 30
0.0
 11
29.30199999996933
 21
4.432085361546148
 31
0.0
  0
LINE
  5
1B135
330
1B0EC
100
AcDbEntity
  8
0
  6
CONTINUOUS
100
AcDbLine
 10
30.74199999996924
 20
3.665604570626419
 30
0.0
 11
29.30199999996933
 21
5.105604570626333
 31
0.0
  0
LINE
  5
1B136
330
1B0EC
100
AcDbEntity
  8
0
  6
CONTINUOUS
100
AcDbLine
 10
30.74199999996925
 20
4.339123779706602
 30
0.0
 11
29.30199999996933
 21
5.77912377970652
 31
0.0
  0
LINE
  5
1B137
330
1B0EC
100
AcDbEntity
  8
0
  6
CONTINUOUS
100
AcDbLine
 10
30.74199999996925
 20
5.012642988786785
 30
0.0
 11
29.30199999996933
 21
6.452642988786707
 31
0.0
  0
LINE
  5
1B138
330
1B0EC
100
AcDbEntity
  8
0
  6
CONTINUOUS
100
AcDbLine
 10
30.74199999996925
 20
5.68616219786697
 30
0.0
 11
29.30199999996933
 21
7.126162197866894
 31
0.0
  0
LINE
  5
1B139
330
1B0EC
100
AcDbEntity
  8
0
  6
CONTINUOUS
100
AcDbLine
 10
30.74199999996925
 20
6.359681406947153
 30
0.0
 11
29.30199999996933
 21
7.799681406947081
 31
0.0
  0
LINE
  5
1B13A
330
1B0EC
100
AcDbEntity
  8
0
  6
CONTINUOUS
100
AcDbLine
 10
30.74199999996926
 20
7.033200616027337
 30
0.0
 11
29.30199999996933
 21
8.473200616027269
 31
0.0
  0
LINE
  5
1B13B
330
1B0EC
100
AcDbEntity
  8
0
  6
CONTINUOUS
100
AcDbLine
 10
30.74199999996926
 20
7.706719825107518
 30
0.0
 11
29.68561982508552
 21
8.763099999991255
 31
0.0
  0
LINE
  5
1B13C
330
1B0EC
100
AcDbEntity
  8
0
  6
CONTINUOUS
100
AcDbLine
 10
30.74199999996926
 20
8.380239034187703
 30
0.0
 11
30.35913903416571
 21
8.763099999991255
 31
0.0
  0
ENDBLK
  5
1B1DF
330
1B0EC
100
AcDbEntity
  8
0
100
AcDbBlockEnd
  0
BLOCK
  5
1B1E0
330
1B13D
100
AcDbEntity
  8
0
100
AcDbBlockBegin
  2
*X155
 70
     1
 10
0.0
 20
0.0
 30
0.0
  3
*X155
  1

  0
LINE
  5
1B13E
330
1B13D
100
AcDbEntity
  8
0
  6
CONTINUOUS
100
AcDbLine
 10
31.64199999996833
 20
8.535058289913598
 30
0.0
 11
31.87004171004599
 21
8.763099999991255
 31
0.0
  0
LINE
  5
1B13F
330
1B13D
100
AcDbEntity
  8
0
  6
CONTINUOUS
100
AcDbLine
 10
31.64199999996833
 20
7.861539080833412
 30
0.0
 11
32.54356091912618
 21
8.763099999991255
 31
0.0
  0
LINE
  5
1B140
330
1B13D
100
AcDbEntity
  8
0
  6
CONTINUOUS
100
AcDbLine
 10
31.64199999996833
 20
7.188019871753226
 30
0.0
 11
33.08199999996839
 21
8.628019871753281
 31
0.0
  0
LINE
  5
1B141
330
1B13D
100
AcDbEntity
  8
0
  6
CONTINUOUS
100
AcDbLine
 10
31.64199999996833
 20
6.51450066267304
 30
0.0
 11
33.08199999996839
 21
7.954500662673095
 31
0.0
  0
LINE
  5
1B142
330
1B13D
100
AcDbEntity
  8
0
  6
CONTINUOUS
100
AcDbLine
 10
31.64199999996833
 20
5.840981453592853
 30
0.0
 11
33.08199999996839
 21
7.280981453592908
 31
0.0
  0
LINE
  5
1B143
330
1B13D
100
AcDbEntity
  8
0
  6
CONTINUOUS
100
AcDbLine
 10
31.64199999996833
 20
5.167462244512667
 30
0.0
 11
33.08199999996839
 21
6.607462244512721
 31
0.0
  0
LINE
  5
1B144
330
1B13D
100
AcDbEntity
  8
0
  6
CONTINUOUS
100
AcDbLine
 10
31.64199999996833
 20
4.493943035432481
 30
0.0
 11
33.08199999996839
 21
5.933943035432535
 31
0.0
  0
LINE
  5
1B145
330
1B13D
100
AcDbEntity
  8
0
  6
CONTINUOUS
100
AcDbLine
 10
31.64199999996833
 20
3.820423826352293
 30
0.0
 11
33.08199999996839
 21
5.260423826352348
 31
0.0
  0
LINE
  5
1B146
330
1B13D
100
AcDbEntity
  8
0
  6
CONTINUOUS
100
AcDbLine
 10
31.64199999996833
 20
3.146904617272106
 30
0.0
 11
33.08199999996839
 21
4.586904617272161
 31
0.0
  0
LINE
  5
1B147
330
1B13D
100
AcDbEntity
  8
0
  6
CONTINUOUS
100
AcDbLine
 10
36.23199999996837
 20
8.410423826352325
 30
0.0
 11
36.5846761736073
 21
8.763099999991255
 31
0.0
  0
LINE
  5
1B148
330
1B13D
100
AcDbEntity
  8
0
  6
CONTINUOUS
100
AcDbLine
 10
36.23199999996837
 20
7.73690461727214
 30
0.0
 11
37.25819538268748
 21
8.763099999991255
 31
0.0
  0
LINE
  5
1B149
330
1B13D
100
AcDbEntity
  8
0
  6
CONTINUOUS
100
AcDbLine
 10
31.64257403601376
 20
2.473959444237348
 30
0.0
 11
33.08199999996839
 21
3.913385408191974
 31
0.0
  0
LINE
  5
1B14A
330
1B13D
100
AcDbEntity
  8
0
  6
CONTINUOUS
100
AcDbLine
 10
36.23199999996837
 20
7.063385408191953
 30
0.0
 11
37.67199999996831
 21
8.503385408191894
 31
0.0
  0
LINE
  5
1B14B
330
1B13D
100
AcDbEntity
  8
0
  6
CONTINUOUS
100
AcDbLine
 10
31.72013636841932
 20
1.87800256756272
 30
0.0
 11
33.08199999996839
 21
3.239866199111788
 31
0.0
  0
LINE
  5
1B14C
330
1B13D
100
AcDbEntity
  8
0
  6
CONTINUOUS
100
AcDbLine
 10
36.23199999996837
 20
6.389866199111767
 30
0.0
 11
37.67199999996831
 21
7.829866199111708
 31
0.0
  0
LINE
  5
1B14D
330
1B13D
100
AcDbEntity
  8
0
  6
CONTINUOUS
100
AcDbLine
 10
31.89042734314753
 20
1.374774333210744
 30
0.0
 11
33.08199999996839
 21
2.566346990031601
 31
0.0
  0
LINE
  5
1B14E
330
1B13D
100
AcDbEntity
  8
0
  6
CONTINUOUS
100
AcDbLine
 10
36.23199999996837
 20
5.71634699003158
 30
0.0
 11
37.67199999996831
 21
7.156346990031521
 31
0.0
  0
LINE
  5
1B14F
330
1B13D
100
AcDbEntity
  8
0
  6
CONTINUOUS
100
AcDbLine
 10
32.14210568064475
 20
0.952933461627778
 30
0.0
 11
33.18745552475986
 21
1.998283305742888
 31
0.0
  0
LINE
  5
1B150
330
1B13D
100
AcDbEntity
  8
0
  6
CONTINUOUS
100
AcDbLine
 10
36.23199999996837
 20
5.042827780951393
 30
0.0
 11
37.67199999996831
 21
6.482827780951334
 31
0.0
  0
LINE
  5
1B151
330
1B13D
100
AcDbEntity
  8
0
  6
CONTINUOUS
100
AcDbLine
 10
32.45820639400955
 20
0.5955149659123915
 30
0.0
 11
33.47242681921943
 21
1.60973539112227
 31
0.0
  0
LINE
  5
1B152
330
1B13D
100
AcDbEntity
  8
0
  6
CONTINUOUS
100
AcDbLine
 10
36.23199999996837
 20
4.369308571871207
 30
0.0
 11
37.67199999996831
 21
5.809308571871147
 31
0.0
  0
LINE
  5
1B153
330
1B13D
100
AcDbEntity
  8
0
  6
CONTINUOUS
100
AcDbLine
 10
32.83432456621412
 20
0.2981139290367771
 30
0.0
 11
33.89722476612215
 21
1.361014128944803
 31
0.0
  0
LINE
  5
1B154
330
1B13D
100
AcDbEntity
  8
0
  6
CONTINUOUS
100
AcDbLine
 10
36.23199999996837
 20
3.69578936279102
 30
0.0
 11
37.67199999996831
 21
5.135789362790962
 31
0.0
  0
LINE
  5
1B155
330
1B13D
100
AcDbEntity
  8
0
  6
CONTINUOUS
100
AcDbLine
 10
33.2711633111245
 20
0.0614334648669672
 30
0.0
 11
34.43247338014423
 21
1.222743533886696
 31
0.0
  0
LINE
  5
1B156
330
1B13D
100
AcDbEntity
  8
0
  6
CONTINUOUS
100
AcDbLine
 10
36.23199999996837
 20
3.022270153710834
 30
0.0
 11
37.67199999996831
 21
4.462270153710775
 31
0.0
  0
LINE
  5
1B157
330
1B13D
100
AcDbEntity
  8
0
  6
CONTINUOUS
100
AcDbLine
 10
33.76515245874577
 20
-0.1180965965919523
 30
0.0
 11
35.1587445516215
 21
1.27549549628378
 31
0.0
  0
LINE
  5
1B158
330
1B13D
100
AcDbEntity
  8
0
  6
CONTINUOUS
100
AcDbLine
 10
36.21639478609585
 20
2.333145730758136
 30
0.0
 11
37.67199999996831
 21
3.788750944630588
 31
0.0
  0
LINE
  5
1B159
330
1B13D
100
AcDbEntity
  8
0
  6
CONTINUOUS
100
AcDbLine
 10
34.34060583368432
 20
-0.2161624307335863
 30
0.0
 11
37.67199999996831
 21
3.115231735550401
 31
0.0
  0
LINE
  5
1B15A
330
1B13D
100
AcDbEntity
  8
0
  6
CONTINUOUS
100
AcDbLine
 10
35.01698193613905
 20
-0.2133055373590427
 30
0.0
 11
37.66876712070525
 21
2.438479647207154
 31
0.0
  0
LINE
  5
1B15B
330
1B13D
100
AcDbEntity
  8
0
  6
CONTINUOUS
100
AcDbLine
 10
35.90743367693304
 20
0.0036269943547609
 30
0.0
 11
37.51723902192366
 21
1.613432339345381
 31
0.0
  0
LINE
  5
1B15C
330
1B13D
100
AcDbEntity
  8
0
  6
CONTINUOUS
100
AcDbLine
 10
32.55309425579761
 20
0.5074718966376706
 30
0.0
 11
32.27784730925847
 21
0.7827188431768102
 31
0.0
  0
LINE
  5
1B15D
330
1B13D
100
AcDbEntity
  8
0
  6
CONTINUOUS
100
AcDbLine
 10
33.87496468909684
 20
-0.1408793275813673
 30
0.0
 11
31.67993083278052
 21
2.054154528734943
 31
0.0
  0
LINE
  5
1B15E
330
1B13D
100
AcDbEntity
  8
0
  6
CONTINUOUS
100
AcDbLine
 10
34.64362813207632
 20
-0.2360235614806649
 30
0.0
 11
31.64199999996833
 21
2.765604570627322
 31
0.0
  0
LINE
  5
1B15F
330
1B13D
100
AcDbEntity
  8
0
  6
CONTINUOUS
100
AcDbLine
 10
35.25801106796118
 20
-0.1768872882853429
 30
0.0
 11
31.64199999996833
 21
3.439123779707508
 31
0.0
  0
LINE
  5
1B160
330
1B13D
100
AcDbEntity
  8
0
  6
CONTINUOUS
100
AcDbLine
 10
35.79065650332146
 20
-0.0360135145654361
 30
0.0
 11
34.54143210838231
 21
1.213210880373721
 31
0.0
  0
LINE
  5
1B161
330
1B13D
100
AcDbEntity
  8
0
  6
CONTINUOUS
100
AcDbLine
 10
33.08199999996839
 20
2.67264298878764
 30
0.0
 11
31.64199999996833
 21
4.112642988787695
 31
0.0
  0
LINE
  5
1B162
330
1B13D
100
AcDbEntity
  8
0
  6
CONTINUOUS
100
AcDbLine
 10
36.25975597779143
 20
0.1684062200447833
 30
0.0
 11
35.15395110240023
 21
1.274211095435983
 31
0.0
  0
LINE
  5
1B163
330
1B13D
100
AcDbEntity
  8
0
  6
CONTINUOUS
100
AcDbLine
 10
33.08199999996839
 20
3.346162197867826
 30
0.0
 11
31.64199999996833
 21
4.786162197867881
 31
0.0
  0
LINE
  5
1B164
330
1B13D
100
AcDbEntity
  8
0
  6
CONTINUOUS
100
AcDbLine
 10
36.67226329638774
 20
0.4294181105286579
 30
0.0
 11
35.63766478748767
 21
1.464016619428737
 31
0.0
  0
LINE
  5
1B165
330
1B13D
100
AcDbEntity
  8
0
  6
CONTINUOUS
100
AcDbLine
 10
33.08199999996839
 20
4.019681406948012
 30
0.0
 11
31.64199999996833
 21
5.459681406948068
 31
0.0
  0
LINE
  5
1B166
330
1B13D
100
AcDbEntity
  8
0
  6
CONTINUOUS
100
AcDbLine
 10
37.01677749710036
 20
0.7584231188962329
 30
0.0
 11
35.99563422741351
 21
1.779566388583076
 31
0.0
  0
LINE
  5
1B167
330
1B13D
100
AcDbEntity
  8
0
  6
CONTINUOUS
100
AcDbLine
 10
33.08199999996839
 20
4.693200616028199
 30
0.0
 11
31.64199999996833
 21
6.133200616028255
 31
0.0
  0
LINE
  5
1B168
330
1B13D
100
AcDbEntity
  8
0
  6
CONTINUOUS
100
AcDbLine
 10
37.29859977568887
 20
1.1501200493879
 30
0.0
 11
36.20680593341555
 21
2.241913891661226
 31
0.0
  0
LINE
  5
1B169
330
1B13D
100
AcDbEntity
  8
0
  6
CONTINUOUS
100
AcDbLine
 10
33.08199999996839
 20
5.366719825108386
 30
0.0
 11
31.64199999996833
 21
6.80671982510844
 31
0.0
  0
LINE
  5
1B16A
330
1B13D
100
AcDbEntity
  8
0
  6
CONTINUOUS
100
AcDbLine
 10
37.5148623517228
 20
1.607376682434161
 30
0.0
 11
36.23199999996837
 21
2.890239034188594
 31
0.0
  0
LINE
  5
1B16B
330
1B13D
100
AcDbEntity
  8
0
  6
CONTINUOUS
100
AcDbLine
 10
33.08199999996839
 20
6.040239034188573
 30
0.0
 11
31.64199999996833
 21
7.480239034188627
 31
0.0
  0
LINE
  5
1B16C
330
1B13D
100
AcDbEntity
  8
0
  6
CONTINUOUS
100
AcDbLine
 10
37.64705163358367
 20
2.148706609653477
 30
0.0
 11
36.23199999996837
 21
3.56375824326878
 31
0.0
  0
LINE
  5
1B16D
330
1B13D
100
AcDbEntity
  8
0
  6
CONTINUOUS
100
AcDbLine
 10
33.08199999996839
 20
6.713758243268758
 30
0.0
 11
31.64199999996833
 21
8.153758243268815
 31
0.0
  0
LINE
  5
1B16E
330
1B13D
100
AcDbEntity
  8
0
  6
CONTINUOUS
100
AcDbLine
 10
37.67199999996831
 20
2.797277452349026
 30
0.0
 11
36.23199999996837
 21
4.237277452348967
 31
0.0
  0
LINE
  5
1B16F
330
1B13D
100
AcDbEntity
  8
0
  6
CONTINUOUS
100
AcDbLine
 10
37.67199999996831
 20
3.470796661429213
 30
0.0
 11
36.23199999996837
 21
4.910796661429154
 31
0.0
  0
LINE
  5
1B170
330
1B13D
100
AcDbEntity
  8
0
  6
CONTINUOUS
100
AcDbLine
 10
37.67199999996831
 20
4.144315870509399
 30
0.0
 11
36.23199999996837
 21
5.58431587050934
 31
0.0
  0
LINE
  5
1B171
330
1B13D
100
AcDbEntity
  8
0
  6
CONTINUOUS
100
AcDbLine
 10
33.08199999996839
 20
7.387277452348945
 30
0.0
 11
31.70617745232608
 21
8.763099999991255
 31
0.0
  0
LINE
  5
1B172
330
1B13D
100
AcDbEntity
  8
0
  6
CONTINUOUS
100
AcDbLine
 10
33.08199999996839
 20
8.060796661429132
 30
0.0
 11
32.37969666140626
 21
8.763099999991255
 31
0.0
  0
LINE
  5
1B173
330
1B13D
100
AcDbEntity
  8
0
  6
CONTINUOUS
100
AcDbLine
 10
33.08199999996839
 20
8.734315870509318
 30
0.0
 11
33.05321587048645
 21
8.763099999991255
 31
0.0
  0
LINE
  5
1B174
330
1B13D
100
AcDbEntity
  8
0
  6
CONTINUOUS
100
AcDbLine
 10
37.67199999996831
 20
4.817835079589585
 30
0.0
 11
36.23199999996837
 21
6.257835079589526
 31
0.0
  0
LINE
  5
1B175
330
1B13D
100
AcDbEntity
  8
0
  6
CONTINUOUS
100
AcDbLine
 10
37.67199999996831
 20
5.491354288669771
 30
0.0
 11
36.23199999996837
 21
6.931354288669713
 31
0.0
  0
LINE
  5
1B176
330
1B13D
100
AcDbEntity
  8
0
  6
CONTINUOUS
100
AcDbLine
 10
37.67199999996831
 20
6.164873497749958
 30
0.0
 11
36.23199999996837
 21
7.6048734977499
 31
0.0
  0
LINE
  5
1B177
330
1B13D
100
AcDbEntity
  8
0
  6
CONTINUOUS
100
AcDbLine
 10
37.67199999996831
 20
6.838392706830144
 30
0.0
 11
36.23199999996837
 21
8.278392706830086
 31
0.0
  0
LINE
  5
1B178
330
1B13D
100
AcDbEntity
  8
0
  6
CONTINUOUS
100
AcDbLine
 10
37.67199999996831
 20
7.511911915910332
 30
0.0
 11
36.42081191588738
 21
8.763099999991255
 31
0.0
  0
LINE
  5
1B179
330
1B13D
100
AcDbEntity
  8
0
  6
CONTINUOUS
100
AcDbLine
 10
37.67199999996831
 20
8.185431124990519
 30
0.0
 11
37.09433112496757
 21
8.763099999991255
 31
0.0
  0
ENDBLK
  5
1B1E1
330
1B13D
100
AcDbEntity
  8
0
100
AcDbBlockEnd
  0
BLOCK
  5
1B1E2
330
1B17A
100
AcDbEntity
  8
0
100
AcDbBlockBegin
  2
*X156
 70
     1
 10
0.0
 20
0.0
 30
0.0
  3
*X156
  1

  0
LINE
  5
1B17B
330
1B17A
100
AcDbEntity
  8
0
  6
CONTINUOUS
100
AcDbLine
 10
38.60499999996136
 20
8.762866199104765
 30
0.0
 11
38.71672554182345
 21
8.874591740966855
 31
0.0
  0
LINE
  5
1B17C
330
1B17A
100
AcDbEntity
  8
0
  6
CONTINUOUS
100
AcDbLine
 10
38.60499999996136
 20
8.089346990024577
 30
0.0
 11
39.03418785440363
 21
8.518534844466847
 31
0.0
  0
LINE
  5
1B17D
330
1B17A
100
AcDbEntity
  8
0
  6
CONTINUOUS
100
AcDbLine
 10
38.60499999996136
 20
7.41582778094439
 30
0.0
 11
39.35165016698382
 21
8.16247794796684
 31
0.0
  0
LINE
  5
1B17E
330
1B17A
100
AcDbEntity
  8
0
  6
CONTINUOUS
100
AcDbLine
 10
38.60499999996136
 20
6.742308571864204
 30
0.0
 11
39.66911247956399
 21
7.806421051466834
 31
0.0
  0
LINE
  5
1B17F
330
1B17A
100
AcDbEntity
  8
0
  6
CONTINUOUS
100
AcDbLine
 10
38.60499999996136
 20
6.068789362784018
 30
0.0
 11
39.98657479214418
 21
7.450364154966827
 31
0.0
  0
LINE
  5
1B180
330
1B17A
100
AcDbEntity
  8
0
  6
CONTINUOUS
100
AcDbLine
 10
38.60499999996136
 20
5.395270153703832
 30
0.0
 11
40.30403710472435
 21
7.09430725846682
 31
0.0
  0
LINE
  5
1B181
330
1B17A
100
AcDbEntity
  8
0
  6
CONTINUOUS
100
AcDbLine
 10
38.60499999996136
 20
4.721750944623645
 30
0.0
 11
40.62149941730453
 21
6.738250361966813
 31
0.0
  0
LINE
  5
1B182
330
1B17A
100
AcDbEntity
  8
0
  6
CONTINUOUS
100
AcDbLine
 10
38.60499999996136
 20
4.048231735543458
 30
0.0
 11
40.93896172988471
 21
6.382193465466806
 31
0.0
  0
LINE
  5
1B183
330
1B17A
100
AcDbEntity
  8
0
  6
CONTINUOUS
100
AcDbLine
 10
38.60499999996136
 20
3.374712526463272
 30
0.0
 11
40.02599999995994
 21
4.795712526461843
 31
0.0
  0
LINE
  5
1B184
330
1B17A
100
AcDbEntity
  8
0
  6
CONTINUOUS
100
AcDbLine
 10
38.60499999996136
 20
2.701193317383085
 30
0.0
 11
40.02599999995994
 21
4.122193317381657
 31
0.0
  0
LINE
  5
1B185
330
1B17A
100
AcDbEntity
  8
0
  6
CONTINUOUS
100
AcDbLine
 10
40.28339754687704
 20
5.053110073378947
 30
0.0
 11
41.25642404246489
 21
6.026136568966799
 31
0.0
  0
LINE
  5
1B186
330
1B17A
100
AcDbEntity
  8
0
  6
CONTINUOUS
100
AcDbLine
 10
40.60085985945722
 20
4.697053176878939
 30
0.0
 11
41.57388635504507
 21
5.670079672466793
 31
0.0
  0
LINE
  5
1B187
330
1B17A
100
AcDbEntity
  8
0
  6
CONTINUOUS
100
AcDbLine
 10
43.57899999995641
 20
8.348712526458318
 30
0.0
 11
43.99338747348935
 21
8.763099999991255
 31
0.0
  0
LINE
  5
1B188
330
1B17A
100
AcDbEntity
  8
0
  6
CONTINUOUS
100
AcDbLine
 10
43.57899999995641
 20
7.675193317378131
 30
0.0
 11
44.66690668256953
 21
8.763099999991255
 31
0.0
  0
LINE
  5
1B189
330
1B17A
100
AcDbEntity
  8
0
  6
CONTINUOUS
100
AcDbLine
 10
38.60499999996136
 20
2.027674108302898
 30
0.0
 11
40.02599999995994
 21
3.44867410830147
 31
0.0
  0
LINE
  5
1B18A
330
1B17A
100
AcDbEntity
  8
0
  6
CONTINUOUS
100
AcDbLine
 10
38.60499999996136
 20
1.354154899222712
 30
0.0
 11
40.02599999995994
 21
2.775154899221284
 31
0.0
  0
LINE
  5
1B18B
330
1B17A
100
AcDbEntity
  8
0
  6
CONTINUOUS
100
AcDbLine
 10
38.60499999996136
 20
0.6806356901425255
 30
0.0
 11
40.02599999995994
 21
2.101635690141098
 31
0.0
  0
LINE
  5
1B18C
330
1B17A
100
AcDbEntity
  8
0
  6
CONTINUOUS
100
AcDbLine
 10
38.60499999996136
 20
0.0071164810623383
 30
0.0
 11
40.02599999995994
 21
1.428116481060911
 31
0.0
  0
LINE
  5
1B18D
330
1B17A
100
AcDbEntity
  8
0
  6
CONTINUOUS
100
AcDbLine
 10
40.9183221720374
 20
4.340996280378933
 30
0.0
 11
41.89134866762525
 21
5.314022775966786
 31
0.0
  0
LINE
  5
1B18E
330
1B17A
100
AcDbEntity
  8
0
  6
CONTINUOUS
100
AcDbLine
 10
41.23578448461758
 20
3.984939383878926
 30
0.0
 11
42.20881098020543
 21
4.957965879466778
 31
0.0
  0
LINE
  5
1B18F
330
1B17A
100
AcDbEntity
  8
0
  6
CONTINUOUS
100
AcDbLine
 10
41.55324679719776
 20
3.628882487378919
 30
0.0
 11
42.52627329278561
 21
4.601908982966772
 31
0.0
  0
LINE
  5
1B190
330
1B17A
100
AcDbEntity
  8
0
  6
CONTINUOUS
100
AcDbLine
 10
41.87070910977793
 20
3.272825590878912
 30
0.0
 11
42.84373560536579
 21
4.245852086466765
 31
0.0
  0
LINE
  5
1B191
330
1B17A
100
AcDbEntity
  8
0
  6
CONTINUOUS
100
AcDbLine
 10
43.57899999995641
 20
7.001674108297943
 30
0.0
 11
44.99999999995498
 21
8.422674108296516
 31
0.0
  0
LINE
  5
1B192
330
1B17A
100
AcDbEntity
  8
0
  6
CONTINUOUS
100
AcDbLine
 10
43.57899999995641
 20
6.328154899217758
 30
0.0
 11
44.99999999995498
 21
7.749154899216329
 31
0.0
  0
LINE
  5
1B193
330
1B17A
100
AcDbEntity
  8
0
  6
CONTINUOUS
100
AcDbLine
 10
43.57899999995641
 20
5.654635690137571
 30
0.0
 11
44.99999999995498
 21
7.075635690136142
 31
0.0
  0
LINE
  5
1B194
330
1B17A
100
AcDbEntity
  8
0
  6
CONTINUOUS
100
AcDbLine
 10
43.57899999995641
 20
4.981116481057384
 30
0.0
 11
44.99999999995498
 21
6.402116481055955
 31
0.0
  0
LINE
  5
1B195
330
1B17A
100
AcDbEntity
  8
0
  6
CONTINUOUS
100
AcDbLine
 10
39.27140272797921
 20
-0.0000000000000009
 30
0.0
 11
40.02599999995994
 21
0.7545972719807246
 31
0.0
  0
LINE
  5
1B196
330
1B17A
100
AcDbEntity
  8
0
  6
CONTINUOUS
100
AcDbLine
 10
39.9449219370594
 20
-0.0000000000000009
 30
0.0
 11
40.02599999995994
 21
0.0810780629005379
 31
0.0
  0
LINE
  5
1B197
330
1B17A
100
AcDbEntity
  8
0
  6
CONTINUOUS
100
AcDbLine
 10
42.18817142235812
 20
2.916768694378905
 30
0.0
 11
43.16119791794597
 21
3.889795189966758
 31
0.0
  0
LINE
  5
1B198
330
1B17A
100
AcDbEntity
  8
0
  6
CONTINUOUS
100
AcDbLine
 10
42.50563373493829
 20
2.560711797878898
 30
0.0
 11
43.47866023052615
 21
3.533738293466751
 31
0.0
  0
LINE
  5
1B199
330
1B17A
100
AcDbEntity
  8
0
  6
CONTINUOUS
100
AcDbLine
 10
43.57899999995641
 20
4.307597271977198
 30
0.0
 11
44.99999999995498
 21
5.728597271975769
 31
0.0
  0
LINE
  5
1B19A
330
1B17A
100
AcDbEntity
  8
0
  6
CONTINUOUS
100
AcDbLine
 10
43.57899999995641
 20
3.634078062897011
 30
0.0
 11
44.99999999995498
 21
5.055078062895582
 31
0.0
  0
LINE
  5
1B19B
330
1B17A
100
AcDbEntity
  8
0
  6
CONTINUOUS
100
AcDbLine
 10
42.82309604751848
 20
2.204654901378891
 30
0.0
 11
44.99999999995498
 21
4.381558853815395
 31
0.0
  0
LINE
  5
1B19C
330
1B17A
100
AcDbEntity
  8
0
  6
CONTINUOUS
100
AcDbLine
 10
43.14055836009865
 20
1.848598004878885
 30
0.0
 11
44.99999999995498
 21
3.70803964473521
 31
0.0
  0
LINE
  5
1B19D
330
1B17A
100
AcDbEntity
  8
0
  6
CONTINUOUS
100
AcDbLine
 10
43.45802067267883
 20
1.492541108378878
 30
0.0
 11
44.99999999995498
 21
3.034520435655023
 31
0.0
  0
LINE
  5
1B19E
330
1B17A
100
AcDbEntity
  8
0
  6
CONTINUOUS
100
AcDbLine
 10
43.77548298525902
 20
1.136484211878871
 30
0.0
 11
44.99999999995498
 21
2.361001226574837
 31
0.0
  0
LINE
  5
1B19F
330
1B17A
100
AcDbEntity
  8
0
  6
CONTINUOUS
100
AcDbLine
 10
44.09294529783919
 20
0.7804273153788639
 30
0.0
 11
44.99999999995498
 21
1.687482017494649
 31
0.0
  0
LINE
  5
1B1A0
330
1B17A
100
AcDbEntity
  8
0
  6
CONTINUOUS
100
AcDbLine
 10
44.41040761041938
 20
0.4243704188788566
 30
0.0
 11
44.99999999995498
 21
1.013962808414463
 31
0.0
  0
LINE
  5
1B1A1
330
1B17A
100
AcDbEntity
  8
0
  6
CONTINUOUS
100
AcDbLine
 10
44.72786992299955
 20
0.0683135223788494
 30
0.0
 11
44.99999999995498
 21
0.340443599334276
 31
0.0
  0
LINE
  5
1B1A2
330
1B17A
100
AcDbEntity
  8
0
  6
CONTINUOUS
100
AcDbLine
 10
39.12223903415696
 20
-0.0000000000000009
 30
0.0
 11
38.60499999996136
 21
0.5172390341955961
 31
0.0
  0
LINE
  5
1B1A3
330
1B17A
100
AcDbEntity
  8
0
  6
CONTINUOUS
100
AcDbLine
 10
39.79575824323715
 20
-0.0000000000000009
 30
0.0
 11
38.60499999996136
 21
1.190758243275783
 31
0.0
  0
LINE
  5
1B1A4
330
1B17A
100
AcDbEntity
  8
0
  6
CONTINUOUS
100
AcDbLine
 10
40.02599999995994
 20
0.443277452357397
 30
0.0
 11
38.60499999996136
 21
1.864277452355969
 31
0.0
  0
LINE
  5
1B1A5
330
1B17A
100
AcDbEntity
  8
0
  6
CONTINUOUS
100
AcDbLine
 10
40.02599999995994
 20
1.116796661437583
 30
0.0
 11
38.60499999996136
 21
2.537796661436155
 31
0.0
  0
LINE
  5
1B1A6
330
1B17A
100
AcDbEntity
  8
0
  6
CONTINUOUS
100
AcDbLine
 10
40.02599999995994
 20
1.79031587051777
 30
0.0
 11
38.60499999996136
 21
3.211315870516341
 31
0.0
  0
LINE
  5
1B1A7
330
1B17A
100
AcDbEntity
  8
0
  6
CONTINUOUS
100
AcDbLine
 10
40.02599999995994
 20
2.463835079597956
 30
0.0
 11
38.60499999996136
 21
3.884835079596527
 31
0.0
  0
LINE
  5
1B1A8
330
1B17A
100
AcDbEntity
  8
0
  6
CONTINUOUS
100
AcDbLine
 10
40.02599999995994
 20
3.137354288678143
 30
0.0
 11
38.60499999996136
 21
4.558354288676714
 31
0.0
  0
LINE
  5
1B1A9
330
1B17A
100
AcDbEntity
  8
0
  6
CONTINUOUS
100
AcDbLine
 10
40.02599999995994
 20
3.810873497758329
 30
0.0
 11
38.60499999996136
 21
5.2318734977569
 31
0.0
  0
LINE
  5
1B1AA
330
1B17A
100
AcDbEntity
  8
0
  6
CONTINUOUS
100
AcDbLine
 10
40.02599999995994
 20
4.484392706838515
 30
0.0
 11
38.60499999996136
 21
5.905392706837086
 31
0.0
  0
LINE
  5
1B1AB
330
1B17A
100
AcDbEntity
  8
0
  6
CONTINUOUS
100
AcDbLine
 10
44.99999999995498
 20
0.183911915923658
 30
0.0
 11
41.53858364506288
 21
3.64532827081576
 31
0.0
  0
LINE
  5
1B1AC
330
1B17A
100
AcDbEntity
  8
0
  6
CONTINUOUS
100
AcDbLine
 10
40.02599999995994
 20
5.157911915918703
 30
0.0
 11
38.60499999996136
 21
6.578911915917274
 31
0.0
  0
LINE
  5
1B1AD
330
1B17A
100
AcDbEntity
  8
0
  6
CONTINUOUS
100
AcDbLine
 10
44.99999999995498
 20
0.8574311250038447
 30
0.0
 11
38.60499999996136
 21
7.25243112499746
 31
0.0
  0
LINE
  5
1B1AE
330
1B17A
100
AcDbEntity
  8
0
  6
CONTINUOUS
100
AcDbLine
 10
44.99999999995498
 20
1.530950334084031
 30
0.0
 11
38.60499999996136
 21
7.925950334077647
 31
0.0
  0
LINE
  5
1B1AF
330
1B17A
100
AcDbEntity
  8
0
  6
CONTINUOUS
100
AcDbLine
 10
44.99999999995498
 20
2.204469543164218
 30
0.0
 11
43.57899999995641
 21
3.625469543162789
 31
0.0
  0
LINE
  5
1B1B0
330
1B17A
100
AcDbEntity
  8
0
  6
CONTINUOUS
100
AcDbLine
 10
41.89876730984767
 20
5.305702233271528
 30
0.0
 11
38.60499999996136
 21
8.599469543157834
 31
0.0
  0
LINE
  5
1B1B1
330
1B17A
100
AcDbEntity
  8
0
  6
CONTINUOUS
100
AcDbLine
 10
44.99999999995498
 20
2.877988752244405
 30
0.0
 11
43.57899999995641
 21
4.298988752242975
 31
0.0
  0
LINE
  5
1B1B2
330
1B17A
100
AcDbEntity
  8
0
  6
CONTINUOUS
100
AcDbLine
 10
44.99999999995498
 20
3.551507961324591
 30
0.0
 11
43.57899999995641
 21
4.972507961323163
 31
0.0
  0
LINE
  5
1B1B3
330
1B17A
100
AcDbEntity
  8
0
  6
CONTINUOUS
100
AcDbLine
 10
44.99999999995498
 20
4.225027170404777
 30
0.0
 11
43.57899999995641
 21
5.646027170403348
 31
0.0
  0
LINE
  5
1B1B4
330
1B17A
100
AcDbEntity
  8
0
  6
CONTINUOUS
100
AcDbLine
 10
44.99999999995498
 20
4.898546379484964
 30
0.0
 11
43.57899999995641
 21
6.319546379483535
 31
0.0
  0
LINE
  5
1B1B5
330
1B17A
100
AcDbEntity
  8
0
  6
CONTINUOUS
100
AcDbLine
 10
44.99999999995498
 20
5.572065588565151
 30
0.0
 11
43.57899999995641
 21
6.993065588563722
 31
0.0
  0
LINE
  5
1B1B6
330
1B17A
100
AcDbEntity
  8
0
  6
CONTINUOUS
100
AcDbLine
 10
44.99999999995498
 20
6.245584797645336
 30
0.0
 11
43.57899999995641
 21
7.666584797643908
 31
0.0
  0
LINE
  5
1B1B7
330
1B17A
100
AcDbEntity
  8
0
  6
CONTINUOUS
100
AcDbLine
 10
44.99999999995498
 20
6.919104006725522
 30
0.0
 11
43.57899999995641
 21
8.340104006724093
 31
0.0
  0
LINE
  5
1B1B8
330
1B17A
100
AcDbEntity
  8
0
  6
CONTINUOUS
100
AcDbLine
 10
44.99999999995498
 20
7.592623215805709
 30
0.0
 11
43.82952321576943
 21
8.763099999991255
 31
0.0
  0
LINE
  5
1B1B9
330
1B17A
100
AcDbEntity
  8
0
  6
CONTINUOUS
100
AcDbLine
 10
44.99999999995498
 20
8.266142424885896
 30
0.0
 11
44.50304242484962
 21
8.763099999991255
 31
0.0
  0
ENDBLK
  5
1B1E3
330
1B17A
100
AcDbEntity
  8
0
100
AcDbBlockEnd
  0
BLOCK
  5
1B1E4
330
1B1BA
100
AcDbEntity
  8
0
100
AcDbBlockBegin
  2
*X157
 70
     1
 10
0.0
 20
0.0
 30
0.0
  3
*X157
  1

  0
LINE
  5
1B1BB
330
1B1BA
100
AcDbEntity
  8
0
  6
CONTINUOUS
100
AcDbLine
 10
0.0
 20
8.548461116714023
 30
0.0
 11
0.2146388832772324
 21
8.763099999991255
 31
0.0
  0
LINE
  5
1B1BC
330
1B1BA
100
AcDbEntity
  8
0
  6
CONTINUOUS
100
AcDbLine
 10
-0.0000000000000002
 20
7.874941907633837
 30
0.0
 11
0.8881580923574184
 21
8.763099999991255
 31
0.0
  0
LINE
  5
1B1BD
330
1B1BA
100
AcDbEntity
  8
0
  6
CONTINUOUS
100
AcDbLine
 10
0.0
 20
7.20142269855365
 30
0.0
 11
1.420999999998572
 21
8.622422698552223
 31
0.0
  0
LINE
  5
1B1BE
330
1B1BA
100
AcDbEntity
  8
0
  6
CONTINUOUS
100
AcDbLine
 10
-0.0000000000000001
 20
6.527903489473465
 30
0.0
 11
1.420999999998571
 21
7.948903489472036
 31
0.0
  0
LINE
  5
1B1BF
330
1B1BA
100
AcDbEntity
  8
0
  6
CONTINUOUS
100
AcDbLine
 10
-0.0000000000000002
 20
5.854384280393278
 30
0.0
 11
1.420999999998571
 21
7.275384280391849
 31
0.0
  0
LINE
  5
1B1C0
330
1B1BA
100
AcDbEntity
  8
0
  6
CONTINUOUS
100
AcDbLine
 10
-0.0000000000000002
 20
5.180865071313091
 30
0.0
 11
1.420999999998571
 21
6.601865071311663
 31
0.0
  0
LINE
  5
1B1C1
330
1B1BA
100
AcDbEntity
  8
0
  6
CONTINUOUS
100
AcDbLine
 10
0.0
 20
4.507345862232905
 30
0.0
 11
1.420999999998571
 21
5.928345862231477
 31
0.0
  0
LINE
  5
1B1C2
330
1B1BA
100
AcDbEntity
  8
0
  6
CONTINUOUS
100
AcDbLine
 10
-0.0000000000000003
 20
3.833826653152718
 30
0.0
 11
1.420999999998571
 21
5.25482665315129
 31
0.0
  0
LINE
  5
1B1C3
330
1B1BA
100
AcDbEntity
  8
0
  6
CONTINUOUS
100
AcDbLine
 10
-0.0000000000000002
 20
3.160307444072532
 30
0.0
 11
1.420999999998571
 21
4.581307444071103
 31
0.0
  0
LINE
  5
1B1C4
330
1B1BA
100
AcDbEntity
  8
0
  6
CONTINUOUS
100
AcDbLine
 10
-0.0000000000000001
 20
2.486788234992345
 30
0.0
 11
1.420999999998571
 21
3.907788234990917
 31
0.0
  0
LINE
  5
1B1C5
330
1B1BA
100
AcDbEntity
  8
0
  6
CONTINUOUS
100
AcDbLine
 10
-0.0000000000000006
 20
1.813269025912159
 30
0.0
 11
1.420999999998571
 21
3.234269025910731
 31
0.0
  0
LINE
  5
1B1C6
330
1B1BA
100
AcDbEntity
  8
0
  6
CONTINUOUS
100
AcDbLine
 10
0.0
 20
1.139749816831973
 30
0.0
 11
1.420999999998571
 21
2.560749816830544
 31
0.0
  0
LINE
  5
1B1C7
330
1B1BA
100
AcDbEntity
  8
0
  6
CONTINUOUS
100
AcDbLine
 10
0.0000000000000002
 20
0.466230607751787
 30
0.0
 11
1.420999999998571
 21
1.887230607750358
 31
0.0
  0
LINE
  5
1B1C8
330
1B1BA
100
AcDbEntity
  8
0
  6
CONTINUOUS
100
AcDbLine
 10
0.2072886013284003
 20
-0.0000000000000009
 30
0.0
 11
1.420999999998571
 21
1.213711398670171
 31
0.0
  0
LINE
  5
1B1C9
330
1B1BA
100
AcDbEntity
  8
0
  6
CONTINUOUS
100
AcDbLine
 10
0.8808078104085864
 20
-0.0000000000000009
 30
0.0
 11
1.420999999998571
 21
0.5401921895899839
 31
0.0
  0
LINE
  5
1B1CA
330
1B1BA
100
AcDbEntity
  8
0
  6
CONTINUOUS
100
AcDbLine
 10
0.0581249075061505
 20
-0.0000000000000009
 30
0.0
 11
-0.0000000000000002
 21
0.0581249075061496
 31
0.0
  0
LINE
  5
1B1CB
330
1B1BA
100
AcDbEntity
  8
0
  6
CONTINUOUS
100
AcDbLine
 10
0.7316441165863372
 20
-0.0000000000000009
 30
0.0
 11
-0.0000000000000002
 21
0.7316441165863363
 31
0.0
  0
LINE
  5
1B1CC
330
1B1BA
100
AcDbEntity
  8
0
  6
CONTINUOUS
100
AcDbLine
 10
1.405163325666523
 20
-0.0000000000000009
 30
0.0
 11
-0.0000000000000002
 21
1.405163325666523
 31
0.0
  0
LINE
  5
1B1CD
330
1B1BA
100
AcDbEntity
  8
0
  6
CONTINUOUS
100
AcDbLine
 10
1.420999999998572
 20
0.6576825347481381
 30
0.0
 11
-0.0000000000000001
 21
2.07868253474671
 31
0.0
  0
LINE
  5
1B1CE
330
1B1BA
100
AcDbEntity
  8
0
  6
CONTINUOUS
100
AcDbLine
 10
1.420999999998571
 20
1.331201743828324
 30
0.0
 11
-0.0000000000000001
 21
2.752201743826896
 31
0.0
  0
LINE
  5
1B1CF
330
1B1BA
100
AcDbEntity
  8
0
  6
CONTINUOUS
100
AcDbLine
 10
1.420999999998571
 20
2.004720952908511
 30
0.0
 11
-0.0000000000000002
 21
3.425720952907082
 31
0.0
  0
LINE
  5
1B1D0
330
1B1BA
100
AcDbEntity
  8
0
  6
CONTINUOUS
100
AcDbLine
 10
1.420999999998571
 20
2.678240161988697
 30
0.0
 11
-0.0000000000000001
 21
4.099240161987269
 31
0.0
  0
LINE
  5
1B1D1
330
1B1BA
100
AcDbEntity
  8
0
  6
CONTINUOUS
100
AcDbLine
 10
1.420999999998572
 20
3.351759371068884
 30
0.0
 11
0.0
 21
4.772759371067455
 31
0.0
  0
LINE
  5
1B1D2
330
1B1BA
100
AcDbEntity
  8
0
  6
CONTINUOUS
100
AcDbLine
 10
1.420999999998571
 20
4.02527858014907
 30
0.0
 11
-0.0000000000000003
 21
5.446278580147642
 31
0.0
  0
LINE
  5
1B1D3
330
1B1BA
100
AcDbEntity
  8
0
  6
CONTINUOUS
100
AcDbLine
 10
1.420999999998571
 20
4.698797789229257
 30
0.0
 11
0.0
 21
6.119797789227828
 31
0.0
  0
LINE
  5
1B1D4
330
1B1BA
100
AcDbEntity
  8
0
  6
CONTINUOUS
100
AcDbLine
 10
1.420999999998571
 20
5.372316998309444
 30
0.0
 11
-0.0000000000000001
 21
6.793316998308015
 31
0.0
  0
LINE
  5
1B1D5
330
1B1BA
100
AcDbEntity
  8
0
  6
CONTINUOUS
100
AcDbLine
 10
1.420999999998572
 20
6.045836207389629
 30
0.0
 11
-0.0000000000000004
 21
7.466836207388202
 31
0.0
  0
LINE
  5
1B1D6
330
1B1BA
100
AcDbEntity
  8
0
  6
CONTINUOUS
100
AcDbLine
 10
1.420999999998571
 20
6.719355416469816
 30
0.0
 11
0.0
 21
8.140355416468388
 31
0.0
  0
LINE
  5
1B1D7
330
1B1BA
100
AcDbEntity
  8
0
  6
CONTINUOUS
100
AcDbLine
 10
1.420999999998571
 20
7.392874625550003
 30
0.0
 11
0.0507746255573185
 21
8.763099999991255
 31
0.0
  0
LINE
  5
1B1D8
330
1B1BA
100
AcDbEntity
  8
0
  6
CONTINUOUS
100
AcDbLine
 10
1.420999999998571
 20
8.06639383463019
 30
0.0
 11
0.7242938346375052
 21
8.763099999991255
 31
0.0
  0
LINE
  5
1B1D9
330
1B1BA
100
AcDbEntity
  8
0
  6
CONTINUOUS
100
AcDbLine
 10
1.420999999998571
 20
8.739913043710375
 30
0.0
 11
1.397813043717691
 21
8.763099999991255
 31
0.0
  0
ENDBLK
  5
1B1E5
330
1B1BA
100
AcDbEntity
  8
0
100
AcDbBlockEnd
  0
ENDSEC
  0
SECTION
  2
ENTITIES
  0
LINE
  5
1AB1C
330
18
100
AcDbEntity
  8
01
100
AcDbLine
 10
1983.137615627425
 20
-648.9298883114213
 30
0.0000000001127424
 11
2009.137615627425
 21
-648.9298883114213
 31
0.0000000001127424
  0
LINE
  5
1AB1D
330
18
100
AcDbEntity
  8
01
100
AcDbLine
 10
2018.637615627425
 20
-643.4298883114213
 30
0.0000000001127424
 11
1973.637615627425
 21
-643.4298883114213
 31
0.0000000001127424
  0
LINE
  5
1AB1E
330
18
100
AcDbEntity
  8
01
100
AcDbLine
 10
1996.137615627425
 20
-620.9298883114213
 30
0.0000000001127424
 11
1996.137615627425
 21
-665.9298883114213
 31
0.0000000001127424
  0
LINE
  5
1AB1F
330
18
100
AcDbEntity
  8
01
100
AcDbLine
 10
2313.637511287682
 20
-643.4298883114213
 30
0.0000000001127424
 11
2358.637511287682
 21
-643.4298883114213
 31
0.0000000001127424
  0
LINE
  5
1AB20
330
18
100
AcDbEntity
  8
01
100
AcDbLine
 10
2336.137511287682
 20
-620.9298883114213
 30
0.0000000001127424
 11
2336.137511287682
 21
-665.9298883114213
 31
0.0000000001127424
  0
LINE
  5
1AB21
330
18
100
AcDbEntity
  8
01
100
AcDbLine
 10
2336.137503287679
 20
-443.929888311421
 30
0.0000000001127424
 11
2336.137503287679
 21
-470.429888311421
 31
0.0000000001127424
  0
LINE
  5
1AB22
330
18
100
AcDbEntity
  8
01
100
AcDbLine
 10
2336.137503287679
 20
-413.9298883134783
 30
0.0000000001127424
 11
2336.137503287679
 21
-384.6386152218378
 31
0.0000000001127424
  0
LINE
  5
1AB23
330
18
100
AcDbEntity
  8
01
100
AcDbLine
 10
1983.137615627425
 20
-648.9298883114213
 30
0.0000000001127424
 11
2009.137615627425
 21
-648.9298883114213
 31
0.0000000001127424
  0
LINE
  5
1AB24
330
18
100
AcDbEntity
  8
01
100
AcDbLine
 10
2018.637615627425
 20
-643.4298883114213
 30
0.0000000001127424
 11
1973.637615627425
 21
-643.4298883114213
 31
0.0000000001127424
  0
LINE
  5
1AB25
330
18
100
AcDbEntity
  8
01
100
AcDbLine
 10
1996.137615627425
 20
-620.9298883114213
 30
0.0000000001127424
 11
1996.137615627425
 21
-665.9298883114213
 31
0.0000000001127424
  0
LINE
  5
1AB26
330
18
100
AcDbEntity
  8
01
100
AcDbLine
 10
2336.137503287679
 20
-413.9298883134787
 30
0.0000000001127424
 11
2336.137503287679
 21
-384.3015643106208
 31
0.0000000001127424
  0
LINE
  5
1AB27
330
18
100
AcDbEntity
  8
01
100
AcDbLine
 10
2337.137736833442
 20
-456.8796583124498
 30
0.0000000001126288
 11
2337.137736833442
 21
-456.129388194723
 31
0.0000000001126288
  0
ARC
  5
1AB28
330
18
100
AcDbEntity
  8
01
100
AcDbCircle
 10
2334.837737833443
 20
-456.8796583124498
 30
0.0000000001126288
 40
0.30000001
100
AcDbArc
 50
256.8165200000084
 51
0.0000029999845689
  0
ARC
  5
1AB29
330
18
100
AcDbEntity
  8
01
100
AcDbCircle
 10
2336.137736833442
 20
-451.3298883124493
 30
0.0000000001126288
 40
6.0
100
AcDbArc
 50
283.1834820000383
 51
305.6853339999134
  0
ARC
  5
1AB2A
330
18
100
AcDbEntity
  8
01
100
AcDbCircle
 10
2337.437739833443
 20
-456.8796583124498
 30
0.0000000001126288
 40
0.30000001
100
AcDbArc
 50
180.0
 51
283.1834819998866
  0
LINE
  5
1AB2B
330
18
100
AcDbEntity
  8
01
100
AcDbLine
 10
2339.637736833442
 20
-456.2032883124497
 30
0.0000000001126288
 11
2339.637736833442
 21
-456.1237628821012
 31
0.0000000001126288
  0
LINE
  5
1AB2C
330
18
100
AcDbEntity
  8
01
100
AcDbLine
 10
2332.637736833442
 20
-456.2032883124497
 30
0.0000000001126288
 11
2332.637736833442
 21
-456.1237637052681
 31
0.0000000001126288
  0
ARC
  5
1AB2D
330
18
100
AcDbEntity
  8
01
100
AcDbCircle
 10
2336.137736833442
 20
-451.3298883124493
 30
0.0000000001126288
 40
6.0
100
AcDbArc
 50
234.3146700000057
 51
256.8165174966524
  0
LINE
  5
1AB2E
330
18
100
AcDbEntity
  8
01
100
AcDbLine
 10
2335.137736833442
 20
-456.880436771852
 30
0.0000000001126288
 11
2335.137736833442
 21
-456.1293884299124
 31
0.0000000001126288
  0
CIRCLE
  5
1AB2F
330
18
100
AcDbEntity
  8
01
100
AcDbCircle
 10
2336.139885807382
 20
-648.9279592530036
 30
0.0000000001127424
 40
3.75
  0
CIRCLE
  5
1AB30
330
18
100
AcDbEntity
  8
01
100
AcDbCircle
 10
2336.139885807382
 20
-648.9279594571315
 30
0.0000000001127424
 40
3.5000005
  0
LINE
  5
1AB31
330
18
100
AcDbEntity
  8
01
100
AcDbLine
 10
2337.139885807382
 20
-652.2820622571314
 30
0.0000000001127424
 11
2337.139885807382
 21
-645.5738554571315
 31
0.0000000001127424
  0
LINE
  5
1AB32
330
18
100
AcDbEntity
  8
01
100
AcDbLine
 10
2335.139885807382
 20
-652.2820622571314
 30
0.0000000001127424
 11
2335.139885807382
 21
-645.5738554571315
 31
0.0000000001127424
  0
LINE
  5
1AB34
330
18
100
AcDbEntity
  8
01
100
AcDbLine
 10
2198.548489413096
 20
-648.9279594571392
 30
0.0000000000564852
 11
2181.962405789544
 21
-648.9279594571392
 31
0.0000000000564852
  0
ARC
  5
1AB36
330
18
100
AcDbEntity
  8
01
100
AcDbCircle
 10
2187.375968116298
 20
-648.9279581362009
 30
0.0000000000563715
 40
6.761421521126972
100
AcDbArc
 50
331.1686164602419
 51
28.19757905001783
  0
LINE
  5
1AB37
330
18
100
AcDbEntity
  8
01
100
AcDbLine
 10
2336.137619371068
 20
-413.9298883134787
 30
0.0000000001127424
 11
2336.137619371068
 21
-379.2676948914976
 31
0.0000000001127424
  0
ARC
  5
1AB39
330
18
100
AcDbEntity
  8
01
100
AcDbCircle
 10
1996.137615627425
 20
-648.9298883114213
 30
0.0000000001127424
 40
10.05
100
AcDbArc
 50
110.0454680348242
 51
249.9469134583254
  0
ARC
  5
1AB3A
330
18
100
AcDbEntity
  8
01
100
AcDbCircle
 10
1996.137615627425
 20
-648.9298883114213
 30
0.0000000001127424
 40
10.05
100
AcDbArc
 50
290.0224750536403
 51
69.9914596174722
  0
ARC
  5
1AB3B
330
18
100
AcDbEntity
  8
01
100
AcDbCircle
 10
1996.137615627425
 20
-648.9298883114213
 30
0.0000000001127424
 40
9.74999999999999
100
AcDbArc
 50
0.0000000001563306
 51
68.45395418618527
  0
ARC
  5
1AB3C
330
18
100
AcDbEntity
  8
01
100
AcDbCircle
 10
1996.137615627425
 20
-648.9298883114213
 30
0.0000000001127424
 40
9.749999999999998
100
AcDbArc
 50
111.5843693294036
 51
180.0
  0
ARC
  5
1AB3D
330
18
100
AcDbEntity
  8
01
100
AcDbCircle
 10
1996.137615627425
 20
-648.9298883114213
 30
0.0000000001127424
 40
9.750000000000007
100
AcDbArc
 50
179.9999999998437
 51
248.4084387346865
  0
ARC
  5
1AB3E
330
18
100
AcDbEntity
  8
01
100
AcDbCircle
 10
1996.137615627425
 20
-648.9298883114213
 30
0.0000000001127424
 40
9.75
100
AcDbArc
 50
291.5595539139823
 51
0.0
  0
ELLIPSE
  5
1AB3F
330
18
100
AcDbEntity
  8
01
100
AcDbEllipse
 10
1996.135233107723
 20
-648.9318171657112
 30
0.0000000001127424
 11
-0.0003610284613241448
 21
13.0999804587098
 31
0.0
210
0.0
220
0.0
230
1.0
 40
0.3791170530975354
 41
0.0
 42
6.283185307179586
  0
CIRCLE
  5
1AB40
330
18
100
AcDbEntity
  8
01
100
AcDbCircle
 10
1996.135233107724
 20
-643.4318171657105
 30
0.0000000001127424
 40
22.5
  0
CIRCLE
  5
1AB41
330
18
100
AcDbEntity
  8
01
100
AcDbCircle
 10
1996.135233107723
 20
-643.4318171657112
 30
0.0000000001127424
 40
22.29
  0
CIRCLE
  5
1AB42
330
18
100
AcDbEntity
  8
01
100
AcDbCircle
 10
1996.135233107723
 20
-643.4318171657112
 30
0.0000000001127424
 40
19.0
  0
LINE
  5
1AB43
330
18
100
AcDbEntity
  8
01
100
AcDbLine
 10
2146.137503287681
 20
-620.9298883114202
 30
0.0000000001127427
 11
2146.137503287681
 21
-665.9298883114202
 31
0.0000000001127427
  0
ARC
  5
1AB44
330
18
100
AcDbEntity
  8
01
100
AcDbCircle
 10
3138.937503287681
 20
-643.4298883114209
 30
0.0000000001127427
 40
1000.0
100
AcDbArc
 50
178.9248287457556
 51
180.0
  0
ARC
  5
1AB45
330
18
100
AcDbEntity
  8
01
100
AcDbCircle
 10
2139.413513139184
 20
-624.67134045651
 30
0.0000000001127427
 40
0.3
100
AcDbArc
 50
104.1761832660094
 51
178.9248287457196
  0
ARC
  5
1AB46
330
18
100
AcDbEntity
  8
01
100
AcDbCircle
 10
3138.937503287681
 20
-643.4298883114207
 30
0.0000000001127427
 40
1000.0
100
AcDbArc
 50
180.0
 51
181.0751712542441
  0
LINE
  5
1AB47
330
18
100
AcDbEntity
  8
01
100
AcDbLine
 10
2146.137503287681
 20
-665.9298883114213
 30
0.0000000001127427
 11
2142.598418717717
 21
-665.9298883114213
 31
0.0000000001127427
  0
LINE
  5
1AB48
330
18
100
AcDbEntity
  8
01
100
AcDbLine
 10
2146.137503287681
 20
-620.9298883114202
 30
0.0000000001127427
 11
2142.598418717717
 21
-620.9298883114202
 31
0.0000000001127427
  0
ARC
  5
1AB49
330
18
100
AcDbEntity
  8
01
100
AcDbCircle
 10
2138.360424282669
 20
-620.5022873433577
 30
0.0000000001127427
 40
4.0
100
AcDbArc
 50
284.1761832656505
 51
350.2581374962674
  0
ARC
  5
1AB4A
330
18
100
AcDbEntity
  8
01
100
AcDbCircle
 10
2142.598418717717
 20
-621.2298883114202
 30
0.0000000001127427
 40
0.3
100
AcDbArc
 50
90.0
 51
170.2581374962722
  0
ARC
  5
1AB4B
330
18
100
AcDbEntity
  8
01
100
AcDbCircle
 10
2138.360424282669
 20
-666.3574892794838
 30
0.0000000001127427
 40
4.0
100
AcDbArc
 50
9.741862503735835
 51
75.8238167343495
  0
ARC
  5
1AB4C
330
18
100
AcDbEntity
  8
01
100
AcDbCircle
 10
2139.413513139184
 20
-662.1884361663313
 30
0.0000000001127427
 40
0.3
100
AcDbArc
 50
181.0751712542804
 51
255.8238167339906
  0
ARC
  5
1AB4D
330
18
100
AcDbEntity
  8
01
100
AcDbCircle
 10
2142.598418717717
 20
-665.6298883114214
 30
0.0000000001127427
 40
0.3
100
AcDbArc
 50
189.7418625037278
 51
270.0
  0
LINE
  5
1AB4E
330
18
100
AcDbEntity
  8
01
100
AcDbLine
 10
2142.302744687341
 20
-665.6806511696623
 30
0.0000000001127427
 11
2142.302744687367
 21
-621.1791254531836
 31
0.0000000001127427
  0
LINE
  5
1AB4F
330
18
100
AcDbEntity
  8
01
100
AcDbLine
 10
2138.437503287681
 20
-648.9279601008955
 30
0.0000000001127427
 11
2138.437503692011
 21
-658.177950190541
 31
0.0000000001127427
  0
LINE
  5
1AB50
330
18
100
AcDbEntity
  8
01
100
AcDbLine
 10
2138.437503692013
 20
-639.67797001125
 30
0.0000000001127427
 11
2138.437503287681
 21
-648.9279601008955
 31
0.0000000001127427
  0
ARC
  5
1AB51
330
18
100
AcDbEntity
  8
01
100
AcDbCircle
 10
2138.937512125708
 20
-658.177951707481
 30
0.0000000001127427
 40
0.5000084337392914
100
AcDbArc
 50
180.0003261594549
 51
269.9990335858046
  0
ARC
  5
1AB52
330
18
100
AcDbEntity
  8
01
100
AcDbCircle
 10
2138.937512125708
 20
-639.6779684943119
 30
0.0000000001127427
 40
0.5000084337417281
100
AcDbArc
 50
90.00096641419535
 51
179.9996738402845
  0
ARC
  5
1AB53
330
18
100
AcDbEntity
  8
01
100
AcDbCircle
 10
2127.90484679207
 20
-660.5282435181723
 30
0.0000000001127427
 40
1.500000000000001
100
AcDbArc
 50
248.9635837817497
 51
345.5539247770799
  0
ARC
  5
1AB54
330
18
100
AcDbEntity
  8
01
100
AcDbCircle
 10
2127.904846811155
 20
-637.3276538694488
 30
0.0000000001127427
 40
1.5
100
AcDbArc
 50
14.44607512781656
 51
111.0364165352798
  0
ARC
  5
1AB55
330
18
100
AcDbEntity
  8
01
100
AcDbCircle
 10
2132.513751062382
 20
-642.9279350839597
 30
0.0000000001127427
 40
2.000013567111268
100
AcDbArc
 50
186.8925049822975
 51
269.9996362637843
  0
ARC
  5
1AB56
330
18
100
AcDbEntity
  8
01
100
AcDbCircle
 10
2132.513736615124
 20
-654.9279459338152
 30
0.0000000001127427
 40
1.99999727125782
100
AcDbArc
 50
89.9999498551644
 51
173.1079137070706
  0
LINE
  5
1AB57
330
18
100
AcDbEntity
  8
01
100
AcDbLine
 10
2137.437501380332
 20
-644.9279486568037
 30
0.0000000001127427
 11
2132.513737267797
 21
-644.9279486568037
 31
0.0000000001127427
  0
LINE
  5
1AB58
330
18
100
AcDbEntity
  8
01
100
AcDbLine
 10
2137.437501380332
 20
-652.9279486568037
 30
0.0000000001127427
 11
2132.513736949229
 21
-652.9279486568037
 31
0.0000000001127427
  0
ARC
  5
1AB59
330
18
100
AcDbEntity
  8
01
100
AcDbCircle
 10
2132.366295381106
 20
-648.9281020084181
 30
0.0000000001127427
 40
13.92879400161829
100
AcDbArc
 50
111.0361095903669
 51
179.9993691914274
  0
ARC
  5
1AB5A
330
18
100
AcDbEntity
  8
01
100
AcDbCircle
 10
2137.437476880982
 20
-653.9281421062562
 30
0.0000000001127427
 40
1.00002449696401
100
AcDbArc
 50
0.0070867014805194
 51
89.99859632639497
  0
ARC
  5
1AB5B
330
18
100
AcDbEntity
  8
01
100
AcDbCircle
 10
2137.437477227263
 20
-643.9277732949956
 30
0.0000000001127427
 40
1.00002415319642
100
AcDbArc
 50
270.0013838370443
 51
0.000782053482127
  0
ARC
  5
1AB5C
330
18
100
AcDbEntity
  8
01
100
AcDbCircle
 10
2132.366295381106
 20
-648.9277953051055
 30
0.0000000001127427
 40
13.92879400161829
100
AcDbArc
 50
180.0006308085791
 51
248.9636137060567
  0
ARC
  5
1AB5D
330
18
100
AcDbEntity
  8
01
100
AcDbCircle
 10
2082.875043762263
 20
-648.9279487332637
 30
0.0000000001127427
 40
48.0
100
AcDbArc
 50
345.5539248722213
 51
354.08461560619
  0
ARC
  5
1AB5E
330
18
100
AcDbEntity
  8
01
100
AcDbCircle
 10
2082.875043762263
 20
-648.9279487332637
 30
0.0000000001127427
 40
48.0
100
AcDbArc
 50
5.915341272160301
 51
14.44648558685772
  0
LINE
  5
1AB5F
330
18
100
AcDbEntity
  8
01
100
AcDbLine
 10
2186.137619627424
 20
-620.9298883114213
 30
0.0000000001127427
 11
2186.137619627424
 21
-665.9298883114213
 31
0.0000000001127427
  0
ARC
  5
1AB60
330
18
100
AcDbEntity
  8
01
100
AcDbCircle
 10
1193.337619627423
 20
-643.429888311422
 30
0.0000000001127427
 40
1000.0
100
AcDbArc
 50
0.0
 51
1.075171254244375
  0
ARC
  5
1AB61
330
18
100
AcDbEntity
  8
01
100
AcDbCircle
 10
2192.861609775921
 20
-624.6713404565112
 30
0.0000000001127427
 40
0.3
100
AcDbArc
 50
1.075171254278779
 51
75.82381673399061
  0
ARC
  5
1AB62
330
18
100
AcDbEntity
  8
01
100
AcDbCircle
 10
1193.337619627423
 20
-643.4298883114218
 30
0.0000000001127427
 40
1000.0
100
AcDbArc
 50
358.9248287457556
 51
0.0
  0
LINE
  5
1AB63
330
18
100
AcDbEntity
  8
01
100
AcDbLine
 10
2186.137619627424
 20
-665.9298883114225
 30
0.0000000001127427
 11
2189.676704197388
 21
-665.9298883114225
 31
0.0000000001127427
  0
LINE
  5
1AB64
330
18
100
AcDbEntity
  8
01
100
AcDbLine
 10
2186.137619627424
 20
-620.9298883114213
 30
0.0000000001127427
 11
2189.676704197388
 21
-620.9298883114213
 31
0.0000000001127427
  0
ARC
  5
1AB65
330
18
100
AcDbEntity
  8
01
100
AcDbCircle
 10
2193.914698632437
 20
-620.5022873433588
 30
0.0000000001127427
 40
4.0
100
AcDbArc
 50
189.7418625037369
 51
255.8238167343495
  0
ARC
  5
1AB66
330
18
100
AcDbEntity
  8
01
100
AcDbCircle
 10
2189.676704197388
 20
-621.2298883114213
 30
0.0000000001127427
 40
0.3
100
AcDbArc
 50
9.741862503713074
 51
90.0
  0
ARC
  5
1AB67
330
18
100
AcDbEntity
  8
01
100
AcDbCircle
 10
2193.914698632437
 20
-666.357489279485
 30
0.0000000001127427
 40
4.0
100
AcDbArc
 50
104.1761832656505
 51
170.2581374962599
  0
ARC
  5
1AB68
330
18
100
AcDbEntity
  8
01
100
AcDbCircle
 10
2192.861609775921
 20
-662.1884361663324
 30
0.0000000001127427
 40
0.3
100
AcDbArc
 50
284.1761832660094
 51
358.9248287457212
  0
ARC
  5
1AB69
330
18
100
AcDbEntity
  8
01
100
AcDbCircle
 10
2189.676704197388
 20
-665.6298883114225
 30
0.0000000001127427
 40
0.3
100
AcDbArc
 50
270.0
 51
350.2581374962441
  0
LINE
  5
1AB6A
330
18
100
AcDbEntity
  8
01
100
AcDbLine
 10
2189.972378227764
 20
-665.6806511696634
 30
0.0000000001127427
 11
2189.972378227739
 21
-621.1791254531847
 31
0.0000000001127427
  0
CIRCLE
  5
1AB6B
330
18
100
AcDbEntity
  8
01
100
AcDbCircle
 10
2336.137511287684
 20
-643.4298883114207
 30
0.0000000001127424
 40
22.5
  0
CIRCLE
  5
1AB6C
330
18
100
AcDbEntity
  8
01
100
AcDbCircle
 10
2336.137511287682
 20
-643.4298883114213
 30
0.0000000001127424
 40
22.29
  0
CIRCLE
  5
1AB6D
330
18
100
AcDbEntity
  8
01
100
AcDbCircle
 10
2336.137511287682
 20
-643.4298883114213
 30
0.0000000001127424
 40
19.0
  0
LINE
  5
1AB6E
330
18
100
AcDbEntity
  8
01
100
AcDbLine
 10
2358.637619238862
 20
-448.9298883124496
 30
0.0000000001127424
 11
2313.637619238862
 21
-448.9298883124496
 31
0.0000000001127424
  0
ARC
  5
1AB6F
330
18
100
AcDbEntity
  8
01
100
AcDbCircle
 10
2336.137619238862
 20
543.8701116875504
 30
0.0000000001127424
 40
1000.0
100
AcDbArc
 50
269.9999999999999
 51
271.0751712542445
  0
ARC
  5
1AB70
330
18
100
AcDbEntity
  8
01
100
AcDbCircle
 10
2354.896167093772
 20
-455.6538784609478
 30
0.0000000001127424
 40
0.3
100
AcDbArc
 50
271.0751712541055
 51
345.8238167343752
  0
ARC
  5
1AB71
330
18
100
AcDbEntity
  8
01
100
AcDbCircle
 10
2336.137619238862
 20
543.8701116875504
 30
0.0000000001127424
 40
1000.0
100
AcDbArc
 50
268.9248287457554
 51
270.0
  0
LINE
  5
1AB72
330
18
100
AcDbEntity
  8
01
100
AcDbLine
 10
2313.637619238862
 20
-448.9298883124496
 30
0.0000000001127424
 11
2313.637619238862
 21
-452.4689728824136
 31
0.0000000001127424
  0
LINE
  5
1AB73
330
18
100
AcDbEntity
  8
01
100
AcDbLine
 10
2358.637619238862
 20
-448.9298883124496
 30
0.0000000001127424
 11
2358.637619238862
 21
-452.4689728824136
 31
0.0000000001127424
  0
ARC
  5
1AB74
330
18
100
AcDbEntity
  8
01
100
AcDbCircle
 10
2359.065220206924
 20
-456.7069673174623
 30
0.0000000001127424
 40
4.0
100
AcDbArc
 50
99.74186250374923
 51
165.8238167343535
  0
ARC
  5
1AB75
330
18
100
AcDbEntity
  8
01
100
AcDbCircle
 10
2358.337619238863
 20
-452.4689728824136
 30
0.0000000001127424
 40
0.3
100
AcDbArc
 50
279.7418625036794
 51
0.0
  0
ARC
  5
1AB76
330
18
100
AcDbEntity
  8
01
100
AcDbCircle
 10
2313.210018270799
 20
-456.7069673174623
 30
0.0000000001127424
 40
4.0
100
AcDbArc
 50
14.17618326563706
 51
80.25813749625077
  0
ARC
  5
1AB77
330
18
100
AcDbEntity
  8
01
100
AcDbCircle
 10
2317.379071383951
 20
-455.6538784609478
 30
0.0000000001127424
 40
0.3
100
AcDbArc
 50
194.1761832656461
 51
268.924828745547
  0
ARC
  5
1AB78
330
18
100
AcDbEntity
  8
01
100
AcDbCircle
 10
2313.937619238862
 20
-452.4689728824136
 30
0.0000000001127424
 40
0.3
100
AcDbArc
 50
180.0
 51
260.258137495969
  0
LINE
  5
1AB79
330
18
100
AcDbEntity
  8
01
100
AcDbLine
 10
2313.88685638062
 20
-452.7646469127898
 30
0.0000000001127424
 11
2358.388382097098
 21
-452.7646469127643
 31
0.0000000001127424
  0
LINE
  5
1AB7A
330
18
100
AcDbEntity
  8
01
100
AcDbLine
 10
2358.637619371068
 20
-408.9298883124501
 30
0.0000000001127424
 11
2313.637619371068
 21
-408.9298883124501
 31
0.0000000001127424
  0
ARC
  5
1AB7B
330
18
100
AcDbEntity
  8
01
100
AcDbCircle
 10
2336.137619371067
 20
-1401.72988831245
 30
0.0000000001127424
 40
1000.0
100
AcDbArc
 50
88.92482874575532
 51
89.9999999999999
  0
ARC
  5
1AB7C
330
18
100
AcDbEntity
  8
01
100
AcDbCircle
 10
2354.896167225978
 20
-402.2058981639519
 30
0.0000000001127424
 40
0.3
100
AcDbArc
 50
14.17618326562482
 51
88.92482874554693
  0
ARC
  5
1AB7D
330
18
100
AcDbEntity
  8
01
100
AcDbCircle
 10
2336.137619371068
 20
-1401.72988831245
 30
0.0000000001127424
 40
1000.0
100
AcDbArc
 50
89.99999999999997
 51
91.07517125424455
  0
LINE
  5
1AB7E
330
18
100
AcDbEntity
  8
01
100
AcDbLine
 10
2313.637619371067
 20
-408.9298883124501
 30
0.0000000001127424
 11
2313.637619371067
 21
-405.3908037424861
 31
0.0000000001127424
  0
LINE
  5
1AB7F
330
18
100
AcDbEntity
  8
01
100
AcDbLine
 10
2358.637619371068
 20
-408.9298883124501
 30
0.0000000001127424
 11
2358.637619371068
 21
-405.3908037424861
 31
0.0000000001127424
  0
ARC
  5
1AB80
330
18
100
AcDbEntity
  8
01
100
AcDbCircle
 10
2359.065220339132
 20
-401.1528093074375
 30
0.0000000001127424
 40
4.0
100
AcDbArc
 50
194.1761832656466
 51
260.2581374962508
  0
ARC
  5
1AB81
330
18
100
AcDbEntity
  8
01
100
AcDbCircle
 10
2358.337619371067
 20
-405.3908037424861
 30
0.0000000001127424
 40
0.3
100
AcDbArc
 50
0.0
 51
80.25813749596895
  0
ARC
  5
1AB82
330
18
100
AcDbEntity
  8
01
100
AcDbCircle
 10
2313.210018403005
 20
-401.1528093074375
 30
0.0000000001127424
 40
4.0
100
AcDbArc
 50
279.7418625037492
 51
345.823816734355
  0
ARC
  5
1AB83
330
18
100
AcDbEntity
  8
01
100
AcDbCircle
 10
2317.379071516157
 20
-402.2058981639519
 30
0.0000000001127424
 40
0.3
100
AcDbArc
 50
91.07517125410553
 51
165.8238167343539
  0
ARC
  5
1AB84
330
18
100
AcDbEntity
  8
01
100
AcDbCircle
 10
2313.937619371066
 20
-405.3908037424861
 30
0.0000000001127424
 40
0.3
100
AcDbArc
 50
99.74186250367947
 51
180.0
  0
LINE
  5
1AB85
330
18
100
AcDbEntity
  8
01
100
AcDbLine
 10
2313.886856512826
 20
-405.09512971211
 30
0.0000000001127424
 11
2358.388382229306
 21
-405.0951297121354
 31
0.0000000001127424
  0
LINE
  5
1AB86
330
18
100
AcDbEntity
  8
01
100
AcDbLine
 10
2326.907671062369
 20
-401.2776164064616
 30
0.0000000001127424
 11
2345.407671062369
 21
-401.2776164064616
 31
0.0000000001127424
  0
ARC
  5
1AB87
330
18
100
AcDbEntity
  8
01
100
AcDbCircle
 10
2345.407671062368
 20
-401.7776164064616
 30
0.0000000001127424
 40
0.5000000000003975
100
AcDbArc
 50
0.0000000000521102
 51
89.99999999979156
  0
ARC
  5
1AB88
330
18
100
AcDbEntity
  8
01
100
AcDbCircle
 10
2326.907671062369
 20
-401.7776164064616
 30
0.0000000001127424
 40
0.5000000000003566
100
AcDbArc
 50
90.00000000020843
 51
179.9999999997395
  0
ARC
  5
1AB89
330
18
100
AcDbEntity
  8
01
100
AcDbCircle
 10
2331.137547381316
 20
-400.2775972738344
 30
0.0000000001127424
 40
1.000021247364248
100
AcDbArc
 50
270.0879483596577
 51
359.9987807493853
  0
ARC
  5
1AB8A
330
18
100
AcDbEntity
  8
01
100
AcDbCircle
 10
2341.137739269229
 20
-400.2776185541478
 30
0.0000000001127424
 40
1.000000000074975
100
AcDbArc
 50
179.9999999954664
 51
270.0000000043773
  0
ARC
  5
1AB8D
330
18
100
AcDbEntity
  8
01
100
AcDbCircle
 10
2332.67611200744
 20
-392.2151609558658
 30
0.0000000001127424
 40
1.499999999999999
100
AcDbArc
 50
177.0589800956122
 51
223.510404916428
  0
LINE
  5
1AB8E
330
18
100
AcDbEntity
  8
01
100
AcDbLine
 10
2340.137739269155
 20
-400.2776185542224
 30
0.0000000001127424
 11
2340.1377392691
 21
-394.6248629793625
 31
0.0000000001127424
  0
LINE
  5
1AB8F
330
18
100
AcDbEntity
  8
01
100
AcDbLine
 10
2332.137739269155
 20
-400.2776185542224
 30
0.0000000001127424
 11
2332.137739269155
 21
-394.6248629791825
 31
0.0000000001127424
  0
ARC
  5
1AB90
330
18
100
AcDbEntity
  8
01
100
AcDbCircle
 10
2339.599366531063
 20
-392.2151609558567
 30
0.0000000001127424
 40
1.499999999999999
100
AcDbArc
 50
316.4895950801545
 51
2.941019903549358
  0
ARC
  5
1AB91
330
18
100
AcDbEntity
  8
01
100
AcDbCircle
 10
2342.137739269117
 20
-394.624862978846
 30
0.0000000001127424
 40
1.999999999999999
100
AcDbArc
 50
143.0178058707197
 51
179.9999999991141
  0
ARC
  5
1AB92
330
18
100
AcDbEntity
  8
01
100
AcDbCircle
 10
2330.137739269155
 20
-394.6248629791825
 30
0.0000000001127424
 40
2.0
100
AcDbArc
 50
0.0
 51
32.62901003828455
  0
ARC
  5
1AB94
330
18
100
AcDbEntity
  8
01
100
AcDbCircle
 10
2342.20299927116
 20
-394.6799341106633
 30
0.0000000001127424
 40
2.085251372005462
100
AcDbArc
 50
136.6267268407478
 51
142.8877364313093
  0
ARC
  5
1AB95
330
18
100
AcDbEntity
  8
01
100
AcDbCircle
 10
2338.642311126742
 20
-391.9632081478384
 30
0.0000000001127424
 40
2.394833768223352
100
AcDbArc
 50
321.4043977567543
 51
323.9689904781408
  0
LINE
  5
1AB97
330
18
100
AcDbEntity
  8
01
100
AcDbLine
 10
2347.451774074635
 20
-648.9279594574205
 30
0.0000000001127424
 11
2324.827997539552
 21
-648.9279594574205
 31
0.0000000001127424
  0
LINE
  5
1AB98
330
18
100
AcDbEntity
  8
01
100
AcDbLine
 10
2336.137619371068
 20
-413.9298883134792
 30
0.0000000001127424
 11
2336.137619371068
 21
-387.4298883134792
 31
0.0000000001127424
  0
LINE
  5
1AB99
330
18
100
AcDbEntity
  8
01
100
AcDbLine
 10
2336.137619238862
 20
-443.9298883124501
 30
0.0000000001127424
 11
2336.137619238862
 21
-470.4298883124501
 31
0.0000000001127424
  0
LINE
  5
1AB9A
330
18
100
AcDbEntity
  8
01
100
AcDbLine
 10
2306.137503287679
 20
-698.9298883114216
 30
0.0000000001127424
 11
2366.137503287679
 21
-698.9298883114216
 31
0.0000000001127424
  0
LINE
  5
1AB9B
330
18
100
AcDbEntity
  8
01
100
AcDbLine
 10
2336.137503287679
 20
-668.9298883114215
 30
0.0000000001127424
 11
2336.137503287679
 21
-728.9298883114216
 31
0.0000000001127424
  0
LINE
  5
1AB9F
330
18
100
AcDbEntity
  8
01
100
AcDbLine
 10
2280.137503287679
 20
-620.9298883114215
 30
0.0000000001127424
 11
2294.137503287679
 21
-620.9298883114215
 31
0.0000000001127424
  0
LINE
  5
1ABA0
330
18
100
AcDbEntity
  8
01
100
AcDbLine
 10
2285.138387469739
 20
-408.9298883124501
 30
0.0000000001127424
 11
2438.892767624772
 21
-408.9298883124501
 31
0.0000000001127424
  0
LINE
  5
1ABA1
330
18
100
AcDbEntity
  8
01
  6
BYBLOCK
100
AcDbLine
 10
2285.138387469739
 20
-408.9298883124501
 30
0.0000000001127424
 11
2285.138387469739
 21
-448.9298883124501
 31
0.0000000001127424
  0
LINE
  5
1ABA5
330
18
100
AcDbEntity
  8
01
100
AcDbLine
 10
2336.137503287678
 20
-413.9298883134787
 30
0.0000000001127424
 11
2336.137503287678
 21
-383.0118081242298
 31
0.0000000001127424
  0
LINE
  5
1ABA6
330
18
100
AcDbEntity
  8
01
  6
BYBLOCK
100
AcDbLine
 10
2286.637503287679
 20
-613.0298883114214
 30
0.0000000001127424
 11
2286.637503287679
 21
-742.8298883114217
 31
0.0000000001127424
  0
LINE
  5
1ABA7
330
18
100
AcDbEntity
  8
01
  6
BYBLOCK
100
AcDbLine
 10
2286.637503287679
 20
-741.9298883114216
 30
0.0000000001127424
 11
2289.137503287679
 21
-741.9298883114216
 31
0.0000000001127424
  0
LINE
  5
1ABA8
330
18
100
AcDbEntity
  8
01
  6
BYBLOCK
100
AcDbLine
 10
2289.137503287679
 20
-741.9298883114216
 30
0.0000000001127424
 11
2289.137503287679
 21
-725.4269445862692
 31
0.0000000001127424
  0
LINE
  5
1ABA9
330
18
100
AcDbEntity
  8
01
  6
BYBLOCK
100
AcDbLine
 10
2285.137503287679
 20
-613.0298883114214
 30
0.0000000001127424
 11
2285.137503287679
 21
-742.8298883114217
 31
0.0000000001127424
  0
LINE
  5
1ABAA
330
18
100
AcDbEntity
  8
01
  6
BYBLOCK
100
AcDbLine
 10
2285.137503287679
 20
-742.8298883114217
 30
0.0000000001127424
 11
2286.637503287679
 21
-742.8298883114217
 31
0.0000000001127424
  0
LINE
  5
1ABAB
330
18
100
AcDbEntity
  8
01
  6
BYBLOCK
100
AcDbLine
 10
2286.637503287679
 20
-613.9298883114215
 30
0.0000000001127424
 11
2289.137503287679
 21
-613.9298883114215
 31
0.0000000001127424
  0
LINE
  5
1ABAC
330
18
100
AcDbEntity
  8
01
  6
BYBLOCK
100
AcDbLine
 10
2285.137503287679
 20
-613.0298883114214
 30
0.0000000001127424
 11
2286.637503287679
 21
-613.0298883114214
 31
0.0000000001127424
  0
LINE
  5
1ABAD
330
18
100
AcDbEntity
  8
01
  6
BYBLOCK
100
AcDbLine
 10
2286.637503287679
 20
-637.9298883114215
 30
0.0000000001127424
 11
2287.837503287678
 21
-637.9298883114215
 31
0.0000000001127424
  0
LINE
  5
1ABAE
330
18
100
AcDbEntity
  8
01
  6
BYBLOCK
100
AcDbLine
 10
2287.837503287678
 20
-632.2298883114212
 30
0.0000000001127424
 11
2287.837503287678
 21
-723.6298883114214
 31
0.0000000001127424
  0
LINE
  5
1ABAF
330
18
100
AcDbEntity
  8
01
  6
BYBLOCK
100
AcDbLine
 10
2287.937503287681
 20
-741.9298883114216
 30
0.0000000001127424
 11
2287.937503287681
 21
-725.3298883114217
 31
0.0000000001127424
  0
LINE
  5
1ABB0
330
18
100
AcDbEntity
  8
01
  6
BYBLOCK
100
AcDbLine
 10
2287.937503287681
 20
-725.3298883114217
 30
0.0000000001127424
 11
2286.988975150255
 21
-724.3813601739976
 31
0.0000000001127424
  0
LINE
  5
1ABB1
330
18
100
AcDbEntity
  8
01
  6
BYBLOCK
100
AcDbLine
 10
2288.786031425104
 20
-724.5784164488455
 30
0.0000000001127424
 11
2287.837503287678
 21
-723.6298883114214
 31
0.0000000001127424
  0
ARC
  5
1ABB2
330
18
100
AcDbEntity
  8
01
  6
BYBLOCK
100
AcDbCircle
 10
2287.937503287681
 20
-725.4269445862692
 30
0.0000000001127424
 40
1.2
100
AcDbArc
 50
0.0
 51
45.00000000003838
  0
ARC
  5
1ABB3
330
18
100
AcDbEntity
  8
01
  6
BYBLOCK
100
AcDbCircle
 10
2287.837503287678
 20
-723.5328320365738
 30
0.0000000001127424
 40
1.2
100
AcDbArc
 50
180.0
 51
225.0000000000384
  0
LINE
  5
1ABB4
330
18
100
AcDbEntity
  8
01
  6
BYBLOCK
100
AcDbLine
 10
2289.137503287679
 20
-613.9298883114215
 30
0.0000000001127424
 11
2289.137503287679
 21
-630.4328320365738
 31
0.0000000001127424
  0
LINE
  5
1ABB5
330
18
100
AcDbEntity
  8
01
  6
BYBLOCK
100
AcDbLine
 10
2287.937503287681
 20
-613.9298883114215
 30
0.0000000001127424
 11
2287.937503287681
 21
-630.5298883114214
 31
0.0000000001127424
  0
LINE
  5
1ABB6
330
18
100
AcDbEntity
  8
01
  6
BYBLOCK
100
AcDbLine
 10
2287.937503287681
 20
-630.5298883114214
 30
0.0000000001127424
 11
2286.988975150255
 21
-631.4784164488455
 31
0.0000000001127424
  0
LINE
  5
1ABB7
330
18
100
AcDbEntity
  8
01
  6
BYBLOCK
100
AcDbLine
 10
2288.786031425104
 20
-631.2813601739975
 30
0.0000000001127424
 11
2287.837503287678
 21
-632.2298883114216
 31
0.0000000001127424
  0
ARC
  5
1ABB8
330
18
100
AcDbEntity
  8
01
  6
BYBLOCK
100
AcDbCircle
 10
2287.937503287681
 20
-630.4328320365738
 30
0.0000000001127424
 40
1.2
100
AcDbArc
 50
314.9999999999578
 51
0.0
  0
ARC
  5
1ABB9
330
18
100
AcDbEntity
  8
01
  6
BYBLOCK
100
AcDbCircle
 10
2287.837503287678
 20
-632.3269445862692
 30
0.0000000001127424
 40
1.2
100
AcDbArc
 50
134.9999999999616
 51
180.0
  0
CIRCLE
  5
1ABBA
330
18
100
AcDbEntity
  8
01
100
AcDbCircle
 10
2336.137503287679
 20
-648.9298883114215
 30
0.0000000001127424
 40
4.75
  0
ARC
  5
1ABBB
330
18
100
AcDbEntity
  8
01
  6
BYBLOCK
100
AcDbCircle
 10
2288.23838746974
 20
-425.3686377694502
 30
0.0000000001127424
 40
1.6
100
AcDbArc
 50
115.9444797719643
 51
180.0
  0
ARC
  5
1ABBC
330
18
100
AcDbEntity
  8
01
  6
BYBLOCK
100
AcDbCircle
 10
2288.23838746974
 20
-432.49113885545
 30
0.0000000001127424
 40
1.6
100
AcDbArc
 50
180.0
 51
244.0555202280358
  0
ARC
  5
1ABBD
330
18
100
AcDbEntity
  8
01
  6
BYBLOCK
100
AcDbCircle
 10
2287.538387469739
 20
-433.7686377694503
 30
0.0000000001127424
 40
1.6
100
AcDbArc
 50
0.0
 51
64.05552022803575
  0
ARC
  5
1ABBE
330
18
100
AcDbEntity
  8
01
  6
BYBLOCK
100
AcDbCircle
 10
2287.538387469739
 20
-424.0911388554504
 30
0.0000000001127424
 40
1.6
100
AcDbArc
 50
295.9444797719642
 51
0.0
  0
LINE
  5
1ABBF
330
18
100
AcDbEntity
  8
01
  6
BYBLOCK
100
AcDbLine
 10
2289.138387469739
 20
-424.0911388554504
 30
0.0000000001127424
 11
2289.138387469739
 21
-416.7298883124503
 31
0.0000000001127424
  0
LINE
  5
1ABC0
330
18
100
AcDbEntity
  8
01
  6
BYBLOCK
100
AcDbLine
 10
2288.23838746974
 20
-432.3298883124502
 30
0.0000000001127424
 11
2288.23838746974
 21
-425.52988831245
 31
0.0000000001127424
  0
LINE
  5
1ABC1
330
18
100
AcDbEntity
  8
01
  6
BYBLOCK
100
AcDbLine
 10
2289.138387469739
 20
-440.9298883124501
 30
0.0000000001127424
 11
2289.138387469739
 21
-433.7686377694503
 31
0.0000000001127424
  0
LINE
  5
1ABC2
330
18
100
AcDbEntity
  8
01
  6
BYBLOCK
100
AcDbLine
 10
2287.538387469739
 20
-423.9298883124501
 30
0.0000000001127424
 11
2287.538387469739
 21
-416.7298883124503
 31
0.0000000001127424
  0
LINE
  5
1ABC3
330
18
100
AcDbEntity
  8
01
  6
BYBLOCK
100
AcDbLine
 10
2287.538387469739
 20
-433.9298883124501
 30
0.0000000001127424
 11
2287.538387469739
 21
-441.02988831245
 31
0.0000000001127424
  0
ARC
  5
1ABC4
330
18
100
AcDbEntity
  8
01
  6
BYBLOCK
100
AcDbCircle
 10
2352.538387469739
 20
-421.02988831245
 30
0.0000000001127424
 40
1.6
100
AcDbArc
 50
0.0
 51
90.0
  0
LINE
  5
1ABC5
330
18
100
AcDbEntity
  8
01
  6
BYBLOCK
100
AcDbLine
 10
2286.638387469739
 20
-416.52988831245
 30
0.0000000001127424
 11
2286.638387469739
 21
-441.3298883124502
 31
0.0000000001127424
  0
LINE
  5
1ABC6
330
18
100
AcDbEntity
  8
01
  6
BYBLOCK
100
AcDbLine
 10
2352.538387469739
 20
-419.4298883124501
 30
0.0000000001127424
 11
2289.138387469739
 21
-419.4298883124501
 31
0.0000000001127424
  0
LINE
  5
1ABC7
330
18
100
AcDbEntity
  8
01
  6
BYBLOCK
100
AcDbLine
 10
2352.538387469739
 20
-436.6298883124504
 30
0.0000000001127424
 11
2352.538387469739
 21
-419.4298883124501
 31
0.0000000001127424
  0
LINE
  5
1ABC8
330
18
100
AcDbEntity
  8
01
  6
BYBLOCK
100
AcDbLine
 10
2354.138387469739
 20
-438.2298883124503
 30
0.0000000001127424
 11
2354.138387469739
 21
-421.02988831245
 31
0.0000000001127424
  0
LINE
  5
1ABC9
330
18
100
AcDbEntity
  8
01
  6
BYBLOCK
100
AcDbLine
 10
2286.638387469739
 20
-416.7298883124503
 30
0.0000000001127424
 11
2289.138387469739
 21
-416.7298883124503
 31
0.0000000001127424
  0
LINE
  5
1ABCA
330
18
100
AcDbEntity
  8
01
  6
BYBLOCK
100
AcDbLine
 10
2289.138387469739
 20
-440.9298883124501
 30
0.0000000001127424
 11
2287.538387469739
 21
-440.9298883124501
 31
0.0000000001127424
  0
LINE
  5
1ABCB
330
18
100
AcDbEntity
  8
01
  6
BYBLOCK
100
AcDbLine
 10
2287.538387469739
 20
-441.02988831245
 30
0.0000000001127424
 11
2286.638387469739
 21
-441.02988831245
 31
0.0000000001127424
  0
ARC
  5
1ABCC
330
18
100
AcDbEntity
  8
01
  6
BYBLOCK
100
AcDbCircle
 10
2283.838982397138
 20
-434.6298883124495
 30
0.0000000001127424
 40
0.3000000000000051
100
AcDbArc
 50
232.8678058732127
 51
270.0
  0
LINE
  5
1ABCD
330
18
100
AcDbEntity
  8
01
  6
BYBLOCK
100
AcDbLine
 10
2284.638387469739
 20
-434.9298883124496
 30
0.0000000001127424
 11
2283.838982397138
 21
-434.9298883124496
 31
0.0000000001127424
  0
LINE
  5
1ABCE
330
18
100
AcDbEntity
  8
01
  6
BYBLOCK
100
AcDbLine
 10
2274.23838746974
 20
-425.2568994462453
 30
0.0000000001127424
 11
2274.23838746974
 21
-425.4275215017946
 31
0.0000000001127424
  0
ARC
  5
1ABCF
330
18
100
AcDbEntity
  8
01
  6
BYBLOCK
100
AcDbCircle
 10
2274.538387469739
 20
-425.4275215017946
 30
0.0000000001127424
 40
0.3
100
AcDbArc
 50
180.0
 51
217.7405295627677
  0
ARC
  5
1ABD0
330
18
100
AcDbEntity
  8
01
  6
BYBLOCK
100
AcDbCircle
 10
2313.840688069023
 20
-395.0068185578538
 30
0.0000000001127424
 40
50.00000000000002
100
AcDbArc
 50
217.7405295629817
 51
232.8678058729742
  0
LINE
  5
1ABD1
330
18
100
AcDbEntity
  8
01
  6
BYBLOCK
100
AcDbLine
 10
2274.038387469739
 20
-424.1298883124499
 30
0.0000000001127424
 11
2274.038387469739
 21
-423.4298883124501
 31
0.0000000001127424
  0
ARC
  5
1ABD2
330
18
100
AcDbEntity
  8
01
  6
BYBLOCK
100
AcDbCircle
 10
2274.538387469739
 20
-423.4298883124501
 30
0.0000000001127424
 40
0.5000000000000142
100
AcDbArc
 50
90.0
 51
180.0
  0
LINE
  5
1ABD3
330
18
100
AcDbEntity
  8
01
  6
BYBLOCK
100
AcDbLine
 10
2284.638387469739
 20
-422.9298883124501
 30
0.0000000001127424
 11
2274.538387469739
 21
-422.9298883124501
 31
0.0000000001127424
  0
LINE
  5
1ABD4
330
18
100
AcDbEntity
  8
01
  6
BYBLOCK
100
AcDbLine
 10
2274.038387469739
 20
-424.5085679688904
 30
0.0000000001127424
 11
2274.038387469739
 21
-424.1298883124499
 31
0.0000000001127424
  0
SPLINE
  5
1ABD5
330
18
100
AcDbEntity
  8
01
  6
BYBLOCK
100
AcDbSpline
210
0.0
220
0.0
230
1.0
 70
     8
 71
     3
 72
     8
 73
     4
 74
     0
 42
0.0000000001
 43
0.0000000001
 40
0.0
 40
0.0
 40
0.0
 40
0.0
 40
1.0
 40
1.0
 40
1.0
 40
1.0
 10
2274.064120011003
 20
-424.7852183983395
 30
0.0000000001127424
 10
2274.046652124892
 20
-424.692132202459
 30
0.0000000001127424
 10
2274.038387469739
 20
-424.5988661915675
 30
0.0000000001127424
 10
2274.038387469739
 20
-424.5085679688899
 30
0.0000000001127424
  0
ARC
  5
1ABD6
330
18
100
AcDbEntity
  8
01
  6
BYBLOCK
100
AcDbCircle
 10
2275.538387469739
 20
-424.5085679688904
 30
0.0000000001127424
 40
1.499999999999998
100
AcDbArc
 50
190.6281129875815
 51
225.0000000000537
  0
LINE
  5
1ABD7
330
18
100
AcDbEntity
  8
01
  6
BYBLOCK
100
AcDbLine
 10
2285.138387469739
 20
-422.0798883124502
 30
0.0000000001127424
 11
2284.638387469739
 21
-422.0798883124502
 31
0.0000000001127424
  0
LINE
  5
1ABD8
330
18
100
AcDbEntity
  8
01
  6
BYBLOCK
100
AcDbLine
 10
2284.638387469739
 20
-435.77988831245
 30
0.0000000001127424
 11
2285.138387469739
 21
-435.77988831245
 31
0.0000000001127424
  0
LINE
  5
1ABD9
330
18
100
AcDbEntity
  8
01
  6
BYBLOCK
100
AcDbLine
 10
2284.638387469739
 20
-435.77988831245
 30
0.0000000001127424
 11
2284.638387469739
 21
-422.0798883124502
 31
0.0000000001127424
  0
LINE
  5
1ABDA
330
18
100
AcDbEntity
  8
01
  6
BYBLOCK
100
AcDbLine
 10
2285.138387469739
 20
-416.52988831245
 30
0.0000000001127424
 11
2286.638387469739
 21
-416.52988831245
 31
0.0000000001127424
  0
LINE
  5
1ABDB
330
18
100
AcDbEntity
  8
01
  6
BYBLOCK
100
AcDbLine
 10
2285.138387469739
 20
-441.3298883124502
 30
0.0000000001127424
 11
2286.638387469739
 21
-441.3298883124502
 31
0.0000000001127424
  0
LINE
  5
1ABDC
330
18
100
AcDbEntity
  8
01
  6
BYBLOCK
100
AcDbLine
 10
2285.138387469739
 20
-441.3298883124502
 30
0.0000000001127424
 11
2285.138387469739
 21
-416.52988831245
 31
0.0000000001127424
  0
LINE
  5
1ABDD
330
18
100
AcDbEntity
  8
01
  6
BYBLOCK
100
AcDbLine
 10
2354.138387469739
 20
-436.6298883124504
 30
0.0000000001127424
 11
2289.138387469739
 21
-436.6298883124504
 31
0.0000000001127424
  0
LINE
  5
1ABDE
330
18
100
AcDbEntity
  8
01
  6
BYBLOCK
100
AcDbLine
 10
2354.138387469739
 20
-438.2298883124503
 30
0.0000000001127424
 11
2303.73838746974
 21
-438.2298883124503
 31
0.0000000001127424
  0
LINE
  5
1ABDF
330
18
100
AcDbEntity
  8
01
  6
BYBLOCK
100
AcDbLine
 10
2306.575645769942
 20
-438.2298883124503
 30
0.0000000001127424
 11
2289.138387469739
 21
-438.2298883124503
 31
0.0000000001127424
  0
LINE
  5
1ABE0
330
18
100
AcDbEntity
  8
01
  6
BYBLOCK
100
AcDbLine
 10
2283.691940860333
 20
-434.7834417030434
 30
0.0000000001127424
 11
2274.477727297958
 21
-425.5692281406704
 31
0.0000000001127424
  0
ARC
  5
1ABE1
330
18
100
AcDbEntity
  8
01
  6
BYBLOCK
100
AcDbCircle
 10
2284.045494250927
 20
-434.4298883124501
 30
0.0000000001127424
 40
0.5
100
AcDbArc
 50
224.9999999998849
 51
270.0
  0
LINE
  5
1ABE2
330
18
100
AcDbEntity
  8
01
  6
BYBLOCK
100
AcDbLine
 10
2284.638387469739
 20
-434.9298883124501
 30
0.0000000001127424
 11
2284.045494250927
 21
-434.9298883124501
 31
0.0000000001127424
  0
LINE
  5
1ABE4
330
18
100
AcDbEntity
  8
01
  6
BYBLOCK
100
AcDbLine
 10
2274.137503287679
 20
-667.8982180444053
 30
0.0000000001127424
 11
2274.137503287679
 21
-685.9615585784113
 31
0.0000000001127424
  0
LINE
  5
1ABE5
330
18
100
AcDbEntity
  8
01
  6
BYBLOCK
100
AcDbLine
 10
2278.430396506493
 20
-666.9298883114083
 30
0.0000000001127424
 11
2285.137503287679
 21
-666.9298883114083
 31
0.0000000001127424
  0
LINE
  5
1ABE6
330
18
100
AcDbEntity
  8
01
  6
BYBLOCK
100
AcDbLine
 10
2278.430396506493
 20
-686.9298883114084
 30
0.0000000001127424
 11
2285.137503287679
 21
-686.9298883114084
 31
0.0000000001127424
  0
LINE
  5
1ABE7
330
18
100
AcDbEntity
  8
01
  6
BYBLOCK
100
AcDbLine
 10
2283.930396506493
 20
-671.6798883114084
 30
0.0000000001127424
 11
2283.930396506493
 21
-682.1798883114084
 31
0.0000000001127424
  0
ARC
  5
1ABE8
330
18
100
AcDbEntity
  8
01
  6
BYBLOCK
100
AcDbCircle
 10
2278.430396506493
 20
-676.9298883114084
 30
0.0000000001127424
 40
10.00000000000009
100
AcDbArc
 50
53.13010235415638
 51
115.4224671781178
  0
ARC
  5
1ABE9
330
18
100
AcDbEntity
  8
01
  6
BYBLOCK
100
AcDbCircle
 10
2278.430396506493
 20
-676.9298883114084
 30
0.0000000001127424
 40
10.00000000000009
100
AcDbArc
 50
244.5775328218822
 51
306.8698976458437
  0
LINE
  5
1ABEA
330
18
100
AcDbEntity
  8
01
  6
BYBLOCK
100
AcDbLine
 10
2284.430396506493
 20
-668.9298883114083
 30
0.0000000001127424
 11
2284.430396506493
 21
-684.9298883114084
 31
0.0000000001127424
  0
LINE
  5
1ABEB
330
18
100
AcDbEntity
  8
01
  6
BYBLOCK
100
AcDbLine
 10
2274.137503287679
 20
-671.6798883114084
 30
0.0000000001127424
 11
2283.930396506493
 21
-671.6798883114084
 31
0.0000000001127424
  0
LINE
  5
1ABEC
330
18
100
AcDbEntity
  8
01
  6
BYBLOCK
100
AcDbLine
 10
2274.137503287679
 20
-682.1798883114084
 30
0.0000000001127424
 11
2283.930396506493
 21
-682.1798883114084
 31
0.0000000001127424
  0
LINE
  5
1ABED
330
18
100
AcDbEntity
  8
01
  6
BYBLOCK
100
AcDbLine
 10
2159.737619627424
 20
-613.0298883114223
 30
0.0000000001127424
 11
2172.537619627424
 21
-613.0298883114223
 31
0.0000000001127424
  0
LINE
  5
1ABEE
330
18
100
AcDbEntity
  8
01
  6
BYBLOCK
100
AcDbLine
 10
2159.737619627424
 20
-742.8298883114221
 30
0.0000000001127424
 11
2172.537619627424
 21
-742.8298883114221
 31
0.0000000001127424
  0
LINE
  5
1ABEF
330
18
100
AcDbEntity
  8
01
  6
BYBLOCK
100
AcDbLine
 10
2153.737619627424
 20
-619.0298883114223
 30
0.0000000001127424
 11
2153.737619627424
 21
-736.8298883114221
 31
0.0000000001127424
  0
LINE
  5
1ABF0
330
18
100
AcDbEntity
  8
01
  6
BYBLOCK
100
AcDbLine
 10
2178.537619627424
 20
-619.0298883114223
 30
0.0000000001127424
 11
2178.537619627424
 21
-736.8298883114221
 31
0.0000000001127424
  0
ARC
  5
1ABF1
330
18
100
AcDbEntity
  8
01
  6
BYBLOCK
100
AcDbCircle
 10
2159.737619627424
 20
-736.8298883114221
 30
0.0000000001127424
 40
6.0
100
AcDbArc
 50
180.0
 51
270.0
  0
ARC
  5
1ABF2
330
18
100
AcDbEntity
  8
01
  6
BYBLOCK
100
AcDbCircle
 10
2172.537619627424
 20
-736.8298883114221
 30
0.0000000001127424
 40
6.0
100
AcDbArc
 50
270.0
 51
0.0
  0
ARC
  5
1ABF3
330
18
100
AcDbEntity
  8
01
  6
BYBLOCK
100
AcDbCircle
 10
2159.737619627424
 20
-619.0298883114223
 30
0.0000000001127424
 40
6.0
100
AcDbArc
 50
90.0
 51
180.0
  0
ARC
  5
1ABF4
330
18
100
AcDbEntity
  8
01
  6
BYBLOCK
100
AcDbCircle
 10
2172.537619627424
 20
-619.0298883114223
 30
0.0000000001127424
 40
6.0
100
AcDbArc
 50
0.0
 51
90.0
  0
CIRCLE
  5
1ABF5
330
18
100
AcDbEntity
  8
01
  6
BYBLOCK
100
AcDbCircle
 10
2166.137619627424
 20
-734.929888311422
 30
0.0000000001127424
 40
2.75
  0
CIRCLE
  5
1ABF6
330
18
100
AcDbEntity
  8
01
  6
BYBLOCK
100
AcDbCircle
 10
2166.137619627424
 20
-734.929888311422
 30
0.0000000001127424
 40
4.25
  0
CIRCLE
  5
1ABF7
330
18
100
AcDbEntity
  8
01
  6
BYBLOCK
100
AcDbCircle
 10
2166.137619627424
 20
-620.9298883114224
 30
0.0000000001127424
 40
2.75
  0
CIRCLE
  5
1ABF8
330
18
100
AcDbEntity
  8
01
  6
BYBLOCK
100
AcDbCircle
 10
2166.137619627424
 20
-620.9298883114224
 30
0.0000000001127424
 40
4.25
  0
LINE
  5
1ABF9
330
18
100
AcDbEntity
  8
1CENTER
100
AcDbLine
 10
2172.01264503533
 20
-734.9298883114225
 30
0.0000000001127424
 11
2160.262594219518
 21
-734.9298883114225
 31
0.0000000001127424
  0
LINE
  5
1ABFA
330
18
100
AcDbEntity
  8
1CENTER
100
AcDbLine
 10
2166.137619627424
 20
-729.0548629035161
 30
0.0000000001127424
 11
2166.137619627424
 21
-740.8049137193284
 31
0.0000000001127424
  0
LINE
  5
1ABFB
330
18
100
AcDbEntity
  8
1CENTER
100
AcDbLine
 10
2172.01264503533
 20
-620.9298883114224
 30
0.0000000001127424
 11
2160.262594219518
 21
-620.9298883114224
 31
0.0000000001127424
  0
LINE
  5
1ABFC
330
18
100
AcDbEntity
  8
1CENTER
100
AcDbLine
 10
2166.137619627424
 20
-615.054862903516
 30
0.0000000001127424
 11
2166.137619627424
 21
-626.8049137193283
 31
0.0000000001127424
  0
ARC
  5
1ABFD
330
18
100
AcDbEntity
  8
01
  6
BYBLOCK
100
AcDbCircle
 10
2166.137619627424
 20
-676.929888311422
 30
0.0000000001127424
 40
10.15
100
AcDbArc
 50
231.9925780701365
 51
308.0074219298635
  0
LINE
  5
1ABFE
330
18
100
AcDbEntity
  8
01
  6
BYBLOCK
100
AcDbLine
 10
2159.887619627424
 20
-668.9323887021691
 30
0.0000000001127424
 11
2159.887619627424
 21
-684.9273879206748
 31
0.0000000001127424
  0
LINE
  5
1ABFF
330
18
100
AcDbEntity
  8
01
  6
BYBLOCK
100
AcDbLine
 10
2172.387619627424
 20
-668.9323887021691
 30
0.0000000001127424
 11
2172.387619627424
 21
-684.9273879206748
 31
0.0000000001127424
  0
ARC
  5
1AC00
330
18
100
AcDbEntity
  8
01
  6
BYBLOCK
100
AcDbCircle
 10
2166.137619627424
 20
-676.929888311422
 30
0.0000000001127424
 40
10.15
100
AcDbArc
 50
51.9925780701365
 51
128.0074219298635
  0
LINE
  5
1AC01
330
18
100
AcDbEntity
  8
01
  6
BYBLOCK
100
AcDbLine
 10
2161.637619627424
 20
-671.679888311422
 30
0.0000000001127424
 11
2161.637619627424
 21
-682.179888311422
 31
0.0000000001127424
  0
LINE
  5
1AC02
330
18
100
AcDbEntity
  8
01
  6
BYBLOCK
100
AcDbLine
 10
2171.637619627424
 20
-671.679888311422
 30
0.0000000001127424
 11
2171.637619627424
 21
-682.179888311422
 31
0.0000000001127424
  0
LINE
  5
1AC03
330
18
100
AcDbEntity
  8
01
  6
BYBLOCK
100
AcDbLine
 10
2162.137619627424
 20
-667.6013032097038
 30
0.0000000001127424
 11
2162.137619627424
 21
-671.6798883114225
 31
0.0000000001127424
  0
LINE
  5
1AC04
330
18
100
AcDbEntity
  8
01
  6
BYBLOCK
100
AcDbLine
 10
2160.637619627424
 20
-671.6798883114225
 30
0.0000000001127424
 11
2160.637619627424
 21
-682.179888311422
 31
0.0000000001127424
  0
LINE
  5
1AC05
330
18
100
AcDbEntity
  8
01
  6
BYBLOCK
100
AcDbLine
 10
2162.137619627424
 20
-682.179888311422
 30
0.0000000001127424
 11
2162.137619627424
 21
-686.2584734131406
 31
0.0000000001127424
  0
LINE
  5
1AC06
330
18
100
AcDbEntity
  8
01
  6
BYBLOCK
100
AcDbLine
 10
2160.637619627424
 20
-671.679888311422
 30
0.0000000001127424
 11
2171.637619627424
 21
-671.679888311422
 31
0.0000000001127424
  0
LINE
  5
1AC07
330
18
100
AcDbEntity
  8
01
  6
BYBLOCK
100
AcDbLine
 10
2160.637619627424
 20
-682.179888311422
 30
0.0000000001127424
 11
2171.637619627424
 21
-682.179888311422
 31
0.0000000001127424
  0
LINE
  5
1AC09
330
18
100
AcDbEntity
  8
01
100
AcDbLine
 10
2146.137735967167
 20
-578.9298883114219
 30
0.0000000001127424
 11
2146.137735967167
 21
-768.929888311422
 31
0.0000000001127424
  0
LINE
  5
1AC0A
330
18
100
AcDbEntity
  8
01
100
AcDbLine
 10
2148.266021349599
 20
-698.929888311422
 30
0.0000000001127424
 11
2125.637735967167
 21
-698.929888311422
 31
0.0000000001127424
  0
POINT
  5
1AC0B
330
18
100
AcDbEntity
  8
01
100
AcDbPoint
 10
2131.637619627424
 20
-698.929888311422
 30
0.0000000001127424
 50
180.0
  0
CIRCLE
  5
1AC0C
330
18
100
AcDbEntity
  8
01
100
AcDbCircle
 10
2131.637619627424
 20
-698.929888311422
 30
0.0000000001127424
 40
2.5
  0
CIRCLE
  5
1AC0D
330
18
100
AcDbEntity
  8
01
100
AcDbCircle
 10
2131.637619627424
 20
-698.929888311422
 30
0.0000000001127424
 40
3.0
  0
LINE
  5
1AC0F
330
18
100
AcDbEntity
  8
1CENTER
100
AcDbLine
 10
2131.637619627424
 20
-704.929888311422
 30
0.0000000001127424
 11
2131.637619627424
 21
-692.929888311422
 31
0.0000000001127424
  0
LINE
  5
1AC10
330
18
100
AcDbEntity
  8
01
100
AcDbLine
 10
2280.137503287967
 20
-734.9298883111328
 30
0.0000000001127424
 11
2294.137503287967
 21
-734.9298883111328
 31
0.0000000001127424
  0
LINE
  5
1AC11
330
18
100
AcDbEntity
  8
01
100
AcDbLine
 10
2347.44939155522
 20
-648.9298883114215
 30
0.0000000001127424
 11
2324.825615020137
 21
-648.9298883114215
 31
0.0000000001127424
  0
LINE
  5
1AC12
330
18
100
AcDbEntity
  8
01
100
AcDbLine
 10
2336.137503287679
 20
-637.6180000438798
 30
0.0000000001127424
 11
2336.137503287679
 21
-660.2417765789631
 31
0.0000000001127424
  0
LINE
  5
1AC13
330
18
100
AcDbEntity
  8
01
  6
BYBLOCK
100
AcDbLine
 10
2058.137735967171
 20
-667.8982180444053
 30
0.0000000001127424
 11
2058.137735967171
 21
-685.9615585784113
 31
0.0000000001127424
  0
LINE
  5
1AC14
330
18
100
AcDbEntity
  8
01
  6
BYBLOCK
100
AcDbLine
 10
2053.844842748357
 20
-666.9298883114083
 30
0.0000000001127424
 11
2047.137735967171
 21
-666.9298883114083
 31
0.0000000001127424
  0
LINE
  5
1AC15
330
18
100
AcDbEntity
  8
01
  6
BYBLOCK
100
AcDbLine
 10
2053.844842748357
 20
-686.9298883114084
 30
0.0000000001127424
 11
2047.137735967171
 21
-686.9298883114084
 31
0.0000000001127424
  0
ARC
  5
1AC16
330
18
100
AcDbEntity
  8
01
  6
BYBLOCK
100
AcDbCircle
 10
2053.844842748357
 20
-676.9298883114084
 30
0.0000000001127424
 40
10.00000000000009
100
AcDbArc
 50
64.57753282188216
 51
90.0
  0
LINE
  5
1AC17
330
18
100
AcDbEntity
  8
01
  6
CONTINUOUS
100
AcDbLine
 10
2057.637735967171
 20
-685.2446825042393
 30
0.0000000001127424
 11
2047.137735967171
 21
-685.2446825042393
 31
0.0000000001127424
  0
ARC
  5
1AC18
330
18
100
AcDbEntity
  8
01
  6
CONTINUOUS
100
AcDbCircle
 10
2057.676316214084
 20
-684.7825432734326
 30
0.0000000001127424
 40
0.4637468103423796
100
AcDbArc
 50
265.2279066161926
 51
354.2577450626297
  0
LINE
  5
1AC19
330
18
100
AcDbEntity
  8
01
  6
CONTINUOUS
100
AcDbLine
 10
2058.137735967171
 20
-669.4465735378602
 30
0.0000000001127424
 11
2058.137735967171
 21
-684.4132030849564
 31
0.0000000001127424
  0
ARC
  5
1AC1A
330
18
100
AcDbEntity
  8
01
  6
CONTINUOUS
100
AcDbCircle
 10
2057.676316214084
 20
-669.0772333493841
 30
0.0000000001127424
 40
0.4637468103423387
100
AcDbArc
 50
5.742254937370304
 51
94.77209338380747
  0
ARC
  5
1AC1B
330
18
100
AcDbEntity
  8
01
  6
BYBLOCK
100
AcDbCircle
 10
2053.844842748357
 20
-676.9298883114084
 30
0.0000000001127424
 40
10.00000000000009
100
AcDbArc
 50
270.0
 51
295.4224671781178
  0
LINE
  5
1AC1C
330
18
100
AcDbEntity
  8
01
  6
CONTINUOUS
100
AcDbLine
 10
2047.137735967171
 20
-668.6150941185773
 30
0.0000000001127424
 11
2057.637735967171
 21
-668.6150941185773
 31
0.0000000001127424
  0
LINE
  5
1AC1D
330
18
100
AcDbEntity
  8
01
100
AcDbLine
 10
2354.137503287679
 20
-676.8335085174563
 30
0.0000000001127424
 11
2354.137503287679
 21
-713.7298883114217
 31
0.0000000001127424
  0
ARC
  5
1AC1E
330
18
100
AcDbEntity
  8
01
100
AcDbCircle
 10
2353.137503287679
 20
-713.9298883114216
 30
0.0000000001127424
 40
1.0
100
AcDbArc
 50
270.0
 51
0.0
  0
LINE
  5
1AC1F
330
18
100
AcDbEntity
  8
01
100
AcDbLine
 10
2312.552550457537
 20
-714.9298883114216
 30
0.0000000001127424
 11
2353.137503287679
 21
-714.9298883114216
 31
0.0000000001127424
  0
LINE
  5
1AC20
330
18
100
AcDbEntity
  8
01
100
AcDbLine
 10
2026.137735967171
 20
-698.9298883114216
 30
0.0000000001127424
 11
1966.137735967171
 21
-698.9298883114216
 31
0.0000000001127424
  0
LINE
  5
1AC21
330
18
100
AcDbEntity
  8
01
100
AcDbLine
 10
1996.137735967171
 20
-668.9298883114215
 30
0.0000000001127424
 11
1996.137735967171
 21
-728.9298883114216
 31
0.0000000001127424
  0
ARC
  5
1AC22
330
18
100
AcDbEntity
  8
01
100
AcDbCircle
 10
2353.137503287679
 20
-641.9298883114215
 30
0.0000000001127424
 40
1.0
100
AcDbArc
 50
0.0
 51
90.0
  0
LINE
  5
1AC23
330
18
100
AcDbEntity
  8
01
100
AcDbLine
 10
2313.77697894392
 20
-640.9298883114215
 30
0.0000000001127424
 11
2353.137503287679
 21
-640.9298883114215
 31
0.0000000001127424
  0
LINE
  5
1AC24
330
18
100
AcDbEntity
  8
01
100
AcDbLine
 10
2354.137503287679
 20
-641.9298883114215
 30
0.0000000001127424
 11
2354.137503287679
 21
-656.9312172911895
 31
0.0000000001127424
  0
LINE
  5
1AC25
330
18
100
AcDbEntity
  8
01
100
AcDbLine
 10
2052.137735967171
 20
-620.9298883114215
 30
0.0000000001127424
 11
2038.137735967171
 21
-620.9298883114215
 31
0.0000000001127424
  0
LINE
  5
1AC26
330
18
100
AcDbEntity
  8
01
  6
BYBLOCK
100
AcDbLine
 10
2045.637735967171
 20
-613.0298883114214
 30
0.0000000001127424
 11
2045.637735967171
 21
-742.8298883114217
 31
0.0000000001127424
  0
LINE
  5
1AC27
330
18
100
AcDbEntity
  8
01
  6
BYBLOCK
100
AcDbLine
 10
2045.637735967171
 20
-741.9298883114216
 30
0.0000000001127424
 11
2043.137735967171
 21
-741.9298883114216
 31
0.0000000001127424
  0
LINE
  5
1AC28
330
18
100
AcDbEntity
  8
01
  6
BYBLOCK
100
AcDbLine
 10
2043.137735967171
 20
-741.9298883114216
 30
0.0000000001127424
 11
2043.137735967171
 21
-725.4269445862692
 31
0.0000000001127424
  0
LINE
  5
1AC29
330
18
100
AcDbEntity
  8
01
  6
BYBLOCK
100
AcDbLine
 10
2047.137735967171
 20
-613.0298883114214
 30
0.0000000001127424
 11
2047.137735967171
 21
-742.8298883114217
 31
0.0000000001127424
  0
LINE
  5
1AC2A
330
18
100
AcDbEntity
  8
01
  6
BYBLOCK
100
AcDbLine
 10
2047.137735967171
 20
-742.8298883114217
 30
0.0000000001127424
 11
2045.637735967171
 21
-742.8298883114217
 31
0.0000000001127424
  0
LINE
  5
1AC2B
330
18
100
AcDbEntity
  8
01
  6
BYBLOCK
100
AcDbLine
 10
2045.637735967171
 20
-613.9298883114215
 30
0.0000000001127424
 11
2043.137735967171
 21
-613.9298883114215
 31
0.0000000001127424
  0
LINE
  5
1AC2C
330
18
100
AcDbEntity
  8
01
  6
BYBLOCK
100
AcDbLine
 10
2047.137735967171
 20
-613.0298883114214
 30
0.0000000001127424
 11
2045.637735967171
 21
-613.0298883114214
 31
0.0000000001127424
  0
LINE
  5
1AC2D
330
18
100
AcDbEntity
  8
01
  6
BYBLOCK
100
AcDbLine
 10
2045.637735967171
 20
-637.9298883114215
 30
0.0000000001127424
 11
2044.43773596717
 21
-637.9298883114215
 31
0.0000000001127424
  0
LINE
  5
1AC2E
330
18
100
AcDbEntity
  8
01
  6
BYBLOCK
100
AcDbLine
 10
2044.43773596717
 20
-632.2298883114212
 30
0.0000000001127424
 11
2044.43773596717
 21
-723.6298883114214
 31
0.0000000001127424
  0
LINE
  5
1AC2F
330
18
100
AcDbEntity
  8
01
  6
BYBLOCK
100
AcDbLine
 10
2044.337735967172
 20
-741.9298883114216
 30
0.0000000001127424
 11
2044.337735967172
 21
-725.3298883114217
 31
0.0000000001127424
  0
LINE
  5
1AC30
330
18
100
AcDbEntity
  8
01
  6
BYBLOCK
100
AcDbLine
 10
2044.337735967172
 20
-725.3298883114217
 30
0.0000000001127424
 11
2045.286264104595
 21
-724.3813601739976
 31
0.0000000001127424
  0
LINE
  5
1AC31
330
18
100
AcDbEntity
  8
01
  6
BYBLOCK
100
AcDbLine
 10
2043.489207829748
 20
-724.5784164488455
 30
0.0000000001127424
 11
2044.43773596717
 21
-723.6298883114214
 31
0.0000000001127424
  0
ARC
  5
1AC32
330
18
100
AcDbEntity
  8
01
  6
BYBLOCK
100
AcDbCircle
 10
2044.337735967172
 20
-725.4269445862692
 30
0.0000000001127424
 40
1.2
100
AcDbArc
 50
134.9999999999616
 51
180.0
  0
ARC
  5
1AC33
330
18
100
AcDbEntity
  8
01
  6
BYBLOCK
100
AcDbCircle
 10
2044.43773596717
 20
-723.5328320365738
 30
0.0000000001127424
 40
1.2
100
AcDbArc
 50
314.9999999999616
 51
0.0
  0
LINE
  5
1AC34
330
18
100
AcDbEntity
  8
01
  6
BYBLOCK
100
AcDbLine
 10
2043.137735967171
 20
-613.9298883114215
 30
0.0000000001127424
 11
2043.137735967171
 21
-630.4328320365738
 31
0.0000000001127424
  0
LINE
  5
1AC35
330
18
100
AcDbEntity
  8
01
  6
BYBLOCK
100
AcDbLine
 10
2044.337735967172
 20
-613.9298883114215
 30
0.0000000001127424
 11
2044.337735967172
 21
-630.5298883114214
 31
0.0000000001127424
  0
LINE
  5
1AC36
330
18
100
AcDbEntity
  8
01
  6
BYBLOCK
100
AcDbLine
 10
2044.337735967172
 20
-630.5298883114214
 30
0.0000000001127424
 11
2045.286264104595
 21
-631.4784164488455
 31
0.0000000001127424
  0
LINE
  5
1AC37
330
18
100
AcDbEntity
  8
01
  6
BYBLOCK
100
AcDbLine
 10
2043.489207829748
 20
-631.2813601739975
 30
0.0000000001127424
 11
2044.43773596717
 21
-632.2298883114216
 31
0.0000000001127424
  0
ARC
  5
1AC38
330
18
100
AcDbEntity
  8
01
  6
BYBLOCK
100
AcDbCircle
 10
2044.337735967172
 20
-630.4328320365738
 30
0.0000000001127424
 40
1.2
100
AcDbArc
 50
180.0
 51
225.0000000000422
  0
ARC
  5
1AC39
330
18
100
AcDbEntity
  8
01
  6
BYBLOCK
100
AcDbCircle
 10
2044.43773596717
 20
-632.3269445862692
 30
0.0000000001127424
 40
1.2
100
AcDbArc
 50
0.0
 51
45.00000000003838
  0
LINE
  5
1AC3A
330
18
100
AcDbEntity
  8
01
  6
BYBLOCK
100
AcDbLine
 10
2053.844842748357
 20
-666.9298883114083
 30
0.0000000001127424
 11
2047.137735967171
 21
-666.9298883114083
 31
0.0000000001127424
  0
LINE
  5
1AC3B
330
18
100
AcDbEntity
  8
01
  6
BYBLOCK
100
AcDbLine
 10
2053.844842748357
 20
-686.9298883114084
 30
0.0000000001127424
 11
2047.137735967171
 21
-686.9298883114084
 31
0.0000000001127424
  0
LINE
  5
1AC3C
330
18
100
AcDbEntity
  8
01
100
AcDbLine
 10
2052.137735966883
 20
-734.9298883111328
 30
0.0000000001127424
 11
2038.137735966883
 21
-734.9298883111328
 31
0.0000000001127424
  0
LINE
  5
1AC3F
330
18
100
AcDbEntity
  8
01
100
AcDbLine
 10
2306.137503287679
 20
-698.9298883114216
 30
0.0000000001127424
 11
2366.137503287679
 21
-698.9298883114216
 31
0.0000000001127424
  0
LINE
  5
1AC40
330
18
100
AcDbEntity
  8
01
100
AcDbLine
 10
2336.137503287679
 20
-668.9298883114215
 30
0.0000000001127424
 11
2336.137503287679
 21
-728.9298883114216
 31
0.0000000001127424
  0
LINE
  5
1AC41
330
18
100
AcDbEntity
  8
01
100
AcDbLine
 10
2336.137619627422
 20
-443.9298883124501
 30
0.0000000001127424
 11
2336.137619627422
 21
-470.4298883124501
 31
0.0000000001127424
  0
LINE
  5
1AC42
330
18
100
AcDbEntity
  8
01
100
AcDbLine
 10
2311.137619627422
 20
-408.9298883124501
 30
0.0000000001127424
 11
2361.137619627422
 21
-408.9298883124501
 31
0.0000000001127424
  0
LINE
  5
1AC43
330
18
100
AcDbEntity
  8
01
100
AcDbLine
 10
2307.63761962742
 20
-408.9298883124501
 30
0.0000000001127424
 11
2307.63761962742
 21
-405.3973947204194
 31
0.0000000001127424
  0
ARC
  5
1AC44
330
18
100
AcDbEntity
  8
01
100
AcDbCircle
 10
2308.13761962742
 20
-405.3973947204194
 30
0.0000000001127424
 40
0.5
100
AcDbArc
 50
123.7052957882313
 51
180.0
  0
LINE
  5
1AC45
330
18
100
AcDbEntity
  8
01
100
AcDbLine
 10
2311.356722691228
 20
-400.996541657294
 30
0.0000000001127424
 11
2311.152041834767
 21
-401.9401274411156
 31
0.0000000001127424
  0
LINE
  5
1AC46
330
18
100
AcDbEntity
  8
01
100
AcDbLine
 10
2364.637619627424
 20
-408.9298883124501
 30
0.0000000001127424
 11
2364.637619627424
 21
-405.3876846617412
 31
0.0000000001127424
  0
LINE
  5
1AC47
330
18
100
AcDbEntity
  8
01
100
AcDbLine
 10
2345.637619627417
 20
-400.1298883124481
 30
0.0000000001127424
 11
2340.137739269153
 21
-400.1298883124497
 31
0.0000000001127424
  0
LINE
  5
1AC48
330
18
100
AcDbEntity
  8
01
100
AcDbLine
 10
2310.0961645004
 20
-403.4899143717565
 30
0.0000000001127424
 11
2307.860158966562
 21
-404.9814433029723
 31
0.0000000001127424
  0
ARC
  5
1AC49
330
18
100
AcDbEntity
  8
01
100
AcDbCircle
 10
2308.708861196107
 20
-401.4101572845228
 30
0.0000000001127424
 40
2.5
100
AcDbArc
 50
303.7052957883303
 51
347.7611167116993
  0
ARC
  5
1AC4A
330
18
100
AcDbEntity
  8
01
100
AcDbCircle
 10
2364.137619627424
 20
-405.3876846617412
 30
0.0000000001127424
 40
0.5
100
AcDbArc
 50
0.0
 51
56.4200165482015
  0
ARC
  5
1AC4B
330
18
100
AcDbEntity
  8
01
100
AcDbCircle
 10
2325.60825617381
 20
-600.1272393221069
 30
0.0000000001127424
 40
200.0
100
AcDbArc
 50
89.70510779068368
 51
93.95580329935652
  0
ARC
  5
1AC4C
330
18
100
AcDbEntity
  8
01
100
AcDbCircle
 10
2311.84535881896
 20
-401.1025356886129
 30
0.0000000001127424
 40
0.5
100
AcDbArc
 50
93.95580329935652
 51
167.7611167116264
  0
ARC
  5
1AC4D
330
18
100
AcDbEntity
  8
01
100
AcDbCircle
 10
2346.666983081038
 20
-600.1272393221069
 30
0.0000000001127424
 40
200.0
100
AcDbArc
 50
86.0441967006435
 51
90.29489220936843
  0
LINE
  5
1AC4E
330
18
100
AcDbEntity
  8
01
100
AcDbLine
 10
2358.485684013604
 20
-405.1298883124508
 30
0.0000000001127424
 11
2364.566036529858
 21
-405.1298883124508
 31
0.0000000001127424
  0
LINE
  5
1AC4F
330
18
100
AcDbEntity
  8
01
100
AcDbLine
 10
2310.694879165701
 20
-402.9286211874359
 30
0.0000000001127424
 11
2316.794218755505
 21
-402.9286211874359
 31
0.0000000001127424
  0
LINE
  5
1AC50
330
18
100
AcDbEntity
  8
01
100
AcDbLine
 10
2311.682250088946
 20
-400.6298883124508
 30
0.0000000001127424
 11
2332.073460582041
 21
-400.6298883124508
 31
0.0000000001127424
  0
ARC
  5
1AC51
330
18
100
AcDbEntity
  8
01
100
AcDbCircle
 10
2360.429888618967
 20
-401.1025356886129
 30
0.0000000001127424
 40
0.5
100
AcDbArc
 50
12.23888328833706
 51
86.04419670064347
  0
LINE
  5
1AC52
330
18
100
AcDbEntity
  8
01
100
AcDbLine
 10
2362.179082937529
 20
-403.4899143717565
 30
0.0000000001127424
 11
2364.415088471366
 21
-404.9814433029723
 31
0.0000000001127424
  0
ARC
  5
1AC53
330
18
100
AcDbEntity
  8
01
100
AcDbCircle
 10
2363.566386241821
 20
-401.4101572845228
 30
0.0000000001127424
 40
2.5
100
AcDbArc
 50
192.2388832883029
 51
236.2947042116697
  0
LINE
  5
1AC54
330
18
100
AcDbEntity
  8
01
100
AcDbLine
 10
2360.9185247467
 20
-400.996541657294
 30
0.0000000001127424
 11
2361.123205603161
 21
-401.9401274411156
 31
0.0000000001127424
  0
LINE
  5
1AC55
330
18
100
AcDbEntity
  8
01
100
AcDbLine
 10
2307.63761962742
 20
-408.9298883124501
 30
0.0000000001127424
 11
2364.637619627424
 21
-408.9298883124501
 31
0.0000000001127424
  0
LINE
  5
1AC56
330
18
100
AcDbEntity
  8
01
100
AcDbLine
 10
2146.137735967167
 20
-670.4298883114205
 30
0.0000000001127424
 11
2142.605242375136
 21
-670.4298883114205
 31
0.0000000001127424
  0
ARC
  5
1AC57
330
18
100
AcDbEntity
  8
01
100
AcDbCircle
 10
2142.605242375136
 20
-670.9298883114205
 30
0.0000000001127424
 40
0.5
100
AcDbArc
 50
90.0
 51
146.294704211635
  0
LINE
  5
1AC58
330
18
100
AcDbEntity
  8
01
100
AcDbLine
 10
2138.204389312011
 20
-674.148991375228
 30
0.0000000001127424
 11
2139.147975095832
 21
-673.9443105187661
 31
0.0000000001127424
  0
LINE
  5
1AC59
330
18
100
AcDbEntity
  8
01
100
AcDbLine
 10
2146.137735967167
 20
-727.4298883114234
 30
0.0000000001127424
 11
2142.595532316457
 21
-727.4298883114229
 31
0.0000000001127424
  0
LINE
  5
1AC5A
330
18
100
AcDbEntity
  8
01
100
AcDbLine
 10
2137.337735967164
 20
-708.4298883114166
 30
0.0000000001127424
 11
2137.337735967171
 21
-689.429888311427
 31
0.0000000001127424
  0
LINE
  5
1AC5B
330
18
100
AcDbEntity
  8
01
100
AcDbLine
 10
2140.697762026472
 20
-672.8884331843997
 30
0.0000000001127424
 11
2142.189290957688
 21
-670.6524276505619
 31
0.0000000001127424
  0
ARC
  5
1AC5C
330
18
100
AcDbEntity
  8
01
100
AcDbCircle
 10
2138.61800493924
 20
-671.5011298801068
 30
0.0000000001127424
 40
2.5
100
AcDbArc
 50
282.2388832883162
 51
326.2947042116965
  0
ARC
  5
1AC5D
330
18
100
AcDbEntity
  8
01
100
AcDbCircle
 10
2142.595532316457
 20
-726.9298883114229
 30
0.0000000001127424
 40
0.5
100
AcDbArc
 50
213.5799834519791
 51
270.0
  0
ARC
  5
1AC5E
330
18
100
AcDbEntity
  8
01
100
AcDbCircle
 10
2337.335086976823
 20
-688.4005248578092
 30
0.0000000001127424
 40
200.0
100
AcDbArc
 50
176.0441967006682
 51
180.2948922093163
  0
ARC
  5
1AC5F
330
18
100
AcDbEntity
  8
01
100
AcDbCircle
 10
2138.31038334333
 20
-674.6376275029597
 30
0.0000000001127424
 40
0.5
100
AcDbArc
 50
102.2388832883581
 51
176.0441967006941
  0
ARC
  5
1AC60
330
18
100
AcDbEntity
  8
01
100
AcDbCircle
 10
2337.335086976823
 20
-709.4592517650385
 30
0.0000000001127424
 40
200.0
100
AcDbArc
 50
179.7051077906578
 51
183.9558032993319
  0
LINE
  5
1AC61
330
18
100
AcDbEntity
  8
01
100
AcDbLine
 10
2142.337735967168
 20
-670.5074663402878
 30
0.0000000001127424
 11
2142.337735967168
 21
-727.3583052138588
 31
0.0000000001127424
  0
LINE
  5
1AC62
330
18
100
AcDbEntity
  8
01
100
AcDbLine
 10
2140.136468842152
 20
-673.4871478497007
 30
0.0000000001127424
 11
2140.136468842152
 21
-724.3560346064169
 31
0.0000000001127424
  0
LINE
  5
1AC63
330
18
100
AcDbEntity
  8
01
100
AcDbLine
 10
2137.837735967168
 20
-674.4745187729463
 30
0.0000000001127424
 11
2137.837735967168
 21
-723.3852578499018
 31
0.0000000001127424
  0
ARC
  5
1AC64
330
18
100
AcDbEntity
  8
01
100
AcDbCircle
 10
2138.31038334333
 20
-723.2221573029678
 30
0.0000000001127424
 40
0.5
100
AcDbArc
 50
183.9558032993579
 51
257.7611167116419
  0
LINE
  5
1AC65
330
18
100
AcDbEntity
  8
01
100
AcDbLine
 10
2140.697762026472
 20
-724.9713516215284
 30
0.0000000001127424
 11
2142.189290957688
 21
-727.2073571553656
 31
0.0000000001127424
  0
ARC
  5
1AC66
330
18
100
AcDbEntity
  8
01
100
AcDbCircle
 10
2138.61800493924
 20
-726.3586549258212
 30
0.0000000001127424
 40
2.5
100
AcDbArc
 50
33.70529578830357
 51
77.76111671168377
  0
LINE
  5
1AC67
330
18
100
AcDbEntity
  8
01
100
AcDbLine
 10
2138.204389312011
 20
-723.7107934306996
 30
0.0000000001127424
 11
2139.147975095832
 21
-723.9154742871615
 31
0.0000000001127424
  0
LINE
  5
1AC68
330
18
100
AcDbEntity
  8
01
100
AcDbLine
 10
2146.137735967167
 20
-670.4298883114205
 30
0.0000000001127424
 11
2146.137735967167
 21
-727.4298883114234
 31
0.0000000001127424
  0
LINE
  5
1AC69
330
18
100
AcDbEntity
  8
01
  6
BYBLOCK
100
AcDbLine
 10
2287.837503287678
 20
-714.929888311422
 30
0.0000000001127424
 11
2312.552550457537
 21
-714.9298883114216
 31
0.0000000001127424
  0
LINE
  5
1AC6A
330
18
100
AcDbEntity
  8
01
  6
BYBLOCK
100
AcDbLine
 10
2354.137503287679
 20
-656.9312172911895
 30
0.0000000001127424
 11
2354.137503287679
 21
-676.8335085174563
 31
0.0000000001127424
  0
LINE
  5
1AC6B
330
18
100
AcDbEntity
  8
01
  6
BYBLOCK
100
AcDbLine
 10
2287.837503287678
 20
-640.9298883114215
 30
0.0000000001127424
 11
2313.77697894392
 21
-640.9298883114215
 31
0.0000000001127424
  0
LINE
  5
1AC6C
330
18
100
AcDbEntity
  8
01
  6
BYBLOCK
100
AcDbLine
 10
2044.43773596717
 20
-714.929888311422
 30
0.0000000001127424
 11
2019.722688797311
 21
-714.9298883114216
 31
0.0000000001127424
  0
LINE
  5
1AC6D
330
18
100
AcDbEntity
  8
01
  6
BYBLOCK
100
AcDbLine
 10
1978.137735967169
 20
-656.9312172911895
 30
0.0000000001127424
 11
1978.137735967169
 21
-676.8335085174563
 31
0.0000000001127424
  0
LINE
  5
1AC6E
330
18
100
AcDbEntity
  8
01
  6
BYBLOCK
100
AcDbLine
 10
2044.43773596717
 20
-640.9298883114215
 30
0.0000000001127424
 11
2018.498260310929
 21
-640.9298883114215
 31
0.0000000001127424
  0
LINE
  5
1AC70
330
18
100
AcDbEntity
  8
01
100
AcDbLine
 10
2186.137503287683
 20
-673.929888311422
 30
0.0000000001127424
 11
2186.137503287683
 21
-723.929888311422
 31
0.0000000001127424
  0
POINT
  5
1AC71
330
18
100
AcDbEntity
  8
01
100
AcDbPoint
 10
2200.637503287683
 20
-698.929888311422
 30
0.0000000001127424
  0
LINE
  5
1AC72
330
18
100
AcDbEntity
  8
01
100
AcDbLine
 10
2200.237503277684
 20
-700.679888311422
 30
0.0000000001127424
 11
2200.237503277684
 21
-699.8298882914219
 31
0.0000000001127424
  0
LINE
  5
1AC73
330
18
100
AcDbEntity
  8
01
100
AcDbLine
 10
2201.037503297685
 20
-700.679888311422
 30
0.0000000001127424
 11
2201.037503297685
 21
-699.8298882914219
 31
0.0000000001127424
  0
LINE
  5
1AC74
330
18
100
AcDbEntity
  8
01
100
AcDbLine
 10
2199.737503307683
 20
-699.3298883214225
 30
0.0000000001127424
 11
2198.887503287683
 21
-699.3298883214225
 31
0.0000000001127424
  0
LINE
  5
1AC75
330
18
100
AcDbEntity
  8
01
100
AcDbLine
 10
2199.737503307683
 20
-698.5298883014225
 30
0.0000000001127424
 11
2198.887503287683
 21
-698.5298883014225
 31
0.0000000001127424
  0
LINE
  5
1AC76
330
18
100
AcDbEntity
  8
01
100
AcDbLine
 10
2198.887503287683
 20
-699.3298883214225
 30
0.0000000001127424
 11
2198.887503287683
 21
-698.5298883014225
 31
0.0000000001127424
  0
LINE
  5
1AC77
330
18
100
AcDbEntity
  8
01
100
AcDbLine
 10
2201.037503297685
 20
-700.679888311422
 30
0.0000000001127424
 11
2200.237503277684
 21
-700.679888311422
 31
0.0000000001127424
  0
LINE
  5
1AC78
330
18
100
AcDbEntity
  8
01
100
AcDbLine
 10
2201.037503297685
 20
-697.179888311422
 30
0.0000000001127424
 11
2201.037503297685
 21
-698.0298883314222
 31
0.0000000001127424
  0
LINE
  5
1AC79
330
18
100
AcDbEntity
  8
01
100
AcDbLine
 10
2200.237503277684
 20
-697.179888311422
 30
0.0000000001127424
 11
2200.237503277684
 21
-698.0298883314222
 31
0.0000000001127424
  0
LINE
  5
1AC7A
330
18
100
AcDbEntity
  8
01
100
AcDbLine
 10
2201.537503267683
 20
-698.5298883014225
 30
0.0000000001127424
 11
2202.387503287683
 21
-698.5298883014225
 31
0.0000000001127424
  0
LINE
  5
1AC7B
330
18
100
AcDbEntity
  8
01
100
AcDbLine
 10
2201.537503267683
 20
-699.3298883214225
 30
0.0000000001127424
 11
2202.387503287683
 21
-699.3298883214225
 31
0.0000000001127424
  0
LINE
  5
1AC7C
330
18
100
AcDbEntity
  8
01
100
AcDbLine
 10
2202.387503287683
 20
-698.5298883014225
 30
0.0000000001127424
 11
2202.387503287683
 21
-699.3298883214225
 31
0.0000000001127424
  0
LINE
  5
1AC7D
330
18
100
AcDbEntity
  8
01
100
AcDbLine
 10
2200.237503277684
 20
-697.179888311422
 30
0.0000000001127424
 11
2201.037503297685
 21
-697.179888311422
 31
0.0000000001127424
  0
CIRCLE
  5
1AC7E
330
18
100
AcDbEntity
  8
01
100
AcDbCircle
 10
2200.637503287683
 20
-698.929888311422
 30
0.0000000001127424
 40
2.5
  0
ARC
  5
1AC7F
330
18
100
AcDbEntity
  8
01
100
AcDbCircle
 10
2201.537503267683
 20
-698.0298883314222
 30
0.0000000001127424
 40
0.5
100
AcDbArc
 50
179.999989999999
 51
270.0
  0
ARC
  5
1AC80
330
18
100
AcDbEntity
  8
01
100
AcDbCircle
 10
2201.537503267683
 20
-699.8298882914219
 30
0.0000000001127424
 40
0.5
100
AcDbArc
 50
90.00000299988045
 51
180.000010000001
  0
ARC
  5
1AC81
330
18
100
AcDbEntity
  8
01
100
AcDbCircle
 10
2199.737503307683
 20
-699.8298882914219
 30
0.0000000001127424
 40
0.5
100
AcDbArc
 50
0.0
 51
90.00000299988045
  0
ARC
  5
1AC82
330
18
100
AcDbEntity
  8
01
100
AcDbCircle
 10
2199.737503307683
 20
-698.0298883314222
 30
0.0000000001127424
 40
0.5
100
AcDbArc
 50
270.0
 51
0.0
  0
LINE
  5
1AC84
330
18
100
AcDbEntity
  8
1CENTER
100
AcDbLine
 10
2200.637503287683
 20
-704.929888311422
 30
0.0000000001127424
 11
2200.637503287683
 21
-692.929888311422
 31
0.0000000001127424
  0
LINE
  5
1AC85
330
18
100
AcDbEntity
  8
01
100
AcDbLine
 10
2184.009217905253
 20
-698.929888311422
 30
0.0000000001127424
 11
2206.637503287683
 21
-698.929888311422
 31
0.0000000001127424
  0
LINE
  5
1AC86
330
18
100
AcDbEntity
  8
01
100
AcDbLine
 10
2311.137619627422
 20
-448.9298883124501
 30
0.0000000001127424
 11
2361.137619627422
 21
-448.9298883124501
 31
0.0000000001127424
  0
LINE
  5
1AC87
330
18
100
AcDbEntity
  8
01
  6
BYBLOCK
100
AcDbLine
 10
2285.138387469739
 20
-448.9298883124501
 30
0.0000000001127424
 11
2438.89276762477
 21
-448.9298883124501
 31
0.0000000001127424
  0
LINE
  5
1AC88
330
18
100
AcDbEntity
  8
1CENTER
100
AcDbLine
 10
2320.053944863482
 20
-463.4298802791972
 30
0.0000000001127424
 11
2328.18761722533
 21
-463.4298883124474
 31
0.0000000001127424
  0
LINE
  5
1AC89
330
18
100
AcDbEntity
  8
01
100
AcDbLine
 10
2336.137619627422
 20
-443.9298883124501
 30
0.0000000001127424
 11
2336.137619627422
 21
-470.4298883124501
 31
0.0000000001127424
  0
LINE
  5
1AC8F
330
18
100
AcDbEntity
  8
01
100
AcDbLine
 10
2186.137503287683
 20
-578.9298883114219
 30
0.0000000001127424
 11
2186.137503287683
 21
-768.929888311422
 31
0.0000000001127424
  0
LINE
  5
1AC90
330
18
100
AcDbEntity
  8
01
100
AcDbLine
 10
2307.63761962742
 20
-448.9298883124501
 30
0.0000000001127424
 11
2307.63761962742
 21
-452.4623819044813
 31
0.0000000001127424
  0
ARC
  5
1AC91
330
18
100
AcDbEntity
  8
01
100
AcDbCircle
 10
2308.13761962742
 20
-452.4623819044813
 30
0.0000000001127424
 40
0.5
100
AcDbArc
 50
180.0
 51
236.2947042118157
  0
LINE
  5
1AC92
330
18
100
AcDbEntity
  8
01
100
AcDbLine
 10
2311.356722691228
 20
-456.8632349676062
 30
0.0000000001127424
 11
2311.152041834765
 21
-455.9196491837846
 31
0.0000000001127424
  0
LINE
  5
1AC93
330
18
100
AcDbEntity
  8
01
100
AcDbLine
 10
2364.637619627424
 20
-448.9298883124501
 30
0.0000000001127424
 11
2364.637619627422
 21
-452.4720919631594
 31
0.0000000001127424
  0
LINE
  5
1AC94
330
18
100
AcDbEntity
  8
01
100
AcDbLine
 10
2345.637619627417
 20
-457.7298883124521
 30
0.0000000001127424
 11
2326.637619627428
 21
-457.7298883124466
 31
0.0000000001127424
  0
LINE
  5
1AC95
330
18
100
AcDbEntity
  8
01
100
AcDbLine
 10
2310.0961645004
 20
-454.3698622531441
 30
0.0000000001127424
 11
2307.860158966562
 21
-452.8783333219279
 31
0.0000000001127424
  0
ARC
  5
1AC96
330
18
100
AcDbEntity
  8
01
100
AcDbCircle
 10
2308.708861196107
 20
-456.4496193403778
 30
0.0000000001127424
 40
2.5
100
AcDbArc
 50
12.23888328830583
 51
56.29470421171089
  0
ARC
  5
1AC97
330
18
100
AcDbEntity
  8
01
100
AcDbCircle
 10
2364.137619627422
 20
-452.4720919631594
 30
0.0000000001127424
 40
0.5
100
AcDbArc
 50
303.5799834522971
 51
0.0
  0
ARC
  5
1AC98
330
18
100
AcDbEntity
  8
01
100
AcDbCircle
 10
2325.608256173809
 20
-257.7325373027937
 30
0.0000000001127424
 40
200.0
100
AcDbArc
 50
266.0441967006435
 51
270.2948922093163
  0
ARC
  5
1AC99
330
18
100
AcDbEntity
  8
01
100
AcDbCircle
 10
2311.84535881896
 20
-456.7572409362873
 30
0.0000000001127424
 40
0.5
100
AcDbArc
 50
192.2388832884101
 51
266.0441967006435
  0
ARC
  5
1AC9A
330
18
100
AcDbEntity
  8
01
100
AcDbCircle
 10
2346.66698308104
 20
-257.7325373027937
 30
0.0000000001127424
 40
200.0
100
AcDbArc
 50
269.7051077906311
 51
273.9558032993565
  0
LINE
  5
1AC9B
330
18
100
AcDbEntity
  8
01
100
AcDbLine
 10
2358.485683881398
 20
-452.7298883124498
 30
0.0000000001127424
 11
2364.566036529858
 21
-452.7298883124498
 31
0.0000000001127424
  0
LINE
  5
1AC9C
330
18
100
AcDbEntity
  8
01
100
AcDbLine
 10
2310.694879165701
 20
-454.9311554374648
 30
0.0000000001127424
 11
2316.794218623299
 21
-454.9311554374648
 31
0.0000000001127424
  0
LINE
  5
1AC9D
330
18
100
AcDbEntity
  8
01
100
AcDbLine
 10
2311.682250088946
 20
-457.2298883124498
 30
0.0000000001127424
 11
2360.592989165903
 21
-457.2298883124498
 31
0.0000000001127424
  0
ARC
  5
1AC9E
330
18
100
AcDbEntity
  8
01
100
AcDbCircle
 10
2360.429888618969
 20
-456.7572409362873
 30
0.0000000001127424
 40
0.5
100
AcDbArc
 50
273.9558032993565
 51
347.761116711612
  0
LINE
  5
1AC9F
330
18
100
AcDbEntity
  8
01
100
AcDbLine
 10
2362.179082937529
 20
-454.3698622531441
 30
0.0000000001127424
 11
2364.415088471366
 21
-452.8783333219279
 31
0.0000000001127424
  0
ARC
  5
1ACA0
330
18
100
AcDbEntity
  8
01
100
AcDbCircle
 10
2363.566386241821
 20
-456.4496193403778
 30
0.0000000001127424
 40
2.5
100
AcDbArc
 50
123.7052957882804
 51
167.7611167116897
  0
LINE
  5
1ACA1
330
18
100
AcDbEntity
  8
01
100
AcDbLine
 10
2360.9185247467
 20
-456.8632349676062
 30
0.0000000001127424
 11
2361.123205603161
 21
-455.9196491837846
 31
0.0000000001127424
  0
LINE
  5
1ACA2
330
18
100
AcDbEntity
  8
01
100
AcDbLine
 10
2307.63761962742
 20
-448.9298883124501
 30
0.0000000001127424
 11
2364.637619627424
 21
-448.9298883124501
 31
0.0000000001127424
  0
LINE
  5
1ACA3
330
18
100
AcDbEntity
  8
01
100
AcDbLine
 10
2186.137503287683
 20
-670.4298883114205
 30
0.0000000001127424
 11
2189.669996879714
 21
-670.4298883114205
 31
0.0000000001127424
  0
ARC
  5
1ACA4
330
18
100
AcDbEntity
  8
01
100
AcDbCircle
 10
2189.669996879714
 20
-670.9298883114205
 30
0.0000000001127424
 40
0.5
100
AcDbArc
 50
33.70529578834692
 51
90.0
  0
LINE
  5
1ACA5
330
18
100
AcDbEntity
  8
01
100
AcDbLine
 10
2194.070849942839
 20
-674.148991375228
 30
0.0000000001127424
 11
2193.127264159018
 21
-673.9443105187661
 31
0.0000000001127424
  0
LINE
  5
1ACA6
330
18
100
AcDbEntity
  8
01
100
AcDbLine
 10
2186.137503287683
 20
-727.4298883114234
 30
0.0000000001127424
 11
2189.679706938393
 21
-727.4298883114229
 31
0.0000000001127424
  0
LINE
  5
1ACA7
330
18
100
AcDbEntity
  8
01
100
AcDbLine
 10
2194.937503287686
 20
-708.4298883114166
 30
0.0000000001127424
 11
2194.937503287679
 21
-689.429888311427
 31
0.0000000001127424
  0
LINE
  5
1ACA8
330
18
100
AcDbEntity
  8
01
100
AcDbLine
 10
2191.577477228378
 20
-672.8884331843997
 30
0.0000000001127424
 11
2190.085948297162
 21
-670.6524276505619
 31
0.0000000001127424
  0
ARC
  5
1ACA9
330
18
100
AcDbEntity
  8
01
100
AcDbCircle
 10
2193.65723431561
 20
-671.5011298801068
 30
0.0000000001127424
 40
2.5
100
AcDbArc
 50
213.7052957883115
 51
257.7611167116838
  0
ARC
  5
1ACAA
330
18
100
AcDbEntity
  8
01
100
AcDbCircle
 10
2189.679706938393
 20
-726.9298883114229
 30
0.0000000001127424
 40
0.5
100
AcDbArc
 50
270.0
 51
326.4200165480497
  0
ARC
  5
1ACAB
330
18
100
AcDbEntity
  8
01
100
AcDbCircle
 10
1994.940152278027
 20
-688.4005248578092
 30
0.0000000001127424
 40
200.0
100
AcDbArc
 50
359.7051077906837
 51
3.955803299331893
  0
ARC
  5
1ACAC
330
18
100
AcDbEntity
  8
01
100
AcDbCircle
 10
2193.96485591152
 20
-674.6376275029597
 30
0.0000000001127424
 40
0.5
100
AcDbArc
 50
3.95580329932829
 51
77.76111671164193
  0
ARC
  5
1ACAD
330
18
100
AcDbEntity
  8
01
100
AcDbCircle
 10
1994.940152278027
 20
-709.4592517650385
 30
0.0000000001127424
 40
200.0
100
AcDbArc
 50
356.0441967006681
 51
0.2948922093423037
  0
LINE
  5
1ACAE
330
18
100
AcDbEntity
  8
01
100
AcDbLine
 10
2189.937503287682
 20
-670.5074663402878
 30
0.0000000001127424
 11
2189.937503287682
 21
-727.3583052138588
 31
0.0000000001127424
  0
LINE
  5
1ACAF
330
18
100
AcDbEntity
  8
01
100
AcDbLine
 10
2192.138770412698
 20
-673.4871478497007
 30
0.0000000001127424
 11
2192.138770412698
 21
-724.3560346064169
 31
0.0000000001127424
  0
LINE
  5
1ACB0
330
18
100
AcDbEntity
  8
01
100
AcDbLine
 10
2194.437503287682
 20
-674.4745187729463
 30
0.0000000001127424
 11
2194.437503287682
 21
-723.3852578499018
 31
0.0000000001127424
  0
ARC
  5
1ACB1
330
18
100
AcDbEntity
  8
01
100
AcDbCircle
 10
2193.96485591152
 20
-723.2221573029678
 30
0.0000000001127424
 40
0.5
100
AcDbArc
 50
282.2388832883581
 51
356.0441967006717
  0
LINE
  5
1ACB2
330
18
100
AcDbEntity
  8
01
100
AcDbLine
 10
2191.577477228378
 20
-724.9713516215284
 30
0.0000000001127424
 11
2190.085948297162
 21
-727.2073571553656
 31
0.0000000001127424
  0
ARC
  5
1ACB3
330
18
100
AcDbEntity
  8
01
100
AcDbCircle
 10
2193.65723431561
 20
-726.3586549258212
 30
0.0000000001127424
 40
2.5
100
AcDbArc
 50
102.2388832883162
 51
146.2947042116907
  0
LINE
  5
1ACB4
330
18
100
AcDbEntity
  8
01
100
AcDbLine
 10
2194.070849942839
 20
-723.7107934306996
 30
0.0000000001127424
 11
2193.127264159018
 21
-723.9154742871615
 31
0.0000000001127424
  0
LINE
  5
1ACB5
330
18
100
AcDbEntity
  8
01
100
AcDbLine
 10
2186.137503287683
 20
-670.4298883114205
 30
0.0000000001127424
 11
2186.137503287683
 21
-727.4298883114234
 31
0.0000000001127424
  0
ARC
  5
1ACB6
330
18
100
AcDbEntity
  8
01
100
AcDbCircle
 10
2336.137503287658
 20
-698.9298883114084
 30
0.0000000001127424
 40
28.49999999998931
100
AcDbArc
 50
19.10477550218015
 51
2.147113709734808
  0
ARC
  5
1ACB7
330
18
100
AcDbEntity
  8
01
100
AcDbCircle
 10
2336.137503287679
 20
-698.9298883114216
 30
0.0000000001127424
 40
24.70000000000277
100
AcDbArc
 50
24.13308796246479
 51
0.5142205884412566
  0
ARC
  5
1ACB8
330
18
100
AcDbEntity
  8
01
100
AcDbCircle
 10
2336.137503287679
 20
-698.9298883114216
 30
0.0000000001127424
 40
25.20000000001778
100
AcDbArc
 50
23.39367472422624
 51
0.7980082608536848
  0
ARC
  5
1ACB9
330
18
100
AcDbEntity
  8
01
100
AcDbCircle
 10
2437.783356727422
 20
-510.9298923124501
 30
0.0000000001127424
 40
12.0
100
AcDbArc
 50
270.2885199999898
 51
311.4095800000136
  0
LINE
  5
1ACBA
330
18
100
AcDbEntity
  8
01
100
AcDbLine
 10
2324.137619627422
 20
-457.9298883124501
 30
0.0000000001127424
 11
2348.137619627422
 21
-457.9298883124501
 31
0.0000000001127424
  0
LINE
  5
1ACBB
330
18
100
AcDbEntity
  8
01
100
AcDbLine
 10
2325.118519627421
 20
-506.9723883124497
 30
0.0000000001127424
 11
2324.137619627422
 21
-457.9297883124499
 31
0.0000000001127424
  0
LINE
  5
1ACBC
330
18
100
AcDbEntity
  8
01
100
AcDbLine
 10
2348.137519627421
 20
-457.9298883124501
 30
0.0000000001127424
 11
2347.452519627423
 21
-492.1841883124497
 31
0.0000000001127424
  0
ARC
  5
1ACBD
330
18
100
AcDbEntity
  8
01
100
AcDbCircle
 10
2435.137619627422
 20
-507.9298883124501
 30
0.0000000001127424
 40
16.0
100
AcDbArc
 50
311.4095800000134
 51
48.59041999998632
  0
ARC
  5
1ACBE
330
18
100
AcDbEntity
  8
01
100
AcDbCircle
 10
2437.783419627423
 20
-510.9298883124501
 30
0.0000000001127424
 40
12.0
100
AcDbArc
 50
270.2885199999898
 51
311.4095800000136
  0
ARC
  5
1ACBF
330
18
100
AcDbEntity
  8
01
100
AcDbCircle
 10
2326.118419627423
 20
-506.9524883124499
 30
0.0000000001127424
 40
1.0
100
AcDbArc
 50
181.1457599999995
 51
268.5739299999424
  0
ARC
  5
1ACC0
330
18
100
AcDbEntity
  8
01
100
AcDbCircle
 10
2436.937519627422
 20
-342.9319883124498
 30
0.0000000001127424
 40
180.0
100
AcDbArc
 50
255.451810000001
 51
270.2885199999898
  0
ARC
  5
1ACC1
330
18
100
AcDbEntity
  8
01
100
AcDbCircle
 10
2437.783419627423
 20
-504.9298883124501
 30
0.0000000001127424
 40
12.0
100
AcDbArc
 50
48.59041999998452
 51
90.00000299998466
  0
ARC
  5
1ACC2
330
18
100
AcDbEntity
  8
01
100
AcDbCircle
 10
2438.912919627423
 20
-632.92488831245
 30
0.0000000001127424
 40
140.0
100
AcDbArc
 50
90.48336800000959
 51
102.1280499999924
  0
ARC
  5
1ACC3
330
18
100
AcDbEntity
  8
01
100
AcDbCircle
 10
2348.452319627421
 20
-492.2040883124499
 30
0.0000000001127424
 40
1.0
100
AcDbArc
 50
178.8542400000005
 51
252.4740900001153
  0
ARC
  5
1ACC4
330
18
100
AcDbEntity
  8
01
100
AcDbCircle
 10
2384.287719627421
 20
-378.7279883124501
 30
0.0000000001127424
 40
120.0
100
AcDbArc
 50
249.9150900000158
 51
282.1280499999916
  0
ARC
  5
1ACC5
330
18
100
AcDbEntity
  8
01
100
AcDbCircle
 10
2318.876219627423
 20
-797.8622883124499
 30
0.0000000001127424
 40
290.0
100
AcDbArc
 50
75.45181600001295
 51
88.57392700001901
  0
ARC
  5
1ACC6
330
18
100
AcDbEntity
  8
01
100
AcDbCircle
 10
2336.137503287679
 20
-698.9298883114216
 30
0.0000000001127424
 40
11.0
100
AcDbArc
 50
89.63911600000712
 51
307.9341099999933
  0
ARC
  5
1ACC7
330
18
100
AcDbEntity
  8
01
100
AcDbCircle
 10
2402.40240328768
 20
-473.1468883114211
 30
0.0000000001127424
 40
220.0
100
AcDbArc
 50
259.3564900000351
 51
282.473969999973
  0
ARC
  5
1ACC8
330
18
100
AcDbEntity
  8
01
100
AcDbCircle
 10
2373.637503287679
 20
-747.0417883114214
 30
0.0000000001127424
 40
50.0
100
AcDbArc
 50
75.14656099999719
 51
127.9340999999804
  0
ARC
  5
1ACC9
330
18
100
AcDbEntity
  8
01
100
AcDbCircle
 10
2342.88070328768
 20
-789.6797883114214
 30
0.0000000001127424
 40
100.0
100
AcDbArc
 50
69.65070400000862
 51
94.24952100003145
  0
ARC
  5
1ACCA
330
18
100
AcDbEntity
  8
01
100
AcDbCircle
 10
2343.29920328768
 20
-787.641388311421
 30
0.0000000001127424
 40
100.0
100
AcDbArc
 50
79.35649099998577
 51
94.61544800000331
  0
ARC
  5
1ACCB
330
18
100
AcDbEntity
  8
01
100
AcDbCircle
 10
2411.137503287679
 20
-605.6441883114211
 30
0.0000000001127424
 40
96.285713
100
AcDbArc
 50
249.6506999999959
 51
285.19099000001
  0
ARC
  5
1ACCC
330
18
100
AcDbEntity
  8
01
100
AcDbCircle
 10
2428.506903287679
 20
-669.6137883114214
 30
0.0000000001127424
 40
30.0
100
AcDbArc
 50
285.1909900000131
 51
318.2351500000154
  0
ARC
  5
1ACCD
330
18
100
AcDbEntity
  8
01
100
AcDbCircle
 10
2450.137503287679
 20
-688.9298883114216
 30
0.0000000001127424
 40
1.0
100
AcDbArc
 50
318.2351500000162
 51
102.4739600000267
  0
ARC
  5
1ACCE
330
18
100
AcDbEntity
  8
01
100
AcDbCircle
 10
2336.137503287679
 20
-698.9298883114216
 30
0.0000000001127424
 40
12.0
100
AcDbArc
 50
69.6127549999947
 51
329.1256200000502
  0
LINE
  5
1ACCF
330
18
100
AcDbEntity
  8
01
100
AcDbLine
 10
2195.137503287683
 20
-710.929888311422
 30
0.0000000001127424
 11
2195.137503287683
 21
-686.929888311422
 31
0.0000000001127424
  0
LINE
  5
1ACD0
330
18
100
AcDbEntity
  8
01
100
AcDbLine
 10
2195.137503287683
 20
-686.929888311422
 30
0.0000000001127424
 11
2245.669803287682
 21
-687.940688311422
 31
0.0000000001127424
  0
LINE
  5
1ACD1
330
18
100
AcDbEntity
  8
01
100
AcDbLine
 10
2244.291003287683
 20
-709.9467883114216
 30
0.0000000001127424
 11
2195.137503287683
 21
-710.9297883114218
 31
0.0000000001127424
  0
ARC
  5
1ACD2
330
18
100
AcDbEntity
  8
01
100
AcDbCircle
 10
1107.386803287683
 20
-542.5285883114215
 30
0.0000000001127424
 40
1150.0
100
AcDbArc
 50
351.6721199999964
 51
352.6259300000061
  0
ARC
  5
1ACD3
330
18
100
AcDbEntity
  8
01
100
AcDbCircle
 10
2248.867303287684
 20
-690.255888311422
 30
0.0000000001127424
 40
1.0
100
AcDbArc
 50
0.0
 51
172.6259300000124
  0
ARC
  5
1ACD4
330
18
100
AcDbEntity
  8
01
100
AcDbCircle
 10
2244.271103287684
 20
-708.946988311422
 30
0.0000000001127424
 40
1.0
100
AcDbArc
 50
271.145759999895
 51
351.6721200000388
  0
TEXT
  5
1ACDA
330
18
100
AcDbEntity
  8
1TEXT
100
AcDbText
 10
1978.137635627424
 20
-417.4298883114215
 30
0.0000000001127424
 40
20.0
  1
2-ZPB-X-LJ
100
AcDbText
  0
TEXT
  5
1ACDB
330
18
100
AcDbEntity
  8
1TEXT
100
AcDbText
 10
1990.337635627425
 20
-455.6798883114215
 30
0.0000000001127424
 40
6.0
  1
表面処理
 72
     1
 11
2004.237635627425
 21
-455.6798883114215
 31
0.0000000001127424
100
AcDbText
  0
TEXT
  5
1ACDC
330
18
100
AcDbEntity
  8
1TEXT
100
AcDbText
 10
1986.937635627425
 20
-465.9328213007083
 30
0.0000000001127424
 40
6.0
  1
本金メッキ
 72
     1
 11
2004.237635627425
 21
-465.9328213007083
 31
0.0000000001127424
100
AcDbText
  0
LINE
  5
1ACDD
330
18
100
AcDbEntity
  8
1DIM
100
AcDbLine
 10
1978.137635627424
 20
-447.4298883114215
 30
0.0000000001127424
 11
2083.137635627424
 21
-447.4298883114215
 31
0.0000000001127424
  0
LINE
  5
1ACDE
330
18
100
AcDbEntity
  8
1DIM
100
AcDbLine
 10
1978.137635627424
 20
-457.9298883114215
 30
0.0000000001127424
 11
2083.137635627424
 21
-457.9298883114215
 31
0.0000000001127424
  0
LINE
  5
1ACDF
330
18
100
AcDbEntity
  8
1DIM
100
AcDbLine
 10
1978.137635627424
 20
-468.4298883114215
 30
0.0000000001127424
 11
2083.137635627424
 21
-468.4298883114215
 31
0.0000000001127424
  0
LINE
  5
1ACE0
330
18
100
AcDbEntity
  8
1DIM
100
AcDbLine
 10
1978.137635627424
 20
-468.4298883114215
 30
0.0000000001127424
 11
2083.137635627424
 21
-468.4298883114215
 31
0.0000000001127424
  0
LINE
  5
1ACE1
330
18
100
AcDbEntity
  8
1DIM
100
AcDbLine
 10
2030.637635627424
 20
-447.4298883114215
 30
0.0000000001127424
 11
2030.637635627424
 21
-468.4298883114215
 31
0.0000000001127424
  0
TEXT
  5
1ACE2
330
18
100
AcDbEntity
  8
1TEXT
100
AcDbText
 10
2036.423052294091
 20
-466.5014237868953
 30
0.0000000001127424
 40
6.0
  1
2-ZPB-G-LJ
 41
0.6999999999999998
 72
     1
 11
2056.737635627424
 21
-466.5014237868953
 31
0.0000000001127424
100
AcDbText
  0
TEXT
  5
1ACE3
330
18
100
AcDbEntity
  8
1TEXT
100
AcDbText
 10
2046.437635627424
 20
-455.6798883114215
 30
0.0000000001127424
 40
6.0
  1
コード
 72
     1
 11
2056.737635627424
 21
-455.6798883114215
 31
0.0000000001127424
100
AcDbText
  0
LINE
  5
1ACE4
330
18
100
AcDbEntity
  8
1DIM
100
AcDbLine
 10
2083.137635627424
 20
-468.4298883114215
 30
0.0000000001127424
 11
2083.137635627424
 21
-447.4298883114215
 31
0.0000000001127424
  0
LINE
  5
1ACE5
330
18
100
AcDbEntity
  8
1DIM
100
AcDbLine
 10
1978.137635627424
 20
-468.4298883114215
 30
0.0000000001127424
 11
2083.137635627424
 21
-468.4298883114215
 31
0.0000000001127424
  0
LINE
  5
1ACE6
330
18
100
AcDbEntity
  8
1DIM
100
AcDbLine
 10
2030.637635627424
 20
-468.4298883114215
 30
0.0000000001127424
 11
2030.637635627424
 21
-478.9298883114215
 31
0.0000000001127424
  0
LINE
  5
1ACE7
330
18
100
AcDbEntity
  8
1DIM
100
AcDbLine
 10
1978.137635627424
 20
-478.9298883114215
 30
0.0000000001127424
 11
2083.137635627424
 21
-478.9298883114215
 31
0.0000000001127424
  0
TEXT
  5
1ACE8
330
18
100
AcDbEntity
  8
1TEXT
100
AcDbText
 10
1990.037635627425
 20
-476.3962587287778
 30
0.0000000001127424
 40
6.0
  1
クローム
 72
     1
 11
2004.237635627425
 21
-476.3962587287778
 31
0.0000000001127424
100
AcDbText
  0
LINE
  5
1ACE9
330
18
100
AcDbEntity
  8
1DIM
100
AcDbLine
 10
1978.137635627424
 20
-478.9298883114215
 30
0.0000000001127424
 11
1978.137635627424
 21
-468.4298883114215
 31
0.0000000001127424
  0
LINE
  5
1ACEA
330
18
100
AcDbEntity
  8
1DIM
100
AcDbLine
 10
2083.137635627424
 20
-478.9298883114215
 30
0.0000000001127424
 11
2083.137635627424
 21
-468.4298883114215
 31
0.0000000001127424
  0
TEXT
  5
1ACEB
330
18
100
AcDbEntity
  8
1TEXT
100
AcDbText
 10
2036.437635627424
 20
-477.0014237868953
 30
0.0000000001127424
 40
6.0
  1
2-ZPB-C-LJ
 41
0.6999999999999998
 72
     1
 11
2056.737635627424
 21
-477.0014237868953
 31
0.0000000001127424
100
AcDbText
  0
LINE
  5
1ACEC
330
18
100
AcDbEntity
  8
1DIM
100
AcDbLine
 10
1978.137635627424
 20
-468.4298883114215
 30
0.0000000001127424
 11
1978.137635627424
 21
-447.4298883114215
 31
0.0000000001127424
  0
LINE
  5
1ACED
330
18
100
AcDbEntity
  8
1DIM
100
AcDbLine
 10
2030.637635627424
 20
-478.9298883114215
 30
0.0000000001127424
 11
2030.637635627424
 21
-489.4298883114215
 31
0.0000000001127424
  0
LINE
  5
1ACEE
330
18
100
AcDbEntity
  8
1DIM
100
AcDbLine
 10
1978.137635627424
 20
-489.4298883114215
 30
0.0000000001127424
 11
2083.137635627424
 21
-489.4298883114215
 31
0.0000000001127424
  0
TEXT
  5
1ACEF
330
18
100
AcDbEntity
  8
1TEXT
100
AcDbText
 10
1979.937635627425
 20
-486.8962587287778
 30
0.0000000001127424
 40
6.0
  1
ダークアンバー
 72
     1
 11
2004.237635627425
 21
-486.8962587287778
 31
0.0000000001127424
100
AcDbText
  0
LINE
  5
1ACF0
330
18
100
AcDbEntity
  8
1DIM
100
AcDbLine
 10
1978.137635627424
 20
-489.4298883114215
 30
0.0000000001127424
 11
1978.137635627424
 21
-478.9298883114215
 31
0.0000000001127424
  0
LINE
  5
1ACF1
330
18
100
AcDbEntity
  8
1DIM
100
AcDbLine
 10
2083.137635627424
 20
-489.4298883114215
 30
0.0000000001127424
 11
2083.137635627424
 21
-478.9298883114215
 31
0.0000000001127424
  0
TEXT
  5
1ACF2
330
18
100
AcDbEntity
  8
1TEXT
100
AcDbText
 10
2034.337635627424
 20
-487.5014237868953
 30
0.0000000001127424
 40
6.0
  1
2-ZPB-4Q-LJ
 41
0.6999999999999998
 72
     1
 11
2056.737635627424
 21
-487.5014237868953
 31
0.0000000001127424
100
AcDbText
  0
LINE
  5
1ACF3
330
18
100
AcDbEntity
  8
01
100
AcDbLine
 10
2186.137503287683
 20
-578.9298883114219
 30
0.0000000001127424
 11
2186.137503287683
 21
-768.929888311422
 31
0.0000000001127424
  0
LINE
  5
1ACF4
330
18
100
AcDbEntity
  8
01
100
AcDbLine
 10
2336.137619627422
 20
-413.9298883124501
 30
0.0000000001127424
 11
2336.137619627422
 21
-387.4298883124501
 31
0.0000000001127424
  0
LINE
  5
1ACF5
330
18
100
AcDbEntity
  8
1CENTER
100
AcDbLine
 10
2320.053944863482
 20
-394.429896345703
 30
0.0000000001127424
 11
2328.18761722533
 21
-394.4298883124528
 31
0.0000000001127424
  0
LINE
  5
1ACF6
330
18
100
AcDbEntity
  8
01
100
AcDbLine
 10
2336.137619627422
 20
-413.9298883124501
 30
0.0000000001127424
 11
2336.137619627422
 21
-387.4298883124501
 31
0.0000000001127424
  0
ARC
  5
1ACF7
330
18
100
AcDbEntity
  8
01
100
AcDbCircle
 10
2437.783356727422
 20
-346.9298843124501
 30
0.0000000001127424
 40
12.0
100
AcDbArc
 50
48.59041999998452
 51
89.71148000001025
  0
LINE
  5
1ACF8
330
18
100
AcDbEntity
  8
01
100
AcDbLine
 10
2324.137619627422
 20
-399.9298883124501
 30
0.0000000001127424
 11
2332.137739269155
 21
-399.9298883124501
 31
0.0000000001127424
  0
LINE
  5
1ACF9
330
18
100
AcDbEntity
  8
01
100
AcDbLine
 10
2325.118519627421
 20
-350.8873883124505
 30
0.0000000001127424
 11
2324.137619627422
 21
-399.9299883124503
 31
0.0000000001127424
  0
LINE
  5
1ACFA
330
18
100
AcDbEntity
  8
01
100
AcDbLine
 10
2348.137519627421
 20
-399.9298883124501
 30
0.0000000001127424
 11
2347.452519627423
 21
-365.6755883124505
 31
0.0000000001127424
  0
ARC
  5
1ACFB
330
18
100
AcDbEntity
  8
01
100
AcDbCircle
 10
2435.137619627422
 20
-349.9298883124501
 30
0.0000000001127424
 40
16.0
100
AcDbArc
 50
311.4095800000136
 51
48.59041999998632
  0
ARC
  5
1ACFC
330
18
100
AcDbEntity
  8
01
100
AcDbCircle
 10
2437.783419627423
 20
-346.9298883124501
 30
0.0000000001127424
 40
12.0
100
AcDbArc
 50
48.59041999998452
 51
89.71148000001025
  0
ARC
  5
1ACFD
330
18
100
AcDbEntity
  8
01
100
AcDbCircle
 10
2326.118419627423
 20
-350.9072883124503
 30
0.0000000001127424
 40
1.0
100
AcDbArc
 50
91.42607000005758
 51
178.8542400000005
  0
ARC
  5
1ACFE
330
18
100
AcDbEntity
  8
01
100
AcDbCircle
 10
2436.937519627422
 20
-514.9277883124504
 30
0.0000000001127424
 40
180.0
100
AcDbArc
 50
89.71148000001025
 51
104.548189999999
  0
ARC
  5
1ACFF
330
18
100
AcDbEntity
  8
01
100
AcDbCircle
 10
2437.783419627423
 20
-352.9298883124501
 30
0.0000000001127424
 40
12.0
100
AcDbArc
 50
269.9999970000154
 51
311.4095800000135
  0
ARC
  5
1AD00
330
18
100
AcDbEntity
  8
01
100
AcDbCircle
 10
2438.912919627423
 20
-224.9348883124502
 30
0.0000000001127424
 40
140.0
100
AcDbArc
 50
257.8719500000075
 51
269.5166319999904
  0
ARC
  5
1AD01
330
18
100
AcDbEntity
  8
01
100
AcDbCircle
 10
2348.452319627421
 20
-365.6556883124503
 30
0.0000000001127424
 40
1.0
100
AcDbArc
 50
107.5259099998847
 51
181.1457599999995
  0
ARC
  5
1AD02
330
18
100
AcDbEntity
  8
01
100
AcDbCircle
 10
2384.287719627421
 20
-479.1317883124501
 30
0.0000000001127424
 40
120.0
100
AcDbArc
 50
77.87195000000834
 51
110.0849099999842
  0
ARC
  5
1AD03
330
18
100
AcDbEntity
  8
01
100
AcDbCircle
 10
2318.876219627423
 20
-59.9974883124504
 30
0.0000000001127424
 40
290.0
100
AcDbArc
 50
271.426072999981
 51
284.5481839999871
  0
LINE
  5
1AD04
330
18
100
AcDbEntity
  8
01
100
AcDbLine
 10
2026.137735967169
 20
-698.9298883114216
 30
0.0000000001127424
 11
1966.137735967169
 21
-698.9298883114216
 31
0.0000000001127424
  0
LINE
  5
1AD05
330
18
100
AcDbEntity
  8
01
100
AcDbLine
 10
1996.137735967169
 20
-668.9298883114215
 30
0.0000000001127424
 11
1996.137735967169
 21
-728.9298883114216
 31
0.0000000001127424
  0
LINE
  5
1AD06
330
18
100
AcDbEntity
  8
01
100
AcDbLine
 10
2026.137735967169
 20
-698.9298883114216
 30
0.0000000001127424
 11
1966.137735967169
 21
-698.9298883114216
 31
0.0000000001127424
  0
LINE
  5
1AD07
330
18
100
AcDbEntity
  8
01
100
AcDbLine
 10
1996.137735967169
 20
-668.9298883114215
 30
0.0000000001127424
 11
1996.137735967169
 21
-728.9298883114216
 31
0.0000000001127424
  0
LINE
  5
1AD08
330
18
100
AcDbEntity
  8
01
  6
BYBLOCK
100
AcDbLine
 10
2044.43773596717
 20
-714.929888311422
 30
0.0000000001127424
 11
2019.722688797311
 21
-714.9298883114216
 31
0.0000000001127424
  0
POINT
  5
1AD09
330
18
100
AcDbEntity
  8
01
100
AcDbPoint
 10
2131.637735967165
 20
-698.929888311422
 30
0.0000000001127424
 50
180.0
  0
LINE
  5
1AD0A
330
18
100
AcDbEntity
  8
1CENTER
100
AcDbLine
 10
2131.637735967165
 20
-704.929888311422
 30
0.0000000001127424
 11
2131.637735967165
 21
-692.929888311422
 31
0.0000000001127424
  0
LINE
  5
1AD0B
330
18
100
AcDbEntity
  8
01
100
AcDbLine
 10
2148.266021349596
 20
-698.929888311422
 30
0.0000000001127424
 11
2125.637735967165
 21
-698.929888311422
 31
0.0000000001127424
  0
ARC
  5
1AD0C
330
18
100
AcDbEntity
  8
01
100
AcDbCircle
 10
1996.137735967191
 20
-698.9298883114084
 30
0.0000000001127424
 40
28.49999999998931
100
AcDbArc
 50
177.8528862902652
 51
160.8952244978198
  0
ARC
  5
1AD0D
330
18
100
AcDbEntity
  8
01
100
AcDbCircle
 10
1996.137735967169
 20
-698.9298883114216
 30
0.0000000001127424
 40
24.70000000000277
100
AcDbArc
 50
179.4857794115587
 51
155.8669120375352
  0
ARC
  5
1AD0E
330
18
100
AcDbEntity
  8
01
100
AcDbCircle
 10
1996.137735967169
 20
-698.9298883114216
 30
0.0000000001127424
 40
25.20000000001778
100
AcDbArc
 50
179.2019917391463
 51
156.6063252757733
  0
ARC
  5
1AD0F
330
18
100
AcDbEntity
  8
01
100
AcDbCircle
 10
1996.137735967169
 20
-698.9298883114216
 30
0.0000000001127424
 40
11.0
100
AcDbArc
 50
232.0658900000067
 51
90.3608839999929
  0
ARC
  5
1AD10
330
18
100
AcDbEntity
  8
01
100
AcDbCircle
 10
1929.872835967169
 20
-473.1468883114211
 30
0.0000000001127424
 40
220.0
100
AcDbArc
 50
257.526030000027
 51
280.6435099999649
  0
ARC
  5
1AD11
330
18
100
AcDbEntity
  8
01
100
AcDbCircle
 10
1958.637735967169
 20
-747.0417883114214
 30
0.0000000001127424
 40
50.0
100
AcDbArc
 50
52.06590000001918
 51
104.8534390000028
  0
ARC
  5
1AD12
330
18
100
AcDbEntity
  8
01
100
AcDbCircle
 10
1989.394535967168
 20
-789.6797883114214
 30
0.0000000001127424
 40
100.0
100
AcDbArc
 50
85.75047899996855
 51
110.3492959999914
  0
ARC
  5
1AD13
330
18
100
AcDbEntity
  8
01
100
AcDbCircle
 10
1988.976035967168
 20
-787.641388311421
 30
0.0000000001127424
 40
100.0
100
AcDbArc
 50
85.3845519999967
 51
100.6435090000142
  0
ARC
  5
1AD14
330
18
100
AcDbEntity
  8
01
100
AcDbCircle
 10
1921.137735967169
 20
-605.6441883114211
 30
0.0000000001127424
 40
96.285713
100
AcDbArc
 50
254.80900999999
 51
290.3493000000041
  0
ARC
  5
1AD15
330
18
100
AcDbEntity
  8
01
100
AcDbCircle
 10
1903.768335967169
 20
-669.6137883114214
 30
0.0000000001127424
 40
30.0
100
AcDbArc
 50
221.7648499999845
 51
254.8090099999869
  0
ARC
  5
1AD16
330
18
100
AcDbEntity
  8
01
100
AcDbCircle
 10
1882.137735967169
 20
-688.9298883114216
 30
0.0000000001127424
 40
1.0
100
AcDbArc
 50
77.52603999997336
 51
221.7648499999837
  0
ARC
  5
1AD17
330
18
100
AcDbEntity
  8
01
100
AcDbCircle
 10
1996.137735967169
 20
-698.9298883114216
 30
0.0000000001127424
 40
12.0
100
AcDbArc
 50
210.8743799999497
 51
110.3872450000053
  0
LINE
  5
1AD18
330
18
100
AcDbEntity
  8
01
100
AcDbLine
 10
2137.137735967165
 20
-710.929888311422
 30
0.0000000001127424
 11
2137.137735967165
 21
-686.929888311422
 31
0.0000000001127424
  0
LINE
  5
1AD19
330
18
100
AcDbEntity
  8
01
100
AcDbLine
 10
2137.137735967165
 20
-686.929888311422
 30
0.0000000001127424
 11
2086.605435967166
 21
-687.940688311422
 31
0.0000000001127424
  0
LINE
  5
1AD1A
330
18
100
AcDbEntity
  8
01
100
AcDbLine
 10
2087.984235967165
 20
-709.9467883114216
 30
0.0000000001127424
 11
2137.137735967165
 21
-710.9297883114218
 31
0.0000000001127424
  0
ARC
  5
1AD1B
330
18
100
AcDbEntity
  8
01
100
AcDbCircle
 10
3224.888435967166
 20
-542.5285883114215
 30
0.0000000001127424
 40
1150.0
100
AcDbArc
 50
187.3740699999938
 51
188.3278800000036
  0
ARC
  5
1AD1C
330
18
100
AcDbEntity
  8
01
100
AcDbCircle
 10
2083.407935967164
 20
-690.255888311422
 30
0.0000000001127424
 40
1.0
100
AcDbArc
 50
7.374069999984221
 51
180.0
  0
ARC
  5
1AD1D
330
18
100
AcDbEntity
  8
01
100
AcDbCircle
 10
2088.004135967164
 20
-708.946988311422
 30
0.0000000001127424
 40
1.0
100
AcDbArc
 50
188.3278799999649
 51
268.8542400001049
  0
LINE
  5
1AD23
330
18
100
AcDbEntity
  8
01
100
AcDbLine
 10
2332.137739269155
 20
-400.129888312452
 30
0.0000000001127424
 11
2326.637619627428
 21
-400.1298883124535
 31
0.0000000001127424
  0
LINE
  5
1AD24
330
18
100
AcDbEntity
  8
01
100
AcDbLine
 10
2336.137503287678
 20
-400.6298883124508
 30
0.0000000001127424
 11
2336.137619627422
 21
-400.6298883124508
 31
0.0000000001127424
  0
LINE
  5
1AD25
330
18
100
AcDbEntity
  8
01
100
AcDbLine
 10
2336.137503287678
 20
-399.9298883124501
 30
0.0000000001127424
 11
2336.137619627422
 21
-399.9298883124501
 31
0.0000000001127424
  0
LINE
  5
1AD26
330
18
100
AcDbEntity
  8
01
100
AcDbLine
 10
2336.137619627422
 20
-400.1298883124508
 30
0.0000000001127424
 11
2336.137503287678
 21
-400.1298883124508
 31
0.0000000001127424
  0
LINE
  5
1AD27
330
18
100
AcDbEntity
  8
01
100
AcDbLine
 10
2340.137739269151
 20
-399.9298883124501
 30
0.0000000001127424
 11
2348.137619627422
 21
-399.9298883124501
 31
0.0000000001127424
  0
LINE
  5
1AD28
330
18
100
AcDbEntity
  8
01
100
AcDbLine
 10
2340.201840761091
 20
-400.6298883124508
 30
0.0000000001127424
 11
2360.592989165903
 21
-400.6298883124508
 31
0.0000000001127424
  0
LINE
  5
1AD29
330
18
100
AcDbEntity
  8
01
100
AcDbLine
 10
2313.789254309776
 20
-405.1300616448219
 30
0.0000000001127424
 11
2307.708901793706
 21
-405.1301088039319
 31
0.0000000001127424
  0
LINE
  5
1AD2A
330
18
100
AcDbEntity
  8
01
100
AcDbLine
 10
2313.789623626767
 20
-452.7300616433882
 30
0.0000000001127424
 11
2307.709270978491
 21
-452.7301088024993
 31
0.0000000001127424
  0
LINE
  5
1AD2B
330
18
100
AcDbEntity
  8
01
100
AcDbLine
 10
2355.481019854425
 20
-454.9311554374648
 30
0.0000000001127424
 11
2361.563765922417
 21
-454.9311554374648
 31
0.0000000001127424
  0
LINE
  5
1AD2C
330
18
100
AcDbEntity
  8
01
100
AcDbLine
 10
2336.137503287679
 20
-454.9311554374648
 30
0.0000000001127424
 11
2336.137619627422
 21
-454.9311554374648
 31
0.0000000001127424
  0
LINE
  5
1AD2D
330
18
100
AcDbEntity
  8
01
100
AcDbLine
 10
2336.137503287678
 20
-402.9286211874359
 30
0.0000000001127424
 11
2336.137619627422
 21
-402.9286211874359
 31
0.0000000001127424
  0
LINE
  5
1AD2E
330
18
100
AcDbEntity
  8
01
100
AcDbLine
 10
2355.481019986632
 20
-402.9286211874359
 30
0.0000000001127424
 11
2361.563765922417
 21
-402.9286211874359
 31
0.0000000001127424
  0
LINE
  5
1AEA5
330
18
100
AcDbEntity
  8
01
100
AcDbLine
 10
2146.137503287681
 20
-620.9298883114202
 30
0.0000000001691139
 11
2146.137503287681
 21
-589.1298883114202
 31
0.0000000001691139
1001
ACAD
1000
DSTYLE
1002
{
1070
    40
1040
1.3
1070
    45
1040
0.5
1070
   341
1005
0
1002
}
  0
LINE
  5
1AEA6
330
18
100
AcDbEntity
  8
01
100
AcDbLine
 10
2118.437501380332
 20
-646.4298775110524
 30
0.0000000001691139
 11
2118.437501380332
 21
-589.1298883114202
 31
0.0000000001691139
1001
ACAD
1000
DSTYLE
1002
{
1070
    40
1040
1.3
1070
    45
1040
0.5
1070
   341
1005
0
1002
}
  0
LINE
  5
1AEA7
330
18
100
AcDbEntity
  8
01
100
AcDbLine
 10
2143.537503287681
 20
-590.4298883114202
 30
0.0000000001691139
 11
2121.037501380332
 21
-590.4298883114202
 31
0.0000000001691139
1001
ACAD
1000
DSTYLE
1002
{
1070
    40
1040
1.3
1070
    45
1040
0.5
1070
   341
1005
0
1002
}
  0
LINE
  5
1AEAB
330
18
100
AcDbEntity
  8
01
100
AcDbLine
 10
2186.137619627424
 20
-623.4279594571319
 30
0.0000000001127427
 11
2186.137619627424
 21
-591.627959457132
 31
0.0000000001127427
1001
ACAD
1000
DSTYLE
1002
{
1070
    40
1040
1.3
1070
    45
1040
0.5
1070
   271
1070
     1
1070
   341
1005
0
1002
}
  0
LINE
  5
1AEAC
330
18
100
AcDbEntity
  8
01
100
AcDbLine
 10
2194.137389637427
 20
-648.9279581362009
 30
0.0000000001127427
 11
2194.137389637427
 21
-591.627959457132
 31
0.0000000001127427
1001
ACAD
1000
DSTYLE
1002
{
1070
    40
1040
1.3
1070
    45
1040
0.5
1070
   271
1070
     1
1070
   341
1005
0
1002
}
  0
LINE
  5
1AEAD
330
18
100
AcDbEntity
  8
01
100
AcDbLine
 10
2188.737619627424
 20
-592.9279594571319
 30
0.0000000001127427
 11
2191.537389637427
 21
-592.9279594571319
 31
0.0000000001127427
1001
ACAD
1000
DSTYLE
1002
{
1070
    40
1040
1.3
1070
    45
1040
0.5
1070
   271
1070
     1
1070
   341
1005
0
1002
}
  0
LINE
  5
1AEB1
330
18
100
AcDbEntity
  8
01
100
AcDbLine
 10
2313.637511370361
 20
-643.4279594571315
 30
0.0000000001127424
 11
2313.637511370361
 21
-614.6279594571315
 31
0.0000000001127424
1001
ACAD
1000
DSTYLE
1002
{
1070
     3
1000
φ<>
1070
    40
1040
1.3
1070
    45
1040
0.5
1070
   271
1070
     4
1070
   272
1070
     2
1002
}
  0
LINE
  5
1AEB2
330
18
100
AcDbEntity
  8
01
100
AcDbLine
 10
2358.639893807384
 20
-643.4279594571315
 30
0.0000000001127424
 11
2358.639893807384
 21
-614.6279594571315
 31
0.0000000001127424
1001
ACAD
1000
DSTYLE
1002
{
1070
     3
1000
φ<>
1070
    40
1040
1.3
1070
    45
1040
0.5
1070
   271
1070
     4
1070
   272
1070
     2
1002
}
  0
LINE
  5
1AEB3
330
18
100
AcDbEntity
  8
01
100
AcDbLine
 10
2316.237511370361
 20
-615.9279594571315
 30
0.0000000001127424
 11
2356.039893807384
 21
-615.9279594571315
 31
0.0000000001127424
1001
ACAD
1000
DSTYLE
1002
{
1070
     3
1000
φ<>
1070
    40
1040
1.3
1070
    45
1040
0.5
1070
   271
1070
     4
1070
   272
1070
     2
1002
}
  0
LINE
  5
1AEB7
330
18
100
AcDbEntity
  8
01
100
AcDbLine
 10
2336.137735454457
 20
-381.2776164064616
 30
0.0
 11
2336.704439250844
 21
-381.3602732668131
 31
0.0
  0
LINE
  5
1AEB8
330
18
100
AcDbEntity
  8
01
100
AcDbLine
 10
2336.704439250844
 20
-381.3602732668131
 30
0.0
 11
2337.239610759633
 21
-381.5836619386881
 31
0.0
  0
LINE
  5
1AEB9
330
18
100
AcDbEntity
  8
01
100
AcDbLine
 10
2337.239610759633
 20
-381.5836619386881
 30
0.0
 11
2337.716287700551
 21
-381.9117106447428
 31
0.0
  0
LINE
  5
1AEBA
330
18
100
AcDbEntity
  8
01
100
AcDbLine
 10
2337.716287700551
 20
-381.9117106447428
 30
0.0
 11
2338.134851543325
 21
-382.31263532736
 31
0.0
  0
LINE
  5
1AEBB
330
18
100
AcDbEntity
  8
01
100
AcDbLine
 10
2338.134851543325
 20
-382.31263532736
 30
0.0
 11
2338.503740398305
 21
-382.7583445558756
 31
0.0
  0
LINE
  5
1AEBC
330
18
100
AcDbEntity
  8
01
100
AcDbLine
 10
2338.503740398305
 20
-382.7583445558756
 30
0.0
 11
2338.830484477895
 21
-383.2353343019694
 31
0.0
  0
LINE
  5
1AEBD
330
18
100
AcDbEntity
  8
01
100
AcDbLine
 10
2338.830484477895
 20
-383.2353343019694
 30
0.0
 11
2339.121942607778
 21
-383.7356394777506
 31
0.0
  0
LINE
  5
1AEBE
330
18
100
AcDbEntity
  8
01
100
AcDbLine
 10
2339.121942607778
 20
-383.7356394777506
 30
0.0
 11
2339.382814494985
 21
-384.2529582033366
 31
0.0
  0
LINE
  5
1AEBF
330
18
100
AcDbEntity
  8
01
100
AcDbLine
 10
2339.382814494985
 20
-384.2529582033366
 30
0.0
 11
2339.616808025258
 21
-384.7820872316569
 31
0.0
  0
LINE
  5
1AEC0
330
18
100
AcDbEntity
  8
01
100
AcDbLine
 10
2339.616808025258
 20
-384.7820872316569
 30
0.0
 11
2339.827158061879
 21
-385.3206461916178
 31
0.0
  0
LINE
  5
1AEC1
330
18
100
AcDbEntity
  8
01
100
AcDbLine
 10
2339.827158061879
 20
-385.3206461916178
 30
0.0
 11
2340.016817180532
 21
-385.8676127443522
 31
0.0
  0
LINE
  5
1AEC2
330
18
100
AcDbEntity
  8
01
100
AcDbLine
 10
2340.016817180532
 20
-385.8676127443522
 30
0.0
 11
2340.187715618032
 21
-386.4213541994303
 31
0.0
  0
LINE
  5
1AEC3
330
18
100
AcDbEntity
  8
01
100
AcDbLine
 10
2340.187715618032
 20
-386.4213541994303
 30
0.0
 11
2340.341180889028
 21
-386.9798869142741
 31
0.0
  0
LINE
  5
1AEC4
330
18
100
AcDbEntity
  8
01
100
AcDbLine
 10
2340.341180889028
 20
-386.9798869142741
 30
0.0
 11
2340.478494731801
 21
-387.5423258791178
 31
0.0
  0
LINE
  5
1AEC5
330
18
100
AcDbEntity
  8
01
100
AcDbLine
 10
2340.478494731801
 20
-387.5423258791178
 30
0.0
 11
2340.600900737661
 21
-388.10853376486
 31
0.0
  0
LINE
  5
1AEC6
330
18
100
AcDbEntity
  8
01
100
AcDbLine
 10
2340.600900737661
 20
-388.10853376486
 30
0.0
 11
2340.709283916372
 21
-388.6777628908366
 31
0.0
  0
LINE
  5
1AEC7
330
18
100
AcDbEntity
  8
01
100
AcDbLine
 10
2340.709283916372
 20
-388.6777628908366
 30
0.0
 11
2340.804246990102
 21
-389.2488535890787
 31
0.0
  0
LINE
  5
1AEC8
330
18
100
AcDbEntity
  8
01
100
AcDbLine
 10
2340.804246990102
 20
-389.2488535890787
 30
0.0
 11
2340.886407939809
 21
-389.8213633547037
 31
0.0
  0
LINE
  5
1AEC9
330
18
100
AcDbEntity
  8
01
100
AcDbLine
 10
2340.886407939809
 20
-389.8213633547037
 30
0.0
 11
2340.956361858266
 21
-390.3955973634928
 31
0.0
  0
LINE
  5
1AECA
330
18
100
AcDbEntity
  8
01
100
AcDbLine
 10
2340.956361858266
 20
-390.3955973634928
 30
0.0
 11
2341.014566509145
 21
-390.9714945802897
 31
0.0
  0
LINE
  5
1AECB
330
18
100
AcDbEntity
  8
01
100
AcDbLine
 10
2341.014566509145
 20
-390.9714945802897
 30
0.0
 11
2341.061296550649
 21
-391.5485972414225
 31
0.0
  0
LINE
  5
1AECC
330
18
100
AcDbEntity
  8
01
100
AcDbLine
 10
2341.061296550649
 20
-391.5485972414225
 30
0.0
 11
2341.097391216176
 21
-392.1381968507975
 31
0.0
  0
LINE
  5
1AECD
330
18
100
AcDbEntity
  8
01
100
AcDbLine
 10
2336.137735454457
 20
-381.2776164064616
 30
0.0
 11
2335.571039287465
 21
-381.3602732668131
 31
0.0
  0
LINE
  5
1AECE
330
18
100
AcDbEntity
  8
01
100
AcDbLine
 10
2335.571039287465
 20
-381.3602732668131
 30
0.0
 11
2335.035867778676
 21
-381.5836619386881
 31
0.0
  0
LINE
  5
1AECF
330
18
100
AcDbEntity
  8
01
100
AcDbLine
 10
2335.035867778676
 20
-381.5836619386881
 30
0.0
 11
2334.559190837758
 21
-381.9117106447428
 31
0.0
  0
LINE
  5
1AED0
330
18
100
AcDbEntity
  8
01
100
AcDbLine
 10
2334.559190837758
 20
-381.9117106447428
 30
0.0
 11
2334.140623180288
 21
-382.31263532736
 31
0.0
  0
LINE
  5
1AED1
330
18
100
AcDbEntity
  8
01
100
AcDbLine
 10
2334.140623180288
 20
-382.31263532736
 30
0.0
 11
2333.771734325307
 21
-382.7583445558756
 31
0.0
  0
LINE
  5
1AED2
330
18
100
AcDbEntity
  8
01
100
AcDbLine
 10
2333.771734325307
 20
-382.7583445558756
 30
0.0
 11
2333.444997875112
 21
-383.2353343019694
 31
0.0
  0
LINE
  5
1AED3
330
18
100
AcDbEntity
  8
01
100
AcDbLine
 10
2333.444997875112
 20
-383.2353343019694
 30
0.0
 11
2333.153535930532
 21
-383.7356394777506
 31
0.0
  0
LINE
  5
1AED4
330
18
100
AcDbEntity
  8
01
100
AcDbLine
 10
2333.153535930532
 20
-383.7356394777506
 30
0.0
 11
2332.892660228627
 21
-384.2529582033366
 31
0.0
  0
LINE
  5
1AED5
330
18
100
AcDbEntity
  8
01
100
AcDbLine
 10
2332.892660228627
 20
-384.2529582033366
 30
0.0
 11
2332.658674327748
 21
-384.7820872316569
 31
0.0
  0
LINE
  5
1AED6
330
18
100
AcDbEntity
  8
01
100
AcDbLine
 10
2332.658674327748
 20
-384.7820872316569
 30
0.0
 11
2332.448316661733
 21
-385.3206461916178
 31
0.0
  0
LINE
  5
1AED7
330
18
100
AcDbEntity
  8
01
100
AcDbLine
 10
2332.448316661733
 20
-385.3206461916178
 30
0.0
 11
2332.258661357778
 21
-385.8676127443522
 31
0.0
  0
LINE
  5
1AED8
330
18
100
AcDbEntity
  8
01
100
AcDbLine
 10
2332.258661357778
 20
-385.8676127443522
 30
0.0
 11
2332.087766734975
 21
-386.4213541994303
 31
0.0
  0
LINE
  5
1AED9
330
18
100
AcDbEntity
  8
01
100
AcDbLine
 10
2332.087766734975
 20
-386.4213541994303
 30
0.0
 11
2331.934301463979
 21
-386.9798869142741
 31
0.0
  0
LINE
  5
1AEDA
330
18
100
AcDbEntity
  8
01
100
AcDbLine
 10
2331.934301463979
 20
-386.9798869142741
 30
0.0
 11
2331.796983806508
 21
-387.5423258791178
 31
0.0
  0
LINE
  5
1AEDB
330
18
100
AcDbEntity
  8
01
100
AcDbLine
 10
2331.796983806508
 20
-387.5423258791178
 30
0.0
 11
2331.674581615346
 21
-388.10853376486
 31
0.0
  0
LINE
  5
1AEDC
330
18
100
AcDbEntity
  8
01
100
AcDbLine
 10
2331.674581615346
 20
-388.10853376486
 30
0.0
 11
2331.566194621938
 21
-388.6777628908366
 31
0.0
  0
LINE
  5
1AEDD
330
18
100
AcDbEntity
  8
01
100
AcDbLine
 10
2331.566194621938
 20
-388.6777628908366
 30
0.0
 11
2331.47122773351
 21
-389.2488535890787
 31
0.0
  0
LINE
  5
1AEDE
330
18
100
AcDbEntity
  8
01
100
AcDbLine
 10
2331.47122773351
 20
-389.2488535890787
 30
0.0
 11
2331.389074413198
 21
-389.8213633547037
 31
0.0
  0
LINE
  5
1AEDF
330
18
100
AcDbEntity
  8
01
100
AcDbLine
 10
2331.389074413198
 20
-389.8213633547037
 30
0.0
 11
2331.319120494741
 21
-390.3955973634928
 31
0.0
  0
LINE
  5
1AEE0
330
18
100
AcDbEntity
  8
01
100
AcDbLine
 10
2331.319120494741
 20
-390.3955973634928
 30
0.0
 11
2331.260912029165
 21
-390.9714945802897
 31
0.0
  0
LINE
  5
1AEE1
330
18
100
AcDbEntity
  8
01
100
AcDbLine
 10
2331.260912029165
 20
-390.9714945802897
 30
0.0
 11
2331.214181987661
 21
-391.5485972414225
 31
0.0
  0
LINE
  5
1AEE2
330
18
100
AcDbEntity
  8
01
100
AcDbLine
 10
2331.214181987661
 20
-391.5485972414225
 30
0.0
 11
2331.178087322133
 21
-392.1381968507975
 31
0.0
  0
LINE
  5
1AEE3
330
18
100
AcDbEntity
  8
01
100
AcDbLine
 10
2331.588239757436
 20
-393.2478922853678
 30
0.0
 11
2331.605138866323
 21
-393.2659434328287
 31
0.0
  0
LINE
  5
1AEE4
330
18
100
AcDbEntity
  8
01
100
AcDbLine
 10
2331.605138866323
 20
-393.2659434328287
 30
0.0
 11
2331.822099773305
 21
-393.5464610109537
 31
0.0
  0
LINE
  5
1AEE5
330
18
100
AcDbEntity
  8
01
100
AcDbLine
 10
2331.178087322133
 20
-392.1381968507975
 30
0.0
 11
2331.190027324575
 21
-392.4172801027506
 31
0.0
  0
LINE
  5
1AEE6
330
18
100
AcDbEntity
  8
01
100
AcDbLine
 10
2331.190027324575
 20
-392.4172801027506
 30
0.0
 11
2331.2530499381
 21
-392.6894511232584
 31
0.0
  0
LINE
  5
1AEE7
330
18
100
AcDbEntity
  8
01
100
AcDbLine
 10
2331.2530499381
 20
-392.6894511232584
 30
0.0
 11
2331.401483623403
 21
-393.0058421144694
 31
0.0
  0
TEXT
  5
1AEE8
330
18
100
AcDbEntity
  8
01
  6
CONTINUOUS
100
AcDbText
 10
2247.140664380698
 20
-486.3465549791167
 30
0.0000000001127424
 40
4.55
  1
材質：亜鉛ダイキャスト
100
AcDbText
  0
TEXT
  5
1AEE9
330
18
100
AcDbEntity
  8
01
  6
CONTINUOUS
100
AcDbText
 10
2257.453997714031
 20
-493.92988831245
 30
0.0000000001127424
 40
4.55
  1
仕上げ：各種メッキ
100
AcDbText
  0
LINE
  5
1AEEA
330
18
100
AcDbEntity
  8
01
100
AcDbLine
 10
2274.137503287679
 20
-670.9298890095528
 30
0.0000000001127424
 11
2274.137503287679
 21
-568.2083962267335
 31
0.0000000001127424
1001
ACAD
1000
DSTYLE
1002
{
1070
    40
1040
1.3
1070
    45
1040
0.5
1002
}
  0
LINE
  5
1AEEB
330
18
100
AcDbEntity
  8
01
100
AcDbLine
 10
2285.137503287679
 20
-613.0585709602641
 30
0.0000000001127424
 11
2285.137503287679
 21
-568.2083962267335
 31
0.0000000001127424
1001
ACAD
1000
DSTYLE
1002
{
1070
    40
1040
1.3
1070
    45
1040
0.5
1002
}
  0
LINE
  5
1AEEC
330
18
100
AcDbEntity
  8
01
100
AcDbLine
 10
2276.737503287679
 20
-569.5083962267335
 30
0.0000000001127424
 11
2282.53750328768
 21
-569.5083962267335
 31
0.0000000001127424
1001
ACAD
1000
DSTYLE
1002
{
1070
    40
1040
1.3
1070
    45
1040
0.5
1002
}
  0
LINE
  5
1AEF0
330
18
100
AcDbEntity
  8
01
100
AcDbLine
 10
2354.137503287679
 20
-640.9298883114215
 30
0.0000000001127424
 11
2382.43750328768
 21
-640.9298883114215
 31
0.0000000001127424
1001
ACAD
1000
DSTYLE
1002
{
1070
    40
1040
1.3
1070
    45
1040
0.5
1002
}
  0
LINE
  5
1AEF1
330
18
100
AcDbEntity
  8
01
100
AcDbLine
 10
2354.137503287679
 20
-714.929888311422
 30
0.0000000001127424
 11
2382.43750328768
 21
-714.929888311422
 31
0.0000000001127424
1001
ACAD
1000
DSTYLE
1002
{
1070
    40
1040
1.3
1070
    45
1040
0.5
1002
}
  0
LINE
  5
1AEF2
330
18
100
AcDbEntity
  8
01
100
AcDbLine
 10
2381.137503287679
 20
-643.5298883114215
 30
0.0000000001127424
 11
2381.137503287679
 21
-712.329888311422
 31
0.0000000001127424
1001
ACAD
1000
DSTYLE
1002
{
1070
    40
1040
1.3
1070
    45
1040
0.5
1002
}
  0
LINE
  5
1AEF6
330
18
100
AcDbEntity
  8
01
100
AcDbLine
 10
2354.137503287679
 20
-640.9298883114215
 30
0.0000000001127424
 11
2354.137503287679
 21
-558.1285287586853
 31
0.0000000001127424
1001
ACAD
1000
DSTYLE
1002
{
1070
    40
1040
1.3
1070
    45
1040
0.5
1002
}
  0
LINE
  5
1AEF7
330
18
100
AcDbEntity
  8
01
100
AcDbLine
 10
2285.137503287679
 20
-613.0585709602641
 30
0.0000000001127424
 11
2285.137503287679
 21
-558.1285287586853
 31
0.0000000001127424
1001
ACAD
1000
DSTYLE
1002
{
1070
    40
1040
1.3
1070
    45
1040
0.5
1002
}
  0
LINE
  5
1AEF8
330
18
100
AcDbEntity
  8
01
100
AcDbLine
 10
2351.53750328768
 20
-559.4285287586853
 30
0.0000000001127424
 11
2287.737503287679
 21
-559.4285287586853
 31
0.0000000001127424
1001
ACAD
1000
DSTYLE
1002
{
1070
    40
1040
1.3
1070
    45
1040
0.5
1002
}
  0
LINE
  5
1AEFC
330
18
100
AcDbEntity
  8
01
100
AcDbLine
 10
2285.137503287679
 20
-613.0585709602641
 30
0.0000000001127424
 11
2285.137503287679
 21
-568.2083962267335
 31
0.0000000001127424
1001
ACAD
1000
DSTYLE
1002
{
1070
    40
1040
1.3
1070
    45
1040
0.5
1002
}
  0
LINE
  5
1AEFD
330
18
100
AcDbEntity
  8
01
100
AcDbLine
 10
2336.137503287679
 20
-648.9298883114215
 30
0.0000000001127424
 11
2336.137503287679
 21
-568.2083962267335
 31
0.0000000001127424
1001
ACAD
1000
DSTYLE
1002
{
1070
    40
1040
1.3
1070
    45
1040
0.5
1002
}
  0
LINE
  5
1AEFE
330
18
100
AcDbEntity
  8
01
100
AcDbLine
 10
2287.737503287679
 20
-569.5083962267335
 30
0.0000000001127424
 11
2333.53750328768
 21
-569.5083962267335
 31
0.0000000001127424
1001
ACAD
1000
DSTYLE
1002
{
1070
    40
1040
1.3
1070
    45
1040
0.5
1002
}
  0
LINE
  5
1AF02
330
18
100
AcDbEntity
  8
01
100
AcDbLine
 10
2153.637619627424
 20
-618.9298883114219
 30
0.0000000001127424
 11
2153.637619627424
 21
-568.208396226734
 31
0.0000000001127424
1001
ACAD
1000
DSTYLE
1002
{
1070
    40
1040
1.3
1070
    45
1040
0.5
1002
}
  0
LINE
  5
1AF03
330
18
100
AcDbEntity
  8
01
100
AcDbLine
 10
2178.637619627424
 20
-618.9298883114219
 30
0.0000000001127424
 11
2178.637619627424
 21
-568.208396226734
 31
0.0000000001127424
1001
ACAD
1000
DSTYLE
1002
{
1070
    40
1040
1.3
1070
    45
1040
0.5
1002
}
  0
LINE
  5
1AF04
330
18
100
AcDbEntity
  8
01
100
AcDbLine
 10
2156.237619627424
 20
-569.5083962267339
 30
0.0000000001127424
 11
2176.037619627424
 21
-569.5083962267339
 31
0.0000000001127424
1001
ACAD
1000
DSTYLE
1002
{
1070
    40
1040
1.3
1070
    45
1040
0.5
1002
}
  0
LINE
  5
1AF08
330
18
100
AcDbEntity
  8
01
100
AcDbLine
 10
2132.936657733101
 20
-698.179888311422
 30
0.0
 11
2131.637619627424
 21
-697.429888311422
 31
0.0
  0
LINE
  5
1AF09
330
18
100
AcDbEntity
  8
01
100
AcDbLine
 10
2131.637619627424
 20
-697.429888311422
 30
0.0
 11
2130.338581521747
 21
-698.179888311422
 31
0.0
  0
LINE
  5
1AF0A
330
18
100
AcDbEntity
  8
01
100
AcDbLine
 10
2130.338581521747
 20
-698.179888311422
 30
0.0
 11
2130.338581521747
 21
-699.679888311422
 31
0.0
  0
LINE
  5
1AF0B
330
18
100
AcDbEntity
  8
01
100
AcDbLine
 10
2130.338581521747
 20
-699.679888311422
 30
0.0
 11
2131.637619627424
 21
-700.429888311422
 31
0.0
  0
LINE
  5
1AF0C
330
18
100
AcDbEntity
  8
01
100
AcDbLine
 10
2131.637619627424
 20
-700.429888311422
 30
0.0
 11
2132.936657733101
 21
-699.679888311422
 31
0.0
  0
LINE
  5
1AF0D
330
18
100
AcDbEntity
  8
01
100
AcDbLine
 10
2132.936657733101
 20
-699.679888311422
 30
0.0
 11
2132.936657733101
 21
-698.179888311422
 31
0.0
  0
LINE
  5
1AF0E
330
18
100
AcDbEntity
  8
01
100
AcDbLine
 10
2171.93955923066
 20
-620.9294431670058
 30
0.0000000001691137
 11
2252.225690398867
 21
-620.9294431670058
 31
0.0000000001691137
1001
ACAD
1000
DSTYLE
1002
{
1070
    40
1040
1.3
1070
    45
1040
0.5
1002
}
  0
LINE
  5
1AF0F
330
18
100
AcDbEntity
  8
01
100
AcDbLine
 10
2171.93955923066
 20
-734.929443167006
 30
0.0000000001691137
 11
2252.225690398867
 21
-734.929443167006
 31
0.0000000001691137
1001
ACAD
1000
DSTYLE
1002
{
1070
    40
1040
1.3
1070
    45
1040
0.5
1002
}
  0
LINE
  5
1AF10
330
18
100
AcDbEntity
  8
01
100
AcDbLine
 10
2250.925690398867
 20
-623.5294431670059
 30
0.0000000001691137
 11
2250.925690398867
 21
-732.3294431670059
 31
0.0000000001691137
1001
ACAD
1000
DSTYLE
1002
{
1070
    40
1040
1.3
1070
    45
1040
0.5
1002
}
  0
LINE
  5
1AF14
330
18
100
AcDbEntity
  8
01
100
AcDbLine
 10
2172.537619627424
 20
-613.0298883114223
 30
0.0000000001691137
 11
2261.590024565092
 21
-613.0298883114223
 31
0.0000000001691137
1001
ACAD
1000
DSTYLE
1002
{
1070
    40
1040
1.3
1070
    45
1040
0.5
1002
}
  0
LINE
  5
1AF15
330
18
100
AcDbEntity
  8
01
100
AcDbLine
 10
2172.464533822754
 20
-742.8294431670056
 30
0.0000000001691137
 11
2261.590024565092
 21
-742.8294431670056
 31
0.0000000001691137
1001
ACAD
1000
DSTYLE
1002
{
1070
    40
1040
1.3
1070
    45
1040
0.5
1002
}
  0
LINE
  5
1AF16
330
18
100
AcDbEntity
  8
01
100
AcDbLine
 10
2260.290024565092
 20
-615.6298883114223
 30
0.0000000001691137
 11
2260.290024565092
 21
-740.2294431670056
 31
0.0000000001691137
1001
ACAD
1000
DSTYLE
1002
{
1070
    40
1040
1.3
1070
    45
1040
0.5
1002
}
  0
LINE
  5
1AF1A
330
18
100
AcDbEntity
  8
01
100
AcDbLine
 10
2336.137503287658
 20
-670.4298883114192
 30
0.0000000001127424
 11
2299.837503287679
 21
-670.4298883114192
 31
0.0000000001127424
1001
ACAD
1000
DSTYLE
1002
{
1070
     3
1000
φ<>
1070
    40
1040
1.3
1070
    45
1040
0.5
1002
}
  0
LINE
  5
1AF1B
330
18
100
AcDbEntity
  8
01
100
AcDbLine
 10
2336.137503287679
 20
-727.4298883113977
 30
0.0000000001127424
 11
2299.837503287679
 21
-727.4298883113977
 31
0.0000000001127424
1001
ACAD
1000
DSTYLE
1002
{
1070
     3
1000
φ<>
1070
    40
1040
1.3
1070
    45
1040
0.5
1002
}
  0
LINE
  5
1AF1C
330
18
100
AcDbEntity
  8
01
100
AcDbLine
 10
2301.137503287679
 20
-673.0298883114192
 30
0.0000000001127424
 11
2301.137503287679
 21
-724.8298883113977
 31
0.0000000001127424
1001
ACAD
1000
DSTYLE
1002
{
1070
     3
1000
φ<>
1070
    40
1040
1.3
1070
    45
1040
0.5
1002
}
  0
CIRCLE
  5
1AF20
330
18
100
AcDbEntity
  8
01
100
AcDbCircle
 10
2200.637503287685
 20
-698.929888311422
 30
0.0000000001127424
 40
3.0
  0
ARC
  5
1AF21
330
18
100
AcDbEntity
  8
01
100
AcDbCircle
 10
2244.338502249168
 20
-726.1486699190361
 30
0.0000000001127424
 40
27.87419780369515
100
AcDbArc
 50
63.49725540026253
 51
64.83987386031752
  0
ARC
  5
1AF22
330
18
100
AcDbEntity
  8
01
100
AcDbCircle
 10
2244.44546093897
 20
-725.9220452981264
 30
0.0000000001127424
 40
27.62360118507278
100
AcDbArc
 50
64.84083096779412
 51
66.1957652332881
  0
ARC
  5
1AF23
330
18
100
AcDbEntity
  8
01
100
AcDbCircle
 10
2244.547404594856
 20
-725.6983945508335
 30
0.0000000001127424
 40
27.37783083085845
100
AcDbArc
 50
66.20204977113569
 51
67.56894390260719
  0
ARC
  5
1AF24
330
18
100
AcDbEntity
  8
01
100
AcDbCircle
 10
2244.632372783078
 20
-725.4833159316613
 30
0.0000000001127424
 40
27.14660399497794
100
AcDbArc
 50
67.56149679525255
 51
68.93994720839012
  0
ARC
  5
1AF25
330
18
100
AcDbEntity
  8
01
100
AcDbCircle
 10
2244.709359276692
 20
-725.2863043137297
 30
0.0000000001127424
 40
26.93508711785701
100
AcDbArc
 50
68.94217806662226
 51
70.33173302818389
  0
ARC
  5
1AF26
330
18
100
AcDbEntity
  8
01
100
AcDbCircle
 10
2244.779080898023
 20
-725.0921135120595
 30
0.0000000001127424
 40
26.72875950303858
100
AcDbArc
 50
70.33236394996395
 51
71.73252364662498
  0
ARC
  5
1AF27
330
18
100
AcDbEntity
  8
01
100
AcDbCircle
 10
2244.838420654301
 20
-724.9062114597738
 30
0.0000000001127424
 40
26.53362606940501
100
AcDbArc
 50
71.72837248507186
 51
73.13858934435322
  0
ARC
  5
1AF28
330
18
100
AcDbEntity
  8
01
100
AcDbCircle
 10
2244.888285323105
 20
-724.7419058456494
 30
0.0000000001127424
 40
26.36192046072063
100
AcDbArc
 50
73.13872591326441
 51
74.55840556613519
  0
ARC
  5
1AF29
330
18
100
AcDbEntity
  8
01
100
AcDbCircle
 10
2244.933707331908
 20
-724.584119156421
 30
0.0000000001127424
 40
26.19773567757444
100
AcDbArc
 50
74.56227826065708
 51
75.99078075621186
  0
ARC
  5
1AF2A
330
18
100
AcDbEntity
  8
01
100
AcDbCircle
 10
2244.971866773546
 20
-724.4380482940102
 30
0.0000000001127424
 40
26.04677192304656
100
AcDbArc
 50
75.99444090835807
 51
77.43108259308036
  0
ARC
  5
1AF2B
330
18
100
AcDbEntity
  8
01
100
AcDbCircle
 10
2244.996033534806
 20
-724.3085756887635
 30
0.0000000001127424
 40
25.91514351974986
100
AcDbArc
 50
77.42094026974603
 51
78.86499598759428
  0
ARC
  5
1AF2C
330
18
100
AcDbEntity
  8
01
100
AcDbCircle
 10
2245.023379254292
 20
-724.1926378792695
 30
0.0000000001127424
 40
25.79610759308405
100
AcDbArc
 50
78.87485958107989
 51
80.32556544648648
  0
ARC
  5
1AF2D
330
18
100
AcDbEntity
  8
01
100
AcDbCircle
 10
2245.039434398343
 20
-724.0911041322885
 30
0.0000000001127424
 40
25.69331977323438
100
AcDbArc
 50
80.32280944316746
 51
81.77936609527951
  0
ARC
  5
1AF2E
330
18
100
AcDbEntity
  8
01
100
AcDbCircle
 10
2245.053598131029
 20
-724.0007449381104
 30
0.0000000001127424
 40
25.60186385464593
100
AcDbArc
 50
81.781823713976
 51
83.24339989171686
  0
ARC
  5
1AF2F
330
18
100
AcDbEntity
  8
01
100
AcDbCircle
 10
2245.059519340742
 20
-723.930017299059
 30
0.0000000001127424
 40
25.53093090112917
100
AcDbArc
 50
83.23792153976069
 51
84.70365822980378
  0
ARC
  5
1AF30
330
18
100
AcDbEntity
  8
01
100
AcDbCircle
 10
2245.066565698869
 20
-723.8716098008958
 30
0.0000000001127424
 40
25.47212239185739
100
AcDbArc
 50
84.70731309617543
 51
86.17632788715383
  0
ARC
  5
1AF31
330
18
100
AcDbEntity
  8
01
100
AcDbCircle
 10
2244.521112863123
 20
-707.8554170588294
 30
0.0000000001127424
 40
20.01992790747051
100
AcDbArc
 50
62.98640154442043
 51
64.46768718496423
  0
ARC
  5
1AF32
330
18
100
AcDbEntity
  8
01
100
AcDbCircle
 10
2244.603575416912
 20
-707.6682325706986
 30
0.0000000001127424
 40
19.81548139478629
100
AcDbArc
 50
64.44955534284742
 51
65.94603795583286
  0
ARC
  5
1AF33
330
18
100
AcDbEntity
  8
01
100
AcDbCircle
 10
2244.685889293683
 20
-707.4943644245712
 30
0.0000000001127424
 40
19.62316120736726
100
AcDbArc
 50
65.95858666952591
 51
67.46979836188926
  0
ARC
  5
1AF34
330
18
100
AcDbEntity
  8
01
100
AcDbCircle
 10
2244.757051137927
 20
-707.3237437473816
 30
0.0000000001127424
 40
19.43829558811253
100
AcDbArc
 50
67.47084126912897
 51
68.99624273857265
  0
ARC
  5
1AF35
330
18
100
AcDbEntity
  8
01
100
AcDbCircle
 10
2244.817834961574
 20
-707.1614282406827
 30
0.0000000001127424
 40
19.26497818085369
100
AcDbArc
 50
68.99197952064823
 51
70.53095932250072
  0
ARC
  5
1AF36
330
18
100
AcDbEntity
  8
01
100
AcDbCircle
 10
2244.868938771854
 20
-707.0159878418643
 30
0.0000000001127424
 40
19.11082104539313
100
AcDbArc
 50
70.53008048538004
 51
72.08195505570714
  0
ARC
  5
1AF37
330
18
100
AcDbEntity
  8
01
100
AcDbCircle
 10
2244.918609736671
 20
-706.8701746367555
 30
0.0000000001127424
 40
18.95679870379877
100
AcDbArc
 50
72.08921329429111
 51
73.65322763758174
  0
ARC
  5
1AF38
330
18
100
AcDbEntity
  8
01
100
AcDbCircle
 10
2244.953185687955
 20
-706.7398743694794
 30
0.0000000001127424
 40
18.82203463170887
100
AcDbArc
 50
73.64258924824546
 51
75.21791854175463
  0
ARC
  5
1AF39
330
18
100
AcDbEntity
  8
01
100
AcDbCircle
 10
2244.988239812117
 20
-706.6224266908869
 30
0.0000000001127424
 40
18.69953067676355
100
AcDbArc
 50
75.22995386141321
 51
76.81570586156847
  0
ARC
  5
1AF3A
330
18
100
AcDbEntity
  8
01
100
AcDbCircle
 10
2245.010410027365
 20
-706.5152105714262
 30
0.0000000001127424
 40
18.59008416775989
100
AcDbArc
 50
76.80686515658365
 51
78.40208354495284
  0
ARC
  5
1AF3B
330
18
100
AcDbEntity
  8
01
100
AcDbCircle
 10
2245.031841479216
 20
-706.4155669208805
 30
0.0000000001127424
 40
18.48816638200081
100
AcDbArc
 50
78.40506262565589
 51
80.0087311340507
  0
ARC
  5
1AF3C
330
18
100
AcDbEntity
  8
01
100
AcDbCircle
 10
2245.046685420091
 20
-706.331537303698
 30
0.0000000001127424
 40
18.40283574535816
100
AcDbArc
 50
80.00885517726432
 51
81.61990262948042
  0
ARC
  5
1AF3D
330
18
100
AcDbEntity
  8
01
100
AcDbCircle
 10
2245.056264687055
 20
-706.2637642955344
 30
0.0000000001127424
 40
18.33439027635076
100
AcDbArc
 50
81.6186519653145
 51
83.23595825842408
  0
ARC
  5
1AF3E
330
18
100
AcDbEntity
  8
01
100
AcDbCircle
 10
2245.062043611028
 20
-706.2057545232515
 30
0.0000000001127424
 40
18.27610366064126
100
AcDbArc
 50
83.2325293870525
 51
84.85493199974144
  0
ARC
  5
1AF3F
330
18
100
AcDbEntity
  8
01
100
AcDbCircle
 10
2245.069097226859
 20
-706.1616223468367
 30
0.0000000001127424
 40
18.23151700580789
100
AcDbArc
 50
84.86457223170954
 51
86.49087364925465
  0
ARC
  5
1AF40
330
18
100
AcDbEntity
  8
01
100
AcDbCircle
 10
2245.068392521654
 20
-706.1317317525992
 30
0.0000000001127424
 40
18.20172576409174
100
AcDbArc
 50
86.48290049097716
 51
88.11187597394012
  0
ARC
  5
1AF41
330
18
100
AcDbEntity
  8
01
100
AcDbCircle
 10
2244.96674837155
 20
-702.1566302884194
 30
0.0000000001127424
 40
15.36294232220818
100
AcDbArc
 50
13.94969150685003
 51
16.47289339399399
  0
ARC
  5
1AF42
330
18
100
AcDbEntity
  8
01
100
AcDbCircle
 10
2245.20564539537
 20
-702.0865716057547
 30
0.0000000001127424
 40
15.11398511827891
100
AcDbArc
 50
16.47501248150486
 51
19.03950097474254
  0
ARC
  5
1AF43
330
18
100
AcDbEntity
  8
01
100
AcDbCircle
 10
2245.463957937304
 20
-701.9942249079623
 30
0.0000000001127424
 40
14.83967882373516
100
AcDbArc
 50
19.02780964786994
 51
21.64022957151613
  0
ARC
  5
1AF44
330
18
100
AcDbEntity
  8
01
100
AcDbCircle
 10
2245.748999243693
 20
-701.8848207270347
 30
0.0000000001127424
 40
14.53438248621374
100
AcDbArc
 50
21.65372581384429
 51
24.32087267579104
  0
ARC
  5
1AF45
330
18
100
AcDbEntity
  8
01
100
AcDbCircle
 10
2246.045556762122
 20
-701.7490470213172
 30
0.0000000001127424
 40
14.20822565135202
100
AcDbArc
 50
24.31446851660109
 51
27.04327221762411
  0
ARC
  5
1AF46
330
18
100
AcDbEntity
  8
01
100
AcDbCircle
 10
2246.357346652673
 20
-701.5913967220135
 30
0.0000000001127424
 40
13.85884806886701
100
AcDbArc
 50
27.04883718454456
 51
29.84632762273479
  0
ARC
  5
1AF47
330
18
100
AcDbEntity
  8
01
100
AcDbCircle
 10
2246.672822666801
 20
-701.4088842514134
 30
0.0000000001127424
 40
13.49438382935663
100
AcDbArc
 50
29.8408081327407
 51
32.71405651686057
  0
ARC
  5
1AF48
330
18
100
AcDbEntity
  8
01
100
AcDbCircle
 10
2246.988583850932
 20
-701.2036499582036
 30
0.0000000001127424
 40
13.11779119599051
100
AcDbArc
 50
32.70520057078749
 51
35.66122979885765
  0
ARC
  5
1AF49
330
18
100
AcDbEntity
  8
01
100
AcDbCircle
 10
2247.302640319656
 20
-700.9808305303229
 30
0.0000000001127424
 40
12.73272547879889
100
AcDbArc
 50
35.67048310794657
 51
38.71614125588137
  0
ARC
  5
1AF4A
330
18
100
AcDbEntity
  8
01
100
AcDbCircle
 10
2247.607187737017
 20
-700.7372599599729
 30
0.0000000001127424
 40
12.34275681846407
100
AcDbArc
 50
38.7181652762932
 51
41.85995303475774
  0
ARC
  5
1AF4B
330
18
100
AcDbEntity
  8
01
100
AcDbCircle
 10
2247.895012637664
 20
-700.478660752305
 30
0.0000000001127424
 40
11.95582473958502
100
AcDbArc
 50
41.85741319763306
 51
45.10125930505131
  0
ARC
  5
1AF4C
330
18
100
AcDbEntity
  8
01
100
AcDbCircle
 10
2248.163030790613
 20
-700.2083236771391
 30
0.0000000001127424
 40
11.57514784408242
100
AcDbArc
 50
45.09647298324435
 51
48.44745330860669
  0
ARC
  5
1AF4D
330
18
100
AcDbEntity
  8
01
100
AcDbCircle
 10
2248.410452619637
 20
-699.9294165468892
 30
0.0000000001127424
 40
11.20231178970942
100
AcDbArc
 50
48.44825428972971
 51
51.91025274084588
  0
ARC
  5
1AF4E
330
18
100
AcDbEntity
  8
01
100
AcDbCircle
 10
2248.630723565568
 20
-699.6497885122124
 30
0.0000000001127424
 40
10.84634780303682
100
AcDbArc
 50
51.91480672841412
 51
55.49012395240138
  0
ARC
  5
1AF4F
330
18
100
AcDbEntity
  8
01
100
AcDbCircle
 10
2248.817429852066
 20
-699.3763729409355
 30
0.0000000001127424
 40
10.51526749421178
100
AcDbArc
 50
55.48439281608933
 51
59.17331713533424
  0
ARC
  5
1AF50
330
18
100
AcDbEntity
  8
01
100
AcDbCircle
 10
2248.977067238643
 20
-699.1094970552293
 30
0.0000000001127424
 40
10.20429044609588
100
AcDbArc
 50
59.17514419694896
 51
62.97551434176381
  0
ARC
  5
1AF51
330
18
100
AcDbEntity
  8
01
100
AcDbCircle
 10
2257.724067453079
 20
-699.308221237275
 30
0.0000000001127424
 40
2.118930001200422
100
AcDbArc
 50
234.6826269405199
 51
243.753455328628
  0
ARC
  5
1AF52
330
18
100
AcDbEntity
  8
01
100
AcDbCircle
 10
2257.664565478157
 20
-699.4279647254182
 30
0.0000000001127424
 40
1.985218347663719
100
AcDbArc
 50
243.7653626674434
 51
253.4449162807263
  0
ARC
  5
1AF53
330
18
100
AcDbEntity
  8
01
100
AcDbCircle
 10
2257.638760862754
 20
-699.5127999423479
 30
0.0000000001127424
 40
1.896547262559892
100
AcDbArc
 50
253.4619013785944
 51
263.5893149823839
  0
ARC
  5
1AF54
330
18
100
AcDbEntity
  8
01
100
AcDbCircle
 10
2257.634151225925
 20
-699.5474965972334
 30
0.0000000001127424
 40
1.861553010495477
100
AcDbArc
 50
263.6110687254509
 51
273.9227673263125
  0
ARC
  5
1AF55
330
18
100
AcDbEntity
  8
01
100
AcDbCircle
 10
2257.632091407473
 20
-699.5261395859719
 30
0.0000000001127424
 40
1.883000995387269
100
AcDbArc
 50
273.9408391474065
 51
284.1026532563681
  0
ARC
  5
1AF56
330
18
100
AcDbEntity
  8
01
100
AcDbCircle
 10
2257.613471324768
 20
-699.4531614540251
 30
0.0000000001127424
 40
1.958316607464144
100
AcDbArc
 50
284.1107588287062
 51
293.8979667935741
  0
ARC
  5
1AF57
330
18
100
AcDbEntity
  8
01
100
AcDbCircle
 10
2257.563099377639
 20
-699.3398045561976
 30
0.0000000001127424
 40
2.082361369810712
100
AcDbArc
 50
293.901586650594
 51
303.0974474097537
  0
ARC
  5
1AF58
330
18
100
AcDbEntity
  8
01
100
AcDbCircle
 10
2257.476049925998
 20
-699.2072034880046
 30
0.0000000001127424
 40
2.240981679360274
100
AcDbArc
 50
303.1106482569091
 51
311.6583848573516
  0
ARC
  5
1AF59
330
18
100
AcDbEntity
  8
01
100
AcDbCircle
 10
2257.354585293725
 20
-699.0698931852111
 30
0.0000000001127424
 40
2.424305236178372
100
AcDbArc
 50
311.6461023786757
 51
319.5641563688731
  0
ARC
  5
1AF5A
330
18
100
AcDbEntity
  8
01
100
AcDbCircle
 10
2257.208539870265
 20
-698.9459718229882
 30
0.0000000001127424
 40
2.615840137791986
100
AcDbArc
 50
319.5730032202103
 51
326.9130445698284
  0
ARC
  5
1AF5B
330
18
100
AcDbEntity
  8
01
100
AcDbCircle
 10
2257.051932963103
 20
-698.8424420851418
 30
0.0000000001127424
 40
2.803570466482694
100
AcDbArc
 50
326.8875354435874
 51
333.7372680242881
  0
ARC
  5
1AF5C
330
18
100
AcDbEntity
  8
01
100
AcDbCircle
 10
2256.901012656967
 20
-698.7682543963415
 30
0.0000000001127424
 40
2.971739109913607
100
AcDbArc
 50
333.7421034696991
 51
340.2021887109792
  0
ARC
  5
1AF5D
330
18
100
AcDbEntity
  8
01
100
AcDbCircle
 10
2256.768328328271
 20
-698.7198110480722
 30
0.0000000001127424
 40
3.112988883543725
100
AcDbArc
 50
340.190416677849
 51
346.3586682043205
  0
ARC
  5
1AF5E
330
18
100
AcDbEntity
  8
01
100
AcDbCircle
 10
2256.666406589838
 20
-698.6957060897437
 30
0.0000000001127424
 40
3.217720572918721
100
AcDbArc
 50
346.3695757282604
 51
352.3385921539957
  0
ARC
  5
1AF5F
330
18
100
AcDbEntity
  8
01
100
AcDbCircle
 10
2256.606883817155
 20
-698.686082915136
 30
0.0000000001127424
 40
3.277995339235517
100
AcDbArc
 50
352.310594894251
 51
358.16780385649
  0
ARC
  5
1AF60
330
18
100
AcDbEntity
  8
01
100
AcDbCircle
 10
2256.592051993601
 20
-698.6863404269441
 30
0.0000000001127424
 40
3.292811428047635
100
AcDbArc
 50
358.1805337004675
 51
4.009719186431941
  0
ARC
  5
1AF61
330
18
100
AcDbEntity
  8
01
100
AcDbCircle
 10
2290.739221862603
 20
-675.5258090826834
 30
0.0000000001127424
 40
43.40493882293664
100
AcDbArc
 50
199.1380097683012
 51
202.7829454006054
  0
ARC
  5
1AF62
330
18
100
AcDbEntity
  8
01
100
AcDbCircle
 10
2177.365647586209
 20
-723.1105537572549
 30
0.0000000001127424
 40
79.54983248649367
100
AcDbArc
 50
20.77193155568344
 51
22.76075748105347
  0
ARC
  5
1AF63
330
18
100
AcDbEntity
  8
01
100
AcDbCircle
 10
2282.920167434631
 20
-684.0969432023572
 30
0.0000000001127424
 40
32.99361485109966
100
AcDbArc
 50
199.1096369882558
 51
203.9050519187555
  0
ARC
  5
1AF64
330
18
100
AcDbEntity
  8
01
100
AcDbCircle
 10
2259.091401189105
 20
-694.6974052043166
 30
0.0000000001127424
 40
6.913469425692765
100
AcDbArc
 50
203.6134066625746
 51
226.4979481299109
  0
ARC
  5
1AF65
330
18
100
AcDbEntity
  8
01
100
AcDbCircle
 10
2259.711441602818
 20
-693.504390147043
 30
0.0000000001127424
 40
8.214051711145679
100
AcDbArc
 50
229.0901856367122
 51
248.3501454937006
  0
ARC
  5
1AF66
330
18
100
AcDbEntity
  8
01
100
AcDbCircle
 10
2087.93673700568
 20
-726.1486699190361
 30
0.0000000001127424
 40
27.87419780369515
100
AcDbArc
 50
115.1601261396825
 51
116.5027445997375
  0
ARC
  5
1AF67
330
18
100
AcDbEntity
  8
01
100
AcDbCircle
 10
2087.829778315879
 20
-725.9220452981264
 30
0.0000000001127424
 40
27.62360118507278
100
AcDbArc
 50
113.8042347667119
 51
115.1591690322059
  0
ARC
  5
1AF68
330
18
100
AcDbEntity
  8
01
100
AcDbCircle
 10
2087.727834659992
 20
-725.6983945508335
 30
0.0000000001127424
 40
27.37783083085845
100
AcDbArc
 50
112.4310560973928
 51
113.7979502288643
  0
ARC
  5
1AF69
330
18
100
AcDbEntity
  8
01
100
AcDbCircle
 10
2087.64286647177
 20
-725.4833159316613
 30
0.0000000001127424
 40
27.14660399497794
100
AcDbArc
 50
111.0600527916099
 51
112.4385032047474
  0
ARC
  5
1AF6A
330
18
100
AcDbEntity
  8
01
100
AcDbCircle
 10
2087.565879978156
 20
-725.2863043137297
 30
0.0000000001127424
 40
26.93508711785701
100
AcDbArc
 50
109.6682669718161
 51
111.0578219333777
  0
ARC
  5
1AF6B
330
18
100
AcDbEntity
  8
01
100
AcDbCircle
 10
2087.496158356825
 20
-725.0921135120595
 30
0.0000000001127424
 40
26.72875950303858
100
AcDbArc
 50
108.267476353375
 51
109.6676360500361
  0
ARC
  5
1AF6C
330
18
100
AcDbEntity
  8
01
100
AcDbCircle
 10
2087.436818600547
 20
-724.9062114597738
 30
0.0000000001127424
 40
26.53362606940501
100
AcDbArc
 50
106.8614106556468
 51
108.2716275149282
  0
ARC
  5
1AF6D
330
18
100
AcDbEntity
  8
01
100
AcDbCircle
 10
2087.386953931743
 20
-724.7419058456494
 30
0.0000000001127424
 40
26.36192046072063
100
AcDbArc
 50
105.4415944338648
 51
106.8612740867356
  0
ARC
  5
1AF6E
330
18
100
AcDbEntity
  8
01
100
AcDbCircle
 10
2087.34153192294
 20
-724.584119156421
 30
0.0000000001127424
 40
26.19773567757444
100
AcDbArc
 50
104.0092192437881
 51
105.4377217393429
  0
ARC
  5
1AF6F
330
18
100
AcDbEntity
  8
01
100
AcDbCircle
 10
2087.303372481303
 20
-724.4380482940102
 30
0.0000000001127424
 40
26.04677192304656
100
AcDbArc
 50
102.5689174069197
 51
104.0055590916419
  0
ARC
  5
1AF70
330
18
100
AcDbEntity
  8
01
100
AcDbCircle
 10
2087.279205720042
 20
-724.3085756887635
 30
0.0000000001127424
 40
25.91514351974986
100
AcDbArc
 50
101.1350040124057
 51
102.579059730254
  0
ARC
  5
1AF71
330
18
100
AcDbEntity
  8
01
100
AcDbCircle
 10
2087.251860000556
 20
-724.1926378792695
 30
0.0000000001127424
 40
25.79610759308405
100
AcDbArc
 50
99.67443455351352
 51
101.1251404189201
  0
ARC
  5
1AF72
330
18
100
AcDbEntity
  8
01
100
AcDbCircle
 10
2087.235804856506
 20
-724.0911041322885
 30
0.0000000001127424
 40
25.69331977323438
100
AcDbArc
 50
98.22063390472049
 51
99.67719055683254
  0
ARC
  5
1AF73
330
18
100
AcDbEntity
  8
01
100
AcDbCircle
 10
2087.221641123819
 20
-724.0007449381104
 30
0.0000000001127424
 40
25.60186385464593
100
AcDbArc
 50
96.75660010828314
 51
98.21817628602402
  0
ARC
  5
1AF74
330
18
100
AcDbEntity
  8
01
100
AcDbCircle
 10
2087.215719914107
 20
-723.930017299059
 30
0.0000000001127424
 40
25.53093090112917
100
AcDbArc
 50
95.29634177019621
 51
96.76207846023932
  0
ARC
  5
1AF75
330
18
100
AcDbEntity
  8
01
100
AcDbCircle
 10
2087.208673555979
 20
-723.8716098008958
 30
0.0000000001127424
 40
25.47212239185739
100
AcDbArc
 50
93.82367211284617
 51
95.29268690382457
  0
ARC
  5
1AF76
330
18
100
AcDbEntity
  8
01
100
AcDbCircle
 10
2087.754126391725
 20
-707.8554170588294
 30
0.0000000001127424
 40
20.01992790747051
100
AcDbArc
 50
115.5323128150358
 51
117.0135984555796
  0
ARC
  5
1AF77
330
18
100
AcDbEntity
  8
01
100
AcDbCircle
 10
2087.671663837936
 20
-707.6682325706986
 30
0.0000000001127424
 40
19.81548139478629
100
AcDbArc
 50
114.0539620441672
 51
115.5504446571526
  0
ARC
  5
1AF78
330
18
100
AcDbEntity
  8
01
100
AcDbCircle
 10
2087.589349961166
 20
-707.4943644245712
 30
0.0000000001127424
 40
19.62316120736726
100
AcDbArc
 50
112.5302016381107
 51
114.0414133304741
  0
ARC
  5
1AF79
330
18
100
AcDbEntity
  8
01
100
AcDbCircle
 10
2087.518188116921
 20
-707.3237437473816
 30
0.0000000001127424
 40
19.43829558811253
100
AcDbArc
 50
111.0037572614274
 51
112.529158730871
  0
ARC
  5
1AF7A
330
18
100
AcDbEntity
  8
01
100
AcDbCircle
 10
2087.457404293275
 20
-707.1614282406827
 30
0.0000000001127424
 40
19.26497818085369
100
AcDbArc
 50
109.4690406774993
 51
111.0080204793518
  0
ARC
  5
1AF7B
330
18
100
AcDbEntity
  8
01
100
AcDbCircle
 10
2087.406300482994
 20
-707.0159878418643
 30
0.0000000001127424
 40
19.11082104539313
100
AcDbArc
 50
107.9180449442929
 51
109.46991951462
  0
ARC
  5
1AF7C
330
18
100
AcDbEntity
  8
01
100
AcDbCircle
 10
2087.356629518178
 20
-706.8701746367555
 30
0.0000000001127424
 40
18.95679870379877
100
AcDbArc
 50
106.3467723624182
 51
107.9107867057089
  0
ARC
  5
1AF7D
330
18
100
AcDbEntity
  8
01
100
AcDbCircle
 10
2087.322053566893
 20
-706.7398743694794
 30
0.0000000001127424
 40
18.82203463170887
100
AcDbArc
 50
104.7820814582454
 51
106.3574107517546
  0
ARC
  5
1AF7E
330
18
100
AcDbEntity
  8
01
100
AcDbCircle
 10
2087.286999442731
 20
-706.6224266908869
 30
0.0000000001127424
 40
18.69953067676355
100
AcDbArc
 50
103.1842941384315
 51
104.7700461385868
  0
ARC
  5
1AF7F
330
18
100
AcDbEntity
  8
01
100
AcDbCircle
 10
2087.264829227483
 20
-706.5152105714262
 30
0.0000000001127424
 40
18.59008416775989
100
AcDbArc
 50
101.5979164550472
 51
103.1931348434163
  0
ARC
  5
1AF80
330
18
100
AcDbEntity
  8
01
100
AcDbCircle
 10
2087.243397775632
 20
-706.4155669208805
 30
0.0000000001127424
 40
18.48816638200081
100
AcDbArc
 50
99.9912688659493
 51
101.5949373743441
  0
ARC
  5
1AF81
330
18
100
AcDbEntity
  8
01
100
AcDbCircle
 10
2087.228553834757
 20
-706.331537303698
 30
0.0000000001127424
 40
18.40283574535816
100
AcDbArc
 50
98.3800973705196
 51
99.99114482273566
  0
ARC
  5
1AF82
330
18
100
AcDbEntity
  8
01
100
AcDbCircle
 10
2087.218974567793
 20
-706.2637642955344
 30
0.0000000001127424
 40
18.33439027635076
100
AcDbArc
 50
96.76404174157592
 51
98.3813480346855
  0
ARC
  5
1AF83
330
18
100
AcDbEntity
  8
01
100
AcDbCircle
 10
2087.213195643821
 20
-706.2057545232515
 30
0.0000000001127424
 40
18.27610366064126
100
AcDbArc
 50
95.14506800025856
 51
96.7674706129475
  0
ARC
  5
1AF84
330
18
100
AcDbEntity
  8
01
100
AcDbCircle
 10
2087.20614202799
 20
-706.1616223468367
 30
0.0000000001127424
 40
18.23151700580789
100
AcDbArc
 50
93.50912635074535
 51
95.13542776829046
  0
ARC
  5
1AF85
330
18
100
AcDbEntity
  8
01
100
AcDbCircle
 10
2087.206846733194
 20
-706.1317317525992
 30
0.0000000001127424
 40
18.20172576409174
100
AcDbArc
 50
91.88812402605988
 51
93.51709950902284
  0
ARC
  5
1AF86
330
18
100
AcDbEntity
  8
01
100
AcDbCircle
 10
2087.308490883298
 20
-702.1566302884194
 30
0.0000000001127424
 40
15.36294232220818
100
AcDbArc
 50
163.527106606006
 51
166.05030849315
  0
ARC
  5
1AF87
330
18
100
AcDbEntity
  8
01
100
AcDbCircle
 10
2087.069593859478
 20
-702.0865716057547
 30
0.0000000001127424
 40
15.11398511827891
100
AcDbArc
 50
160.9604990252575
 51
163.5249875184952
  0
ARC
  5
1AF88
330
18
100
AcDbEntity
  8
01
100
AcDbCircle
 10
2086.811281317544
 20
-701.9942249079623
 30
0.0000000001127424
 40
14.83967882373516
100
AcDbArc
 50
158.3597704284839
 51
160.9721903521301
  0
ARC
  5
1AF89
330
18
100
AcDbEntity
  8
01
100
AcDbCircle
 10
2086.526240011156
 20
-701.8848207270347
 30
0.0000000001127424
 40
14.53438248621374
100
AcDbArc
 50
155.679127324209
 51
158.3462741861557
  0
ARC
  5
1AF8A
330
18
100
AcDbEntity
  8
01
100
AcDbCircle
 10
2086.229682492726
 20
-701.7490470213172
 30
0.0000000001127424
 40
14.20822565135202
100
AcDbArc
 50
152.9567277823759
 51
155.6855314833989
  0
ARC
  5
1AF8B
330
18
100
AcDbEntity
  8
01
100
AcDbCircle
 10
2085.917892602175
 20
-701.5913967220135
 30
0.0000000001127424
 40
13.85884806886701
100
AcDbArc
 50
150.1536723772652
 51
152.9511628154554
  0
ARC
  5
1AF8C
330
18
100
AcDbEntity
  8
01
100
AcDbCircle
 10
2085.602416588047
 20
-701.4088842514134
 30
0.0000000001127424
 40
13.49438382935663
100
AcDbArc
 50
147.2859434831394
 51
150.1591918672593
  0
ARC
  5
1AF8D
330
18
100
AcDbEntity
  8
01
100
AcDbCircle
 10
2085.286655403916
 20
-701.2036499582036
 30
0.0000000001127424
 40
13.11779119599051
100
AcDbArc
 50
144.3387702011424
 51
147.2947994292125
  0
ARC
  5
1AF8E
330
18
100
AcDbEntity
  8
01
100
AcDbCircle
 10
2084.972598935192
 20
-700.9808305303229
 30
0.0000000001127424
 40
12.73272547879889
100
AcDbArc
 50
141.2838587441186
 51
144.3295168920534
  0
ARC
  5
1AF8F
330
18
100
AcDbEntity
  8
01
100
AcDbCircle
 10
2084.668051517831
 20
-700.7372599599729
 30
0.0000000001127424
 40
12.34275681846407
100
AcDbArc
 50
138.1400469652422
 51
141.2818347237068
  0
ARC
  5
1AF90
330
18
100
AcDbEntity
  8
01
100
AcDbCircle
 10
2084.380226617184
 20
-700.478660752305
 30
0.0000000001127424
 40
11.95582473958502
100
AcDbArc
 50
134.8987406949487
 51
138.1425868023669
  0
ARC
  5
1AF91
330
18
100
AcDbEntity
  8
01
100
AcDbCircle
 10
2084.112208464236
 20
-700.2083236771391
 30
0.0000000001127424
 40
11.57514784408242
100
AcDbArc
 50
131.5525466913933
 51
134.9035270167556
  0
ARC
  5
1AF92
330
18
100
AcDbEntity
  8
01
100
AcDbCircle
 10
2083.864786635211
 20
-699.9294165468892
 30
0.0000000001127424
 40
11.20231178970942
100
AcDbArc
 50
128.0897472591541
 51
131.5517457102703
  0
ARC
  5
1AF93
330
18
100
AcDbEntity
  8
01
100
AcDbCircle
 10
2083.644515689281
 20
-699.6497885122124
 30
0.0000000001127424
 40
10.84634780303682
100
AcDbArc
 50
124.5098760475986
 51
128.0851932715859
  0
ARC
  5
1AF94
330
18
100
AcDbEntity
  8
01
100
AcDbCircle
 10
2083.457809402782
 20
-699.3763729409355
 30
0.0000000001127424
 40
10.51526749421178
100
AcDbArc
 50
120.8266828646657
 51
124.5156071839107
  0
ARC
  5
1AF95
330
18
100
AcDbEntity
  8
01
100
AcDbCircle
 10
2083.298172016205
 20
-699.1094970552293
 30
0.0000000001127424
 40
10.20429044609588
100
AcDbArc
 50
117.0244856582362
 51
120.824855803051
  0
ARC
  5
1AF96
330
18
100
AcDbEntity
  8
01
100
AcDbCircle
 10
2074.551171801769
 20
-699.308221237275
 30
0.0000000001127424
 40
2.118930001200422
100
AcDbArc
 50
296.246544671372
 51
305.3173730594801
  0
ARC
  5
1AF97
330
18
100
AcDbEntity
  8
01
100
AcDbCircle
 10
2074.610673776691
 20
-699.4279647254182
 30
0.0000000001127424
 40
1.985218347663719
100
AcDbArc
 50
286.5550837192737
 51
296.2346373325566
  0
ARC
  5
1AF98
330
18
100
AcDbEntity
  8
01
100
AcDbCircle
 10
2074.636478392094
 20
-699.5127999423479
 30
0.0000000001127424
 40
1.896547262559892
100
AcDbArc
 50
276.4106850176161
 51
286.5380986214056
  0
ARC
  5
1AF99
330
18
100
AcDbEntity
  8
01
100
AcDbCircle
 10
2074.641088028923
 20
-699.5474965972334
 30
0.0000000001127424
 40
1.861553010495477
100
AcDbArc
 50
266.0772326736875
 51
276.3889312745491
  0
ARC
  5
1AF9A
330
18
100
AcDbEntity
  8
01
100
AcDbCircle
 10
2074.643147847376
 20
-699.5261395859719
 30
0.0000000001127424
 40
1.883000995387269
100
AcDbArc
 50
255.8973467436319
 51
266.0591608525935
  0
ARC
  5
1AF9B
330
18
100
AcDbEntity
  8
01
100
AcDbCircle
 10
2074.66176793008
 20
-699.4531614540251
 30
0.0000000001127424
 40
1.958316607464144
100
AcDbArc
 50
246.1020332064259
 51
255.8892411712938
  0
ARC
  5
1AF9C
330
18
100
AcDbEntity
  8
01
100
AcDbCircle
 10
2074.71213987721
 20
-699.3398045561976
 30
0.0000000001127424
 40
2.082361369810712
100
AcDbArc
 50
236.9025525902464
 51
246.0984133494059
  0
ARC
  5
1AF9D
330
18
100
AcDbEntity
  8
01
100
AcDbCircle
 10
2074.79918932885
 20
-699.2072034880046
 30
0.0000000001127424
 40
2.240981679360274
100
AcDbArc
 50
228.3416151426484
 51
236.8893517430909
  0
ARC
  5
1AF9E
330
18
100
AcDbEntity
  8
01
100
AcDbCircle
 10
2074.920653961123
 20
-699.0698931852111
 30
0.0000000001127424
 40
2.424305236178372
100
AcDbArc
 50
220.4358436311269
 51
228.3538976213243
  0
ARC
  5
1AF9F
330
18
100
AcDbEntity
  8
01
100
AcDbCircle
 10
2075.066699384583
 20
-698.9459718229882
 30
0.0000000001127424
 40
2.615840137791986
100
AcDbArc
 50
213.0869554301716
 51
220.4269967797897
  0
ARC
  5
1AFA0
330
18
100
AcDbEntity
  8
01
100
AcDbCircle
 10
2075.223306291745
 20
-698.8424420851418
 30
0.0000000001127424
 40
2.803570466482694
100
AcDbArc
 50
206.2627319757119
 51
213.1124645564126
  0
ARC
  5
1AFA1
330
18
100
AcDbEntity
  8
01
100
AcDbCircle
 10
2075.374226597881
 20
-698.7682543963415
 30
0.0000000001127424
 40
2.971739109913607
100
AcDbArc
 50
199.7978112890208
 51
206.2578965303009
  0
ARC
  5
1AFA2
330
18
100
AcDbEntity
  8
01
100
AcDbCircle
 10
2075.506910926577
 20
-698.7198110480722
 30
0.0000000001127424
 40
3.112988883543725
100
AcDbArc
 50
193.6413317956795
 51
199.809583322151
  0
ARC
  5
1AFA3
330
18
100
AcDbEntity
  8
01
100
AcDbCircle
 10
2075.608832665011
 20
-698.6957060897437
 30
0.0000000001127424
 40
3.217720572918721
100
AcDbArc
 50
187.6614078460043
 51
193.6304242717396
  0
ARC
  5
1AFA4
330
18
100
AcDbEntity
  8
01
100
AcDbCircle
 10
2075.668355437693
 20
-698.686082915136
 30
0.0000000001127424
 40
3.277995339235517
100
AcDbArc
 50
181.8321961435099
 51
187.6894051057489
  0
ARC
  5
1AFA5
330
18
100
AcDbEntity
  8
01
100
AcDbCircle
 10
2075.683187261247
 20
-698.6863404269441
 30
0.0000000001127424
 40
3.292811428047635
100
AcDbArc
 50
175.9902808135681
 51
181.8194662995325
  0
ARC
  5
1AFA6
330
18
100
AcDbEntity
  8
01
100
AcDbCircle
 10
2041.536017392245
 20
-675.5258090826834
 30
0.0000000001127424
 40
43.40493882293664
100
AcDbArc
 50
337.2170545993947
 51
340.8619902316989
  0
ARC
  5
1AFA7
330
18
100
AcDbEntity
  8
01
100
AcDbCircle
 10
2154.909591668639
 20
-723.1105537572549
 30
0.0000000001127424
 40
79.54983248649367
100
AcDbArc
 50
157.2392425189465
 51
159.2280684443166
  0
ARC
  5
1AFA8
330
18
100
AcDbEntity
  8
01
100
AcDbCircle
 10
2049.355071820217
 20
-684.0969432023572
 30
0.0000000001127424
 40
32.99361485109966
100
AcDbArc
 50
336.0949480812445
 51
340.8903630117442
  0
ARC
  5
1AFA9
330
18
100
AcDbEntity
  8
01
100
AcDbCircle
 10
2073.183838065744
 20
-694.6974052043166
 30
0.0000000001127424
 40
6.913469425692765
100
AcDbArc
 50
313.5020518700892
 51
336.3865933374254
  0
ARC
  5
1AFAA
330
18
100
AcDbEntity
  8
01
100
AcDbCircle
 10
2072.56379765203
 20
-693.504390147043
 30
0.0000000001127424
 40
8.214051711145679
100
AcDbArc
 50
291.6498545062993
 51
310.9098143632878
  0
LINE
  5
1AFAB
330
18
100
AcDbEntity
  8
01
  6
BYBLOCK
100
AcDbLine
 10
2143.537503287681
 20
-589.7332204174202
 30
0.0000000001691139
 11
2146.137503287681
 21
-590.4298883114202
 31
0.0000000001691139
  0
LINE
  5
1AFAC
330
18
100
AcDbEntity
  8
01
  6
BYBLOCK
100
AcDbLine
 10
2146.137503287681
 20
-590.4298883114202
 30
0.0000000001691139
 11
2143.537503287681
 21
-591.1265562054202
 31
0.0000000001691139
  0
LINE
  5
1AFAD
330
18
100
AcDbEntity
  8
01
  6
BYBLOCK
100
AcDbLine
 10
2146.137503287681
 20
-590.4298883114202
 30
0.0000000001691139
 11
2143.537503287681
 21
-590.4298883114202
 31
0.0000000001691139
  0
LINE
  5
1AFAE
330
18
100
AcDbEntity
  8
01
  6
BYBLOCK
100
AcDbLine
 10
2121.037501380332
 20
-591.1265562054202
 30
0.0000000001691139
 11
2118.437501380332
 21
-590.4298883114202
 31
0.0000000001691139
  0
LINE
  5
1AFAF
330
18
100
AcDbEntity
  8
01
  6
BYBLOCK
100
AcDbLine
 10
2118.437501380332
 20
-590.4298883114202
 30
0.0000000001691139
 11
2121.037501380332
 21
-589.7332204174202
 31
0.0000000001691139
  0
LINE
  5
1AFB0
330
18
100
AcDbEntity
  8
01
  6
BYBLOCK
100
AcDbLine
 10
2118.437501380332
 20
-590.4298883114202
 30
0.0000000001691139
 11
2121.037501380332
 21
-590.4298883114202
 31
0.0000000001691139
  0
TEXT
  5
1AFB1
330
18
100
AcDbEntity
  8
01
  6
CONTINUOUS
100
AcDbText
 10
2125.462502334007
 20
-589.5198883114202
 30
0.0000000001691139
 40
4.55
  1
27.5
100
AcDbText
1001
ACAD
1000
DSTYLE
1002
{
1070
    40
1040
1.3
1070
    45
1040
0.5
1070
   341
1005
0
1002
}
  0
LINE
  5
1AFB2
330
18
100
AcDbEntity
  8
01
  6
BYBLOCK
100
AcDbLine
 10
2188.737619627424
 20
-593.624627351132
 30
0.0000000001127427
 11
2186.137619627424
 21
-592.9279594571319
 31
0.0000000001127427
  0
LINE
  5
1AFB3
330
18
100
AcDbEntity
  8
01
  6
BYBLOCK
100
AcDbLine
 10
2186.137619627424
 20
-592.9279594571319
 30
0.0000000001127427
 11
2188.737619627424
 21
-592.2312915631319
 31
0.0000000001127427
  0
LINE
  5
1AFB4
330
18
100
AcDbEntity
  8
01
  6
BYBLOCK
100
AcDbLine
 10
2186.137619627424
 20
-592.9279594571319
 30
0.0000000001127427
 11
2188.737619627424
 21
-592.9279594571319
 31
0.0000000001127427
  0
LINE
  5
1AFB5
330
18
100
AcDbEntity
  8
01
  6
BYBLOCK
100
AcDbLine
 10
2191.537389637427
 20
-592.2312915631319
 30
0.0000000001127427
 11
2194.137389637427
 21
-592.9279594571319
 31
0.0000000001127427
  0
LINE
  5
1AFB6
330
18
100
AcDbEntity
  8
01
  6
BYBLOCK
100
AcDbLine
 10
2194.137389637427
 20
-592.9279594571319
 30
0.0000000001127427
 11
2191.537389637427
 21
-593.624627351132
 31
0.0000000001127427
  0
LINE
  5
1AFB7
330
18
100
AcDbEntity
  8
01
  6
BYBLOCK
100
AcDbLine
 10
2194.137389637427
 20
-592.9279594571319
 30
0.0000000001127427
 11
2191.537389637427
 21
-592.9279594571319
 31
0.0000000001127427
  0
TEXT
  5
1AFB8
330
18
100
AcDbEntity
  8
01
  6
CONTINUOUS
100
AcDbText
 10
2188.620837965759
 20
-592.017959457132
 30
0.0000000001127427
 40
4.55
  1
8
100
AcDbText
1001
ACAD
1000
DSTYLE
1002
{
1070
    40
1040
1.3
1070
    45
1040
0.5
1070
   271
1070
     1
1070
   341
1005
0
1002
}
  0
LINE
  5
1AFB9
330
18
100
AcDbEntity
  8
01
  6
BYBLOCK
100
AcDbLine
 10
2316.237511370361
 20
-616.6246273511315
 30
0.0000000001127424
 11
2313.637511370361
 21
-615.9279594571315
 31
0.0000000001127424
  0
LINE
  5
1AFBA
330
18
100
AcDbEntity
  8
01
  6
BYBLOCK
100
AcDbLine
 10
2313.637511370361
 20
-615.9279594571315
 30
0.0000000001127424
 11
2316.237511370361
 21
-615.2312915631314
 31
0.0000000001127424
  0
LINE
  5
1AFBB
330
18
100
AcDbEntity
  8
01
  6
BYBLOCK
100
AcDbLine
 10
2313.637511370361
 20
-615.9279594571315
 30
0.0000000001127424
 11
2316.237511370361
 21
-615.9279594571315
 31
0.0000000001127424
  0
LINE
  5
1AFBC
330
18
100
AcDbEntity
  8
01
  6
BYBLOCK
100
AcDbLine
 10
2356.039893807384
 20
-615.2312915631314
 30
0.0000000001127424
 11
2358.639893807384
 21
-615.9279594571315
 31
0.0000000001127424
  0
LINE
  5
1AFBD
330
18
100
AcDbEntity
  8
01
  6
BYBLOCK
100
AcDbLine
 10
2358.639893807384
 20
-615.9279594571315
 30
0.0000000001127424
 11
2356.039893807384
 21
-616.6246273511315
 31
0.0000000001127424
  0
LINE
  5
1AFBE
330
18
100
AcDbEntity
  8
01
  6
BYBLOCK
100
AcDbLine
 10
2358.639893807384
 20
-615.9279594571315
 30
0.0000000001127424
 11
2356.039893807384
 21
-615.9279594571315
 31
0.0000000001127424
  0
TEXT
  5
1AFBF
330
18
100
AcDbEntity
  8
01
  6
CONTINUOUS
100
AcDbText
 10
2329.010369255539
 20
-615.0179594571315
 30
0.0000000001127424
 40
4.55
  1
φ45
100
AcDbText
1001
ACAD
1000
DSTYLE
1002
{
1070
     3
1000
φ<>
1070
    40
1040
1.3
1070
    45
1040
0.5
1070
   271
1070
     4
1070
   272
1070
     2
1002
}
  0
LINE
  5
1AFC0
330
18
100
AcDbEntity
  8
01
  6
BYBLOCK
100
AcDbLine
 10
2276.737503287679
 20
-570.2050641207335
 30
0.0000000001127424
 11
2274.137503287679
 21
-569.5083962267335
 31
0.0000000001127424
  0
LINE
  5
1AFC1
330
18
100
AcDbEntity
  8
01
  6
BYBLOCK
100
AcDbLine
 10
2274.137503287679
 20
-569.5083962267335
 30
0.0000000001127424
 11
2276.737503287679
 21
-568.8117283327334
 31
0.0000000001127424
  0
LINE
  5
1AFC2
330
18
100
AcDbEntity
  8
01
  6
BYBLOCK
100
AcDbLine
 10
2274.137503287679
 20
-569.5083962267335
 30
0.0000000001127424
 11
2276.737503287679
 21
-569.5083962267335
 31
0.0000000001127424
  0
LINE
  5
1AFC3
330
18
100
AcDbEntity
  8
01
  6
BYBLOCK
100
AcDbLine
 10
2282.53750328768
 20
-568.8117283327334
 30
0.0000000001127424
 11
2285.137503287679
 21
-569.5083962267335
 31
0.0000000001127424
  0
LINE
  5
1AFC4
330
18
100
AcDbEntity
  8
01
  6
BYBLOCK
100
AcDbLine
 10
2285.137503287679
 20
-569.5083962267335
 30
0.0000000001127424
 11
2282.53750328768
 21
-570.2050641207335
 31
0.0000000001127424
  0
LINE
  5
1AFC5
330
18
100
AcDbEntity
  8
01
  6
BYBLOCK
100
AcDbLine
 10
2285.137503287679
 20
-569.5083962267335
 30
0.0000000001127424
 11
2282.53750328768
 21
-569.5083962267335
 31
0.0000000001127424
  0
TEXT
  5
1AFC6
330
18
100
AcDbEntity
  8
01
  6
CONTINUOUS
100
AcDbText
 10
2277.362503287679
 20
-568.5983962267335
 30
0.0000000001127424
 40
4.55
  1
11
100
AcDbText
1001
ACAD
1000
DSTYLE
1002
{
1070
    40
1040
1.3
1070
    45
1040
0.5
1002
}
  0
LINE
  5
1AFC7
330
18
100
AcDbEntity
  8
01
  6
BYBLOCK
100
AcDbLine
 10
2380.44083539368
 20
-643.5298883114215
 30
0.0000000001127424
 11
2381.137503287679
 21
-640.9298883114215
 31
0.0000000001127424
  0
LINE
  5
1AFC8
330
18
100
AcDbEntity
  8
01
  6
BYBLOCK
100
AcDbLine
 10
2381.137503287679
 20
-640.9298883114215
 30
0.0000000001127424
 11
2381.834171181679
 21
-643.5298883114215
 31
0.0000000001127424
  0
LINE
  5
1AFC9
330
18
100
AcDbEntity
  8
01
  6
BYBLOCK
100
AcDbLine
 10
2381.137503287679
 20
-640.9298883114215
 30
0.0000000001127424
 11
2381.137503287679
 21
-643.5298883114215
 31
0.0000000001127424
  0
LINE
  5
1AFCA
330
18
100
AcDbEntity
  8
01
  6
BYBLOCK
100
AcDbLine
 10
2381.834171181679
 20
-712.329888311422
 30
0.0000000001127424
 11
2381.137503287679
 21
-714.929888311422
 31
0.0000000001127424
  0
LINE
  5
1AFCB
330
18
100
AcDbEntity
  8
01
  6
BYBLOCK
100
AcDbLine
 10
2381.137503287679
 20
-714.929888311422
 30
0.0000000001127424
 11
2380.44083539368
 21
-712.329888311422
 31
0.0000000001127424
  0
LINE
  5
1AFCC
330
18
100
AcDbEntity
  8
01
  6
BYBLOCK
100
AcDbLine
 10
2381.137503287679
 20
-714.929888311422
 30
0.0000000001127424
 11
2381.137503287679
 21
-712.329888311422
 31
0.0000000001127424
  0
TEXT
  5
1AFCD
330
18
100
AcDbEntity
  8
01
  6
CONTINUOUS
100
AcDbText
 10
2380.22750328768
 20
-659.9585442254029
 30
0.0000000001127424
 40
4.55
  1
74
 50
90.0
100
AcDbText
1001
ACAD
1000
DSTYLE
1002
{
1070
    40
1040
1.3
1070
    45
1040
0.5
1002
}
  0
LINE
  5
1AFCE
330
18
100
AcDbEntity
  8
01
  6
BYBLOCK
100
AcDbLine
 10
2351.53750328768
 20
-558.7318608646852
 30
0.0000000001127424
 11
2354.137503287679
 21
-559.4285287586853
 31
0.0000000001127424
  0
LINE
  5
1AFCF
330
18
100
AcDbEntity
  8
01
  6
BYBLOCK
100
AcDbLine
 10
2354.137503287679
 20
-559.4285287586853
 30
0.0000000001127424
 11
2351.53750328768
 21
-560.1251966526853
 31
0.0000000001127424
  0
LINE
  5
1AFD0
330
18
100
AcDbEntity
  8
01
  6
BYBLOCK
100
AcDbLine
 10
2354.137503287679
 20
-559.4285287586853
 30
0.0000000001127424
 11
2351.53750328768
 21
-559.4285287586853
 31
0.0000000001127424
  0
LINE
  5
1AFD1
330
18
100
AcDbEntity
  8
01
  6
BYBLOCK
100
AcDbLine
 10
2287.737503287679
 20
-560.1251966526853
 30
0.0000000001127424
 11
2285.137503287679
 21
-559.4285287586853
 31
0.0000000001127424
  0
LINE
  5
1AFD2
330
18
100
AcDbEntity
  8
01
  6
BYBLOCK
100
AcDbLine
 10
2285.137503287679
 20
-559.4285287586853
 30
0.0000000001127424
 11
2287.737503287679
 21
-558.7318608646852
 31
0.0000000001127424
  0
LINE
  5
1AFD3
330
18
100
AcDbEntity
  8
01
  6
BYBLOCK
100
AcDbLine
 10
2285.137503287679
 20
-559.4285287586853
 30
0.0000000001127424
 11
2287.737503287679
 21
-559.4285287586853
 31
0.0000000001127424
  0
TEXT
  5
1AFD4
330
18
100
AcDbEntity
  8
01
  6
CONTINUOUS
100
AcDbText
 10
2315.828984769161
 20
-558.5185287586853
 30
0.0000000001127424
 40
4.55
  1
69
100
AcDbText
1001
ACAD
1000
DSTYLE
1002
{
1070
    40
1040
1.3
1070
    45
1040
0.5
1002
}
  0
LINE
  5
1AFD5
330
18
100
AcDbEntity
  8
01
  6
BYBLOCK
100
AcDbLine
 10
2287.737503287679
 20
-570.2050641207335
 30
0.0000000001127424
 11
2285.137503287679
 21
-569.5083962267335
 31
0.0000000001127424
  0
LINE
  5
1AFD6
330
18
100
AcDbEntity
  8
01
  6
BYBLOCK
100
AcDbLine
 10
2285.137503287679
 20
-569.5083962267335
 30
0.0000000001127424
 11
2287.737503287679
 21
-568.8117283327334
 31
0.0000000001127424
  0
LINE
  5
1AFD7
330
18
100
AcDbEntity
  8
01
  6
BYBLOCK
100
AcDbLine
 10
2285.137503287679
 20
-569.5083962267335
 30
0.0000000001127424
 11
2287.737503287679
 21
-569.5083962267335
 31
0.0000000001127424
  0
LINE
  5
1AFD8
330
18
100
AcDbEntity
  8
01
  6
BYBLOCK
100
AcDbLine
 10
2333.53750328768
 20
-568.8117283327334
 30
0.0000000001127424
 11
2336.137503287679
 21
-569.5083962267335
 31
0.0000000001127424
  0
LINE
  5
1AFD9
330
18
100
AcDbEntity
  8
01
  6
BYBLOCK
100
AcDbLine
 10
2336.137503287679
 20
-569.5083962267335
 30
0.0000000001127424
 11
2333.53750328768
 21
-570.2050641207335
 31
0.0000000001127424
  0
LINE
  5
1AFDA
330
18
100
AcDbEntity
  8
01
  6
BYBLOCK
100
AcDbLine
 10
2336.137503287679
 20
-569.5083962267335
 30
0.0000000001127424
 11
2333.53750328768
 21
-569.5083962267335
 31
0.0000000001127424
  0
TEXT
  5
1AFDB
330
18
100
AcDbEntity
  8
01
  6
CONTINUOUS
100
AcDbText
 10
2307.588371343235
 20
-568.5983962267335
 30
0.0000000001127424
 40
4.55
  1
51
100
AcDbText
1001
ACAD
1000
DSTYLE
1002
{
1070
    40
1040
1.3
1070
    45
1040
0.5
1002
}
  0
LINE
  5
1AFDC
330
18
100
AcDbEntity
  8
01
  6
BYBLOCK
100
AcDbLine
 10
2156.237619627424
 20
-570.2050641207339
 30
0.0000000001127424
 11
2153.637619627424
 21
-569.5083962267339
 31
0.0000000001127424
  0
LINE
  5
1AFDD
330
18
100
AcDbEntity
  8
01
  6
BYBLOCK
100
AcDbLine
 10
2153.637619627424
 20
-569.5083962267339
 30
0.0000000001127424
 11
2156.237619627424
 21
-568.8117283327339
 31
0.0000000001127424
  0
LINE
  5
1AFDE
330
18
100
AcDbEntity
  8
01
  6
BYBLOCK
100
AcDbLine
 10
2153.637619627424
 20
-569.5083962267339
 30
0.0000000001127424
 11
2156.237619627424
 21
-569.5083962267339
 31
0.0000000001127424
  0
LINE
  5
1AFDF
330
18
100
AcDbEntity
  8
01
  6
BYBLOCK
100
AcDbLine
 10
2176.037619627424
 20
-568.8117283327339
 30
0.0000000001127424
 11
2178.637619627424
 21
-569.5083962267339
 31
0.0000000001127424
  0
LINE
  5
1AFE0
330
18
100
AcDbEntity
  8
01
  6
BYBLOCK
100
AcDbLine
 10
2178.637619627424
 20
-569.5083962267339
 30
0.0000000001127424
 11
2176.037619627424
 21
-570.2050641207339
 31
0.0000000001127424
  0
LINE
  5
1AFE1
330
18
100
AcDbEntity
  8
01
  6
BYBLOCK
100
AcDbLine
 10
2178.637619627424
 20
-569.5083962267339
 30
0.0000000001127424
 11
2176.037619627424
 21
-569.5083962267339
 31
0.0000000001127424
  0
TEXT
  5
1AFE2
330
18
100
AcDbEntity
  8
01
  6
CONTINUOUS
100
AcDbText
 10
2162.345952960758
 20
-568.5983962267339
 30
0.0000000001127424
 40
4.55
  1
25
100
AcDbText
1001
ACAD
1000
DSTYLE
1002
{
1070
    40
1040
1.3
1070
    45
1040
0.5
1002
}
  0
LINE
  5
1AFE3
330
18
100
AcDbEntity
  8
01
  6
BYBLOCK
100
AcDbLine
 10
2250.229022504867
 20
-623.5294431670059
 30
0.0000000001691137
 11
2250.925690398867
 21
-620.9294431670058
 31
0.0000000001691137
  0
LINE
  5
1AFE4
330
18
100
AcDbEntity
  8
01
  6
BYBLOCK
100
AcDbLine
 10
2250.925690398867
 20
-620.9294431670058
 30
0.0000000001691137
 11
2251.622358292867
 21
-623.5294431670059
 31
0.0000000001691137
  0
LINE
  5
1AFE5
330
18
100
AcDbEntity
  8
01
  6
BYBLOCK
100
AcDbLine
 10
2250.925690398867
 20
-620.9294431670058
 30
0.0000000001691137
 11
2250.925690398867
 21
-623.5294431670059
 31
0.0000000001691137
  0
LINE
  5
1AFE6
330
18
100
AcDbEntity
  8
01
  6
BYBLOCK
100
AcDbLine
 10
2251.622358292867
 20
-732.3294431670059
 30
0.0000000001691137
 11
2250.925690398867
 21
-734.929443167006
 31
0.0000000001691137
  0
LINE
  5
1AFE7
330
18
100
AcDbEntity
  8
01
  6
BYBLOCK
100
AcDbLine
 10
2250.925690398867
 20
-734.929443167006
 30
0.0000000001691137
 11
2250.229022504867
 21
-732.3294431670059
 31
0.0000000001691137
  0
LINE
  5
1AFE8
330
18
100
AcDbEntity
  8
01
  6
BYBLOCK
100
AcDbLine
 10
2250.925690398867
 20
-734.929443167006
 30
0.0000000001691137
 11
2250.925690398867
 21
-732.3294431670059
 31
0.0000000001691137
  0
TEXT
  5
1AFE9
330
18
100
AcDbEntity
  8
01
  6
CONTINUOUS
100
AcDbText
 10
2250.015690398867
 20
-653.3464208190844
 30
0.0000000001691137
 40
4.55
  1
114
 50
90.0
100
AcDbText
1001
ACAD
1000
DSTYLE
1002
{
1070
    40
1040
1.3
1070
    45
1040
0.5
1002
}
  0
LINE
  5
1AFEA
330
18
100
AcDbEntity
  8
01
  6
BYBLOCK
100
AcDbLine
 10
2259.593356671092
 20
-615.6298883114223
 30
0.0000000001691137
 11
2260.290024565092
 21
-613.0298883114223
 31
0.0000000001691137
  0
LINE
  5
1AFEB
330
18
100
AcDbEntity
  8
01
  6
BYBLOCK
100
AcDbLine
 10
2260.290024565092
 20
-613.0298883114223
 30
0.0000000001691137
 11
2260.986692459092
 21
-615.6298883114223
 31
0.0000000001691137
  0
LINE
  5
1AFEC
330
18
100
AcDbEntity
  8
01
  6
BYBLOCK
100
AcDbLine
 10
2260.290024565092
 20
-613.0298883114223
 30
0.0000000001691137
 11
2260.290024565092
 21
-615.6298883114223
 31
0.0000000001691137
  0
LINE
  5
1AFED
330
18
100
AcDbEntity
  8
01
  6
BYBLOCK
100
AcDbLine
 10
2260.986692459092
 20
-740.2294431670056
 30
0.0000000001691137
 11
2260.290024565092
 21
-742.8294431670056
 31
0.0000000001691137
  0
LINE
  5
1AFEE
330
18
100
AcDbEntity
  8
01
  6
BYBLOCK
100
AcDbLine
 10
2260.290024565092
 20
-742.8294431670056
 30
0.0000000001691137
 11
2259.593356671092
 21
-740.2294431670056
 31
0.0000000001691137
  0
LINE
  5
1AFEF
330
18
100
AcDbEntity
  8
01
  6
BYBLOCK
100
AcDbLine
 10
2260.290024565092
 20
-742.8294431670056
 30
0.0000000001691137
 11
2260.290024565092
 21
-740.2294431670056
 31
0.0000000001691137
  0
TEXT
  5
1AFF0
330
18
100
AcDbEntity
  8
01
  6
CONTINUOUS
100
AcDbText
 10
2259.380024565092
 20
-654.1309848218921
 30
0.0000000001691137
 40
4.55
  1
130
 50
90.0
100
AcDbText
1001
ACAD
1000
DSTYLE
1002
{
1070
    40
1040
1.3
1070
    45
1040
0.5
1002
}
  0
LINE
  5
1AFF1
330
18
100
AcDbEntity
  8
01
  6
BYBLOCK
100
AcDbLine
 10
2300.44083539368
 20
-673.0298883114192
 30
0.0000000001127424
 11
2301.137503287679
 21
-670.4298883114192
 31
0.0000000001127424
  0
LINE
  5
1AFF2
330
18
100
AcDbEntity
  8
01
  6
BYBLOCK
100
AcDbLine
 10
2301.137503287679
 20
-670.4298883114192
 30
0.0000000001127424
 11
2301.834171181679
 21
-673.0298883114192
 31
0.0000000001127424
  0
LINE
  5
1AFF3
330
18
100
AcDbEntity
  8
01
  6
BYBLOCK
100
AcDbLine
 10
2301.137503287679
 20
-670.4298883114192
 30
0.0000000001127424
 11
2301.137503287679
 21
-673.0298883114192
 31
0.0000000001127424
  0
LINE
  5
1AFF4
330
18
100
AcDbEntity
  8
01
  6
BYBLOCK
100
AcDbLine
 10
2301.834171181679
 20
-724.8298883113977
 30
0.0000000001127424
 11
2301.137503287679
 21
-727.4298883113977
 31
0.0000000001127424
  0
LINE
  5
1AFF5
330
18
100
AcDbEntity
  8
01
  6
BYBLOCK
100
AcDbLine
 10
2301.137503287679
 20
-727.4298883113977
 30
0.0000000001127424
 11
2300.44083539368
 21
-724.8298883113977
 31
0.0000000001127424
  0
LINE
  5
1AFF6
330
18
100
AcDbEntity
  8
01
  6
BYBLOCK
100
AcDbLine
 10
2301.137503287679
 20
-727.4298883113977
 30
0.0000000001127424
 11
2301.137503287679
 21
-724.8298883113977
 31
0.0000000001127424
  0
TEXT
  5
1AFF7
330
18
100
AcDbEntity
  8
01
  6
CONTINUOUS
100
AcDbText
 10
2300.22750328768
 20
-707.4137662180206
 30
0.0000000001127424
 40
4.55
  1
φ57
 50
90.0
100
AcDbText
1001
ACAD
1000
DSTYLE
1002
{
1070
     3
1000
φ<>
1070
    40
1040
1.3
1070
    45
1040
0.5
1002
}
  0
SOLID
  5
1AFF8
330
18
100
AcDbEntity
  8
1DIM
100
AcDbTrace
 10
2333.507352642425
 20
-474.9806453663653
 30
0.0000000001127424
 11
2335.87810452774
 21
-473.828554538325
 31
0.0000000001127424
 12
2334.009152472348
 22
-475.6872626898165
 32
0.0000000001127424
 13
2334.009152472348
 23
-475.6872626898165
 33
0.0000000001127424
1001
ACAD
1000
DSTYLE
1002
{
1070
    40
1040
1.3
1070
    45
1040
0.5
1002
}
  0
LINE
  5
1AFF9
330
18
100
AcDbEntity
  8
1DIM
100
AcDbLine
 10
2333.758252557386
 20
-475.3339540280909
 30
0.0000000001127424
 11
2306.290664380697
 21
-494.8398883124501
 31
0.0000000001127424
1001
ACAD
1000
DSTYLE
1002
{
1070
    40
1040
1.3
1070
    45
1040
0.5
1002
}
  0
LINE
  5
1AFFA
330
18
100
AcDbEntity
  8
1DIM
100
AcDbLine
 10
2352.538387469739
 20
-419.4298883124501
 30
0.0000000001127424
 11
2373.098778229452
 21
-419.4298883124501
 31
0.0000000001127424
1001
ACAD
1000
DSTYLE
1002
{
1070
    45
1040
0.5
1070
    40
1040
1.3
1002
}
  0
LINE
  5
1AFFB
330
18
100
AcDbEntity
  8
1DIM
100
AcDbLine
 10
2354.138387469739
 20
-438.2298883124503
 30
0.0000000001127424
 11
2373.098778229452
 21
-438.2298883124503
 31
0.0000000001127424
1001
ACAD
1000
DSTYLE
1002
{
1070
    45
1040
0.5
1070
    40
1040
1.3
1002
}
  0
LINE
  5
1AFFC
330
18
100
AcDbEntity
  8
1DIM
100
AcDbLine
 10
2371.798778229452
 20
-422.0298883124501
 30
0.0000000001127424
 11
2371.798778229452
 21
-435.6298883124502
 31
0.0000000001127424
1001
ACAD
1000
DSTYLE
1002
{
1070
    45
1040
0.5
1070
    40
1040
1.3
1002
}
  0
LINE
  5
1B000
330
18
100
AcDbEntity
  8
1DIM
100
AcDbLine
 10
2336.137619627422
 20
-470.4298883124501
 30
0.0000000001127424
 11
2336.137619627422
 21
-535.22988831245
 31
0.0000000001127424
1001
ACAD
1000
DSTYLE
1002
{
1070
    40
1040
1.3
1070
    45
1040
0.5
1002
}
  0
LINE
  5
1B001
330
18
100
AcDbEntity
  8
1DIM
100
AcDbLine
 10
2451.137619627422
 20
-507.9298883124501
 30
0.0000000001127424
 11
2451.137619627422
 21
-535.22988831245
 31
0.0000000001127424
1001
ACAD
1000
DSTYLE
1002
{
1070
    40
1040
1.3
1070
    45
1040
0.5
1002
}
  0
LINE
  5
1B002
330
18
100
AcDbEntity
  8
1DIM
100
AcDbLine
 10
2338.737619627422
 20
-533.9298883124501
 30
0.0000000001127424
 11
2448.537619627422
 21
-533.9298883124501
 31
0.0000000001127424
1001
ACAD
1000
DSTYLE
1002
{
1070
    40
1040
1.3
1070
    45
1040
0.5
1002
}
  0
LINE
  5
1B006
330
18
100
AcDbEntity
  8
1DIM
100
AcDbLine
 10
2324.137621627521
 20
-457.9298883124501
 30
0.0000000001127424
 11
2324.137621627521
 21
-545.22988831245
 31
0.0000000001127424
1001
ACAD
1000
DSTYLE
1002
{
1070
    40
1040
1.3
1070
    45
1040
0.5
1002
}
  0
LINE
  5
1B007
330
18
100
AcDbEntity
  8
1DIM
100
AcDbLine
 10
2451.137619627422
 20
-507.9298883124501
 30
0.0000000001127424
 11
2451.137619627422
 21
-545.22988831245
 31
0.0000000001127424
1001
ACAD
1000
DSTYLE
1002
{
1070
    40
1040
1.3
1070
    45
1040
0.5
1002
}
  0
LINE
  5
1B008
330
18
100
AcDbEntity
  8
1DIM
100
AcDbLine
 10
2326.737621627521
 20
-543.9298883124501
 30
0.0000000001127424
 11
2448.537619627422
 21
-543.9298883124501
 31
0.0000000001127424
1001
ACAD
1000
DSTYLE
1002
{
1070
    40
1040
1.3
1070
    45
1040
0.5
1002
}
  0
LINE
  5
1B00C
330
18
100
AcDbEntity
  8
1DIM
100
AcDbLine
 10
2437.731842803664
 20
-492.9298703384651
 30
0.0000000001127424
 11
2492.437619627422
 21
-492.9298703384651
 31
0.0000000001127424
1001
ACAD
1000
DSTYLE
1002
{
1070
    40
1040
1.3
1070
    45
1040
0.5
1002
}
  0
LINE
  5
1B00D
330
18
100
AcDbEntity
  8
1DIM
100
AcDbLine
 10
2438.89276762477
 20
-448.9298883124501
 30
0.0000000001127424
 11
2492.437619627422
 21
-448.9298883124501
 31
0.0000000001127424
1001
ACAD
1000
DSTYLE
1002
{
1070
    40
1040
1.3
1070
    45
1040
0.5
1002
}
  0
LINE
  5
1B00E
330
18
100
AcDbEntity
  8
1DIM
100
AcDbLine
 10
2491.137619627422
 20
-490.3298703384651
 30
0.0000000001127424
 11
2491.137619627422
 21
-451.5298883124501
 31
0.0000000001127424
1001
ACAD
1000
DSTYLE
1002
{
1070
    40
1040
1.3
1070
    45
1040
0.5
1002
}
  0
LINE
  5
1B012
330
18
100
AcDbEntity
  8
1DIM
100
AcDbLine
 10
2437.843783959533
 20
-522.9297401677198
 30
0.0000000001127424
 11
2502.437619627422
 21
-522.9297401677198
 31
0.0000000001127424
1001
ACAD
1000
DSTYLE
1002
{
1070
    40
1040
1.3
1070
    45
1040
0.5
1002
}
  0
LINE
  5
1B013
330
18
100
AcDbEntity
  8
1DIM
100
AcDbLine
 10
2438.89276762477
 20
-448.9298883124501
 30
0.0000000001127424
 11
2502.437619627422
 21
-448.9298883124501
 31
0.0000000001127424
1001
ACAD
1000
DSTYLE
1002
{
1070
    40
1040
1.3
1070
    45
1040
0.5
1002
}
  0
LINE
  5
1B014
330
18
100
AcDbEntity
  8
1DIM
100
AcDbLine
 10
2501.137619627422
 20
-520.3297401677198
 30
0.0000000001127424
 11
2501.137619627422
 21
-451.5298883124501
 31
0.0000000001127424
1001
ACAD
1000
DSTYLE
1002
{
1070
    40
1040
1.3
1070
    45
1040
0.5
1002
}
  0
LINE
  5
1B018
330
18
100
AcDbEntity
  8
1DIM
100
AcDbLine
 10
2411.137503287679
 20
-701.9299013114212
 30
0.0000000001127424
 11
2492.43750328768
 21
-701.9299013114212
 31
0.0000000001127424
1001
ACAD
1000
DSTYLE
1002
{
1070
    40
1040
1.3
1070
    45
1040
0.5
1002
}
  0
LINE
  5
1B019
330
18
100
AcDbEntity
  8
1DIM
100
AcDbLine
 10
2450.137503287679
 20
-687.9298883114216
 30
0.0000000001127424
 11
2492.43750328768
 21
-687.9298883114216
 31
0.0000000001127424
1001
ACAD
1000
DSTYLE
1002
{
1070
    40
1040
1.3
1070
    45
1040
0.5
1002
}
  0
LINE
  5
1B01A
330
18
100
AcDbEntity
  8
1DIM
100
AcDbLine
 10
2491.137503287679
 20
-699.3299013114212
 30
0.0000000001127424
 11
2491.137503287679
 21
-690.5298883114216
 31
0.0000000001127424
1001
ACAD
1000
DSTYLE
1002
{
1070
    40
1040
1.3
1070
    45
1040
0.5
1002
}
  0
LINE
  5
1B01E
330
18
100
AcDbEntity
  8
0
  6
BYBLOCK
100
AcDbLine
 10
2371.102110335452
 20
-422.0298883124501
 30
0.0000000001127424
 11
2371.798778229452
 21
-419.4298883124501
 31
0.0000000001127424
  0
LINE
  5
1B01F
330
18
100
AcDbEntity
  8
0
  6
BYBLOCK
100
AcDbLine
 10
2371.798778229452
 20
-419.4298883124501
 30
0.0000000001127424
 11
2372.495446123452
 21
-422.0298883124501
 31
0.0000000001127424
  0
LINE
  5
1B020
330
18
100
AcDbEntity
  8
0
  6
BYBLOCK
100
AcDbLine
 10
2371.798778229452
 20
-419.4298883124501
 30
0.0000000001127424
 11
2371.798778229452
 21
-422.0298883124501
 31
0.0000000001127424
  0
LINE
  5
1B021
330
18
100
AcDbEntity
  8
0
  6
BYBLOCK
100
AcDbLine
 10
2372.495446123452
 20
-435.6298883124502
 30
0.0000000001127424
 11
2371.798778229452
 21
-438.2298883124503
 31
0.0000000001127424
  0
LINE
  5
1B022
330
18
100
AcDbEntity
  8
0
  6
BYBLOCK
100
AcDbLine
 10
2371.798778229452
 20
-438.2298883124503
 30
0.0000000001127424
 11
2371.102110335452
 21
-435.6298883124502
 31
0.0000000001127424
  0
LINE
  5
1B023
330
18
100
AcDbEntity
  8
0
  6
BYBLOCK
100
AcDbLine
 10
2371.798778229452
 20
-438.2298883124503
 30
0.0000000001127424
 11
2371.798778229452
 21
-435.6298883124502
 31
0.0000000001127424
  0
TEXT
  5
1B024
330
18
100
AcDbEntity
  8
1DIM
  6
CONTINUOUS
100
AcDbText
 10
2370.888778229452
 20
-431.8642748865245
 30
0.0000000001127424
 40
4.55
  1
19
 50
90.0
100
AcDbText
1001
ACAD
1000
DSTYLE
1002
{
1070
    45
1040
0.5
1070
    40
1040
1.3
1002
}
  0
LINE
  5
1B025
330
18
100
AcDbEntity
  8
0
  6
BYBLOCK
100
AcDbLine
 10
2338.737619627422
 20
-534.6265562064501
 30
0.0000000001127424
 11
2336.137619627422
 21
-533.9298883124501
 31
0.0000000001127424
  0
LINE
  5
1B026
330
18
100
AcDbEntity
  8
0
  6
BYBLOCK
100
AcDbLine
 10
2336.137619627422
 20
-533.9298883124501
 30
0.0000000001127424
 11
2338.737619627422
 21
-533.2332204184501
 31
0.0000000001127424
  0
LINE
  5
1B027
330
18
100
AcDbEntity
  8
0
  6
BYBLOCK
100
AcDbLine
 10
2336.137619627422
 20
-533.9298883124501
 30
0.0000000001127424
 11
2338.737619627422
 21
-533.9298883124501
 31
0.0000000001127424
  0
LINE
  5
1B028
330
18
100
AcDbEntity
  8
0
  6
BYBLOCK
100
AcDbLine
 10
2448.537619627422
 20
-533.2332204184501
 30
0.0000000001127424
 11
2451.137619627422
 21
-533.9298883124501
 31
0.0000000001127424
  0
LINE
  5
1B029
330
18
100
AcDbEntity
  8
0
  6
BYBLOCK
100
AcDbLine
 10
2451.137619627422
 20
-533.9298883124501
 30
0.0000000001127424
 11
2448.537619627422
 21
-534.6265562064501
 31
0.0000000001127424
  0
LINE
  5
1B02A
330
18
100
AcDbEntity
  8
0
  6
BYBLOCK
100
AcDbLine
 10
2451.137619627422
 20
-533.9298883124501
 30
0.0000000001127424
 11
2448.537619627422
 21
-533.9298883124501
 31
0.0000000001127424
  0
TEXT
  5
1B02B
330
18
100
AcDbEntity
  8
1DIM
  6
CONTINUOUS
100
AcDbText
 10
2389.087619627422
 20
-533.0198883124501
 30
0.0000000001127424
 40
4.55
  1
115
100
AcDbText
1001
ACAD
1000
DSTYLE
1002
{
1070
    40
1040
1.3
1070
    45
1040
0.5
1002
}
  0
LINE
  5
1B02C
330
18
100
AcDbEntity
  8
0
  6
BYBLOCK
100
AcDbLine
 10
2326.737621627521
 20
-544.6265562064501
 30
0.0000000001127424
 11
2324.137621627521
 21
-543.9298883124501
 31
0.0000000001127424
  0
LINE
  5
1B02D
330
18
100
AcDbEntity
  8
0
  6
BYBLOCK
100
AcDbLine
 10
2324.137621627521
 20
-543.9298883124501
 30
0.0000000001127424
 11
2326.737621627521
 21
-543.2332204184501
 31
0.0000000001127424
  0
LINE
  5
1B02E
330
18
100
AcDbEntity
  8
0
  6
BYBLOCK
100
AcDbLine
 10
2324.137621627521
 20
-543.9298883124501
 30
0.0000000001127424
 11
2326.737621627521
 21
-543.9298883124501
 31
0.0000000001127424
  0
LINE
  5
1B02F
330
18
100
AcDbEntity
  8
0
  6
BYBLOCK
100
AcDbLine
 10
2448.537619627422
 20
-543.2332204184501
 30
0.0000000001127424
 11
2451.137619627422
 21
-543.9298883124501
 31
0.0000000001127424
  0
LINE
  5
1B030
330
18
100
AcDbEntity
  8
0
  6
BYBLOCK
100
AcDbLine
 10
2451.137619627422
 20
-543.9298883124501
 30
0.0000000001127424
 11
2448.537619627422
 21
-544.6265562064501
 31
0.0000000001127424
  0
LINE
  5
1B031
330
18
100
AcDbEntity
  8
0
  6
BYBLOCK
100
AcDbLine
 10
2451.137619627422
 20
-543.9298883124501
 30
0.0000000001127424
 11
2448.537619627422
 21
-543.9298883124501
 31
0.0000000001127424
  0
TEXT
  5
1B032
330
18
100
AcDbEntity
  8
1DIM
  6
CONTINUOUS
100
AcDbText
 10
2382.329287294138
 20
-543.0198883124501
 30
0.0000000001127424
 40
4.55
  1
127
100
AcDbText
1001
ACAD
1000
DSTYLE
1002
{
1070
    40
1040
1.3
1070
    45
1040
0.5
1002
}
  0
LINE
  5
1B033
330
18
100
AcDbEntity
  8
0
  6
BYBLOCK
100
AcDbLine
 10
2491.834287521422
 20
-490.3298703384651
 30
0.0000000001127424
 11
2491.137619627422
 21
-492.9298703384651
 31
0.0000000001127424
  0
LINE
  5
1B034
330
18
100
AcDbEntity
  8
0
  6
BYBLOCK
100
AcDbLine
 10
2491.137619627422
 20
-492.9298703384651
 30
0.0000000001127424
 11
2490.440951733422
 21
-490.3298703384651
 31
0.0000000001127424
  0
LINE
  5
1B035
330
18
100
AcDbEntity
  8
0
  6
BYBLOCK
100
AcDbLine
 10
2491.137619627422
 20
-492.9298703384651
 30
0.0000000001127424
 11
2491.137619627422
 21
-490.3298703384651
 31
0.0000000001127424
  0
LINE
  5
1B036
330
18
100
AcDbEntity
  8
0
  6
BYBLOCK
100
AcDbLine
 10
2490.440951733422
 20
-451.5298883124501
 30
0.0000000001127424
 11
2491.137619627422
 21
-448.9298883124501
 31
0.0000000001127424
  0
LINE
  5
1B037
330
18
100
AcDbEntity
  8
0
  6
BYBLOCK
100
AcDbLine
 10
2491.137619627422
 20
-448.9298883124501
 30
0.0000000001127424
 11
2491.834287521422
 21
-451.5298883124501
 31
0.0000000001127424
  0
LINE
  5
1B038
330
18
100
AcDbEntity
  8
0
  6
BYBLOCK
100
AcDbLine
 10
2491.137619627422
 20
-448.9298883124501
 30
0.0000000001127424
 11
2491.137619627422
 21
-451.5298883124501
 31
0.0000000001127424
  0
TEXT
  5
1B039
330
18
100
AcDbEntity
  8
1DIM
  6
CONTINUOUS
100
AcDbText
 10
2490.227619627422
 20
-474.721545992124
 30
0.0000000001127424
 40
4.55
  1
44
 50
90.0
100
AcDbText
1001
ACAD
1000
DSTYLE
1002
{
1070
    40
1040
1.3
1070
    45
1040
0.5
1002
}
  0
LINE
  5
1B03A
330
18
100
AcDbEntity
  8
0
  6
BYBLOCK
100
AcDbLine
 10
2501.834287521422
 20
-520.3297401677198
 30
0.0000000001127424
 11
2501.137619627422
 21
-522.9297401677198
 31
0.0000000001127424
  0
LINE
  5
1B03B
330
18
100
AcDbEntity
  8
0
  6
BYBLOCK
100
AcDbLine
 10
2501.137619627422
 20
-522.9297401677198
 30
0.0000000001127424
 11
2500.440951733422
 21
-520.3297401677198
 31
0.0000000001127424
  0
LINE
  5
1B03C
330
18
100
AcDbEntity
  8
0
  6
BYBLOCK
100
AcDbLine
 10
2501.137619627422
 20
-522.9297401677198
 30
0.0000000001127424
 11
2501.137619627422
 21
-520.3297401677198
 31
0.0000000001127424
  0
LINE
  5
1B03D
330
18
100
AcDbEntity
  8
0
  6
BYBLOCK
100
AcDbLine
 10
2500.440951733422
 20
-451.5298883124501
 30
0.0000000001127424
 11
2501.137619627422
 21
-448.9298883124501
 31
0.0000000001127424
  0
LINE
  5
1B03E
330
18
100
AcDbEntity
  8
0
  6
BYBLOCK
100
AcDbLine
 10
2501.137619627422
 20
-448.9298883124501
 30
0.0000000001127424
 11
2501.834287521422
 21
-451.5298883124501
 31
0.0000000001127424
  0
LINE
  5
1B03F
330
18
100
AcDbEntity
  8
0
  6
BYBLOCK
100
AcDbLine
 10
2501.137619627422
 20
-448.9298883124501
 30
0.0000000001127424
 11
2501.137619627422
 21
-451.5298883124501
 31
0.0000000001127424
  0
TEXT
  5
1B040
330
18
100
AcDbEntity
  8
1DIM
  6
CONTINUOUS
100
AcDbText
 10
2500.227619627422
 20
-489.7214809067514
 30
0.0000000001127424
 40
4.55
  1
74
 50
90.0
100
AcDbText
1001
ACAD
1000
DSTYLE
1002
{
1070
    40
1040
1.3
1070
    45
1040
0.5
1002
}
  0
LINE
  5
1B041
330
18
100
AcDbEntity
  8
0
  6
BYBLOCK
100
AcDbLine
 10
2491.834171181679
 20
-699.3299013114212
 30
0.0000000001127424
 11
2491.137503287679
 21
-701.9299013114212
 31
0.0000000001127424
  0
LINE
  5
1B042
330
18
100
AcDbEntity
  8
0
  6
BYBLOCK
100
AcDbLine
 10
2491.137503287679
 20
-701.9299013114212
 30
0.0000000001127424
 11
2490.44083539368
 21
-699.3299013114212
 31
0.0000000001127424
  0
LINE
  5
1B043
330
18
100
AcDbEntity
  8
0
  6
BYBLOCK
100
AcDbLine
 10
2491.137503287679
 20
-701.9299013114212
 30
0.0000000001127424
 11
2491.137503287679
 21
-699.3299013114212
 31
0.0000000001127424
  0
LINE
  5
1B044
330
18
100
AcDbEntity
  8
0
  6
BYBLOCK
100
AcDbLine
 10
2490.44083539368
 20
-690.5298883114216
 30
0.0000000001127424
 11
2491.137503287679
 21
-687.9298883114216
 31
0.0000000001127424
  0
LINE
  5
1B045
330
18
100
AcDbEntity
  8
0
  6
BYBLOCK
100
AcDbLine
 10
2491.137503287679
 20
-687.9298883114216
 30
0.0000000001127424
 11
2491.834171181679
 21
-690.5298883114216
 31
0.0000000001127424
  0
LINE
  5
1B046
330
18
100
AcDbEntity
  8
0
  6
BYBLOCK
100
AcDbLine
 10
2491.137503287679
 20
-687.9298883114216
 30
0.0000000001127424
 11
2491.137503287679
 21
-690.5298883114216
 31
0.0000000001127424
  0
TEXT
  5
1B047
330
18
100
AcDbEntity
  8
1DIM
  6
CONTINUOUS
100
AcDbText
 10
2490.22750328768
 20
-697.9632281447548
 30
0.0000000001127424
 40
4.55
  1
14
 50
90.0
100
AcDbText
1001
ACAD
1000
DSTYLE
1002
{
1070
    40
1040
1.3
1070
    45
1040
0.5
1002
}
  0
VIEWPORT
  5
57
330
15
100
AcDbEntity
 67
     1
  8
0
100
AcDbViewport
 68
     1
 10
0.0
 20
0.0
 30
0.0
 40
663.4332925336597
 41
297.0
 68
     1
 69
     1
1001
ACAD
1000
MVIEW
1002
{
1070
    16
1010
0.0
1020
0.0
1030
0.0
1010
0.0
1020
0.0
1030
1.0
1040
0.0
1040
297.0
1040
5.728000000000009
1040
25.33899999999998
1040
50.0
1040
0.0
1040
0.0
1070
    16
1070
   100
1070
     0
1070
     1
1070
     0
1070
     0
1070
     0
1070
     0
1040
0.0
1040
0.0
1040
0.0
1040
10.0
1040
10.0
1040
10.0
1040
10.0
1070
     0
1002
{
1002
}
1002
}
  0
ENDSEC
  0
SECTION
  2
OBJECTS
  0
DICTIONARY
  5
C
330
0
100
AcDbDictionary
  3
ACAD_COLOR
350
18D
  3
ACAD_GROUP
350
D
  3
ACAD_LAYOUT
350
18E
  3
ACAD_MATERIAL
350
18C
  3
ACAD_MLEADERSTYLE
350
D9E7
  3
ACAD_MLINESTYLE
350
1B
  3
ACAD_PLOTSETTINGS
350
18F
  3
ACAD_SCALELIST
350
D9C5
  3
ACAD_VISUALSTYLE
350
D9B4
  3
ACDBHEADERROUNDTRIPXREC
350
1B048
  3
ACDBVARIABLEDICTIONARY
350
37
  3
CONTENTDICTIONARY
350
D8
  3
DRAWINGVARIABLESDICT
350
20
  3
DWGPROPS
350
1B04B
1001
ACAD
1000
TREAT_AS_HARD
1070
     0
  0
DICTIONARY
  5
E6A6
330
2
100
AcDbDictionary
  3
ACAD_LAYERSTATES
360
E6A7
1001
ACAD
1000
TREAT_AS_HARD
1070
     1
  0
DICTIONARY
  5
DA05
330
E
100
AcDbDictionary
  3
ADSK_XREC_LAYER_RECONCILED
360
DA06
1001
ACAD
1000
TREAT_AS_HARD
1070
     1
  0
DICTIONARY
  5
DA07
330
29
100
AcDbDictionary
  3
ADSK_XREC_LAYER_RECONCILED
360
DA08
1001
ACAD
1000
TREAT_AS_HARD
1070
     1
  0
DICTIONARY
  5
DA09
330
31
100
AcDbDictionary
  3
ADSK_XREC_LAYER_RECONCILED
360
DA0A
1001
ACAD
1000
TREAT_AS_HARD
1070
     1
  0
DICTIONARY
  5
DA0F
330
243
100
AcDbDictionary
  3
ADSK_XREC_LAYER_RECONCILED
360
DA10
1001
ACAD
1000
TREAT_AS_HARD
1070
     1
  0
DICTIONARY
  5
DA15
330
24E
100
AcDbDictionary
  3
ADSK_XREC_LAYER_RECONCILED
360
DA16
1001
ACAD
1000
TREAT_AS_HARD
1070
     1
  0
DICTIONARY
  5
88F
330
18
100
AcDbDictionary
  3
ACAD_SORTENTS
360
890
1001
ACAD
1000
TREAT_AS_HARD
1070
     1
  0
DICTIONARY
  5
18D
102
{ACAD_REACTORS
330
C
102
}
330
C
100
AcDbDictionary
1001
ACAD
1000
TREAT_AS_HARD
1070
     0
  0
DICTIONARY
  5
D
102
{ACAD_REACTORS
330
C
102
}
330
C
100
AcDbDictionary
1001
ACAD
1000
TREAT_AS_HARD
1070
     0
  0
DICTIONARY
  5
18E
102
{ACAD_REACTORS
330
C
102
}
330
C
100
AcDbDictionary
1001
ACAD
1000
TREAT_AS_HARD
1070
     0
  0
DICTIONARY
  5
18C
102
{ACAD_REACTORS
330
C
102
}
330
C
100
AcDbDictionary
  3
BYBLOCK
350
D9A4
  3
BYLAYER
350
D99C
  3
GLOBAL
350
D9AC
1001
ACAD
1000
TREAT_AS_HARD
1070
     0
  0
DICTIONARY
  5
D9E7
102
{ACAD_REACTORS
330
C
102
}
330
C
100
AcDbDictionary
  3
STANDARD
350
D9E8
1001
ACAD
1000
TREAT_AS_HARD
1070
     0
  0
DICTIONARY
  5
1B
102
{ACAD_REACTORS
330
C
102
}
330
C
100
AcDbDictionary
  3
STANDARD
350
1C
1001
ACAD
1000
TREAT_AS_HARD
1070
     0
  0
DICTIONARY
  5
18F
102
{ACAD_REACTORS
330
C
102
}
330
C
100
AcDbDictionary
1001
ACAD
1000
TREAT_AS_HARD
1070
     0
  0
DICTIONARY
  5
D9C5
102
{ACAD_REACTORS
330
C
102
}
330
C
100
AcDbDictionary
  3
A0
350
D9C6
  3
A1
350
D9C7
  3
A2
350
D9C8
  3
A3
350
D9C9
  3
A4
350
D9CA
  3
A5
350
D9CB
  3
A6
350
D9CC
  3
A7
350
D9CD
  3
A8
350
D9CE
  3
A9
350
D9CF
  3
B0
350
D9D0
  3
B1
350
D9D1
  3
B2
350
D9D2
  3
B3
350
D9D3
  3
B4
350
D9D4
  3
B5
350
D9D5
  3
B6
350
D9D6
  3
B7
350
D9D7
  3
B8
350
D9D8
  3
B9
350
D9D9
  3
C0
350
D9DA
  3
C1
350
D9DB
  3
C2
350
D9DC
  3
C3
350
D9DD
  3
C4
350
D9DE
  3
C5
350
D9DF
  3
C6
350
D9E0
  3
C7
350
D9E1
  3
C8
350
D9E2
  3
C9
350
D9E3
  3
D0
350
D9E4
  3
D1
350
D9E5
  3
D2
350
D9E6
1001
ACAD
1000
TREAT_AS_HARD
1070
     0
  0
DICTIONARY
  5
D9B4
102
{ACAD_REACTORS
330
C
102
}
330
C
100
AcDbDictionary
  3
2DWIREFRAME
350
D9BA
  3
3D_HIDDEN
350
D9BC
  3
3DWIREFRAME
350
D9BB
  3
BASIC
350
D9B9
  3
BRIGHTEN
350
D9C0
  3
COLORCHANGE
350
D9C4
  3
CONCEPTUAL
350
D9BD
  3
DIM
350
D9BF
  3
EDGECOLOROFF
350
19C2F
  3
FACEPATTERN
350
D9C3
  3
FLAT
350
D9B5
  3
FLATWITHEDGES
350
D9B6
  3
GOURAUD
350
D9B7
  3
GOURAUDWITHEDGES
350
D9B8
  3
HIDDEN
350
19C7E
  3
JITTEROFF
350
19C2D
  3
LINEPATTERN
350
D9C2
  3
MODELING
350
19C84
  3
OVERHANGOFF
350
19C2E
  3
REALISTIC
350
D9BE
  3
SHADED
350
19C83
  3
SHADED_WITH_EDGES
350
19C82
  3
SHADES_OF_GRAY
350
19C7F
  3
SKETCHY
350
19C80
  3
THICKEN
350
D9C1
  3
WIREFRAME
350
19C7D
  3
X-RAY
350
19C81
1001
ACAD
1000
TREAT_AS_HARD
1070
     0
  0
DICTIONARY
  5
1B048
102
{ACAD_REACTORS
330
C
102
}
330
C
100
AcDbDictionary
  3
COLORDICT
350
1B049
  3
MATERIALDICT
350
1B04A
1001
ACAD
1000
TREAT_AS_HARD
1070
     0
  0
DICTIONARY
  5
37
102
{ACAD_REACTORS
330
C
102
}
330
C
100
AcDbDictionary
  3
CANNOSCALE
350
1A4C6
  3
CMLEADERSTYLE
350
DA6A
  3
CTABLESTYLE
350
29E
  3
DIMADEC
350
38
  3
DIMASSOC
350
1CE
  3
HIDETEXT
350
704E
  3
INDEXCTL
350
DA6D
  3
INTERSECTIONCOLOR
350
7052
  3
INTERSECTIONDISPLAY
350
7051
  3
MSLTSCALE
350
1A516
  3
OBSCOLOR
350
704F
  3
OBSLTYPE
350
7050
  3
PROJECTNAME
350
1CF
  3
SORTENTS
350
DA6C
  3
XCLIPFRAME
350
19C7C
1001
ACAD
1000
TREAT_AS_HARD
1070
     0
  0
DICTIONARY
  5
D8
102
{ACAD_REACTORS
330
C
102
}
330
C
100
AcDbDictionary
1001
ACAD
1000
TREAT_AS_HARD
1070
     0
  0
DICTIONARY
  5
20
102
{ACAD_REACTORS
330
C
102
}
330
C
100
AcDbDictionary
1001
DRAWINGVARIABLESXDATA
1000
POLARANG
1000
0.261799387799149410000000
1000
POLARMODE
1000
1
1000
POLARSTYLE
1000
1
1001
ACAD
1000
TREAT_AS_HARD
1070
     0
  0
XRECORD
  5
1B04B
102
{ACAD_REACTORS
330
C
102
}
330
C
100
AcDbXrecord
  1
DWGPROPS COOKIE
  2

  3

  4

  6

  7

  8
3684
  9

300
=
301
=
302
=
303
=
304
=
305
=
306
=
307
=
308
=
309
=
 40
0.0
 41
2451318.246352917
 42
2458150.263200035
  1

 90
        0
  0
DICTIONARY
  5
E6A7
102
{ACAD_REACTORS
330
E6A6
102
}
330
E6A6
100
AcDbDictionary
1001
ACAD
1000
TREAT_AS_HARD
1070
     0
  0
ACAD_PROXY_OBJECT
  5
DA06
102
{ACAD_REACTORS
330
DA05
102
}
330
DA05
100
AcDbZombieObject
 90
      499
 91
      514
 93
       34
310
40C8804040
  0
ACAD_PROXY_OBJECT
  5
DA08
102
{ACAD_REACTORS
330
DA07
102
}
330
DA07
100
AcDbZombieObject
 90
      499
 91
      514
 93
       34
310
40C8804040
  0
ACAD_PROXY_OBJECT
  5
DA0A
102
{ACAD_REACTORS
330
DA09
102
}
330
DA09
100
AcDbZombieObject
 90
      499
 91
      514
 93
       34
310
40C8804040
  0
ACAD_PROXY_OBJECT
  5
DA10
102
{ACAD_REACTORS
330
DA0F
102
}
330
DA0F
100
AcDbZombieObject
 90
      499
 91
      514
 93
       34
310
40C8804040
  0
ACAD_PROXY_OBJECT
  5
DA16
102
{ACAD_REACTORS
330
DA15
102
}
330
DA15
100
AcDbZombieObject
 90
      499
 91
      514
 93
       34
310
40C8804040
  0
SORTENTSTABLE
  5
890
102
{ACAD_REACTORS
330
88F
102
}
330
88F
100
AcDbSortentsTable
330
18
331
0
  5
5BFF
331
1AB34
  5
1AB46
331
1AB36
  5
1AB54
331
1AB37
  5
1AB55
331
1AB39
  5
1AB60
331
1AB3A
  5
1AB61
331
1AB3B
  5
1AB62
331
1AB3C
  5
1AB63
331
1AB3D
  5
1AB64
331
1AB3E
  5
1AB65
331
1AB3F
  5
1AB66
331
1AB40
  5
1AB67
331
1AB41
  5
1AB68
331
1AB42
  5
1AB69
331
1AB43
  5
1AB6A
331
1AB44
  5
1AB6B
331
1AB45
  5
1AB6C
331
1AB46
  5
1AB6D
331
1AB47
  5
1AB6E
331
1AB48
  5
1AB6F
331
1AB49
  5
1AB70
331
1AB4A
  5
1AB71
331
1AB4B
  5
1AB72
331
1AB4C
  5
1AB73
331
1AB4D
  5
1AB74
331
1AB4E
  5
1AB75
331
1AB4F
  5
1AB76
331
1AB50
  5
1AB77
331
1AB51
  5
1AB78
331
1AB52
  5
1AB79
331
1AB53
  5
1AB7A
331
1AB54
  5
1AB7B
331
1AB55
  5
1AB7C
331
1AB56
  5
1AB7D
331
1AB57
  5
1AB7E
331
1AB58
  5
1AB7F
331
1AB59
  5
1AB80
331
1AB5A
  5
1AB81
331
1AB5B
  5
1AB82
331
1AB5C
  5
1AB83
331
1AB5D
  5
1AB84
331
1AB5E
  5
1AB85
331
1AB5F
  5
1AB86
331
1AB60
  5
1AB87
331
1AB61
  5
1AB88
331
1AB62
  5
1AB89
331
1AB63
  5
1AB8A
331
1AB64
  5
1AB8D
331
1AB65
  5
1AB8E
331
1AB66
  5
1AB8F
331
1AB67
  5
1AB90
331
1AB68
  5
1AB91
331
1AB69
  5
1AB92
331
1AB6A
  5
1AB94
331
1AB6B
  5
1AB95
331
1AB6C
  5
1AB97
331
1AB6D
  5
1AB98
331
1AB6E
  5
1AB99
331
1AB6F
  5
1AB9A
331
1AB70
  5
1AB9B
331
1AB71
  5
1AB9D
331
1AB72
  5
1AB9F
331
1AB73
  5
1ABA0
331
1AB74
  5
1ABA1
331
1AB75
  5
1ABA5
331
1AB76
  5
1ABA6
331
1AB77
  5
1ABA7
331
1AB78
  5
1ABA8
331
1AB79
  5
1ABA9
331
1AB7A
  5
1ABAA
331
1AB7B
  5
1ABAB
331
1AB7C
  5
1ABAC
331
1AB7D
  5
1ABAD
331
1AB7E
  5
1ABAE
331
1AB7F
  5
1ABAF
331
1AB80
  5
1ABB0
331
1AB81
  5
1ABB1
331
1AB82
  5
1ABB2
331
1AB83
  5
1ABB3
331
1AB84
  5
1ABB4
331
1AB85
  5
1ABB5
331
1AB86
  5
1ABB6
331
1AB87
  5
1ABB7
331
1AB88
  5
1ABB8
331
1AB89
  5
1ABB9
331
1AB8A
  5
1ABBA
331
1AB8D
  5
1ABE7
331
1AB8E
  5
1ABE8
331
1AB8F
  5
1ABE9
331
1AB90
  5
1ABED
331
1AB91
  5
1ABEE
331
1AB92
  5
1ABEF
331
1AB94
  5
1ABF2
331
1AB95
  5
1ABF6
331
1AB97
  5
1ABFD
331
1AB98
  5
1ABFE
331
1AB99
  5
1AC02
331
1AB9A
  5
1AC03
331
1AB9B
  5
1AC04
331
0
  5
1AC07
331
1AB9F
  5
1AC16
331
1ABA0
  5
1AC17
331
1ABA1
  5
1AC18
331
1ABA5
  5
1AC37
331
1ABA6
  5
1AC38
331
1ABA7
  5
1AC39
331
1ABA8
  5
1AC3A
331
1ABA9
  5
1AC3B
331
1ABAA
  5
1AC3C
331
1ABAB
  5
1AC3F
331
1ABAC
  5
1AC40
331
1ABAD
  5
1AC41
331
1ABAE
  5
1AC42
331
1ABAF
  5
1AC43
331
1ABB0
  5
1AC44
331
1ABB1
  5
1AC45
331
1ABB2
  5
1AC46
331
1ABB3
  5
1AC47
331
1ABB4
  5
1AC48
331
1ABB5
  5
1AC49
331
1ABB6
  5
1AC4A
331
1ABB7
  5
1AC4B
331
1ABB8
  5
1AC4C
331
1ABB9
  5
1AC4D
331
1ABBA
  5
1AC4E
331
1ABBB
  5
1AC4F
331
1ABBC
  5
1AC50
331
1ABBD
  5
1AC51
331
1ABBE
  5
1AC52
331
1ABBF
  5
1AC53
331
1ABC0
  5
1AC54
331
1ABC1
  5
1AC55
331
1ABC2
  5
1AC56
331
1ABC3
  5
1AC57
331
1ABC4
  5
1AC58
331
1ABC5
  5
1AC59
331
1ABC6
  5
1AC5A
331
1ABC7
  5
1AC5B
331
1ABC8
  5
1AC5C
331
1ABC9
  5
1AC5D
331
1ABCA
  5
1AC5E
331
1ABCB
  5
1AC5F
331
1ABCC
  5
1AC60
331
1ABCD
  5
1AC61
331
1ABCE
  5
1AC62
331
1ABCF
  5
1AC63
331
1ABD0
  5
1AC64
331
1ABD1
  5
1AC65
331
1ABD2
  5
1AC66
331
1ABD3
  5
1AC67
331
1ABD4
  5
1AC68
331
1ABD5
  5
1AC69
331
1ABD6
  5
1AC6A
331
1ABD7
  5
1AC6B
331
1ABD8
  5
1AC70
331
1ABD9
  5
1AC71
331
1ABDA
  5
1AC72
331
1ABDB
  5
1AC73
331
1ABDC
  5
1AC74
331
1ABDD
  5
1AC75
331
1ABDE
  5
1AC76
331
1ABDF
  5
1AC77
331
1ABE0
  5
1AC78
331
1ABE1
  5
1AC7A
331
1ABE2
  5
1AC7B
331
0
  5
1AC79
331
1ABE4
  5
1AC8A
331
1ABE5
  5
1AC8B
331
1ABE6
  5
1AC8C
331
1ABE7
  5
1AC8D
331
1ABE8
  5
1AC8E
331
1ABE9
  5
1AC8F
331
1ABEA
  5
1AC90
331
1ABEB
  5
1AC91
331
1ABEC
  5
1AC92
331
1ABED
  5
1AC93
331
1ABEE
  5
1AC94
331
1ABEF
  5
1AC95
331
1ABF0
  5
1AC96
331
1ABF1
  5
1AC97
331
1ABF2
  5
1AC98
331
1ABF3
  5
1AC99
331
1ABF4
  5
1AC9A
331
1ABF5
  5
1AC9B
331
1ABF6
  5
1AC9C
331
1ABF7
  5
1AC9D
331
1ABF8
  5
1AC9E
331
1ABF9
  5
1AC9F
331
1ABFA
  5
1ACA0
331
1ABFB
  5
1ACA1
331
1ABFC
  5
1ACA2
331
1ABFD
  5
1ACA3
331
1ABFE
  5
1ACA4
331
1ABFF
  5
1ACA5
331
1AC00
  5
1ACA6
331
1AC01
  5
1ACA7
331
1AC02
  5
1ACA8
331
1AC03
  5
1ACA9
331
1AC04
  5
1ACAA
331
1AC05
  5
1ACAB
331
1AC06
  5
1ACAC
331
1AC07
  5
1ACB0
331
1AC09
  5
1ACBE
331
1AC0A
  5
1ACBF
331
1AC0B
  5
1ACC0
331
1AC0C
  5
1ACC1
331
1AC0D
  5
1ACC2
331
1AC0F
  5
1ACC9
331
1AC10
  5
1ACCA
331
1AC11
  5
1ACCB
331
1AC12
  5
1ACCC
331
1AC13
  5
1ACCD
331
1AC14
  5
1ACCE
331
1AC15
  5
1ACCF
331
1AC16
  5
1ACD0
331
1AC17
  5
1ACD1
331
1AC18
  5
1ACD2
331
1AC19
  5
1ACD3
331
1AC1A
  5
1ACD4
331
1AC1B
  5
1ACDA
331
1AC1C
  5
1ACDB
331
1AC1D
  5
1ACDC
331
1AC1E
  5
1ACDD
331
1AC1F
  5
1ACDE
331
1AC20
  5
1ACDF
331
1AC21
  5
1ACE0
331
1AC22
  5
1ACE1
331
1AC23
  5
1ACE2
331
1AC24
  5
1ACE3
331
1AC25
  5
1ACE4
331
1AC26
  5
1ACE5
331
1AC27
  5
1ACE6
331
1AC28
  5
1ACE7
331
1AC29
  5
1ACE8
331
1AC2A
  5
1ACE9
331
1AC2B
  5
1ACEA
331
1AC2C
  5
1ACEB
331
1AC2D
  5
1ACEC
331
1AC2E
  5
1ACED
331
1AC2F
  5
1ACF1
331
1AC30
  5
1ACF2
331
1AC31
  5
1ACF3
331
1AC32
  5
1ACF4
331
1AC33
  5
1ACF5
331
1AC34
  5
1ACF6
331
1AC35
  5
1ACF7
331
1AC36
  5
1ACF8
331
1AC37
  5
1ACF9
331
1AC38
  5
1ACFA
331
1AC39
  5
1ACFB
331
1AC3A
  5
1ACFC
331
1AC3B
  5
1ACFD
331
1AC3C
  5
1ACFE
331
1AC3F
  5
1AD13
331
1AC40
  5
1AD14
331
1AC41
  5
1AD15
331
1AC42
  5
1AD16
331
1AC43
  5
1AD17
331
1AC44
  5
1AD18
331
1AC45
  5
1AD19
331
1AC46
  5
1AD1A
331
1AC47
  5
1AD1B
331
1AC48
  5
1AD1C
331
1AC49
  5
1AD1D
331
1AC4A
  5
1AD23
331
1AC4B
  5
1AD24
331
1AC4C
  5
1AD25
331
1AC4D
  5
1AD26
331
1AC4E
  5
1AD27
331
1AC4F
  5
1AD28
331
1AC50
  5
1AD29
331
1AC51
  5
1AD2A
331
1AC52
  5
1AD2B
331
1AC53
  5
1AD2C
331
1AC54
  5
1AD2D
331
1AC55
  5
1AD2E
331
1AC56
  5
1AEA5
331
1AC57
  5
1AEA6
331
1AC58
  5
1AEA7
331
1AC59
  5
1AEA8
331
1AC5A
  5
1AEA9
331
1AC5B
  5
1AEAA
331
1AC5C
  5
1AEAB
331
1AC5D
  5
1AEAC
331
1AC5E
  5
1AEAD
331
1AC5F
  5
1AEAE
331
1AC60
  5
1AEAF
331
1AC61
  5
1AEB0
331
1AC62
  5
1AEB1
331
1AC63
  5
1AEB2
331
1AC64
  5
1AEB3
331
1AC65
  5
1AEB4
331
1AC66
  5
1AEB5
331
1AC67
  5
1AEB6
331
1AC68
  5
1AEB7
331
1AC69
  5
1AEB8
331
1AC6A
  5
1AEB9
331
1AC6B
  5
1AEBA
331
1AC6C
  5
1AEBB
331
1AC6D
  5
1AEBC
331
1AC6E
  5
1AEBD
331
1AC70
  5
1AEC8
331
1AC71
  5
1AEC9
331
1AC72
  5
1AECA
331
1AC73
  5
1AECB
331
1AC74
  5
1AECC
331
1AC75
  5
1AECD
331
1AC76
  5
1AECE
331
1AC77
  5
1AECF
331
1AC78
  5
1AED0
331
1AC79
  5
1AED1
331
1AC7A
  5
1AED2
331
1AC7B
  5
1AED8
331
1AC7C
  5
1AED9
331
1AC7D
  5
1AEDA
331
1AC7E
  5
1AEDB
331
1AC7F
  5
1AEDC
331
1AC80
  5
1AEDD
331
1AC81
  5
1AEDE
331
1AC82
  5
1AEDF
331
1AC84
  5
1AEE1
331
1AC85
  5
1AEE2
331
1AC86
  5
1AEE6
331
1AC87
  5
1AEE7
331
1AC88
  5
1AEE8
331
1AC89
  5
1AEEC
331
0
  5
1AED3
331
0
  5
1AED4
331
0
  5
1AED5
331
0
  5
1AED6
331
0
  5
1AED7
331
1AC8F
  5
1AF28
331
1AC90
  5
1AF29
331
1AC91
  5
1AF2A
331
1AC92
  5
1AF2B
331
1AC93
  5
1AF2C
331
1AC94
  5
1AF2D
331
1AC95
  5
1AF2E
331
1AC96
  5
1AF2F
331
1AC97
  5
1AF30
331
1AC98
  5
1AF31
331
1AC99
  5
1AF32
331
1AC9A
  5
1AF33
331
1AC9B
  5
1AF34
331
1AC9C
  5
1AF35
331
1AC9D
  5
1AF36
331
1AC9E
  5
1AF37
331
1AC9F
  5
1AF38
331
1ACA0
  5
1AF39
331
1ACA1
  5
1AF3A
331
1ACA2
  5
1AF3B
331
1ACA3
  5
1AF3C
331
1ACA4
  5
1AF3D
331
1ACA5
  5
1AF3E
331
1ACA6
  5
1AF3F
331
1ACA7
  5
1AF40
331
1ACA8
  5
1AF41
331
1ACA9
  5
1AF42
331
1ACAA
  5
1AF43
331
1ACAB
  5
1AF44
331
1ACAC
  5
1AF45
331
1ACAD
  5
1AF46
331
1ACAE
  5
1AF47
331
1ACAF
  5
1AF48
331
1ACB0
  5
1AF49
331
1ACB1
  5
1AF4A
331
1ACB2
  5
1AF4B
331
1ACB3
  5
1AF4C
331
1ACB4
  5
1AF4D
331
1ACB5
  5
1AF4E
331
1ACB6
  5
1AF4F
331
1ACB7
  5
1AF50
331
1ACB8
  5
1AF51
331
1ACB9
  5
1AF52
331
1ACBA
  5
1AF53
331
1ACBB
  5
1AF54
331
1ACBC
  5
1AF55
331
1ACBD
  5
1AF56
331
1ACBE
  5
1AF57
331
1ACBF
  5
1AF58
331
1ACC0
  5
1AF59
331
1ACC1
  5
1AF5A
331
1ACC2
  5
1AF5B
331
1ACC3
  5
1AF5C
331
1ACC4
  5
1AF5D
331
1ACC5
  5
1AF5E
331
1ACC6
  5
1AF5F
331
1ACC7
  5
1AF60
331
1ACC8
  5
1AF61
331
1ACC9
  5
1AF62
331
1ACCA
  5
1AF63
331
1ACCB
  5
1AF64
331
1ACCC
  5
1AF65
331
1ACCD
  5
1AF66
331
1ACCE
  5
1AF67
331
1ACCF
  5
1AF68
331
1ACD0
  5
1AF69
331
1ACD1
  5
1AF6A
331
1ACD2
  5
1AF6B
331
1ACD3
  5
1AF6C
331
1ACD4
  5
1AF6D
331
1ACDA
  5
1AFB3
331
1ACDB
  5
1AFB4
331
1ACDC
  5
1AFB5
331
1ACDD
  5
1AFB6
331
1ACDE
  5
1AFB7
331
1ACDF
  5
1AFB8
331
1ACE0
  5
1AFB9
331
1ACE1
  5
1AFBA
331
1ACE2
  5
1AFBB
331
1ACE3
  5
1AFBC
331
1ACE4
  5
1AFBD
331
1ACE5
  5
1AFBE
331
1ACE6
  5
1AFBF
331
1ACE7
  5
1AFC0
331
1ACE8
  5
1AFC1
331
1ACE9
  5
1AFC2
331
1ACEA
  5
1AFC3
331
1ACEB
  5
1AFC4
331
1ACEC
  5
1AFC5
331
1ACED
  5
1AFC6
331
1ACEE
  5
1AFC7
331
1ACEF
  5
1AFC8
331
1ACF0
  5
1AFC9
331
1ACF1
  5
1AFCA
331
1ACF2
  5
1AFCB
331
1ACF3
  5
1AFCC
331
1ACF4
  5
1AFCD
331
1ACF5
  5
1AFCE
331
1ACF6
  5
1AFCF
331
1ACF7
  5
1AFD0
331
1ACF8
  5
1AFD1
331
1ACF9
  5
1AFD2
331
1ACFA
  5
1AFD3
331
1ACFB
  5
1AFD4
331
1ACFC
  5
1AFD5
331
1ACFD
  5
1AFD6
331
1ACFE
  5
1AFD7
331
1ACFF
  5
1AFD8
331
1AD00
  5
1AFD9
331
1AD01
  5
1AFDA
331
1AD02
  5
1AFDB
331
1AD03
  5
1AFDC
331
1AD04
  5
1AFDD
331
1AD05
  5
1AFDE
331
1AD06
  5
1AFDF
331
1AD07
  5
1AFE0
331
1AD08
  5
1AFE1
331
1AD09
  5
1AFE2
331
1AD0A
  5
1AFE3
331
1AD0B
  5
1AFE4
331
1AD0C
  5
1AFE5
331
1AD0D
  5
1AFE6
331
1AD0E
  5
1AFE7
331
1AD0F
  5
1AFE8
331
1AD10
  5
1AFE9
331
1AD11
  5
1AFEA
331
1AD12
  5
1AFEB
331
1AD13
  5
1AFEC
331
1AD14
  5
1AFED
331
1AD15
  5
1AFEE
331
1AD16
  5
1AFEF
331
1AD17
  5
1AFF0
331
1AD18
  5
1AFF1
331
1AD19
  5
1AFF2
331
1AD1A
  5
1AFF3
331
1AD1B
  5
1AFF4
331
1AD1C
  5
1AFF5
331
1AD1D
  5
1AFF6
331
1AD23
  5
1B03C
331
1AD24
  5
1B03D
331
1AD25
  5
1B03E
331
1AD26
  5
1B03F
331
1AD27
  5
1B040
331
1AD28
  5
1B041
331
1AD29
  5
1B042
331
1AD2A
  5
1B043
331
1AD2B
  5
1B044
331
1AD2C
  5
1B045
331
1AD2D
  5
1B046
331
1AD2E
  5
1B047
331
1AEA5
  5
1AB34
331
1AEA6
  5
1AB36
331
1AEA7
  5
1AB37
331
0
  5
1AB39
331
0
  5
1AB3A
331
0
  5
1AB3B
331
1AEAB
  5
1AB47
331
1AEAC
  5
1AB4B
331
1AEAD
  5
1AB4C
331
0
  5
1AB40
331
0
  5
1AB41
331
0
  5
1AB42
331
1AEB1
  5
1AB56
331
1AEB2
  5
1AB57
331
1AEB3
  5
1AB58
331
0
  5
1AB48
331
0
  5
1AB49
331
0
  5
1AB4A
331
1AEB7
  5
1ABBB
331
1AEB8
  5
1ABBC
331
1AEB9
  5
1ABBD
331
1AEBA
  5
1ABBE
331
1AEBB
  5
1ABBF
331
1AEBC
  5
1ABC0
331
1AEBD
  5
1ABC1
331
1AEBE
  5
1ABC2
331
1AEBF
  5
1ABC3
331
1AEC0
  5
1ABC4
331
1AEC1
  5
1ABC5
331
1AEC2
  5
1ABC6
331
1AEC3
  5
1ABC7
331
1AEC4
  5
1ABC8
331
1AEC5
  5
1ABC9
331
1AEC6
  5
1ABCA
331
1AEC7
  5
1ABCB
331
1AEC8
  5
1ABCC
331
1AEC9
  5
1ABCD
331
1AECA
  5
1ABCE
331
1AECB
  5
1ABCF
331
1AECC
  5
1ABD0
331
1AECD
  5
1ABD1
331
1AECE
  5
1ABD2
331
1AECF
  5
1ABD3
331
1AED0
  5
1ABD4
331
1AED1
  5
1ABD5
331
1AED2
  5
1ABD6
331
1AED3
  5
1ABD7
331
1AED4
  5
1ABD8
331
1AED5
  5
1ABD9
331
1AED6
  5
1ABDA
331
1AED7
  5
1ABDB
331
1AED8
  5
1ABDC
331
1AED9
  5
1ABDD
331
1AEDA
  5
1ABDE
331
1AEDB
  5
1ABDF
331
1AEDC
  5
1ABE0
331
1AEDD
  5
1ABE1
331
1AEDE
  5
1ABE2
331
1AEDF
  5
1ABE3
331
1AEE0
  5
1ABE4
331
1AEE1
  5
1ABE5
331
1AEE2
  5
1ABE6
331
1AEE3
  5
1ABF0
331
1AEE4
  5
1ABF1
331
1AEE5
  5
1ABF7
331
1AEE6
  5
1ABF8
331
1AEE7
  5
1ABFC
331
1AEE8
  5
1AC05
331
1AEE9
  5
1AC06
331
1AEEA
  5
1AC0B
331
1AEEB
  5
1AC0C
331
1AEEC
  5
1AC0D
331
0
  5
1ABEA
331
0
  5
1ABEB
331
0
  5
1ABEC
331
1AEF0
  5
1AC19
331
1AEF1
  5
1AC1A
331
1AEF2
  5
1AC1B
331
0
  5
1ABF3
331
0
  5
1ABF4
331
0
  5
1ABF5
331
1AEF6
  5
1AC23
331
1AEF7
  5
1AC24
331
1AEF8
  5
1AC25
331
0
  5
1ABF9
331
0
  5
1ABFA
331
0
  5
1ABFB
331
1AEFC
  5
1AC2D
331
1AEFD
  5
1AC2E
331
1AEFE
  5
1AC2F
331
0
  5
1ABFF
331
0
  5
1AC00
331
0
  5
1AC01
331
1AF02
  5
1ACB1
331
1AF03
  5
1ACB2
331
1AF04
  5
1ACB6
331
0
  5
1AC6C
331
0
  5
1AC6D
331
0
  5
1AC6E
331
1AF08
  5
1ACC3
331
1AF09
  5
1ACC4
331
1AF0A
  5
1ACC5
331
1AF0B
  5
1ACC6
331
1AF0C
  5
1ACC7
331
1AF0D
  5
1ACC8
331
1AF0E
  5
1ACFF
331
1AF0F
  5
1AD00
331
1AF10
  5
1AD01
331
0
  5
1ACAD
331
0
  5
1ACAE
331
0
  5
1ACAF
331
1AF14
  5
1AD09
331
1AF15
  5
1AD0A
331
1AF16
  5
1AD0B
331
0
  5
1ACB3
331
0
  5
1ACB4
331
0
  5
1ACB5
331
1AF1A
  5
1AEBE
331
1AF1B
  5
1AEBF
331
1AF1C
  5
1AEC0
331
0
  5
1ACEE
331
0
  5
1ACEF
331
0
  5
1ACF0
331
1AF20
  5
1AEE0
331
1AF21
  5
1AF6E
331
1AF22
  5
1AF6F
331
1AF23
  5
1AF70
331
1AF24
  5
1AF71
331
1AF25
  5
1AF72
331
1AF26
  5
1AF73
331
1AF27
  5
1AF74
331
1AF28
  5
1AF75
331
1AF29
  5
1AF76
331
1AF2A
  5
1AF77
331
1AF2B
  5
1AF78
331
1AF2C
  5
1AF79
331
1AF2D
  5
1AF7A
331
1AF2E
  5
1AF7B
331
1AF2F
  5
1AF7C
331
1AF30
  5
1AF7D
331
1AF31
  5
1AF7E
331
1AF32
  5
1AF7F
331
1AF33
  5
1AF80
331
1AF34
  5
1AF81
331
1AF35
  5
1AF82
331
1AF36
  5
1AF83
331
1AF37
  5
1AF84
331
1AF38
  5
1AF85
331
1AF39
  5
1AF86
331
1AF3A
  5
1AF87
331
1AF3B
  5
1AF88
331
1AF3C
  5
1AF89
331
1AF3D
  5
1AF8A
331
1AF3E
  5
1AF8B
331
1AF3F
  5
1AF8C
331
1AF40
  5
1AF8D
331
1AF41
  5
1AF8E
331
1AF42
  5
1AF8F
331
1AF43
  5
1AF90
331
1AF44
  5
1AF91
331
1AF45
  5
1AF92
331
1AF46
  5
1AF93
331
1AF47
  5
1AF94
331
1AF48
  5
1AF95
331
1AF49
  5
1AF96
331
1AF4A
  5
1AF97
331
1AF4B
  5
1AF98
331
1AF4C
  5
1AF99
331
1AF4D
  5
1AF9A
331
1AF4E
  5
1AF9B
331
1AF4F
  5
1AF9C
331
1AF50
  5
1AF9D
331
1AF51
  5
1AF9E
331
1AF52
  5
1AF9F
331
1AF53
  5
1AFA0
331
1AF54
  5
1AFA1
331
1AF55
  5
1AFA2
331
1AF56
  5
1AFA3
331
1AF57
  5
1AFA4
331
1AF58
  5
1AFA5
331
1AF59
  5
1AFA6
331
1AF5A
  5
1AFA7
331
1AF5B
  5
1AFA8
331
1AF5C
  5
1AFA9
331
1AF5D
  5
1AFAA
331
1AF5E
  5
1AFAB
331
1AF5F
  5
1AFAC
331
1AF60
  5
1AFAD
331
1AF61
  5
1AFAE
331
1AF62
  5
1AFAF
331
1AF63
  5
1AFB0
331
1AF64
  5
1AFB1
331
1AF65
  5
1AFB2
331
1AF66
  5
1AFF7
331
1AF67
  5
1AFF8
331
1AF68
  5
1AFF9
331
1AF69
  5
1AFFA
331
1AF6A
  5
1AFFB
331
1AF6B
  5
1AFFC
331
1AF6C
  5
1AFFD
331
1AF6D
  5
1AFFE
331
1AF6E
  5
1AFFF
331
1AF6F
  5
1B000
331
1AF70
  5
1B001
331
1AF71
  5
1B002
331
1AF72
  5
1B003
331
1AF73
  5
1B004
331
1AF74
  5
1B005
331
1AF75
  5
1B006
331
1AF76
  5
1B007
331
1AF77
  5
1B008
331
1AF78
  5
1B009
331
1AF79
  5
1B00A
331
1AF7A
  5
1B00B
331
1AF7B
  5
1B00C
331
1AF7C
  5
1B00D
331
1AF7D
  5
1B00E
331
1AF7E
  5
1B00F
331
1AF7F
  5
1B010
331
1AF80
  5
1B011
331
1AF81
  5
1B012
331
1AF82
  5
1B013
331
1AF83
  5
1B014
331
1AF84
  5
1B015
331
1AF85
  5
1B016
331
1AF86
  5
1B017
331
1AF87
  5
1B018
331
1AF88
  5
1B019
331
1AF89
  5
1B01A
331
1AF8A
  5
1B01B
331
1AF8B
  5
1B01C
331
1AF8C
  5
1B01D
331
1AF8D
  5
1B01E
331
1AF8E
  5
1B01F
331
1AF8F
  5
1B020
331
1AF90
  5
1B021
331
1AF91
  5
1B022
331
1AF92
  5
1B023
331
1AF93
  5
1B024
331
1AF94
  5
1B025
331
1AF95
  5
1B026
331
1AF96
  5
1B027
331
1AF97
  5
1B028
331
1AF98
  5
1B029
331
1AF99
  5
1B02A
331
1AF9A
  5
1B02B
331
1AF9B
  5
1B02C
331
1AF9C
  5
1B02D
331
1AF9D
  5
1B02E
331
1AF9E
  5
1B02F
331
1AF9F
  5
1B030
331
1AFA0
  5
1B031
331
1AFA1
  5
1B032
331
1AFA2
  5
1B033
331
1AFA3
  5
1B034
331
1AFA4
  5
1B035
331
1AFA5
  5
1B036
331
1AFA6
  5
1B037
331
1AFA7
  5
1B038
331
1AFA8
  5
1B039
331
1AFA9
  5
1B03A
331
1AFAA
  5
1B03B
331
1AFAB
  5
1AB3C
331
1AFAC
  5
1AB3D
331
1AFAD
  5
1AB3E
331
1AFAE
  5
1AB3F
331
1AFAF
  5
1AB43
331
1AFB0
  5
1AB44
331
1AFB1
  5
1AB45
331
1AFB2
  5
1AB4D
331
1AFB3
  5
1AB4E
331
1AFB4
  5
1AB4F
331
1AFB5
  5
1AB50
331
1AFB6
  5
1AB51
331
1AFB7
  5
1AB52
331
1AFB8
  5
1AB53
331
1AFB9
  5
1AB59
331
1AFBA
  5
1AB5A
331
1AFBB
  5
1AB5B
331
1AFBC
  5
1AB5C
331
1AFBD
  5
1AB5D
331
1AFBE
  5
1AB5E
331
1AFBF
  5
1AB5F
331
1AFC0
  5
1AC0F
331
1AFC1
  5
1AC10
331
1AFC2
  5
1AC11
331
1AFC3
  5
1AC12
331
1AFC4
  5
1AC13
331
1AFC5
  5
1AC14
331
1AFC6
  5
1AC15
331
1AFC7
  5
1AC1C
331
1AFC8
  5
1AC1D
331
1AFC9
  5
1AC1E
331
1AFCA
  5
1AC1F
331
1AFCB
  5
1AC20
331
1AFCC
  5
1AC21
331
1AFCD
  5
1AC22
331
1AFCE
  5
1AC26
331
1AFCF
  5
1AC27
331
1AFD0
  5
1AC28
331
1AFD1
  5
1AC29
331
1AFD2
  5
1AC2A
331
1AFD3
  5
1AC2B
331
1AFD4
  5
1AC2C
331
1AFD5
  5
1AC30
331
1AFD6
  5
1AC31
331
1AFD7
  5
1AC32
331
1AFD8
  5
1AC33
331
1AFD9
  5
1AC34
331
1AFDA
  5
1AC35
331
1AFDB
  5
1AC36
331
1AFDC
  5
1ACB7
331
1AFDD
  5
1ACB8
331
1AFDE
  5
1ACB9
331
1AFDF
  5
1ACBA
331
1AFE0
  5
1ACBB
331
1AFE1
  5
1ACBC
331
1AFE2
  5
1ACBD
331
1AFE3
  5
1AD02
331
1AFE4
  5
1AD03
331
1AFE5
  5
1AD04
331
1AFE6
  5
1AD05
331
1AFE7
  5
1AD06
331
1AFE8
  5
1AD07
331
1AFE9
  5
1AD08
331
1AFEA
  5
1AD0C
331
1AFEB
  5
1AD0D
331
1AFEC
  5
1AD0E
331
1AFED
  5
1AD0F
331
1AFEE
  5
1AD10
331
1AFEF
  5
1AD11
331
1AFF0
  5
1AD12
331
1AFF1
  5
1AEC1
331
1AFF2
  5
1AEC2
331
1AFF3
  5
1AEC3
331
1AFF4
  5
1AEC4
331
1AFF5
  5
1AEC5
331
1AFF6
  5
1AEC6
331
1AFF7
  5
1AEC7
331
1AFF8
  5
1AC09
331
1AFF9
  5
1AC0A
331
1AFFA
  5
1AC7C
331
1AFFB
  5
1AC7D
331
1AFFC
  5
1AC7E
331
0
  5
1AC7F
331
0
  5
1AC80
331
0
  5
1AC81
331
1B000
  5
1AEED
331
1B001
  5
1AEEE
331
1B002
  5
1AEF2
331
0
  5
1AEE3
331
0
  5
1AEE4
331
0
  5
1AEE5
331
1B006
  5
1AF00
331
1B007
  5
1AF01
331
1B008
  5
1AF02
331
0
  5
1AEE9
331
0
  5
1AEEA
331
0
  5
1AEEB
331
1B00C
  5
1AF0A
331
1B00D
  5
1AF0B
331
1B00E
  5
1AF0C
331
0
  5
1AEEF
331
0
  5
1AEF0
331
0
  5
1AEF1
331
1B012
  5
1AF14
331
1B013
  5
1AF15
331
1B014
  5
1AF16
331
0
  5
1AEF5
331
0
  5
1AEF6
331
0
  5
1AEF7
331
1B018
  5
1AF1E
331
1B019
  5
1AF1F
331
1B01A
  5
1AF20
331
0
  5
1AEFB
331
0
  5
1AEFC
331
0
  5
1AEFD
331
1B01E
  5
1AC82
331
1B01F
  5
1AC84
331
1B020
  5
1AC85
331
1B021
  5
1AC86
331
1B022
  5
1AC87
331
1B023
  5
1AC88
331
1B024
  5
1AC89
331
1B025
  5
1AEF3
331
1B026
  5
1AEF4
331
1B027
  5
1AEF8
331
1B028
  5
1AEF9
331
1B029
  5
1AEFA
331
1B02A
  5
1AEFE
331
1B02B
  5
1AEFF
331
1B02C
  5
1AF03
331
1B02D
  5
1AF04
331
1B02E
  5
1AF05
331
1B02F
  5
1AF06
331
1B030
  5
1AF07
331
1B031
  5
1AF08
331
1B032
  5
1AF09
331
1B033
  5
1AF0D
331
1B034
  5
1AF0E
331
1B035
  5
1AF0F
331
1B036
  5
1AF10
331
1B037
  5
1AF11
331
1B038
  5
1AF12
331
1B039
  5
1AF13
331
1B03A
  5
1AF17
331
1B03B
  5
1AF18
331
1B03C
  5
1AF19
331
1B03D
  5
1AF1A
331
1B03E
  5
1AF1B
331
1B03F
  5
1AF1C
331
1B040
  5
1AF1D
331
1B041
  5
1AF21
331
1B042
  5
1AF22
331
1B043
  5
1AF23
331
1B044
  5
1AF24
331
1B045
  5
1AF25
331
1B046
  5
1AF26
331
1B047
  5
1AF27
  0
MATERIAL
  5
D9A4
102
{ACAD_REACTORS
330
18C
102
}
102
{ACAD_XDICTIONARY
360
1B1E6
102
}
330
18C
100
AcDbMaterial
  1
BYBLOCK
 72
     0
 73
     2
 43
0.0208333333333333
 43
0.0
 43
0.0
 43
0.0
 43
0.0
 43
0.0208333333333333
 43
0.0
 43
0.0
 43
0.0
 43
0.0
 43
1.0
 43
0.0
 43
0.0
 43
0.0
 43
0.0
 43
1.0
 77
     0
 78
     2
 47
0.0208333333333333
 47
0.0
 47
0.0
 47
0.0
 47
0.0
 47
0.0208333333333333
 47
0.0
 47
0.0
 47
0.0
 47
0.0
 47
1.0
 47
0.0
 47
0.0
 47
0.0
 47
0.0
 47
1.0
171
     0
172
     2
 49
0.0208333333333333
 49
0.0
 49
0.0
 49
0.0
 49
0.0
 49
0.0208333333333333
 49
0.0
 49
0.0
 49
0.0
 49
0.0
 49
1.0
 49
0.0
 49
0.0
 49
0.0
 49
0.0
 49
1.0
175
     0
176
     2
142
0.0208333333333333
142
0.0
142
0.0
142
0.0
142
0.0
142
0.0208333333333333
142
0.0
142
0.0
142
0.0
142
0.0
142
1.0
142
0.0
142
0.0
142
0.0
142
0.0
142
1.0
179
     0
270
     2
144
0.0208333333333333
144
0.0
144
0.0
144
0.0
144
0.0
144
0.0208333333333333
144
0.0
144
0.0
144
0.0
144
0.0
144
1.0
144
0.0
144
0.0
144
0.0
144
0.0
144
1.0
274
     2
147
0.0208333333333333
147
0.0
147
0.0
147
0.0
147
0.0
147
0.0208333333333333
147
0.0
147
0.0
147
0.0
147
0.0
147
1.0
147
0.0
147
0.0
147
0.0
147
0.0
147
1.0
  0
MATERIAL
  5
D99C
102
{ACAD_REACTORS
330
18C
102
}
102
{ACAD_XDICTIONARY
360
1B1E8
102
}
330
18C
100
AcDbMaterial
  1
BYLAYER
 72
     0
 73
     2
 43
0.0208333333333333
 43
0.0
 43
0.0
 43
0.0
 43
0.0
 43
0.0208333333333333
 43
0.0
 43
0.0
 43
0.0
 43
0.0
 43
1.0
 43
0.0
 43
0.0
 43
0.0
 43
0.0
 43
1.0
 77
     0
 78
     2
 47
0.0208333333333333
 47
0.0
 47
0.0
 47
0.0
 47
0.0
 47
0.0208333333333333
 47
0.0
 47
0.0
 47
0.0
 47
0.0
 47
1.0
 47
0.0
 47
0.0
 47
0.0
 47
0.0
 47
1.0
171
     0
172
     2
 49
0.0208333333333333
 49
0.0
 49
0.0
 49
0.0
 49
0.0
 49
0.0208333333333333
 49
0.0
 49
0.0
 49
0.0
 49
0.0
 49
1.0
 49
0.0
 49
0.0
 49
0.0
 49
0.0
 49
1.0
175
     0
176
     2
142
0.0208333333333333
142
0.0
142
0.0
142
0.0
142
0.0
142
0.0208333333333333
142
0.0
142
0.0
142
0.0
142
0.0
142
1.0
142
0.0
142
0.0
142
0.0
142
0.0
142
1.0
179
     0
270
     2
144
0.0208333333333333
144
0.0
144
0.0
144
0.0
144
0.0
144
0.0208333333333333
144
0.0
144
0.0
144
0.0
144
0.0
144
1.0
144
0.0
144
0.0
144
0.0
144
0.0
144
1.0
274
     2
147
0.0208333333333333
147
0.0
147
0.0
147
0.0
147
0.0
147
0.0208333333333333
147
0.0
147
0.0
147
0.0
147
0.0
147
1.0
147
0.0
147
0.0
147
0.0
147
0.0
147
1.0
  0
MATERIAL
  5
D9AC
102
{ACAD_REACTORS
330
18C
102
}
102
{ACAD_XDICTIONARY
360
1B1EA
102
}
330
18C
100
AcDbMaterial
  1
GLOBAL
 72
     0
 73
     2
 43
0.0208333333333333
 43
0.0
 43
0.0
 43
0.0
 43
0.0
 43
0.0208333333333333
 43
0.0
 43
0.0
 43
0.0
 43
0.0
 43
1.0
 43
0.0
 43
0.0
 43
0.0
 43
0.0
 43
1.0
 77
     0
 78
     2
 47
0.0208333333333333
 47
0.0
 47
0.0
 47
0.0
 47
0.0
 47
0.0208333333333333
 47
0.0
 47
0.0
 47
0.0
 47
0.0
 47
1.0
 47
0.0
 47
0.0
 47
0.0
 47
0.0
 47
1.0
171
     0
172
     2
 49
0.0208333333333333
 49
0.0
 49
0.0
 49
0.0
 49
0.0
 49
0.0208333333333333
 49
0.0
 49
0.0
 49
0.0
 49
0.0
 49
1.0
 49
0.0
 49
0.0
 49
0.0
 49
0.0
 49
1.0
175
     0
176
     2
142
0.0208333333333333
142
0.0
142
0.0
142
0.0
142
0.0
142
0.0208333333333333
142
0.0
142
0.0
142
0.0
142
0.0
142
1.0
142
0.0
142
0.0
142
0.0
142
0.0
142
1.0
179
     0
270
     2
144
0.0208333333333333
144
0.0
144
0.0
144
0.0
144
0.0
144
0.0208333333333333
144
0.0
144
0.0
144
0.0
144
0.0
144
1.0
144
0.0
144
0.0
144
0.0
144
0.0
144
1.0
274
     2
147
0.0208333333333333
147
0.0
147
0.0
147
0.0
147
0.0
147
0.0208333333333333
147
0.0
147
0.0
147
0.0
147
0.0
147
1.0
147
0.0
147
0.0
147
0.0
147
0.0
147
1.0
  0
ACAD_PROXY_OBJECT
  5
D9E8
102
{ACAD_REACTORS
330
D9E7
102
}
330
D9E7
100
AcDbZombieObject
 90
      499
 91
      511
 93
      610
310
40901902A4063FBFFFFFE000000000000002040AD7A3703D0AD73F4214DD185B99185C990000000000000104090141901A00000000000004100000000000000041025764000000000000300FC0
340
12
340
0
340
F
340
0
 94
        0
1001
ACAD_MLEADERVER
1070
     2
  0
MLINESTYLE
  5
1C
102
{ACAD_REACTORS
330
1B
102
}
330
1B
100
AcDbMlineStyle
  2
STANDARD
 70
     0
  3

 62
   256
 51
90.0
 52
90.0
 71
     2
 49
0.5
 62
   256
  6
BYLAYER
 49
-0.5
 62
   256
  6
BYLAYER
  0
ACAD_PROXY_OBJECT
  5
D9C6
102
{ACAD_REACTORS
330
D9C5
102
}
330
D9C5
100
AcDbZombieObject
 90
      499
 91
      510
 93
       41
310
903313A31580
  0
ACAD_PROXY_OBJECT
  5
D9C7
102
{ACAD_REACTORS
330
D9C5
102
}
330
D9C5
100
AcDbZombieObject
 90
      499
 91
      510
 93
      105
310
903313A324000000000000004000
  0
ACAD_PROXY_OBJECT
  5
D9C8
102
{ACAD_REACTORS
330
D9C5
102
}
330
D9C5
100
AcDbZombieObject
 90
      499
 91
      510
 93
      105
310
903313A344000000000000104000
  0
ACAD_PROXY_OBJECT
  5
D9C9
102
{ACAD_REACTORS
330
D9C5
102
}
330
D9C5
100
AcDbZombieObject
 90
      499
 91
      510
 93
      105
310
903313A354000000000000144000
  0
ACAD_PROXY_OBJECT
  5
D9CA
102
{ACAD_REACTORS
330
D9C5
102
}
330
D9C5
100
AcDbZombieObject
 90
      499
 91
      510
 93
      105
310
903313A384000000000000204000
  0
ACAD_PROXY_OBJECT
  5
D9CB
102
{ACAD_REACTORS
330
D9C5
102
}
330
D9C5
100
AcDbZombieObject
 90
      499
 91
      510
 93
      113
310
904313A31304000000000000244000
  0
ACAD_PROXY_OBJECT
  5
D9CC
102
{ACAD_REACTORS
330
D9C5
102
}
330
D9C5
100
AcDbZombieObject
 90
      499
 91
      510
 93
      113
310
904313A31364000000000000304000
  0
ACAD_PROXY_OBJECT
  5
D9CD
102
{ACAD_REACTORS
330
D9C5
102
}
330
D9C5
100
AcDbZombieObject
 90
      499
 91
      510
 93
      113
310
904313A32304000000000000344000
  0
ACAD_PROXY_OBJECT
  5
D9CE
102
{ACAD_REACTORS
330
D9C5
102
}
330
D9C5
100
AcDbZombieObject
 90
      499
 91
      510
 93
      113
310
904313A333040000000000003E4000
  0
ACAD_PROXY_OBJECT
  5
D9CF
102
{ACAD_REACTORS
330
D9C5
102
}
330
D9C5
100
AcDbZombieObject
 90
      499
 91
      510
 93
      113
310
904313A34304000000000000444000
  0
ACAD_PROXY_OBJECT
  5
D9D0
102
{ACAD_REACTORS
330
D9C5
102
}
330
D9C5
100
AcDbZombieObject
 90
      499
 91
      510
 93
      113
310
904313A35304000000000000494000
  0
ACAD_PROXY_OBJECT
  5
D9D1
102
{ACAD_REACTORS
330
D9C5
102
}
330
D9C5
100
AcDbZombieObject
 90
      499
 91
      510
 93
      121
310
905313A3130304000000000000594000
  0
ACAD_PROXY_OBJECT
  5
D9D2
102
{ACAD_REACTORS
330
D9C5
102
}
330
D9C5
100
AcDbZombieObject
 90
      499
 91
      510
 93
      105
310
903323A310000000000000010100
  0
ACAD_PROXY_OBJECT
  5
D9D3
102
{ACAD_REACTORS
330
D9C5
102
}
330
D9C5
100
AcDbZombieObject
 90
      499
 91
      510
 93
      105
310
903343A310000000000000410100
  0
ACAD_PROXY_OBJECT
  5
D9D4
102
{ACAD_REACTORS
330
D9C5
102
}
330
D9C5
100
AcDbZombieObject
 90
      499
 91
      510
 93
      105
310
903383A310000000000000810100
  0
ACAD_PROXY_OBJECT
  5
D9D5
102
{ACAD_REACTORS
330
D9C5
102
}
330
D9C5
100
AcDbZombieObject
 90
      499
 91
      510
 93
      113
310
90431303A310000000000000910100
  0
ACAD_PROXY_OBJECT
  5
D9D6
102
{ACAD_REACTORS
330
D9C5
102
}
330
D9C5
100
AcDbZombieObject
 90
      499
 91
      510
 93
      121
310
9053130303A310000000000001650100
  0
ACAD_PROXY_OBJECT
  5
D9D7
102
{ACAD_REACTORS
330
D9C5
102
}
330
D9C5
100
AcDbZombieObject
 90
      499
 91
      510
 93
      257
310
90E312F31323822203D2031272D3022000000000000200FC000000000000284000
  0
ACAD_PROXY_OBJECT
  5
D9D8
102
{ACAD_REACTORS
330
D9C5
102
}
330
D9C5
100
AcDbZombieObject
 90
      499
 91
      510
 93
      249
310
90D312F363422203D2031272D3022000000000000240FC000000000000284000
  0
ACAD_PROXY_OBJECT
  5
D9D9
102
{ACAD_REACTORS
330
D9C5
102
}
330
D9C5
100
AcDbZombieObject
 90
      499
 91
      510
 93
      249
310
90D312F333222203D2031272D3022000000000000280FC000000000000284000
  0
ACAD_PROXY_OBJECT
  5
D9DA
102
{ACAD_REACTORS
330
D9C5
102
}
330
D9C5
100
AcDbZombieObject
 90
      499
 91
      510
 93
      249
310
90D312F313622203D2031272D30220000000000002C0FC000000000000284000
  0
ACAD_PROXY_OBJECT
  5
D9DB
102
{ACAD_REACTORS
330
D9C5
102
}
330
D9C5
100
AcDbZombieObject
 90
      499
 91
      510
 93
      249
310
90D332F333222203D2031272D30220000000000002E0FC000000000000284000
  0
ACAD_PROXY_OBJECT
  5
D9DC
102
{ACAD_REACTORS
330
D9C5
102
}
330
D9C5
100
AcDbZombieObject
 90
      499
 91
      510
 93
      241
310
90C312F3822203D2031272D3022000000000000300FC000000000000284000
  0
ACAD_PROXY_OBJECT
  5
D9DD
102
{ACAD_REACTORS
330
D9C5
102
}
330
D9C5
100
AcDbZombieObject
 90
      499
 91
      510
 93
      249
310
90D332F313622203D2031272D3022000000000000320FC000000000000284000
  0
ACAD_PROXY_OBJECT
  5
D9DE
102
{ACAD_REACTORS
330
D9C5
102
}
330
D9C5
100
AcDbZombieObject
 90
      499
 91
      510
 93
      241
310
90C312F3422203D2031272D3022000000000000340FC000000000000284000
  0
ACAD_PROXY_OBJECT
  5
D9DF
102
{ACAD_REACTORS
330
D9C5
102
}
330
D9C5
100
AcDbZombieObject
 90
      499
 91
      510
 93
      241
310
90C332F3822203D2031272D3022000000000000360FC000000000000284000
  0
ACAD_PROXY_OBJECT
  5
D9E0
102
{ACAD_REACTORS
330
D9C5
102
}
330
D9C5
100
AcDbZombieObject
 90
      499
 91
      510
 93
      241
310
90C312F3222203D2031272D3022000000000000380FC000000000000284000
  0
ACAD_PROXY_OBJECT
  5
D9E1
102
{ACAD_REACTORS
330
D9C5
102
}
330
D9C5
100
AcDbZombieObject
 90
      499
 91
      510
 93
      241
310
90C332F3422203D2031272D30220000000000003A0FC000000000000284000
  0
ACAD_PROXY_OBJECT
  5
D9E2
102
{ACAD_REACTORS
330
D9C5
102
}
330
D9C5
100
AcDbZombieObject
 90
      499
 91
      510
 93
      161
310
90A3122203D2031272D30224000000000000284000
  0
ACAD_PROXY_OBJECT
  5
D9E3
102
{ACAD_REACTORS
330
D9C5
102
}
330
D9C5
100
AcDbZombieObject
 90
      499
 91
      510
 93
      257
310
90E312D312F3222203D2031272D30220000000000003E0FC000000000000284000
  0
ACAD_PROXY_OBJECT
  5
D9E4
102
{ACAD_REACTORS
330
D9C5
102
}
330
D9C5
100
AcDbZombieObject
 90
      499
 91
      510
 93
      225
310
90A3322203D2031272D302200000000000002100000000000000284000
  0
ACAD_PROXY_OBJECT
  5
D9E5
102
{ACAD_REACTORS
330
D9C5
102
}
330
D9C5
100
AcDbZombieObject
 90
      499
 91
      510
 93
      225
310
90A3622203D2031272D302200000000000006100000000000000284000
  0
ACAD_PROXY_OBJECT
  5
D9E6
102
{ACAD_REACTORS
330
D9C5
102
}
330
D9C5
100
AcDbZombieObject
 90
      499
 91
      510
 93
      249
310
90D31272D3022203D2031272D30220000000000000A100000000000000284000
  0
ACAD_PROXY_OBJECT
  5
D9BA
102
{ACAD_REACTORS
330
D9B4
102
}
330
D9B4
100
AcDbZombieObject
 90
      499
 91
      509
 93
      436
310
42CC9915DA5C99599C985B595049028333333333333E3BF0000000000000FB0107901411070040501600405405064090741402480A0340
1001
ACAD
1000
AcDbSavedByObjectVersion
1070
     0
  0
ACAD_PROXY_OBJECT
  5
D9BC
102
{ACAD_REACTORS
330
D9B4
102
}
330
D9B4
100
AcDbZombieObject
 90
      499
 91
      509
 93
      500
310
424CD108121A5919195B90640502408333333333333E3BF0000000000000FB01079024090700405020000000000001110200405405064090740C02480A0340
1001
ACAD
1000
AcDbSavedByObjectVersion
1070
     0
  0
ACAD_PROXY_OBJECT
  5
D9BB
102
{ACAD_REACTORS
330
D9B4
102
}
330
D9B4
100
AcDbZombieObject
 90
      499
 91
      509
 93
      436
310
42CCD915DA5C99599C985B595059028333333333333E3BF0000000000000FB0107901411070040501600405405064090741402480A0340
1001
ACAD
1000
AcDbSavedByObjectVersion
1070
     0
  0
ACAD_PROXY_OBJECT
  5
D9B9
102
{ACAD_REACTORS
330
D9B4
102
}
330
D9B4
100
AcDbZombieObject
 90
      499
 91
      509
 93
      388
310
4150985CDA58D07406404333333333333E3BF0000000000000FB0107A41107004050150841D405064090741402480A0350
1001
ACAD
1000
AcDbSavedByObjectVersion
1070
     0
  0
ACAD_PROXY_OBJECT
  5
D9C0
102
{ACAD_REACTORS
330
D9B4
102
}
330
D9B4
100
AcDbZombieObject
 90
      499
 91
      509
 93
      428
310
42109C9A59DA1D195B90C409028333333333333E3BF0000000000000FB010790141107004050150841D405064090741402480A029950
1001
ACAD
1000
AcDbSavedByObjectVersion
1070
     0
  0
ACAD_PROXY_OBJECT
  5
D9C4
102
{ACAD_REACTORS
330
D9B4
102
}
330
D9B4
100
AcDbZombieObject
 90
      499
 91
      509
 93
      452
310
42D0DBDB1BDC90DA185B99D95104090240C333333333333E3BF0000000000000FB0108901411070040501508421405064090741402480A0350
1001
ACAD
1000
AcDbSavedByObjectVersion
1070
     0
  0
ACAD_PROXY_OBJECT
  5
D9BD
102
{ACAD_REACTORS
330
D9B4
102
}
330
D9B4
100
AcDbZombieObject
 90
      499
 91
      509
 93
      500
310
4290DBDB98D95C1D1D585B10940D028333333333333E3BF0000000000000FB0107902409070040501000000000000111010841D405064090740C02480A0340
1001
ACAD
1000
AcDbSavedByObjectVersion
1070
     0
  0
ACAD_PROXY_OBJECT
  5
D9BF
102
{ACAD_REACTORS
330
D9B4
102
}
330
D9B4
100
AcDbZombieObject
 90
      499
 91
      509
 93
      412
310
40D11A5B50B409028333333333333E3BF0000000000000FB010790141107004050150841D405064090741402480A02677FFFFFD0
1001
ACAD
1000
AcDbSavedByObjectVersion
1070
     0
  0
ACAD_PROXY_OBJECT
  5
19C2F
102
{ACAD_REACTORS
330
D9B4
102
}
330
D9B4
100
AcDbZombieObject
 90
      499
 91
      509
 93
      452
310
43115919D950DBDB1BDC93D999916409028333333333333E3BF0000000000000FB010790141107004050150841D405064090741402480A0350
1001
ACAD
1000
AcDbSavedByObjectVersion
1070
     0
  0
ACAD_PROXY_OBJECT
  5
D9C3
102
{ACAD_REACTORS
330
D9B4
102
}
330
D9B4
100
AcDbZombieObject
 90
      499
 91
      509
 93
      444
310
42D19858D95C185D1D195C9B90F409028333333333333E3BF0000000000000FB010790141107004050150841D405064090741402480A0350
1001
ACAD
1000
AcDbSavedByObjectVersion
1070
     0
  0
ACAD_PROXY_OBJECT
  5
D9B5
102
{ACAD_REACTORS
330
D9B4
102
}
330
D9B4
100
AcDbZombieObject
 90
      499
 91
      509
 93
      388
310
41119B185D240901404333333333333E3BF0000000000000F9010740A41107004050150841D405064090741402480A1B50
1001
ACAD
1000
AcDbSavedByObjectVersion
1070
     0
  0
ACAD_PROXY_OBJECT
  5
D9B6
102
{ACAD_REACTORS
330
D9B4
102
}
330
D9B4
100
AcDbZombieObject
 90
      499
 91
      509
 93
      476
310
43519B185D15DA5D1A115919D95CD0140901404333333333333E3BF0000000000000F9010740901411070040501600405405064090741402480A1B50
1001
ACAD
1000
AcDbSavedByObjectVersion
1070
     0
  0
ACAD_PROXY_OBJECT
  5
D9B7
102
{ACAD_REACTORS
330
D9B4
102
}
330
D9B4
100
AcDbZombieObject
 90
      499
 91
      509
 93
      412
310
41D1DBDD5C985D5910240902404333333333333E3BF0000000000000F9010740A411070040501641D405064090741402480A1B50
1001
ACAD
1000
AcDbSavedByObjectVersion
1070
     0
  0
ACAD_PROXY_OBJECT
  5
D9B8
102
{ACAD_REACTORS
330
D9B4
102
}
330
D9B4
100
AcDbZombieObject
 90
      499
 91
      509
 93
      500
310
4411DBDD5C985D5915DA5D1A115919D95CD0340902404333333333333E3BF0000000000000F9010740901411070040501600405405064090741402480A1B50
1001
ACAD
1000
AcDbSavedByObjectVersion
1070
     0
  0
ACAD_PROXY_OBJECT
  5
19C7E
102
{ACAD_REACTORS
330
D9B4
102
}
330
D9B4
100
AcDbZombieObject
 90
      499
 91
      509
 93
      476
310
41921A5919195B90640502408333333333333E33F0000000000000F901079024090700405020000000000001110200405405064090740C02480A0340
1001
ACAD
1000
AcDbSavedByObjectVersion
1070
     0
  0
ACAD_PROXY_OBJECT
  5
19C2D
102
{ACAD_REACTORS
330
D9B4
102
}
330
D9B4
100
AcDbZombieObject
 90
      499
 91
      509
 93
      428
310
42529A5D1D195C93D999914409028333333333333E3BF0000000000000FB010790141107004050150A41D405064090741402480A0350
1001
ACAD
1000
AcDbSavedByObjectVersion
1070
     0
  0
ACAD_PROXY_OBJECT
  5
D9C2
102
{ACAD_REACTORS
330
D9B4
102
}
330
D9B4
100
AcDbZombieObject
 90
      499
 91
      509
 93
      444
310
42D31A5B995C185D1D195C9B90E409028333333333333E3BF0000000000000FB010790141107004050750841D405064090741402483A0350
1001
ACAD
1000
AcDbSavedByObjectVersion
1070
     0
  0
ACAD_PROXY_OBJECT
  5
19C84
102
{ACAD_REACTORS
330
D9B4
102
}
330
D9B4
100
AcDbZombieObject
 90
      499
 91
      509
 93
      484
310
42135BD9195B1A5B99D0A409038333333333333E33F0000000000000F901074090290700405010000000000201990108421405064090741402480A1B40
1001
ACAD
1000
AcDbSavedByObjectVersion
1070
     0
  0
ACAD_PROXY_OBJECT
  5
19C2E
102
{ACAD_REACTORS
330
D9B4
102
}
330
D9B4
100
AcDbZombieObject
 90
      499
 91
      509
 93
      444
310
42D3DD995C9A185B99D3D999915409028333333333333E3BF0000000000000FB010790141107004050150941D405064090741402480A0350
1001
ACAD
1000
AcDbSavedByObjectVersion
1070
     0
  0
ACAD_PROXY_OBJECT
  5
D9BE
102
{ACAD_REACTORS
330
D9B4
102
}
330
D9B4
100
AcDbZombieObject
 90
      499
 91
      509
 93
      420
310
425499585B1A5CDD1A58D08409028333333333333E3BF0000000000000FB01079019070040501508421405064090741402480A1B40
1001
ACAD
1000
AcDbSavedByObjectVersion
1070
     0
  0
ACAD_PROXY_OBJECT
  5
19C83
102
{ACAD_REACTORS
330
D9B4
102
}
330
D9B4
100
AcDbZombieObject
 90
      499
 91
      509
 93
      420
310
4194DA1859195911B40902404333333333333E33F0000000000000F9010740A41107004050150800405405064090840C02480A0B40
1001
ACAD
1000
AcDbSavedByObjectVersion
1070
     0
  0
ACAD_PROXY_OBJECT
  5
19C82
102
{ACAD_REACTORS
330
D9B4
102
}
330
D9B4
100
AcDbZombieObject
 90
      499
 91
      509
 93
      516
310
4454DA18591959081DDA5D1A08195919D95CD1A40902404333333333333E33F0000000000000F901074090142907004050250800405405064090740C02480A0B40
1001
ACAD
1000
AcDbSavedByObjectVersion
1070
     0
  0
ACAD_PROXY_OBJECT
  5
19C7F
102
{ACAD_REACTORS
330
D9B4
102
}
330
D9B4
100
AcDbZombieObject
 90
      499
 91
      509
 93
      532
310
4394DA1859195CC81BD98811DC985E5174090240C333333333333E33F0000000000000F901079024090741D01000000000000111010841D405064090740C02480A0340
1001
ACAD
1000
AcDbSavedByObjectVersion
1070
     0
  0
ACAD_PROXY_OBJECT
  5
19C80
102
{ACAD_REACTORS
330
D9B4
102
}
330
D9B4
100
AcDbZombieObject
 90
      499
 91
      509
 93
      476
310
41D4DAD95D18DA1E51840502408333333333333E33F0000000000000F901079024090741D01000000000000111010B41D405064090741802480A0340
1001
ACAD
1000
AcDbSavedByObjectVersion
1070
     0
  0
ACAD_PROXY_OBJECT
  5
D9C1
102
{ACAD_REACTORS
330
D9B4
102
}
330
D9B4
100
AcDbZombieObject
 90
      499
 91
      509
 93
      412
310
41D51A1A58DAD95B90D409028333333333333E3BF0000000000000FB010790141107004050150C41D405064090741402480A0350
1001
ACAD
1000
AcDbSavedByObjectVersion
1070
     0
  0
ACAD_PROXY_OBJECT
  5
19C7D
102
{ACAD_REACTORS
330
D9B4
102
}
330
D9B4
100
AcDbZombieObject
 90
      499
 91
      509
 93
      420
310
4255DA5C99599C985B595059028333333333333E33F0000000000000F90107901411070040501600405405064090740C02480A0340
1001
ACAD
1000
AcDbSavedByObjectVersion
1070
     0
  0
ACAD_PROXY_OBJECT
  5
19C81
102
{ACAD_REACTORS
330
D9B4
102
}
330
D9B4
100
AcDbZombieObject
 90
      499
 91
      509
 93
      404
310
41560B54985E51940902404000000000000E03F0000000000000F9010740501907004050150841D405064090740C02480A1B40
1001
ACAD
1000
AcDbSavedByObjectVersion
1070
     0
  0
XRECORD
  5
1B049
102
{ACAD_REACTORS
330
1B048
102
}
330
1B048
100
AcDbXrecord
340
18D
  0
XRECORD
  5
1B04A
102
{ACAD_REACTORS
330
1B048
102
}
330
1B048
100
AcDbXrecord
340
18C
  0
DICTIONARYVAR
  5
1A4C6
102
{ACAD_REACTORS
330
37
102
}
330
37
100
DictionaryVariables
280
     0
  1
1:1
  0
DICTIONARYVAR
  5
DA6A
102
{ACAD_REACTORS
330
37
102
}
330
37
100
DictionaryVariables
280
     0
  1
Standard
  0
DICTIONARYVAR
  5
29E
102
{ACAD_REACTORS
330
37
102
}
330
37
100
DictionaryVariables
280
     0
  1
Standard
  0
DICTIONARYVAR
  5
38
102
{ACAD_REACTORS
330
37
102
}
330
37
100
DictionaryVariables
280
     0
  1
-1
  0
DICTIONARYVAR
  5
1CE
102
{ACAD_REACTORS
330
37
102
}
330
37
100
DictionaryVariables
280
     0
  1
2
  0
DICTIONARYVAR
  5
704E
102
{ACAD_REACTORS
330
37
102
}
330
37
100
DictionaryVariables
280
     0
  1
1
  0
DICTIONARYVAR
  5
DA6D
102
{ACAD_REACTORS
330
37
102
}
330
37
100
DictionaryVariables
280
     0
  1
0
  0
DICTIONARYVAR
  5
7052
102
{ACAD_REACTORS
330
37
102
}
330
37
100
DictionaryVariables
280
     0
  1
8
  0
DICTIONARYVAR
  5
7051
102
{ACAD_REACTORS
330
37
102
}
330
37
100
DictionaryVariables
280
     0
  1
1
  0
DICTIONARYVAR
  5
1A516
102
{ACAD_REACTORS
330
37
102
}
330
37
100
DictionaryVariables
280
     0
  1
0
  0
DICTIONARYVAR
  5
704F
102
{ACAD_REACTORS
330
37
102
}
330
37
100
DictionaryVariables
280
     0
  1
8
  0
DICTIONARYVAR
  5
7050
102
{ACAD_REACTORS
330
37
102
}
330
37
100
DictionaryVariables
280
     0
  1
2
  0
DICTIONARYVAR
  5
1CF
102
{ACAD_REACTORS
330
37
102
}
330
37
100
DictionaryVariables
280
     0
  1

  0
DICTIONARYVAR
  5
DA6C
102
{ACAD_REACTORS
330
37
102
}
330
37
100
DictionaryVariables
280
     0
  1
127
  0
DICTIONARYVAR
  5
19C7C
102
{ACAD_REACTORS
330
37
102
}
330
37
100
DictionaryVariables
280
     0
  1
2
  0
DICTIONARY
  5
1B1E6
330
D9A4
100
AcDbDictionary
  3
ACAD_XREC_ROUNDTRIP
360
1B1E7
1001
ACAD
1000
TREAT_AS_HARD
1070
     1
  0
DICTIONARY
  5
1B1E8
330
D99C
100
AcDbDictionary
  3
ACAD_XREC_ROUNDTRIP
360
1B1E9
1001
ACAD
1000
TREAT_AS_HARD
1070
     1
  0
DICTIONARY
  5
1B1EA
330
D9AC
100
AcDbDictionary
  3
ACAD_XREC_ROUNDTRIP
360
1B1EB
1001
ACAD
1000
TREAT_AS_HARD
1070
     1
  0
XRECORD
  5
1B1E7
102
{ACAD_REACTORS
330
1B1E6
102
}
330
1B1E6
100
AcDbXrecord
102
MATERIAL
148
0.0
149
0.0
149
0.0
 93
        0
 94
      127
282
     0
 72
     0
 77
     0
171
     0
175
     0
179
     0
273
     0
  0
XRECORD
  5
1B1E9
102
{ACAD_REACTORS
330
1B1E8
102
}
330
1B1E8
100
AcDbXrecord
102
MATERIAL
148
0.0
149
0.0
149
0.0
 93
        0
 94
      127
282
     0
 72
     0
 77
     0
171
     0
175
     0
179
     0
273
     0
  0
XRECORD
  5
1B1EB
102
{ACAD_REACTORS
330
1B1EA
102
}
330
1B1EA
100
AcDbXrecord
102
MATERIAL
148
0.0
149
0.0
149
0.0
 93
        0
 94
      127
282
     0
 72
     0
 77
     0
171
     0
175
     0
179
     0
273
     0
  0
ENDSEC
  0
EOF
