  0
SECTION
  2
HEADER
  9
$ACADVER
  1
AC1012
  9
$DWGCODEPAGE
  3
ansi_932
  9
$INSBASE
 10
0.0
 20
0.0
 30
0.0
  9
$EXTMIN
 10
1912.791198364068
 20
-718.0862045542606
 30
0.0
  9
$EXTMAX
 10
2543.65676202511
 20
-295.0973781285978
 30
0.0000000000023235
  9
$LIMMIN
 10
0.0
 20
0.0
  9
$LIMMAX
 10
420.0
 20
297.0
  9
$ORTHOMODE
 70
     0
  9
$REGENMODE
 70
     1
  9
$FILLMODE
 70
     1
  9
$QTEXTMODE
 70
     0
  9
$MIRRTEXT
 70
     0
  9
$DRAGMODE
 70
     2
  9
$LTSCALE
 40
0.5
  9
$OSMODE
 70
 14463
  9
$ATTMODE
 70
     1
  9
$TEXTSIZE
 40
4.0
  9
$TRACEWID
 40
1.0
  9
$TEXTSTYLE
  7
STANDARD
  9
$CLAYER
  8
1TEXT
  9
$CELTYPE
  6
BYLAYER
  9
$CECOLOR
 62
   256
  9
$CELTSCALE
 40
1.0
  9
$DELOBJ
 70
     1
  9
$DISPSILH
 70
     0
  9
$DIMSCALE
 40
1.0
  9
$DIMASZ
 40
2.0
  9
$DIMEXO
 40
0.0
  9
$DIMDLI
 40
7.0
  9
$DIMRND
 40
0.0
  9
$DIMDLE
 40
0.0
  9
$DIMEXE
 40
1.0
  9
$DIMTP
 40
0.0
  9
$DIMTM
 40
0.0
  9
$DIMTXT
 40
3.5
  9
$DIMCEN
 40
0.0
  9
$DIMTSZ
 40
0.0
  9
$DIMTOL
 70
     0
  9
$DIMLIM
 70
     0
  9
$DIMTIH
 70
     0
  9
$DIMTOH
 70
     0
  9
$DIMSE1
 70
     0
  9
$DIMSE2
 70
     0
  9
$DIMTAD
 70
     1
  9
$DIMZIN
 70
     8
  9
$DIMBLK
  1

  9
$DIMASO
 70
     1
  9
$DIMSHO
 70
     1
  9
$DIMPOST
  1
 
  9
$DIMAPOST
  1

  9
$DIMALT
 70
     0
  9
$DIMALTD
 70
     2
  9
$DIMALTF
 40
25.4
  9
$DIMLFAC
 40
1.0
  9
$DIMTOFL
 70
     1
  9
$DIMTVP
 40
0.0
  9
$DIMTIX
 70
     0
  9
$DIMSOXD
 70
     0
  9
$DIMSAH
 70
     1
  9
$DIMBLK1
  1
OPEN30
  9
$DIMBLK2
  1
OPEN30
  9
$DIMSTYLE
  2
NEWX10
  9
$DIMCLRD
 70
   256
  9
$DIMCLRE
 70
   256
  9
$DIMCLRT
 70
   201
  9
$DIMTFAC
 40
0.7
  9
$DIMGAP
 40
0.7
  9
$DIMJUST
 70
     0
  9
$DIMSD1
 70
     0
  9
$DIMSD2
 70
     0
  9
$DIMTOLJ
 70
     1
  9
$DIMTZIN
 70
     8
  9
$DIMALTZ
 70
     0
  9
$DIMALTTZ
 70
     0
  9
$DIMFIT
 70
     3
  9
$DIMUPT
 70
     0
  9
$DIMUNIT
 70
     2
  9
$DIMDEC
 70
     2
  9
$DIMTDEC
 70
     4
  9
$DIMALTU
 70
     2
  9
$DIMALTTD
 70
     2
  9
$DIMTXSTY
  7
STANDARD
  9
$DIMAUNIT
 70
     0
  9
$LUNITS
 70
     2
  9
$LUPREC
 70
     4
  9
$SKETCHINC
 40
1.0
  9
$FILLETRAD
 40
0.0
  9
$AUNITS
 70
     0
  9
$AUPREC
 70
     2
  9
$MENU
  1
acad
  9
$ELEVATION
 40
0.0
  9
$PELEVATION
 40
0.0
  9
$THICKNESS
 40
0.0
  9
$LIMCHECK
 70
     0
  9
$CHAMFERA
 40
10.0
  9
$CHAMFERB
 40
10.0
  9
$CHAMFERC
 40
20.0
  9
$CHAMFERD
 40
0.0
  9
$SKPOLY
 70
     0
  9
$TDCREATE
 40
2451318.621352917
  9
$TDUPDATE
 40
2458159.548778299
  9
$TDINDWG
 40
1.5328034491
  9
$TDUSRTIMER
 40
1.5328034491
  9
$USRTIMER
 70
     1
  9
$ANGBASE
 50
0.0
  9
$ANGDIR
 70
     0
  9
$PDMODE
 70
     0
  9
$PDSIZE
 40
0.0
  9
$PLINEWID
 40
0.0
  9
$COORDS
 70
     2
  9
$SPLFRAME
 70
     0
  9
$SPLINETYPE
 70
     6
  9
$SPLINESEGS
 70
     8
  9
$ATTDIA
 70
     0
  9
$ATTREQ
 70
     1
  9
$HANDLING
 70
     1
  9
$HANDSEED
  5
1B0B5
  9
$SURFTAB1
 70
     6
  9
$SURFTAB2
 70
     6
  9
$SURFTYPE
 70
     6
  9
$SURFU
 70
     6
  9
$SURFV
 70
     6
  9
$UCSNAME
  2

  9
$UCSORG
 10
0.0
 20
0.0
 30
0.0
  9
$UCSXDIR
 10
1.0
 20
0.0
 30
0.0
  9
$UCSYDIR
 10
0.0
 20
1.0
 30
0.0
  9
$PUCSNAME
  2

  9
$PUCSORG
 10
0.0
 20
0.0
 30
0.0
  9
$PUCSXDIR
 10
1.0
 20
0.0
 30
0.0
  9
$PUCSYDIR
 10
0.0
 20
1.0
 30
0.0
  9
$USERI1
 70
     0
  9
$USERI2
 70
     0
  9
$USERI3
 70
     0
  9
$USERI4
 70
     0
  9
$USERI5
 70
     0
  9
$USERR1
 40
0.0
  9
$USERR2
 40
0.0
  9
$USERR3
 40
0.0
  9
$USERR4
 40
0.0
  9
$USERR5
 40
0.0
  9
$WORLDVIEW
 70
     1
  9
$SHADEDGE
 70
     3
  9
$SHADEDIF
 70
    70
  9
$TILEMODE
 70
     1
  9
$MAXACTVP
 70
    48
  9
$PINSBASE
 10
0.0
 20
0.0
 30
0.0
  9
$PLIMCHECK
 70
     0
  9
$PEXTMIN
 10
1.000000000000000E+20
 20
1.000000000000000E+20
 30
1.000000000000000E+20
  9
$PEXTMAX
 10
-1.000000000000000E+20
 20
-1.000000000000000E+20
 30
-1.000000000000000E+20
  9
$PLIMMIN
 10
0.0
 20
0.0
  9
$PLIMMAX
 10
420.0
 20
297.0
  9
$UNITMODE
 70
     0
  9
$VISRETAIN
 70
     1
  9
$PLINEGEN
 70
     0
  9
$PSLTSCALE
 70
     1
  9
$TREEDEPTH
 70
  3020
  9
$PICKSTYLE
 70
     1
  9
$CMLSTYLE
  2
STANDARD
  9
$CMLJUST
 70
     0
  9
$CMLSCALE
 40
20.0
  9
$SAVEIMAGES
 70
     1
  0
ENDSEC
  0
SECTION
  2
CLASSES
  0
CLASS
  1
DICTIONARYVAR
  2
AcDbDictionaryVar
  3
ObjectDBX Classes
 90
        0
280
     0
281
     0
  0
CLASS
  1
IDBUFFER
  2
AcDbIdBuffer
  3
ObjectDBX Classes
 90
    32768
280
     0
281
     0
  0
CLASS
  1
LWPOLYLINE
  2
AcDbPolyline
  3
ObjectDBX Classes
 90
    32768
280
     0
281
     1
  0
CLASS
  1
ACDBDICTIONARYWDFLT
  2
AcDbDictionaryWithDefault
  3
ObjectDBX Classes
 90
    32768
280
     0
281
     0
  0
CLASS
  1
ACDBPLACEHOLDER
  2
AcDbPlaceHolder
  3
ObjectDBX Classes
 90
        0
280
     0
281
     0
  0
CLASS
  1
LAYOUT
  2
AcDbLayout
  3
ObjectDBX Classes
 90
        0
280
     0
281
     0
  0
CLASS
  1
TABLESTYLE
  2
AcDbTableStyle
  3
ObjectDBX Classes
 90
     4095
280
     0
281
     0
  0
CLASS
  1
SORTENTSTABLE
  2
AcDbSortentsTable
  3
ObjectDBX Classes
 90
    32768
280
     0
281
     0
  0
CLASS
  1
MATERIAL
  2
AcDbMaterial
  3
ObjectDBX Classes
 90
     1153
280
     0
281
     0
  0
CLASS
  1
VISUALSTYLE
  2
AcDbVisualStyle
  3
ObjectDBX Classes
 90
     4095
280
     0
281
     0
  0
CLASS
  1
SCALE
  2
AcDbScale
  3
ObjectDBX Classes
 90
     1153
280
     0
281
     0
  0
CLASS
  1
MLEADERSTYLE
  2
AcDbMLeaderStyle
  3
ACDB_MLEADERSTYLE_CLASS
 90
     4095
280
     0
281
     0
  0
CLASS
  1
CELLSTYLEMAP
  2
AcDbCellStyleMap
  3
ObjectDBX Classes
 90
     1152
280
     0
281
     0
  0
CLASS
  1
SUN
  2
AcDbSun
  3
SCENEOE
 90
     1153
280
     0
281
     0
  0
CLASS
  1
XRECORD
  2
AcDbXrecord
  3
ObjectDBX Classes
 90
    32768
280
     0
281
     0
  0
CLASS
  1
HATCH
  2
AcDbHatch
  3
ObjectDBX Classes
 90
    32768
280
     0
281
     1
  0
ENDSEC
  0
SECTION
  2
TABLES
  0
TABLE
  2
VPORT
  5
8
330
0
100
AcDbSymbolTable
 70
     1
  0
VPORT
  5
D991
330
8
100
AcDbSymbolTableRecord
100
AcDbViewportTableRecord
  2
*ACTIVE
 70
     0
 10
0.0
 20
0.0
 11
1.0
 21
1.0
 12
2228.223980194589
 22
-506.5917913414291
 13
0.0
 23
0.0
 14
10.0
 24
10.0
 15
10.0
 25
10.0
 16
0.0
 26
0.0
 36
1.0
 17
0.0
 27
0.0
 37
0.0
 40
454.1564241622906
 41
1.871481028151775
 42
50.0
 43
0.0
 44
0.0
 50
0.0
 51
0.0
 71
    16
 72
   100
 73
     1
 74
     1
 75
     0
 76
     0
 77
     0
 78
     0
  0
ENDTAB
  0
TABLE
  2
LTYPE
  5
5
330
0
100
AcDbSymbolTable
 70
     3
  0
LTYPE
  5
12
330
5
100
AcDbSymbolTableRecord
100
AcDbLinetypeTableRecord
  2
BYBLOCK
 70
     0
  3

 72
    65
 73
     0
 40
0.0
  0
LTYPE
  5
13
330
5
100
AcDbSymbolTableRecord
100
AcDbLinetypeTableRecord
  2
BYLAYER
 70
     0
  3

 72
    65
 73
     0
 40
0.0
  0
LTYPE
  5
14
330
5
100
AcDbSymbolTableRecord
100
AcDbLinetypeTableRecord
  2
CONTINUOUS
 70
     0
  3
Solid line
 72
    65
 73
     0
 40
0.0
  0
LTYPE
  5
2C03
330
5
100
AcDbSymbolTableRecord
100
AcDbLinetypeTableRecord
  2
HIDDEN
 70
     0
  3
Hidden __ __ __ __ __ __ __ __ __ __ __ __ __ _
 72
    65
 73
     2
 40
9.524999999999999
 49
6.35
 74
     0
 49
-3.175
 74
     0
  0
LTYPE
  5
13839
330
5
100
AcDbSymbolTableRecord
100
AcDbLinetypeTableRecord
  2
CENTER2
 70
     0
  3
Center (.5x) ___ _ ___ _ ___ _ ___ _ ___ _ ___
 72
    65
 73
     4
 40
28.575
 49
19.05
 74
     0
 49
-3.175
 74
     0
 49
3.175
 74
     0
 49
-3.175
 74
     0
  0
ENDTAB
  0
TABLE
  2
LAYER
  5
2
102
{ACAD_XDICTIONARY
360
E6A6
102
}
330
0
100
AcDbSymbolTable
 70
     6
  0
LAYER
  5
E
102
{ACAD_XDICTIONARY
360
DA05
102
}
330
2
100
AcDbSymbolTableRecord
100
AcDbLayerTableRecord
  2
0
 70
     0
 62
     7
  6
CONTINUOUS
  0
LAYER
  5
29
102
{ACAD_XDICTIONARY
360
DA07
102
}
330
2
100
AcDbSymbolTableRecord
100
AcDbLayerTableRecord
  2
1CENTER
 70
     0
 62
     7
  6
CENTER2
  0
LAYER
  5
31
102
{ACAD_XDICTIONARY
360
DA09
102
}
330
2
100
AcDbSymbolTableRecord
100
AcDbLayerTableRecord
  2
1TEXT
 70
     0
 62
     7
  6
CONTINUOUS
  0
LAYER
  5
243
102
{ACAD_XDICTIONARY
360
DA0F
102
}
330
2
100
AcDbSymbolTableRecord
100
AcDbLayerTableRecord
  2
01
 70
     0
 62
     1
  6
CONTINUOUS
  0
LAYER
  5
24E
102
{ACAD_XDICTIONARY
360
DA15
102
}
330
2
100
AcDbSymbolTableRecord
100
AcDbLayerTableRecord
  2
1DIM
 70
     0
 62
     7
  6
CONTINUOUS
  0
LAYER
  5
2C05
102
{ACAD_XDICTIONARY
360
DA23
102
}
330
2
100
AcDbSymbolTableRecord
100
AcDbLayerTableRecord
  2
1HIDDEN
 70
     0
 62
     7
  6
HIDDEN
  0
ENDTAB
  0
TABLE
  2
STYLE
  5
3
330
0
100
AcDbSymbolTable
 70
     1
  0
STYLE
  5
F
330
3
100
AcDbSymbolTableRecord
100
AcDbTextStyleTableRecord
  2
STANDARD
 70
     0
 40
0.0
 41
1.0
 50
0.0
 71
     0
 42
4.0
  3
txt.shx
  4
extfont.shx
  0
ENDTAB
  0
TABLE
  2
VIEW
  5
6
330
0
100
AcDbSymbolTable
 70
     0
  0
ENDTAB
  0
TABLE
  2
UCS
  5
7
330
0
100
AcDbSymbolTable
 70
     5
  0
UCS
  5
1A725
330
7
100
AcDbSymbolTableRecord
100
AcDbUCSTableRecord
  2
U
 70
     0
 10
0.0
 20
0.0
 30
0.0
 11
1.0
 21
0.0
 31
0.0
 12
0.0
 22
2.220446049250313E-16
 32
1.0
 79
     0
146
0.0
  0
UCS
  5
1A726
330
7
100
AcDbSymbolTableRecord
100
AcDbUCSTableRecord
  2
L
 70
     0
 10
0.0
 20
0.0
 30
0.0
 11
-2.220446049250313E-16
 21
-1.0
 31
2.220446049250313E-16
 12
0.0
 22
2.220446049250313E-16
 32
1.0
 79
     0
146
0.0
  0
UCS
  5
1A727
330
7
100
AcDbSymbolTableRecord
100
AcDbUCSTableRecord
  2
R
 70
     0
 10
0.0
 20
0.0
 30
0.0
 11
3.445052403072690E-16
 21
1.0
 31
-2.220446049250313E-16
 12
0.0
 22
2.220446049250313E-16
 32
1.0
 79
     0
146
0.0
  0
UCS
  5
1A728
330
7
100
AcDbSymbolTableRecord
100
AcDbUCSTableRecord
  2
ISOME
 70
     0
 10
0.0
 20
0.0
 30
0.0
 11
0.7071450863198264
 21
-0.7070684729403536
 31
-3.830824619477369E-5
 12
0.4082704059428736
 22
0.408270407740115
 32
0.8164744636514737
 79
     0
146
0.0
  0
UCS
  5
1A729
330
7
100
AcDbSymbolTableRecord
100
AcDbUCSTableRecord
  2
PERSPECTIVE
 70
     0
 10
0.0
 20
0.0
 30
0.0
 11
0.8191477691768962
 21
-0.5735823260466402
 31
-0.0004974931557765183
 12
0.1584844715982971
 22
0.225502028986108
 32
0.961265575782966
 79
     0
146
0.0
  0
ENDTAB
  0
TABLE
  2
APPID
  5
9
330
0
100
AcDbSymbolTable
 70
    13
  0
APPID
  5
10
330
9
100
AcDbSymbolTableRecord
100
AcDbRegAppTableRecord
  2
ACAD
 70
     0
  0
APPID
  5
21
330
9
100
AcDbSymbolTableRecord
100
AcDbRegAppTableRecord
  2
DRAWINGVARIABLESXDATA
 70
     0
  0
APPID
  5
64
330
9
100
AcDbSymbolTableRecord
100
AcDbRegAppTableRecord
  2
CONTENTTABDATA
 70
     0
  0
APPID
  5
65
330
9
100
AcDbSymbolTableRecord
100
AcDbRegAppTableRecord
  2
CONTENTCURRENTTAB
 70
     0
  0
APPID
  5
66
330
9
100
AcDbSymbolTableRecord
100
AcDbRegAppTableRecord
  2
CONTENTBLOCKDESCRIPTION
 70
     0
  0
APPID
  5
67
330
9
100
AcDbSymbolTableRecord
100
AcDbRegAppTableRecord
  2
CONTENTBLOCKICON
 70
     0
  0
APPID
  5
68
330
9
100
AcDbSymbolTableRecord
100
AcDbRegAppTableRecord
  2
CONTENTLONGBLOCKNAME
 70
     0
  0
APPID
  5
2AE
330
9
100
AcDbSymbolTableRecord
100
AcDbRegAppTableRecord
  2
ACAD_PSEXT
 70
     0
  0
APPID
  5
D9E9
330
9
100
AcDbSymbolTableRecord
100
AcDbRegAppTableRecord
  2
ACAD_MLEADERVER
 70
     0
  0
APPID
  5
19D01
330
9
100
AcDbSymbolTableRecord
100
AcDbRegAppTableRecord
  2
ACADANNOTATIVE
 70
     0
  0
APPID
  5
19D02
330
9
100
AcDbSymbolTableRecord
100
AcDbRegAppTableRecord
  2
ACDBBLOCKREPETAG
 70
     0
  0
APPID
  5
1A613
330
9
100
AcDbSymbolTableRecord
100
AcDbRegAppTableRecord
  2
ACAD_OBJECT_CHANGE_GUID
 70
     0
  0
APPID
  5
1A7EE
330
9
100
AcDbSymbolTableRecord
100
AcDbRegAppTableRecord
  2
ACAECLAYERSTANDARD
 70
     0
  0
ENDTAB
  0
TABLE
  2
DIMSTYLE
  5
A
330
0
100
AcDbSymbolTable
 70
     1
  0
DIMSTYLE
105
48
330
A
100
AcDbSymbolTableRecord
100
AcDbDimStyleTableRecord
  2
NEWX10
 70
     0
  3
 
  4

  5

  6
OPEN30
  7
OPEN30
 40
1.0
 41
2.0
 42
0.0
 43
7.0
 44
1.0
 45
0.0
 46
0.0
 47
0.0
 48
0.0
140
3.5
141
0.0
142
0.0
143
25.4
144
1.0
145
0.0
146
0.7
147
0.7
 71
     0
 72
     0
 73
     0
 74
     0
 75
     0
 76
     0
 77
     1
 78
     8
170
     0
171
     2
172
     1
173
     1
174
     0
175
     0
176
   256
177
   256
178
   201
179
     1
270
     2
271
     2
272
     4
273
     2
274
     2
340
F
275
     0
280
     0
281
     0
282
     0
283
     1
284
     8
285
     0
286
     0
287
     3
288
     0
  0
ENDTAB
  0
TABLE
  2
BLOCK_RECORD
  5
1
330
0
100
AcDbSymbolTable
 70
     8
  0
BLOCK_RECORD
  5
18
102
{ACAD_XDICTIONARY
360
88F
102
}
330
1
100
AcDbSymbolTableRecord
100
AcDbBlockTableRecord
  2
*MODEL_SPACE
  0
BLOCK_RECORD
  5
15
330
1
100
AcDbSymbolTableRecord
100
AcDbBlockTableRecord
  2
*PAPER_SPACE
  0
BLOCK_RECORD
  5
42
330
1
100
AcDbSymbolTableRecord
100
AcDbBlockTableRecord
  2
_OPEN30
  0
BLOCK_RECORD
  5
19D51
330
1
100
AcDbSymbolTableRecord
100
AcDbBlockTableRecord
  2
A3WAKUKAWAJUN2017_HYOUDAI_
  0
BLOCK_RECORD
  5
1AF15
330
1
100
AcDbSymbolTableRecord
100
AcDbBlockTableRecord
  2
*X50
  0
BLOCK_RECORD
  5
1AF63
330
1
100
AcDbSymbolTableRecord
100
AcDbBlockTableRecord
  2
*X51
  0
BLOCK_RECORD
  5
1AFB5
330
1
100
AcDbSymbolTableRecord
100
AcDbBlockTableRecord
  2
*X52
  0
BLOCK_RECORD
  5
1B006
330
1
100
AcDbSymbolTableRecord
100
AcDbBlockTableRecord
  2
*X53
  0
BLOCK_RECORD
  5
1B043
330
1
100
AcDbSymbolTableRecord
100
AcDbBlockTableRecord
  2
*X54
  0
BLOCK_RECORD
  5
1B083
330
1
100
AcDbSymbolTableRecord
100
AcDbBlockTableRecord
  2
*X55
  0
ENDTAB
  0
ENDSEC
  0
SECTION
  2
BLOCKS
  0
BLOCK
  5
19
330
18
100
AcDbEntity
  8
0
100
AcDbBlockBegin
  2
*MODEL_SPACE
 70
     0
 10
0.0
 20
0.0
 30
0.0
  3
*MODEL_SPACE
  1

  0
ENDBLK
  5
1A
330
18
100
AcDbEntity
  8
0
100
AcDbBlockEnd
  0
BLOCK
  5
16
330
15
100
AcDbEntity
 67
     1
  8
0
100
AcDbBlockBegin
  2
*PAPER_SPACE
 70
     0
 10
0.0
 20
0.0
 30
0.0
  3
*PAPER_SPACE
  1

  0
ENDBLK
  5
17
330
15
100
AcDbEntity
 67
     1
  8
0
100
AcDbBlockEnd
  0
BLOCK
  5
43
330
42
100
AcDbEntity
  8
0
100
AcDbBlockBegin
  2
_OPEN30
 70
     0
 10
0.0
 20
0.0
 30
0.0
  3
_OPEN30
  1

  0
LINE
  5
44
330
42
100
AcDbEntity
  8
0
  6
BYBLOCK
 62
     0
100
AcDbLine
 10
-1.0
 20
0.26794919
 30
0.0
 11
0.0
 21
0.0
 31
0.0
  0
LINE
  5
45
330
42
100
AcDbEntity
  8
0
  6
BYBLOCK
 62
     0
100
AcDbLine
 10
0.0
 20
0.0
 30
0.0
 11
-1.0
 21
-0.26794919
 31
0.0
  0
LINE
  5
46
330
42
100
AcDbEntity
  8
0
  6
BYBLOCK
 62
     0
100
AcDbLine
 10
0.0
 20
0.0
 30
0.0
 11
-1.0
 21
0.0
 31
0.0
  0
ENDBLK
  5
47
330
42
100
AcDbEntity
  8
0
100
AcDbBlockEnd
  0
BLOCK
  5
1A474
330
19D51
100
AcDbEntity
  8
0
100
AcDbBlockBegin
  2
A3WAKUKAWAJUN2017_HYOUDAI_
 70
     0
 10
0.0
 20
0.0
 30
0.0
  3
A3WAKUKAWAJUN2017_HYOUDAI_
  1

  0
LINE
  5
19D53
330
19D51
100
AcDbEntity
  8
0
100
AcDbLine
 10
13.26299999998673
 20
-0.0001000000000317
 30
0.0
 11
9.236999999990758
 21
8.999899999990987
 31
0.0
1001
ACAD
1000
ASC_BOUNDS
1002
{
1070
    19
1005
19D94
1002
}
  0
LINE
  5
19D54
330
19D51
100
AcDbEntity
  8
0
100
AcDbLine
 10
5.657999999994331
 20
0.9999999999989768
 30
0.0
 11
9.236999999990758
 21
8.999999999991019
 31
0.0
1001
ACAD
1000
ASC_BOUNDS
1002
{
1070
    19
1005
19D94
1002
}
  0
LINE
  5
19D55
330
19D51
100
AcDbEntity
  8
0
100
AcDbLine
 10
18.59199999998134
 20
-0.2368999999997641
 30
0.0
 11
16.46099999998353
 21
5.432899999994561
 31
0.0
1001
ACAD
1000
ASC_BOUNDS
1002
{
1070
    19
1005
19D95
1002
}
  0
LINE
  5
19D56
330
19D51
100
AcDbEntity
  8
0
100
AcDbLine
 10
18.59199999998134
 20
-0.2368999999997641
 30
0.0
 11
22.38199999997767
 21
8.763099999991255
 31
0.0
1001
ACAD
1000
ASC_BOUNDS
1002
{
1070
    19
1005
19D95
1002
}
  0
LINE
  5
19D57
330
19D51
100
AcDbEntity
  8
0
100
AcDbLine
 10
14.32899999998563
 20
-0.2368999999997641
 30
0.0
 11
16.46099999998353
 21
5.432899999994561
 31
0.0
1001
ACAD
1000
ASC_BOUNDS
1002
{
1070
    19
1005
19D95
1002
}
  0
LINE
  5
19D58
330
19D51
100
AcDbEntity
  8
0
100
AcDbLine
 10
14.32899999998563
 20
-0.2368999999997641
 30
0.0
 11
10.53899999998941
 21
8.763099999991255
 31
0.0
1001
ACAD
1000
ASC_BOUNDS
1002
{
1070
    19
1005
19D95
1002
}
  0
LINE
  5
19D59
330
19D51
100
AcDbEntity
  8
0
100
AcDbLine
 10
19.53899999998043
 20
-0.0001000000000317
 30
0.0
 11
23.56599999997638
 21
8.999899999990987
 31
0.0
1001
ACAD
1000
ASC_BOUNDS
1002
{
1070
    19
1005
19D96
1002
}
  0
LINE
  5
19D5A
330
19D51
100
AcDbEntity
  8
0
100
AcDbLine
 10
26.97358892824991
 20
1.383099999991202
 30
0.0
 11
23.56599999997638
 21
8.999899999990987
 31
0.0
1001
ACAD
1000
ASC_BOUNDS
1002
{
1070
    19
1005
19D96
1002
}
  0
LINE
  5
19D5B
330
19D51
100
AcDbEntity
  8
0
100
AcDbLine
 10
5.657999999994331
 20
0.9999999999989768
 30
0.0
 11
3.181999999996833
 21
4.668599999995308
 31
0.0
1001
ACAD
1000
ASC_BOUNDS
1002
{
1070
    19
1005
19D94
1002
}
  0
LINE
  5
19D5C
330
19D51
100
AcDbEntity
  8
0
100
AcDbLine
 10
4.617999999995391
 20
-0.0001000000000317
 30
0.0
 11
1.420999999998571
 21
4.736799999995242
 31
0.0
1001
ACAD
1000
ASC_BOUNDS
1002
{
1070
    19
1005
19D94
1002
}
  0
LINE
  5
19D5D
330
19D51
100
AcDbEntity
  8
0
100
AcDbLine
 10
1.420999999998571
 20
8.763099999991255
 30
0.0
 11
1.420999999998571
 21
0.0
 31
0.0
1001
ACAD
1000
ASC_BOUNDS
1002
{
1070
    19
1005
19D99
1002
}
  0
LINE
  5
19D5E
330
19D51
100
AcDbEntity
  8
0
100
AcDbLine
 10
0.0
 20
8.763099999991255
 30
0.0
 11
0.0
 21
0.0
 31
0.0
1001
ACAD
1000
ASC_BOUNDS
1002
{
1070
    19
1005
19D99
1002
}
  0
LINE
  5
19D5F
330
19D51
100
AcDbEntity
  8
0
100
AcDbLine
 10
6.766999999993232
 20
-0.0001000000000317
 30
0.0
 11
7.826999999992154
 21
2.368399999997621
 31
0.0
1001
ACAD
1000
ASC_BOUNDS
1002
{
1070
    19
1005
19D94
1002
}
  0
LINE
  5
19D60
330
19D51
100
AcDbEntity
  8
0
100
AcDbLine
 10
0.0
 20
0.0
 30
0.0
 11
1.420999999998571
 21
0.0
 31
0.0
1001
ACAD
1000
ASC_BOUNDS
1002
{
1070
    19
1005
19D99
1002
}
  0
LINE
  5
19D61
330
19D51
100
AcDbEntity
  8
0
100
AcDbLine
 10
4.617999999995391
 20
0.0
 30
0.0
 11
6.766999999993232
 21
0.0
 31
0.0
1001
ACAD
1000
ASC_BOUNDS
1002
{
1070
    19
1005
19D94
1002
}
  0
LINE
  5
19D62
330
19D51
100
AcDbEntity
  8
0
100
AcDbLine
 10
11.70599999998831
 20
-0.0001000000000317
 30
0.0
 11
10.64699999998936
 21
2.368399999997621
 31
0.0
1001
ACAD
1000
ASC_BOUNDS
1002
{
1070
    19
1005
19D94
1002
}
  0
LINE
  5
19D63
330
19D51
100
AcDbEntity
  8
0
100
AcDbLine
 10
7.826999999992154
 20
2.368399999997621
 30
0.0
 11
10.64699999998936
 21
2.368399999997621
 31
0.0
1001
ACAD
1000
ASC_BOUNDS
1002
{
1070
    19
1005
19D94
1002
}
  0
LINE
  5
19D64
330
19D51
100
AcDbEntity
  8
0
100
AcDbLine
 10
11.70599999998831
 20
0.0
 30
0.0
 11
13.26299999998673
 21
0.0
 31
0.0
1001
ACAD
1000
ASC_BOUNDS
1002
{
1070
    19
1005
19D94
1002
}
  0
LINE
  5
19D65
330
19D51
100
AcDbEntity
  8
0
100
AcDbLine
 10
22.15599999997789
 20
2.368399999997621
 30
0.0
 11
24.97599999997499
 21
2.368399999997621
 31
0.0
1001
ACAD
1000
ASC_BOUNDS
1002
{
1070
    19
1005
19D96
1002
}
  0
LINE
  5
19D66
330
19D51
100
AcDbEntity
  8
0
100
AcDbLine
 10
19.53899999998043
 20
0.0
 30
0.0
 11
21.09599999997886
 21
0.0
 31
0.0
1001
ACAD
1000
ASC_BOUNDS
1002
{
1070
    19
1005
19D96
1002
}
  0
LINE
  5
19D67
330
19D51
100
AcDbEntity
  8
0
100
AcDbLine
 10
21.09599999997886
 20
-0.0001000000000317
 30
0.0
 11
22.15599999997789
 21
2.368399999997621
 31
0.0
1001
ACAD
1000
ASC_BOUNDS
1002
{
1070
    19
1005
19D96
1002
}
  0
LINE
  5
19D68
330
19D51
100
AcDbEntity
  8
0
100
AcDbLine
 10
26.02015566812236
 20
0.0330999999912365
 30
0.0
 11
24.97599999997499
 21
2.368399999997621
 31
0.0
1001
ACAD
1000
ASC_BOUNDS
1002
{
1070
    19
1005
19D96
1002
}
  0
LINE
  5
19D69
330
19D51
100
AcDbEntity
  8
0
100
AcDbLine
 10
14.32399999998563
 20
3.315799999996671
 30
0.0
 11
16.46099999998353
 21
8.999899999990987
 31
0.0
1001
ACAD
1000
ASC_BOUNDS
1002
{
1070
    19
1005
19D95
1002
}
  0
LINE
  5
19D6A
330
19D51
100
AcDbEntity
  8
0
100
AcDbLine
 10
6.432999999993513
 20
8.763099999991255
 30
0.0
 11
3.181999999996833
 21
4.668599999995308
 31
0.0
1001
ACAD
1000
ASC_BOUNDS
1002
{
1070
    19
1005
19D94
1002
}
  0
LINE
  5
19D6B
330
19D51
100
AcDbEntity
  8
0
100
AcDbLine
 10
4.617999999995391
 20
8.763099999991255
 30
0.0
 11
1.420999999998571
 21
4.736799999995242
 31
0.0
1001
ACAD
1000
ASC_BOUNDS
1002
{
1070
    19
1005
19D94
1002
}
  0
LINE
  5
19D6C
330
19D51
100
AcDbEntity
  8
0
100
AcDbLine
 10
0.0
 20
8.763099999991255
 30
0.0
 11
1.420999999998571
 21
8.763099999991255
 31
0.0
1001
ACAD
1000
ASC_BOUNDS
1002
{
1070
    19
1005
19D99
1002
}
  0
LINE
  5
19D6D
330
19D51
100
AcDbEntity
  8
0
100
AcDbLine
 10
4.617999999995391
 20
8.763099999991255
 30
0.0
 11
6.432999999993513
 21
8.763099999991255
 31
0.0
1001
ACAD
1000
ASC_BOUNDS
1002
{
1070
    19
1005
19D94
1002
}
  0
LINE
  5
19D6E
330
19D51
100
AcDbEntity
  8
0
100
AcDbLine
 10
14.32399999998563
 20
3.315799999996671
 30
0.0
 11
12.02999999998792
 21
8.763099999991255
 31
0.0
1001
ACAD
1000
ASC_BOUNDS
1002
{
1070
    19
1005
19D95
1002
}
  0
LINE
  5
19D6F
330
19D51
100
AcDbEntity
  8
0
100
AcDbLine
 10
10.06399999998996
 20
3.670999999996297
 30
0.0
 11
9.236999999990758
 21
5.5200999999945
 31
0.0
1001
ACAD
1000
ASC_BOUNDS
1002
{
1070
    19
1005
19D94
1002
}
  0
LINE
  5
19D70
330
19D51
100
AcDbEntity
  8
0
100
AcDbLine
 10
8.409999999991555
 20
3.670999999996297
 30
0.0
 11
9.236999999990758
 21
5.5200999999945
 31
0.0
1001
ACAD
1000
ASC_BOUNDS
1002
{
1070
    19
1005
19D94
1002
}
  0
LINE
  5
19D71
330
19D51
100
AcDbEntity
  8
0
100
AcDbLine
 10
8.409999999991555
 20
3.670999999996297
 30
0.0
 11
10.06399999998996
 21
3.670999999996297
 31
0.0
1001
ACAD
1000
ASC_BOUNDS
1002
{
1070
    19
1005
19D94
1002
}
  0
LINE
  5
19D72
330
19D51
100
AcDbEntity
  8
0
100
AcDbLine
 10
10.53899999998941
 20
8.763099999991255
 30
0.0
 11
12.02999999998792
 21
8.763099999991255
 31
0.0
1001
ACAD
1000
ASC_BOUNDS
1002
{
1070
    19
1005
19D95
1002
}
  0
LINE
  5
19D73
330
19D51
100
AcDbEntity
  8
0
100
AcDbLine
 10
22.7389999999773
 20
3.670999999996297
 30
0.0
 11
23.56599999997638
 21
5.5200999999945
 31
0.0
1001
ACAD
1000
ASC_BOUNDS
1002
{
1070
    19
1005
19D96
1002
}
  0
LINE
  5
19D74
330
19D51
100
AcDbEntity
  8
0
100
AcDbLine
 10
22.7389999999773
 20
3.670999999996297
 30
0.0
 11
24.39299999997559
 21
3.670999999996297
 31
0.0
1001
ACAD
1000
ASC_BOUNDS
1002
{
1070
    19
1005
19D96
1002
}
  0
LINE
  5
19D75
330
19D51
100
AcDbEntity
  8
0
100
AcDbLine
 10
18.59799999998143
 20
3.315799999996671
 30
0.0
 11
20.89099999997916
 21
8.763099999991255
 31
0.0
1001
ACAD
1000
ASC_BOUNDS
1002
{
1070
    19
1005
19D95
1002
}
  0
LINE
  5
19D76
330
19D51
100
AcDbEntity
  8
0
100
AcDbLine
 10
18.59799999998143
 20
3.315799999996671
 30
0.0
 11
16.46099999998353
 21
8.999899999990987
 31
0.0
1001
ACAD
1000
ASC_BOUNDS
1002
{
1070
    19
1005
19D95
1002
}
  0
LINE
  5
19D77
330
19D51
100
AcDbEntity
  8
0
100
AcDbLine
 10
20.89099999997916
 20
8.763099999991255
 30
0.0
 11
22.38199999997767
 21
8.763099999991255
 31
0.0
1001
ACAD
1000
ASC_BOUNDS
1002
{
1070
    19
1005
19D95
1002
}
  0
LINE
  5
19D78
330
19D51
100
AcDbEntity
  8
0
100
AcDbLine
 10
24.39299999997559
 20
3.670999999996297
 30
0.0
 11
23.56599999997638
 21
5.5200999999945
 31
0.0
1001
ACAD
1000
ASC_BOUNDS
1002
{
1070
    19
1005
19D96
1002
}
  0
LINE
  5
19D79
330
19D51
100
AcDbEntity
  8
0
100
AcDbLine
 10
44.99999999995498
 20
-0.2368999999997641
 30
0.0
 11
40.02599999995994
 21
5.341799999994635
 31
0.0
1001
ACAD
1000
ASC_BOUNDS
1002
{
1070
    19
1005
19D98
1002
}
  0
LINE
  5
19D7A
330
19D51
100
AcDbEntity
  8
0
100
AcDbLine
 10
40.02599999995994
 20
5.341799999994635
 30
0.0
 11
40.02599999995994
 21
0.0
 31
0.0
1001
ACAD
1000
ASC_BOUNDS
1002
{
1070
    19
1005
19D98
1002
}
  0
LINE
  5
19D7B
330
19D51
100
AcDbEntity
  8
0
100
AcDbLine
 10
38.60499999996136
 20
8.999999999991019
 30
0.0
 11
38.60499999996136
 21
0.0
 31
0.0
1001
ACAD
1000
ASC_BOUNDS
1002
{
1070
    19
1005
19D98
1002
}
  0
LINE
  5
19D7C
330
19D51
100
AcDbEntity
  8
0
100
AcDbLine
 10
44.99999999995498
 20
8.763099999991255
 30
0.0
 11
44.99999999995498
 21
-0.2368999999997641
 31
0.0
1001
ACAD
1000
ASC_BOUNDS
1002
{
1070
    19
1005
19D98
1002
}
  0
LINE
  5
19D7D
330
19D51
100
AcDbEntity
  8
0
100
AcDbLine
 10
38.60499999996136
 20
0.0
 30
0.0
 11
40.02599999995994
 21
0.0
 31
0.0
1001
ACAD
1000
ASC_BOUNDS
1002
{
1070
    19
1005
19D98
1002
}
  0
LINE
  5
19D7E
330
19D51
100
AcDbEntity
  8
0
100
AcDbLine
 10
43.57899999995641
 20
3.421199999996588
 30
0.0
 11
38.60499999996136
 21
8.999899999990987
 31
0.0
1001
ACAD
1000
ASC_BOUNDS
1002
{
1070
    19
1005
19D98
1002
}
  0
LINE
  5
19D7F
330
19D51
100
AcDbEntity
  8
0
100
AcDbLine
 10
43.57899999995641
 20
8.763099999991255
 30
0.0
 11
43.57899999995641
 21
3.421199999996588
 31
0.0
1001
ACAD
1000
ASC_BOUNDS
1002
{
1070
    19
1005
19D98
1002
}
  0
LINE
  5
19D80
330
19D51
100
AcDbEntity
  8
0
100
AcDbLine
 10
43.57899999995641
 20
8.763099999991255
 30
0.0
 11
44.99999999995498
 21
8.763099999991255
 31
0.0
1001
ACAD
1000
ASC_BOUNDS
1002
{
1070
    19
1005
19D98
1002
}
  0
LINE
  5
19D81
330
19D51
100
AcDbEntity
  8
0
100
AcDbLine
 10
37.67199999996831
 20
8.763099999991255
 30
0.0
 11
36.23199999996837
 21
8.763099999991255
 31
0.0
  0
LINE
  5
19D82
330
19D51
100
AcDbEntity
  8
0
100
AcDbLine
 10
31.64199999996833
 20
8.763099999991255
 30
0.0
 11
31.64199999996833
 21
2.481619422925121
 31
0.0
  0
LINE
  5
19D83
330
19D51
100
AcDbEntity
  8
0
100
AcDbLine
 10
37.67199999996831
 20
8.763099999991255
 30
0.0
 11
37.67199999996831
 21
2.481619422925121
 31
0.0
  0
LINE
  5
19D84
330
19D51
100
AcDbEntity
  8
0
100
AcDbLine
 10
36.23199999996837
 20
8.763099999991255
 30
0.0
 11
36.23199999996837
 21
2.481619422925064
 31
0.0
  0
LINE
  5
19D85
330
19D51
100
AcDbEntity
  8
0
100
AcDbLine
 10
33.08199999996839
 20
8.763099999991255
 30
0.0
 11
33.08199999996839
 21
2.481619422925121
 31
0.0
  0
ARC
  5
19D86
330
19D51
100
AcDbEntity
  8
0
100
AcDbCircle
 10
34.65699999996832
 20
3.183099999991214
 30
0.0
 40
3.420000000000007
100
AcDbArc
 50
240.0000000000255
 51
299.9999999999766
  0
ARC
  5
19D87
330
19D51
100
AcDbEntity
  8
0
100
AcDbCircle
 10
34.65699999996832
 20
3.183099999991214
 30
0.0
 40
1.97999999999999
100
AcDbArc
 50
240.000000000026
 51
299.9999999999703
  0
LINE
  5
19D88
330
19D51
100
AcDbEntity
  8
0
100
AcDbLine
 10
33.08199999996828
 20
8.763099999991255
 30
0.0
 11
31.64199999996833
 21
8.763099999991255
 31
0.0
  0
ARC
  5
19D89
330
19D51
100
AcDbEntity
  8
0
100
AcDbCircle
 10
35.06199999996829
 20
2.481619422925064
 30
0.0
 40
1.17
100
AcDbArc
 50
299.9999999999699
 51
0.0
  0
ARC
  5
19D8A
330
19D51
100
AcDbEntity
  8
0
100
AcDbCircle
 10
34.25199999996835
 20
2.481619422925121
 30
0.0
 40
1.17
100
AcDbArc
 50
180.0
 51
240.0000000000238
  0
ARC
  5
19D8B
330
19D51
100
AcDbEntity
  8
0
100
AcDbCircle
 10
35.06199999996841
 20
2.481619422925121
 30
0.0
 40
2.61
100
AcDbArc
 50
299.9999999999756
 51
0.0
  0
ARC
  5
19D8C
330
19D51
100
AcDbEntity
  8
0
100
AcDbCircle
 10
34.25199999996835
 20
2.481619422925121
 30
0.0
 40
2.61
100
AcDbArc
 50
180.0
 51
240.0000000000244
  0
LINE
  5
19D8D
330
19D51
100
AcDbEntity
  8
0
100
AcDbLine
 10
29.30199999996933
 20
8.763099999991255
 30
0.0
 11
30.74199999996927
 21
8.763099999991255
 31
0.0
1001
ACAD
1000
ASC_BOUNDS
1002
{
1070
    19
1005
19D96
1002
}
  0
LINE
  5
19D8E
330
19D51
100
AcDbEntity
  8
0
100
AcDbLine
 10
30.74199999996927
 20
8.763099999991255
 30
0.0
 11
30.74199999996927
 21
2.373099999991211
 31
0.0
1001
ACAD
1000
ASC_BOUNDS
1002
{
1070
    19
1005
19D96
1002
}
  0
LINE
  5
19D8F
330
19D51
100
AcDbEntity
  8
0
100
AcDbLine
 10
26.02015566812236
 20
0.0330999999912365
 30
0.0
 11
28.40199999996923
 21
0.0330999999912365
 31
0.0
1001
ACAD
1000
ASC_BOUNDS
1002
{
1070
    19
1005
19D96
1002
}
  0
LINE
  5
19D90
330
19D51
100
AcDbEntity
  8
0
100
AcDbLine
 10
29.30199999996933
 20
8.763099999991255
 30
0.0
 11
29.30199999996933
 21
2.283099999991236
 31
0.0
1001
ACAD
1000
ASC_BOUNDS
1002
{
1070
    19
1005
19D96
1002
}
  0
LINE
  5
19D91
330
19D51
100
AcDbEntity
  8
0
100
AcDbLine
 10
26.97358892824991
 20
1.383099999991202
 30
0.0
 11
28.40199999996923
 21
1.383099999991202
 31
0.0
1001
ACAD
1000
ASC_BOUNDS
1002
{
1070
    19
1005
19D96
1002
}
  0
ARC
  5
19D92
330
19D51
100
AcDbEntity
  8
0
100
AcDbCircle
 10
28.40199999996923
 20
2.283099999991236
 30
0.0
 40
0.9
100
AcDbArc
 50
270.0
 51
0.0
1001
ACAD
1000
ASC_BOUNDS
1002
{
1070
    19
1005
19D96
1002
}
  0
ARC
  5
19D93
330
19D51
100
AcDbEntity
  8
0
100
AcDbCircle
 10
28.40199999996923
 20
2.373099999991211
 30
0.0
 40
2.34
100
AcDbArc
 50
270.0
 51
0.0
1001
ACAD
1000
ASC_BOUNDS
1002
{
1070
    19
1005
19D96
1002
}
  0
INSERT
  5
19D94
330
19D51
100
AcDbEntity
  8
0
100
AcDbBlockReference
  2
*X50
 10
0.0
 20
0.0
 30
0.0
1001
ACAD
1000
HATCH
1002
{
1070
    19
1000
ANSI37
1040
0.15
1040
0.0
1000
ASC_BOUNDS
1070
     2
1070
     2
1070
    12
1005
19D53
1005
19D54
1005
19D5B
1005
19D6A
1005
19D6D
1005
19D6B
1005
19D5C
1005
19D61
1005
19D5F
1005
19D63
1005
19D62
1005
19D64
1070
     2
1070
     3
1005
19D6F
1005
19D71
1005
19D70
1000
ASC_SEEDPOINT
1011
3.614004224891801
1021
2.996669441146025
1031
0.0
1000
R14_HATCH_DATA
1000
19D94
1011
1.0
1021
0.0
1031
0.0
1011
0.0
1021
1.0
1031
0.0
1011
0.0
1021
0.0
1031
1.0
1040
0.0
1010
0.0
1020
0.0
1030
1.0
1000
ANSI37
1070
     0
1070
     1
1071
        2
1071
        7
1070
     0
1070
     1
1071
       17
1040
13.26299999998673
1040
-0.0001000000000317
1040
9.236999999990758
1040
8.999899999990987
1040
9.236999999990758
1040
8.999999999991019
1040
5.657999999994331
1040
0.9999999999989768
1040
3.181999999996833
1040
4.668599999995308
1040
6.432999999993513
1040
8.763099999991255
1040
4.617999999995391
1040
8.763099999991255
1040
1.420999999998571
1040
4.736799999995242
1040
4.617999999995391
1040
-0.0001000000000317
1040
4.617999999995391
1040
0.0
1040
6.766999999993232
1040
0.0
1040
6.766999999993232
1040
-0.0001000000000317
1040
7.826999999992154
1040
2.368399999997621
1040
10.64699999998936
1040
2.368399999997621
1040
11.70599999998831
1040
-0.0001000000000317
1040
11.70599999998831
1040
0.0
1040
13.26299999998673
1040
0.0
1071
       12
1005
19D53
1005
19D54
1005
19D5B
1005
19D6A
1005
19D6D
1005
19D6B
1005
19D5C
1005
19D61
1005
19D5F
1005
19D63
1005
19D62
1005
19D64
1071
       22
1070
     0
1070
     1
1071
        3
1040
9.236999999990758
1040
5.5200999999945
1040
10.06399999998996
1040
3.670999999996297
1040
8.409999999991555
1040
3.670999999996297
1071
        3
1005
19D6F
1005
19D71
1005
19D70
1070
     0
1070
     1
1040
0.0
1040
0.15
1070
     0
1070
     2
1040
0.7853981633974483
1040
49.29960901727088
1040
-10.17736998311392
1040
-0.3367596045400932
1040
0.3367596045400932
1070
     0
1040
2.356194490192345
1040
49.29960901727088
1040
-10.17736998311392
1040
-0.3367596045400932
1040
-0.3367596045400932
1070
     0
1040
0.0110235143455945
1071
        2
1040
3.614004224891801
1040
2.996669441146025
1040
0.0
1040
3.614004224891801
1040
2.996669441146025
1040
0.0
1002
}
  0
INSERT
  5
19D95
330
19D51
100
AcDbEntity
  8
0
100
AcDbBlockReference
  2
*X51
 10
0.0
 20
0.0
 30
0.0
1001
ACAD
1000
HATCH
1002
{
1070
    19
1000
ANSI37
1040
0.15
1040
0.0
1000
ASC_BOUNDS
1070
     1
1070
     2
1070
    10
1005
19D55
1005
19D56
1005
19D77
1005
19D75
1005
19D76
1005
19D69
1005
19D6E
1005
19D72
1005
19D58
1005
19D57
1000
ASC_SEEDPOINT
1011
14.73245321214324
1021
2.798246178283421
1031
0.0
1000
R14_HATCH_DATA
1000
19D95
1011
1.0
1021
0.0
1031
0.0
1011
0.0
1021
1.0
1031
0.0
1011
0.0
1021
0.0
1031
1.0
1040
0.0
1010
0.0
1020
0.0
1030
1.0
1000
ANSI37
1070
     0
1070
     1
1071
        1
1071
        7
1070
     0
1070
     1
1071
       10
1040
16.46099999998353
1040
5.432899999994561
1040
18.59199999998134
1040
-0.2368999999997641
1040
22.38199999997767
1040
8.763099999991255
1040
20.89099999997916
1040
8.763099999991255
1040
18.59799999998143
1040
3.315799999996671
1040
16.46099999998353
1040
8.999899999990987
1040
14.32399999998563
1040
3.315799999996671
1040
12.02999999998792
1040
8.763099999991255
1040
10.53899999998941
1040
8.763099999991255
1040
14.32899999998563
1040
-0.2368999999997641
1071
       10
1005
19D55
1005
19D56
1005
19D77
1005
19D75
1005
19D76
1005
19D69
1005
19D6E
1005
19D72
1005
19D58
1005
19D57
1070
     0
1070
     1
1040
0.0
1040
0.15
1070
     0
1070
     2
1040
0.7853981633974483
1040
49.29960901727088
1040
-10.17736998311392
1040
-0.3367596045400932
1040
0.3367596045400932
1070
     0
1040
2.356194490192345
1040
49.29960901727088
1040
-10.17736998311392
1040
-0.3367596045400932
1040
-0.3367596045400932
1070
     0
1040
0.0110235143455945
1071
        1
1040
14.73245321214324
1040
2.798246178283421
1040
0.0
1002
}
  0
INSERT
  5
19D96
330
19D51
100
AcDbEntity
  8
0
100
AcDbBlockReference
  2
*X52
 10
0.0
 20
0.0
 30
0.0
1001
ACAD
1000
HATCH
1002
{
1070
    19
1000
ANSI37
1040
0.15
1040
0.0
1000
ASC_BOUNDS
1070
     2
1070
     2
1070
    13
1005
19D59
1005
19D66
1005
19D67
1005
19D65
1005
19D68
1005
19D8F
1005
19D93
1005
19D8E
1005
19D8D
1005
19D90
1005
19D92
1005
19D91
1005
19D5A
1070
     2
1070
     3
1005
19D73
1005
19D78
1005
19D74
1000
ASC_SEEDPOINT
1011
21.97929957367762
1021
3.294304244259308
1031
0.0
1000
R14_HATCH_DATA
1000
19D96
1011
1.0
1021
0.0
1031
0.0
1011
0.0
1021
1.0
1031
0.0
1011
0.0
1021
0.0
1031
1.0
1040
0.0
1010
0.0
1020
0.0
1030
1.0
1000
ANSI37
1070
     0
1070
     1
1071
        2
1071
        7
1070
     1
1070
     1
1071
       15
1040
23.56599999997638
1040
8.999899999990987
1040
0.0
1040
19.53899999998043
1040
-0.0001000000000317
1040
0.0
1040
19.53899999998043
1040
0.0
1040
0.0
1040
21.09599999997886
1040
0.0
1040
0.0
1040
21.09599999997886
1040
-0.0001000000000317
1040
0.0
1040
22.15599999997789
1040
2.368399999997621
1040
0.0
1040
24.97599999997499
1040
2.368399999997621
1040
0.0
1040
26.02015566812236
1040
0.0330999999912365
1040
0.0
1040
28.40199999996923
1040
0.0330999999912365
1040
0.414213562373095
1040
30.74199999996923
1040
2.373099999991211
1040
0.0
1040
30.74199999996927
1040
8.763099999991255
1040
0.0
1040
29.30199999996933
1040
8.763099999991255
1040
0.0
1040
29.30199999996933
1040
2.283099999991236
1040
-0.414213562373095
1040
28.40199999996923
1040
1.383099999991237
1040
0.0
1040
26.97358892824991
1040
1.383099999991202
1040
0.0
1071
       13
1005
19D59
1005
19D66
1005
19D67
1005
19D65
1005
19D68
1005
19D8F
1005
19D93
1005
19D8E
1005
19D8D
1005
19D90
1005
19D92
1005
19D91
1005
19D5A
1071
       22
1070
     0
1070
     1
1071
        3
1040
22.7389999999773
1040
3.670999999996297
1040
23.56599999997638
1040
5.5200999999945
1040
24.39299999997559
1040
3.670999999996297
1071
        3
1005
19D73
1005
19D78
1005
19D74
1070
     0
1070
     1
1040
0.0
1040
0.15
1070
     0
1070
     2
1040
0.7853981633974483
1040
49.29960901727088
1040
-10.17736998311392
1040
-0.3367596045400932
1040
0.3367596045400932
1070
     0
1040
2.356194490192345
1040
49.29960901727088
1040
-10.17736998311392
1040
-0.3367596045400932
1040
-0.3367596045400932
1070
     0
1040
0.0110235143455945
1071
        2
1040
21.97929957367762
1040
3.294304244259308
1040
0.0
1040
21.97929957367762
1040
3.294304244259308
1040
0.0
1002
}
  0
INSERT
  5
19D97
330
19D51
100
AcDbEntity
  8
0
100
AcDbBlockReference
  2
*X53
 10
0.0
 20
0.0
 30
0.0
1001
ACAD
1000
HATCH
1002
{
1070
    19
1000
ANSI37
1040
0.15
1040
0.0
1000
R14_HATCH_DATA
1000
19D97
1011
1.0
1021
0.0
1031
0.0
1011
0.0
1021
1.0
1031
0.0
1011
0.0
1021
0.0
1031
1.0
1040
0.0
1010
0.0
1020
0.0
1030
1.0
1000
ANSI37
1070
     0
1070
     1
1071
        1
1071
        7
1070
     1
1070
     1
1071
       12
1040
31.64199999996833
1040
2.481619422925121
1040
0.2679491924310942
1040
32.94699999997067
1040
0.2212931190493919
1040
0.2679491924301353
1040
36.36699999995983
1040
0.2212931190459813
1040
0.2679491924321411
1040
37.67199999996831
1040
2.481619422928361
1040
0.0
1040
37.67199999996831
1040
8.763099999991255
1040
0.0
1040
36.23199999996837
1040
8.763099999991255
1040
0.0
1040
36.23199999996837
1040
2.481619422925064
1040
-0.2679491924310291
1040
35.64699999996708
1040
1.468369700498386
1040
-0.267949192430519
1040
33.66699999997093
1040
1.468369700497703
1040
-0.267949192431809
1040
33.08199999996839
1040
2.481619422926997
1040
0.0
1040
33.08199999996839
1040
8.763099999991255
1040
0.0
1040
31.64199999996833
1040
8.763099999991255
1040
0.0
1071
        0
1070
     0
1070
     1
1040
0.0
1040
0.15
1070
     0
1070
     2
1040
0.7853981633974483
1040
49.29960901727088
1040
-10.17736998311392
1040
-0.3367596045400932
1040
0.3367596045400932
1070
     0
1040
2.356194490192345
1040
49.29960901727088
1040
-10.17736998311392
1040
-0.3367596045400932
1040
-0.3367596045400932
1070
     0
1040
0.0110235143455945
1071
        1
1040
32.30357378967278
1040
3.988785755459219
1040
0.0
1002
}
  0
INSERT
  5
19D98
330
19D51
100
AcDbEntity
  8
0
100
AcDbBlockReference
  2
*X54
 10
0.0
 20
0.0
 30
0.0
1001
ACAD
1000
HATCH
1002
{
1070
    19
1000
ANSI37
1040
0.15
1040
0.0
1000
ASC_BOUNDS
1070
     1
1070
     2
1070
     8
1005
19D79
1005
19D7C
1005
19D80
1005
19D7F
1005
19D7E
1005
19D7B
1005
19D7D
1005
19D7A
1000
ASC_SEEDPOINT
1011
39.74896370716704
1021
4.484843821435049
1031
0.0
1000
R14_HATCH_DATA
1000
19D98
1011
1.0
1021
0.0
1031
0.0
1011
0.0
1021
1.0
1031
0.0
1011
0.0
1021
0.0
1031
1.0
1040
0.0
1010
0.0
1020
0.0
1030
1.0
1000
ANSI37
1070
     0
1070
     1
1071
        1
1071
        7
1070
     0
1070
     1
1071
        9
1040
40.02599999995994
1040
5.341799999994635
1040
44.99999999995498
1040
-0.2368999999997641
1040
44.99999999995498
1040
8.763099999991255
1040
43.57899999995641
1040
8.763099999991255
1040
43.57899999995641
1040
3.421199999996588
1040
38.60499999996136
1040
8.999899999990987
1040
38.60499999996136
1040
8.999999999991019
1040
38.60499999996136
1040
0.0
1040
40.02599999995994
1040
0.0
1071
        8
1005
19D79
1005
19D7C
1005
19D80
1005
19D7F
1005
19D7E
1005
19D7B
1005
19D7D
1005
19D7A
1070
     0
1070
     1
1040
0.0
1040
0.15
1070
     0
1070
     2
1040
0.7853981633974483
1040
49.29960901727088
1040
-10.17736998311392
1040
-0.3367596045400932
1040
0.3367596045400932
1070
     0
1040
2.356194490192345
1040
49.29960901727088
1040
-10.17736998311392
1040
-0.3367596045400932
1040
-0.3367596045400932
1070
     0
1040
0.0110235143455945
1071
        1
1040
39.74896370716704
1040
4.484843821435049
1040
0.0
1002
}
  0
INSERT
  5
19D99
330
19D51
100
AcDbEntity
  8
0
100
AcDbBlockReference
  2
*X55
 10
0.0
 20
0.0
 30
0.0
1001
ACAD
1000
HATCH
1002
{
1070
    19
1000
ANSI37
1040
0.15
1040
0.0
1000
ASC_BOUNDS
1070
     1
1070
     2
1070
     4
1005
19D5D
1005
19D6C
1005
19D5E
1005
19D60
1000
ASC_SEEDPOINT
1011
1.079051535452663
1021
4.148538732891836
1031
0.0
1000
R14_HATCH_DATA
1000
19D99
1011
1.0
1021
0.0
1031
0.0
1011
0.0
1021
1.0
1031
0.0
1011
0.0
1021
0.0
1031
1.0
1040
0.0
1010
0.0
1020
0.0
1030
1.0
1000
ANSI37
1070
     0
1070
     1
1071
        1
1071
        7
1070
     0
1070
     1
1071
        4
1040
1.420999999998571
1040
0.0
1040
1.420999999998571
1040
8.763099999991255
1040
0.0
1040
8.763099999991255
1040
0.0
1040
0.0
1071
        4
1005
19D5D
1005
19D6C
1005
19D5E
1005
19D60
1070
     0
1070
     1
1040
0.0
1040
0.15
1070
     0
1070
     2
1040
0.7853981633974483
1040
49.29960901727088
1040
-10.17736998311392
1040
-0.3367596045400932
1040
0.3367596045400932
1070
     0
1040
2.356194490192345
1040
49.29960901727088
1040
-10.17736998311392
1040
-0.3367596045400932
1040
-0.3367596045400932
1070
     0
1040
0.0053004257112761
1071
        1
1040
1.079051535452663
1040
4.148538732891836
1040
0.0
1002
}
  0
ENDBLK
  5
1A475
330
19D51
100
AcDbEntity
  8
0
100
AcDbBlockEnd
  0
BLOCK
  5
1B0A3
330
1AF15
100
AcDbEntity
  8
0
100
AcDbBlockBegin
  2
*X50
 70
     1
 10
0.0
 20
0.0
 30
0.0
  3
*X50
  1

  0
LINE
  5
1AF16
330
1AF15
100
AcDbEntity
  8
0
  6
CONTINUOUS
100
AcDbLine
 10
3.418023043697893
 20
7.251849696850613
 30
0.0
 11
4.929273346838536
 21
8.763099999991255
 31
0.0
  0
LINE
  5
1AF17
330
1AF15
100
AcDbEntity
  8
0
  6
CONTINUOUS
100
AcDbLine
 10
1.483656411257782
 20
4.643963855330318
 30
0.0
 11
5.60279255591872
 21
8.763099999991255
 31
0.0
  0
LINE
  5
1AF18
330
1AF15
100
AcDbEntity
  8
0
  6
CONTINUOUS
100
AcDbLine
 10
1.755053947328235
 20
4.241842182320584
 30
0.0
 11
6.276311764998907
 21
8.763099999991255
 31
0.0
  0
LINE
  5
1AF19
330
1AF15
100
AcDbEntity
  8
0
  6
CONTINUOUS
100
AcDbLine
 10
2.026451483398688
 20
3.839720509310849
 30
0.0
 11
4.441040904851878
 21
6.254309930764039
 31
0.0
  0
LINE
  5
1AF1A
330
1AF15
100
AcDbEntity
  8
0
  6
CONTINUOUS
100
AcDbLine
 10
2.297849019469139
 20
3.437598836301114
 30
0.0
 11
3.321765168359338
 21
4.461514985191313
 31
0.0
  0
LINE
  5
1AF1B
330
1AF15
100
AcDbEntity
  8
0
  6
CONTINUOUS
100
AcDbLine
 10
2.569246555539591
 20
3.03547716329138
 30
0.0
 11
3.593163397972743
 21
4.059394005724531
 31
0.0
  0
LINE
  5
1AF1C
330
1AF15
100
AcDbEntity
  8
0
  6
CONTINUOUS
100
AcDbLine
 10
2.840644091610043
 20
2.633355490281646
 30
0.0
 11
3.864561627586149
 21
3.657273026257751
 31
0.0
  0
LINE
  5
1AF1D
330
1AF15
100
AcDbEntity
  8
0
  6
CONTINUOUS
100
AcDbLine
 10
3.112041627680496
 20
2.231233817271911
 30
0.0
 11
4.135959857199554
 21
3.25515204679097
 31
0.0
  0
LINE
  5
1AF1E
330
1AF15
100
AcDbEntity
  8
0
  6
CONTINUOUS
100
AcDbLine
 10
3.383439163750948
 20
1.829112144262177
 30
0.0
 11
4.40735808681296
 21
2.853031067324189
 31
0.0
  0
LINE
  5
1AF1F
330
1AF15
100
AcDbEntity
  8
0
  6
CONTINUOUS
100
AcDbLine
 10
3.654836699821399
 20
1.426990471252442
 30
0.0
 11
4.678756316426365
 21
2.450910087857407
 31
0.0
  0
LINE
  5
1AF20
330
1AF15
100
AcDbEntity
  8
0
  6
CONTINUOUS
100
AcDbLine
 10
3.926234235891853
 20
1.024868798242709
 30
0.0
 11
4.95015454603977
 21
2.048789108390626
 31
0.0
  0
LINE
  5
1AF21
330
1AF15
100
AcDbEntity
  8
0
  6
CONTINUOUS
100
AcDbLine
 10
4.197631771962304
 20
0.6227471252329737
 30
0.0
 11
5.221552775653176
 21
1.646668128923846
 31
0.0
  0
LINE
  5
1AF22
330
1AF15
100
AcDbEntity
  8
0
  6
CONTINUOUS
100
AcDbLine
 10
8.715877546767851
 20
7.835069736359266
 30
0.0
 11
9.435953450375058
 21
8.555145639966472
 31
0.0
  0
LINE
  5
1AF23
330
1AF15
100
AcDbEntity
  8
0
  6
CONTINUOUS
100
AcDbLine
 10
8.170620868422267
 20
6.616293848933497
 30
0.0
 11
9.644120833743461
 21
8.08979381425469
 31
0.0
  0
LINE
  5
1AF24
330
1AF15
100
AcDbEntity
  8
0
  6
CONTINUOUS
100
AcDbLine
 10
7.625364190076684
 20
5.397517961507727
 30
0.0
 11
9.852288217111864
 21
7.624441988542907
 31
0.0
  0
LINE
  5
1AF25
330
1AF15
100
AcDbEntity
  8
0
  6
CONTINUOUS
100
AcDbLine
 10
7.080107511731101
 20
4.178742074081957
 30
0.0
 11
10.06045560048027
 21
7.159090162831124
 31
0.0
  0
LINE
  5
1AF26
330
1AF15
100
AcDbEntity
  8
0
  6
CONTINUOUS
100
AcDbLine
 10
6.534850833385518
 20
2.959966186656187
 30
0.0
 11
10.26862298384867
 21
6.693738337119342
 31
0.0
  0
LINE
  5
1AF27
330
1AF15
100
AcDbEntity
  8
0
  6
CONTINUOUS
100
AcDbLine
 10
4.469029308032756
 20
0.2206254522232385
 30
0.0
 11
5.492951005266582
 21
1.244547149457064
 31
0.0
  0
LINE
  5
1AF28
330
1AF15
100
AcDbEntity
  8
0
  6
CONTINUOUS
100
AcDbLine
 10
5.989594155039935
 20
1.741190299230417
 30
0.0
 11
8.806950407233131
 21
4.558546551423613
 31
0.0
  0
LINE
  5
1AF29
330
1AF15
100
AcDbEntity
  8
0
  6
CONTINUOUS
100
AcDbLine
 10
9.401251593263643
 20
5.152847737454126
 30
0.0
 11
10.47679036721708
 21
6.228386511407559
 31
0.0
  0
LINE
  5
1AF2A
330
1AF15
100
AcDbEntity
  8
0
  6
CONTINUOUS
100
AcDbLine
 10
4.921837203428691
 20
-0.0000858614610131
 30
0.0
 11
8.592923064886001
 21
3.670999999996297
 31
0.0
  0
LINE
  5
1AF2B
330
1AF15
100
AcDbEntity
  8
0
  6
CONTINUOUS
100
AcDbLine
 10
9.609390446785305
 20
4.6874673818956
 30
0.0
 11
10.68495775058548
 21
5.763034685695775
 31
0.0
  0
LINE
  5
1AF2C
330
1AF15
100
AcDbEntity
  8
0
  6
CONTINUOUS
100
AcDbLine
 10
5.595387755019432
 20
-0.0000545189504582
 30
0.0
 11
7.716137258923768
 21
2.120694984953879
 31
0.0
  0
LINE
  5
1AF2D
330
1AF15
100
AcDbEntity
  8
0
  6
CONTINUOUS
100
AcDbLine
 10
6.268938306610172
 20
-0.000023176439905
 30
0.0
 11
7.170485805526503
 21
0.9015243224764267
 31
0.0
  0
LINE
  5
1AF2E
330
1AF15
100
AcDbEntity
  8
0
  6
CONTINUOUS
100
AcDbLine
 10
7.963842273967511
 20
2.368399999997621
 30
0.0
 11
9.266442273966188
 21
3.670999999996297
 31
0.0
  0
LINE
  5
1AF2F
330
1AF15
100
AcDbEntity
  8
0
  6
CONTINUOUS
100
AcDbLine
 10
8.637361483047696
 20
2.368399999997621
 30
0.0
 11
9.939961483046375
 21
3.670999999996297
 31
0.0
  0
LINE
  5
1AF30
330
1AF15
100
AcDbEntity
  8
0
  6
CONTINUOUS
100
AcDbLine
 10
9.817529300306965
 20
4.222087026337075
 30
0.0
 11
10.89312513395388
 21
5.297682859983993
 31
0.0
  0
LINE
  5
1AF31
330
1AF15
100
AcDbEntity
  8
0
  6
CONTINUOUS
100
AcDbLine
 10
10.02566815382863
 20
3.756706670778549
 30
0.0
 11
11.10129251732229
 21
4.832331034272211
 31
0.0
  0
LINE
  5
1AF32
330
1AF15
100
AcDbEntity
  8
0
  6
CONTINUOUS
100
AcDbLine
 10
9.310880692127883
 20
2.368399999997621
 30
0.0
 11
11.30945990069069
 21
4.366979208560428
 31
0.0
  0
LINE
  5
1AF33
330
1AF15
100
AcDbEntity
  8
0
  6
CONTINUOUS
100
AcDbLine
 10
9.98439990120807
 20
2.36839999999762
 30
0.0
 11
11.5176272840591
 21
3.901627382848645
 31
0.0
  0
LINE
  5
1AF34
330
1AF15
100
AcDbEntity
  8
0
  6
CONTINUOUS
100
AcDbLine
 10
10.65037369446246
 20
2.36085458417182
 30
0.0
 11
11.7257946674275
 21
3.436275557136862
 31
0.0
  0
LINE
  5
1AF35
330
1AF15
100
AcDbEntity
  8
0
  6
CONTINUOUS
100
AcDbLine
 10
10.85847197087848
 20
1.895433651507656
 30
0.0
 11
11.9339620507959
 21
2.97092373142508
 31
0.0
  0
LINE
  5
1AF36
330
1AF15
100
AcDbEntity
  8
0
  6
CONTINUOUS
100
AcDbLine
 10
11.0665702472945
 20
1.430012718843491
 30
0.0
 11
12.14212943416431
 21
2.505571905713296
 31
0.0
  0
LINE
  5
1AF37
330
1AF15
100
AcDbEntity
  8
0
  6
CONTINUOUS
100
AcDbLine
 10
11.27466852371052
 20
0.9645917861793256
 30
0.0
 11
12.35029681753271
 21
2.040220080001513
 31
0.0
  0
LINE
  5
1AF38
330
1AF15
100
AcDbEntity
  8
0
  6
CONTINUOUS
100
AcDbLine
 10
11.48276680012654
 20
0.4991708535151611
 30
0.0
 11
12.55846420090111
 21
1.57486825428973
 31
0.0
  0
LINE
  5
1AF39
330
1AF15
100
AcDbEntity
  8
0
  6
CONTINUOUS
100
AcDbLine
 10
11.69086507654257
 20
0.0337499208509957
 30
0.0
 11
12.76663158426952
 21
1.109516428577947
 31
0.0
  0
LINE
  5
1AF3A
330
1AF15
100
AcDbEntity
  8
0
  6
CONTINUOUS
100
AcDbLine
 10
12.33057447873954
 20
-0.0000598860322123
 30
0.0
 11
12.97479896763792
 21
0.6441646028661663
 31
0.0
  0
LINE
  5
1AF3B
330
1AF15
100
AcDbEntity
  8
0
  6
CONTINUOUS
100
AcDbLine
 10
13.00413694809395
 20
-0.0000166257579952
 30
0.0
 11
13.18296635100632
 21
0.1788127771543824
 31
0.0
  0
LINE
  5
1AF3C
330
1AF15
100
AcDbEntity
  8
0
  6
CONTINUOUS
100
AcDbLine
 10
4.772852165289667
 20
-0.000092794222212
 30
0.0
 11
4.296495091028902
 21
0.4762642800385528
 31
0.0
  0
LINE
  5
1AF3D
330
1AF15
100
AcDbEntity
  8
0
  6
CONTINUOUS
100
AcDbLine
 10
5.446340034776103
 20
-0.0000614546284616
 30
0.0
 11
2.898195908335625
 21
2.548082671812017
 31
0.0
  0
LINE
  5
1AF3E
330
1AF15
100
AcDbEntity
  8
0
  6
CONTINUOUS
100
AcDbLine
 10
6.119827904262539
 20
-0.0000301150347113
 30
0.0
 11
1.499896725642348
 21
4.61990106358548
 31
0.0
  0
LINE
  5
1AF3F
330
1AF15
100
AcDbEntity
  8
0
  6
CONTINUOUS
100
AcDbLine
 10
6.775136745476159
 20
0.0181802528318542
 30
0.0
 11
5.699826040202669
 21
1.093490958105344
 31
0.0
  0
LINE
  5
1AF40
330
1AF15
100
AcDbEntity
  8
0
  6
CONTINUOUS
100
AcDbLine
 10
6.983376846288489
 20
0.4834593610997118
 30
0.0
 11
5.908008617934405
 21
1.558827589453796
 31
0.0
  0
LINE
  5
1AF41
330
1AF15
100
AcDbEntity
  8
0
  6
CONTINUOUS
100
AcDbLine
 10
5.377063484962296
 20
1.416253513345719
 30
0.0
 11
1.702276957014131
 21
5.091040041293883
 31
0.0
  0
LINE
  5
1AF42
330
1AF15
100
AcDbEntity
  8
0
  6
CONTINUOUS
100
AcDbLine
 10
3.978745891735324
 20
3.488090315652877
 30
0.0
 11
2.000373521109399
 21
5.466462686278803
 31
0.0
  0
LINE
  5
1AF43
330
1AF15
100
AcDbEntity
  8
0
  6
CONTINUOUS
100
AcDbLine
 10
7.191616947100819
 20
0.948738469367568
 30
0.0
 11
6.11619119566614
 21
2.024164220802247
 31
0.0
  0
LINE
  5
1AF44
330
1AF15
100
AcDbEntity
  8
0
  6
CONTINUOUS
100
AcDbLine
 10
7.399857047913149
 20
1.414017577635424
 30
0.0
 11
6.324373773397875
 21
2.489500852150698
 31
0.0
  0
LINE
  5
1AF45
330
1AF15
100
AcDbEntity
  8
0
  6
CONTINUOUS
100
AcDbLine
 10
7.608097148725479
 20
1.879296685903281
 30
0.0
 11
6.53255635112961
 21
2.95483748349915
 31
0.0
  0
LINE
  5
1AF46
330
1AF15
100
AcDbEntity
  8
0
  6
CONTINUOUS
100
AcDbLine
 10
7.816337249537808
 20
2.344575794171138
 30
0.0
 11
6.740738928861345
 21
3.420174114847601
 31
0.0
  0
LINE
  5
1AF47
330
1AF15
100
AcDbEntity
  8
0
  6
CONTINUOUS
100
AcDbLine
 10
3.310241080789734
 20
4.830114335678653
 30
0.0
 11
2.298470085204666
 21
5.84188533126372
 31
0.0
  0
LINE
  5
1AF48
330
1AF15
100
AcDbEntity
  8
0
  6
CONTINUOUS
100
AcDbLine
 10
3.60832983563551
 20
5.205544789913063
 30
0.0
 11
2.596566649299935
 21
6.217307976248638
 31
0.0
  0
LINE
  5
1AF49
330
1AF15
100
AcDbEntity
  8
0
  6
CONTINUOUS
100
AcDbLine
 10
3.906418590481286
 20
5.580975244147473
 30
0.0
 11
2.894663213395203
 21
6.592730621233557
 31
0.0
  0
LINE
  5
1AF4A
330
1AF15
100
AcDbEntity
  8
0
  6
CONTINUOUS
100
AcDbLine
 10
4.204507345327062
 20
5.956405698381884
 30
0.0
 11
3.192759777490472
 21
6.968153266218474
 31
0.0
  0
LINE
  5
1AF4B
330
1AF15
100
AcDbEntity
  8
0
  6
CONTINUOUS
100
AcDbLine
 10
8.466032252791512
 20
2.368399999997621
 30
0.0
 11
6.948921506593081
 21
3.885510746196053
 31
0.0
  0
LINE
  5
1AF4C
330
1AF15
100
AcDbEntity
  8
0
  6
CONTINUOUS
100
AcDbLine
 10
9.139551461871699
 20
2.36839999999762
 30
0.0
 11
7.157104084324816
 21
4.350847377544504
 31
0.0
  0
LINE
  5
1AF4D
330
1AF15
100
AcDbEntity
  8
0
  6
CONTINUOUS
100
AcDbLine
 10
4.502596100172839
 20
6.331836152616295
 30
0.0
 11
3.49085634158574
 21
7.343575911203393
 31
0.0
  0
LINE
  5
1AF4E
330
1AF15
100
AcDbEntity
  8
0
  6
CONTINUOUS
100
AcDbLine
 10
4.800684855018615
 20
6.707266606850705
 30
0.0
 11
3.788952905681008
 21
7.718998556188312
 31
0.0
  0
LINE
  5
1AF4F
330
1AF15
100
AcDbEntity
  8
0
  6
CONTINUOUS
100
AcDbLine
 10
12.18154012887317
 20
-0.0000694579236642
 30
0.0
 11
11.32140332908496
 21
0.8600673418645499
 31
0.0
  0
LINE
  5
1AF50
330
1AF15
100
AcDbEntity
  8
0
  6
CONTINUOUS
100
AcDbLine
 10
12.85501608323566
 20
-0.0000262032059659
 30
0.0
 11
10.77672456435345
 21
2.078265315676246
 31
0.0
  0
LINE
  5
1AF51
330
1AF15
100
AcDbEntity
  8
0
  6
CONTINUOUS
100
AcDbLine
 10
9.813070670951886
 20
2.36839999999762
 30
0.0
 11
8.51047067095321
 21
3.670999999996297
 31
0.0
  0
LINE
  5
1AF52
330
1AF15
100
AcDbEntity
  8
0
  6
CONTINUOUS
100
AcDbLine
 10
10.48658988003207
 20
2.36839999999762
 30
0.0
 11
9.183989880033396
 21
3.670999999996297
 31
0.0
  0
LINE
  5
1AF53
330
1AF15
100
AcDbEntity
  8
0
  6
CONTINUOUS
100
AcDbLine
 10
8.441048632286794
 20
3.740422038662712
 30
0.0
 11
7.365286662056551
 21
4.816184008892956
 31
0.0
  0
LINE
  5
1AF54
330
1AF15
100
AcDbEntity
  8
0
  6
CONTINUOUS
100
AcDbLine
 10
8.649187485808454
 20
4.205802394221237
 30
0.0
 11
7.573469239788285
 21
5.281520640241407
 31
0.0
  0
LINE
  5
1AF55
330
1AF15
100
AcDbEntity
  8
0
  6
CONTINUOUS
100
AcDbLine
 10
5.098773609864391
 20
7.082697061085115
 30
0.0
 11
4.087049469776277
 21
8.09442120117323
 31
0.0
  0
LINE
  5
1AF56
330
1AF15
100
AcDbEntity
  8
0
  6
CONTINUOUS
100
AcDbLine
 10
5.396862364710167
 20
7.458127515319526
 30
0.0
 11
4.385146033871544
 21
8.469843846158149
 31
0.0
  0
LINE
  5
1AF57
330
1AF15
100
AcDbEntity
  8
0
  6
CONTINUOUS
100
AcDbLine
 10
13.04801363231285
 20
0.4804954567970334
 30
0.0
 11
9.85750908911358
 21
3.670999999996297
 31
0.0
  0
LINE
  5
1AF58
330
1AF15
100
AcDbEntity
  8
0
  6
CONTINUOUS
100
AcDbLine
 10
8.857326339330116
 20
4.671182749779763
 30
0.0
 11
7.781651817520021
 21
5.746857271589858
 31
0.0
  0
LINE
  5
1AF59
330
1AF15
100
AcDbEntity
  8
0
  6
CONTINUOUS
100
AcDbLine
 10
5.694951119555943
 20
7.833557969553937
 30
0.0
 11
4.765409089118624
 21
8.763099999991255
 31
0.0
  0
LINE
  5
1AF5A
330
1AF15
100
AcDbEntity
  8
0
  6
CONTINUOUS
100
AcDbLine
 10
12.50286117236978
 20
1.699167125820288
 30
0.0
 11
9.68611877250287
 21
4.515909525687196
 31
0.0
  0
LINE
  5
1AF5B
330
1AF15
100
AcDbEntity
  8
0
  6
CONTINUOUS
100
AcDbLine
 10
9.065465192851777
 20
5.136563105338288
 30
0.0
 11
7.989834395251757
 21
6.21219390293831
 31
0.0
  0
LINE
  5
1AF5C
330
1AF15
100
AcDbEntity
  8
0
  6
CONTINUOUS
100
AcDbLine
 10
5.993039874401719
 20
8.208988423788346
 30
0.0
 11
5.43892829819881
 21
8.763099999991255
 31
0.0
  0
LINE
  5
1AF5D
330
1AF15
100
AcDbEntity
  8
0
  6
CONTINUOUS
100
AcDbLine
 10
11.95770871242671
 20
2.917838794843543
 30
0.0
 11
8.19801697298349
 21
6.677530534286761
 31
0.0
  0
LINE
  5
1AF5E
330
1AF15
100
AcDbEntity
  8
0
  6
CONTINUOUS
100
AcDbLine
 10
6.291128629247495
 20
8.584418878022756
 30
0.0
 11
6.112447507278997
 21
8.763099999991255
 31
0.0
  0
LINE
  5
1AF5F
330
1AF15
100
AcDbEntity
  8
0
  6
CONTINUOUS
100
AcDbLine
 10
11.41255625248364
 20
4.136510463866797
 30
0.0
 11
8.406199550715227
 21
7.142867165635211
 31
0.0
  0
LINE
  5
1AF60
330
1AF15
100
AcDbEntity
  8
0
  6
CONTINUOUS
100
AcDbLine
 10
10.86740379254057
 20
5.355182132890051
 30
0.0
 11
8.614382128446962
 21
7.608203796983664
 31
0.0
  0
LINE
  5
1AF61
330
1AF15
100
AcDbEntity
  8
0
  6
CONTINUOUS
100
AcDbLine
 10
10.3222513325975
 20
6.573853801913305
 30
0.0
 11
8.822564706178696
 21
8.073540428332114
 31
0.0
  0
LINE
  5
1AF62
330
1AF15
100
AcDbEntity
  8
0
  6
CONTINUOUS
100
AcDbLine
 10
9.777098872654436
 20
7.792525470936562
 30
0.0
 11
9.030747283910433
 21
8.538877059680566
 31
0.0
  0
ENDBLK
  5
1B0A4
330
1AF15
100
AcDbEntity
  8
0
100
AcDbBlockEnd
  0
BLOCK
  5
1B0A5
330
1AF63
100
AcDbEntity
  8
0
100
AcDbBlockBegin
  2
*X51
 70
     1
 10
0.0
 20
0.0
 30
0.0
  3
*X51
  1

  0
LINE
  5
1AF64
330
1AF63
100
AcDbEntity
  8
0
  6
CONTINUOUS
100
AcDbLine
 10
10.67292308101235
 20
8.445076852443387
 30
0.0
 11
10.99094622856022
 21
8.763099999991255
 31
0.0
  0
LINE
  5
1AF65
330
1AF63
100
AcDbEntity
  8
0
  6
CONTINUOUS
100
AcDbLine
 10
10.87250383178748
 20
7.971138394138331
 30
0.0
 11
11.6644654376404
 21
8.763099999991255
 31
0.0
  0
LINE
  5
1AF66
330
1AF63
100
AcDbEntity
  8
0
  6
CONTINUOUS
100
AcDbLine
 10
11.07208458256261
 20
7.497199935833273
 30
0.0
 11
12.12126590876355
 21
8.546381262034211
 31
0.0
  0
LINE
  5
1AF67
330
1AF63
100
AcDbEntity
  8
0
  6
CONTINUOUS
100
AcDbLine
 10
11.27166533333774
 20
7.023261477528216
 30
0.0
 11
12.32085164573666
 21
8.072447789927136
 31
0.0
  0
LINE
  5
1AF68
330
1AF63
100
AcDbEntity
  8
0
  6
CONTINUOUS
100
AcDbLine
 10
11.47124608411287
 20
6.549323019223158
 30
0.0
 11
12.52043738270977
 21
7.59851431782006
 31
0.0
  0
LINE
  5
1AF69
330
1AF63
100
AcDbEntity
  8
0
  6
CONTINUOUS
100
AcDbLine
 10
11.670826834888
 20
6.075384560918101
 30
0.0
 11
12.72002311968288
 21
7.124580845712984
 31
0.0
  0
LINE
  5
1AF6A
330
1AF63
100
AcDbEntity
  8
0
  6
CONTINUOUS
100
AcDbLine
 10
11.87040758566313
 20
5.601446102613043
 30
0.0
 11
12.91960885665599
 21
6.650647373605907
 31
0.0
  0
LINE
  5
1AF6B
330
1AF63
100
AcDbEntity
  8
0
  6
CONTINUOUS
100
AcDbLine
 10
12.06998833643825
 20
5.127507644307986
 30
0.0
 11
13.1191945936291
 21
6.176713901498832
 31
0.0
  0
LINE
  5
1AF6C
330
1AF63
100
AcDbEntity
  8
0
  6
CONTINUOUS
100
AcDbLine
 10
12.26956908721338
 20
4.65356918600293
 30
0.0
 11
13.31878033060221
 21
5.702780429391757
 31
0.0
  0
LINE
  5
1AF6D
330
1AF63
100
AcDbEntity
  8
0
  6
CONTINUOUS
100
AcDbLine
 10
12.46914983798851
 20
4.179630727697873
 30
0.0
 11
13.51836606757532
 21
5.228846957284683
 31
0.0
  0
LINE
  5
1AF6E
330
1AF63
100
AcDbEntity
  8
0
  6
CONTINUOUS
100
AcDbLine
 10
12.66873058876364
 20
3.705692269392816
 30
0.0
 11
13.71795180454843
 21
4.754913485177607
 31
0.0
  0
LINE
  5
1AF6F
330
1AF63
100
AcDbEntity
  8
0
  6
CONTINUOUS
100
AcDbLine
 10
12.86831133953877
 20
3.231753811087759
 30
0.0
 11
13.91753754152154
 21
4.280980013070531
 31
0.0
  0
LINE
  5
1AF70
330
1AF63
100
AcDbEntity
  8
0
  6
CONTINUOUS
100
AcDbLine
 10
13.0678920903139
 20
2.757815352782702
 30
0.0
 11
14.11712327849465
 21
3.807046540963456
 31
0.0
  0
LINE
  5
1AF71
330
1AF63
100
AcDbEntity
  8
0
  6
CONTINUOUS
100
AcDbLine
 10
13.26747284108903
 20
2.283876894477644
 30
0.0
 11
14.31670901546777
 21
3.333113068856379
 31
0.0
  0
LINE
  5
1AF72
330
1AF63
100
AcDbEntity
  8
0
  6
CONTINUOUS
100
AcDbLine
 10
16.36767838827179
 20
8.751678487061342
 30
0.0
 11
16.50332410898388
 21
8.887324207773432
 31
0.0
  0
LINE
  5
1AF73
330
1AF63
100
AcDbEntity
  8
0
  6
CONTINUOUS
100
AcDbLine
 10
15.96190732182191
 20
7.67238821153127
 30
0.0
 11
16.68735328004734
 21
8.397834169756699
 31
0.0
  0
LINE
  5
1AF74
330
1AF63
100
AcDbEntity
  8
0
  6
CONTINUOUS
100
AcDbLine
 10
15.55613625537202
 20
6.593097936001196
 30
0.0
 11
16.87138245111079
 21
7.908344131739965
 31
0.0
  0
LINE
  5
1AF75
330
1AF63
100
AcDbEntity
  8
0
  6
CONTINUOUS
100
AcDbLine
 10
15.15036518892213
 20
5.513807660471122
 30
0.0
 11
17.05541162217424
 21
7.418854093723231
 31
0.0
  0
LINE
  5
1AF76
330
1AF63
100
AcDbEntity
  8
0
  6
CONTINUOUS
100
AcDbLine
 10
14.74459412247225
 20
4.434517384941048
 30
0.0
 11
17.2394407932377
 21
6.929364055706499
 31
0.0
  0
LINE
  5
1AF77
330
1AF63
100
AcDbEntity
  8
0
  6
CONTINUOUS
100
AcDbLine
 10
14.33882305602236
 20
3.355227109410975
 30
0.0
 11
17.42346996430115
 21
6.439874017689766
 31
0.0
  0
LINE
  5
1AF78
330
1AF63
100
AcDbEntity
  8
0
  6
CONTINUOUS
100
AcDbLine
 10
13.46705359186416
 20
1.809938436172586
 30
0.0
 11
16.0819338255367
 21
4.424818669845129
 31
0.0
  0
LINE
  5
1AF79
330
1AF63
100
AcDbEntity
  8
0
  6
CONTINUOUS
100
AcDbLine
 10
16.63283254238972
 20
4.975717386698149
 30
0.0
 11
17.60749913536461
 21
5.950383979673033
 31
0.0
  0
LINE
  5
1AF7A
330
1AF63
100
AcDbEntity
  8
0
  6
CONTINUOUS
100
AcDbLine
 10
13.66663434263929
 20
1.335999977867529
 30
0.0
 11
15.67604797733754
 21
3.345413612565779
 31
0.0
  0
LINE
  5
1AF7B
330
1AF63
100
AcDbEntity
  8
0
  6
CONTINUOUS
100
AcDbLine
 10
13.86621509341442
 20
0.8620615195624723
 30
0.0
 11
15.27016212913838
 21
2.26600855528643
 31
0.0
  0
LINE
  5
1AF7C
330
1AF63
100
AcDbEntity
  8
0
  6
CONTINUOUS
100
AcDbLine
 10
16.81682257348267
 20
4.486188208710908
 30
0.0
 11
17.79152830642806
 21
5.460893941656299
 31
0.0
  0
LINE
  5
1AF7D
330
1AF63
100
AcDbEntity
  8
0
  6
CONTINUOUS
100
AcDbLine
 10
17.00081260457561
 20
3.996659030723667
 30
0.0
 11
17.97555747749151
 21
4.971403903639565
 31
0.0
  0
LINE
  5
1AF7E
330
1AF63
100
AcDbEntity
  8
0
  6
CONTINUOUS
100
AcDbLine
 10
20.74362343514722
 20
8.412989070375462
 30
0.0
 11
21.09373436476302
 21
8.763099999991256
 31
0.0
  0
LINE
  5
1AF7F
330
1AF63
100
AcDbEntity
  8
0
  6
CONTINUOUS
100
AcDbLine
 10
20.25401257174777
 20
7.249858997895826
 30
0.0
 11
21.7672535738432
 21
8.763099999991255
 31
0.0
  0
LINE
  5
1AF80
330
1AF63
100
AcDbEntity
  8
0
  6
CONTINUOUS
100
AcDbLine
 10
14.06579584418955
 20
0.3881230612574149
 30
0.0
 11
14.86427628093921
 21
1.186603498007082
 31
0.0
  0
LINE
  5
1AF81
330
1AF63
100
AcDbEntity
  8
0
  6
CONTINUOUS
100
AcDbLine
 10
14.26537659496467
 20
-0.0858153970476412
 30
0.0
 11
14.45839043274005
 21
0.1071984407277329
 31
0.0
  0
LINE
  5
1AF82
330
1AF63
100
AcDbEntity
  8
0
  6
CONTINUOUS
100
AcDbLine
 10
17.18480263566856
 20
3.507129852736426
 30
0.0
 11
18.15958664855496
 21
4.481913865622833
 31
0.0
  0
LINE
  5
1AF83
330
1AF63
100
AcDbEntity
  8
0
  6
CONTINUOUS
100
AcDbLine
 10
17.3687926667615
 20
3.017600674749186
 30
0.0
 11
18.34361581961842
 21
3.9924238276061
 31
0.0
  0
LINE
  5
1AF84
330
1AF63
100
AcDbEntity
  8
0
  6
CONTINUOUS
100
AcDbLine
 10
19.76440170834832
 20
6.086728925416191
 30
0.0
 11
22.33924590259489
 21
8.661573119662755
 31
0.0
  0
LINE
  5
1AF85
330
1AF63
100
AcDbEntity
  8
0
  6
CONTINUOUS
100
AcDbLine
 10
19.27479084494887
 20
4.923598852936555
 30
0.0
 11
21.84929622842713
 21
7.498104236414807
 31
0.0
  0
LINE
  5
1AF86
330
1AF63
100
AcDbEntity
  8
0
  6
CONTINUOUS
100
AcDbLine
 10
17.55278269785445
 20
2.528071496761945
 30
0.0
 11
18.52764499068187
 21
3.502933789589366
 31
0.0
  0
LINE
  5
1AF87
330
1AF63
100
AcDbEntity
  8
0
  6
CONTINUOUS
100
AcDbLine
 10
18.78517998154942
 20
3.760468780456919
 30
0.0
 11
21.35934655425936
 21
6.33463535316686
 31
0.0
  0
LINE
  5
1AF88
330
1AF63
100
AcDbEntity
  8
0
  6
CONTINUOUS
100
AcDbLine
 10
17.73677272894739
 20
2.038542318774704
 30
0.0
 11
20.8693968800916
 21
5.171166469918914
 31
0.0
  0
LINE
  5
1AF89
330
1AF63
100
AcDbEntity
  8
0
  6
CONTINUOUS
100
AcDbLine
 10
17.92076276004034
 20
1.549013140787464
 30
0.0
 11
20.37944720592384
 21
4.007697586670968
 31
0.0
  0
LINE
  5
1AF8A
330
1AF63
100
AcDbEntity
  8
0
  6
CONTINUOUS
100
AcDbLine
 10
18.10475279113329
 20
1.059483962800223
 30
0.0
 11
19.88949753175608
 21
2.84422870342302
 31
0.0
  0
LINE
  5
1AF8B
330
1AF63
100
AcDbEntity
  8
0
  6
CONTINUOUS
100
AcDbLine
 10
18.28874282222623
 20
0.5699547848129822
 30
0.0
 11
19.39954785758832
 21
1.680759820175074
 31
0.0
  0
LINE
  5
1AF8C
330
1AF63
100
AcDbEntity
  8
0
  6
CONTINUOUS
100
AcDbLine
 10
18.47273285331918
 20
0.0804256068257416
 30
0.0
 11
18.90959818342056
 21
0.517290936927127
 31
0.0
  0
LINE
  5
1AF8D
330
1AF63
100
AcDbEntity
  8
0
  6
CONTINUOUS
100
AcDbLine
 10
14.3590401358224
 20
-0.1570118376323384
 30
0.0
 11
14.24903296539946
 21
-0.0470046672093929
 31
0.0
  0
LINE
  5
1AF8E
330
1AF63
100
AcDbEntity
  8
0
  6
CONTINUOUS
100
AcDbLine
 10
14.54309291258661
 20
0.332454594683643
 30
0.0
 11
13.75908329123172
 21
1.116464216038529
 31
0.0
  0
LINE
  5
1AF8F
330
1AF63
100
AcDbEntity
  8
0
  6
CONTINUOUS
100
AcDbLine
 10
14.72714568935081
 20
0.8219210269996244
 30
0.0
 11
13.26913361706399
 21
2.27993309928645
 31
0.0
  0
LINE
  5
1AF90
330
1AF63
100
AcDbEntity
  8
0
  6
CONTINUOUS
100
AcDbLine
 10
14.91119846611502
 20
1.311387459315606
 30
0.0
 11
12.77918394289625
 21
3.443401982534371
 31
0.0
  0
LINE
  5
1AF91
330
1AF63
100
AcDbEntity
  8
0
  6
CONTINUOUS
100
AcDbLine
 10
15.09525124287922
 20
1.800853891631587
 30
0.0
 11
12.28923426872852
 21
4.606870865782293
 31
0.0
  0
LINE
  5
1AF92
330
1AF63
100
AcDbEntity
  8
0
  6
CONTINUOUS
100
AcDbLine
 10
15.27930401964343
 20
2.290320323947569
 30
0.0
 11
11.79928459456078
 21
5.770339749030213
 31
0.0
  0
LINE
  5
1AF93
330
1AF63
100
AcDbEntity
  8
0
  6
CONTINUOUS
100
AcDbLine
 10
15.46335679640763
 20
2.77978675626355
 30
0.0
 11
14.48885470994921
 21
3.754288842721972
 31
0.0
  0
LINE
  5
1AF94
330
1AF63
100
AcDbEntity
  8
0
  6
CONTINUOUS
100
AcDbLine
 10
13.88507249233704
 20
4.358071060334137
 30
0.0
 11
11.30933492039305
 21
6.933808632278135
 31
0.0
  0
LINE
  5
1AF95
330
1AF63
100
AcDbEntity
  8
0
  6
CONTINUOUS
100
AcDbLine
 10
18.75840522805855
 20
0.1582575336928151
 30
0.0
 11
18.25383727664818
 21
0.6628254851031863
 31
0.0
  0
LINE
  5
1AF96
330
1AF63
100
AcDbEntity
  8
0
  6
CONTINUOUS
100
AcDbLine
 10
15.64740957317184
 20
3.269253188579531
 30
0.0
 11
14.67288388101266
 21
4.243778880738705
 31
0.0
  0
LINE
  5
1AF97
330
1AF63
100
AcDbEntity
  8
0
  6
CONTINUOUS
100
AcDbLine
 10
13.39509276772158
 20
5.521569994029786
 30
0.0
 11
10.81938524622531
 21
8.097277515526056
 31
0.0
  0
LINE
  5
1AF98
330
1AF63
100
AcDbEntity
  8
0
  6
CONTINUOUS
100
AcDbLine
 10
18.95798597883369
 20
0.6321959919978686
 30
0.0
 11
17.84825644852853
 21
1.741925522303024
 31
0.0
  0
LINE
  5
1AF99
330
1AF63
100
AcDbEntity
  8
0
  6
CONTINUOUS
100
AcDbLine
 10
19.15756672960882
 20
1.106134450302922
 30
0.0
 11
17.44267562040888
 21
2.821025559502861
 31
0.0
  0
LINE
  5
1AF9A
330
1AF63
100
AcDbEntity
  8
0
  6
CONTINUOUS
100
AcDbLine
 10
15.83146234993604
 20
3.758719620895513
 30
0.0
 11
14.85691305207612
 21
4.733268918755439
 31
0.0
  0
LINE
  5
1AF9B
330
1AF63
100
AcDbEntity
  8
0
  6
CONTINUOUS
100
AcDbLine
 10
16.01551512670025
 20
4.248186053211494
 30
0.0
 11
15.04094222313957
 21
5.222758956772172
 31
0.0
  0
LINE
  5
1AF9C
330
1AF63
100
AcDbEntity
  8
0
  6
CONTINUOUS
100
AcDbLine
 10
12.90511304310612
 20
6.685068927725435
 30
0.0
 11
10.8270819708403
 21
8.763099999991255
 31
0.0
  0
LINE
  5
1AF9D
330
1AF63
100
AcDbEntity
  8
0
  6
CONTINUOUS
100
AcDbLine
 10
12.41513331849066
 20
7.848567861421083
 30
0.0
 11
11.50060117992049
 21
8.763099999991255
 31
0.0
  0
LINE
  5
1AF9E
330
1AF63
100
AcDbEntity
  8
0
  6
CONTINUOUS
100
AcDbLine
 10
19.35714748038395
 20
1.580072908607975
 30
0.0
 11
17.03709479228923
 21
3.900125596702697
 31
0.0
  0
LINE
  5
1AF9F
330
1AF63
100
AcDbEntity
  8
0
  6
CONTINUOUS
100
AcDbLine
 10
19.55672823115909
 20
2.054011366913028
 30
0.0
 11
16.63151396416958
 21
4.979225633902534
 31
0.0
  0
LINE
  5
1AFA0
330
1AF63
100
AcDbEntity
  8
0
  6
CONTINUOUS
100
AcDbLine
 10
16.19956790346445
 20
4.737652485527476
 30
0.0
 11
15.22497139420302
 21
5.712248994788904
 31
0.0
  0
LINE
  5
1AFA1
330
1AF63
100
AcDbEntity
  8
0
  6
CONTINUOUS
100
AcDbLine
 10
16.38362068022866
 20
5.227118917843457
 30
0.0
 11
15.40900056526648
 21
6.201739032805637
 31
0.0
  0
LINE
  5
1AFA2
330
1AF63
100
AcDbEntity
  8
0
  6
CONTINUOUS
100
AcDbLine
 10
19.75630898193422
 20
2.527949825218081
 30
0.0
 11
18.70774536448286
 21
3.576513442669441
 31
0.0
  0
LINE
  5
1AFA3
330
1AF63
100
AcDbEntity
  8
0
  6
CONTINUOUS
100
AcDbLine
 10
19.95588973270936
 20
3.001888283523134
 30
0.0
 11
18.90726987211446
 21
4.050508144118028
 31
0.0
  0
LINE
  5
1AFA4
330
1AF63
100
AcDbEntity
  8
0
  6
CONTINUOUS
100
AcDbLine
 10
20.15547048348449
 20
3.475826741828186
 30
0.0
 11
19.10679437974606
 21
4.524502845566614
 31
0.0
  0
LINE
  5
1AFA5
330
1AF63
100
AcDbEntity
  8
0
  6
CONTINUOUS
100
AcDbLine
 10
20.35505123425962
 20
3.94976520013324
 30
0.0
 11
19.30631888737766
 21
4.998497547015201
 31
0.0
  0
LINE
  5
1AFA6
330
1AF63
100
AcDbEntity
  8
0
  6
CONTINUOUS
100
AcDbLine
 10
20.55463198503475
 20
4.423703658438292
 30
0.0
 11
19.50584339500926
 21
5.472492248463787
 31
0.0
  0
LINE
  5
1AFA7
330
1AF63
100
AcDbEntity
  8
0
  6
CONTINUOUS
100
AcDbLine
 10
18.37481191085755
 20
3.909446896294752
 30
0.0
 11
15.59302973632993
 21
6.691229070822371
 31
0.0
  0
LINE
  5
1AFA8
330
1AF63
100
AcDbEntity
  8
0
  6
CONTINUOUS
100
AcDbLine
 10
17.96904084440766
 20
4.988737171824825
 30
0.0
 11
15.77705890739338
 21
7.180719108839104
 31
0.0
  0
LINE
  5
1AFA9
330
1AF63
100
AcDbEntity
  8
0
  6
CONTINUOUS
100
AcDbLine
 10
17.56326977795777
 20
6.068027447354899
 30
0.0
 11
15.96108807845684
 21
7.670209146855838
 31
0.0
  0
LINE
  5
1AFAA
330
1AF63
100
AcDbEntity
  8
0
  6
CONTINUOUS
100
AcDbLine
 10
17.15749871150789
 20
7.147317722884972
 30
0.0
 11
16.14511724952029
 21
8.15969918487257
 31
0.0
  0
LINE
  5
1AFAB
330
1AF63
100
AcDbEntity
  8
0
  6
CONTINUOUS
100
AcDbLine
 10
16.751727645058
 20
8.226607998415046
 30
0.0
 11
16.32914642058374
 21
8.649189222889303
 31
0.0
  0
LINE
  5
1AFAC
330
1AF63
100
AcDbEntity
  8
0
  6
CONTINUOUS
100
AcDbLine
 10
20.75421273580989
 20
4.897642116743345
 30
0.0
 11
19.70536790264086
 21
5.946486949912374
 31
0.0
  0
LINE
  5
1AFAD
330
1AF63
100
AcDbEntity
  8
0
  6
CONTINUOUS
100
AcDbLine
 10
20.95379348658502
 20
5.371580575048398
 30
0.0
 11
19.90489241027246
 21
6.42048165136096
 31
0.0
  0
LINE
  5
1AFAE
330
1AF63
100
AcDbEntity
  8
0
  6
CONTINUOUS
100
AcDbLine
 10
21.15337423736015
 20
5.845519033353452
 30
0.0
 11
20.10441691790406
 21
6.894476352809547
 31
0.0
  0
LINE
  5
1AFAF
330
1AF63
100
AcDbEntity
  8
0
  6
CONTINUOUS
100
AcDbLine
 10
21.35295498813529
 20
6.319457491658505
 30
0.0
 11
20.30394142553566
 21
7.368471054258134
 31
0.0
  0
LINE
  5
1AFB0
330
1AF63
100
AcDbEntity
  8
0
  6
CONTINUOUS
100
AcDbLine
 10
21.55253573891042
 20
6.793395949963558
 30
0.0
 11
20.50346593316726
 21
7.842465755706721
 31
0.0
  0
LINE
  5
1AFB1
330
1AF63
100
AcDbEntity
  8
0
  6
CONTINUOUS
100
AcDbLine
 10
21.75211648968556
 20
7.267334408268612
 30
0.0
 11
20.70299044079886
 21
8.316460457155308
 31
0.0
  0
LINE
  5
1AFB2
330
1AF63
100
AcDbEntity
  8
0
  6
CONTINUOUS
100
AcDbLine
 10
21.95169724046069
 20
7.741272866573663
 30
0.0
 11
20.9298701070431
 21
8.763099999991256
 31
0.0
  0
LINE
  5
1AFB3
330
1AF63
100
AcDbEntity
  8
0
  6
CONTINUOUS
100
AcDbLine
 10
22.15127799123582
 20
8.215211324878716
 30
0.0
 11
21.60338931612328
 21
8.763099999991256
 31
0.0
  0
LINE
  5
1AFB4
330
1AF63
100
AcDbEntity
  8
0
  6
CONTINUOUS
100
AcDbLine
 10
22.35085874201096
 20
8.689149783183769
 30
0.0
 11
22.27690852520347
 21
8.763099999991255
 31
0.0
  0
ENDBLK
  5
1B0A6
330
1AF63
100
AcDbEntity
  8
0
100
AcDbBlockEnd
  0
BLOCK
  5
1B0A7
330
1AFB5
100
AcDbEntity
  8
0
100
AcDbBlockBegin
  2
*X52
 70
     1
 10
0.0
 20
0.0
 30
0.0
  3
*X52
  1

  0
LINE
  5
1AFB6
330
1AFB5
100
AcDbEntity
  8
0
  6
CONTINUOUS
100
AcDbLine
 10
23.19462913593892
 20
8.169917934846424
 30
0.0
 11
23.70775465517246
 21
8.683043454079957
 31
0.0
  0
LINE
  5
1AFB7
330
1AFB5
100
AcDbEntity
  8
0
  6
CONTINUOUS
100
AcDbLine
 10
22.64923161835078
 20
6.951001208178088
 30
0.0
 11
23.9159364069932
 21
8.217705996820516
 31
0.0
  0
LINE
  5
1AFB8
330
1AFB5
100
AcDbEntity
  8
0
  6
CONTINUOUS
100
AcDbLine
 10
22.10383410076263
 20
5.732084481509751
 30
0.0
 11
24.12411815881395
 21
7.752368539561078
 31
0.0
  0
LINE
  5
1AFB9
330
1AFB5
100
AcDbEntity
  8
0
  6
CONTINUOUS
100
AcDbLine
 10
21.55843658317447
 20
4.513167754841414
 30
0.0
 11
24.3322999106347
 21
7.287031082301639
 31
0.0
  0
LINE
  5
1AFBA
330
1AFB5
100
AcDbEntity
  8
0
  6
CONTINUOUS
100
AcDbLine
 10
21.01303906558632
 20
3.294251028173077
 30
0.0
 11
24.54048166245544
 21
6.821693625042199
 31
0.0
  0
LINE
  5
1AFBB
330
1AFB5
100
AcDbEntity
  8
0
  6
CONTINUOUS
100
AcDbLine
 10
20.46764154799817
 20
2.075334301504738
 30
0.0
 11
23.28571549467848
 21
4.89340824818505
 31
0.0
  0
LINE
  5
1AFBC
330
1AFB5
100
AcDbEntity
  8
0
  6
CONTINUOUS
100
AcDbLine
 10
19.92224403041002
 20
0.8564175748364002
 30
0.0
 11
22.74075865492779
 21
3.674932199354171
 31
0.0
  0
LINE
  5
1AFBD
330
1AFB5
100
AcDbEntity
  8
0
  6
CONTINUOUS
100
AcDbLine
 10
23.67305085490148
 20
5.280743608408048
 30
0.0
 11
24.74866341427619
 21
6.356356167782759
 31
0.0
  0
LINE
  5
1AFBE
330
1AFB5
100
AcDbEntity
  8
0
  6
CONTINUOUS
100
AcDbLine
 10
23.88118970842314
 20
4.815363252849522
 30
0.0
 11
24.95684516609694
 21
5.89101871052332
 31
0.0
  0
LINE
  5
1AFBF
330
1AFB5
100
AcDbEntity
  8
0
  6
CONTINUOUS
100
AcDbLine
 10
19.73925852647308
 20
-0.0000871381807288
 30
0.0
 11
23.4103456646501
 21
3.670999999996297
 31
0.0
  0
LINE
  5
1AFC0
330
1AFB5
100
AcDbEntity
  8
0
  6
CONTINUOUS
100
AcDbLine
 10
24.0893285619448
 20
4.349982897290997
 30
0.0
 11
25.16502691791769
 21
5.42568125326388
 31
0.0
  0
LINE
  5
1AFC1
330
1AFB5
100
AcDbEntity
  8
0
  6
CONTINUOUS
100
AcDbLine
 10
20.41282099582748
 20
-0.0000438779065108
 30
0.0
 11
21.64944178675636
 21
1.236576913022366
 31
0.0
  0
LINE
  5
1AFC2
330
1AFB5
100
AcDbEntity
  8
0
  6
CONTINUOUS
100
AcDbLine
 10
22.78126487373161
 20
2.36839999999762
 30
0.0
 11
24.08386487373029
 21
3.670999999996297
 31
0.0
  0
LINE
  5
1AFC3
330
1AFB5
100
AcDbEntity
  8
0
  6
CONTINUOUS
100
AcDbLine
 10
24.29746741546646
 20
3.884602541732471
 30
0.0
 11
25.37320866973843
 21
4.960343796004441
 31
0.0
  0
LINE
  5
1AFC4
330
1AFB5
100
AcDbEntity
  8
0
  6
CONTINUOUS
100
AcDbLine
 10
21.08638346518189
 20
-0.0000006176322938
 30
0.0
 11
21.10379033335899
 21
0.0174062505448083
 31
0.0
  0
LINE
  5
1AFC5
330
1AFB5
100
AcDbEntity
  8
0
  6
CONTINUOUS
100
AcDbLine
 10
23.4547840828118
 20
2.36839999999762
 30
0.0
 11
25.58139042155918
 21
4.495006338745002
 31
0.0
  0
LINE
  5
1AFC6
330
1AFB5
100
AcDbEntity
  8
0
  6
CONTINUOUS
100
AcDbLine
 10
29.30199999996933
 20
8.215615917155148
 30
0.0
 11
29.84948408280543
 21
8.763099999991255
 31
0.0
  0
LINE
  5
1AFC7
330
1AFB5
100
AcDbEntity
  8
0
  6
CONTINUOUS
100
AcDbLine
 10
24.12830329189199
 20
2.36839999999762
 30
0.0
 11
25.78957217337993
 21
4.029668881485562
 31
0.0
  0
LINE
  5
1AFC8
330
1AFB5
100
AcDbEntity
  8
0
  6
CONTINUOUS
100
AcDbLine
 10
29.30199999996933
 20
7.54209670807496
 30
0.0
 11
30.52300329188562
 21
8.763099999991255
 31
0.0
  0
LINE
  5
1AFC9
330
1AFB5
100
AcDbEntity
  8
0
  6
CONTINUOUS
100
AcDbLine
 10
24.80182250097217
 20
2.36839999999762
 30
0.0
 11
25.99775392520067
 21
3.564331424226122
 31
0.0
  0
LINE
  5
1AFCA
330
1AFB5
100
AcDbEntity
  8
0
  6
CONTINUOUS
100
AcDbLine
 10
29.30199999996933
 20
6.868577498994774
 30
0.0
 11
30.74199999996926
 21
8.308577498994712
 31
0.0
  0
LINE
  5
1AFCB
330
1AFB5
100
AcDbEntity
  8
0
  6
CONTINUOUS
100
AcDbLine
 10
25.13028238392013
 20
2.023340673865392
 30
0.0
 11
26.20593567702142
 21
3.098993966966683
 31
0.0
  0
LINE
  5
1AFCC
330
1AFB5
100
AcDbEntity
  8
0
  6
CONTINUOUS
100
AcDbLine
 10
25.33838066033617
 20
1.557919741201244
 30
0.0
 11
26.41411742884217
 21
2.633656509707244
 31
0.0
  0
LINE
  5
1AFCD
330
1AFB5
100
AcDbEntity
  8
0
  6
CONTINUOUS
100
AcDbLine
 10
25.54647893675221
 20
1.092498808537098
 30
0.0
 11
26.62229918066291
 21
2.168319052447804
 31
0.0
  0
LINE
  5
1AFCE
330
1AFB5
100
AcDbEntity
  8
0
  6
CONTINUOUS
100
AcDbLine
 10
25.75457721316825
 20
0.62707787587295
 30
0.0
 11
26.83048093248366
 21
1.702981595188365
 31
0.0
  0
LINE
  5
1AFCF
330
1AFB5
100
AcDbEntity
  8
0
  6
CONTINUOUS
100
AcDbLine
 10
29.30199999996933
 20
6.195058289914587
 30
0.0
 11
30.74199999996926
 21
7.635058289914522
 31
0.0
  0
LINE
  5
1AFD0
330
1AFB5
100
AcDbEntity
  8
0
  6
CONTINUOUS
100
AcDbLine
 10
29.30199999996933
 20
5.521539080834401
 30
0.0
 11
30.74199999996926
 21
6.961539080834331
 31
0.0
  0
LINE
  5
1AFD1
330
1AFB5
100
AcDbEntity
  8
0
  6
CONTINUOUS
100
AcDbLine
 10
29.30199999996933
 20
4.848019871754214
 30
0.0
 11
30.74199999996925
 21
6.288019871754143
 31
0.0
  0
LINE
  5
1AFD2
330
1AFB5
100
AcDbEntity
  8
0
  6
CONTINUOUS
100
AcDbLine
 10
29.30199999996933
 20
4.174500662674028
 30
0.0
 11
30.74199999996925
 21
5.614500662673953
 31
0.0
  0
LINE
  5
1AFD3
330
1AFB5
100
AcDbEntity
  8
0
  6
CONTINUOUS
100
AcDbLine
 10
25.96267548958429
 20
0.1616569432088024
 30
0.0
 11
27.18411854636669
 21
1.383099999991207
 31
0.0
  0
LINE
  5
1AFD4
330
1AFB5
100
AcDbEntity
  8
0
  6
CONTINUOUS
100
AcDbLine
 10
29.30199999996933
 20
3.500981453593841
 30
0.0
 11
30.74199999996925
 21
4.940981453593762
 31
0.0
  0
LINE
  5
1AFD5
330
1AFB5
100
AcDbEntity
  8
0
  6
CONTINUOUS
100
AcDbLine
 10
26.50763775544691
 20
0.0330999999912356
 30
0.0
 11
27.85763775544689
 21
1.383099999991223
 31
0.0
  0
LINE
  5
1AFD6
330
1AFB5
100
AcDbEntity
  8
0
  6
CONTINUOUS
100
AcDbLine
 10
29.30199999996933
 20
2.827462244513656
 30
0.0
 11
30.74199999996925
 21
4.267462244513574
 31
0.0
  0
LINE
  5
1AFD7
330
1AFB5
100
AcDbEntity
  8
0
  6
CONTINUOUS
100
AcDbLine
 10
27.18115696452709
 20
0.0330999999912356
 30
0.0
 11
28.55073879889363
 21
1.402681834357775
 31
0.0
  0
LINE
  5
1AFD8
330
1AFB5
100
AcDbEntity
  8
0
  6
CONTINUOUS
100
AcDbLine
 10
29.28241816560272
 20
2.134361201066866
 30
0.0
 11
30.74199999996924
 21
3.593943035433383
 31
0.0
  0
LINE
  5
1AFD9
330
1AFB5
100
AcDbEntity
  8
0
  6
CONTINUOUS
100
AcDbLine
 10
27.85467617360728
 20
0.0330999999912356
 30
0.0
 11
30.74199999996924
 21
2.920423826353195
 31
0.0
  0
LINE
  5
1AFDA
330
1AFB5
100
AcDbEntity
  8
0
  6
CONTINUOUS
100
AcDbLine
 10
28.53897559587887
 20
0.0438802131826428
 30
0.0
 11
30.73121978677781
 21
2.236124404081585
 31
0.0
  0
LINE
  5
1AFDB
330
1AFB5
100
AcDbEntity
  8
0
  6
CONTINUOUS
100
AcDbLine
 10
29.45140055588722
 20
0.2827859641107988
 30
0.0
 11
30.49231403584965
 21
1.323699444073236
 31
0.0
  0
LINE
  5
1AFDC
330
1AFB5
100
AcDbEntity
  8
0
  6
CONTINUOUS
100
AcDbLine
 10
19.59027867740337
 20
-0.0000967065718083
 30
0.0
 11
19.55485265190471
 21
0.035329318926844
 31
0.0
  0
LINE
  5
1AFDD
330
1AFB5
100
AcDbEntity
  8
0
  6
CONTINUOUS
100
AcDbLine
 10
20.26375463176586
 20
-0.0000534518541091
 30
0.0
 11
19.76305575737534
 21
0.5006454225364014
 31
0.0
  0
LINE
  5
1AFDE
330
1AFB5
100
AcDbEntity
  8
0
  6
CONTINUOUS
100
AcDbLine
 10
20.93723058612834
 20
-0.0000101971364099
 30
0.0
 11
19.97125886284597
 21
0.965961526145958
 31
0.0
  0
LINE
  5
1AFDF
330
1AFB5
100
AcDbEntity
  8
0
  6
CONTINUOUS
100
AcDbLine
 10
21.25514828313686
 20
0.355591314935257
 30
0.0
 11
20.1794619683166
 21
1.431277629755512
 31
0.0
  0
LINE
  5
1AFE0
330
1AFB5
100
AcDbEntity
  8
0
  6
CONTINUOUS
100
AcDbLine
 10
21.46338838394921
 20
0.8208704232030986
 30
0.0
 11
20.38766507378723
 21
1.896593733365069
 31
0.0
  0
LINE
  5
1AFE1
330
1AFB5
100
AcDbEntity
  8
0
  6
CONTINUOUS
100
AcDbLine
 10
21.67162848476155
 20
1.28614953147094
 30
0.0
 11
20.59586817925786
 21
2.361909836974626
 31
0.0
  0
LINE
  5
1AFE2
330
1AFB5
100
AcDbEntity
  8
0
  6
CONTINUOUS
100
AcDbLine
 10
21.8798685855739
 20
1.751428639738782
 30
0.0
 11
20.80407128472849
 21
2.827225940584183
 31
0.0
  0
LINE
  5
1AFE3
330
1AFB5
100
AcDbEntity
  8
0
  6
CONTINUOUS
100
AcDbLine
 10
22.08810868638624
 20
2.216707748006623
 30
0.0
 11
21.01227439019912
 21
3.292542044193739
 31
0.0
  0
LINE
  5
1AFE4
330
1AFB5
100
AcDbEntity
  8
0
  6
CONTINUOUS
100
AcDbLine
 10
22.60993564347543
 20
2.36839999999762
 30
0.0
 11
21.22047749566975
 21
3.757858147803296
 31
0.0
  0
LINE
  5
1AFE5
330
1AFB5
100
AcDbEntity
  8
0
  6
CONTINUOUS
100
AcDbLine
 10
23.28345485255561
 20
2.36839999999762
 30
0.0
 11
21.42868060114038
 21
4.223174251412853
 31
0.0
  0
LINE
  5
1AFE6
330
1AFB5
100
AcDbEntity
  8
0
  6
CONTINUOUS
100
AcDbLine
 10
26.29227406164219
 20
0.0330999999912356
 30
0.0
 11
25.80009199592872
 21
0.5252820657046957
 31
0.0
  0
LINE
  5
1AFE7
330
1AFB5
100
AcDbEntity
  8
0
  6
CONTINUOUS
100
AcDbLine
 10
23.9569740616358
 20
2.36839999999762
 30
0.0
 11
21.63688370661101
 21
4.688490355022409
 31
0.0
  0
LINE
  5
1AFE8
330
1AFB5
100
AcDbEntity
  8
0
  6
CONTINUOUS
100
AcDbLine
 10
26.96579327072237
 20
0.0330999999912356
 30
0.0
 11
25.2554132311971
 21
1.743480039516508
 31
0.0
  0
LINE
  5
1AFE9
330
1AFB5
100
AcDbEntity
  8
0
  6
CONTINUOUS
100
AcDbLine
 10
24.63049327071599
 20
2.36839999999762
 30
0.0
 11
23.32789327071731
 21
3.670999999996297
 31
0.0
  0
LINE
  5
1AFEA
330
1AFB5
100
AcDbEntity
  8
0
  6
CONTINUOUS
100
AcDbLine
 10
22.92098674744635
 20
4.077906523267254
 30
0.0
 11
21.84508681208164
 21
5.153806458631966
 31
0.0
  0
LINE
  5
1AFEB
330
1AFB5
100
AcDbEntity
  8
0
  6
CONTINUOUS
100
AcDbLine
 10
27.63931247980256
 20
0.0330999999912356
 30
0.0
 11
24.0014124797975
 21
3.670999999996297
 31
0.0
  0
LINE
  5
1AFEC
330
1AFB5
100
AcDbEntity
  8
0
  6
CONTINUOUS
100
AcDbLine
 10
23.129125600968
 20
4.5432868788258
 30
0.0
 11
22.05328991755227
 21
5.619122562241522
 31
0.0
  0
LINE
  5
1AFED
330
1AFB5
100
AcDbEntity
  8
0
  6
CONTINUOUS
100
AcDbLine
 10
28.31283168888275
 20
0.0330999999912356
 30
0.0
 11
24.16488385994816
 21
4.181047828925828
 31
0.0
  0
LINE
  5
1AFEE
330
1AFB5
100
AcDbEntity
  8
0
  6
CONTINUOUS
100
AcDbLine
 10
23.33726445448964
 20
5.008667234384345
 30
0.0
 11
22.2614930230229
 21
6.084438665851079
 31
0.0
  0
LINE
  5
1AFEF
330
1AFB5
100
AcDbEntity
  8
0
  6
CONTINUOUS
100
AcDbLine
 10
28.92085740005492
 20
0.0985934978992438
 30
0.0
 11
27.63635089796295
 21
1.383099999991217
 31
0.0
  0
LINE
  5
1AFF0
330
1AFB5
100
AcDbEntity
  8
0
  6
CONTINUOUS
100
AcDbLine
 10
26.43704649509776
 20
2.582404402856405
 30
0.0
 11
23.61992702019732
 21
5.399523877756844
 31
0.0
  0
LINE
  5
1AFF1
330
1AFB5
100
AcDbEntity
  8
0
  6
CONTINUOUS
100
AcDbLine
 10
23.54540330801128
 20
5.47404758994289
 30
0.0
 11
22.46969612849353
 21
6.549754769460635
 31
0.0
  0
LINE
  5
1AFF2
330
1AFB5
100
AcDbEntity
  8
0
  6
CONTINUOUS
100
AcDbLine
 10
29.42225615078443
 20
0.2707139562499279
 30
0.0
 11
28.30987010704312
 21
1.383099999991234
 31
0.0
  0
LINE
  5
1AFF3
330
1AFB5
100
AcDbEntity
  8
0
  6
CONTINUOUS
100
AcDbLine
 10
25.89179548232307
 20
3.801174624711282
 30
0.0
 11
22.67789923396416
 21
7.015070873070191
 31
0.0
  0
LINE
  5
1AFF4
330
1AFB5
100
AcDbEntity
  8
0
  6
CONTINUOUS
100
AcDbLine
 10
29.83624534690007
 20
0.5302439692144705
 30
0.0
 11
28.85811781497101
 21
1.508371501143527
 31
0.0
  0
LINE
  5
1AFF5
330
1AFB5
100
AcDbEntity
  8
0
  6
CONTINUOUS
100
AcDbLine
 10
25.34654446954838
 20
5.01994484656616
 30
0.0
 11
22.88610233943479
 21
7.480386976679748
 31
0.0
  0
LINE
  5
1AFF6
330
1AFB5
100
AcDbEntity
  8
0
  6
CONTINUOUS
100
AcDbLine
 10
30.17865975401872
 20
0.8613487711760022
 30
0.0
 11
29.18888744090175
 21
1.851121084292977
 31
0.0
  0
LINE
  5
1AFF7
330
1AFB5
100
AcDbEntity
  8
0
  6
CONTINUOUS
100
AcDbLine
 10
24.80129345677369
 20
6.238715068421037
 30
0.0
 11
23.09430544490542
 21
7.945703080289305
 31
0.0
  0
LINE
  5
1AFF8
330
1AFB5
100
AcDbEntity
  8
0
  6
CONTINUOUS
100
AcDbLine
 10
30.45496647202376
 20
1.258561262251155
 30
0.0
 11
29.30199999996933
 21
2.411527734305588
 31
0.0
  0
LINE
  5
1AFF9
330
1AFB5
100
AcDbEntity
  8
0
  6
CONTINUOUS
100
AcDbLine
 10
24.256042443999
 20
7.457485290275915
 30
0.0
 11
23.30250855037605
 21
8.411019183898862
 31
0.0
  0
LINE
  5
1AFFA
330
1AFB5
100
AcDbEntity
  8
0
  6
CONTINUOUS
100
AcDbLine
 10
30.64868582078271
 20
1.738361122572387
 30
0.0
 11
29.30199999996933
 21
3.085046943385775
 31
0.0
  0
LINE
  5
1AFFB
330
1AFB5
100
AcDbEntity
  8
0
  6
CONTINUOUS
100
AcDbLine
 10
23.71079143122431
 20
8.676255512130794
 30
0.0
 11
23.51071165584668
 21
8.876335287508416
 31
0.0
  0
LINE
  5
1AFFC
330
1AFB5
100
AcDbEntity
  8
0
  6
CONTINUOUS
100
AcDbLine
 10
30.73802122914428
 20
2.322544923291007
 30
0.0
 11
29.30199999996933
 21
3.758566152465961
 31
0.0
  0
LINE
  5
1AFFD
330
1AFB5
100
AcDbEntity
  8
0
  6
CONTINUOUS
100
AcDbLine
 10
30.74199999996924
 20
2.992085361546236
 30
0.0
 11
29.30199999996933
 21
4.432085361546148
 31
0.0
  0
LINE
  5
1AFFE
330
1AFB5
100
AcDbEntity
  8
0
  6
CONTINUOUS
100
AcDbLine
 10
30.74199999996924
 20
3.665604570626419
 30
0.0
 11
29.30199999996933
 21
5.105604570626333
 31
0.0
  0
LINE
  5
1AFFF
330
1AFB5
100
AcDbEntity
  8
0
  6
CONTINUOUS
100
AcDbLine
 10
30.74199999996925
 20
4.339123779706602
 30
0.0
 11
29.30199999996933
 21
5.77912377970652
 31
0.0
  0
LINE
  5
1B000
330
1AFB5
100
AcDbEntity
  8
0
  6
CONTINUOUS
100
AcDbLine
 10
30.74199999996925
 20
5.012642988786785
 30
0.0
 11
29.30199999996933
 21
6.452642988786707
 31
0.0
  0
LINE
  5
1B001
330
1AFB5
100
AcDbEntity
  8
0
  6
CONTINUOUS
100
AcDbLine
 10
30.74199999996925
 20
5.68616219786697
 30
0.0
 11
29.30199999996933
 21
7.126162197866894
 31
0.0
  0
LINE
  5
1B002
330
1AFB5
100
AcDbEntity
  8
0
  6
CONTINUOUS
100
AcDbLine
 10
30.74199999996925
 20
6.359681406947153
 30
0.0
 11
29.30199999996933
 21
7.799681406947081
 31
0.0
  0
LINE
  5
1B003
330
1AFB5
100
AcDbEntity
  8
0
  6
CONTINUOUS
100
AcDbLine
 10
30.74199999996926
 20
7.033200616027337
 30
0.0
 11
29.30199999996933
 21
8.473200616027269
 31
0.0
  0
LINE
  5
1B004
330
1AFB5
100
AcDbEntity
  8
0
  6
CONTINUOUS
100
AcDbLine
 10
30.74199999996926
 20
7.706719825107518
 30
0.0
 11
29.68561982508552
 21
8.763099999991255
 31
0.0
  0
LINE
  5
1B005
330
1AFB5
100
AcDbEntity
  8
0
  6
CONTINUOUS
100
AcDbLine
 10
30.74199999996926
 20
8.380239034187703
 30
0.0
 11
30.35913903416571
 21
8.763099999991255
 31
0.0
  0
ENDBLK
  5
1B0A8
330
1AFB5
100
AcDbEntity
  8
0
100
AcDbBlockEnd
  0
BLOCK
  5
1B0A9
330
1B006
100
AcDbEntity
  8
0
100
AcDbBlockBegin
  2
*X53
 70
     1
 10
0.0
 20
0.0
 30
0.0
  3
*X53
  1

  0
LINE
  5
1B007
330
1B006
100
AcDbEntity
  8
0
  6
CONTINUOUS
100
AcDbLine
 10
31.64199999996833
 20
8.535058289913598
 30
0.0
 11
31.87004171004599
 21
8.763099999991255
 31
0.0
  0
LINE
  5
1B008
330
1B006
100
AcDbEntity
  8
0
  6
CONTINUOUS
100
AcDbLine
 10
31.64199999996833
 20
7.861539080833412
 30
0.0
 11
32.54356091912618
 21
8.763099999991255
 31
0.0
  0
LINE
  5
1B009
330
1B006
100
AcDbEntity
  8
0
  6
CONTINUOUS
100
AcDbLine
 10
31.64199999996833
 20
7.188019871753226
 30
0.0
 11
33.08199999996839
 21
8.628019871753281
 31
0.0
  0
LINE
  5
1B00A
330
1B006
100
AcDbEntity
  8
0
  6
CONTINUOUS
100
AcDbLine
 10
31.64199999996833
 20
6.51450066267304
 30
0.0
 11
33.08199999996839
 21
7.954500662673095
 31
0.0
  0
LINE
  5
1B00B
330
1B006
100
AcDbEntity
  8
0
  6
CONTINUOUS
100
AcDbLine
 10
31.64199999996833
 20
5.840981453592853
 30
0.0
 11
33.08199999996839
 21
7.280981453592908
 31
0.0
  0
LINE
  5
1B00C
330
1B006
100
AcDbEntity
  8
0
  6
CONTINUOUS
100
AcDbLine
 10
31.64199999996833
 20
5.167462244512667
 30
0.0
 11
33.08199999996839
 21
6.607462244512721
 31
0.0
  0
LINE
  5
1B00D
330
1B006
100
AcDbEntity
  8
0
  6
CONTINUOUS
100
AcDbLine
 10
31.64199999996833
 20
4.493943035432481
 30
0.0
 11
33.08199999996839
 21
5.933943035432535
 31
0.0
  0
LINE
  5
1B00E
330
1B006
100
AcDbEntity
  8
0
  6
CONTINUOUS
100
AcDbLine
 10
31.64199999996833
 20
3.820423826352293
 30
0.0
 11
33.08199999996839
 21
5.260423826352348
 31
0.0
  0
LINE
  5
1B00F
330
1B006
100
AcDbEntity
  8
0
  6
CONTINUOUS
100
AcDbLine
 10
31.64199999996833
 20
3.146904617272106
 30
0.0
 11
33.08199999996839
 21
4.586904617272161
 31
0.0
  0
LINE
  5
1B010
330
1B006
100
AcDbEntity
  8
0
  6
CONTINUOUS
100
AcDbLine
 10
36.23199999996837
 20
8.410423826352325
 30
0.0
 11
36.5846761736073
 21
8.763099999991255
 31
0.0
  0
LINE
  5
1B011
330
1B006
100
AcDbEntity
  8
0
  6
CONTINUOUS
100
AcDbLine
 10
36.23199999996837
 20
7.73690461727214
 30
0.0
 11
37.25819538268748
 21
8.763099999991255
 31
0.0
  0
LINE
  5
1B012
330
1B006
100
AcDbEntity
  8
0
  6
CONTINUOUS
100
AcDbLine
 10
31.64257403601376
 20
2.473959444237348
 30
0.0
 11
33.08199999996839
 21
3.913385408191974
 31
0.0
  0
LINE
  5
1B013
330
1B006
100
AcDbEntity
  8
0
  6
CONTINUOUS
100
AcDbLine
 10
36.23199999996837
 20
7.063385408191953
 30
0.0
 11
37.67199999996831
 21
8.503385408191894
 31
0.0
  0
LINE
  5
1B014
330
1B006
100
AcDbEntity
  8
0
  6
CONTINUOUS
100
AcDbLine
 10
31.72013636841932
 20
1.87800256756272
 30
0.0
 11
33.08199999996839
 21
3.239866199111788
 31
0.0
  0
LINE
  5
1B015
330
1B006
100
AcDbEntity
  8
0
  6
CONTINUOUS
100
AcDbLine
 10
36.23199999996837
 20
6.389866199111767
 30
0.0
 11
37.67199999996831
 21
7.829866199111708
 31
0.0
  0
LINE
  5
1B016
330
1B006
100
AcDbEntity
  8
0
  6
CONTINUOUS
100
AcDbLine
 10
31.89042734314753
 20
1.374774333210744
 30
0.0
 11
33.08199999996839
 21
2.566346990031601
 31
0.0
  0
LINE
  5
1B017
330
1B006
100
AcDbEntity
  8
0
  6
CONTINUOUS
100
AcDbLine
 10
36.23199999996837
 20
5.71634699003158
 30
0.0
 11
37.67199999996831
 21
7.156346990031521
 31
0.0
  0
LINE
  5
1B018
330
1B006
100
AcDbEntity
  8
0
  6
CONTINUOUS
100
AcDbLine
 10
32.14210568064475
 20
0.952933461627778
 30
0.0
 11
33.18745552475986
 21
1.998283305742888
 31
0.0
  0
LINE
  5
1B019
330
1B006
100
AcDbEntity
  8
0
  6
CONTINUOUS
100
AcDbLine
 10
36.23199999996837
 20
5.042827780951393
 30
0.0
 11
37.67199999996831
 21
6.482827780951334
 31
0.0
  0
LINE
  5
1B01A
330
1B006
100
AcDbEntity
  8
0
  6
CONTINUOUS
100
AcDbLine
 10
32.45820639400955
 20
0.5955149659123915
 30
0.0
 11
33.47242681921943
 21
1.60973539112227
 31
0.0
  0
LINE
  5
1B01B
330
1B006
100
AcDbEntity
  8
0
  6
CONTINUOUS
100
AcDbLine
 10
36.23199999996837
 20
4.369308571871207
 30
0.0
 11
37.67199999996831
 21
5.809308571871147
 31
0.0
  0
LINE
  5
1B01C
330
1B006
100
AcDbEntity
  8
0
  6
CONTINUOUS
100
AcDbLine
 10
32.83432456621412
 20
0.2981139290367771
 30
0.0
 11
33.89722476612215
 21
1.361014128944803
 31
0.0
  0
LINE
  5
1B01D
330
1B006
100
AcDbEntity
  8
0
  6
CONTINUOUS
100
AcDbLine
 10
36.23199999996837
 20
3.69578936279102
 30
0.0
 11
37.67199999996831
 21
5.135789362790962
 31
0.0
  0
LINE
  5
1B01E
330
1B006
100
AcDbEntity
  8
0
  6
CONTINUOUS
100
AcDbLine
 10
33.2711633111245
 20
0.0614334648669672
 30
0.0
 11
34.43247338014423
 21
1.222743533886696
 31
0.0
  0
LINE
  5
1B01F
330
1B006
100
AcDbEntity
  8
0
  6
CONTINUOUS
100
AcDbLine
 10
36.23199999996837
 20
3.022270153710834
 30
0.0
 11
37.67199999996831
 21
4.462270153710775
 31
0.0
  0
LINE
  5
1B020
330
1B006
100
AcDbEntity
  8
0
  6
CONTINUOUS
100
AcDbLine
 10
33.76515245874577
 20
-0.1180965965919523
 30
0.0
 11
35.1587445516215
 21
1.27549549628378
 31
0.0
  0
LINE
  5
1B021
330
1B006
100
AcDbEntity
  8
0
  6
CONTINUOUS
100
AcDbLine
 10
36.21639478609585
 20
2.333145730758136
 30
0.0
 11
37.67199999996831
 21
3.788750944630588
 31
0.0
  0
LINE
  5
1B022
330
1B006
100
AcDbEntity
  8
0
  6
CONTINUOUS
100
AcDbLine
 10
34.34060583368432
 20
-0.2161624307335863
 30
0.0
 11
37.67199999996831
 21
3.115231735550401
 31
0.0
  0
LINE
  5
1B023
330
1B006
100
AcDbEntity
  8
0
  6
CONTINUOUS
100
AcDbLine
 10
35.01698193613905
 20
-0.2133055373590427
 30
0.0
 11
37.66876712070525
 21
2.438479647207154
 31
0.0
  0
LINE
  5
1B024
330
1B006
100
AcDbEntity
  8
0
  6
CONTINUOUS
100
AcDbLine
 10
35.90743367693304
 20
0.0036269943547609
 30
0.0
 11
37.51723902192366
 21
1.613432339345381
 31
0.0
  0
LINE
  5
1B025
330
1B006
100
AcDbEntity
  8
0
  6
CONTINUOUS
100
AcDbLine
 10
32.55309425579761
 20
0.5074718966376706
 30
0.0
 11
32.27784730925847
 21
0.7827188431768102
 31
0.0
  0
LINE
  5
1B026
330
1B006
100
AcDbEntity
  8
0
  6
CONTINUOUS
100
AcDbLine
 10
33.87496468909684
 20
-0.1408793275813673
 30
0.0
 11
31.67993083278052
 21
2.054154528734943
 31
0.0
  0
LINE
  5
1B027
330
1B006
100
AcDbEntity
  8
0
  6
CONTINUOUS
100
AcDbLine
 10
34.64362813207632
 20
-0.2360235614806649
 30
0.0
 11
31.64199999996833
 21
2.765604570627322
 31
0.0
  0
LINE
  5
1B028
330
1B006
100
AcDbEntity
  8
0
  6
CONTINUOUS
100
AcDbLine
 10
35.25801106796118
 20
-0.1768872882853429
 30
0.0
 11
31.64199999996833
 21
3.439123779707508
 31
0.0
  0
LINE
  5
1B029
330
1B006
100
AcDbEntity
  8
0
  6
CONTINUOUS
100
AcDbLine
 10
35.79065650332146
 20
-0.0360135145654361
 30
0.0
 11
34.54143210838231
 21
1.213210880373721
 31
0.0
  0
LINE
  5
1B02A
330
1B006
100
AcDbEntity
  8
0
  6
CONTINUOUS
100
AcDbLine
 10
33.08199999996839
 20
2.67264298878764
 30
0.0
 11
31.64199999996833
 21
4.112642988787695
 31
0.0
  0
LINE
  5
1B02B
330
1B006
100
AcDbEntity
  8
0
  6
CONTINUOUS
100
AcDbLine
 10
36.25975597779143
 20
0.1684062200447833
 30
0.0
 11
35.15395110240023
 21
1.274211095435983
 31
0.0
  0
LINE
  5
1B02C
330
1B006
100
AcDbEntity
  8
0
  6
CONTINUOUS
100
AcDbLine
 10
33.08199999996839
 20
3.346162197867826
 30
0.0
 11
31.64199999996833
 21
4.786162197867881
 31
0.0
  0
LINE
  5
1B02D
330
1B006
100
AcDbEntity
  8
0
  6
CONTINUOUS
100
AcDbLine
 10
36.67226329638774
 20
0.4294181105286579
 30
0.0
 11
35.63766478748767
 21
1.464016619428737
 31
0.0
  0
LINE
  5
1B02E
330
1B006
100
AcDbEntity
  8
0
  6
CONTINUOUS
100
AcDbLine
 10
33.08199999996839
 20
4.019681406948012
 30
0.0
 11
31.64199999996833
 21
5.459681406948068
 31
0.0
  0
LINE
  5
1B02F
330
1B006
100
AcDbEntity
  8
0
  6
CONTINUOUS
100
AcDbLine
 10
37.01677749710036
 20
0.7584231188962329
 30
0.0
 11
35.99563422741351
 21
1.779566388583076
 31
0.0
  0
LINE
  5
1B030
330
1B006
100
AcDbEntity
  8
0
  6
CONTINUOUS
100
AcDbLine
 10
33.08199999996839
 20
4.693200616028199
 30
0.0
 11
31.64199999996833
 21
6.133200616028255
 31
0.0
  0
LINE
  5
1B031
330
1B006
100
AcDbEntity
  8
0
  6
CONTINUOUS
100
AcDbLine
 10
37.29859977568887
 20
1.1501200493879
 30
0.0
 11
36.20680593341555
 21
2.241913891661226
 31
0.0
  0
LINE
  5
1B032
330
1B006
100
AcDbEntity
  8
0
  6
CONTINUOUS
100
AcDbLine
 10
33.08199999996839
 20
5.366719825108386
 30
0.0
 11
31.64199999996833
 21
6.80671982510844
 31
0.0
  0
LINE
  5
1B033
330
1B006
100
AcDbEntity
  8
0
  6
CONTINUOUS
100
AcDbLine
 10
37.5148623517228
 20
1.607376682434161
 30
0.0
 11
36.23199999996837
 21
2.890239034188594
 31
0.0
  0
LINE
  5
1B034
330
1B006
100
AcDbEntity
  8
0
  6
CONTINUOUS
100
AcDbLine
 10
33.08199999996839
 20
6.040239034188573
 30
0.0
 11
31.64199999996833
 21
7.480239034188627
 31
0.0
  0
LINE
  5
1B035
330
1B006
100
AcDbEntity
  8
0
  6
CONTINUOUS
100
AcDbLine
 10
37.64705163358367
 20
2.148706609653477
 30
0.0
 11
36.23199999996837
 21
3.56375824326878
 31
0.0
  0
LINE
  5
1B036
330
1B006
100
AcDbEntity
  8
0
  6
CONTINUOUS
100
AcDbLine
 10
33.08199999996839
 20
6.713758243268758
 30
0.0
 11
31.64199999996833
 21
8.153758243268815
 31
0.0
  0
LINE
  5
1B037
330
1B006
100
AcDbEntity
  8
0
  6
CONTINUOUS
100
AcDbLine
 10
37.67199999996831
 20
2.797277452349026
 30
0.0
 11
36.23199999996837
 21
4.237277452348967
 31
0.0
  0
LINE
  5
1B038
330
1B006
100
AcDbEntity
  8
0
  6
CONTINUOUS
100
AcDbLine
 10
37.67199999996831
 20
3.470796661429213
 30
0.0
 11
36.23199999996837
 21
4.910796661429154
 31
0.0
  0
LINE
  5
1B039
330
1B006
100
AcDbEntity
  8
0
  6
CONTINUOUS
100
AcDbLine
 10
37.67199999996831
 20
4.144315870509399
 30
0.0
 11
36.23199999996837
 21
5.58431587050934
 31
0.0
  0
LINE
  5
1B03A
330
1B006
100
AcDbEntity
  8
0
  6
CONTINUOUS
100
AcDbLine
 10
33.08199999996839
 20
7.387277452348945
 30
0.0
 11
31.70617745232608
 21
8.763099999991255
 31
0.0
  0
LINE
  5
1B03B
330
1B006
100
AcDbEntity
  8
0
  6
CONTINUOUS
100
AcDbLine
 10
33.08199999996839
 20
8.060796661429132
 30
0.0
 11
32.37969666140626
 21
8.763099999991255
 31
0.0
  0
LINE
  5
1B03C
330
1B006
100
AcDbEntity
  8
0
  6
CONTINUOUS
100
AcDbLine
 10
33.08199999996839
 20
8.734315870509318
 30
0.0
 11
33.05321587048645
 21
8.763099999991255
 31
0.0
  0
LINE
  5
1B03D
330
1B006
100
AcDbEntity
  8
0
  6
CONTINUOUS
100
AcDbLine
 10
37.67199999996831
 20
4.817835079589585
 30
0.0
 11
36.23199999996837
 21
6.257835079589526
 31
0.0
  0
LINE
  5
1B03E
330
1B006
100
AcDbEntity
  8
0
  6
CONTINUOUS
100
AcDbLine
 10
37.67199999996831
 20
5.491354288669771
 30
0.0
 11
36.23199999996837
 21
6.931354288669713
 31
0.0
  0
LINE
  5
1B03F
330
1B006
100
AcDbEntity
  8
0
  6
CONTINUOUS
100
AcDbLine
 10
37.67199999996831
 20
6.164873497749958
 30
0.0
 11
36.23199999996837
 21
7.6048734977499
 31
0.0
  0
LINE
  5
1B040
330
1B006
100
AcDbEntity
  8
0
  6
CONTINUOUS
100
AcDbLine
 10
37.67199999996831
 20
6.838392706830144
 30
0.0
 11
36.23199999996837
 21
8.278392706830086
 31
0.0
  0
LINE
  5
1B041
330
1B006
100
AcDbEntity
  8
0
  6
CONTINUOUS
100
AcDbLine
 10
37.67199999996831
 20
7.511911915910332
 30
0.0
 11
36.42081191588738
 21
8.763099999991255
 31
0.0
  0
LINE
  5
1B042
330
1B006
100
AcDbEntity
  8
0
  6
CONTINUOUS
100
AcDbLine
 10
37.67199999996831
 20
8.185431124990519
 30
0.0
 11
37.09433112496757
 21
8.763099999991255
 31
0.0
  0
ENDBLK
  5
1B0AA
330
1B006
100
AcDbEntity
  8
0
100
AcDbBlockEnd
  0
BLOCK
  5
1B0AB
330
1B043
100
AcDbEntity
  8
0
100
AcDbBlockBegin
  2
*X54
 70
     1
 10
0.0
 20
0.0
 30
0.0
  3
*X54
  1

  0
LINE
  5
1B044
330
1B043
100
AcDbEntity
  8
0
  6
CONTINUOUS
100
AcDbLine
 10
38.60499999996136
 20
8.762866199104765
 30
0.0
 11
38.71672554182345
 21
8.874591740966855
 31
0.0
  0
LINE
  5
1B045
330
1B043
100
AcDbEntity
  8
0
  6
CONTINUOUS
100
AcDbLine
 10
38.60499999996136
 20
8.089346990024577
 30
0.0
 11
39.03418785440363
 21
8.518534844466847
 31
0.0
  0
LINE
  5
1B046
330
1B043
100
AcDbEntity
  8
0
  6
CONTINUOUS
100
AcDbLine
 10
38.60499999996136
 20
7.41582778094439
 30
0.0
 11
39.35165016698382
 21
8.16247794796684
 31
0.0
  0
LINE
  5
1B047
330
1B043
100
AcDbEntity
  8
0
  6
CONTINUOUS
100
AcDbLine
 10
38.60499999996136
 20
6.742308571864204
 30
0.0
 11
39.66911247956399
 21
7.806421051466834
 31
0.0
  0
LINE
  5
1B048
330
1B043
100
AcDbEntity
  8
0
  6
CONTINUOUS
100
AcDbLine
 10
38.60499999996136
 20
6.068789362784018
 30
0.0
 11
39.98657479214418
 21
7.450364154966827
 31
0.0
  0
LINE
  5
1B049
330
1B043
100
AcDbEntity
  8
0
  6
CONTINUOUS
100
AcDbLine
 10
38.60499999996136
 20
5.395270153703832
 30
0.0
 11
40.30403710472435
 21
7.09430725846682
 31
0.0
  0
LINE
  5
1B04A
330
1B043
100
AcDbEntity
  8
0
  6
CONTINUOUS
100
AcDbLine
 10
38.60499999996136
 20
4.721750944623645
 30
0.0
 11
40.62149941730453
 21
6.738250361966813
 31
0.0
  0
LINE
  5
1B04B
330
1B043
100
AcDbEntity
  8
0
  6
CONTINUOUS
100
AcDbLine
 10
38.60499999996136
 20
4.048231735543458
 30
0.0
 11
40.93896172988471
 21
6.382193465466806
 31
0.0
  0
LINE
  5
1B04C
330
1B043
100
AcDbEntity
  8
0
  6
CONTINUOUS
100
AcDbLine
 10
38.60499999996136
 20
3.374712526463272
 30
0.0
 11
40.02599999995994
 21
4.795712526461843
 31
0.0
  0
LINE
  5
1B04D
330
1B043
100
AcDbEntity
  8
0
  6
CONTINUOUS
100
AcDbLine
 10
38.60499999996136
 20
2.701193317383085
 30
0.0
 11
40.02599999995994
 21
4.122193317381657
 31
0.0
  0
LINE
  5
1B04E
330
1B043
100
AcDbEntity
  8
0
  6
CONTINUOUS
100
AcDbLine
 10
40.28339754687704
 20
5.053110073378947
 30
0.0
 11
41.25642404246489
 21
6.026136568966799
 31
0.0
  0
LINE
  5
1B04F
330
1B043
100
AcDbEntity
  8
0
  6
CONTINUOUS
100
AcDbLine
 10
40.60085985945722
 20
4.697053176878939
 30
0.0
 11
41.57388635504507
 21
5.670079672466793
 31
0.0
  0
LINE
  5
1B050
330
1B043
100
AcDbEntity
  8
0
  6
CONTINUOUS
100
AcDbLine
 10
43.57899999995641
 20
8.348712526458318
 30
0.0
 11
43.99338747348935
 21
8.763099999991255
 31
0.0
  0
LINE
  5
1B051
330
1B043
100
AcDbEntity
  8
0
  6
CONTINUOUS
100
AcDbLine
 10
43.57899999995641
 20
7.675193317378131
 30
0.0
 11
44.66690668256953
 21
8.763099999991255
 31
0.0
  0
LINE
  5
1B052
330
1B043
100
AcDbEntity
  8
0
  6
CONTINUOUS
100
AcDbLine
 10
38.60499999996136
 20
2.027674108302898
 30
0.0
 11
40.02599999995994
 21
3.44867410830147
 31
0.0
  0
LINE
  5
1B053
330
1B043
100
AcDbEntity
  8
0
  6
CONTINUOUS
100
AcDbLine
 10
38.60499999996136
 20
1.354154899222712
 30
0.0
 11
40.02599999995994
 21
2.775154899221284
 31
0.0
  0
LINE
  5
1B054
330
1B043
100
AcDbEntity
  8
0
  6
CONTINUOUS
100
AcDbLine
 10
38.60499999996136
 20
0.6806356901425255
 30
0.0
 11
40.02599999995994
 21
2.101635690141098
 31
0.0
  0
LINE
  5
1B055
330
1B043
100
AcDbEntity
  8
0
  6
CONTINUOUS
100
AcDbLine
 10
38.60499999996136
 20
0.0071164810623383
 30
0.0
 11
40.02599999995994
 21
1.428116481060911
 31
0.0
  0
LINE
  5
1B056
330
1B043
100
AcDbEntity
  8
0
  6
CONTINUOUS
100
AcDbLine
 10
40.9183221720374
 20
4.340996280378933
 30
0.0
 11
41.89134866762525
 21
5.314022775966786
 31
0.0
  0
LINE
  5
1B057
330
1B043
100
AcDbEntity
  8
0
  6
CONTINUOUS
100
AcDbLine
 10
41.23578448461758
 20
3.984939383878926
 30
0.0
 11
42.20881098020543
 21
4.957965879466778
 31
0.0
  0
LINE
  5
1B058
330
1B043
100
AcDbEntity
  8
0
  6
CONTINUOUS
100
AcDbLine
 10
41.55324679719776
 20
3.628882487378919
 30
0.0
 11
42.52627329278561
 21
4.601908982966772
 31
0.0
  0
LINE
  5
1B059
330
1B043
100
AcDbEntity
  8
0
  6
CONTINUOUS
100
AcDbLine
 10
41.87070910977793
 20
3.272825590878912
 30
0.0
 11
42.84373560536579
 21
4.245852086466765
 31
0.0
  0
LINE
  5
1B05A
330
1B043
100
AcDbEntity
  8
0
  6
CONTINUOUS
100
AcDbLine
 10
43.57899999995641
 20
7.001674108297943
 30
0.0
 11
44.99999999995498
 21
8.422674108296516
 31
0.0
  0
LINE
  5
1B05B
330
1B043
100
AcDbEntity
  8
0
  6
CONTINUOUS
100
AcDbLine
 10
43.57899999995641
 20
6.328154899217758
 30
0.0
 11
44.99999999995498
 21
7.749154899216329
 31
0.0
  0
LINE
  5
1B05C
330
1B043
100
AcDbEntity
  8
0
  6
CONTINUOUS
100
AcDbLine
 10
43.57899999995641
 20
5.654635690137571
 30
0.0
 11
44.99999999995498
 21
7.075635690136142
 31
0.0
  0
LINE
  5
1B05D
330
1B043
100
AcDbEntity
  8
0
  6
CONTINUOUS
100
AcDbLine
 10
43.57899999995641
 20
4.981116481057384
 30
0.0
 11
44.99999999995498
 21
6.402116481055955
 31
0.0
  0
LINE
  5
1B05E
330
1B043
100
AcDbEntity
  8
0
  6
CONTINUOUS
100
AcDbLine
 10
39.27140272797921
 20
-0.0000000000000009
 30
0.0
 11
40.02599999995994
 21
0.7545972719807246
 31
0.0
  0
LINE
  5
1B05F
330
1B043
100
AcDbEntity
  8
0
  6
CONTINUOUS
100
AcDbLine
 10
39.9449219370594
 20
-0.0000000000000009
 30
0.0
 11
40.02599999995994
 21
0.0810780629005379
 31
0.0
  0
LINE
  5
1B060
330
1B043
100
AcDbEntity
  8
0
  6
CONTINUOUS
100
AcDbLine
 10
42.18817142235812
 20
2.916768694378905
 30
0.0
 11
43.16119791794597
 21
3.889795189966758
 31
0.0
  0
LINE
  5
1B061
330
1B043
100
AcDbEntity
  8
0
  6
CONTINUOUS
100
AcDbLine
 10
42.50563373493829
 20
2.560711797878898
 30
0.0
 11
43.47866023052615
 21
3.533738293466751
 31
0.0
  0
LINE
  5
1B062
330
1B043
100
AcDbEntity
  8
0
  6
CONTINUOUS
100
AcDbLine
 10
43.57899999995641
 20
4.307597271977198
 30
0.0
 11
44.99999999995498
 21
5.728597271975769
 31
0.0
  0
LINE
  5
1B063
330
1B043
100
AcDbEntity
  8
0
  6
CONTINUOUS
100
AcDbLine
 10
43.57899999995641
 20
3.634078062897011
 30
0.0
 11
44.99999999995498
 21
5.055078062895582
 31
0.0
  0
LINE
  5
1B064
330
1B043
100
AcDbEntity
  8
0
  6
CONTINUOUS
100
AcDbLine
 10
42.82309604751848
 20
2.204654901378891
 30
0.0
 11
44.99999999995498
 21
4.381558853815395
 31
0.0
  0
LINE
  5
1B065
330
1B043
100
AcDbEntity
  8
0
  6
CONTINUOUS
100
AcDbLine
 10
43.14055836009865
 20
1.848598004878885
 30
0.0
 11
44.99999999995498
 21
3.70803964473521
 31
0.0
  0
LINE
  5
1B066
330
1B043
100
AcDbEntity
  8
0
  6
CONTINUOUS
100
AcDbLine
 10
43.45802067267883
 20
1.492541108378878
 30
0.0
 11
44.99999999995498
 21
3.034520435655023
 31
0.0
  0
LINE
  5
1B067
330
1B043
100
AcDbEntity
  8
0
  6
CONTINUOUS
100
AcDbLine
 10
43.77548298525902
 20
1.136484211878871
 30
0.0
 11
44.99999999995498
 21
2.361001226574837
 31
0.0
  0
LINE
  5
1B068
330
1B043
100
AcDbEntity
  8
0
  6
CONTINUOUS
100
AcDbLine
 10
44.09294529783919
 20
0.7804273153788639
 30
0.0
 11
44.99999999995498
 21
1.687482017494649
 31
0.0
  0
LINE
  5
1B069
330
1B043
100
AcDbEntity
  8
0
  6
CONTINUOUS
100
AcDbLine
 10
44.41040761041938
 20
0.4243704188788566
 30
0.0
 11
44.99999999995498
 21
1.013962808414463
 31
0.0
  0
LINE
  5
1B06A
330
1B043
100
AcDbEntity
  8
0
  6
CONTINUOUS
100
AcDbLine
 10
44.72786992299955
 20
0.0683135223788494
 30
0.0
 11
44.99999999995498
 21
0.340443599334276
 31
0.0
  0
LINE
  5
1B06B
330
1B043
100
AcDbEntity
  8
0
  6
CONTINUOUS
100
AcDbLine
 10
39.12223903415696
 20
-0.0000000000000009
 30
0.0
 11
38.60499999996136
 21
0.5172390341955961
 31
0.0
  0
LINE
  5
1B06C
330
1B043
100
AcDbEntity
  8
0
  6
CONTINUOUS
100
AcDbLine
 10
39.79575824323715
 20
-0.0000000000000009
 30
0.0
 11
38.60499999996136
 21
1.190758243275783
 31
0.0
  0
LINE
  5
1B06D
330
1B043
100
AcDbEntity
  8
0
  6
CONTINUOUS
100
AcDbLine
 10
40.02599999995994
 20
0.443277452357397
 30
0.0
 11
38.60499999996136
 21
1.864277452355969
 31
0.0
  0
LINE
  5
1B06E
330
1B043
100
AcDbEntity
  8
0
  6
CONTINUOUS
100
AcDbLine
 10
40.02599999995994
 20
1.116796661437583
 30
0.0
 11
38.60499999996136
 21
2.537796661436155
 31
0.0
  0
LINE
  5
1B06F
330
1B043
100
AcDbEntity
  8
0
  6
CONTINUOUS
100
AcDbLine
 10
40.02599999995994
 20
1.79031587051777
 30
0.0
 11
38.60499999996136
 21
3.211315870516341
 31
0.0
  0
LINE
  5
1B070
330
1B043
100
AcDbEntity
  8
0
  6
CONTINUOUS
100
AcDbLine
 10
40.02599999995994
 20
2.463835079597956
 30
0.0
 11
38.60499999996136
 21
3.884835079596527
 31
0.0
  0
LINE
  5
1B071
330
1B043
100
AcDbEntity
  8
0
  6
CONTINUOUS
100
AcDbLine
 10
40.02599999995994
 20
3.137354288678143
 30
0.0
 11
38.60499999996136
 21
4.558354288676714
 31
0.0
  0
LINE
  5
1B072
330
1B043
100
AcDbEntity
  8
0
  6
CONTINUOUS
100
AcDbLine
 10
40.02599999995994
 20
3.810873497758329
 30
0.0
 11
38.60499999996136
 21
5.2318734977569
 31
0.0
  0
LINE
  5
1B073
330
1B043
100
AcDbEntity
  8
0
  6
CONTINUOUS
100
AcDbLine
 10
40.02599999995994
 20
4.484392706838515
 30
0.0
 11
38.60499999996136
 21
5.905392706837086
 31
0.0
  0
LINE
  5
1B074
330
1B043
100
AcDbEntity
  8
0
  6
CONTINUOUS
100
AcDbLine
 10
44.99999999995498
 20
0.183911915923658
 30
0.0
 11
41.53858364506288
 21
3.64532827081576
 31
0.0
  0
LINE
  5
1B075
330
1B043
100
AcDbEntity
  8
0
  6
CONTINUOUS
100
AcDbLine
 10
40.02599999995994
 20
5.157911915918703
 30
0.0
 11
38.60499999996136
 21
6.578911915917274
 31
0.0
  0
LINE
  5
1B076
330
1B043
100
AcDbEntity
  8
0
  6
CONTINUOUS
100
AcDbLine
 10
44.99999999995498
 20
0.8574311250038447
 30
0.0
 11
38.60499999996136
 21
7.25243112499746
 31
0.0
  0
LINE
  5
1B077
330
1B043
100
AcDbEntity
  8
0
  6
CONTINUOUS
100
AcDbLine
 10
44.99999999995498
 20
1.530950334084031
 30
0.0
 11
38.60499999996136
 21
7.925950334077647
 31
0.0
  0
LINE
  5
1B078
330
1B043
100
AcDbEntity
  8
0
  6
CONTINUOUS
100
AcDbLine
 10
44.99999999995498
 20
2.204469543164218
 30
0.0
 11
43.57899999995641
 21
3.625469543162789
 31
0.0
  0
LINE
  5
1B079
330
1B043
100
AcDbEntity
  8
0
  6
CONTINUOUS
100
AcDbLine
 10
41.89876730984767
 20
5.305702233271528
 30
0.0
 11
38.60499999996136
 21
8.599469543157834
 31
0.0
  0
LINE
  5
1B07A
330
1B043
100
AcDbEntity
  8
0
  6
CONTINUOUS
100
AcDbLine
 10
44.99999999995498
 20
2.877988752244405
 30
0.0
 11
43.57899999995641
 21
4.298988752242975
 31
0.0
  0
LINE
  5
1B07B
330
1B043
100
AcDbEntity
  8
0
  6
CONTINUOUS
100
AcDbLine
 10
44.99999999995498
 20
3.551507961324591
 30
0.0
 11
43.57899999995641
 21
4.972507961323163
 31
0.0
  0
LINE
  5
1B07C
330
1B043
100
AcDbEntity
  8
0
  6
CONTINUOUS
100
AcDbLine
 10
44.99999999995498
 20
4.225027170404777
 30
0.0
 11
43.57899999995641
 21
5.646027170403348
 31
0.0
  0
LINE
  5
1B07D
330
1B043
100
AcDbEntity
  8
0
  6
CONTINUOUS
100
AcDbLine
 10
44.99999999995498
 20
4.898546379484964
 30
0.0
 11
43.57899999995641
 21
6.319546379483535
 31
0.0
  0
LINE
  5
1B07E
330
1B043
100
AcDbEntity
  8
0
  6
CONTINUOUS
100
AcDbLine
 10
44.99999999995498
 20
5.572065588565151
 30
0.0
 11
43.57899999995641
 21
6.993065588563722
 31
0.0
  0
LINE
  5
1B07F
330
1B043
100
AcDbEntity
  8
0
  6
CONTINUOUS
100
AcDbLine
 10
44.99999999995498
 20
6.245584797645336
 30
0.0
 11
43.57899999995641
 21
7.666584797643908
 31
0.0
  0
LINE
  5
1B080
330
1B043
100
AcDbEntity
  8
0
  6
CONTINUOUS
100
AcDbLine
 10
44.99999999995498
 20
6.919104006725522
 30
0.0
 11
43.57899999995641
 21
8.340104006724093
 31
0.0
  0
LINE
  5
1B081
330
1B043
100
AcDbEntity
  8
0
  6
CONTINUOUS
100
AcDbLine
 10
44.99999999995498
 20
7.592623215805709
 30
0.0
 11
43.82952321576943
 21
8.763099999991255
 31
0.0
  0
LINE
  5
1B082
330
1B043
100
AcDbEntity
  8
0
  6
CONTINUOUS
100
AcDbLine
 10
44.99999999995498
 20
8.266142424885896
 30
0.0
 11
44.50304242484962
 21
8.763099999991255
 31
0.0
  0
ENDBLK
  5
1B0AC
330
1B043
100
AcDbEntity
  8
0
100
AcDbBlockEnd
  0
BLOCK
  5
1B0AD
330
1B083
100
AcDbEntity
  8
0
100
AcDbBlockBegin
  2
*X55
 70
     1
 10
0.0
 20
0.0
 30
0.0
  3
*X55
  1

  0
LINE
  5
1B084
330
1B083
100
AcDbEntity
  8
0
  6
CONTINUOUS
100
AcDbLine
 10
0.0
 20
8.548461116714023
 30
0.0
 11
0.2146388832772324
 21
8.763099999991255
 31
0.0
  0
LINE
  5
1B085
330
1B083
100
AcDbEntity
  8
0
  6
CONTINUOUS
100
AcDbLine
 10
-0.0000000000000002
 20
7.874941907633837
 30
0.0
 11
0.8881580923574184
 21
8.763099999991255
 31
0.0
  0
LINE
  5
1B086
330
1B083
100
AcDbEntity
  8
0
  6
CONTINUOUS
100
AcDbLine
 10
0.0
 20
7.20142269855365
 30
0.0
 11
1.420999999998572
 21
8.622422698552223
 31
0.0
  0
LINE
  5
1B087
330
1B083
100
AcDbEntity
  8
0
  6
CONTINUOUS
100
AcDbLine
 10
-0.0000000000000001
 20
6.527903489473465
 30
0.0
 11
1.420999999998571
 21
7.948903489472036
 31
0.0
  0
LINE
  5
1B088
330
1B083
100
AcDbEntity
  8
0
  6
CONTINUOUS
100
AcDbLine
 10
-0.0000000000000002
 20
5.854384280393278
 30
0.0
 11
1.420999999998571
 21
7.275384280391849
 31
0.0
  0
LINE
  5
1B089
330
1B083
100
AcDbEntity
  8
0
  6
CONTINUOUS
100
AcDbLine
 10
-0.0000000000000002
 20
5.180865071313091
 30
0.0
 11
1.420999999998571
 21
6.601865071311663
 31
0.0
  0
LINE
  5
1B08A
330
1B083
100
AcDbEntity
  8
0
  6
CONTINUOUS
100
AcDbLine
 10
0.0
 20
4.507345862232905
 30
0.0
 11
1.420999999998571
 21
5.928345862231477
 31
0.0
  0
LINE
  5
1B08B
330
1B083
100
AcDbEntity
  8
0
  6
CONTINUOUS
100
AcDbLine
 10
-0.0000000000000003
 20
3.833826653152718
 30
0.0
 11
1.420999999998571
 21
5.25482665315129
 31
0.0
  0
LINE
  5
1B08C
330
1B083
100
AcDbEntity
  8
0
  6
CONTINUOUS
100
AcDbLine
 10
-0.0000000000000002
 20
3.160307444072532
 30
0.0
 11
1.420999999998571
 21
4.581307444071103
 31
0.0
  0
LINE
  5
1B08D
330
1B083
100
AcDbEntity
  8
0
  6
CONTINUOUS
100
AcDbLine
 10
-0.0000000000000001
 20
2.486788234992345
 30
0.0
 11
1.420999999998571
 21
3.907788234990917
 31
0.0
  0
LINE
  5
1B08E
330
1B083
100
AcDbEntity
  8
0
  6
CONTINUOUS
100
AcDbLine
 10
-0.0000000000000006
 20
1.813269025912159
 30
0.0
 11
1.420999999998571
 21
3.234269025910731
 31
0.0
  0
LINE
  5
1B08F
330
1B083
100
AcDbEntity
  8
0
  6
CONTINUOUS
100
AcDbLine
 10
0.0
 20
1.139749816831973
 30
0.0
 11
1.420999999998571
 21
2.560749816830544
 31
0.0
  0
LINE
  5
1B090
330
1B083
100
AcDbEntity
  8
0
  6
CONTINUOUS
100
AcDbLine
 10
0.0000000000000002
 20
0.466230607751787
 30
0.0
 11
1.420999999998571
 21
1.887230607750358
 31
0.0
  0
LINE
  5
1B091
330
1B083
100
AcDbEntity
  8
0
  6
CONTINUOUS
100
AcDbLine
 10
0.2072886013284003
 20
-0.0000000000000009
 30
0.0
 11
1.420999999998571
 21
1.213711398670171
 31
0.0
  0
LINE
  5
1B092
330
1B083
100
AcDbEntity
  8
0
  6
CONTINUOUS
100
AcDbLine
 10
0.8808078104085864
 20
-0.0000000000000009
 30
0.0
 11
1.420999999998571
 21
0.5401921895899839
 31
0.0
  0
LINE
  5
1B093
330
1B083
100
AcDbEntity
  8
0
  6
CONTINUOUS
100
AcDbLine
 10
0.0581249075061505
 20
-0.0000000000000009
 30
0.0
 11
-0.0000000000000002
 21
0.0581249075061496
 31
0.0
  0
LINE
  5
1B094
330
1B083
100
AcDbEntity
  8
0
  6
CONTINUOUS
100
AcDbLine
 10
0.7316441165863372
 20
-0.0000000000000009
 30
0.0
 11
-0.0000000000000002
 21
0.7316441165863363
 31
0.0
  0
LINE
  5
1B095
330
1B083
100
AcDbEntity
  8
0
  6
CONTINUOUS
100
AcDbLine
 10
1.405163325666523
 20
-0.0000000000000009
 30
0.0
 11
-0.0000000000000002
 21
1.405163325666523
 31
0.0
  0
LINE
  5
1B096
330
1B083
100
AcDbEntity
  8
0
  6
CONTINUOUS
100
AcDbLine
 10
1.420999999998572
 20
0.6576825347481381
 30
0.0
 11
-0.0000000000000001
 21
2.07868253474671
 31
0.0
  0
LINE
  5
1B097
330
1B083
100
AcDbEntity
  8
0
  6
CONTINUOUS
100
AcDbLine
 10
1.420999999998571
 20
1.331201743828324
 30
0.0
 11
-0.0000000000000001
 21
2.752201743826896
 31
0.0
  0
LINE
  5
1B098
330
1B083
100
AcDbEntity
  8
0
  6
CONTINUOUS
100
AcDbLine
 10
1.420999999998571
 20
2.004720952908511
 30
0.0
 11
-0.0000000000000002
 21
3.425720952907082
 31
0.0
  0
LINE
  5
1B099
330
1B083
100
AcDbEntity
  8
0
  6
CONTINUOUS
100
AcDbLine
 10
1.420999999998571
 20
2.678240161988697
 30
0.0
 11
-0.0000000000000001
 21
4.099240161987269
 31
0.0
  0
LINE
  5
1B09A
330
1B083
100
AcDbEntity
  8
0
  6
CONTINUOUS
100
AcDbLine
 10
1.420999999998572
 20
3.351759371068884
 30
0.0
 11
0.0
 21
4.772759371067455
 31
0.0
  0
LINE
  5
1B09B
330
1B083
100
AcDbEntity
  8
0
  6
CONTINUOUS
100
AcDbLine
 10
1.420999999998571
 20
4.02527858014907
 30
0.0
 11
-0.0000000000000003
 21
5.446278580147642
 31
0.0
  0
LINE
  5
1B09C
330
1B083
100
AcDbEntity
  8
0
  6
CONTINUOUS
100
AcDbLine
 10
1.420999999998571
 20
4.698797789229257
 30
0.0
 11
0.0
 21
6.119797789227828
 31
0.0
  0
LINE
  5
1B09D
330
1B083
100
AcDbEntity
  8
0
  6
CONTINUOUS
100
AcDbLine
 10
1.420999999998571
 20
5.372316998309444
 30
0.0
 11
-0.0000000000000001
 21
6.793316998308015
 31
0.0
  0
LINE
  5
1B09E
330
1B083
100
AcDbEntity
  8
0
  6
CONTINUOUS
100
AcDbLine
 10
1.420999999998572
 20
6.045836207389629
 30
0.0
 11
-0.0000000000000004
 21
7.466836207388202
 31
0.0
  0
LINE
  5
1B09F
330
1B083
100
AcDbEntity
  8
0
  6
CONTINUOUS
100
AcDbLine
 10
1.420999999998571
 20
6.719355416469816
 30
0.0
 11
0.0
 21
8.140355416468388
 31
0.0
  0
LINE
  5
1B0A0
330
1B083
100
AcDbEntity
  8
0
  6
CONTINUOUS
100
AcDbLine
 10
1.420999999998571
 20
7.392874625550003
 30
0.0
 11
0.0507746255573185
 21
8.763099999991255
 31
0.0
  0
LINE
  5
1B0A1
330
1B083
100
AcDbEntity
  8
0
  6
CONTINUOUS
100
AcDbLine
 10
1.420999999998571
 20
8.06639383463019
 30
0.0
 11
0.7242938346375052
 21
8.763099999991255
 31
0.0
  0
LINE
  5
1B0A2
330
1B083
100
AcDbEntity
  8
0
  6
CONTINUOUS
100
AcDbLine
 10
1.420999999998571
 20
8.739913043710375
 30
0.0
 11
1.397813043717691
 21
8.763099999991255
 31
0.0
  0
ENDBLK
  5
1B0AE
330
1B083
100
AcDbEntity
  8
0
100
AcDbBlockEnd
  0
ENDSEC
  0
SECTION
  2
ENTITIES
  0
CIRCLE
  5
1AAB5
330
18
100
AcDbEntity
  8
01
100
AcDbCircle
 10
2377.356770025111
 20
-590.6862143501323
 30
0.0
 40
2.5
  0
LINE
  5
1AAB6
330
18
100
AcDbEntity
  8
01
100
AcDbLine
 10
2037.356874364853
 20
-611.0862045542601
 30
0.0
 11
2037.356874364853
 21
-585.0862045542601
 31
0.0
  0
CIRCLE
  5
1AAB7
330
18
100
AcDbEntity
  8
01
100
AcDbCircle
 10
2037.356874364853
 20
-598.0862045542599
 30
0.0
 40
11.30000000000109
  0
LINE
  5
1AAB8
330
18
100
AcDbEntity
  8
01
100
AcDbLine
 10
2039.856874364853
 20
-587.778445583459
 30
0.0
 11
2039.856874364853
 21
-608.3939635250608
 31
0.0
  0
LINE
  5
1AAB9
330
18
100
AcDbEntity
  8
01
100
AcDbLine
 10
2034.856874364853
 20
-587.778445583459
 30
0.0
 11
2034.856874364853
 21
-608.3939635250608
 31
0.0
  0
ARC
  5
1AABA
330
18
100
AcDbEntity
  8
01
100
AcDbCircle
 10
2035.356874364853
 20
-587.778445583459
 30
0.0
 40
0.5
100
AcDbArc
 50
100.9805807214292
 51
180.0
  0
ARC
  5
1AABB
330
18
100
AcDbEntity
  8
01
100
AcDbCircle
 10
2039.356874364853
 20
-587.778445583459
 30
0.0
 40
0.5
100
AcDbArc
 50
0.0
 51
79.01941927857082
  0
ARC
  5
1AABC
330
18
100
AcDbEntity
  8
01
100
AcDbCircle
 10
2035.356874364853
 20
-608.3939635250608
 30
0.0
 40
0.5
100
AcDbArc
 50
180.0
 51
259.0194192785708
  0
ARC
  5
1AABD
330
18
100
AcDbEntity
  8
01
100
AcDbCircle
 10
2039.356874364853
 20
-608.3939635250608
 30
0.0
 40
0.5
100
AcDbArc
 50
280.9805807214292
 51
0.0
  0
CIRCLE
  5
1AABE
330
18
100
AcDbEntity
  8
01
100
AcDbCircle
 10
2037.356874364853
 20
-598.0862045542599
 30
0.0
 40
11.0
  0
CIRCLE
  5
1AABF
330
18
100
AcDbEntity
  8
01
100
AcDbCircle
 10
2377.3567700254
 20
-598.086204350132
 30
0.0
 40
3.75
  0
CIRCLE
  5
1AAC0
330
18
100
AcDbEntity
  8
01
100
AcDbCircle
 10
2377.3567700254
 20
-598.0862045542599
 30
0.0
 40
3.5000005
  0
LINE
  5
1AAC1
330
18
100
AcDbEntity
  8
01
100
AcDbLine
 10
2378.3567700254
 20
-601.4403073542599
 30
0.0
 11
2378.3567700254
 21
-594.7321005542599
 31
0.0
  0
LINE
  5
1AAC2
330
18
100
AcDbEntity
  8
01
100
AcDbLine
 10
2376.3567700254
 20
-601.4403073542599
 30
0.0
 11
2376.3567700254
 21
-594.7321005542599
 31
0.0
  0
LINE
  5
1AAC3
330
18
100
AcDbEntity
  8
01
100
AcDbLine
 10
2024.356874364853
 20
-598.0862045542599
 30
0.0
 11
2050.356874364853
 21
-598.0862045542599
 31
0.0
  0
LINE
  5
1AAC4
330
18
100
AcDbEntity
  8
01
100
AcDbLine
 10
2164.453467196633
 20
-587.0861861003868
 30
0.0000000000023235
 11
2178.856878364854
 21
-587.0861861003864
 31
0.0000000000023235
  0
LINE
  5
1AAC5
330
18
100
AcDbEntity
  8
01
100
AcDbLine
 10
2177.953490140843
 20
-608.5861861003864
 30
0.0000000000023235
 11
2177.953490140838
 21
-587.5861861003864
 31
0.0000000000023235
  0
LINE
  5
1AAC6
330
18
100
AcDbEntity
  8
01
100
AcDbLine
 10
2164.453467196633
 20
-609.0861861003859
 30
0.0000000000023235
 11
2178.856878364854
 21
-609.0861861003859
 31
0.0000000000023235
  0
ARC
  5
1AAC7
330
18
100
AcDbEntity
  8
01
100
AcDbCircle
 10
2164.453467196633
 20
-608.0861861003868
 30
0.0000000000023235
 40
1.0
100
AcDbArc
 50
180.0
 51
270.0
  0
LINE
  5
1AAC8
330
18
100
AcDbEntity
  8
01
100
AcDbLine
 10
2163.453467196633
 20
-608.0861861003868
 30
0.0000000000023235
 11
2163.453467196633
 21
-588.0861861003891
 31
0.0000000000023235
  0
ARC
  5
1AAC9
330
18
100
AcDbEntity
  8
01
100
AcDbCircle
 10
2164.453467196633
 20
-588.0861861003891
 30
0.0000000000023235
 40
1.0
100
AcDbArc
 50
90.0
 51
180.0
  0
ARC
  5
1AACA
330
18
100
AcDbEntity
  8
01
100
AcDbCircle
 10
2178.453490140838
 20
-608.5861861003859
 30
0.0000000000023235
 40
0.5
100
AcDbArc
 50
180.0
 51
270.0
  0
ARC
  5
1AACB
330
18
100
AcDbEntity
  8
01
100
AcDbCircle
 10
2178.453490140838
 20
-587.5861861003864
 30
0.0000000000023235
 40
0.5
100
AcDbArc
 50
90.0
 51
180.0
  0
LINE
  5
1AACC
330
18
100
AcDbEntity
  8
01
100
AcDbLine
 10
2164.453467196633
 20
-609.0861861003859
 30
0.0000000000023235
 11
2164.453467196633
 21
-609.0847959701941
 31
0.0000000000023235
  0
LINE
  5
1AACD
330
18
100
AcDbEntity
  8
01
100
AcDbLine
 10
2236.530280671564
 20
-601.586185359889
 30
0.0
 11
2235.856878364854
 21
-601.5861853831966
 31
0.0
  0
LINE
  5
1AACE
330
18
100
AcDbEntity
  8
01
100
AcDbLine
 10
2236.530280429281
 20
-594.586185359889
 30
0.0
 11
2235.856878364854
 21
-594.5861853831966
 31
0.0
  0
ARC
  5
1AACF
330
18
100
AcDbEntity
  8
01
100
AcDbCircle
 10
2231.683895112646
 20
-598.0738979920134
 30
0.0
 40
5.970892950694182
100
AcDbArc
 50
323.9681518085912
 51
35.74077826093775
  0
LINE
  5
1AAD2
330
18
100
AcDbEntity
  8
01
100
AcDbLine
 10
2376.356877103312
 20
-407.9359767858525
 30
0.0
 11
2376.356877045552
 21
-406.5862045552888
 31
0.0
  0
ARC
  5
1AAD3
330
18
100
AcDbEntity
  8
01
100
AcDbCircle
 10
2378.656876090635
 20
-407.9359766958617
 30
0.0
 40
0.3000000099999999
100
AcDbArc
 50
179.9999989830693
 51
283.183481983115
  0
ARC
  5
1AAD4
330
18
100
AcDbEntity
  8
01
100
AcDbCircle
 10
2377.356876898547
 20
-402.3862067408566
 30
0.0
 40
5.999999999999999
100
AcDbArc
 50
234.3146679830426
 51
256.8165199831199
  0
ARC
  5
1AAD5
330
18
100
AcDbEntity
  8
01
100
AcDbCircle
 10
2376.056874090634
 20
-407.9359767858525
 30
0.0
 40
0.3000000099999999
100
AcDbArc
 50
256.8165199832319
 51
0.0000019831407459
  0
LINE
  5
1AAD6
330
18
100
AcDbEntity
  8
01
100
AcDbLine
 10
2373.856877067224
 20
-407.259606861998
 30
0.0
 11
2373.856877043917
 21
-406.5862045552888
 31
0.0
  0
LINE
  5
1AAD7
330
18
100
AcDbEntity
  8
01
100
AcDbLine
 10
2380.856877067224
 20
-407.2596066197159
 30
0.0
 11
2380.856877043917
 21
-406.5862045552888
 31
0.0
  0
ARC
  5
1AAD8
330
18
100
AcDbEntity
  8
01
100
AcDbCircle
 10
2377.369164435099
 20
-402.4132213030791
 30
0.0
 40
5.970892950694182
100
AcDbArc
 50
283.127804788842
 51
305.7407782610044
  0
LINE
  5
1AAD9
330
18
100
AcDbEntity
  8
01
100
AcDbLine
 10
2378.356877090661
 20
-407.9367551656944
 30
0.0
 11
2378.356877043917
 21
-406.5862045552888
 31
0.0
  0
ARC
  5
1AADA
330
18
100
AcDbEntity
  8
01
100
AcDbCircle
 10
2380.856878364847
 20
-347.6862274994971
 30
0.0
 40
1.0
100
AcDbArc
 50
180.0
 51
270.0
  0
LINE
  5
1AADB
330
18
100
AcDbEntity
  8
01
100
AcDbLine
 10
2380.856878364849
 20
-348.6862274994971
 30
0.0
 11
2387.856883364847
 21
-348.6862274994953
 31
0.0
  0
ARC
  5
1AADC
330
18
100
AcDbEntity
  8
01
100
AcDbCircle
 10
2387.856883364847
 20
-349.1862274994953
 30
0.0
 40
0.5
100
AcDbArc
 50
0.0
 51
90.0
  0
ARC
  5
1AADD
330
18
100
AcDbEntity
  8
01
100
AcDbCircle
 10
2373.856878364845
 20
-347.6862274994953
 30
0.0
 40
1.0
100
AcDbArc
 50
270.0
 51
0.0
  0
ARC
  5
1AADE
330
18
100
AcDbEntity
  8
01
100
AcDbCircle
 10
2366.856883364847
 20
-349.1862274994953
 30
0.0
 40
0.5
100
AcDbArc
 50
90.0
 51
180.0
  0
LINE
  5
1AADF
330
18
100
AcDbEntity
  8
01
100
AcDbLine
 10
2374.856878364845
 20
-335.1862045552923
 30
0.0
 11
2374.856878364845
 21
-347.6862274994953
 31
0.0
  0
ARC
  5
1AAE0
330
18
100
AcDbEntity
  8
01
100
AcDbCircle
 10
2375.856878364845
 20
-335.1862045552905
 30
0.0
 40
1.0
100
AcDbArc
 50
90.0
 51
179.9999999999479
  0
LINE
  5
1AAE1
330
18
100
AcDbEntity
  8
01
100
AcDbLine
 10
2375.856878364845
 20
-334.1862045552887
 30
0.0
 11
2378.856878364845
 21
-334.1862045552887
 31
0.0
  0
ARC
  5
1AAE2
330
18
100
AcDbEntity
  8
01
100
AcDbCircle
 10
2378.856878364845
 20
-335.1862045552905
 30
0.0
 40
1.0
100
AcDbArc
 50
0.0
 51
90.0
  0
LINE
  5
1AAE3
330
18
100
AcDbEntity
  8
01
100
AcDbLine
 10
2379.856878364845
 20
-335.1862045552905
 30
0.0
 11
2379.856878364849
 21
-347.6862274994971
 31
0.0
  0
LINE
  5
1AAE4
330
18
100
AcDbEntity
  8
01
100
AcDbLine
 10
2366.856883364847
 20
-348.6862274994953
 30
0.0
 11
2373.856878364845
 21
-348.6862274994953
 31
0.0
  0
LINE
  5
1AAE5
330
18
100
AcDbEntity
  8
01
100
AcDbLine
 10
2366.356883364847
 20
-349.1862274994953
 30
0.0
 11
2366.356883364847
 21
-349.5862045552888
 31
0.0
  0
LINE
  5
1AAE6
330
18
100
AcDbEntity
  8
01
100
AcDbLine
 10
2388.356883364847
 20
-349.1862274994953
 30
0.0
 11
2388.356883364847
 21
-349.5862045552888
 31
0.0
  0
LINE
  5
1AAE9
330
18
100
AcDbEntity
  8
01
100
AcDbLine
 10
2321.35676202511
 20
-570.0862045542601
 30
0.0
 11
2335.35676202511
 21
-570.0862045542601
 31
0.0
  0
LINE
  5
1AAEA
330
18
100
AcDbEntity
  8
01
100
AcDbLine
 10
2067.356882364854
 20
-648.0862045542606
 30
0.0
 11
2007.356882364854
 21
-648.0862045542606
 31
0.0
  0
LINE
  5
1AAEB
330
18
100
AcDbEntity
  8
01
100
AcDbLine
 10
2037.356882364854
 20
-618.0862045542606
 30
0.0
 11
2037.356882364854
 21
-678.0862045542606
 31
0.0
  0
LINE
  5
1AAEC
330
18
100
AcDbEntity
  8
01
100
AcDbLine
 10
2326.35764620717
 20
-358.0862045552888
 30
0.0
 11
2480.112026362202
 21
-358.0862045552888
 31
0.0
  0
LINE
  5
1AAEF
330
18
100
AcDbEntity
  8
01
  6
BYBLOCK
100
AcDbLine
 10
2326.35764620717
 20
-358.0862045552888
 30
0.0
 11
2326.35764620717
 21
-398.0862045552888
 31
0.0
  0
LINE
  5
1AAF3
330
18
100
AcDbEntity
  8
01
100
AcDbLine
 10
2377.356762025108
 20
-363.0862045563174
 30
0.0
 11
2377.356762025108
 21
-332.1681243670685
 31
0.0
  0
LINE
  5
1AAF4
330
18
100
AcDbEntity
  8
01
100
AcDbLine
 10
2352.35676202511
 20
-358.0862045552878
 30
0.0
 11
2402.35676202511
 21
-358.0862045552901
 31
0.0
  0
LINE
  5
1AAF5
330
18
100
AcDbEntity
  8
01
100
AcDbLine
 10
2352.856762025106
 20
-349.5862045552878
 30
0.0
 11
2401.85676202511
 21
-349.5862045552915
 31
0.0
  0
LINE
  5
1AAF6
330
18
100
AcDbEntity
  8
01
100
AcDbLine
 10
2402.35676202511
 20
-358.0862045552901
 30
0.0
 11
2402.35676202511
 21
-350.0862045552915
 31
0.0
  0
ARC
  5
1AAF7
330
18
100
AcDbEntity
  8
01
100
AcDbCircle
 10
2401.85676202511
 20
-350.0862045552915
 30
0.0
 40
0.5
100
AcDbArc
 50
0.0
 51
90.0
  0
LINE
  5
1AAF8
330
18
100
AcDbEntity
  8
01
100
AcDbLine
 10
2352.35676202511
 20
-358.0862045552878
 30
0.0
 11
2352.356762025106
 21
-350.0862045552883
 31
0.0
  0
ARC
  5
1AAF9
330
18
100
AcDbEntity
  8
01
100
AcDbCircle
 10
2352.856762025106
 20
-350.0862045552878
 30
0.0
 40
0.5
100
AcDbArc
 50
90.0
 51
180.0
  0
LINE
  5
1AAFA
330
18
100
AcDbEntity
  8
01
  6
BYBLOCK
100
AcDbLine
 10
2327.85676202511
 20
-562.18620455426
 30
0.0
 11
2327.85676202511
 21
-691.98620455426
 31
0.0
  0
LINE
  5
1AAFB
330
18
100
AcDbEntity
  8
01
  6
BYBLOCK
100
AcDbLine
 10
2327.85676202511
 20
-691.0862045542601
 30
0.0
 11
2330.35676202511
 21
-691.0862045542601
 31
0.0
  0
LINE
  5
1AAFC
330
18
100
AcDbEntity
  8
01
  6
BYBLOCK
100
AcDbLine
 10
2329.05676202511
 20
-590.0862045542601
 30
0.0
 11
2352.356762025111
 21
-590.0862045542601
 31
0.0
  0
LINE
  5
1AAFD
330
18
100
AcDbEntity
  8
01
  6
BYBLOCK
100
AcDbLine
 10
2330.35676202511
 20
-691.0862045542601
 30
0.0
 11
2330.35676202511
 21
-674.5832608291078
 31
0.0
  0
LINE
  5
1AAFE
330
18
100
AcDbEntity
  8
01
  6
BYBLOCK
100
AcDbLine
 10
2326.35676202511
 20
-562.18620455426
 30
0.0
 11
2326.35676202511
 21
-691.98620455426
 31
0.0
  0
LINE
  5
1AAFF
330
18
100
AcDbEntity
  8
01
  6
BYBLOCK
100
AcDbLine
 10
2326.35676202511
 20
-691.98620455426
 30
0.0
 11
2327.85676202511
 21
-691.98620455426
 31
0.0
  0
LINE
  5
1AB00
330
18
100
AcDbEntity
  8
01
  6
BYBLOCK
100
AcDbLine
 10
2327.85676202511
 20
-563.0862045542601
 30
0.0
 11
2330.35676202511
 21
-563.0862045542601
 31
0.0
  0
LINE
  5
1AB01
330
18
100
AcDbEntity
  8
01
  6
BYBLOCK
100
AcDbLine
 10
2326.35676202511
 20
-562.18620455426
 30
0.0
 11
2327.85676202511
 21
-562.18620455426
 31
0.0
  0
LINE
  5
1AB02
330
18
100
AcDbEntity
  8
01
  6
BYBLOCK
100
AcDbLine
 10
2327.85676202511
 20
-587.0862045542601
 30
0.0
 11
2329.05676202511
 21
-587.0862045542601
 31
0.0
  0
LINE
  5
1AB03
330
18
100
AcDbEntity
  8
01
  6
BYBLOCK
100
AcDbLine
 10
2344.25676202511
 20
-590.0862045542601
 30
0.0
 11
2352.356762025111
 21
-590.0862045542601
 31
0.0
  0
LINE
  5
1AB04
330
18
100
AcDbEntity
  8
01
  6
BYBLOCK
100
AcDbLine
 10
2329.05676202511
 20
-581.3862045542598
 30
0.0
 11
2329.056762025109
 21
-672.7862045542599
 31
0.0
  0
LINE
  5
1AB05
330
18
100
AcDbEntity
  8
01
  6
BYBLOCK
100
AcDbLine
 10
2329.15676202511
 20
-691.0862045542601
 30
0.0
 11
2329.15676202511
 21
-674.48620455426
 31
0.0
  0
LINE
  5
1AB06
330
18
100
AcDbEntity
  8
01
  6
BYBLOCK
100
AcDbLine
 10
2329.15676202511
 20
-674.48620455426
 30
0.0
 11
2328.208233887686
 21
-673.5376764168361
 31
0.0
  0
LINE
  5
1AB07
330
18
100
AcDbEntity
  8
01
  6
BYBLOCK
100
AcDbLine
 10
2330.005290162534
 20
-673.7347326916838
 30
0.0
 11
2329.05676202511
 21
-672.7862045542599
 31
0.0
  0
ARC
  5
1AB08
330
18
100
AcDbEntity
  8
01
  6
BYBLOCK
100
AcDbCircle
 10
2329.15676202511
 20
-674.5832608291078
 30
0.0
 40
1.2
100
AcDbArc
 50
0.0
 51
44.99999999997697
  0
ARC
  5
1AB09
330
18
100
AcDbEntity
  8
01
  6
BYBLOCK
100
AcDbCircle
 10
2329.05676202511
 20
-672.6891482794122
 30
0.0
 40
1.2
100
AcDbArc
 50
180.0
 51
224.999999999977
  0
LINE
  5
1AB0A
330
18
100
AcDbEntity
  8
01
  6
BYBLOCK
100
AcDbLine
 10
2330.35676202511
 20
-563.0862045542601
 30
0.0
 11
2330.35676202511
 21
-579.5891482794123
 31
0.0
  0
LINE
  5
1AB0B
330
18
100
AcDbEntity
  8
01
  6
BYBLOCK
100
AcDbLine
 10
2329.15676202511
 20
-563.0862045542601
 30
0.0
 11
2329.15676202511
 21
-579.68620455426
 31
0.0
  0
LINE
  5
1AB0C
330
18
100
AcDbEntity
  8
01
  6
BYBLOCK
100
AcDbLine
 10
2329.15676202511
 20
-579.68620455426
 30
0.0
 11
2328.208233887686
 21
-580.6347326916839
 31
0.0
  0
LINE
  5
1AB0D
330
18
100
AcDbEntity
  8
01
  6
BYBLOCK
100
AcDbLine
 10
2330.005290162534
 20
-580.4376764168362
 30
0.0
 11
2329.05676202511
 21
-581.3862045542601
 31
0.0
  0
ARC
  5
1AB0E
330
18
100
AcDbEntity
  8
01
  6
BYBLOCK
100
AcDbCircle
 10
2329.15676202511
 20
-579.5891482794123
 30
0.0
 40
1.2
100
AcDbArc
 50
315.0000000000231
 51
0.0
  0
ARC
  5
1AB0F
330
18
100
AcDbEntity
  8
01
  6
BYBLOCK
100
AcDbCircle
 10
2329.05676202511
 20
-581.4832608291078
 30
0.0
 40
1.2
100
AcDbArc
 50
135.000000000023
 51
180.0
  0
LINE
  5
1AB10
330
18
100
AcDbEntity
  8
01
  6
BYBLOCK
100
AcDbLine
 10
2329.05676202511
 20
-664.0862045542603
 30
0.0
 11
2352.356762025111
 21
-664.0862045542601
 31
0.0
  0
ARC
  5
1AB11
330
18
100
AcDbEntity
  8
01
  6
BYBLOCK
100
AcDbCircle
 10
2329.45764620717
 20
-374.5249540122888
 30
0.0
 40
1.6
100
AcDbArc
 50
115.9444797720007
 51
180.0
  0
ARC
  5
1AB12
330
18
100
AcDbEntity
  8
01
  6
BYBLOCK
100
AcDbCircle
 10
2329.45764620717
 20
-381.6474550982887
 30
0.0
 40
1.6
100
AcDbArc
 50
180.0
 51
244.0555202279993
  0
ARC
  5
1AB13
330
18
100
AcDbEntity
  8
01
  6
BYBLOCK
100
AcDbCircle
 10
2328.75764620717
 20
-382.9249540122887
 30
0.0
 40
1.6
100
AcDbArc
 50
0.0
 51
64.05552022799934
  0
ARC
  5
1AB14
330
18
100
AcDbEntity
  8
01
  6
BYBLOCK
100
AcDbCircle
 10
2328.75764620717
 20
-373.2474550982888
 30
0.0
 40
1.6
100
AcDbArc
 50
295.9444797720006
 51
0.0
  0
LINE
  5
1AB15
330
18
100
AcDbEntity
  8
01
  6
BYBLOCK
100
AcDbLine
 10
2330.35764620717
 20
-373.2474550982888
 30
0.0
 11
2330.357646207171
 21
-365.8862045552887
 31
0.0
  0
LINE
  5
1AB16
330
18
100
AcDbEntity
  8
01
  6
BYBLOCK
100
AcDbLine
 10
2329.45764620717
 20
-381.4862045552889
 30
0.0
 11
2329.45764620717
 21
-374.6862045552887
 31
0.0
  0
LINE
  5
1AB17
330
18
100
AcDbEntity
  8
01
  6
BYBLOCK
100
AcDbLine
 10
2330.35764620717
 20
-390.0862045552888
 30
0.0
 11
2330.35764620717
 21
-382.9249540122887
 31
0.0
  0
LINE
  5
1AB18
330
18
100
AcDbEntity
  8
01
  6
BYBLOCK
100
AcDbLine
 10
2328.75764620717
 20
-373.0862045552888
 30
0.0
 11
2328.75764620717
 21
-365.8862045552887
 31
0.0
  0
LINE
  5
1AB19
330
18
100
AcDbEntity
  8
01
  6
BYBLOCK
100
AcDbLine
 10
2328.75764620717
 20
-383.0862045552888
 30
0.0
 11
2328.75764620717
 21
-390.1862045552887
 31
0.0
  0
ARC
  5
1AB1A
330
18
100
AcDbEntity
  8
01
  6
BYBLOCK
100
AcDbCircle
 10
2393.75764620717
 20
-370.1862045552887
 30
0.0
 40
1.6
100
AcDbArc
 50
0.0
 51
90.0
  0
LINE
  5
1AB1B
330
18
100
AcDbEntity
  8
01
  6
BYBLOCK
100
AcDbLine
 10
2327.857646207171
 20
-365.6862045552887
 30
0.0
 11
2327.85764620717
 21
-390.4862045552886
 31
0.0
  0
LINE
  5
1AB1C
330
18
100
AcDbEntity
  8
01
  6
BYBLOCK
100
AcDbLine
 10
2393.75764620717
 20
-368.5862045552888
 30
0.0
 11
2330.35764620717
 21
-368.5862045552888
 31
0.0
  0
LINE
  5
1AB1D
330
18
100
AcDbEntity
  8
01
  6
BYBLOCK
100
AcDbLine
 10
2393.75764620717
 20
-385.7862045552888
 30
0.0
 11
2393.75764620717
 21
-368.5862045552888
 31
0.0
  0
LINE
  5
1AB1E
330
18
100
AcDbEntity
  8
01
  6
BYBLOCK
100
AcDbLine
 10
2395.35764620717
 20
-387.3862045552887
 30
0.0
 11
2395.35764620717
 21
-370.1862045552887
 31
0.0
  0
LINE
  5
1AB1F
330
18
100
AcDbEntity
  8
01
  6
BYBLOCK
100
AcDbLine
 10
2327.857646207171
 20
-365.8862045552887
 30
0.0
 11
2330.357646207171
 21
-365.8862045552887
 31
0.0
  0
LINE
  5
1AB20
330
18
100
AcDbEntity
  8
01
  6
BYBLOCK
100
AcDbLine
 10
2330.35764620717
 20
-390.0862045552888
 30
0.0
 11
2328.75764620717
 21
-390.0862045552888
 31
0.0
  0
LINE
  5
1AB21
330
18
100
AcDbEntity
  8
01
  6
BYBLOCK
100
AcDbLine
 10
2328.75764620717
 20
-390.1862045552887
 30
0.0
 11
2327.85764620717
 21
-390.1862045552887
 31
0.0
  0
ARC
  5
1AB22
330
18
100
AcDbEntity
  8
01
  6
BYBLOCK
100
AcDbCircle
 10
2325.058241134569
 20
-383.7862045552881
 30
0.0
 40
0.3000000000000051
100
AcDbArc
 50
232.8678058730976
 51
270.0
  0
LINE
  5
1AB23
330
18
100
AcDbEntity
  8
01
  6
BYBLOCK
100
AcDbLine
 10
2325.857646207171
 20
-384.0862045552881
 30
0.0
 11
2325.058241134569
 21
-384.0862045552881
 31
0.0
  0
LINE
  5
1AB24
330
18
100
AcDbEntity
  8
01
  6
BYBLOCK
100
AcDbLine
 10
2315.45764620717
 20
-374.4132156890839
 30
0.0
 11
2315.45764620717
 21
-374.583837744633
 31
0.0
  0
ARC
  5
1AB25
330
18
100
AcDbEntity
  8
01
  6
BYBLOCK
100
AcDbCircle
 10
2315.75764620717
 20
-374.583837744633
 30
0.0
 40
0.3
100
AcDbArc
 50
180.0
 51
217.7405295629222
  0
ARC
  5
1AB26
330
18
100
AcDbEntity
  8
01
  6
BYBLOCK
100
AcDbCircle
 10
2355.059946806454
 20
-344.1631348006922
 30
0.0
 40
50.00000000000002
100
AcDbArc
 50
217.7405295629802
 51
232.8678058729739
  0
LINE
  5
1AB27
330
18
100
AcDbEntity
  8
01
  6
BYBLOCK
100
AcDbLine
 10
2315.25764620717
 20
-373.2862045552886
 30
0.0
 11
2315.25764620717
 21
-372.5862045552888
 31
0.0
  0
ARC
  5
1AB28
330
18
100
AcDbEntity
  8
01
  6
BYBLOCK
100
AcDbCircle
 10
2315.75764620717
 20
-372.5862045552888
 30
0.0
 40
0.5000000000000142
100
AcDbArc
 50
90.0
 51
180.0
  0
LINE
  5
1AB29
330
18
100
AcDbEntity
  8
01
  6
BYBLOCK
100
AcDbLine
 10
2325.857646207171
 20
-372.0862045552888
 30
0.0
 11
2315.75764620717
 21
-372.0862045552888
 31
0.0
  0
LINE
  5
1AB2A
330
18
100
AcDbEntity
  8
01
  6
BYBLOCK
100
AcDbLine
 10
2315.25764620717
 20
-373.664884211729
 30
0.0
 11
2315.25764620717
 21
-373.2862045552886
 31
0.0
  0
SPLINE
  5
1AB2B
330
18
100
AcDbEntity
  8
01
  6
BYBLOCK
100
AcDbSpline
210
0.0
220
0.0
230
1.0
 70
     8
 71
     3
 72
     8
 73
     4
 74
     0
 42
0.0000000001
 43
0.0000000001
 40
0.0
 40
0.0
 40
0.0
 40
0.0
 40
1.0
 40
1.0
 40
1.0
 40
1.0
 10
2315.283378748435
 20
-373.9415346411781
 30
0.0
 10
2315.265910862324
 20
-373.8484484452977
 30
0.0
 10
2315.25764620717
 20
-373.7551824344062
 30
0.0
 10
2315.25764620717
 20
-373.6648842117286
 30
0.0
  0
ARC
  5
1AB2C
330
18
100
AcDbEntity
  8
01
  6
BYBLOCK
100
AcDbCircle
 10
2316.75764620717
 20
-373.664884211729
 30
0.0
 40
1.499999999999998
100
AcDbArc
 50
190.628112987605
 51
224.9999999999908
  0
LINE
  5
1AB2D
330
18
100
AcDbEntity
  8
01
  6
BYBLOCK
100
AcDbLine
 10
2326.35764620717
 20
-371.2362045552886
 30
0.0
 11
2325.857646207171
 21
-371.2362045552886
 31
0.0
  0
LINE
  5
1AB2E
330
18
100
AcDbEntity
  8
01
  6
BYBLOCK
100
AcDbLine
 10
2325.857646207171
 20
-384.9362045552887
 30
0.0
 11
2326.35764620717
 21
-384.9362045552887
 31
0.0
  0
LINE
  5
1AB2F
330
18
100
AcDbEntity
  8
01
  6
BYBLOCK
100
AcDbLine
 10
2325.857646207171
 20
-384.9362045552887
 30
0.0
 11
2325.857646207171
 21
-371.2362045552886
 31
0.0
  0
LINE
  5
1AB30
330
18
100
AcDbEntity
  8
01
  6
BYBLOCK
100
AcDbLine
 10
2326.35764620717
 20
-365.6862045552887
 30
0.0
 11
2327.857646207171
 21
-365.6862045552887
 31
0.0
  0
LINE
  5
1AB31
330
18
100
AcDbEntity
  8
01
  6
BYBLOCK
100
AcDbLine
 10
2326.35764620717
 20
-390.4862045552886
 30
0.0
 11
2327.85764620717
 21
-390.4862045552886
 31
0.0
  0
LINE
  5
1AB32
330
18
100
AcDbEntity
  8
01
  6
BYBLOCK
100
AcDbLine
 10
2326.35764620717
 20
-390.4862045552886
 30
0.0
 11
2326.35764620717
 21
-365.6862045552887
 31
0.0
  0
LINE
  5
1AB33
330
18
100
AcDbEntity
  8
01
  6
BYBLOCK
100
AcDbLine
 10
2395.35764620717
 20
-385.7862045552888
 30
0.0
 11
2330.35764620717
 21
-385.7862045552888
 31
0.0
  0
LINE
  5
1AB34
330
18
100
AcDbEntity
  8
01
  6
BYBLOCK
100
AcDbLine
 10
2395.35764620717
 20
-387.3862045552887
 30
0.0
 11
2344.95764620717
 21
-387.3862045552887
 31
0.0
  0
LINE
  5
1AB35
330
18
100
AcDbEntity
  8
01
  6
BYBLOCK
100
AcDbLine
 10
2347.794904507373
 20
-387.3862045552887
 30
0.0
 11
2330.35764620717
 21
-387.3862045552887
 31
0.0
  0
LINE
  5
1AB36
330
18
100
AcDbEntity
  8
01
  6
BYBLOCK
100
AcDbLine
 10
2324.911199597763
 20
-383.9397579458821
 30
0.0
 11
2315.69698603539
 21
-374.725544383509
 31
0.0
  0
ARC
  5
1AB37
330
18
100
AcDbEntity
  8
01
  6
BYBLOCK
100
AcDbCircle
 10
2325.264752988356
 20
-383.5862045552888
 30
0.0
 40
0.5
100
AcDbArc
 50
224.9999999999908
 51
270.0
  0
LINE
  5
1AB38
330
18
100
AcDbEntity
  8
01
  6
BYBLOCK
100
AcDbLine
 10
2325.857646207171
 20
-384.0862045552888
 30
0.0
 11
2325.264752988356
 21
-384.0862045552888
 31
0.0
  0
LINE
  5
1AB3A
330
18
100
AcDbEntity
  8
01
  6
BYBLOCK
100
AcDbLine
 10
2315.356762025111
 20
-617.054534287244
 30
0.0
 11
2315.356762025111
 21
-635.1178748212499
 31
0.0
  0
LINE
  5
1AB3B
330
18
100
AcDbEntity
  8
01
  6
BYBLOCK
100
AcDbLine
 10
2319.649655243924
 20
-616.0862045542469
 30
0.0
 11
2326.356762025111
 21
-616.0862045542469
 31
0.0
  0
LINE
  5
1AB3C
330
18
100
AcDbEntity
  8
01
  6
BYBLOCK
100
AcDbLine
 10
2319.649655243924
 20
-636.0862045542469
 30
0.0
 11
2326.356762025111
 21
-636.0862045542469
 31
0.0
  0
LINE
  5
1AB3D
330
18
100
AcDbEntity
  8
01
  6
BYBLOCK
100
AcDbLine
 10
2325.149655243924
 20
-620.8362045542469
 30
0.0
 11
2325.149655243924
 21
-631.3362045542469
 31
0.0
  0
ARC
  5
1AB3E
330
18
100
AcDbEntity
  8
01
  6
BYBLOCK
100
AcDbCircle
 10
2319.649655243924
 20
-626.0862045542469
 30
0.0
 40
10.00000000000009
100
AcDbArc
 50
53.13010235414986
 51
115.4224671781178
  0
ARC
  5
1AB3F
330
18
100
AcDbEntity
  8
01
  6
BYBLOCK
100
AcDbCircle
 10
2319.649655243924
 20
-626.0862045542467
 30
0.0
 40
10.00000000000009
100
AcDbArc
 50
244.5775328218822
 51
306.8698976458437
  0
LINE
  5
1AB40
330
18
100
AcDbEntity
  8
01
  6
BYBLOCK
100
AcDbLine
 10
2325.649655243924
 20
-618.0862045542469
 30
0.0
 11
2325.649655243924
 21
-634.0862045542469
 31
0.0
  0
LINE
  5
1AB41
330
18
100
AcDbEntity
  8
01
  6
BYBLOCK
100
AcDbLine
 10
2315.356762025111
 20
-620.8362045542469
 30
0.0
 11
2325.149655243924
 21
-620.8362045542469
 31
0.0
  0
LINE
  5
1AB42
330
18
100
AcDbEntity
  8
01
  6
BYBLOCK
100
AcDbLine
 10
2315.356762025111
 20
-631.3362045542469
 30
0.0
 11
2325.149655243924
 21
-631.3362045542469
 31
0.0
  0
LINE
  5
1AB43
330
18
100
AcDbEntity
  8
01
  6
BYBLOCK
100
AcDbLine
 10
2200.956878364855
 20
-562.1862045542607
 30
0.0
 11
2213.756878364855
 21
-562.1862045542607
 31
0.0
  0
LINE
  5
1AB44
330
18
100
AcDbEntity
  8
01
  6
BYBLOCK
100
AcDbLine
 10
2200.956878364855
 20
-691.9862045542607
 30
0.0
 11
2213.756878364855
 21
-691.9862045542607
 31
0.0
  0
LINE
  5
1AB45
330
18
100
AcDbEntity
  8
01
  6
BYBLOCK
100
AcDbLine
 10
2194.956878364855
 20
-568.1862045542607
 30
0.0
 11
2194.956878364855
 21
-685.9862045542607
 31
0.0
  0
LINE
  5
1AB46
330
18
100
AcDbEntity
  8
01
  6
BYBLOCK
100
AcDbLine
 10
2219.756878364855
 20
-568.1862045542607
 30
0.0
 11
2219.756878364855
 21
-685.9862045542607
 31
0.0
  0
ARC
  5
1AB47
330
18
100
AcDbEntity
  8
01
  6
BYBLOCK
100
AcDbCircle
 10
2200.956878364855
 20
-685.9862045542607
 30
0.0
 40
6.0
100
AcDbArc
 50
180.0
 51
270.0
  0
ARC
  5
1AB48
330
18
100
AcDbEntity
  8
01
  6
BYBLOCK
100
AcDbCircle
 10
2213.756878364855
 20
-685.9862045542607
 30
0.0
 40
6.0
100
AcDbArc
 50
270.0
 51
0.0
  0
ARC
  5
1AB49
330
18
100
AcDbEntity
  8
01
  6
BYBLOCK
100
AcDbCircle
 10
2200.956878364855
 20
-568.1862045542607
 30
0.0
 40
6.0
100
AcDbArc
 50
90.0
 51
180.0
  0
ARC
  5
1AB4A
330
18
100
AcDbEntity
  8
01
  6
BYBLOCK
100
AcDbCircle
 10
2213.756878364855
 20
-568.1862045542607
 30
0.0
 40
6.0
100
AcDbArc
 50
0.0
 51
90.0
  0
CIRCLE
  5
1AB4B
330
18
100
AcDbEntity
  8
01
  6
BYBLOCK
100
AcDbCircle
 10
2207.356878364854
 20
-684.0862045542606
 30
0.0
 40
2.75
  0
CIRCLE
  5
1AB4C
330
18
100
AcDbEntity
  8
01
  6
BYBLOCK
100
AcDbCircle
 10
2207.356878364854
 20
-684.0862045542606
 30
0.0
 40
4.25
  0
CIRCLE
  5
1AB4D
330
18
100
AcDbEntity
  8
01
  6
BYBLOCK
100
AcDbCircle
 10
2207.356878364854
 20
-570.0862045542608
 30
0.0
 40
2.75
  0
CIRCLE
  5
1AB4E
330
18
100
AcDbEntity
  8
01
  6
BYBLOCK
100
AcDbCircle
 10
2207.356878364854
 20
-570.0862045542608
 30
0.0
 40
4.25
  0
LINE
  5
1AB4F
330
18
100
AcDbEntity
  8
1CENTER
100
AcDbLine
 10
2213.231903772761
 20
-684.0862045542608
 30
0.0
 11
2201.481852956948
 21
-684.0862045542608
 31
0.0
  0
LINE
  5
1AB50
330
18
100
AcDbEntity
  8
1CENTER
100
AcDbLine
 10
2207.356878364854
 20
-678.2111791463544
 30
0.0
 11
2207.356878364854
 21
-689.961229962167
 31
0.0
  0
LINE
  5
1AB51
330
18
100
AcDbEntity
  8
1CENTER
100
AcDbLine
 10
2213.231903772761
 20
-570.0862045542608
 30
0.0
 11
2201.481852956948
 21
-570.0862045542608
 31
0.0
  0
LINE
  5
1AB52
330
18
100
AcDbEntity
  8
1CENTER
100
AcDbLine
 10
2207.356878364854
 20
-564.2111791463544
 30
0.0
 11
2207.356878364854
 21
-575.961229962167
 31
0.0
  0
ARC
  5
1AB53
330
18
100
AcDbEntity
  8
01
  6
BYBLOCK
100
AcDbCircle
 10
2207.356878364854
 20
-626.0862045542606
 30
0.0
 40
10.15
100
AcDbArc
 50
231.9925780701417
 51
308.0074219298623
  0
LINE
  5
1AB54
330
18
100
AcDbEntity
  8
01
  6
BYBLOCK
100
AcDbLine
 10
2201.106878364854
 20
-618.0887049450077
 30
0.0
 11
2201.106878364854
 21
-634.0837041635134
 31
0.0
  0
LINE
  5
1AB55
330
18
100
AcDbEntity
  8
01
  6
BYBLOCK
100
AcDbLine
 10
2213.606878364854
 20
-618.0887049450077
 30
0.0
 11
2213.606878364854
 21
-634.0837041635134
 31
0.0
  0
ARC
  5
1AB56
330
18
100
AcDbEntity
  8
01
  6
BYBLOCK
100
AcDbCircle
 10
2207.356878364854
 20
-626.0862045542606
 30
0.0
 40
10.15
100
AcDbArc
 50
51.9925780701429
 51
128.0074219298571
  0
LINE
  5
1AB57
330
18
100
AcDbEntity
  8
01
  6
BYBLOCK
100
AcDbLine
 10
2202.856878364854
 20
-620.8362045542606
 30
0.0
 11
2202.856878364854
 21
-631.3362045542606
 31
0.0
  0
LINE
  5
1AB58
330
18
100
AcDbEntity
  8
01
  6
BYBLOCK
100
AcDbLine
 10
2212.856878364854
 20
-620.8362045542606
 30
0.0
 11
2212.856878364854
 21
-631.3362045542606
 31
0.0
  0
LINE
  5
1AB59
330
18
100
AcDbEntity
  8
01
  6
BYBLOCK
100
AcDbLine
 10
2203.356878364854
 20
-616.7576194525423
 30
0.0
 11
2203.356878364854
 21
-620.8362045542608
 31
0.0
  0
LINE
  5
1AB5A
330
18
100
AcDbEntity
  8
01
  6
BYBLOCK
100
AcDbLine
 10
2201.856878364854
 20
-620.8362045542608
 30
0.0
 11
2201.856878364854
 21
-631.3362045542606
 31
0.0
  0
LINE
  5
1AB5B
330
18
100
AcDbEntity
  8
01
  6
BYBLOCK
100
AcDbLine
 10
2203.356878364854
 20
-631.3362045542606
 30
0.0
 11
2203.356878364854
 21
-635.4147896559789
 31
0.0
  0
LINE
  5
1AB5C
330
18
100
AcDbEntity
  8
01
  6
BYBLOCK
100
AcDbLine
 10
2201.856878364854
 20
-620.8362045542606
 30
0.0
 11
2212.856878364854
 21
-620.8362045542606
 31
0.0
  0
LINE
  5
1AB5D
330
18
100
AcDbEntity
  8
01
  6
BYBLOCK
100
AcDbLine
 10
2201.856878364854
 20
-631.3362045542606
 30
0.0
 11
2212.856878364854
 21
-631.3362045542606
 31
0.0
  0
LINE
  5
1AB5F
330
18
100
AcDbEntity
  8
01
100
AcDbLine
 10
2187.356994704597
 20
-528.0862045542603
 30
0.0
 11
2187.356994704597
 21
-718.0862045542606
 31
0.0
  0
LINE
  5
1AB60
330
18
100
AcDbEntity
  8
01
100
AcDbLine
 10
2321.356762025397
 20
-684.0862045539714
 30
0.0
 11
2335.356762025397
 21
-684.0862045539714
 31
0.0
  0
LINE
  5
1AB61
330
18
100
AcDbEntity
  8
01
100
AcDbLine
 10
2093.356994704599
 20
-570.0862045542601
 30
0.0
 11
2079.356994704599
 21
-570.0862045542601
 31
0.0
  0
LINE
  5
1AB62
330
18
100
AcDbEntity
  8
01
  6
BYBLOCK
100
AcDbLine
 10
2086.856994704599
 20
-562.18620455426
 30
0.0
 11
2086.8569947046
 21
-691.98620455426
 31
0.0
  0
LINE
  5
1AB63
330
18
100
AcDbEntity
  8
01
  6
BYBLOCK
100
AcDbLine
 10
2086.856994704599
 20
-691.0862045542601
 30
0.0
 11
2084.356994704599
 21
-691.0862045542601
 31
0.0
  0
LINE
  5
1AB64
330
18
100
AcDbEntity
  8
01
  6
BYBLOCK
100
AcDbLine
 10
2085.656994704599
 20
-590.0862045542601
 30
0.0
 11
2062.3569947046
 21
-590.0862045542601
 31
0.0
  0
LINE
  5
1AB65
330
18
100
AcDbEntity
  8
01
  6
BYBLOCK
100
AcDbLine
 10
2084.356994704599
 20
-691.0862045542601
 30
0.0
 11
2084.356994704599
 21
-674.5832608291078
 31
0.0
  0
LINE
  5
1AB66
330
18
100
AcDbEntity
  8
01
  6
BYBLOCK
100
AcDbLine
 10
2088.356994704599
 20
-562.18620455426
 30
0.0
 11
2088.356994704599
 21
-691.98620455426
 31
0.0
  0
LINE
  5
1AB67
330
18
100
AcDbEntity
  8
01
  6
BYBLOCK
100
AcDbLine
 10
2088.356994704599
 20
-691.98620455426
 30
0.0
 11
2086.856994704599
 21
-691.98620455426
 31
0.0
  0
LINE
  5
1AB68
330
18
100
AcDbEntity
  8
01
  6
BYBLOCK
100
AcDbLine
 10
2086.856994704599
 20
-563.0862045542601
 30
0.0
 11
2084.356994704599
 21
-563.0862045542601
 31
0.0
  0
LINE
  5
1AB69
330
18
100
AcDbEntity
  8
01
  6
BYBLOCK
100
AcDbLine
 10
2088.356994704599
 20
-562.18620455426
 30
0.0
 11
2086.856994704599
 21
-562.18620455426
 31
0.0
  0
LINE
  5
1AB6A
330
18
100
AcDbEntity
  8
01
  6
BYBLOCK
100
AcDbLine
 10
2086.8569947046
 20
-587.0862045542601
 30
0.0
 11
2085.656994704599
 21
-587.0862045542601
 31
0.0
  0
LINE
  5
1AB6B
330
18
100
AcDbEntity
  8
01
  6
BYBLOCK
100
AcDbLine
 10
2070.456994704599
 20
-590.0862045542601
 30
0.0
 11
2062.3569947046
 21
-590.0862045542601
 31
0.0
  0
LINE
  5
1AB6C
330
18
100
AcDbEntity
  8
01
  6
BYBLOCK
100
AcDbLine
 10
2085.656994704599
 20
-581.3862045542598
 30
0.0
 11
2085.656994704599
 21
-672.7862045542599
 31
0.0
  0
LINE
  5
1AB6D
330
18
100
AcDbEntity
  8
01
  6
BYBLOCK
100
AcDbLine
 10
2085.5569947046
 20
-691.0862045542601
 30
0.0
 11
2085.5569947046
 21
-674.48620455426
 31
0.0
  0
LINE
  5
1AB6E
330
18
100
AcDbEntity
  8
01
  6
BYBLOCK
100
AcDbLine
 10
2085.5569947046
 20
-674.48620455426
 30
0.0
 11
2086.505522842023
 21
-673.5376764168361
 31
0.0
  0
LINE
  5
1AB6F
330
18
100
AcDbEntity
  8
01
  6
BYBLOCK
100
AcDbLine
 10
2084.708466567175
 20
-673.7347326916838
 30
0.0
 11
2085.656994704599
 21
-672.7862045542599
 31
0.0
  0
ARC
  5
1AB70
330
18
100
AcDbEntity
  8
01
  6
BYBLOCK
100
AcDbCircle
 10
2085.5569947046
 20
-674.5832608291078
 30
0.0
 40
1.2
100
AcDbArc
 50
135.000000000023
 51
180.0
  0
ARC
  5
1AB71
330
18
100
AcDbEntity
  8
01
  6
BYBLOCK
100
AcDbCircle
 10
2085.656994704599
 20
-672.6891482794122
 30
0.0
 40
1.2
100
AcDbArc
 50
315.0000000000231
 51
0.0
  0
LINE
  5
1AB72
330
18
100
AcDbEntity
  8
01
  6
BYBLOCK
100
AcDbLine
 10
2084.356994704599
 20
-563.0862045542601
 30
0.0
 11
2084.356994704599
 21
-579.5891482794123
 31
0.0
  0
LINE
  5
1AB73
330
18
100
AcDbEntity
  8
01
  6
BYBLOCK
100
AcDbLine
 10
2085.5569947046
 20
-563.0862045542601
 30
0.0
 11
2085.5569947046
 21
-579.68620455426
 31
0.0
  0
LINE
  5
1AB74
330
18
100
AcDbEntity
  8
01
  6
BYBLOCK
100
AcDbLine
 10
2085.5569947046
 20
-579.68620455426
 30
0.0
 11
2086.505522842023
 21
-580.6347326916839
 31
0.0
  0
LINE
  5
1AB75
330
18
100
AcDbEntity
  8
01
  6
BYBLOCK
100
AcDbLine
 10
2084.708466567175
 20
-580.4376764168362
 30
0.0
 11
2085.656994704599
 21
-581.3862045542601
 31
0.0
  0
ARC
  5
1AB76
330
18
100
AcDbEntity
  8
01
  6
BYBLOCK
100
AcDbCircle
 10
2085.5569947046
 20
-579.5891482794123
 30
0.0
 40
1.2
100
AcDbArc
 50
180.0
 51
224.999999999977
  0
ARC
  5
1AB77
330
18
100
AcDbEntity
  8
01
  6
BYBLOCK
100
AcDbCircle
 10
2085.656994704599
 20
-581.4832608291078
 30
0.0
 40
1.2
100
AcDbArc
 50
0.0
 51
44.99999999997697
  0
LINE
  5
1AB78
330
18
100
AcDbEntity
  8
01
  6
BYBLOCK
100
AcDbLine
 10
2085.656994704599
 20
-664.0862045542603
 30
0.0
 11
2062.3569947046
 21
-664.0862045542601
 31
0.0
  0
LINE
  5
1AB79
330
18
100
AcDbEntity
  8
01
  6
BYBLOCK
100
AcDbLine
 10
2099.356994704599
 20
-617.054534287244
 30
0.0
 11
2099.356994704599
 21
-635.1178748212499
 31
0.0
  0
LINE
  5
1AB7A
330
18
100
AcDbEntity
  8
01
  6
BYBLOCK
100
AcDbLine
 10
2095.064101485786
 20
-616.0862045542469
 30
0.0
 11
2088.356994704599
 21
-616.0862045542469
 31
0.0
  0
LINE
  5
1AB7B
330
18
100
AcDbEntity
  8
01
  6
BYBLOCK
100
AcDbLine
 10
2095.064101485786
 20
-636.0862045542469
 30
0.0
 11
2088.356994704599
 21
-636.0862045542469
 31
0.0
  0
ARC
  5
1AB7C
330
18
100
AcDbEntity
  8
01
  6
BYBLOCK
100
AcDbCircle
 10
2095.064101485786
 20
-626.0862045542469
 30
0.0
 40
10.00000000000009
100
AcDbArc
 50
64.57753282188216
 51
90.0
  0
LINE
  5
1AB7D
330
18
100
AcDbEntity
  8
01
100
AcDbLine
 10
2093.356994704312
 20
-684.0862045539714
 30
0.0
 11
2079.356994704312
 21
-684.0862045539714
 31
0.0
  0
LINE
  5
1AB7E
330
18
100
AcDbEntity
  8
01
  6
CONTINUOUS
100
AcDbLine
 10
2098.856994704599
 20
-634.4009987470777
 30
0.0
 11
2088.356994704599
 21
-634.4009987470777
 31
0.0
  0
ARC
  5
1AB7F
330
18
100
AcDbEntity
  8
01
  6
CONTINUOUS
100
AcDbCircle
 10
2098.895574951513
 20
-633.9388595162709
 30
0.0
 40
0.4637468103423796
100
AcDbArc
 50
265.2279066161926
 51
354.2577450626241
  0
LINE
  5
1AB80
330
18
100
AcDbEntity
  8
01
  6
CONTINUOUS
100
AcDbLine
 10
2099.356994704599
 20
-618.6028897806989
 30
0.0
 11
2099.356994704599
 21
-633.5695193277948
 31
0.0
  0
ARC
  5
1AB81
330
18
100
AcDbEntity
  8
01
  6
CONTINUOUS
100
AcDbCircle
 10
2098.895574951513
 20
-618.2335495922225
 30
0.0
 40
0.4637468103423387
100
AcDbArc
 50
5.742254937375924
 51
94.77209338380747
  0
ARC
  5
1AB82
330
18
100
AcDbEntity
  8
01
  6
BYBLOCK
100
AcDbCircle
 10
2095.064101485786
 20
-626.0862045542467
 30
0.0
 40
10.00000000000009
100
AcDbArc
 50
270.0
 51
295.4224671781178
  0
LINE
  5
1AB83
330
18
100
AcDbEntity
  8
01
  6
CONTINUOUS
100
AcDbLine
 10
2088.356994704599
 20
-617.7714103614157
 30
0.0
 11
2098.856994704599
 21
-617.7714103614157
 31
0.0
  0
LINE
  5
1AB84
330
18
100
AcDbEntity
  8
1HIDDEN
100
AcDbLine
 10
2395.356762025111
 20
-591.0862045542601
 30
0.0
 11
2395.356762025111
 21
-663.0862045542601
 31
0.0
  0
LINE
  5
1AB85
330
18
100
AcDbEntity
  8
1HIDDEN
100
AcDbLine
 10
2352.356762025111
 20
-590.0862045542601
 30
0.0
 11
2394.356762025111
 21
-590.0862045542601
 31
0.0
  0
ARC
  5
1AB86
330
18
100
AcDbEntity
  8
1HIDDEN
100
AcDbCircle
 10
2394.356762025111
 20
-591.0862045542601
 30
0.0
 40
1.0
100
AcDbArc
 50
0.0
 51
90.0
  0
ARC
  5
1AB87
330
18
100
AcDbEntity
  8
1HIDDEN
100
AcDbCircle
 10
2394.356762025111
 20
-663.0862045542601
 30
0.0
 40
1.0
100
AcDbArc
 50
270.0
 51
0.0
  0
CIRCLE
  5
1AB88
330
18
100
AcDbEntity
  8
1HIDDEN
100
AcDbCircle
 10
2377.356762025111
 20
-598.0862045542601
 30
0.0
 40
4.75
  0
LINE
  5
1AB89
330
18
100
AcDbEntity
  8
1HIDDEN
100
AcDbLine
 10
2352.356762025111
 20
-664.0862045542601
 30
0.0
 11
2394.356762025111
 21
-664.0862045542597
 31
0.0
  0
LINE
  5
1AB8A
330
18
100
AcDbEntity
  8
1HIDDEN
100
AcDbLine
 10
2377.356762025113
 20
-590.0862045542601
 30
0.0
 11
2394.356762025111
 21
-590.0862045542601
 31
0.0
  0
LINE
  5
1AB8B
330
18
100
AcDbEntity
  8
01
100
AcDbLine
 10
2388.668650292651
 20
-598.0862045542601
 30
0.0
 11
2366.044873757568
 21
-598.0862045542601
 31
0.0
  0
LINE
  5
1AB8C
330
18
100
AcDbEntity
  8
01
100
AcDbLine
 10
2377.356762025111
 20
-586.7743162867184
 30
0.0
 11
2377.356762025111
 21
-609.3980928218018
 31
0.0
  0
LINE
  5
1AB8D
330
18
100
AcDbEntity
  8
01
100
AcDbLine
 10
2189.485280087028
 20
-648.0862045542606
 30
0.0
 11
2166.856994704597
 21
-648.0862045542606
 31
0.0
  0
POINT
  5
1AB8E
330
18
100
AcDbEntity
  8
01
100
AcDbPoint
 10
2172.856878364852
 20
-648.0862045542606
 30
0.0
 50
180.0
  0
CIRCLE
  5
1AB8F
330
18
100
AcDbEntity
  8
01
100
AcDbCircle
 10
2172.856878364852
 20
-648.0862045542606
 30
0.0
 40
2.5
  0
CIRCLE
  5
1AB90
330
18
100
AcDbEntity
  8
01
100
AcDbCircle
 10
2172.856878364852
 20
-648.0862045542606
 30
0.0
 40
3.0
  0
LINE
  5
1AB92
330
18
100
AcDbEntity
  8
1CENTER
100
AcDbLine
 10
2172.856878364852
 20
-654.0862045542606
 30
0.0
 11
2172.856878364852
 21
-642.0862045542606
 31
0.0
  0
LINE
  5
1AB93
330
18
100
AcDbEntity
  8
01
100
AcDbLine
 10
2178.856994704597
 20
-534.5862045542603
 30
0.0
 11
2178.856994704597
 21
-711.5862045542606
 31
0.0
  0
ARC
  5
1AB94
330
18
100
AcDbEntity
  8
01
100
AcDbCircle
 10
2179.356994704597
 20
-711.5862045542606
 30
0.0
 40
0.5
100
AcDbArc
 50
180.0
 51
270.0
  0
LINE
  5
1AB95
330
18
100
AcDbEntity
  8
01
100
AcDbLine
 10
2187.356994704597
 20
-534.0862045542603
 30
0.0
 11
2187.356994704597
 21
-712.0862045542606
 31
0.0
  0
LINE
  5
1AB96
330
18
100
AcDbEntity
  8
01
100
AcDbLine
 10
2179.356994704597
 20
-534.0862045542603
 30
0.0
 11
2187.356994704597
 21
-534.0862045542603
 31
0.0
  0
ARC
  5
1AB97
330
18
100
AcDbEntity
  8
01
100
AcDbCircle
 10
2179.356994704597
 20
-534.5862045542603
 30
0.0
 40
0.5
100
AcDbArc
 50
90.0
 51
180.0
  0
LINE
  5
1AB98
330
18
100
AcDbEntity
  8
01
100
AcDbLine
 10
2179.356994704597
 20
-712.0862045542606
 30
0.0
 11
2187.356994704597
 21
-712.0862045542606
 31
0.0
  0
POINT
  5
1AB9C
330
18
100
AcDbEntity
  8
01
100
AcDbPoint
 10
2241.85676202511
 20
-648.0862045542601
 30
0.0
  0
LINE
  5
1AB9D
330
18
100
AcDbEntity
  8
01
100
AcDbLine
 10
2241.456762015109
 20
-649.8362045542601
 30
0.0
 11
2241.456762015109
 21
-648.98620453426
 31
0.0
  0
LINE
  5
1AB9E
330
18
100
AcDbEntity
  8
01
100
AcDbLine
 10
2242.25676203511
 20
-649.8362045542601
 30
0.0
 11
2242.25676203511
 21
-648.98620453426
 31
0.0
  0
LINE
  5
1AB9F
330
18
100
AcDbEntity
  8
01
100
AcDbLine
 10
2240.95676204511
 20
-648.4862045642606
 30
0.0
 11
2240.10676202511
 21
-648.4862045642606
 31
0.0
  0
LINE
  5
1ABA0
330
18
100
AcDbEntity
  8
01
100
AcDbLine
 10
2240.95676204511
 20
-647.6862045442606
 30
0.0
 11
2240.10676202511
 21
-647.6862045442606
 31
0.0
  0
LINE
  5
1ABA1
330
18
100
AcDbEntity
  8
01
100
AcDbLine
 10
2240.10676202511
 20
-648.4862045642606
 30
0.0
 11
2240.10676202511
 21
-647.6862045442606
 31
0.0
  0
LINE
  5
1ABA2
330
18
100
AcDbEntity
  8
01
100
AcDbLine
 10
2242.25676203511
 20
-649.8362045542601
 30
0.0
 11
2241.456762015109
 21
-649.8362045542601
 31
0.0
  0
LINE
  5
1ABA3
330
18
100
AcDbEntity
  8
01
100
AcDbLine
 10
2242.25676203511
 20
-646.3362045542601
 30
0.0
 11
2242.25676203511
 21
-647.1862045742603
 31
0.0
  0
LINE
  5
1ABA4
330
18
100
AcDbEntity
  8
01
100
AcDbLine
 10
2241.456762015109
 20
-646.3362045542601
 30
0.0
 11
2241.456762015109
 21
-647.1862045742603
 31
0.0
  0
LINE
  5
1ABA5
330
18
100
AcDbEntity
  8
01
100
AcDbLine
 10
2242.75676200511
 20
-647.6862045442606
 30
0.0
 11
2243.60676202511
 21
-647.6862045442606
 31
0.0
  0
LINE
  5
1ABA6
330
18
100
AcDbEntity
  8
01
100
AcDbLine
 10
2242.75676200511
 20
-648.4862045642606
 30
0.0
 11
2243.60676202511
 21
-648.4862045642606
 31
0.0
  0
LINE
  5
1ABA7
330
18
100
AcDbEntity
  8
01
100
AcDbLine
 10
2243.60676202511
 20
-647.6862045442606
 30
0.0
 11
2243.60676202511
 21
-648.4862045642606
 31
0.0
  0
LINE
  5
1ABA8
330
18
100
AcDbEntity
  8
01
100
AcDbLine
 10
2241.456762015109
 20
-646.3362045542601
 30
0.0
 11
2242.25676203511
 21
-646.3362045542601
 31
0.0
  0
CIRCLE
  5
1ABA9
330
18
100
AcDbEntity
  8
01
100
AcDbCircle
 10
2241.85676202511
 20
-648.0862045542601
 30
0.0
 40
2.5
  0
ARC
  5
1ABAA
330
18
100
AcDbEntity
  8
01
100
AcDbCircle
 10
2242.75676200511
 20
-647.1862045742603
 30
0.0
 40
0.5
100
AcDbArc
 50
179.999989999999
 51
270.0
  0
ARC
  5
1ABAB
330
18
100
AcDbEntity
  8
01
100
AcDbCircle
 10
2242.75676200511
 20
-648.98620453426
 30
0.0
 40
0.5
100
AcDbArc
 50
90.00000299998466
 51
180.000010000001
  0
ARC
  5
1ABAC
330
18
100
AcDbEntity
  8
01
100
AcDbCircle
 10
2240.95676204511
 20
-648.98620453426
 30
0.0
 40
0.5
100
AcDbArc
 50
0.0
 51
90.00000299998466
  0
ARC
  5
1ABAD
330
18
100
AcDbEntity
  8
01
100
AcDbCircle
 10
2240.95676204511
 20
-647.1862045742603
 30
0.0
 40
0.5
100
AcDbArc
 50
270.0
 51
0.0
  0
LINE
  5
1ABAF
330
18
100
AcDbEntity
  8
1CENTER
100
AcDbLine
 10
2241.85676202511
 20
-654.0862045542601
 30
0.0
 11
2241.85676202511
 21
-642.0862045542601
 31
0.0
  0
LINE
  5
1ABB0
330
18
100
AcDbEntity
  8
01
100
AcDbLine
 10
2225.228476642679
 20
-648.0862045542601
 30
0.0
 11
2247.85676202511
 21
-648.0862045542601
 31
0.0
  0
LINE
  5
1ABB1
330
18
100
AcDbEntity
  8
1CENTER
100
AcDbLine
 10
2361.273087261167
 20
-412.5861965220349
 30
0.0
 11
2369.406759623015
 21
-412.5862045552851
 31
0.0
  0
LINE
  5
1ABB2
330
18
100
AcDbEntity
  8
01
100
AcDbLine
 10
2227.35676202511
 20
-528.0862045542601
 30
0.0
 11
2227.35676202511
 21
-718.0862045542601
 31
0.0
  0
LINE
  5
1ABB3
330
18
100
AcDbEntity
  8
01
100
AcDbLine
 10
2347.35676202511
 20
-648.0862045542601
 30
0.0
 11
2407.35676202511
 21
-648.0862045542601
 31
0.0
  0
LINE
  5
1ABB4
330
18
100
AcDbEntity
  8
01
100
AcDbLine
 10
2377.35676202511
 20
-618.0862045542601
 30
0.0
 11
2377.35676202511
 21
-678.0862045542601
 31
0.0
  0
LINE
  5
1ABB5
330
18
100
AcDbEntity
  8
01
100
AcDbLine
 10
2352.35676202511
 20
-534.5862045542601
 30
0.0
 11
2352.35676202511
 21
-711.5862045542601
 31
0.0
  0
ARC
  5
1ABB6
330
18
100
AcDbEntity
  8
01
100
AcDbCircle
 10
2352.85676202511
 20
-711.5862045542601
 30
0.0
 40
0.5
100
AcDbArc
 50
180.0
 51
270.0
  0
LINE
  5
1ABB7
330
18
100
AcDbEntity
  8
01
100
AcDbLine
 10
2402.35676202511
 20
-534.5862045542601
 30
0.0
 11
2402.35676202511
 21
-636.010339895415
 31
0.0
  0
ARC
  5
1ABB8
330
18
100
AcDbEntity
  8
01
100
AcDbCircle
 10
2401.85676202511
 20
-534.5862045542601
 30
0.0
 40
0.5
100
AcDbArc
 50
0.0
 51
90.0
  0
LINE
  5
1ABB9
330
18
100
AcDbEntity
  8
01
100
AcDbLine
 10
2401.85676202511
 20
-712.0862045542601
 30
0.0
 11
2352.85676202511
 21
-712.0862045542601
 31
0.0
  0
ARC
  5
1ABBA
330
18
100
AcDbEntity
  8
01
100
AcDbCircle
 10
2401.85676202511
 20
-711.5862045542601
 30
0.0
 40
0.5
100
AcDbArc
 50
270.0
 51
0.0
  0
LINE
  5
1ABBB
330
18
100
AcDbEntity
  8
01
100
AcDbLine
 10
2352.85676202511
 20
-534.0862045542601
 30
0.0
 11
2401.85676202511
 21
-534.0862045542601
 31
0.0
  0
ARC
  5
1ABBC
330
18
100
AcDbEntity
  8
01
100
AcDbCircle
 10
2352.85676202511
 20
-534.5862045542601
 30
0.0
 40
0.5
100
AcDbArc
 50
90.0
 51
180.0
  0
LINE
  5
1ABBD
330
18
100
AcDbEntity
  8
01
100
AcDbLine
 10
2235.85676202511
 20
-534.5862045542601
 30
0.0
 11
2235.85676202511
 21
-711.5862045542601
 31
0.0
  0
ARC
  5
1ABBE
330
18
100
AcDbEntity
  8
01
100
AcDbCircle
 10
2235.35676202511
 20
-711.5862045542601
 30
0.0
 40
0.5
100
AcDbArc
 50
270.0
 51
0.0
  0
LINE
  5
1ABBF
330
18
100
AcDbEntity
  8
01
100
AcDbLine
 10
2227.35676202511
 20
-534.0862045542601
 30
0.0
 11
2227.35676202511
 21
-712.0862045542601
 31
0.0
  0
LINE
  5
1ABC0
330
18
100
AcDbEntity
  8
01
100
AcDbLine
 10
2235.35676202511
 20
-534.0862045542601
 30
0.0
 11
2227.35676202511
 21
-534.0862045542601
 31
0.0
  0
ARC
  5
1ABC1
330
18
100
AcDbEntity
  8
01
100
AcDbCircle
 10
2235.35676202511
 20
-534.5862045542601
 30
0.0
 40
0.5
100
AcDbArc
 50
0.0
 51
90.0
  0
LINE
  5
1ABC2
330
18
100
AcDbEntity
  8
01
100
AcDbLine
 10
2235.35676202511
 20
-712.0862045542601
 30
0.0
 11
2227.35676202511
 21
-712.0862045542601
 31
0.0
  0
LINE
  5
1ABC5
330
18
100
AcDbEntity
  8
01
100
AcDbLine
 10
2326.35764620717
 20
-398.0862045552888
 30
0.0
 11
2480.112026362202
 21
-398.0862045552888
 31
0.0
  0
LINE
  5
1ABC6
330
18
100
AcDbEntity
  8
01
100
AcDbLine
 10
2352.35676202511
 20
-398.0862045552897
 30
0.0
 11
2402.35676202511
 21
-398.0862045552874
 31
0.0
  0
LINE
  5
1ABC7
330
18
100
AcDbEntity
  8
01
100
AcDbLine
 10
2352.856762025106
 20
-406.5862045552897
 30
0.0
 11
2401.85676202511
 21
-406.586204555286
 31
0.0
  0
LINE
  5
1ABC8
330
18
100
AcDbEntity
  8
01
100
AcDbLine
 10
2402.35676202511
 20
-398.0862045552874
 30
0.0
 11
2402.35676202511
 21
-406.086204555286
 31
0.0
  0
ARC
  5
1ABC9
330
18
100
AcDbEntity
  8
01
100
AcDbCircle
 10
2401.85676202511
 20
-406.086204555286
 30
0.0
 40
0.5
100
AcDbArc
 50
270.0
 51
0.0
  0
LINE
  5
1ABCA
330
18
100
AcDbEntity
  8
01
100
AcDbLine
 10
2352.35676202511
 20
-398.0862045552897
 30
0.0
 11
2352.356762025106
 21
-406.0862045552892
 31
0.0
  0
ARC
  5
1ABCB
330
18
100
AcDbEntity
  8
01
100
AcDbCircle
 10
2352.856762025106
 20
-406.0862045552897
 30
0.0
 40
0.5
100
AcDbArc
 50
180.0
 51
270.0
  0
LINE
  5
1ABCC
330
18
100
AcDbEntity
  8
01
100
AcDbLine
 10
2377.35676202511
 20
-419.5862045552878
 30
0.0
 11
2377.35676202511
 21
-393.0203736351398
 31
0.0
  0
LINE
  5
1ABCD
330
18
100
AcDbEntity
  8
01
100
AcDbLine
 10
2501.92255836564
 20
-435.0386770772805
 30
0.0
 11
2501.922558368059
 21
-455.0482817675063
 31
0.0
  0
SPLINE
  5
1ABCE
330
18
100
AcDbEntity
  8
01
100
AcDbSpline
210
0.0
220
0.0
230
1.0
 70
     8
 71
     3
 72
     9
 73
     5
 74
     0
 42
0.0000000001
 43
0.0000000001
 40
0.0
 40
0.0
 40
0.0
 40
0.0
 40
4.181585763194067
 40
4.906987455372584
 40
4.906987455372584
 40
4.906987455372584
 40
4.906987455372584
 10
2390.85676436564
 20
-418.0862045552878
 30
0.0
 10
2390.864747776562
 20
-419.742292878507
 30
0.0
 10
2390.941553049974
 20
-421.3795061756566
 30
0.0
 10
2391.138348500215
 20
-423.0047392868835
 30
0.0
 10
2391.170311445576
 20
-423.2446179194642
 30
0.0
  0
LINE
  5
1ABCF
330
18
100
AcDbEntity
  8
01
100
AcDbLine
 10
2363.856764365641
 20
-407.0862045552878
 30
0.0
 11
2373.856877061223
 21
-407.0862045552878
 31
0.0
  0
LINE
  5
1ABD0
330
18
100
AcDbEntity
  8
01
100
AcDbLine
 10
2390.85676436564
 20
-418.0862045552878
 30
0.0
 11
2390.856764365641
 21
-407.0862045552878
 31
0.0
  0
LINE
  5
1ABD1
330
18
100
AcDbEntity
  8
01
100
AcDbLine
 10
2363.85676436564
 20
-427.0862045552878
 30
0.0
 11
2363.856764365641
 21
-407.0862045552878
 31
0.0
  0
ARC
  5
1ABD2
330
18
100
AcDbEntity
  8
01
100
AcDbCircle
 10
2500.921012920133
 20
-435.0370086489063
 30
0.0
 40
1.00154683518478
100
AcDbArc
 50
359.9045536912362
 51
90.79512633287318
  0
LINE
  5
1ABD3
330
18
100
AcDbEntity
  8
01
100
AcDbLine
 10
2500.876060932605
 20
-434.0364985692506
 30
0.0
 11
2500.907114327461
 21
-434.0355582546329
 31
0.0
  0
ARC
  5
1ABD4
330
18
100
AcDbEntity
  8
01
100
AcDbCircle
 10
2500.921484529331
 20
-455.0491317278909
 30
0.0
 40
1.001074199556652
100
AcDbArc
 50
273.8038238778075
 51
0.048646892171076
  0
LINE
  5
1ABD5
330
18
100
AcDbEntity
  8
01
100
AcDbLine
 10
2500.902325116854
 20
-434.9049976110007
 30
0.0
 11
2500.884787305059
 21
-434.9061167083057
 31
0.0
  0
SPLINE
  5
1ABD6
330
18
100
AcDbEntity
  8
01
100
AcDbSpline
210
0.0
220
0.0
230
1.0
 70
  1064
 71
     3
 72
    10
 73
     6
 74
     4
 42
0.000000001
 43
0.0000000001
 44
0.000001
 12
0.9831784645781124
 22
0.1826474932481291
 32
0.0
 13
0.993718563209008
 23
0.1119080744800171
 33
0.0
 40
0.0
 40
0.0
 40
0.0
 40
0.0
 40
12.64947198872543
 40
25.29664324953094
 40
37.93871298170414
 40
37.93871298170414
 40
37.93871298170414
 40
37.93871298170414
 10
2463.394444724468
 20
-440.6736536154906
 30
0.0
 10
2467.540007540334
 20
-439.9035221656062
 30
0.0
 10
2475.841392970309
 20
-438.4211239979307
 30
0.0
 10
2488.335361455969
 20
-436.457478765445
 30
0.0
 10
2496.697234181644
 20
-435.3776999353623
 30
0.0
 10
2500.884787305059
 20
-434.9061167083057
 30
0.0
 11
2463.394444724468
 21
-440.6736536154906
 31
0.0
 11
2475.849473532716
 21
-438.4642676899769
 31
0.0
 11
2488.345450661476
 21
-436.5145246834752
 31
0.0
 11
2500.884787305059
 21
-434.9061167083057
 31
0.0
  0
ARC
  5
1ABD7
330
18
100
AcDbEntity
  8
01
100
AcDbCircle
 10
2793.260682927215
 20
-2200.482254289093
 30
0.0
 40
1790.457496315067
100
AcDbArc
 50
100.6165768773612
 51
101.2234178765612
  0
SPLINE
  5
1ABD8
330
18
100
AcDbEntity
  8
01
100
AcDbSpline
210
0.0
220
0.0
230
1.0
 70
  1064
 71
     3
 72
    25
 73
    21
 74
    19
 42
0.000000001
 43
0.0000000001
 44
0.000001
 12
-0.000871073338289442
 22
-0.9999996206155477
 32
0.0
 13
0.9812495806433168
 23
0.1927414342774154
 33
0.0
 40
0.0
 40
0.0
 40
0.0
 40
0.0
 40
3.441413671685528
 40
6.890117821913623
 40
10.34824228437137
 40
13.81586316647407
 40
17.29116998569668
 40
20.76838829436296
 40
24.24299418042819
 40
27.70617175107052
 40
31.15824156417337
 40
34.60459654871372
 40
41.47191728334248
 40
48.32507241181077
 40
55.16974723390382
 40
62.00886926276685
 40
68.84307992267418
 40
75.67437120356215
 40
82.50297694377403
 40
96.1580389775308
 40
96.1580389775308
 40
96.1580389775308
 40
96.1580389775308
 10
2363.85676436564
 20
-427.0862045552878
 30
0.0
 10
2363.855765124408
 20
-428.2333420106434
 30
0.0
 10
2363.943312426542
 20
-430.5315215857235
 30
0.0
 10
2364.398400636899
 20
-433.9570874617843
 30
0.0
 10
2365.267518355311
 20
-437.3153083394458
 30
0.0
 10
2366.643236580056
 20
-440.5156493309685
 30
0.0
 10
2368.587560984452
 20
-443.4207902150804
 30
0.0
 10
2371.07516137625
 20
-445.8813789793631
 30
0.0
 10
2373.976830117989
 20
-447.8208390362477
 30
0.0
 10
2377.141027902513
 20
-449.258231568382
 30
0.0
 10
2380.44948827324
 20
-450.2751005771282
 30
0.0
 10
2384.954300287123
 20
-451.1772168990386
 30
0.0
 10
2390.673409341079
 20
-451.6528540183948
 30
0.0
 10
2397.533146702525
 20
-451.5682630702477
 30
0.0
 10
2404.362903367542
 20
-451.0565424961633
 30
0.0
 10
2411.156012149594
 20
-450.2513292039899
 30
0.0
 10
2417.917383883328
 20
-449.2469727810895
 30
0.0
 10
2424.65278244113
 20
-448.1040643475125
 30
0.0
 10
2433.608161464649
 20
-446.4593540816875
 30
0.0
 10
2440.308163331276
 20
-445.1433278389928
 30
0.0
 10
2444.77450462937
 20
-444.266029091815
 30
0.0
 11
2363.85676436564
 21
-427.0862045552878
 31
0.0
 11
2363.996971028091
 21
-430.5247619095455
 31
0.0
 11
2364.466517424595
 21
-433.9413518302301
 31
0.0
 11
2365.350454075706
 21
-437.2845959242247
 31
0.0
 11
2366.736306018553
 21
-440.463244906369
 31
0.0
 11
2368.677497925507
 21
-443.3458707851921
 31
0.0
 11
2371.145415879905
 21
-445.7954480386582
 31
0.0
 11
2374.025158246683
 21
-447.7396626840216
 31
0.0
 11
2377.169998763527
 21
-449.1900342244132
 31
0.0
 11
2380.465043407624
 21
-450.2193385095745
 31
0.0
 11
2383.84159253925
 21
-450.9094682642283
 31
0.0
 11
2390.679547178112
 21
-451.5438748311306
 31
0.0
 11
2397.53254135864
 21
-451.4968986861484
 31
0.0
 11
2404.359687028235
 21
-451.0073520500935
 31
0.0
 11
2411.153083735336
 21
-450.2178258569036
 31
0.0
 11
2417.914594275052
 21
-449.223637364146
 31
0.0
 11
2424.650952537161
 21
-448.0887285334877
 31
0.0
 11
2431.368322004379
 21
-446.8612091340876
 31
0.0
 11
2444.77450462937
 21
-444.266029091815
 31
0.0
  0
ARC
  5
1ABD9
330
18
100
AcDbEntity
  8
01
100
AcDbCircle
 10
2501.827229399306
 20
-435.1222884434017
 30
0.0
 40
0.0979236131362861
100
AcDbArc
 50
13.21894139013776
 51
73.74740855216808
  0
LINE
  5
1ABDA
330
18
100
AcDbEntity
  8
01
100
AcDbLine
 10
2501.711778256057
 20
-434.9796099285629
 30
0.0
 11
2501.85463551947
 21
-435.0282781323288
 31
0.0
  0
ARC
  5
1ABDB
330
18
100
AcDbEntity
  8
01
100
AcDbCircle
 10
2500.94763261231
 20
-438.8415647411987
 30
0.0
 40
3.936827852433767
100
AcDbArc
 50
78.80773794350462
 51
90.65941048865872
  0
SPLINE
  5
1ABDC
330
18
100
AcDbEntity
  8
01
100
AcDbSpline
210
0.0
220
0.0
230
1.0
 70
  1064
 71
     3
 72
    26
 73
    22
 74
    20
 42
0.000000001
 43
0.0000000001
 44
0.000001
 12
-0.9979199097763058
 22
-0.06446591093011672
 32
0.0
 13
-0.02284695825456342
 23
0.9997389741820183
 33
0.0
 40
0.0
 40
0.0
 40
0.0
 40
0.0
 40
22.25672874204004
 40
33.34877084862563
 40
44.42939984479647
 40
55.49867241274671
 40
66.55665876077595
 40
77.60087402967451
 40
88.6301824589255
 40
94.13893639426064
 40
99.64443915907196
 40
105.1453874461796
 40
110.6428094101675
 40
116.1400221877812
 40
121.6412419545424
 40
127.1451797682249
 40
132.664687764528
 40
138.2073494278443
 40
143.7750347604447
 40
149.3632114036928
 40
154.9621545292764
 40
154.9621545292764
 40
154.9621545292764
 40
154.9621545292764
 10
2500.987896285041
 20
-456.0480006040314
 30
0.0
 10
2493.58441870565
 20
-456.5262673682581
 30
0.0
 10
2482.498072825679
 20
-457.3463397055826
 30
0.0
 10
2467.733340174651
 20
-458.499866329244
 30
0.0
 10
2456.685084123284
 20
-459.3471615204621
 30
0.0
 10
2445.642435598391
 20
-460.1163426834469
 30
0.0
 10
2434.602870916076
 20
-460.7500970784751
 30
0.0
 10
2423.564857055021
 20
-461.1384887524171
 30
0.0
 10
2414.36697690937
 20
-461.1442058405873
 30
0.0
 10
2407.024728302267
 20
-460.8267829344608
 30
0.0
 10
2401.535525998464
 20
-460.3889103805834
 30
0.0
 10
2396.076025451986
 20
-459.6915719271291
 30
0.0
 10
2390.670036361833
 20
-458.6624910621966
 30
0.0
 10
2385.362348528419
 20
-457.1977358574976
 30
0.0
 10
2380.230690293488
 20
-455.1775183132527
 30
0.0
 10
2375.431181802329
 20
-452.4257027362927
 30
0.0
 10
2371.187499556311
 20
-448.8329076484326
 30
0.0
 10
2367.812700538592
 20
-444.3746895120946
 30
0.0
 10
2365.500006069346
 20
-439.2656904701711
 30
0.0
 10
2364.211685239496
 20
-433.8037079610622
 30
0.0
 10
2363.911059301749
 20
-430.0745136669813
 30
0.0
 10
2363.868419695129
 20
-428.2086864480232
 30
0.0
 11
2500.987896285041
 21
-456.0480006040314
 31
0.0
 11
2478.788269808035
 21
-457.6412726744582
 31
0.0
 11
2467.729326754871
 21
-458.4975299358691
 31
0.0
 11
2456.6803573358
 21
-459.334556560452
 31
0.0
 11
2445.637176988426
 21
-460.0941372512909
 31
0.0
 11
2434.596326877804
 21
-460.7095157636825
 31
0.0
 11
2423.558161747843
 21
-461.0750308202353
 31
0.0
 11
2412.528915804385
 21
-461.0379077673404
 31
0.0
 11
2407.025592554748
 21
-460.7933610982143
 31
0.0
 11
2401.538340866799
 21
-460.3454441947313
 31
0.0
 11
2396.083327892991
 21
-459.6360321384798
 31
0.0
 11
2390.686363901385
 21
-458.5898830627655
 31
0.0
 11
2385.393296334454
 21
-457.1057051621208
 31
0.0
 11
2380.287964419084
 21
-455.0565577845443
 31
0.0
 11
2375.529905264612
 21
-452.2899344651844
 31
0.0
 11
2371.340026645742
 21
-448.6969015183761
 31
0.0
 11
2367.995959424472
 21
-444.2766851433191
 31
0.0
 11
2365.674026095359
 21
-439.2162755133388
 31
0.0
 11
2364.352139344798
 21
-433.7866960041517
 31
0.0
 11
2363.868419695129
 21
-428.2086864480232
 31
0.0
  0
SPLINE
  5
1ABDD
330
18
100
AcDbEntity
  8
01
100
AcDbSpline
210
0.0
220
0.0
230
1.0
 70
     8
 71
     3
 72
    27
 73
    23
 74
     0
 42
0.0000000001
 43
0.0000000001
 40
0.0
 40
0.0
 40
0.0
 40
0.0
 40
16.91059537614233
 40
25.36612715702854
 40
33.82144120212359
 40
42.27681849485995
 40
50.73232732391983
 40
59.18788171366092
 40
67.64342079382851
 40
76.09822210144672
 40
80.32547480342753
 40
84.55239661131972
 40
88.77906906159228
 40
93.00316601689825
 40
97.22721965277279
 40
101.4453053855404
 40
103.5555681067257
 40
105.6622199082372
 40
107.771868988524
 40
109.8818614491521
 40
114.0963887206748
 40
118.2484923739838
 40
118.2484923739838
 40
118.2484923739838
 40
118.2484923739838
 10
2500.875953921871
 20
-434.0364719622482
 30
0.0
 10
2495.245203088676
 20
-434.2989476681912
 30
0.0
 10
2486.803283563726
 20
-434.7914795565673
 30
0.0
 10
2475.560073083005
 20
-435.6231990857862
 30
0.0
 10
2467.134227594614
 20
-436.3310608062959
 30
0.0
 10
2458.713320548422
 20
-437.0943449974909
 30
0.0
 10
2450.294836361162
 20
-437.8842610426047
 30
0.0
 10
2441.874719510395
 20
-438.6582596505075
 30
0.0
 10
2433.44588530635
 20
-439.3299264235072
 30
0.0
 10
2426.409233189304
 20
-439.7197286507283
 30
0.0
 10
2420.773490589831
 20
-439.8407854114623
 30
0.0
 10
2416.545948999326
 20
-439.7943211700574
 30
0.0
 10
2412.323981772304
 20
-439.5711583517093
 30
0.0
 10
2408.124713820701
 20
-439.0724205325835
 30
0.0
 10
2403.983759597799
 20
-438.2111467569364
 30
0.0
 10
2400.659591438291
 20
-436.9978963387191
 30
0.0
 10
2398.197246701681
 20
-435.6281939227695
 30
0.0
 10
2396.495138348923
 20
-434.3714886255891
 30
0.0
 10
2394.996153095788
 20
-432.8765072087151
 30
0.0
 10
2393.32569957515
 20
-430.6021420756758
 30
0.0
 10
2391.910053853793
 20
-427.3633357942128
 30
0.0
 10
2391.349878486049
 20
-424.6170703785835
 30
0.0
 10
2391.170311445577
 20
-423.2446179194637
 30
0.0
  0
LINE
  5
1ABDE
330
18
100
AcDbEntity
  8
01
100
AcDbLine
 10
2501.92255836564
 20
-637.6947247876599
 30
0.0
 11
2501.922558365641
 21
-634.6083190555257
 31
0.0
  0
LINE
  5
1ABDF
330
18
100
AcDbEntity
  8
01
100
AcDbLine
 10
2501.922558086842
 20
-640.6727911843384
 30
0.0
 11
2501.92255836564
 21
-637.6947247876599
 31
0.0
  0
LINE
  5
1ABE0
330
18
100
AcDbEntity
  8
01
100
AcDbLine
 10
2501.014886311347
 20
-641.669765918012
 30
0.0
 11
2500.994413323076
 21
-641.6716669923753
 31
0.0
  0
LINE
  5
1ABE1
330
18
100
AcDbEntity
  8
01
100
AcDbLine
 10
2364.656764377561
 20
-659.086202292206
 30
0.0
 11
2390.0574903401
 21
-659.0862026623063
 31
0.0
  0
LINE
  5
1ABE2
330
18
100
AcDbEntity
  8
01
100
AcDbLine
 10
2390.116094941327
 20
-659.0758329543669
 30
0.0
 11
2390.0574903401
 21
-659.0862026623063
 31
0.0
  0
ARC
  5
1ABE3
330
18
100
AcDbEntity
  8
01
100
AcDbCircle
 10
2500.921591432615
 20
-640.6731564449021
 30
0.0
 40
1.000966720870227
100
AcDbArc
 50
275.3480025563511
 51
0.0209076773013131
  0
LINE
  5
1ABE4
330
18
100
AcDbEntity
  8
01
100
AcDbLine
 10
2363.85676436564
 20
-658.2860278599333
 30
0.0
 11
2363.85676436564
 21
-637.8861763944165
 31
0.0
  0
LINE
  5
1ABE5
330
18
100
AcDbEntity
  8
01
100
AcDbLine
 10
2500.902325116854
 20
-633.607385889115
 30
0.0
 11
2500.884787305059
 21
-633.6077468252493
 31
0.0
  0
ARC
  5
1ABE6
330
18
100
AcDbEntity
  8
01
100
AcDbCircle
 10
2500.916160095885
 20
-634.6089261168768
 30
0.0
 40
1.006398452845485
100
AcDbArc
 50
0.0345609190191246
 51
21.17066786855085
  0
ARC
  5
1ABE7
330
18
100
AcDbEntity
  8
01
100
AcDbCircle
 10
2500.916562075404
 20
-634.6106137552474
 30
0.0
 40
1.006634556911848
100
AcDbArc
 50
21.26850517991904
 51
37.81682041126567
  0
ARC
  5
1ABE8
330
18
100
AcDbEntity
  8
01
100
AcDbCircle
 10
2500.922491072271
 20
-634.6067872772635
 30
0.0
 40
0.999604822112772
100
AcDbArc
 50
37.8519266369226
 51
91.15595933299288
  0
ARC
  5
1ABE9
330
18
100
AcDbEntity
  8
01
100
AcDbCircle
 10
2364.656764034934
 20
-658.2860275167327
 30
0.0
 40
0.799999669293957
100
AcDbArc
 50
180.0000245799556
 51
270.0250322811478
  0
LINE
  5
1ABEA
330
18
100
AcDbEntity
  8
01
100
AcDbLine
 10
2390.0574903401
 20
-659.0862026623063
 30
0.0
 11
2390.116703160208
 21
-659.0839704423302
 31
0.0
  0
SPLINE
  5
1ABEB
330
18
100
AcDbEntity
  8
01
100
AcDbSpline
210
0.0
220
0.0
230
1.0
 70
     8
 71
     3
 72
    11
 73
     7
 74
     0
 42
0.0000000001
 43
0.0000000001
 40
0.0
 40
0.0
 40
0.0
 40
0.0
 40
21.43372384846992
 40
42.74812160428417
 40
64.00497958002913
 40
71.06070238869576
 40
71.06070238869576
 40
71.06070238869576
 40
71.06070238869576
 10
2500.884395305826
 20
-633.6077429853251
 30
0.0
 10
2493.741372504809
 20
-633.7566446642227
 30
0.0
 10
2479.49549204874
 20
-634.0726847495248
 30
0.0
 10
2458.166426935695
 20
-634.5757377328762
 30
0.0
 10
2441.629198206091
 20
-634.9865720793618
 30
0.0
 10
2432.194766028478
 20
-635.2282488621222
 30
0.0
 10
2429.84363938161
 20
-635.2888534163765
 30
0.0
  0
SPLINE
  5
1ABEC
330
18
100
AcDbEntity
  8
01
100
AcDbSpline
210
0.0
220
0.0
230
1.0
 70
     8
 71
     3
 72
    32
 73
    28
 74
     0
 42
0.0000000001
 43
0.0000000001
 40
0.0
 40
0.0
 40
0.0
 40
0.0
 40
0.3599301998348471
 40
0.7204576955008581
 40
1.078388999306343
 40
1.203188941373293
 40
1.256497440238248
 40
1.349899079695673
 40
1.501470349278231
 40
1.719093506751409
 40
2.008946379622365
 40
2.377953257068766
 40
2.833372290666866
 40
4.02961040316922
 40
5.628859930107992
 40
7.61937959175037
 40
9.930476612769016
 40
12.47953325127824
 40
15.18599668370276
 40
17.98461738332648
 40
20.83771850465741
 40
26.62046581402179
 40
32.43257263878778
 40
38.23851433232301
 40
44.02870797848659
 40
55.55219103227755
 40
66.45873402473153
 40
66.45873402473153
 40
66.45873402473153
 40
66.45873402473153
 10
2363.856748599298
 20
-637.886170287901
 30
0.0
 10
2363.856748636528
 20
-637.7661935546228
 30
0.0
 10
2363.91336022863
 20
-637.5226570798366
 30
0.0
 10
2364.146679960942
 20
-637.234248389936
 30
0.0
 10
2364.41138754173
 20
-637.1100806682607
 30
0.0
 10
2364.589178137907
 20
-637.0882591808463
 30
0.0
 10
2364.679610585779
 20
-637.0845210757691
 30
0.0
 10
2364.778971026782
 20
-637.0809330225945
 30
0.0
 10
2364.933082736187
 20
-637.0757215319179
 30
0.0
 10
2365.152638125218
 20
-637.068266055451
 30
0.0
 10
2365.444638230754
 20
-637.0585654400322
 30
0.0
 10
2365.815862071753
 20
-637.0463070733551
 30
0.0
 10
2366.489057194198
 20
-637.0243002521343
 30
0.0
 10
2367.572133091362
 20
-636.9894758389808
 30
0.0
 10
2369.166676725676
 20
-636.939204362365
 30
0.0
 10
2371.132699395237
 20
-636.8786316333735
 30
0.0
 10
2373.415220668177
 20
-636.8098307453615
 30
0.0
 10
2375.936333715092
 20
-636.7355912774806
 30
0.0
 10
2378.619930218491
 20
-636.6581469769437
 30
0.0
 10
2381.404875574461
 20
-636.579279654884
 30
0.0
 10
2385.214882242548
 20
-636.4729611786329
 30
0.0
 10
2390.02906088663
 20
-636.3410558502951
 30
0.0
 10
2395.827216651829
 20
-636.18463380252
 30
0.0
 10
2401.627892163355
 20
-636.0295810133434
 30
0.0
 10
2409.331715996447
 20
-635.8250102708157
 30
0.0
 10
2418.735187987398
 20
-635.5770746756289
 30
0.0
 10
2426.209332881495
 20
-635.3825589499595
 30
0.0
 10
2429.843639381609
 20
-635.2888534163765
 30
0.0
  0
SPLINE
  5
1ABED
330
18
100
AcDbEntity
  8
01
100
AcDbSpline
210
0.0
220
0.0
230
1.0
 70
  1064
 71
     3
 72
    29
 73
    25
 74
    23
 42
0.000000001
 43
0.0000000001
 44
0.000001
 12
-0.9957295571504321
 22
-0.09231819439852766
 32
0.0
 13
-0.9999999961407903
 23
-8.785453656356257E-5
 33
0.0
 40
0.0
 40
0.0
 40
0.0
 40
0.0
 40
18.72223237932955
 40
28.08380125047977
 40
37.44489731842073
 40
46.8045065589921
 40
56.157036497619
 40
65.49105784394362
 40
74.7753600986996
 40
83.93695746269857
 40
88.42253561022918
 40
92.79315031724524
 40
96.98478944101419
 40
100.8929762880916
 40
104.3856126466119
 40
107.309736113392
 40
108.5186045585991
 40
109.5470291062996
 40
110.3943897133712
 40
111.0646313142806
 40
111.5675614950663
 40
111.9161223033962
 40
112.123916147474
 40
112.3643818635918
 40
112.3643818635918
 40
112.3643818635918
 40
112.3643818635918
 10
2500.994356897431
 20
-641.6716888558835
 30
0.0
 10
2494.780263512119
 20
-642.24782308534
 30
0.0
 10
2485.468548237066
 20
-643.2199774253552
 30
0.0
 10
2473.077477610454
 20
-644.722107271959
 30
0.0
 10
2463.797201387574
 20
-645.9484236345725
 30
0.0
 10
2454.533086574651
 20
-647.2699651619791
 30
0.0
 10
2445.291528553457
 20
-648.6824066490465
 30
0.0
 10
2436.08883703118
 20
-650.1800683141327
 30
0.0
 10
2426.963566388587
 20
-651.754570957504
 30
0.0
 10
2419.443600574497
 20
-653.1257563564895
 30
0.0
 10
2413.543065601884
 20
-654.2460754532722
 30
0.0
 10
2409.274069280473
 20
-655.0779660187387
 30
0.0
 10
2405.19793290666
 20
-655.8930379627914
 30
0.0
 10
2401.412362037217
 20
-656.66844250832
 30
0.0
 10
2398.043908999306
 20
-657.3745161563509
 30
0.0
 10
2395.558193948866
 20
-657.9059263298694
 30
0.0
 10
2393.876766196503
 20
-658.270368547441
 30
0.0
 10
2392.872174736338
 20
-658.4895508097054
 30
0.0
 10
2392.043257232317
 20
-658.6715340699523
 30
0.0
 10
2391.385416503917
 20
-658.8161771523221
 30
0.0
 10
2390.890324104364
 20
-658.9260495053597
 30
0.0
 10
2390.544911032959
 20
-659.0004390158385
 30
0.0
 10
2390.286460370329
 20
-659.0594352448602
 30
0.0
 10
2390.138050697319
 20
-659.0862036709196
 30
0.0
 10
2390.057895458923
 20
-659.086210712921
 30
0.0
 11
2500.994356897431
 21
-641.6716888558835
 31
0.0
 11
2482.373007282451
 21
-643.6126484117483
 31
0.0
 11
2473.079415255038
 21
-644.7387562871002
 31
0.0
 11
2463.798906614726
 21
-645.9644311885347
 31
0.0
 11
2454.533024178538
 21
-647.2856835529312
 31
0.0
 11
2445.287781209106
 21
-648.6982339718302
 31
0.0
 11
2436.074938546253
 21
-650.1973952578155
 31
0.0
 11
2426.925840925072
 21
-651.7760912625527
 31
0.0
 11
2417.912940554493
 21
-653.420017407781
 31
0.0
 11
2413.506105942406
 21
-654.2568089108995
 31
0.0
 11
2409.216218292059
 21
-655.092952956493
 31
0.0
 11
2405.105953520754
 21
-655.914878776691
 31
0.0
 11
2401.277302652829
 21
-656.6993256920789
 31
0.0
 11
2397.858958744136
 21
-657.4158685405794
 31
0.0
 11
2394.999488180773
 21
-658.0273635476833
 31
0.0
 11
2393.81804495914
 21
-658.2834003239388
 31
0.0
 11
2392.81326377312
 21
-658.5026531849023
 31
0.0
 11
2391.985589626572
 21
-658.684244769215
 31
0.0
 11
2391.331031600105
 21
-658.828389108965
 31
0.0
 11
2390.839882358454
 21
-658.9366073374954
 31
0.0
 11
2390.49938700865
 21
-659.0111562987495
 31
0.0
 11
2390.296409507873
 21
-659.0556355632391
 31
0.0
 11
2390.057895458923
 21
-659.086210712921
 31
0.0
  0
SPLINE
  5
1ABEE
330
18
100
AcDbEntity
  8
01
100
AcDbSpline
210
0.0
220
0.0
230
1.0
 70
     8
 71
     3
 72
    44
 73
    40
 74
     0
 42
0.0000000001
 43
0.0000000001
 40
0.0
 40
0.0
 40
0.0
 40
0.0
 40
27.07959778501141
 40
27.07959778501141
 40
54.60840902937863
 40
54.60840902937863
 40
82.13722027374585
 40
82.13722027374585
 40
109.6660315181131
 40
109.6660315181131
 40
112.1754562362065
 40
112.1754562362065
 40
117.1943056723934
 40
117.1943056723934
 40
127.2320045447672
 40
127.2320045447672
 40
133.9474354635729
 40
133.9474354635729
 40
134.5784087099583
 40
134.5784087099583
 40
135.8403552027291
 40
135.8403552027291
 40
137.719205311297
 40
137.719205311297
 40
137.8907550435536
 40
137.8907550435536
 40
138.2338545080668
 40
138.2338545080668
 40
138.3136935812727
 40
138.3136935812727
 40
138.3988995637888
 40
138.3988995637888
 40
138.4402043869496
 40
138.4402043869496
 40
138.4737052737331
 40
138.4737052737331
 40
138.4994240015327
 40
138.4994240015327
 40
138.5115311008119
 40
138.5115311008119
 40
138.5115311008119
 40
138.5115311008119
 10
2500.88387810528
 20
-634.0326299417961
 30
0.0
 10
2491.933037199311
 20
-635.2288744801735
 30
0.0
 10
2482.996629527121
 20
-636.5293463739242
 30
0.0
 10
2465.000197187072
 20
-639.2998168923425
 30
0.0
 10
2455.940116302126
 20
-640.7713116485445
 30
0.0
 10
2437.839787881439
 20
-643.830715233257
 30
0.0
 10
2428.799456032588
 20
-645.4199512064833
 30
0.0
 10
2410.746172577983
 20
-648.7530703529535
 30
0.0
 10
2401.733613191897
 20
-650.4988606865456
 30
0.0
 10
2391.921872387149
 20
-652.516041526191
 30
0.0
 10
2391.102360655941
 20
-652.6854221611052
 30
0.0
 10
2388.644365058466
 20
-653.1962400762782
 30
0.0
 10
2387.006422841796
 20
-653.5403499774247
 30
0.0
 10
2382.094923672803
 20
-654.5839163402152
 30
0.0
 10
2378.823564223774
 20
-655.2938649766927
 30
0.0
 10
2373.370051692717
 20
-656.512087077007
 30
0.0
 10
2371.18598857678
 20
-657.0089929558767
 30
0.0
 10
2368.799193119515
 20
-657.5674927892358
 30
0.0
 10
2368.594214530076
 20
-657.6155942620574
 30
0.0
 10
2367.979349025005
 20
-657.760335479114
 30
0.0
 10
2367.56951255254
 20
-657.8574074776118
 30
0.0
 10
2366.549730570154
 20
-658.1009195496767
 30
0.0
 10
2365.940131125411
 20
-658.248048136232
 30
0.0
 10
2365.274370522121
 20
-658.4124004726682
 30
0.0
 10
2365.218641188246
 20
-658.4261917985659
 30
0.0
 10
2365.051382178582
 20
-658.4677235492152
 30
0.0
 10
2364.940153864544
 20
-658.4954969613998
 30
0.0
 10
2364.801803923323
 20
-658.5304978499221
 30
0.0
 10
2364.775605522463
 20
-658.537152800249
 30
0.0
 10
2364.721290848528
 20
-658.5510384271781
 30
0.0
 10
2364.69337639046
 20
-658.5582369225788
 30
0.0
 10
2364.652437931082
 20
-658.56879372927
 30
0.0
 10
2364.638105531772
 20
-658.5724877582823
 30
0.0
 10
2364.610477646462
 20
-658.5797933705501
 30
0.0
 10
2364.598268833425
 20
-658.5831168777502
 30
0.0
 10
2364.583537353501
 20
-658.5870316775986
 30
0.0
 10
2364.582398461451
 20
-658.5872083019206
 30
0.0
 10
2364.558156066812
 20
-658.5935984028822
 30
0.0
 10
2364.54771026408
 20
-658.5964217778617
 30
0.0
 10
2364.534505816564
 20
-658.6004902754105
 30
0.0
  0
LINE
  5
1ABEF
330
18
100
AcDbEntity
  8
01
  6
CONTINUOUS
100
AcDbLine
 10
2256.108357799677
 20
-637.0862029471375
 30
0.0
 11
2236.375024470317
 21
-637.0862046722807
 31
0.0
  0
LINE
  5
1ABF0
330
18
100
AcDbEntity
  8
01
  6
CONTINUOUS
100
AcDbLine
 10
2236.37502639362
 20
-659.0862046722807
 30
0.0
 11
2256.108359722978
 21
-659.0862029471375
 31
0.0
  0
SPLINE
  5
1ABF1
330
18
100
AcDbEntity
  8
01
  6
CONTINUOUS
100
AcDbSpline
210
0.0
220
0.0
230
1.0
 70
  1064
 71
     3
 72
    10
 73
     6
 74
     4
 42
0.000000001
 43
0.0000000001
 44
0.000001
 12
-0.9994601531828483
 22
-0.03285425694970674
 32
0.0
 13
-0.999999986028043
 23
-0.0001671643320593494
 33
0.0
 40
0.0
 40
0.0
 40
0.0
 40
0.0
 40
5.014443398443527
 40
11.01006145479278
 40
17.34126459784179
 40
17.34126459784179
 40
17.34126459784179
 40
17.34126459784179
 10
2273.714441661601
 20
-636.8893595659122
 30
0.0
 10
2272.043862872556
 20
-636.9442748365362
 30
0.0
 10
2268.374418627388
 20
-637.0206045966851
 30
0.0
 10
2262.594233142848
 20
-637.0756965321826
 30
0.0
 10
2258.485269806012
 20
-637.0858242587459
 30
0.0
 10
2256.374868787815
 20
-637.0861770425274
 30
0.0
 11
2273.714441661601
 21
-636.8893595659122
 31
0.0
 11
2268.701337000727
 21
-637.0052239298768
 31
0.0
 11
2262.706045103011
 21
-637.0677608087074
 31
0.0
 11
2256.374868787815
 21
-637.0861770425274
 31
0.0
  0
LINE
  5
1ABF2
330
18
100
AcDbEntity
  8
01
  6
CONTINUOUS
100
AcDbLine
 10
2275.726686020086
 20
-636.8104008953526
 30
0.0
 11
2273.714441661601
 21
-636.8893595659122
 31
0.0
  0
SPLINE
  5
1ABF3
330
18
100
AcDbEntity
  8
01
  6
CONTINUOUS
100
AcDbSpline
210
0.0
220
0.0
230
1.0
 70
  1064
 71
     3
 72
    36
 73
    32
 74
    30
 42
0.000000001
 43
0.0000000001
 44
0.000001
 12
0.9938069772178694
 22
-0.1111201693351909
 32
0.0
 13
-0.9989015518246972
 23
-0.04685818778198592
 33
0.0
 40
0.0
 40
0.0
 40
0.0
 40
0.0
 40
2.42922784662992
 40
3.919355453223645
 40
5.550941175542857
 40
7.284555291724734
 40
9.071456982233972
 40
10.85917755497593
 40
11.73489586882123
 40
12.58682580795989
 40
13.40493229759228
 40
14.17691436774292
 40
14.88865081251399
 40
15.5225472362669
 40
15.80398645204095
 40
16.05801996152319
 40
16.28041886650327
 40
16.46689274434949
 40
16.61375640551638
 40
16.71870486785198
 40
16.78579178781782
 40
16.85368029962045
 40
16.90643972053334
 40
16.9766056514621
 40
17.1786149263348
 40
17.47849300648922
 40
17.89430820030068
 40
18.44687969626548
 40
19.15861543069466
 40
20.05339997840785
 40
21.15333389268996
 40
21.15333389268996
 40
21.15333389268996
 40
21.15333389268996
 10
2263.395221378224
 20
-634.3981620311754
 30
0.0
 10
2264.199949239302
 20
-634.4881407677325
 30
0.0
 10
2265.503287835241
 20
-634.5857798229076
 30
0.0
 10
2267.349364705838
 20
-634.7089103744868
 30
0.0
 10
2268.96427954407
 20
-634.816263584348
 30
0.0
 10
2270.677037731731
 20
-634.9421367034652
 30
0.0
 10
2272.440475926104
 20
-635.0878190583653
 30
0.0
 10
2273.91737456692
 20
-635.2275309654718
 30
0.0
 10
2275.082775162974
 20
-635.3498128991532
 30
0.0
 10
2275.92602604135
 20
-635.444900727379
 30
0.0
 10
2276.734049672521
 20
-635.5435178499034
 30
0.0
 10
2277.494573491882
 20
-635.6452602580355
 30
0.0
 10
2278.192734897311
 20
-635.7494992990619
 30
0.0
 10
2278.727386087949
 20
-635.8410803577707
 30
0.0
 10
2279.109667507232
 20
-635.9173993971983
 30
0.0
 10
2279.356209253952
 20
-635.9725171664163
 30
0.0
 10
2279.570187777485
 20
-636.0282601663624
 30
0.0
 10
2279.746943873027
 20
-636.0830977520327
 30
0.0
 10
2279.882645724746
 20
-636.1403978716119
 30
0.0
 10
2279.973940595612
 20
-636.1909779370126
 30
0.0
 10
2280.02750429833
 20
-636.2657552364019
 30
0.0
 10
2279.985658221422
 20
-636.326517989536
 30
0.0
 10
2279.932584022079
 20
-636.3593927661866
 30
0.0
 10
2279.833683423028
 20
-636.4056081481488
 30
0.0
 10
2279.649898982555
 20
-636.457775502253
 30
0.0
 10
2279.349787166195
 20
-636.5178878283417
 30
0.0
 10
2278.931196455625
 20
-636.5781301450202
 30
0.0
 10
2278.374403308495
 20
-636.638925355972
 30
0.0
 10
2277.657185801317
 20
-636.6993139235981
 30
0.0
 10
2276.756959736259
 20
-636.7587321055686
 30
0.0
 10
2276.092927918046
 20
-636.7932205920515
 30
0.0
 10
2275.726686020086
 20
-636.8104008953526
 30
0.0
 11
2263.395221378224
 21
-634.3981620311754
 31
0.0
 11
2265.815621155151
 21
-634.6050637240608
 31
0.0
 11
2267.302345175265
 21
-634.7057212742059
 31
0.0
 11
2268.930210367039
 21
-634.8158433594965
 31
0.0
 11
2270.659124911986
 21
-634.943406713852
 31
0.0
 11
2272.439893937252
 21
-635.091323520662
 31
0.0
 11
2274.219617320422
 21
-635.2602308672833
 31
0.0
 11
2275.090537300044
 21
-635.3517790088183
 31
0.0
 11
2275.937074960842
 21
-635.4474809352726
 31
0.0
 11
2276.749107916268
 21
-635.54698631209
 31
0.0
 11
2277.514194696901
 21
-635.6499402050088
 31
0.0
 11
2278.217986644571
 21
-635.7559885037329
 31
0.0
 11
2278.84246390411
 21
-635.8648601464704
 31
0.0
 11
2279.118390384654
 21
-635.9202914843338
 31
0.0
 11
2279.366159931837
 21
-635.9763565417045
 31
0.0
 11
2279.581212618758
 21
-636.0330453851477
 31
0.0
 11
2279.758662957202
 21
-636.0903506345442
 31
0.0
 11
2279.893625458957
 21
-636.1482649097782
 31
0.0
 11
2279.980745382928
 21
-636.2067824505223
 31
0.0
 11
2280.012449704603
 21
-636.2659051536359
 31
0.0
 11
2279.980176481246
 21
-636.3256319624345
 31
0.0
 11
2279.936832747947
 21
-636.3557131496493
 31
0.0
 11
2279.87350796901
 21
-636.3859328571782
 31
0.0
 11
2279.680874625347
 21
-636.4467616638251
 31
0.0
 11
2279.387322453586
 21
-636.508031450968
 31
0.0
 11
2278.97609275462
 21
-636.569614007921
 31
0.0
 11
2278.426961937939
 21
-636.6311819007462
 31
0.0
 11
2277.717855001993
 21
-636.6922974476404
 31
0.0
 11
2276.825088317043
 21
-636.7523560358843
 31
0.0
 11
2275.726686020086
 21
-636.8104008953526
 31
0.0
  0
LINE
  5
1ABF4
330
18
100
AcDbEntity
  8
01
100
AcDbLine
 10
2263.36305929391
 20
-637.0623846548335
 30
0.0
 11
2263.395221378224
 21
-634.3981620311754
 31
0.0
  0
LINE
  5
1ABF5
330
18
100
AcDbEntity
  8
01
100
AcDbLine
 10
2284.545430185428
 20
-633.7265538729109
 30
0.0
 11
2264.193817221902
 21
-633.6073802351377
 31
0.0
  0
ARC
  5
1ABF6
330
18
100
AcDbEntity
  8
01
100
AcDbCircle
 10
2284.549476730489
 20
-634.5179203622733
 30
0.0
 40
0.7913768350239725
100
AcDbArc
 50
27.35913675197856
 51
90.29297163333435
  0
ARC
  5
1ABF7
330
18
100
AcDbEntity
  8
01
100
AcDbCircle
 10
2264.194846579158
 20
-634.4074199594738
 30
0.0
 40
0.7996787925197018
100
AcDbArc
 50
89.9935702585521
 51
179.3366685809378
  0
LINE
  5
1ABF8
330
18
100
AcDbEntity
  8
01
  6
CONTINUOUS
100
AcDbLine
 10
2236.375024470317
 20
-637.0862046722807
 30
0.0
 11
2236.37502639362
 21
-659.0862046722807
 31
0.0
  0
LINE
  5
1ABF9
330
18
100
AcDbEntity
  8
01
  6
CONTINUOUS
100
AcDbLine
 10
2276.550921755515
 20
-636.7681958329852
 30
0.0
 11
2277.530619140522
 21
-636.7032920517479
 31
0.0
  0
SPLINE
  5
1ABFA
330
18
100
AcDbEntity
  8
01
  6
CONTINUOUS
100
AcDbSpline
210
0.0
220
0.0
230
1.0
 70
  1064
 71
     3
 72
    27
 73
    23
 74
    21
 42
0.000000001
 43
0.0000000001
 44
0.000001
 12
0.9999996557190713
 22
0.0008297962031457257
 32
0.0
 13
-0.4579738290174825
 23
0.8889656753413293
 33
0.0
 40
0.0
 40
0.0
 40
0.0
 40
0.0
 40
5.873293633215288
 40
11.36353689117744
 40
16.53955106604971
 40
21.14173461159522
 40
24.98310568734634
 40
28.06655579448034
 40
30.51817324520313
 40
32.50336731390501
 40
34.16067337673968
 40
35.59775548316256
 40
36.88559666201813
 40
38.07491547901009
 40
40.27457243626415
 40
41.32578564536498
 40
42.35657039433246
 40
44.37506806133698
 40
46.34835779444145
 40
50.10698163516924
 40
51.84875827563179
 40
53.46914539902231
 40
53.46914539902231
 40
53.46914539902231
 40
53.46914539902231
 10
2256.108359722978
 20
-659.0862029471375
 30
0.0
 10
2258.066123593362
 20
-659.0845784015519
 30
0.0
 10
2261.85433835292
 20
-659.0327235768457
 30
0.0
 10
2267.362029486306
 20
-658.755086178143
 30
0.0
 10
2272.429956105867
 20
-658.2619454376318
 30
0.0
 10
2276.916615613303
 20
-657.5436597199764
 30
0.0
 10
2280.653621680221
 20
-656.6283958437662
 30
0.0
 10
2283.605528022943
 20
-655.5803818272171
 30
0.0
 10
2285.847622468655
 20
-654.4418998948231
 30
0.0
 10
2287.510497838219
 20
-653.2598526958159
 30
0.0
 10
2288.7063755125
 20
-652.0483762070381
 30
0.0
 10
2289.530702166821
 20
-650.8323092315757
 30
0.0
 10
2290.05316852211
 20
-649.628846158796
 30
0.0
 10
2290.420999729346
 20
-648.1074375911805
 30
0.0
 10
2290.439999927977
 20
-646.6078970714008
 30
0.0
 10
2290.226075214195
 20
-645.196079881088
 30
0.0
 10
2289.914469077959
 20
-643.8637414726805
 30
0.0
 10
2289.369178279956
 20
-642.2770307163657
 30
0.0
 10
2288.333721476121
 20
-639.9085004954673
 30
0.0
 10
2287.163326427168
 20
-637.7070185305413
 30
0.0
 10
2286.027989281032
 20
-635.6229262649232
 30
0.0
 10
2285.499697789863
 20
-634.6343862134959
 30
0.0
 10
2285.252332824733
 20
-634.1542300356762
 30
0.0
 11
2256.108359722978
 21
-659.0862029471375
 31
0.0
 11
2261.980927460364
 21
-658.9938719939712
 31
0.0
 11
2267.463617377975
 21
-658.7059762857473
 31
0.0
 11
2272.613589176075
 21
-658.1874063047064
 31
0.0
 11
2277.154125175652
 21
-657.4366549603612
 31
0.0
 11
2280.879361691127
 21
-656.4992406187323
 31
0.0
 11
2283.775789665269
 21
-655.4417103611224
 31
0.0
 11
2285.952443683185
 21
-654.3136120105157
 31
0.0
 11
2287.559462717066
 21
-653.1480710810295
 31
0.0
 11
2288.716219242967
 21
-651.9612358002289
 31
0.0
 11
2289.517373620196
 21
-650.768190601659
 31
0.0
 11
2290.02961066917
 21
-649.5866034203602
 31
0.0
 11
2290.310496987163
 21
-648.4309294818443
 31
0.0
 11
2290.364182800081
 21
-646.2319276774417
 31
0.0
 11
2290.211240106939
 21
-645.1918998833673
 31
0.0
 11
2289.978177650925
 21
-644.187808677789
 31
0.0
 11
2289.338721263742
 21
-642.2732777817293
 31
0.0
 11
2288.556617663666
 21
-640.4615972123358
 31
0.0
 11
2286.840196438136
 21
-637.1177742736002
 31
0.0
 11
2286.01072160361
 21
-635.586187686655
 31
0.0
 11
2285.252332824733
 21
-634.1542300356762
 31
0.0
  0
LINE
  5
1ABFF
330
18
100
AcDbEntity
  8
01
100
AcDbLine
 10
2402.35676202511
 20
-656.4762584721013
 30
0.0
 11
2402.35676202511
 21
-711.5862045542601
 31
0.0
  0
LINE
  5
1AC00
330
18
100
AcDbEntity
  8
1CENTER
100
AcDbLine
 10
2361.273087261167
 20
-343.5862125885426
 30
0.0
 11
2369.406759623015
 21
-343.5862045552924
 31
0.0
  0
LINE
  5
1AC01
330
18
100
AcDbEntity
  8
01
100
AcDbLine
 10
2501.92255836564
 20
-321.1337320332971
 30
0.0
 11
2501.922558368059
 21
-301.1241273430712
 31
0.0
  0
SPLINE
  5
1AC02
330
18
100
AcDbEntity
  8
01
100
AcDbSpline
210
0.0
220
0.0
230
1.0
 70
     8
 71
     3
 72
     9
 73
     5
 74
     0
 42
0.0000000001
 43
0.0000000001
 40
0.0
 40
0.0
 40
0.0
 40
0.0
 40
4.181585763194067
 40
4.906987455372584
 40
4.906987455372584
 40
4.906987455372584
 40
4.906987455372584
 10
2390.85676436564
 20
-338.0862045552897
 30
0.0
 10
2390.864747776562
 20
-336.4301162320705
 30
0.0
 10
2390.941553049974
 20
-334.7929029349209
 30
0.0
 10
2391.138348500215
 20
-333.167669823694
 30
0.0
 10
2391.170311445576
 20
-332.9277911911133
 30
0.0
  0
LINE
  5
1AC03
330
18
100
AcDbEntity
  8
01
100
AcDbLine
 10
2363.856764365641
 20
-349.0862045552897
 30
0.0
 11
2366.366990100317
 21
-349.0862045552897
 31
0.0
  0
LINE
  5
1AC04
330
18
100
AcDbEntity
  8
01
100
AcDbLine
 10
2390.85676436564
 20
-338.0862045552897
 30
0.0
 11
2390.856764365641
 21
-349.0862045552897
 31
0.0
  0
LINE
  5
1AC05
330
18
100
AcDbEntity
  8
01
100
AcDbLine
 10
2363.85676436564
 20
-329.0862045552897
 30
0.0
 11
2363.856764365641
 21
-349.0862045552897
 31
0.0
  0
ARC
  5
1AC06
330
18
100
AcDbEntity
  8
01
100
AcDbCircle
 10
2500.921012920133
 20
-321.1354004616712
 30
0.0
 40
1.00154683518478
100
AcDbArc
 50
269.2048736671269
 51
0.0954463087637711
  0
LINE
  5
1AC07
330
18
100
AcDbEntity
  8
01
100
AcDbLine
 10
2500.876060932605
 20
-322.1359105413269
 30
0.0
 11
2500.907114327461
 21
-322.1368508559447
 31
0.0
  0
ARC
  5
1AC08
330
18
100
AcDbEntity
  8
01
100
AcDbCircle
 10
2500.921484529331
 20
-301.1232773826866
 30
0.0
 40
1.001074199556652
100
AcDbArc
 50
359.9513531078289
 51
86.19617612219248
  0
LINE
  5
1AC09
330
18
100
AcDbEntity
  8
01
100
AcDbLine
 10
2500.902325116854
 20
-321.2674114995768
 30
0.0
 11
2500.884787305059
 21
-321.2662924022718
 31
0.0
  0
SPLINE
  5
1AC0A
330
18
100
AcDbEntity
  8
01
100
AcDbSpline
210
0.0
220
0.0
230
1.0
 70
  1064
 71
     3
 72
    10
 73
     6
 74
     4
 42
0.000000001
 43
0.0000000001
 44
0.000001
 12
0.9831784645781124
 22
-0.1826474932481291
 32
0.0
 13
0.993718563209008
 23
-0.1119080744800171
 33
0.0
 40
0.0
 40
0.0
 40
0.0
 40
0.0
 40
12.64947198872543
 40
25.29664324953094
 40
37.93871298170414
 40
37.93871298170414
 40
37.93871298170414
 40
37.93871298170414
 10
2463.394444724468
 20
-315.4987554950869
 30
0.0
 10
2467.540007540334
 20
-316.2688869449713
 30
0.0
 10
2475.841392970309
 20
-317.7512851126469
 30
0.0
 10
2488.335361455969
 20
-319.7149303451325
 30
0.0
 10
2496.697234181644
 20
-320.7947091752152
 30
0.0
 10
2500.884787305059
 20
-321.2662924022718
 30
0.0
 11
2463.394444724468
 21
-315.4987554950869
 31
0.0
 11
2475.849473532716
 21
-317.7081414206007
 31
0.0
 11
2488.345450661476
 21
-319.6578844271023
 31
0.0
 11
2500.884787305059
 21
-321.2662924022718
 31
0.0
  0
ARC
  5
1AC0B
330
18
100
AcDbEntity
  8
01
100
AcDbCircle
 10
2793.260682927215
 20
1444.309845178516
 30
0.0
 40
1790.457496315067
100
AcDbArc
 50
258.7765821234387
 51
259.3834231226387
  0
SPLINE
  5
1AC0C
330
18
100
AcDbEntity
  8
01
100
AcDbSpline
210
0.0
220
0.0
230
1.0
 70
  1064
 71
     3
 72
    25
 73
    21
 74
    19
 42
0.000000001
 43
0.0000000001
 44
0.000001
 12
-0.000871073338289442
 22
0.9999996206155477
 32
0.0
 13
0.9812495806433168
 23
-0.1927414342774154
 33
0.0
 40
0.0
 40
0.0
 40
0.0
 40
0.0
 40
3.441413671685528
 40
6.890117821913623
 40
10.34824228437137
 40
13.81586316647407
 40
17.29116998569668
 40
20.76838829436296
 40
24.24299418042819
 40
27.70617175107052
 40
31.15824156417337
 40
34.60459654871372
 40
41.47191728334248
 40
48.32507241181077
 40
55.16974723390382
 40
62.00886926276685
 40
68.84307992267418
 40
75.67437120356215
 40
82.50297694377403
 40
96.1580389775308
 40
96.1580389775308
 40
96.1580389775308
 40
96.1580389775308
 10
2363.85676436564
 20
-329.0862045552897
 30
0.0
 10
2363.855765124408
 20
-327.9390670999341
 30
0.0
 10
2363.943312426542
 20
-325.640887524854
 30
0.0
 10
2364.398400636899
 20
-322.2153216487931
 30
0.0
 10
2365.267518355311
 20
-318.8571007711319
 30
0.0
 10
2366.643236580056
 20
-315.656759779609
 30
0.0
 10
2368.587560984452
 20
-312.7516188954972
 30
0.0
 10
2371.07516137625
 20
-310.2910301312144
 30
0.0
 10
2373.976830117989
 20
-308.3515700743301
 30
0.0
 10
2377.141027902513
 20
-306.9141775421955
 30
0.0
 10
2380.44948827324
 20
-305.8973085334494
 30
0.0
 10
2384.954300287123
 20
-304.9951922115388
 30
0.0
 10
2390.673409341079
 20
-304.5195550921832
 30
0.0
 10
2397.533146702525
 20
-304.6041460403296
 30
0.0
 10
2404.362903367542
 20
-305.1158666144141
 30
0.0
 10
2411.156012149594
 20
-305.9210799065876
 30
0.0
 10
2417.917383883328
 20
-306.9254363294882
 30
0.0
 10
2424.65278244113
 20
-308.0683447630651
 30
0.0
 10
2433.608161464649
 20
-309.7130550288898
 30
0.0
 10
2440.308163331276
 20
-311.0290812715847
 30
0.0
 10
2444.77450462937
 20
-311.9063800187625
 30
0.0
 11
2363.85676436564
 21
-329.0862045552897
 31
0.0
 11
2363.996971028091
 21
-325.647647201032
 31
0.0
 11
2364.466517424595
 21
-322.2310572803474
 31
0.0
 11
2365.350454075706
 21
-318.8878131863528
 31
0.0
 11
2366.736306018553
 21
-315.7091642042085
 31
0.0
 11
2368.677497925507
 21
-312.8265383253854
 31
0.0
 11
2371.145415879905
 21
-310.3769610719194
 31
0.0
 11
2374.025158246683
 21
-308.4327464265559
 31
0.0
 11
2377.169998763527
 21
-306.9823748861643
 31
0.0
 11
2380.465043407624
 21
-305.953070601003
 31
0.0
 11
2383.84159253925
 21
-305.2629408463492
 31
0.0
 11
2390.679547178112
 21
-304.628534279447
 31
0.0
 11
2397.53254135864
 21
-304.6755104244291
 31
0.0
 11
2404.359687028235
 21
-305.1650570604841
 31
0.0
 11
2411.153083735336
 21
-305.9545832536739
 31
0.0
 11
2417.914594275052
 21
-306.9487717464315
 31
0.0
 11
2424.650952537161
 21
-308.0836805770898
 31
0.0
 11
2431.368322004379
 21
-309.3111999764899
 31
0.0
 11
2444.77450462937
 21
-311.9063800187625
 31
0.0
  0
ARC
  5
1AC0D
330
18
100
AcDbEntity
  8
01
100
AcDbCircle
 10
2501.827229399306
 20
-321.0501206671759
 30
0.0
 40
0.0979236131362861
100
AcDbArc
 50
286.2525914478319
 51
346.7810586098622
  0
LINE
  5
1AC0E
330
18
100
AcDbEntity
  8
01
100
AcDbLine
 10
2501.711778256057
 20
-321.1927991820146
 30
0.0
 11
2501.85463551947
 21
-321.1441309782488
 31
0.0
  0
ARC
  5
1AC0F
330
18
100
AcDbEntity
  8
01
100
AcDbCircle
 10
2500.94763261231
 20
-317.3308443693788
 30
0.0
 40
3.936827852433767
100
AcDbArc
 50
269.3405895113413
 51
281.1922620564953
  0
SPLINE
  5
1AC10
330
18
100
AcDbEntity
  8
01
100
AcDbSpline
210
0.0
220
0.0
230
1.0
 70
  1064
 71
     3
 72
    26
 73
    22
 74
    20
 42
0.000000001
 43
0.0000000001
 44
0.000001
 12
-0.9979199097763058
 22
0.06446591093011672
 32
0.0
 13
-0.02284695825456342
 23
-0.9997389741820183
 33
0.0
 40
0.0
 40
0.0
 40
0.0
 40
0.0
 40
22.25672874204004
 40
33.34877084862563
 40
44.42939984479647
 40
55.49867241274671
 40
66.55665876077595
 40
77.60087402967451
 40
88.6301824589255
 40
94.13893639426064
 40
99.64443915907196
 40
105.1453874461796
 40
110.6428094101675
 40
116.1400221877812
 40
121.6412419545424
 40
127.1451797682249
 40
132.664687764528
 40
138.2073494278443
 40
143.7750347604447
 40
149.3632114036928
 40
154.9621545292764
 40
154.9621545292764
 40
154.9621545292764
 40
154.9621545292764
 10
2500.987896285041
 20
-300.1244085065462
 30
0.0
 10
2493.58441870565
 20
-299.6461417423195
 30
0.0
 10
2482.498072825679
 20
-298.8260694049948
 30
0.0
 10
2467.733340174651
 20
-297.6725427813336
 30
0.0
 10
2456.685084123284
 20
-296.8252475901153
 30
0.0
 10
2445.642435598391
 20
-296.0560664271309
 30
0.0
 10
2434.602870916076
 20
-295.4223120321022
 30
0.0
 10
2423.564857055021
 20
-295.0339203581607
 30
0.0
 10
2414.36697690937
 20
-295.0282032699901
 30
0.0
 10
2407.024728302267
 20
-295.3456261761166
 30
0.0
 10
2401.535525998464
 20
-295.7834987299941
 30
0.0
 10
2396.076025451986
 20
-296.4808371834483
 30
0.0
 10
2390.670036361833
 20
-297.5099180483809
 30
0.0
 10
2385.362348528419
 20
-298.9746732530796
 30
0.0
 10
2380.230690293488
 20
-300.9948907973251
 30
0.0
 10
2375.431181802329
 20
-303.7467063742845
 30
0.0
 10
2371.187499556311
 20
-307.3395014621452
 30
0.0
 10
2367.812700538592
 20
-311.7977195984828
 30
0.0
 10
2365.500006069346
 20
-316.9067186404063
 30
0.0
 10
2364.211685239496
 20
-322.3687011495155
 30
0.0
 10
2363.911059301749
 20
-326.0978954435962
 30
0.0
 10
2363.868419695129
 20
-327.9637226625543
 30
0.0
 11
2500.987896285041
 21
-300.1244085065462
 31
0.0
 11
2478.788269808035
 21
-298.5311364361194
 31
0.0
 11
2467.729326754871
 21
-297.6748791747084
 31
0.0
 11
2456.6803573358
 21
-296.8378525501255
 31
0.0
 11
2445.637176988426
 21
-296.0782718592866
 31
0.0
 11
2434.596326877804
 21
-295.462893346895
 31
0.0
 11
2423.558161747843
 21
-295.0973782903422
 31
0.0
 11
2412.528915804385
 21
-295.1345013432372
 31
0.0
 11
2407.025592554748
 21
-295.3790480123632
 31
0.0
 11
2401.538340866799
 21
-295.8269649158462
 31
0.0
 11
2396.083327892991
 21
-296.5363769720977
 31
0.0
 11
2390.686363901385
 21
-297.5825260478121
 31
0.0
 11
2385.393296334454
 21
-299.0667039484567
 31
0.0
 11
2380.287964419084
 21
-301.1158513260332
 31
0.0
 11
2375.529905264612
 21
-303.8824746453931
 31
0.0
 11
2371.340026645742
 21
-307.4755075922014
 31
0.0
 11
2367.995959424472
 21
-311.8957239672584
 31
0.0
 11
2365.674026095359
 21
-316.9561335972387
 31
0.0
 11
2364.352139344798
 21
-322.3857131064258
 31
0.0
 11
2363.868419695129
 21
-327.9637226625543
 31
0.0
  0
SPLINE
  5
1AC11
330
18
100
AcDbEntity
  8
01
100
AcDbSpline
210
0.0
220
0.0
230
1.0
 70
     8
 71
     3
 72
    27
 73
    23
 74
     0
 42
0.0000000001
 43
0.0000000001
 40
0.0
 40
0.0
 40
0.0
 40
0.0
 40
16.91059537614233
 40
25.36612715702854
 40
33.82144120212359
 40
42.27681849485995
 40
50.73232732391983
 40
59.18788171366092
 40
67.64342079382851
 40
76.09822210144672
 40
80.32547480342753
 40
84.55239661131972
 40
88.77906906159228
 40
93.00316601689825
 40
97.22721965277279
 40
101.4453053855404
 40
103.5555681067257
 40
105.6622199082372
 40
107.771868988524
 40
109.8818614491521
 40
114.0963887206748
 40
118.2484923739838
 40
118.2484923739838
 40
118.2484923739838
 40
118.2484923739838
 10
2500.875953921871
 20
-322.1359371483293
 30
0.0
 10
2495.245203088676
 20
-321.8734614423863
 30
0.0
 10
2486.803283563726
 20
-321.3809295540102
 30
0.0
 10
2475.560073083005
 20
-320.5492100247914
 30
0.0
 10
2467.134227594614
 20
-319.8413483042816
 30
0.0
 10
2458.713320548422
 20
-319.0780641130866
 30
0.0
 10
2450.294836361162
 20
-318.2881480679728
 30
0.0
 10
2441.874719510395
 20
-317.51414946007
 30
0.0
 10
2433.44588530635
 20
-316.8424826870703
 30
0.0
 10
2426.409233189304
 20
-316.4526804598493
 30
0.0
 10
2420.773490589831
 20
-316.3316236991152
 30
0.0
 10
2416.545948999326
 20
-316.3780879405201
 30
0.0
 10
2412.323981772304
 20
-316.6012507588682
 30
0.0
 10
2408.124713820701
 20
-317.0999885779941
 30
0.0
 10
2403.983759597799
 20
-317.9612623536411
 30
0.0
 10
2400.659591438291
 20
-319.1745127718584
 30
0.0
 10
2398.197246701681
 20
-320.544215187808
 30
0.0
 10
2396.495138348923
 20
-321.8009204849884
 30
0.0
 10
2394.996153095788
 20
-323.2959019018624
 30
0.0
 10
2393.32569957515
 20
-325.5702670349017
 30
0.0
 10
2391.910053853793
 20
-328.8090733163647
 30
0.0
 10
2391.349878486049
 20
-331.555338731994
 30
0.0
 10
2391.170311445577
 20
-332.9277911911138
 30
0.0
  0
LINE
  5
1AC12
330
18
100
AcDbEntity
  8
01
100
AcDbLine
 10
2062.356994704599
 20
-534.5862045542601
 30
0.0
 11
2062.356994704599
 21
-711.5862045542601
 31
0.0
  0
ARC
  5
1AC13
330
18
100
AcDbEntity
  8
01
100
AcDbCircle
 10
2061.856994704599
 20
-711.5862045542601
 30
0.0
 40
0.5
100
AcDbArc
 50
270.0
 51
0.0
  0
LINE
  5
1AC14
330
18
100
AcDbEntity
  8
01
100
AcDbLine
 10
2012.356994704599
 20
-534.5862045542601
 30
0.0
 11
2012.356994704599
 21
-636.010339895415
 31
0.0
  0
ARC
  5
1AC15
330
18
100
AcDbEntity
  8
01
100
AcDbCircle
 10
2012.856994704599
 20
-534.5862045542601
 30
0.0
 40
0.5
100
AcDbArc
 50
90.0
 51
180.0
  0
LINE
  5
1AC16
330
18
100
AcDbEntity
  8
01
100
AcDbLine
 10
2012.856994704599
 20
-712.0862045542601
 30
0.0
 11
2061.856994704599
 21
-712.0862045542601
 31
0.0
  0
ARC
  5
1AC17
330
18
100
AcDbEntity
  8
01
100
AcDbCircle
 10
2012.856994704599
 20
-711.5862045542601
 30
0.0
 40
0.5
100
AcDbArc
 50
180.0
 51
270.0
  0
LINE
  5
1AC18
330
18
100
AcDbEntity
  8
01
100
AcDbLine
 10
2061.856994704599
 20
-534.0862045542601
 30
0.0
 11
2012.856994704599
 21
-534.0862045542601
 31
0.0
  0
ARC
  5
1AC19
330
18
100
AcDbEntity
  8
01
100
AcDbCircle
 10
2061.856994704599
 20
-534.5862045542601
 30
0.0
 40
0.5
100
AcDbArc
 50
0.0
 51
90.0
  0
LINE
  5
1AC1A
330
18
100
AcDbEntity
  8
01
100
AcDbLine
 10
1912.791198364069
 20
-637.6947247876599
 30
0.0
 11
1912.791198364068
 21
-634.6083190555257
 31
0.0
  0
LINE
  5
1AC1B
330
18
100
AcDbEntity
  8
01
100
AcDbLine
 10
1912.791198642866
 20
-640.6727911843384
 30
0.0
 11
1912.791198364069
 21
-637.6947247876599
 31
0.0
  0
LINE
  5
1AC1C
330
18
100
AcDbEntity
  8
01
100
AcDbLine
 10
1913.698870418362
 20
-641.669765918012
 30
0.0
 11
1913.719343406633
 21
-641.6716669923753
 31
0.0
  0
LINE
  5
1AC1D
330
18
100
AcDbEntity
  8
01
100
AcDbLine
 10
2050.056992352148
 20
-659.086202292206
 30
0.0
 11
2024.656266389609
 21
-659.0862026623063
 31
0.0
  0
LINE
  5
1AC1E
330
18
100
AcDbEntity
  8
01
100
AcDbLine
 10
2024.597661788382
 20
-659.0758329543669
 30
0.0
 11
2024.656266389609
 21
-659.0862026623063
 31
0.0
  0
ARC
  5
1AC1F
330
18
100
AcDbEntity
  8
01
100
AcDbCircle
 10
1913.792165297094
 20
-640.6731564449021
 30
0.0
 40
1.000966720870227
100
AcDbArc
 50
179.9790923226987
 51
264.6519974436488
  0
LINE
  5
1AC20
330
18
100
AcDbEntity
  8
01
100
AcDbLine
 10
2050.856992364069
 20
-658.2860278599333
 30
0.0
 11
2050.856992364069
 21
-637.8861763944165
 31
0.0
  0
LINE
  5
1AC21
330
18
100
AcDbEntity
  8
01
100
AcDbLine
 10
1913.811431612855
 20
-633.607385889115
 30
0.0
 11
1913.82896942465
 21
-633.6077468252493
 31
0.0
  0
ARC
  5
1AC22
330
18
100
AcDbEntity
  8
01
100
AcDbCircle
 10
1913.797596633824
 20
-634.6089261168768
 30
0.0
 40
1.006398452845485
100
AcDbArc
 50
158.8293321314492
 51
179.9654390809809
  0
ARC
  5
1AC23
330
18
100
AcDbEntity
  8
01
100
AcDbCircle
 10
1913.797194654305
 20
-634.6106137552474
 30
0.0
 40
1.006634556911848
100
AcDbArc
 50
142.1831795887343
 51
158.731494820081
  0
ARC
  5
1AC24
330
18
100
AcDbEntity
  8
01
100
AcDbCircle
 10
1913.791265657437
 20
-634.6067872772635
 30
0.0
 40
0.999604822112772
100
AcDbArc
 50
88.8440406670071
 51
142.1480733630774
  0
ARC
  5
1AC25
330
18
100
AcDbEntity
  8
01
100
AcDbCircle
 10
2050.056992694775
 20
-658.2860275167327
 30
0.0
 40
0.799999669293957
100
AcDbArc
 50
269.9749677188522
 51
359.9999754200444
  0
LINE
  5
1AC26
330
18
100
AcDbEntity
  8
01
100
AcDbLine
 10
2024.656266389609
 20
-659.0862026623063
 30
0.0
 11
2024.597053569501
 21
-659.0839704423302
 31
0.0
  0
SPLINE
  5
1AC27
330
18
100
AcDbEntity
  8
01
100
AcDbSpline
210
0.0
220
0.0
230
1.0
 70
     8
 71
     3
 72
    11
 73
     7
 74
     0
 42
0.0000000001
 43
0.0000000001
 40
0.0
 40
0.0
 40
0.0
 40
0.0
 40
21.43372384846992
 40
42.74812160428417
 40
64.00497958002913
 40
71.06070238869576
 40
71.06070238869576
 40
71.06070238869576
 40
71.06070238869576
 10
1913.829361423883
 20
-633.6077429853251
 30
0.0
 10
1920.9723842249
 20
-633.7566446642227
 30
0.0
 10
1935.218264680969
 20
-634.0726847495248
 30
0.0
 10
1956.547329794014
 20
-634.5757377328762
 30
0.0
 10
1973.084558523618
 20
-634.9865720793618
 30
0.0
 10
1982.518990701231
 20
-635.2282488621222
 30
0.0
 10
1984.870117348099
 20
-635.2888534163765
 30
0.0
  0
SPLINE
  5
1AC28
330
18
100
AcDbEntity
  8
01
100
AcDbSpline
210
0.0
220
0.0
230
1.0
 70
     8
 71
     3
 72
    32
 73
    28
 74
     0
 42
0.0000000001
 43
0.0000000001
 40
0.0
 40
0.0
 40
0.0
 40
0.0
 40
0.3599301998348471
 40
0.7204576955008581
 40
1.078388999306343
 40
1.203188941373293
 40
1.256497440238248
 40
1.349899079695673
 40
1.501470349278231
 40
1.719093506751409
 40
2.008946379622365
 40
2.377953257068766
 40
2.833372290666866
 40
4.02961040316922
 40
5.628859930107992
 40
7.61937959175037
 40
9.930476612769016
 40
12.47953325127824
 40
15.18599668370276
 40
17.98461738332648
 40
20.83771850465741
 40
26.62046581402179
 40
32.43257263878778
 40
38.23851433232301
 40
44.02870797848659
 40
55.55219103227755
 40
66.45873402473153
 40
66.45873402473153
 40
66.45873402473153
 40
66.45873402473153
 10
2050.857008130411
 20
-637.886170287901
 30
0.0
 10
2050.85700809318
 20
-637.7661935546228
 30
0.0
 10
2050.800396501078
 20
-637.5226570798366
 30
0.0
 10
2050.567076768766
 20
-637.234248389936
 30
0.0
 10
2050.302369187979
 20
-637.1100806682607
 30
0.0
 10
2050.124578591802
 20
-637.0882591808463
 30
0.0
 10
2050.034146143929
 20
-637.0845210757691
 30
0.0
 10
2049.934785702927
 20
-637.0809330225945
 30
0.0
 10
2049.780673993521
 20
-637.0757215319179
 30
0.0
 10
2049.561118604491
 20
-637.068266055451
 30
0.0
 10
2049.269118498954
 20
-637.0585654400322
 30
0.0
 10
2048.897894657955
 20
-637.0463070733551
 30
0.0
 10
2048.224699535511
 20
-637.0243002521343
 30
0.0
 10
2047.141623638347
 20
-636.9894758389808
 30
0.0
 10
2045.547080004033
 20
-636.939204362365
 30
0.0
 10
2043.581057334472
 20
-636.8786316333735
 30
0.0
 10
2041.298536061531
 20
-636.8098307453615
 30
0.0
 10
2038.777423014617
 20
-636.7355912774806
 30
0.0
 10
2036.093826511217
 20
-636.6581469769437
 30
0.0
 10
2033.308881155248
 20
-636.579279654884
 30
0.0
 10
2029.498874487161
 20
-636.4729611786329
 30
0.0
 10
2024.684695843079
 20
-636.3410558502951
 30
0.0
 10
2018.88654007788
 20
-636.18463380252
 30
0.0
 10
2013.085864566354
 20
-636.0295810133434
 30
0.0
 10
2005.382040733262
 20
-635.8250102708157
 30
0.0
 10
1995.978568742311
 20
-635.5770746756289
 30
0.0
 10
1988.504423848213
 20
-635.3825589499595
 30
0.0
 10
1984.8701173481
 20
-635.2888534163765
 30
0.0
  0
SPLINE
  5
1AC29
330
18
100
AcDbEntity
  8
01
100
AcDbSpline
210
0.0
220
0.0
230
1.0
 70
  1064
 71
     3
 72
    29
 73
    25
 74
    23
 42
0.000000001
 43
0.0000000001
 44
0.000001
 12
0.9957295571504321
 22
-0.09231819439852766
 32
0.0
 13
0.9999999961407903
 23
-8.785453656356257E-5
 33
0.0
 40
0.0
 40
0.0
 40
0.0
 40
0.0
 40
18.72223237932955
 40
28.08380125047977
 40
37.44489731842073
 40
46.80450655899232
 40
56.157036497619
 40
65.49105784394362
 40
74.77536009869938
 40
83.93695746269881
 40
88.42253561022942
 40
92.79315031724504
 40
96.98478944101399
 40
100.8929762880916
 40
104.385612646612
 40
107.3097361133918
 40
108.5186045585993
 40
109.5470291062994
 40
110.394389713371
 40
111.0646313142807
 40
111.5675614950663
 40
111.9161223033962
 40
112.1239161474738
 40
112.3643818635919
 40
112.3643818635919
 40
112.3643818635919
 40
112.3643818635919
 10
1913.719399832278
 20
-641.6716888558835
 30
0.0
 10
1919.93349321759
 20
-642.24782308534
 30
0.0
 10
1929.245208492643
 20
-643.2199774253552
 30
0.0
 10
1941.636279119255
 20
-644.722107271959
 30
0.0
 10
1950.916555342135
 20
-645.9484236345724
 30
0.0
 10
1960.180670155058
 20
-647.2699651619791
 30
0.0
 10
1969.422228176252
 20
-648.6824066490465
 30
0.0
 10
1978.624919698529
 20
-650.1800683141328
 30
0.0
 10
1987.750190341122
 20
-651.7545709575038
 30
0.0
 10
1995.270156155213
 20
-653.1257563564899
 30
0.0
 10
2001.170691127824
 20
-654.2460754532717
 30
0.0
 10
2005.439687449236
 20
-655.077966018739
 30
0.0
 10
2009.515823823048
 20
-655.8930379627915
 30
0.0
 10
2013.301394692493
 20
-656.6684425083197
 30
0.0
 10
2016.669847730402
 20
-657.3745161563509
 30
0.0
 10
2019.155562780845
 20
-657.9059263298695
 30
0.0
 10
2020.836990533206
 20
-658.270368547441
 30
0.0
 10
2021.841581993371
 20
-658.4895508097056
 30
0.0
 10
2022.670499497392
 20
-658.6715340699523
 30
0.0
 10
2023.328340225791
 20
-658.816177152322
 30
0.0
 10
2023.823432625344
 20
-658.9260495053599
 30
0.0
 10
2024.168845696751
 20
-659.0004390158385
 30
0.0
 10
2024.427296359379
 20
-659.0594352448601
 30
0.0
 10
2024.575706032389
 20
-659.0862036709196
 30
0.0
 10
2024.655861270786
 20
-659.086210712921
 30
0.0
 11
1913.719399832278
 21
-641.6716888558835
 31
0.0
 11
1932.340749447258
 21
-643.6126484117483
 31
0.0
 11
1941.634341474671
 21
-644.7387562871002
 31
0.0
 11
1950.914850114983
 21
-645.9644311885347
 31
0.0
 11
1960.180732551171
 21
-647.2856835529312
 31
0.0
 11
1969.425975520603
 21
-648.6982339718302
 31
0.0
 11
1978.638818183456
 21
-650.1973952578155
 31
0.0
 11
1987.787915804636
 21
-651.7760912625527
 31
0.0
 11
1996.800816175216
 21
-653.420017407781
 31
0.0
 11
2001.207650787303
 21
-654.2568089108995
 31
0.0
 11
2005.49753843765
 21
-655.092952956493
 31
0.0
 11
2009.607803208955
 21
-655.914878776691
 31
0.0
 11
2013.436454076879
 21
-656.6993256920789
 31
0.0
 11
2016.854797985573
 21
-657.4158685405794
 31
0.0
 11
2019.714268548935
 21
-658.0273635476833
 31
0.0
 11
2020.895711770569
 21
-658.2834003239388
 31
0.0
 11
2021.900492956589
 21
-658.5026531849023
 31
0.0
 11
2022.728167103137
 21
-658.684244769215
 31
0.0
 11
2023.382725129604
 21
-658.828389108965
 31
0.0
 11
2023.873874371255
 21
-658.9366073374954
 31
0.0
 11
2024.214369721059
 21
-659.0111562987495
 31
0.0
 11
2024.417347221836
 21
-659.0556355632391
 31
0.0
 11
2024.655861270786
 21
-659.086210712921
 31
0.0
  0
SPLINE
  5
1AC2A
330
18
100
AcDbEntity
  8
01
100
AcDbSpline
210
0.0
220
0.0
230
1.0
 70
     8
 71
     3
 72
    44
 73
    40
 74
     0
 42
0.0000000001
 43
0.0000000001
 40
0.0
 40
0.0
 40
0.0
 40
0.0
 40
27.07959778501141
 40
27.07959778501141
 40
54.60840902937863
 40
54.60840902937863
 40
82.13722027374585
 40
82.13722027374585
 40
109.6660315181131
 40
109.6660315181131
 40
112.1754562362065
 40
112.1754562362065
 40
117.1943056723934
 40
117.1943056723934
 40
127.2320045447672
 40
127.2320045447672
 40
133.9474354635729
 40
133.9474354635729
 40
134.5784087099583
 40
134.5784087099583
 40
135.8403552027291
 40
135.8403552027291
 40
137.719205311297
 40
137.719205311297
 40
137.8907550435536
 40
137.8907550435536
 40
138.2338545080668
 40
138.2338545080668
 40
138.3136935812727
 40
138.3136935812727
 40
138.3988995637888
 40
138.3988995637888
 40
138.4402043869496
 40
138.4402043869496
 40
138.4737052737331
 40
138.4737052737331
 40
138.4994240015327
 40
138.4994240015327
 40
138.5115311008119
 40
138.5115311008119
 40
138.5115311008119
 40
138.5115311008119
 10
1913.829878624429
 20
-634.0326299417961
 30
0.0
 10
1922.780719530398
 20
-635.2288744801735
 30
0.0
 10
1931.717127202588
 20
-636.5293463739242
 30
0.0
 10
1949.713559542637
 20
-639.2998168923425
 30
0.0
 10
1958.773640427583
 20
-640.7713116485445
 30
0.0
 10
1976.873968848269
 20
-643.830715233257
 30
0.0
 10
1985.914300697121
 20
-645.4199512064833
 30
0.0
 10
2003.967584151726
 20
-648.7530703529535
 30
0.0
 10
2012.980143537812
 20
-650.4988606865456
 30
0.0
 10
2022.79188434256
 20
-652.516041526191
 30
0.0
 10
2023.611396073768
 20
-652.6854221611052
 30
0.0
 10
2026.069391671243
 20
-653.1962400762782
 30
0.0
 10
2027.707333887913
 20
-653.5403499774247
 30
0.0
 10
2032.618833056906
 20
-654.5839163402152
 30
0.0
 10
2035.890192505935
 20
-655.2938649766927
 30
0.0
 10
2041.343705036992
 20
-656.512087077007
 30
0.0
 10
2043.527768152929
 20
-657.0089929558767
 30
0.0
 10
2045.914563610194
 20
-657.5674927892358
 30
0.0
 10
2046.119542199633
 20
-657.6155942620574
 30
0.0
 10
2046.734407704704
 20
-657.760335479114
 30
0.0
 10
2047.144244177169
 20
-657.8574074776118
 30
0.0
 10
2048.164026159555
 20
-658.1009195496767
 30
0.0
 10
2048.773625604298
 20
-658.248048136232
 30
0.0
 10
2049.439386207588
 20
-658.4124004726682
 30
0.0
 10
2049.495115541463
 20
-658.4261917985659
 30
0.0
 10
2049.662374551127
 20
-658.4677235492152
 30
0.0
 10
2049.773602865164
 20
-658.4954969613998
 30
0.0
 10
2049.911952806386
 20
-658.5304978499221
 30
0.0
 10
2049.938151207246
 20
-658.537152800249
 30
0.0
 10
2049.992465881181
 20
-658.5510384271781
 30
0.0
 10
2050.020380339249
 20
-658.5582369225788
 30
0.0
 10
2050.061318798626
 20
-658.56879372927
 30
0.0
 10
2050.075651197937
 20
-658.5724877582823
 30
0.0
 10
2050.103279083247
 20
-658.5797933705501
 30
0.0
 10
2050.115487896283
 20
-658.5831168777502
 30
0.0
 10
2050.130219376208
 20
-658.5870316775986
 30
0.0
 10
2050.131358268258
 20
-658.5872083019206
 30
0.0
 10
2050.155600662896
 20
-658.5935984028822
 30
0.0
 10
2050.166046465629
 20
-658.5964217778617
 30
0.0
 10
2050.179250913145
 20
-658.6004902754105
 30
0.0
  0
LINE
  5
1AC2B
330
18
100
AcDbEntity
  8
01
  6
CONTINUOUS
100
AcDbLine
 10
2158.605398930032
 20
-637.0862029471375
 30
0.0
 11
2178.338732259392
 21
-637.0862046722807
 31
0.0
  0
LINE
  5
1AC2C
330
18
100
AcDbEntity
  8
01
  6
CONTINUOUS
100
AcDbLine
 10
2178.338730336089
 20
-659.0862046722807
 30
0.0
 11
2158.605397006731
 21
-659.0862029471375
 31
0.0
  0
SPLINE
  5
1AC2D
330
18
100
AcDbEntity
  8
01
  6
CONTINUOUS
100
AcDbSpline
210
0.0
220
0.0
230
1.0
 70
  1064
 71
     3
 72
    10
 73
     6
 74
     4
 42
0.000000001
 43
0.0000000001
 44
0.000001
 12
0.9994601531828483
 22
-0.03285425694970674
 32
0.0
 13
0.999999986028043
 23
-0.0001671643320593494
 33
0.0
 40
0.0
 40
0.0
 40
0.0
 40
0.0
 40
5.014443398443527
 40
11.01006145479278
 40
17.34126459784179
 40
17.34126459784179
 40
17.34126459784179
 40
17.34126459784179
 10
2140.999315068108
 20
-636.8893595659122
 30
0.0
 10
2142.669893857153
 20
-636.9442748365362
 30
0.0
 10
2146.339338102321
 20
-637.0206045966851
 30
0.0
 10
2152.11952358686
 20
-637.0756965321826
 30
0.0
 10
2156.228486923697
 20
-637.0858242587459
 30
0.0
 10
2158.338887941894
 20
-637.0861770425274
 30
0.0
 11
2140.999315068108
 21
-636.8893595659122
 31
0.0
 11
2146.012419728982
 21
-637.0052239298768
 31
0.0
 11
2152.007711626698
 21
-637.0677608087074
 31
0.0
 11
2158.338887941894
 21
-637.0861770425274
 31
0.0
  0
LINE
  5
1AC2E
330
18
100
AcDbEntity
  8
01
  6
CONTINUOUS
100
AcDbLine
 10
2138.987070709622
 20
-636.8104008953526
 30
0.0
 11
2140.999315068108
 21
-636.8893595659122
 31
0.0
  0
SPLINE
  5
1AC2F
330
18
100
AcDbEntity
  8
01
  6
CONTINUOUS
100
AcDbSpline
210
0.0
220
0.0
230
1.0
 70
  1064
 71
     3
 72
    36
 73
    32
 74
    30
 42
0.000000001
 43
0.0000000001
 44
0.000001
 12
-0.9938069772178694
 22
-0.1111201693351909
 32
0.0
 13
0.9989015518246972
 23
-0.04685818778198592
 33
0.0
 40
0.0
 40
0.0
 40
0.0
 40
0.0
 40
2.42922784662992
 40
3.919355453223645
 40
5.550941175542857
 40
7.284555291724734
 40
9.071456982233972
 40
10.85917755497593
 40
11.73489586882123
 40
12.58682580795989
 40
13.40493229759228
 40
14.17691436774292
 40
14.88865081251399
 40
15.5225472362669
 40
15.80398645204095
 40
16.05801996152319
 40
16.28041886650327
 40
16.46689274434949
 40
16.61375640551638
 40
16.71870486785198
 40
16.78579178781782
 40
16.85368029962045
 40
16.90643972053334
 40
16.9766056514621
 40
17.1786149263348
 40
17.47849300648922
 40
17.89430820030068
 40
18.44687969626548
 40
19.15861543069466
 40
20.05339997840785
 40
21.15333389268996
 40
21.15333389268996
 40
21.15333389268996
 40
21.15333389268996
 10
2151.318535351485
 20
-634.3981620311754
 30
0.0
 10
2150.513807490407
 20
-634.4881407677325
 30
0.0
 10
2149.210468894467
 20
-634.5857798229076
 30
0.0
 10
2147.364392023871
 20
-634.7089103744868
 30
0.0
 10
2145.749477185639
 20
-634.816263584348
 30
0.0
 10
2144.036718997978
 20
-634.9421367034652
 30
0.0
 10
2142.273280803606
 20
-635.0878190583653
 30
0.0
 10
2140.796382162788
 20
-635.2275309654718
 30
0.0
 10
2139.630981566734
 20
-635.3498128991532
 30
0.0
 10
2138.787730688361
 20
-635.444900727379
 30
0.0
 10
2137.979707057186
 20
-635.5435178499034
 30
0.0
 10
2137.219183237828
 20
-635.6452602580355
 30
0.0
 10
2136.521021832397
 20
-635.7494992990619
 30
0.0
 10
2135.986370641759
 20
-635.8410803577707
 30
0.0
 10
2135.604089222477
 20
-635.9173993971983
 30
0.0
 10
2135.357547475758
 20
-635.9725171664163
 30
0.0
 10
2135.143568952224
 20
-636.0282601663624
 30
0.0
 10
2134.966812856683
 20
-636.0830977520327
 30
0.0
 10
2134.831111004962
 20
-636.1403978716119
 30
0.0
 10
2134.739816134099
 20
-636.1909779370126
 30
0.0
 10
2134.686252431377
 20
-636.2657552364019
 30
0.0
 10
2134.728098508287
 20
-636.326517989536
 30
0.0
 10
2134.78117270763
 20
-636.3593927661866
 30
0.0
 10
2134.880073306681
 20
-636.4056081481488
 30
0.0
 10
2135.063857747154
 20
-636.457775502253
 30
0.0
 10
2135.363969563514
 20
-636.5178878283417
 30
0.0
 10
2135.782560274083
 20
-636.5781301450202
 30
0.0
 10
2136.339353421214
 20
-636.638925355972
 30
0.0
 10
2137.056570928391
 20
-636.6993139235981
 30
0.0
 10
2137.95679699345
 20
-636.7587321055686
 30
0.0
 10
2138.620828811662
 20
-636.7932205920515
 30
0.0
 10
2138.987070709622
 20
-636.8104008953526
 30
0.0
 11
2151.318535351485
 21
-634.3981620311754
 31
0.0
 11
2148.898135574557
 21
-634.6050637240608
 31
0.0
 11
2147.411411554443
 21
-634.7057212742059
 31
0.0
 11
2145.78354636267
 21
-634.8158433594965
 31
0.0
 11
2144.054631817723
 21
-634.943406713852
 31
0.0
 11
2142.273862792456
 21
-635.091323520662
 31
0.0
 11
2140.494139409287
 21
-635.2602308672833
 31
0.0
 11
2139.623219429664
 21
-635.3517790088183
 31
0.0
 11
2138.776681768867
 21
-635.4474809352726
 31
0.0
 11
2137.96464881344
 21
-635.54698631209
 31
0.0
 11
2137.199562032808
 21
-635.6499402050088
 31
0.0
 11
2136.495770085137
 21
-635.7559885037329
 31
0.0
 11
2135.871292825599
 21
-635.8648601464704
 31
0.0
 11
2135.595366345055
 21
-635.9202914843338
 31
0.0
 11
2135.347596797872
 21
-635.9763565417045
 31
0.0
 11
2135.13254411095
 21
-636.0330453851477
 31
0.0
 11
2134.955093772506
 21
-636.0903506345442
 31
0.0
 11
2134.820131270752
 21
-636.1482649097782
 31
0.0
 11
2134.733011346781
 21
-636.2067824505223
 31
0.0
 11
2134.701307025106
 21
-636.2659051536359
 31
0.0
 11
2134.733580248463
 21
-636.3256319624345
 31
0.0
 11
2134.776923981762
 21
-636.3557131496493
 31
0.0
 11
2134.840248760699
 21
-636.3859328571782
 31
0.0
 11
2135.032882104361
 21
-636.4467616638251
 31
0.0
 11
2135.326434276122
 21
-636.508031450968
 31
0.0
 11
2135.737663975088
 21
-636.569614007921
 31
0.0
 11
2136.286794791769
 21
-636.6311819007462
 31
0.0
 11
2136.995901727715
 21
-636.6922974476404
 31
0.0
 11
2137.888668412666
 21
-636.7523560358843
 31
0.0
 11
2138.987070709622
 21
-636.8104008953526
 31
0.0
  0
LINE
  5
1AC30
330
18
100
AcDbEntity
  8
01
100
AcDbLine
 10
2151.350697435799
 20
-637.0623846548335
 30
0.0
 11
2151.318535351485
 21
-634.3981620311754
 31
0.0
  0
LINE
  5
1AC31
330
18
100
AcDbEntity
  8
01
100
AcDbLine
 10
2130.168326544281
 20
-633.7265538729109
 30
0.0
 11
2150.519939507806
 21
-633.6073802351377
 31
0.0
  0
ARC
  5
1AC32
330
18
100
AcDbEntity
  8
01
100
AcDbCircle
 10
2130.16427999922
 20
-634.5179203622733
 30
0.0
 40
0.7913768350239725
100
AcDbArc
 50
89.70702836666567
 51
152.6408632480063
  0
ARC
  5
1AC33
330
18
100
AcDbEntity
  8
01
100
AcDbCircle
 10
2150.51891015055
 20
-634.4074199594738
 30
0.0
 40
0.7996787925197018
100
AcDbArc
 50
0.6633314190618084
 51
90.0064297414479
  0
LINE
  5
1AC34
330
18
100
AcDbEntity
  8
01
  6
CONTINUOUS
100
AcDbLine
 10
2178.338732259392
 20
-637.0862046722807
 30
0.0
 11
2178.338730336089
 21
-659.0862046722807
 31
0.0
  0
LINE
  5
1AC35
330
18
100
AcDbEntity
  8
01
  6
CONTINUOUS
100
AcDbLine
 10
2138.162834974194
 20
-636.7681958329852
 30
0.0
 11
2137.183137589187
 21
-636.7032920517479
 31
0.0
  0
SPLINE
  5
1AC36
330
18
100
AcDbEntity
  8
01
  6
CONTINUOUS
100
AcDbSpline
210
0.0
220
0.0
230
1.0
 70
  1064
 71
     3
 72
    27
 73
    23
 74
    21
 42
0.000000001
 43
0.0000000001
 44
0.000001
 12
-0.9999996557190713
 22
0.0008297962031457257
 32
0.0
 13
0.4579738290174825
 23
0.8889656753413293
 33
0.0
 40
0.0
 40
0.0
 40
0.0
 40
0.0
 40
5.873293633215288
 40
11.36353689117744
 40
16.53955106604971
 40
21.14173461159522
 40
24.98310568734634
 40
28.06655579448034
 40
30.51817324520313
 40
32.50336731390501
 40
34.16067337673968
 40
35.59775548316256
 40
36.88559666201813
 40
38.07491547901009
 40
40.27457243626415
 40
41.32578564536498
 40
42.35657039433246
 40
44.37506806133698
 40
46.34835779444145
 40
50.10698163516924
 40
51.84875827563179
 40
53.46914539902231
 40
53.46914539902231
 40
53.46914539902231
 40
53.46914539902231
 10
2158.605397006731
 20
-659.0862029471375
 30
0.0
 10
2156.647633136346
 20
-659.0845784015519
 30
0.0
 10
2152.85941837679
 20
-659.0327235768457
 30
0.0
 10
2147.351727243403
 20
-658.755086178143
 30
0.0
 10
2142.283800623841
 20
-658.2619454376318
 30
0.0
 10
2137.797141116406
 20
-657.5436597199764
 30
0.0
 10
2134.060135049489
 20
-656.6283958437662
 30
0.0
 10
2131.108228706765
 20
-655.5803818272171
 30
0.0
 10
2128.866134261054
 20
-654.4418998948231
 30
0.0
 10
2127.203258891489
 20
-653.2598526958159
 30
0.0
 10
2126.00738121721
 20
-652.0483762070381
 30
0.0
 10
2125.183054562886
 20
-650.8323092315757
 30
0.0
 10
2124.660588207598
 20
-649.628846158796
 30
0.0
 10
2124.292757000363
 20
-648.1074375911805
 30
0.0
 10
2124.273756801732
 20
-646.6078970714008
 30
0.0
 10
2124.487681515514
 20
-645.196079881088
 30
0.0
 10
2124.799287651749
 20
-643.8637414726805
 30
0.0
 10
2125.344578449754
 20
-642.2770307163657
 30
0.0
 10
2126.380035253587
 20
-639.9085004954673
 30
0.0
 10
2127.55043030254
 20
-637.7070185305413
 30
0.0
 10
2128.685767448676
 20
-635.6229262649232
 30
0.0
 10
2129.214058939846
 20
-634.6343862134959
 30
0.0
 10
2129.461423904976
 20
-634.1542300356762
 30
0.0
 11
2158.605397006731
 21
-659.0862029471375
 31
0.0
 11
2152.732829269345
 21
-658.9938719939712
 31
0.0
 11
2147.250139351733
 21
-658.7059762857473
 31
0.0
 11
2142.100167553634
 21
-658.1874063047064
 31
0.0
 11
2137.559631554057
 21
-657.4366549603612
 31
0.0
 11
2133.834395038582
 21
-656.4992406187323
 31
0.0
 11
2130.937967064439
 21
-655.4417103611224
 31
0.0
 11
2128.761313046523
 21
-654.3136120105157
 31
0.0
 11
2127.154294012643
 21
-653.1480710810295
 31
0.0
 11
2125.997537486742
 21
-651.9612358002289
 31
0.0
 11
2125.196383109513
 21
-650.768190601659
 31
0.0
 11
2124.684146060538
 21
-649.5866034203602
 31
0.0
 11
2124.403259742546
 21
-648.4309294818443
 31
0.0
 11
2124.349573929628
 21
-646.2319276774417
 31
0.0
 11
2124.50251662277
 21
-645.1918998833673
 31
0.0
 11
2124.735579078783
 21
-644.187808677789
 31
0.0
 11
2125.375035465967
 21
-642.2732777817293
 31
0.0
 11
2126.157139066043
 21
-640.4615972123358
 31
0.0
 11
2127.873560291572
 21
-637.1177742736002
 31
0.0
 11
2128.703035126098
 21
-635.586187686655
 31
0.0
 11
2129.461423904976
 21
-634.1542300356762
 31
0.0
  0
LINE
  5
1AC37
330
18
100
AcDbEntity
  8
01
100
AcDbLine
 10
2012.356994704599
 20
-656.4762584721013
 30
0.0
 11
2012.356994704599
 21
-711.5862045542601
 31
0.0
  0
TEXT
  5
1AC38
330
18
100
AcDbEntity
  8
1TEXT
100
AcDbText
 10
2022.356894364854
 20
-363.0862045542606
 30
0.0
 40
20.0
  1
3-AZK-X-LJ
100
AcDbText
  0
LINE
  5
1AC39
330
18
100
AcDbEntity
  8
1DIM
100
AcDbLine
 10
2022.356894364854
 20
-424.5862045542606
 30
0.0
 11
2127.356894364854
 21
-424.5862045542606
 31
0.0
  0
TEXT
  5
1AC3A
330
18
100
AcDbEntity
  8
1TEXT
100
AcDbText
 10
2024.256894364854
 20
-432.5525749716169
 30
0.0
 40
6.0
  1
パールブラック
 72
     1
 11
2048.456894364854
 21
-432.5525749716169
 31
0.0
100
AcDbText
  0
TEXT
  5
1AC3B
330
18
100
AcDbEntity
  8
1TEXT
100
AcDbText
 10
2034.556894364854
 20
-401.3362045542606
 30
0.0
 40
6.0
  1
表面処理
 72
     1
 11
2048.456894364854
 21
-401.3362045542606
 31
0.0
100
AcDbText
  0
TEXT
  5
1AC3C
330
18
100
AcDbEntity
  8
1TEXT
100
AcDbText
 10
2034.256894364854
 20
-411.5891375435474
 30
0.0
 40
6.0
  1
クローム
 72
     1
 11
2048.456894364854
 21
-411.5891375435474
 31
0.0
100
AcDbText
  0
LINE
  5
1AC3D
330
18
100
AcDbEntity
  8
1DIM
100
AcDbLine
 10
2022.356894364854
 20
-393.0862045542606
 30
0.0
 11
2127.356894364854
 21
-393.0862045542606
 31
0.0
  0
LINE
  5
1AC3E
330
18
100
AcDbEntity
  8
1DIM
100
AcDbLine
 10
2022.356894364854
 20
-403.5862045542606
 30
0.0
 11
2127.356894364854
 21
-403.5862045542606
 31
0.0
  0
LINE
  5
1AC3F
330
18
100
AcDbEntity
  8
1DIM
100
AcDbLine
 10
2022.356894364854
 20
-414.0862045542606
 30
0.0
 11
2127.356894364854
 21
-414.0862045542606
 31
0.0
  0
LINE
  5
1AC40
330
18
100
AcDbEntity
  8
1DIM
100
AcDbLine
 10
2022.356894364854
 20
-414.0862045542606
 30
0.0
 11
2127.356894364854
 21
-414.0862045542606
 31
0.0
  0
LINE
  5
1AC41
330
18
100
AcDbEntity
  8
1DIM
100
AcDbLine
 10
2074.856894364854
 20
-393.0862045542606
 30
0.0
 11
2074.856894364854
 21
-435.0862045542606
 31
0.0
  0
TEXT
  5
1AC42
330
18
100
AcDbEntity
  8
1TEXT
100
AcDbText
 10
2080.656894364855
 20
-412.1577400297349
 30
0.0
 40
6.0
  1
3-AZK-C-LJ
 41
0.6999999999999998
 72
     1
 11
2100.956894364856
 21
-412.1577400297349
 31
0.0
100
AcDbText
  0
TEXT
  5
1AC43
330
18
100
AcDbEntity
  8
1TEXT
100
AcDbText
 10
2090.656894364854
 20
-401.3362045542606
 30
0.0
 40
6.0
  1
コード
 72
     1
 11
2100.956894364854
 21
-401.3362045542606
 31
0.0
100
AcDbText
  0
LINE
  5
1AC44
330
18
100
AcDbEntity
  8
1DIM
100
AcDbLine
 10
2022.356894364854
 20
-435.0862045542606
 30
0.0
 11
2127.356894364854
 21
-435.0862045542606
 31
0.0
  0
TEXT
  5
1AC45
330
18
100
AcDbEntity
  8
1TEXT
100
AcDbText
 10
2023.656894364854
 20
-422.0525749716169
 30
0.0
 40
6.0
  1
サテンニッケル
 72
     1
 11
2048.456894364854
 21
-422.0525749716169
 31
0.0
100
AcDbText
  0
LINE
  5
1AC46
330
18
100
AcDbEntity
  8
1DIM
100
AcDbLine
 10
2022.356894364854
 20
-435.0862045542606
 30
0.0
 11
2022.356894364854
 21
-393.0862045542606
 31
0.0
  0
LINE
  5
1AC47
330
18
100
AcDbEntity
  8
1DIM
100
AcDbLine
 10
2127.356894364854
 20
-435.0862045542606
 30
0.0
 11
2127.356894364854
 21
-393.0862045542606
 31
0.0
  0
TEXT
  5
1AC48
330
18
100
AcDbEntity
  8
1TEXT
100
AcDbText
 10
2078.542311031522
 20
-433.1577400297349
 30
0.0
 40
6.0
  1
3-AZK-GQ-LJ
 41
0.6999999999999998
 72
     1
 11
2100.956894364856
 21
-433.1577400297349
 31
0.0
100
AcDbText
  0
TEXT
  5
1AC49
330
18
100
AcDbEntity
  8
1TEXT
100
AcDbText
 10
2080.656894364855
 20
-422.6577400297349
 30
0.0
 40
6.0
  1
3-AZK-N-LJ
 41
0.6999999999999998
 72
     1
 11
2100.956894364856
 21
-422.6577400297349
 31
0.0
100
AcDbText
  0
LINE
  5
1AC4A
330
18
100
AcDbEntity
  8
01
100
AcDbLine
 10
2376.356877066949
 20
-407.0862045552878
 30
0.0
 11
2378.356877061223
 21
-407.0862045552878
 31
0.0
  0
LINE
  5
1AC4B
330
18
100
AcDbEntity
  8
01
100
AcDbLine
 10
2380.856877061223
 20
-407.0862045552878
 30
0.0
 11
2390.856764365641
 21
-407.0862045552878
 31
0.0
  0
LINE
  5
1AC4C
330
18
100
AcDbEntity
  8
01
100
AcDbLine
 10
2388.346776629378
 20
-349.0862045552897
 30
0.0
 11
2390.856764365641
 21
-349.0862045552897
 31
0.0
  0
LINE
  5
1AE18
330
18
100
AcDbEntity
  8
01
100
AcDbLine
 10
2315.35676202511
 20
-620.0862052523914
 30
0.0
 11
2315.35676202511
 21
-517.3647124695722
 31
0.0
1001
ACAD
1000
DSTYLE
1002
{
1070
    40
1040
1.3
1070
    45
1040
0.5
1002
}
  0
LINE
  5
1AE19
330
18
100
AcDbEntity
  8
01
100
AcDbLine
 10
2326.35676202511
 20
-562.2148872031025
 30
0.0
 11
2326.35676202511
 21
-517.3647124695722
 31
0.0
1001
ACAD
1000
DSTYLE
1002
{
1070
    40
1040
1.3
1070
    45
1040
0.5
1002
}
  0
LINE
  5
1AE1A
330
18
100
AcDbEntity
  8
01
100
AcDbLine
 10
2317.95676202511
 20
-518.6647124695721
 30
0.0
 11
2323.75676202511
 21
-518.6647124695721
 31
0.0
1001
ACAD
1000
DSTYLE
1002
{
1070
    40
1040
1.3
1070
    45
1040
0.5
1002
}
  0
TEXT
  5
1AE1E
330
18
100
AcDbEntity
  8
01
  6
CONTINUOUS
100
AcDbText
 10
2288.359923118126
 20
-435.5028712219554
 30
0.0
 40
4.55
  1
材質：亜鉛ダイキャスト
100
AcDbText
  0
TEXT
  5
1AE1F
330
18
100
AcDbEntity
  8
01
  6
CONTINUOUS
100
AcDbText
 10
2298.673256451459
 20
-443.0862045552887
 30
0.0
 40
4.55
  1
仕上げ：各種メッキ
100
AcDbText
  0
LINE
  5
1AE20
330
18
100
AcDbEntity
  8
01
100
AcDbLine
 10
2395.35676202511
 20
-590.0862045542601
 30
0.0
 11
2423.65676202511
 21
-590.0862045542601
 31
0.0
1001
ACAD
1000
DSTYLE
1002
{
1070
    40
1040
1.3
1070
    45
1040
0.5
1002
}
  0
LINE
  5
1AE21
330
18
100
AcDbEntity
  8
01
100
AcDbLine
 10
2395.35676202511
 20
-664.0862045542606
 30
0.0
 11
2423.65676202511
 21
-664.0862045542606
 31
0.0
1001
ACAD
1000
DSTYLE
1002
{
1070
    40
1040
1.3
1070
    45
1040
0.5
1002
}
  0
LINE
  5
1AE22
330
18
100
AcDbEntity
  8
01
100
AcDbLine
 10
2422.35676202511
 20
-592.6862045542601
 30
0.0
 11
2422.35676202511
 21
-661.4862045542606
 31
0.0
1001
ACAD
1000
DSTYLE
1002
{
1070
    40
1040
1.3
1070
    45
1040
0.5
1002
}
  0
LINE
  5
1AE26
330
18
100
AcDbEntity
  8
01
100
AcDbLine
 10
2395.35676202511
 20
-590.0862045542601
 30
0.0
 11
2395.35676202511
 21
-507.2848450015239
 31
0.0
1001
ACAD
1000
DSTYLE
1002
{
1070
    40
1040
1.3
1070
    45
1040
0.5
1002
}
  0
LINE
  5
1AE27
330
18
100
AcDbEntity
  8
01
100
AcDbLine
 10
2326.35676202511
 20
-562.2148872031025
 30
0.0
 11
2326.35676202511
 21
-507.2848450015239
 31
0.0
1001
ACAD
1000
DSTYLE
1002
{
1070
    40
1040
1.3
1070
    45
1040
0.5
1002
}
  0
LINE
  5
1AE28
330
18
100
AcDbEntity
  8
01
100
AcDbLine
 10
2392.75676202511
 20
-508.5848450015239
 30
0.0
 11
2328.95676202511
 21
-508.5848450015239
 31
0.0
1001
ACAD
1000
DSTYLE
1002
{
1070
    40
1040
1.3
1070
    45
1040
0.5
1002
}
  0
LINE
  5
1AE2C
330
18
100
AcDbEntity
  8
01
100
AcDbLine
 10
2326.35676202511
 20
-562.2148872031025
 30
0.0
 11
2326.35676202511
 21
-517.3647124695722
 31
0.0
1001
ACAD
1000
DSTYLE
1002
{
1070
    40
1040
1.3
1070
    45
1040
0.5
1002
}
  0
LINE
  5
1AE2D
330
18
100
AcDbEntity
  8
01
100
AcDbLine
 10
2377.35676202511
 20
-598.0862045542601
 30
0.0
 11
2377.35676202511
 21
-517.3647124695722
 31
0.0
1001
ACAD
1000
DSTYLE
1002
{
1070
    40
1040
1.3
1070
    45
1040
0.5
1002
}
  0
LINE
  5
1AE2E
330
18
100
AcDbEntity
  8
01
100
AcDbLine
 10
2328.95676202511
 20
-518.6647124695721
 30
0.0
 11
2374.75676202511
 21
-518.6647124695721
 31
0.0
1001
ACAD
1000
DSTYLE
1002
{
1070
    40
1040
1.3
1070
    45
1040
0.5
1002
}
  0
LINE
  5
1AE32
330
18
100
AcDbEntity
  8
01
100
AcDbLine
 10
2194.856878364854
 20
-568.0862045542606
 30
0.0
 11
2194.856878364854
 21
-517.3647124695724
 31
0.0
1001
ACAD
1000
DSTYLE
1002
{
1070
    40
1040
1.3
1070
    45
1040
0.5
1002
}
  0
LINE
  5
1AE33
330
18
100
AcDbEntity
  8
01
100
AcDbLine
 10
2219.856878364854
 20
-568.0862045542606
 30
0.0
 11
2219.856878364854
 21
-517.3647124695724
 31
0.0
1001
ACAD
1000
DSTYLE
1002
{
1070
    40
1040
1.3
1070
    45
1040
0.5
1002
}
  0
LINE
  5
1AE34
330
18
100
AcDbEntity
  8
01
100
AcDbLine
 10
2197.456878364854
 20
-518.6647124695724
 30
0.0
 11
2217.256878364854
 21
-518.6647124695724
 31
0.0
1001
ACAD
1000
DSTYLE
1002
{
1070
    40
1040
1.3
1070
    45
1040
0.5
1002
}
  0
LINE
  5
1AE38
330
18
100
AcDbEntity
  8
01
100
AcDbLine
 10
2174.15591647053
 20
-647.3362045542606
 30
0.0
 11
2172.856878364852
 21
-646.5862045542606
 31
0.0
  0
LINE
  5
1AE39
330
18
100
AcDbEntity
  8
01
100
AcDbLine
 10
2172.856878364852
 20
-646.5862045542606
 30
0.0
 11
2171.557840259175
 21
-647.3362045542606
 31
0.0
  0
LINE
  5
1AE3A
330
18
100
AcDbEntity
  8
01
100
AcDbLine
 10
2171.557840259175
 20
-647.3362045542606
 30
0.0
 11
2171.557840259175
 21
-648.8362045542606
 31
0.0
  0
LINE
  5
1AE3B
330
18
100
AcDbEntity
  8
01
100
AcDbLine
 10
2171.557840259175
 20
-648.8362045542606
 30
0.0
 11
2172.856878364852
 21
-649.5862045542606
 31
0.0
  0
LINE
  5
1AE3C
330
18
100
AcDbEntity
  8
01
100
AcDbLine
 10
2172.856878364852
 20
-649.5862045542606
 30
0.0
 11
2174.15591647053
 21
-648.8362045542606
 31
0.0
  0
LINE
  5
1AE3D
330
18
100
AcDbEntity
  8
01
100
AcDbLine
 10
2174.15591647053
 20
-648.8362045542606
 30
0.0
 11
2174.15591647053
 21
-647.3362045542606
 31
0.0
  0
LINE
  5
1AE3E
330
18
100
AcDbEntity
  8
01
100
AcDbLine
 10
2213.403368031794
 20
-570.0907452091653
 30
0.0
 11
2293.689499200003
 21
-570.0907452091653
 31
0.0
1001
ACAD
1000
DSTYLE
1002
{
1070
    40
1040
1.3
1070
    45
1040
0.5
1002
}
  0
LINE
  5
1AE3F
330
18
100
AcDbEntity
  8
01
100
AcDbLine
 10
2213.403368031794
 20
-684.0907452091653
 30
0.0
 11
2293.689499200003
 21
-684.0907452091653
 31
0.0
1001
ACAD
1000
DSTYLE
1002
{
1070
    40
1040
1.3
1070
    45
1040
0.5
1002
}
  0
LINE
  5
1AE40
330
18
100
AcDbEntity
  8
01
100
AcDbLine
 10
2292.389499200002
 20
-572.6907452091654
 30
0.0
 11
2292.389499200002
 21
-681.4907452091653
 31
0.0
1001
ACAD
1000
DSTYLE
1002
{
1070
    40
1040
1.3
1070
    45
1040
0.5
1002
}
  0
LINE
  5
1AE44
330
18
100
AcDbEntity
  8
01
100
AcDbLine
 10
2214.001428428558
 20
-562.1911903535818
 30
0.0
 11
2303.053833366227
 21
-562.1911903535818
 31
0.0
1001
ACAD
1000
DSTYLE
1002
{
1070
    40
1040
1.3
1070
    45
1040
0.5
1002
}
  0
LINE
  5
1AE45
330
18
100
AcDbEntity
  8
01
100
AcDbLine
 10
2213.928342623888
 20
-691.9907452091652
 30
0.0
 11
2303.053833366227
 21
-691.9907452091652
 31
0.0
1001
ACAD
1000
DSTYLE
1002
{
1070
    40
1040
1.3
1070
    45
1040
0.5
1002
}
  0
LINE
  5
1AE46
330
18
100
AcDbEntity
  8
01
100
AcDbLine
 10
2301.753833366227
 20
-564.7911903535818
 30
0.0
 11
2301.753833366227
 21
-689.3907452091652
 31
0.0
1001
ACAD
1000
DSTYLE
1002
{
1070
    40
1040
1.3
1070
    45
1040
0.5
1002
}
  0
CIRCLE
  5
1AE4A
330
18
100
AcDbEntity
  8
01
100
AcDbCircle
 10
2241.85676202511
 20
-648.0862045542603
 30
0.0
 40
3.0
  0
LINE
  5
1AE4B
330
18
100
AcDbEntity
  8
01
  6
BYBLOCK
100
AcDbLine
 10
2317.95676202511
 20
-519.3613803635722
 30
0.0
 11
2315.35676202511
 21
-518.6647124695721
 31
0.0
  0
LINE
  5
1AE4C
330
18
100
AcDbEntity
  8
01
  6
BYBLOCK
100
AcDbLine
 10
2315.35676202511
 20
-518.6647124695721
 30
0.0
 11
2317.95676202511
 21
-517.9680445755721
 31
0.0
  0
LINE
  5
1AE4D
330
18
100
AcDbEntity
  8
01
  6
BYBLOCK
100
AcDbLine
 10
2315.35676202511
 20
-518.6647124695721
 30
0.0
 11
2317.95676202511
 21
-518.6647124695721
 31
0.0
  0
LINE
  5
1AE4E
330
18
100
AcDbEntity
  8
01
  6
BYBLOCK
100
AcDbLine
 10
2323.75676202511
 20
-517.9680445755721
 30
0.0
 11
2326.35676202511
 21
-518.6647124695721
 31
0.0
  0
LINE
  5
1AE4F
330
18
100
AcDbEntity
  8
01
  6
BYBLOCK
100
AcDbLine
 10
2326.35676202511
 20
-518.6647124695721
 30
0.0
 11
2323.75676202511
 21
-519.3613803635722
 31
0.0
  0
LINE
  5
1AE50
330
18
100
AcDbEntity
  8
01
  6
BYBLOCK
100
AcDbLine
 10
2326.35676202511
 20
-518.6647124695721
 30
0.0
 11
2323.75676202511
 21
-518.6647124695721
 31
0.0
  0
TEXT
  5
1AE51
330
18
100
AcDbEntity
  8
01
  6
CONTINUOUS
100
AcDbText
 10
2318.58176202511
 20
-517.7547124695722
 30
0.0
 40
4.55
  1
11
100
AcDbText
1001
ACAD
1000
DSTYLE
1002
{
1070
    40
1040
1.3
1070
    45
1040
0.5
1002
}
  0
LINE
  5
1AE52
330
18
100
AcDbEntity
  8
01
  6
BYBLOCK
100
AcDbLine
 10
2421.66009413111
 20
-592.6862045542601
 30
0.0
 11
2422.35676202511
 21
-590.0862045542601
 31
0.0
  0
LINE
  5
1AE53
330
18
100
AcDbEntity
  8
01
  6
BYBLOCK
100
AcDbLine
 10
2422.35676202511
 20
-590.0862045542601
 30
0.0
 11
2423.053429919109
 21
-592.6862045542601
 31
0.0
  0
LINE
  5
1AE54
330
18
100
AcDbEntity
  8
01
  6
BYBLOCK
100
AcDbLine
 10
2422.35676202511
 20
-590.0862045542601
 30
0.0
 11
2422.35676202511
 21
-592.6862045542601
 31
0.0
  0
LINE
  5
1AE55
330
18
100
AcDbEntity
  8
01
  6
BYBLOCK
100
AcDbLine
 10
2423.053429919109
 20
-661.4862045542606
 30
0.0
 11
2422.35676202511
 21
-664.0862045542606
 31
0.0
  0
LINE
  5
1AE56
330
18
100
AcDbEntity
  8
01
  6
BYBLOCK
100
AcDbLine
 10
2422.35676202511
 20
-664.0862045542606
 30
0.0
 11
2421.66009413111
 21
-661.4862045542606
 31
0.0
  0
LINE
  5
1AE57
330
18
100
AcDbEntity
  8
01
  6
BYBLOCK
100
AcDbLine
 10
2422.35676202511
 20
-664.0862045542606
 30
0.0
 11
2422.35676202511
 21
-661.4862045542606
 31
0.0
  0
TEXT
  5
1AE58
330
18
100
AcDbEntity
  8
01
  6
CONTINUOUS
100
AcDbText
 10
2421.44676202511
 20
-609.1148604682412
 30
0.0
 40
4.55
  1
74
 50
90.0
100
AcDbText
1001
ACAD
1000
DSTYLE
1002
{
1070
    40
1040
1.3
1070
    45
1040
0.5
1002
}
  0
LINE
  5
1AE59
330
18
100
AcDbEntity
  8
01
  6
BYBLOCK
100
AcDbLine
 10
2392.75676202511
 20
-507.888177107524
 30
0.0
 11
2395.35676202511
 21
-508.5848450015239
 31
0.0
  0
LINE
  5
1AE5A
330
18
100
AcDbEntity
  8
01
  6
BYBLOCK
100
AcDbLine
 10
2395.35676202511
 20
-508.5848450015239
 30
0.0
 11
2392.75676202511
 21
-509.2815128955239
 31
0.0
  0
LINE
  5
1AE5B
330
18
100
AcDbEntity
  8
01
  6
BYBLOCK
100
AcDbLine
 10
2395.35676202511
 20
-508.5848450015239
 30
0.0
 11
2392.75676202511
 21
-508.5848450015239
 31
0.0
  0
LINE
  5
1AE5C
330
18
100
AcDbEntity
  8
01
  6
BYBLOCK
100
AcDbLine
 10
2328.95676202511
 20
-509.2815128955239
 30
0.0
 11
2326.35676202511
 21
-508.5848450015239
 31
0.0
  0
LINE
  5
1AE5D
330
18
100
AcDbEntity
  8
01
  6
BYBLOCK
100
AcDbLine
 10
2326.35676202511
 20
-508.5848450015239
 30
0.0
 11
2328.95676202511
 21
-507.888177107524
 31
0.0
  0
LINE
  5
1AE5E
330
18
100
AcDbEntity
  8
01
  6
BYBLOCK
100
AcDbLine
 10
2326.35676202511
 20
-508.5848450015239
 30
0.0
 11
2328.95676202511
 21
-508.5848450015239
 31
0.0
  0
TEXT
  5
1AE5F
330
18
100
AcDbEntity
  8
01
  6
CONTINUOUS
100
AcDbText
 10
2357.048243506591
 20
-507.674845001524
 30
0.0
 40
4.55
  1
69
100
AcDbText
1001
ACAD
1000
DSTYLE
1002
{
1070
    40
1040
1.3
1070
    45
1040
0.5
1002
}
  0
LINE
  5
1AE60
330
18
100
AcDbEntity
  8
01
  6
BYBLOCK
100
AcDbLine
 10
2328.95676202511
 20
-519.3613803635722
 30
0.0
 11
2326.35676202511
 21
-518.6647124695721
 31
0.0
  0
LINE
  5
1AE61
330
18
100
AcDbEntity
  8
01
  6
BYBLOCK
100
AcDbLine
 10
2326.35676202511
 20
-518.6647124695721
 30
0.0
 11
2328.95676202511
 21
-517.9680445755721
 31
0.0
  0
LINE
  5
1AE62
330
18
100
AcDbEntity
  8
01
  6
BYBLOCK
100
AcDbLine
 10
2326.35676202511
 20
-518.6647124695721
 30
0.0
 11
2328.95676202511
 21
-518.6647124695721
 31
0.0
  0
LINE
  5
1AE63
330
18
100
AcDbEntity
  8
01
  6
BYBLOCK
100
AcDbLine
 10
2374.75676202511
 20
-517.9680445755721
 30
0.0
 11
2377.35676202511
 21
-518.6647124695721
 31
0.0
  0
LINE
  5
1AE64
330
18
100
AcDbEntity
  8
01
  6
BYBLOCK
100
AcDbLine
 10
2377.35676202511
 20
-518.6647124695721
 30
0.0
 11
2374.75676202511
 21
-519.3613803635722
 31
0.0
  0
LINE
  5
1AE65
330
18
100
AcDbEntity
  8
01
  6
BYBLOCK
100
AcDbLine
 10
2377.35676202511
 20
-518.6647124695721
 30
0.0
 11
2374.75676202511
 21
-518.6647124695721
 31
0.0
  0
TEXT
  5
1AE66
330
18
100
AcDbEntity
  8
01
  6
CONTINUOUS
100
AcDbText
 10
2348.807630080665
 20
-517.7547124695722
 30
0.0
 40
4.55
  1
51
100
AcDbText
1001
ACAD
1000
DSTYLE
1002
{
1070
    40
1040
1.3
1070
    45
1040
0.5
1002
}
  0
LINE
  5
1AE67
330
18
100
AcDbEntity
  8
01
  6
BYBLOCK
100
AcDbLine
 10
2197.456878364854
 20
-519.3613803635724
 30
0.0
 11
2194.856878364854
 21
-518.6647124695724
 31
0.0
  0
LINE
  5
1AE68
330
18
100
AcDbEntity
  8
01
  6
BYBLOCK
100
AcDbLine
 10
2194.856878364854
 20
-518.6647124695724
 30
0.0
 11
2197.456878364854
 21
-517.9680445755723
 31
0.0
  0
LINE
  5
1AE69
330
18
100
AcDbEntity
  8
01
  6
BYBLOCK
100
AcDbLine
 10
2194.856878364854
 20
-518.6647124695724
 30
0.0
 11
2197.456878364854
 21
-518.6647124695724
 31
0.0
  0
LINE
  5
1AE6A
330
18
100
AcDbEntity
  8
01
  6
BYBLOCK
100
AcDbLine
 10
2217.256878364854
 20
-517.9680445755723
 30
0.0
 11
2219.856878364854
 21
-518.6647124695724
 31
0.0
  0
LINE
  5
1AE6B
330
18
100
AcDbEntity
  8
01
  6
BYBLOCK
100
AcDbLine
 10
2219.856878364854
 20
-518.6647124695724
 30
0.0
 11
2217.256878364854
 21
-519.3613803635724
 31
0.0
  0
LINE
  5
1AE6C
330
18
100
AcDbEntity
  8
01
  6
BYBLOCK
100
AcDbLine
 10
2219.856878364854
 20
-518.6647124695724
 30
0.0
 11
2217.256878364854
 21
-518.6647124695724
 31
0.0
  0
TEXT
  5
1AE6D
330
18
100
AcDbEntity
  8
01
  6
CONTINUOUS
100
AcDbText
 10
2203.565211698188
 20
-517.7547124695724
 30
0.0
 40
4.55
  1
25
100
AcDbText
1001
ACAD
1000
DSTYLE
1002
{
1070
    40
1040
1.3
1070
    45
1040
0.5
1002
}
  0
LINE
  5
1AE6E
330
18
100
AcDbEntity
  8
01
  6
BYBLOCK
100
AcDbLine
 10
2291.692831306003
 20
-572.6907452091654
 30
0.0
 11
2292.389499200002
 21
-570.0907452091653
 31
0.0
  0
LINE
  5
1AE6F
330
18
100
AcDbEntity
  8
01
  6
BYBLOCK
100
AcDbLine
 10
2292.389499200002
 20
-570.0907452091653
 30
0.0
 11
2293.086167094002
 21
-572.6907452091654
 31
0.0
  0
LINE
  5
1AE70
330
18
100
AcDbEntity
  8
01
  6
BYBLOCK
100
AcDbLine
 10
2292.389499200002
 20
-570.0907452091653
 30
0.0
 11
2292.389499200002
 21
-572.6907452091654
 31
0.0
  0
LINE
  5
1AE71
330
18
100
AcDbEntity
  8
01
  6
BYBLOCK
100
AcDbLine
 10
2293.086167094002
 20
-681.4907452091653
 30
0.0
 11
2292.389499200002
 21
-684.0907452091653
 31
0.0
  0
LINE
  5
1AE72
330
18
100
AcDbEntity
  8
01
  6
BYBLOCK
100
AcDbLine
 10
2292.389499200002
 20
-684.0907452091653
 30
0.0
 11
2291.692831306003
 21
-681.4907452091653
 31
0.0
  0
LINE
  5
1AE73
330
18
100
AcDbEntity
  8
01
  6
BYBLOCK
100
AcDbLine
 10
2292.389499200002
 20
-684.0907452091653
 30
0.0
 11
2292.389499200002
 21
-681.4907452091653
 31
0.0
  0
TEXT
  5
1AE74
330
18
100
AcDbEntity
  8
01
  6
CONTINUOUS
100
AcDbText
 10
2291.479499200002
 20
-602.507722861244
 30
0.0
 40
4.55
  1
114
 50
90.0
100
AcDbText
1001
ACAD
1000
DSTYLE
1002
{
1070
    40
1040
1.3
1070
    45
1040
0.5
1002
}
  0
LINE
  5
1AE75
330
18
100
AcDbEntity
  8
01
  6
BYBLOCK
100
AcDbLine
 10
2301.057165472227
 20
-564.7911903535818
 30
0.0
 11
2301.753833366227
 21
-562.1911903535818
 31
0.0
  0
LINE
  5
1AE76
330
18
100
AcDbEntity
  8
01
  6
BYBLOCK
100
AcDbLine
 10
2301.753833366227
 20
-562.1911903535818
 30
0.0
 11
2302.450501260227
 21
-564.7911903535818
 31
0.0
  0
LINE
  5
1AE77
330
18
100
AcDbEntity
  8
01
  6
BYBLOCK
100
AcDbLine
 10
2301.753833366227
 20
-562.1911903535818
 30
0.0
 11
2301.753833366227
 21
-564.7911903535818
 31
0.0
  0
LINE
  5
1AE78
330
18
100
AcDbEntity
  8
01
  6
BYBLOCK
100
AcDbLine
 10
2302.450501260227
 20
-689.3907452091652
 30
0.0
 11
2301.753833366227
 21
-691.9907452091652
 31
0.0
  0
LINE
  5
1AE79
330
18
100
AcDbEntity
  8
01
  6
BYBLOCK
100
AcDbLine
 10
2301.753833366227
 20
-691.9907452091652
 30
0.0
 11
2301.057165472227
 21
-689.3907452091652
 31
0.0
  0
LINE
  5
1AE7A
330
18
100
AcDbEntity
  8
01
  6
BYBLOCK
100
AcDbLine
 10
2301.753833366227
 20
-691.9907452091652
 30
0.0
 11
2301.753833366227
 21
-689.3907452091652
 31
0.0
  0
TEXT
  5
1AE7B
330
18
100
AcDbEntity
  8
01
  6
CONTINUOUS
100
AcDbText
 10
2300.843833366227
 20
-603.2922868640512
 30
0.0
 40
4.55
  1
130
 50
90.0
100
AcDbText
1001
ACAD
1000
DSTYLE
1002
{
1070
    40
1040
1.3
1070
    45
1040
0.5
1002
}
  0
LINE
  5
1AE7C
330
18
100
AcDbEntity
  8
1DIM
100
AcDbLine
 10
2163.453467196633
 20
-588.0861861003891
 30
0.0
 11
2163.453467196633
 21
-517.3647124695715
 31
0.0
1001
ACAD
1000
DSTYLE
1002
{
1070
    40
1040
1.3
1070
    45
1040
0.5
1070
    79
1070
     2
1070
   179
1070
     2
1070
   272
1070
     2
1070
   341
1005
0
1002
}
  0
LINE
  5
1AE7D
330
18
100
AcDbEntity
  8
1DIM
100
AcDbLine
 10
2187.356994704599
 20
-534.0862045542599
 30
0.0
 11
2187.356994704599
 21
-517.3647124695715
 31
0.0
1001
ACAD
1000
DSTYLE
1002
{
1070
    40
1040
1.3
1070
    45
1040
0.5
1070
    79
1070
     2
1070
   179
1070
     2
1070
   272
1070
     2
1070
   341
1005
0
1002
}
  0
LINE
  5
1AE7E
330
18
100
AcDbEntity
  8
1DIM
100
AcDbLine
 10
2166.053467196633
 20
-518.6647124695714
 30
0.0
 11
2184.756994704599
 21
-518.6647124695714
 31
0.0
1001
ACAD
1000
DSTYLE
1002
{
1070
    40
1040
1.3
1070
    45
1040
0.5
1070
    79
1070
     2
1070
   179
1070
     2
1070
   272
1070
     2
1070
   341
1005
0
1002
}
  0
LINE
  5
1AE82
330
18
100
AcDbEntity
  8
1DIM
100
AcDbLine
 10
2227.356878364854
 20
-534.0862045542599
 30
0.0
 11
2227.356878364854
 21
-517.3647124695715
 31
0.0
1001
ACAD
1000
DSTYLE
1002
{
1070
    40
1040
1.3
1070
    45
1040
0.5
1070
    79
1070
     2
1070
   179
1070
     2
1070
   272
1070
     2
1070
   341
1005
0
1002
}
  0
LINE
  5
1AE83
330
18
100
AcDbEntity
  8
1DIM
100
AcDbLine
 10
2237.654788063338
 20
-598.0738979920134
 30
0.0
 11
2237.654788063338
 21
-517.3647124695715
 31
0.0
1001
ACAD
1000
DSTYLE
1002
{
1070
    40
1040
1.3
1070
    45
1040
0.5
1070
    79
1070
     2
1070
   179
1070
     2
1070
   272
1070
     2
1070
   341
1005
0
1002
}
  0
LINE
  5
1AE84
330
18
100
AcDbEntity
  8
1DIM
100
AcDbLine
 10
2237.654788063338
 20
-518.6647124695714
 30
0.0
 11
2255.291454730004
 21
-518.6647124695714
 31
0.0
1001
ACAD
1000
DSTYLE
1002
{
1070
    40
1040
1.3
1070
    45
1040
0.5
1070
    79
1070
     2
1070
   179
1070
     2
1070
   272
1070
     2
1070
   341
1005
0
1002
}
  0
LINE
  5
1AE85
330
18
100
AcDbEntity
  8
1DIM
100
AcDbLine
 10
2229.956878364854
 20
-518.6647124695714
 30
0.0
 11
2235.054788063338
 21
-518.6647124695714
 31
0.0
1001
ACAD
1000
DSTYLE
1002
{
1070
    40
1040
1.3
1070
    45
1040
0.5
1070
    79
1070
     2
1070
   179
1070
     2
1070
   272
1070
     2
1070
   341
1005
0
1002
}
  0
LINE
  5
1AE89
330
18
100
AcDbEntity
  8
1DIM
100
AcDbLine
 10
2007.356882364854
 20
-648.0862045542606
 30
0.0
 11
1975.957688034312
 21
-648.0862045542606
 31
0.0
1001
ACAD
1000
DSTYLE
1002
{
1070
    40
1040
1.3
1002
}
  0
LINE
  5
1AE8A
330
18
100
AcDbEntity
  8
1DIM
100
AcDbLine
 10
2024.356874364853
 20
-598.0862045542599
 30
0.0
 11
1975.957688034312
 21
-598.0862045542599
 31
0.0
1001
ACAD
1000
DSTYLE
1002
{
1070
    40
1040
1.3
1002
}
  0
LINE
  5
1AE8B
330
18
100
AcDbEntity
  8
1DIM
100
AcDbLine
 10
1977.257688034312
 20
-645.4862045542606
 30
0.0
 11
1977.257688034312
 21
-600.6862045542599
 31
0.0
1001
ACAD
1000
DSTYLE
1002
{
1070
    40
1040
1.3
1002
}
  0
LINE
  5
1AE90
330
18
100
AcDbEntity
  8
1DIM
100
AcDbLine
 10
2374.977511294816
 20
-424.4902702709295
 30
0.0
 11
2347.509923118126
 21
-443.9962045552888
 31
0.0
1001
ACAD
1000
DSTYLE
1002
{
1070
    40
1040
1.3
1070
    45
1040
0.5
1002
}
  0
LINE
  5
1AE91
330
18
100
AcDbEntity
  8
1DIM
100
AcDbLine
 10
2393.75764620717
 20
-368.5862045552888
 30
0.0
 11
2414.318036966883
 21
-368.5862045552888
 31
0.0
1001
ACAD
1000
DSTYLE
1002
{
1070
    45
1040
0.5
1070
    40
1040
1.3
1002
}
  0
LINE
  5
1AE92
330
18
100
AcDbEntity
  8
1DIM
100
AcDbLine
 10
2395.35764620717
 20
-387.3862045552887
 30
0.0
 11
2414.318036966883
 21
-387.3862045552887
 31
0.0
1001
ACAD
1000
DSTYLE
1002
{
1070
    45
1040
0.5
1070
    40
1040
1.3
1002
}
  0
LINE
  5
1AE93
330
18
100
AcDbEntity
  8
1DIM
100
AcDbLine
 10
2413.018036966882
 20
-371.1862045552888
 30
0.0
 11
2413.018036966882
 21
-384.7862045552887
 31
0.0
1001
ACAD
1000
DSTYLE
1002
{
1070
    45
1040
0.5
1070
    40
1040
1.3
1002
}
  0
LINE
  5
1AE97
330
18
100
AcDbEntity
  8
1DIM
100
AcDbLine
 10
2007.356882364854
 20
-648.0862045542606
 30
0.0
 11
1975.957688034312
 21
-648.0862045542606
 31
0.0
1001
ACAD
1000
DSTYLE
1002
{
1070
    40
1040
1.3
1002
}
  0
LINE
  5
1AE98
330
18
100
AcDbEntity
  8
1DIM
100
AcDbLine
 10
2012.856882364854
 20
-712.0862045542606
 30
0.0
 11
1975.957688034312
 21
-712.0862045542606
 31
0.0
1001
ACAD
1000
DSTYLE
1002
{
1070
    40
1040
1.3
1002
}
  0
LINE
  5
1AE99
330
18
100
AcDbEntity
  8
1DIM
100
AcDbLine
 10
1977.257688034312
 20
-650.6862045542606
 30
0.0
 11
1977.257688034312
 21
-709.4862045542606
 31
0.0
1001
ACAD
1000
DSTYLE
1002
{
1070
    40
1040
1.3
1002
}
  0
LINE
  5
1AE9D
330
18
100
AcDbEntity
  8
1DIM
100
AcDbLine
 10
2401.85676202511
 20
-712.0862045542601
 30
0.0
 11
2543.65676202511
 21
-712.0862045542601
 31
0.0
1001
ACAD
1000
DSTYLE
1002
{
1070
    40
1040
1.3
1070
    45
1040
0.5
1070
   341
1005
0
1002
}
  0
LINE
  5
1AE9E
330
18
100
AcDbEntity
  8
1DIM
100
AcDbLine
 10
2401.85676202511
 20
-534.0862045542601
 30
0.0
 11
2543.65676202511
 21
-534.0862045542601
 31
0.0
1001
ACAD
1000
DSTYLE
1002
{
1070
    40
1040
1.3
1070
    45
1040
0.5
1070
   341
1005
0
1002
}
  0
LINE
  5
1AE9F
330
18
100
AcDbEntity
  8
1DIM
100
AcDbLine
 10
2542.35676202511
 20
-709.4862045542601
 30
0.0
 11
2542.35676202511
 21
-536.6862045542601
 31
0.0
1001
ACAD
1000
DSTYLE
1002
{
1070
    40
1040
1.3
1070
    45
1040
0.5
1070
   341
1005
0
1002
}
  0
LINE
  5
1AEA3
330
18
100
AcDbEntity
  8
1DIM
100
AcDbLine
 10
2352.35676202511
 20
-534.5862045542601
 30
0.0
 11
2352.35676202511
 21
-527.3862045542605
 31
0.0
1001
ACAD
1000
DSTYLE
1002
{
1070
    40
1040
1.3
1070
    45
1040
0.5
1070
   341
1005
0
1002
}
  0
LINE
  5
1AEA4
330
18
100
AcDbEntity
  8
1DIM
100
AcDbLine
 10
2402.35676202511
 20
-534.5862045542601
 30
0.0
 11
2402.35676202511
 21
-527.3862045542605
 31
0.0
1001
ACAD
1000
DSTYLE
1002
{
1070
    40
1040
1.3
1070
    45
1040
0.5
1070
   341
1005
0
1002
}
  0
LINE
  5
1AEA5
330
18
100
AcDbEntity
  8
1DIM
100
AcDbLine
 10
2354.95676202511
 20
-528.6862045542605
 30
0.0
 11
2399.75676202511
 21
-528.6862045542605
 31
0.0
1001
ACAD
1000
DSTYLE
1002
{
1070
    40
1040
1.3
1070
    45
1040
0.5
1070
   341
1005
0
1002
}
  0
LINE
  5
1AEA9
330
18
100
AcDbEntity
  8
1DIM
100
AcDbLine
 10
2479.843960830025
 20
-398.0862045552878
 30
0.0
 11
2518.222558365641
 21
-398.0862045552878
 31
0.0
1001
ACAD
1000
DSTYLE
1002
{
1070
    40
1040
1.3
1070
   271
1070
     0
1002
}
  0
LINE
  5
1AEAA
330
18
100
AcDbEntity
  8
1DIM
100
AcDbLine
 10
2500.921012920133
 20
-434.0354618137214
 30
0.0
 11
2518.222558365641
 21
-434.0354618137214
 31
0.0
1001
ACAD
1000
DSTYLE
1002
{
1070
    40
1040
1.3
1070
   271
1070
     0
1002
}
  0
LINE
  5
1AEAB
330
18
100
AcDbEntity
  8
1DIM
100
AcDbLine
 10
2516.922558365641
 20
-400.6862045552879
 30
0.0
 11
2516.922558365641
 21
-431.4354618137214
 31
0.0
1001
ACAD
1000
DSTYLE
1002
{
1070
    40
1040
1.3
1070
   271
1070
     0
1002
}
  0
LINE
  5
1AEAF
330
18
100
AcDbEntity
  8
1DIM
100
AcDbLine
 10
2414.485000884554
 20
-461.1242632551428
 30
0.0
 11
2528.222558365641
 21
-461.1242632551428
 31
0.0
1001
ACAD
1000
DSTYLE
1002
{
1070
    40
1040
1.3
1070
   271
1070
     0
1002
}
  0
LINE
  5
1AEB0
330
18
100
AcDbEntity
  8
1DIM
100
AcDbLine
 10
2479.843960830025
 20
-398.0862045552878
 30
0.0
 11
2528.222558365641
 21
-398.0862045552878
 31
0.0
1001
ACAD
1000
DSTYLE
1002
{
1070
    40
1040
1.3
1070
   271
1070
     0
1002
}
  0
LINE
  5
1AEB1
330
18
100
AcDbEntity
  8
1DIM
100
AcDbLine
 10
2526.922558365641
 20
-458.5242632551427
 30
0.0
 11
2526.922558365641
 21
-400.6862045552879
 31
0.0
1001
ACAD
1000
DSTYLE
1002
{
1070
    40
1040
1.3
1070
   271
1070
     0
1002
}
  0
LINE
  5
1AEB5
330
18
100
AcDbEntity
  8
1DIM
100
AcDbLine
 10
2377.35676202511
 20
-419.5862045552878
 30
0.0
 11
2377.35676202511
 21
-477.4242632551428
 31
0.0
1001
ACAD
1000
DSTYLE
1002
{
1070
    40
1040
1.3
1070
   271
1070
     0
1002
}
  0
LINE
  5
1AEB6
330
18
100
AcDbEntity
  8
1DIM
100
AcDbLine
 10
2501.922558368059
 20
-455.0482817675063
 30
0.0
 11
2501.922558368059
 21
-477.4242632551428
 31
0.0
1001
ACAD
1000
DSTYLE
1002
{
1070
    40
1040
1.3
1070
   271
1070
     0
1002
}
  0
LINE
  5
1AEB7
330
18
100
AcDbEntity
  8
1DIM
100
AcDbLine
 10
2379.95676202511
 20
-476.1242632551428
 30
0.0
 11
2499.322558368059
 21
-476.1242632551428
 31
0.0
1001
ACAD
1000
DSTYLE
1002
{
1070
    40
1040
1.3
1070
   271
1070
     0
1002
}
  0
LINE
  5
1AEBB
330
18
100
AcDbEntity
  8
1DIM
100
AcDbLine
 10
2363.85676436564
 20
-427.0862045552878
 30
0.0
 11
2363.85676436564
 21
-487.4242632551428
 31
0.0
1001
ACAD
1000
DSTYLE
1002
{
1070
    40
1040
1.3
1070
   271
1070
     0
1002
}
  0
LINE
  5
1AEBC
330
18
100
AcDbEntity
  8
1DIM
100
AcDbLine
 10
2501.922558368059
 20
-455.0482817675063
 30
0.0
 11
2501.922558368059
 21
-487.4242632551428
 31
0.0
1001
ACAD
1000
DSTYLE
1002
{
1070
    40
1040
1.3
1070
   271
1070
     0
1002
}
  0
LINE
  5
1AEBD
330
18
100
AcDbEntity
  8
1DIM
100
AcDbLine
 10
2366.45676436564
 20
-486.1242632551428
 30
0.0
 11
2499.322558368059
 21
-486.1242632551428
 31
0.0
1001
ACAD
1000
DSTYLE
1002
{
1070
    40
1040
1.3
1070
   271
1070
     0
1002
}
  0
LINE
  5
1AEC1
330
18
100
AcDbEntity
  8
0
  6
BYBLOCK
100
AcDbLine
 10
2166.053467196633
 20
-519.3613803635715
 30
0.0
 11
2163.453467196633
 21
-518.6647124695714
 31
0.0
  0
LINE
  5
1AEC2
330
18
100
AcDbEntity
  8
0
  6
BYBLOCK
100
AcDbLine
 10
2163.453467196633
 20
-518.6647124695714
 30
0.0
 11
2166.053467196633
 21
-517.9680445755714
 31
0.0
  0
LINE
  5
1AEC3
330
18
100
AcDbEntity
  8
0
  6
BYBLOCK
100
AcDbLine
 10
2163.453467196633
 20
-518.6647124695714
 30
0.0
 11
2166.053467196633
 21
-518.6647124695714
 31
0.0
  0
LINE
  5
1AEC4
330
18
100
AcDbEntity
  8
0
  6
BYBLOCK
100
AcDbLine
 10
2184.756994704599
 20
-517.9680445755714
 30
0.0
 11
2187.356994704599
 21
-518.6647124695714
 31
0.0
  0
LINE
  5
1AEC5
330
18
100
AcDbEntity
  8
0
  6
BYBLOCK
100
AcDbLine
 10
2187.356994704599
 20
-518.6647124695714
 30
0.0
 11
2184.756994704599
 21
-519.3613803635715
 31
0.0
  0
LINE
  5
1AEC6
330
18
100
AcDbEntity
  8
0
  6
BYBLOCK
100
AcDbLine
 10
2187.356994704599
 20
-518.6647124695714
 30
0.0
 11
2184.756994704599
 21
-518.6647124695714
 31
0.0
  0
TEXT
  5
1AEC7
330
18
100
AcDbEntity
  8
1DIM
  6
CONTINUOUS
100
AcDbText
 10
2171.613564283949
 20
-517.7547124695715
 30
0.0
 40
4.55
  1
24
100
AcDbText
1001
ACAD
1000
DSTYLE
1002
{
1070
    40
1040
1.3
1070
    45
1040
0.5
1070
    79
1070
     2
1070
   179
1070
     2
1070
   272
1070
     2
1070
   341
1005
0
1002
}
  0
LINE
  5
1AEC8
330
18
100
AcDbEntity
  8
0
  6
BYBLOCK
100
AcDbLine
 10
2229.956878364854
 20
-519.3613803635715
 30
0.0
 11
2227.356878364854
 21
-518.6647124695714
 31
0.0
  0
LINE
  5
1AEC9
330
18
100
AcDbEntity
  8
0
  6
BYBLOCK
100
AcDbLine
 10
2227.356878364854
 20
-518.6647124695714
 30
0.0
 11
2229.956878364854
 21
-517.9680445755714
 31
0.0
  0
LINE
  5
1AECA
330
18
100
AcDbEntity
  8
0
  6
BYBLOCK
100
AcDbLine
 10
2227.356878364854
 20
-518.6647124695714
 30
0.0
 11
2229.956878364854
 21
-518.6647124695714
 31
0.0
  0
LINE
  5
1AECB
330
18
100
AcDbEntity
  8
0
  6
BYBLOCK
100
AcDbLine
 10
2235.054788063338
 20
-517.9680445755714
 30
0.0
 11
2237.654788063338
 21
-518.6647124695714
 31
0.0
  0
LINE
  5
1AECC
330
18
100
AcDbEntity
  8
0
  6
BYBLOCK
100
AcDbLine
 10
2237.654788063338
 20
-518.6647124695714
 30
0.0
 11
2235.054788063338
 21
-519.3613803635715
 31
0.0
  0
LINE
  5
1AECD
330
18
100
AcDbEntity
  8
0
  6
BYBLOCK
100
AcDbLine
 10
2237.654788063338
 20
-518.6647124695714
 30
0.0
 11
2235.054788063338
 21
-518.6647124695714
 31
0.0
  0
TEXT
  5
1AECE
330
18
100
AcDbEntity
  8
1DIM
  6
CONTINUOUS
100
AcDbText
 10
2242.085621396671
 20
-517.7547124695715
 30
0.0
 40
4.55
  1
10.5
100
AcDbText
1001
ACAD
1000
DSTYLE
1002
{
1070
    40
1040
1.3
1070
    45
1040
0.5
1070
    79
1070
     2
1070
   179
1070
     2
1070
   272
1070
     2
1070
   341
1005
0
1002
}
  0
LINE
  5
1AECF
330
18
100
AcDbEntity
  8
0
  6
BYBLOCK
100
AcDbLine
 10
1977.954355928312
 20
-645.4862045542606
 30
0.0
 11
1977.257688034312
 21
-648.0862045542606
 31
0.0
  0
LINE
  5
1AED0
330
18
100
AcDbEntity
  8
0
  6
BYBLOCK
100
AcDbLine
 10
1977.257688034312
 20
-648.0862045542606
 30
0.0
 11
1976.561020140312
 21
-645.4862045542606
 31
0.0
  0
LINE
  5
1AED1
330
18
100
AcDbEntity
  8
0
  6
BYBLOCK
100
AcDbLine
 10
1977.257688034312
 20
-648.0862045542606
 30
0.0
 11
1977.257688034312
 21
-645.4862045542606
 31
0.0
  0
LINE
  5
1AED2
330
18
100
AcDbEntity
  8
0
  6
BYBLOCK
100
AcDbLine
 10
1976.561020140312
 20
-600.6862045542599
 30
0.0
 11
1977.257688034312
 21
-598.0862045542599
 31
0.0
  0
LINE
  5
1AED3
330
18
100
AcDbEntity
  8
0
  6
BYBLOCK
100
AcDbLine
 10
1977.257688034312
 20
-598.0862045542599
 30
0.0
 11
1977.954355928312
 21
-600.6862045542599
 31
0.0
  0
LINE
  5
1AED4
330
18
100
AcDbEntity
  8
0
  6
BYBLOCK
100
AcDbLine
 10
1977.257688034312
 20
-598.0862045542599
 30
0.0
 11
1977.257688034312
 21
-600.6862045542599
 31
0.0
  0
TEXT
  5
1AED5
330
18
100
AcDbEntity
  8
1DIM
  6
CONTINUOUS
100
AcDbText
 10
1976.347688034312
 20
-626.6092948320379
 30
0.0
 40
4.55
  1
50
 50
90.0
100
AcDbText
1001
ACAD
1000
DSTYLE
1002
{
1070
    40
1040
1.3
1002
}
  0
LINE
  5
1AED6
330
18
100
AcDbEntity
  8
0
  6
BYBLOCK
100
AcDbLine
 10
2374.574140720908
 20
-423.9222576525533
 30
0.0
 11
2377.09736326517
 21
-422.9848707811636
 31
0.0
  0
LINE
  5
1AED7
330
18
100
AcDbEntity
  8
0
  6
BYBLOCK
100
AcDbLine
 10
2377.09736326517
 20
-422.9848707811636
 30
0.0
 11
2375.380881868726
 21
-425.0582828893057
 31
0.0
  0
LINE
  5
1AED8
330
18
100
AcDbEntity
  8
0
  6
BYBLOCK
100
AcDbLine
 10
2377.09736326517
 20
-422.9848707811636
 30
0.0
 11
2374.977511294816
 21
-424.4902702709295
 31
0.0
  0
LINE
  5
1AED9
330
18
100
AcDbEntity
  8
0
  6
BYBLOCK
100
AcDbLine
 10
2412.321369072883
 20
-371.1862045552888
 30
0.0
 11
2413.018036966882
 21
-368.5862045552888
 31
0.0
  0
LINE
  5
1AEDA
330
18
100
AcDbEntity
  8
0
  6
BYBLOCK
100
AcDbLine
 10
2413.018036966882
 20
-368.5862045552888
 30
0.0
 11
2413.714704860882
 21
-371.1862045552888
 31
0.0
  0
LINE
  5
1AEDB
330
18
100
AcDbEntity
  8
0
  6
BYBLOCK
100
AcDbLine
 10
2413.018036966882
 20
-368.5862045552888
 30
0.0
 11
2413.018036966882
 21
-371.1862045552888
 31
0.0
  0
LINE
  5
1AEDC
330
18
100
AcDbEntity
  8
0
  6
BYBLOCK
100
AcDbLine
 10
2413.714704860882
 20
-384.7862045552887
 30
0.0
 11
2413.018036966882
 21
-387.3862045552887
 31
0.0
  0
LINE
  5
1AEDD
330
18
100
AcDbEntity
  8
0
  6
BYBLOCK
100
AcDbLine
 10
2413.018036966882
 20
-387.3862045552887
 30
0.0
 11
2412.321369072883
 21
-384.7862045552887
 31
0.0
  0
LINE
  5
1AEDE
330
18
100
AcDbEntity
  8
0
  6
BYBLOCK
100
AcDbLine
 10
2413.018036966882
 20
-387.3862045552887
 30
0.0
 11
2413.018036966882
 21
-384.7862045552887
 31
0.0
  0
TEXT
  5
1AEDF
330
18
100
AcDbEntity
  8
1DIM
  6
CONTINUOUS
100
AcDbText
 10
2412.108036966883
 20
-381.0205911293629
 30
0.0
 40
4.55
  1
19
 50
90.0
100
AcDbText
1001
ACAD
1000
DSTYLE
1002
{
1070
    45
1040
0.5
1070
    40
1040
1.3
1002
}
  0
LINE
  5
1AEE0
330
18
100
AcDbEntity
  8
0
  6
BYBLOCK
100
AcDbLine
 10
1976.561020140312
 20
-650.6862045542606
 30
0.0
 11
1977.257688034312
 21
-648.0862045542606
 31
0.0
  0
LINE
  5
1AEE1
330
18
100
AcDbEntity
  8
0
  6
BYBLOCK
100
AcDbLine
 10
1977.257688034312
 20
-648.0862045542606
 30
0.0
 11
1977.954355928312
 21
-650.6862045542606
 31
0.0
  0
LINE
  5
1AEE2
330
18
100
AcDbEntity
  8
0
  6
BYBLOCK
100
AcDbLine
 10
1977.257688034312
 20
-648.0862045542606
 30
0.0
 11
1977.257688034312
 21
-650.6862045542606
 31
0.0
  0
LINE
  5
1AEE3
330
18
100
AcDbEntity
  8
0
  6
BYBLOCK
100
AcDbLine
 10
1977.954355928312
 20
-709.4862045542606
 30
0.0
 11
1977.257688034312
 21
-712.0862045542606
 31
0.0
  0
LINE
  5
1AEE4
330
18
100
AcDbEntity
  8
0
  6
BYBLOCK
100
AcDbLine
 10
1977.257688034312
 20
-712.0862045542606
 30
0.0
 11
1976.561020140312
 21
-709.4862045542606
 31
0.0
  0
LINE
  5
1AEE5
330
18
100
AcDbEntity
  8
0
  6
BYBLOCK
100
AcDbLine
 10
1977.257688034312
 20
-712.0862045542606
 30
0.0
 11
1977.257688034312
 21
-709.4862045542606
 31
0.0
  0
TEXT
  5
1AEE6
330
18
100
AcDbEntity
  8
1DIM
  6
CONTINUOUS
100
AcDbText
 10
1976.347688034312
 20
-683.8936698320383
 30
0.0
 40
4.55
  1
64
 50
90.0
100
AcDbText
1001
ACAD
1000
DSTYLE
1002
{
1070
    40
1040
1.3
1002
}
  0
LINE
  5
1AEE7
330
18
100
AcDbEntity
  8
0
  6
BYBLOCK
100
AcDbLine
 10
2543.053429919109
 20
-709.4862045542601
 30
0.0
 11
2542.35676202511
 21
-712.0862045542601
 31
0.0
  0
LINE
  5
1AEE8
330
18
100
AcDbEntity
  8
0
  6
BYBLOCK
100
AcDbLine
 10
2542.35676202511
 20
-712.0862045542601
 30
0.0
 11
2541.66009413111
 21
-709.4862045542601
 31
0.0
  0
LINE
  5
1AEE9
330
18
100
AcDbEntity
  8
0
  6
BYBLOCK
100
AcDbLine
 10
2542.35676202511
 20
-712.0862045542601
 30
0.0
 11
2542.35676202511
 21
-709.4862045542601
 31
0.0
  0
LINE
  5
1AEEA
330
18
100
AcDbEntity
  8
0
  6
BYBLOCK
100
AcDbLine
 10
2541.66009413111
 20
-536.6862045542601
 30
0.0
 11
2542.35676202511
 21
-534.0862045542601
 31
0.0
  0
LINE
  5
1AEEB
330
18
100
AcDbEntity
  8
0
  6
BYBLOCK
100
AcDbLine
 10
2542.35676202511
 20
-534.0862045542601
 30
0.0
 11
2543.053429919109
 21
-536.6862045542601
 31
0.0
  0
LINE
  5
1AEEC
330
18
100
AcDbEntity
  8
0
  6
BYBLOCK
100
AcDbLine
 10
2542.35676202511
 20
-534.0862045542601
 30
0.0
 11
2542.35676202511
 21
-536.6862045542601
 31
0.0
  0
TEXT
  5
1AEED
330
18
100
AcDbEntity
  8
1DIM
  6
CONTINUOUS
100
AcDbText
 10
2541.44676202511
 20
-628.3945378875937
 30
0.0
 40
4.55
  1
178
 50
90.0
100
AcDbText
1001
ACAD
1000
DSTYLE
1002
{
1070
    40
1040
1.3
1070
    45
1040
0.5
1070
   341
1005
0
1002
}
  0
LINE
  5
1AEEE
330
18
100
AcDbEntity
  8
0
  6
BYBLOCK
100
AcDbLine
 10
2354.95676202511
 20
-529.3828724482605
 30
0.0
 11
2352.35676202511
 21
-528.6862045542605
 31
0.0
  0
LINE
  5
1AEEF
330
18
100
AcDbEntity
  8
0
  6
BYBLOCK
100
AcDbLine
 10
2352.35676202511
 20
-528.6862045542605
 30
0.0
 11
2354.95676202511
 21
-527.9895366602605
 31
0.0
  0
LINE
  5
1AEF0
330
18
100
AcDbEntity
  8
0
  6
BYBLOCK
100
AcDbLine
 10
2352.35676202511
 20
-528.6862045542605
 30
0.0
 11
2354.95676202511
 21
-528.6862045542605
 31
0.0
  0
LINE
  5
1AEF1
330
18
100
AcDbEntity
  8
0
  6
BYBLOCK
100
AcDbLine
 10
2399.75676202511
 20
-527.9895366602605
 30
0.0
 11
2402.35676202511
 21
-528.6862045542605
 31
0.0
  0
LINE
  5
1AEF2
330
18
100
AcDbEntity
  8
0
  6
BYBLOCK
100
AcDbLine
 10
2402.35676202511
 20
-528.6862045542605
 30
0.0
 11
2399.75676202511
 21
-529.3828724482605
 31
0.0
  0
LINE
  5
1AEF3
330
18
100
AcDbEntity
  8
0
  6
BYBLOCK
100
AcDbLine
 10
2402.35676202511
 20
-528.6862045542605
 30
0.0
 11
2399.75676202511
 21
-528.6862045542605
 31
0.0
  0
TEXT
  5
1AEF4
330
18
100
AcDbEntity
  8
1DIM
  6
CONTINUOUS
100
AcDbText
 10
2373.833671747332
 20
-527.7762045542605
 30
0.0
 40
4.55
  1
50
100
AcDbText
1001
ACAD
1000
DSTYLE
1002
{
1070
    40
1040
1.3
1070
    45
1040
0.5
1070
   341
1005
0
1002
}
  0
LINE
  5
1AEF5
330
18
100
AcDbEntity
  8
0
  6
BYBLOCK
100
AcDbLine
 10
2516.225890471641
 20
-400.6862045552879
 30
0.0
 11
2516.922558365641
 21
-398.0862045552878
 31
0.0
  0
LINE
  5
1AEF6
330
18
100
AcDbEntity
  8
0
  6
BYBLOCK
100
AcDbLine
 10
2516.922558365641
 20
-398.0862045552878
 30
0.0
 11
2517.619226259641
 21
-400.6862045552879
 31
0.0
  0
LINE
  5
1AEF7
330
18
100
AcDbEntity
  8
0
  6
BYBLOCK
100
AcDbLine
 10
2516.922558365641
 20
-398.0862045552878
 30
0.0
 11
2516.922558365641
 21
-400.6862045552879
 31
0.0
  0
LINE
  5
1AEF8
330
18
100
AcDbEntity
  8
0
  6
BYBLOCK
100
AcDbLine
 10
2517.619226259641
 20
-431.4354618137214
 30
0.0
 11
2516.922558365641
 21
-434.0354618137214
 31
0.0
  0
LINE
  5
1AEF9
330
18
100
AcDbEntity
  8
0
  6
BYBLOCK
100
AcDbLine
 10
2516.922558365641
 20
-434.0354618137214
 30
0.0
 11
2516.225890471641
 21
-431.4354618137214
 31
0.0
  0
LINE
  5
1AEFA
330
18
100
AcDbEntity
  8
0
  6
BYBLOCK
100
AcDbLine
 10
2516.922558365641
 20
-434.0354618137214
 30
0.0
 11
2516.922558365641
 21
-431.4354618137214
 31
0.0
  0
TEXT
  5
1AEFB
330
18
100
AcDbEntity
  8
1DIM
  6
CONTINUOUS
100
AcDbText
 10
2516.012558365641
 20
-419.8524998511712
 30
0.0
 40
4.55
  1
36
 50
90.0
100
AcDbText
1001
ACAD
1000
DSTYLE
1002
{
1070
    40
1040
1.3
1070
   271
1070
     0
1002
}
  0
LINE
  5
1AEFC
330
18
100
AcDbEntity
  8
0
  6
BYBLOCK
100
AcDbLine
 10
2527.619226259641
 20
-458.5242632551427
 30
0.0
 11
2526.922558365641
 21
-461.1242632551428
 31
0.0
  0
LINE
  5
1AEFD
330
18
100
AcDbEntity
  8
0
  6
BYBLOCK
100
AcDbLine
 10
2526.922558365641
 20
-461.1242632551428
 30
0.0
 11
2526.225890471641
 21
-458.5242632551427
 31
0.0
  0
LINE
  5
1AEFE
330
18
100
AcDbEntity
  8
0
  6
BYBLOCK
100
AcDbLine
 10
2526.922558365641
 20
-461.1242632551428
 30
0.0
 11
2526.922558365641
 21
-458.5242632551427
 31
0.0
  0
LINE
  5
1AEFF
330
18
100
AcDbEntity
  8
0
  6
BYBLOCK
100
AcDbLine
 10
2526.225890471641
 20
-400.6862045552879
 30
0.0
 11
2526.922558365641
 21
-398.0862045552878
 31
0.0
  0
LINE
  5
1AF00
330
18
100
AcDbEntity
  8
0
  6
BYBLOCK
100
AcDbLine
 10
2526.922558365641
 20
-398.0862045552878
 30
0.0
 11
2527.619226259641
 21
-400.6862045552879
 31
0.0
  0
LINE
  5
1AF01
330
18
100
AcDbEntity
  8
0
  6
BYBLOCK
100
AcDbLine
 10
2526.922558365641
 20
-398.0862045552878
 30
0.0
 11
2526.922558365641
 21
-400.6862045552879
 31
0.0
  0
TEXT
  5
1AF02
330
18
100
AcDbEntity
  8
1DIM
  6
CONTINUOUS
100
AcDbText
 10
2526.012558365641
 20
-433.412699182993
 30
0.0
 40
4.55
  1
63
 50
90.0
100
AcDbText
1001
ACAD
1000
DSTYLE
1002
{
1070
    40
1040
1.3
1070
   271
1070
     0
1002
}
  0
LINE
  5
1AF03
330
18
100
AcDbEntity
  8
0
  6
BYBLOCK
100
AcDbLine
 10
2379.95676202511
 20
-476.8209311491427
 30
0.0
 11
2377.35676202511
 21
-476.1242632551428
 31
0.0
  0
LINE
  5
1AF04
330
18
100
AcDbEntity
  8
0
  6
BYBLOCK
100
AcDbLine
 10
2377.35676202511
 20
-476.1242632551428
 30
0.0
 11
2379.95676202511
 21
-475.4275953611428
 31
0.0
  0
LINE
  5
1AF05
330
18
100
AcDbEntity
  8
0
  6
BYBLOCK
100
AcDbLine
 10
2377.35676202511
 20
-476.1242632551428
 30
0.0
 11
2379.95676202511
 21
-476.1242632551428
 31
0.0
  0
LINE
  5
1AF06
330
18
100
AcDbEntity
  8
0
  6
BYBLOCK
100
AcDbLine
 10
2499.322558368059
 20
-475.4275953611428
 30
0.0
 11
2501.922558368059
 21
-476.1242632551428
 31
0.0
  0
LINE
  5
1AF07
330
18
100
AcDbEntity
  8
0
  6
BYBLOCK
100
AcDbLine
 10
2501.922558368059
 20
-476.1242632551428
 30
0.0
 11
2499.322558368059
 21
-476.8209311491427
 31
0.0
  0
LINE
  5
1AF08
330
18
100
AcDbEntity
  8
0
  6
BYBLOCK
100
AcDbLine
 10
2501.922558368059
 20
-476.1242632551428
 30
0.0
 11
2499.322558368059
 21
-476.1242632551428
 31
0.0
  0
TEXT
  5
1AF09
330
18
100
AcDbEntity
  8
1DIM
  6
CONTINUOUS
100
AcDbText
 10
2434.331326863251
 20
-475.2142632551428
 30
0.0
 40
4.55
  1
125
100
AcDbText
1001
ACAD
1000
DSTYLE
1002
{
1070
    40
1040
1.3
1070
   271
1070
     0
1002
}
  0
LINE
  5
1AF0A
330
18
100
AcDbEntity
  8
0
  6
BYBLOCK
100
AcDbLine
 10
2366.45676436564
 20
-486.8209311491427
 30
0.0
 11
2363.85676436564
 21
-486.1242632551428
 31
0.0
  0
LINE
  5
1AF0B
330
18
100
AcDbEntity
  8
0
  6
BYBLOCK
100
AcDbLine
 10
2363.85676436564
 20
-486.1242632551428
 30
0.0
 11
2366.45676436564
 21
-485.4275953611428
 31
0.0
  0
LINE
  5
1AF0C
330
18
100
AcDbEntity
  8
0
  6
BYBLOCK
100
AcDbLine
 10
2363.85676436564
 20
-486.1242632551428
 30
0.0
 11
2366.45676436564
 21
-486.1242632551428
 31
0.0
  0
LINE
  5
1AF0D
330
18
100
AcDbEntity
  8
0
  6
BYBLOCK
100
AcDbLine
 10
2499.322558368059
 20
-485.4275953611428
 30
0.0
 11
2501.922558368059
 21
-486.1242632551428
 31
0.0
  0
LINE
  5
1AF0E
330
18
100
AcDbEntity
  8
0
  6
BYBLOCK
100
AcDbLine
 10
2501.922558368059
 20
-486.1242632551428
 30
0.0
 11
2499.322558368059
 21
-486.8209311491427
 31
0.0
  0
LINE
  5
1AF0F
330
18
100
AcDbEntity
  8
0
  6
BYBLOCK
100
AcDbLine
 10
2501.922558368059
 20
-486.1242632551428
 30
0.0
 11
2499.322558368059
 21
-486.1242632551428
 31
0.0
  0
TEXT
  5
1AF10
330
18
100
AcDbEntity
  8
1DIM
  6
CONTINUOUS
100
AcDbText
 10
2427.581328033516
 20
-485.2142632551428
 30
0.0
 40
4.55
  1
138
100
AcDbText
1001
ACAD
1000
DSTYLE
1002
{
1070
    40
1040
1.3
1070
   271
1070
     0
1002
}
  0
VIEWPORT
  5
57
330
15
100
AcDbEntity
 67
     1
  8
0
100
AcDbViewport
 68
     1
 10
0.0
 20
0.0
 30
0.0
 40
555.8298653610772
 41
297.0
 68
     1
 69
     1
1001
ACAD
1000
MVIEW
1002
{
1070
    16
1010
0.0
1020
0.0
1030
0.0
1010
0.0
1020
0.0
1030
1.0
1040
0.0
1040
297.0
1040
1.837278951023421
1040
12.29366132359621
1040
50.0
1040
0.0
1040
0.0
1070
    16
1070
  1000
1070
     0
1070
     1
1070
     0
1070
     0
1070
     0
1070
     0
1040
0.0
1040
0.0
1040
0.0
1040
10.0
1040
10.0
1040
10.0
1040
10.0
1070
     0
1002
{
1002
}
1002
}
  0
ENDSEC
  0
SECTION
  2
OBJECTS
  0
DICTIONARY
  5
C
330
0
100
AcDbDictionary
  3
ACAD_COLOR
350
18D
  3
ACAD_GROUP
350
D
  3
ACAD_LAYOUT
350
18E
  3
ACAD_MATERIAL
350
18C
  3
ACAD_MLEADERSTYLE
350
D9E7
  3
ACAD_MLINESTYLE
350
1B
  3
ACAD_PLOTSETTINGS
350
18F
  3
ACAD_SCALELIST
350
D9C5
  3
ACAD_VISUALSTYLE
350
D9B4
  3
ACDBHEADERROUNDTRIPXREC
350
1AF11
  3
ACDBVARIABLEDICTIONARY
350
37
  3
CONTENTDICTIONARY
350
D8
  3
DRAWINGVARIABLESDICT
350
20
  3
DWGPROPS
350
1AF14
1001
ACAD
1000
TREAT_AS_HARD
1070
     0
  0
DICTIONARY
  5
E6A6
330
2
100
AcDbDictionary
  3
ACAD_LAYERSTATES
360
E6A7
1001
ACAD
1000
TREAT_AS_HARD
1070
     1
  0
DICTIONARY
  5
DA05
330
E
100
AcDbDictionary
  3
ADSK_XREC_LAYER_RECONCILED
360
DA06
1001
ACAD
1000
TREAT_AS_HARD
1070
     1
  0
DICTIONARY
  5
DA07
330
29
100
AcDbDictionary
  3
ADSK_XREC_LAYER_RECONCILED
360
DA08
1001
ACAD
1000
TREAT_AS_HARD
1070
     1
  0
DICTIONARY
  5
DA09
330
31
100
AcDbDictionary
  3
ADSK_XREC_LAYER_RECONCILED
360
DA0A
1001
ACAD
1000
TREAT_AS_HARD
1070
     1
  0
DICTIONARY
  5
DA0F
330
243
100
AcDbDictionary
  3
ADSK_XREC_LAYER_RECONCILED
360
DA10
1001
ACAD
1000
TREAT_AS_HARD
1070
     1
  0
DICTIONARY
  5
DA15
330
24E
100
AcDbDictionary
  3
ADSK_XREC_LAYER_RECONCILED
360
DA16
1001
ACAD
1000
TREAT_AS_HARD
1070
     1
  0
DICTIONARY
  5
DA23
330
2C05
100
AcDbDictionary
  3
ADSK_XREC_LAYER_RECONCILED
360
DA24
1001
ACAD
1000
TREAT_AS_HARD
1070
     1
  0
DICTIONARY
  5
88F
330
18
100
AcDbDictionary
  3
ACAD_SORTENTS
360
890
1001
ACAD
1000
TREAT_AS_HARD
1070
     1
  0
DICTIONARY
  5
18D
102
{ACAD_REACTORS
330
C
102
}
330
C
100
AcDbDictionary
1001
ACAD
1000
TREAT_AS_HARD
1070
     0
  0
DICTIONARY
  5
D
102
{ACAD_REACTORS
330
C
102
}
330
C
100
AcDbDictionary
1001
ACAD
1000
TREAT_AS_HARD
1070
     0
  0
DICTIONARY
  5
18E
102
{ACAD_REACTORS
330
C
102
}
330
C
100
AcDbDictionary
1001
ACAD
1000
TREAT_AS_HARD
1070
     0
  0
DICTIONARY
  5
18C
102
{ACAD_REACTORS
330
C
102
}
330
C
100
AcDbDictionary
  3
BYBLOCK
350
D9A4
  3
BYLAYER
350
D99C
  3
GLOBAL
350
D9AC
1001
ACAD
1000
TREAT_AS_HARD
1070
     0
  0
DICTIONARY
  5
D9E7
102
{ACAD_REACTORS
330
C
102
}
330
C
100
AcDbDictionary
  3
STANDARD
350
D9E8
1001
ACAD
1000
TREAT_AS_HARD
1070
     0
  0
DICTIONARY
  5
1B
102
{ACAD_REACTORS
330
C
102
}
330
C
100
AcDbDictionary
  3
STANDARD
350
1C
1001
ACAD
1000
TREAT_AS_HARD
1070
     0
  0
DICTIONARY
  5
18F
102
{ACAD_REACTORS
330
C
102
}
330
C
100
AcDbDictionary
1001
ACAD
1000
TREAT_AS_HARD
1070
     0
  0
DICTIONARY
  5
D9C5
102
{ACAD_REACTORS
330
C
102
}
330
C
100
AcDbDictionary
  3
A0
350
D9C6
  3
A1
350
D9C7
  3
A2
350
D9C8
  3
A3
350
D9C9
  3
A4
350
D9CA
  3
A5
350
D9CB
  3
A6
350
D9CC
  3
A7
350
D9CD
  3
A8
350
D9CE
  3
A9
350
D9CF
  3
B0
350
D9D0
  3
B1
350
D9D1
  3
B2
350
D9D2
  3
B3
350
D9D3
  3
B4
350
D9D4
  3
B5
350
D9D5
  3
B6
350
D9D6
  3
B7
350
D9D7
  3
B8
350
D9D8
  3
B9
350
D9D9
  3
C0
350
D9DA
  3
C1
350
D9DB
  3
C2
350
D9DC
  3
C3
350
D9DD
  3
C4
350
D9DE
  3
C5
350
D9DF
  3
C6
350
D9E0
  3
C7
350
D9E1
  3
C8
350
D9E2
  3
C9
350
D9E3
  3
D0
350
D9E4
  3
D1
350
D9E5
  3
D2
350
D9E6
1001
ACAD
1000
TREAT_AS_HARD
1070
     0
  0
DICTIONARY
  5
D9B4
102
{ACAD_REACTORS
330
C
102
}
330
C
100
AcDbDictionary
  3
2DWIREFRAME
350
D9BA
  3
3D_HIDDEN
350
D9BC
  3
3DWIREFRAME
350
D9BB
  3
BASIC
350
D9B9
  3
BRIGHTEN
350
D9C0
  3
COLORCHANGE
350
D9C4
  3
CONCEPTUAL
350
D9BD
  3
DIM
350
D9BF
  3
EDGECOLOROFF
350
19C2F
  3
FACEPATTERN
350
D9C3
  3
FLAT
350
D9B5
  3
FLATWITHEDGES
350
D9B6
  3
GOURAUD
350
D9B7
  3
GOURAUDWITHEDGES
350
D9B8
  3
HIDDEN
350
19C7E
  3
JITTEROFF
350
19C2D
  3
LINEPATTERN
350
D9C2
  3
MODELING
350
19C84
  3
OVERHANGOFF
350
19C2E
  3
REALISTIC
350
D9BE
  3
SHADED
350
19C83
  3
SHADED_WITH_EDGES
350
19C82
  3
SHADES_OF_GRAY
350
19C7F
  3
SKETCHY
350
19C80
  3
THICKEN
350
D9C1
  3
WIREFRAME
350
19C7D
  3
X-RAY
350
19C81
1001
ACAD
1000
TREAT_AS_HARD
1070
     0
  0
DICTIONARY
  5
1AF11
102
{ACAD_REACTORS
330
C
102
}
330
C
100
AcDbDictionary
  3
COLORDICT
350
1AF12
  3
MATERIALDICT
350
1AF13
1001
ACAD
1000
TREAT_AS_HARD
1070
     0
  0
DICTIONARY
  5
37
102
{ACAD_REACTORS
330
C
102
}
330
C
100
AcDbDictionary
  3
CANNOSCALE
350
1A787
  3
CMLEADERSTYLE
350
DA6A
  3
CTABLESTYLE
350
29E
  3
DIMADEC
350
38
  3
DIMASSOC
350
1CE
  3
HIDETEXT
350
704E
  3
INDEXCTL
350
DA6D
  3
INTERSECTIONCOLOR
350
7052
  3
INTERSECTIONDISPLAY
350
7051
  3
LAYEREVAL
350
1A73B
  3
LAYERNOTIFY
350
1A73C
  3
MSLTSCALE
350
1A60C
  3
OBSCOLOR
350
704F
  3
OBSLTYPE
350
7050
  3
PROJECTNAME
350
1CF
  3
SORTENTS
350
DA6C
  3
XCLIPFRAME
350
1A73D
1001
ACAD
1000
TREAT_AS_HARD
1070
     0
  0
DICTIONARY
  5
D8
102
{ACAD_REACTORS
330
C
102
}
330
C
100
AcDbDictionary
1001
ACAD
1000
TREAT_AS_HARD
1070
     0
  0
DICTIONARY
  5
20
102
{ACAD_REACTORS
330
C
102
}
330
C
100
AcDbDictionary
1001
DRAWINGVARIABLESXDATA
1000
POLARANG
1000
0.261799387799149410000000
1000
POLARMODE
1000
1
1000
POLARSTYLE
1000
1
1001
ACAD
1000
TREAT_AS_HARD
1070
     0
  0
XRECORD
  5
1AF14
102
{ACAD_REACTORS
330
C
102
}
330
C
100
AcDbXrecord
  1
DWGPROPS COOKIE
  2

  3

  4

  6

  7

  8
3684
  9

300
=
301
=
302
=
303
=
304
=
305
=
306
=
307
=
308
=
309
=
 40
0.0
 41
2451318.246352917
 42
2458159.173778299
  1

 90
        0
  0
DICTIONARY
  5
E6A7
102
{ACAD_REACTORS
330
E6A6
102
}
330
E6A6
100
AcDbDictionary
1001
ACAD
1000
TREAT_AS_HARD
1070
     0
  0
ACAD_PROXY_OBJECT
  5
DA06
102
{ACAD_REACTORS
330
DA05
102
}
330
DA05
100
AcDbZombieObject
 90
      499
 91
      514
 93
       34
310
40C8804040
  0
ACAD_PROXY_OBJECT
  5
DA08
102
{ACAD_REACTORS
330
DA07
102
}
330
DA07
100
AcDbZombieObject
 90
      499
 91
      514
 93
       34
310
40C8804040
  0
ACAD_PROXY_OBJECT
  5
DA0A
102
{ACAD_REACTORS
330
DA09
102
}
330
DA09
100
AcDbZombieObject
 90
      499
 91
      514
 93
       34
310
40C8804040
  0
ACAD_PROXY_OBJECT
  5
DA10
102
{ACAD_REACTORS
330
DA0F
102
}
330
DA0F
100
AcDbZombieObject
 90
      499
 91
      514
 93
       34
310
40C8804040
  0
ACAD_PROXY_OBJECT
  5
DA16
102
{ACAD_REACTORS
330
DA15
102
}
330
DA15
100
AcDbZombieObject
 90
      499
 91
      514
 93
       34
310
40C8804040
  0
ACAD_PROXY_OBJECT
  5
DA24
102
{ACAD_REACTORS
330
DA23
102
}
330
DA23
100
AcDbZombieObject
 90
      499
 91
      514
 93
       34
310
40C8804040
  0
SORTENTSTABLE
  5
890
102
{ACAD_REACTORS
330
88F
102
}
330
88F
100
AcDbSortentsTable
330
18
331
0
  5
5BFF
331
1AAD2
  5
1AAF6
331
1AAD3
  5
1AAF7
331
1AAD4
  5
1AAF8
331
1AAD5
  5
1AAF9
331
1AAD6
  5
1AAFA
331
1AAD7
  5
1AAFB
331
1AAD8
  5
1AAFC
331
1AAD9
  5
1AAFD
331
1AADA
  5
1AB01
331
1AADB
  5
1AB02
331
1AADC
  5
1AB0D
331
1AADD
  5
1AB0E
331
1AADE
  5
1AB0F
331
1AADF
  5
1AB10
331
1AAE0
  5
1AB11
331
1AAE1
  5
1AB12
331
1AAE2
  5
1AB13
331
1AAE3
  5
1AB14
331
1AAE4
  5
1AB15
331
1AAE5
  5
1AB16
331
1AAE6
  5
1AB17
331
1AAE9
  5
1AB2D
331
1AAEA
  5
1AB2E
331
1AAEB
  5
1AB2F
331
1AAEC
  5
1AB30
331
0
  5
1AB03
331
1AAEF
  5
1AB37
331
1AAF3
  5
1AB56
331
1AAF4
  5
1AB57
331
1AAF5
  5
1AB58
331
1AAF6
  5
1AB59
331
1AAF7
  5
1AB5A
331
1AAF8
  5
1AB5B
331
1AAF9
  5
1AB5C
331
1AAFA
  5
1AB5D
331
1AAFB
  5
1AB5F
331
1AAFC
  5
1AB60
331
1AAFD
  5
1AB61
331
1AAFE
  5
1AB62
331
1AAFF
  5
1AB63
331
1AB00
  5
1AB64
331
1AB01
  5
1AB65
331
1AB02
  5
1AB66
331
1AB03
  5
1AB67
331
1AB04
  5
1AB68
331
1AB05
  5
1AB69
331
1AB06
  5
1AB6A
331
1AB07
  5
1AB6B
331
1AB08
  5
1AB6C
331
1AB09
  5
1AB6D
331
1AB0A
  5
1AB6E
331
1AB0B
  5
1AB6F
331
1AB0C
  5
1AB71
331
1AB0D
  5
1AB72
331
1AB0E
  5
1AB73
331
1AB0F
  5
1AB74
331
1AB10
  5
1AB75
331
1AB11
  5
1AB76
331
1AB12
  5
1AB77
331
1AB13
  5
1AB78
331
1AB14
  5
1AB79
331
1AB15
  5
1AB7A
331
1AB16
  5
1AB7B
331
1AB17
  5
1AB7F
331
1AB18
  5
1AB80
331
1AB19
  5
1AB81
331
1AB1A
  5
1AB82
331
1AB1B
  5
1AB83
331
1AB1C
  5
1AB84
331
1AB1D
  5
1AB85
331
1AB1E
  5
1AB86
331
1AB1F
  5
1AB87
331
1AB20
  5
1AB88
331
1AB21
  5
1AB89
331
1AB22
  5
1AB8A
331
1AB23
  5
1AB8B
331
1AB24
  5
1AB8F
331
1AB25
  5
1AB90
331
1AB26
  5
1AB92
331
1AB27
  5
1AB93
331
1AB28
  5
1AB94
331
1AB29
  5
1AB95
331
1AB2A
  5
1AB96
331
1AB2B
  5
1AB97
331
1AB2C
  5
1AB98
331
1AB2D
  5
1AB9B
331
1AB2E
  5
1AB9C
331
1AB2F
  5
1AB9D
331
1AB30
  5
1AB9E
331
1AB31
  5
1AB9F
331
1AB32
  5
1ABA0
331
1AB33
  5
1ABA1
331
1AB34
  5
1ABA2
331
1AB35
  5
1ABA3
331
1AB36
  5
1ABA4
331
1AB37
  5
1ABA5
331
1AB38
  5
1ABA6
331
0
  5
1AB70
331
1AB3A
  5
1ABB2
331
1AB3B
  5
1ABB3
331
1AB3C
  5
1ABB4
331
1AB3D
  5
1ABB5
331
1AB3E
  5
1ABB6
331
1AB3F
  5
1ABB7
331
1AB40
  5
1ABB8
331
1AB41
  5
1ABB9
331
1AB42
  5
1ABBA
331
1AB43
  5
1ABBB
331
1AB44
  5
1ABBC
331
1AB45
  5
1ABBD
331
1AB46
  5
1ABBE
331
1AB47
  5
1ABBF
331
1AB48
  5
1ABC0
331
1AB49
  5
1ABC1
331
1AB4A
  5
1ABC2
331
1AB4B
  5
1ABC3
331
1AB4C
  5
1ABC4
331
1AB4D
  5
1ABC8
331
1AB4E
  5
1ABC9
331
1AB4F
  5
1ABCA
331
1AB50
  5
1ABCE
331
1AB51
  5
1ABCF
331
1AB52
  5
1ABD0
331
1AB53
  5
1ABD1
331
1AB54
  5
1ABD2
331
1AB55
  5
1ABD3
331
1AB56
  5
1ABD4
331
1AB57
  5
1ABD5
331
1AB58
  5
1ABD6
331
1AB59
  5
1ABD7
331
1AB5A
  5
1ABD8
331
1AB5B
  5
1ABD9
331
1AB5C
  5
1ABDA
331
1AB5D
  5
1ABDB
331
1AB5F
  5
1ABE6
331
1AB60
  5
1ABE7
331
1AB61
  5
1ABE8
331
1AB62
  5
1ABE9
331
1AB63
  5
1ABEA
331
1AB64
  5
1ABEB
331
1AB65
  5
1ABEC
331
1AB66
  5
1ABED
331
1AB67
  5
1ABEE
331
1AB68
  5
1ABEF
331
1AB69
  5
1ABF0
331
1AB6A
  5
1ABF1
331
1AB6B
  5
1ABF2
331
1AB6C
  5
1ABF3
331
1AB6D
  5
1ABF4
331
1AB6E
  5
1ABF5
331
1AB6F
  5
1ABF6
331
1AB70
  5
1ABF7
331
1AB71
  5
1ABF8
331
1AB72
  5
1ABF9
331
1AB73
  5
1ABFA
331
1AB74
  5
1ABFB
331
1AB75
  5
1ABFC
331
1AB76
  5
1ABFD
331
1AB77
  5
1ABFE
331
1AB78
  5
1AC00
331
1AB79
  5
1AC01
331
1AB7A
  5
1AC02
331
1AB7B
  5
1AC03
331
1AB7C
  5
1AC04
331
1AB7D
  5
1AC05
331
1AB7E
  5
1AC06
331
1AB7F
  5
1AC07
331
1AB80
  5
1AC08
331
1AB81
  5
1AC09
331
1AB82
  5
1AC0A
331
1AB83
  5
1AC0B
331
1AB84
  5
1AC0C
331
1AB85
  5
1AC0D
331
1AB86
  5
1AC0E
331
1AB87
  5
1AC0F
331
1AB88
  5
1AC10
331
1AB89
  5
1AC11
331
1AB8A
  5
1AC12
331
1AB8B
  5
1AC13
331
1AB8C
  5
1AC14
331
1AB8D
  5
1AC15
331
1AB8E
  5
1AC16
331
1AB8F
  5
1AC17
331
1AB90
  5
1AC18
331
1AB92
  5
1AC22
331
1AB93
  5
1AC23
331
1AB94
  5
1AC24
331
1AB95
  5
1AC25
331
1AB96
  5
1AC26
331
1AB97
  5
1AC29
331
1AB98
  5
1AC2A
331
0
  5
1ABFF
331
1AB9C
  5
1AC49
331
1AB9D
  5
1AC4A
331
1AB9E
  5
1AC4B
331
1AB9F
  5
1AC4C
331
1ABA0
  5
1AE1B
331
1ABA1
  5
1AE1C
331
1ABA2
  5
1AE1D
331
1ABA3
  5
1AE21
331
1ABA4
  5
1AE22
331
1ABA5
  5
1AE23
331
1ABA6
  5
1AE24
331
1ABA7
  5
1AE25
331
1ABA8
  5
1AE26
331
1ABA9
  5
1AE27
331
1ABAA
  5
1AE28
331
1ABAB
  5
1AE29
331
1ABAC
  5
1AE2E
331
1ABAD
  5
1AE2F
331
1ABAF
  5
1AE31
331
1ABB0
  5
1AE32
331
1ABB1
  5
1AE33
331
1ABB2
  5
1AE34
331
1ABB3
  5
1AE35
331
1ABB4
  5
1AE36
331
1ABB5
  5
1AE37
331
1ABB6
  5
1AE38
331
1ABB7
  5
1AE39
331
1ABB8
  5
1AE3A
331
1ABB9
  5
1AE3B
331
1ABBA
  5
1AE3C
331
1ABBB
  5
1AE3D
331
1ABBC
  5
1AE3E
331
1ABBD
  5
1AE3F
331
1ABBE
  5
1AE40
331
1ABBF
  5
1AE41
331
1ABC0
  5
1AE42
331
1ABC1
  5
1AE43
331
1ABC2
  5
1AE44
331
0
  5
1AC27
331
0
  5
1AC28
331
1ABC5
  5
1AE59
331
1ABC6
  5
1AE5A
331
1ABC7
  5
1AE5B
331
1ABC8
  5
1AE5C
331
1ABC9
  5
1AE5D
331
1ABCA
  5
1AE61
331
1ABCB
  5
1AE62
331
1ABCC
  5
1AE63
331
1ABCD
  5
1AE67
331
1ABCE
  5
1AE68
331
1ABCF
  5
1AE69
331
1ABD0
  5
1AE6D
331
1ABD1
  5
1AE6E
331
1ABD2
  5
1AE6F
331
1ABD3
  5
1AE73
331
1ABD4
  5
1AE74
331
1ABD5
  5
1AE75
331
1ABD6
  5
1AE76
331
1ABD7
  5
1AE77
331
1ABD8
  5
1AE78
331
1ABD9
  5
1AE79
331
1ABDA
  5
1AE7A
331
1ABDB
  5
1AE7B
331
1ABDC
  5
1AE7C
331
1ABDD
  5
1AE7D
331
1ABDE
  5
1AE7E
331
1ABDF
  5
1AE7F
331
1ABE0
  5
1AE80
331
1ABE1
  5
1AE81
331
1ABE2
  5
1AE82
331
1ABE3
  5
1AE83
331
1ABE4
  5
1AE84
331
1ABE5
  5
1AE85
331
1ABE6
  5
1AE86
331
1ABE7
  5
1AE87
331
1ABE8
  5
1AE88
331
1ABE9
  5
1AE89
331
1ABEA
  5
1AE8A
331
1ABEB
  5
1AE8B
331
1ABEC
  5
1AE8C
331
1ABED
  5
1AE8D
331
1ABEE
  5
1AE8E
331
1ABEF
  5
1AE8F
331
1ABF0
  5
1AE90
331
1ABF1
  5
1AE91
331
1ABF2
  5
1AE92
331
1ABF3
  5
1AE93
331
1ABF4
  5
1AE94
331
1ABF5
  5
1AE95
331
1ABF6
  5
1AE96
331
1ABF7
  5
1AE97
331
1ABF8
  5
1AE98
331
1ABF9
  5
1AE99
331
1ABFA
  5
1AE9A
331
0
  5
1AE2A
331
0
  5
1AE2B
331
0
  5
1AE2C
331
0
  5
1AE2D
331
1ABFF
  5
1AEC3
331
1AC00
  5
1AEC4
331
1AC01
  5
1AEC5
331
1AC02
  5
1AEC6
331
1AC03
  5
1AEC7
331
1AC04
  5
1AEC8
331
1AC05
  5
1AEC9
331
1AC06
  5
1AECA
331
1AC07
  5
1AECB
331
1AC08
  5
1AECC
331
1AC09
  5
1AECD
331
1AC0A
  5
1AECE
331
1AC0B
  5
1AECF
331
1AC0C
  5
1AED0
331
1AC0D
  5
1AED1
331
1AC0E
  5
1AED2
331
1AC0F
  5
1AED3
331
1AC10
  5
1AED4
331
1AC11
  5
1AED5
331
1AC12
  5
1AED6
331
1AC13
  5
1AED7
331
1AC14
  5
1AED8
331
1AC15
  5
1AED9
331
1AC16
  5
1AEDA
331
1AC17
  5
1AEDB
331
1AC18
  5
1AEDC
331
1AC19
  5
1AEDD
331
1AC1A
  5
1AEDE
331
1AC1B
  5
1AEDF
331
1AC1C
  5
1AEE0
331
1AC1D
  5
1AEE1
331
1AC1E
  5
1AEE2
331
1AC1F
  5
1AEE3
331
1AC20
  5
1AEE4
331
1AC21
  5
1AEE5
331
1AC22
  5
1AEE6
331
1AC23
  5
1AEE7
331
1AC24
  5
1AEE8
331
1AC25
  5
1AEE9
331
1AC26
  5
1AEEA
331
1AC27
  5
1AEEB
331
1AC28
  5
1AEEC
331
1AC29
  5
1AEED
331
1AC2A
  5
1AEEE
331
1AC2B
  5
1AEEF
331
1AC2C
  5
1AEF0
331
1AC2D
  5
1AEF1
331
1AC2E
  5
1AEF2
331
1AC2F
  5
1AEF3
331
1AC30
  5
1AEF4
331
1AC31
  5
1AEF5
331
1AC32
  5
1AEF6
331
1AC33
  5
1AEF7
331
1AC34
  5
1AEF8
331
1AC35
  5
1AEF9
331
1AC36
  5
1AEFA
331
1AC37
  5
1AEFB
331
1AC38
  5
1AEFC
331
1AC39
  5
1AEFD
331
1AC3A
  5
1AEFE
331
1AC3B
  5
1AEFF
331
1AC3C
  5
1AF00
331
1AC3D
  5
1AF01
331
1AC3E
  5
1AF02
331
1AC3F
  5
1AF03
331
1AC40
  5
1AF04
331
1AC41
  5
1AF05
331
1AC42
  5
1AF06
331
1AC43
  5
1AF07
331
1AC44
  5
1AF08
331
1AC45
  5
1AF09
331
1AC46
  5
1AF0A
331
1AC47
  5
1AF0B
331
1AC48
  5
1AF0C
331
1AC49
  5
1AF0D
331
1AC4A
  5
1AF0E
331
1AC4B
  5
1AF0F
331
1AC4C
  5
1AF10
331
1AE18
  5
1AB23
331
1AE19
  5
1AB24
331
1AE1A
  5
1AB25
331
0
  5
1AAEC
331
0
  5
1AAEE
331
0
  5
1AAEF
331
1AE1E
  5
1AB31
331
1AE1F
  5
1AB32
331
1AE20
  5
1AB38
331
1AE21
  5
1AB39
331
1AE22
  5
1AB3A
331
0
  5
1AAFE
331
0
  5
1AAFF
331
0
  5
1AB00
331
1AE26
  5
1AB42
331
1AE27
  5
1AB43
331
1AE28
  5
1AB44
331
0
  5
1AB04
331
0
  5
1AB05
331
0
  5
1AB06
331
1AE2C
  5
1AB4C
331
1AE2D
  5
1AB4D
331
1AE2E
  5
1AB4E
331
0
  5
1AB0A
331
0
  5
1AB0B
331
0
  5
1AB0C
331
1AE32
  5
1ABDC
331
1AE33
  5
1ABDD
331
1AE34
  5
1ABDE
331
0
  5
1AB7C
331
0
  5
1AB7D
331
0
  5
1AB7E
331
1AE38
  5
1AC19
331
1AE39
  5
1AC1A
331
1AE3A
  5
1AC1B
331
1AE3B
  5
1AC1C
331
1AE3C
  5
1AC1D
331
1AE3D
  5
1AC21
331
1AE3E
  5
1AC2B
331
1AE3F
  5
1AC2C
331
1AE40
  5
1AC2D
331
0
  5
1ABC5
331
0
  5
1ABC6
331
0
  5
1ABC7
331
1AE44
  5
1AC35
331
1AE45
  5
1AC36
331
1AE46
  5
1AC37
331
0
  5
1ABCB
331
0
  5
1ABCC
331
0
  5
1ABCD
331
1AE4A
  5
1AE30
331
1AE4B
  5
1AB26
331
1AE4C
  5
1AB27
331
1AE4D
  5
1AB28
331
1AE4E
  5
1AB29
331
1AE4F
  5
1AB2A
331
1AE50
  5
1AB2B
331
1AE51
  5
1AB2C
331
1AE52
  5
1AB3B
331
1AE53
  5
1AB3C
331
1AE54
  5
1AB3D
331
1AE55
  5
1AB3E
331
1AE56
  5
1AB3F
331
1AE57
  5
1AB40
331
1AE58
  5
1AB41
331
1AE59
  5
1AB45
331
1AE5A
  5
1AB46
331
1AE5B
  5
1AB47
331
1AE5C
  5
1AB48
331
1AE5D
  5
1AB49
331
1AE5E
  5
1AB4A
331
1AE5F
  5
1AB4B
331
1AE60
  5
1AB4F
331
1AE61
  5
1AB50
331
1AE62
  5
1AB51
331
1AE63
  5
1AB52
331
1AE64
  5
1AB53
331
1AE65
  5
1AB54
331
1AE66
  5
1AB55
331
1AE67
  5
1ABDF
331
1AE68
  5
1ABE0
331
1AE69
  5
1ABE1
331
1AE6A
  5
1ABE2
331
1AE6B
  5
1ABE3
331
1AE6C
  5
1ABE4
331
1AE6D
  5
1ABE5
331
1AE6E
  5
1AC2E
331
1AE6F
  5
1AC2F
331
1AE70
  5
1AC30
331
1AE71
  5
1AC31
331
1AE72
  5
1AC32
331
1AE73
  5
1AC33
331
1AE74
  5
1AC34
331
1AE75
  5
1AC38
331
1AE76
  5
1AC39
331
1AE77
  5
1AC3A
331
1AE78
  5
1AC3B
331
1AE79
  5
1AC3C
331
1AE7A
  5
1AC3D
331
1AE7B
  5
1AC3E
331
1AE7C
  5
1AAD2
331
1AE7D
  5
1AAD3
331
1AE7E
  5
1AAD4
331
0
  5
1AAD5
331
0
  5
1AAD6
331
0
  5
1AAD7
331
1AE82
  5
1AAE2
331
1AE83
  5
1AAE3
331
1AE84
  5
1AAE4
331
1AE85
  5
1AAE5
331
0
  5
1AADC
331
0
  5
1AADD
331
0
  5
1AADE
331
1AE89
  5
1AB18
331
1AE8A
  5
1AB19
331
1AE8B
  5
1AB1A
331
0
  5
1AB07
331
0
  5
1AB08
331
0
  5
1AB09
331
0
  5
1AB1D
331
1AE90
  5
1AB36
331
1AE91
  5
1ABA7
331
1AE92
  5
1ABA8
331
1AE93
  5
1ABA9
331
0
  5
1AB8C
331
0
  5
1AB8D
331
0
  5
1AB8E
331
1AE97
  5
1AC3F
331
1AE98
  5
1AC40
331
1AE99
  5
1AC41
331
0
  5
1AC1E
331
0
  5
1AC1F
331
0
  5
1AC20
331
1AE9D
  5
1AE45
331
1AE9E
  5
1AE46
331
1AE9F
  5
1AE47
331
0
  5
1AE18
331
0
  5
1AE19
331
0
  5
1AE1A
331
1AEA3
  5
1AE4F
331
1AEA4
  5
1AE50
331
1AEA5
  5
1AE51
331
0
  5
1AE1E
331
0
  5
1AE1F
331
0
  5
1AE20
331
1AEA9
  5
1AE9B
331
1AEAA
  5
1AE9C
331
1AEAB
  5
1AE9D
331
0
  5
1AE5E
331
0
  5
1AE5F
331
0
  5
1AE60
331
1AEAF
  5
1AEA5
331
1AEB0
  5
1AEA6
331
1AEB1
  5
1AEA7
331
0
  5
1AE64
331
0
  5
1AE65
331
0
  5
1AE66
331
1AEB5
  5
1AEAF
331
1AEB6
  5
1AEB0
331
1AEB7
  5
1AEB1
331
0
  5
1AE6A
331
0
  5
1AE6B
331
0
  5
1AE6C
331
1AEBB
  5
1AEB9
331
1AEBC
  5
1AEBA
331
1AEBD
  5
1AEBB
331
0
  5
1AE70
331
0
  5
1AE71
331
0
  5
1AE72
331
1AEC1
  5
1AAD8
331
1AEC2
  5
1AAD9
331
1AEC3
  5
1AADA
331
1AEC4
  5
1AADB
331
1AEC5
  5
1AADF
331
1AEC6
  5
1AAE0
331
1AEC7
  5
1AAE1
331
1AEC8
  5
1AAE6
331
1AEC9
  5
1AAE9
331
1AECA
  5
1AAEA
331
1AECB
  5
1AAEB
331
1AECC
  5
1AAF3
331
1AECD
  5
1AAF4
331
1AECE
  5
1AAF5
331
1AECF
  5
1AB1B
331
1AED0
  5
1AB1C
331
1AED1
  5
1AB1E
331
1AED2
  5
1AB1F
331
1AED3
  5
1AB20
331
1AED4
  5
1AB21
331
1AED5
  5
1AB22
331
1AED6
  5
1AB33
331
1AED7
  5
1AB34
331
1AED8
  5
1AB35
331
1AED9
  5
1ABAA
331
1AEDA
  5
1ABAB
331
1AEDB
  5
1ABAC
331
1AEDC
  5
1ABAD
331
1AEDD
  5
1ABAF
331
1AEDE
  5
1ABB0
331
1AEDF
  5
1ABB1
331
1AEE0
  5
1AC42
331
1AEE1
  5
1AC43
331
1AEE2
  5
1AC44
331
1AEE3
  5
1AC45
331
1AEE4
  5
1AC46
331
1AEE5
  5
1AC47
331
1AEE6
  5
1AC48
331
1AEE7
  5
1AE48
331
1AEE8
  5
1AE49
331
1AEE9
  5
1AE4A
331
1AEEA
  5
1AE4B
331
1AEEB
  5
1AE4C
331
1AEEC
  5
1AE4D
331
1AEED
  5
1AE4E
331
1AEEE
  5
1AE52
331
1AEEF
  5
1AE53
331
1AEF0
  5
1AE54
331
1AEF1
  5
1AE55
331
1AEF2
  5
1AE56
331
1AEF3
  5
1AE57
331
1AEF4
  5
1AE58
331
1AEF5
  5
1AE9E
331
1AEF6
  5
1AE9F
331
1AEF7
  5
1AEA0
331
1AEF8
  5
1AEA1
331
1AEF9
  5
1AEA2
331
1AEFA
  5
1AEA3
331
1AEFB
  5
1AEA4
331
1AEFC
  5
1AEA8
331
1AEFD
  5
1AEA9
331
1AEFE
  5
1AEAA
331
1AEFF
  5
1AEAB
331
1AF00
  5
1AEAC
331
1AF01
  5
1AEAD
331
1AF02
  5
1AEAE
331
1AF03
  5
1AEB2
331
1AF04
  5
1AEB3
331
1AF05
  5
1AEB4
331
1AF06
  5
1AEB5
331
1AF07
  5
1AEB6
331
1AF08
  5
1AEB7
331
1AF09
  5
1AEB8
331
1AF0A
  5
1AEBC
331
1AF0B
  5
1AEBD
331
1AF0C
  5
1AEBE
331
1AF0D
  5
1AEBF
331
1AF0E
  5
1AEC0
331
1AF0F
  5
1AEC1
331
1AF10
  5
1AEC2
  0
MATERIAL
  5
D9A4
102
{ACAD_REACTORS
330
18C
102
}
102
{ACAD_XDICTIONARY
360
1B0AF
102
}
330
18C
100
AcDbMaterial
  1
BYBLOCK
 72
     0
 73
     2
 43
0.0208333333333333
 43
0.0
 43
0.0
 43
0.0
 43
0.0
 43
0.0208333333333333
 43
0.0
 43
0.0
 43
0.0
 43
0.0
 43
1.0
 43
0.0
 43
0.0
 43
0.0
 43
0.0
 43
1.0
 77
     0
 78
     2
 47
0.0208333333333333
 47
0.0
 47
0.0
 47
0.0
 47
0.0
 47
0.0208333333333333
 47
0.0
 47
0.0
 47
0.0
 47
0.0
 47
1.0
 47
0.0
 47
0.0
 47
0.0
 47
0.0
 47
1.0
171
     0
172
     2
 49
0.0208333333333333
 49
0.0
 49
0.0
 49
0.0
 49
0.0
 49
0.0208333333333333
 49
0.0
 49
0.0
 49
0.0
 49
0.0
 49
1.0
 49
0.0
 49
0.0
 49
0.0
 49
0.0
 49
1.0
175
     0
176
     2
142
0.0208333333333333
142
0.0
142
0.0
142
0.0
142
0.0
142
0.0208333333333333
142
0.0
142
0.0
142
0.0
142
0.0
142
1.0
142
0.0
142
0.0
142
0.0
142
0.0
142
1.0
179
     0
270
     2
144
0.0208333333333333
144
0.0
144
0.0
144
0.0
144
0.0
144
0.0208333333333333
144
0.0
144
0.0
144
0.0
144
0.0
144
1.0
144
0.0
144
0.0
144
0.0
144
0.0
144
1.0
274
     2
147
0.0208333333333333
147
0.0
147
0.0
147
0.0
147
0.0
147
0.0208333333333333
147
0.0
147
0.0
147
0.0
147
0.0
147
1.0
147
0.0
147
0.0
147
0.0
147
0.0
147
1.0
  0
MATERIAL
  5
D99C
102
{ACAD_REACTORS
330
18C
102
}
102
{ACAD_XDICTIONARY
360
1B0B1
102
}
330
18C
100
AcDbMaterial
  1
BYLAYER
 72
     0
 73
     2
 43
0.0208333333333333
 43
0.0
 43
0.0
 43
0.0
 43
0.0
 43
0.0208333333333333
 43
0.0
 43
0.0
 43
0.0
 43
0.0
 43
1.0
 43
0.0
 43
0.0
 43
0.0
 43
0.0
 43
1.0
 77
     0
 78
     2
 47
0.0208333333333333
 47
0.0
 47
0.0
 47
0.0
 47
0.0
 47
0.0208333333333333
 47
0.0
 47
0.0
 47
0.0
 47
0.0
 47
1.0
 47
0.0
 47
0.0
 47
0.0
 47
0.0
 47
1.0
171
     0
172
     2
 49
0.0208333333333333
 49
0.0
 49
0.0
 49
0.0
 49
0.0
 49
0.0208333333333333
 49
0.0
 49
0.0
 49
0.0
 49
0.0
 49
1.0
 49
0.0
 49
0.0
 49
0.0
 49
0.0
 49
1.0
175
     0
176
     2
142
0.0208333333333333
142
0.0
142
0.0
142
0.0
142
0.0
142
0.0208333333333333
142
0.0
142
0.0
142
0.0
142
0.0
142
1.0
142
0.0
142
0.0
142
0.0
142
0.0
142
1.0
179
     0
270
     2
144
0.0208333333333333
144
0.0
144
0.0
144
0.0
144
0.0
144
0.0208333333333333
144
0.0
144
0.0
144
0.0
144
0.0
144
1.0
144
0.0
144
0.0
144
0.0
144
0.0
144
1.0
274
     2
147
0.0208333333333333
147
0.0
147
0.0
147
0.0
147
0.0
147
0.0208333333333333
147
0.0
147
0.0
147
0.0
147
0.0
147
1.0
147
0.0
147
0.0
147
0.0
147
0.0
147
1.0
  0
MATERIAL
  5
D9AC
102
{ACAD_REACTORS
330
18C
102
}
102
{ACAD_XDICTIONARY
360
1B0B3
102
}
330
18C
100
AcDbMaterial
  1
GLOBAL
 72
     0
 73
     2
 43
0.0208333333333333
 43
0.0
 43
0.0
 43
0.0
 43
0.0
 43
0.0208333333333333
 43
0.0
 43
0.0
 43
0.0
 43
0.0
 43
1.0
 43
0.0
 43
0.0
 43
0.0
 43
0.0
 43
1.0
 77
     0
 78
     2
 47
0.0208333333333333
 47
0.0
 47
0.0
 47
0.0
 47
0.0
 47
0.0208333333333333
 47
0.0
 47
0.0
 47
0.0
 47
0.0
 47
1.0
 47
0.0
 47
0.0
 47
0.0
 47
0.0
 47
1.0
171
     0
172
     2
 49
0.0208333333333333
 49
0.0
 49
0.0
 49
0.0
 49
0.0
 49
0.0208333333333333
 49
0.0
 49
0.0
 49
0.0
 49
0.0
 49
1.0
 49
0.0
 49
0.0
 49
0.0
 49
0.0
 49
1.0
175
     0
176
     2
142
0.0208333333333333
142
0.0
142
0.0
142
0.0
142
0.0
142
0.0208333333333333
142
0.0
142
0.0
142
0.0
142
0.0
142
1.0
142
0.0
142
0.0
142
0.0
142
0.0
142
1.0
179
     0
270
     2
144
0.0208333333333333
144
0.0
144
0.0
144
0.0
144
0.0
144
0.0208333333333333
144
0.0
144
0.0
144
0.0
144
0.0
144
1.0
144
0.0
144
0.0
144
0.0
144
0.0
144
1.0
274
     2
147
0.0208333333333333
147
0.0
147
0.0
147
0.0
147
0.0
147
0.0208333333333333
147
0.0
147
0.0
147
0.0
147
0.0
147
1.0
147
0.0
147
0.0
147
0.0
147
0.0
147
1.0
  0
ACAD_PROXY_OBJECT
  5
D9E8
102
{ACAD_REACTORS
330
D9E7
102
}
330
D9E7
100
AcDbZombieObject
 90
      499
 91
      511
 93
      610
310
40901902A4063FBFFFFFE000000000000002040AD7A3703D0AD73F4214DD185B99185C990000000000000104090141901A00000000000004100000000000000041025764000000000000300FC0
340
12
340
0
340
F
340
0
 94
        0
1001
ACAD_MLEADERVER
1070
     2
  0
MLINESTYLE
  5
1C
102
{ACAD_REACTORS
330
1B
102
}
330
1B
100
AcDbMlineStyle
  2
STANDARD
 70
     0
  3

 62
   256
 51
90.0
 52
90.0
 71
     2
 49
0.5
 62
   256
  6
BYLAYER
 49
-0.5
 62
   256
  6
BYLAYER
  0
ACAD_PROXY_OBJECT
  5
D9C6
102
{ACAD_REACTORS
330
D9C5
102
}
330
D9C5
100
AcDbZombieObject
 90
      499
 91
      510
 93
       41
310
903313A31580
  0
ACAD_PROXY_OBJECT
  5
D9C7
102
{ACAD_REACTORS
330
D9C5
102
}
330
D9C5
100
AcDbZombieObject
 90
      499
 91
      510
 93
      105
310
903313A324000000000000004000
  0
ACAD_PROXY_OBJECT
  5
D9C8
102
{ACAD_REACTORS
330
D9C5
102
}
330
D9C5
100
AcDbZombieObject
 90
      499
 91
      510
 93
      105
310
903313A344000000000000104000
  0
ACAD_PROXY_OBJECT
  5
D9C9
102
{ACAD_REACTORS
330
D9C5
102
}
330
D9C5
100
AcDbZombieObject
 90
      499
 91
      510
 93
      105
310
903313A354000000000000144000
  0
ACAD_PROXY_OBJECT
  5
D9CA
102
{ACAD_REACTORS
330
D9C5
102
}
330
D9C5
100
AcDbZombieObject
 90
      499
 91
      510
 93
      105
310
903313A384000000000000204000
  0
ACAD_PROXY_OBJECT
  5
D9CB
102
{ACAD_REACTORS
330
D9C5
102
}
330
D9C5
100
AcDbZombieObject
 90
      499
 91
      510
 93
      113
310
904313A31304000000000000244000
  0
ACAD_PROXY_OBJECT
  5
D9CC
102
{ACAD_REACTORS
330
D9C5
102
}
330
D9C5
100
AcDbZombieObject
 90
      499
 91
      510
 93
      113
310
904313A31364000000000000304000
  0
ACAD_PROXY_OBJECT
  5
D9CD
102
{ACAD_REACTORS
330
D9C5
102
}
330
D9C5
100
AcDbZombieObject
 90
      499
 91
      510
 93
      113
310
904313A32304000000000000344000
  0
ACAD_PROXY_OBJECT
  5
D9CE
102
{ACAD_REACTORS
330
D9C5
102
}
330
D9C5
100
AcDbZombieObject
 90
      499
 91
      510
 93
      113
310
904313A333040000000000003E4000
  0
ACAD_PROXY_OBJECT
  5
D9CF
102
{ACAD_REACTORS
330
D9C5
102
}
330
D9C5
100
AcDbZombieObject
 90
      499
 91
      510
 93
      113
310
904313A34304000000000000444000
  0
ACAD_PROXY_OBJECT
  5
D9D0
102
{ACAD_REACTORS
330
D9C5
102
}
330
D9C5
100
AcDbZombieObject
 90
      499
 91
      510
 93
      113
310
904313A35304000000000000494000
  0
ACAD_PROXY_OBJECT
  5
D9D1
102
{ACAD_REACTORS
330
D9C5
102
}
330
D9C5
100
AcDbZombieObject
 90
      499
 91
      510
 93
      121
310
905313A3130304000000000000594000
  0
ACAD_PROXY_OBJECT
  5
D9D2
102
{ACAD_REACTORS
330
D9C5
102
}
330
D9C5
100
AcDbZombieObject
 90
      499
 91
      510
 93
      105
310
903323A310000000000000010100
  0
ACAD_PROXY_OBJECT
  5
D9D3
102
{ACAD_REACTORS
330
D9C5
102
}
330
D9C5
100
AcDbZombieObject
 90
      499
 91
      510
 93
      105
310
903343A310000000000000410100
  0
ACAD_PROXY_OBJECT
  5
D9D4
102
{ACAD_REACTORS
330
D9C5
102
}
330
D9C5
100
AcDbZombieObject
 90
      499
 91
      510
 93
      105
310
903383A310000000000000810100
  0
ACAD_PROXY_OBJECT
  5
D9D5
102
{ACAD_REACTORS
330
D9C5
102
}
330
D9C5
100
AcDbZombieObject
 90
      499
 91
      510
 93
      113
310
90431303A310000000000000910100
  0
ACAD_PROXY_OBJECT
  5
D9D6
102
{ACAD_REACTORS
330
D9C5
102
}
330
D9C5
100
AcDbZombieObject
 90
      499
 91
      510
 93
      121
310
9053130303A310000000000001650100
  0
ACAD_PROXY_OBJECT
  5
D9D7
102
{ACAD_REACTORS
330
D9C5
102
}
330
D9C5
100
AcDbZombieObject
 90
      499
 91
      510
 93
      257
310
90E312F31323822203D2031272D3022000000000000200FC000000000000284000
  0
ACAD_PROXY_OBJECT
  5
D9D8
102
{ACAD_REACTORS
330
D9C5
102
}
330
D9C5
100
AcDbZombieObject
 90
      499
 91
      510
 93
      249
310
90D312F363422203D2031272D3022000000000000240FC000000000000284000
  0
ACAD_PROXY_OBJECT
  5
D9D9
102
{ACAD_REACTORS
330
D9C5
102
}
330
D9C5
100
AcDbZombieObject
 90
      499
 91
      510
 93
      249
310
90D312F333222203D2031272D3022000000000000280FC000000000000284000
  0
ACAD_PROXY_OBJECT
  5
D9DA
102
{ACAD_REACTORS
330
D9C5
102
}
330
D9C5
100
AcDbZombieObject
 90
      499
 91
      510
 93
      249
310
90D312F313622203D2031272D30220000000000002C0FC000000000000284000
  0
ACAD_PROXY_OBJECT
  5
D9DB
102
{ACAD_REACTORS
330
D9C5
102
}
330
D9C5
100
AcDbZombieObject
 90
      499
 91
      510
 93
      249
310
90D332F333222203D2031272D30220000000000002E0FC000000000000284000
  0
ACAD_PROXY_OBJECT
  5
D9DC
102
{ACAD_REACTORS
330
D9C5
102
}
330
D9C5
100
AcDbZombieObject
 90
      499
 91
      510
 93
      241
310
90C312F3822203D2031272D3022000000000000300FC000000000000284000
  0
ACAD_PROXY_OBJECT
  5
D9DD
102
{ACAD_REACTORS
330
D9C5
102
}
330
D9C5
100
AcDbZombieObject
 90
      499
 91
      510
 93
      249
310
90D332F313622203D2031272D3022000000000000320FC000000000000284000
  0
ACAD_PROXY_OBJECT
  5
D9DE
102
{ACAD_REACTORS
330
D9C5
102
}
330
D9C5
100
AcDbZombieObject
 90
      499
 91
      510
 93
      241
310
90C312F3422203D2031272D3022000000000000340FC000000000000284000
  0
ACAD_PROXY_OBJECT
  5
D9DF
102
{ACAD_REACTORS
330
D9C5
102
}
330
D9C5
100
AcDbZombieObject
 90
      499
 91
      510
 93
      241
310
90C332F3822203D2031272D3022000000000000360FC000000000000284000
  0
ACAD_PROXY_OBJECT
  5
D9E0
102
{ACAD_REACTORS
330
D9C5
102
}
330
D9C5
100
AcDbZombieObject
 90
      499
 91
      510
 93
      241
310
90C312F3222203D2031272D3022000000000000380FC000000000000284000
  0
ACAD_PROXY_OBJECT
  5
D9E1
102
{ACAD_REACTORS
330
D9C5
102
}
330
D9C5
100
AcDbZombieObject
 90
      499
 91
      510
 93
      241
310
90C332F3422203D2031272D30220000000000003A0FC000000000000284000
  0
ACAD_PROXY_OBJECT
  5
D9E2
102
{ACAD_REACTORS
330
D9C5
102
}
330
D9C5
100
AcDbZombieObject
 90
      499
 91
      510
 93
      161
310
90A3122203D2031272D30224000000000000284000
  0
ACAD_PROXY_OBJECT
  5
D9E3
102
{ACAD_REACTORS
330
D9C5
102
}
330
D9C5
100
AcDbZombieObject
 90
      499
 91
      510
 93
      257
310
90E312D312F3222203D2031272D30220000000000003E0FC000000000000284000
  0
ACAD_PROXY_OBJECT
  5
D9E4
102
{ACAD_REACTORS
330
D9C5
102
}
330
D9C5
100
AcDbZombieObject
 90
      499
 91
      510
 93
      225
310
90A3322203D2031272D302200000000000002100000000000000284000
  0
ACAD_PROXY_OBJECT
  5
D9E5
102
{ACAD_REACTORS
330
D9C5
102
}
330
D9C5
100
AcDbZombieObject
 90
      499
 91
      510
 93
      225
310
90A3622203D2031272D302200000000000006100000000000000284000
  0
ACAD_PROXY_OBJECT
  5
D9E6
102
{ACAD_REACTORS
330
D9C5
102
}
330
D9C5
100
AcDbZombieObject
 90
      499
 91
      510
 93
      249
310
90D31272D3022203D2031272D30220000000000000A100000000000000284000
  0
ACAD_PROXY_OBJECT
  5
D9BA
102
{ACAD_REACTORS
330
D9B4
102
}
330
D9B4
100
AcDbZombieObject
 90
      499
 91
      509
 93
      436
310
42CC9915DA5C99599C985B595049028333333333333E3BF0000000000000FB0107901411070040501600405405064090741402480A0340
1001
ACAD
1000
AcDbSavedByObjectVersion
1070
     0
  0
ACAD_PROXY_OBJECT
  5
D9BC
102
{ACAD_REACTORS
330
D9B4
102
}
330
D9B4
100
AcDbZombieObject
 90
      499
 91
      509
 93
      500
310
424CD108121A5919195B90640502408333333333333E3BF0000000000000FB01079024090700405020000000000001110200405405064090740C02480A0340
1001
ACAD
1000
AcDbSavedByObjectVersion
1070
     0
  0
ACAD_PROXY_OBJECT
  5
D9BB
102
{ACAD_REACTORS
330
D9B4
102
}
330
D9B4
100
AcDbZombieObject
 90
      499
 91
      509
 93
      436
310
42CCD915DA5C99599C985B595059028333333333333E3BF0000000000000FB0107901411070040501600405405064090741402480A0340
1001
ACAD
1000
AcDbSavedByObjectVersion
1070
     0
  0
ACAD_PROXY_OBJECT
  5
D9B9
102
{ACAD_REACTORS
330
D9B4
102
}
330
D9B4
100
AcDbZombieObject
 90
      499
 91
      509
 93
      388
310
4150985CDA58D07406404333333333333E3BF0000000000000FB0107A41107004050150841D405064090741402480A0350
1001
ACAD
1000
AcDbSavedByObjectVersion
1070
     0
  0
ACAD_PROXY_OBJECT
  5
D9C0
102
{ACAD_REACTORS
330
D9B4
102
}
330
D9B4
100
AcDbZombieObject
 90
      499
 91
      509
 93
      428
310
42109C9A59DA1D195B90C409028333333333333E3BF0000000000000FB010790141107004050150841D405064090741402480A029950
1001
ACAD
1000
AcDbSavedByObjectVersion
1070
     0
  0
ACAD_PROXY_OBJECT
  5
D9C4
102
{ACAD_REACTORS
330
D9B4
102
}
330
D9B4
100
AcDbZombieObject
 90
      499
 91
      509
 93
      452
310
42D0DBDB1BDC90DA185B99D95104090240C333333333333E3BF0000000000000FB0108901411070040501508421405064090741402480A0350
1001
ACAD
1000
AcDbSavedByObjectVersion
1070
     0
  0
ACAD_PROXY_OBJECT
  5
D9BD
102
{ACAD_REACTORS
330
D9B4
102
}
330
D9B4
100
AcDbZombieObject
 90
      499
 91
      509
 93
      500
310
4290DBDB98D95C1D1D585B10940D028333333333333E3BF0000000000000FB0107902409070040501000000000000111010841D405064090740C02480A0340
1001
ACAD
1000
AcDbSavedByObjectVersion
1070
     0
  0
ACAD_PROXY_OBJECT
  5
D9BF
102
{ACAD_REACTORS
330
D9B4
102
}
330
D9B4
100
AcDbZombieObject
 90
      499
 91
      509
 93
      412
310
40D11A5B50B409028333333333333E3BF0000000000000FB010790141107004050150841D405064090741402480A02677FFFFFD0
1001
ACAD
1000
AcDbSavedByObjectVersion
1070
     0
  0
ACAD_PROXY_OBJECT
  5
19C2F
102
{ACAD_REACTORS
330
D9B4
102
}
330
D9B4
100
AcDbZombieObject
 90
      499
 91
      509
 93
      452
310
43115919D950DBDB1BDC93D999916409028333333333333E3BF0000000000000FB010790141107004050150841D405064090741402480A0350
1001
ACAD
1000
AcDbSavedByObjectVersion
1070
     0
  0
ACAD_PROXY_OBJECT
  5
D9C3
102
{ACAD_REACTORS
330
D9B4
102
}
330
D9B4
100
AcDbZombieObject
 90
      499
 91
      509
 93
      444
310
42D19858D95C185D1D195C9B90F409028333333333333E3BF0000000000000FB010790141107004050150841D405064090741402480A0350
1001
ACAD
1000
AcDbSavedByObjectVersion
1070
     0
  0
ACAD_PROXY_OBJECT
  5
D9B5
102
{ACAD_REACTORS
330
D9B4
102
}
330
D9B4
100
AcDbZombieObject
 90
      499
 91
      509
 93
      388
310
41119B185D240901404333333333333E3BF0000000000000F9010740A41107004050150841D405064090741402480A1B50
1001
ACAD
1000
AcDbSavedByObjectVersion
1070
     0
  0
ACAD_PROXY_OBJECT
  5
D9B6
102
{ACAD_REACTORS
330
D9B4
102
}
330
D9B4
100
AcDbZombieObject
 90
      499
 91
      509
 93
      476
310
43519B185D15DA5D1A115919D95CD0140901404333333333333E3BF0000000000000F9010740901411070040501600405405064090741402480A1B50
1001
ACAD
1000
AcDbSavedByObjectVersion
1070
     0
  0
ACAD_PROXY_OBJECT
  5
D9B7
102
{ACAD_REACTORS
330
D9B4
102
}
330
D9B4
100
AcDbZombieObject
 90
      499
 91
      509
 93
      412
310
41D1DBDD5C985D5910240902404333333333333E3BF0000000000000F9010740A411070040501641D405064090741402480A1B50
1001
ACAD
1000
AcDbSavedByObjectVersion
1070
     0
  0
ACAD_PROXY_OBJECT
  5
D9B8
102
{ACAD_REACTORS
330
D9B4
102
}
330
D9B4
100
AcDbZombieObject
 90
      499
 91
      509
 93
      500
310
4411DBDD5C985D5915DA5D1A115919D95CD0340902404333333333333E3BF0000000000000F9010740901411070040501600405405064090741402480A1B50
1001
ACAD
1000
AcDbSavedByObjectVersion
1070
     0
  0
ACAD_PROXY_OBJECT
  5
19C7E
102
{ACAD_REACTORS
330
D9B4
102
}
330
D9B4
100
AcDbZombieObject
 90
      499
 91
      509
 93
      476
310
41921A5919195B90640502408333333333333E3BF0000000000000FB01079024090700405020000000000001110200405405064090740C02480A0340
1001
ACAD
1000
AcDbSavedByObjectVersion
1070
     0
  0
ACAD_PROXY_OBJECT
  5
19C2D
102
{ACAD_REACTORS
330
D9B4
102
}
330
D9B4
100
AcDbZombieObject
 90
      499
 91
      509
 93
      428
310
42529A5D1D195C93D999914409028333333333333E3BF0000000000000FB010790141107004050150A41D405064090741402480A0350
1001
ACAD
1000
AcDbSavedByObjectVersion
1070
     0
  0
ACAD_PROXY_OBJECT
  5
D9C2
102
{ACAD_REACTORS
330
D9B4
102
}
330
D9B4
100
AcDbZombieObject
 90
      499
 91
      509
 93
      444
310
42D31A5B995C185D1D195C9B90E409028333333333333E3BF0000000000000FB010790141107004050750841D405064090741402483A0350
1001
ACAD
1000
AcDbSavedByObjectVersion
1070
     0
  0
ACAD_PROXY_OBJECT
  5
19C84
102
{ACAD_REACTORS
330
D9B4
102
}
330
D9B4
100
AcDbZombieObject
 90
      499
 91
      509
 93
      484
310
42135BD9195B1A5B99D0A409028333333333333E3BF0000000000000F901074090290700405010000000000201990108421405064090741402480A1B40
1001
ACAD
1000
AcDbSavedByObjectVersion
1070
     0
  0
ACAD_PROXY_OBJECT
  5
19C2E
102
{ACAD_REACTORS
330
D9B4
102
}
330
D9B4
100
AcDbZombieObject
 90
      499
 91
      509
 93
      444
310
42D3DD995C9A185B99D3D999915409028333333333333E3BF0000000000000FB010790141107004050150941D405064090741402480A0350
1001
ACAD
1000
AcDbSavedByObjectVersion
1070
     0
  0
ACAD_PROXY_OBJECT
  5
D9BE
102
{ACAD_REACTORS
330
D9B4
102
}
330
D9B4
100
AcDbZombieObject
 90
      499
 91
      509
 93
      420
310
425499585B1A5CDD1A58D08409028333333333333E3BF0000000000000FB01079019070040501508421405064090741402480A1B40
1001
ACAD
1000
AcDbSavedByObjectVersion
1070
     0
  0
ACAD_PROXY_OBJECT
  5
19C83
102
{ACAD_REACTORS
330
D9B4
102
}
330
D9B4
100
AcDbZombieObject
 90
      499
 91
      509
 93
      420
310
4194DA1859195911B40902404333333333333E3BF0000000000000F9010740A41107004050150800405405064090840C02480A0B40
1001
ACAD
1000
AcDbSavedByObjectVersion
1070
     0
  0
ACAD_PROXY_OBJECT
  5
19C82
102
{ACAD_REACTORS
330
D9B4
102
}
330
D9B4
100
AcDbZombieObject
 90
      499
 91
      509
 93
      516
310
4454DA18591959081DDA5D1A08195919D95CD1A40902404333333333333E3BF0000000000000F901074090142907004050250800405405064090740C02480A0B40
1001
ACAD
1000
AcDbSavedByObjectVersion
1070
     0
  0
ACAD_PROXY_OBJECT
  5
19C7F
102
{ACAD_REACTORS
330
D9B4
102
}
330
D9B4
100
AcDbZombieObject
 90
      499
 91
      509
 93
      532
310
4394DA1859195CC81BD98811DC985E5174090240C333333333333E3BF0000000000000FB01079024090741D01000000000000111010841D405064090740C02480A0340
1001
ACAD
1000
AcDbSavedByObjectVersion
1070
     0
  0
ACAD_PROXY_OBJECT
  5
19C80
102
{ACAD_REACTORS
330
D9B4
102
}
330
D9B4
100
AcDbZombieObject
 90
      499
 91
      509
 93
      476
310
41D4DAD95D18DA1E51840502408333333333333E3BF0000000000000FB01079024090741D01000000000000111010B41D405064090741802480A0340
1001
ACAD
1000
AcDbSavedByObjectVersion
1070
     0
  0
ACAD_PROXY_OBJECT
  5
D9C1
102
{ACAD_REACTORS
330
D9B4
102
}
330
D9B4
100
AcDbZombieObject
 90
      499
 91
      509
 93
      412
310
41D51A1A58DAD95B90D409028333333333333E3BF0000000000000FB010790141107004050150C41D405064090741402480A0350
1001
ACAD
1000
AcDbSavedByObjectVersion
1070
     0
  0
ACAD_PROXY_OBJECT
  5
19C7D
102
{ACAD_REACTORS
330
D9B4
102
}
330
D9B4
100
AcDbZombieObject
 90
      499
 91
      509
 93
      420
310
4255DA5C99599C985B595059028333333333333E3BF0000000000000FB0107901411070040501600405405064090740C02480A0340
1001
ACAD
1000
AcDbSavedByObjectVersion
1070
     0
  0
ACAD_PROXY_OBJECT
  5
19C81
102
{ACAD_REACTORS
330
D9B4
102
}
330
D9B4
100
AcDbZombieObject
 90
      499
 91
      509
 93
      404
310
41560B54985E51940902404000000000000E03F0000000000000FB010740501907004050150841D405064090740C02480A1B40
1001
ACAD
1000
AcDbSavedByObjectVersion
1070
     0
  0
XRECORD
  5
1AF12
102
{ACAD_REACTORS
330
1AF11
102
}
330
1AF11
100
AcDbXrecord
340
18D
  0
XRECORD
  5
1AF13
102
{ACAD_REACTORS
330
1AF11
102
}
330
1AF11
100
AcDbXrecord
340
18C
  0
DICTIONARYVAR
  5
1A787
102
{ACAD_REACTORS
330
37
102
}
330
37
100
DictionaryVariables
280
     0
  1
1:1
  0
DICTIONARYVAR
  5
DA6A
102
{ACAD_REACTORS
330
37
102
}
330
37
100
DictionaryVariables
280
     0
  1
Standard
  0
DICTIONARYVAR
  5
29E
102
{ACAD_REACTORS
330
37
102
}
330
37
100
DictionaryVariables
280
     0
  1
Standard
  0
DICTIONARYVAR
  5
38
102
{ACAD_REACTORS
330
37
102
}
330
37
100
DictionaryVariables
280
     0
  1
-1
  0
DICTIONARYVAR
  5
1CE
102
{ACAD_REACTORS
330
37
102
}
330
37
100
DictionaryVariables
280
     0
  1
2
  0
DICTIONARYVAR
  5
704E
102
{ACAD_REACTORS
330
37
102
}
330
37
100
DictionaryVariables
280
     0
  1
1
  0
DICTIONARYVAR
  5
DA6D
102
{ACAD_REACTORS
330
37
102
}
330
37
100
DictionaryVariables
280
     0
  1
0
  0
DICTIONARYVAR
  5
7052
102
{ACAD_REACTORS
330
37
102
}
330
37
100
DictionaryVariables
280
     0
  1
8
  0
DICTIONARYVAR
  5
7051
102
{ACAD_REACTORS
330
37
102
}
330
37
100
DictionaryVariables
280
     0
  1
1
  0
DICTIONARYVAR
  5
1A73B
102
{ACAD_REACTORS
330
37
102
}
330
37
100
DictionaryVariables
280
     0
  1
0
  0
DICTIONARYVAR
  5
1A73C
102
{ACAD_REACTORS
330
37
102
}
330
37
100
DictionaryVariables
280
     0
  1
0
  0
DICTIONARYVAR
  5
1A60C
102
{ACAD_REACTORS
330
37
102
}
330
37
100
DictionaryVariables
280
     0
  1
0
  0
DICTIONARYVAR
  5
704F
102
{ACAD_REACTORS
330
37
102
}
330
37
100
DictionaryVariables
280
     0
  1
120
  0
DICTIONARYVAR
  5
7050
102
{ACAD_REACTORS
330
37
102
}
330
37
100
DictionaryVariables
280
     0
  1
0
  0
DICTIONARYVAR
  5
1CF
102
{ACAD_REACTORS
330
37
102
}
330
37
100
DictionaryVariables
280
     0
  1

  0
DICTIONARYVAR
  5
DA6C
102
{ACAD_REACTORS
330
37
102
}
330
37
100
DictionaryVariables
280
     0
  1
127
  0
DICTIONARYVAR
  5
1A73D
102
{ACAD_REACTORS
330
37
102
}
330
37
100
DictionaryVariables
280
     0
  1
2
  0
DICTIONARY
  5
1B0AF
330
D9A4
100
AcDbDictionary
  3
ACAD_XREC_ROUNDTRIP
360
1B0B0
1001
ACAD
1000
TREAT_AS_HARD
1070
     1
  0
DICTIONARY
  5
1B0B1
330
D99C
100
AcDbDictionary
  3
ACAD_XREC_ROUNDTRIP
360
1B0B2
1001
ACAD
1000
TREAT_AS_HARD
1070
     1
  0
DICTIONARY
  5
1B0B3
330
D9AC
100
AcDbDictionary
  3
ACAD_XREC_ROUNDTRIP
360
1B0B4
1001
ACAD
1000
TREAT_AS_HARD
1070
     1
  0
XRECORD
  5
1B0B0
102
{ACAD_REACTORS
330
1B0AF
102
}
330
1B0AF
100
AcDbXrecord
102
MATERIAL
148
0.0
149
0.0
149
0.0
 93
        0
 94
      127
282
     0
 72
     0
 77
     0
171
     0
175
     0
179
     0
273
     0
  0
XRECORD
  5
1B0B2
102
{ACAD_REACTORS
330
1B0B1
102
}
330
1B0B1
100
AcDbXrecord
102
MATERIAL
148
0.0
149
0.0
149
0.0
 93
        0
 94
      127
282
     0
 72
     0
 77
     0
171
     0
175
     0
179
     0
273
     0
  0
XRECORD
  5
1B0B4
102
{ACAD_REACTORS
330
1B0B3
102
}
330
1B0B3
100
AcDbXrecord
102
MATERIAL
148
0.0
149
0.0
149
0.0
 93
        0
 94
      127
282
     0
 72
     0
 77
     0
171
     0
175
     0
179
     0
273
     0
  0
ENDSEC
  0
EOF
