  0
SECTION
  2
HEADER
  9
$ACADVER
  1
AC1009
  9
$INSBASE
 10
0.0
 20
0.0
 30
0.0
  9
$EXTMIN
 10
599.18767316632375
 20
-2286.5728886528409
 30
-0.0000000000563712
  9
$EXTMAX
 10
1105.487962902751
 20
-1864.9136000672049
 30
0.0
  9
$LIMMIN
 10
0.0
 20
0.0
  9
$LIMMAX
 10
420.0
 20
297.0
  9
$ORTHOMODE
 70
     0
  9
$REGENMODE
 70
     1
  9
$FILLMODE
 70
     1
  9
$QTEXTMODE
 70
     0
  9
$MIRRTEXT
 70
     0
  9
$DRAGMODE
 70
     2
  9
$LTSCALE
 40
0.5
  9
$OSMODE
 70
  2175
  9
$ATTMODE
 70
     1
  9
$TEXTSIZE
 40
4.0
  9
$TRACEWID
 40
1.0
  9
$TEXTSTYLE
  7
STANDARD
  9
$CLAYER
  8
1TEXT
  9
$CELTYPE
  6
BYLAYER
  9
$CECOLOR
 62
   256
  9
$DIMSCALE
 40
1.0
  9
$DIMASZ
 40
2.0
  9
$DIMEXO
 40
0.0
  9
$DIMDLI
 40
7.0
  9
$DIMRND
 40
0.0
  9
$DIMDLE
 40
0.0
  9
$DIMEXE
 40
1.0
  9
$DIMTP
 40
0.0
  9
$DIMTM
 40
0.0
  9
$DIMTXT
 40
3.5
  9
$DIMCEN
 40
0.0
  9
$DIMTSZ
 40
0.0
  9
$DIMTOL
 70
     0
  9
$DIMLIM
 70
     0
  9
$DIMTIH
 70
     0
  9
$DIMTOH
 70
     0
  9
$DIMSE1
 70
     0
  9
$DIMSE2
 70
     0
  9
$DIMTAD
 70
     1
  9
$DIMZIN
 70
     8
  9
$DIMBLK
  1

  9
$DIMASO
 70
     1
  9
$DIMSHO
 70
     1
  9
$DIMPOST
  1
 
  9
$DIMAPOST
  1

  9
$DIMALT
 70
     0
  9
$DIMALTD
 70
     2
  9
$DIMALTF
 40
25.399999999999999
  9
$DIMLFAC
 40
1.0
  9
$DIMTOFL
 70
     1
  9
$DIMTVP
 40
0.0
  9
$DIMTIX
 70
     0
  9
$DIMSOXD
 70
     0
  9
$DIMSAH
 70
     1
  9
$DIMBLK1
  1
OPEN30
  9
$DIMBLK2
  1
OPEN30
  9
$DIMSTYLE
  2
NEWX10
  9
$DIMCLRD
 70
   256
  9
$DIMCLRE
 70
   256
  9
$DIMCLRT
 70
   201
  9
$DIMTFAC
 40
0.7
  9
$DIMGAP
 40
0.7
  9
$LUNITS
 70
     2
  9
$LUPREC
 70
     4
  9
$SKETCHINC
 40
1.0
  9
$FILLETRAD
 40
0.5
  9
$AUNITS
 70
     0
  9
$AUPREC
 70
     2
  9
$MENU
  1
acad
  9
$ELEVATION
 40
0.0
  9
$PELEVATION
 40
0.0
  9
$THICKNESS
 40
0.0
  9
$LIMCHECK
 70
     0
  9
$BLIPMODE
 70
     0
  9
$CHAMFERA
 40
10.0
  9
$CHAMFERB
 40
10.0
  9
$SKPOLY
 70
     0
  9
$TDCREATE
 40
2451318.621352917
  9
$TDUPDATE
 40
2455631.4479233571
  9
$TDINDWG
 40
0.4776505671
  9
$TDUSRTIMER
 40
0.4776505671
  9
$USRTIMER
 70
     1
  9
$ANGBASE
 50
0.0
  9
$ANGDIR
 70
     0
  9
$PDMODE
 70
     0
  9
$PDSIZE
 40
0.0
  9
$PLINEWID
 40
0.0
  9
$COORDS
 70
     2
  9
$SPLFRAME
 70
     0
  9
$SPLINETYPE
 70
     6
  9
$SPLINESEGS
 70
     8
  9
$ATTDIA
 70
     0
  9
$ATTREQ
 70
     1
  9
$HANDLING
 70
     1
  9
$HANDSEED
  5
F997
  9
$SURFTAB1
 70
     6
  9
$SURFTAB2
 70
     6
  9
$SURFTYPE
 70
     6
  9
$SURFU
 70
     6
  9
$SURFV
 70
     6
  9
$UCSNAME
  2

  9
$UCSORG
 10
0.0
 20
0.0
 30
0.0
  9
$UCSXDIR
 10
1.0
 20
0.0
 30
0.0
  9
$UCSYDIR
 10
0.0
 20
1.0
 30
0.0
  9
$PUCSNAME
  2

  9
$PUCSORG
 10
0.0
 20
0.0
 30
0.0
  9
$PUCSXDIR
 10
1.0
 20
0.0
 30
0.0
  9
$PUCSYDIR
 10
0.0
 20
1.0
 30
0.0
  9
$USERI1
 70
     0
  9
$USERI2
 70
     0
  9
$USERI3
 70
     0
  9
$USERI4
 70
     0
  9
$USERI5
 70
     0
  9
$USERR1
 40
0.0
  9
$USERR2
 40
0.0
  9
$USERR3
 40
0.0
  9
$USERR4
 40
0.0
  9
$USERR5
 40
0.0
  9
$WORLDVIEW
 70
     1
  9
$SHADEDGE
 70
     3
  9
$SHADEDIF
 70
    70
  9
$TILEMODE
 70
     1
  9
$MAXACTVP
 70
    48
  9
$PLIMCHECK
 70
     0
  9
$PEXTMIN
 10
1.0000000000000000E+020
 20
1.0000000000000000E+020
 30
1.0000000000000000E+020
  9
$PEXTMAX
 10
-1.0000000000000000E+020
 20
-1.0000000000000000E+020
 30
-1.0000000000000000E+020
  9
$PLIMMIN
 10
0.0
 20
0.0
  9
$PLIMMAX
 10
420.0
 20
297.0
  9
$UNITMODE
 70
     0
  9
$VISRETAIN
 70
     1
  9
$PLINEGEN
 70
     0
  9
$PSLTSCALE
 70
     1
  0
ENDSEC
  0
SECTION
  2
TABLES
  0
TABLE
  2
VPORT
 70
     1
  0
VPORT
  2
*ACTIVE
 70
     0
 10
0.0
 20
0.0
 11
1.0
 21
1.0
 12
852.3269040083411
 22
-2075.7429917981822
 13
0.0
 23
0.0
 14
10.0
 24
10.0
 15
10.0
 25
10.0
 16
0.0
 26
0.0
 36
1.0
 17
0.0
 27
0.0
 37
0.0
 40
447.37369264615478
 41
1.4123581336696089
 42
50.0
 43
0.0
 44
0.0
 50
0.0
 51
0.0
 71
     0
 72
   100
 73
     1
 74
     1
 75
     0
 76
     0
 77
     0
 78
     0
  0
ENDTAB
  0
TABLE
  2
LTYPE
 70
    14
  0
LTYPE
  2
CONTINUOUS
 70
     0
  3
Solid line
 72
    65
 73
     0
 40
0.0
  0
LTYPE
  2
XREF1|CENTER2
 70
    48
  3
Center (.5x) ___ _ ___ _ ___ _ ___ _ ___ _ ___
 72
    65
 73
     4
 40
28.574999999999999
 49
19.050000000000001
 49
-3.1749999999999989
 49
3.1749999999999989
 49
-3.1749999999999989
  0
LTYPE
  2
A3WAKUDAKE|CENTER2
 70
    48
  3
Center (.5x) ___ _ ___ _ ___ _ ___ _ ___ _ ___
 72
    65
 73
     4
 40
28.574999999999999
 49
19.050000000000001
 49
-3.1749999999999989
 49
3.1749999999999989
 49
-3.1749999999999989
  0
LTYPE
  2
CENTER2
 70
     0
  3
Center (.5x) ___ _ ___ _ ___ _ ___ _ ___ _ ___
 72
    65
 73
     4
 40
28.574999999999999
 49
19.050000000000001
 49
-3.1749999999999989
 49
3.1749999999999989
 49
-3.1749999999999989
  0
LTYPE
  2
HIDDEN
 70
     0
  3
Hidden __ __ __ __ __ __ __ __ __ __ __ __ __ _
 72
    65
 73
     2
 40
9.5249999999999986
 49
6.3499999999999988
 49
-3.1749999999999989
  0
LTYPE
  2
PHANTOM2
 70
     0
  3
Phantom (.5x) ___ _ _ ___ _ _ ___ _ _ ___ _ _
 72
    65
 73
     6
 40
31.75
 49
15.875
 49
-3.1749999999999989
 49
3.1749999999999989
 49
-3.1749999999999989
 49
3.1749999999999989
 49
-3.1749999999999989
  0
ENDTAB
  0
TABLE
  2
LAYER
 70
    43
  0
LAYER
  2
0
 70
     0
 62
     7
  6
CONTINUOUS
  0
LAYER
  2
1CENTER
 70
     0
 62
     7
  6
CENTER2
  0
LAYER
  2
1TEXT
 70
     0
 62
     7
  6
CONTINUOUS
  0
LAYER
  2
01
 70
     0
 62
     1
  6
CONTINUOUS
  0
LAYER
  2
1DIM
 70
     0
 62
     7
  6
CONTINUOUS
  0
LAYER
  2
1HATCH
 70
     0
 62
     7
  6
CONTINUOUS
  0
LAYER
  2
A3WAKUDAKE|THICK
 70
    48
 62
     7
  6
CONTINUOUS
  0
LAYER
  2
A3WAKUDAKE|POINT
 70
    48
 62
     7
  6
CONTINUOUS
  0
LAYER
  2
A3WAKUDAKE|1CENTER
 70
    48
 62
     7
  6
A3WAKUDAKE|CENTER2
  0
LAYER
  2
A3WAKUDAKE|0-6
 70
    48
 62
     7
  6
CONTINUOUS
  0
LAYER
  2
1HIDDEN
 70
     0
 62
     7
  6
HIDDEN
  0
LAYER
  2
1PHANTOM
 70
     0
 62
     7
  6
PHANTOM2
  0
LAYER
  2
A3WAKUDAKE|1DIM
 70
    48
 62
     7
  6
CONTINUOUS
  0
LAYER
  2
XREF1|1CENTER
 70
    48
 62
     7
  6
XREF1|CENTER2
  0
ENDTAB
  0
TABLE
  2
STYLE
 70
    21
  0
STYLE
  2
STANDARD
 70
     0
 40
0.0
 41
1.0
 50
0.0
 71
     0
 42
4.0
  3
txt.shx
  4
extfont.shx
  0
ENDTAB
  0
TABLE
  2
VIEW
 70
     0
  0
ENDTAB
  0
TABLE
  2
UCS
 70
     0
  0
ENDTAB
  0
TABLE
  2
APPID
 70
     9
  0
APPID
  2
ACAD
 70
     0
  0
APPID
  2
DRAWINGVARIABLESXDATA
 70
     0
  0
APPID
  2
CONTENTTABDATA
 70
     0
  0
APPID
  2
CONTENTCURRENTTAB
 70
     0
  0
APPID
  2
CONTENTBLOCKDESCRIPTION
 70
     0
  0
APPID
  2
CONTENTBLOCKICON
 70
     0
  0
APPID
  2
CONTENTLONGBLOCKNAME
 70
     0
  0
APPID
  2
ACAD_PSEXT
 70
     0
  0
APPID
  2
ACAD_MLEADERVER
 70
     0
  0
ENDTAB
  0
TABLE
  2
DIMSTYLE
 70
     6
  0
DIMSTYLE
  2
NEWX10
 70
     0
  3
 
  4

  5

  6
OPEN30
  7
OPEN30
 40
1.0
 41
2.0
 42
0.0
 43
7.0
 44
1.0
 45
0.0
 46
0.0
 47
0.0
 48
0.0
140
3.5
141
0.0
142
0.0
143
25.399999999999999
144
1.0
145
0.0
146
0.7
147
0.7
 71
     0
 72
     0
 73
     0
 74
     0
 75
     0
 76
     0
 77
     1
 78
     8
170
     0
171
     2
172
     1
173
     1
174
     0
175
     0
176
   256
177
   256
178
   201
  0
ENDTAB
  0
ENDSEC
  0
SECTION
  2
BLOCKS
  0
BLOCK
  8
0
  2
$MODEL_SPACE
 70
     0
 10
0.0
 20
0.0
 30
0.0
  3
$MODEL_SPACE
  1

  0
ENDBLK
  5
1A
  8
0
  0
BLOCK
 67
     1
  8
0
  2
$PAPER_SPACE
 70
     0
 10
0.0
 20
0.0
 30
0.0
  3
$PAPER_SPACE
  1

  0
ENDBLK
  5
17
 67
     1
  8
0
  0
BLOCK
  8
0
  2
_OPEN30
 70
     0
 10
0.0
 20
0.0
 30
0.0
  3
_OPEN30
  1

  0
LINE
  5
44
  8
0
  6
BYBLOCK
 62
     0
 10
-1.0
 20
0.26794919
 30
0.0
 11
0.0
 21
0.0
 31
0.0
  0
LINE
  5
45
  8
0
  6
BYBLOCK
 62
     0
 10
0.0
 20
0.0
 30
0.0
 11
-1.0
 21
-0.26794919
 31
0.0
  0
LINE
  5
46
  8
0
  6
BYBLOCK
 62
     0
 10
0.0
 20
0.0
 30
0.0
 11
-1.0
 21
0.0
 31
0.0
  0
ENDBLK
  5
47
  8
0
  0
BLOCK
  8
0
  2
XREF1
 70
    36
 10
0.0
 20
0.0
 30
0.0
  3
XREF1
  1
D:\ACLT\FORMAT\KAWAJUN(9)図面用.dwg
  0
ENDBLK
  5
5D
  8
0
  0
BLOCK
  8
0
  2
A3WAKUDAKE
 70
    36
 10
0.0
 20
0.0
 30
0.0
  3
A3WAKUDAKE
  1
D:\ACLT\FORMAT\A3WAKUdake.dwg
  0
ENDBLK
  5
6A0
  8
0
  0
BLOCK
  8
0
  2
*U30
 70
     1
 10
0.0
 20
0.0
 30
0.0
  3
*U30
  1

  0
TEXT
  5
F80E
  8
1DIM
 62
   201
 10
831.8960024996577
 20
-2124.8269486528411
 30
0.0
 40
4.5499999999999989
  1
25
  0
ENDBLK
  5
F810
  8
0
  0
BLOCK
  8
0
  2
*U31
 70
     1
 10
0.0
 20
0.0
 30
0.0
  3
*U31
  1

  0
TEXT
  5
F812
  8
1DIM
 62
   201
 10
945.41266516632504
 20
-2124.8269486528411
 30
0.0
 40
4.5499999999999989
  1
11
  0
ENDBLK
  5
F814
  8
0
  0
BLOCK
  8
0
  2
*U32
 70
     1
 10
0.0
 20
0.0
 30
0.0
  3
*U32
  1

  0
TEXT
  5
F816
  8
1DIM
 62
   201
 10
1048.2776651663251
 20
-1961.270281987202
 30
0.0
 40
4.5499999999999989
  1
19
 50
90.0
  0
ENDBLK
  5
F818
  8
0
  0
BLOCK
  8
0
  2
*U33
 70
     1
 10
0.0
 20
0.0
 30
0.0
  3
*U33
  1

  0
TEXT
  5
F81A
  8
1DIM
 62
   201
 10
879.2812602028813
 20
-2197.4732279725258
 30
0.0
 40
4.5499999999999989
  1
114
 50
90.0
  0
ENDBLK
  5
F81C
  8
0
  0
BLOCK
  8
0
  2
*U34
 70
     1
 10
0.0
 20
0.0
 30
0.0
  3
*U34
  1

  0
TEXT
  5
F81E
  8
1DIM
 62
   201
 10
889.2812602028813
 20
-2197.8523946391929
 30
0.0
 40
4.5499999999999989
  1
130
 50
90.0
  0
ENDBLK
  5
F820
  8
0
  0
BLOCK
  8
0
  2
*U35
 70
     1
 10
0.0
 20
0.0
 30
0.0
  3
*U35
  1

  0
LINE
  5
F822
  8
0
 10
-7.9999999999999991
 20
2.5
 30
0.0
 11
-7.9999978000002088
 21
2.4999999999999432
 31
0.0
  0
LINE
  5
F823
  8
0
 10
-7.9999999999999991
 20
-2.4999999999999432
 30
0.0
 11
-7.9999999999999991
 21
2.5
 31
0.0
  0
LINE
  5
F824
  8
0
 10
-7.9999978000002088
 20
2.4999999999999432
 30
0.0
 11
-7.4999979000001629
 21
3.0
 31
0.0
  0
LINE
  5
F825
  8
0
 10
-8.0000021000010921
 20
-2.4999999999999432
 30
0.0
 11
-7.9999999999999991
 21
-2.4999999999999432
 31
0.0
  0
LINE
  5
F826
  8
0
 10
-7.4999979000001629
 20
3.0
 30
0.0
 11
-1.999998199999983
 21
3.0
 31
0.0
  0
LINE
  5
F827
  8
0
 10
-7.5000018999986429
 20
-3.000000000000056
 30
0.0
 11
-8.0000021000010921
 21
-2.4999999999999432
 31
0.0
  0
LINE
  5
F828
  8
0
 10
-1.999998199999983
 20
3.0
 30
0.0
 11
-1.49999999999998
 21
2.0
 31
0.0
  0
LINE
  5
F829
  8
0
 10
-1.999998199999959
 20
-2.9999999999999432
 30
0.0
 11
-7.5000018999986429
 21
-3.000000000000056
 31
0.0
  0
LINE
  5
F82A
  8
0
 10
-1.49999999999998
 20
2.0
 30
0.0
 11
-0.5000000000000004
 21
2.0
 31
0.0
  0
LINE
  5
F82B
  8
0
 10
-1.50000000000001
 20
-2.0
 30
0.0
 11
-1.999998199999959
 21
-2.9999999999999432
 31
0.0
  0
ARC
  5
F82C
  8
0
 10
-0.5000000000000006
 20
1.5
 30
0.0
 40
0.5000000000000004
 50
0.0
 51
90.0
  0
LINE
  5
F82D
  8
0
 10
-0.5
 20
-2.0
 30
0.0
 11
-1.50000000000001
 21
-2.0
 31
0.0
  0
LINE
  5
F82E
  8
0
 10
-0.0000000000000001
 20
1.5
 30
0.0
 11
-0.0000000000000001
 21
-1.5
 31
0.0
  0
ARC
  5
F82F
  8
0
 10
-0.5
 20
-1.5
 30
0.0
 40
0.5
 50
270.0
 51
0.0
  0
ENDBLK
  5
F831
  8
0
  0
BLOCK
  8
0
  2
*U36
 70
     1
 10
0.0
 20
0.0
 30
0.0
  3
*U36
  1

  0
LINE
  5
F833
  8
1HATCH
 10
-1.5
 20
2.000000000000056
 30
0.0
 11
-1.7499990999999879
 21
2.5
 31
0.0
  0
LINE
  5
F834
  8
1HATCH
 10
-1.7499990999999879
 20
2.5
 30
0.0
 11
-7.999997800000223
 21
2.5
 31
0.0
  0
LINE
  5
F835
  8
1HATCH
 10
-1.5
 20
-2.000000000000056
 30
0.0
 11
-1.5
 21
2.000000000000056
 31
0.0
  0
LINE
  5
F836
  8
1HATCH
 10
-7.999997800000223
 20
2.5
 30
0.0
 11
-7.9999999999999991
 21
2.4999977999997318
 31
0.0
  0
LINE
  5
F837
  8
1HATCH
 10
-1.749999099999981
 20
-2.5
 30
0.0
 11
-1.5
 21
-2.000000000000056
 31
0.0
  0
LINE
  5
F838
  8
1HATCH
 10
-7.9999999999999991
 20
2.4999977999997318
 30
0.0
 11
-7.9999999999999991
 21
-2.5
 31
0.0
  0
LINE
  5
F839
  8
1HATCH
 10
-7.9999999999999991
 20
-2.5
 30
0.0
 11
-1.749999099999981
 21
-2.5
 31
0.0
  0
ENDBLK
  5
F83B
  8
0
  0
BLOCK
  8
0
  2
*U37
 70
     1
 10
0.0
 20
0.0
 30
0.0
  3
*U37
  1

  0
LINE
  5
F83D
  8
1HATCH
 10
-1.9999981999999989
 20
3.000000000000056
 30
0.0
 11
-7.4999979000001362
 21
3.0
 31
0.0
  0
LINE
  5
F83E
  8
1HATCH
 10
-7.4999979000001362
 20
3.0
 30
0.0
 11
-7.999997800000143
 21
2.5
 31
0.0
  0
LINE
  5
F83F
  8
1HATCH
 10
-1.749999099999983
 20
2.5
 30
0.0
 11
-1.9999981999999989
 21
3.000000000000056
 31
0.0
  0
LINE
  5
F840
  8
1HATCH
 10
-7.999997800000143
 20
2.5
 30
0.0
 11
-1.749999099999983
 21
2.5
 31
0.0
  0
ENDBLK
  5
F842
  8
0
  0
BLOCK
  8
0
  2
*U38
 70
     1
 10
0.0
 20
0.0
 30
0.0
  3
*U38
  1

  0
ARC
  5
F844
  8
1HATCH
 10
-0.5000000000000002
 20
1.5
 30
0.0
 40
0.5000000000000002
 50
0.0
 51
90.0
  0
LINE
  5
F845
  8
1HATCH
 10
-0.5000000000000004
 20
2.0
 30
0.0
 11
-1.5
 21
2.0
 31
0.0
  0
LINE
  5
F846
  8
1HATCH
 10
0.0
 20
-1.5
 30
0.0
 11
0.0
 21
1.5
 31
0.0
  0
LINE
  5
F847
  8
1HATCH
 10
-1.5
 20
2.0
 30
0.0
 11
-1.5
 21
-2.0
 31
0.0
  0
ARC
  5
F848
  8
1HATCH
 10
-0.5
 20
-1.5
 30
0.0
 40
0.5
 50
270.0
 51
0.0
  0
LINE
  5
F849
  8
1HATCH
 10
-1.5
 20
-2.0
 30
0.0
 11
-0.5
 21
-2.0
 31
0.0
  0
ENDBLK
  5
F84B
  8
0
  0
BLOCK
  8
0
  2
*U39
 70
     1
 10
0.0
 20
0.0
 30
0.0
  3
*U39
  1

  0
CIRCLE
  5
F84D
  8
0
 10
0.0
 20
0.0
 30
0.0
 40
3.0
  0
ENDBLK
  5
F84F
  8
0
  0
BLOCK
  8
0
  2
*U40
 70
     1
 10
0.0
 20
0.0
 30
0.0
  3
*U40
  1

  0
TEXT
  5
F851
  8
1DIM
 62
   201
 10
963.27766516632505
 20
-2235.528615319507
 30
0.0
 40
4.5499999999999989
  1
55
 50
90.0
  0
ENDBLK
  5
F853
  8
0
  0
BLOCK
  8
0
  2
*U41
 70
     1
 10
0.0
 20
0.0
 30
0.0
  3
*U41
  1

  0
TEXT
  5
F855
  8
1DIM
 62
   201
 10
1101.2769228569291
 20
-2235.528615319507
 30
0.0
 40
4.5499999999999989
  1
58
 50
90.0
  0
ENDBLK
  5
F857
  8
0
  0
BLOCK
  8
0
  2
*U42
 70
     1
 10
0.0
 20
0.0
 30
0.0
  3
*U42
  1

  0
TEXT
  5
F859
  8
1DIM
 62
   201
 10
1085.3487331589099
 20
-1991.9961858133679
 30
0.0
 40
3.5
  1
22
 50
90.0
  0
ENDBLK
  5
F85B
  8
0
  0
BLOCK
  8
0
  2
*U43
 70
     1
 10
0.0
 20
0.0
 30
0.0
  3
*U43
  1

  0
TEXT
  5
F85D
  8
1DIM
 62
   201
 10
633.27768516632443
 20
-2198.2628668307352
 30
0.0
 40
4.5499999999999989
  1
50
 50
90.0
  0
ENDBLK
  5
F85F
  8
0
  0
BLOCK
  8
0
  2
*U44
 70
     1
 10
0.0
 20
0.0
 30
0.0
  3
*U44
  1

  0
TEXT
  5
F861
  8
1DIM
 62
   201
 10
623.27768516632443
 20
-2198.9253668307351
 30
0.0
 40
4.5499999999999989
  1
55.5
 50
90.0
  0
ENDBLK
  5
F863
  8
0
  0
BLOCK
  8
0
  2
*U45
 70
     1
 10
0.0
 20
0.0
 30
0.0
  3
*U45
  1

  0
TEXT
  5
F865
  8
1DIM
 62
   201
 10
1048.2776651663251
 20
-2197.913698529615
 30
0.0
 40
4.5499999999999989
  1
74
 50
90.0
  0
ENDBLK
  5
F867
  8
0
  0
BLOCK
  8
0
  2
*U46
 70
     1
 10
0.0
 20
0.0
 30
0.0
  3
*U46
  1

  0
TEXT
  5
F869
  8
1DIM
 62
   201
 10
983.89599849965816
 20
-2114.8269486528411
 30
0.0
 40
4.5499999999999989
  1
69
  0
ENDBLK
  5
F86B
  8
0
  0
BLOCK
  8
0
  2
*U47
 70
     1
 10
0.0
 20
0.0
 30
0.0
  3
*U47
  1

  0
TEXT
  5
F86D
  8
1DIM
 62
   201
 10
975.65433583299193
 20
-2124.8269486528411
 30
0.0
 40
4.5499999999999989
  1
51
  0
ENDBLK
  5
F86F
  8
0
  0
BLOCK
  8
0
  2
*U48
 70
     1
 10
0.0
 20
0.0
 30
0.0
  3
*U48
  1

  0
TEXT
  5
F871
  8
1DIM
 62
   201
 10
858.17088750465916
 20
-2124.8269486528411
 30
0.0
 40
4.5499999999999989
  1
8
  0
ENDBLK
  5
F873
  8
0
  0
BLOCK
  8
0
  2
*U49
 70
     1
 10
0.0
 20
0.0
 30
0.0
  3
*U49
  1

  0
TEXT
  5
F875
  8
1DIM
 62
   201
 10
800.89580971679936
 20
-2124.8269486528411
 30
0.0
 40
4.5499999999999989
  1
22
  0
ENDBLK
  5
F877
  8
0
  0
BLOCK
  8
0
  2
*U50
 70
     1
 10
0.0
 20
0.0
 30
0.0
  3
*U50
  1

  0
TEXT
  5
F87C
  8
1DIM
 62
   201
 10
997.74183983299224
 20
-2147.8269486528411
 30
0.0
 40
4.5499999999999989
  1
□40
  0
ENDBLK
  5
F87E
  8
0
  0
BLOCK
  8
0
  2
*U51
 70
     1
 10
0.0
 20
0.0
 30
0.0
  3
*U51
  1

  0
TEXT
  5
F880
  8
1DIM
 62
   201
 10
660.74183183299021
 20
-2147.8269486528411
 30
0.0
 40
4.5499999999999989
  1
□40
  0
ENDBLK
  5
F882
  8
0
  0
BLOCK
  8
0
  2
*U52
 70
     1
 10
0.0
 20
0.0
 30
0.0
  3
*U52
  1

  0
TEXT
  5
F884
  8
1DIM
 62
   201
 10
1022.271114773298
 20
-2069.5369486538689
 30
0.0
 40
3.5
  1
94
  0
ENDBLK
  5
F886
  8
0
  0
BLOCK
  8
0
  2
*U53
 70
     1
 10
0.0
 20
0.0
 30
0.0
  3
*U53
  1

  0
TEXT
  5
F888
  8
1DIM
 62
   201
 10
1035.2711147732989
 20
-2059.5369486538689
 30
0.0
 40
3.5
  1
68
  0
ENDBLK
  5
F88A
  8
0
  0
BLOCK
  8
0
  2
*U54
 70
     1
 10
0.0
 20
0.0
 30
0.0
  3
*U54
  1

  0
TEXT
  5
F88C
  8
1DIM
 62
   201
 10
1094.7458137008571
 20
-2007.1536153205359
 30
0.0
 40
3.5
  1
52
 50
90.0
  0
ENDBLK
  5
F88E
  8
0
  0
BLOCK
  8
0
  2
*U55
 70
     1
 10
0.0
 20
0.0
 30
0.0
  3
*U55
  1

  0
TEXT
  5
F890
  8
1DIM
 62
   201
 10
1103.7879629027509
 20
-2012.8632619925691
 30
0.0
 40
3.5
  1
63
 50
90.0
  0
ENDBLK
  5
F892
  8
0
  0
ENDSEC
  0
SECTION
  2
ENTITIES
  0
LINE
  5
A2AF
  8
01
 10
855.68766916632444
 20
-2139.2395686528398
 30
0.0
 11
855.68766916632444
 21
-2286.5728886528409
 31
0.0
  0
LINE
  5
A2B0
  8
01
 10
815.68766916632444
 20
-2139.2395686528398
 30
0.0
 11
815.68766916632444
 21
-2286.5728886528409
 31
0.0
  0
LINE
  5
A2B1
  8
01
 10
715.78767516632502
 20
-2145.736948652841
 30
0.0
 11
715.78767516632502
 21
-2168.8369186528398
 31
0.0
  0
LINE
  5
A2B2
  8
01
 10
714.18766916632444
 20
-2145.736948652841
 30
0.0
 11
714.18766916632444
 21
-2168.736948652841
 31
0.0
  0
LINE
  5
A2B3
  8
01
 10
716.5876781663253
 20
-2145.736948652841
 30
0.0
 11
716.5876781663253
 21
-2275.7369486528401
 31
0.0
  0
LINE
  5
A2B4
  8
01
 10
718.18766916632444
 20
-2145.736948652841
 30
0.0
 11
718.18766916632444
 21
-2275.7369486528401
 31
0.0
  0
LINE
  5
A2B5
  8
01
 10
715.18766916632444
 20
-2173.736948652841
 30
0.0
 11
687.18766516632354
 21
-2173.736948652841
 31
0.0
  0
LINE
  5
A2B6
  8
01
 10
715.18766916632444
 20
-2247.736948652841
 30
0.0
 11
694.68767316632375
 21
-2247.7369486528401
 31
0.0
  0
LINE
  5
A2B7
  8
01
 10
649.18768516632463
 20
-2196.236948652841
 30
0.0
 11
649.18768516632451
 21
-2202.7369486528401
 31
0.0
  0
LINE
  5
A2B8
  8
01
 10
724.18766916632262
 20
-2199.736948652841
 30
0.0
 11
718.18766916632444
 21
-2199.736948652841
 31
0.0
  0
LINE
  5
A2B9
  8
01
 10
729.18766916632444
 20
-2204.736948652841
 30
0.0
 11
719.18766916632444
 21
-2204.736948652841
 31
0.0
  0
POLYLINE
  5
A2BA
  8
01
 10
729.18766916632444
 20
-2203.3053686528401
 30
0.0
 66
     1
 70
     8
  0
VERTEX
  8
01
  5
F893
 10
729.188
 20
-2203.31
 30
0.000000
  70
    32
  0
VERTEX
  8
01
  5
F894
 10
729.186
 20
-2203.22
 30
0.000000
  70
    32
  0
VERTEX
  8
01
  5
F895
 10
729.182
 20
-2203.13
 30
0.000000
  70
    32
  0
VERTEX
  8
01
  5
F896
 10
729.174
 20
-2203.04
 30
0.000000
  70
    32
  0
VERTEX
  8
01
  5
F897
 10
729.164
 20
-2202.96
 30
0.000000
  70
    32
  0
VERTEX
  8
01
  5
F898
 10
729.150
 20
-2202.87
 30
0.000000
  70
    32
  0
VERTEX
  8
01
  5
F899
 10
729.134
 20
-2202.78
 30
0.000000
  70
    32
  0
VERTEX
  8
01
  5
F89A
 10
729.114
 20
-2202.70
 30
0.000000
  70
    32
  0
VERTEX
  8
01
  5
F89B
 10
729.092
 20
-2202.61
 30
0.000000
  70
    32
  0
VERTEX
  8
01
  5
F89C
 10
729.066
 20
-2202.52
 30
0.000000
  70
    32
  0
VERTEX
  8
01
  5
F89D
 10
729.038
 20
-2202.44
 30
0.000000
  70
    32
  0
VERTEX
  8
01
  5
F89E
 10
729.007
 20
-2202.35
 30
0.000000
  70
    32
  0
VERTEX
  8
01
  5
F89F
 10
728.972
 20
-2202.27
 30
0.000000
  70
    32
  0
VERTEX
  8
01
  5
F8A0
 10
728.935
 20
-2202.19
 30
0.000000
  70
    32
  0
VERTEX
  8
01
  5
F8A1
 10
728.895
 20
-2202.10
 30
0.000000
  70
    32
  0
VERTEX
  8
01
  5
F8A2
 10
728.853
 20
-2202.02
 30
0.000000
  70
    32
  0
VERTEX
  8
01
  5
F8A3
 10
728.807
 20
-2201.94
 30
0.000000
  70
    32
  0
VERTEX
  8
01
  5
F8A4
 10
728.759
 20
-2201.86
 30
0.000000
  70
    32
  0
VERTEX
  8
01
  5
F8A5
 10
728.708
 20
-2201.78
 30
0.000000
  70
    32
  0
VERTEX
  8
01
  5
F8A6
 10
728.654
 20
-2201.70
 30
0.000000
  70
    32
  0
VERTEX
  8
01
  5
F8A7
 10
728.597
 20
-2201.62
 30
0.000000
  70
    32
  0
VERTEX
  8
01
  5
F8A8
 10
728.538
 20
-2201.55
 30
0.000000
  70
    32
  0
VERTEX
  8
01
  5
F8A9
 10
728.476
 20
-2201.47
 30
0.000000
  70
    32
  0
VERTEX
  8
01
  5
F8AA
 10
728.412
 20
-2201.40
 30
0.000000
  70
    32
  0
VERTEX
  8
01
  5
F8AB
 10
728.345
 20
-2201.32
 30
0.000000
  70
    32
  0
VERTEX
  8
01
  5
F8AC
 10
728.276
 20
-2201.25
 30
0.000000
  70
    32
  0
VERTEX
  8
01
  5
F8AD
 10
728.204
 20
-2201.18
 30
0.000000
  70
    32
  0
VERTEX
  8
01
  5
F8AE
 10
728.129
 20
-2201.11
 30
0.000000
  70
    32
  0
VERTEX
  8
01
  5
F8AF
 10
728.053
 20
-2201.04
 30
0.000000
  70
    32
  0
VERTEX
  8
01
  5
F8B0
 10
727.974
 20
-2200.97
 30
0.000000
  70
    32
  0
VERTEX
  8
01
  5
F8B1
 10
727.892
 20
-2200.91
 30
0.000000
  70
    32
  0
VERTEX
  8
01
  5
F8B2
 10
727.809
 20
-2200.84
 30
0.000000
  70
    32
  0
VERTEX
  8
01
  5
F8B3
 10
727.723
 20
-2200.78
 30
0.000000
  70
    32
  0
VERTEX
  8
01
  5
F8B4
 10
727.635
 20
-2200.72
 30
0.000000
  70
    32
  0
VERTEX
  8
01
  5
F8B5
 10
727.545
 20
-2200.66
 30
0.000000
  70
    32
  0
VERTEX
  8
01
  5
F8B6
 10
727.454
 20
-2200.60
 30
0.000000
  70
    32
  0
VERTEX
  8
01
  5
F8B7
 10
727.360
 20
-2200.55
 30
0.000000
  70
    32
  0
VERTEX
  8
01
  5
F8B8
 10
727.264
 20
-2200.49
 30
0.000000
  70
    32
  0
VERTEX
  8
01
  5
F8B9
 10
727.166
 20
-2200.44
 30
0.000000
  70
    32
  0
VERTEX
  8
01
  5
F8BA
 10
727.067
 20
-2200.39
 30
0.000000
  70
    32
  0
VERTEX
  8
01
  5
F8BB
 10
726.966
 20
-2200.34
 30
0.000000
  70
    32
  0
VERTEX
  8
01
  5
F8BC
 10
726.863
 20
-2200.29
 30
0.000000
  70
    32
  0
VERTEX
  8
01
  5
F8BD
 10
726.758
 20
-2200.24
 30
0.000000
  70
    32
  0
VERTEX
  8
01
  5
F8BE
 10
726.652
 20
-2200.20
 30
0.000000
  70
    32
  0
VERTEX
  8
01
  5
F8BF
 10
726.545
 20
-2200.16
 30
0.000000
  70
    32
  0
VERTEX
  8
01
  5
F8C0
 10
726.436
 20
-2200.12
 30
0.000000
  70
    32
  0
VERTEX
  8
01
  5
F8C1
 10
726.325
 20
-2200.08
 30
0.000000
  70
    32
  0
VERTEX
  8
01
  5
F8C2
 10
726.214
 20
-2200.04
 30
0.000000
  70
    32
  0
VERTEX
  8
01
  5
F8C3
 10
726.101
 20
-2200.01
 30
0.000000
  70
    32
  0
VERTEX
  8
01
  5
F8C4
 10
725.987
 20
-2199.98
 30
0.000000
  70
    32
  0
VERTEX
  8
01
  5
F8C5
 10
725.872
 20
-2199.95
 30
0.000000
  70
    32
  0
VERTEX
  8
01
  5
F8C6
 10
725.756
 20
-2199.92
 30
0.000000
  70
    32
  0
VERTEX
  8
01
  5
F8C7
 10
725.639
 20
-2199.89
 30
0.000000
  70
    32
  0
VERTEX
  8
01
  5
F8C8
 10
725.521
 20
-2199.87
 30
0.000000
  70
    32
  0
VERTEX
  8
01
  5
F8C9
 10
725.403
 20
-2199.84
 30
0.000000
  70
    32
  0
VERTEX
  8
01
  5
F8CA
 10
725.283
 20
-2199.82
 30
0.000000
  70
    32
  0
VERTEX
  8
01
  5
F8CB
 10
725.163
 20
-2199.81
 30
0.000000
  70
    32
  0
VERTEX
  8
01
  5
F8CC
 10
725.042
 20
-2199.79
 30
0.000000
  70
    32
  0
VERTEX
  8
01
  5
F8CD
 10
724.921
 20
-2199.78
 30
0.000000
  70
    32
  0
VERTEX
  8
01
  5
F8CE
 10
724.800
 20
-2199.76
 30
0.000000
  70
    32
  0
VERTEX
  8
01
  5
F8CF
 10
724.678
 20
-2199.75
 30
0.000000
  70
    32
  0
VERTEX
  8
01
  5
F8D0
 10
724.555
 20
-2199.75
 30
0.000000
  70
    32
  0
VERTEX
  8
01
  5
F8D1
 10
724.433
 20
-2199.74
 30
0.000000
  70
    32
  0
VERTEX
  8
01
  5
F8D2
 10
724.310
 20
-2199.74
 30
0.000000
  70
    32
  0
VERTEX
  8
01
  5
F8D3
 10
724.188
 20
-2199.74
 30
0.000000
  70
    32
  0
VERTEX
  8
01
  5
F8D4
 10
724.065
 20
-2199.74
 30
0.000000
  70
    32
  0
VERTEX
  8
01
  5
F8D5
 10
723.942
 20
-2199.74
 30
0.000000
  70
    32
  0
VERTEX
  8
01
  5
F8D6
 10
723.820
 20
-2199.75
 30
0.000000
  70
    32
  0
VERTEX
  8
01
  5
F8D7
 10
723.698
 20
-2199.75
 30
0.000000
  70
    32
  0
VERTEX
  8
01
  5
F8D8
 10
723.576
 20
-2199.76
 30
0.000000
  70
    32
  0
VERTEX
  8
01
  5
F8D9
 10
723.454
 20
-2199.78
 30
0.000000
  70
    32
  0
VERTEX
  8
01
  5
F8DA
 10
723.333
 20
-2199.79
 30
0.000000
  70
    32
  0
VERTEX
  8
01
  5
F8DB
 10
723.212
 20
-2199.81
 30
0.000000
  70
    32
  0
VERTEX
  8
01
  5
F8DC
 10
723.092
 20
-2199.82
 30
0.000000
  70
    32
  0
VERTEX
  8
01
  5
F8DD
 10
722.973
 20
-2199.84
 30
0.000000
  70
    32
  0
VERTEX
  8
01
  5
F8DE
 10
722.854
 20
-2199.87
 30
0.000000
  70
    32
  0
VERTEX
  8
01
  5
F8DF
 10
722.736
 20
-2199.89
 30
0.000000
  70
    32
  0
VERTEX
  8
01
  5
F8E0
 10
722.619
 20
-2199.92
 30
0.000000
  70
    32
  0
VERTEX
  8
01
  5
F8E1
 10
722.503
 20
-2199.95
 30
0.000000
  70
    32
  0
VERTEX
  8
01
  5
F8E2
 10
722.388
 20
-2199.98
 30
0.000000
  70
    32
  0
VERTEX
  8
01
  5
F8E3
 10
722.274
 20
-2200.01
 30
0.000000
  70
    32
  0
VERTEX
  8
01
  5
F8E4
 10
722.161
 20
-2200.04
 30
0.000000
  70
    32
  0
VERTEX
  8
01
  5
F8E5
 10
722.050
 20
-2200.08
 30
0.000000
  70
    32
  0
VERTEX
  8
01
  5
F8E6
 10
721.940
 20
-2200.12
 30
0.000000
  70
    32
  0
VERTEX
  8
01
  5
F8E7
 10
721.831
 20
-2200.16
 30
0.000000
  70
    32
  0
VERTEX
  8
01
  5
F8E8
 10
721.723
 20
-2200.20
 30
0.000000
  70
    32
  0
VERTEX
  8
01
  5
F8E9
 10
721.617
 20
-2200.24
 30
0.000000
  70
    32
  0
VERTEX
  8
01
  5
F8EA
 10
721.513
 20
-2200.29
 30
0.000000
  70
    32
  0
VERTEX
  8
01
  5
F8EB
 10
721.410
 20
-2200.34
 30
0.000000
  70
    32
  0
VERTEX
  8
01
  5
F8EC
 10
721.309
 20
-2200.39
 30
0.000000
  70
    32
  0
VERTEX
  8
01
  5
F8ED
 10
721.209
 20
-2200.44
 30
0.000000
  70
    32
  0
VERTEX
  8
01
  5
F8EE
 10
721.112
 20
-2200.49
 30
0.000000
  70
    32
  0
VERTEX
  8
01
  5
F8EF
 10
721.016
 20
-2200.55
 30
0.000000
  70
    32
  0
VERTEX
  8
01
  5
F8F0
 10
720.922
 20
-2200.60
 30
0.000000
  70
    32
  0
VERTEX
  8
01
  5
F8F1
 10
720.830
 20
-2200.66
 30
0.000000
  70
    32
  0
VERTEX
  8
01
  5
F8F2
 10
720.740
 20
-2200.72
 30
0.000000
  70
    32
  0
VERTEX
  8
01
  5
F8F3
 10
720.652
 20
-2200.78
 30
0.000000
  70
    32
  0
VERTEX
  8
01
  5
F8F4
 10
720.566
 20
-2200.84
 30
0.000000
  70
    32
  0
VERTEX
  8
01
  5
F8F5
 10
720.483
 20
-2200.91
 30
0.000000
  70
    32
  0
VERTEX
  8
01
  5
F8F6
 10
720.402
 20
-2200.97
 30
0.000000
  70
    32
  0
VERTEX
  8
01
  5
F8F7
 10
720.323
 20
-2201.04
 30
0.000000
  70
    32
  0
VERTEX
  8
01
  5
F8F8
 10
720.246
 20
-2201.11
 30
0.000000
  70
    32
  0
VERTEX
  8
01
  5
F8F9
 10
720.172
 20
-2201.18
 30
0.000000
  70
    32
  0
VERTEX
  8
01
  5
F8FA
 10
720.100
 20
-2201.25
 30
0.000000
  70
    32
  0
VERTEX
  8
01
  5
F8FB
 10
720.030
 20
-2201.32
 30
0.000000
  70
    32
  0
VERTEX
  8
01
  5
F8FC
 10
719.963
 20
-2201.40
 30
0.000000
  70
    32
  0
VERTEX
  8
01
  5
F8FD
 10
719.899
 20
-2201.47
 30
0.000000
  70
    32
  0
VERTEX
  8
01
  5
F8FE
 10
719.837
 20
-2201.55
 30
0.000000
  70
    32
  0
VERTEX
  8
01
  5
F8FF
 10
719.778
 20
-2201.62
 30
0.000000
  70
    32
  0
VERTEX
  8
01
  5
F900
 10
719.722
 20
-2201.70
 30
0.000000
  70
    32
  0
VERTEX
  8
01
  5
F901
 10
719.668
 20
-2201.78
 30
0.000000
  70
    32
  0
VERTEX
  8
01
  5
F902
 10
719.617
 20
-2201.86
 30
0.000000
  70
    32
  0
VERTEX
  8
01
  5
F903
 10
719.568
 20
-2201.94
 30
0.000000
  70
    32
  0
VERTEX
  8
01
  5
F904
 10
719.523
 20
-2202.02
 30
0.000000
  70
    32
  0
VERTEX
  8
01
  5
F905
 10
719.480
 20
-2202.10
 30
0.000000
  70
    32
  0
VERTEX
  8
01
  5
F906
 10
719.440
 20
-2202.19
 30
0.000000
  70
    32
  0
VERTEX
  8
01
  5
F907
 10
719.403
 20
-2202.27
 30
0.000000
  70
    32
  0
VERTEX
  8
01
  5
F908
 10
719.369
 20
-2202.35
 30
0.000000
  70
    32
  0
VERTEX
  8
01
  5
F909
 10
719.338
 20
-2202.44
 30
0.000000
  70
    32
  0
VERTEX
  8
01
  5
F90A
 10
719.309
 20
-2202.52
 30
0.000000
  70
    32
  0
VERTEX
  8
01
  5
F90B
 10
719.284
 20
-2202.61
 30
0.000000
  70
    32
  0
VERTEX
  8
01
  5
F90C
 10
719.261
 20
-2202.70
 30
0.000000
  70
    32
  0
VERTEX
  8
01
  5
F90D
 10
719.242
 20
-2202.78
 30
0.000000
  70
    32
  0
VERTEX
  8
01
  5
F90E
 10
719.225
 20
-2202.87
 30
0.000000
  70
    32
  0
VERTEX
  8
01
  5
F90F
 10
719.212
 20
-2202.96
 30
0.000000
  70
    32
  0
VERTEX
  8
01
  5
F910
 10
719.201
 20
-2203.04
 30
0.000000
  70
    32
  0
VERTEX
  8
01
  5
F911
 10
719.194
 20
-2203.13
 30
0.000000
  70
    32
  0
VERTEX
  8
01
  5
F912
 10
719.189
 20
-2203.22
 30
0.000000
  70
    32
  0
VERTEX
  8
01
  5
F913
 10
719.188
 20
-2203.31
 30
0.000000
  70
    32
  0
SEQEND
  8
01
  5
F914
  0
LINE
  5
A2BB
  8
01
 10
724.18766916632444
 20
-2219.7369486528401
 30
0.0
 11
718.18766916632444
 21
-2219.7369486528401
 31
0.0
  0
LINE
  5
A2BC
  8
01
 10
729.18766916632444
 20
-2214.7369486528401
 30
0.0
 11
719.18766916632444
 21
-2214.7369486528401
 31
0.0
  0
POLYLINE
  5
A2BD
  8
01
 10
729.18766916632444
 20
-2216.16852865284
 30
0.0
 66
     1
 70
     8
  0
VERTEX
  8
01
  5
F915
 10
729.188
 20
-2216.17
 30
0.000000
  70
    32
  0
VERTEX
  8
01
  5
F916
 10
729.186
 20
-2216.26
 30
0.000000
  70
    32
  0
VERTEX
  8
01
  5
F917
 10
729.182
 20
-2216.34
 30
0.000000
  70
    32
  0
VERTEX
  8
01
  5
F918
 10
729.174
 20
-2216.43
 30
0.000000
  70
    32
  0
VERTEX
  8
01
  5
F919
 10
729.164
 20
-2216.52
 30
0.000000
  70
    32
  0
VERTEX
  8
01
  5
F91A
 10
729.150
 20
-2216.61
 30
0.000000
  70
    32
  0
VERTEX
  8
01
  5
F91B
 10
729.134
 20
-2216.69
 30
0.000000
  70
    32
  0
VERTEX
  8
01
  5
F91C
 10
729.114
 20
-2216.78
 30
0.000000
  70
    32
  0
VERTEX
  8
01
  5
F91D
 10
729.092
 20
-2216.86
 30
0.000000
  70
    32
  0
VERTEX
  8
01
  5
F91E
 10
729.066
 20
-2216.95
 30
0.000000
  70
    32
  0
VERTEX
  8
01
  5
F91F
 10
729.038
 20
-2217.04
 30
0.000000
  70
    32
  0
VERTEX
  8
01
  5
F920
 10
729.007
 20
-2217.12
 30
0.000000
  70
    32
  0
VERTEX
  8
01
  5
F921
 10
728.972
 20
-2217.20
 30
0.000000
  70
    32
  0
VERTEX
  8
01
  5
F922
 10
728.935
 20
-2217.29
 30
0.000000
  70
    32
  0
VERTEX
  8
01
  5
F923
 10
728.895
 20
-2217.37
 30
0.000000
  70
    32
  0
VERTEX
  8
01
  5
F924
 10
728.853
 20
-2217.45
 30
0.000000
  70
    32
  0
VERTEX
  8
01
  5
F925
 10
728.807
 20
-2217.53
 30
0.000000
  70
    32
  0
VERTEX
  8
01
  5
F926
 10
728.759
 20
-2217.61
 30
0.000000
  70
    32
  0
VERTEX
  8
01
  5
F927
 10
728.708
 20
-2217.69
 30
0.000000
  70
    32
  0
VERTEX
  8
01
  5
F928
 10
728.654
 20
-2217.77
 30
0.000000
  70
    32
  0
VERTEX
  8
01
  5
F929
 10
728.597
 20
-2217.85
 30
0.000000
  70
    32
  0
VERTEX
  8
01
  5
F92A
 10
728.538
 20
-2217.93
 30
0.000000
  70
    32
  0
VERTEX
  8
01
  5
F92B
 10
728.476
 20
-2218.00
 30
0.000000
  70
    32
  0
VERTEX
  8
01
  5
F92C
 10
728.412
 20
-2218.08
 30
0.000000
  70
    32
  0
VERTEX
  8
01
  5
F92D
 10
728.345
 20
-2218.15
 30
0.000000
  70
    32
  0
VERTEX
  8
01
  5
F92E
 10
728.276
 20
-2218.22
 30
0.000000
  70
    32
  0
VERTEX
  8
01
  5
F92F
 10
728.204
 20
-2218.29
 30
0.000000
  70
    32
  0
VERTEX
  8
01
  5
F930
 10
728.129
 20
-2218.36
 30
0.000000
  70
    32
  0
VERTEX
  8
01
  5
F931
 10
728.053
 20
-2218.43
 30
0.000000
  70
    32
  0
VERTEX
  8
01
  5
F932
 10
727.974
 20
-2218.50
 30
0.000000
  70
    32
  0
VERTEX
  8
01
  5
F933
 10
727.892
 20
-2218.56
 30
0.000000
  70
    32
  0
VERTEX
  8
01
  5
F934
 10
727.809
 20
-2218.63
 30
0.000000
  70
    32
  0
VERTEX
  8
01
  5
F935
 10
727.723
 20
-2218.69
 30
0.000000
  70
    32
  0
VERTEX
  8
01
  5
F936
 10
727.635
 20
-2218.75
 30
0.000000
  70
    32
  0
VERTEX
  8
01
  5
F937
 10
727.545
 20
-2218.81
 30
0.000000
  70
    32
  0
VERTEX
  8
01
  5
F938
 10
727.454
 20
-2218.87
 30
0.000000
  70
    32
  0
VERTEX
  8
01
  5
F939
 10
727.360
 20
-2218.93
 30
0.000000
  70
    32
  0
VERTEX
  8
01
  5
F93A
 10
727.264
 20
-2218.98
 30
0.000000
  70
    32
  0
VERTEX
  8
01
  5
F93B
 10
727.166
 20
-2219.03
 30
0.000000
  70
    32
  0
VERTEX
  8
01
  5
F93C
 10
727.067
 20
-2219.09
 30
0.000000
  70
    32
  0
VERTEX
  8
01
  5
F93D
 10
726.966
 20
-2219.14
 30
0.000000
  70
    32
  0
VERTEX
  8
01
  5
F93E
 10
726.863
 20
-2219.18
 30
0.000000
  70
    32
  0
VERTEX
  8
01
  5
F93F
 10
726.758
 20
-2219.23
 30
0.000000
  70
    32
  0
VERTEX
  8
01
  5
F940
 10
726.652
 20
-2219.27
 30
0.000000
  70
    32
  0
VERTEX
  8
01
  5
F941
 10
726.545
 20
-2219.32
 30
0.000000
  70
    32
  0
VERTEX
  8
01
  5
F942
 10
726.436
 20
-2219.36
 30
0.000000
  70
    32
  0
VERTEX
  8
01
  5
F943
 10
726.325
 20
-2219.39
 30
0.000000
  70
    32
  0
VERTEX
  8
01
  5
F944
 10
726.214
 20
-2219.43
 30
0.000000
  70
    32
  0
VERTEX
  8
01
  5
F945
 10
726.101
 20
-2219.47
 30
0.000000
  70
    32
  0
VERTEX
  8
01
  5
F946
 10
725.987
 20
-2219.50
 30
0.000000
  70
    32
  0
VERTEX
  8
01
  5
F947
 10
725.872
 20
-2219.53
 30
0.000000
  70
    32
  0
VERTEX
  8
01
  5
F948
 10
725.756
 20
-2219.56
 30
0.000000
  70
    32
  0
VERTEX
  8
01
  5
F949
 10
725.639
 20
-2219.58
 30
0.000000
  70
    32
  0
VERTEX
  8
01
  5
F94A
 10
725.521
 20
-2219.61
 30
0.000000
  70
    32
  0
VERTEX
  8
01
  5
F94B
 10
725.403
 20
-2219.63
 30
0.000000
  70
    32
  0
VERTEX
  8
01
  5
F94C
 10
725.283
 20
-2219.65
 30
0.000000
  70
    32
  0
VERTEX
  8
01
  5
F94D
 10
725.163
 20
-2219.67
 30
0.000000
  70
    32
  0
VERTEX
  8
01
  5
F94E
 10
725.042
 20
-2219.68
 30
0.000000
  70
    32
  0
VERTEX
  8
01
  5
F94F
 10
724.921
 20
-2219.70
 30
0.000000
  70
    32
  0
VERTEX
  8
01
  5
F950
 10
724.800
 20
-2219.71
 30
0.000000
  70
    32
  0
VERTEX
  8
01
  5
F951
 10
724.678
 20
-2219.72
 30
0.000000
  70
    32
  0
VERTEX
  8
01
  5
F952
 10
724.555
 20
-2219.73
 30
0.000000
  70
    32
  0
VERTEX
  8
01
  5
F953
 10
724.433
 20
-2219.73
 30
0.000000
  70
    32
  0
VERTEX
  8
01
  5
F954
 10
724.310
 20
-2219.74
 30
0.000000
  70
    32
  0
VERTEX
  8
01
  5
F955
 10
724.188
 20
-2219.74
 30
0.000000
  70
    32
  0
VERTEX
  8
01
  5
F956
 10
724.065
 20
-2219.74
 30
0.000000
  70
    32
  0
VERTEX
  8
01
  5
F957
 10
723.942
 20
-2219.73
 30
0.000000
  70
    32
  0
VERTEX
  8
01
  5
F958
 10
723.820
 20
-2219.73
 30
0.000000
  70
    32
  0
VERTEX
  8
01
  5
F959
 10
723.698
 20
-2219.72
 30
0.000000
  70
    32
  0
VERTEX
  8
01
  5
F95A
 10
723.576
 20
-2219.71
 30
0.000000
  70
    32
  0
VERTEX
  8
01
  5
F95B
 10
723.454
 20
-2219.70
 30
0.000000
  70
    32
  0
VERTEX
  8
01
  5
F95C
 10
723.333
 20
-2219.68
 30
0.000000
  70
    32
  0
VERTEX
  8
01
  5
F95D
 10
723.212
 20
-2219.67
 30
0.000000
  70
    32
  0
VERTEX
  8
01
  5
F95E
 10
723.092
 20
-2219.65
 30
0.000000
  70
    32
  0
VERTEX
  8
01
  5
F95F
 10
722.973
 20
-2219.63
 30
0.000000
  70
    32
  0
VERTEX
  8
01
  5
F960
 10
722.854
 20
-2219.61
 30
0.000000
  70
    32
  0
VERTEX
  8
01
  5
F961
 10
722.736
 20
-2219.58
 30
0.000000
  70
    32
  0
VERTEX
  8
01
  5
F962
 10
722.619
 20
-2219.56
 30
0.000000
  70
    32
  0
VERTEX
  8
01
  5
F963
 10
722.503
 20
-2219.53
 30
0.000000
  70
    32
  0
VERTEX
  8
01
  5
F964
 10
722.388
 20
-2219.50
 30
0.000000
  70
    32
  0
VERTEX
  8
01
  5
F965
 10
722.274
 20
-2219.47
 30
0.000000
  70
    32
  0
VERTEX
  8
01
  5
F966
 10
722.161
 20
-2219.43
 30
0.000000
  70
    32
  0
VERTEX
  8
01
  5
F967
 10
722.050
 20
-2219.39
 30
0.000000
  70
    32
  0
VERTEX
  8
01
  5
F968
 10
721.940
 20
-2219.36
 30
0.000000
  70
    32
  0
VERTEX
  8
01
  5
F969
 10
721.831
 20
-2219.32
 30
0.000000
  70
    32
  0
VERTEX
  8
01
  5
F96A
 10
721.723
 20
-2219.27
 30
0.000000
  70
    32
  0
VERTEX
  8
01
  5
F96B
 10
721.617
 20
-2219.23
 30
0.000000
  70
    32
  0
VERTEX
  8
01
  5
F96C
 10
721.513
 20
-2219.18
 30
0.000000
  70
    32
  0
VERTEX
  8
01
  5
F96D
 10
721.410
 20
-2219.14
 30
0.000000
  70
    32
  0
VERTEX
  8
01
  5
F96E
 10
721.309
 20
-2219.09
 30
0.000000
  70
    32
  0
VERTEX
  8
01
  5
F96F
 10
721.209
 20
-2219.03
 30
0.000000
  70
    32
  0
VERTEX
  8
01
  5
F970
 10
721.112
 20
-2218.98
 30
0.000000
  70
    32
  0
VERTEX
  8
01
  5
F971
 10
721.016
 20
-2218.93
 30
0.000000
  70
    32
  0
VERTEX
  8
01
  5
F972
 10
720.922
 20
-2218.87
 30
0.000000
  70
    32
  0
VERTEX
  8
01
  5
F973
 10
720.830
 20
-2218.81
 30
0.000000
  70
    32
  0
VERTEX
  8
01
  5
F974
 10
720.740
 20
-2218.75
 30
0.000000
  70
    32
  0
VERTEX
  8
01
  5
F975
 10
720.652
 20
-2218.69
 30
0.000000
  70
    32
  0
VERTEX
  8
01
  5
F976
 10
720.566
 20
-2218.63
 30
0.000000
  70
    32
  0
VERTEX
  8
01
  5
F977
 10
720.483
 20
-2218.56
 30
0.000000
  70
    32
  0
VERTEX
  8
01
  5
F978
 10
720.402
 20
-2218.50
 30
0.000000
  70
    32
  0
VERTEX
  8
01
  5
F979
 10
720.323
 20
-2218.43
 30
0.000000
  70
    32
  0
VERTEX
  8
01
  5
F97A
 10
720.246
 20
-2218.36
 30
0.000000
  70
    32
  0
VERTEX
  8
01
  5
F97B
 10
720.172
 20
-2218.29
 30
0.000000
  70
    32
  0
VERTEX
  8
01
  5
F97C
 10
720.100
 20
-2218.22
 30
0.000000
  70
    32
  0
VERTEX
  8
01
  5
F97D
 10
720.030
 20
-2218.15
 30
0.000000
  70
    32
  0
VERTEX
  8
01
  5
F97E
 10
719.963
 20
-2218.08
 30
0.000000
  70
    32
  0
VERTEX
  8
01
  5
F97F
 10
719.899
 20
-2218.00
 30
0.000000
  70
    32
  0
VERTEX
  8
01
  5
F980
 10
719.837
 20
-2217.93
 30
0.000000
  70
    32
  0
VERTEX
  8
01
  5
F981
 10
719.778
 20
-2217.85
 30
0.000000
  70
    32
  0
VERTEX
  8
01
  5
F982
 10
719.722
 20
-2217.77
 30
0.000000
  70
    32
  0
VERTEX
  8
01
  5
F983
 10
719.668
 20
-2217.69
 30
0.000000
  70
    32
  0
VERTEX
  8
01
  5
F984
 10
719.617
 20
-2217.61
 30
0.000000
  70
    32
  0
VERTEX
  8
01
  5
F985
 10
719.568
 20
-2217.53
 30
0.000000
  70
    32
  0
VERTEX
  8
01
  5
F986
 10
719.523
 20
-2217.45
 30
0.000000
  70
    32
  0
VERTEX
  8
01
  5
F987
 10
719.480
 20
-2217.37
 30
0.000000
  70
    32
  0
VERTEX
  8
01
  5
F988
 10
719.440
 20
-2217.29
 30
0.000000
  70
    32
  0
VERTEX
  8
01
  5
F989
 10
719.403
 20
-2217.20
 30
0.000000
  70
    32
  0
VERTEX
  8
01
  5
F98A
 10
719.369
 20
-2217.12
 30
0.000000
  70
    32
  0
VERTEX
  8
01
  5
F98B
 10
719.338
 20
-2217.04
 30
0.000000
  70
    32
  0
VERTEX
  8
01
  5
F98C
 10
719.309
 20
-2216.95
 30
0.000000
  70
    32
  0
VERTEX
  8
01
  5
F98D
 10
719.284
 20
-2216.86
 30
0.000000
  70
    32
  0
VERTEX
  8
01
  5
F98E
 10
719.261
 20
-2216.78
 30
0.000000
  70
    32
  0
VERTEX
  8
01
  5
F98F
 10
719.242
 20
-2216.69
 30
0.000000
  70
    32
  0
VERTEX
  8
01
  5
F990
 10
719.225
 20
-2216.61
 30
0.000000
  70
    32
  0
VERTEX
  8
01
  5
F991
 10
719.212
 20
-2216.52
 30
0.000000
  70
    32
  0
VERTEX
  8
01
  5
F992
 10
719.201
 20
-2216.43
 30
0.000000
  70
    32
  0
VERTEX
  8
01
  5
F993
 10
719.194
 20
-2216.34
 30
0.000000
  70
    32
  0
VERTEX
  8
01
  5
F994
 10
719.189
 20
-2216.26
 30
0.000000
  70
    32
  0
VERTEX
  8
01
  5
F995
 10
719.188
 20
-2216.17
 30
0.000000
  70
    32
  0
SEQEND
  8
01
  5
F996
  0
LINE
  5
A2BE
  8
01
 10
729.18766916632444
 20
-2203.3053686528401
 30
0.0
 11
729.18766916632444
 21
-2216.1685286528409
 31
0.0
  0
LINE
  5
A2BF
  8
01
 10
719.18766916632444
 20
-2203.3053686528401
 30
0.0
 11
719.18766916632444
 21
-2216.1685286528382
 31
0.0
  0
LINE
  5
A2C0
  8
01
 10
715.18765416632482
 20
-2169.736948652841
 30
0.0
 11
714.18765416632482
 21
-2168.736948652841
 31
0.0
  0
LINE
  5
A2C1
  8
01
 10
716.58767116632475
 20
-2169.636968652841
 30
0.0
 11
715.78769016632464
 21
-2168.8369886528399
 31
0.0
  0
LINE
  5
A2C2
  8
01
 10
716.58767116632475
 20
-2251.8369586528402
 30
0.0
 11
715.78766816632435
 21
-2252.6369386528409
 31
0.0
  0
LINE
  5
A2C3
  8
01
 10
715.18761616632457
 20
-2251.7369786528402
 30
0.0
 11
714.18763116632431
 21
-2252.7369786528402
 31
0.0
  0
LINE
  5
A2C4
  8
01
 10
718.18766916632444
 20
-2275.7369486528401
 30
0.0
 11
714.18766916632444
 21
-2275.7369486528401
 31
0.0
  0
LINE
  5
A2C5
  8
01
 10
715.78767516632502
 20
-2275.7369486528401
 30
0.0
 11
715.78767516632502
 21
-2252.6369386528409
 31
0.0
  0
LINE
  5
A2C6
  8
01
 10
714.18766916632444
 20
-2275.7369486528401
 30
0.0
 11
714.18766916632444
 21
-2252.736948652841
 31
0.0
  0
LINE
  5
A2C7
  8
01
 10
715.18766916632444
 20
-2169.736948652841
 30
0.0
 11
715.18766916632444
 21
-2251.7369486528401
 31
0.0
  0
LINE
  5
A2C8
  8
01
 10
718.18766916632444
 20
-2145.736948652841
 30
0.0
 11
714.18766916632444
 21
-2145.736948652841
 31
0.0
  0
LINE
  5
A2C9
  8
01
 10
823.18766916632433
 20
-2151.736948652841
 30
0.0
 11
823.18766916632433
 21
-2269.736948652841
 31
0.0
  0
LINE
  5
A2CA
  8
01
 10
848.18766916632433
 20
-2151.736948652841
 30
0.0
 11
848.18766916632433
 21
-2269.736948652841
 31
0.0
  0
ARC
  5
A2CB
  8
01
 10
842.18766916632455
 20
-2269.736948652841
 30
0.0
 40
6.0
 50
270.0
 51
0.0
  0
ARC
  5
A2CC
  8
01
 10
829.18766916632444
 20
-2269.736948652841
 30
0.0
 40
6.0
 50
180.0
 51
270.0
  0
LINE
  5
A2CD
  8
01
 10
843.43766916632444
 20
-2203.3053686528401
 30
0.0
 11
843.43766916632444
 21
-2216.16852865284
 31
0.0
  0
LINE
  5
A2CE
  8
01
 10
842.43766916632444
 20
-2204.736948652841
 30
0.0
 11
842.43766916632444
 21
-2214.7369486528401
 31
0.0
  0
LINE
  5
A2CF
  8
01
 10
828.93766916632444
 20
-2204.736948652841
 30
0.0
 11
828.93766916632444
 21
-2214.7369486528401
 31
0.0
  0
LINE
  5
A2D0
  8
01
 10
827.93766916632444
 20
-2203.3053686528401
 30
0.0
 11
827.93766916632444
 21
-2216.16852865284
 31
0.0
  0
ARC
  5
A2D1
  8
01
 10
835.68766916632433
 20
-2209.53693865284
 30
0.0
 40
10.199999999999999
 50
220.5530799999753
 51
319.44692000002459
  0
LINE
  5
A2D2
  8
01
 10
828.93766916632444
 20
-2214.7369486528401
 30
0.0
 11
842.43766916632444
 21
-2214.7369486528401
 31
0.0
  0
LINE
  5
A2D3
  8
01
 10
828.93766916632444
 20
-2204.736948652841
 30
0.0
 11
842.43766916632444
 21
-2204.736948652841
 31
0.0
  0
ARC
  5
A2D4
  8
01
 10
835.68766916632433
 20
-2209.9369586528401
 30
0.0
 40
10.199999999999999
 50
40.553083999977588
 51
139.44692000002459
  0
CIRCLE
  5
A2D5
  8
01
 10
835.68766916632433
 20
-2267.7369486528401
 30
0.0
 40
4.5
  0
CIRCLE
  5
A2D6
  8
01
 10
835.68766916632433
 20
-2267.7369486528401
 30
0.0
 40
2.75
  0
LINE
  5
A2D7
  8
01
 10
829.18766916632444
 20
-2275.7369486528401
 30
0.0
 11
842.18766916632455
 21
-2275.7369486528401
 31
0.0
  0
ARC
  5
A2D8
  8
01
 10
842.18766916632455
 20
-2151.736948652841
 30
0.0
 40
6.0
 50
0.0
 51
90.0
  0
ARC
  5
A2DA
  8
01
 10
829.18766916632444
 20
-2151.736948652841
 30
0.0
 40
6.0
 50
90.0
 51
180.0
  0
LINE
  5
A2DB
  8
01
 10
829.18766916632444
 20
-2145.736948652841
 30
0.0
 11
842.18766916632455
 21
-2145.736948652841
 31
0.0
  0
CIRCLE
  5
A2DC
  8
01
 10
835.68766916632433
 20
-2153.736948652841
 30
0.0
 40
4.5
  0
CIRCLE
  5
A2DD
  8
01
 10
835.68766916632433
 20
-2153.736948652841
 30
0.0
 40
2.75
  0
LINE
  5
A2E2
  8
01
 10
955.58767516632429
 20
-2145.736948652841
 30
0.0
 11
955.58767516632429
 21
-2168.8369186528398
 31
0.0
  0
LINE
  5
A2E3
  8
01
 10
957.1876651663249
 20
-2145.736948652841
 30
0.0
 11
957.1876651663249
 21
-2168.736948652841
 31
0.0
  0
LINE
  5
A2E4
  8
01
 10
954.78767516632513
 20
-2145.736948652841
 30
0.0
 11
954.78767516632513
 21
-2275.7369486528401
 31
0.0
  0
LINE
  5
A2E5
  8
01
 10
953.18766516632502
 20
-2145.736948652841
 30
0.0
 11
953.18766516632502
 21
-2275.7369486528401
 31
0.0
  0
LINE
  5
A2E6
  8
01
 10
956.1876651663249
 20
-2173.736948652841
 30
0.0
 11
984.54612855637515
 21
-2173.736948652841
 31
0.0
  0
LINE
  5
A2E7
  8
01
 10
956.1876651663249
 20
-2247.736948652841
 30
0.0
 11
976.68766516632468
 21
-2247.736948652841
 31
0.0
  0
LINE
  5
A2E8
  8
01
 10
956.18767516632465
 20
-2169.736948652841
 30
0.0
 11
957.18767516632465
 21
-2168.736948652841
 31
0.0
  0
LINE
  5
A2E9
  8
01
 10
954.78766516632527
 20
-2169.636968652841
 30
0.0
 11
955.58767516632429
 21
-2168.8369186528398
 31
0.0
  0
LINE
  5
A2EA
  8
01
 10
946.1876651663249
 20
-2199.736948652841
 30
0.0
 11
953.18766516632502
 21
-2199.736948652841
 31
0.0
  0
LINE
  5
A2EB
  8
01
 10
946.1876651663249
 20
-2219.7369486528401
 30
0.0
 11
953.18766516632502
 21
-2219.7369486528401
 31
0.0
  0
LINE
  5
A2EC
  8
01
 10
942.26976516632453
 20
-2216.543218652841
 30
0.0
 11
953.18766516632502
 21
-2216.543218652841
 31
0.0
  0
LINE
  5
A2ED
  8
01
 10
942.26976516632453
 20
-2202.9306686528398
 30
0.0
 11
953.18766516632502
 21
-2202.9306686528398
 31
0.0
  0
LINE
  5
A2EE
  8
01
 10
942.18766516632479
 20
-2203.7369486528401
 30
0.0
 11
942.18766516632479
 21
-2215.736948652841
 31
0.0
  0
ARC
  5
A2EF
  8
01
 10
946.1876651663249
 20
-2215.736948652841
 30
0.0
 40
4.0
 50
179.999989999999
 51
270.0
  0
ARC
  5
A2F0
  8
01
 10
946.1876651663249
 20
-2203.7369486528401
 30
0.0
 40
4.0
 50
90.000002999984659
 51
180.00001000000091
  0
LINE
  5
A2F1
  8
01
 10
954.78766516632527
 20
-2251.8369586528402
 30
0.0
 11
955.58767516632429
 21
-2252.6369386528409
 31
0.0
  0
LINE
  5
A2F2
  8
01
 10
956.18771516632546
 20
-2251.7369786528402
 30
0.0
 11
957.18769516632415
 21
-2252.736948652841
 31
0.0
  0
LINE
  5
A2F3
  8
1CENTER
 10
948.1876651663249
 20
-2267.7369486528401
 30
0.0
 11
962.1876651663249
 21
-2267.7369486528401
 31
0.0
  0
LINE
  5
A2F4
  8
01
 10
953.18766516632502
 20
-2275.7369486528401
 30
0.0
 11
957.1876651663249
 21
-2275.7369486528401
 31
0.0
  0
LINE
  5
A2F5
  8
01
 10
955.58767516632429
 20
-2275.7369486528401
 30
0.0
 11
955.58767516632429
 21
-2252.6369386528409
 31
0.0
  0
LINE
  5
A2F6
  8
01
 10
957.1876651663249
 20
-2275.7369486528401
 30
0.0
 11
957.1876651663249
 21
-2252.736948652841
 31
0.0
  0
LINE
  5
A2F7
  8
01
 10
956.1876651663249
 20
-2169.736948652841
 30
0.0
 11
956.1876651663249
 21
-2251.7369486528401
 31
0.0
  0
LINE
  5
A2F8
  8
01
 10
1022.187665166325
 20
-2196.236948652841
 30
0.0
 11
1022.187665166325
 21
-2202.736948652841
 31
0.0
  0
LINE
  5
A2FA
  8
01
 10
953.18766516632502
 20
-2145.736948652841
 30
0.0
 11
957.1876651663249
 21
-2145.736948652841
 31
0.0
  0
LINE
  5
A2FB
  8
1CENTER
 10
948.1876651663249
 20
-2153.736948652841
 30
0.0
 11
962.1876651663249
 21
-2153.736948652841
 31
0.0
  0
LINE
  5
A303
  8
01
 10
957.18854934838487
 20
-1948.7369486538689
 30
0.0
 11
1023.188549348385
 21
-1948.7369486538689
 31
0.0
  0
LINE
  5
A304
  8
01
 10
957.18854934838487
 20
-1950.336918653868
 30
0.0
 11
1023.188549348385
 21
-1950.336918653868
 31
0.0
  0
LINE
  5
A305
  8
01
 10
954.78855934838487
 20
-1967.7369486538689
 30
0.0
 11
1023.188549348385
 21
-1967.7369486538689
 31
0.0
  0
LINE
  5
A306
  8
01
 10
956.38853934838573
 20
-1953.2369486538689
 30
0.0
 11
957.18854934838487
 21
-1952.4369286538681
 31
0.0
  0
LINE
  5
A307
  8
01
 10
957.18854934838487
 20
-1947.7369486538689
 30
0.0
 11
957.18854934838487
 21
-1952.4369286538681
 31
0.0
  0
LINE
  5
A308
  8
01
 10
954.78855934838487
 20
-1953.236918653869
 30
0.0
 11
955.58854934838632
 21
-1952.436958653868
 31
0.0
  0
LINE
  5
A309
  8
01
 10
942.18854934838475
 20
-1965.9869486538689
 30
0.0
 11
953.18854934838475
 21
-1965.9869486538689
 31
0.0
  0
LINE
  5
A30A
  8
01
 10
942.18854934838475
 20
-1965.9869486538689
 30
0.0
 11
942.18854934838475
 21
-1963.9869486538689
 31
0.0
  0
LINE
  5
A30B
  8
01
 10
953.18854934838475
 20
-1945.7369486538689
 30
0.0
 11
954.78855934838487
 21
-1945.7369486538689
 31
0.0
  0
LINE
  5
A30C
  8
01
 10
954.78855934838487
 20
-1945.7369486538689
 30
0.0
 11
954.78855934838487
 21
-1953.2369486538689
 31
0.0
  0
LINE
  5
A30D
  8
01
 10
955.58855934838607
 20
-1947.7369486538689
 30
0.0
 11
955.58855934838607
 21
-1952.4369286538681
 31
0.0
  0
LINE
  5
A30E
  8
01
 10
954.78855934838487
 20
-1947.7369486538689
 30
0.0
 11
957.18854934838487
 21
-1947.7369486538689
 31
0.0
  0
LINE
  5
A30F
  8
01
 10
957.18854934838487
 20
-1964.0369386538689
 30
0.0
 11
957.18854934838487
 21
-1967.7369486538689
 31
0.0
  0
LINE
  5
A310
  8
01
 10
956.38855934838534
 20
-1963.236918653869
 30
0.0
 11
957.18854934838487
 21
-1964.0369386538689
 31
0.0
  0
LINE
  5
A311
  8
01
 10
957.18854934838487
 20
-1966.136938653869
 30
0.0
 11
961.78855934838487
 21
-1966.136938653869
 31
0.0
  0
LINE
  5
A312
  8
01
 10
954.78854934838512
 20
-1963.236918653869
 30
0.0
 11
955.58855934838607
 21
-1964.0369386538689
 31
0.0
  0
LINE
  5
A313
  8
01
 10
954.78855934838487
 20
-1963.2369486538689
 30
0.0
 11
954.78855934838487
 21
-1970.7369486538689
 31
0.0
  0
LINE
  5
A314
  8
01
 10
953.18854934838475
 20
-1970.7369486538689
 30
0.0
 11
954.78855934838487
 21
-1970.7369486538689
 31
0.0
  0
LINE
  5
A315
  8
01
 10
955.58855934838607
 20
-1964.0369386538689
 30
0.0
 11
955.58855934838607
 21
-1967.7369486538689
 31
0.0
  0
LINE
  5
A316
  8
01
 10
953.18854934838475
 20
-1938.2369486538689
 30
0.0
 11
953.18854934838475
 21
-1978.2369486538689
 31
0.0
  0
LINE
  5
A317
  8
01
 10
961.78855934838487
 20
-1950.336918653868
 30
0.0
 11
961.78855934838487
 21
-1967.7369486538689
 31
0.0
  0
LINE
  5
A318
  8
01
 10
956.38854934838548
 20
-1953.2369486538689
 30
0.0
 11
956.38854934838548
 21
-1963.2369486538689
 31
0.0
  0
LINE
  5
A319
  8
01
 10
954.78855934838487
 20
-1953.2369486538689
 30
0.0
 11
954.78855934838487
 21
-1963.2369486538689
 31
0.0
  0
ARC
  5
A31A
  8
01
 10
985.85804934838507
 20
-1988.3380286538679
 30
0.0
 40
50.0
 50
130.7976899999974
 51
150.85500000002
  0
LINE
  5
A31B
  8
1CENTER
 10
985.54989789461706
 20
-1996.236979653868
 30
0.0
 11
1001.172534506068
 21
-1996.236979653868
 31
0.0
  0
LINE
  5
A31C
  8
01
 10
1021.588549348386
 20
-1950.336918653868
 30
0.0
 11
1021.588549348386
 21
-1967.7369486538689
 31
0.0
  0
LINE
  5
A31D
  8
01
 10
1023.188549348385
 20
-1948.7369486538689
 30
0.0
 11
1023.188549348385
 21
-1967.7369486538689
 31
0.0
  0
LINE
  5
A31E
  8
1CENTER
 10
985.54989789461706
 20
-1920.23691765387
 30
0.0
 11
1001.172534506068
 21
-1920.23691765387
 31
0.0
  0
LINE
  5
A321
  8
1CENTER
 10
723.18767316632386
 20
-2267.7369486528401
 30
0.0
 11
709.1876731663242
 21
-2267.7369486528401
 31
0.0
  0
LINE
  5
A322
  8
1CENTER
 10
723.18767316632386
 20
-2153.736948652841
 30
0.0
 11
709.1876731663242
 21
-2153.736948652841
 31
0.0
  0
LINE
  5
A323
  8
1CENTER
 10
842.18766916632455
 20
-2153.736948652841
 30
0.0
 11
829.18766916632444
 21
-2153.736948652841
 31
0.0
  0
LINE
  5
A324
  8
1CENTER
 10
835.68766916632433
 20
-2147.236948652841
 30
0.0
 11
835.68766916632433
 21
-2160.2369486528401
 31
0.0
  0
LINE
  5
A325
  8
1CENTER
 10
842.18766916632455
 20
-2267.7369486528401
 30
0.0
 11
829.18766916632444
 21
-2267.7369486528401
 31
0.0
  0
LINE
  5
A326
  8
1CENTER
 10
835.68766916632433
 20
-2261.2369486528401
 30
0.0
 11
835.68766916632433
 21
-2274.236948652841
 31
0.0
  0
LINE
  5
A327
  8
1CENTER
 10
697.18767316632409
 20
-2231.736948652841
 30
0.0
 11
637.1876731663242
 21
-2231.736948652841
 31
0.0
  0
LINE
  5
A328
  8
1CENTER
 10
667.1876731663242
 20
-2201.736948652841
 30
0.0
 11
667.1876731663242
 21
-2261.736948652841
 31
0.0
  0
LINE
  5
A329
  8
1CENTER
 10
974.18766516632468
 20
-2231.736948652841
 30
0.0
 11
1034.187665166324
 21
-2231.736948652841
 31
0.0
  0
LINE
  5
A32A
  8
1CENTER
 10
1004.187665166324
 20
-2201.736948652841
 30
0.0
 11
1004.187665166324
 21
-2261.736948652841
 31
0.0
  0
LINE
  5
A355
  8
1CENTER
 10
689.68766516632331
 20
-2176.236948652841
 30
0.0
 11
644.68766516632331
 21
-2176.236948652841
 31
0.0
  0
LINE
  5
A356
  8
1CENTER
 10
667.1876651663232
 20
-2153.736948652841
 30
0.0
 11
667.1876651663232
 21
-2198.7369486528401
 31
0.0
  0
LINE
  5
A358
  8
1CENTER
 10
981.68767316632545
 20
-2176.236948652841
 30
0.0
 11
1026.6876731663251
 21
-2176.236948652841
 31
0.0
  0
LINE
  5
A359
  8
1CENTER
 10
1004.187673166325
 20
-2153.736948652841
 30
0.0
 11
1004.187673166325
 21
-2198.7369486528401
 31
0.0
  0
LINE
  5
A37E
  8
1CENTER
 10
785.68766916632455
 20
-2231.736948652841
 30
0.0
 11
820.68766916632455
 21
-2231.736948652841
 31
0.0
  0
LINE
  5
A37F
  8
1CENTER
 10
850.68766916632467
 20
-2231.736948652841
 30
0.0
 11
885.68766916632467
 21
-2231.736948652841
 31
0.0
  0
POINT
  5
A38F
  8
1HATCH
 10
873.68766916632421
 20
-2231.736948652841
 30
0.0
  0
LINE
  5
A390
  8
1HATCH
 10
873.28766915632434
 20
-2233.4869486528401
 30
0.0
 11
873.28766915632434
 21
-2232.6369486328408
 31
0.0
  0
LINE
  5
A391
  8
1HATCH
 10
874.0876691763242
 20
-2233.4869486528401
 30
0.0
 11
874.0876691763242
 21
-2232.6369486328408
 31
0.0
  0
LINE
  5
A392
  8
1HATCH
 10
872.78766918632437
 20
-2232.136948662841
 30
0.0
 11
871.93766916632421
 21
-2232.136948662841
 31
0.0
  0
LINE
  5
A393
  8
1HATCH
 10
872.78766918632437
 20
-2231.336948642841
 30
0.0
 11
871.93766916632421
 21
-2231.336948642841
 31
0.0
  0
LINE
  5
A394
  8
1HATCH
 10
871.93766916632421
 20
-2232.136948662841
 30
0.0
 11
871.93766916632421
 21
-2231.336948642841
 31
0.0
  0
LINE
  5
A395
  8
1HATCH
 10
874.0876691763242
 20
-2233.4869486528401
 30
0.0
 11
873.28766915632434
 21
-2233.4869486528401
 31
0.0
  0
LINE
  5
A396
  8
1HATCH
 10
874.0876691763242
 20
-2229.9869486528401
 30
0.0
 11
874.0876691763242
 21
-2230.8369486728411
 31
0.0
  0
LINE
  5
A397
  8
1HATCH
 10
873.28766915632434
 20
-2229.9869486528401
 30
0.0
 11
873.28766915632434
 21
-2230.8369486728411
 31
0.0
  0
LINE
  5
A398
  8
1HATCH
 10
874.58766914632406
 20
-2231.336948642841
 30
0.0
 11
875.43766916632421
 21
-2231.336948642841
 31
0.0
  0
LINE
  5
A399
  8
1HATCH
 10
874.58766914632406
 20
-2232.136948662841
 30
0.0
 11
875.43766916632421
 21
-2232.136948662841
 31
0.0
  0
LINE
  5
A39A
  8
1HATCH
 10
875.43766916632421
 20
-2231.336948642841
 30
0.0
 11
875.43766916632421
 21
-2232.136948662841
 31
0.0
  0
LINE
  5
A39B
  8
1HATCH
 10
873.28766915632434
 20
-2229.9869486528401
 30
0.0
 11
874.0876691763242
 21
-2229.9869486528401
 31
0.0
  0
CIRCLE
  5
A39C
  8
1HATCH
 10
873.68766916632421
 20
-2231.736948652841
 30
0.0
 40
2.5
  0
ARC
  5
A39D
  8
1HATCH
 10
874.58766914632406
 20
-2230.8369486728411
 30
0.0
 40
0.5
 50
179.9999899999998
 51
270.0
  0
ARC
  5
A39E
  8
1HATCH
 10
874.58766914632406
 20
-2232.6369486328408
 30
0.0
 40
0.5
 50
90.000003000000945
 51
180.0000100000002
  0
ARC
  5
A39F
  8
1HATCH
 10
872.78766918632437
 20
-2232.6369486328408
 30
0.0
 40
0.5
 50
0.0
 51
90.000003000000945
  0
ARC
  5
A3A0
  8
1HATCH
 10
872.78766918632437
 20
-2230.8369486728411
 30
0.0
 40
0.5
 50
270.0
 51
0.0
  0
POINT
  5
A3A2
  8
1HATCH
 10
797.68766916632421
 20
-2231.736948652841
 30
0.0
  0
LINE
  5
A3A3
  8
1HATCH
 10
798.0876691763242
 20
-2233.4869486528401
 30
0.0
 11
798.0876691763242
 21
-2232.6369486328408
 31
0.0
  0
LINE
  5
A3A4
  8
1HATCH
 10
797.28766915632423
 20
-2233.4869486528401
 30
0.0
 11
797.28766915632423
 21
-2232.6369486328408
 31
0.0
  0
LINE
  5
A3A5
  8
1HATCH
 10
798.58766914632395
 20
-2232.136948662841
 30
0.0
 11
799.43766916632421
 21
-2232.136948662841
 31
0.0
  0
LINE
  5
A3A6
  8
1HATCH
 10
798.58766914632395
 20
-2231.336948642841
 30
0.0
 11
799.43766916632421
 21
-2231.336948642841
 31
0.0
  0
LINE
  5
A3A7
  8
1HATCH
 10
799.43766916632421
 20
-2232.136948662841
 30
0.0
 11
799.43766916632421
 21
-2231.336948642841
 31
0.0
  0
LINE
  5
A3A8
  8
1HATCH
 10
797.28766915632423
 20
-2233.4869486528401
 30
0.0
 11
798.0876691763242
 21
-2233.4869486528401
 31
0.0
  0
LINE
  5
A3A9
  8
1HATCH
 10
797.28766915632423
 20
-2229.9869486528401
 30
0.0
 11
797.28766915632423
 21
-2230.8369486728411
 31
0.0
  0
LINE
  5
A3AA
  8
1HATCH
 10
798.0876691763242
 20
-2229.9869486528401
 30
0.0
 11
798.0876691763242
 21
-2230.8369486728411
 31
0.0
  0
LINE
  5
A3AB
  8
1HATCH
 10
796.78766918632425
 20
-2231.336948642841
 30
0.0
 11
795.93766916632421
 21
-2231.336948642841
 31
0.0
  0
LINE
  5
A3AC
  8
1HATCH
 10
796.78766918632425
 20
-2232.136948662841
 30
0.0
 11
795.93766916632421
 21
-2232.136948662841
 31
0.0
  0
LINE
  5
A3AD
  8
1HATCH
 10
795.93766916632421
 20
-2231.336948642841
 30
0.0
 11
795.93766916632421
 21
-2232.136948662841
 31
0.0
  0
LINE
  5
A3AE
  8
1HATCH
 10
798.0876691763242
 20
-2229.9869486528401
 30
0.0
 11
797.28766915632423
 21
-2229.9869486528401
 31
0.0
  0
CIRCLE
  5
A3AF
  8
1HATCH
 10
797.68766916632421
 20
-2231.736948652841
 30
0.0
 40
2.5
  0
ARC
  5
A3B0
  8
1HATCH
 10
796.78766918632425
 20
-2230.8369486728411
 30
0.0
 40
0.5
 50
270.0
 51
0.0000100000001992
  0
ARC
  5
A3B1
  8
1HATCH
 10
796.78766918632425
 20
-2232.6369486328408
 30
0.0
 40
0.5
 50
359.9999899999998
 51
89.999996999999055
  0
ARC
  5
A3B2
  8
1HATCH
 10
798.58766914632395
 20
-2232.6369486328408
 30
0.0
 40
0.5
 50
89.999996999999055
 51
180.0
  0
ARC
  5
A3B3
  8
1HATCH
 10
798.58766914632395
 20
-2230.8369486728411
 30
0.0
 40
0.5
 50
180.0
 51
270.0
  0
LINE
  5
D939
  8
01
 10
953.18854934838475
 20
-1978.2369486538689
 30
0.0
 11
1059.1877815060691
 21
-1978.2369486538689
 31
0.0
  0
LINE
  5
D93A
  8
01
 10
953.18854934838475
 20
-1938.2369486538689
 30
0.0
 11
1059.1877815060691
 21
-1938.2369486538689
 31
0.0
  0
LINE
  5
D94D
  8
1CENTER
 10
1004.18778150607
 20
-1976.1086632714371
 30
0.0
 11
1004.18778150607
 21
-1998.7369486538689
 31
0.0
  0
LINE
  5
D94E
  8
1CENTER
 10
1004.18778150607
 20
-1940.3652340363001
 30
0.0
 11
1004.18778150607
 21
-1917.7369486538689
 31
0.0
  0
LINE
  5
EB7D
  8
01
 10
897.18766916632433
 20
-2202.736948652841
 30
0.0
 11
904.18766916632444
 21
-2202.736948652841
 31
0.0
  0
LINE
  5
EB7E
  8
01
 10
897.18766916632433
 20
-2260.736948652841
 30
0.0
 11
904.18766916632444
 21
-2260.736948652841
 31
0.0
  0
LINE
  5
EB7F
  8
01
 10
906.88766916632449
 20
-2253.736948652841
 30
0.0
 11
904.68766916632455
 21
-2253.736948652841
 31
0.0
  0
LINE
  5
EB80
  8
01
 10
896.68766916632444
 20
-2253.736948652841
 30
0.0
 11
892.48766916632428
 21
-2253.736948652841
 31
0.0
  0
LINE
  5
EB81
  8
01
 10
892.48766916632428
 20
-2209.736948652841
 30
0.0
 11
896.68766916632444
 21
-2209.736948652841
 31
0.0
  0
LINE
  5
EB82
  8
01
 10
904.68766916632455
 20
-2209.736948652841
 30
0.0
 11
906.88766916632449
 21
-2209.736948652841
 31
0.0
  0
LINE
  5
EB83
  8
01
 10
907.68766916632444
 20
-2210.5369486528411
 30
0.0
 11
907.68766916632444
 21
-2252.9369486528399
 31
0.0
  0
LINE
  5
EB84
  8
01
 10
904.68766916632455
 20
-2203.236948652841
 30
0.0
 11
904.68766916632455
 21
-2260.236948652841
 31
0.0
  0
LINE
  5
EB85
  8
01
 10
896.68766916632444
 20
-2203.236948652841
 30
0.0
 11
896.68766916632444
 21
-2260.236948652841
 31
0.0
  0
LINE
  5
EB86
  8
01
 10
891.68766916632444
 20
-2210.5369486528411
 30
0.0
 11
891.68766916632444
 21
-2252.9369486528399
 31
0.0
  0
LINE
  5
EB87
  8
01
 10
864.18766916632433
 20
-2204.736948652841
 30
0.0
 11
864.18766916632433
 21
-2258.736948652841
 31
0.0
  0
LINE
  5
EB88
  8
01
 10
855.68766916632444
 20
-2204.236948652841
 30
0.0
 11
855.68766916632444
 21
-2259.236948652841
 31
0.0
  0
ARC
  5
EB89
  8
01
 10
897.18766916632433
 20
-2203.236948652841
 30
0.0
 40
0.5
 50
90.0
 51
180.0
  0
ARC
  5
EB8A
  8
01
 10
904.18766916632444
 20
-2203.236948652841
 30
0.0
 40
0.5
 50
0.0000000000130276
 51
90.0
  0
ARC
  5
EB8B
  8
01
 10
897.18766916632467
 20
-2260.236948652841
 30
0.0
 40
0.5
 50
180.0
 51
269.99999999998039
  0
ARC
  5
EB8C
  8
01
 10
904.18766916632444
 20
-2260.236948652841
 30
0.0
 40
0.5
 50
270.0
 51
0.0000000000130276
  0
ARC
  5
EB8D
  8
01
 10
906.88766916632449
 20
-2252.9369486528408
 30
0.0
 40
0.8
 50
269.99999999999591
 51
0.0000000000081422
  0
ARC
  5
EB8E
  8
01
 10
892.48766916632451
 20
-2252.9369486528408
 30
0.0
 40
0.8
 50
179.99999999999179
 51
269.99999999999591
  0
ARC
  5
EB8F
  8
01
 10
892.48766916632428
 20
-2210.5369486528411
 30
0.0
 40
0.8
 50
90.0
 51
179.99999999999179
  0
ARC
  5
EB90
  8
01
 10
906.88766916632449
 20
-2210.5369486528411
 30
0.0
 40
0.8
 50
0.0
 51
90.000000000008129
  0
LINE
  5
EB91
  8
01
 10
889.68766916632444
 20
-2243.736948652841
 30
0.0
 11
864.18766916632433
 21
-2243.736948652841
 31
0.0
  0
ARC
  5
EB92
  8
01
 10
889.68766916632444
 20
-2245.736948652841
 30
0.0
 40
2.0
 50
0.0
 51
89.999999999999758
  0
LINE
  5
EB93
  8
01
 10
889.68766916632444
 20
-2219.7369486528401
 30
0.0
 11
864.18766916632433
 21
-2219.7369486528401
 31
0.0
  0
ARC
  5
EB94
  8
01
 10
889.68766916632444
 20
-2217.736948652841
 30
0.0
 40
2.0
 50
269.99999999999977
 51
0.0
  0
LINE
  5
EB95
  8
01
 10
863.68766916632444
 20
-2259.236948652841
 30
0.0
 11
855.68766916632444
 21
-2259.236948652841
 31
0.0
  0
ARC
  5
EB96
  8
01
 10
863.68766916632444
 20
-2258.736948652841
 30
0.0
 40
0.5
 50
270.0
 51
0.0000000000000509
  0
LINE
  5
EB97
  8
01
 10
863.68766916632444
 20
-2204.236948652841
 30
0.0
 11
855.68766916632444
 21
-2204.236948652841
 31
0.0
  0
ARC
  5
EB98
  8
01
 10
863.68766916632444
 20
-2204.736948652841
 30
0.0
 40
0.5
 50
0.0000000000000509
 51
90.0
  0
LINE
  5
EBE1
  8
01
 10
1063.1876651663249
 20
-2253.736948652841
 30
0.0
 11
987.18766516632547
 21
-2253.736948652841
 31
0.0
  0
ARC
  5
EBE2
  8
01
 10
987.18766516632547
 20
-2251.7369486528401
 30
0.0
 40
2.0
 50
180.0
 51
270.0
  0
LINE
  5
EBE3
  8
01
 10
1063.1876651663249
 20
-2209.736948652841
 30
0.0
 11
987.18766516632547
 21
-2209.736948652841
 31
0.0
  0
ARC
  5
EBE4
  8
01
 10
1063.1876651663249
 20
-2211.736948652841
 30
0.0
 40
2.0
 50
0.0
 51
90.0
  0
LINE
  5
EBE5
  8
01
 10
985.18766516632547
 20
-2251.7369486528401
 30
0.0
 11
985.18766516632547
 21
-2211.736948652841
 31
0.0
  0
ARC
  5
EBE6
  8
01
 10
987.18766516632547
 20
-2211.736948652841
 30
0.0
 40
2.0
 50
90.0
 51
180.0
  0
LINE
  5
EBE7
  8
01
 10
1065.1876651663249
 20
-2211.736948652841
 30
0.0
 11
1065.1876651663249
 21
-2251.7369486528401
 31
0.0
  0
ARC
  5
EBE8
  8
01
 10
1063.1876651663249
 20
-2251.7369486528401
 30
0.0
 40
2.0
 50
270.0
 51
0.0
  0
LINE
  5
EBE9
  8
01
 10
978.18766516632456
 20
-2204.736948652841
 30
0.0
 11
978.18766516632456
 21
-2258.736948652841
 31
0.0
  0
ARC
  5
EBEA
  8
01
 10
980.18766516632468
 20
-2204.736948652841
 30
0.0
 40
2.0
 50
90.0
 51
180.0
  0
LINE
  5
EBEB
  8
01
 10
980.18766516632468
 20
-2260.736948652841
 30
0.0
 11
1070.187665166324
 21
-2260.736948652841
 31
0.0
  0
ARC
  5
EBEC
  8
01
 10
980.18766516632468
 20
-2258.736948652841
 30
0.0
 40
2.0
 50
180.0
 51
270.0
  0
LINE
  5
EBED
  8
01
 10
1072.1876651663249
 20
-2258.736948652841
 30
0.0
 11
1072.1876651663249
 21
-2204.736948652841
 31
0.0
  0
ARC
  5
EBEE
  8
01
 10
1070.187665166324
 20
-2258.736948652841
 30
0.0
 40
2.0
 50
270.0
 51
0.0
  0
LINE
  5
EBEF
  8
01
 10
1070.187665166324
 20
-2202.736948652841
 30
0.0
 11
980.18766516632468
 21
-2202.736948652841
 31
0.0
  0
ARC
  5
EBF0
  8
01
 10
1070.187665166324
 20
-2204.736948652841
 30
0.0
 40
2.0
 50
0.0
 51
90.0
  0
ARC
  5
EBF6
  8
01
 10
977.18766516632456
 20
-2258.736948652841
 30
0.0
 40
0.5
 50
180.0
 51
270.0
  0
LINE
  5
EBF7
  8
01
 10
976.68766516632468
 20
-2258.736948652841
 30
0.0
 11
976.68766516632468
 21
-2204.736948652841
 31
0.0
  0
ARC
  5
EBF8
  8
01
 10
977.18766516632456
 20
-2204.736948652841
 30
0.0
 40
0.5
 50
90.0
 51
180.0
  0
LINE
  5
EBF9
  8
01
 10
977.18766516632456
 20
-2204.236948652841
 30
0.0
 11
978.25117349322079
 21
-2204.236948652841
 31
0.0
  0
LINE
  5
EBFA
  8
01
 10
977.18766516632456
 20
-2259.236948652841
 30
0.0
 11
978.25117349322079
 21
-2259.236948652841
 31
0.0
  0
LINE
  5
ECD6
  8
01
 10
978.18778150606875
 20
-2019.7369486538701
 30
0.0
 11
978.18778150606875
 21
-2026.7369486538701
 31
0.0
  0
LINE
  5
ECD7
  8
01
 10
1072.1877815060691
 20
-2026.7369486538701
 30
0.0
 11
1072.1877815060691
 21
-2019.7369486538701
 31
0.0
  0
ARC
  5
ECD8
  8
01
 10
1071.6877815060691
 20
-2026.7369486538701
 30
0.0
 40
0.5
 50
270.0
 51
0.0
  0
ARC
  5
ECD9
  8
01
 10
1071.6877815060691
 20
-2019.7369486538701
 30
0.0
 40
0.5
 50
0.0
 51
90.0
  0
LINE
  5
ECDA
  8
01
 10
978.68778150606886
 20
-2019.2369486538689
 30
0.0
 11
1071.6877815060691
 21
-2019.2369486538689
 31
0.0
  0
ARC
  5
ECDB
  8
01
 10
978.68778150606886
 20
-2019.7369486538701
 30
0.0
 40
0.5
 50
90.0
 51
180.0
  0
LINE
  5
ECDC
  8
01
 10
978.68778150606886
 20
-2027.2369486538701
 30
0.0
 11
1071.6877815060691
 21
-2027.2369486538701
 31
0.0
  0
ARC
  5
ECDD
  8
01
 10
978.68778150606886
 20
-2026.7369486538701
 30
0.0
 40
0.5
 50
180.0
 51
270.0
  0
LINE
  5
ECDE
  8
01
 10
992.18778150606886
 20
-1988.2369486538701
 30
0.0
 11
992.18778150606977
 21
-2012.2369486538701
 31
0.0
  0
ARC
  5
ECDF
  8
01
 10
990.18778150606977
 20
-2012.2369486538701
 30
0.0
 40
2.0
 50
270.0
 51
0.0
  0
LINE
  5
ECE0
  8
01
 10
1016.18778150607
 20
-1988.2369486538671
 30
0.0
 11
1016.187781506074
 21
-2012.2369486538701
 31
0.0
  0
ARC
  5
ECE1
  8
01
 10
1018.187781506074
 20
-2012.2369486538701
 30
0.0
 40
2.0
 50
180.00000000002601
 51
270.0
  0
ARC
  5
ECE2
  8
01
 10
1004.187781506069
 20
-1979.2369486538689
 30
0.0
 40
15.0
 50
210.00000000000111
 51
216.8698976458366
  0
ARC
  5
ECE3
  8
01
 10
1004.187781506069
 20
-1979.2369486538689
 30
0.0
 40
15.0
 50
323.13010235416351
 51
329.9999999999996
  0
LINE
  5
ECE4
  8
01
 10
1031.68778150607
 20
-1978.2369486538689
 30
0.0
 11
1031.6877815060691
 21
-1986.2369486538689
 31
0.0
  0
ARC
  5
ECE5
  8
01
 10
1031.1877815060691
 20
-1986.2369486538689
 30
0.0
 40
0.5
 50
270.0000000000004
 51
359.99999999999881
  0
LINE
  5
ECE6
  8
01
 10
976.68778150606965
 20
-1978.2369486538689
 30
0.0
 11
976.68778150606954
 21
-1986.2369486538701
 31
0.0
  0
LINE
  5
ECE7
  8
01
 10
990.18778150606977
 20
-2014.2369486538701
 30
0.0
 11
985.98778150606984
 21
-2014.2369486538701
 31
0.0
  0
ARC
  5
ECE8
  8
01
 10
985.98778150606984
 20
-2015.03694865387
 30
0.0
 40
0.8
 50
90.0
 51
180.0
  0
LINE
  5
ECE9
  8
01
 10
985.18778150606977
 20
-2015.03694865387
 30
0.0
 11
985.18778150606977
 21
-2019.2369486538689
 31
0.0
  0
LINE
  5
ECEA
  8
01
 10
985.18778150606977
 20
-2019.2369486538689
 30
0.0
 11
1065.18778150607
 21
-2019.2369486538689
 31
0.0
  0
LINE
  5
ECEB
  8
01
 10
1065.18778150607
 20
-2019.2369486538689
 30
0.0
 11
1065.18778150607
 21
-2015.03694865387
 31
0.0
  0
ARC
  5
ECEC
  8
01
 10
1064.3877815060689
 20
-2015.03694865387
 30
0.0
 40
0.8
 50
0.0
 51
90.0
  0
LINE
  5
ECED
  8
01
 10
1064.3877815060689
 20
-2014.2369486538701
 30
0.0
 11
1062.137271248853
 21
-2014.2369486538701
 31
0.0
  0
LINE
  5
ECEE
  8
01
 10
1057.238291763286
 20
-2014.2369486538701
 30
0.0
 11
1018.187781506074
 21
-2014.2369486538701
 31
0.0
  0
ARC
  5
ECEF
  8
01
 10
1059.6877815060691
 20
-2014.7369486538701
 30
0.0
 40
2.5
 50
11.53695903283155
 51
168.46304096716841
  0
LINE
  5
ECF0
  8
01
 10
985.98778150606904
 20
-2030.2369486538701
 30
0.0
 11
1064.387781506068
 21
-2030.2369486538701
 31
0.0
  0
ARC
  5
ECF1
  8
01
 10
1064.387781506068
 20
-2029.4369486538701
 30
0.0
 40
0.8
 50
270.0
 51
0.0
  0
LINE
  5
ECF2
  8
01
 10
985.18778150606886
 20
-2029.4369486538701
 30
0.0
 11
985.18778150606886
 21
-2027.2369486538701
 31
0.0
  0
ARC
  5
ECF3
  8
01
 10
985.98778150606904
 20
-2029.4369486538701
 30
0.0
 40
0.8
 50
180.0
 51
270.0
  0
LINE
  5
ECF4
  8
01
 10
1065.1877815060691
 20
-2029.4369486538701
 30
0.0
 11
1065.1877815060691
 21
-2027.2369486538701
 31
0.0
  0
LINE
  5
ECF5
  8
01
 10
985.18778150606886
 20
-2027.2369486538701
 30
0.0
 11
1065.1877815060691
 21
-2027.2369486538701
 31
0.0
  0
LINE
  5
ECF6
  8
01
 10
976.68778150606965
 20
-1978.2369486538689
 30
0.0
 11
1031.68778150607
 21
-1978.2369486538689
 31
0.0
  0
LINE
  5
ECF7
  8
01
 10
977.18778150606965
 20
-1986.7369486538689
 30
0.0
 11
1031.1877815060691
 21
-1986.7369486538689
 31
0.0
  0
ARC
  5
ECF8
  8
01
 10
977.18778150606965
 20
-1986.2369486538701
 30
0.0
 40
0.5
 50
179.99999999999861
 51
270.00000000000023
  0
LINE
  5
ECF9
  8
1PHANTOM
 10
970.33552040887059
 20
-2013.4462225223269
 30
0.0
 11
968.88013857314616
 21
-2020.293255727463
 31
0.0
  0
LINE
  5
ECFA
  8
1PHANTOM
 10
1060.826013042124
 20
-2039.836954664333
 30
0.0
 11
1062.281394877848
 21
-2032.989921459196
 31
0.0
  0
ARC
  5
ECFB
  8
1PHANTOM
 10
1060.3369392417569
 20
-2039.732998818924
 30
0.0
 40
0.5
 50
258.0
 51
348.0
  0
ARC
  5
ECFC
  8
1PHANTOM
 10
1061.7923210774809
 20
-2032.8859656137879
 30
0.0
 40
0.5
 50
348.0
 51
77.999999999999972
  0
LINE
  5
ECFD
  8
1PHANTOM
 10
970.92855005464639
 20
-2013.0611045673691
 30
0.0
 11
1061.8962769228899
 21
-2032.396891813421
 31
0.0
  0
ARC
  5
ECFE
  8
1PHANTOM
 10
970.82459420923749
 20
-2013.550178367736
 30
0.0
 40
0.5
 50
77.999999999999972
 51
167.99999999999989
  0
LINE
  5
ECFF
  8
1PHANTOM
 10
969.26525652810449
 20
-2020.8862853732401
 30
0.0
 11
1060.2329833963479
 21
-2040.2220726192911
 31
0.0
  0
ARC
  5
ED00
  8
1PHANTOM
 10
969.36921237351339
 20
-2020.397211572872
 30
0.0
 40
0.5
 50
167.99999999999989
 51
258.0
  0
LINE
  5
ED01
  8
1PHANTOM
 10
990.5788050799033
 20
-1985.5453367706609
 30
0.0
 11
985.58892450027804
 21
-2009.0208791882719
 31
0.0
  0
ARC
  5
ED02
  8
1PHANTOM
 10
983.63262929881034
 20
-2008.6050558066361
 30
0.0
 40
2.0
 50
258.0
 51
348.0
  0
LINE
  5
ED03
  8
1PHANTOM
 10
1014.054347497517
 20
-1990.535217350284
 30
0.0
 11
1009.064466917894
 21
-2014.0107597679
 31
0.0
  0
ARC
  5
ED04
  8
1PHANTOM
 10
1011.0207621193611
 20
-2014.426583149535
 30
0.0
 40
2.0
 50
168.00000000002601
 51
258.0
  0
ARC
  5
ED05
  8
1PHANTOM
 10
1004.187781506069
 20
-1979.2369486538689
 30
0.0
 40
15.0
 50
198.00000000000199
 51
204.86989764583649
  0
ARC
  5
ED06
  8
1PHANTOM
 10
1004.187781506069
 20
-1979.2369486538689
 30
0.0
 40
15.0
 50
311.1301023541634
 51
317.9999999999979
  0
LINE
  5
ED07
  8
1PHANTOM
 10
983.21680591717495
 20
-2010.5613510081041
 30
0.0
 11
979.10858599409312
 21
-2009.6881219066699
 31
0.0
  0
ARC
  5
ED08
  8
1PHANTOM
 10
978.94225664143869
 20
-2010.4706399872571
 30
0.0
 40
0.8
 50
77.999999999999972
 51
167.99999999999989
  0
LINE
  5
ED09
  8
1PHANTOM
 10
978.15973856085168
 20
-2010.3043106346031
 30
0.0
 11
977.28650945941695
 21
-2014.412530557684
 31
0.0
  0
LINE
  5
ED0A
  8
1PHANTOM
 10
977.28650945941695
 20
-2014.412530557684
 30
0.0
 11
1055.5383175181209
 21
-2031.0454658231049
 31
0.0
  0
LINE
  5
ED0B
  8
1PHANTOM
 10
1055.5383175181209
 20
-2031.0454658231049
 30
0.0
 11
1056.411546619556
 21
-2026.937245900024
 31
0.0
  0
ARC
  5
ED0C
  8
1PHANTOM
 10
1055.6290285389689
 20
-2026.7709165473691
 30
0.0
 40
0.8
 50
348.0
 51
77.999999999999972
  0
LINE
  5
ED0D
  8
1PHANTOM
 10
1055.7953578916231
 20
-2025.988398466782
 30
0.0
 11
1053.5940266831001
 21
-2025.520491074001
 31
0.0
  0
LINE
  5
ED0E
  8
1PHANTOM
 10
1048.8021016532491
 20
-2024.5019359658761
 30
0.0
 11
1010.604938737726
 21
-2016.3828783510021
 31
0.0
  0
ARC
  5
ED0F
  8
1PHANTOM
 10
1051.0941083227649
 20
-2025.500287320305
 30
0.0
 40
2.5
 50
359.53695903283148
 51
156.46304096716841
  0
LINE
  5
ED10
  8
1PHANTOM
 10
975.78199894100817
 20
-2025.3384835184099
 30
0.0
 11
1052.4687708385379
 21
-2041.6387600785231
 31
0.0
  0
ARC
  5
ED11
  8
1PHANTOM
 10
1052.6351001911919
 20
-2040.856241997936
 30
0.0
 40
0.8
 50
258.0
 51
348.0
  0
LINE
  5
ED12
  8
1PHANTOM
 10
975.16581021307502
 20
-2024.3896360851691
 30
0.0
 11
975.62321593287425
 21
-2022.237711363555
 31
0.0
  0
ARC
  5
ED13
  8
1PHANTOM
 10
975.94832829366237
 20
-2024.5559654378239
 30
0.0
 40
0.8
 50
167.99999999999989
 51
258.0
  0
LINE
  5
ED14
  8
1PHANTOM
 10
1053.4176182717799
 20
-2041.0225713505899
 30
0.0
 11
1053.8750239915789
 21
-2038.870646628975
 31
0.0
  0
LINE
  5
ED15
  8
1PHANTOM
 10
975.62321593287425
 20
-2022.237711363555
 30
0.0
 11
1053.8750239915789
 21
-2038.8706466289759
 31
0.0
  0
LINE
  5
ED16
  8
1PHANTOM
 10
987.17636736510906
 20
-2024.257630444851
 30
0.0
 11
988.63174920083316
 21
-2031.1046636499871
 31
0.0
  0
LINE
  5
ED17
  8
1PHANTOM
 10
1080.5776236698109
 20
-2011.560964713118
 30
0.0
 11
1079.1222418340869
 21
-2004.7139315079819
 31
0.0
  0
ARC
  5
ED18
  8
1PHANTOM
 10
1080.088549869444
 20
-2011.664920558527
 30
0.0
 40
0.5
 50
282.0
 51
12.0
  0
ARC
  5
ED19
  8
1PHANTOM
 10
1078.63316803372
 20
-2004.81788735339
 30
0.0
 40
0.5
 50
12.0
 51
102.0
  0
LINE
  5
ED1A
  8
1PHANTOM
 10
987.56148532006705
 20
-2023.6646007990751
 30
0.0
 11
1078.529212188311
 21
-2004.3288135530231
 31
0.0
  0
ARC
  5
ED1B
  8
1PHANTOM
 10
987.66544116547618
 20
-2024.153674599442
 30
0.0
 40
0.5
 50
102.0
 51
192.0
  0
LINE
  5
ED1C
  8
1PHANTOM
 10
989.2247788466093
 20
-2031.4897816049461
 30
0.0
 11
1080.192505714853
 21
-2012.1539943588939
 31
0.0
  0
ARC
  5
ED1D
  8
1PHANTOM
 10
989.12082300120039
 20
-2031.000707804579
 30
0.0
 40
0.5
 50
192.0
 51
282.0
  0
LINE
  5
ED1E
  8
1PHANTOM
 10
994.32121551462319
 20
-1990.5352173502879
 30
0.0
 11
999.31109609425016
 21
-2014.0107597678989
 31
0.0
  0
ARC
  5
ED1F
  8
1PHANTOM
 10
997.35480089278258
 20
-2014.4265831495341
 30
0.0
 40
2.0
 50
282.0
 51
12.0
  0
LINE
  5
ED20
  8
1PHANTOM
 10
1017.796757932235
 20
-1985.545336770658
 30
0.0
 11
1022.786638511866
 21
-2009.020879188271
 31
0.0
  0
ARC
  5
ED21
  8
1PHANTOM
 10
1024.7429337133331
 20
-2008.6050558066361
 30
0.0
 40
2.0
 50
192.00000000002601
 51
282.0
  0
ARC
  5
ED22
  8
1PHANTOM
 10
1004.187781506069
 20
-1979.2369486538689
 30
0.0
 40
15.0
 50
222.0000000000021
 51
228.86989764583649
  0
ARC
  5
ED23
  8
1PHANTOM
 10
1004.187781506069
 20
-1979.2369486538689
 30
0.0
 40
15.0
 50
335.13010235416351
 51
341.9999999999979
  0
LINE
  5
ED24
  8
1PHANTOM
 10
997.77062427441808
 20
-2016.382878351001
 30
0.0
 11
993.66240435133625
 21
-2017.256107452436
 31
0.0
  0
ARC
  5
ED25
  8
1PHANTOM
 10
993.82873370399057
 20
-2018.0386255330229
 30
0.0
 40
0.8
 50
102.0
 51
192.0
  0
LINE
  5
ED26
  8
1PHANTOM
 10
993.04621562340344
 20
-2018.204954885678
 30
0.0
 11
993.91944472483794
 21
-2022.313174808759
 31
0.0
  0
LINE
  5
ED27
  8
1PHANTOM
 10
993.91944472483794
 20
-2022.313174808759
 30
0.0
 11
1072.1712527835421
 21
-2005.680239543339
 31
0.0
  0
LINE
  5
ED28
  8
1PHANTOM
 10
1072.1712527835421
 20
-2005.680239543339
 30
0.0
 11
1071.298023682107
 21
-2001.5720196202569
 31
0.0
  0
ARC
  5
ED29
  8
1PHANTOM
 10
1070.5155056015201
 20
-2001.7383489729109
 30
0.0
 40
0.8
 50
12.0
 51
102.0
  0
LINE
  5
ED2A
  8
1PHANTOM
 10
1070.3491762488659
 20
-2000.955830892324
 30
0.0
 11
1068.1478450403431
 21
-2001.4237382851049
 31
0.0
  0
LINE
  5
ED2B
  8
1PHANTOM
 10
1063.3559200104919
 20
-2002.4422933932301
 30
0.0
 11
1025.1587570949689
 21
-2010.561351008103
 31
0.0
  0
ARC
  5
ED2C
  8
1PHANTOM
 10
1065.8558383708259
 20
-2002.4220896395341
 30
0.0
 40
2.5
 50
23.53695903283155
 51
180.46304096716841
  0
LINE
  5
ED2D
  8
1PHANTOM
 10
996.98899140441961
 20
-2032.9064690641769
 30
0.0
 11
1073.675763301949
 21
-2016.6061925040649
 31
0.0
  0
ARC
  5
ED2E
  8
1PHANTOM
 10
1073.509433949295
 20
-2015.823674423478
 30
0.0
 40
0.8
 50
282.0
 51
12.0
  0
LINE
  5
ED2F
  8
1PHANTOM
 10
996.04014397117817
 20
-2032.2902803362449
 30
0.0
 11
995.58273825137906
 21
-2030.13835561463
 31
0.0
  0
ARC
  5
ED30
  8
1PHANTOM
 10
996.82266205176541
 20
-2032.12395098359
 30
0.0
 40
0.8
 50
192.0
 51
282.0
  0
LINE
  5
ED31
  8
1PHANTOM
 10
1074.2919520298831
 20
-2015.657345070824
 30
0.0
 11
1073.8345463100829
 21
-2013.5054203492091
 31
0.0
  0
LINE
  5
ED32
  8
1PHANTOM
 10
995.58273825137906
 20
-2030.13835561463
 30
0.0
 11
1073.8345463100841
 21
-2013.5054203492091
 31
0.0
  0
LINE
  5
EDAB
  8
01
 10
774.18766916632387
 20
-2202.736948652841
 30
0.0
 11
767.18766916632387
 21
-2202.736948652841
 31
0.0
  0
LINE
  5
EDAC
  8
01
 10
774.18766916632387
 20
-2260.736948652841
 30
0.0
 11
767.18766916632387
 21
-2260.736948652841
 31
0.0
  0
LINE
  5
EDAD
  8
01
 10
764.48766916632394
 20
-2253.736948652841
 30
0.0
 11
766.68766916632387
 21
-2253.736948652841
 31
0.0
  0
LINE
  5
EDAE
  8
01
 10
774.68766916632387
 20
-2253.736948652841
 30
0.0
 11
778.88766916632403
 21
-2253.736948652841
 31
0.0
  0
LINE
  5
EDAF
  8
01
 10
778.88766916632403
 20
-2209.736948652841
 30
0.0
 11
774.68766916632387
 21
-2209.736948652841
 31
0.0
  0
LINE
  5
EDB0
  8
01
 10
766.68766916632387
 20
-2209.736948652841
 30
0.0
 11
764.48766916632394
 21
-2209.736948652841
 31
0.0
  0
LINE
  5
EDB1
  8
01
 10
763.68766916632387
 20
-2210.5369486528411
 30
0.0
 11
763.68766916632387
 21
-2252.9369486528399
 31
0.0
  0
LINE
  5
EDB2
  8
01
 10
766.68766916632387
 20
-2203.236948652841
 30
0.0
 11
766.68766916632387
 21
-2260.236948652841
 31
0.0
  0
LINE
  5
EDB3
  8
01
 10
774.68766916632387
 20
-2203.236948652841
 30
0.0
 11
774.68766916632387
 21
-2260.236948652841
 31
0.0
  0
LINE
  5
EDB4
  8
01
 10
779.68766916632387
 20
-2210.5369486528411
 30
0.0
 11
779.68766916632387
 21
-2252.9369486528399
 31
0.0
  0
LINE
  5
EDB5
  8
01
 10
807.18766916632399
 20
-2204.736948652841
 30
0.0
 11
807.18766916632399
 21
-2258.736948652841
 31
0.0
  0
LINE
  5
EDB6
  8
01
 10
815.68766916632387
 20
-2204.236948652841
 30
0.0
 11
815.68766916632387
 21
-2259.236948652841
 31
0.0
  0
ARC
  5
EDB7
  8
01
 10
774.18766916632387
 20
-2203.236948652841
 30
0.0
 40
0.5
 50
0.000000000000007
 51
90.0
  0
ARC
  5
EDB8
  8
01
 10
767.18766916632387
 20
-2203.236948652841
 30
0.0
 40
0.5
 50
90.0
 51
179.99999999998701
  0
ARC
  5
EDB9
  8
01
 10
774.18766916632364
 20
-2260.236948652841
 30
0.0
 40
0.5
 50
270.00000000001961
 51
0.000000000000007
  0
ARC
  5
EDBA
  8
01
 10
767.18766916632387
 20
-2260.236948652841
 30
0.0
 40
0.5
 50
179.99999999998701
 51
270.0
  0
ARC
  5
EDBB
  8
01
 10
764.48766916632394
 20
-2252.9369486528408
 30
0.0
 40
0.8
 50
179.99999999999179
 51
270.00000000000409
  0
ARC
  5
EDBC
  8
01
 10
778.88766916632392
 20
-2252.9369486528408
 30
0.0
 40
0.8
 50
270.00000000000409
 51
0.0000000000081492
  0
ARC
  5
EDBD
  8
01
 10
778.88766916632403
 20
-2210.5369486528411
 30
0.0
 40
0.8
 50
0.0000000000081492
 51
90.0
  0
ARC
  5
EDBE
  8
01
 10
764.48766916632394
 20
-2210.5369486528411
 30
0.0
 40
0.8
 50
89.999999999991886
 51
180.0
  0
LINE
  5
EDBF
  8
01
 10
781.68766916632399
 20
-2243.736948652841
 30
0.0
 11
807.18766916632399
 21
-2243.736948652841
 31
0.0
  0
ARC
  5
EDC0
  8
01
 10
781.68766916632399
 20
-2245.736948652841
 30
0.0
 40
2.0
 50
90.000000000000213
 51
180.0
  0
LINE
  5
EDC1
  8
01
 10
781.68766916632399
 20
-2219.7369486528401
 30
0.0
 11
807.18766916632399
 21
-2219.7369486528401
 31
0.0
  0
ARC
  5
EDC2
  8
01
 10
781.68766916632399
 20
-2217.736948652841
 30
0.0
 40
2.0
 50
180.0
 51
270.00000000000023
  0
LINE
  5
EDC3
  8
01
 10
807.68766916632399
 20
-2259.236948652841
 30
0.0
 11
815.68766916632387
 21
-2259.236948652841
 31
0.0
  0
ARC
  5
EDC4
  8
01
 10
807.68766916632399
 20
-2258.736948652841
 30
0.0
 40
0.5
 50
179.99999999999989
 51
270.0
  0
LINE
  5
EDC5
  8
01
 10
807.68766916632399
 20
-2204.236948652841
 30
0.0
 11
815.68766916632387
 21
-2204.236948652841
 31
0.0
  0
ARC
  5
EDC6
  8
01
 10
807.68766916632399
 20
-2204.736948652841
 30
0.0
 40
0.5
 50
90.0
 51
179.99999999999989
  0
LINE
  5
EDC7
  8
01
 10
608.18767316632284
 20
-2253.736948652841
 30
0.0
 11
684.18767316632284
 21
-2253.736948652841
 31
0.0
  0
ARC
  5
EDC8
  8
01
 10
684.18767316632284
 20
-2251.7369486528401
 30
0.0
 40
2.0
 50
270.0
 51
0.000000000000007
  0
LINE
  5
EDC9
  8
01
 10
608.18767316632284
 20
-2209.736948652841
 30
0.0
 11
684.18767316632284
 21
-2209.736948652841
 31
0.0
  0
ARC
  5
EDCA
  8
01
 10
608.18767316632284
 20
-2211.736948652841
 30
0.0
 40
2.0
 50
90.0
 51
180.0
  0
LINE
  5
EDCB
  8
01
 10
686.18767316632284
 20
-2251.7369486528401
 30
0.0
 11
686.18767316632284
 21
-2211.736948652841
 31
0.0
  0
ARC
  5
EDCC
  8
01
 10
684.18767316632284
 20
-2211.736948652841
 30
0.0
 40
2.0
 50
0.000000000000007
 51
90.0
  0
LINE
  5
EDCD
  8
01
 10
606.18767316632284
 20
-2211.736948652841
 30
0.0
 11
606.18767316632284
 21
-2251.7369486528401
 31
0.0
  0
ARC
  5
EDCE
  8
01
 10
608.18767316632284
 20
-2251.7369486528401
 30
0.0
 40
2.0
 50
180.0
 51
270.0
  0
LINE
  5
EDCF
  8
01
 10
693.18767316632375
 20
-2204.736948652841
 30
0.0
 11
693.18767316632375
 21
-2258.736948652841
 31
0.0
  0
ARC
  5
EDD0
  8
01
 10
691.18767316632375
 20
-2204.736948652841
 30
0.0
 40
2.0
 50
0.000000000000007
 51
90.0
  0
LINE
  5
EDD1
  8
01
 10
691.18767316632375
 20
-2260.736948652841
 30
0.0
 11
601.18767316632375
 21
-2260.736948652841
 31
0.0
  0
ARC
  5
EDD2
  8
01
 10
691.18767316632375
 20
-2258.736948652841
 30
0.0
 40
2.0
 50
270.0
 51
0.000000000000007
  0
LINE
  5
EDD3
  8
01
 10
599.18767316632375
 20
-2258.736948652841
 30
0.0
 11
599.18767316632375
 21
-2204.736948652841
 31
0.0
  0
ARC
  5
EDD4
  8
01
 10
601.18767316632375
 20
-2258.736948652841
 30
0.0
 40
2.0
 50
180.0
 51
270.0
  0
LINE
  5
EDD5
  8
01
 10
601.18767316632375
 20
-2202.736948652841
 30
0.0
 11
691.18767316632375
 21
-2202.736948652841
 31
0.0
  0
ARC
  5
EDD6
  8
01
 10
601.18767316632375
 20
-2204.736948652841
 30
0.0
 40
2.0
 50
90.0
 51
180.0
  0
ARC
  5
EDDC
  8
01
 10
694.18767316632375
 20
-2258.736948652841
 30
0.0
 40
0.5
 50
270.0
 51
360.0
  0
LINE
  5
EDDD
  8
01
 10
694.68767316632375
 20
-2258.736948652841
 30
0.0
 11
694.68767316632375
 21
-2204.736948652841
 31
0.0
  0
ARC
  5
EDDE
  8
01
 10
694.18767316632375
 20
-2204.736948652841
 30
0.0
 40
0.5
 50
0.000000000000007
 51
90.0
  0
LINE
  5
EDDF
  8
01
 10
694.18767316632375
 20
-2204.236948652841
 30
0.0
 11
693.12416483942752
 21
-2204.236948652841
 31
0.0
  0
LINE
  5
EDE0
  8
01
 10
694.18767316632375
 20
-2259.236948652841
 30
0.0
 11
693.12416483942752
 21
-2259.236948652841
 31
0.0
  0
LINE
  5
EE5D
  8
01
 10
978.18778150606875
 20
-1896.736948653868
 30
0.0
 11
978.18778150606875
 21
-1889.736948653868
 31
0.0
  0
LINE
  5
EE5E
  8
01
 10
1072.1877815060691
 20
-1889.736948653868
 30
0.0
 11
1072.1877815060691
 21
-1896.736948653868
 31
0.0
  0
ARC
  5
EE5F
  8
01
 10
1071.6877815060691
 20
-1889.736948653868
 30
0.0
 40
0.5
 50
0.0
 51
90.000000000000028
  0
ARC
  5
EE60
  8
01
 10
1071.6877815060691
 20
-1896.736948653868
 30
0.0
 40
0.5
 50
270.0
 51
0.0
  0
LINE
  5
EE61
  8
01
 10
978.68778150606886
 20
-1897.2369486538689
 30
0.0
 11
1071.6877815060691
 21
-1897.2369486538689
 31
0.0
  0
ARC
  5
EE62
  8
01
 10
978.68778150606886
 20
-1896.736948653868
 30
0.0
 40
0.5
 50
180.0
 51
270.0
  0
LINE
  5
EE63
  8
01
 10
978.68778150606886
 20
-1889.236948653868
 30
0.0
 11
1071.6877815060691
 21
-1889.236948653868
 31
0.0
  0
ARC
  5
EE64
  8
01
 10
978.68778150606886
 20
-1889.736948653868
 30
0.0
 40
0.5
 50
90.000000000000028
 51
180.0
  0
LINE
  5
EE65
  8
01
 10
992.18778150606886
 20
-1928.236948653868
 30
0.0
 11
992.18778150606977
 21
-1904.236948653868
 31
0.0
  0
ARC
  5
EE66
  8
01
 10
990.18778150606977
 20
-1904.236948653868
 30
0.0
 40
2.0
 50
0.0
 51
90.000000000000028
  0
LINE
  5
EE67
  8
01
 10
1016.18778150607
 20
-1928.236948653871
 30
0.0
 11
1016.187781506074
 21
-1904.236948653868
 31
0.0
  0
ARC
  5
EE68
  8
01
 10
1018.187781506074
 20
-1904.236948653868
 30
0.0
 40
2.0
 50
90.000000000000028
 51
179.99999999997391
  0
ARC
  5
EE69
  8
01
 10
1004.187781506069
 20
-1937.2369486538689
 30
0.0
 40
15.0
 50
143.1301023541634
 51
149.99999999999889
  0
ARC
  5
EE6A
  8
01
 10
1004.187781506069
 20
-1937.2369486538689
 30
0.0
 40
15.0
 50
30.000000000000441
 51
36.869897645836538
  0
LINE
  5
EE6B
  8
01
 10
1031.68778150607
 20
-1938.2369486538689
 30
0.0
 11
1031.6877815060691
 21
-1930.2369486538689
 31
0.0
  0
ARC
  5
EE6C
  8
01
 10
1031.1877815060691
 20
-1930.2369486538689
 30
0.0
 40
0.5
 50
0.0000000000011336
 51
89.999999999999602
  0
LINE
  5
EE6D
  8
01
 10
976.68778150606965
 20
-1938.2369486538689
 30
0.0
 11
976.68778150606954
 21
-1930.2369486538689
 31
0.0
  0
LINE
  5
EE6E
  8
01
 10
990.18778150606977
 20
-1902.236948653868
 30
0.0
 11
985.98778150606984
 21
-1902.236948653868
 31
0.0
  0
ARC
  5
EE6F
  8
01
 10
985.98778150606984
 20
-1901.4369486538681
 30
0.0
 40
0.8
 50
180.0
 51
270.0
  0
LINE
  5
EE70
  8
01
 10
985.18778150606977
 20
-1901.4369486538681
 30
0.0
 11
985.18778150606977
 21
-1897.2369486538689
 31
0.0
  0
LINE
  5
EE71
  8
01
 10
985.18778150606977
 20
-1897.2369486538689
 30
0.0
 11
1065.18778150607
 21
-1897.2369486538689
 31
0.0
  0
LINE
  5
EE72
  8
01
 10
1065.18778150607
 20
-1897.2369486538689
 30
0.0
 11
1065.18778150607
 21
-1901.4369486538681
 31
0.0
  0
ARC
  5
EE73
  8
01
 10
1064.3877815060689
 20
-1901.4369486538681
 30
0.0
 40
0.8
 50
270.0
 51
0.0
  0
LINE
  5
EE74
  8
01
 10
1064.3877815060689
 20
-1902.236948653868
 30
0.0
 11
1062.137271248853
 21
-1902.236948653868
 31
0.0
  0
LINE
  5
EE75
  8
01
 10
1057.238291763286
 20
-1902.236948653868
 30
0.0
 11
1018.187781506074
 21
-1902.236948653868
 31
0.0
  0
ARC
  5
EE76
  8
01
 10
1059.6877815060691
 20
-1901.7369486538689
 30
0.0
 40
2.5
 50
191.5369590328315
 51
348.46304096716841
  0
LINE
  5
EE77
  8
01
 10
985.98778150606904
 20
-1886.236948653868
 30
0.0
 11
1064.387781506068
 21
-1886.236948653868
 31
0.0
  0
ARC
  5
EE78
  8
01
 10
1064.387781506068
 20
-1887.036948653868
 30
0.0
 40
0.8
 50
0.0
 51
90.000000000000028
  0
LINE
  5
EE79
  8
01
 10
985.18778150606886
 20
-1887.036948653868
 30
0.0
 11
985.18778150606886
 21
-1889.236948653868
 31
0.0
  0
ARC
  5
EE7A
  8
01
 10
985.98778150606904
 20
-1887.036948653868
 30
0.0
 40
0.8
 50
90.000000000000028
 51
180.0
  0
LINE
  5
EE7B
  8
01
 10
1065.1877815060691
 20
-1887.036948653868
 30
0.0
 11
1065.1877815060691
 21
-1889.236948653868
 31
0.0
  0
LINE
  5
EE7C
  8
01
 10
985.18778150606886
 20
-1889.236948653868
 30
0.0
 11
1065.1877815060691
 21
-1889.236948653868
 31
0.0
  0
LINE
  5
EE7D
  8
01
 10
976.68778150606965
 20
-1938.2369486538689
 30
0.0
 11
1031.68778150607
 21
-1938.2369486538689
 31
0.0
  0
LINE
  5
EE7E
  8
01
 10
977.18778150606965
 20
-1929.7369486538689
 30
0.0
 11
1001.687781506062
 21
-1929.7369486538689
 31
0.0
  0
ARC
  5
EE7F
  8
01
 10
977.18778150606965
 20
-1930.2369486538689
 30
0.0
 40
0.5
 50
89.999999999999844
 51
180.00000000000131
  0
TEXT
  5
F208
  8
1TEXT
 10
649.18768516632406
 20
-1946.7369486528401
 30
0.0
 40
20.0
  1
3-B3T-X-LP-2
  0
TEXT
  5
F209
  8
1TEXT
 10
649.9853317800555
 20
-1971.0879072733569
 30
0.0
 40
6.0
  1
材質：亜鉛ダイキャスト・アクリル
 72
     1
 11
706.38533178005537
 21
-1971.0879072733569
 31
0.0
  0
LINE
  5
F20A
  8
1DIM
 10
649.18768516632406
 20
-2008.236948652841
 30
0.0
 11
761.81401729357674
 21
-2008.236948652841
 31
0.0
  0
TEXT
  5
F20B
  8
1TEXT
 10
661.6876851663236
 20
-1984.9869486528401
 30
0.0
 40
6.0
  1
表面処理
 72
     1
 11
675.28768516632363
 21
-1984.9869486528401
 31
0.0
  0
TEXT
  5
F20C
  8
1TEXT
 10
661.28768516632363
 20
-1995.2398816421271
 30
0.0
 40
6.0
  1
クローム
 72
     1
 11
675.28768516632363
 21
-1995.2398816421271
 31
0.0
  0
LINE
  5
F20D
  8
1DIM
 10
649.18768516632406
 20
-1976.7369486528401
 30
0.0
 11
761.81401729357663
 21
-1976.7369486528401
 31
0.0
  0
LINE
  5
F20E
  8
1DIM
 10
649.18768516632406
 20
-1987.2369486528401
 30
0.0
 11
761.81401729357663
 21
-1987.2369486528401
 31
0.0
  0
LINE
  5
F20F
  8
1DIM
 10
649.18768516632406
 20
-1997.7369486528401
 30
0.0
 11
754.18768516632406
 21
-1997.7369486528401
 31
0.0
  0
LINE
  5
F210
  8
1DIM
 10
649.18768516632406
 20
-1997.7369486528401
 30
0.0
 11
761.81401729357663
 21
-1997.7369486528401
 31
0.0
  0
LINE
  5
F211
  8
1DIM
 10
701.68768516632417
 20
-1976.7369486528401
 30
0.0
 11
701.68768516632417
 21
-2019.0229864226101
 31
0.0
  0
TEXT
  5
F212
  8
1TEXT
 10
703.96085501263985
 20
-1995.8084841283139
 30
0.0
 40
6.0
  1
3-B3T-CO-LP-2
 41
0.7
 72
     1
 11
730.56085501263976
 21
-1995.8084841283139
 31
0.0
  0
TEXT
  5
F213
  8
1TEXT
 10
720.36085501263835
 20
-1984.9869486528401
 30
0.0
 40
6.0
  1
コード
 72
     1
 11
730.56085501263851
 21
-1984.9869486528401
 31
0.0
  0
LINE
  5
F214
  8
1DIM
 10
649.18768516632406
 20
-2018.736948652841
 30
0.0
 11
761.81401729357674
 21
-2018.7369486528401
 31
0.0
  0
LINE
  5
F216
  8
1DIM
 10
649.18768516632417
 20
-2018.736948652841
 30
0.0
 11
649.18768516632406
 21
-1976.7369486528401
 31
0.0
  0
LINE
  5
F217
  8
1DIM
 10
761.81401729357674
 20
-2018.7369486528401
 30
0.0
 11
761.81401729357663
 21
-1976.7369486528401
 31
0.0
  0
TEXT
  5
F219
  8
1TEXT
 10
650.88768516632365
 20
-2005.703319070197
 30
0.0
 40
6.0
  1
サテンニッケル
 72
     1
 11
675.28768516632363
 21
-2005.703319070197
 31
0.0
  0
TEXT
  5
F21A
  8
1TEXT
 10
703.96085501263985
 20
-2006.3084841283139
 30
0.0
 40
6.0
  1
3-B3T-NO-LP-2
 41
0.7
 72
     1
 11
730.56085501263976
 21
-2006.3084841283139
 31
0.0
  0
TEXT
  5
F21C
  8
1TEXT
 10
650.6876851663236
 20
-2016.203319070197
 30
0.0
 40
6.0
  1
ダークアンバー
 72
     1
 11
675.28768516632363
 21
-2016.203319070197
 31
0.0
  0
TEXT
  5
F21D
  8
1TEXT
 10
703.9108550126399
 20
-2016.8084841283151
 30
0.0
 40
6.0
  1
3-B3T-4QO-LP-2
 41
0.65
 72
     1
 11
730.56085501263976
 21
-2016.8084841283151
 31
0.0
  0
LINE
  5
F25E
  8
1HIDDEN
 10
1022.187665166325
 20
-2202.736948652841
 30
0.0
 11
1022.187665166325
 21
-2247.736948652841
 31
0.0
  0
LINE
  5
F25F
  8
1HIDDEN
 10
1022.187665166325
 20
-2247.736948652841
 30
0.0
 11
976.68766516632468
 21
-2247.736948652841
 31
0.0
  0
LINE
  5
F338
  8
1CENTER
 10
654.43148024604898
 20
-2181.736948652841
 30
0.0
 11
680.18815040137929
 21
-2181.7369486528401
 31
0.0
  0
LINE
  5
F339
  8
01
 10
984.68767284386763
 20
-2156.236948652841
 30
0.0
 11
1023.6876728438669
 21
-2156.236948652841
 31
0.0
  0
ARC
  5
F33A
  8
01
 10
1023.6876728438669
 20
-2156.736948652841
 30
0.0
 40
0.5
 50
0.0
 51
90.0
  0
LINE
  5
F33B
  8
01
 10
984.6876728438674
 20
-2196.236948652841
 30
0.0
 11
1023.6876728438669
 21
-2196.236948652841
 31
0.0
  0
ARC
  5
F33C
  8
01
 10
984.6876728438674
 20
-2195.736948652841
 30
0.0
 40
0.5
 50
180.0
 51
270.0
  0
LINE
  5
F33D
  8
1CENTER
 10
997.35715319192832
 20
-2181.736948652841
 30
0.0
 11
1011.542863591927
 21
-2181.736948652841
 31
0.0
  0
LINE
  5
F33E
  8
01
 10
861.98766916632405
 20
-2195.7369486528328
 30
0.0
 11
861.98766916632428
 21
-2156.7369486528341
 31
0.0
  0
LINE
  5
F33F
  8
01
 10
855.68766916632444
 20
-2156.2369486528328
 30
0.0
 11
855.68766916632023
 21
-2196.2369486528341
 31
0.0
  0
LINE
  5
F340
  8
01
 10
984.18767284386729
 20
-2195.736948652841
 30
0.0
 11
984.18767284386752
 21
-2156.736948652841
 31
0.0
  0
ARC
  5
F341
  8
01
 10
984.68767284386763
 20
-2156.736948652841
 30
0.0
 40
0.5
 50
90.0
 51
180.0
  0
LINE
  5
F342
  8
01
 10
855.68766916632023
 20
-2196.2369486528341
 30
0.0
 11
861.48766916632439
 21
-2196.2369486528328
 31
0.0
  0
ARC
  5
F343
  8
01
 10
861.48766916632439
 20
-2195.7369486528328
 30
0.0
 40
0.5
 50
270.0
 51
0.0
  0
LINE
  5
F344
  8
01
 10
855.68766916632444
 20
-2156.2369486528328
 30
0.0
 11
861.48766916632439
 21
-2156.2369486528341
 31
0.0
  0
ARC
  5
F345
  8
01
 10
861.48766916632439
 20
-2156.7369486528341
 30
0.0
 40
0.5
 50
0.0
 51
90.0
  0
LINE
  5
F346
  8
01
 10
1024.1876728438669
 20
-2195.736948652841
 30
0.0
 11
1024.1876728438669
 21
-2156.736948652841
 31
0.0
  0
ARC
  5
F347
  8
01
 10
1023.6876728438669
 20
-2195.736948652841
 30
0.0
 40
0.5
 50
270.0
 51
0.0
  0
CIRCLE
  5
F348
  8
01
 10
1004.187673166325
 20
-2181.7369484487131
 30
0.0
 40
3.75
  0
LINE
  5
F34A
  8
01
 10
862.71106916632448
 20
-2178.2369473319031
 30
-0.0000000000563712
 11
861.98766916632405
 21
-2178.2369473319031
 31
-0.0000000000563712
  0
LINE
  5
F34B
  8
01
 10
862.71106916632448
 20
-2185.2369473319031
 30
-0.0000000000563712
 11
861.98766916632405
 21
-2185.2369473319031
 31
-0.0000000000563712
  0
LINE
  5
F34C
  8
01
 10
686.68766516632104
 20
-2156.236948652841
 30
0.0
 11
647.68766516632138
 21
-2156.236948652841
 31
0.0
  0
ARC
  5
F34D
  8
01
 10
647.68766516632138
 20
-2156.736948652841
 30
0.0
 40
0.5
 50
90.0
 51
180.0
  0
LINE
  5
F34E
  8
01
 10
686.68766516632115
 20
-2196.236948652841
 30
0.0
 11
647.68766516632127
 21
-2196.236948652841
 31
0.0
  0
ARC
  5
F34F
  8
01
 10
686.68766516632115
 20
-2195.736948652841
 30
0.0
 40
0.5
 50
270.0
 51
0.0
  0
LINE
  5
F350
  8
01
 10
809.38766916632721
 20
-2195.7369486528328
 30
0.0
 11
809.38766916632721
 21
-2156.7369486528341
 31
0.0
  0
LINE
  5
F351
  8
01
 10
815.68766916632705
 20
-2156.2369486528328
 30
0.0
 11
815.68766916632285
 21
-2196.2369486528341
 31
0.0
  0
LINE
  5
F352
  8
01
 10
687.18766516632115
 20
-2195.736948652841
 30
0.0
 11
687.18766516632104
 21
-2156.736948652841
 31
0.0
  0
ARC
  5
F353
  8
01
 10
686.68766516632104
 20
-2156.736948652841
 30
0.0
 40
0.5
 50
0.0
 51
90.0
  0
LINE
  5
F355
  8
01
 10
815.68766916632285
 20
-2196.2369486528341
 30
0.0
 11
809.88766916632733
 21
-2196.2369486528328
 31
0.0
  0
ARC
  5
F356
  8
01
 10
809.88766916632733
 20
-2195.7369486528328
 30
0.0
 40
0.5
 50
180.0
 51
270.0
  0
LINE
  5
F357
  8
01
 10
815.68766916632705
 20
-2156.2369486528328
 30
0.0
 11
809.88766916632733
 21
-2156.2369486528341
 31
0.0
  0
ARC
  5
F358
  8
01
 10
809.88766916632733
 20
-2156.7369486528341
 30
0.0
 40
0.5
 50
90.0
 51
180.0
  0
LINE
  5
F359
  8
01
 10
647.18766516632127
 20
-2195.736948652841
 30
0.0
 11
647.18766516632138
 21
-2156.736948652841
 31
0.0
  0
ARC
  5
F35A
  8
01
 10
647.68766516632127
 20
-2195.736948652841
 30
0.0
 40
0.5
 50
180.0
 51
270.0
  0
CIRCLE
  5
F35B
  8
01
 10
667.1876651663232
 20
-2181.736948652841
 30
0.0
 40
11.30000000000109
  0
LINE
  5
F35D
  8
01
 10
794.68728360060572
 20
-2192.7369536528331
 30
0.0
 11
809.38766916632721
 21
-2192.7369536528331
 31
0.0
  0
LINE
  5
F35E
  8
01
 10
808.18730654481737
 20
-2171.2369536528331
 30
0.0
 11
808.1873065448126
 21
-2192.2369536528322
 31
0.0
  0
LINE
  5
F35F
  8
01
 10
794.68728360060766
 20
-2170.736953652834
 30
0.0
 11
809.38766916632721
 21
-2170.7369536528331
 31
0.0
  0
ARC
  5
F360
  8
01
 10
794.68728360060766
 20
-2171.7369536528322
 30
0.0
 40
1.0
 50
90.0
 51
180.0
  0
LINE
  5
F361
  8
01
 10
793.68728360060572
 20
-2171.7369536528322
 30
0.0
 11
793.68728360060572
 21
-2191.7369536528299
 31
0.0
  0
ARC
  5
F362
  8
01
 10
794.68728360060572
 20
-2191.7369536528299
 30
0.0
 40
1.0
 50
180.0
 51
270.0
  0
ARC
  5
F363
  8
01
 10
808.68730654481249
 20
-2171.2369536528331
 30
0.0
 40
0.5
 50
90.0
 51
179.99999999997391
  0
ARC
  5
F364
  8
01
 10
808.68730654481249
 20
-2192.2369536528331
 30
0.0
 40
0.5
 50
179.99999999997391
 51
270.0
  0
ARC
  5
F366
  8
01
 10
667.1876651663232
 20
-2181.736948652841
 30
0.0
 40
10.999995000006949
 50
79.019419278570822
 51
100.98058072142911
  0
LINE
  5
F367
  8
01
 10
669.68766516632331
 20
-2171.42918968204
 30
0.0
 11
669.68766516632331
 21
-2192.0447076236419
 31
0.0
  0
LINE
  5
F368
  8
01
 10
664.68766516632331
 20
-2171.42918968204
 30
0.0
 11
664.68766516632331
 21
-2192.0447076236419
 31
0.0
  0
ARC
  5
F369
  8
01
 10
667.1876651663232
 20
-2181.736948652841
 30
0.0
 40
10.999995000006949
 50
100.98058072142911
 51
259.01941927857081
  0
ARC
  5
F36A
  8
01
 10
667.1876651663232
 20
-2181.736948652841
 30
0.0
 40
10.999995000006949
 50
280.98058072142919
 51
79.019419278570822
  0
ARC
  5
F36B
  8
01
 10
667.1876651663232
 20
-2181.736948652841
 30
0.0
 40
10.999995000006949
 50
259.01941927857081
 51
280.98058072142919
  0
ARC
  5
F36C
  8
01
 10
665.18766516632331
 20
-2171.42918968204
 30
0.0
 40
0.5
 50
100.98058072142911
 51
180.0
  0
ARC
  5
F36D
  8
01
 10
669.18766516632331
 20
-2171.42918968204
 30
0.0
 40
0.5
 50
0.0
 51
79.019419278570822
  0
ARC
  5
F36E
  8
01
 10
665.18766516632331
 20
-2192.0447076236419
 30
0.0
 40
0.5
 50
180.0
 51
259.01941927857081
  0
ARC
  5
F36F
  8
01
 10
669.18766516632331
 20
-2192.0447076236419
 30
0.0
 40
0.5
 50
280.98058072142919
 51
0.0
  0
CIRCLE
  5
F370
  8
01
 10
1004.187673166325
 20
-2181.736948652841
 30
0.0
 40
3.5000004999999992
  0
LINE
  5
F371
  8
01
 10
1005.187673166325
 20
-2185.09105145284
 30
0.0
 11
1005.187673166325
 21
-2178.382844652841
 31
0.0
  0
LINE
  5
F372
  8
01
 10
1003.187673166325
 20
-2185.09105145284
 30
0.0
 11
1003.187673166325
 21
-2178.382844652841
 31
0.0
  0
LINE
  5
F374
  8
01
 10
984.68778118361115
 20
-1984.5369486538691
 30
0.0
 11
1023.68778118361
 21
-1984.5369486538691
 31
0.0
  0
LINE
  5
F375
  8
01
 10
984.18778118361115
 20
-1978.2369486538689
 30
0.0
 11
984.18778118361115
 21
-1984.0369486538691
 31
0.0
  0
LINE
  5
F376
  8
01
 10
1024.18778118361
 20
-1978.2369486538689
 30
0.0
 11
1024.18778118361
 21
-1984.0369486538691
 31
0.0
  0
ARC
  5
F378
  8
01
 10
984.68778118361115
 20
-1984.0369486538691
 30
0.0
 40
0.5
 50
180.0
 51
270.0
  0
ARC
  5
F379
  8
01
 10
1023.68778118361
 20
-1984.0369486538691
 30
0.0
 40
0.5
 50
270.0
 51
0.0
  0
LINE
  5
F37A
  8
01
 10
1005.187782827007
 20
-1985.93671865387
 30
-0.0000000000001137
 11
1005.187782827007
 21
-1984.5369486538691
 31
-0.0000000000001137
  0
ARC
  5
F37B
  8
01
 10
1002.887783827007
 20
-1985.936718653868
 30
-0.0000000000001137
 40
0.30000001
 50
256.81651999996461
 51
0.0000029999586138
  0
ARC
  5
F37C
  8
01
 10
1004.18778282701
 20
-1980.386948653869
 30
-0.0000000000001137
 40
6.0
 50
283.1834819999587
 51
305.68533399995908
  0
ARC
  5
F37D
  8
01
 10
1005.487785827007
 20
-1985.93671865387
 30
-0.0000000000001137
 40
0.30000001
 50
179.9999999999479
 51
283.1834819999587
  0
LINE
  5
F37E
  8
01
 10
1007.687782827007
 20
-1985.260348653871
 30
-0.0000000000001137
 11
1007.687782827008
 21
-1984.5369486538691
 31
-0.0000000000001137
  0
LINE
  5
F37F
  8
01
 10
1000.687782827007
 20
-1985.2603486538669
 30
-0.0000000000001137
 11
1000.687782827007
 21
-1984.5369486538691
 31
-0.0000000000001137
  0
ARC
  5
F380
  8
01
 10
1004.18778282701
 20
-1980.386948653869
 30
-0.0000000000001137
 40
6.0
 50
234.31466999996869
 51
256.81651749659733
  0
LINE
  5
F381
  8
01
 10
1003.187782827007
 20
-1985.9374971132711
 30
-0.0000000000001137
 11
1003.187782827008
 21
-1984.5369486538691
 31
-0.0000000000001137
  0
ARC
  5
F382
  8
01
 10
856.92601765520044
 20
-2181.7369473319031
 30
-0.0000000000563712
 40
6.7614215211269721
 50
328.82574397864261
 51
31.174256021357369
  0
LINE
  5
F384
  8
01
 10
984.68778118361115
 20
-1931.936948653869
 30
0.0
 11
1023.68778118361
 21
-1931.936948653869
 31
0.0
  0
LINE
  5
F385
  8
01
 10
984.18778118361115
 20
-1938.2369486538689
 30
0.0
 11
984.18778118361115
 21
-1932.436948653869
 31
0.0
  0
LINE
  5
F386
  8
01
 10
1024.18778118361
 20
-1938.2369486538689
 30
0.0
 11
1024.18778118361
 21
-1932.436948653869
 31
0.0
  0
ARC
  5
F388
  8
01
 10
984.68778118361115
 20
-1932.436948653869
 30
0.0
 40
0.5
 50
90.0
 51
180.0
  0
ARC
  5
F389
  8
01
 10
1023.68778118361
 20
-1932.436948653869
 30
0.0
 40
0.5
 50
0.0
 51
90.0
  0
ARC
  5
F38A
  8
01
 10
1007.6877815060629
 20
-1929.7369715980769
 30
0.0
 40
1.0
 50
180.0
 51
270.00000000001302
  0
LINE
  5
F38B
  8
01
 10
1007.687781506064
 20
-1930.7369715980781
 30
0.0
 11
1014.687786506062
 21
-1930.736971598076
 31
0.0
  0
ARC
  5
F38C
  8
01
 10
1014.687786506062
 20
-1931.236971598076
 30
0.0
 40
0.5
 50
0.0
 51
90.000000000013031
  0
ARC
  5
F38D
  8
01
 10
1000.687781506061
 20
-1929.736971598076
 30
0.0
 40
1.0
 50
270.0
 51
0.0
  0
ARC
  5
F38E
  8
01
 10
993.68778650606225
 20
-1931.236971598076
 30
0.0
 40
0.5
 50
90.0
 51
180.0
  0
LINE
  5
F38F
  8
01
 10
1001.687781506062
 20
-1917.2369486538721
 30
0.0
 11
1001.687781506062
 21
-1929.736971598076
 31
0.0
  0
ARC
  5
F390
  8
01
 10
1002.687781506061
 20
-1917.236948653871
 30
0.0
 40
1.0
 50
90.0
 51
179.9999999999479
  0
LINE
  5
F391
  8
01
 10
1002.687781506062
 20
-1916.2369486538689
 30
0.0
 11
1005.687781506061
 21
-1916.2369486538689
 31
0.0
  0
ARC
  5
F392
  8
01
 10
1005.687781506061
 20
-1917.236948653871
 30
0.0
 40
1.0
 50
0.0
 51
90.0
  0
LINE
  5
F393
  8
01
 10
1006.687781506062
 20
-1917.236948653871
 30
0.0
 11
1006.687781506064
 21
-1929.7369715980769
 31
0.0
  0
LINE
  5
F394
  8
01
 10
993.68778650606225
 20
-1930.736971598076
 30
0.0
 11
1000.687781506062
 21
-1930.736971598076
 31
0.0
  0
LINE
  5
F395
  8
01
 10
993.18778650606237
 20
-1931.236971598076
 30
0.0
 11
993.18778650606237
 21
-1931.636948653869
 31
0.0
  0
LINE
  5
F396
  8
01
 10
1015.187786506062
 20
-1931.236971598076
 30
0.0
 11
1015.187786506062
 21
-1931.636948653869
 31
0.0
  0
LINE
  5
F3C5
  8
01
 10
1006.687781506064
 20
-1929.7369486538689
 30
0.0
 11
1031.1877815060691
 21
-1929.7369486538689
 31
0.0
  0
LINE
  5
F3E1
  8
1HIDDEN
 10
984.54612855637515
 20
-2173.736948652841
 30
0.0
 11
1022.187665166325
 21
-2173.736948652841
 31
0.0
  0
LINE
  5
F3E2
  8
1HIDDEN
 10
1022.187665166325
 20
-2173.736948652841
 30
0.0
 11
1022.187665166325
 21
-2196.236948652841
 31
0.0
  0
CIRCLE
  5
F445
  8
01
 10
1004.187673166325
 20
-2174.3369584487132
 30
0.0
 40
2.5
  0
LINE
  5
F6E1
  8
1DIM
 10
855.68766916632444
 20
-2139.2395686528398
 30
0.0
 11
855.68766916632444
 21
-2124.4369486528399
 31
0.0
  0
LINE
  5
F6E2
  8
1DIM
 10
863.68743917632742
 20
-2181.7369473319031
 30
0.0
 11
863.68743917632742
 21
-2124.4369486528399
 31
0.0
  0
LINE
  5
F6E3
  8
1DIM
 10
858.28766916632435
 20
-2125.736948652841
 30
0.0
 11
861.08743917632728
 21
-2125.736948652841
 31
0.0
  0
LINE
  5
F6E7
  8
1DIM
 10
815.68766916632444
 20
-2139.2395686528398
 30
0.0
 11
815.68766916632444
 21
-2124.4369486528399
 31
0.0
  0
LINE
  5
F6E8
  8
1DIM
 10
793.68728360060766
 20
-2171.7369536528322
 30
0.0
 11
793.68728360060766
 21
-2124.4369486528399
 31
0.0
  0
LINE
  5
F6E9
  8
1DIM
 10
813.08766916632442
 20
-2125.736948652841
 30
0.0
 11
796.28728360060779
 21
-2125.736948652841
 31
0.0
  0
TEXT
  5
F6ED
  8
1HATCH
 10
1031.968445872179
 20
-1868.4136000672061
 30
0.0
 40
3.5
  1
材質：亜鉛ダイキャスト
  0
SOLID
  5
F6EE
  8
1HATCH
 10
1014.512026232056
 20
-1886.9233350494501
 30
0.0
 11
1012.926406807301
 21
-1888.1870289011999
 31
0.0
 12
1014.01647041934
 22
-1886.4773878766521
 32
0.0
 13
1014.01647041934
 23
-1886.4773878766521
 33
0.0
  0
TEXT
  5
F6F0
  8
1HATCH
 10
1058.348289247278
 20
-1917.76999407941
 30
0.0
 40
3.5
  1
材質：アクリル樹脂
  0
SOLID
  5
F6F1
  8
1HATCH
 10
1040.157332313275
 20
-1896.336883239029
 30
0.0
 11
1039.3062501823999
 21
-1894.4965652454159
 31
0.0
 12
1040.708187763589
 22
-1895.9613799536851
 32
0.0
 13
1040.708187763589
 23
-1895.9613799536851
 33
0.0
  0
LINE
  5
F6F3
  8
1DIM
 10
1022.187665166325
 20
-2173.736948652841
 30
0.0
 11
1050.4876651663251
 21
-2173.736948652841
 31
0.0
  0
LINE
  5
F6F4
  8
1DIM
 10
1022.187665166325
 20
-2247.736948652841
 30
0.0
 11
1050.4876651663251
 21
-2247.736948652841
 31
0.0
  0
LINE
  5
F6F5
  8
1DIM
 10
1049.1876651663249
 20
-2176.3369486528418
 30
0.0
 11
1049.1876651663249
 21
-2245.136948652842
 31
0.0
  0
LINE
  5
F6F9
  8
1DIM
 10
1072.187781439965
 20
-2060.2369486538691
 30
0.0
 11
1072.187781439965
 21
-2071.2369486538691
 31
0.0
  0
LINE
  5
F6FA
  8
1DIM
 10
978.18778143996485
 20
-2026.7369486538689
 30
0.0
 11
978.18778143996485
 21
-2071.2369486538691
 31
0.0
  0
LINE
  5
F6FB
  8
1DIM
 10
1070.187781439965
 20
-2070.2369486538691
 30
0.0
 11
980.18778143996485
 21
-2070.2369486538691
 31
0.0
  0
LINE
  5
F6FF
  8
1DIM
 10
1004.187781439966
 20
-1998.7369486538689
 30
0.0
 11
1004.187781439966
 21
-2061.2369486538691
 31
0.0
  0
LINE
  5
F700
  8
1DIM
 10
1072.187781439965
 20
-2026.7369486538689
 30
0.0
 11
1072.187781439965
 21
-2061.2369486538691
 31
0.0
  0
LINE
  5
F701
  8
1DIM
 10
1006.187781439966
 20
-2060.2369486538691
 30
0.0
 11
1070.187781439965
 21
-2060.2369486538691
 31
0.0
  0
LINE
  5
F705
  8
1DIM
 10
1095.4458137008569
 20
-1978.2369486538689
 30
0.0
 11
1105.487962902751
 21
-1978.2369486538689
 31
0.0
  0
LINE
  5
F706
  8
1DIM
 10
1052.6351001911919
 20
-2041.6562419979359
 30
0.0
 11
1105.487962902751
 21
-2041.6562419979359
 31
0.0
  0
LINE
  5
F707
  8
1DIM
 10
1104.487962902751
 20
-1980.2369486538689
 30
0.0
 11
1104.487962902751
 21
-2039.6562419979359
 31
0.0
  0
LINE
  5
F70B
  8
1DIM
 10
1064.387781506068
 20
-2030.2369486538701
 30
0.0
 11
1096.4458137008569
 21
-2030.2369486538701
 31
0.0
  0
LINE
  5
F70C
  8
1DIM
 10
1086.04873315891
 20
-1978.2369486538689
 30
0.0
 11
1096.4458137008569
 21
-1978.2369486538689
 31
0.0
  0
LINE
  5
F70D
  8
1DIM
 10
1095.4458137008569
 20
-2028.2369486538689
 30
0.0
 11
1095.4458137008569
 21
-1980.2369486538689
 31
0.0
  0
LINE
  5
F711
  8
1DIM
 10
1065.8558383708259
 20
-1999.9220896395341
 30
0.0
 11
1087.04873315891
 21
-1999.9220896395341
 31
0.0
  0
LINE
  5
F712
  8
1DIM
 10
1059.18778150607
 20
-1978.2369486538689
 30
0.0
 11
1087.04873315891
 21
-1978.2369486538689
 31
0.0
  0
LINE
  5
F713
  8
1DIM
 10
1086.04873315891
 20
-1997.9220896395341
 30
0.0
 11
1086.04873315891
 21
-1980.2369486538689
 31
0.0
  0
LINE
  5
F717
  8
1DIM
 10
1070.187665166324
 20
-2260.736948652841
 30
0.0
 11
1103.4869228569289
 21
-2260.736948652841
 31
0.0
  0
LINE
  5
F718
  8
1DIM
 10
1070.187665166324
 20
-2202.736948652841
 30
0.0
 11
1103.4869228569289
 21
-2202.736948652841
 31
0.0
  0
LINE
  5
F719
  8
1DIM
 10
1102.186922856929
 20
-2258.1369486528411
 30
0.0
 11
1102.186922856929
 21
-2205.33694865284
 31
0.0
  0
LINE
  5
F71D
  8
1DIM
 10
977.18766516632456
 20
-2259.236948652841
 30
0.0
 11
962.88766516632472
 21
-2259.236948652841
 31
0.0
  0
LINE
  5
F71E
  8
1DIM
 10
977.18766516632456
 20
-2204.236948652841
 30
0.0
 11
962.88766516632472
 21
-2204.236948652841
 31
0.0
  0
LINE
  5
F71F
  8
1DIM
 10
964.18766516632468
 20
-2256.6369486528411
 30
0.0
 11
964.18766516632468
 21
-2206.83694865284
 31
0.0
  0
CIRCLE
  5
F723
  8
1HATCH
 10
797.68766916632433
 20
-2231.736948652841
 30
0.0
 40
3.0
  0
CIRCLE
  5
F724
  8
1HATCH
 10
873.68766916632399
 20
-2231.736948652841
 30
0.0
 40
3.0
  0
LINE
  5
F725
  8
1DIM
 10
842.18766916632455
 20
-2145.736948652841
 30
0.0
 11
891.49126020288077
 21
-2145.736948652841
 31
0.0
  0
LINE
  5
F726
  8
1DIM
 10
842.18766916632455
 20
-2275.7369486528401
 30
0.0
 11
891.49126020288077
 21
-2275.7369486528401
 31
0.0
  0
LINE
  5
F727
  8
1DIM
 10
890.19126020288104
 20
-2148.33694865284
 30
0.0
 11
890.19126020288104
 21
-2273.1369486528411
 31
0.0
  0
LINE
  5
F72B
  8
1DIM
 10
842.18766916632455
 20
-2153.736948652841
 30
0.0
 11
881.49126020288077
 21
-2153.736948652841
 31
0.0
  0
LINE
  5
F72C
  8
1DIM
 10
842.18766916632455
 20
-2267.7369486528401
 30
0.0
 11
881.49126020288077
 21
-2267.7369486528401
 31
0.0
  0
LINE
  5
F72D
  8
1DIM
 10
880.19126020288081
 20
-2156.3369486528409
 30
0.0
 11
880.19126020288081
 21
-2265.1369486528411
 31
0.0
  0
LINE
  5
F731
  8
1DIM
 10
637.18767316632386
 20
-2231.736948652841
 30
0.0
 11
622.88768516632399
 21
-2231.736948652841
 31
0.0
  0
LINE
  5
F732
  8
1DIM
 10
644.6876651663232
 20
-2176.236948652841
 30
0.0
 11
622.88768516632399
 21
-2176.236948652841
 31
0.0
  0
LINE
  5
F733
  8
1DIM
 10
624.18768516632394
 20
-2229.1369486528411
 30
0.0
 11
624.18768516632394
 21
-2178.8369486528409
 31
0.0
  0
LINE
  5
F737
  8
1DIM
 10
637.18767316632386
 20
-2231.736948652841
 30
0.0
 11
632.8876851663241
 21
-2231.736948652841
 31
0.0
  0
LINE
  5
F738
  8
1DIM
 10
654.1876651663232
 20
-2181.736948652841
 30
0.0
 11
632.8876851663241
 21
-2181.736948652841
 31
0.0
  0
LINE
  5
F739
  8
1DIM
 10
634.18768516632394
 20
-2229.1369486528411
 30
0.0
 11
634.18768516632394
 21
-2184.3369486528409
 31
0.0
  0
LINE
  5
F73D
  8
1DIM
 10
647.18766516632354
 20
-2176.236948652841
 30
0.0
 11
647.18766516632354
 21
-2147.4369486528399
 31
0.0
  0
LINE
  5
F73E
  8
1DIM
 10
687.18766516632365
 20
-2176.236948652841
 30
0.0
 11
687.18766516632365
 21
-2147.4369486528399
 31
0.0
  0
LINE
  5
F73F
  8
1DIM
 10
649.78766516632356
 20
-2148.736948652841
 30
0.0
 11
684.58766516632363
 21
-2148.736948652841
 31
0.0
  0
LINE
  5
F743
  8
1DIM
 10
984.18767316632545
 20
-2156.736948652841
 30
0.0
 11
984.18767316632545
 21
-2147.4369486528399
 31
0.0
  0
LINE
  5
F744
  8
1DIM
 10
1024.1876731663251
 20
-2156.736948652841
 30
0.0
 11
1024.1876731663251
 21
-2147.4369486528399
 31
0.0
  0
LINE
  5
F745
  8
1DIM
 10
986.78767316632559
 20
-2148.736948652841
 30
0.0
 11
1021.587673166325
 21
-2148.736948652841
 31
0.0
  0
LINE
  5
F749
  8
1DIM
 10
1023.188549348385
 20
-1948.7369486538689
 30
0.0
 11
1050.4876651663251
 21
-1948.7369486538689
 31
0.0
  0
LINE
  5
F74A
  8
1DIM
 10
1023.188549348385
 20
-1967.7369486538689
 30
0.0
 11
1050.4876651663251
 21
-1967.7369486538689
 31
0.0
  0
LINE
  5
F74B
  8
1DIM
 10
1049.1876651663249
 20
-1951.3369486538691
 30
0.0
 11
1049.1876651663249
 21
-1965.136948653869
 31
0.0
  0
LINE
  5
F74F
  8
1DIM
 10
953.18766516632502
 20
-2145.736948652841
 30
0.0
 11
953.18766516632502
 21
-2124.4369486528399
 31
0.0
  0
LINE
  5
F750
  8
1DIM
 10
1004.187673166325
 20
-2153.736948652841
 30
0.0
 11
1004.187673166325
 21
-2124.4369486528399
 31
0.0
  0
LINE
  5
F751
  8
1DIM
 10
955.78766516632493
 20
-2125.736948652841
 30
0.0
 11
1001.587673166325
 21
-2125.736948652841
 31
0.0
  0
LINE
  5
F755
  8
1DIM
 10
1022.187665166325
 20
-2173.736948652841
 30
0.0
 11
1022.187665166325
 21
-2114.4369486528408
 31
0.0
  0
LINE
  5
F756
  8
1DIM
 10
953.18766516632502
 20
-2145.736948652841
 30
0.0
 11
953.18766516632502
 21
-2114.4369486528408
 31
0.0
  0
LINE
  5
F757
  8
1DIM
 10
1019.587665166325
 20
-2115.736948652841
 30
0.0
 11
955.78766516632493
 21
-2115.736948652841
 31
0.0
  0
LINE
  5
F75B
  8
1DIM
 10
942.18766516632479
 20
-2203.7369493509718
 30
0.0
 11
942.18766516632479
 21
-2124.4369486528399
 31
0.0
  0
LINE
  5
F75C
  8
1DIM
 10
953.18766516632502
 20
-2145.736948652841
 30
0.0
 11
953.18766516632502
 21
-2124.4369486528399
 31
0.0
  0
LINE
  5
F75D
  8
1DIM
 10
944.78766516632481
 20
-2125.736948652841
 30
0.0
 11
950.58766516632477
 21
-2125.736948652841
 31
0.0
  0
LINE
  5
F761
  8
1DIM
 10
823.18766916632433
 20
-2151.736948652841
 30
0.0
 11
823.18766916632433
 21
-2124.4369486528399
 31
0.0
  0
LINE
  5
F762
  8
1DIM
 10
848.18766916632433
 20
-2151.736948652841
 30
0.0
 11
848.18766916632433
 21
-2124.4369486528399
 31
0.0
  0
LINE
  5
F763
  8
1DIM
 10
825.78766916632446
 20
-2125.736948652841
 30
0.0
 11
845.5876691663243
 21
-2125.736948652841
 31
0.0
  0
TEXT
  5
F767
  8
1DIM
 10
831.8960024996577
 20
-2124.8269486528411
 30
0.0
 40
4.5499999999999989
  1
25
  0
LINE
  5
F768
  8
0
  6
BYBLOCK
 10
845.5876691663243
 20
-2125.0402807588412
 30
0.0
 11
848.18766916632433
 21
-2125.736948652841
 31
0.0
  0
LINE
  5
F769
  8
0
  6
BYBLOCK
 10
848.18766916632433
 20
-2125.736948652841
 30
0.0
 11
845.5876691663243
 21
-2126.4336165468399
 31
0.0
  0
LINE
  5
F76A
  8
0
  6
BYBLOCK
 10
848.18766916632433
 20
-2125.736948652841
 30
0.0
 11
845.5876691663243
 21
-2125.736948652841
 31
0.0
  0
LINE
  5
F76B
  8
0
  6
BYBLOCK
 10
825.78766916632446
 20
-2126.4336165468399
 30
0.0
 11
823.18766916632433
 21
-2125.736948652841
 31
0.0
  0
LINE
  5
F76C
  8
0
  6
BYBLOCK
 10
823.18766916632433
 20
-2125.736948652841
 30
0.0
 11
825.78766916632446
 21
-2125.0402807588412
 31
0.0
  0
LINE
  5
F76D
  8
0
  6
BYBLOCK
 10
823.18766916632433
 20
-2125.736948652841
 30
0.0
 11
825.78766916632446
 21
-2125.736948652841
 31
0.0
  0
TEXT
  5
F76E
  8
1DIM
 10
945.41266516632504
 20
-2124.8269486528411
 30
0.0
 40
4.5499999999999989
  1
11
  0
LINE
  5
F76F
  8
0
  6
BYBLOCK
 10
950.58766516632477
 20
-2125.0402807588412
 30
0.0
 11
953.18766516632502
 21
-2125.736948652841
 31
0.0
  0
LINE
  5
F770
  8
0
  6
BYBLOCK
 10
953.18766516632502
 20
-2125.736948652841
 30
0.0
 11
950.58766516632477
 21
-2126.4336165468399
 31
0.0
  0
LINE
  5
F771
  8
0
  6
BYBLOCK
 10
953.18766516632502
 20
-2125.736948652841
 30
0.0
 11
950.58766516632477
 21
-2125.736948652841
 31
0.0
  0
LINE
  5
F772
  8
0
  6
BYBLOCK
 10
944.78766516632481
 20
-2126.4336165468399
 30
0.0
 11
942.18766516632479
 21
-2125.736948652841
 31
0.0
  0
LINE
  5
F773
  8
0
  6
BYBLOCK
 10
942.18766516632479
 20
-2125.736948652841
 30
0.0
 11
944.78766516632481
 21
-2125.0402807588412
 31
0.0
  0
LINE
  5
F774
  8
0
  6
BYBLOCK
 10
942.18766516632479
 20
-2125.736948652841
 30
0.0
 11
944.78766516632481
 21
-2125.736948652841
 31
0.0
  0
TEXT
  5
F775
  8
1DIM
 10
983.89599849965816
 20
-2114.8269486528411
 30
0.0
 40
4.5499999999999989
  1
69
  0
LINE
  5
F776
  8
0
  6
BYBLOCK
 10
955.78766516632493
 20
-2116.4336165468399
 30
0.0
 11
953.18766516632502
 21
-2115.736948652841
 31
0.0
  0
LINE
  5
F777
  8
0
  6
BYBLOCK
 10
953.18766516632502
 20
-2115.736948652841
 30
0.0
 11
955.78766516632493
 21
-2115.0402807588412
 31
0.0
  0
LINE
  5
F778
  8
0
  6
BYBLOCK
 10
953.18766516632502
 20
-2115.736948652841
 30
0.0
 11
955.78766516632493
 21
-2115.736948652841
 31
0.0
  0
LINE
  5
F779
  8
0
  6
BYBLOCK
 10
1019.587665166325
 20
-2115.0402807588412
 30
0.0
 11
1022.187665166325
 21
-2115.736948652841
 31
0.0
  0
LINE
  5
F77A
  8
0
  6
BYBLOCK
 10
1022.187665166325
 20
-2115.736948652841
 30
0.0
 11
1019.587665166325
 21
-2116.4336165468399
 31
0.0
  0
LINE
  5
F77B
  8
0
  6
BYBLOCK
 10
1022.187665166325
 20
-2115.736948652841
 30
0.0
 11
1019.587665166325
 21
-2115.736948652841
 31
0.0
  0
TEXT
  5
F77C
  8
1DIM
 10
975.65433583299193
 20
-2124.8269486528411
 30
0.0
 40
4.5499999999999989
  1
51
  0
LINE
  5
F77D
  8
0
  6
BYBLOCK
 10
1001.587673166325
 20
-2125.0402807588412
 30
0.0
 11
1004.187673166325
 21
-2125.736948652841
 31
0.0
  0
LINE
  5
F77E
  8
0
  6
BYBLOCK
 10
1004.187673166325
 20
-2125.736948652841
 30
0.0
 11
1001.587673166325
 21
-2126.4336165468399
 31
0.0
  0
LINE
  5
F77F
  8
0
  6
BYBLOCK
 10
1004.187673166325
 20
-2125.736948652841
 30
0.0
 11
1001.587673166325
 21
-2125.736948652841
 31
0.0
  0
LINE
  5
F780
  8
0
  6
BYBLOCK
 10
955.78766516632493
 20
-2126.4336165468399
 30
0.0
 11
953.18766516632502
 21
-2125.736948652841
 31
0.0
  0
LINE
  5
F781
  8
0
  6
BYBLOCK
 10
953.18766516632502
 20
-2125.736948652841
 30
0.0
 11
955.78766516632493
 21
-2125.0402807588412
 31
0.0
  0
LINE
  5
F782
  8
0
  6
BYBLOCK
 10
953.18766516632502
 20
-2125.736948652841
 30
0.0
 11
955.78766516632493
 21
-2125.736948652841
 31
0.0
  0
TEXT
  5
F783
  8
1DIM
 10
1048.2776651663251
 20
-1961.270281987202
 30
0.0
 40
4.5499999999999989
  1
19
 50
90.0
  0
LINE
  5
F784
  8
0
  6
BYBLOCK
 10
1049.8843330603249
 20
-1965.136948653869
 30
0.0
 11
1049.1876651663249
 21
-1967.7369486538689
 31
0.0
  0
LINE
  5
F785
  8
0
  6
BYBLOCK
 10
1049.1876651663249
 20
-1967.7369486538689
 30
0.0
 11
1048.4909972723251
 21
-1965.136948653869
 31
0.0
  0
LINE
  5
F786
  8
0
  6
BYBLOCK
 10
1049.1876651663249
 20
-1967.7369486538689
 30
0.0
 11
1049.1876651663249
 21
-1965.136948653869
 31
0.0
  0
LINE
  5
F787
  8
0
  6
BYBLOCK
 10
1048.4909972723251
 20
-1951.3369486538691
 30
0.0
 11
1049.1876651663249
 21
-1948.7369486538689
 31
0.0
  0
LINE
  5
F788
  8
0
  6
BYBLOCK
 10
1049.1876651663249
 20
-1948.7369486538689
 30
0.0
 11
1049.8843330603249
 21
-1951.3369486538691
 31
0.0
  0
LINE
  5
F789
  8
0
  6
BYBLOCK
 10
1049.1876651663249
 20
-1948.7369486538689
 30
0.0
 11
1049.1876651663249
 21
-1951.3369486538691
 31
0.0
  0
TEXT
  5
F78A
  8
1DIM
 10
997.74183983299224
 20
-2147.8269486528411
 30
0.0
 40
4.5499999999999989
  1
□40
  0
LINE
  5
F78B
  8
0
  6
BYBLOCK
 10
1021.587673166325
 20
-2148.0402807588412
 30
0.0
 11
1024.1876731663251
 21
-2148.736948652841
 31
0.0
  0
LINE
  5
F78C
  8
0
  6
BYBLOCK
 10
1024.1876731663251
 20
-2148.736948652841
 30
0.0
 11
1021.587673166325
 21
-2149.4336165468399
 31
0.0
  0
LINE
  5
F78D
  8
0
  6
BYBLOCK
 10
1024.1876731663251
 20
-2148.736948652841
 30
0.0
 11
1021.587673166325
 21
-2148.736948652841
 31
0.0
  0
LINE
  5
F78E
  8
0
  6
BYBLOCK
 10
986.78767316632559
 20
-2149.4336165468399
 30
0.0
 11
984.18767316632545
 21
-2148.736948652841
 31
0.0
  0
LINE
  5
F78F
  8
0
  6
BYBLOCK
 10
984.18767316632545
 20
-2148.736948652841
 30
0.0
 11
986.78767316632559
 21
-2148.0402807588412
 31
0.0
  0
LINE
  5
F790
  8
0
  6
BYBLOCK
 10
984.18767316632545
 20
-2148.736948652841
 30
0.0
 11
986.78767316632559
 21
-2148.736948652841
 31
0.0
  0
TEXT
  5
F791
  8
1DIM
 10
660.74183183299021
 20
-2147.8269486528411
 30
0.0
 40
4.5499999999999989
  1
□40
  0
LINE
  5
F792
  8
0
  6
BYBLOCK
 10
684.58766516632363
 20
-2148.0402807588412
 30
0.0
 11
687.18766516632365
 21
-2148.736948652841
 31
0.0
  0
LINE
  5
F793
  8
0
  6
BYBLOCK
 10
687.18766516632365
 20
-2148.736948652841
 30
0.0
 11
684.58766516632363
 21
-2149.4336165468399
 31
0.0
  0
LINE
  5
F794
  8
0
  6
BYBLOCK
 10
687.18766516632365
 20
-2148.736948652841
 30
0.0
 11
684.58766516632363
 21
-2148.736948652841
 31
0.0
  0
LINE
  5
F795
  8
0
  6
BYBLOCK
 10
649.78766516632356
 20
-2149.4336165468399
 30
0.0
 11
647.18766516632354
 21
-2148.736948652841
 31
0.0
  0
LINE
  5
F796
  8
0
  6
BYBLOCK
 10
647.18766516632354
 20
-2148.736948652841
 30
0.0
 11
649.78766516632356
 21
-2148.0402807588412
 31
0.0
  0
LINE
  5
F797
  8
0
  6
BYBLOCK
 10
647.18766516632354
 20
-2148.736948652841
 30
0.0
 11
649.78766516632356
 21
-2148.736948652841
 31
0.0
  0
TEXT
  5
F798
  8
1DIM
 10
633.27768516632443
 20
-2198.2628668307352
 30
0.0
 40
4.5499999999999989
  1
50
 50
90.0
  0
LINE
  5
F799
  8
0
  6
BYBLOCK
 10
633.49101727232403
 20
-2184.3369486528409
 30
0.0
 11
634.18768516632394
 21
-2181.736948652841
 31
0.0
  0
LINE
  5
F79A
  8
0
  6
BYBLOCK
 10
634.18768516632394
 20
-2181.736948652841
 30
0.0
 11
634.88435306032397
 21
-2184.3369486528409
 31
0.0
  0
LINE
  5
F79B
  8
0
  6
BYBLOCK
 10
634.18768516632394
 20
-2181.736948652841
 30
0.0
 11
634.18768516632394
 21
-2184.3369486528409
 31
0.0
  0
LINE
  5
F79C
  8
0
  6
BYBLOCK
 10
634.88435306032397
 20
-2229.1369486528411
 30
0.0
 11
634.18768516632394
 21
-2231.736948652841
 31
0.0
  0
LINE
  5
F79D
  8
0
  6
BYBLOCK
 10
634.18768516632394
 20
-2231.736948652841
 30
0.0
 11
633.49101727232403
 21
-2229.1369486528411
 31
0.0
  0
LINE
  5
F79E
  8
0
  6
BYBLOCK
 10
634.18768516632394
 20
-2231.736948652841
 30
0.0
 11
634.18768516632394
 21
-2229.1369486528411
 31
0.0
  0
TEXT
  5
F79F
  8
1DIM
 10
623.27768516632443
 20
-2198.9253668307351
 30
0.0
 40
4.5499999999999989
  1
55.5
 50
90.0
  0
LINE
  5
F7A0
  8
0
  6
BYBLOCK
 10
623.49101727232403
 20
-2178.8369486528409
 30
0.0
 11
624.18768516632394
 21
-2176.236948652841
 31
0.0
  0
LINE
  5
F7A1
  8
0
  6
BYBLOCK
 10
624.18768516632394
 20
-2176.236948652841
 30
0.0
 11
624.88435306032409
 21
-2178.8369486528409
 31
0.0
  0
LINE
  5
F7A2
  8
0
  6
BYBLOCK
 10
624.18768516632394
 20
-2176.236948652841
 30
0.0
 11
624.18768516632394
 21
-2178.8369486528409
 31
0.0
  0
LINE
  5
F7A3
  8
0
  6
BYBLOCK
 10
624.88435306032409
 20
-2229.1369486528411
 30
0.0
 11
624.18768516632394
 21
-2231.736948652841
 31
0.0
  0
LINE
  5
F7A4
  8
0
  6
BYBLOCK
 10
624.18768516632394
 20
-2231.736948652841
 30
0.0
 11
623.49101727232403
 21
-2229.1369486528411
 31
0.0
  0
LINE
  5
F7A5
  8
0
  6
BYBLOCK
 10
624.18768516632394
 20
-2231.736948652841
 30
0.0
 11
624.18768516632394
 21
-2229.1369486528411
 31
0.0
  0
TEXT
  5
F7A6
  8
1DIM
 10
879.2812602028813
 20
-2197.4732279725258
 30
0.0
 40
4.5499999999999989
  1
114
 50
90.0
  0
LINE
  5
F7A7
  8
0
  6
BYBLOCK
 10
880.88792809688096
 20
-2265.1369486528411
 30
0.0
 11
880.19126020288081
 21
-2267.7369486528401
 31
0.0
  0
LINE
  5
F7A8
  8
0
  6
BYBLOCK
 10
880.19126020288081
 20
-2267.7369486528401
 30
0.0
 11
879.4945923088809
 21
-2265.1369486528411
 31
0.0
  0
LINE
  5
F7A9
  8
0
  6
BYBLOCK
 10
880.19126020288081
 20
-2267.7369486528401
 30
0.0
 11
880.19126020288081
 21
-2265.1369486528411
 31
0.0
  0
LINE
  5
F7AA
  8
0
  6
BYBLOCK
 10
879.4945923088809
 20
-2156.3369486528409
 30
0.0
 11
880.19126020288081
 21
-2153.736948652841
 31
0.0
  0
LINE
  5
F7AB
  8
0
  6
BYBLOCK
 10
880.19126020288081
 20
-2153.736948652841
 30
0.0
 11
880.88792809688096
 21
-2156.3369486528409
 31
0.0
  0
LINE
  5
F7AC
  8
0
  6
BYBLOCK
 10
880.19126020288081
 20
-2153.736948652841
 30
0.0
 11
880.19126020288081
 21
-2156.3369486528409
 31
0.0
  0
TEXT
  5
F7AD
  8
1DIM
 10
889.2812602028813
 20
-2197.8523946391929
 30
0.0
 40
4.5499999999999989
  1
130
 50
90.0
  0
LINE
  5
F7AE
  8
0
  6
BYBLOCK
 10
890.88792809688096
 20
-2273.1369486528411
 30
0.0
 11
890.19126020288104
 21
-2275.7369486528401
 31
0.0
  0
LINE
  5
F7AF
  8
0
  6
BYBLOCK
 10
890.19126020288104
 20
-2275.7369486528401
 30
0.0
 11
889.49459230888078
 21
-2273.1369486528411
 31
0.0
  0
LINE
  5
F7B0
  8
0
  6
BYBLOCK
 10
890.19126020288104
 20
-2275.7369486528401
 30
0.0
 11
890.19126020288104
 21
-2273.1369486528411
 31
0.0
  0
LINE
  5
F7B1
  8
0
  6
BYBLOCK
 10
889.49459230888078
 20
-2148.33694865284
 30
0.0
 11
890.19126020288104
 21
-2145.736948652841
 31
0.0
  0
LINE
  5
F7B2
  8
0
  6
BYBLOCK
 10
890.19126020288104
 20
-2145.736948652841
 30
0.0
 11
890.88792809688096
 21
-2148.33694865284
 31
0.0
  0
LINE
  5
F7B3
  8
0
  6
BYBLOCK
 10
890.19126020288104
 20
-2145.736948652841
 30
0.0
 11
890.19126020288104
 21
-2148.33694865284
 31
0.0
  0
TEXT
  5
F7B4
  8
1DIM
 10
963.27766516632505
 20
-2235.528615319507
 30
0.0
 40
4.5499999999999989
  1
55
 50
90.0
  0
LINE
  5
F7B5
  8
0
  6
BYBLOCK
 10
963.49099727232465
 20
-2206.83694865284
 30
0.0
 11
964.18766516632468
 21
-2204.236948652841
 31
0.0
  0
LINE
  5
F7B6
  8
0
  6
BYBLOCK
 10
964.18766516632468
 20
-2204.236948652841
 30
0.0
 11
964.88433306032471
 21
-2206.83694865284
 31
0.0
  0
LINE
  5
F7B7
  8
0
  6
BYBLOCK
 10
964.18766516632468
 20
-2204.236948652841
 30
0.0
 11
964.18766516632468
 21
-2206.83694865284
 31
0.0
  0
LINE
  5
F7B8
  8
0
  6
BYBLOCK
 10
964.88433306032471
 20
-2256.6369486528411
 30
0.0
 11
964.18766516632468
 21
-2259.236948652841
 31
0.0
  0
LINE
  5
F7B9
  8
0
  6
BYBLOCK
 10
964.18766516632468
 20
-2259.236948652841
 30
0.0
 11
963.49099727232465
 21
-2256.6369486528411
 31
0.0
  0
LINE
  5
F7BA
  8
0
  6
BYBLOCK
 10
964.18766516632468
 20
-2259.236948652841
 30
0.0
 11
964.18766516632468
 21
-2256.6369486528411
 31
0.0
  0
TEXT
  5
F7BB
  8
1DIM
 10
1101.2769228569291
 20
-2235.528615319507
 30
0.0
 40
4.5499999999999989
  1
58
 50
90.0
  0
LINE
  5
F7BC
  8
0
  6
BYBLOCK
 10
1101.4902549629289
 20
-2205.33694865284
 30
0.0
 11
1102.186922856929
 21
-2202.736948652841
 31
0.0
  0
LINE
  5
F7BD
  8
0
  6
BYBLOCK
 10
1102.186922856929
 20
-2202.736948652841
 30
0.0
 11
1102.883590750929
 21
-2205.33694865284
 31
0.0
  0
LINE
  5
F7BE
  8
0
  6
BYBLOCK
 10
1102.186922856929
 20
-2202.736948652841
 30
0.0
 11
1102.186922856929
 21
-2205.33694865284
 31
0.0
  0
LINE
  5
F7BF
  8
0
  6
BYBLOCK
 10
1102.883590750929
 20
-2258.1369486528411
 30
0.0
 11
1102.186922856929
 21
-2260.736948652841
 31
0.0
  0
LINE
  5
F7C0
  8
0
  6
BYBLOCK
 10
1102.186922856929
 20
-2260.736948652841
 30
0.0
 11
1101.4902549629289
 21
-2258.1369486528411
 31
0.0
  0
LINE
  5
F7C1
  8
0
  6
BYBLOCK
 10
1102.186922856929
 20
-2260.736948652841
 30
0.0
 11
1102.186922856929
 21
-2258.1369486528411
 31
0.0
  0
TEXT
  5
F7C2
  8
1DIM
 10
1085.3487331589099
 20
-1991.9961858133679
 30
0.0
 40
3.5
  1
22
 50
90.0
  0
LINE
  5
F7C3
  8
0
  6
BYBLOCK
 10
1085.51283477891
 20
-1980.2369486538689
 30
0.0
 11
1086.04873315891
 21
-1978.2369486538689
 31
0.0
  0
LINE
  5
F7C4
  8
0
  6
BYBLOCK
 10
1086.04873315891
 20
-1978.2369486538689
 30
0.0
 11
1086.5846315389099
 21
-1980.2369486538689
 31
0.0
  0
LINE
  5
F7C5
  8
0
  6
BYBLOCK
 10
1086.04873315891
 20
-1978.2369486538689
 30
0.0
 11
1086.04873315891
 21
-1980.2369486538689
 31
0.0
  0
LINE
  5
F7C6
  8
0
  6
BYBLOCK
 10
1086.5846315389099
 20
-1997.9220896395341
 30
0.0
 11
1086.04873315891
 21
-1999.9220896395341
 31
0.0
  0
LINE
  5
F7C7
  8
0
  6
BYBLOCK
 10
1086.04873315891
 20
-1999.9220896395341
 30
0.0
 11
1085.51283477891
 21
-1997.9220896395341
 31
0.0
  0
LINE
  5
F7C8
  8
0
  6
BYBLOCK
 10
1086.04873315891
 20
-1999.9220896395341
 30
0.0
 11
1086.04873315891
 21
-1997.9220896395341
 31
0.0
  0
TEXT
  5
F7C9
  8
1DIM
 10
1094.7458137008571
 20
-2007.1536153205359
 30
0.0
 40
3.5
  1
52
 50
90.0
  0
LINE
  5
F7CA
  8
0
  6
BYBLOCK
 10
1094.909915320857
 20
-1980.2369486538689
 30
0.0
 11
1095.4458137008569
 21
-1978.2369486538689
 31
0.0
  0
LINE
  5
F7CB
  8
0
  6
BYBLOCK
 10
1095.4458137008569
 20
-1978.2369486538689
 30
0.0
 11
1095.9817120808571
 21
-1980.2369486538689
 31
0.0
  0
LINE
  5
F7CC
  8
0
  6
BYBLOCK
 10
1095.4458137008569
 20
-1978.2369486538689
 30
0.0
 11
1095.4458137008569
 21
-1980.2369486538689
 31
0.0
  0
LINE
  5
F7CD
  8
0
  6
BYBLOCK
 10
1095.9817120808571
 20
-2028.2369486538689
 30
0.0
 11
1095.4458137008569
 21
-2030.2369486538701
 31
0.0
  0
LINE
  5
F7CE
  8
0
  6
BYBLOCK
 10
1095.4458137008569
 20
-2030.2369486538701
 30
0.0
 11
1094.909915320857
 21
-2028.2369486538689
 31
0.0
  0
LINE
  5
F7CF
  8
0
  6
BYBLOCK
 10
1095.4458137008569
 20
-2030.2369486538701
 30
0.0
 11
1095.4458137008569
 21
-2028.2369486538689
 31
0.0
  0
TEXT
  5
F7D0
  8
1DIM
 10
1103.7879629027509
 20
-2012.8632619925691
 30
0.0
 40
3.5
  1
63
 50
90.0
  0
LINE
  5
F7D1
  8
0
  6
BYBLOCK
 10
1105.0238612827511
 20
-2039.6562419979359
 30
0.0
 11
1104.487962902751
 21
-2041.6562419979359
 31
0.0
  0
LINE
  5
F7D2
  8
0
  6
BYBLOCK
 10
1104.487962902751
 20
-2041.6562419979359
 30
0.0
 11
1103.952064522751
 21
-2039.6562419979359
 31
0.0
  0
LINE
  5
F7D3
  8
0
  6
BYBLOCK
 10
1104.487962902751
 20
-2041.6562419979359
 30
0.0
 11
1104.487962902751
 21
-2039.6562419979359
 31
0.0
  0
LINE
  5
F7D4
  8
0
  6
BYBLOCK
 10
1103.952064522751
 20
-1980.2369486538689
 30
0.0
 11
1104.487962902751
 21
-1978.2369486538689
 31
0.0
  0
LINE
  5
F7D5
  8
0
  6
BYBLOCK
 10
1104.487962902751
 20
-1978.2369486538689
 30
0.0
 11
1105.0238612827511
 21
-1980.2369486538689
 31
0.0
  0
LINE
  5
F7D6
  8
0
  6
BYBLOCK
 10
1104.487962902751
 20
-1978.2369486538689
 30
0.0
 11
1104.487962902751
 21
-1980.2369486538689
 31
0.0
  0
TEXT
  5
F7D7
  8
1DIM
 10
1035.2711147732989
 20
-2059.5369486538689
 30
0.0
 40
3.5
  1
68
  0
LINE
  5
F7D8
  8
0
  6
BYBLOCK
 10
1070.187781439965
 20
-2059.701050273869
 30
0.0
 11
1072.187781439965
 21
-2060.2369486538691
 31
0.0
  0
LINE
  5
F7D9
  8
0
  6
BYBLOCK
 10
1072.187781439965
 20
-2060.2369486538691
 30
0.0
 11
1070.187781439965
 21
-2060.7728470338689
 31
0.0
  0
LINE
  5
F7DA
  8
0
  6
BYBLOCK
 10
1072.187781439965
 20
-2060.2369486538691
 30
0.0
 11
1070.187781439965
 21
-2060.2369486538691
 31
0.0
  0
LINE
  5
F7DB
  8
0
  6
BYBLOCK
 10
1006.187781439966
 20
-2060.7728470338689
 30
0.0
 11
1004.187781439966
 21
-2060.2369486538691
 31
0.0
  0
LINE
  5
F7DC
  8
0
  6
BYBLOCK
 10
1004.187781439966
 20
-2060.2369486538691
 30
0.0
 11
1006.187781439966
 21
-2059.701050273869
 31
0.0
  0
LINE
  5
F7DD
  8
0
  6
BYBLOCK
 10
1004.187781439966
 20
-2060.2369486538691
 30
0.0
 11
1006.187781439966
 21
-2060.2369486538691
 31
0.0
  0
TEXT
  5
F7DE
  8
1DIM
 10
1022.271114773298
 20
-2069.5369486538689
 30
0.0
 40
3.5
  1
94
  0
LINE
  5
F7DF
  8
0
  6
BYBLOCK
 10
980.18778143996485
 20
-2070.7728470338689
 30
0.0
 11
978.18778143996485
 21
-2070.2369486538691
 31
0.0
  0
LINE
  5
F7E0
  8
0
  6
BYBLOCK
 10
978.18778143996485
 20
-2070.2369486538691
 30
0.0
 11
980.18778143996485
 21
-2069.701050273869
 31
0.0
  0
LINE
  5
F7E1
  8
0
  6
BYBLOCK
 10
978.18778143996485
 20
-2070.2369486538691
 30
0.0
 11
980.18778143996485
 21
-2070.2369486538691
 31
0.0
  0
LINE
  5
F7E2
  8
0
  6
BYBLOCK
 10
1070.187781439965
 20
-2069.701050273869
 30
0.0
 11
1072.187781439965
 21
-2070.2369486538691
 31
0.0
  0
LINE
  5
F7E3
  8
0
  6
BYBLOCK
 10
1072.187781439965
 20
-2070.2369486538691
 30
0.0
 11
1070.187781439965
 21
-2070.7728470338689
 31
0.0
  0
LINE
  5
F7E4
  8
0
  6
BYBLOCK
 10
1072.187781439965
 20
-2070.2369486538691
 30
0.0
 11
1070.187781439965
 21
-2070.2369486538691
 31
0.0
  0
TEXT
  5
F7E5
  8
1DIM
 10
1048.2776651663251
 20
-2197.913698529615
 30
0.0
 40
4.5499999999999989
  1
74
 50
90.0
  0
LINE
  5
F7E6
  8
0
  6
BYBLOCK
 10
1049.884333060324
 20
-2245.136948652842
 30
0.0
 11
1049.1876651663249
 21
-2247.736948652841
 31
0.0
  0
LINE
  5
F7E7
  8
0
  6
BYBLOCK
 10
1049.1876651663249
 20
-2247.736948652841
 30
0.0
 11
1048.490997272324
 21
-2245.136948652842
 31
0.0
  0
LINE
  5
F7E8
  8
0
  6
BYBLOCK
 10
1049.1876651663249
 20
-2247.736948652841
 30
0.0
 11
1049.1876651663249
 21
-2245.136948652842
 31
0.0
  0
LINE
  5
F7E9
  8
0
  6
BYBLOCK
 10
1048.490997272324
 20
-2176.3369486528418
 30
0.0
 11
1049.1876651663249
 21
-2173.736948652841
 31
0.0
  0
LINE
  5
F7EA
  8
0
  6
BYBLOCK
 10
1049.1876651663249
 20
-2173.736948652841
 30
0.0
 11
1049.884333060324
 21
-2176.3369486528418
 31
0.0
  0
LINE
  5
F7EB
  8
0
  6
BYBLOCK
 10
1049.1876651663249
 20
-2173.736948652841
 30
0.0
 11
1049.1876651663249
 21
-2176.3369486528418
 31
0.0
  0
LINE
  5
F7EC
  8
1HATCH
 10
1040.432760038432
 20
-1896.1491315963569
 30
0.0
 11
1055.6482892472779
 21
-1918.4699940794101
 31
0.0
  0
LINE
  5
F7ED
  8
1HATCH
 10
1055.6482892472779
 20
-1918.4699940794101
 30
0.0
 11
1095.214955913945
 21
-1918.4699940794101
 31
0.0
  0
LINE
  5
F7EE
  8
1HATCH
 10
1014.264248325698
 20
-1886.700361463051
 30
0.0
 11
1029.968445872179
 21
-1869.2491769889821
 31
0.0
  0
LINE
  5
F7EF
  8
1HATCH
 10
1029.968445872179
 20
-1869.2491769889821
 30
0.0
 11
1077.935112538845
 21
-1869.2491769889821
 31
0.0
  0
TEXT
  5
F7F0
  8
1DIM
 10
800.89580971679936
 20
-2124.8269486528411
 30
0.0
 40
4.5499999999999989
  1
22
  0
LINE
  5
F7F1
  8
0
  6
BYBLOCK
 10
796.28728360060779
 20
-2126.4336165468399
 30
0.0
 11
793.68728360060766
 21
-2125.736948652841
 31
0.0
  0
LINE
  5
F7F2
  8
0
  6
BYBLOCK
 10
793.68728360060766
 20
-2125.736948652841
 30
0.0
 11
796.28728360060779
 21
-2125.0402807588412
 31
0.0
  0
LINE
  5
F7F3
  8
0
  6
BYBLOCK
 10
793.68728360060766
 20
-2125.736948652841
 30
0.0
 11
796.28728360060779
 21
-2125.736948652841
 31
0.0
  0
LINE
  5
F7F4
  8
0
  6
BYBLOCK
 10
813.08766916632442
 20
-2125.0402807588412
 30
0.0
 11
815.68766916632444
 21
-2125.736948652841
 31
0.0
  0
LINE
  5
F7F5
  8
0
  6
BYBLOCK
 10
815.68766916632444
 20
-2125.736948652841
 30
0.0
 11
813.08766916632442
 21
-2126.4336165468399
 31
0.0
  0
LINE
  5
F7F6
  8
0
  6
BYBLOCK
 10
815.68766916632444
 20
-2125.736948652841
 30
0.0
 11
813.08766916632442
 21
-2125.736948652841
 31
0.0
  0
TEXT
  5
F7F7
  8
1DIM
 10
858.17088750465916
 20
-2124.8269486528411
 30
0.0
 40
4.5499999999999989
  1
8
  0
LINE
  5
F7F8
  8
0
  6
BYBLOCK
 10
861.08743917632728
 20
-2125.0402807588412
 30
0.0
 11
863.68743917632742
 21
-2125.736948652841
 31
0.0
  0
LINE
  5
F7F9
  8
0
  6
BYBLOCK
 10
863.68743917632742
 20
-2125.736948652841
 30
0.0
 11
861.08743917632728
 21
-2126.4336165468399
 31
0.0
  0
LINE
  5
F7FA
  8
0
  6
BYBLOCK
 10
863.68743917632742
 20
-2125.736948652841
 30
0.0
 11
861.08743917632728
 21
-2125.736948652841
 31
0.0
  0
LINE
  5
F7FB
  8
0
  6
BYBLOCK
 10
858.28766916632435
 20
-2126.4336165468399
 30
0.0
 11
855.68766916632444
 21
-2125.736948652841
 31
0.0
  0
LINE
  5
F7FC
  8
0
  6
BYBLOCK
 10
855.68766916632444
 20
-2125.736948652841
 30
0.0
 11
858.28766916632435
 21
-2125.0402807588412
 31
0.0
  0
LINE
  5
F7FD
  8
0
  6
BYBLOCK
 10
855.68766916632444
 20
-2125.736948652841
 30
0.0
 11
858.28766916632435
 21
-2125.736948652841
 31
0.0
  0
VIEWPORT
  5
57
 67
     1
  8
0
 10
3.0425403512887779
 20
24.53655327128299
 30
0.0
 40
420.12829836503658
 41
297.46583982453041
 68
     1
 69
     1
1001
ACAD
1000
MVIEW
1002
{
1070
    16
1010
0.0
1020
0.0
1030
0.0
1010
0.0
1020
0.0
1030
1.0
1040
0.0
1040
297.46583982453041
1040
3.0425403512887779
1040
24.53655327128299
1040
50.0
1040
0.0
1040
0.0
1070
     0
1070
   100
1070
     1
1070
     1
1070
     0
1070
     0
1070
     0
1070
     0
1040
0.0
1040
0.0
1040
0.0
1040
10.0
1040
10.0
1040
10.0
1040
10.0
1070
     0
1002
{
1002
}
1002
}
  0
ENDSEC
  0
EOF
