  0
SECTION
  2
HEADER
  9
$ACADVER
  1
AC1009
  9
$INSBASE
 10
0.0
 20
0.0
 30
0.0
  9
$EXTMIN
 10
540.8903612036188
 20
-2286.5728886528409
 30
-0.0000000000001137
  9
$EXTMAX
 10
1153.487781506069
 20
-1884.7369486538689
 30
0.0000000000562575
  9
$LIMMIN
 10
0.0
 20
0.0
  9
$LIMMAX
 10
420.0
 20
297.0
  9
$ORTHOMODE
 70
     0
  9
$REGENMODE
 70
     1
  9
$FILLMODE
 70
     1
  9
$QTEXTMODE
 70
     0
  9
$MIRRTEXT
 70
     0
  9
$DRAGMODE
 70
     2
  9
$LTSCALE
 40
0.5
  9
$OSMODE
 70
  2175
  9
$ATTMODE
 70
     1
  9
$TEXTSIZE
 40
4.0
  9
$TRACEWID
 40
1.0
  9
$TEXTSTYLE
  7
STANDARD
  9
$CLAYER
  8
1TEXT
  9
$CELTYPE
  6
BYLAYER
  9
$CECOLOR
 62
   256
  9
$DIMSCALE
 40
1.0
  9
$DIMASZ
 40
2.0
  9
$DIMEXO
 40
0.0
  9
$DIMDLI
 40
7.0
  9
$DIMRND
 40
0.0
  9
$DIMDLE
 40
0.0
  9
$DIMEXE
 40
1.0
  9
$DIMTP
 40
0.0
  9
$DIMTM
 40
0.0
  9
$DIMTXT
 40
3.5
  9
$DIMCEN
 40
0.0
  9
$DIMTSZ
 40
0.0
  9
$DIMTOL
 70
     0
  9
$DIMLIM
 70
     0
  9
$DIMTIH
 70
     0
  9
$DIMTOH
 70
     0
  9
$DIMSE1
 70
     0
  9
$DIMSE2
 70
     0
  9
$DIMTAD
 70
     1
  9
$DIMZIN
 70
     8
  9
$DIMBLK
  1

  9
$DIMASO
 70
     1
  9
$DIMSHO
 70
     1
  9
$DIMPOST
  1
 
  9
$DIMAPOST
  1

  9
$DIMALT
 70
     0
  9
$DIMALTD
 70
     2
  9
$DIMALTF
 40
25.399999999999999
  9
$DIMLFAC
 40
1.0
  9
$DIMTOFL
 70
     1
  9
$DIMTVP
 40
0.0
  9
$DIMTIX
 70
     0
  9
$DIMSOXD
 70
     0
  9
$DIMSAH
 70
     1
  9
$DIMBLK1
  1
OPEN30
  9
$DIMBLK2
  1
OPEN30
  9
$DIMSTYLE
  2
NEWX10
  9
$DIMCLRD
 70
   256
  9
$DIMCLRE
 70
   256
  9
$DIMCLRT
 70
   201
  9
$DIMTFAC
 40
0.7
  9
$DIMGAP
 40
0.7
  9
$LUNITS
 70
     2
  9
$LUPREC
 70
     4
  9
$SKETCHINC
 40
1.0
  9
$FILLETRAD
 40
0.0
  9
$AUNITS
 70
     0
  9
$AUPREC
 70
     2
  9
$MENU
  1
acad
  9
$ELEVATION
 40
0.0
  9
$PELEVATION
 40
0.0
  9
$THICKNESS
 40
0.0
  9
$LIMCHECK
 70
     0
  9
$BLIPMODE
 70
     0
  9
$CHAMFERA
 40
10.0
  9
$CHAMFERB
 40
10.0
  9
$SKPOLY
 70
     0
  9
$TDCREATE
 40
2451318.621352917
  9
$TDUPDATE
 40
2456016.8148511578
  9
$TDINDWG
 40
0.454842037
  9
$TDUSRTIMER
 40
0.454842037
  9
$USRTIMER
 70
     1
  9
$ANGBASE
 50
0.0
  9
$ANGDIR
 70
     0
  9
$PDMODE
 70
     0
  9
$PDSIZE
 40
0.0
  9
$PLINEWID
 40
0.0
  9
$COORDS
 70
     2
  9
$SPLFRAME
 70
     0
  9
$SPLINETYPE
 70
     6
  9
$SPLINESEGS
 70
     8
  9
$ATTDIA
 70
     0
  9
$ATTREQ
 70
     1
  9
$HANDLING
 70
     1
  9
$HANDSEED
  5
EFA4
  9
$SURFTAB1
 70
     6
  9
$SURFTAB2
 70
     6
  9
$SURFTYPE
 70
     6
  9
$SURFU
 70
     6
  9
$SURFV
 70
     6
  9
$UCSNAME
  2

  9
$UCSORG
 10
0.0
 20
0.0
 30
0.0
  9
$UCSXDIR
 10
1.0
 20
0.0
 30
0.0
  9
$UCSYDIR
 10
0.0
 20
1.0
 30
0.0
  9
$PUCSNAME
  2

  9
$PUCSORG
 10
0.0
 20
0.0
 30
0.0
  9
$PUCSXDIR
 10
1.0
 20
0.0
 30
0.0
  9
$PUCSYDIR
 10
0.0
 20
1.0
 30
0.0
  9
$USERI1
 70
     0
  9
$USERI2
 70
     0
  9
$USERI3
 70
     0
  9
$USERI4
 70
     0
  9
$USERI5
 70
     0
  9
$USERR1
 40
0.0
  9
$USERR2
 40
0.0
  9
$USERR3
 40
0.0
  9
$USERR4
 40
0.0
  9
$USERR5
 40
0.0
  9
$WORLDVIEW
 70
     1
  9
$SHADEDGE
 70
     3
  9
$SHADEDIF
 70
    70
  9
$TILEMODE
 70
     1
  9
$MAXACTVP
 70
    48
  9
$PLIMCHECK
 70
     0
  9
$PEXTMIN
 10
1.0000000000000000E+020
 20
1.0000000000000000E+020
 30
1.0000000000000000E+020
  9
$PEXTMAX
 10
-1.0000000000000000E+020
 20
-1.0000000000000000E+020
 30
-1.0000000000000000E+020
  9
$PLIMMIN
 10
0.0
 20
0.0
  9
$PLIMMAX
 10
420.0
 20
297.0
  9
$UNITMODE
 70
     0
  9
$VISRETAIN
 70
     1
  9
$PLINEGEN
 70
     0
  9
$PSLTSCALE
 70
     1
  0
ENDSEC
  0
SECTION
  2
TABLES
  0
TABLE
  2
VPORT
 70
     1
  0
VPORT
  2
*ACTIVE
 70
     0
 10
0.0
 20
0.0
 11
1.0
 21
1.0
 12
847.18059667774332
 22
-2085.5985402435422
 13
0.0
 23
0.0
 14
10.0
 24
10.0
 15
10.0
 25
10.0
 16
0.0
 26
0.0
 36
1.0
 17
0.0
 27
0.0
 37
0.0
 40
426.72513112810628
 41
1.53950953678474
 42
50.0
 43
0.0
 44
0.0
 50
0.0
 51
0.0
 71
     0
 72
   100
 73
     1
 74
     1
 75
     0
 76
     0
 77
     0
 78
     0
  0
ENDTAB
  0
TABLE
  2
LTYPE
 70
    12
  0
LTYPE
  2
CONTINUOUS
 70
     0
  3
Solid line
 72
    65
 73
     0
 40
0.0
  0
LTYPE
  2
XREF1|CENTER2
 70
    48
  3
Center (.5x) ___ _ ___ _ ___ _ ___ _ ___ _ ___
 72
    65
 73
     4
 40
28.574999999999999
 49
19.050000000000001
 49
-3.1749999999999989
 49
3.1749999999999989
 49
-3.1749999999999989
  0
LTYPE
  2
A3WAKUDAKE|CENTER2
 70
    48
  3
Center (.5x) ___ _ ___ _ ___ _ ___ _ ___ _ ___
 72
    65
 73
     4
 40
28.574999999999999
 49
19.050000000000001
 49
-3.1749999999999989
 49
3.1749999999999989
 49
-3.1749999999999989
  0
ENDTAB
  0
TABLE
  2
LAYER
 70
    36
  0
LAYER
  2
0
 70
     0
 62
     7
  6
CONTINUOUS
  0
LAYER
  2
1TEXT
 70
     0
 62
     7
  6
CONTINUOUS
  0
LAYER
  2
01
 70
     0
 62
     1
  6
CONTINUOUS
  0
LAYER
  2
A3WAKUDAKE|THICK
 70
    48
 62
     7
  6
CONTINUOUS
  0
LAYER
  2
A3WAKUDAKE|POINT
 70
    48
 62
     7
  6
CONTINUOUS
  0
LAYER
  2
A3WAKUDAKE|1CENTER
 70
    48
 62
     7
  6
A3WAKUDAKE|CENTER2
  0
LAYER
  2
A3WAKUDAKE|0-6
 70
    48
 62
     7
  6
CONTINUOUS
  0
LAYER
  2
A3WAKUDAKE|1DIM
 70
    48
 62
     7
  6
CONTINUOUS
  0
LAYER
  2
XREF1|1CENTER
 70
    48
 62
     7
  6
XREF1|CENTER2
  0
ENDTAB
  0
TABLE
  2
STYLE
 70
     4
  0
STYLE
  2
STANDARD
 70
     0
 40
0.0
 41
1.0
 50
0.0
 71
     0
 42
4.0
  3
romans.shx
  4
extfont2.shx
  0
ENDTAB
  0
TABLE
  2
VIEW
 70
     5
  0
ENDTAB
  0
TABLE
  2
UCS
 70
     0
  0
ENDTAB
  0
TABLE
  2
APPID
 70
     9
  0
APPID
  2
ACAD
 70
     0
  0
APPID
  2
DRAWINGVARIABLESXDATA
 70
     0
  0
APPID
  2
CONTENTTABDATA
 70
     0
  0
APPID
  2
CONTENTCURRENTTAB
 70
     0
  0
APPID
  2
CONTENTBLOCKDESCRIPTION
 70
     0
  0
APPID
  2
CONTENTBLOCKICON
 70
     0
  0
APPID
  2
CONTENTLONGBLOCKNAME
 70
     0
  0
APPID
  2
ACAD_PSEXT
 70
     0
  0
APPID
  2
ACAD_MLEADERVER
 70
     0
  0
ENDTAB
  0
TABLE
  2
DIMSTYLE
 70
     5
  0
DIMSTYLE
  2
NEWX10
 70
     0
  3
 
  4

  5

  6
OPEN30
  7
OPEN30
 40
1.0
 41
2.0
 42
0.0
 43
7.0
 44
1.0
 45
0.0
 46
0.0
 47
0.0
 48
0.0
140
3.5
141
0.0
142
0.0
143
25.399999999999999
144
1.0
145
0.0
146
0.7
147
0.7
 71
     0
 72
     0
 73
     0
 74
     0
 75
     0
 76
     0
 77
     1
 78
     8
170
     0
171
     2
172
     1
173
     1
174
     0
175
     0
176
   256
177
   256
178
   201
  0
ENDTAB
  0
ENDSEC
  0
SECTION
  2
BLOCKS
  0
BLOCK
  8
0
  2
$MODEL_SPACE
 70
     0
 10
0.0
 20
0.0
 30
0.0
  3
$MODEL_SPACE
  1

  0
ENDBLK
  5
1A
  8
0
  0
BLOCK
 67
     1
  8
0
  2
$PAPER_SPACE
 70
     0
 10
0.0
 20
0.0
 30
0.0
  3
$PAPER_SPACE
  1

  0
ENDBLK
  5
17
 67
     1
  8
0
  0
BLOCK
  8
0
  2
_OPEN30
 70
     0
 10
0.0
 20
0.0
 30
0.0
  3
_OPEN30
  1

  0
LINE
  5
44
  8
0
  6
BYBLOCK
 62
     0
 10
-1.0
 20
0.26794919
 30
0.0
 11
0.0
 21
0.0
 31
0.0
  0
LINE
  5
45
  8
0
  6
BYBLOCK
 62
     0
 10
0.0
 20
0.0
 30
0.0
 11
-1.0
 21
-0.26794919
 31
0.0
  0
LINE
  5
46
  8
0
  6
BYBLOCK
 62
     0
 10
0.0
 20
0.0
 30
0.0
 11
-1.0
 21
0.0
 31
0.0
  0
ENDBLK
  5
47
  8
0
  0
BLOCK
  8
0
  2
XREF1
 70
    36
 10
0.0
 20
0.0
 30
0.0
  3
XREF1
  1
D:\ACLT\FORMAT\KAWAJUN(9)図面用.dwg
  0
ENDBLK
  5
5D
  8
0
  0
BLOCK
  8
0
  2
A3WAKUDAKE
 70
    36
 10
0.0
 20
0.0
 30
0.0
  3
A3WAKUDAKE
  1
D:\ACLT\FORMAT\A3WAKUdake.dwg
  0
ENDBLK
  5
6A0
  8
0
  0
ENDSEC
  0
SECTION
  2
ENTITIES
  0
TEXT
  5
28A3
  8
01
 10
649.18768516632406
 20
-1946.7369486528401
 30
0.0
 40
20.0
  1
3-F3C-X-LW
  0
CIRCLE
  5
2AD7
  8
01
 10
1004.187665166324
 20
-2174.3369886528408
 30
0.0
 40
2.5
  0
LINE
  5
C4AF
  8
01
 10
649.18768516632497
 20
-1987.2369486528401
 30
0.0
 11
806.68768516632497
 21
-1987.236948652841
 31
0.0
  0
TEXT
  5
C4B0
  8
01
 10
650.88768516632535
 20
-1984.9869486528401
 30
0.0
 40
6.0
  1
表面処理：脚部
 72
     1
 11
675.28768516632545
 21
-1984.9869486528401
 31
0.0
  0
LINE
  5
C4B1
  8
01
 10
649.18768516632497
 20
-1976.7369486528401
 30
0.0
 11
806.68768516632497
 21
-1976.7369486528401
 31
0.0
  0
TEXT
  5
C4B2
  8
01
 10
770.28768516632545
 20
-1984.9869486528401
 30
0.0
 40
6.0
  1
コード
 72
     1
 11
780.28768516632545
 21
-1984.9869486528401
 31
0.0
  0
TEXT
  5
C4B3
  8
01
 10
703.38768516632535
 20
-1984.9869486528401
 30
0.0
 40
6.0
  1
表面処理：握り
 72
     1
 11
727.78768516632545
 21
-1984.9869486528401
 31
0.0
  0
LINE
  5
C4B4
  8
01
 10
701.68768516632451
 20
-2018.7369486528401
 30
0.0
 11
806.68768516632497
 21
-2018.7369486528401
 31
0.0
  0
TEXT
  5
C4B5
  8
01
 10
702.50768516632616
 20
-2006.3084841283139
 30
0.0
 40
6.0
  1
シャンパンゴールド
 41
0.8
 72
     1
 11
727.78768516632624
 21
-2006.3084841283139
 31
0.0
  0
LINE
  5
C4B6
  8
01
 10
701.68768516632497
 20
-1976.7369486528401
 30
0.0
 11
701.68768516632429
 21
-2029.2369486528401
 31
0.0
  0
LINE
  5
C4B7
  8
01
 10
754.18768516632406
 20
-1976.7369486528401
 30
0.0
 11
754.18768516632804
 21
-2029.2369486528351
 31
0.0
  0
LINE
  5
C4B8
  8
01
 10
806.68768516632497
 20
-1976.7369486528401
 30
0.0
 11
806.68768516632429
 21
-2029.236948652841
 31
0.0
  0
LINE
  5
C4B9
  8
01
 10
649.18768516632406
 20
-2029.2369486528389
 30
0.0
 11
649.18768516632406
 21
-1976.7369486528401
 31
0.0
  0
LINE
  5
C4BA
  8
01
 10
701.68768516632497
 20
-1997.7369486528401
 30
0.0
 11
806.68768516632497
 21
-1997.736948652841
 31
0.0
  0
LINE
  5
C4BB
  8
01
 10
701.68768516632497
 20
-2008.2369486528401
 30
0.0
 11
806.68768516632497
 21
-2008.236948652841
 31
0.0
  0
TEXT
  5
C4BC
  8
01
 10
661.68768516632542
 20
-2011.4493353887769
 30
0.0
 40
6.0
  1
クローム
 72
     1
 11
675.28768516632545
 21
-2011.4493353887769
 31
0.0
  0
TEXT
  5
C4BD
  8
01
 10
756.18768516632701
 20
-2006.3084841283151
 30
0.0
 40
6.0
  1
3-F3C-CD-LW
 41
0.7
 72
     1
 11
780.28768516632704
 21
-2006.3084841283151
 31
0.0
  0
TEXT
  5
C4BE
  8
01
 10
756.28768516632624
 20
-1995.8084841283151
 30
0.0
 40
6.0
  1
3-F3C-CS-LW
 41
0.7
 72
     1
 11
780.28768516632624
 21
-1995.8084841283151
 31
0.0
  0
TEXT
  5
C4BF
  8
01
 10
756.28768516632636
 20
-2016.8084841283151
 30
0.0
 40
6.0
  1
3-F3C-CZ-LW
 41
0.7
 72
     1
 11
780.28768516632636
 21
-2016.8084841283151
 31
0.0
  0
TEXT
  5
C4C0
  8
01
 10
705.38768516632365
 20
-1995.2033190701959
 30
0.0
 40
6.0
  1
ブラストシルバー
 41
0.8
 72
     1
 11
727.78768516632363
 21
-1995.2033190701959
 31
0.0
  0
TEXT
  5
C4C1
  8
01
 10
702.56768516632349
 20
-2016.2033190701959
 30
0.0
 40
6.0
  1
ステンカラーヘアライン
 41
0.65
 72
     1
 11
727.78768516632363
 21
-2016.2033190701959
 31
0.0
  0
LINE
  5
E6B1
  8
01
 10
854.18766916632444
 20
-2139.2395686528398
 30
0.0
 11
854.18766916632444
 21
-2286.5728886528409
 31
0.0
  0
LINE
  5
E6B2
  8
01
 10
814.18766916632433
 20
-2139.2395686528398
 30
0.0
 11
814.18766916632433
 21
-2286.5728886528409
 31
0.0
  0
LINE
  5
E6B3
  8
01
 10
712.78767516632502
 20
-2145.736948652841
 30
0.0
 11
712.78767516632502
 21
-2168.8369186528398
 31
0.0
  0
LINE
  5
E6B4
  8
01
 10
711.18766916632444
 20
-2145.736948652841
 30
0.0
 11
711.18766916632444
 21
-2168.736948652841
 31
0.0
  0
LINE
  5
E6B5
  8
01
 10
713.58767816632519
 20
-2145.736948652841
 30
0.0
 11
713.58767816632519
 21
-2275.7369486528401
 31
0.0
  0
LINE
  5
E6B6
  8
01
 10
715.18766916632444
 20
-2145.736948652841
 30
0.0
 11
715.18766916632444
 21
-2275.7369486528401
 31
0.0
  0
LINE
  5
E6B8
  8
01
 10
712.18766916632444
 20
-2247.736948652841
 30
0.0
 11
683.39704587862252
 21
-2247.7369486528401
 31
0.0
  0
LINE
  5
E6B9
  8
01
 10
646.18768516632463
 20
-2184.485626146818
 30
0.0
 11
646.18768516632463
 21
-2214.3875846299179
 31
0.0
  0
LINE
  5
E6BA
  8
01
 10
721.18766916632262
 20
-2199.736948652841
 30
0.0
 11
715.18766916632444
 21
-2199.736948652841
 31
0.0
  0
LINE
  5
E6BB
  8
01
 10
726.18766916632444
 20
-2204.736948652841
 30
0.0
 11
716.18766916632444
 21
-2204.736948652841
 31
0.0
  0
POLYLINE
  5
E6BC
  8
01
 10
726.18766916632444
 20
-2203.3053686528401
 30
0.0
 66
     1
 70
     8
  0
VERTEX
  8
01
  5
EEA0
 10
726.188
 20
-2203.31
 30
0.000000
  70
    32
  0
VERTEX
  8
01
  5
EEA1
 10
726.186
 20
-2203.22
 30
0.000000
  70
    32
  0
VERTEX
  8
01
  5
EEA2
 10
726.182
 20
-2203.13
 30
0.000000
  70
    32
  0
VERTEX
  8
01
  5
EEA3
 10
726.174
 20
-2203.04
 30
0.000000
  70
    32
  0
VERTEX
  8
01
  5
EEA4
 10
726.164
 20
-2202.96
 30
0.000000
  70
    32
  0
VERTEX
  8
01
  5
EEA5
 10
726.150
 20
-2202.87
 30
0.000000
  70
    32
  0
VERTEX
  8
01
  5
EEA6
 10
726.134
 20
-2202.78
 30
0.000000
  70
    32
  0
VERTEX
  8
01
  5
EEA7
 10
726.114
 20
-2202.70
 30
0.000000
  70
    32
  0
VERTEX
  8
01
  5
EEA8
 10
726.092
 20
-2202.61
 30
0.000000
  70
    32
  0
VERTEX
  8
01
  5
EEA9
 10
726.066
 20
-2202.52
 30
0.000000
  70
    32
  0
VERTEX
  8
01
  5
EEAA
 10
726.038
 20
-2202.44
 30
0.000000
  70
    32
  0
VERTEX
  8
01
  5
EEAB
 10
726.007
 20
-2202.35
 30
0.000000
  70
    32
  0
VERTEX
  8
01
  5
EEAC
 10
725.972
 20
-2202.27
 30
0.000000
  70
    32
  0
VERTEX
  8
01
  5
EEAD
 10
725.935
 20
-2202.19
 30
0.000000
  70
    32
  0
VERTEX
  8
01
  5
EEAE
 10
725.895
 20
-2202.10
 30
0.000000
  70
    32
  0
VERTEX
  8
01
  5
EEAF
 10
725.853
 20
-2202.02
 30
0.000000
  70
    32
  0
VERTEX
  8
01
  5
EEB0
 10
725.807
 20
-2201.94
 30
0.000000
  70
    32
  0
VERTEX
  8
01
  5
EEB1
 10
725.759
 20
-2201.86
 30
0.000000
  70
    32
  0
VERTEX
  8
01
  5
EEB2
 10
725.708
 20
-2201.78
 30
0.000000
  70
    32
  0
VERTEX
  8
01
  5
EEB3
 10
725.654
 20
-2201.70
 30
0.000000
  70
    32
  0
VERTEX
  8
01
  5
EEB4
 10
725.597
 20
-2201.62
 30
0.000000
  70
    32
  0
VERTEX
  8
01
  5
EEB5
 10
725.538
 20
-2201.55
 30
0.000000
  70
    32
  0
VERTEX
  8
01
  5
EEB6
 10
725.476
 20
-2201.47
 30
0.000000
  70
    32
  0
VERTEX
  8
01
  5
EEB7
 10
725.412
 20
-2201.40
 30
0.000000
  70
    32
  0
VERTEX
  8
01
  5
EEB8
 10
725.345
 20
-2201.32
 30
0.000000
  70
    32
  0
VERTEX
  8
01
  5
EEB9
 10
725.276
 20
-2201.25
 30
0.000000
  70
    32
  0
VERTEX
  8
01
  5
EEBA
 10
725.204
 20
-2201.18
 30
0.000000
  70
    32
  0
VERTEX
  8
01
  5
EEBB
 10
725.129
 20
-2201.11
 30
0.000000
  70
    32
  0
VERTEX
  8
01
  5
EEBC
 10
725.053
 20
-2201.04
 30
0.000000
  70
    32
  0
VERTEX
  8
01
  5
EEBD
 10
724.974
 20
-2200.97
 30
0.000000
  70
    32
  0
VERTEX
  8
01
  5
EEBE
 10
724.892
 20
-2200.91
 30
0.000000
  70
    32
  0
VERTEX
  8
01
  5
EEBF
 10
724.809
 20
-2200.84
 30
0.000000
  70
    32
  0
VERTEX
  8
01
  5
EEC0
 10
724.723
 20
-2200.78
 30
0.000000
  70
    32
  0
VERTEX
  8
01
  5
EEC1
 10
724.635
 20
-2200.72
 30
0.000000
  70
    32
  0
VERTEX
  8
01
  5
EEC2
 10
724.545
 20
-2200.66
 30
0.000000
  70
    32
  0
VERTEX
  8
01
  5
EEC3
 10
724.454
 20
-2200.60
 30
0.000000
  70
    32
  0
VERTEX
  8
01
  5
EEC4
 10
724.360
 20
-2200.55
 30
0.000000
  70
    32
  0
VERTEX
  8
01
  5
EEC5
 10
724.264
 20
-2200.49
 30
0.000000
  70
    32
  0
VERTEX
  8
01
  5
EEC6
 10
724.166
 20
-2200.44
 30
0.000000
  70
    32
  0
VERTEX
  8
01
  5
EEC7
 10
724.067
 20
-2200.39
 30
0.000000
  70
    32
  0
VERTEX
  8
01
  5
EEC8
 10
723.966
 20
-2200.34
 30
0.000000
  70
    32
  0
VERTEX
  8
01
  5
EEC9
 10
723.863
 20
-2200.29
 30
0.000000
  70
    32
  0
VERTEX
  8
01
  5
EECA
 10
723.758
 20
-2200.24
 30
0.000000
  70
    32
  0
VERTEX
  8
01
  5
EECB
 10
723.652
 20
-2200.20
 30
0.000000
  70
    32
  0
VERTEX
  8
01
  5
EECC
 10
723.545
 20
-2200.16
 30
0.000000
  70
    32
  0
VERTEX
  8
01
  5
EECD
 10
723.436
 20
-2200.12
 30
0.000000
  70
    32
  0
VERTEX
  8
01
  5
EECE
 10
723.325
 20
-2200.08
 30
0.000000
  70
    32
  0
VERTEX
  8
01
  5
EECF
 10
723.214
 20
-2200.04
 30
0.000000
  70
    32
  0
VERTEX
  8
01
  5
EED0
 10
723.101
 20
-2200.01
 30
0.000000
  70
    32
  0
VERTEX
  8
01
  5
EED1
 10
722.987
 20
-2199.98
 30
0.000000
  70
    32
  0
VERTEX
  8
01
  5
EED2
 10
722.872
 20
-2199.95
 30
0.000000
  70
    32
  0
VERTEX
  8
01
  5
EED3
 10
722.756
 20
-2199.92
 30
0.000000
  70
    32
  0
VERTEX
  8
01
  5
EED4
 10
722.639
 20
-2199.89
 30
0.000000
  70
    32
  0
VERTEX
  8
01
  5
EED5
 10
722.521
 20
-2199.87
 30
0.000000
  70
    32
  0
VERTEX
  8
01
  5
EED6
 10
722.403
 20
-2199.84
 30
0.000000
  70
    32
  0
VERTEX
  8
01
  5
EED7
 10
722.283
 20
-2199.82
 30
0.000000
  70
    32
  0
VERTEX
  8
01
  5
EED8
 10
722.163
 20
-2199.81
 30
0.000000
  70
    32
  0
VERTEX
  8
01
  5
EED9
 10
722.042
 20
-2199.79
 30
0.000000
  70
    32
  0
VERTEX
  8
01
  5
EEDA
 10
721.921
 20
-2199.78
 30
0.000000
  70
    32
  0
VERTEX
  8
01
  5
EEDB
 10
721.800
 20
-2199.76
 30
0.000000
  70
    32
  0
VERTEX
  8
01
  5
EEDC
 10
721.678
 20
-2199.75
 30
0.000000
  70
    32
  0
VERTEX
  8
01
  5
EEDD
 10
721.555
 20
-2199.75
 30
0.000000
  70
    32
  0
VERTEX
  8
01
  5
EEDE
 10
721.433
 20
-2199.74
 30
0.000000
  70
    32
  0
VERTEX
  8
01
  5
EEDF
 10
721.310
 20
-2199.74
 30
0.000000
  70
    32
  0
VERTEX
  8
01
  5
EEE0
 10
721.188
 20
-2199.74
 30
0.000000
  70
    32
  0
VERTEX
  8
01
  5
EEE1
 10
721.065
 20
-2199.74
 30
0.000000
  70
    32
  0
VERTEX
  8
01
  5
EEE2
 10
720.942
 20
-2199.74
 30
0.000000
  70
    32
  0
VERTEX
  8
01
  5
EEE3
 10
720.820
 20
-2199.75
 30
0.000000
  70
    32
  0
VERTEX
  8
01
  5
EEE4
 10
720.698
 20
-2199.75
 30
0.000000
  70
    32
  0
VERTEX
  8
01
  5
EEE5
 10
720.576
 20
-2199.76
 30
0.000000
  70
    32
  0
VERTEX
  8
01
  5
EEE6
 10
720.454
 20
-2199.78
 30
0.000000
  70
    32
  0
VERTEX
  8
01
  5
EEE7
 10
720.333
 20
-2199.79
 30
0.000000
  70
    32
  0
VERTEX
  8
01
  5
EEE8
 10
720.212
 20
-2199.81
 30
0.000000
  70
    32
  0
VERTEX
  8
01
  5
EEE9
 10
720.092
 20
-2199.82
 30
0.000000
  70
    32
  0
VERTEX
  8
01
  5
EEEA
 10
719.973
 20
-2199.84
 30
0.000000
  70
    32
  0
VERTEX
  8
01
  5
EEEB
 10
719.854
 20
-2199.87
 30
0.000000
  70
    32
  0
VERTEX
  8
01
  5
EEEC
 10
719.736
 20
-2199.89
 30
0.000000
  70
    32
  0
VERTEX
  8
01
  5
EEED
 10
719.619
 20
-2199.92
 30
0.000000
  70
    32
  0
VERTEX
  8
01
  5
EEEE
 10
719.503
 20
-2199.95
 30
0.000000
  70
    32
  0
VERTEX
  8
01
  5
EEEF
 10
719.388
 20
-2199.98
 30
0.000000
  70
    32
  0
VERTEX
  8
01
  5
EEF0
 10
719.274
 20
-2200.01
 30
0.000000
  70
    32
  0
VERTEX
  8
01
  5
EEF1
 10
719.161
 20
-2200.04
 30
0.000000
  70
    32
  0
VERTEX
  8
01
  5
EEF2
 10
719.050
 20
-2200.08
 30
0.000000
  70
    32
  0
VERTEX
  8
01
  5
EEF3
 10
718.940
 20
-2200.12
 30
0.000000
  70
    32
  0
VERTEX
  8
01
  5
EEF4
 10
718.831
 20
-2200.16
 30
0.000000
  70
    32
  0
VERTEX
  8
01
  5
EEF5
 10
718.723
 20
-2200.20
 30
0.000000
  70
    32
  0
VERTEX
  8
01
  5
EEF6
 10
718.617
 20
-2200.24
 30
0.000000
  70
    32
  0
VERTEX
  8
01
  5
EEF7
 10
718.513
 20
-2200.29
 30
0.000000
  70
    32
  0
VERTEX
  8
01
  5
EEF8
 10
718.410
 20
-2200.34
 30
0.000000
  70
    32
  0
VERTEX
  8
01
  5
EEF9
 10
718.309
 20
-2200.39
 30
0.000000
  70
    32
  0
VERTEX
  8
01
  5
EEFA
 10
718.209
 20
-2200.44
 30
0.000000
  70
    32
  0
VERTEX
  8
01
  5
EEFB
 10
718.112
 20
-2200.49
 30
0.000000
  70
    32
  0
VERTEX
  8
01
  5
EEFC
 10
718.016
 20
-2200.55
 30
0.000000
  70
    32
  0
VERTEX
  8
01
  5
EEFD
 10
717.922
 20
-2200.60
 30
0.000000
  70
    32
  0
VERTEX
  8
01
  5
EEFE
 10
717.830
 20
-2200.66
 30
0.000000
  70
    32
  0
VERTEX
  8
01
  5
EEFF
 10
717.740
 20
-2200.72
 30
0.000000
  70
    32
  0
VERTEX
  8
01
  5
EF00
 10
717.652
 20
-2200.78
 30
0.000000
  70
    32
  0
VERTEX
  8
01
  5
EF01
 10
717.566
 20
-2200.84
 30
0.000000
  70
    32
  0
VERTEX
  8
01
  5
EF02
 10
717.483
 20
-2200.91
 30
0.000000
  70
    32
  0
VERTEX
  8
01
  5
EF03
 10
717.402
 20
-2200.97
 30
0.000000
  70
    32
  0
VERTEX
  8
01
  5
EF04
 10
717.323
 20
-2201.04
 30
0.000000
  70
    32
  0
VERTEX
  8
01
  5
EF05
 10
717.246
 20
-2201.11
 30
0.000000
  70
    32
  0
VERTEX
  8
01
  5
EF06
 10
717.172
 20
-2201.18
 30
0.000000
  70
    32
  0
VERTEX
  8
01
  5
EF07
 10
717.100
 20
-2201.25
 30
0.000000
  70
    32
  0
VERTEX
  8
01
  5
EF08
 10
717.030
 20
-2201.32
 30
0.000000
  70
    32
  0
VERTEX
  8
01
  5
EF09
 10
716.963
 20
-2201.40
 30
0.000000
  70
    32
  0
VERTEX
  8
01
  5
EF0A
 10
716.899
 20
-2201.47
 30
0.000000
  70
    32
  0
VERTEX
  8
01
  5
EF0B
 10
716.837
 20
-2201.55
 30
0.000000
  70
    32
  0
VERTEX
  8
01
  5
EF0C
 10
716.778
 20
-2201.62
 30
0.000000
  70
    32
  0
VERTEX
  8
01
  5
EF0D
 10
716.722
 20
-2201.70
 30
0.000000
  70
    32
  0
VERTEX
  8
01
  5
EF0E
 10
716.668
 20
-2201.78
 30
0.000000
  70
    32
  0
VERTEX
  8
01
  5
EF0F
 10
716.617
 20
-2201.86
 30
0.000000
  70
    32
  0
VERTEX
  8
01
  5
EF10
 10
716.568
 20
-2201.94
 30
0.000000
  70
    32
  0
VERTEX
  8
01
  5
EF11
 10
716.523
 20
-2202.02
 30
0.000000
  70
    32
  0
VERTEX
  8
01
  5
EF12
 10
716.480
 20
-2202.10
 30
0.000000
  70
    32
  0
VERTEX
  8
01
  5
EF13
 10
716.440
 20
-2202.19
 30
0.000000
  70
    32
  0
VERTEX
  8
01
  5
EF14
 10
716.403
 20
-2202.27
 30
0.000000
  70
    32
  0
VERTEX
  8
01
  5
EF15
 10
716.369
 20
-2202.35
 30
0.000000
  70
    32
  0
VERTEX
  8
01
  5
EF16
 10
716.338
 20
-2202.44
 30
0.000000
  70
    32
  0
VERTEX
  8
01
  5
EF17
 10
716.309
 20
-2202.52
 30
0.000000
  70
    32
  0
VERTEX
  8
01
  5
EF18
 10
716.284
 20
-2202.61
 30
0.000000
  70
    32
  0
VERTEX
  8
01
  5
EF19
 10
716.261
 20
-2202.70
 30
0.000000
  70
    32
  0
VERTEX
  8
01
  5
EF1A
 10
716.242
 20
-2202.78
 30
0.000000
  70
    32
  0
VERTEX
  8
01
  5
EF1B
 10
716.225
 20
-2202.87
 30
0.000000
  70
    32
  0
VERTEX
  8
01
  5
EF1C
 10
716.212
 20
-2202.96
 30
0.000000
  70
    32
  0
VERTEX
  8
01
  5
EF1D
 10
716.201
 20
-2203.04
 30
0.000000
  70
    32
  0
VERTEX
  8
01
  5
EF1E
 10
716.194
 20
-2203.13
 30
0.000000
  70
    32
  0
VERTEX
  8
01
  5
EF1F
 10
716.189
 20
-2203.22
 30
0.000000
  70
    32
  0
VERTEX
  8
01
  5
EF20
 10
716.188
 20
-2203.31
 30
0.000000
  70
    32
  0
SEQEND
  8
01
  5
EF21
  0
LINE
  5
E6BD
  8
01
 10
721.18766916632444
 20
-2219.7369486528401
 30
0.0
 11
715.18766916632444
 21
-2219.7369486528401
 31
0.0
  0
LINE
  5
E6BE
  8
01
 10
726.18766916632444
 20
-2214.7369486528401
 30
0.0
 11
716.18766916632444
 21
-2214.7369486528401
 31
0.0
  0
POLYLINE
  5
E6BF
  8
01
 10
726.18766916632444
 20
-2216.16852865284
 30
0.0
 66
     1
 70
     8
  0
VERTEX
  8
01
  5
EF22
 10
726.188
 20
-2216.17
 30
0.000000
  70
    32
  0
VERTEX
  8
01
  5
EF23
 10
726.186
 20
-2216.26
 30
0.000000
  70
    32
  0
VERTEX
  8
01
  5
EF24
 10
726.182
 20
-2216.34
 30
0.000000
  70
    32
  0
VERTEX
  8
01
  5
EF25
 10
726.174
 20
-2216.43
 30
0.000000
  70
    32
  0
VERTEX
  8
01
  5
EF26
 10
726.164
 20
-2216.52
 30
0.000000
  70
    32
  0
VERTEX
  8
01
  5
EF27
 10
726.150
 20
-2216.61
 30
0.000000
  70
    32
  0
VERTEX
  8
01
  5
EF28
 10
726.134
 20
-2216.69
 30
0.000000
  70
    32
  0
VERTEX
  8
01
  5
EF29
 10
726.114
 20
-2216.78
 30
0.000000
  70
    32
  0
VERTEX
  8
01
  5
EF2A
 10
726.092
 20
-2216.86
 30
0.000000
  70
    32
  0
VERTEX
  8
01
  5
EF2B
 10
726.066
 20
-2216.95
 30
0.000000
  70
    32
  0
VERTEX
  8
01
  5
EF2C
 10
726.038
 20
-2217.04
 30
0.000000
  70
    32
  0
VERTEX
  8
01
  5
EF2D
 10
726.007
 20
-2217.12
 30
0.000000
  70
    32
  0
VERTEX
  8
01
  5
EF2E
 10
725.972
 20
-2217.20
 30
0.000000
  70
    32
  0
VERTEX
  8
01
  5
EF2F
 10
725.935
 20
-2217.29
 30
0.000000
  70
    32
  0
VERTEX
  8
01
  5
EF30
 10
725.895
 20
-2217.37
 30
0.000000
  70
    32
  0
VERTEX
  8
01
  5
EF31
 10
725.853
 20
-2217.45
 30
0.000000
  70
    32
  0
VERTEX
  8
01
  5
EF32
 10
725.807
 20
-2217.53
 30
0.000000
  70
    32
  0
VERTEX
  8
01
  5
EF33
 10
725.759
 20
-2217.61
 30
0.000000
  70
    32
  0
VERTEX
  8
01
  5
EF34
 10
725.708
 20
-2217.69
 30
0.000000
  70
    32
  0
VERTEX
  8
01
  5
EF35
 10
725.654
 20
-2217.77
 30
0.000000
  70
    32
  0
VERTEX
  8
01
  5
EF36
 10
725.597
 20
-2217.85
 30
0.000000
  70
    32
  0
VERTEX
  8
01
  5
EF37
 10
725.538
 20
-2217.93
 30
0.000000
  70
    32
  0
VERTEX
  8
01
  5
EF38
 10
725.476
 20
-2218.00
 30
0.000000
  70
    32
  0
VERTEX
  8
01
  5
EF39
 10
725.412
 20
-2218.08
 30
0.000000
  70
    32
  0
VERTEX
  8
01
  5
EF3A
 10
725.345
 20
-2218.15
 30
0.000000
  70
    32
  0
VERTEX
  8
01
  5
EF3B
 10
725.276
 20
-2218.22
 30
0.000000
  70
    32
  0
VERTEX
  8
01
  5
EF3C
 10
725.204
 20
-2218.29
 30
0.000000
  70
    32
  0
VERTEX
  8
01
  5
EF3D
 10
725.129
 20
-2218.36
 30
0.000000
  70
    32
  0
VERTEX
  8
01
  5
EF3E
 10
725.053
 20
-2218.43
 30
0.000000
  70
    32
  0
VERTEX
  8
01
  5
EF3F
 10
724.974
 20
-2218.50
 30
0.000000
  70
    32
  0
VERTEX
  8
01
  5
EF40
 10
724.892
 20
-2218.56
 30
0.000000
  70
    32
  0
VERTEX
  8
01
  5
EF41
 10
724.809
 20
-2218.63
 30
0.000000
  70
    32
  0
VERTEX
  8
01
  5
EF42
 10
724.723
 20
-2218.69
 30
0.000000
  70
    32
  0
VERTEX
  8
01
  5
EF43
 10
724.635
 20
-2218.75
 30
0.000000
  70
    32
  0
VERTEX
  8
01
  5
EF44
 10
724.545
 20
-2218.81
 30
0.000000
  70
    32
  0
VERTEX
  8
01
  5
EF45
 10
724.454
 20
-2218.87
 30
0.000000
  70
    32
  0
VERTEX
  8
01
  5
EF46
 10
724.360
 20
-2218.93
 30
0.000000
  70
    32
  0
VERTEX
  8
01
  5
EF47
 10
724.264
 20
-2218.98
 30
0.000000
  70
    32
  0
VERTEX
  8
01
  5
EF48
 10
724.166
 20
-2219.03
 30
0.000000
  70
    32
  0
VERTEX
  8
01
  5
EF49
 10
724.067
 20
-2219.09
 30
0.000000
  70
    32
  0
VERTEX
  8
01
  5
EF4A
 10
723.966
 20
-2219.14
 30
0.000000
  70
    32
  0
VERTEX
  8
01
  5
EF4B
 10
723.863
 20
-2219.18
 30
0.000000
  70
    32
  0
VERTEX
  8
01
  5
EF4C
 10
723.758
 20
-2219.23
 30
0.000000
  70
    32
  0
VERTEX
  8
01
  5
EF4D
 10
723.652
 20
-2219.27
 30
0.000000
  70
    32
  0
VERTEX
  8
01
  5
EF4E
 10
723.545
 20
-2219.32
 30
0.000000
  70
    32
  0
VERTEX
  8
01
  5
EF4F
 10
723.436
 20
-2219.36
 30
0.000000
  70
    32
  0
VERTEX
  8
01
  5
EF50
 10
723.325
 20
-2219.39
 30
0.000000
  70
    32
  0
VERTEX
  8
01
  5
EF51
 10
723.214
 20
-2219.43
 30
0.000000
  70
    32
  0
VERTEX
  8
01
  5
EF52
 10
723.101
 20
-2219.47
 30
0.000000
  70
    32
  0
VERTEX
  8
01
  5
EF53
 10
722.987
 20
-2219.50
 30
0.000000
  70
    32
  0
VERTEX
  8
01
  5
EF54
 10
722.872
 20
-2219.53
 30
0.000000
  70
    32
  0
VERTEX
  8
01
  5
EF55
 10
722.756
 20
-2219.56
 30
0.000000
  70
    32
  0
VERTEX
  8
01
  5
EF56
 10
722.639
 20
-2219.58
 30
0.000000
  70
    32
  0
VERTEX
  8
01
  5
EF57
 10
722.521
 20
-2219.61
 30
0.000000
  70
    32
  0
VERTEX
  8
01
  5
EF58
 10
722.403
 20
-2219.63
 30
0.000000
  70
    32
  0
VERTEX
  8
01
  5
EF59
 10
722.283
 20
-2219.65
 30
0.000000
  70
    32
  0
VERTEX
  8
01
  5
EF5A
 10
722.163
 20
-2219.67
 30
0.000000
  70
    32
  0
VERTEX
  8
01
  5
EF5B
 10
722.042
 20
-2219.68
 30
0.000000
  70
    32
  0
VERTEX
  8
01
  5
EF5C
 10
721.921
 20
-2219.70
 30
0.000000
  70
    32
  0
VERTEX
  8
01
  5
EF5D
 10
721.800
 20
-2219.71
 30
0.000000
  70
    32
  0
VERTEX
  8
01
  5
EF5E
 10
721.678
 20
-2219.72
 30
0.000000
  70
    32
  0
VERTEX
  8
01
  5
EF5F
 10
721.555
 20
-2219.73
 30
0.000000
  70
    32
  0
VERTEX
  8
01
  5
EF60
 10
721.433
 20
-2219.73
 30
0.000000
  70
    32
  0
VERTEX
  8
01
  5
EF61
 10
721.310
 20
-2219.74
 30
0.000000
  70
    32
  0
VERTEX
  8
01
  5
EF62
 10
721.188
 20
-2219.74
 30
0.000000
  70
    32
  0
VERTEX
  8
01
  5
EF63
 10
721.065
 20
-2219.74
 30
0.000000
  70
    32
  0
VERTEX
  8
01
  5
EF64
 10
720.942
 20
-2219.73
 30
0.000000
  70
    32
  0
VERTEX
  8
01
  5
EF65
 10
720.820
 20
-2219.73
 30
0.000000
  70
    32
  0
VERTEX
  8
01
  5
EF66
 10
720.698
 20
-2219.72
 30
0.000000
  70
    32
  0
VERTEX
  8
01
  5
EF67
 10
720.576
 20
-2219.71
 30
0.000000
  70
    32
  0
VERTEX
  8
01
  5
EF68
 10
720.454
 20
-2219.70
 30
0.000000
  70
    32
  0
VERTEX
  8
01
  5
EF69
 10
720.333
 20
-2219.68
 30
0.000000
  70
    32
  0
VERTEX
  8
01
  5
EF6A
 10
720.212
 20
-2219.67
 30
0.000000
  70
    32
  0
VERTEX
  8
01
  5
EF6B
 10
720.092
 20
-2219.65
 30
0.000000
  70
    32
  0
VERTEX
  8
01
  5
EF6C
 10
719.973
 20
-2219.63
 30
0.000000
  70
    32
  0
VERTEX
  8
01
  5
EF6D
 10
719.854
 20
-2219.61
 30
0.000000
  70
    32
  0
VERTEX
  8
01
  5
EF6E
 10
719.736
 20
-2219.58
 30
0.000000
  70
    32
  0
VERTEX
  8
01
  5
EF6F
 10
719.619
 20
-2219.56
 30
0.000000
  70
    32
  0
VERTEX
  8
01
  5
EF70
 10
719.503
 20
-2219.53
 30
0.000000
  70
    32
  0
VERTEX
  8
01
  5
EF71
 10
719.388
 20
-2219.50
 30
0.000000
  70
    32
  0
VERTEX
  8
01
  5
EF72
 10
719.274
 20
-2219.47
 30
0.000000
  70
    32
  0
VERTEX
  8
01
  5
EF73
 10
719.161
 20
-2219.43
 30
0.000000
  70
    32
  0
VERTEX
  8
01
  5
EF74
 10
719.050
 20
-2219.39
 30
0.000000
  70
    32
  0
VERTEX
  8
01
  5
EF75
 10
718.940
 20
-2219.36
 30
0.000000
  70
    32
  0
VERTEX
  8
01
  5
EF76
 10
718.831
 20
-2219.32
 30
0.000000
  70
    32
  0
VERTEX
  8
01
  5
EF77
 10
718.723
 20
-2219.27
 30
0.000000
  70
    32
  0
VERTEX
  8
01
  5
EF78
 10
718.617
 20
-2219.23
 30
0.000000
  70
    32
  0
VERTEX
  8
01
  5
EF79
 10
718.513
 20
-2219.18
 30
0.000000
  70
    32
  0
VERTEX
  8
01
  5
EF7A
 10
718.410
 20
-2219.14
 30
0.000000
  70
    32
  0
VERTEX
  8
01
  5
EF7B
 10
718.309
 20
-2219.09
 30
0.000000
  70
    32
  0
VERTEX
  8
01
  5
EF7C
 10
718.209
 20
-2219.03
 30
0.000000
  70
    32
  0
VERTEX
  8
01
  5
EF7D
 10
718.112
 20
-2218.98
 30
0.000000
  70
    32
  0
VERTEX
  8
01
  5
EF7E
 10
718.016
 20
-2218.93
 30
0.000000
  70
    32
  0
VERTEX
  8
01
  5
EF7F
 10
717.922
 20
-2218.87
 30
0.000000
  70
    32
  0
VERTEX
  8
01
  5
EF80
 10
717.830
 20
-2218.81
 30
0.000000
  70
    32
  0
VERTEX
  8
01
  5
EF81
 10
717.740
 20
-2218.75
 30
0.000000
  70
    32
  0
VERTEX
  8
01
  5
EF82
 10
717.652
 20
-2218.69
 30
0.000000
  70
    32
  0
VERTEX
  8
01
  5
EF83
 10
717.566
 20
-2218.63
 30
0.000000
  70
    32
  0
VERTEX
  8
01
  5
EF84
 10
717.483
 20
-2218.56
 30
0.000000
  70
    32
  0
VERTEX
  8
01
  5
EF85
 10
717.402
 20
-2218.50
 30
0.000000
  70
    32
  0
VERTEX
  8
01
  5
EF86
 10
717.323
 20
-2218.43
 30
0.000000
  70
    32
  0
VERTEX
  8
01
  5
EF87
 10
717.246
 20
-2218.36
 30
0.000000
  70
    32
  0
VERTEX
  8
01
  5
EF88
 10
717.172
 20
-2218.29
 30
0.000000
  70
    32
  0
VERTEX
  8
01
  5
EF89
 10
717.100
 20
-2218.22
 30
0.000000
  70
    32
  0
VERTEX
  8
01
  5
EF8A
 10
717.030
 20
-2218.15
 30
0.000000
  70
    32
  0
VERTEX
  8
01
  5
EF8B
 10
716.963
 20
-2218.08
 30
0.000000
  70
    32
  0
VERTEX
  8
01
  5
EF8C
 10
716.899
 20
-2218.00
 30
0.000000
  70
    32
  0
VERTEX
  8
01
  5
EF8D
 10
716.837
 20
-2217.93
 30
0.000000
  70
    32
  0
VERTEX
  8
01
  5
EF8E
 10
716.778
 20
-2217.85
 30
0.000000
  70
    32
  0
VERTEX
  8
01
  5
EF8F
 10
716.722
 20
-2217.77
 30
0.000000
  70
    32
  0
VERTEX
  8
01
  5
EF90
 10
716.668
 20
-2217.69
 30
0.000000
  70
    32
  0
VERTEX
  8
01
  5
EF91
 10
716.617
 20
-2217.61
 30
0.000000
  70
    32
  0
VERTEX
  8
01
  5
EF92
 10
716.568
 20
-2217.53
 30
0.000000
  70
    32
  0
VERTEX
  8
01
  5
EF93
 10
716.523
 20
-2217.45
 30
0.000000
  70
    32
  0
VERTEX
  8
01
  5
EF94
 10
716.480
 20
-2217.37
 30
0.000000
  70
    32
  0
VERTEX
  8
01
  5
EF95
 10
716.440
 20
-2217.29
 30
0.000000
  70
    32
  0
VERTEX
  8
01
  5
EF96
 10
716.403
 20
-2217.20
 30
0.000000
  70
    32
  0
VERTEX
  8
01
  5
EF97
 10
716.369
 20
-2217.12
 30
0.000000
  70
    32
  0
VERTEX
  8
01
  5
EF98
 10
716.338
 20
-2217.04
 30
0.000000
  70
    32
  0
VERTEX
  8
01
  5
EF99
 10
716.309
 20
-2216.95
 30
0.000000
  70
    32
  0
VERTEX
  8
01
  5
EF9A
 10
716.284
 20
-2216.86
 30
0.000000
  70
    32
  0
VERTEX
  8
01
  5
EF9B
 10
716.261
 20
-2216.78
 30
0.000000
  70
    32
  0
VERTEX
  8
01
  5
EF9C
 10
716.242
 20
-2216.69
 30
0.000000
  70
    32
  0
VERTEX
  8
01
  5
EF9D
 10
716.225
 20
-2216.61
 30
0.000000
  70
    32
  0
VERTEX
  8
01
  5
EF9E
 10
716.212
 20
-2216.52
 30
0.000000
  70
    32
  0
VERTEX
  8
01
  5
EF9F
 10
716.201
 20
-2216.43
 30
0.000000
  70
    32
  0
VERTEX
  8
01
  5
EFA0
 10
716.194
 20
-2216.34
 30
0.000000
  70
    32
  0
VERTEX
  8
01
  5
EFA1
 10
716.189
 20
-2216.26
 30
0.000000
  70
    32
  0
VERTEX
  8
01
  5
EFA2
 10
716.188
 20
-2216.17
 30
0.000000
  70
    32
  0
SEQEND
  8
01
  5
EFA3
  0
LINE
  5
E6C0
  8
01
 10
726.18766916632444
 20
-2203.3053686528401
 30
0.0
 11
726.18766916632444
 21
-2216.1685286528409
 31
0.0
  0
LINE
  5
E6C1
  8
01
 10
716.18766916632444
 20
-2203.3053686528401
 30
0.0
 11
716.18766916632444
 21
-2216.1685286528382
 31
0.0
  0
LINE
  5
E6C2
  8
01
 10
712.18765416632471
 20
-2169.736948652841
 30
0.0
 11
711.18765416632482
 21
-2168.736948652841
 31
0.0
  0
LINE
  5
E6C3
  8
01
 10
713.58767116632475
 20
-2169.636968652841
 30
0.0
 11
712.78769016632464
 21
-2168.8369886528399
 31
0.0
  0
LINE
  5
E6C4
  8
01
 10
713.58767116632475
 20
-2251.8369586528402
 30
0.0
 11
712.78766816632435
 21
-2252.6369386528409
 31
0.0
  0
LINE
  5
E6C5
  8
01
 10
712.18761616632457
 20
-2251.7369786528402
 30
0.0
 11
711.18763116632431
 21
-2252.7369786528402
 31
0.0
  0
LINE
  5
E6C6
  8
01
 10
715.18766916632444
 20
-2275.7369486528401
 30
0.0
 11
711.18766916632444
 21
-2275.7369486528401
 31
0.0
  0
LINE
  5
E6C7
  8
01
 10
712.78767516632502
 20
-2275.7369486528401
 30
0.0
 11
712.78767516632502
 21
-2252.6369386528409
 31
0.0
  0
LINE
  5
E6C8
  8
01
 10
711.18766916632444
 20
-2275.7369486528401
 30
0.0
 11
711.18766916632444
 21
-2252.736948652841
 31
0.0
  0
LINE
  5
E6C9
  8
01
 10
712.18766916632444
 20
-2169.736948652841
 30
0.0
 11
712.18766916632444
 21
-2251.7369486528401
 31
0.0
  0
LINE
  5
E6CA
  8
01
 10
715.18766916632444
 20
-2145.736948652841
 30
0.0
 11
711.18766916632444
 21
-2145.736948652841
 31
0.0
  0
LINE
  5
E6CB
  8
01
 10
821.68766916632444
 20
-2151.736948652841
 30
0.0
 11
821.68766916632444
 21
-2269.736948652841
 31
0.0
  0
LINE
  5
E6CC
  8
01
 10
846.68766916632444
 20
-2151.736948652841
 30
0.0
 11
846.68766916632444
 21
-2269.736948652841
 31
0.0
  0
ARC
  5
E6CD
  8
01
 10
840.68766916632444
 20
-2269.736948652841
 30
0.0
 40
6.0
 50
270.0
 51
0.0
  0
ARC
  5
E6CE
  8
01
 10
827.68766916632433
 20
-2269.736948652841
 30
0.0
 40
6.0
 50
180.0
 51
270.0
  0
LINE
  5
E6CF
  8
01
 10
841.93766916632433
 20
-2203.3053686528401
 30
0.0
 11
841.93766916632433
 21
-2216.16852865284
 31
0.0
  0
LINE
  5
E6D0
  8
01
 10
840.93766916632433
 20
-2204.736948652841
 30
0.0
 11
840.93766916632433
 21
-2214.7369486528401
 31
0.0
  0
LINE
  5
E6D1
  8
01
 10
827.43766916632444
 20
-2204.736948652841
 30
0.0
 11
827.43766916632444
 21
-2214.7369486528401
 31
0.0
  0
LINE
  5
E6D2
  8
01
 10
826.43766916632444
 20
-2203.3053686528401
 30
0.0
 11
826.43766916632444
 21
-2216.16852865284
 31
0.0
  0
ARC
  5
E6D3
  8
01
 10
834.18766916632444
 20
-2209.53693865284
 30
0.0
 40
10.199999999999999
 50
220.55307999997041
 51
319.44692000002948
  0
LINE
  5
E6D4
  8
01
 10
827.43766916632444
 20
-2214.7369486528401
 30
0.0
 11
840.93766916632433
 21
-2214.7369486528401
 31
0.0
  0
LINE
  5
E6D5
  8
01
 10
827.43766916632444
 20
-2204.736948652841
 30
0.0
 11
840.93766916632433
 21
-2204.736948652841
 31
0.0
  0
ARC
  5
E6D6
  8
01
 10
834.18766916632444
 20
-2209.9369586528401
 30
0.0
 40
10.199999999999999
 50
40.553083999981162
 51
139.44692000002959
  0
CIRCLE
  5
E6D7
  8
01
 10
834.18766916632444
 20
-2267.7369486528401
 30
0.0
 40
4.5
  0
CIRCLE
  5
E6D8
  8
01
 10
834.18766916632444
 20
-2267.7369486528401
 30
0.0
 40
2.75
  0
LINE
  5
E6D9
  8
01
 10
827.68766916632433
 20
-2275.7369486528401
 30
0.0
 11
840.68766916632444
 21
-2275.7369486528401
 31
0.0
  0
ARC
  5
E6DA
  8
01
 10
840.68766916632444
 20
-2151.736948652841
 30
0.0
 40
6.0
 50
0.0
 51
90.0
  0
ARC
  5
E6DC
  8
01
 10
827.68766916632433
 20
-2151.736948652841
 30
0.0
 40
6.0
 50
90.0
 51
180.0
  0
LINE
  5
E6DD
  8
01
 10
827.68766916632433
 20
-2145.736948652841
 30
0.0
 11
840.68766916632444
 21
-2145.736948652841
 31
0.0
  0
CIRCLE
  5
E6DE
  8
01
 10
834.18766916632444
 20
-2153.736948652841
 30
0.0
 40
4.5
  0
CIRCLE
  5
E6DF
  8
01
 10
834.18766916632444
 20
-2153.736948652841
 30
0.0
 40
2.75
  0
LINE
  5
E6E4
  8
01
 10
955.58767516632429
 20
-2145.736948652841
 30
0.0
 11
955.58767516632429
 21
-2168.8369186528398
 31
0.0
  0
LINE
  5
E6E5
  8
01
 10
957.1876651663249
 20
-2145.736948652841
 30
0.0
 11
957.1876651663249
 21
-2168.736948652841
 31
0.0
  0
LINE
  5
E6E6
  8
01
 10
954.78767516632513
 20
-2145.736948652841
 30
0.0
 11
954.78767516632513
 21
-2275.7369486528401
 31
0.0
  0
LINE
  5
E6E7
  8
01
 10
953.18766516632502
 20
-2145.736948652841
 30
0.0
 11
953.18766516632502
 21
-2275.7369486528401
 31
0.0
  0
LINE
  5
E6E9
  8
01
 10
956.1876651663249
 20
-2247.736948652841
 30
0.0
 11
984.97829245402625
 21
-2247.736948652841
 31
0.0
  0
LINE
  5
E6EA
  8
01
 10
984.97829245402625
 20
-2247.736948652841
 30
0.0
 11
1022.187665166325
 21
-2247.736948652841
 31
0.0
  0
LINE
  5
E6EB
  8
01
 10
956.18767516632465
 20
-2169.736948652841
 30
0.0
 11
957.18767516632465
 21
-2168.736948652841
 31
0.0
  0
LINE
  5
E6EC
  8
01
 10
954.78766516632527
 20
-2169.636968652841
 30
0.0
 11
955.58767516632429
 21
-2168.8369186528398
 31
0.0
  0
LINE
  5
E6ED
  8
01
 10
946.1876651663249
 20
-2199.736948652841
 30
0.0
 11
953.18766516632502
 21
-2199.736948652841
 31
0.0
  0
LINE
  5
E6EE
  8
01
 10
946.1876651663249
 20
-2219.7369486528401
 30
0.0
 11
953.18766516632502
 21
-2219.7369486528401
 31
0.0
  0
LINE
  5
E6EF
  8
01
 10
942.26976516632453
 20
-2216.543218652841
 30
0.0
 11
953.18766516632502
 21
-2216.543218652841
 31
0.0
  0
LINE
  5
E6F0
  8
01
 10
942.26976516632453
 20
-2202.9306686528398
 30
0.0
 11
953.18766516632502
 21
-2202.9306686528398
 31
0.0
  0
LINE
  5
E6F1
  8
01
 10
942.18766516632479
 20
-2203.7369486528401
 30
0.0
 11
942.18766516632479
 21
-2215.736948652841
 31
0.0
  0
ARC
  5
E6F2
  8
01
 10
946.1876651663249
 20
-2215.736948652841
 30
0.0
 40
4.0
 50
179.999989999999
 51
270.0
  0
ARC
  5
E6F3
  8
01
 10
946.1876651663249
 20
-2203.7369486528401
 30
0.0
 40
4.0
 50
90.000002999984659
 51
180.000010000001
  0
LINE
  5
E6F4
  8
01
 10
954.78766516632527
 20
-2251.8369586528402
 30
0.0
 11
955.58767516632429
 21
-2252.6369386528409
 31
0.0
  0
LINE
  5
E6F5
  8
01
 10
956.18771516632546
 20
-2251.7369786528402
 30
0.0
 11
957.18769516632415
 21
-2252.736948652841
 31
0.0
  0
LINE
  5
E6F6
  8
01
 10
948.1876651663249
 20
-2267.7369486528401
 30
0.0
 11
962.1876651663249
 21
-2267.7369486528401
 31
0.0
  0
LINE
  5
E6F7
  8
01
 10
953.18766516632502
 20
-2275.7369486528401
 30
0.0
 11
957.1876651663249
 21
-2275.7369486528401
 31
0.0
  0
LINE
  5
E6F8
  8
01
 10
955.58767516632429
 20
-2275.7369486528401
 30
0.0
 11
955.58767516632429
 21
-2252.6369386528409
 31
0.0
  0
LINE
  5
E6F9
  8
01
 10
957.1876651663249
 20
-2275.7369486528401
 30
0.0
 11
957.1876651663249
 21
-2252.736948652841
 31
0.0
  0
LINE
  5
E6FA
  8
01
 10
956.1876651663249
 20
-2169.736948652841
 30
0.0
 11
956.1876651663249
 21
-2251.7369486528401
 31
0.0
  0
LINE
  5
E6FB
  8
01
 10
1022.187665166325
 20
-2184.4855825033642
 30
0.0
 11
1022.187665166325
 21
-2214.387597079944
 31
0.0
  0
LINE
  5
E6FC
  8
01
 10
1022.187665166325
 20
-2214.387597079944
 30
0.0
 11
1022.187665166325
 21
-2247.736948652841
 31
0.0
  0
LINE
  5
E6FE
  8
01
 10
953.18766516632502
 20
-2145.736948652841
 30
0.0
 11
957.1876651663249
 21
-2145.736948652841
 31
0.0
  0
LINE
  5
E6FF
  8
01
 10
948.1876651663249
 20
-2153.736948652841
 30
0.0
 11
962.1876651663249
 21
-2153.736948652841
 31
0.0
  0
LINE
  5
E701
  8
01
 10
957.18854934838487
 20
-1952.2369486538689
 30
0.0
 11
1023.188549348385
 21
-1952.2369486538689
 31
0.0
  0
LINE
  5
E702
  8
01
 10
957.18854934838487
 20
-1953.836918653868
 30
0.0
 11
1023.188549348385
 21
-1953.836918653868
 31
0.0
  0
LINE
  5
E703
  8
01
 10
954.78855934838487
 20
-1971.2369486538689
 30
0.0
 11
1023.188549348385
 21
-1971.2369486538689
 31
0.0
  0
LINE
  5
E704
  8
01
 10
956.38853934838573
 20
-1956.7369486538689
 30
0.0
 11
957.18854934838487
 21
-1955.9369286538681
 31
0.0
  0
LINE
  5
E705
  8
01
 10
957.18854934838487
 20
-1951.2369486538689
 30
0.0
 11
957.18854934838487
 21
-1955.9369286538681
 31
0.0
  0
LINE
  5
E706
  8
01
 10
954.78855934838487
 20
-1956.7369186538681
 30
0.0
 11
955.58854934838632
 21
-1955.936958653868
 31
0.0
  0
LINE
  5
E707
  8
01
 10
942.18854934838475
 20
-1969.4869486538689
 30
0.0
 11
953.18854934838475
 21
-1969.4869486538689
 31
0.0
  0
LINE
  5
E708
  8
01
 10
942.18854934838475
 20
-1969.4869486538689
 30
0.0
 11
942.18854934838475
 21
-1967.4869486538689
 31
0.0
  0
LINE
  5
E709
  8
01
 10
953.18854934838475
 20
-1949.2369486538689
 30
0.0
 11
954.78855934838487
 21
-1949.2369486538689
 31
0.0
  0
LINE
  5
E70A
  8
01
 10
954.78855934838487
 20
-1949.2369486538689
 30
0.0
 11
954.78855934838487
 21
-1956.7369486538689
 31
0.0
  0
LINE
  5
E70B
  8
01
 10
955.58855934838607
 20
-1951.2369486538689
 30
0.0
 11
955.58855934838607
 21
-1955.9369286538681
 31
0.0
  0
LINE
  5
E70C
  8
01
 10
954.78855934838487
 20
-1951.2369486538689
 30
0.0
 11
957.18854934838487
 21
-1951.2369486538689
 31
0.0
  0
LINE
  5
E70D
  8
01
 10
957.18854934838487
 20
-1967.536938653868
 30
0.0
 11
957.18854934838487
 21
-1971.2369486538689
 31
0.0
  0
LINE
  5
E70E
  8
01
 10
956.38855934838534
 20
-1966.736918653869
 30
0.0
 11
957.18854934838487
 21
-1967.536938653868
 31
0.0
  0
LINE
  5
E70F
  8
01
 10
957.18854934838487
 20
-1969.6369386538679
 30
0.0
 11
961.78855934838487
 21
-1969.6369386538679
 31
0.0
  0
LINE
  5
E710
  8
01
 10
954.78854934838512
 20
-1966.736918653869
 30
0.0
 11
955.58855934838607
 21
-1967.536938653868
 31
0.0
  0
LINE
  5
E711
  8
01
 10
954.78855934838487
 20
-1966.7369486538689
 30
0.0
 11
954.78855934838487
 21
-1974.2369486538689
 31
0.0
  0
LINE
  5
E712
  8
01
 10
953.18854934838475
 20
-1974.2369486538689
 30
0.0
 11
954.78855934838487
 21
-1974.2369486538689
 31
0.0
  0
LINE
  5
E713
  8
01
 10
955.58855934838607
 20
-1967.536938653868
 30
0.0
 11
955.58855934838607
 21
-1971.2369486538689
 31
0.0
  0
LINE
  5
E714
  8
01
 10
953.18854934838475
 20
-1941.7369486538689
 30
0.0
 11
953.18854934838475
 21
-1981.7369486538689
 31
0.0
  0
LINE
  5
E715
  8
01
 10
961.78855934838487
 20
-1953.836918653868
 30
0.0
 11
961.78855934838487
 21
-1971.2369486538689
 31
0.0
  0
LINE
  5
E716
  8
01
 10
956.38854934838548
 20
-1956.7369486538689
 30
0.0
 11
956.38854934838548
 21
-1966.7369486538689
 31
0.0
  0
LINE
  5
E717
  8
01
 10
954.78855934838487
 20
-1956.7369486538689
 30
0.0
 11
954.78855934838487
 21
-1966.7369486538689
 31
0.0
  0
ARC
  5
E718
  8
01
 10
985.85804934838507
 20
-1991.8380286538679
 30
0.0
 40
50.0
 50
130.79769000000621
 51
150.8550000000302
  0
LINE
  5
E719
  8
01
 10
985.54989789461706
 20
-1996.236979653868
 30
0.0
 11
1001.172534506068
 21
-1996.236979653868
 31
0.0
  0
LINE
  5
E71A
  8
01
 10
1021.588549348386
 20
-1953.836918653868
 30
0.0
 11
1021.588549348386
 21
-1971.2369486538689
 31
0.0
  0
LINE
  5
E71B
  8
01
 10
1023.188549348385
 20
-1952.2369486538689
 30
0.0
 11
1023.188549348385
 21
-1971.2369486538689
 31
0.0
  0
LINE
  5
E71C
  8
01
 10
985.54989789461706
 20
-1927.23691765387
 30
0.0
 11
1001.172534506068
 21
-1927.23691765387
 31
0.0
  0
LINE
  5
E71D
  8
01
 10
720.18767316632386
 20
-2267.7369486528401
 30
0.0
 11
706.18767316632409
 21
-2267.7369486528401
 31
0.0
  0
LINE
  5
E71E
  8
01
 10
720.18767316632386
 20
-2153.736948652841
 30
0.0
 11
706.18767316632409
 21
-2153.736948652841
 31
0.0
  0
LINE
  5
E71F
  8
01
 10
840.68766916632444
 20
-2153.736948652841
 30
0.0
 11
827.68766916632433
 21
-2153.736948652841
 31
0.0
  0
LINE
  5
E720
  8
01
 10
834.18766916632444
 20
-2147.236948652841
 30
0.0
 11
834.18766916632444
 21
-2160.2369486528401
 31
0.0
  0
LINE
  5
E721
  8
01
 10
840.68766916632444
 20
-2267.7369486528401
 30
0.0
 11
827.68766916632433
 21
-2267.7369486528401
 31
0.0
  0
LINE
  5
E722
  8
01
 10
834.18766916632444
 20
-2261.2369486528401
 30
0.0
 11
834.18766916632444
 21
-2274.236948652841
 31
0.0
  0
LINE
  5
E723
  8
01
 10
694.1876731663242
 20
-2231.736948652841
 30
0.0
 11
634.1876731663242
 21
-2231.736948652841
 31
0.0
  0
LINE
  5
E724
  8
01
 10
664.18767316632409
 20
-2201.736948652841
 30
0.0
 11
664.18767316632409
 21
-2261.736948652841
 31
0.0
  0
LINE
  5
E725
  8
01
 10
974.18766516632468
 20
-2231.736948652841
 30
0.0
 11
1034.187665166324
 21
-2231.736948652841
 31
0.0
  0
LINE
  5
E726
  8
01
 10
1004.187665166324
 20
-2201.736948652841
 30
0.0
 11
1004.187665166324
 21
-2261.736948652841
 31
0.0
  0
POINT
  5
E727
  8
01
 10
868.68766916632433
 20
-2231.736948652841
 30
0.0
  0
LINE
  5
E728
  8
01
 10
868.28766915632445
 20
-2233.4869486528401
 30
0.0
 11
868.28766915632445
 21
-2232.6369486328408
 31
0.0
  0
LINE
  5
E729
  8
01
 10
869.08766917632454
 20
-2233.4869486528401
 30
0.0
 11
869.08766917632454
 21
-2232.6369486328408
 31
0.0
  0
LINE
  5
E72A
  8
01
 10
867.78766918632448
 20
-2232.13694866284
 30
0.0
 11
866.93766916632433
 21
-2232.13694866284
 31
0.0
  0
LINE
  5
E72B
  8
01
 10
867.78766918632448
 20
-2231.3369486428401
 30
0.0
 11
866.93766916632433
 21
-2231.3369486428401
 31
0.0
  0
LINE
  5
E72C
  8
01
 10
866.93766916632433
 20
-2232.13694866284
 30
0.0
 11
866.93766916632433
 21
-2231.3369486428401
 31
0.0
  0
LINE
  5
E72D
  8
01
 10
869.08766917632454
 20
-2233.4869486528401
 30
0.0
 11
868.28766915632445
 21
-2233.4869486528401
 31
0.0
  0
LINE
  5
E72E
  8
01
 10
869.08766917632454
 20
-2229.9869486528401
 30
0.0
 11
869.08766917632454
 21
-2230.8369486728411
 31
0.0
  0
LINE
  5
E72F
  8
01
 10
868.28766915632445
 20
-2229.9869486528401
 30
0.0
 11
868.28766915632445
 21
-2230.8369486728411
 31
0.0
  0
LINE
  5
E730
  8
01
 10
869.58766914632417
 20
-2231.3369486428401
 30
0.0
 11
870.43766916632433
 21
-2231.3369486428401
 31
0.0
  0
LINE
  5
E731
  8
01
 10
869.58766914632417
 20
-2232.13694866284
 30
0.0
 11
870.43766916632433
 21
-2232.13694866284
 31
0.0
  0
LINE
  5
E732
  8
01
 10
870.43766916632433
 20
-2231.3369486428401
 30
0.0
 11
870.43766916632433
 21
-2232.13694866284
 31
0.0
  0
LINE
  5
E733
  8
01
 10
868.28766915632445
 20
-2229.9869486528401
 30
0.0
 11
869.08766917632454
 21
-2229.9869486528401
 31
0.0
  0
CIRCLE
  5
E734
  8
01
 10
868.68766916632433
 20
-2231.736948652841
 30
0.0
 40
2.5
  0
ARC
  5
E735
  8
01
 10
869.58766914632417
 20
-2230.8369486728411
 30
0.0
 40
0.5
 50
179.999989999999
 51
270.0
  0
ARC
  5
E736
  8
01
 10
869.58766914632417
 20
-2232.6369486328408
 30
0.0
 40
0.5
 50
90.00000299999769
 51
180.000010000001
  0
ARC
  5
E737
  8
01
 10
867.78766918632448
 20
-2232.6369486328408
 30
0.0
 40
0.5
 50
0.0
 51
90.00000299999769
  0
ARC
  5
E738
  8
01
 10
867.78766918632448
 20
-2230.8369486728411
 30
0.0
 40
0.5
 50
270.0
 51
0.0
  0
POINT
  5
E73A
  8
01
 10
799.68766916632444
 20
-2231.736948652841
 30
0.0
 50
180.0
  0
CIRCLE
  5
E73B
  8
01
 10
799.68766916632444
 20
-2231.736948652841
 30
0.0
 40
2.5
  0
LINE
  5
E740
  8
01
 10
651.18766516632331
 20
-2181.736948652841
 30
0.0
 11
677.18766516632331
 21
-2181.736948652841
 31
0.0
  0
LINE
  5
E741
  8
01
 10
686.68766516632331
 20
-2176.236948652841
 30
0.0
 11
641.6876651663232
 21
-2176.236948652841
 31
0.0
  0
LINE
  5
E742
  8
01
 10
664.18766516632331
 20
-2153.736948652841
 30
0.0
 11
664.18766516632331
 21
-2198.7369486528401
 31
0.0
  0
LINE
  5
E743
  8
01
 10
1017.187673166325
 20
-2181.736948652841
 30
0.0
 11
991.18767316632545
 21
-2181.736948652841
 31
0.0
  0
LINE
  5
E744
  8
01
 10
981.68767316632545
 20
-2176.236948652841
 30
0.0
 11
1026.6876731663251
 21
-2176.236948652841
 31
0.0
  0
LINE
  5
E745
  8
01
 10
1004.187673166325
 20
-2153.736948652841
 30
0.0
 11
1004.187673166325
 21
-2198.7369486528401
 31
0.0
  0
LINE
  5
E74A
  8
01
 10
1004.18778150607
 20
-1911.7369486538689
 30
0.0
 11
1004.18778150607
 21
-1946.736948653868
 31
0.0
  0
LINE
  5
E74B
  8
01
 10
1004.18778150607
 20
-1976.7369486538689
 30
0.0
 11
1004.18778150607
 21
-2011.7369486538689
 31
0.0
  0
LINE
  5
E74C
  8
01
 10
784.18766916632455
 20
-2231.736948652841
 30
0.0
 11
819.18766916632455
 21
-2231.736948652841
 31
0.0
  0
LINE
  5
E74D
  8
01
 10
849.18766916632467
 20
-2231.736948652841
 30
0.0
 11
884.18766916632455
 21
-2231.736948652841
 31
0.0
  0
LINE
  5
E74E
  8
01
 10
953.18854934838475
 20
-1981.7369486538689
 30
0.0
 11
1106.942929503417
 21
-1981.7369486538689
 31
0.0
  0
LINE
  5
E74F
  8
01
 10
953.18854934838475
 20
-1941.7369486538689
 30
0.0
 11
1106.942929503417
 21
-1941.7369486538689
 31
0.0
  0
ARC
  5
E767
  8
01
 10
1004.187665166324
 20
-2231.736948652841
 30
0.0
 40
25.0
 50
23.57817847818421
 51
336.42182152181579
  0
ARC
  5
E769
  8
01
 10
1004.187665166324
 20
-2231.736948652841
 30
0.0
 40
10.004418743893529
 50
271.70297040758578
 51
88.297029592466345
  0
LINE
  5
E76A
  8
01
 10
1014.187781506069
 20
-1990.7369486538689
 30
0.0
 11
1012.137778506071
 21
-1990.7369486538689
 31
0.0
  0
LINE
  5
E76B
  8
01
 10
996.23778450606972
 20
-1990.7369486538689
 30
0.0
 11
994.1877815060692
 21
-1990.7369486538689
 31
0.0
  0
LINE
  5
E76C
  8
01
 10
1012.137778506069
 20
-1990.7369486538689
 30
0.0
 11
996.23778450606767
 21
-1990.7369486538689
 31
0.0
  0
LINE
  5
E76D
  8
01
 10
1015.187781506069
 20
-2018.7369486538689
 30
0.0
 11
1029.6877815060691
 21
-2018.7369486538689
 31
0.0
  0
ARC
  5
E76E
  8
01
 10
1029.6877815060691
 20
-2019.2369486538689
 30
0.0
 40
0.5
 50
0.0
 51
90.0
  0
ARC
  5
E76F
  8
01
 10
1015.187781506069
 20
-2017.7369486538689
 30
0.0
 40
1.0
 50
180.0
 51
270.0
  0
LINE
  5
E770
  8
01
 10
1014.187781506069
 20
-2018.7369486538689
 30
0.0
 11
1004.187781506069
 21
-2028.7369486538671
 31
0.0
  0
ARC
  5
E771
  8
01
 10
995.18778150606943
 20
-2018.3227350914899
 30
0.0
 40
1.0
 50
180.0
 51
224.9999999999998
  0
LINE
  5
E772
  8
01
 10
1014.187781506069
 20
-1990.736948653868
 30
0.0
 11
1014.187781506069
 21
-2017.7369486538689
 31
0.0
  0
LINE
  5
E773
  8
01
 10
994.1877815060692
 20
-1990.736948653868
 30
0.0
 11
994.1877815060692
 21
-2018.3227350914899
 31
0.0
  0
ARC
  5
E774
  8
01
 10
1029.6877815060691
 20
-2038.2369486538689
 30
0.0
 40
0.5
 50
270.0
 51
0.0
  0
LINE
  5
E775
  8
01
 10
1014.601995068444
 20
-2038.7369486538689
 30
0.0
 11
1029.6877815060691
 21
-2038.7369486538689
 31
0.0
  0
ARC
  5
E776
  8
01
 10
1014.601995068444
 20
-2037.7369486538689
 30
0.0
 40
1.0
 50
224.9999999999998
 51
270.0
  0
LINE
  5
E777
  8
01
 10
1030.1877815060691
 20
-2019.2369486538689
 30
0.0
 11
1030.1877815060691
 21
-2038.2369486538689
 31
0.0
  0
LINE
  5
E778
  8
01
 10
1013.894888287258
 20
-2038.444055435056
 30
0.0
 11
994.48067472488265
 21
-2019.0298418726759
 31
0.0
  0
CIRCLE
  5
E779
  8
01
 10
901.18766916632433
 20
-2231.736948652841
 30
0.0
 40
10.0
  0
LINE
  5
E77A
  8
01
 10
863.18766916632421
 20
-2221.736948652841
 30
0.0
 11
901.18766916632433
 21
-2221.736948652841
 31
0.0
  0
LINE
  5
E77B
  8
01
 10
901.18766916632433
 20
-2241.736948652841
 30
0.0
 11
863.18766916632421
 21
-2241.736948652841
 31
0.0
  0
LINE
  5
E77C
  8
01
 10
863.18766916632421
 20
-2241.736948652841
 30
0.0
 11
863.18766916632421
 21
-2221.736948652841
 31
0.0
  0
LINE
  5
E77D
  8
01
 10
1031.4849771290289
 20
-2241.736948652841
 30
0.0
 11
1126.0750374799579
 21
-2241.7369486528828
 31
0.0
  0
LINE
  5
E77E
  8
01
 10
1031.4849771290289
 20
-2221.736948652841
 30
0.0
 11
1126.0750374799591
 21
-2221.736948652841
 31
0.0
  0
LINE
  5
E77F
  8
01
 10
1029.4849771290289
 20
-2241.736948652841
 30
0.0
 11
1004.484977129031
 21
-2241.736948652841
 31
0.0
  0
LINE
  5
E780
  8
01
 10
1029.4849771290289
 20
-2221.736948652841
 30
0.0
 11
1004.4849771290289
 21
-2221.736948652841
 31
0.0
  0
ARC
  5
E781
  8
01
 10
1031.4849771290289
 20
-2222.7369486528401
 30
0.0
 40
1.0
 50
90.0
 51
180.0
  0
ARC
  5
E782
  8
01
 10
1029.4849771290289
 20
-2222.7369486528401
 30
0.0
 40
1.0
 50
0.0
 51
90.0
  0
ARC
  5
E783
  8
01
 10
1031.4849771290289
 20
-2240.736948652841
 30
0.0
 40
1.0
 50
180.0
 51
270.0
  0
ARC
  5
E784
  8
01
 10
1029.4849771290289
 20
-2240.736948652841
 30
0.0
 40
1.0
 50
270.0
 51
0.0
  0
LINE
  5
E785
  8
01
 10
1030.4849771290289
 20
-2222.7369486528401
 30
0.0
 11
1030.4849771290289
 21
-2240.736948652841
 31
0.0
  0
ARC
  5
E786
  8
01
 10
1126.0750374799591
 20
-2222.736948652881
 30
0.0
 40
1.0
 50
5.2159085704495194
 51
90.0
  0
ARC
  5
E787
  8
01
 10
1126.0750374799591
 20
-2240.7369486528819
 30
0.0
 40
1.0
 50
270.0
 51
354.78409142955047
  0
ARC
  5
E788
  8
01
 10
1027.4849771290289
 20
-2231.7369486528819
 30
0.0
 40
100.0
 50
354.78409142955047
 51
5.2159085704495194
  0
ARC
  5
E789
  8
01
 10
1004.4849771290289
 20
-2231.736948652841
 30
0.0
 40
10.0
 50
90.0
 51
270.0
  0
ARC
  5
E78A
  8
01
 10
1031.1877815060691
 20
-2019.736948653868
 30
0.0
 40
1.0
 50
90.0
 51
180.0
  0
ARC
  5
E78B
  8
01
 10
1031.1877815060691
 20
-2037.736948653868
 30
0.0
 40
1.0
 50
180.0
 51
270.0
  0
LINE
  5
E78C
  8
01
 10
1030.1877815060691
 20
-2037.736948653868
 30
0.0
 11
1030.1877815060691
 21
-2019.736948653868
 31
0.0
  0
ARC
  5
E78D
  8
01
 10
1125.777841856999
 20
-2019.736948653868
 30
0.0
 40
1.0
 50
5.2159085704495194
 51
90.0
  0
ARC
  5
E78E
  8
01
 10
1125.777841856999
 20
-2037.736948653868
 30
0.0
 40
1.0
 50
270.0
 51
354.78409142955047
  0
ARC
  5
E78F
  8
01
 10
1027.1877815060691
 20
-2028.736948653868
 30
0.0
 40
100.0
 50
354.78409142955047
 51
5.2159085704495194
  0
LINE
  5
E790
  8
01
 10
1031.1877815060691
 20
-2018.736948653868
 30
0.0
 11
1125.777841856999
 21
-2018.736948653868
 31
0.0
  0
LINE
  5
E791
  8
01
 10
1125.777841856999
 20
-2038.736948653868
 30
0.0
 11
1031.1877815060691
 21
-2038.736948653868
 31
0.0
  0
LINE
  5
E79F
  8
01
 10
1014.187781506069
 20
-1932.7369486538689
 30
0.0
 11
1006.687781506064
 21
-1932.7369486538689
 31
0.0
  0
LINE
  5
E7A0
  8
01
 10
1001.687781506062
 20
-1932.736948653868
 30
0.0
 11
994.1877815060692
 21
-1932.7369486538689
 31
0.0
  0
LINE
  5
E7A1
  8
01
 10
1015.187781506069
 20
-1904.7369486538689
 30
0.0
 11
1029.6877815060691
 21
-1904.7369486538689
 31
0.0
  0
ARC
  5
E7A2
  8
01
 10
1029.6877815060691
 20
-1904.2369486538689
 30
0.0
 40
0.5
 50
270.0
 51
0.0
  0
ARC
  5
E7A3
  8
01
 10
1015.187781506069
 20
-1905.7369486538689
 30
0.0
 40
1.0
 50
90.0
 51
180.0
  0
LINE
  5
E7A4
  8
01
 10
1014.187781506069
 20
-1904.7369486538689
 30
0.0
 11
1004.187781506069
 21
-1894.736948653871
 31
0.0
  0
ARC
  5
E7A5
  8
01
 10
995.18778150606943
 20
-1905.151162216247
 30
0.0
 40
1.0
 50
135.0000000000002
 51
180.0
  0
LINE
  5
E7A6
  8
01
 10
1014.187781506069
 20
-1932.7369486538689
 30
0.0
 11
1014.187781506069
 21
-1905.7369486538689
 31
0.0
  0
LINE
  5
E7A7
  8
01
 10
994.1877815060692
 20
-1932.7369486538689
 30
0.0
 11
994.1877815060692
 21
-1905.151162216247
 31
0.0
  0
ARC
  5
E7A8
  8
01
 10
1029.6877815060691
 20
-1885.2369486538689
 30
0.0
 40
0.5
 50
0.0
 51
90.0
  0
LINE
  5
E7A9
  8
01
 10
1014.601995068444
 20
-1884.7369486538689
 30
0.0
 11
1029.6877815060691
 21
-1884.7369486538689
 31
0.0
  0
ARC
  5
E7AA
  8
01
 10
1014.601995068444
 20
-1885.7369486538689
 30
0.0
 40
1.0
 50
90.0
 51
135.0000000000002
  0
LINE
  5
E7AB
  8
01
 10
1030.1877815060691
 20
-1904.2369486538689
 30
0.0
 11
1030.1877815060691
 21
-1885.2369486538689
 31
0.0
  0
LINE
  5
E7AC
  8
01
 10
1013.894888287258
 20
-1885.029841872682
 30
0.0
 11
994.48067472488265
 21
-1904.444055435062
 31
0.0
  0
ARC
  5
E7AD
  8
01
 10
1031.1877815060691
 20
-1903.7369486538701
 30
0.0
 40
1.0
 50
180.0
 51
270.0
  0
ARC
  5
E7AE
  8
01
 10
1031.1877815060691
 20
-1885.7369486538689
 30
0.0
 40
1.0
 50
90.0
 51
180.0
  0
LINE
  5
E7AF
  8
01
 10
1030.1877815060691
 20
-1885.7369486538689
 30
0.0
 11
1030.1877815060691
 21
-1903.7369486538701
 31
0.0
  0
ARC
  5
E7B0
  8
01
 10
1125.777841856999
 20
-1903.7369486538701
 30
0.0
 40
1.0
 50
270.0
 51
354.78409142955047
  0
ARC
  5
E7B1
  8
01
 10
1125.777841856999
 20
-1885.7369486538689
 30
0.0
 40
1.0
 50
5.2159085704495194
 51
90.0
  0
ARC
  5
E7B2
  8
01
 10
1027.1877815060691
 20
-1894.7369486538701
 30
0.0
 40
100.0
 50
354.78409142955047
 51
5.2159085704495194
  0
LINE
  5
E7B3
  8
01
 10
1031.1877815060691
 20
-1904.7369486538701
 30
0.0
 11
1125.777841856999
 21
-1904.7369486538701
 31
0.0
  0
LINE
  5
E7B4
  8
01
 10
1125.777841856999
 20
-1884.7369486538701
 30
0.0
 11
1031.1877815060691
 21
-1884.7369486538701
 31
0.0
  0
ARC
  5
E7B5
  8
01
 10
664.18767316632375
 20
-2231.736948652841
 30
0.0
 40
25.0
 50
203.57817847818421
 51
156.42182152181579
  0
ARC
  5
E7B6
  8
01
 10
664.18767316632375
 20
-2231.736948652841
 30
0.0
 40
10.004418743893529
 50
91.702970407533655
 51
268.29702959241422
  0
CIRCLE
  5
E7B7
  8
01
 10
767.18766916632421
 20
-2231.736948652841
 30
0.0
 40
10.0
  0
LINE
  5
E7B8
  8
01
 10
805.18766916632421
 20
-2221.736948652841
 30
0.0
 11
767.18766916632421
 21
-2221.736948652841
 31
0.0
  0
LINE
  5
E7B9
  8
01
 10
767.18766916632421
 20
-2241.736948652841
 30
0.0
 11
805.18766916632421
 21
-2241.736948652841
 31
0.0
  0
LINE
  5
E7BA
  8
01
 10
805.18766916632421
 20
-2241.736948652841
 30
0.0
 11
805.18766916632421
 21
-2221.736948652841
 31
0.0
  0
LINE
  5
E7BB
  8
01
 10
636.8903612036188
 20
-2241.736948652841
 30
0.0
 11
542.3003008526897
 21
-2241.7369486528828
 31
0.0
  0
LINE
  5
E7BC
  8
01
 10
636.8903612036188
 20
-2221.736948652841
 30
0.0
 11
542.30030085268879
 21
-2221.736948652841
 31
0.0
  0
LINE
  5
E7BD
  8
01
 10
638.89036120361868
 20
-2241.736948652841
 30
0.0
 11
663.89036120361698
 21
-2241.736948652841
 31
0.0
  0
LINE
  5
E7BE
  8
01
 10
638.89036120361868
 20
-2221.736948652841
 30
0.0
 11
663.89036120361868
 21
-2221.736948652841
 31
0.0
  0
ARC
  5
E7BF
  8
01
 10
636.8903612036188
 20
-2222.7369486528401
 30
0.0
 40
1.0
 50
0.0
 51
90.0
  0
ARC
  5
E7C0
  8
01
 10
638.89036120361868
 20
-2222.7369486528401
 30
0.0
 40
1.0
 50
90.0
 51
180.0
  0
ARC
  5
E7C1
  8
01
 10
636.8903612036188
 20
-2240.736948652841
 30
0.0
 40
1.0
 50
270.0
 51
0.0
  0
ARC
  5
E7C2
  8
01
 10
638.89036120361868
 20
-2240.736948652841
 30
0.0
 40
1.0
 50
180.0
 51
270.0
  0
LINE
  5
E7C3
  8
01
 10
637.8903612036188
 20
-2222.7369486528401
 30
0.0
 11
637.8903612036188
 21
-2240.736948652841
 31
0.0
  0
ARC
  5
E7C4
  8
01
 10
542.30030085268879
 20
-2222.736948652881
 30
0.0
 40
1.0
 50
90.0
 51
174.78409142955039
  0
ARC
  5
E7C5
  8
01
 10
542.30030085268879
 20
-2240.7369486528819
 30
0.0
 40
1.0
 50
185.21590857044939
 51
270.0
  0
ARC
  5
E7C6
  8
01
 10
640.8903612036188
 20
-2231.7369486528819
 30
0.0
 40
100.0
 50
174.78409142955039
 51
185.21590857044939
  0
ARC
  5
E7C7
  8
01
 10
663.89036120361868
 20
-2231.736948652841
 30
0.0
 40
10.0
 50
270.0
 51
90.0
  0
LINE
  5
E7CA
  8
01
 10
979.18766516632456
 20
-1981.7369486538739
 30
0.0
 11
1029.187665166324
 21
-1981.7369486538639
 31
0.0
  0
LINE
  5
E7CB
  8
01
 10
979.68766516632195
 20
-1990.2369486538701
 30
0.0
 11
1028.6876651663249
 21
-1990.2369486538671
 31
0.0
  0
ARC
  5
E7CC
  8
01
 10
979.68766516632195
 20
-1989.7369486538651
 30
0.0
 40
0.5
 50
179.99999999997391
 51
270.0
  0
LINE
  5
E7CD
  8
01
 10
979.18766516632456
 20
-1981.7369486538739
 30
0.0
 11
979.18766516632195
 21
-1989.7369486538651
 31
0.0
  0
ARC
  5
E7CE
  8
01
 10
1028.6876651663249
 20
-1989.7369486538621
 30
0.0
 40
0.5
 50
270.0
 51
0.0
  0
LINE
  5
E7CF
  8
01
 10
1029.187665166324
 20
-1981.7369486538639
 30
0.0
 11
1029.187665166324
 21
-1989.7369486538621
 31
0.0
  0
LINE
  5
E7D0
  8
01
 10
979.18766516632513
 20
-1941.7369486538639
 30
0.0
 11
1029.187665166324
 21
-1941.736948653873
 31
0.0
  0
LINE
  5
E7D1
  8
01
 10
979.68766516632195
 20
-1933.236948653868
 30
0.0
 11
1001.687781506062
 21
-1933.2369486538689
 31
0.0
  0
LINE
  5
E7D2
  8
01
 10
1006.687781506064
 20
-1933.2369486538689
 30
0.0
 11
1028.6876651663249
 21
-1933.236948653871
 31
0.0
  0
ARC
  5
E7D3
  8
01
 10
979.68766516632195
 20
-1933.736948653863
 30
0.0
 40
0.5
 50
90.0
 51
180.00000000002601
  0
LINE
  5
E7D4
  8
01
 10
979.18766516632513
 20
-1941.7369486538639
 30
0.0
 11
979.18766516632195
 21
-1933.736948653863
 31
0.0
  0
ARC
  5
E7D5
  8
01
 10
1028.6876651663249
 20
-1933.736948653866
 30
0.0
 40
0.5
 50
0.0
 51
90.0
  0
LINE
  5
E7D6
  8
01
 10
1029.187665166324
 20
-1941.736948653873
 30
0.0
 11
1029.187665166324
 21
-1933.736948653866
 31
0.0
  0
LINE
  5
E7D7
  8
01
 10
854.18766916632921
 20
-2256.7369486528401
 30
0.0
 11
854.18766916631989
 21
-2206.7369486528401
 31
0.0
  0
LINE
  5
E7D8
  8
01
 10
862.68766916632478
 20
-2256.2369486528428
 30
0.0
 11
862.68766916632217
 21
-2207.236948652841
 31
0.0
  0
ARC
  5
E7D9
  8
01
 10
862.18766916632421
 20
-2256.2369486528428
 30
0.0
 40
0.5
 50
269.99999999994787
 51
0.0
  0
LINE
  5
E7DA
  8
01
 10
854.18766916632921
 20
-2256.7369486528401
 30
0.0
 11
862.18766916632512
 21
-2256.7369486528428
 31
0.0
  0
ARC
  5
E7DB
  8
01
 10
862.18766916631705
 20
-2207.236948652841
 30
0.0
 40
0.5
 50
0.0
 51
90.0
  0
LINE
  5
E7DC
  8
01
 10
854.18766916631989
 20
-2206.7369486528401
 30
0.0
 11
862.18766916631705
 21
-2206.7369486528401
 31
0.0
  0
LINE
  5
E7DD
  8
01
 10
814.18766916631989
 20
-2256.7369486528401
 30
0.0
 11
814.1876691663291
 21
-2206.7369486528401
 31
0.0
  0
LINE
  5
E7DE
  8
01
 10
805.68766916632387
 20
-2256.2369486528428
 30
0.0
 11
805.68766916632694
 21
-2207.236948652841
 31
0.0
  0
ARC
  5
E7DF
  8
01
 10
806.18766916632501
 20
-2256.2369486528428
 30
0.0
 40
0.5
 50
180.0
 51
270.00000000005213
  0
LINE
  5
E7E0
  8
01
 10
814.18766916631989
 20
-2256.7369486528401
 30
0.0
 11
806.18766916632421
 21
-2256.7369486528428
 31
0.0
  0
ARC
  5
E7E1
  8
01
 10
806.18766916632183
 20
-2207.236948652841
 30
0.0
 40
0.5
 50
90.0
 51
180.0
  0
LINE
  5
E7E2
  8
01
 10
814.1876691663291
 20
-2206.7369486528401
 30
0.0
 11
806.18766916632183
 21
-2206.7369486528401
 31
0.0
  0
CIRCLE
  5
E7E3
  8
01
 10
1004.187665166324
 20
-2176.236948652841
 30
0.0
 40
19.999999999997101
  0
CIRCLE
  5
E7E4
  8
01
 10
664.18766516632331
 20
-2176.236948652841
 30
0.0
 40
19.999999999997101
  0
LINE
  5
E7E5
  8
01
 10
860.48766916632439
 20
-2195.736948652836
 30
0.0000000000562575
 11
860.48766916632439
 21
-2156.736948652836
 31
0.0000000000562575
  0
LINE
  5
E7E6
  8
01
 10
854.18766916632455
 20
-2156.236948652836
 30
0.0000000000562575
 11
854.18766916632012
 21
-2196.2369486528441
 31
0.0000000000562575
  0
LINE
  5
E7E7
  8
01
 10
854.18766916632421
 20
-2196.236948652836
 30
0.0000000000562575
 11
859.98766916632439
 21
-2196.236948652836
 31
0.0000000000562575
  0
ARC
  5
E7E8
  8
01
 10
859.98766916632439
 20
-2195.736948652836
 30
0.0000000000562575
 40
0.5
 50
270.0
 51
0.0
  0
LINE
  5
E7E9
  8
01
 10
854.18766916632455
 20
-2156.236948652836
 30
0.0000000000562575
 11
859.98766916632439
 21
-2156.236948652836
 31
0.0000000000562575
  0
ARC
  5
E7EA
  8
01
 10
859.98766916632439
 20
-2156.736948652836
 30
0.0000000000562575
 40
0.5
 50
0.0
 51
90.0
  0
CIRCLE
  5
E7EB
  8
01
 10
1004.187673166325
 20
-2181.7369484487131
 30
0.0
 40
3.75
  0
LINE
  5
E7EC
  8
01
 10
861.21106916632471
 20
-2178.236947331905
 30
-0.0000000000001137
 11
860.48766916632439
 21
-2178.236947331905
 31
-0.0000000000001137
  0
LINE
  5
E7ED
  8
01
 10
861.21106916632471
 20
-2185.236947331905
 30
-0.0000000000001137
 11
860.48766916632439
 21
-2185.236947331905
 31
-0.0000000000001137
  0
LINE
  5
E7EE
  8
01
 10
807.88766916632449
 20
-2195.7369486528428
 30
0.0
 11
807.88766916632449
 21
-2156.7369486528441
 31
0.0
  0
LINE
  5
E7EF
  8
01
 10
814.18766916632467
 20
-2156.2369486528428
 30
0.0
 11
814.18766916632012
 21
-2196.2369486528441
 31
0.0
  0
LINE
  5
E7F0
  8
01
 10
814.18766916632467
 20
-2196.2369486528441
 30
0.0
 11
808.38766916632449
 21
-2196.2369486528441
 31
0.0
  0
ARC
  5
E7F1
  8
01
 10
808.38766916632449
 20
-2195.7369486528428
 30
0.0
 40
0.5
 50
180.0
 51
270.0
  0
LINE
  5
E7F2
  8
01
 10
814.18766916632467
 20
-2156.2369486528428
 30
0.0
 11
808.38766916632449
 21
-2156.2369486528441
 31
0.0
  0
ARC
  5
E7F3
  8
01
 10
808.38766916632449
 20
-2156.7369486528441
 30
0.0
 40
0.5
 50
90.0
 51
180.0
  0
CIRCLE
  5
E7F4
  8
01
 10
664.18766516632365
 20
-2181.736948652841
 30
0.0
 40
11.30000000000109
  0
LINE
  5
E7F5
  8
01
 10
793.18728360060277
 20
-2192.7369536528431
 30
0.0
 11
807.88766916632449
 21
-2192.7369536528431
 31
0.0
  0
LINE
  5
E7F6
  8
01
 10
806.68730654481431
 20
-2171.2369536528431
 30
0.0
 11
806.68730654480987
 21
-2192.2369536528431
 31
0.0
  0
LINE
  5
E7F7
  8
01
 10
793.18728360060504
 20
-2170.736953652844
 30
0.0
 11
807.88766916632449
 21
-2170.7369536528431
 31
0.0
  0
ARC
  5
E7F8
  8
01
 10
793.18728360060504
 20
-2171.7369536528431
 30
0.0
 40
1.0
 50
90.0
 51
180.0
  0
LINE
  5
E7F9
  8
01
 10
792.18728360060265
 20
-2171.7369536528431
 30
0.0
 11
792.18728360060265
 21
-2191.7369536528399
 31
0.0
  0
ARC
  5
E7FA
  8
01
 10
793.18728360060277
 20
-2191.7369536528399
 30
0.0
 40
1.0
 50
180.0
 51
270.0
  0
ARC
  5
E7FB
  8
01
 10
807.18730654480976
 20
-2171.2369536528431
 30
0.0
 40
0.5
 50
90.0
 51
179.99999999997391
  0
ARC
  5
E7FC
  8
01
 10
807.18730654480976
 20
-2192.2369536528431
 30
0.0
 40
0.5
 50
179.99999999997391
 51
270.0
  0
LINE
  5
E7FD
  8
01
 10
666.68766516632365
 20
-2171.42918968204
 30
0.0
 11
666.68766516632365
 21
-2192.0447076236419
 31
0.0
  0
LINE
  5
E7FE
  8
01
 10
661.68766516632365
 20
-2171.42918968204
 30
0.0
 11
661.68766516632365
 21
-2192.0447076236419
 31
0.0
  0
ARC
  5
E7FF
  8
01
 10
662.18766516632365
 20
-2171.42918968204
 30
0.0
 40
0.5
 50
100.98058072142879
 51
180.0
  0
ARC
  5
E800
  8
01
 10
666.18766516632365
 20
-2171.42918968204
 30
0.0
 40
0.5
 50
0.0
 51
79.019419278571192
  0
ARC
  5
E801
  8
01
 10
662.18766516632365
 20
-2192.0447076236419
 30
0.0
 40
0.5
 50
180.0
 51
259.01941927857121
  0
ARC
  5
E802
  8
01
 10
666.18766516632365
 20
-2192.0447076236419
 30
0.0
 40
0.5
 50
280.98058072142879
 51
0.0
  0
CIRCLE
  5
E803
  8
01
 10
1004.187673166325
 20
-2181.736948652841
 30
0.0
 40
3.5000004999999992
  0
LINE
  5
E804
  8
01
 10
1005.187673166325
 20
-2185.09105145284
 30
0.0
 11
1005.187673166325
 21
-2178.382844652841
 31
0.0
  0
LINE
  5
E805
  8
01
 10
1003.187673166325
 20
-2185.09105145284
 30
0.0
 11
1003.187673166325
 21
-2178.382844652841
 31
0.0
  0
LINE
  5
E808
  8
01
 10
855.68766916632285
 20
-2196.2369486528441
 30
0.0000000000562575
 11
854.18766916632285
 21
-2196.2369486528441
 31
0.0000000000562575
  0
LINE
  5
E809
  8
01
 10
812.68766916632615
 20
-2196.2369486528501
 30
0.0
 11
814.18766916632592
 21
-2196.2369486528501
 31
0.0
  0
CIRCLE
  5
E80A
  8
01
 10
664.18766516632331
 20
-2181.736948652841
 30
0.0
 40
11.0
  0
LINE
  5
E80B
  8
01
 10
984.18778118361161
 20
-1981.7369486538689
 30
0.0
 11
984.18778118361161
 21
-1987.5369486538691
 31
0.0
  0
LINE
  5
E80C
  8
01
 10
1024.1877811836109
 20
-1981.7369486538689
 30
0.0
 11
1024.1877811836109
 21
-1987.5369486538691
 31
0.0
  0
LINE
  5
E80D
  8
01
 10
984.68778118361149
 20
-1988.0369486538691
 30
0.0
 11
1023.687781183611
 21
-1988.0369486538691
 31
0.0
  0
ARC
  5
E80E
  8
01
 10
984.68778118361149
 20
-1987.5369486538691
 30
0.0
 40
0.5
 50
179.99999999997391
 51
270.0
  0
ARC
  5
E80F
  8
01
 10
1023.687781183611
 20
-1987.5369486538691
 30
0.0
 40
0.5
 50
270.0
 51
0.0
  0
LINE
  5
E810
  8
01
 10
1005.187782827008
 20
-1989.4367186538691
 30
-0.0000000000001137
 11
1005.187782827008
 21
-1988.0369486538691
 31
-0.0000000000001137
  0
ARC
  5
E811
  8
01
 10
1002.887783827008
 20
-1989.4367186538691
 30
-0.0000000000001137
 40
0.30000001
 50
256.81652000000588
 51
0.0000029999846689
  0
ARC
  5
E812
  8
01
 10
1004.187782827008
 20
-1983.886948653869
 30
-0.0000000000001137
 40
6.0
 50
283.18348199998491
 51
305.68533400000848
  0
ARC
  5
E813
  8
01
 10
1005.487785827008
 20
-1989.4367186538691
 30
-0.0000000000001137
 40
0.30000001
 50
180.0
 51
283.18348199998491
  0
LINE
  5
E814
  8
01
 10
1007.687782827008
 20
-1988.760348653869
 30
-0.0000000000001137
 11
1007.687782827008
 21
-1988.0369486538691
 31
-0.0000000000001137
  0
LINE
  5
E815
  8
01
 10
1000.687782827008
 20
-1988.760348653869
 30
-0.0000000000001137
 11
1000.687782827008
 21
-1988.0369486538691
 31
-0.0000000000001137
  0
ARC
  5
E816
  8
01
 10
1004.187782827008
 20
-1983.886948653869
 30
-0.0000000000001137
 40
6.0
 50
234.3146700000031
 51
256.81651749662541
  0
LINE
  5
E817
  8
01
 10
1003.187782827008
 20
-1989.437497113272
 30
-0.0000000000001137
 11
1003.187782827008
 21
-1988.0369486538691
 31
-0.0000000000001137
  0
ARC
  5
E818
  8
01
 10
855.42603425408458
 20
-2181.7369473637268
 30
-0.0000000000001137
 40
6.7614049222401134
 50
328.82566316459219
 51
31.17434083538922
  0
LINE
  5
E819
  8
01
 10
984.18778118361161
 20
-1941.7369486538689
 30
0.0
 11
984.18778118361161
 21
-1935.936948653869
 31
0.0
  0
LINE
  5
E81A
  8
01
 10
1024.1877811836109
 20
-1941.7369486538689
 30
0.0
 11
1024.1877811836109
 21
-1935.936948653869
 31
0.0
  0
LINE
  5
E81B
  8
01
 10
984.68778118361149
 20
-1935.436948653869
 30
0.0
 11
1023.687781183611
 21
-1935.436948653869
 31
0.0
  0
ARC
  5
E81C
  8
01
 10
984.68778118361149
 20
-1935.936948653869
 30
0.0
 40
0.5
 50
90.0
 51
180.0
  0
ARC
  5
E81D
  8
01
 10
1023.687781183611
 20
-1935.936948653869
 30
0.0
 40
0.5
 50
359.99999999997402
 51
90.0
  0
ARC
  5
E81E
  8
01
 10
1007.6877815060629
 20
-1933.2369715980769
 30
0.0
 40
1.0
 50
180.0
 51
270.0
  0
LINE
  5
E81F
  8
01
 10
1007.687781506064
 20
-1934.2369715980769
 30
0.0
 11
1014.687786506062
 21
-1934.236971598076
 31
0.0
  0
ARC
  5
E820
  8
01
 10
1014.687786506062
 20
-1934.7369715980749
 30
0.0
 40
0.5
 50
0.0
 51
90.0
  0
ARC
  5
E821
  8
01
 10
1000.687781506061
 20
-1933.2369715980749
 30
0.0
 40
1.0
 50
270.0
 51
0.0
  0
ARC
  5
E822
  8
01
 10
993.68778650606225
 20
-1934.7369715980749
 30
0.0
 40
0.5
 50
90.0
 51
180.0
  0
LINE
  5
E823
  8
01
 10
1001.687781506062
 20
-1920.736948653873
 30
0.0
 11
1001.687781506062
 21
-1933.2369715980749
 31
0.0
  0
ARC
  5
E824
  8
01
 10
1002.687781506061
 20
-1920.7369486538701
 30
0.0
 40
1.0
 50
90.0
 51
179.9999999999479
  0
LINE
  5
E825
  8
01
 10
1002.687781506062
 20
-1919.7369486538689
 30
0.0
 11
1005.687781506061
 21
-1919.7369486538689
 31
0.0
  0
ARC
  5
E826
  8
01
 10
1005.687781506061
 20
-1920.7369486538701
 30
0.0
 40
1.0
 50
0.0
 51
90.0
  0
LINE
  5
E827
  8
01
 10
1006.687781506062
 20
-1920.7369486538701
 30
0.0
 11
1006.687781506064
 21
-1933.2369715980769
 31
0.0
  0
LINE
  5
E828
  8
01
 10
993.68778650606225
 20
-1934.2369715980749
 30
0.0
 11
1000.687781506062
 21
-1934.2369715980749
 31
0.0
  0
LINE
  5
E829
  8
01
 10
993.18778650606237
 20
-1934.7369715980749
 30
0.0
 11
993.18778650606237
 21
-1935.436948653869
 31
0.0
  0
LINE
  5
E82A
  8
01
 10
1015.187786506062
 20
-1934.7369715980749
 30
0.0
 11
1015.187786506062
 21
-1935.436948653869
 31
0.0
  0
TEXT
  5
EB56
  8
01
 10
756.18768516632622
 20
-2027.3084841283151
 30
0.0
 40
6.0
  1
3-F3C-CK-LW
 41
0.7
 72
     1
 11
780.28768516632624
 21
-2027.3084841283151
 31
0.0
  0
TEXT
  5
EB57
  8
01
 10
709.58768516632335
 20
-2026.7033190701959
 30
0.0
 40
6.0
  1
ブラストブラック
 41
0.65
 72
     1
 11
727.78768516632351
 21
-2026.7033190701959
 31
0.0
  0
LINE
  5
EB58
  8
01
 10
649.18768516632406
 20
-2029.2369486528389
 30
0.0
 11
806.68768516632485
 21
-2029.2369486528401
 31
0.0
  0
LINE
  5
EBB5
  8
01
 10
1022.187665166325
 20
-2173.2369486528401
 30
0.0
 11
1022.187665166325
 21
-2184.9547458741258
 31
0.0
  0
LINE
  5
EBB6
  8
01
 10
1001.187665166325
 20
-2173.2369486528401
 30
0.0
 11
1007.187665166325
 21
-2173.2369486528401
 31
0.0
  0
LINE
  5
EBB7
  8
01
 10
1014.187665166325
 20
-2173.2369486528401
 30
0.0
 11
1022.187665166325
 21
-2173.2369486528401
 31
0.0
  0
LINE
  5
EBB8
  8
01
 10
1001.187665166325
 20
-2174.2369486528401
 30
0.0
 11
1001.187665166325
 21
-2173.2369486528401
 31
0.0
  0
LINE
  5
EBB9
  8
01
 10
1007.187665166325
 20
-2174.236948652841
 30
0.0
 11
1007.187665166325
 21
-2173.2369486528401
 31
0.0
  0
ARC
  5
EBBA
  8
01
 10
997.68766516632479
 20
-2174.236948652841
 30
0.0
 40
3.5
 50
179.99999999997391
 51
0.0
  0
ARC
  5
EBBB
  8
01
 10
1010.687665166325
 20
-2174.236948652841
 30
0.0
 40
3.5
 50
180.0
 51
0.0
  0
CIRCLE
  5
EBBC
  8
01
 10
1004.187665166036
 20
-2181.7369486531302
 30
0.0
 40
6.0
  0
LINE
  5
EBBD
  8
01
 10
994.18766516632479
 20
-2173.2369486528401
 30
0.0
 11
984.41394491058122
 21
-2173.2369486528401
 31
0.0
  0
LINE
  5
EBBE
  8
01
  6
BYBLOCK
 10
984.41394491058122
 20
-2173.2369486528401
 30
0.0
 11
956.18766516632513
 21
-2173.2369486528401
 31
0.0
  0
LINE
  5
EBBF
  8
01
 10
994.18766516632456
 20
-2174.2369486528401
 30
0.0
 11
994.18766516632479
 21
-2173.2369486528401
 31
0.0
  0
LINE
  5
EBC0
  8
01
 10
1014.187665166325
 20
-2174.236948652841
 30
0.0
 11
1014.187665166325
 21
-2173.2369486528401
 31
0.0
  0
LINE
  5
EBC1
  8
01
  6
BYBLOCK
 10
683.9613850996069
 20
-2173.2369486528401
 30
0.0
 11
712.1876731663242
 21
-2173.2369486528401
 31
0.0
  0
LINE
  5
EBC2
  8
01
  6
BYBLOCK
 10
1010.188549348096
 20
-1951.4869486538689
 30
0.0
 11
998.18854934809622
 21
-1951.4869486538689
 31
0.0
  0
LINE
  5
EBC3
  8
01
  6
BYBLOCK
 10
998.18854934809622
 20
-1971.9869486538689
 30
0.0
 11
1010.188549348096
 21
-1971.9869486538689
 31
0.0
  0
LINE
  5
EBC4
  8
01
  6
BYBLOCK
 10
998.18854934809622
 20
-1971.9869486538689
 30
0.0
 11
998.18854934809622
 21
-1971.2369486538689
 31
0.0
  0
LINE
  5
EBC5
  8
01
  6
BYBLOCK
 10
998.18854934809622
 20
-1952.2369486538689
 30
0.0
 11
998.18854934809622
 21
-1951.4869486538689
 31
0.0
  0
LINE
  5
EBC6
  8
01
  6
BYBLOCK
 10
1010.188549348096
 20
-1971.9869486538689
 30
0.0
 11
1010.188549348096
 21
-1971.2369486538689
 31
0.0
  0
LINE
  5
EBC7
  8
01
  6
BYBLOCK
 10
1010.188549348096
 20
-1952.2369486538689
 30
0.0
 11
1010.188549348096
 21
-1951.4869486538689
 31
0.0
  0
TEXT
  5
ED34
  8
01
 10
1053.059884411525
 20
-2002.6761341230369
 30
0.0
 40
4.5499999999999989
  1
材質：アルミ
  0
TEXT
  5
ED35
  8
01
 10
1053.059884411525
 20
-2010.25946745637
 30
0.0
 40
4.5499999999999989
  1
仕上げ：各種仕上げ
  0
SOLID
  5
ED36
  8
01
 10
1038.262824668238
 20
-2025.066875833719
 30
0.0
 11
1036.245656835405
 21
-2026.7635819697259
 31
0.0
 12
1037.603505498028
 22
-2024.5043730844759
 32
0.0
 13
1037.603505498028
 23
-2024.5043730844759
 33
0.0
1001
ACAD
1000
DSTYLE
1002
{
1070
    40
1040
1.3
1002
}
  0
TEXT
  5
ED38
  8
01
 10
914.58415959267427
 20
-2012.153615320535
 30
0.0
 40
4.5499999999999989
  1
材質：亜鉛ダイキャスト
  0
TEXT
  5
ED39
  8
01
 10
930.96415959267426
 20
-2019.7369486538689
 30
0.0
 40
4.5499999999999989
  1
仕上げ：クローム
  0
SOLID
  5
ED3A
  8
01
 10
1001.610520805608
 20
-2000.890936793779
 30
0.0
 11
1003.928266406385
 21
-1999.635614879744
 31
0.0
 12
1002.1429357831749
 22
-2001.57478283111
 32
0.0
 13
1002.1429357831749
 23
-2001.57478283111
 33
0.0
1001
ACAD
1000
DSTYLE
1002
{
1070
    40
1040
1.3
1002
}
  0
LINE
  5
ED3C
  8
01
 10
1010.188549348096
 20
-1951.4869486538689
 30
0.0
 11
1045.3489401080969
 21
-1951.4869486538689
 31
0.0
  0
LINE
  5
ED3D
  8
01
 10
1010.188549348096
 20
-1971.9869486538689
 30
0.0
 11
1045.3489401080969
 21
-1971.9869486538689
 31
0.0
  0
LINE
  5
ED3E
  8
01
 10
1044.0489401080979
 20
-1954.0869486538691
 30
0.0
 11
1044.0489401080979
 21
-1969.386948653869
 31
0.0
  0
LINE
  5
ED42
  8
01
 10
1022.187665166325
 20
-2173.2369486528401
 30
0.0
 11
1050.4876651663251
 21
-2173.236948652841
 31
0.0
  0
LINE
  5
ED43
  8
01
 10
1022.187665166325
 20
-2247.736948652841
 30
0.0
 11
1050.4876651663251
 21
-2247.736948652841
 31
0.0
  0
LINE
  5
ED44
  8
01
 10
1049.1876651663249
 20
-2175.8369486528409
 30
0.0
 11
1049.1876651663249
 21
-2245.1369486528411
 31
0.0
  0
LINE
  5
ED48
  8
01
 10
854.18766916632455
 20
-2139.2395686528398
 30
0.0000000000562575
 11
854.18766916632455
 21
-2124.4369486528399
 31
0.0000000000562575
  0
LINE
  5
ED49
  8
01
 10
862.18743917632492
 20
-2181.7369473637268
 30
0.0000000000562575
 11
862.18743917632492
 21
-2124.4369486528399
 31
0.0000000000562575
  0
LINE
  5
ED4A
  8
01
 10
856.78766916632469
 20
-2125.736948652841
 30
0.0000000000562575
 11
859.58743917632489
 21
-2125.736948652841
 31
0.0000000000562575
  0
LINE
  5
ED4E
  8
01
 10
814.18766916632467
 20
-2139.2395686528398
 30
0.0
 11
814.18766916632467
 21
-2124.4369486528399
 31
0.0
  0
LINE
  5
ED4F
  8
01
 10
792.18728360060504
 20
-2171.7369536528431
 30
0.0
 11
792.18728360060504
 21
-2124.4369486528399
 31
0.0
  0
LINE
  5
ED50
  8
01
 10
811.58766916632453
 20
-2125.736948652841
 30
0.0
 11
794.78728360060495
 21
-2125.736948652841
 31
0.0
  0
LINE
  5
ED54
  8
01
 10
1126.0750374799591
 20
-2221.736948652841
 30
0.0
 11
1143.4876651663251
 21
-2221.736948652841
 31
0.0
  0
LINE
  5
ED55
  8
01
 10
1126.0750374799591
 20
-2241.736948652881
 30
0.0
 11
1143.4876651663251
 21
-2241.736948652881
 31
0.0
  0
LINE
  5
ED56
  8
01
 10
1142.187665166324
 20
-2224.33694865284
 30
0.0
 11
1142.187665166324
 21
-2239.136948652882
 31
0.0
  0
LINE
  5
ED5A
  8
01
 10
1125.777841856999
 20
-2038.736948653868
 30
0.0
 11
1153.487781506069
 21
-2038.736948653868
 31
0.0
  0
LINE
  5
ED5B
  8
01
 10
1106.9429295034161
 20
-1981.7369486538689
 30
0.0
 11
1153.487781506069
 21
-1981.7369486538689
 31
0.0
  0
LINE
  5
ED5C
  8
01
 10
1152.1877815060691
 20
-2036.1369486538681
 30
0.0
 11
1152.1877815060691
 21
-1984.3369486538691
 31
0.0
  0
LINE
  5
ED60
  8
01
 10
1106.9429295034161
 20
-1981.7369486538689
 30
0.0
 11
1143.487781506069
 21
-1981.7369486538689
 31
0.0
  0
LINE
  5
ED61
  8
01
 10
1125.777841856999
 20
-2018.736948653868
 30
0.0
 11
1143.487781506069
 21
-2018.736948653868
 31
0.0
  0
LINE
  5
ED62
  8
01
 10
1142.1877815060691
 20
-1984.3369486538691
 30
0.0
 11
1142.1877815060691
 21
-2016.1369486538681
 31
0.0
  0
LINE
  5
ED66
  8
01
 10
994.1877815060692
 20
-2018.3227350914899
 30
0.0
 11
994.1877815060692
 21
-2065.0369486538689
 31
0.0
  0
LINE
  5
ED67
  8
01
 10
1127.1877815060691
 20
-2028.736948653868
 30
0.0
 11
1127.1877815060691
 21
-2065.0369486538689
 31
0.0
  0
LINE
  5
ED68
  8
01
 10
996.78778150606945
 20
-2063.7369486538678
 30
0.0
 11
1124.5877815060689
 21
-2063.7369486538678
 31
0.0
  0
LINE
  5
ED6C
  8
01
 10
1004.187781506069
 20
-2001.528158540716
 30
0.0
 11
1004.187781506069
 21
-2055.0369486538689
 31
0.0
  0
LINE
  5
ED6D
  8
01
 10
1127.1877815060691
 20
-2028.736948653868
 30
0.0
 11
1127.1877815060691
 21
-2055.0369486538689
 31
0.0
  0
LINE
  5
ED6E
  8
01
 10
1006.787781506069
 20
-2053.7369486538691
 30
0.0
 11
1124.5877815060689
 21
-2053.7369486538691
 31
0.0
  0
LINE
  5
ED72
  8
01
 10
1004.187665166324
 20
-2206.7369486528401
 30
0.0
 11
967.88766516632427
 21
-2206.7369486528401
 31
0.0
  0
LINE
  5
ED73
  8
01
 10
1004.187665166324
 20
-2256.7369486528391
 30
0.0
 11
967.88766516632427
 21
-2256.7369486528391
 31
0.0
  0
LINE
  5
ED74
  8
01
 10
969.18766516632434
 20
-2209.3369486528409
 30
0.0
 11
969.18766516632434
 21
-2254.1369486528401
 31
0.0
  0
LINE
  5
ED78
  8
01
 10
840.68766916632444
 20
-2145.736948652841
 30
0.0
 11
895.48766916632405
 21
-2145.736948652841
 31
0.0
  0
LINE
  5
ED79
  8
01
 10
840.68766916632444
 20
-2275.7369486528401
 30
0.0
 11
895.48766916632405
 21
-2275.7369486528401
 31
0.0
  0
LINE
  5
ED7A
  8
01
 10
894.1876691663241
 20
-2148.33694865284
 30
0.0
 11
894.1876691663241
 21
-2273.1369486528411
 31
0.0
  0
LINE
  5
ED7E
  8
01
 10
840.68766916632444
 20
-2153.736948652841
 30
0.0
 11
879.99126020288088
 21
-2153.736948652841
 31
0.0
  0
LINE
  5
ED7F
  8
01
 10
840.68766916632444
 20
-2267.7369486528401
 30
0.0
 11
879.99126020288088
 21
-2267.7369486528401
 31
0.0
  0
LINE
  5
ED80
  8
01
 10
878.69126020288093
 20
-2156.3369486528409
 30
0.0
 11
878.69126020288093
 21
-2265.1369486528411
 31
0.0
  0
LINE
  5
ED84
  8
01
 10
634.18767316632398
 20
-2231.736948652841
 30
0.0
 11
619.88768516632445
 21
-2231.736948652841
 31
0.0
  0
LINE
  5
ED85
  8
01
 10
641.6876651663232
 20
-2176.236948652841
 30
0.0
 11
619.88768516632445
 21
-2176.236948652841
 31
0.0
  0
LINE
  5
ED86
  8
01
 10
621.1876851663244
 20
-2229.1369486528411
 30
0.0
 11
621.1876851663244
 21
-2178.8369486528409
 31
0.0
  0
LINE
  5
ED8A
  8
01
 10
634.18767316632398
 20
-2231.736948652841
 30
0.0
 11
629.88768516632445
 21
-2231.736948652841
 31
0.0
  0
LINE
  5
ED8B
  8
01
 10
651.18766516632331
 20
-2181.736948652841
 30
0.0
 11
629.88768516632445
 21
-2181.736948652841
 31
0.0
  0
LINE
  5
ED8C
  8
01
 10
631.18768516632429
 20
-2229.1369486528411
 30
0.0
 11
631.18768516632429
 21
-2184.3369486528409
 31
0.0
  0
LINE
  5
ED90
  8
01
 10
644.38766616632302
 20
-2176.236948652841
 30
0.0
 11
644.38766616632302
 21
-2147.4369486528399
 31
0.0
  0
LINE
  5
ED91
  8
01
 10
683.98766416632316
 20
-2176.236948652841
 30
0.0
 11
683.98766416632316
 21
-2147.4369486528399
 31
0.0
  0
LINE
  5
ED92
  8
01
 10
646.98766616632304
 20
-2148.736948652841
 30
0.0
 11
681.38766416632313
 21
-2148.736948652841
 31
0.0
  0
LINE
  5
ED96
  8
01
 10
984.38766616632483
 20
-2176.236948652841
 30
0.0
 11
984.38766616632483
 21
-2147.4369486528399
 31
0.0
  0
LINE
  5
ED97
  8
01
 10
1023.987664166325
 20
-2176.236948652841
 30
0.0
 11
1023.987664166325
 21
-2147.4369486528399
 31
0.0
  0
LINE
  5
ED98
  8
01
 10
986.98766616632474
 20
-2148.736948652841
 30
0.0
 11
1021.387664166325
 21
-2148.736948652841
 31
0.0
  0
LINE
  5
ED9C
  8
01
 10
800.9867072720009
 20
-2230.986948652841
 30
0.0
 11
799.68766916632444
 21
-2230.236948652841
 31
0.0
  0
LINE
  5
ED9D
  8
01
 10
799.68766916632444
 20
-2230.236948652841
 30
0.0
 11
798.38863106064764
 21
-2230.986948652841
 31
0.0
  0
LINE
  5
ED9E
  8
01
 10
798.38863106064764
 20
-2230.986948652841
 30
0.0
 11
798.38863106064764
 21
-2232.486948652841
 31
0.0
  0
LINE
  5
ED9F
  8
01
 10
798.38863106064764
 20
-2232.486948652841
 30
0.0
 11
799.68766916632444
 21
-2233.236948652841
 31
0.0
  0
LINE
  5
EDA0
  8
01
 10
799.68766916632444
 20
-2233.236948652841
 30
0.0
 11
800.9867072720009
 21
-2232.486948652841
 31
0.0
  0
LINE
  5
EDA1
  8
01
 10
800.9867072720009
 20
-2232.486948652841
 30
0.0
 11
800.9867072720009
 21
-2230.986948652841
 31
0.0
  0
CIRCLE
  5
EDA2
  8
01
 10
799.68766916632444
 20
-2231.736948652841
 30
0.0
 40
3.0
  0
CIRCLE
  5
EDA3
  8
01
 10
868.68766916632433
 20
-2231.736948652841
 30
0.0
 40
3.0
  0
LINE
  5
EDA4
  8
01
 10
953.18766516632502
 20
-2145.736948652841
 30
0.0
 11
953.18766516632502
 21
-2124.4369486528399
 31
0.0
  0
LINE
  5
EDA5
  8
01
 10
1004.187673166325
 20
-2153.736948652841
 30
0.0
 11
1004.187673166325
 21
-2124.4369486528399
 31
0.0
  0
LINE
  5
EDA6
  8
01
 10
955.78766516632493
 20
-2125.736948652841
 30
0.0
 11
1001.587673166325
 21
-2125.736948652841
 31
0.0
  0
LINE
  5
EDAA
  8
01
 10
1022.187665166325
 20
-2173.736948652841
 30
0.0
 11
1022.187665166325
 21
-2114.4369486528408
 31
0.0
  0
LINE
  5
EDAB
  8
01
 10
953.18766516632502
 20
-2145.736948652841
 30
0.0
 11
953.18766516632502
 21
-2114.4369486528408
 31
0.0
  0
LINE
  5
EDAC
  8
01
 10
1019.587665166325
 20
-2115.736948652841
 30
0.0
 11
955.78766516632493
 21
-2115.736948652841
 31
0.0
  0
LINE
  5
EDB0
  8
01
 10
942.18766516632479
 20
-2203.7369493509718
 30
0.0
 11
942.18766516632479
 21
-2124.4369486528399
 31
0.0
  0
LINE
  5
EDB1
  8
01
 10
953.18766516632502
 20
-2145.736948652841
 30
0.0
 11
953.18766516632502
 21
-2124.4369486528399
 31
0.0
  0
LINE
  5
EDB2
  8
01
 10
944.78766516632481
 20
-2125.736948652841
 30
0.0
 11
950.58766516632477
 21
-2125.736948652841
 31
0.0
  0
LINE
  5
EDB6
  8
01
 10
821.68766916632444
 20
-2151.736948652841
 30
0.0
 11
821.68766916632444
 21
-2124.4369486528399
 31
0.0
  0
LINE
  5
EDB7
  8
01
 10
846.68766916632444
 20
-2151.736948652841
 30
0.0
 11
846.68766916632444
 21
-2124.4369486528399
 31
0.0
  0
LINE
  5
EDB8
  8
01
 10
824.28766916632435
 20
-2125.736948652841
 30
0.0
 11
844.08766916632453
 21
-2125.736948652841
 31
0.0
  0
TEXT
  5
EDBC
  8
01
 10
829.85433583299107
 20
-2124.8269486528411
 30
0.0
 40
4.5499999999999989
  1
25
  0
LINE
  5
EDBD
  8
01
  6
BYBLOCK
 10
844.08766916632453
 20
-2125.0402807588412
 30
0.0
 11
846.68766916632444
 21
-2125.736948652841
 31
0.0
  0
LINE
  5
EDBE
  8
01
  6
BYBLOCK
 10
846.68766916632444
 20
-2125.736948652841
 30
0.0
 11
844.08766916632453
 21
-2126.4336165468399
 31
0.0
  0
LINE
  5
EDBF
  8
01
  6
BYBLOCK
 10
846.68766916632444
 20
-2125.736948652841
 30
0.0
 11
844.08766916632453
 21
-2125.736948652841
 31
0.0
  0
LINE
  5
EDC0
  8
01
  6
BYBLOCK
 10
824.28766916632435
 20
-2126.4336165468399
 30
0.0
 11
821.68766916632444
 21
-2125.736948652841
 31
0.0
  0
LINE
  5
EDC1
  8
01
  6
BYBLOCK
 10
821.68766916632444
 20
-2125.736948652841
 30
0.0
 11
824.28766916632435
 21
-2125.0402807588412
 31
0.0
  0
LINE
  5
EDC2
  8
01
  6
BYBLOCK
 10
821.68766916632444
 20
-2125.736948652841
 30
0.0
 11
824.28766916632435
 21
-2125.736948652841
 31
0.0
  0
TEXT
  5
EDC3
  8
01
 10
943.67933183299158
 20
-2124.8269486528411
 30
0.0
 40
4.5499999999999989
  1
11
  0
LINE
  5
EDC4
  8
01
  6
BYBLOCK
 10
950.58766516632477
 20
-2125.0402807588412
 30
0.0
 11
953.18766516632502
 21
-2125.736948652841
 31
0.0
  0
LINE
  5
EDC5
  8
01
  6
BYBLOCK
 10
953.18766516632502
 20
-2125.736948652841
 30
0.0
 11
950.58766516632477
 21
-2126.4336165468399
 31
0.0
  0
LINE
  5
EDC6
  8
01
  6
BYBLOCK
 10
953.18766516632502
 20
-2125.736948652841
 30
0.0
 11
950.58766516632477
 21
-2125.736948652841
 31
0.0
  0
LINE
  5
EDC7
  8
01
  6
BYBLOCK
 10
944.78766516632481
 20
-2126.4336165468399
 30
0.0
 11
942.18766516632479
 21
-2125.736948652841
 31
0.0
  0
LINE
  5
EDC8
  8
01
  6
BYBLOCK
 10
942.18766516632479
 20
-2125.736948652841
 30
0.0
 11
944.78766516632481
 21
-2125.0402807588412
 31
0.0
  0
LINE
  5
EDC9
  8
01
  6
BYBLOCK
 10
942.18766516632479
 20
-2125.736948652841
 30
0.0
 11
944.78766516632481
 21
-2125.736948652841
 31
0.0
  0
TEXT
  5
EDCA
  8
01
 10
983.35433183299153
 20
-2114.8269486528411
 30
0.0
 40
4.5499999999999989
  1
69
  0
LINE
  5
EDCB
  8
01
  6
BYBLOCK
 10
955.78766516632493
 20
-2116.4336165468399
 30
0.0
 11
953.18766516632502
 21
-2115.736948652841
 31
0.0
  0
LINE
  5
EDCC
  8
01
  6
BYBLOCK
 10
953.18766516632502
 20
-2115.736948652841
 30
0.0
 11
955.78766516632493
 21
-2115.0402807588412
 31
0.0
  0
LINE
  5
EDCD
  8
01
  6
BYBLOCK
 10
953.18766516632502
 20
-2115.736948652841
 30
0.0
 11
955.78766516632493
 21
-2115.736948652841
 31
0.0
  0
LINE
  5
EDCE
  8
01
  6
BYBLOCK
 10
1019.587665166325
 20
-2115.0402807588412
 30
0.0
 11
1022.187665166325
 21
-2115.736948652841
 31
0.0
  0
LINE
  5
EDCF
  8
01
  6
BYBLOCK
 10
1022.187665166325
 20
-2115.736948652841
 30
0.0
 11
1019.587665166325
 21
-2116.4336165468399
 31
0.0
  0
LINE
  5
EDD0
  8
01
  6
BYBLOCK
 10
1022.187665166325
 20
-2115.736948652841
 30
0.0
 11
1019.587665166325
 21
-2115.736948652841
 31
0.0
  0
TEXT
  5
EDD1
  8
01
 10
975.00433583299196
 20
-2124.8269486528411
 30
0.0
 40
4.5499999999999989
  1
51
  0
LINE
  5
EDD2
  8
01
  6
BYBLOCK
 10
1001.587673166325
 20
-2125.0402807588412
 30
0.0
 11
1004.187673166325
 21
-2125.736948652841
 31
0.0
  0
LINE
  5
EDD3
  8
01
  6
BYBLOCK
 10
1004.187673166325
 20
-2125.736948652841
 30
0.0
 11
1001.587673166325
 21
-2126.4336165468399
 31
0.0
  0
LINE
  5
EDD4
  8
01
  6
BYBLOCK
 10
1004.187673166325
 20
-2125.736948652841
 30
0.0
 11
1001.587673166325
 21
-2125.736948652841
 31
0.0
  0
LINE
  5
EDD5
  8
01
  6
BYBLOCK
 10
955.78766516632493
 20
-2126.4336165468399
 30
0.0
 11
953.18766516632502
 21
-2125.736948652841
 31
0.0
  0
LINE
  5
EDD6
  8
01
  6
BYBLOCK
 10
953.18766516632502
 20
-2125.736948652841
 30
0.0
 11
955.78766516632493
 21
-2125.0402807588412
 31
0.0
  0
LINE
  5
EDD7
  8
01
  6
BYBLOCK
 10
953.18766516632502
 20
-2125.736948652841
 30
0.0
 11
955.78766516632493
 21
-2125.736948652841
 31
0.0
  0
TEXT
  5
EDD8
  8
01
 10
996.99433183299152
 20
-2147.8269486528411
 30
0.0
 40
4.5499999999999989
  1
\U+03C640
  0
LINE
  5
EDD9
  8
01
  6
BYBLOCK
 10
1021.387664166325
 20
-2148.0402807588412
 30
0.0
 11
1023.987664166325
 21
-2148.736948652841
 31
0.0
  0
LINE
  5
EDDA
  8
01
  6
BYBLOCK
 10
1023.987664166325
 20
-2148.736948652841
 30
0.0
 11
1021.387664166325
 21
-2149.4336165468399
 31
0.0
  0
LINE
  5
EDDB
  8
01
  6
BYBLOCK
 10
1023.987664166325
 20
-2148.736948652841
 30
0.0
 11
1021.387664166325
 21
-2148.736948652841
 31
0.0
  0
LINE
  5
EDDC
  8
01
  6
BYBLOCK
 10
986.98766616632474
 20
-2149.4336165468399
 30
0.0
 11
984.38766616632483
 21
-2148.736948652841
 31
0.0
  0
LINE
  5
EDDD
  8
01
  6
BYBLOCK
 10
984.38766616632483
 20
-2148.736948652841
 30
0.0
 11
986.98766616632474
 21
-2148.0402807588412
 31
0.0
  0
LINE
  5
EDDE
  8
01
  6
BYBLOCK
 10
984.38766616632483
 20
-2148.736948652841
 30
0.0
 11
986.98766616632474
 21
-2148.736948652841
 31
0.0
  0
TEXT
  5
EDDF
  8
01
 10
656.9943318329897
 20
-2147.8269486528411
 30
0.0
 40
4.5499999999999989
  1
\U+03C640
  0
LINE
  5
EDE0
  8
01
  6
BYBLOCK
 10
681.38766416632313
 20
-2148.0402807588412
 30
0.0
 11
683.98766416632316
 21
-2148.736948652841
 31
0.0
  0
LINE
  5
EDE1
  8
01
  6
BYBLOCK
 10
683.98766416632316
 20
-2148.736948652841
 30
0.0
 11
681.38766416632313
 21
-2149.4336165468399
 31
0.0
  0
LINE
  5
EDE2
  8
01
  6
BYBLOCK
 10
683.98766416632316
 20
-2148.736948652841
 30
0.0
 11
681.38766416632313
 21
-2148.736948652841
 31
0.0
  0
LINE
  5
EDE3
  8
01
  6
BYBLOCK
 10
646.98766616632304
 20
-2149.4336165468399
 30
0.0
 11
644.38766616632302
 21
-2148.736948652841
 31
0.0
  0
LINE
  5
EDE4
  8
01
  6
BYBLOCK
 10
644.38766616632302
 20
-2148.736948652841
 30
0.0
 11
646.98766616632304
 21
-2148.0402807588412
 31
0.0
  0
LINE
  5
EDE5
  8
01
  6
BYBLOCK
 10
644.38766616632302
 20
-2148.736948652841
 30
0.0
 11
646.98766616632304
 21
-2148.736948652841
 31
0.0
  0
TEXT
  5
EDE6
  8
01
 10
630.27768516632477
 20
-2211.070281986174
 30
0.0
 40
4.5499999999999989
  1
50
 50
90.0
  0
LINE
  5
EDE7
  8
01
  6
BYBLOCK
 10
630.49101727232437
 20
-2184.3369486528409
 30
0.0
 11
631.18768516632429
 21
-2181.736948652841
 31
0.0
  0
LINE
  5
EDE8
  8
01
  6
BYBLOCK
 10
631.18768516632429
 20
-2181.736948652841
 30
0.0
 11
631.88435306032443
 21
-2184.3369486528409
 31
0.0
  0
LINE
  5
EDE9
  8
01
  6
BYBLOCK
 10
631.18768516632429
 20
-2181.736948652841
 30
0.0
 11
631.18768516632429
 21
-2184.3369486528409
 31
0.0
  0
LINE
  5
EDEA
  8
01
  6
BYBLOCK
 10
631.88435306032443
 20
-2229.1369486528411
 30
0.0
 11
631.18768516632429
 21
-2231.736948652841
 31
0.0
  0
LINE
  5
EDEB
  8
01
  6
BYBLOCK
 10
631.18768516632429
 20
-2231.736948652841
 30
0.0
 11
630.49101727232437
 21
-2229.1369486528411
 31
0.0
  0
LINE
  5
EDEC
  8
01
  6
BYBLOCK
 10
631.18768516632429
 20
-2231.736948652841
 30
0.0
 11
631.18768516632429
 21
-2229.1369486528411
 31
0.0
  0
TEXT
  5
EDED
  8
01
 10
620.27768516632466
 20
-2211.570281986174
 30
0.0
 40
4.5499999999999989
  1
55.5
 50
90.0
  0
LINE
  5
EDEE
  8
01
  6
BYBLOCK
 10
620.49101727232426
 20
-2178.8369486528409
 30
0.0
 11
621.1876851663244
 21
-2176.236948652841
 31
0.0
  0
LINE
  5
EDEF
  8
01
  6
BYBLOCK
 10
621.1876851663244
 20
-2176.236948652841
 30
0.0
 11
621.88435306032443
 21
-2178.8369486528409
 31
0.0
  0
LINE
  5
EDF0
  8
01
  6
BYBLOCK
 10
621.1876851663244
 20
-2176.236948652841
 30
0.0
 11
621.1876851663244
 21
-2178.8369486528409
 31
0.0
  0
LINE
  5
EDF1
  8
01
  6
BYBLOCK
 10
621.88435306032443
 20
-2229.1369486528411
 30
0.0
 11
621.1876851663244
 21
-2231.736948652841
 31
0.0
  0
LINE
  5
EDF2
  8
01
  6
BYBLOCK
 10
621.1876851663244
 20
-2231.736948652841
 30
0.0
 11
620.49101727232426
 21
-2229.1369486528411
 31
0.0
  0
LINE
  5
EDF3
  8
01
  6
BYBLOCK
 10
621.1876851663244
 20
-2231.736948652841
 30
0.0
 11
621.1876851663244
 21
-2229.1369486528411
 31
0.0
  0
TEXT
  5
EDF4
  8
01
 10
877.7812602028813
 20
-2199.856561305859
 30
0.0
 40
4.5499999999999989
  1
114
 50
90.0
  0
LINE
  5
EDF5
  8
01
  6
BYBLOCK
 10
879.38792809688096
 20
-2265.1369486528411
 30
0.0
 11
878.69126020288093
 21
-2267.7369486528401
 31
0.0
  0
LINE
  5
EDF6
  8
01
  6
BYBLOCK
 10
878.69126020288093
 20
-2267.7369486528401
 30
0.0
 11
877.99459230888078
 21
-2265.1369486528411
 31
0.0
  0
LINE
  5
EDF7
  8
01
  6
BYBLOCK
 10
878.69126020288093
 20
-2267.7369486528401
 30
0.0
 11
878.69126020288093
 21
-2265.1369486528411
 31
0.0
  0
LINE
  5
EDF8
  8
01
  6
BYBLOCK
 10
877.99459230888078
 20
-2156.3369486528409
 30
0.0
 11
878.69126020288093
 21
-2153.736948652841
 31
0.0
  0
LINE
  5
EDF9
  8
01
  6
BYBLOCK
 10
878.69126020288093
 20
-2153.736948652841
 30
0.0
 11
879.38792809688096
 21
-2156.3369486528409
 31
0.0
  0
LINE
  5
EDFA
  8
01
  6
BYBLOCK
 10
878.69126020288093
 20
-2153.736948652841
 30
0.0
 11
878.69126020288093
 21
-2156.3369486528409
 31
0.0
  0
TEXT
  5
EDFB
  8
01
 10
893.27766916632436
 20
-2199.7482279725259
 30
0.0
 40
4.5499999999999989
  1
130
 50
90.0
  0
LINE
  5
EDFC
  8
01
  6
BYBLOCK
 10
894.88433706032401
 20
-2273.1369486528411
 30
0.0
 11
894.1876691663241
 21
-2275.7369486528401
 31
0.0
  0
LINE
  5
EDFD
  8
01
  6
BYBLOCK
 10
894.1876691663241
 20
-2275.7369486528401
 30
0.0
 11
893.49100127232407
 21
-2273.1369486528411
 31
0.0
  0
LINE
  5
EDFE
  8
01
  6
BYBLOCK
 10
894.1876691663241
 20
-2275.7369486528401
 30
0.0
 11
894.1876691663241
 21
-2273.1369486528411
 31
0.0
  0
LINE
  5
EDFF
  8
01
  6
BYBLOCK
 10
893.49100127232407
 20
-2148.33694865284
 30
0.0
 11
894.1876691663241
 21
-2145.736948652841
 31
0.0
  0
LINE
  5
EE00
  8
01
  6
BYBLOCK
 10
894.1876691663241
 20
-2145.736948652841
 30
0.0
 11
894.88433706032401
 21
-2148.33694865284
 31
0.0
  0
LINE
  5
EE01
  8
01
  6
BYBLOCK
 10
894.1876691663241
 20
-2145.736948652841
 30
0.0
 11
894.1876691663241
 21
-2148.33694865284
 31
0.0
  0
TEXT
  5
EE02
  8
01
 10
968.2776651663246
 20
-2240.2700279483279
 30
0.0
 40
4.5499999999999989
  1
\U+03C650
 50
90.0
  0
LINE
  5
EE03
  8
01
  6
BYBLOCK
 10
969.88433306032437
 20
-2254.1369486528401
 30
0.0
 11
969.18766516632434
 21
-2256.7369486528391
 31
0.0
  0
LINE
  5
EE04
  8
01
  6
BYBLOCK
 10
969.18766516632434
 20
-2256.7369486528391
 30
0.0
 11
968.49099727232431
 21
-2254.1369486528401
 31
0.0
  0
LINE
  5
EE05
  8
01
  6
BYBLOCK
 10
969.18766516632434
 20
-2256.7369486528391
 30
0.0
 11
969.18766516632434
 21
-2254.1369486528401
 31
0.0
  0
LINE
  5
EE06
  8
01
  6
BYBLOCK
 10
968.49099727232431
 20
-2209.3369486528409
 30
0.0
 11
969.18766516632434
 21
-2206.7369486528401
 31
0.0
  0
LINE
  5
EE07
  8
01
  6
BYBLOCK
 10
969.18766516632434
 20
-2206.7369486528401
 30
0.0
 11
969.88433306032437
 21
-2209.3369486528409
 31
0.0
  0
LINE
  5
EE08
  8
01
  6
BYBLOCK
 10
969.18766516632434
 20
-2206.7369486528401
 30
0.0
 11
969.18766516632434
 21
-2209.3369486528409
 31
0.0
  0
TEXT
  5
EE09
  8
01
 10
1058.862781506069
 20
-2052.8269486538679
 30
0.0
 40
4.5499999999999989
  1
123
  0
LINE
  5
EE0A
  8
01
  6
BYBLOCK
 10
1124.5877815060689
 20
-2053.040280759868
 30
0.0
 11
1127.1877815060691
 21
-2053.7369486538691
 31
0.0
  0
LINE
  5
EE0B
  8
01
  6
BYBLOCK
 10
1127.1877815060691
 20
-2053.7369486538691
 30
0.0
 11
1124.5877815060689
 21
-2054.433616547868
 31
0.0
  0
LINE
  5
EE0C
  8
01
  6
BYBLOCK
 10
1127.1877815060691
 20
-2053.7369486538691
 30
0.0
 11
1124.5877815060689
 21
-2053.7369486538691
 31
0.0
  0
LINE
  5
EE0D
  8
01
  6
BYBLOCK
 10
1006.787781506069
 20
-2054.433616547868
 30
0.0
 11
1004.187781506069
 21
-2053.7369486538691
 31
0.0
  0
LINE
  5
EE0E
  8
01
  6
BYBLOCK
 10
1004.187781506069
 20
-2053.7369486538691
 30
0.0
 11
1006.787781506069
 21
-2053.040280759868
 31
0.0
  0
LINE
  5
EE0F
  8
01
  6
BYBLOCK
 10
1004.187781506069
 20
-2053.7369486538691
 30
0.0
 11
1006.787781506069
 21
-2053.7369486538691
 31
0.0
  0
TEXT
  5
EE10
  8
01
 10
1053.862781506069
 20
-2062.8269486538688
 30
0.0
 40
4.5499999999999989
  1
133
  0
LINE
  5
EE11
  8
01
  6
BYBLOCK
 10
1124.5877815060689
 20
-2063.0402807598689
 30
0.0
 11
1127.1877815060691
 21
-2063.7369486538678
 31
0.0
  0
LINE
  5
EE12
  8
01
  6
BYBLOCK
 10
1127.1877815060691
 20
-2063.7369486538678
 30
0.0
 11
1124.5877815060689
 21
-2064.433616547868
 31
0.0
  0
LINE
  5
EE13
  8
01
  6
BYBLOCK
 10
1127.1877815060691
 20
-2063.7369486538678
 30
0.0
 11
1124.5877815060689
 21
-2063.7369486538678
 31
0.0
  0
LINE
  5
EE14
  8
01
  6
BYBLOCK
 10
996.78778150606945
 20
-2064.433616547868
 30
0.0
 11
994.1877815060692
 21
-2063.7369486538678
 31
0.0
  0
LINE
  5
EE15
  8
01
  6
BYBLOCK
 10
994.1877815060692
 20
-2063.7369486538678
 30
0.0
 11
996.78778150606945
 21
-2063.0402807598689
 31
0.0
  0
LINE
  5
EE16
  8
01
  6
BYBLOCK
 10
994.1877815060692
 20
-2063.7369486538678
 30
0.0
 11
996.78778150606945
 21
-2063.7369486538678
 31
0.0
  0
TEXT
  5
EE17
  8
01
 10
1141.277781506069
 20
-2004.570281987202
 30
0.0
 40
4.5499999999999989
  1
37
 50
90.0
  0
LINE
  5
EE18
  8
01
  6
BYBLOCK
 10
1142.8844494000689
 20
-2016.1369486538681
 30
0.0
 11
1142.1877815060691
 21
-2018.736948653868
 31
0.0
  0
LINE
  5
EE19
  8
01
  6
BYBLOCK
 10
1142.1877815060691
 20
-2018.736948653868
 30
0.0
 11
1141.4911136120691
 21
-2016.1369486538681
 31
0.0
  0
LINE
  5
EE1A
  8
01
  6
BYBLOCK
 10
1142.1877815060691
 20
-2018.736948653868
 30
0.0
 11
1142.1877815060691
 21
-2016.1369486538681
 31
0.0
  0
LINE
  5
EE1B
  8
01
  6
BYBLOCK
 10
1141.4911136120691
 20
-1984.3369486538691
 30
0.0
 11
1142.1877815060691
 21
-1981.7369486538689
 31
0.0
  0
LINE
  5
EE1C
  8
01
  6
BYBLOCK
 10
1142.1877815060691
 20
-1981.7369486538689
 30
0.0
 11
1142.8844494000689
 21
-1984.3369486538691
 31
0.0
  0
LINE
  5
EE1D
  8
01
  6
BYBLOCK
 10
1142.1877815060691
 20
-1981.7369486538689
 30
0.0
 11
1142.1877815060691
 21
-1984.3369486538691
 31
0.0
  0
TEXT
  5
EE1E
  8
01
 10
1151.277781506069
 20
-2014.570281987202
 30
0.0
 40
4.5499999999999989
  1
57
 50
90.0
  0
LINE
  5
EE1F
  8
01
  6
BYBLOCK
 10
1151.4911136120691
 20
-1984.3369486538691
 30
0.0
 11
1152.1877815060691
 21
-1981.7369486538689
 31
0.0
  0
LINE
  5
EE20
  8
01
  6
BYBLOCK
 10
1152.1877815060691
 20
-1981.7369486538689
 30
0.0
 11
1152.8844494000689
 21
-1984.3369486538691
 31
0.0
  0
LINE
  5
EE21
  8
01
  6
BYBLOCK
 10
1152.1877815060691
 20
-1981.7369486538689
 30
0.0
 11
1152.1877815060691
 21
-1984.3369486538691
 31
0.0
  0
LINE
  5
EE22
  8
01
  6
BYBLOCK
 10
1152.8844494000689
 20
-2036.1369486538681
 30
0.0
 11
1152.1877815060691
 21
-2038.736948653868
 31
0.0
  0
LINE
  5
EE23
  8
01
  6
BYBLOCK
 10
1152.1877815060691
 20
-2038.736948653868
 30
0.0
 11
1151.4911136120691
 21
-2036.1369486538681
 31
0.0
  0
LINE
  5
EE24
  8
01
  6
BYBLOCK
 10
1152.1877815060691
 20
-2038.736948653868
 30
0.0
 11
1152.1877815060691
 21
-2036.1369486538681
 31
0.0
  0
TEXT
  5
EE25
  8
01
 10
1141.2776651663251
 20
-2238.9302819861941
 30
0.0
 40
4.5499999999999989
  1
\U+03C620
 50
90.0
  0
LINE
  5
EE26
  8
01
  6
BYBLOCK
 10
1142.884333060324
 20
-2239.136948652882
 30
0.0
 11
1142.187665166324
 21
-2241.736948652881
 31
0.0
  0
LINE
  5
EE27
  8
01
  6
BYBLOCK
 10
1142.187665166324
 20
-2241.736948652881
 30
0.0
 11
1141.4909972723251
 21
-2239.136948652882
 31
0.0
  0
LINE
  5
EE28
  8
01
  6
BYBLOCK
 10
1142.187665166324
 20
-2241.736948652881
 30
0.0
 11
1142.187665166324
 21
-2239.136948652882
 31
0.0
  0
LINE
  5
EE29
  8
01
  6
BYBLOCK
 10
1141.4909972723251
 20
-2224.33694865284
 30
0.0
 11
1142.187665166324
 21
-2221.736948652841
 31
0.0
  0
LINE
  5
EE2A
  8
01
  6
BYBLOCK
 10
1142.187665166324
 20
-2221.736948652841
 30
0.0
 11
1142.884333060324
 21
-2224.33694865284
 31
0.0
  0
LINE
  5
EE2B
  8
01
  6
BYBLOCK
 10
1142.187665166324
 20
-2221.736948652841
 30
0.0
 11
1142.187665166324
 21
-2224.33694865284
 31
0.0
  0
TEXT
  5
EE2C
  8
01
 10
798.8541430501316
 20
-2124.8269486528411
 30
0.0
 40
4.5499999999999989
  1
22
  0
LINE
  5
EE2D
  8
01
  6
BYBLOCK
 10
794.78728360060495
 20
-2126.4336165468399
 30
0.0
 11
792.18728360060504
 21
-2125.736948652841
 31
0.0
  0
LINE
  5
EE2E
  8
01
  6
BYBLOCK
 10
792.18728360060504
 20
-2125.736948652841
 30
0.0
 11
794.78728360060495
 21
-2125.0402807588412
 31
0.0
  0
LINE
  5
EE2F
  8
01
  6
BYBLOCK
 10
792.18728360060504
 20
-2125.736948652841
 30
0.0
 11
794.78728360060495
 21
-2125.736948652841
 31
0.0
  0
LINE
  5
EE30
  8
01
  6
BYBLOCK
 10
811.58766916632453
 20
-2125.0402807588412
 30
0.0
 11
814.18766916632467
 21
-2125.736948652841
 31
0.0
  0
LINE
  5
EE31
  8
01
  6
BYBLOCK
 10
814.18766916632467
 20
-2125.736948652841
 30
0.0
 11
811.58766916632453
 21
-2126.4336165468399
 31
0.0
  0
LINE
  5
EE32
  8
01
  6
BYBLOCK
 10
814.18766916632467
 20
-2125.736948652841
 30
0.0
 11
811.58766916632453
 21
-2125.736948652841
 31
0.0
  0
TEXT
  5
EE33
  8
01
 10
856.02088750465816
 20
-2124.8269486528411
 30
0.0000000000562575
 40
4.5499999999999989
  1
8
  0
LINE
  5
EE34
  8
01
  6
BYBLOCK
 10
859.58743917632489
 20
-2125.0402807588412
 30
0.0000000000562575
 11
862.18743917632492
 21
-2125.736948652841
 31
0.0000000000562575
  0
LINE
  5
EE35
  8
01
  6
BYBLOCK
 10
862.18743917632492
 20
-2125.736948652841
 30
0.0000000000562575
 11
859.58743917632489
 21
-2126.4336165468399
 31
0.0000000000562575
  0
LINE
  5
EE36
  8
01
  6
BYBLOCK
 10
862.18743917632492
 20
-2125.736948652841
 30
0.0000000000562575
 11
859.58743917632489
 21
-2125.736948652841
 31
0.0000000000562575
  0
LINE
  5
EE37
  8
01
  6
BYBLOCK
 10
856.78766916632469
 20
-2126.4336165468399
 30
0.0000000000562575
 11
854.18766916632455
 21
-2125.736948652841
 31
0.0000000000562575
  0
LINE
  5
EE38
  8
01
  6
BYBLOCK
 10
854.18766916632455
 20
-2125.736948652841
 30
0.0000000000562575
 11
856.78766916632469
 21
-2125.0402807588412
 31
0.0000000000562575
  0
LINE
  5
EE39
  8
01
  6
BYBLOCK
 10
854.18766916632455
 20
-2125.736948652841
 30
0.0000000000562575
 11
856.78766916632469
 21
-2125.736948652841
 31
0.0000000000562575
  0
TEXT
  5
EE3A
  8
01
 10
1048.2776651663251
 20
-2218.070281986174
 30
0.0
 40
4.5499999999999989
  1
74.5
 50
90.0
  0
LINE
  5
EE3B
  8
01
  6
BYBLOCK
 10
1049.8843330603249
 20
-2245.1369486528411
 30
0.0
 11
1049.1876651663249
 21
-2247.736948652841
 31
0.0
  0
LINE
  5
EE3C
  8
01
  6
BYBLOCK
 10
1049.1876651663249
 20
-2247.736948652841
 30
0.0
 11
1048.4909972723251
 21
-2245.1369486528411
 31
0.0
  0
LINE
  5
EE3D
  8
01
  6
BYBLOCK
 10
1049.1876651663249
 20
-2247.736948652841
 30
0.0
 11
1049.1876651663249
 21
-2245.1369486528411
 31
0.0
  0
LINE
  5
EE3E
  8
01
  6
BYBLOCK
 10
1048.4909972723251
 20
-2175.8369486528409
 30
0.0
 11
1049.1876651663249
 21
-2173.236948652841
 31
0.0
  0
LINE
  5
EE3F
  8
01
  6
BYBLOCK
 10
1049.1876651663249
 20
-2173.236948652841
 30
0.0
 11
1049.8843330603249
 21
-2175.8369486528409
 31
0.0
  0
LINE
  5
EE40
  8
01
  6
BYBLOCK
 10
1049.1876651663249
 20
-2173.236948652841
 30
0.0
 11
1049.1876651663249
 21
-2175.8369486528409
 31
0.0
  0
TEXT
  5
EE41
  8
01
 10
1043.1389401080969
 20
-1969.320281987202
 30
0.0
 40
4.5499999999999989
  1
20.5
 50
90.0
  0
LINE
  5
EE42
  8
01
  6
BYBLOCK
 10
1044.7456080020979
 20
-1969.386948653869
 30
0.0
 11
1044.0489401080979
 21
-1971.9869486538689
 31
0.0
  0
LINE
  5
EE43
  8
01
  6
BYBLOCK
 10
1044.0489401080979
 20
-1971.9869486538689
 30
0.0
 11
1043.352272214097
 21
-1969.386948653869
 31
0.0
  0
LINE
  5
EE44
  8
01
  6
BYBLOCK
 10
1044.0489401080979
 20
-1971.9869486538689
 30
0.0
 11
1044.0489401080979
 21
-1969.386948653869
 31
0.0
  0
LINE
  5
EE45
  8
01
  6
BYBLOCK
 10
1043.352272214097
 20
-1954.0869486538691
 30
0.0
 11
1044.0489401080979
 21
-1951.4869486538689
 31
0.0
  0
LINE
  5
EE46
  8
01
  6
BYBLOCK
 10
1044.0489401080979
 20
-1951.4869486538689
 30
0.0
 11
1044.7456080020979
 21
-1954.0869486538691
 31
0.0
  0
LINE
  5
EE47
  8
01
  6
BYBLOCK
 10
1044.0489401080979
 20
-1951.4869486538689
 30
0.0
 11
1044.0489401080979
 21
-1954.0869486538691
 31
0.0
  0
LINE
  5
EE48
  8
01
 10
1001.876728294392
 20
-2001.232859812445
 30
0.0
 11
976.94082625934095
 21
-2020.646948653869
 31
0.0
1001
ACAD
1000
DSTYLE
1002
{
1070
    40
1040
1.3
1002
}
  0
LINE
  5
EE49
  8
01
 10
976.94082625934095
 20
-2020.646948653869
 30
0.0
 11
973.43082625934096
 21
-2020.646948653869
 31
0.0
1001
ACAD
1000
DSTYLE
1002
{
1070
    40
1040
1.3
1002
}
  0
LINE
  5
EE4A
  8
01
 10
1037.933165083133
 20
-2024.785624459098
 30
0.0
 11
1049.549884411525
 21
-2011.169467456371
 31
0.0
1001
ACAD
1000
DSTYLE
1002
{
1070
    40
1040
1.3
1002
}
  0
LINE
  5
EE4B
  8
01
 10
1049.549884411525
 20
-2011.169467456371
 30
0.0
 11
1053.059884411525
 21
-2011.169467456371
 31
0.0
1001
ACAD
1000
DSTYLE
1002
{
1070
    40
1040
1.3
1002
}
  0
VIEWPORT
  5
57
 67
     1
  8
0
 10
10.29867712960651
 20
17.565658765306811
 30
0.0
 40
436.78745942033407
 41
283.71857983586301
 68
     1
 69
     1
1001
ACAD
1000
MVIEW
1002
{
1070
    16
1010
0.0
1020
0.0
1030
0.0
1010
0.0
1020
0.0
1030
1.0
1040
0.0
1040
283.71857983586301
1040
10.29867712960651
1040
17.565658765306811
1040
50.0
1040
0.0
1040
0.0
1070
     0
1070
   100
1070
     1
1070
     1
1070
     0
1070
     0
1070
     0
1070
     0
1040
0.0
1040
0.0
1040
0.0
1040
10.0
1040
10.0
1040
10.0
1040
10.0
1070
     0
1002
{
1002
}
1002
}
  0
ENDSEC
  0
EOF
