  0
SECTION
  2
HEADER
  9
$ACADVER
  1
AC1012
  9
$DWGCODEPAGE
  3
ansi_932
  9
$INSBASE
 10
0.0
 20
0.0
 30
0.0
  9
$EXTMIN
 10
2179.653191322746
 20
-610.2641423589021
 30
0.0
  9
$EXTMAX
 10
2800.953074983002
 20
-191.2641423599307
 30
0.0000000000563712
  9
$LIMMIN
 10
0.0
 20
0.0
  9
$LIMMAX
 10
420.0
 20
297.0
  9
$ORTHOMODE
 70
     0
  9
$REGENMODE
 70
     1
  9
$FILLMODE
 70
     1
  9
$QTEXTMODE
 70
     0
  9
$MIRRTEXT
 70
     0
  9
$DRAGMODE
 70
     2
  9
$LTSCALE
 40
0.5
  9
$OSMODE
 70
 14463
  9
$ATTMODE
 70
     1
  9
$TEXTSIZE
 40
4.0
  9
$TRACEWID
 40
1.0
  9
$TEXTSTYLE
  7
STANDARD
  9
$CLAYER
  8
1TEXT
  9
$CELTYPE
  6
BYLAYER
  9
$CECOLOR
 62
   256
  9
$CELTSCALE
 40
1.0
  9
$DELOBJ
 70
     1
  9
$DISPSILH
 70
     0
  9
$DIMSCALE
 40
1.0
  9
$DIMASZ
 40
2.0
  9
$DIMEXO
 40
0.0
  9
$DIMDLI
 40
7.0
  9
$DIMRND
 40
0.0
  9
$DIMDLE
 40
0.0
  9
$DIMEXE
 40
1.0
  9
$DIMTP
 40
0.0
  9
$DIMTM
 40
0.0
  9
$DIMTXT
 40
3.5
  9
$DIMCEN
 40
0.0
  9
$DIMTSZ
 40
0.0
  9
$DIMTOL
 70
     0
  9
$DIMLIM
 70
     0
  9
$DIMTIH
 70
     0
  9
$DIMTOH
 70
     0
  9
$DIMSE1
 70
     0
  9
$DIMSE2
 70
     0
  9
$DIMTAD
 70
     1
  9
$DIMZIN
 70
     8
  9
$DIMBLK
  1

  9
$DIMASO
 70
     1
  9
$DIMSHO
 70
     1
  9
$DIMPOST
  1
 
  9
$DIMAPOST
  1

  9
$DIMALT
 70
     0
  9
$DIMALTD
 70
     2
  9
$DIMALTF
 40
25.4
  9
$DIMLFAC
 40
1.0
  9
$DIMTOFL
 70
     1
  9
$DIMTVP
 40
0.0
  9
$DIMTIX
 70
     0
  9
$DIMSOXD
 70
     0
  9
$DIMSAH
 70
     1
  9
$DIMBLK1
  1
OPEN30
  9
$DIMBLK2
  1
OPEN30
  9
$DIMSTYLE
  2
NEWX10
  9
$DIMCLRD
 70
   256
  9
$DIMCLRE
 70
   256
  9
$DIMCLRT
 70
   201
  9
$DIMTFAC
 40
0.7
  9
$DIMGAP
 40
0.7
  9
$DIMJUST
 70
     0
  9
$DIMSD1
 70
     0
  9
$DIMSD2
 70
     0
  9
$DIMTOLJ
 70
     1
  9
$DIMTZIN
 70
     8
  9
$DIMALTZ
 70
     0
  9
$DIMALTTZ
 70
     0
  9
$DIMFIT
 70
     3
  9
$DIMUPT
 70
     0
  9
$DIMUNIT
 70
     2
  9
$DIMDEC
 70
     2
  9
$DIMTDEC
 70
     4
  9
$DIMALTU
 70
     2
  9
$DIMALTTD
 70
     2
  9
$DIMTXSTY
  7
STANDARD
  9
$DIMAUNIT
 70
     0
  9
$LUNITS
 70
     2
  9
$LUPREC
 70
     4
  9
$SKETCHINC
 40
1.0
  9
$FILLETRAD
 40
0.0
  9
$AUNITS
 70
     0
  9
$AUPREC
 70
     2
  9
$MENU
  1
acad
  9
$ELEVATION
 40
0.0
  9
$PELEVATION
 40
0.0
  9
$THICKNESS
 40
0.0
  9
$LIMCHECK
 70
     0
  9
$CHAMFERA
 40
10.0
  9
$CHAMFERB
 40
10.0
  9
$CHAMFERC
 40
20.0
  9
$CHAMFERD
 40
0.0
  9
$SKPOLY
 70
     0
  9
$TDCREATE
 40
2451318.621352917
  9
$TDUPDATE
 40
2458152.524914502
  9
$TDINDWG
 40
1.5320496065
  9
$TDUSRTIMER
 40
1.5320496065
  9
$USRTIMER
 70
     1
  9
$ANGBASE
 50
0.0
  9
$ANGDIR
 70
     0
  9
$PDMODE
 70
     0
  9
$PDSIZE
 40
0.0
  9
$PLINEWID
 40
0.0
  9
$COORDS
 70
     2
  9
$SPLFRAME
 70
     0
  9
$SPLINETYPE
 70
     6
  9
$SPLINESEGS
 70
     8
  9
$ATTDIA
 70
     0
  9
$ATTREQ
 70
     1
  9
$HANDLING
 70
     1
  9
$HANDSEED
  5
1B1FE
  9
$SURFTAB1
 70
     6
  9
$SURFTAB2
 70
     6
  9
$SURFTYPE
 70
     6
  9
$SURFU
 70
     6
  9
$SURFV
 70
     6
  9
$UCSNAME
  2

  9
$UCSORG
 10
0.0
 20
0.0
 30
0.0
  9
$UCSXDIR
 10
1.0
 20
0.0
 30
0.0
  9
$UCSYDIR
 10
0.0
 20
1.0
 30
0.0
  9
$PUCSNAME
  2

  9
$PUCSORG
 10
0.0
 20
0.0
 30
0.0
  9
$PUCSXDIR
 10
1.0
 20
0.0
 30
0.0
  9
$PUCSYDIR
 10
0.0
 20
1.0
 30
0.0
  9
$USERI1
 70
     0
  9
$USERI2
 70
     0
  9
$USERI3
 70
     0
  9
$USERI4
 70
     0
  9
$USERI5
 70
     0
  9
$USERR1
 40
0.0
  9
$USERR2
 40
0.0
  9
$USERR3
 40
0.0
  9
$USERR4
 40
0.0
  9
$USERR5
 40
0.0
  9
$WORLDVIEW
 70
     1
  9
$SHADEDGE
 70
     3
  9
$SHADEDIF
 70
    70
  9
$TILEMODE
 70
     1
  9
$MAXACTVP
 70
    48
  9
$PINSBASE
 10
0.0
 20
0.0
 30
0.0
  9
$PLIMCHECK
 70
     0
  9
$PEXTMIN
 10
1.000000000000000E+20
 20
1.000000000000000E+20
 30
1.000000000000000E+20
  9
$PEXTMAX
 10
-1.000000000000000E+20
 20
-1.000000000000000E+20
 30
-1.000000000000000E+20
  9
$PLIMMIN
 10
0.0
 20
0.0
  9
$PLIMMAX
 10
420.0
 20
297.0
  9
$UNITMODE
 70
     0
  9
$VISRETAIN
 70
     1
  9
$PLINEGEN
 70
     0
  9
$PSLTSCALE
 70
     1
  9
$TREEDEPTH
 70
  3020
  9
$PICKSTYLE
 70
     1
  9
$CMLSTYLE
  2
STANDARD
  9
$CMLJUST
 70
     0
  9
$CMLSCALE
 40
20.0
  9
$SAVEIMAGES
 70
     1
  0
ENDSEC
  0
SECTION
  2
CLASSES
  0
CLASS
  1
DICTIONARYVAR
  2
AcDbDictionaryVar
  3
ObjectDBX Classes
 90
        0
280
     0
281
     0
  0
CLASS
  1
IDBUFFER
  2
AcDbIdBuffer
  3
ObjectDBX Classes
 90
    32768
280
     0
281
     0
  0
CLASS
  1
LWPOLYLINE
  2
AcDbPolyline
  3
ObjectDBX Classes
 90
    32768
280
     0
281
     1
  0
CLASS
  1
ACDBDICTIONARYWDFLT
  2
AcDbDictionaryWithDefault
  3
ObjectDBX Classes
 90
    32768
280
     0
281
     0
  0
CLASS
  1
ACDBPLACEHOLDER
  2
AcDbPlaceHolder
  3
ObjectDBX Classes
 90
        0
280
     0
281
     0
  0
CLASS
  1
LAYOUT
  2
AcDbLayout
  3
ObjectDBX Classes
 90
        0
280
     0
281
     0
  0
CLASS
  1
TABLESTYLE
  2
AcDbTableStyle
  3
ObjectDBX Classes
 90
     4095
280
     0
281
     0
  0
CLASS
  1
SORTENTSTABLE
  2
AcDbSortentsTable
  3
ObjectDBX Classes
 90
    32768
280
     0
281
     0
  0
CLASS
  1
MATERIAL
  2
AcDbMaterial
  3
ObjectDBX Classes
 90
     1153
280
     0
281
     0
  0
CLASS
  1
VISUALSTYLE
  2
AcDbVisualStyle
  3
ObjectDBX Classes
 90
     4095
280
     0
281
     0
  0
CLASS
  1
SCALE
  2
AcDbScale
  3
ObjectDBX Classes
 90
     1153
280
     0
281
     0
  0
CLASS
  1
MLEADERSTYLE
  2
AcDbMLeaderStyle
  3
ACDB_MLEADERSTYLE_CLASS
 90
     4095
280
     0
281
     0
  0
CLASS
  1
CELLSTYLEMAP
  2
AcDbCellStyleMap
  3
ObjectDBX Classes
 90
     1152
280
     0
281
     0
  0
CLASS
  1
SUN
  2
AcDbSun
  3
SCENEOE
 90
     1153
280
     0
281
     0
  0
CLASS
  1
AEC_REFEDIT_STATUS_TRACKER
  2
AecDbRefEditStatusTracker
  3
AecArchBase60|Product Desc: Autodesk Architectural Desktop 2007 |Company: Autodesk,Inc. |WEB Address: www.autodesk.com
 90
   -32639
280
     1
281
     0
  0
CLASS
  1
NPOCOLLECTION
  2
AcDbImpNonPersistentObjectsCollection
  3
ObjectDBX Classes
 90
   -31615
280
     1
281
     0
  0
CLASS
  1
XRECORD
  2
AcDbXrecord
  3
ObjectDBX Classes
 90
    32768
280
     0
281
     0
  0
CLASS
  1
HATCH
  2
AcDbHatch
  3
ObjectDBX Classes
 90
    32768
280
     0
281
     1
  0
ENDSEC
  0
SECTION
  2
TABLES
  0
TABLE
  2
VPORT
  5
8
330
0
100
AcDbSymbolTable
 70
     1
  0
VPORT
  5
D991
330
8
100
AcDbSymbolTableRecord
100
AcDbViewportTableRecord
  2
*ACTIVE
 70
     0
 10
0.0
 20
0.0
 11
1.0
 21
1.0
 12
2490.303133152874
 22
-400.7641423594164
 13
0.0
 23
0.0
 14
10.0
 24
10.0
 15
10.0
 25
10.0
 16
0.0
 26
0.0
 36
1.0
 17
0.0
 27
0.0
 37
0.0
 40
449.8736842094219
 41
2.233782129742962
 42
50.0
 43
0.0
 44
0.0
 50
0.0
 51
0.0
 71
    16
 72
   100
 73
     1
 74
     1
 75
     0
 76
     0
 77
     0
 78
     0
  0
ENDTAB
  0
TABLE
  2
LTYPE
  5
5
330
0
100
AcDbSymbolTable
 70
     3
  0
LTYPE
  5
12
330
5
100
AcDbSymbolTableRecord
100
AcDbLinetypeTableRecord
  2
BYBLOCK
 70
     0
  3

 72
    65
 73
     0
 40
0.0
  0
LTYPE
  5
13
330
5
100
AcDbSymbolTableRecord
100
AcDbLinetypeTableRecord
  2
BYLAYER
 70
     0
  3

 72
    65
 73
     0
 40
0.0
  0
LTYPE
  5
14
330
5
100
AcDbSymbolTableRecord
100
AcDbLinetypeTableRecord
  2
CONTINUOUS
 70
     0
  3
Solid line
 72
    65
 73
     0
 40
0.0
  0
LTYPE
  5
2C03
330
5
100
AcDbSymbolTableRecord
100
AcDbLinetypeTableRecord
  2
HIDDEN
 70
     0
  3
Hidden __ __ __ __ __ __ __ __ __ __ __ __ __ _
 72
    65
 73
     2
 40
9.524999999999999
 49
6.35
 74
     0
 49
-3.175
 74
     0
  0
LTYPE
  5
13839
330
5
100
AcDbSymbolTableRecord
100
AcDbLinetypeTableRecord
  2
CENTER2
 70
     0
  3
Center (.5x) ___ _ ___ _ ___ _ ___ _ ___ _ ___
 72
    65
 73
     4
 40
28.575
 49
19.05
 74
     0
 49
-3.175
 74
     0
 49
3.175
 74
     0
 49
-3.175
 74
     0
  0
ENDTAB
  0
TABLE
  2
LAYER
  5
2
102
{ACAD_XDICTIONARY
360
E6A6
102
}
330
0
100
AcDbSymbolTable
 70
     6
  0
LAYER
  5
E
102
{ACAD_XDICTIONARY
360
DA05
102
}
330
2
100
AcDbSymbolTableRecord
100
AcDbLayerTableRecord
  2
0
 70
     0
 62
     7
  6
CONTINUOUS
  0
LAYER
  5
29
102
{ACAD_XDICTIONARY
360
DA07
102
}
330
2
100
AcDbSymbolTableRecord
100
AcDbLayerTableRecord
  2
1CENTER
 70
     0
 62
     7
  6
CENTER2
  0
LAYER
  5
31
102
{ACAD_XDICTIONARY
360
DA09
102
}
330
2
100
AcDbSymbolTableRecord
100
AcDbLayerTableRecord
  2
1TEXT
 70
     0
 62
     7
  6
CONTINUOUS
  0
LAYER
  5
243
102
{ACAD_XDICTIONARY
360
DA0F
102
}
330
2
100
AcDbSymbolTableRecord
100
AcDbLayerTableRecord
  2
01
 70
     0
 62
     1
  6
CONTINUOUS
  0
LAYER
  5
24E
102
{ACAD_XDICTIONARY
360
DA15
102
}
330
2
100
AcDbSymbolTableRecord
100
AcDbLayerTableRecord
  2
1DIM
 70
     0
 62
     7
  6
CONTINUOUS
  0
LAYER
  5
2C05
102
{ACAD_XDICTIONARY
360
DA23
102
}
330
2
100
AcDbSymbolTableRecord
100
AcDbLayerTableRecord
  2
1HIDDEN
 70
     0
 62
     7
  6
HIDDEN
  0
ENDTAB
  0
TABLE
  2
STYLE
  5
3
330
0
100
AcDbSymbolTable
 70
     1
  0
STYLE
  5
F
330
3
100
AcDbSymbolTableRecord
100
AcDbTextStyleTableRecord
  2
STANDARD
 70
     0
 40
0.0
 41
1.0
 50
0.0
 71
     0
 42
4.0
  3
txt.shx
  4
extfont.shx
  0
ENDTAB
  0
TABLE
  2
VIEW
  5
6
330
0
100
AcDbSymbolTable
 70
     0
  0
ENDTAB
  0
TABLE
  2
UCS
  5
7
330
0
100
AcDbSymbolTable
 70
     5
  0
UCS
  5
1ADA4
330
7
100
AcDbSymbolTableRecord
100
AcDbUCSTableRecord
  2
U
 70
     0
 10
0.0
 20
0.0
 30
0.0
 11
1.0
 21
0.0
 31
0.0
 12
0.0
 22
2.220446049250313E-16
 32
1.0
 79
     0
146
0.0
  0
UCS
  5
1ADA5
330
7
100
AcDbSymbolTableRecord
100
AcDbUCSTableRecord
  2
L
 70
     0
 10
0.0
 20
0.0
 30
0.0
 11
-2.220446049250313E-16
 21
-1.0
 31
2.220446049250313E-16
 12
0.0
 22
2.220446049250313E-16
 32
1.0
 79
     0
146
0.0
  0
UCS
  5
1ADA6
330
7
100
AcDbSymbolTableRecord
100
AcDbUCSTableRecord
  2
R
 70
     0
 10
0.0
 20
0.0
 30
0.0
 11
3.445052403072690E-16
 21
1.0
 31
-2.220446049250313E-16
 12
0.0
 22
2.220446049250313E-16
 32
1.0
 79
     0
146
0.0
  0
UCS
  5
1ADA7
330
7
100
AcDbSymbolTableRecord
100
AcDbUCSTableRecord
  2
ISOME
 70
     0
 10
0.0
 20
0.0
 30
0.0
 11
0.7071450863198264
 21
-0.7070684729403536
 31
-3.830824619477369E-5
 12
0.4082704059428736
 22
0.408270407740115
 32
0.8164744636514737
 79
     0
146
0.0
  0
UCS
  5
1ADA8
330
7
100
AcDbSymbolTableRecord
100
AcDbUCSTableRecord
  2
PERSPECTIVE
 70
     0
 10
0.0
 20
0.0
 30
0.0
 11
0.8191477691768962
 21
-0.5735823260466402
 31
-0.0004974931557765183
 12
0.1584844715982971
 22
0.225502028986108
 32
0.961265575782966
 79
     0
146
0.0
  0
ENDTAB
  0
TABLE
  2
APPID
  5
9
330
0
100
AcDbSymbolTable
 70
    13
  0
APPID
  5
10
330
9
100
AcDbSymbolTableRecord
100
AcDbRegAppTableRecord
  2
ACAD
 70
     0
  0
APPID
  5
21
330
9
100
AcDbSymbolTableRecord
100
AcDbRegAppTableRecord
  2
DRAWINGVARIABLESXDATA
 70
     0
  0
APPID
  5
64
330
9
100
AcDbSymbolTableRecord
100
AcDbRegAppTableRecord
  2
CONTENTTABDATA
 70
     0
  0
APPID
  5
65
330
9
100
AcDbSymbolTableRecord
100
AcDbRegAppTableRecord
  2
CONTENTCURRENTTAB
 70
     0
  0
APPID
  5
66
330
9
100
AcDbSymbolTableRecord
100
AcDbRegAppTableRecord
  2
CONTENTBLOCKDESCRIPTION
 70
     0
  0
APPID
  5
67
330
9
100
AcDbSymbolTableRecord
100
AcDbRegAppTableRecord
  2
CONTENTBLOCKICON
 70
     0
  0
APPID
  5
68
330
9
100
AcDbSymbolTableRecord
100
AcDbRegAppTableRecord
  2
CONTENTLONGBLOCKNAME
 70
     0
  0
APPID
  5
2AE
330
9
100
AcDbSymbolTableRecord
100
AcDbRegAppTableRecord
  2
ACAD_PSEXT
 70
     0
  0
APPID
  5
D9E9
330
9
100
AcDbSymbolTableRecord
100
AcDbRegAppTableRecord
  2
ACAD_MLEADERVER
 70
     0
  0
APPID
  5
19D01
330
9
100
AcDbSymbolTableRecord
100
AcDbRegAppTableRecord
  2
ACADANNOTATIVE
 70
     0
  0
APPID
  5
19D02
330
9
100
AcDbSymbolTableRecord
100
AcDbRegAppTableRecord
  2
ACDBBLOCKREPETAG
 70
     0
  0
APPID
  5
1A613
330
9
100
AcDbSymbolTableRecord
100
AcDbRegAppTableRecord
  2
ACAD_OBJECT_CHANGE_GUID
 70
     0
  0
APPID
  5
1A7DF
330
9
100
AcDbSymbolTableRecord
100
AcDbRegAppTableRecord
  2
ACAECLAYERSTANDARD
 70
     0
  0
ENDTAB
  0
TABLE
  2
DIMSTYLE
  5
A
330
0
100
AcDbSymbolTable
 70
     1
  0
DIMSTYLE
105
48
102
{ACAD_REACTORS
102
}
330
A
100
AcDbSymbolTableRecord
100
AcDbDimStyleTableRecord
  2
NEWX10
 70
     0
  3
 
  4

  5

  6
OPEN30
  7
OPEN30
 40
1.0
 41
2.0
 42
0.0
 43
7.0
 44
1.0
 45
0.0
 46
0.0
 47
0.0
 48
0.0
140
3.5
141
0.0
142
0.0
143
25.4
144
1.0
145
0.0
146
0.7
147
0.7
 71
     0
 72
     0
 73
     0
 74
     0
 75
     0
 76
     0
 77
     1
 78
     8
170
     0
171
     2
172
     1
173
     1
174
     0
175
     0
176
   256
177
   256
178
   201
179
     1
270
     2
271
     2
272
     4
273
     2
274
     2
340
F
275
     0
280
     0
281
     0
282
     0
283
     1
284
     8
285
     0
286
     0
287
     3
288
     0
  0
ENDTAB
  0
TABLE
  2
BLOCK_RECORD
  5
1
330
0
100
AcDbSymbolTable
 70
     8
  0
BLOCK_RECORD
  5
18
102
{ACAD_XDICTIONARY
360
88F
102
}
330
1
100
AcDbSymbolTableRecord
100
AcDbBlockTableRecord
  2
*MODEL_SPACE
  0
BLOCK_RECORD
  5
15
330
1
100
AcDbSymbolTableRecord
100
AcDbBlockTableRecord
  2
*PAPER_SPACE
  0
BLOCK_RECORD
  5
42
330
1
100
AcDbSymbolTableRecord
100
AcDbBlockTableRecord
  2
_OPEN30
  0
BLOCK_RECORD
  5
19D51
330
1
100
AcDbSymbolTableRecord
100
AcDbBlockTableRecord
  2
A3WAKUKAWAJUN2017_HYOUDAI_
  0
BLOCK_RECORD
  5
1B05E
330
1
100
AcDbSymbolTableRecord
100
AcDbBlockTableRecord
  2
*X33
  0
BLOCK_RECORD
  5
1B0AC
330
1
100
AcDbSymbolTableRecord
100
AcDbBlockTableRecord
  2
*X34
  0
BLOCK_RECORD
  5
1B0FE
330
1
100
AcDbSymbolTableRecord
100
AcDbBlockTableRecord
  2
*X35
  0
BLOCK_RECORD
  5
1B14F
330
1
100
AcDbSymbolTableRecord
100
AcDbBlockTableRecord
  2
*X36
  0
BLOCK_RECORD
  5
1B18C
330
1
100
AcDbSymbolTableRecord
100
AcDbBlockTableRecord
  2
*X37
  0
BLOCK_RECORD
  5
1B1CC
330
1
100
AcDbSymbolTableRecord
100
AcDbBlockTableRecord
  2
*X38
  0
ENDTAB
  0
ENDSEC
  0
SECTION
  2
BLOCKS
  0
BLOCK
  5
19
330
18
100
AcDbEntity
  8
0
100
AcDbBlockBegin
  2
*MODEL_SPACE
 70
     0
 10
0.0
 20
0.0
 30
0.0
  3
*MODEL_SPACE
  1

  0
ENDBLK
  5
1A
330
18
100
AcDbEntity
  8
0
100
AcDbBlockEnd
  0
BLOCK
  5
16
330
15
100
AcDbEntity
 67
     1
  8
0
100
AcDbBlockBegin
  2
*PAPER_SPACE
 70
     0
 10
0.0
 20
0.0
 30
0.0
  3
*PAPER_SPACE
  1

  0
ENDBLK
  5
17
330
15
100
AcDbEntity
 67
     1
  8
0
100
AcDbBlockEnd
  0
BLOCK
  5
43
330
42
100
AcDbEntity
  8
0
100
AcDbBlockBegin
  2
_OPEN30
 70
     0
 10
0.0
 20
0.0
 30
0.0
  3
_OPEN30
  1

  0
LINE
  5
44
330
42
100
AcDbEntity
  8
0
  6
BYBLOCK
 62
     0
100
AcDbLine
 10
-1.0
 20
0.26794919
 30
0.0
 11
0.0
 21
0.0
 31
0.0
  0
LINE
  5
45
330
42
100
AcDbEntity
  8
0
  6
BYBLOCK
 62
     0
100
AcDbLine
 10
0.0
 20
0.0
 30
0.0
 11
-1.0
 21
-0.26794919
 31
0.0
  0
LINE
  5
46
330
42
100
AcDbEntity
  8
0
  6
BYBLOCK
 62
     0
100
AcDbLine
 10
0.0
 20
0.0
 30
0.0
 11
-1.0
 21
0.0
 31
0.0
  0
ENDBLK
  5
47
330
42
100
AcDbEntity
  8
0
100
AcDbBlockEnd
  0
BLOCK
  5
1A474
330
19D51
100
AcDbEntity
  8
0
100
AcDbBlockBegin
  2
A3WAKUKAWAJUN2017_HYOUDAI_
 70
     0
 10
0.0
 20
0.0
 30
0.0
  3
A3WAKUKAWAJUN2017_HYOUDAI_
  1

  0
LINE
  5
19D53
330
19D51
100
AcDbEntity
  8
0
100
AcDbLine
 10
13.26299999998673
 20
-0.0001000000000317
 30
0.0
 11
9.236999999990758
 21
8.999899999990987
 31
0.0
1001
ACAD
1000
ASC_BOUNDS
1002
{
1070
    19
1005
19D94
1002
}
  0
LINE
  5
19D54
330
19D51
100
AcDbEntity
  8
0
100
AcDbLine
 10
5.657999999994331
 20
0.9999999999989768
 30
0.0
 11
9.236999999990758
 21
8.999999999991019
 31
0.0
1001
ACAD
1000
ASC_BOUNDS
1002
{
1070
    19
1005
19D94
1002
}
  0
LINE
  5
19D55
330
19D51
100
AcDbEntity
  8
0
100
AcDbLine
 10
18.59199999998134
 20
-0.2368999999997641
 30
0.0
 11
16.46099999998353
 21
5.432899999994561
 31
0.0
1001
ACAD
1000
ASC_BOUNDS
1002
{
1070
    19
1005
19D95
1002
}
  0
LINE
  5
19D56
330
19D51
100
AcDbEntity
  8
0
100
AcDbLine
 10
18.59199999998134
 20
-0.2368999999997641
 30
0.0
 11
22.38199999997767
 21
8.763099999991255
 31
0.0
1001
ACAD
1000
ASC_BOUNDS
1002
{
1070
    19
1005
19D95
1002
}
  0
LINE
  5
19D57
330
19D51
100
AcDbEntity
  8
0
100
AcDbLine
 10
14.32899999998563
 20
-0.2368999999997641
 30
0.0
 11
16.46099999998353
 21
5.432899999994561
 31
0.0
1001
ACAD
1000
ASC_BOUNDS
1002
{
1070
    19
1005
19D95
1002
}
  0
LINE
  5
19D58
330
19D51
100
AcDbEntity
  8
0
100
AcDbLine
 10
14.32899999998563
 20
-0.2368999999997641
 30
0.0
 11
10.53899999998941
 21
8.763099999991255
 31
0.0
1001
ACAD
1000
ASC_BOUNDS
1002
{
1070
    19
1005
19D95
1002
}
  0
LINE
  5
19D59
330
19D51
100
AcDbEntity
  8
0
100
AcDbLine
 10
19.53899999998043
 20
-0.0001000000000317
 30
0.0
 11
23.56599999997638
 21
8.999899999990987
 31
0.0
1001
ACAD
1000
ASC_BOUNDS
1002
{
1070
    19
1005
19D96
1002
}
  0
LINE
  5
19D5A
330
19D51
100
AcDbEntity
  8
0
100
AcDbLine
 10
26.97358892824991
 20
1.383099999991202
 30
0.0
 11
23.56599999997638
 21
8.999899999990987
 31
0.0
1001
ACAD
1000
ASC_BOUNDS
1002
{
1070
    19
1005
19D96
1002
}
  0
LINE
  5
19D5B
330
19D51
100
AcDbEntity
  8
0
100
AcDbLine
 10
5.657999999994331
 20
0.9999999999989768
 30
0.0
 11
3.181999999996833
 21
4.668599999995308
 31
0.0
1001
ACAD
1000
ASC_BOUNDS
1002
{
1070
    19
1005
19D94
1002
}
  0
LINE
  5
19D5C
330
19D51
100
AcDbEntity
  8
0
100
AcDbLine
 10
4.617999999995391
 20
-0.0001000000000317
 30
0.0
 11
1.420999999998571
 21
4.736799999995242
 31
0.0
1001
ACAD
1000
ASC_BOUNDS
1002
{
1070
    19
1005
19D94
1002
}
  0
LINE
  5
19D5D
330
19D51
100
AcDbEntity
  8
0
100
AcDbLine
 10
1.420999999998571
 20
8.763099999991255
 30
0.0
 11
1.420999999998571
 21
0.0
 31
0.0
1001
ACAD
1000
ASC_BOUNDS
1002
{
1070
    19
1005
19D99
1002
}
  0
LINE
  5
19D5E
330
19D51
100
AcDbEntity
  8
0
100
AcDbLine
 10
0.0
 20
8.763099999991255
 30
0.0
 11
0.0
 21
0.0
 31
0.0
1001
ACAD
1000
ASC_BOUNDS
1002
{
1070
    19
1005
19D99
1002
}
  0
LINE
  5
19D5F
330
19D51
100
AcDbEntity
  8
0
100
AcDbLine
 10
6.766999999993232
 20
-0.0001000000000317
 30
0.0
 11
7.826999999992154
 21
2.368399999997621
 31
0.0
1001
ACAD
1000
ASC_BOUNDS
1002
{
1070
    19
1005
19D94
1002
}
  0
LINE
  5
19D60
330
19D51
100
AcDbEntity
  8
0
100
AcDbLine
 10
0.0
 20
0.0
 30
0.0
 11
1.420999999998571
 21
0.0
 31
0.0
1001
ACAD
1000
ASC_BOUNDS
1002
{
1070
    19
1005
19D99
1002
}
  0
LINE
  5
19D61
330
19D51
100
AcDbEntity
  8
0
100
AcDbLine
 10
4.617999999995391
 20
0.0
 30
0.0
 11
6.766999999993232
 21
0.0
 31
0.0
1001
ACAD
1000
ASC_BOUNDS
1002
{
1070
    19
1005
19D94
1002
}
  0
LINE
  5
19D62
330
19D51
100
AcDbEntity
  8
0
100
AcDbLine
 10
11.70599999998831
 20
-0.0001000000000317
 30
0.0
 11
10.64699999998936
 21
2.368399999997621
 31
0.0
1001
ACAD
1000
ASC_BOUNDS
1002
{
1070
    19
1005
19D94
1002
}
  0
LINE
  5
19D63
330
19D51
100
AcDbEntity
  8
0
100
AcDbLine
 10
7.826999999992154
 20
2.368399999997621
 30
0.0
 11
10.64699999998936
 21
2.368399999997621
 31
0.0
1001
ACAD
1000
ASC_BOUNDS
1002
{
1070
    19
1005
19D94
1002
}
  0
LINE
  5
19D64
330
19D51
100
AcDbEntity
  8
0
100
AcDbLine
 10
11.70599999998831
 20
0.0
 30
0.0
 11
13.26299999998673
 21
0.0
 31
0.0
1001
ACAD
1000
ASC_BOUNDS
1002
{
1070
    19
1005
19D94
1002
}
  0
LINE
  5
19D65
330
19D51
100
AcDbEntity
  8
0
100
AcDbLine
 10
22.15599999997789
 20
2.368399999997621
 30
0.0
 11
24.97599999997499
 21
2.368399999997621
 31
0.0
1001
ACAD
1000
ASC_BOUNDS
1002
{
1070
    19
1005
19D96
1002
}
  0
LINE
  5
19D66
330
19D51
100
AcDbEntity
  8
0
100
AcDbLine
 10
19.53899999998043
 20
0.0
 30
0.0
 11
21.09599999997886
 21
0.0
 31
0.0
1001
ACAD
1000
ASC_BOUNDS
1002
{
1070
    19
1005
19D96
1002
}
  0
LINE
  5
19D67
330
19D51
100
AcDbEntity
  8
0
100
AcDbLine
 10
21.09599999997886
 20
-0.0001000000000317
 30
0.0
 11
22.15599999997789
 21
2.368399999997621
 31
0.0
1001
ACAD
1000
ASC_BOUNDS
1002
{
1070
    19
1005
19D96
1002
}
  0
LINE
  5
19D68
330
19D51
100
AcDbEntity
  8
0
100
AcDbLine
 10
26.02015566812236
 20
0.0330999999912365
 30
0.0
 11
24.97599999997499
 21
2.368399999997621
 31
0.0
1001
ACAD
1000
ASC_BOUNDS
1002
{
1070
    19
1005
19D96
1002
}
  0
LINE
  5
19D69
330
19D51
100
AcDbEntity
  8
0
100
AcDbLine
 10
14.32399999998563
 20
3.315799999996671
 30
0.0
 11
16.46099999998353
 21
8.999899999990987
 31
0.0
1001
ACAD
1000
ASC_BOUNDS
1002
{
1070
    19
1005
19D95
1002
}
  0
LINE
  5
19D6A
330
19D51
100
AcDbEntity
  8
0
100
AcDbLine
 10
6.432999999993513
 20
8.763099999991255
 30
0.0
 11
3.181999999996833
 21
4.668599999995308
 31
0.0
1001
ACAD
1000
ASC_BOUNDS
1002
{
1070
    19
1005
19D94
1002
}
  0
LINE
  5
19D6B
330
19D51
100
AcDbEntity
  8
0
100
AcDbLine
 10
4.617999999995391
 20
8.763099999991255
 30
0.0
 11
1.420999999998571
 21
4.736799999995242
 31
0.0
1001
ACAD
1000
ASC_BOUNDS
1002
{
1070
    19
1005
19D94
1002
}
  0
LINE
  5
19D6C
330
19D51
100
AcDbEntity
  8
0
100
AcDbLine
 10
0.0
 20
8.763099999991255
 30
0.0
 11
1.420999999998571
 21
8.763099999991255
 31
0.0
1001
ACAD
1000
ASC_BOUNDS
1002
{
1070
    19
1005
19D99
1002
}
  0
LINE
  5
19D6D
330
19D51
100
AcDbEntity
  8
0
100
AcDbLine
 10
4.617999999995391
 20
8.763099999991255
 30
0.0
 11
6.432999999993513
 21
8.763099999991255
 31
0.0
1001
ACAD
1000
ASC_BOUNDS
1002
{
1070
    19
1005
19D94
1002
}
  0
LINE
  5
19D6E
330
19D51
100
AcDbEntity
  8
0
100
AcDbLine
 10
14.32399999998563
 20
3.315799999996671
 30
0.0
 11
12.02999999998792
 21
8.763099999991255
 31
0.0
1001
ACAD
1000
ASC_BOUNDS
1002
{
1070
    19
1005
19D95
1002
}
  0
LINE
  5
19D6F
330
19D51
100
AcDbEntity
  8
0
100
AcDbLine
 10
10.06399999998996
 20
3.670999999996297
 30
0.0
 11
9.236999999990758
 21
5.5200999999945
 31
0.0
1001
ACAD
1000
ASC_BOUNDS
1002
{
1070
    19
1005
19D94
1002
}
  0
LINE
  5
19D70
330
19D51
100
AcDbEntity
  8
0
100
AcDbLine
 10
8.409999999991555
 20
3.670999999996297
 30
0.0
 11
9.236999999990758
 21
5.5200999999945
 31
0.0
1001
ACAD
1000
ASC_BOUNDS
1002
{
1070
    19
1005
19D94
1002
}
  0
LINE
  5
19D71
330
19D51
100
AcDbEntity
  8
0
100
AcDbLine
 10
8.409999999991555
 20
3.670999999996297
 30
0.0
 11
10.06399999998996
 21
3.670999999996297
 31
0.0
1001
ACAD
1000
ASC_BOUNDS
1002
{
1070
    19
1005
19D94
1002
}
  0
LINE
  5
19D72
330
19D51
100
AcDbEntity
  8
0
100
AcDbLine
 10
10.53899999998941
 20
8.763099999991255
 30
0.0
 11
12.02999999998792
 21
8.763099999991255
 31
0.0
1001
ACAD
1000
ASC_BOUNDS
1002
{
1070
    19
1005
19D95
1002
}
  0
LINE
  5
19D73
330
19D51
100
AcDbEntity
  8
0
100
AcDbLine
 10
22.7389999999773
 20
3.670999999996297
 30
0.0
 11
23.56599999997638
 21
5.5200999999945
 31
0.0
1001
ACAD
1000
ASC_BOUNDS
1002
{
1070
    19
1005
19D96
1002
}
  0
LINE
  5
19D74
330
19D51
100
AcDbEntity
  8
0
100
AcDbLine
 10
22.7389999999773
 20
3.670999999996297
 30
0.0
 11
24.39299999997559
 21
3.670999999996297
 31
0.0
1001
ACAD
1000
ASC_BOUNDS
1002
{
1070
    19
1005
19D96
1002
}
  0
LINE
  5
19D75
330
19D51
100
AcDbEntity
  8
0
100
AcDbLine
 10
18.59799999998143
 20
3.315799999996671
 30
0.0
 11
20.89099999997916
 21
8.763099999991255
 31
0.0
1001
ACAD
1000
ASC_BOUNDS
1002
{
1070
    19
1005
19D95
1002
}
  0
LINE
  5
19D76
330
19D51
100
AcDbEntity
  8
0
100
AcDbLine
 10
18.59799999998143
 20
3.315799999996671
 30
0.0
 11
16.46099999998353
 21
8.999899999990987
 31
0.0
1001
ACAD
1000
ASC_BOUNDS
1002
{
1070
    19
1005
19D95
1002
}
  0
LINE
  5
19D77
330
19D51
100
AcDbEntity
  8
0
100
AcDbLine
 10
20.89099999997916
 20
8.763099999991255
 30
0.0
 11
22.38199999997767
 21
8.763099999991255
 31
0.0
1001
ACAD
1000
ASC_BOUNDS
1002
{
1070
    19
1005
19D95
1002
}
  0
LINE
  5
19D78
330
19D51
100
AcDbEntity
  8
0
100
AcDbLine
 10
24.39299999997559
 20
3.670999999996297
 30
0.0
 11
23.56599999997638
 21
5.5200999999945
 31
0.0
1001
ACAD
1000
ASC_BOUNDS
1002
{
1070
    19
1005
19D96
1002
}
  0
LINE
  5
19D79
330
19D51
100
AcDbEntity
  8
0
100
AcDbLine
 10
44.99999999995498
 20
-0.2368999999997641
 30
0.0
 11
40.02599999995994
 21
5.341799999994635
 31
0.0
1001
ACAD
1000
ASC_BOUNDS
1002
{
1070
    19
1005
19D98
1002
}
  0
LINE
  5
19D7A
330
19D51
100
AcDbEntity
  8
0
100
AcDbLine
 10
40.02599999995994
 20
5.341799999994635
 30
0.0
 11
40.02599999995994
 21
0.0
 31
0.0
1001
ACAD
1000
ASC_BOUNDS
1002
{
1070
    19
1005
19D98
1002
}
  0
LINE
  5
19D7B
330
19D51
100
AcDbEntity
  8
0
100
AcDbLine
 10
38.60499999996136
 20
8.999999999991019
 30
0.0
 11
38.60499999996136
 21
0.0
 31
0.0
1001
ACAD
1000
ASC_BOUNDS
1002
{
1070
    19
1005
19D98
1002
}
  0
LINE
  5
19D7C
330
19D51
100
AcDbEntity
  8
0
100
AcDbLine
 10
44.99999999995498
 20
8.763099999991255
 30
0.0
 11
44.99999999995498
 21
-0.2368999999997641
 31
0.0
1001
ACAD
1000
ASC_BOUNDS
1002
{
1070
    19
1005
19D98
1002
}
  0
LINE
  5
19D7D
330
19D51
100
AcDbEntity
  8
0
100
AcDbLine
 10
38.60499999996136
 20
0.0
 30
0.0
 11
40.02599999995994
 21
0.0
 31
0.0
1001
ACAD
1000
ASC_BOUNDS
1002
{
1070
    19
1005
19D98
1002
}
  0
LINE
  5
19D7E
330
19D51
100
AcDbEntity
  8
0
100
AcDbLine
 10
43.57899999995641
 20
3.421199999996588
 30
0.0
 11
38.60499999996136
 21
8.999899999990987
 31
0.0
1001
ACAD
1000
ASC_BOUNDS
1002
{
1070
    19
1005
19D98
1002
}
  0
LINE
  5
19D7F
330
19D51
100
AcDbEntity
  8
0
100
AcDbLine
 10
43.57899999995641
 20
8.763099999991255
 30
0.0
 11
43.57899999995641
 21
3.421199999996588
 31
0.0
1001
ACAD
1000
ASC_BOUNDS
1002
{
1070
    19
1005
19D98
1002
}
  0
LINE
  5
19D80
330
19D51
100
AcDbEntity
  8
0
100
AcDbLine
 10
43.57899999995641
 20
8.763099999991255
 30
0.0
 11
44.99999999995498
 21
8.763099999991255
 31
0.0
1001
ACAD
1000
ASC_BOUNDS
1002
{
1070
    19
1005
19D98
1002
}
  0
LINE
  5
19D81
330
19D51
100
AcDbEntity
  8
0
100
AcDbLine
 10
37.67199999996831
 20
8.763099999991255
 30
0.0
 11
36.23199999996837
 21
8.763099999991255
 31
0.0
  0
LINE
  5
19D82
330
19D51
100
AcDbEntity
  8
0
100
AcDbLine
 10
31.64199999996833
 20
8.763099999991255
 30
0.0
 11
31.64199999996833
 21
2.481619422925121
 31
0.0
  0
LINE
  5
19D83
330
19D51
100
AcDbEntity
  8
0
100
AcDbLine
 10
37.67199999996831
 20
8.763099999991255
 30
0.0
 11
37.67199999996831
 21
2.481619422925121
 31
0.0
  0
LINE
  5
19D84
330
19D51
100
AcDbEntity
  8
0
100
AcDbLine
 10
36.23199999996837
 20
8.763099999991255
 30
0.0
 11
36.23199999996837
 21
2.481619422925064
 31
0.0
  0
LINE
  5
19D85
330
19D51
100
AcDbEntity
  8
0
100
AcDbLine
 10
33.08199999996839
 20
8.763099999991255
 30
0.0
 11
33.08199999996839
 21
2.481619422925121
 31
0.0
  0
ARC
  5
19D86
330
19D51
100
AcDbEntity
  8
0
100
AcDbCircle
 10
34.65699999996832
 20
3.183099999991214
 30
0.0
 40
3.420000000000007
100
AcDbArc
 50
240.0000000000255
 51
299.9999999999766
  0
ARC
  5
19D87
330
19D51
100
AcDbEntity
  8
0
100
AcDbCircle
 10
34.65699999996832
 20
3.183099999991214
 30
0.0
 40
1.97999999999999
100
AcDbArc
 50
240.000000000026
 51
299.9999999999703
  0
LINE
  5
19D88
330
19D51
100
AcDbEntity
  8
0
100
AcDbLine
 10
33.08199999996828
 20
8.763099999991255
 30
0.0
 11
31.64199999996833
 21
8.763099999991255
 31
0.0
  0
ARC
  5
19D89
330
19D51
100
AcDbEntity
  8
0
100
AcDbCircle
 10
35.06199999996829
 20
2.481619422925064
 30
0.0
 40
1.17
100
AcDbArc
 50
299.9999999999699
 51
0.0
  0
ARC
  5
19D8A
330
19D51
100
AcDbEntity
  8
0
100
AcDbCircle
 10
34.25199999996835
 20
2.481619422925121
 30
0.0
 40
1.17
100
AcDbArc
 50
180.0
 51
240.0000000000238
  0
ARC
  5
19D8B
330
19D51
100
AcDbEntity
  8
0
100
AcDbCircle
 10
35.06199999996841
 20
2.481619422925121
 30
0.0
 40
2.61
100
AcDbArc
 50
299.9999999999756
 51
0.0
  0
ARC
  5
19D8C
330
19D51
100
AcDbEntity
  8
0
100
AcDbCircle
 10
34.25199999996835
 20
2.481619422925121
 30
0.0
 40
2.61
100
AcDbArc
 50
180.0
 51
240.0000000000244
  0
LINE
  5
19D8D
330
19D51
100
AcDbEntity
  8
0
100
AcDbLine
 10
29.30199999996933
 20
8.763099999991255
 30
0.0
 11
30.74199999996927
 21
8.763099999991255
 31
0.0
1001
ACAD
1000
ASC_BOUNDS
1002
{
1070
    19
1005
19D96
1002
}
  0
LINE
  5
19D8E
330
19D51
100
AcDbEntity
  8
0
100
AcDbLine
 10
30.74199999996927
 20
8.763099999991255
 30
0.0
 11
30.74199999996927
 21
2.373099999991211
 31
0.0
1001
ACAD
1000
ASC_BOUNDS
1002
{
1070
    19
1005
19D96
1002
}
  0
LINE
  5
19D8F
330
19D51
100
AcDbEntity
  8
0
100
AcDbLine
 10
26.02015566812236
 20
0.0330999999912365
 30
0.0
 11
28.40199999996923
 21
0.0330999999912365
 31
0.0
1001
ACAD
1000
ASC_BOUNDS
1002
{
1070
    19
1005
19D96
1002
}
  0
LINE
  5
19D90
330
19D51
100
AcDbEntity
  8
0
100
AcDbLine
 10
29.30199999996933
 20
8.763099999991255
 30
0.0
 11
29.30199999996933
 21
2.283099999991236
 31
0.0
1001
ACAD
1000
ASC_BOUNDS
1002
{
1070
    19
1005
19D96
1002
}
  0
LINE
  5
19D91
330
19D51
100
AcDbEntity
  8
0
100
AcDbLine
 10
26.97358892824991
 20
1.383099999991202
 30
0.0
 11
28.40199999996923
 21
1.383099999991202
 31
0.0
1001
ACAD
1000
ASC_BOUNDS
1002
{
1070
    19
1005
19D96
1002
}
  0
ARC
  5
19D92
330
19D51
100
AcDbEntity
  8
0
100
AcDbCircle
 10
28.40199999996923
 20
2.283099999991236
 30
0.0
 40
0.9
100
AcDbArc
 50
270.0
 51
0.0
1001
ACAD
1000
ASC_BOUNDS
1002
{
1070
    19
1005
19D96
1002
}
  0
ARC
  5
19D93
330
19D51
100
AcDbEntity
  8
0
100
AcDbCircle
 10
28.40199999996923
 20
2.373099999991211
 30
0.0
 40
2.34
100
AcDbArc
 50
270.0
 51
0.0
1001
ACAD
1000
ASC_BOUNDS
1002
{
1070
    19
1005
19D96
1002
}
  0
INSERT
  5
19D94
330
19D51
100
AcDbEntity
  8
0
100
AcDbBlockReference
  2
*X33
 10
0.0
 20
0.0
 30
0.0
1001
ACAD
1000
HATCH
1002
{
1070
    19
1000
ANSI37
1040
0.15
1040
0.0
1000
ASC_BOUNDS
1070
     2
1070
     2
1070
    12
1005
19D53
1005
19D54
1005
19D5B
1005
19D6A
1005
19D6D
1005
19D6B
1005
19D5C
1005
19D61
1005
19D5F
1005
19D63
1005
19D62
1005
19D64
1070
     2
1070
     3
1005
19D6F
1005
19D71
1005
19D70
1000
ASC_SEEDPOINT
1011
3.614004224891801
1021
2.996669441146025
1031
0.0
1000
R14_HATCH_DATA
1000
19D94
1011
1.0
1021
0.0
1031
0.0
1011
0.0
1021
1.0
1031
0.0
1011
0.0
1021
0.0
1031
1.0
1040
0.0
1010
0.0
1020
0.0
1030
1.0
1000
ANSI37
1070
     0
1070
     1
1071
        2
1071
        7
1070
     0
1070
     1
1071
       17
1040
13.26299999998673
1040
-0.0001000000000317
1040
9.236999999990758
1040
8.999899999990987
1040
9.236999999990758
1040
8.999999999991019
1040
5.657999999994331
1040
0.9999999999989768
1040
3.181999999996833
1040
4.668599999995308
1040
6.432999999993513
1040
8.763099999991255
1040
4.617999999995391
1040
8.763099999991255
1040
1.420999999998571
1040
4.736799999995242
1040
4.617999999995391
1040
-0.0001000000000317
1040
4.617999999995391
1040
0.0
1040
6.766999999993232
1040
0.0
1040
6.766999999993232
1040
-0.0001000000000317
1040
7.826999999992154
1040
2.368399999997621
1040
10.64699999998936
1040
2.368399999997621
1040
11.70599999998831
1040
-0.0001000000000317
1040
11.70599999998831
1040
0.0
1040
13.26299999998673
1040
0.0
1071
       12
1005
19D53
1005
19D54
1005
19D5B
1005
19D6A
1005
19D6D
1005
19D6B
1005
19D5C
1005
19D61
1005
19D5F
1005
19D63
1005
19D62
1005
19D64
1071
       22
1070
     0
1070
     1
1071
        3
1040
9.236999999990758
1040
5.5200999999945
1040
10.06399999998996
1040
3.670999999996297
1040
8.409999999991555
1040
3.670999999996297
1071
        3
1005
19D6F
1005
19D71
1005
19D70
1070
     0
1070
     1
1040
0.0
1040
0.15
1070
     0
1070
     2
1040
0.7853981633974483
1040
49.29960901727088
1040
-10.17736998311392
1040
-0.3367596045400932
1040
0.3367596045400932
1070
     0
1040
2.356194490192345
1040
49.29960901727088
1040
-10.17736998311392
1040
-0.3367596045400932
1040
-0.3367596045400932
1070
     0
1040
0.0110235143455945
1071
        2
1040
3.614004224891801
1040
2.996669441146025
1040
0.0
1040
3.614004224891801
1040
2.996669441146025
1040
0.0
1002
}
  0
INSERT
  5
19D95
330
19D51
100
AcDbEntity
  8
0
100
AcDbBlockReference
  2
*X34
 10
0.0
 20
0.0
 30
0.0
1001
ACAD
1000
HATCH
1002
{
1070
    19
1000
ANSI37
1040
0.15
1040
0.0
1000
ASC_BOUNDS
1070
     1
1070
     2
1070
    10
1005
19D55
1005
19D56
1005
19D77
1005
19D75
1005
19D76
1005
19D69
1005
19D6E
1005
19D72
1005
19D58
1005
19D57
1000
ASC_SEEDPOINT
1011
14.73245321214324
1021
2.798246178283421
1031
0.0
1000
R14_HATCH_DATA
1000
19D95
1011
1.0
1021
0.0
1031
0.0
1011
0.0
1021
1.0
1031
0.0
1011
0.0
1021
0.0
1031
1.0
1040
0.0
1010
0.0
1020
0.0
1030
1.0
1000
ANSI37
1070
     0
1070
     1
1071
        1
1071
        7
1070
     0
1070
     1
1071
       10
1040
16.46099999998353
1040
5.432899999994561
1040
18.59199999998134
1040
-0.2368999999997641
1040
22.38199999997767
1040
8.763099999991255
1040
20.89099999997916
1040
8.763099999991255
1040
18.59799999998143
1040
3.315799999996671
1040
16.46099999998353
1040
8.999899999990987
1040
14.32399999998563
1040
3.315799999996671
1040
12.02999999998792
1040
8.763099999991255
1040
10.53899999998941
1040
8.763099999991255
1040
14.32899999998563
1040
-0.2368999999997641
1071
       10
1005
19D55
1005
19D56
1005
19D77
1005
19D75
1005
19D76
1005
19D69
1005
19D6E
1005
19D72
1005
19D58
1005
19D57
1070
     0
1070
     1
1040
0.0
1040
0.15
1070
     0
1070
     2
1040
0.7853981633974483
1040
49.29960901727088
1040
-10.17736998311392
1040
-0.3367596045400932
1040
0.3367596045400932
1070
     0
1040
2.356194490192345
1040
49.29960901727088
1040
-10.17736998311392
1040
-0.3367596045400932
1040
-0.3367596045400932
1070
     0
1040
0.0110235143455945
1071
        1
1040
14.73245321214324
1040
2.798246178283421
1040
0.0
1002
}
  0
INSERT
  5
19D96
330
19D51
100
AcDbEntity
  8
0
100
AcDbBlockReference
  2
*X35
 10
0.0
 20
0.0
 30
0.0
1001
ACAD
1000
HATCH
1002
{
1070
    19
1000
ANSI37
1040
0.15
1040
0.0
1000
ASC_BOUNDS
1070
     2
1070
     2
1070
    13
1005
19D59
1005
19D66
1005
19D67
1005
19D65
1005
19D68
1005
19D8F
1005
19D93
1005
19D8E
1005
19D8D
1005
19D90
1005
19D92
1005
19D91
1005
19D5A
1070
     2
1070
     3
1005
19D73
1005
19D78
1005
19D74
1000
ASC_SEEDPOINT
1011
21.97929957367762
1021
3.294304244259308
1031
0.0
1000
R14_HATCH_DATA
1000
19D96
1011
1.0
1021
0.0
1031
0.0
1011
0.0
1021
1.0
1031
0.0
1011
0.0
1021
0.0
1031
1.0
1040
0.0
1010
0.0
1020
0.0
1030
1.0
1000
ANSI37
1070
     0
1070
     1
1071
        2
1071
        7
1070
     1
1070
     1
1071
       15
1040
23.56599999997638
1040
8.999899999990987
1040
0.0
1040
19.53899999998043
1040
-0.0001000000000317
1040
0.0
1040
19.53899999998043
1040
0.0
1040
0.0
1040
21.09599999997886
1040
0.0
1040
0.0
1040
21.09599999997886
1040
-0.0001000000000317
1040
0.0
1040
22.15599999997789
1040
2.368399999997621
1040
0.0
1040
24.97599999997499
1040
2.368399999997621
1040
0.0
1040
26.02015566812236
1040
0.0330999999912365
1040
0.0
1040
28.40199999996923
1040
0.0330999999912365
1040
0.414213562373095
1040
30.74199999996923
1040
2.373099999991211
1040
0.0
1040
30.74199999996927
1040
8.763099999991255
1040
0.0
1040
29.30199999996933
1040
8.763099999991255
1040
0.0
1040
29.30199999996933
1040
2.283099999991236
1040
-0.414213562373095
1040
28.40199999996923
1040
1.383099999991237
1040
0.0
1040
26.97358892824991
1040
1.383099999991202
1040
0.0
1071
       13
1005
19D59
1005
19D66
1005
19D67
1005
19D65
1005
19D68
1005
19D8F
1005
19D93
1005
19D8E
1005
19D8D
1005
19D90
1005
19D92
1005
19D91
1005
19D5A
1071
       22
1070
     0
1070
     1
1071
        3
1040
22.7389999999773
1040
3.670999999996297
1040
23.56599999997638
1040
5.5200999999945
1040
24.39299999997559
1040
3.670999999996297
1071
        3
1005
19D73
1005
19D78
1005
19D74
1070
     0
1070
     1
1040
0.0
1040
0.15
1070
     0
1070
     2
1040
0.7853981633974483
1040
49.29960901727088
1040
-10.17736998311392
1040
-0.3367596045400932
1040
0.3367596045400932
1070
     0
1040
2.356194490192345
1040
49.29960901727088
1040
-10.17736998311392
1040
-0.3367596045400932
1040
-0.3367596045400932
1070
     0
1040
0.0110235143455945
1071
        2
1040
21.97929957367762
1040
3.294304244259308
1040
0.0
1040
21.97929957367762
1040
3.294304244259308
1040
0.0
1002
}
  0
INSERT
  5
19D97
330
19D51
100
AcDbEntity
  8
0
100
AcDbBlockReference
  2
*X36
 10
0.0
 20
0.0
 30
0.0
1001
ACAD
1000
HATCH
1002
{
1070
    19
1000
ANSI37
1040
0.15
1040
0.0
1000
R14_HATCH_DATA
1000
19D97
1011
1.0
1021
0.0
1031
0.0
1011
0.0
1021
1.0
1031
0.0
1011
0.0
1021
0.0
1031
1.0
1040
0.0
1010
0.0
1020
0.0
1030
1.0
1000
ANSI37
1070
     0
1070
     1
1071
        1
1071
        7
1070
     1
1070
     1
1071
       12
1040
31.64199999996833
1040
2.481619422925121
1040
0.2679491924310942
1040
32.94699999997067
1040
0.2212931190493919
1040
0.2679491924301353
1040
36.36699999995983
1040
0.2212931190459813
1040
0.2679491924321411
1040
37.67199999996831
1040
2.481619422928361
1040
0.0
1040
37.67199999996831
1040
8.763099999991255
1040
0.0
1040
36.23199999996837
1040
8.763099999991255
1040
0.0
1040
36.23199999996837
1040
2.481619422925064
1040
-0.2679491924310291
1040
35.64699999996708
1040
1.468369700498386
1040
-0.267949192430519
1040
33.66699999997093
1040
1.468369700497703
1040
-0.267949192431809
1040
33.08199999996839
1040
2.481619422926997
1040
0.0
1040
33.08199999996839
1040
8.763099999991255
1040
0.0
1040
31.64199999996833
1040
8.763099999991255
1040
0.0
1071
        0
1070
     0
1070
     1
1040
0.0
1040
0.15
1070
     0
1070
     2
1040
0.7853981633974483
1040
49.29960901727088
1040
-10.17736998311392
1040
-0.3367596045400932
1040
0.3367596045400932
1070
     0
1040
2.356194490192345
1040
49.29960901727088
1040
-10.17736998311392
1040
-0.3367596045400932
1040
-0.3367596045400932
1070
     0
1040
0.0110235143455945
1071
        1
1040
32.30357378967278
1040
3.988785755459219
1040
0.0
1002
}
  0
INSERT
  5
19D98
330
19D51
100
AcDbEntity
  8
0
100
AcDbBlockReference
  2
*X37
 10
0.0
 20
0.0
 30
0.0
1001
ACAD
1000
HATCH
1002
{
1070
    19
1000
ANSI37
1040
0.15
1040
0.0
1000
ASC_BOUNDS
1070
     1
1070
     2
1070
     8
1005
19D79
1005
19D7C
1005
19D80
1005
19D7F
1005
19D7E
1005
19D7B
1005
19D7D
1005
19D7A
1000
ASC_SEEDPOINT
1011
39.74896370716704
1021
4.484843821435049
1031
0.0
1000
R14_HATCH_DATA
1000
19D98
1011
1.0
1021
0.0
1031
0.0
1011
0.0
1021
1.0
1031
0.0
1011
0.0
1021
0.0
1031
1.0
1040
0.0
1010
0.0
1020
0.0
1030
1.0
1000
ANSI37
1070
     0
1070
     1
1071
        1
1071
        7
1070
     0
1070
     1
1071
        9
1040
40.02599999995994
1040
5.341799999994635
1040
44.99999999995498
1040
-0.2368999999997641
1040
44.99999999995498
1040
8.763099999991255
1040
43.57899999995641
1040
8.763099999991255
1040
43.57899999995641
1040
3.421199999996588
1040
38.60499999996136
1040
8.999899999990987
1040
38.60499999996136
1040
8.999999999991019
1040
38.60499999996136
1040
0.0
1040
40.02599999995994
1040
0.0
1071
        8
1005
19D79
1005
19D7C
1005
19D80
1005
19D7F
1005
19D7E
1005
19D7B
1005
19D7D
1005
19D7A
1070
     0
1070
     1
1040
0.0
1040
0.15
1070
     0
1070
     2
1040
0.7853981633974483
1040
49.29960901727088
1040
-10.17736998311392
1040
-0.3367596045400932
1040
0.3367596045400932
1070
     0
1040
2.356194490192345
1040
49.29960901727088
1040
-10.17736998311392
1040
-0.3367596045400932
1040
-0.3367596045400932
1070
     0
1040
0.0110235143455945
1071
        1
1040
39.74896370716704
1040
4.484843821435049
1040
0.0
1002
}
  0
INSERT
  5
19D99
330
19D51
100
AcDbEntity
  8
0
100
AcDbBlockReference
  2
*X38
 10
0.0
 20
0.0
 30
0.0
1001
ACAD
1000
HATCH
1002
{
1070
    19
1000
ANSI37
1040
0.15
1040
0.0
1000
ASC_BOUNDS
1070
     1
1070
     2
1070
     4
1005
19D5D
1005
19D6C
1005
19D5E
1005
19D60
1000
ASC_SEEDPOINT
1011
1.079051535452663
1021
4.148538732891836
1031
0.0
1000
R14_HATCH_DATA
1000
19D99
1011
1.0
1021
0.0
1031
0.0
1011
0.0
1021
1.0
1031
0.0
1011
0.0
1021
0.0
1031
1.0
1040
0.0
1010
0.0
1020
0.0
1030
1.0
1000
ANSI37
1070
     0
1070
     1
1071
        1
1071
        7
1070
     0
1070
     1
1071
        4
1040
1.420999999998571
1040
0.0
1040
1.420999999998571
1040
8.763099999991255
1040
0.0
1040
8.763099999991255
1040
0.0
1040
0.0
1071
        4
1005
19D5D
1005
19D6C
1005
19D5E
1005
19D60
1070
     0
1070
     1
1040
0.0
1040
0.15
1070
     0
1070
     2
1040
0.7853981633974483
1040
49.29960901727088
1040
-10.17736998311392
1040
-0.3367596045400932
1040
0.3367596045400932
1070
     0
1040
2.356194490192345
1040
49.29960901727088
1040
-10.17736998311392
1040
-0.3367596045400932
1040
-0.3367596045400932
1070
     0
1040
0.0053004257112761
1071
        1
1040
1.079051535452663
1040
4.148538732891836
1040
0.0
1002
}
  0
ENDBLK
  5
1A475
330
19D51
100
AcDbEntity
  8
0
100
AcDbBlockEnd
  0
BLOCK
  5
1B1EC
330
1B05E
100
AcDbEntity
  8
0
100
AcDbBlockBegin
  2
*X33
 70
     1
 10
0.0
 20
0.0
 30
0.0
  3
*X33
  1

  0
LINE
  5
1B05F
330
1B05E
100
AcDbEntity
  8
0
  6
CONTINUOUS
100
AcDbLine
 10
3.418023043697893
 20
7.251849696850613
 30
0.0
 11
4.929273346838536
 21
8.763099999991255
 31
0.0
  0
LINE
  5
1B060
330
1B05E
100
AcDbEntity
  8
0
  6
CONTINUOUS
100
AcDbLine
 10
1.483656411257782
 20
4.643963855330318
 30
0.0
 11
5.60279255591872
 21
8.763099999991255
 31
0.0
  0
LINE
  5
1B061
330
1B05E
100
AcDbEntity
  8
0
  6
CONTINUOUS
100
AcDbLine
 10
1.755053947328235
 20
4.241842182320584
 30
0.0
 11
6.276311764998907
 21
8.763099999991255
 31
0.0
  0
LINE
  5
1B062
330
1B05E
100
AcDbEntity
  8
0
  6
CONTINUOUS
100
AcDbLine
 10
2.026451483398688
 20
3.839720509310849
 30
0.0
 11
4.441040904851878
 21
6.254309930764039
 31
0.0
  0
LINE
  5
1B063
330
1B05E
100
AcDbEntity
  8
0
  6
CONTINUOUS
100
AcDbLine
 10
2.297849019469139
 20
3.437598836301114
 30
0.0
 11
3.321765168359338
 21
4.461514985191313
 31
0.0
  0
LINE
  5
1B064
330
1B05E
100
AcDbEntity
  8
0
  6
CONTINUOUS
100
AcDbLine
 10
2.569246555539591
 20
3.03547716329138
 30
0.0
 11
3.593163397972743
 21
4.059394005724531
 31
0.0
  0
LINE
  5
1B065
330
1B05E
100
AcDbEntity
  8
0
  6
CONTINUOUS
100
AcDbLine
 10
2.840644091610043
 20
2.633355490281646
 30
0.0
 11
3.864561627586149
 21
3.657273026257751
 31
0.0
  0
LINE
  5
1B066
330
1B05E
100
AcDbEntity
  8
0
  6
CONTINUOUS
100
AcDbLine
 10
3.112041627680496
 20
2.231233817271911
 30
0.0
 11
4.135959857199554
 21
3.25515204679097
 31
0.0
  0
LINE
  5
1B067
330
1B05E
100
AcDbEntity
  8
0
  6
CONTINUOUS
100
AcDbLine
 10
3.383439163750948
 20
1.829112144262177
 30
0.0
 11
4.40735808681296
 21
2.853031067324189
 31
0.0
  0
LINE
  5
1B068
330
1B05E
100
AcDbEntity
  8
0
  6
CONTINUOUS
100
AcDbLine
 10
3.654836699821399
 20
1.426990471252442
 30
0.0
 11
4.678756316426365
 21
2.450910087857407
 31
0.0
  0
LINE
  5
1B069
330
1B05E
100
AcDbEntity
  8
0
  6
CONTINUOUS
100
AcDbLine
 10
3.926234235891853
 20
1.024868798242709
 30
0.0
 11
4.95015454603977
 21
2.048789108390626
 31
0.0
  0
LINE
  5
1B06A
330
1B05E
100
AcDbEntity
  8
0
  6
CONTINUOUS
100
AcDbLine
 10
4.197631771962304
 20
0.6227471252329737
 30
0.0
 11
5.221552775653176
 21
1.646668128923846
 31
0.0
  0
LINE
  5
1B06B
330
1B05E
100
AcDbEntity
  8
0
  6
CONTINUOUS
100
AcDbLine
 10
8.715877546767851
 20
7.835069736359266
 30
0.0
 11
9.435953450375058
 21
8.555145639966472
 31
0.0
  0
LINE
  5
1B06C
330
1B05E
100
AcDbEntity
  8
0
  6
CONTINUOUS
100
AcDbLine
 10
8.170620868422267
 20
6.616293848933497
 30
0.0
 11
9.644120833743461
 21
8.08979381425469
 31
0.0
  0
LINE
  5
1B06D
330
1B05E
100
AcDbEntity
  8
0
  6
CONTINUOUS
100
AcDbLine
 10
7.625364190076684
 20
5.397517961507727
 30
0.0
 11
9.852288217111864
 21
7.624441988542907
 31
0.0
  0
LINE
  5
1B06E
330
1B05E
100
AcDbEntity
  8
0
  6
CONTINUOUS
100
AcDbLine
 10
7.080107511731101
 20
4.178742074081957
 30
0.0
 11
10.06045560048027
 21
7.159090162831124
 31
0.0
  0
LINE
  5
1B06F
330
1B05E
100
AcDbEntity
  8
0
  6
CONTINUOUS
100
AcDbLine
 10
6.534850833385518
 20
2.959966186656187
 30
0.0
 11
10.26862298384867
 21
6.693738337119342
 31
0.0
  0
LINE
  5
1B070
330
1B05E
100
AcDbEntity
  8
0
  6
CONTINUOUS
100
AcDbLine
 10
4.469029308032756
 20
0.2206254522232385
 30
0.0
 11
5.492951005266582
 21
1.244547149457064
 31
0.0
  0
LINE
  5
1B071
330
1B05E
100
AcDbEntity
  8
0
  6
CONTINUOUS
100
AcDbLine
 10
5.989594155039935
 20
1.741190299230417
 30
0.0
 11
8.806950407233131
 21
4.558546551423613
 31
0.0
  0
LINE
  5
1B072
330
1B05E
100
AcDbEntity
  8
0
  6
CONTINUOUS
100
AcDbLine
 10
9.401251593263643
 20
5.152847737454126
 30
0.0
 11
10.47679036721708
 21
6.228386511407559
 31
0.0
  0
LINE
  5
1B073
330
1B05E
100
AcDbEntity
  8
0
  6
CONTINUOUS
100
AcDbLine
 10
4.921837203428691
 20
-0.0000858614610131
 30
0.0
 11
8.592923064886001
 21
3.670999999996297
 31
0.0
  0
LINE
  5
1B074
330
1B05E
100
AcDbEntity
  8
0
  6
CONTINUOUS
100
AcDbLine
 10
9.609390446785305
 20
4.6874673818956
 30
0.0
 11
10.68495775058548
 21
5.763034685695775
 31
0.0
  0
LINE
  5
1B075
330
1B05E
100
AcDbEntity
  8
0
  6
CONTINUOUS
100
AcDbLine
 10
5.595387755019432
 20
-0.0000545189504582
 30
0.0
 11
7.716137258923768
 21
2.120694984953879
 31
0.0
  0
LINE
  5
1B076
330
1B05E
100
AcDbEntity
  8
0
  6
CONTINUOUS
100
AcDbLine
 10
6.268938306610172
 20
-0.000023176439905
 30
0.0
 11
7.170485805526503
 21
0.9015243224764267
 31
0.0
  0
LINE
  5
1B077
330
1B05E
100
AcDbEntity
  8
0
  6
CONTINUOUS
100
AcDbLine
 10
7.963842273967511
 20
2.368399999997621
 30
0.0
 11
9.266442273966188
 21
3.670999999996297
 31
0.0
  0
LINE
  5
1B078
330
1B05E
100
AcDbEntity
  8
0
  6
CONTINUOUS
100
AcDbLine
 10
8.637361483047696
 20
2.368399999997621
 30
0.0
 11
9.939961483046375
 21
3.670999999996297
 31
0.0
  0
LINE
  5
1B079
330
1B05E
100
AcDbEntity
  8
0
  6
CONTINUOUS
100
AcDbLine
 10
9.817529300306965
 20
4.222087026337075
 30
0.0
 11
10.89312513395388
 21
5.297682859983993
 31
0.0
  0
LINE
  5
1B07A
330
1B05E
100
AcDbEntity
  8
0
  6
CONTINUOUS
100
AcDbLine
 10
10.02566815382863
 20
3.756706670778549
 30
0.0
 11
11.10129251732229
 21
4.832331034272211
 31
0.0
  0
LINE
  5
1B07B
330
1B05E
100
AcDbEntity
  8
0
  6
CONTINUOUS
100
AcDbLine
 10
9.310880692127883
 20
2.368399999997621
 30
0.0
 11
11.30945990069069
 21
4.366979208560428
 31
0.0
  0
LINE
  5
1B07C
330
1B05E
100
AcDbEntity
  8
0
  6
CONTINUOUS
100
AcDbLine
 10
9.98439990120807
 20
2.36839999999762
 30
0.0
 11
11.5176272840591
 21
3.901627382848645
 31
0.0
  0
LINE
  5
1B07D
330
1B05E
100
AcDbEntity
  8
0
  6
CONTINUOUS
100
AcDbLine
 10
10.65037369446246
 20
2.36085458417182
 30
0.0
 11
11.7257946674275
 21
3.436275557136862
 31
0.0
  0
LINE
  5
1B07E
330
1B05E
100
AcDbEntity
  8
0
  6
CONTINUOUS
100
AcDbLine
 10
10.85847197087848
 20
1.895433651507656
 30
0.0
 11
11.9339620507959
 21
2.97092373142508
 31
0.0
  0
LINE
  5
1B07F
330
1B05E
100
AcDbEntity
  8
0
  6
CONTINUOUS
100
AcDbLine
 10
11.0665702472945
 20
1.430012718843491
 30
0.0
 11
12.14212943416431
 21
2.505571905713296
 31
0.0
  0
LINE
  5
1B080
330
1B05E
100
AcDbEntity
  8
0
  6
CONTINUOUS
100
AcDbLine
 10
11.27466852371052
 20
0.9645917861793256
 30
0.0
 11
12.35029681753271
 21
2.040220080001513
 31
0.0
  0
LINE
  5
1B081
330
1B05E
100
AcDbEntity
  8
0
  6
CONTINUOUS
100
AcDbLine
 10
11.48276680012654
 20
0.4991708535151611
 30
0.0
 11
12.55846420090111
 21
1.57486825428973
 31
0.0
  0
LINE
  5
1B082
330
1B05E
100
AcDbEntity
  8
0
  6
CONTINUOUS
100
AcDbLine
 10
11.69086507654257
 20
0.0337499208509957
 30
0.0
 11
12.76663158426952
 21
1.109516428577947
 31
0.0
  0
LINE
  5
1B083
330
1B05E
100
AcDbEntity
  8
0
  6
CONTINUOUS
100
AcDbLine
 10
12.33057447873954
 20
-0.0000598860322123
 30
0.0
 11
12.97479896763792
 21
0.6441646028661663
 31
0.0
  0
LINE
  5
1B084
330
1B05E
100
AcDbEntity
  8
0
  6
CONTINUOUS
100
AcDbLine
 10
13.00413694809395
 20
-0.0000166257579952
 30
0.0
 11
13.18296635100632
 21
0.1788127771543824
 31
0.0
  0
LINE
  5
1B085
330
1B05E
100
AcDbEntity
  8
0
  6
CONTINUOUS
100
AcDbLine
 10
4.772852165289667
 20
-0.000092794222212
 30
0.0
 11
4.296495091028902
 21
0.4762642800385528
 31
0.0
  0
LINE
  5
1B086
330
1B05E
100
AcDbEntity
  8
0
  6
CONTINUOUS
100
AcDbLine
 10
5.446340034776103
 20
-0.0000614546284616
 30
0.0
 11
2.898195908335625
 21
2.548082671812017
 31
0.0
  0
LINE
  5
1B087
330
1B05E
100
AcDbEntity
  8
0
  6
CONTINUOUS
100
AcDbLine
 10
6.119827904262539
 20
-0.0000301150347113
 30
0.0
 11
1.499896725642348
 21
4.61990106358548
 31
0.0
  0
LINE
  5
1B088
330
1B05E
100
AcDbEntity
  8
0
  6
CONTINUOUS
100
AcDbLine
 10
6.775136745476159
 20
0.0181802528318542
 30
0.0
 11
5.699826040202669
 21
1.093490958105344
 31
0.0
  0
LINE
  5
1B089
330
1B05E
100
AcDbEntity
  8
0
  6
CONTINUOUS
100
AcDbLine
 10
6.983376846288489
 20
0.4834593610997118
 30
0.0
 11
5.908008617934405
 21
1.558827589453796
 31
0.0
  0
LINE
  5
1B08A
330
1B05E
100
AcDbEntity
  8
0
  6
CONTINUOUS
100
AcDbLine
 10
5.377063484962296
 20
1.416253513345719
 30
0.0
 11
1.702276957014131
 21
5.091040041293883
 31
0.0
  0
LINE
  5
1B08B
330
1B05E
100
AcDbEntity
  8
0
  6
CONTINUOUS
100
AcDbLine
 10
3.978745891735324
 20
3.488090315652877
 30
0.0
 11
2.000373521109399
 21
5.466462686278803
 31
0.0
  0
LINE
  5
1B08C
330
1B05E
100
AcDbEntity
  8
0
  6
CONTINUOUS
100
AcDbLine
 10
7.191616947100819
 20
0.948738469367568
 30
0.0
 11
6.11619119566614
 21
2.024164220802247
 31
0.0
  0
LINE
  5
1B08D
330
1B05E
100
AcDbEntity
  8
0
  6
CONTINUOUS
100
AcDbLine
 10
7.399857047913149
 20
1.414017577635424
 30
0.0
 11
6.324373773397875
 21
2.489500852150698
 31
0.0
  0
LINE
  5
1B08E
330
1B05E
100
AcDbEntity
  8
0
  6
CONTINUOUS
100
AcDbLine
 10
7.608097148725479
 20
1.879296685903281
 30
0.0
 11
6.53255635112961
 21
2.95483748349915
 31
0.0
  0
LINE
  5
1B08F
330
1B05E
100
AcDbEntity
  8
0
  6
CONTINUOUS
100
AcDbLine
 10
7.816337249537808
 20
2.344575794171138
 30
0.0
 11
6.740738928861345
 21
3.420174114847601
 31
0.0
  0
LINE
  5
1B090
330
1B05E
100
AcDbEntity
  8
0
  6
CONTINUOUS
100
AcDbLine
 10
3.310241080789734
 20
4.830114335678653
 30
0.0
 11
2.298470085204666
 21
5.84188533126372
 31
0.0
  0
LINE
  5
1B091
330
1B05E
100
AcDbEntity
  8
0
  6
CONTINUOUS
100
AcDbLine
 10
3.60832983563551
 20
5.205544789913063
 30
0.0
 11
2.596566649299935
 21
6.217307976248638
 31
0.0
  0
LINE
  5
1B092
330
1B05E
100
AcDbEntity
  8
0
  6
CONTINUOUS
100
AcDbLine
 10
3.906418590481286
 20
5.580975244147473
 30
0.0
 11
2.894663213395203
 21
6.592730621233557
 31
0.0
  0
LINE
  5
1B093
330
1B05E
100
AcDbEntity
  8
0
  6
CONTINUOUS
100
AcDbLine
 10
4.204507345327062
 20
5.956405698381884
 30
0.0
 11
3.192759777490472
 21
6.968153266218474
 31
0.0
  0
LINE
  5
1B094
330
1B05E
100
AcDbEntity
  8
0
  6
CONTINUOUS
100
AcDbLine
 10
8.466032252791512
 20
2.368399999997621
 30
0.0
 11
6.948921506593081
 21
3.885510746196053
 31
0.0
  0
LINE
  5
1B095
330
1B05E
100
AcDbEntity
  8
0
  6
CONTINUOUS
100
AcDbLine
 10
9.139551461871699
 20
2.36839999999762
 30
0.0
 11
7.157104084324816
 21
4.350847377544504
 31
0.0
  0
LINE
  5
1B096
330
1B05E
100
AcDbEntity
  8
0
  6
CONTINUOUS
100
AcDbLine
 10
4.502596100172839
 20
6.331836152616295
 30
0.0
 11
3.49085634158574
 21
7.343575911203393
 31
0.0
  0
LINE
  5
1B097
330
1B05E
100
AcDbEntity
  8
0
  6
CONTINUOUS
100
AcDbLine
 10
4.800684855018615
 20
6.707266606850705
 30
0.0
 11
3.788952905681008
 21
7.718998556188312
 31
0.0
  0
LINE
  5
1B098
330
1B05E
100
AcDbEntity
  8
0
  6
CONTINUOUS
100
AcDbLine
 10
12.18154012887317
 20
-0.0000694579236642
 30
0.0
 11
11.32140332908496
 21
0.8600673418645499
 31
0.0
  0
LINE
  5
1B099
330
1B05E
100
AcDbEntity
  8
0
  6
CONTINUOUS
100
AcDbLine
 10
12.85501608323566
 20
-0.0000262032059659
 30
0.0
 11
10.77672456435345
 21
2.078265315676246
 31
0.0
  0
LINE
  5
1B09A
330
1B05E
100
AcDbEntity
  8
0
  6
CONTINUOUS
100
AcDbLine
 10
9.813070670951886
 20
2.36839999999762
 30
0.0
 11
8.51047067095321
 21
3.670999999996297
 31
0.0
  0
LINE
  5
1B09B
330
1B05E
100
AcDbEntity
  8
0
  6
CONTINUOUS
100
AcDbLine
 10
10.48658988003207
 20
2.36839999999762
 30
0.0
 11
9.183989880033396
 21
3.670999999996297
 31
0.0
  0
LINE
  5
1B09C
330
1B05E
100
AcDbEntity
  8
0
  6
CONTINUOUS
100
AcDbLine
 10
8.441048632286794
 20
3.740422038662712
 30
0.0
 11
7.365286662056551
 21
4.816184008892956
 31
0.0
  0
LINE
  5
1B09D
330
1B05E
100
AcDbEntity
  8
0
  6
CONTINUOUS
100
AcDbLine
 10
8.649187485808454
 20
4.205802394221237
 30
0.0
 11
7.573469239788285
 21
5.281520640241407
 31
0.0
  0
LINE
  5
1B09E
330
1B05E
100
AcDbEntity
  8
0
  6
CONTINUOUS
100
AcDbLine
 10
5.098773609864391
 20
7.082697061085115
 30
0.0
 11
4.087049469776277
 21
8.09442120117323
 31
0.0
  0
LINE
  5
1B09F
330
1B05E
100
AcDbEntity
  8
0
  6
CONTINUOUS
100
AcDbLine
 10
5.396862364710167
 20
7.458127515319526
 30
0.0
 11
4.385146033871544
 21
8.469843846158149
 31
0.0
  0
LINE
  5
1B0A0
330
1B05E
100
AcDbEntity
  8
0
  6
CONTINUOUS
100
AcDbLine
 10
13.04801363231285
 20
0.4804954567970334
 30
0.0
 11
9.85750908911358
 21
3.670999999996297
 31
0.0
  0
LINE
  5
1B0A1
330
1B05E
100
AcDbEntity
  8
0
  6
CONTINUOUS
100
AcDbLine
 10
8.857326339330116
 20
4.671182749779763
 30
0.0
 11
7.781651817520021
 21
5.746857271589858
 31
0.0
  0
LINE
  5
1B0A2
330
1B05E
100
AcDbEntity
  8
0
  6
CONTINUOUS
100
AcDbLine
 10
5.694951119555943
 20
7.833557969553937
 30
0.0
 11
4.765409089118624
 21
8.763099999991255
 31
0.0
  0
LINE
  5
1B0A3
330
1B05E
100
AcDbEntity
  8
0
  6
CONTINUOUS
100
AcDbLine
 10
12.50286117236978
 20
1.699167125820288
 30
0.0
 11
9.68611877250287
 21
4.515909525687196
 31
0.0
  0
LINE
  5
1B0A4
330
1B05E
100
AcDbEntity
  8
0
  6
CONTINUOUS
100
AcDbLine
 10
9.065465192851777
 20
5.136563105338288
 30
0.0
 11
7.989834395251757
 21
6.21219390293831
 31
0.0
  0
LINE
  5
1B0A5
330
1B05E
100
AcDbEntity
  8
0
  6
CONTINUOUS
100
AcDbLine
 10
5.993039874401719
 20
8.208988423788346
 30
0.0
 11
5.43892829819881
 21
8.763099999991255
 31
0.0
  0
LINE
  5
1B0A6
330
1B05E
100
AcDbEntity
  8
0
  6
CONTINUOUS
100
AcDbLine
 10
11.95770871242671
 20
2.917838794843543
 30
0.0
 11
8.19801697298349
 21
6.677530534286761
 31
0.0
  0
LINE
  5
1B0A7
330
1B05E
100
AcDbEntity
  8
0
  6
CONTINUOUS
100
AcDbLine
 10
6.291128629247495
 20
8.584418878022756
 30
0.0
 11
6.112447507278997
 21
8.763099999991255
 31
0.0
  0
LINE
  5
1B0A8
330
1B05E
100
AcDbEntity
  8
0
  6
CONTINUOUS
100
AcDbLine
 10
11.41255625248364
 20
4.136510463866797
 30
0.0
 11
8.406199550715227
 21
7.142867165635211
 31
0.0
  0
LINE
  5
1B0A9
330
1B05E
100
AcDbEntity
  8
0
  6
CONTINUOUS
100
AcDbLine
 10
10.86740379254057
 20
5.355182132890051
 30
0.0
 11
8.614382128446962
 21
7.608203796983664
 31
0.0
  0
LINE
  5
1B0AA
330
1B05E
100
AcDbEntity
  8
0
  6
CONTINUOUS
100
AcDbLine
 10
10.3222513325975
 20
6.573853801913305
 30
0.0
 11
8.822564706178696
 21
8.073540428332114
 31
0.0
  0
LINE
  5
1B0AB
330
1B05E
100
AcDbEntity
  8
0
  6
CONTINUOUS
100
AcDbLine
 10
9.777098872654436
 20
7.792525470936562
 30
0.0
 11
9.030747283910433
 21
8.538877059680566
 31
0.0
  0
ENDBLK
  5
1B1ED
330
1B05E
100
AcDbEntity
  8
0
100
AcDbBlockEnd
  0
BLOCK
  5
1B1EE
330
1B0AC
100
AcDbEntity
  8
0
100
AcDbBlockBegin
  2
*X34
 70
     1
 10
0.0
 20
0.0
 30
0.0
  3
*X34
  1

  0
LINE
  5
1B0AD
330
1B0AC
100
AcDbEntity
  8
0
  6
CONTINUOUS
100
AcDbLine
 10
10.67292308101235
 20
8.445076852443387
 30
0.0
 11
10.99094622856022
 21
8.763099999991255
 31
0.0
  0
LINE
  5
1B0AE
330
1B0AC
100
AcDbEntity
  8
0
  6
CONTINUOUS
100
AcDbLine
 10
10.87250383178748
 20
7.971138394138331
 30
0.0
 11
11.6644654376404
 21
8.763099999991255
 31
0.0
  0
LINE
  5
1B0AF
330
1B0AC
100
AcDbEntity
  8
0
  6
CONTINUOUS
100
AcDbLine
 10
11.07208458256261
 20
7.497199935833273
 30
0.0
 11
12.12126590876355
 21
8.546381262034211
 31
0.0
  0
LINE
  5
1B0B0
330
1B0AC
100
AcDbEntity
  8
0
  6
CONTINUOUS
100
AcDbLine
 10
11.27166533333774
 20
7.023261477528216
 30
0.0
 11
12.32085164573666
 21
8.072447789927136
 31
0.0
  0
LINE
  5
1B0B1
330
1B0AC
100
AcDbEntity
  8
0
  6
CONTINUOUS
100
AcDbLine
 10
11.47124608411287
 20
6.549323019223158
 30
0.0
 11
12.52043738270977
 21
7.59851431782006
 31
0.0
  0
LINE
  5
1B0B2
330
1B0AC
100
AcDbEntity
  8
0
  6
CONTINUOUS
100
AcDbLine
 10
11.670826834888
 20
6.075384560918101
 30
0.0
 11
12.72002311968288
 21
7.124580845712984
 31
0.0
  0
LINE
  5
1B0B3
330
1B0AC
100
AcDbEntity
  8
0
  6
CONTINUOUS
100
AcDbLine
 10
11.87040758566313
 20
5.601446102613043
 30
0.0
 11
12.91960885665599
 21
6.650647373605907
 31
0.0
  0
LINE
  5
1B0B4
330
1B0AC
100
AcDbEntity
  8
0
  6
CONTINUOUS
100
AcDbLine
 10
12.06998833643825
 20
5.127507644307986
 30
0.0
 11
13.1191945936291
 21
6.176713901498832
 31
0.0
  0
LINE
  5
1B0B5
330
1B0AC
100
AcDbEntity
  8
0
  6
CONTINUOUS
100
AcDbLine
 10
12.26956908721338
 20
4.65356918600293
 30
0.0
 11
13.31878033060221
 21
5.702780429391757
 31
0.0
  0
LINE
  5
1B0B6
330
1B0AC
100
AcDbEntity
  8
0
  6
CONTINUOUS
100
AcDbLine
 10
12.46914983798851
 20
4.179630727697873
 30
0.0
 11
13.51836606757532
 21
5.228846957284683
 31
0.0
  0
LINE
  5
1B0B7
330
1B0AC
100
AcDbEntity
  8
0
  6
CONTINUOUS
100
AcDbLine
 10
12.66873058876364
 20
3.705692269392816
 30
0.0
 11
13.71795180454843
 21
4.754913485177607
 31
0.0
  0
LINE
  5
1B0B8
330
1B0AC
100
AcDbEntity
  8
0
  6
CONTINUOUS
100
AcDbLine
 10
12.86831133953877
 20
3.231753811087759
 30
0.0
 11
13.91753754152154
 21
4.280980013070531
 31
0.0
  0
LINE
  5
1B0B9
330
1B0AC
100
AcDbEntity
  8
0
  6
CONTINUOUS
100
AcDbLine
 10
13.0678920903139
 20
2.757815352782702
 30
0.0
 11
14.11712327849465
 21
3.807046540963456
 31
0.0
  0
LINE
  5
1B0BA
330
1B0AC
100
AcDbEntity
  8
0
  6
CONTINUOUS
100
AcDbLine
 10
13.26747284108903
 20
2.283876894477644
 30
0.0
 11
14.31670901546777
 21
3.333113068856379
 31
0.0
  0
LINE
  5
1B0BB
330
1B0AC
100
AcDbEntity
  8
0
  6
CONTINUOUS
100
AcDbLine
 10
16.36767838827179
 20
8.751678487061342
 30
0.0
 11
16.50332410898388
 21
8.887324207773432
 31
0.0
  0
LINE
  5
1B0BC
330
1B0AC
100
AcDbEntity
  8
0
  6
CONTINUOUS
100
AcDbLine
 10
15.96190732182191
 20
7.67238821153127
 30
0.0
 11
16.68735328004734
 21
8.397834169756699
 31
0.0
  0
LINE
  5
1B0BD
330
1B0AC
100
AcDbEntity
  8
0
  6
CONTINUOUS
100
AcDbLine
 10
15.55613625537202
 20
6.593097936001196
 30
0.0
 11
16.87138245111079
 21
7.908344131739965
 31
0.0
  0
LINE
  5
1B0BE
330
1B0AC
100
AcDbEntity
  8
0
  6
CONTINUOUS
100
AcDbLine
 10
15.15036518892213
 20
5.513807660471122
 30
0.0
 11
17.05541162217424
 21
7.418854093723231
 31
0.0
  0
LINE
  5
1B0BF
330
1B0AC
100
AcDbEntity
  8
0
  6
CONTINUOUS
100
AcDbLine
 10
14.74459412247225
 20
4.434517384941048
 30
0.0
 11
17.2394407932377
 21
6.929364055706499
 31
0.0
  0
LINE
  5
1B0C0
330
1B0AC
100
AcDbEntity
  8
0
  6
CONTINUOUS
100
AcDbLine
 10
14.33882305602236
 20
3.355227109410975
 30
0.0
 11
17.42346996430115
 21
6.439874017689766
 31
0.0
  0
LINE
  5
1B0C1
330
1B0AC
100
AcDbEntity
  8
0
  6
CONTINUOUS
100
AcDbLine
 10
13.46705359186416
 20
1.809938436172586
 30
0.0
 11
16.0819338255367
 21
4.424818669845129
 31
0.0
  0
LINE
  5
1B0C2
330
1B0AC
100
AcDbEntity
  8
0
  6
CONTINUOUS
100
AcDbLine
 10
16.63283254238972
 20
4.975717386698149
 30
0.0
 11
17.60749913536461
 21
5.950383979673033
 31
0.0
  0
LINE
  5
1B0C3
330
1B0AC
100
AcDbEntity
  8
0
  6
CONTINUOUS
100
AcDbLine
 10
13.66663434263929
 20
1.335999977867529
 30
0.0
 11
15.67604797733754
 21
3.345413612565779
 31
0.0
  0
LINE
  5
1B0C4
330
1B0AC
100
AcDbEntity
  8
0
  6
CONTINUOUS
100
AcDbLine
 10
13.86621509341442
 20
0.8620615195624723
 30
0.0
 11
15.27016212913838
 21
2.26600855528643
 31
0.0
  0
LINE
  5
1B0C5
330
1B0AC
100
AcDbEntity
  8
0
  6
CONTINUOUS
100
AcDbLine
 10
16.81682257348267
 20
4.486188208710908
 30
0.0
 11
17.79152830642806
 21
5.460893941656299
 31
0.0
  0
LINE
  5
1B0C6
330
1B0AC
100
AcDbEntity
  8
0
  6
CONTINUOUS
100
AcDbLine
 10
17.00081260457561
 20
3.996659030723667
 30
0.0
 11
17.97555747749151
 21
4.971403903639565
 31
0.0
  0
LINE
  5
1B0C7
330
1B0AC
100
AcDbEntity
  8
0
  6
CONTINUOUS
100
AcDbLine
 10
20.74362343514722
 20
8.412989070375462
 30
0.0
 11
21.09373436476302
 21
8.763099999991256
 31
0.0
  0
LINE
  5
1B0C8
330
1B0AC
100
AcDbEntity
  8
0
  6
CONTINUOUS
100
AcDbLine
 10
20.25401257174777
 20
7.249858997895826
 30
0.0
 11
21.7672535738432
 21
8.763099999991255
 31
0.0
  0
LINE
  5
1B0C9
330
1B0AC
100
AcDbEntity
  8
0
  6
CONTINUOUS
100
AcDbLine
 10
14.06579584418955
 20
0.3881230612574149
 30
0.0
 11
14.86427628093921
 21
1.186603498007082
 31
0.0
  0
LINE
  5
1B0CA
330
1B0AC
100
AcDbEntity
  8
0
  6
CONTINUOUS
100
AcDbLine
 10
14.26537659496467
 20
-0.0858153970476412
 30
0.0
 11
14.45839043274005
 21
0.1071984407277329
 31
0.0
  0
LINE
  5
1B0CB
330
1B0AC
100
AcDbEntity
  8
0
  6
CONTINUOUS
100
AcDbLine
 10
17.18480263566856
 20
3.507129852736426
 30
0.0
 11
18.15958664855496
 21
4.481913865622833
 31
0.0
  0
LINE
  5
1B0CC
330
1B0AC
100
AcDbEntity
  8
0
  6
CONTINUOUS
100
AcDbLine
 10
17.3687926667615
 20
3.017600674749186
 30
0.0
 11
18.34361581961842
 21
3.9924238276061
 31
0.0
  0
LINE
  5
1B0CD
330
1B0AC
100
AcDbEntity
  8
0
  6
CONTINUOUS
100
AcDbLine
 10
19.76440170834832
 20
6.086728925416191
 30
0.0
 11
22.33924590259489
 21
8.661573119662755
 31
0.0
  0
LINE
  5
1B0CE
330
1B0AC
100
AcDbEntity
  8
0
  6
CONTINUOUS
100
AcDbLine
 10
19.27479084494887
 20
4.923598852936555
 30
0.0
 11
21.84929622842713
 21
7.498104236414807
 31
0.0
  0
LINE
  5
1B0CF
330
1B0AC
100
AcDbEntity
  8
0
  6
CONTINUOUS
100
AcDbLine
 10
17.55278269785445
 20
2.528071496761945
 30
0.0
 11
18.52764499068187
 21
3.502933789589366
 31
0.0
  0
LINE
  5
1B0D0
330
1B0AC
100
AcDbEntity
  8
0
  6
CONTINUOUS
100
AcDbLine
 10
18.78517998154942
 20
3.760468780456919
 30
0.0
 11
21.35934655425936
 21
6.33463535316686
 31
0.0
  0
LINE
  5
1B0D1
330
1B0AC
100
AcDbEntity
  8
0
  6
CONTINUOUS
100
AcDbLine
 10
17.73677272894739
 20
2.038542318774704
 30
0.0
 11
20.8693968800916
 21
5.171166469918914
 31
0.0
  0
LINE
  5
1B0D2
330
1B0AC
100
AcDbEntity
  8
0
  6
CONTINUOUS
100
AcDbLine
 10
17.92076276004034
 20
1.549013140787464
 30
0.0
 11
20.37944720592384
 21
4.007697586670968
 31
0.0
  0
LINE
  5
1B0D3
330
1B0AC
100
AcDbEntity
  8
0
  6
CONTINUOUS
100
AcDbLine
 10
18.10475279113329
 20
1.059483962800223
 30
0.0
 11
19.88949753175608
 21
2.84422870342302
 31
0.0
  0
LINE
  5
1B0D4
330
1B0AC
100
AcDbEntity
  8
0
  6
CONTINUOUS
100
AcDbLine
 10
18.28874282222623
 20
0.5699547848129822
 30
0.0
 11
19.39954785758832
 21
1.680759820175074
 31
0.0
  0
LINE
  5
1B0D5
330
1B0AC
100
AcDbEntity
  8
0
  6
CONTINUOUS
100
AcDbLine
 10
18.47273285331918
 20
0.0804256068257416
 30
0.0
 11
18.90959818342056
 21
0.517290936927127
 31
0.0
  0
LINE
  5
1B0D6
330
1B0AC
100
AcDbEntity
  8
0
  6
CONTINUOUS
100
AcDbLine
 10
14.3590401358224
 20
-0.1570118376323384
 30
0.0
 11
14.24903296539946
 21
-0.0470046672093929
 31
0.0
  0
LINE
  5
1B0D7
330
1B0AC
100
AcDbEntity
  8
0
  6
CONTINUOUS
100
AcDbLine
 10
14.54309291258661
 20
0.332454594683643
 30
0.0
 11
13.75908329123172
 21
1.116464216038529
 31
0.0
  0
LINE
  5
1B0D8
330
1B0AC
100
AcDbEntity
  8
0
  6
CONTINUOUS
100
AcDbLine
 10
14.72714568935081
 20
0.8219210269996244
 30
0.0
 11
13.26913361706399
 21
2.27993309928645
 31
0.0
  0
LINE
  5
1B0D9
330
1B0AC
100
AcDbEntity
  8
0
  6
CONTINUOUS
100
AcDbLine
 10
14.91119846611502
 20
1.311387459315606
 30
0.0
 11
12.77918394289625
 21
3.443401982534371
 31
0.0
  0
LINE
  5
1B0DA
330
1B0AC
100
AcDbEntity
  8
0
  6
CONTINUOUS
100
AcDbLine
 10
15.09525124287922
 20
1.800853891631587
 30
0.0
 11
12.28923426872852
 21
4.606870865782293
 31
0.0
  0
LINE
  5
1B0DB
330
1B0AC
100
AcDbEntity
  8
0
  6
CONTINUOUS
100
AcDbLine
 10
15.27930401964343
 20
2.290320323947569
 30
0.0
 11
11.79928459456078
 21
5.770339749030213
 31
0.0
  0
LINE
  5
1B0DC
330
1B0AC
100
AcDbEntity
  8
0
  6
CONTINUOUS
100
AcDbLine
 10
15.46335679640763
 20
2.77978675626355
 30
0.0
 11
14.48885470994921
 21
3.754288842721972
 31
0.0
  0
LINE
  5
1B0DD
330
1B0AC
100
AcDbEntity
  8
0
  6
CONTINUOUS
100
AcDbLine
 10
13.88507249233704
 20
4.358071060334137
 30
0.0
 11
11.30933492039305
 21
6.933808632278135
 31
0.0
  0
LINE
  5
1B0DE
330
1B0AC
100
AcDbEntity
  8
0
  6
CONTINUOUS
100
AcDbLine
 10
18.75840522805855
 20
0.1582575336928151
 30
0.0
 11
18.25383727664818
 21
0.6628254851031863
 31
0.0
  0
LINE
  5
1B0DF
330
1B0AC
100
AcDbEntity
  8
0
  6
CONTINUOUS
100
AcDbLine
 10
15.64740957317184
 20
3.269253188579531
 30
0.0
 11
14.67288388101266
 21
4.243778880738705
 31
0.0
  0
LINE
  5
1B0E0
330
1B0AC
100
AcDbEntity
  8
0
  6
CONTINUOUS
100
AcDbLine
 10
13.39509276772158
 20
5.521569994029786
 30
0.0
 11
10.81938524622531
 21
8.097277515526056
 31
0.0
  0
LINE
  5
1B0E1
330
1B0AC
100
AcDbEntity
  8
0
  6
CONTINUOUS
100
AcDbLine
 10
18.95798597883369
 20
0.6321959919978686
 30
0.0
 11
17.84825644852853
 21
1.741925522303024
 31
0.0
  0
LINE
  5
1B0E2
330
1B0AC
100
AcDbEntity
  8
0
  6
CONTINUOUS
100
AcDbLine
 10
19.15756672960882
 20
1.106134450302922
 30
0.0
 11
17.44267562040888
 21
2.821025559502861
 31
0.0
  0
LINE
  5
1B0E3
330
1B0AC
100
AcDbEntity
  8
0
  6
CONTINUOUS
100
AcDbLine
 10
15.83146234993604
 20
3.758719620895513
 30
0.0
 11
14.85691305207612
 21
4.733268918755439
 31
0.0
  0
LINE
  5
1B0E4
330
1B0AC
100
AcDbEntity
  8
0
  6
CONTINUOUS
100
AcDbLine
 10
16.01551512670025
 20
4.248186053211494
 30
0.0
 11
15.04094222313957
 21
5.222758956772172
 31
0.0
  0
LINE
  5
1B0E5
330
1B0AC
100
AcDbEntity
  8
0
  6
CONTINUOUS
100
AcDbLine
 10
12.90511304310612
 20
6.685068927725435
 30
0.0
 11
10.8270819708403
 21
8.763099999991255
 31
0.0
  0
LINE
  5
1B0E6
330
1B0AC
100
AcDbEntity
  8
0
  6
CONTINUOUS
100
AcDbLine
 10
12.41513331849066
 20
7.848567861421083
 30
0.0
 11
11.50060117992049
 21
8.763099999991255
 31
0.0
  0
LINE
  5
1B0E7
330
1B0AC
100
AcDbEntity
  8
0
  6
CONTINUOUS
100
AcDbLine
 10
19.35714748038395
 20
1.580072908607975
 30
0.0
 11
17.03709479228923
 21
3.900125596702697
 31
0.0
  0
LINE
  5
1B0E8
330
1B0AC
100
AcDbEntity
  8
0
  6
CONTINUOUS
100
AcDbLine
 10
19.55672823115909
 20
2.054011366913028
 30
0.0
 11
16.63151396416958
 21
4.979225633902534
 31
0.0
  0
LINE
  5
1B0E9
330
1B0AC
100
AcDbEntity
  8
0
  6
CONTINUOUS
100
AcDbLine
 10
16.19956790346445
 20
4.737652485527476
 30
0.0
 11
15.22497139420302
 21
5.712248994788904
 31
0.0
  0
LINE
  5
1B0EA
330
1B0AC
100
AcDbEntity
  8
0
  6
CONTINUOUS
100
AcDbLine
 10
16.38362068022866
 20
5.227118917843457
 30
0.0
 11
15.40900056526648
 21
6.201739032805637
 31
0.0
  0
LINE
  5
1B0EB
330
1B0AC
100
AcDbEntity
  8
0
  6
CONTINUOUS
100
AcDbLine
 10
19.75630898193422
 20
2.527949825218081
 30
0.0
 11
18.70774536448286
 21
3.576513442669441
 31
0.0
  0
LINE
  5
1B0EC
330
1B0AC
100
AcDbEntity
  8
0
  6
CONTINUOUS
100
AcDbLine
 10
19.95588973270936
 20
3.001888283523134
 30
0.0
 11
18.90726987211446
 21
4.050508144118028
 31
0.0
  0
LINE
  5
1B0ED
330
1B0AC
100
AcDbEntity
  8
0
  6
CONTINUOUS
100
AcDbLine
 10
20.15547048348449
 20
3.475826741828186
 30
0.0
 11
19.10679437974606
 21
4.524502845566614
 31
0.0
  0
LINE
  5
1B0EE
330
1B0AC
100
AcDbEntity
  8
0
  6
CONTINUOUS
100
AcDbLine
 10
20.35505123425962
 20
3.94976520013324
 30
0.0
 11
19.30631888737766
 21
4.998497547015201
 31
0.0
  0
LINE
  5
1B0EF
330
1B0AC
100
AcDbEntity
  8
0
  6
CONTINUOUS
100
AcDbLine
 10
20.55463198503475
 20
4.423703658438292
 30
0.0
 11
19.50584339500926
 21
5.472492248463787
 31
0.0
  0
LINE
  5
1B0F0
330
1B0AC
100
AcDbEntity
  8
0
  6
CONTINUOUS
100
AcDbLine
 10
18.37481191085755
 20
3.909446896294752
 30
0.0
 11
15.59302973632993
 21
6.691229070822371
 31
0.0
  0
LINE
  5
1B0F1
330
1B0AC
100
AcDbEntity
  8
0
  6
CONTINUOUS
100
AcDbLine
 10
17.96904084440766
 20
4.988737171824825
 30
0.0
 11
15.77705890739338
 21
7.180719108839104
 31
0.0
  0
LINE
  5
1B0F2
330
1B0AC
100
AcDbEntity
  8
0
  6
CONTINUOUS
100
AcDbLine
 10
17.56326977795777
 20
6.068027447354899
 30
0.0
 11
15.96108807845684
 21
7.670209146855838
 31
0.0
  0
LINE
  5
1B0F3
330
1B0AC
100
AcDbEntity
  8
0
  6
CONTINUOUS
100
AcDbLine
 10
17.15749871150789
 20
7.147317722884972
 30
0.0
 11
16.14511724952029
 21
8.15969918487257
 31
0.0
  0
LINE
  5
1B0F4
330
1B0AC
100
AcDbEntity
  8
0
  6
CONTINUOUS
100
AcDbLine
 10
16.751727645058
 20
8.226607998415046
 30
0.0
 11
16.32914642058374
 21
8.649189222889303
 31
0.0
  0
LINE
  5
1B0F5
330
1B0AC
100
AcDbEntity
  8
0
  6
CONTINUOUS
100
AcDbLine
 10
20.75421273580989
 20
4.897642116743345
 30
0.0
 11
19.70536790264086
 21
5.946486949912374
 31
0.0
  0
LINE
  5
1B0F6
330
1B0AC
100
AcDbEntity
  8
0
  6
CONTINUOUS
100
AcDbLine
 10
20.95379348658502
 20
5.371580575048398
 30
0.0
 11
19.90489241027246
 21
6.42048165136096
 31
0.0
  0
LINE
  5
1B0F7
330
1B0AC
100
AcDbEntity
  8
0
  6
CONTINUOUS
100
AcDbLine
 10
21.15337423736015
 20
5.845519033353452
 30
0.0
 11
20.10441691790406
 21
6.894476352809547
 31
0.0
  0
LINE
  5
1B0F8
330
1B0AC
100
AcDbEntity
  8
0
  6
CONTINUOUS
100
AcDbLine
 10
21.35295498813529
 20
6.319457491658505
 30
0.0
 11
20.30394142553566
 21
7.368471054258134
 31
0.0
  0
LINE
  5
1B0F9
330
1B0AC
100
AcDbEntity
  8
0
  6
CONTINUOUS
100
AcDbLine
 10
21.55253573891042
 20
6.793395949963558
 30
0.0
 11
20.50346593316726
 21
7.842465755706721
 31
0.0
  0
LINE
  5
1B0FA
330
1B0AC
100
AcDbEntity
  8
0
  6
CONTINUOUS
100
AcDbLine
 10
21.75211648968556
 20
7.267334408268612
 30
0.0
 11
20.70299044079886
 21
8.316460457155308
 31
0.0
  0
LINE
  5
1B0FB
330
1B0AC
100
AcDbEntity
  8
0
  6
CONTINUOUS
100
AcDbLine
 10
21.95169724046069
 20
7.741272866573663
 30
0.0
 11
20.9298701070431
 21
8.763099999991256
 31
0.0
  0
LINE
  5
1B0FC
330
1B0AC
100
AcDbEntity
  8
0
  6
CONTINUOUS
100
AcDbLine
 10
22.15127799123582
 20
8.215211324878716
 30
0.0
 11
21.60338931612328
 21
8.763099999991256
 31
0.0
  0
LINE
  5
1B0FD
330
1B0AC
100
AcDbEntity
  8
0
  6
CONTINUOUS
100
AcDbLine
 10
22.35085874201096
 20
8.689149783183769
 30
0.0
 11
22.27690852520347
 21
8.763099999991255
 31
0.0
  0
ENDBLK
  5
1B1EF
330
1B0AC
100
AcDbEntity
  8
0
100
AcDbBlockEnd
  0
BLOCK
  5
1B1F0
330
1B0FE
100
AcDbEntity
  8
0
100
AcDbBlockBegin
  2
*X35
 70
     1
 10
0.0
 20
0.0
 30
0.0
  3
*X35
  1

  0
LINE
  5
1B0FF
330
1B0FE
100
AcDbEntity
  8
0
  6
CONTINUOUS
100
AcDbLine
 10
23.19462913593892
 20
8.169917934846424
 30
0.0
 11
23.70775465517246
 21
8.683043454079957
 31
0.0
  0
LINE
  5
1B100
330
1B0FE
100
AcDbEntity
  8
0
  6
CONTINUOUS
100
AcDbLine
 10
22.64923161835078
 20
6.951001208178088
 30
0.0
 11
23.9159364069932
 21
8.217705996820516
 31
0.0
  0
LINE
  5
1B101
330
1B0FE
100
AcDbEntity
  8
0
  6
CONTINUOUS
100
AcDbLine
 10
22.10383410076263
 20
5.732084481509751
 30
0.0
 11
24.12411815881395
 21
7.752368539561078
 31
0.0
  0
LINE
  5
1B102
330
1B0FE
100
AcDbEntity
  8
0
  6
CONTINUOUS
100
AcDbLine
 10
21.55843658317447
 20
4.513167754841414
 30
0.0
 11
24.3322999106347
 21
7.287031082301639
 31
0.0
  0
LINE
  5
1B103
330
1B0FE
100
AcDbEntity
  8
0
  6
CONTINUOUS
100
AcDbLine
 10
21.01303906558632
 20
3.294251028173077
 30
0.0
 11
24.54048166245544
 21
6.821693625042199
 31
0.0
  0
LINE
  5
1B104
330
1B0FE
100
AcDbEntity
  8
0
  6
CONTINUOUS
100
AcDbLine
 10
20.46764154799817
 20
2.075334301504738
 30
0.0
 11
23.28571549467848
 21
4.89340824818505
 31
0.0
  0
LINE
  5
1B105
330
1B0FE
100
AcDbEntity
  8
0
  6
CONTINUOUS
100
AcDbLine
 10
19.92224403041002
 20
0.8564175748364002
 30
0.0
 11
22.74075865492779
 21
3.674932199354171
 31
0.0
  0
LINE
  5
1B106
330
1B0FE
100
AcDbEntity
  8
0
  6
CONTINUOUS
100
AcDbLine
 10
23.67305085490148
 20
5.280743608408048
 30
0.0
 11
24.74866341427619
 21
6.356356167782759
 31
0.0
  0
LINE
  5
1B107
330
1B0FE
100
AcDbEntity
  8
0
  6
CONTINUOUS
100
AcDbLine
 10
23.88118970842314
 20
4.815363252849522
 30
0.0
 11
24.95684516609694
 21
5.89101871052332
 31
0.0
  0
LINE
  5
1B108
330
1B0FE
100
AcDbEntity
  8
0
  6
CONTINUOUS
100
AcDbLine
 10
19.73925852647308
 20
-0.0000871381807288
 30
0.0
 11
23.4103456646501
 21
3.670999999996297
 31
0.0
  0
LINE
  5
1B109
330
1B0FE
100
AcDbEntity
  8
0
  6
CONTINUOUS
100
AcDbLine
 10
24.0893285619448
 20
4.349982897290997
 30
0.0
 11
25.16502691791769
 21
5.42568125326388
 31
0.0
  0
LINE
  5
1B10A
330
1B0FE
100
AcDbEntity
  8
0
  6
CONTINUOUS
100
AcDbLine
 10
20.41282099582748
 20
-0.0000438779065108
 30
0.0
 11
21.64944178675636
 21
1.236576913022366
 31
0.0
  0
LINE
  5
1B10B
330
1B0FE
100
AcDbEntity
  8
0
  6
CONTINUOUS
100
AcDbLine
 10
22.78126487373161
 20
2.36839999999762
 30
0.0
 11
24.08386487373029
 21
3.670999999996297
 31
0.0
  0
LINE
  5
1B10C
330
1B0FE
100
AcDbEntity
  8
0
  6
CONTINUOUS
100
AcDbLine
 10
24.29746741546646
 20
3.884602541732471
 30
0.0
 11
25.37320866973843
 21
4.960343796004441
 31
0.0
  0
LINE
  5
1B10D
330
1B0FE
100
AcDbEntity
  8
0
  6
CONTINUOUS
100
AcDbLine
 10
21.08638346518189
 20
-0.0000006176322938
 30
0.0
 11
21.10379033335899
 21
0.0174062505448083
 31
0.0
  0
LINE
  5
1B10E
330
1B0FE
100
AcDbEntity
  8
0
  6
CONTINUOUS
100
AcDbLine
 10
23.4547840828118
 20
2.36839999999762
 30
0.0
 11
25.58139042155918
 21
4.495006338745002
 31
0.0
  0
LINE
  5
1B10F
330
1B0FE
100
AcDbEntity
  8
0
  6
CONTINUOUS
100
AcDbLine
 10
29.30199999996933
 20
8.215615917155148
 30
0.0
 11
29.84948408280543
 21
8.763099999991255
 31
0.0
  0
LINE
  5
1B110
330
1B0FE
100
AcDbEntity
  8
0
  6
CONTINUOUS
100
AcDbLine
 10
24.12830329189199
 20
2.36839999999762
 30
0.0
 11
25.78957217337993
 21
4.029668881485562
 31
0.0
  0
LINE
  5
1B111
330
1B0FE
100
AcDbEntity
  8
0
  6
CONTINUOUS
100
AcDbLine
 10
29.30199999996933
 20
7.54209670807496
 30
0.0
 11
30.52300329188562
 21
8.763099999991255
 31
0.0
  0
LINE
  5
1B112
330
1B0FE
100
AcDbEntity
  8
0
  6
CONTINUOUS
100
AcDbLine
 10
24.80182250097217
 20
2.36839999999762
 30
0.0
 11
25.99775392520067
 21
3.564331424226122
 31
0.0
  0
LINE
  5
1B113
330
1B0FE
100
AcDbEntity
  8
0
  6
CONTINUOUS
100
AcDbLine
 10
29.30199999996933
 20
6.868577498994774
 30
0.0
 11
30.74199999996926
 21
8.308577498994712
 31
0.0
  0
LINE
  5
1B114
330
1B0FE
100
AcDbEntity
  8
0
  6
CONTINUOUS
100
AcDbLine
 10
25.13028238392013
 20
2.023340673865392
 30
0.0
 11
26.20593567702142
 21
3.098993966966683
 31
0.0
  0
LINE
  5
1B115
330
1B0FE
100
AcDbEntity
  8
0
  6
CONTINUOUS
100
AcDbLine
 10
25.33838066033617
 20
1.557919741201244
 30
0.0
 11
26.41411742884217
 21
2.633656509707244
 31
0.0
  0
LINE
  5
1B116
330
1B0FE
100
AcDbEntity
  8
0
  6
CONTINUOUS
100
AcDbLine
 10
25.54647893675221
 20
1.092498808537098
 30
0.0
 11
26.62229918066291
 21
2.168319052447804
 31
0.0
  0
LINE
  5
1B117
330
1B0FE
100
AcDbEntity
  8
0
  6
CONTINUOUS
100
AcDbLine
 10
25.75457721316825
 20
0.62707787587295
 30
0.0
 11
26.83048093248366
 21
1.702981595188365
 31
0.0
  0
LINE
  5
1B118
330
1B0FE
100
AcDbEntity
  8
0
  6
CONTINUOUS
100
AcDbLine
 10
29.30199999996933
 20
6.195058289914587
 30
0.0
 11
30.74199999996926
 21
7.635058289914522
 31
0.0
  0
LINE
  5
1B119
330
1B0FE
100
AcDbEntity
  8
0
  6
CONTINUOUS
100
AcDbLine
 10
29.30199999996933
 20
5.521539080834401
 30
0.0
 11
30.74199999996926
 21
6.961539080834331
 31
0.0
  0
LINE
  5
1B11A
330
1B0FE
100
AcDbEntity
  8
0
  6
CONTINUOUS
100
AcDbLine
 10
29.30199999996933
 20
4.848019871754214
 30
0.0
 11
30.74199999996925
 21
6.288019871754143
 31
0.0
  0
LINE
  5
1B11B
330
1B0FE
100
AcDbEntity
  8
0
  6
CONTINUOUS
100
AcDbLine
 10
29.30199999996933
 20
4.174500662674028
 30
0.0
 11
30.74199999996925
 21
5.614500662673953
 31
0.0
  0
LINE
  5
1B11C
330
1B0FE
100
AcDbEntity
  8
0
  6
CONTINUOUS
100
AcDbLine
 10
25.96267548958429
 20
0.1616569432088024
 30
0.0
 11
27.18411854636669
 21
1.383099999991207
 31
0.0
  0
LINE
  5
1B11D
330
1B0FE
100
AcDbEntity
  8
0
  6
CONTINUOUS
100
AcDbLine
 10
29.30199999996933
 20
3.500981453593841
 30
0.0
 11
30.74199999996925
 21
4.940981453593762
 31
0.0
  0
LINE
  5
1B11E
330
1B0FE
100
AcDbEntity
  8
0
  6
CONTINUOUS
100
AcDbLine
 10
26.50763775544691
 20
0.0330999999912356
 30
0.0
 11
27.85763775544689
 21
1.383099999991223
 31
0.0
  0
LINE
  5
1B11F
330
1B0FE
100
AcDbEntity
  8
0
  6
CONTINUOUS
100
AcDbLine
 10
29.30199999996933
 20
2.827462244513656
 30
0.0
 11
30.74199999996925
 21
4.267462244513574
 31
0.0
  0
LINE
  5
1B120
330
1B0FE
100
AcDbEntity
  8
0
  6
CONTINUOUS
100
AcDbLine
 10
27.18115696452709
 20
0.0330999999912356
 30
0.0
 11
28.55073879889363
 21
1.402681834357775
 31
0.0
  0
LINE
  5
1B121
330
1B0FE
100
AcDbEntity
  8
0
  6
CONTINUOUS
100
AcDbLine
 10
29.28241816560272
 20
2.134361201066866
 30
0.0
 11
30.74199999996924
 21
3.593943035433383
 31
0.0
  0
LINE
  5
1B122
330
1B0FE
100
AcDbEntity
  8
0
  6
CONTINUOUS
100
AcDbLine
 10
27.85467617360728
 20
0.0330999999912356
 30
0.0
 11
30.74199999996924
 21
2.920423826353195
 31
0.0
  0
LINE
  5
1B123
330
1B0FE
100
AcDbEntity
  8
0
  6
CONTINUOUS
100
AcDbLine
 10
28.53897559587887
 20
0.0438802131826428
 30
0.0
 11
30.73121978677781
 21
2.236124404081585
 31
0.0
  0
LINE
  5
1B124
330
1B0FE
100
AcDbEntity
  8
0
  6
CONTINUOUS
100
AcDbLine
 10
29.45140055588722
 20
0.2827859641107988
 30
0.0
 11
30.49231403584965
 21
1.323699444073236
 31
0.0
  0
LINE
  5
1B125
330
1B0FE
100
AcDbEntity
  8
0
  6
CONTINUOUS
100
AcDbLine
 10
19.59027867740337
 20
-0.0000967065718083
 30
0.0
 11
19.55485265190471
 21
0.035329318926844
 31
0.0
  0
LINE
  5
1B126
330
1B0FE
100
AcDbEntity
  8
0
  6
CONTINUOUS
100
AcDbLine
 10
20.26375463176586
 20
-0.0000534518541091
 30
0.0
 11
19.76305575737534
 21
0.5006454225364014
 31
0.0
  0
LINE
  5
1B127
330
1B0FE
100
AcDbEntity
  8
0
  6
CONTINUOUS
100
AcDbLine
 10
20.93723058612834
 20
-0.0000101971364099
 30
0.0
 11
19.97125886284597
 21
0.965961526145958
 31
0.0
  0
LINE
  5
1B128
330
1B0FE
100
AcDbEntity
  8
0
  6
CONTINUOUS
100
AcDbLine
 10
21.25514828313686
 20
0.355591314935257
 30
0.0
 11
20.1794619683166
 21
1.431277629755512
 31
0.0
  0
LINE
  5
1B129
330
1B0FE
100
AcDbEntity
  8
0
  6
CONTINUOUS
100
AcDbLine
 10
21.46338838394921
 20
0.8208704232030986
 30
0.0
 11
20.38766507378723
 21
1.896593733365069
 31
0.0
  0
LINE
  5
1B12A
330
1B0FE
100
AcDbEntity
  8
0
  6
CONTINUOUS
100
AcDbLine
 10
21.67162848476155
 20
1.28614953147094
 30
0.0
 11
20.59586817925786
 21
2.361909836974626
 31
0.0
  0
LINE
  5
1B12B
330
1B0FE
100
AcDbEntity
  8
0
  6
CONTINUOUS
100
AcDbLine
 10
21.8798685855739
 20
1.751428639738782
 30
0.0
 11
20.80407128472849
 21
2.827225940584183
 31
0.0
  0
LINE
  5
1B12C
330
1B0FE
100
AcDbEntity
  8
0
  6
CONTINUOUS
100
AcDbLine
 10
22.08810868638624
 20
2.216707748006623
 30
0.0
 11
21.01227439019912
 21
3.292542044193739
 31
0.0
  0
LINE
  5
1B12D
330
1B0FE
100
AcDbEntity
  8
0
  6
CONTINUOUS
100
AcDbLine
 10
22.60993564347543
 20
2.36839999999762
 30
0.0
 11
21.22047749566975
 21
3.757858147803296
 31
0.0
  0
LINE
  5
1B12E
330
1B0FE
100
AcDbEntity
  8
0
  6
CONTINUOUS
100
AcDbLine
 10
23.28345485255561
 20
2.36839999999762
 30
0.0
 11
21.42868060114038
 21
4.223174251412853
 31
0.0
  0
LINE
  5
1B12F
330
1B0FE
100
AcDbEntity
  8
0
  6
CONTINUOUS
100
AcDbLine
 10
26.29227406164219
 20
0.0330999999912356
 30
0.0
 11
25.80009199592872
 21
0.5252820657046957
 31
0.0
  0
LINE
  5
1B130
330
1B0FE
100
AcDbEntity
  8
0
  6
CONTINUOUS
100
AcDbLine
 10
23.9569740616358
 20
2.36839999999762
 30
0.0
 11
21.63688370661101
 21
4.688490355022409
 31
0.0
  0
LINE
  5
1B131
330
1B0FE
100
AcDbEntity
  8
0
  6
CONTINUOUS
100
AcDbLine
 10
26.96579327072237
 20
0.0330999999912356
 30
0.0
 11
25.2554132311971
 21
1.743480039516508
 31
0.0
  0
LINE
  5
1B132
330
1B0FE
100
AcDbEntity
  8
0
  6
CONTINUOUS
100
AcDbLine
 10
24.63049327071599
 20
2.36839999999762
 30
0.0
 11
23.32789327071731
 21
3.670999999996297
 31
0.0
  0
LINE
  5
1B133
330
1B0FE
100
AcDbEntity
  8
0
  6
CONTINUOUS
100
AcDbLine
 10
22.92098674744635
 20
4.077906523267254
 30
0.0
 11
21.84508681208164
 21
5.153806458631966
 31
0.0
  0
LINE
  5
1B134
330
1B0FE
100
AcDbEntity
  8
0
  6
CONTINUOUS
100
AcDbLine
 10
27.63931247980256
 20
0.0330999999912356
 30
0.0
 11
24.0014124797975
 21
3.670999999996297
 31
0.0
  0
LINE
  5
1B135
330
1B0FE
100
AcDbEntity
  8
0
  6
CONTINUOUS
100
AcDbLine
 10
23.129125600968
 20
4.5432868788258
 30
0.0
 11
22.05328991755227
 21
5.619122562241522
 31
0.0
  0
LINE
  5
1B136
330
1B0FE
100
AcDbEntity
  8
0
  6
CONTINUOUS
100
AcDbLine
 10
28.31283168888275
 20
0.0330999999912356
 30
0.0
 11
24.16488385994816
 21
4.181047828925828
 31
0.0
  0
LINE
  5
1B137
330
1B0FE
100
AcDbEntity
  8
0
  6
CONTINUOUS
100
AcDbLine
 10
23.33726445448964
 20
5.008667234384345
 30
0.0
 11
22.2614930230229
 21
6.084438665851079
 31
0.0
  0
LINE
  5
1B138
330
1B0FE
100
AcDbEntity
  8
0
  6
CONTINUOUS
100
AcDbLine
 10
28.92085740005492
 20
0.0985934978992438
 30
0.0
 11
27.63635089796295
 21
1.383099999991217
 31
0.0
  0
LINE
  5
1B139
330
1B0FE
100
AcDbEntity
  8
0
  6
CONTINUOUS
100
AcDbLine
 10
26.43704649509776
 20
2.582404402856405
 30
0.0
 11
23.61992702019732
 21
5.399523877756844
 31
0.0
  0
LINE
  5
1B13A
330
1B0FE
100
AcDbEntity
  8
0
  6
CONTINUOUS
100
AcDbLine
 10
23.54540330801128
 20
5.47404758994289
 30
0.0
 11
22.46969612849353
 21
6.549754769460635
 31
0.0
  0
LINE
  5
1B13B
330
1B0FE
100
AcDbEntity
  8
0
  6
CONTINUOUS
100
AcDbLine
 10
29.42225615078443
 20
0.2707139562499279
 30
0.0
 11
28.30987010704312
 21
1.383099999991234
 31
0.0
  0
LINE
  5
1B13C
330
1B0FE
100
AcDbEntity
  8
0
  6
CONTINUOUS
100
AcDbLine
 10
25.89179548232307
 20
3.801174624711282
 30
0.0
 11
22.67789923396416
 21
7.015070873070191
 31
0.0
  0
LINE
  5
1B13D
330
1B0FE
100
AcDbEntity
  8
0
  6
CONTINUOUS
100
AcDbLine
 10
29.83624534690007
 20
0.5302439692144705
 30
0.0
 11
28.85811781497101
 21
1.508371501143527
 31
0.0
  0
LINE
  5
1B13E
330
1B0FE
100
AcDbEntity
  8
0
  6
CONTINUOUS
100
AcDbLine
 10
25.34654446954838
 20
5.01994484656616
 30
0.0
 11
22.88610233943479
 21
7.480386976679748
 31
0.0
  0
LINE
  5
1B13F
330
1B0FE
100
AcDbEntity
  8
0
  6
CONTINUOUS
100
AcDbLine
 10
30.17865975401872
 20
0.8613487711760022
 30
0.0
 11
29.18888744090175
 21
1.851121084292977
 31
0.0
  0
LINE
  5
1B140
330
1B0FE
100
AcDbEntity
  8
0
  6
CONTINUOUS
100
AcDbLine
 10
24.80129345677369
 20
6.238715068421037
 30
0.0
 11
23.09430544490542
 21
7.945703080289305
 31
0.0
  0
LINE
  5
1B141
330
1B0FE
100
AcDbEntity
  8
0
  6
CONTINUOUS
100
AcDbLine
 10
30.45496647202376
 20
1.258561262251155
 30
0.0
 11
29.30199999996933
 21
2.411527734305588
 31
0.0
  0
LINE
  5
1B142
330
1B0FE
100
AcDbEntity
  8
0
  6
CONTINUOUS
100
AcDbLine
 10
24.256042443999
 20
7.457485290275915
 30
0.0
 11
23.30250855037605
 21
8.411019183898862
 31
0.0
  0
LINE
  5
1B143
330
1B0FE
100
AcDbEntity
  8
0
  6
CONTINUOUS
100
AcDbLine
 10
30.64868582078271
 20
1.738361122572387
 30
0.0
 11
29.30199999996933
 21
3.085046943385775
 31
0.0
  0
LINE
  5
1B144
330
1B0FE
100
AcDbEntity
  8
0
  6
CONTINUOUS
100
AcDbLine
 10
23.71079143122431
 20
8.676255512130794
 30
0.0
 11
23.51071165584668
 21
8.876335287508416
 31
0.0
  0
LINE
  5
1B145
330
1B0FE
100
AcDbEntity
  8
0
  6
CONTINUOUS
100
AcDbLine
 10
30.73802122914428
 20
2.322544923291007
 30
0.0
 11
29.30199999996933
 21
3.758566152465961
 31
0.0
  0
LINE
  5
1B146
330
1B0FE
100
AcDbEntity
  8
0
  6
CONTINUOUS
100
AcDbLine
 10
30.74199999996924
 20
2.992085361546236
 30
0.0
 11
29.30199999996933
 21
4.432085361546148
 31
0.0
  0
LINE
  5
1B147
330
1B0FE
100
AcDbEntity
  8
0
  6
CONTINUOUS
100
AcDbLine
 10
30.74199999996924
 20
3.665604570626419
 30
0.0
 11
29.30199999996933
 21
5.105604570626333
 31
0.0
  0
LINE
  5
1B148
330
1B0FE
100
AcDbEntity
  8
0
  6
CONTINUOUS
100
AcDbLine
 10
30.74199999996925
 20
4.339123779706602
 30
0.0
 11
29.30199999996933
 21
5.77912377970652
 31
0.0
  0
LINE
  5
1B149
330
1B0FE
100
AcDbEntity
  8
0
  6
CONTINUOUS
100
AcDbLine
 10
30.74199999996925
 20
5.012642988786785
 30
0.0
 11
29.30199999996933
 21
6.452642988786707
 31
0.0
  0
LINE
  5
1B14A
330
1B0FE
100
AcDbEntity
  8
0
  6
CONTINUOUS
100
AcDbLine
 10
30.74199999996925
 20
5.68616219786697
 30
0.0
 11
29.30199999996933
 21
7.126162197866894
 31
0.0
  0
LINE
  5
1B14B
330
1B0FE
100
AcDbEntity
  8
0
  6
CONTINUOUS
100
AcDbLine
 10
30.74199999996925
 20
6.359681406947153
 30
0.0
 11
29.30199999996933
 21
7.799681406947081
 31
0.0
  0
LINE
  5
1B14C
330
1B0FE
100
AcDbEntity
  8
0
  6
CONTINUOUS
100
AcDbLine
 10
30.74199999996926
 20
7.033200616027337
 30
0.0
 11
29.30199999996933
 21
8.473200616027269
 31
0.0
  0
LINE
  5
1B14D
330
1B0FE
100
AcDbEntity
  8
0
  6
CONTINUOUS
100
AcDbLine
 10
30.74199999996926
 20
7.706719825107518
 30
0.0
 11
29.68561982508552
 21
8.763099999991255
 31
0.0
  0
LINE
  5
1B14E
330
1B0FE
100
AcDbEntity
  8
0
  6
CONTINUOUS
100
AcDbLine
 10
30.74199999996926
 20
8.380239034187703
 30
0.0
 11
30.35913903416571
 21
8.763099999991255
 31
0.0
  0
ENDBLK
  5
1B1F1
330
1B0FE
100
AcDbEntity
  8
0
100
AcDbBlockEnd
  0
BLOCK
  5
1B1F2
330
1B14F
100
AcDbEntity
  8
0
100
AcDbBlockBegin
  2
*X36
 70
     1
 10
0.0
 20
0.0
 30
0.0
  3
*X36
  1

  0
LINE
  5
1B150
330
1B14F
100
AcDbEntity
  8
0
  6
CONTINUOUS
100
AcDbLine
 10
31.64199999996833
 20
8.535058289913598
 30
0.0
 11
31.87004171004599
 21
8.763099999991255
 31
0.0
  0
LINE
  5
1B151
330
1B14F
100
AcDbEntity
  8
0
  6
CONTINUOUS
100
AcDbLine
 10
31.64199999996833
 20
7.861539080833412
 30
0.0
 11
32.54356091912618
 21
8.763099999991255
 31
0.0
  0
LINE
  5
1B152
330
1B14F
100
AcDbEntity
  8
0
  6
CONTINUOUS
100
AcDbLine
 10
31.64199999996833
 20
7.188019871753226
 30
0.0
 11
33.08199999996839
 21
8.628019871753281
 31
0.0
  0
LINE
  5
1B153
330
1B14F
100
AcDbEntity
  8
0
  6
CONTINUOUS
100
AcDbLine
 10
31.64199999996833
 20
6.51450066267304
 30
0.0
 11
33.08199999996839
 21
7.954500662673095
 31
0.0
  0
LINE
  5
1B154
330
1B14F
100
AcDbEntity
  8
0
  6
CONTINUOUS
100
AcDbLine
 10
31.64199999996833
 20
5.840981453592853
 30
0.0
 11
33.08199999996839
 21
7.280981453592908
 31
0.0
  0
LINE
  5
1B155
330
1B14F
100
AcDbEntity
  8
0
  6
CONTINUOUS
100
AcDbLine
 10
31.64199999996833
 20
5.167462244512667
 30
0.0
 11
33.08199999996839
 21
6.607462244512721
 31
0.0
  0
LINE
  5
1B156
330
1B14F
100
AcDbEntity
  8
0
  6
CONTINUOUS
100
AcDbLine
 10
31.64199999996833
 20
4.493943035432481
 30
0.0
 11
33.08199999996839
 21
5.933943035432535
 31
0.0
  0
LINE
  5
1B157
330
1B14F
100
AcDbEntity
  8
0
  6
CONTINUOUS
100
AcDbLine
 10
31.64199999996833
 20
3.820423826352293
 30
0.0
 11
33.08199999996839
 21
5.260423826352348
 31
0.0
  0
LINE
  5
1B158
330
1B14F
100
AcDbEntity
  8
0
  6
CONTINUOUS
100
AcDbLine
 10
31.64199999996833
 20
3.146904617272106
 30
0.0
 11
33.08199999996839
 21
4.586904617272161
 31
0.0
  0
LINE
  5
1B159
330
1B14F
100
AcDbEntity
  8
0
  6
CONTINUOUS
100
AcDbLine
 10
36.23199999996837
 20
8.410423826352325
 30
0.0
 11
36.5846761736073
 21
8.763099999991255
 31
0.0
  0
LINE
  5
1B15A
330
1B14F
100
AcDbEntity
  8
0
  6
CONTINUOUS
100
AcDbLine
 10
36.23199999996837
 20
7.73690461727214
 30
0.0
 11
37.25819538268748
 21
8.763099999991255
 31
0.0
  0
LINE
  5
1B15B
330
1B14F
100
AcDbEntity
  8
0
  6
CONTINUOUS
100
AcDbLine
 10
31.64257403601376
 20
2.473959444237348
 30
0.0
 11
33.08199999996839
 21
3.913385408191974
 31
0.0
  0
LINE
  5
1B15C
330
1B14F
100
AcDbEntity
  8
0
  6
CONTINUOUS
100
AcDbLine
 10
36.23199999996837
 20
7.063385408191953
 30
0.0
 11
37.67199999996831
 21
8.503385408191894
 31
0.0
  0
LINE
  5
1B15D
330
1B14F
100
AcDbEntity
  8
0
  6
CONTINUOUS
100
AcDbLine
 10
31.72013636841932
 20
1.87800256756272
 30
0.0
 11
33.08199999996839
 21
3.239866199111788
 31
0.0
  0
LINE
  5
1B15E
330
1B14F
100
AcDbEntity
  8
0
  6
CONTINUOUS
100
AcDbLine
 10
36.23199999996837
 20
6.389866199111767
 30
0.0
 11
37.67199999996831
 21
7.829866199111708
 31
0.0
  0
LINE
  5
1B15F
330
1B14F
100
AcDbEntity
  8
0
  6
CONTINUOUS
100
AcDbLine
 10
31.89042734314753
 20
1.374774333210744
 30
0.0
 11
33.08199999996839
 21
2.566346990031601
 31
0.0
  0
LINE
  5
1B160
330
1B14F
100
AcDbEntity
  8
0
  6
CONTINUOUS
100
AcDbLine
 10
36.23199999996837
 20
5.71634699003158
 30
0.0
 11
37.67199999996831
 21
7.156346990031521
 31
0.0
  0
LINE
  5
1B161
330
1B14F
100
AcDbEntity
  8
0
  6
CONTINUOUS
100
AcDbLine
 10
32.14210568064475
 20
0.952933461627778
 30
0.0
 11
33.18745552475986
 21
1.998283305742888
 31
0.0
  0
LINE
  5
1B162
330
1B14F
100
AcDbEntity
  8
0
  6
CONTINUOUS
100
AcDbLine
 10
36.23199999996837
 20
5.042827780951393
 30
0.0
 11
37.67199999996831
 21
6.482827780951334
 31
0.0
  0
LINE
  5
1B163
330
1B14F
100
AcDbEntity
  8
0
  6
CONTINUOUS
100
AcDbLine
 10
32.45820639400955
 20
0.5955149659123915
 30
0.0
 11
33.47242681921943
 21
1.60973539112227
 31
0.0
  0
LINE
  5
1B164
330
1B14F
100
AcDbEntity
  8
0
  6
CONTINUOUS
100
AcDbLine
 10
36.23199999996837
 20
4.369308571871207
 30
0.0
 11
37.67199999996831
 21
5.809308571871147
 31
0.0
  0
LINE
  5
1B165
330
1B14F
100
AcDbEntity
  8
0
  6
CONTINUOUS
100
AcDbLine
 10
32.83432456621412
 20
0.2981139290367771
 30
0.0
 11
33.89722476612215
 21
1.361014128944803
 31
0.0
  0
LINE
  5
1B166
330
1B14F
100
AcDbEntity
  8
0
  6
CONTINUOUS
100
AcDbLine
 10
36.23199999996837
 20
3.69578936279102
 30
0.0
 11
37.67199999996831
 21
5.135789362790962
 31
0.0
  0
LINE
  5
1B167
330
1B14F
100
AcDbEntity
  8
0
  6
CONTINUOUS
100
AcDbLine
 10
33.2711633111245
 20
0.0614334648669672
 30
0.0
 11
34.43247338014423
 21
1.222743533886696
 31
0.0
  0
LINE
  5
1B168
330
1B14F
100
AcDbEntity
  8
0
  6
CONTINUOUS
100
AcDbLine
 10
36.23199999996837
 20
3.022270153710834
 30
0.0
 11
37.67199999996831
 21
4.462270153710775
 31
0.0
  0
LINE
  5
1B169
330
1B14F
100
AcDbEntity
  8
0
  6
CONTINUOUS
100
AcDbLine
 10
33.76515245874577
 20
-0.1180965965919523
 30
0.0
 11
35.1587445516215
 21
1.27549549628378
 31
0.0
  0
LINE
  5
1B16A
330
1B14F
100
AcDbEntity
  8
0
  6
CONTINUOUS
100
AcDbLine
 10
36.21639478609585
 20
2.333145730758136
 30
0.0
 11
37.67199999996831
 21
3.788750944630588
 31
0.0
  0
LINE
  5
1B16B
330
1B14F
100
AcDbEntity
  8
0
  6
CONTINUOUS
100
AcDbLine
 10
34.34060583368432
 20
-0.2161624307335863
 30
0.0
 11
37.67199999996831
 21
3.115231735550401
 31
0.0
  0
LINE
  5
1B16C
330
1B14F
100
AcDbEntity
  8
0
  6
CONTINUOUS
100
AcDbLine
 10
35.01698193613905
 20
-0.2133055373590427
 30
0.0
 11
37.66876712070525
 21
2.438479647207154
 31
0.0
  0
LINE
  5
1B16D
330
1B14F
100
AcDbEntity
  8
0
  6
CONTINUOUS
100
AcDbLine
 10
35.90743367693304
 20
0.0036269943547609
 30
0.0
 11
37.51723902192366
 21
1.613432339345381
 31
0.0
  0
LINE
  5
1B16E
330
1B14F
100
AcDbEntity
  8
0
  6
CONTINUOUS
100
AcDbLine
 10
32.55309425579761
 20
0.5074718966376706
 30
0.0
 11
32.27784730925847
 21
0.7827188431768102
 31
0.0
  0
LINE
  5
1B16F
330
1B14F
100
AcDbEntity
  8
0
  6
CONTINUOUS
100
AcDbLine
 10
33.87496468909684
 20
-0.1408793275813673
 30
0.0
 11
31.67993083278052
 21
2.054154528734943
 31
0.0
  0
LINE
  5
1B170
330
1B14F
100
AcDbEntity
  8
0
  6
CONTINUOUS
100
AcDbLine
 10
34.64362813207632
 20
-0.2360235614806649
 30
0.0
 11
31.64199999996833
 21
2.765604570627322
 31
0.0
  0
LINE
  5
1B171
330
1B14F
100
AcDbEntity
  8
0
  6
CONTINUOUS
100
AcDbLine
 10
35.25801106796118
 20
-0.1768872882853429
 30
0.0
 11
31.64199999996833
 21
3.439123779707508
 31
0.0
  0
LINE
  5
1B172
330
1B14F
100
AcDbEntity
  8
0
  6
CONTINUOUS
100
AcDbLine
 10
35.79065650332146
 20
-0.0360135145654361
 30
0.0
 11
34.54143210838231
 21
1.213210880373721
 31
0.0
  0
LINE
  5
1B173
330
1B14F
100
AcDbEntity
  8
0
  6
CONTINUOUS
100
AcDbLine
 10
33.08199999996839
 20
2.67264298878764
 30
0.0
 11
31.64199999996833
 21
4.112642988787695
 31
0.0
  0
LINE
  5
1B174
330
1B14F
100
AcDbEntity
  8
0
  6
CONTINUOUS
100
AcDbLine
 10
36.25975597779143
 20
0.1684062200447833
 30
0.0
 11
35.15395110240023
 21
1.274211095435983
 31
0.0
  0
LINE
  5
1B175
330
1B14F
100
AcDbEntity
  8
0
  6
CONTINUOUS
100
AcDbLine
 10
33.08199999996839
 20
3.346162197867826
 30
0.0
 11
31.64199999996833
 21
4.786162197867881
 31
0.0
  0
LINE
  5
1B176
330
1B14F
100
AcDbEntity
  8
0
  6
CONTINUOUS
100
AcDbLine
 10
36.67226329638774
 20
0.4294181105286579
 30
0.0
 11
35.63766478748767
 21
1.464016619428737
 31
0.0
  0
LINE
  5
1B177
330
1B14F
100
AcDbEntity
  8
0
  6
CONTINUOUS
100
AcDbLine
 10
33.08199999996839
 20
4.019681406948012
 30
0.0
 11
31.64199999996833
 21
5.459681406948068
 31
0.0
  0
LINE
  5
1B178
330
1B14F
100
AcDbEntity
  8
0
  6
CONTINUOUS
100
AcDbLine
 10
37.01677749710036
 20
0.7584231188962329
 30
0.0
 11
35.99563422741351
 21
1.779566388583076
 31
0.0
  0
LINE
  5
1B179
330
1B14F
100
AcDbEntity
  8
0
  6
CONTINUOUS
100
AcDbLine
 10
33.08199999996839
 20
4.693200616028199
 30
0.0
 11
31.64199999996833
 21
6.133200616028255
 31
0.0
  0
LINE
  5
1B17A
330
1B14F
100
AcDbEntity
  8
0
  6
CONTINUOUS
100
AcDbLine
 10
37.29859977568887
 20
1.1501200493879
 30
0.0
 11
36.20680593341555
 21
2.241913891661226
 31
0.0
  0
LINE
  5
1B17B
330
1B14F
100
AcDbEntity
  8
0
  6
CONTINUOUS
100
AcDbLine
 10
33.08199999996839
 20
5.366719825108386
 30
0.0
 11
31.64199999996833
 21
6.80671982510844
 31
0.0
  0
LINE
  5
1B17C
330
1B14F
100
AcDbEntity
  8
0
  6
CONTINUOUS
100
AcDbLine
 10
37.5148623517228
 20
1.607376682434161
 30
0.0
 11
36.23199999996837
 21
2.890239034188594
 31
0.0
  0
LINE
  5
1B17D
330
1B14F
100
AcDbEntity
  8
0
  6
CONTINUOUS
100
AcDbLine
 10
33.08199999996839
 20
6.040239034188573
 30
0.0
 11
31.64199999996833
 21
7.480239034188627
 31
0.0
  0
LINE
  5
1B17E
330
1B14F
100
AcDbEntity
  8
0
  6
CONTINUOUS
100
AcDbLine
 10
37.64705163358367
 20
2.148706609653477
 30
0.0
 11
36.23199999996837
 21
3.56375824326878
 31
0.0
  0
LINE
  5
1B17F
330
1B14F
100
AcDbEntity
  8
0
  6
CONTINUOUS
100
AcDbLine
 10
33.08199999996839
 20
6.713758243268758
 30
0.0
 11
31.64199999996833
 21
8.153758243268815
 31
0.0
  0
LINE
  5
1B180
330
1B14F
100
AcDbEntity
  8
0
  6
CONTINUOUS
100
AcDbLine
 10
37.67199999996831
 20
2.797277452349026
 30
0.0
 11
36.23199999996837
 21
4.237277452348967
 31
0.0
  0
LINE
  5
1B181
330
1B14F
100
AcDbEntity
  8
0
  6
CONTINUOUS
100
AcDbLine
 10
37.67199999996831
 20
3.470796661429213
 30
0.0
 11
36.23199999996837
 21
4.910796661429154
 31
0.0
  0
LINE
  5
1B182
330
1B14F
100
AcDbEntity
  8
0
  6
CONTINUOUS
100
AcDbLine
 10
37.67199999996831
 20
4.144315870509399
 30
0.0
 11
36.23199999996837
 21
5.58431587050934
 31
0.0
  0
LINE
  5
1B183
330
1B14F
100
AcDbEntity
  8
0
  6
CONTINUOUS
100
AcDbLine
 10
33.08199999996839
 20
7.387277452348945
 30
0.0
 11
31.70617745232608
 21
8.763099999991255
 31
0.0
  0
LINE
  5
1B184
330
1B14F
100
AcDbEntity
  8
0
  6
CONTINUOUS
100
AcDbLine
 10
33.08199999996839
 20
8.060796661429132
 30
0.0
 11
32.37969666140626
 21
8.763099999991255
 31
0.0
  0
LINE
  5
1B185
330
1B14F
100
AcDbEntity
  8
0
  6
CONTINUOUS
100
AcDbLine
 10
33.08199999996839
 20
8.734315870509318
 30
0.0
 11
33.05321587048645
 21
8.763099999991255
 31
0.0
  0
LINE
  5
1B186
330
1B14F
100
AcDbEntity
  8
0
  6
CONTINUOUS
100
AcDbLine
 10
37.67199999996831
 20
4.817835079589585
 30
0.0
 11
36.23199999996837
 21
6.257835079589526
 31
0.0
  0
LINE
  5
1B187
330
1B14F
100
AcDbEntity
  8
0
  6
CONTINUOUS
100
AcDbLine
 10
37.67199999996831
 20
5.491354288669771
 30
0.0
 11
36.23199999996837
 21
6.931354288669713
 31
0.0
  0
LINE
  5
1B188
330
1B14F
100
AcDbEntity
  8
0
  6
CONTINUOUS
100
AcDbLine
 10
37.67199999996831
 20
6.164873497749958
 30
0.0
 11
36.23199999996837
 21
7.6048734977499
 31
0.0
  0
LINE
  5
1B189
330
1B14F
100
AcDbEntity
  8
0
  6
CONTINUOUS
100
AcDbLine
 10
37.67199999996831
 20
6.838392706830144
 30
0.0
 11
36.23199999996837
 21
8.278392706830086
 31
0.0
  0
LINE
  5
1B18A
330
1B14F
100
AcDbEntity
  8
0
  6
CONTINUOUS
100
AcDbLine
 10
37.67199999996831
 20
7.511911915910332
 30
0.0
 11
36.42081191588738
 21
8.763099999991255
 31
0.0
  0
LINE
  5
1B18B
330
1B14F
100
AcDbEntity
  8
0
  6
CONTINUOUS
100
AcDbLine
 10
37.67199999996831
 20
8.185431124990519
 30
0.0
 11
37.09433112496757
 21
8.763099999991255
 31
0.0
  0
ENDBLK
  5
1B1F3
330
1B14F
100
AcDbEntity
  8
0
100
AcDbBlockEnd
  0
BLOCK
  5
1B1F4
330
1B18C
100
AcDbEntity
  8
0
100
AcDbBlockBegin
  2
*X37
 70
     1
 10
0.0
 20
0.0
 30
0.0
  3
*X37
  1

  0
LINE
  5
1B18D
330
1B18C
100
AcDbEntity
  8
0
  6
CONTINUOUS
100
AcDbLine
 10
38.60499999996136
 20
8.762866199104765
 30
0.0
 11
38.71672554182345
 21
8.874591740966855
 31
0.0
  0
LINE
  5
1B18E
330
1B18C
100
AcDbEntity
  8
0
  6
CONTINUOUS
100
AcDbLine
 10
38.60499999996136
 20
8.089346990024577
 30
0.0
 11
39.03418785440363
 21
8.518534844466847
 31
0.0
  0
LINE
  5
1B18F
330
1B18C
100
AcDbEntity
  8
0
  6
CONTINUOUS
100
AcDbLine
 10
38.60499999996136
 20
7.41582778094439
 30
0.0
 11
39.35165016698382
 21
8.16247794796684
 31
0.0
  0
LINE
  5
1B190
330
1B18C
100
AcDbEntity
  8
0
  6
CONTINUOUS
100
AcDbLine
 10
38.60499999996136
 20
6.742308571864204
 30
0.0
 11
39.66911247956399
 21
7.806421051466834
 31
0.0
  0
LINE
  5
1B191
330
1B18C
100
AcDbEntity
  8
0
  6
CONTINUOUS
100
AcDbLine
 10
38.60499999996136
 20
6.068789362784018
 30
0.0
 11
39.98657479214418
 21
7.450364154966827
 31
0.0
  0
LINE
  5
1B192
330
1B18C
100
AcDbEntity
  8
0
  6
CONTINUOUS
100
AcDbLine
 10
38.60499999996136
 20
5.395270153703832
 30
0.0
 11
40.30403710472435
 21
7.09430725846682
 31
0.0
  0
LINE
  5
1B193
330
1B18C
100
AcDbEntity
  8
0
  6
CONTINUOUS
100
AcDbLine
 10
38.60499999996136
 20
4.721750944623645
 30
0.0
 11
40.62149941730453
 21
6.738250361966813
 31
0.0
  0
LINE
  5
1B194
330
1B18C
100
AcDbEntity
  8
0
  6
CONTINUOUS
100
AcDbLine
 10
38.60499999996136
 20
4.048231735543458
 30
0.0
 11
40.93896172988471
 21
6.382193465466806
 31
0.0
  0
LINE
  5
1B195
330
1B18C
100
AcDbEntity
  8
0
  6
CONTINUOUS
100
AcDbLine
 10
38.60499999996136
 20
3.374712526463272
 30
0.0
 11
40.02599999995994
 21
4.795712526461843
 31
0.0
  0
LINE
  5
1B196
330
1B18C
100
AcDbEntity
  8
0
  6
CONTINUOUS
100
AcDbLine
 10
38.60499999996136
 20
2.701193317383085
 30
0.0
 11
40.02599999995994
 21
4.122193317381657
 31
0.0
  0
LINE
  5
1B197
330
1B18C
100
AcDbEntity
  8
0
  6
CONTINUOUS
100
AcDbLine
 10
40.28339754687704
 20
5.053110073378947
 30
0.0
 11
41.25642404246489
 21
6.026136568966799
 31
0.0
  0
LINE
  5
1B198
330
1B18C
100
AcDbEntity
  8
0
  6
CONTINUOUS
100
AcDbLine
 10
40.60085985945722
 20
4.697053176878939
 30
0.0
 11
41.57388635504507
 21
5.670079672466793
 31
0.0
  0
LINE
  5
1B199
330
1B18C
100
AcDbEntity
  8
0
  6
CONTINUOUS
100
AcDbLine
 10
43.57899999995641
 20
8.348712526458318
 30
0.0
 11
43.99338747348935
 21
8.763099999991255
 31
0.0
  0
LINE
  5
1B19A
330
1B18C
100
AcDbEntity
  8
0
  6
CONTINUOUS
100
AcDbLine
 10
43.57899999995641
 20
7.675193317378131
 30
0.0
 11
44.66690668256953
 21
8.763099999991255
 31
0.0
  0
LINE
  5
1B19B
330
1B18C
100
AcDbEntity
  8
0
  6
CONTINUOUS
100
AcDbLine
 10
38.60499999996136
 20
2.027674108302898
 30
0.0
 11
40.02599999995994
 21
3.44867410830147
 31
0.0
  0
LINE
  5
1B19C
330
1B18C
100
AcDbEntity
  8
0
  6
CONTINUOUS
100
AcDbLine
 10
38.60499999996136
 20
1.354154899222712
 30
0.0
 11
40.02599999995994
 21
2.775154899221284
 31
0.0
  0
LINE
  5
1B19D
330
1B18C
100
AcDbEntity
  8
0
  6
CONTINUOUS
100
AcDbLine
 10
38.60499999996136
 20
0.6806356901425255
 30
0.0
 11
40.02599999995994
 21
2.101635690141098
 31
0.0
  0
LINE
  5
1B19E
330
1B18C
100
AcDbEntity
  8
0
  6
CONTINUOUS
100
AcDbLine
 10
38.60499999996136
 20
0.0071164810623383
 30
0.0
 11
40.02599999995994
 21
1.428116481060911
 31
0.0
  0
LINE
  5
1B19F
330
1B18C
100
AcDbEntity
  8
0
  6
CONTINUOUS
100
AcDbLine
 10
40.9183221720374
 20
4.340996280378933
 30
0.0
 11
41.89134866762525
 21
5.314022775966786
 31
0.0
  0
LINE
  5
1B1A0
330
1B18C
100
AcDbEntity
  8
0
  6
CONTINUOUS
100
AcDbLine
 10
41.23578448461758
 20
3.984939383878926
 30
0.0
 11
42.20881098020543
 21
4.957965879466778
 31
0.0
  0
LINE
  5
1B1A1
330
1B18C
100
AcDbEntity
  8
0
  6
CONTINUOUS
100
AcDbLine
 10
41.55324679719776
 20
3.628882487378919
 30
0.0
 11
42.52627329278561
 21
4.601908982966772
 31
0.0
  0
LINE
  5
1B1A2
330
1B18C
100
AcDbEntity
  8
0
  6
CONTINUOUS
100
AcDbLine
 10
41.87070910977793
 20
3.272825590878912
 30
0.0
 11
42.84373560536579
 21
4.245852086466765
 31
0.0
  0
LINE
  5
1B1A3
330
1B18C
100
AcDbEntity
  8
0
  6
CONTINUOUS
100
AcDbLine
 10
43.57899999995641
 20
7.001674108297943
 30
0.0
 11
44.99999999995498
 21
8.422674108296516
 31
0.0
  0
LINE
  5
1B1A4
330
1B18C
100
AcDbEntity
  8
0
  6
CONTINUOUS
100
AcDbLine
 10
43.57899999995641
 20
6.328154899217758
 30
0.0
 11
44.99999999995498
 21
7.749154899216329
 31
0.0
  0
LINE
  5
1B1A5
330
1B18C
100
AcDbEntity
  8
0
  6
CONTINUOUS
100
AcDbLine
 10
43.57899999995641
 20
5.654635690137571
 30
0.0
 11
44.99999999995498
 21
7.075635690136142
 31
0.0
  0
LINE
  5
1B1A6
330
1B18C
100
AcDbEntity
  8
0
  6
CONTINUOUS
100
AcDbLine
 10
43.57899999995641
 20
4.981116481057384
 30
0.0
 11
44.99999999995498
 21
6.402116481055955
 31
0.0
  0
LINE
  5
1B1A7
330
1B18C
100
AcDbEntity
  8
0
  6
CONTINUOUS
100
AcDbLine
 10
39.27140272797921
 20
-0.0000000000000009
 30
0.0
 11
40.02599999995994
 21
0.7545972719807246
 31
0.0
  0
LINE
  5
1B1A8
330
1B18C
100
AcDbEntity
  8
0
  6
CONTINUOUS
100
AcDbLine
 10
39.9449219370594
 20
-0.0000000000000009
 30
0.0
 11
40.02599999995994
 21
0.0810780629005379
 31
0.0
  0
LINE
  5
1B1A9
330
1B18C
100
AcDbEntity
  8
0
  6
CONTINUOUS
100
AcDbLine
 10
42.18817142235812
 20
2.916768694378905
 30
0.0
 11
43.16119791794597
 21
3.889795189966758
 31
0.0
  0
LINE
  5
1B1AA
330
1B18C
100
AcDbEntity
  8
0
  6
CONTINUOUS
100
AcDbLine
 10
42.50563373493829
 20
2.560711797878898
 30
0.0
 11
43.47866023052615
 21
3.533738293466751
 31
0.0
  0
LINE
  5
1B1AB
330
1B18C
100
AcDbEntity
  8
0
  6
CONTINUOUS
100
AcDbLine
 10
43.57899999995641
 20
4.307597271977198
 30
0.0
 11
44.99999999995498
 21
5.728597271975769
 31
0.0
  0
LINE
  5
1B1AC
330
1B18C
100
AcDbEntity
  8
0
  6
CONTINUOUS
100
AcDbLine
 10
43.57899999995641
 20
3.634078062897011
 30
0.0
 11
44.99999999995498
 21
5.055078062895582
 31
0.0
  0
LINE
  5
1B1AD
330
1B18C
100
AcDbEntity
  8
0
  6
CONTINUOUS
100
AcDbLine
 10
42.82309604751848
 20
2.204654901378891
 30
0.0
 11
44.99999999995498
 21
4.381558853815395
 31
0.0
  0
LINE
  5
1B1AE
330
1B18C
100
AcDbEntity
  8
0
  6
CONTINUOUS
100
AcDbLine
 10
43.14055836009865
 20
1.848598004878885
 30
0.0
 11
44.99999999995498
 21
3.70803964473521
 31
0.0
  0
LINE
  5
1B1AF
330
1B18C
100
AcDbEntity
  8
0
  6
CONTINUOUS
100
AcDbLine
 10
43.45802067267883
 20
1.492541108378878
 30
0.0
 11
44.99999999995498
 21
3.034520435655023
 31
0.0
  0
LINE
  5
1B1B0
330
1B18C
100
AcDbEntity
  8
0
  6
CONTINUOUS
100
AcDbLine
 10
43.77548298525902
 20
1.136484211878871
 30
0.0
 11
44.99999999995498
 21
2.361001226574837
 31
0.0
  0
LINE
  5
1B1B1
330
1B18C
100
AcDbEntity
  8
0
  6
CONTINUOUS
100
AcDbLine
 10
44.09294529783919
 20
0.7804273153788639
 30
0.0
 11
44.99999999995498
 21
1.687482017494649
 31
0.0
  0
LINE
  5
1B1B2
330
1B18C
100
AcDbEntity
  8
0
  6
CONTINUOUS
100
AcDbLine
 10
44.41040761041938
 20
0.4243704188788566
 30
0.0
 11
44.99999999995498
 21
1.013962808414463
 31
0.0
  0
LINE
  5
1B1B3
330
1B18C
100
AcDbEntity
  8
0
  6
CONTINUOUS
100
AcDbLine
 10
44.72786992299955
 20
0.0683135223788494
 30
0.0
 11
44.99999999995498
 21
0.340443599334276
 31
0.0
  0
LINE
  5
1B1B4
330
1B18C
100
AcDbEntity
  8
0
  6
CONTINUOUS
100
AcDbLine
 10
39.12223903415696
 20
-0.0000000000000009
 30
0.0
 11
38.60499999996136
 21
0.5172390341955961
 31
0.0
  0
LINE
  5
1B1B5
330
1B18C
100
AcDbEntity
  8
0
  6
CONTINUOUS
100
AcDbLine
 10
39.79575824323715
 20
-0.0000000000000009
 30
0.0
 11
38.60499999996136
 21
1.190758243275783
 31
0.0
  0
LINE
  5
1B1B6
330
1B18C
100
AcDbEntity
  8
0
  6
CONTINUOUS
100
AcDbLine
 10
40.02599999995994
 20
0.443277452357397
 30
0.0
 11
38.60499999996136
 21
1.864277452355969
 31
0.0
  0
LINE
  5
1B1B7
330
1B18C
100
AcDbEntity
  8
0
  6
CONTINUOUS
100
AcDbLine
 10
40.02599999995994
 20
1.116796661437583
 30
0.0
 11
38.60499999996136
 21
2.537796661436155
 31
0.0
  0
LINE
  5
1B1B8
330
1B18C
100
AcDbEntity
  8
0
  6
CONTINUOUS
100
AcDbLine
 10
40.02599999995994
 20
1.79031587051777
 30
0.0
 11
38.60499999996136
 21
3.211315870516341
 31
0.0
  0
LINE
  5
1B1B9
330
1B18C
100
AcDbEntity
  8
0
  6
CONTINUOUS
100
AcDbLine
 10
40.02599999995994
 20
2.463835079597956
 30
0.0
 11
38.60499999996136
 21
3.884835079596527
 31
0.0
  0
LINE
  5
1B1BA
330
1B18C
100
AcDbEntity
  8
0
  6
CONTINUOUS
100
AcDbLine
 10
40.02599999995994
 20
3.137354288678143
 30
0.0
 11
38.60499999996136
 21
4.558354288676714
 31
0.0
  0
LINE
  5
1B1BB
330
1B18C
100
AcDbEntity
  8
0
  6
CONTINUOUS
100
AcDbLine
 10
40.02599999995994
 20
3.810873497758329
 30
0.0
 11
38.60499999996136
 21
5.2318734977569
 31
0.0
  0
LINE
  5
1B1BC
330
1B18C
100
AcDbEntity
  8
0
  6
CONTINUOUS
100
AcDbLine
 10
40.02599999995994
 20
4.484392706838515
 30
0.0
 11
38.60499999996136
 21
5.905392706837086
 31
0.0
  0
LINE
  5
1B1BD
330
1B18C
100
AcDbEntity
  8
0
  6
CONTINUOUS
100
AcDbLine
 10
44.99999999995498
 20
0.183911915923658
 30
0.0
 11
41.53858364506288
 21
3.64532827081576
 31
0.0
  0
LINE
  5
1B1BE
330
1B18C
100
AcDbEntity
  8
0
  6
CONTINUOUS
100
AcDbLine
 10
40.02599999995994
 20
5.157911915918703
 30
0.0
 11
38.60499999996136
 21
6.578911915917274
 31
0.0
  0
LINE
  5
1B1BF
330
1B18C
100
AcDbEntity
  8
0
  6
CONTINUOUS
100
AcDbLine
 10
44.99999999995498
 20
0.8574311250038447
 30
0.0
 11
38.60499999996136
 21
7.25243112499746
 31
0.0
  0
LINE
  5
1B1C0
330
1B18C
100
AcDbEntity
  8
0
  6
CONTINUOUS
100
AcDbLine
 10
44.99999999995498
 20
1.530950334084031
 30
0.0
 11
38.60499999996136
 21
7.925950334077647
 31
0.0
  0
LINE
  5
1B1C1
330
1B18C
100
AcDbEntity
  8
0
  6
CONTINUOUS
100
AcDbLine
 10
44.99999999995498
 20
2.204469543164218
 30
0.0
 11
43.57899999995641
 21
3.625469543162789
 31
0.0
  0
LINE
  5
1B1C2
330
1B18C
100
AcDbEntity
  8
0
  6
CONTINUOUS
100
AcDbLine
 10
41.89876730984767
 20
5.305702233271528
 30
0.0
 11
38.60499999996136
 21
8.599469543157834
 31
0.0
  0
LINE
  5
1B1C3
330
1B18C
100
AcDbEntity
  8
0
  6
CONTINUOUS
100
AcDbLine
 10
44.99999999995498
 20
2.877988752244405
 30
0.0
 11
43.57899999995641
 21
4.298988752242975
 31
0.0
  0
LINE
  5
1B1C4
330
1B18C
100
AcDbEntity
  8
0
  6
CONTINUOUS
100
AcDbLine
 10
44.99999999995498
 20
3.551507961324591
 30
0.0
 11
43.57899999995641
 21
4.972507961323163
 31
0.0
  0
LINE
  5
1B1C5
330
1B18C
100
AcDbEntity
  8
0
  6
CONTINUOUS
100
AcDbLine
 10
44.99999999995498
 20
4.225027170404777
 30
0.0
 11
43.57899999995641
 21
5.646027170403348
 31
0.0
  0
LINE
  5
1B1C6
330
1B18C
100
AcDbEntity
  8
0
  6
CONTINUOUS
100
AcDbLine
 10
44.99999999995498
 20
4.898546379484964
 30
0.0
 11
43.57899999995641
 21
6.319546379483535
 31
0.0
  0
LINE
  5
1B1C7
330
1B18C
100
AcDbEntity
  8
0
  6
CONTINUOUS
100
AcDbLine
 10
44.99999999995498
 20
5.572065588565151
 30
0.0
 11
43.57899999995641
 21
6.993065588563722
 31
0.0
  0
LINE
  5
1B1C8
330
1B18C
100
AcDbEntity
  8
0
  6
CONTINUOUS
100
AcDbLine
 10
44.99999999995498
 20
6.245584797645336
 30
0.0
 11
43.57899999995641
 21
7.666584797643908
 31
0.0
  0
LINE
  5
1B1C9
330
1B18C
100
AcDbEntity
  8
0
  6
CONTINUOUS
100
AcDbLine
 10
44.99999999995498
 20
6.919104006725522
 30
0.0
 11
43.57899999995641
 21
8.340104006724093
 31
0.0
  0
LINE
  5
1B1CA
330
1B18C
100
AcDbEntity
  8
0
  6
CONTINUOUS
100
AcDbLine
 10
44.99999999995498
 20
7.592623215805709
 30
0.0
 11
43.82952321576943
 21
8.763099999991255
 31
0.0
  0
LINE
  5
1B1CB
330
1B18C
100
AcDbEntity
  8
0
  6
CONTINUOUS
100
AcDbLine
 10
44.99999999995498
 20
8.266142424885896
 30
0.0
 11
44.50304242484962
 21
8.763099999991255
 31
0.0
  0
ENDBLK
  5
1B1F5
330
1B18C
100
AcDbEntity
  8
0
100
AcDbBlockEnd
  0
BLOCK
  5
1B1F6
330
1B1CC
100
AcDbEntity
  8
0
100
AcDbBlockBegin
  2
*X38
 70
     1
 10
0.0
 20
0.0
 30
0.0
  3
*X38
  1

  0
LINE
  5
1B1CD
330
1B1CC
100
AcDbEntity
  8
0
  6
CONTINUOUS
100
AcDbLine
 10
0.0
 20
8.548461116714023
 30
0.0
 11
0.2146388832772324
 21
8.763099999991255
 31
0.0
  0
LINE
  5
1B1CE
330
1B1CC
100
AcDbEntity
  8
0
  6
CONTINUOUS
100
AcDbLine
 10
-0.0000000000000002
 20
7.874941907633837
 30
0.0
 11
0.8881580923574184
 21
8.763099999991255
 31
0.0
  0
LINE
  5
1B1CF
330
1B1CC
100
AcDbEntity
  8
0
  6
CONTINUOUS
100
AcDbLine
 10
0.0
 20
7.20142269855365
 30
0.0
 11
1.420999999998572
 21
8.622422698552223
 31
0.0
  0
LINE
  5
1B1D0
330
1B1CC
100
AcDbEntity
  8
0
  6
CONTINUOUS
100
AcDbLine
 10
-0.0000000000000001
 20
6.527903489473465
 30
0.0
 11
1.420999999998571
 21
7.948903489472036
 31
0.0
  0
LINE
  5
1B1D1
330
1B1CC
100
AcDbEntity
  8
0
  6
CONTINUOUS
100
AcDbLine
 10
-0.0000000000000002
 20
5.854384280393278
 30
0.0
 11
1.420999999998571
 21
7.275384280391849
 31
0.0
  0
LINE
  5
1B1D2
330
1B1CC
100
AcDbEntity
  8
0
  6
CONTINUOUS
100
AcDbLine
 10
-0.0000000000000002
 20
5.180865071313091
 30
0.0
 11
1.420999999998571
 21
6.601865071311663
 31
0.0
  0
LINE
  5
1B1D3
330
1B1CC
100
AcDbEntity
  8
0
  6
CONTINUOUS
100
AcDbLine
 10
0.0
 20
4.507345862232905
 30
0.0
 11
1.420999999998571
 21
5.928345862231477
 31
0.0
  0
LINE
  5
1B1D4
330
1B1CC
100
AcDbEntity
  8
0
  6
CONTINUOUS
100
AcDbLine
 10
-0.0000000000000003
 20
3.833826653152718
 30
0.0
 11
1.420999999998571
 21
5.25482665315129
 31
0.0
  0
LINE
  5
1B1D5
330
1B1CC
100
AcDbEntity
  8
0
  6
CONTINUOUS
100
AcDbLine
 10
-0.0000000000000002
 20
3.160307444072532
 30
0.0
 11
1.420999999998571
 21
4.581307444071103
 31
0.0
  0
LINE
  5
1B1D6
330
1B1CC
100
AcDbEntity
  8
0
  6
CONTINUOUS
100
AcDbLine
 10
-0.0000000000000001
 20
2.486788234992345
 30
0.0
 11
1.420999999998571
 21
3.907788234990917
 31
0.0
  0
LINE
  5
1B1D7
330
1B1CC
100
AcDbEntity
  8
0
  6
CONTINUOUS
100
AcDbLine
 10
-0.0000000000000006
 20
1.813269025912159
 30
0.0
 11
1.420999999998571
 21
3.234269025910731
 31
0.0
  0
LINE
  5
1B1D8
330
1B1CC
100
AcDbEntity
  8
0
  6
CONTINUOUS
100
AcDbLine
 10
0.0
 20
1.139749816831973
 30
0.0
 11
1.420999999998571
 21
2.560749816830544
 31
0.0
  0
LINE
  5
1B1D9
330
1B1CC
100
AcDbEntity
  8
0
  6
CONTINUOUS
100
AcDbLine
 10
0.0000000000000002
 20
0.466230607751787
 30
0.0
 11
1.420999999998571
 21
1.887230607750358
 31
0.0
  0
LINE
  5
1B1DA
330
1B1CC
100
AcDbEntity
  8
0
  6
CONTINUOUS
100
AcDbLine
 10
0.2072886013284003
 20
-0.0000000000000009
 30
0.0
 11
1.420999999998571
 21
1.213711398670171
 31
0.0
  0
LINE
  5
1B1DB
330
1B1CC
100
AcDbEntity
  8
0
  6
CONTINUOUS
100
AcDbLine
 10
0.8808078104085864
 20
-0.0000000000000009
 30
0.0
 11
1.420999999998571
 21
0.5401921895899839
 31
0.0
  0
LINE
  5
1B1DC
330
1B1CC
100
AcDbEntity
  8
0
  6
CONTINUOUS
100
AcDbLine
 10
0.0581249075061505
 20
-0.0000000000000009
 30
0.0
 11
-0.0000000000000002
 21
0.0581249075061496
 31
0.0
  0
LINE
  5
1B1DD
330
1B1CC
100
AcDbEntity
  8
0
  6
CONTINUOUS
100
AcDbLine
 10
0.7316441165863372
 20
-0.0000000000000009
 30
0.0
 11
-0.0000000000000002
 21
0.7316441165863363
 31
0.0
  0
LINE
  5
1B1DE
330
1B1CC
100
AcDbEntity
  8
0
  6
CONTINUOUS
100
AcDbLine
 10
1.405163325666523
 20
-0.0000000000000009
 30
0.0
 11
-0.0000000000000002
 21
1.405163325666523
 31
0.0
  0
LINE
  5
1B1DF
330
1B1CC
100
AcDbEntity
  8
0
  6
CONTINUOUS
100
AcDbLine
 10
1.420999999998572
 20
0.6576825347481381
 30
0.0
 11
-0.0000000000000001
 21
2.07868253474671
 31
0.0
  0
LINE
  5
1B1E0
330
1B1CC
100
AcDbEntity
  8
0
  6
CONTINUOUS
100
AcDbLine
 10
1.420999999998571
 20
1.331201743828324
 30
0.0
 11
-0.0000000000000001
 21
2.752201743826896
 31
0.0
  0
LINE
  5
1B1E1
330
1B1CC
100
AcDbEntity
  8
0
  6
CONTINUOUS
100
AcDbLine
 10
1.420999999998571
 20
2.004720952908511
 30
0.0
 11
-0.0000000000000002
 21
3.425720952907082
 31
0.0
  0
LINE
  5
1B1E2
330
1B1CC
100
AcDbEntity
  8
0
  6
CONTINUOUS
100
AcDbLine
 10
1.420999999998571
 20
2.678240161988697
 30
0.0
 11
-0.0000000000000001
 21
4.099240161987269
 31
0.0
  0
LINE
  5
1B1E3
330
1B1CC
100
AcDbEntity
  8
0
  6
CONTINUOUS
100
AcDbLine
 10
1.420999999998572
 20
3.351759371068884
 30
0.0
 11
0.0
 21
4.772759371067455
 31
0.0
  0
LINE
  5
1B1E4
330
1B1CC
100
AcDbEntity
  8
0
  6
CONTINUOUS
100
AcDbLine
 10
1.420999999998571
 20
4.02527858014907
 30
0.0
 11
-0.0000000000000003
 21
5.446278580147642
 31
0.0
  0
LINE
  5
1B1E5
330
1B1CC
100
AcDbEntity
  8
0
  6
CONTINUOUS
100
AcDbLine
 10
1.420999999998571
 20
4.698797789229257
 30
0.0
 11
0.0
 21
6.119797789227828
 31
0.0
  0
LINE
  5
1B1E6
330
1B1CC
100
AcDbEntity
  8
0
  6
CONTINUOUS
100
AcDbLine
 10
1.420999999998571
 20
5.372316998309444
 30
0.0
 11
-0.0000000000000001
 21
6.793316998308015
 31
0.0
  0
LINE
  5
1B1E7
330
1B1CC
100
AcDbEntity
  8
0
  6
CONTINUOUS
100
AcDbLine
 10
1.420999999998572
 20
6.045836207389629
 30
0.0
 11
-0.0000000000000004
 21
7.466836207388202
 31
0.0
  0
LINE
  5
1B1E8
330
1B1CC
100
AcDbEntity
  8
0
  6
CONTINUOUS
100
AcDbLine
 10
1.420999999998571
 20
6.719355416469816
 30
0.0
 11
0.0
 21
8.140355416468388
 31
0.0
  0
LINE
  5
1B1E9
330
1B1CC
100
AcDbEntity
  8
0
  6
CONTINUOUS
100
AcDbLine
 10
1.420999999998571
 20
7.392874625550003
 30
0.0
 11
0.0507746255573185
 21
8.763099999991255
 31
0.0
  0
LINE
  5
1B1EA
330
1B1CC
100
AcDbEntity
  8
0
  6
CONTINUOUS
100
AcDbLine
 10
1.420999999998571
 20
8.06639383463019
 30
0.0
 11
0.7242938346375052
 21
8.763099999991255
 31
0.0
  0
LINE
  5
1B1EB
330
1B1CC
100
AcDbEntity
  8
0
  6
CONTINUOUS
100
AcDbLine
 10
1.420999999998571
 20
8.739913043710375
 30
0.0
 11
1.397813043717691
 21
8.763099999991255
 31
0.0
  0
ENDBLK
  5
1B1F7
330
1B1CC
100
AcDbEntity
  8
0
100
AcDbBlockEnd
  0
ENDSEC
  0
SECTION
  2
ENTITIES
  0
CIRCLE
  5
1A99D
330
18
100
AcDbEntity
  8
01
100
AcDbCircle
 10
2634.652966643256
 20
-482.864152154774
 30
0.0
 40
2.5
  0
LINE
  5
1A99E
330
18
100
AcDbEntity
  8
01
100
AcDbLine
 10
2294.653070982999
 20
-503.2641423589018
 30
0.0
 11
2294.653070982999
 21
-477.2641423589018
 31
0.0
  0
CIRCLE
  5
1A99F
330
18
100
AcDbEntity
  8
01
100
AcDbCircle
 10
2294.653070982999
 20
-490.2641423589016
 30
0.0
 40
11.30000000000109
  0
LINE
  5
1A9A0
330
18
100
AcDbEntity
  8
01
100
AcDbLine
 10
2297.153070982999
 20
-479.9563833881007
 30
0.0
 11
2297.153070982999
 21
-500.5719013297025
 31
0.0
  0
LINE
  5
1A9A1
330
18
100
AcDbEntity
  8
01
100
AcDbLine
 10
2292.153070982999
 20
-479.9563833881007
 30
0.0
 11
2292.153070982999
 21
-500.5719013297025
 31
0.0
  0
ARC
  5
1A9A2
330
18
100
AcDbEntity
  8
01
100
AcDbCircle
 10
2292.653070982999
 20
-479.9563833881007
 30
0.0
 40
0.5
100
AcDbArc
 50
100.9805807214292
 51
180.0
  0
ARC
  5
1A9A3
330
18
100
AcDbEntity
  8
01
100
AcDbCircle
 10
2296.653070982999
 20
-479.9563833881007
 30
0.0
 40
0.5
100
AcDbArc
 50
0.0
 51
79.01941927857082
  0
ARC
  5
1A9A4
330
18
100
AcDbEntity
  8
01
100
AcDbCircle
 10
2292.653070982999
 20
-500.5719013297025
 30
0.0
 40
0.5
100
AcDbArc
 50
180.0
 51
259.0194192785708
  0
ARC
  5
1A9A5
330
18
100
AcDbEntity
  8
01
100
AcDbCircle
 10
2296.653070982999
 20
-500.5719013297025
 30
0.0
 40
0.5
100
AcDbArc
 50
280.9805807214292
 51
0.0
  0
CIRCLE
  5
1A9A6
330
18
100
AcDbEntity
  8
01
100
AcDbCircle
 10
2294.653070982999
 20
-490.2641423589016
 30
0.0
 40
11.0
  0
CIRCLE
  5
1A9A7
330
18
100
AcDbEntity
  8
01
100
AcDbCircle
 10
2634.652966643545
 20
-490.2641421547737
 30
0.0
 40
3.75
  0
CIRCLE
  5
1A9A8
330
18
100
AcDbEntity
  8
01
100
AcDbCircle
 10
2634.652966643545
 20
-490.2641423589016
 30
0.0
 40
3.5000005
  0
LINE
  5
1A9A9
330
18
100
AcDbEntity
  8
01
100
AcDbLine
 10
2635.652966643545
 20
-493.6182451589016
 30
0.0
 11
2635.652966643545
 21
-486.9100383589016
 31
0.0
  0
LINE
  5
1A9AA
330
18
100
AcDbEntity
  8
01
100
AcDbLine
 10
2633.652966643545
 20
-493.6182451589016
 30
0.0
 11
2633.652966643545
 21
-486.9100383589016
 31
0.0
  0
LINE
  5
1A9AB
330
18
100
AcDbEntity
  8
01
100
AcDbLine
 10
2281.653070982999
 20
-490.2641423589016
 30
0.0
 11
2307.653070982999
 21
-490.2641423589016
 31
0.0
  0
LINE
  5
1A9AC
330
18
100
AcDbEntity
  8
01
100
AcDbLine
 10
2421.749663814779
 20
-479.2641239050286
 30
0.0000000000023235
 11
2436.153074983
 21
-479.2641239050281
 31
0.0000000000023235
  0
LINE
  5
1A9AD
330
18
100
AcDbEntity
  8
01
100
AcDbLine
 10
2435.249686758989
 20
-500.7641239050281
 30
0.0000000000023235
 11
2435.249686758983
 21
-479.7641239050281
 31
0.0000000000023235
  0
LINE
  5
1A9AE
330
18
100
AcDbEntity
  8
01
100
AcDbLine
 10
2421.749663814779
 20
-501.2641239050276
 30
0.0000000000023235
 11
2436.153074983
 21
-501.2641239050276
 31
0.0000000000023235
  0
ARC
  5
1A9AF
330
18
100
AcDbEntity
  8
01
100
AcDbCircle
 10
2421.749663814779
 20
-500.2641239050286
 30
0.0000000000023235
 40
1.0
100
AcDbArc
 50
180.0
 51
270.0
  0
LINE
  5
1A9B0
330
18
100
AcDbEntity
  8
01
100
AcDbLine
 10
2420.749663814779
 20
-500.2641239050286
 30
0.0000000000023235
 11
2420.749663814779
 21
-480.2641239050308
 31
0.0000000000023235
  0
ARC
  5
1A9B1
330
18
100
AcDbEntity
  8
01
100
AcDbCircle
 10
2421.749663814779
 20
-480.2641239050308
 30
0.0000000000023235
 40
1.0
100
AcDbArc
 50
90.0
 51
180.0
  0
ARC
  5
1A9B2
330
18
100
AcDbEntity
  8
01
100
AcDbCircle
 10
2435.749686758983
 20
-500.7641239050276
 30
0.0000000000023235
 40
0.5
100
AcDbArc
 50
180.0
 51
270.0
  0
ARC
  5
1A9B3
330
18
100
AcDbEntity
  8
01
100
AcDbCircle
 10
2435.749686758983
 20
-479.7641239050281
 30
0.0000000000023235
 40
0.5
100
AcDbArc
 50
90.0
 51
180.0
  0
LINE
  5
1A9B4
330
18
100
AcDbEntity
  8
01
100
AcDbLine
 10
2421.749663814779
 20
-501.2641239050276
 30
0.0000000000023235
 11
2421.749663814779
 21
-501.2627337748359
 31
0.0000000000023235
  0
LINE
  5
1A9B5
330
18
100
AcDbEntity
  8
01
100
AcDbLine
 10
2493.826477289709
 20
-493.7641231645307
 30
0.0
 11
2493.153074983
 21
-493.7641231878383
 31
0.0
  0
LINE
  5
1A9B6
330
18
100
AcDbEntity
  8
01
100
AcDbLine
 10
2493.826477047427
 20
-486.7641231645307
 30
0.0
 11
2493.153074983
 21
-486.7641231878383
 31
0.0
  0
ARC
  5
1A9B7
330
18
100
AcDbEntity
  8
01
100
AcDbCircle
 10
2488.980091730791
 20
-490.2518357966551
 30
0.0
 40
5.970892950694182
100
AcDbArc
 50
323.9681518085879
 51
35.74077826093781
  0
LINE
  5
1A9BA
330
18
100
AcDbEntity
  8
01
100
AcDbLine
 10
2633.653073721458
 20
-300.1139145904942
 30
0.0
 11
2633.653073663698
 21
-298.7641423599305
 31
0.0
  0
ARC
  5
1A9BB
330
18
100
AcDbEntity
  8
01
100
AcDbCircle
 10
2635.95307270878
 20
-300.1139145005034
 30
0.0
 40
0.3000000099999999
100
AcDbArc
 50
179.9999989830693
 51
283.1834819831254
  0
ARC
  5
1A9BC
330
18
100
AcDbEntity
  8
01
100
AcDbCircle
 10
2634.653073516693
 20
-294.5641445454983
 30
0.0
 40
5.999999999999999
100
AcDbArc
 50
234.3146679830432
 51
256.8165199831201
  0
ARC
  5
1A9BD
330
18
100
AcDbEntity
  8
01
100
AcDbCircle
 10
2633.353070708779
 20
-300.1139145904942
 30
0.0
 40
0.3000000099999999
100
AcDbArc
 50
256.816519983147
 51
0.0000019831386408
  0
LINE
  5
1A9BE
330
18
100
AcDbEntity
  8
01
100
AcDbLine
 10
2631.153073685369
 20
-299.4375446666397
 30
0.0
 11
2631.153073662063
 21
-298.7641423599305
 31
0.0
  0
LINE
  5
1A9BF
330
18
100
AcDbEntity
  8
01
100
AcDbLine
 10
2638.153073685369
 20
-299.4375444243576
 30
0.0
 11
2638.153073662063
 21
-298.7641423599305
 31
0.0
  0
ARC
  5
1A9C0
330
18
100
AcDbEntity
  8
01
100
AcDbCircle
 10
2634.665361053245
 20
-294.5911591077208
 30
0.0
 40
5.970892950694182
100
AcDbArc
 50
283.1278047888422
 51
305.7407782610029
  0
LINE
  5
1A9C1
330
18
100
AcDbEntity
  8
01
100
AcDbLine
 10
2635.653073708807
 20
-300.1146929703361
 30
0.0
 11
2635.653073662063
 21
-298.7641423599305
 31
0.0
  0
ARC
  5
1A9C2
330
18
100
AcDbEntity
  8
01
100
AcDbCircle
 10
2638.153074982993
 20
-239.8641653041389
 30
0.0
 40
1.0
100
AcDbArc
 50
180.0
 51
270.0
  0
LINE
  5
1A9C3
330
18
100
AcDbEntity
  8
01
100
AcDbLine
 10
2638.153074982994
 20
-240.8641653041389
 30
0.0
 11
2645.153079982992
 21
-240.864165304137
 31
0.0
  0
ARC
  5
1A9C4
330
18
100
AcDbEntity
  8
01
100
AcDbCircle
 10
2645.153079982992
 20
-241.364165304137
 30
0.0
 40
0.5
100
AcDbArc
 50
0.0
 51
90.0
  0
ARC
  5
1A9C5
330
18
100
AcDbEntity
  8
01
100
AcDbCircle
 10
2631.153074982991
 20
-239.864165304137
 30
0.0
 40
1.0
100
AcDbArc
 50
270.0
 51
0.0
  0
ARC
  5
1A9C6
330
18
100
AcDbEntity
  8
01
100
AcDbCircle
 10
2624.153079982992
 20
-241.364165304137
 30
0.0
 40
0.5
100
AcDbArc
 50
90.0
 51
180.0
  0
LINE
  5
1A9C7
330
18
100
AcDbEntity
  8
01
100
AcDbLine
 10
2632.153074982991
 20
-227.364142359934
 30
0.0
 11
2632.153074982991
 21
-239.864165304137
 31
0.0
  0
ARC
  5
1A9C8
330
18
100
AcDbEntity
  8
01
100
AcDbCircle
 10
2633.153074982991
 20
-227.3641423599322
 30
0.0
 40
1.0
100
AcDbArc
 50
90.0
 51
179.9999999999479
  0
LINE
  5
1A9C9
330
18
100
AcDbEntity
  8
01
100
AcDbLine
 10
2633.153074982991
 20
-226.3641423599304
 30
0.0
 11
2636.153074982991
 21
-226.3641423599304
 31
0.0
  0
ARC
  5
1A9CA
330
18
100
AcDbEntity
  8
01
100
AcDbCircle
 10
2636.153074982991
 20
-227.3641423599322
 30
0.0
 40
1.0
100
AcDbArc
 50
0.0
 51
90.0
  0
LINE
  5
1A9CB
330
18
100
AcDbEntity
  8
01
100
AcDbLine
 10
2637.153074982991
 20
-227.3641423599322
 30
0.0
 11
2637.153074982994
 21
-239.8641653041389
 31
0.0
  0
LINE
  5
1A9CC
330
18
100
AcDbEntity
  8
01
100
AcDbLine
 10
2624.153079982992
 20
-240.864165304137
 30
0.0
 11
2631.153074982991
 21
-240.864165304137
 31
0.0
  0
LINE
  5
1A9CD
330
18
100
AcDbEntity
  8
01
100
AcDbLine
 10
2623.653079982992
 20
-241.364165304137
 30
0.0
 11
2623.653079982992
 21
-241.7641423599305
 31
0.0
  0
LINE
  5
1A9CE
330
18
100
AcDbEntity
  8
01
100
AcDbLine
 10
2645.653079982992
 20
-241.364165304137
 30
0.0
 11
2645.653079982992
 21
-241.7641423599305
 31
0.0
  0
LINE
  5
1A9D0
330
18
100
AcDbEntity
  8
01
100
AcDbLine
 10
2578.652958643255
 20
-462.2641423589016
 30
0.0
 11
2592.652958643255
 21
-462.2641423589016
 31
0.0
  0
LINE
  5
1A9D1
330
18
100
AcDbEntity
  8
01
100
AcDbLine
 10
2324.653078982999
 20
-540.2641423589021
 30
0.0
 11
2264.653078982999
 21
-540.2641423589021
 31
0.0
  0
LINE
  5
1A9D2
330
18
100
AcDbEntity
  8
01
100
AcDbLine
 10
2294.653078982999
 20
-510.2641423589021
 30
0.0
 11
2294.653078982999
 21
-570.2641423589021
 31
0.0
  0
LINE
  5
1A9D3
330
18
100
AcDbEntity
  8
01
100
AcDbLine
 10
2583.653842825315
 20
-250.2641423599302
 30
0.0
 11
2737.408222980348
 21
-250.2641423599302
 31
0.0
  0
LINE
  5
1A9D6
330
18
100
AcDbEntity
  8
01
  6
BYBLOCK
100
AcDbLine
 10
2583.653842825315
 20
-250.2641423599302
 30
0.0
 11
2583.653842825315
 21
-290.2641423599302
 31
0.0
  0
LINE
  5
1A9DC
330
18
100
AcDbEntity
  8
01
100
AcDbLine
 10
2634.652958643253
 20
-255.2641423609589
 30
0.0
 11
2634.652958643253
 21
-224.3460621717099
 31
0.0
  0
LINE
  5
1A9DD
330
18
100
AcDbEntity
  8
01
100
AcDbLine
 10
2609.652958643255
 20
-250.2641423599293
 30
0.0
 11
2659.652958643255
 21
-250.2641423599316
 31
0.0
  0
LINE
  5
1A9DE
330
18
100
AcDbEntity
  8
01
100
AcDbLine
 10
2610.152958643252
 20
-241.7641423599293
 30
0.0
 11
2659.152958643255
 21
-241.764142359933
 31
0.0
  0
LINE
  5
1A9DF
330
18
100
AcDbEntity
  8
01
100
AcDbLine
 10
2659.652958643255
 20
-250.2641423599316
 30
0.0
 11
2659.652958643255
 21
-242.264142359933
 31
0.0
  0
ARC
  5
1A9E0
330
18
100
AcDbEntity
  8
01
100
AcDbCircle
 10
2659.152958643255
 20
-242.264142359933
 30
0.0
 40
0.5
100
AcDbArc
 50
0.0
 51
90.0
  0
LINE
  5
1A9E1
330
18
100
AcDbEntity
  8
01
100
AcDbLine
 10
2609.652958643255
 20
-250.2641423599293
 30
0.0
 11
2609.652958643252
 21
-242.2641423599298
 31
0.0
  0
ARC
  5
1A9E2
330
18
100
AcDbEntity
  8
01
100
AcDbCircle
 10
2610.152958643252
 20
-242.2641423599293
 30
0.0
 40
0.5
100
AcDbArc
 50
90.0
 51
180.0
  0
LINE
  5
1A9E3
330
18
100
AcDbEntity
  8
01
  6
BYBLOCK
100
AcDbLine
 10
2585.152958643255
 20
-454.3641423589015
 30
0.0
 11
2585.152958643255
 21
-584.1641423589015
 31
0.0
  0
LINE
  5
1A9E4
330
18
100
AcDbEntity
  8
01
  6
BYBLOCK
100
AcDbLine
 10
2585.152958643255
 20
-583.2641423589016
 30
0.0
 11
2587.652958643255
 21
-583.2641423589016
 31
0.0
  0
LINE
  5
1A9E5
330
18
100
AcDbEntity
  8
01
  6
BYBLOCK
100
AcDbLine
 10
2586.352958643256
 20
-482.2641423589016
 30
0.0
 11
2609.652958643256
 21
-482.2641423589016
 31
0.0
  0
LINE
  5
1A9E6
330
18
100
AcDbEntity
  8
01
  6
BYBLOCK
100
AcDbLine
 10
2587.652958643255
 20
-583.2641423589016
 30
0.0
 11
2587.652958643255
 21
-566.7611986337492
 31
0.0
  0
LINE
  5
1A9E7
330
18
100
AcDbEntity
  8
01
  6
BYBLOCK
100
AcDbLine
 10
2583.652958643255
 20
-454.3641423589015
 30
0.0
 11
2583.652958643255
 21
-584.1641423589015
 31
0.0
  0
LINE
  5
1A9E8
330
18
100
AcDbEntity
  8
01
  6
BYBLOCK
100
AcDbLine
 10
2583.652958643255
 20
-584.1641423589015
 30
0.0
 11
2585.152958643255
 21
-584.1641423589015
 31
0.0
  0
LINE
  5
1A9E9
330
18
100
AcDbEntity
  8
01
  6
BYBLOCK
100
AcDbLine
 10
2585.152958643255
 20
-455.2641423589016
 30
0.0
 11
2587.652958643255
 21
-455.2641423589016
 31
0.0
  0
LINE
  5
1A9EA
330
18
100
AcDbEntity
  8
01
  6
BYBLOCK
100
AcDbLine
 10
2583.652958643255
 20
-454.3641423589015
 30
0.0
 11
2585.152958643255
 21
-454.3641423589015
 31
0.0
  0
LINE
  5
1A9EB
330
18
100
AcDbEntity
  8
01
  6
BYBLOCK
100
AcDbLine
 10
2585.152958643255
 20
-479.2641423589016
 30
0.0
 11
2586.352958643256
 21
-479.2641423589016
 31
0.0
  0
LINE
  5
1A9EC
330
18
100
AcDbEntity
  8
01
  6
BYBLOCK
100
AcDbLine
 10
2601.552958643255
 20
-482.2641423589016
 30
0.0
 11
2609.652958643256
 21
-482.2641423589016
 31
0.0
  0
LINE
  5
1A9ED
330
18
100
AcDbEntity
  8
01
  6
BYBLOCK
100
AcDbLine
 10
2586.352958643256
 20
-473.5641423589013
 30
0.0
 11
2586.352958643255
 21
-564.9641423589014
 31
0.0
  0
LINE
  5
1A9EE
330
18
100
AcDbEntity
  8
01
  6
BYBLOCK
100
AcDbLine
 10
2586.452958643255
 20
-583.2641423589016
 30
0.0
 11
2586.452958643255
 21
-566.6641423589015
 31
0.0
  0
LINE
  5
1A9EF
330
18
100
AcDbEntity
  8
01
  6
BYBLOCK
100
AcDbLine
 10
2586.452958643255
 20
-566.6641423589015
 30
0.0
 11
2585.504430505831
 21
-565.7156142214776
 31
0.0
  0
LINE
  5
1A9F0
330
18
100
AcDbEntity
  8
01
  6
BYBLOCK
100
AcDbLine
 10
2587.301486780679
 20
-565.9126704963253
 30
0.0
 11
2586.352958643256
 21
-564.9641423589014
 31
0.0
  0
ARC
  5
1A9F1
330
18
100
AcDbEntity
  8
01
  6
BYBLOCK
100
AcDbCircle
 10
2586.452958643255
 20
-566.7611986337492
 30
0.0
 40
1.2
100
AcDbArc
 50
0.0
 51
44.99999999998619
  0
ARC
  5
1A9F2
330
18
100
AcDbEntity
  8
01
  6
BYBLOCK
100
AcDbCircle
 10
2586.352958643256
 20
-564.8670860840537
 30
0.0
 40
1.2
100
AcDbArc
 50
180.0
 51
224.9999999999862
  0
LINE
  5
1A9F3
330
18
100
AcDbEntity
  8
01
  6
BYBLOCK
100
AcDbLine
 10
2587.652958643255
 20
-455.2641423589016
 30
0.0
 11
2587.652958643255
 21
-471.7670860840537
 31
0.0
  0
LINE
  5
1A9F4
330
18
100
AcDbEntity
  8
01
  6
BYBLOCK
100
AcDbLine
 10
2586.452958643255
 20
-455.2641423589016
 30
0.0
 11
2586.452958643255
 21
-471.8641423589015
 31
0.0
  0
LINE
  5
1A9F5
330
18
100
AcDbEntity
  8
01
  6
BYBLOCK
100
AcDbLine
 10
2586.452958643255
 20
-471.8641423589015
 30
0.0
 11
2585.504430505831
 21
-472.8126704963254
 31
0.0
  0
LINE
  5
1A9F6
330
18
100
AcDbEntity
  8
01
  6
BYBLOCK
100
AcDbLine
 10
2587.301486780679
 20
-472.6156142214777
 30
0.0
 11
2586.352958643256
 21
-473.5641423589016
 31
0.0
  0
ARC
  5
1A9F7
330
18
100
AcDbEntity
  8
01
  6
BYBLOCK
100
AcDbCircle
 10
2586.452958643255
 20
-471.7670860840537
 30
0.0
 40
1.2
100
AcDbArc
 50
315.0000000000138
 51
0.0
  0
ARC
  5
1A9F8
330
18
100
AcDbEntity
  8
01
  6
BYBLOCK
100
AcDbCircle
 10
2586.352958643256
 20
-473.6611986337493
 30
0.0
 40
1.2
100
AcDbArc
 50
135.0000000000138
 51
180.0
  0
LINE
  5
1A9F9
330
18
100
AcDbEntity
  8
01
  6
BYBLOCK
100
AcDbLine
 10
2586.352958643256
 20
-556.2641423589018
 30
0.0
 11
2609.652958643256
 21
-556.2641423589016
 31
0.0
  0
ARC
  5
1A9FA
330
18
100
AcDbEntity
  8
01
  6
BYBLOCK
100
AcDbCircle
 10
2586.753842825315
 20
-266.7028918169303
 30
0.0
 40
1.6
100
AcDbArc
 50
115.9444797719929
 51
180.0
  0
ARC
  5
1A9FB
330
18
100
AcDbEntity
  8
01
  6
BYBLOCK
100
AcDbCircle
 10
2586.753842825315
 20
-273.8253929029302
 30
0.0
 40
1.6
100
AcDbArc
 50
180.0
 51
244.0555202280072
  0
ARC
  5
1A9FC
330
18
100
AcDbEntity
  8
01
  6
BYBLOCK
100
AcDbCircle
 10
2586.053842825315
 20
-275.1028918169302
 30
0.0
 40
1.6
100
AcDbArc
 50
0.0
 51
64.05552022800715
  0
ARC
  5
1A9FD
330
18
100
AcDbEntity
  8
01
  6
BYBLOCK
100
AcDbCircle
 10
2586.053842825315
 20
-265.4253929029303
 30
0.0
 40
1.6
100
AcDbArc
 50
295.9444797719929
 51
0.0
  0
LINE
  5
1A9FE
330
18
100
AcDbEntity
  8
01
  6
BYBLOCK
100
AcDbLine
 10
2587.653842825315
 20
-265.4253929029303
 30
0.0
 11
2587.653842825316
 21
-258.0641423599302
 31
0.0
  0
LINE
  5
1A9FF
330
18
100
AcDbEntity
  8
01
  6
BYBLOCK
100
AcDbLine
 10
2586.753842825315
 20
-273.6641423599303
 30
0.0
 11
2586.753842825315
 21
-266.8641423599302
 31
0.0
  0
LINE
  5
1AA00
330
18
100
AcDbEntity
  8
01
  6
BYBLOCK
100
AcDbLine
 10
2587.653842825315
 20
-282.2641423599302
 30
0.0
 11
2587.653842825315
 21
-275.1028918169302
 31
0.0
  0
LINE
  5
1AA01
330
18
100
AcDbEntity
  8
01
  6
BYBLOCK
100
AcDbLine
 10
2586.053842825315
 20
-265.2641423599302
 30
0.0
 11
2586.053842825315
 21
-258.0641423599302
 31
0.0
  0
LINE
  5
1AA02
330
18
100
AcDbEntity
  8
01
  6
BYBLOCK
100
AcDbLine
 10
2586.053842825315
 20
-275.2641423599302
 30
0.0
 11
2586.053842825315
 21
-282.3641423599302
 31
0.0
  0
ARC
  5
1AA03
330
18
100
AcDbEntity
  8
01
  6
BYBLOCK
100
AcDbCircle
 10
2651.053842825315
 20
-262.3641423599302
 30
0.0
 40
1.6
100
AcDbArc
 50
0.0
 51
90.0
  0
LINE
  5
1AA04
330
18
100
AcDbEntity
  8
01
  6
BYBLOCK
100
AcDbLine
 10
2585.153842825316
 20
-257.8641423599302
 30
0.0
 11
2585.153842825315
 21
-282.6641423599301
 31
0.0
  0
LINE
  5
1AA05
330
18
100
AcDbEntity
  8
01
  6
BYBLOCK
100
AcDbLine
 10
2651.053842825315
 20
-260.7641423599302
 30
0.0
 11
2587.653842825315
 21
-260.7641423599302
 31
0.0
  0
LINE
  5
1AA06
330
18
100
AcDbEntity
  8
01
  6
BYBLOCK
100
AcDbLine
 10
2651.053842825315
 20
-277.9641423599303
 30
0.0
 11
2651.053842825315
 21
-260.7641423599302
 31
0.0
  0
LINE
  5
1AA07
330
18
100
AcDbEntity
  8
01
  6
BYBLOCK
100
AcDbLine
 10
2652.653842825315
 20
-279.5641423599302
 30
0.0
 11
2652.653842825315
 21
-262.3641423599302
 31
0.0
  0
LINE
  5
1AA08
330
18
100
AcDbEntity
  8
01
  6
BYBLOCK
100
AcDbLine
 10
2585.153842825316
 20
-258.0641423599302
 30
0.0
 11
2587.653842825316
 21
-258.0641423599302
 31
0.0
  0
LINE
  5
1AA09
330
18
100
AcDbEntity
  8
01
  6
BYBLOCK
100
AcDbLine
 10
2587.653842825315
 20
-282.2641423599302
 30
0.0
 11
2586.053842825315
 21
-282.2641423599302
 31
0.0
  0
LINE
  5
1AA0A
330
18
100
AcDbEntity
  8
01
  6
BYBLOCK
100
AcDbLine
 10
2586.053842825315
 20
-282.3641423599302
 30
0.0
 11
2585.153842825315
 21
-282.3641423599302
 31
0.0
  0
ARC
  5
1AA0B
330
18
100
AcDbEntity
  8
01
  6
BYBLOCK
100
AcDbCircle
 10
2582.354437752714
 20
-275.9641423599296
 30
0.0
 40
0.3000000000000051
100
AcDbArc
 50
232.8678058730366
 51
270.0
  0
LINE
  5
1AA0C
330
18
100
AcDbEntity
  8
01
  6
BYBLOCK
100
AcDbLine
 10
2583.153842825316
 20
-276.2641423599296
 30
0.0
 11
2582.354437752714
 21
-276.2641423599296
 31
0.0
  0
LINE
  5
1AA0D
330
18
100
AcDbEntity
  8
01
  6
BYBLOCK
100
AcDbLine
 10
2572.753842825315
 20
-266.5911534937254
 30
0.0
 11
2572.753842825315
 21
-266.7617755492745
 31
0.0
  0
ARC
  5
1AA0E
330
18
100
AcDbEntity
  8
01
  6
BYBLOCK
100
AcDbCircle
 10
2573.053842825315
 20
-266.7617755492745
 30
0.0
 40
0.3
100
AcDbArc
 50
180.0
 51
217.7405295629614
  0
ARC
  5
1AA0F
330
18
100
AcDbEntity
  8
01
  6
BYBLOCK
100
AcDbCircle
 10
2612.356143424599
 20
-236.3410726053337
 30
0.0
 40
50.00000000000002
100
AcDbArc
 50
217.7405295629927
 51
232.8678058729714
  0
LINE
  5
1AA10
330
18
100
AcDbEntity
  8
01
  6
BYBLOCK
100
AcDbLine
 10
2572.553842825315
 20
-265.4641423599301
 30
0.0
 11
2572.553842825315
 21
-264.7641423599302
 31
0.0
  0
ARC
  5
1AA11
330
18
100
AcDbEntity
  8
01
  6
BYBLOCK
100
AcDbCircle
 10
2573.053842825315
 20
-264.7641423599302
 30
0.0
 40
0.5000000000000142
100
AcDbArc
 50
90.0
 51
180.0
  0
LINE
  5
1AA12
330
18
100
AcDbEntity
  8
01
  6
BYBLOCK
100
AcDbLine
 10
2583.153842825316
 20
-264.2641423599302
 30
0.0
 11
2573.053842825315
 21
-264.2641423599302
 31
0.0
  0
LINE
  5
1AA13
330
18
100
AcDbEntity
  8
01
  6
BYBLOCK
100
AcDbLine
 10
2572.553842825315
 20
-265.8428220163705
 30
0.0
 11
2572.553842825315
 21
-265.4641423599301
 31
0.0
  0
SPLINE
  5
1AA14
330
18
100
AcDbEntity
  8
01
  6
BYBLOCK
100
AcDbSpline
210
0.0
220
0.0
230
1.0
 70
     8
 71
     3
 72
     8
 73
     4
 74
     0
 42
0.0000000001
 43
0.0000000001
 40
0.0
 40
0.0
 40
0.0
 40
0.0
 40
1.0
 40
1.0
 40
1.0
 40
1.0
 10
2572.57957536658
 20
-266.1194724458196
 30
0.0
 10
2572.562107480469
 20
-266.0263862499392
 30
0.0
 10
2572.553842825315
 20
-265.9331202390476
 30
0.0
 10
2572.553842825315
 20
-265.8428220163701
 30
0.0
  0
ARC
  5
1AA15
330
18
100
AcDbEntity
  8
01
  6
BYBLOCK
100
AcDbCircle
 10
2574.053842825315
 20
-265.8428220163705
 30
0.0
 40
1.499999999999998
100
AcDbArc
 50
190.628112987605
 51
224.9999999999908
  0
LINE
  5
1AA16
330
18
100
AcDbEntity
  8
01
  6
BYBLOCK
100
AcDbLine
 10
2583.653842825315
 20
-263.4141423599301
 30
0.0
 11
2583.153842825316
 21
-263.4141423599301
 31
0.0
  0
LINE
  5
1AA17
330
18
100
AcDbEntity
  8
01
  6
BYBLOCK
100
AcDbLine
 10
2583.153842825316
 20
-277.1141423599302
 30
0.0
 11
2583.653842825315
 21
-277.1141423599302
 31
0.0
  0
LINE
  5
1AA18
330
18
100
AcDbEntity
  8
01
  6
BYBLOCK
100
AcDbLine
 10
2583.153842825316
 20
-277.1141423599302
 30
0.0
 11
2583.153842825316
 21
-263.4141423599301
 31
0.0
  0
LINE
  5
1AA19
330
18
100
AcDbEntity
  8
01
  6
BYBLOCK
100
AcDbLine
 10
2583.653842825315
 20
-257.8641423599302
 30
0.0
 11
2585.153842825316
 21
-257.8641423599302
 31
0.0
  0
LINE
  5
1AA1A
330
18
100
AcDbEntity
  8
01
  6
BYBLOCK
100
AcDbLine
 10
2583.653842825315
 20
-282.6641423599301
 30
0.0
 11
2585.153842825315
 21
-282.6641423599301
 31
0.0
  0
LINE
  5
1AA1B
330
18
100
AcDbEntity
  8
01
  6
BYBLOCK
100
AcDbLine
 10
2583.653842825315
 20
-282.6641423599301
 30
0.0
 11
2583.653842825315
 21
-257.8641423599302
 31
0.0
  0
LINE
  5
1AA1C
330
18
100
AcDbEntity
  8
01
  6
BYBLOCK
100
AcDbLine
 10
2652.653842825315
 20
-277.9641423599303
 30
0.0
 11
2587.653842825315
 21
-277.9641423599303
 31
0.0
  0
LINE
  5
1AA1D
330
18
100
AcDbEntity
  8
01
  6
BYBLOCK
100
AcDbLine
 10
2652.653842825315
 20
-279.5641423599302
 30
0.0
 11
2602.253842825315
 21
-279.5641423599302
 31
0.0
  0
LINE
  5
1AA1E
330
18
100
AcDbEntity
  8
01
  6
BYBLOCK
100
AcDbLine
 10
2605.091101125518
 20
-279.5641423599302
 30
0.0
 11
2587.653842825315
 21
-279.5641423599302
 31
0.0
  0
LINE
  5
1AA1F
330
18
100
AcDbEntity
  8
01
  6
BYBLOCK
100
AcDbLine
 10
2582.207396215908
 20
-276.1176957505236
 30
0.0
 11
2572.993182653535
 21
-266.9034821881505
 31
0.0
  0
ARC
  5
1AA20
330
18
100
AcDbEntity
  8
01
  6
BYBLOCK
100
AcDbCircle
 10
2582.560949606501
 20
-275.7641423599302
 30
0.0
 40
0.5
100
AcDbArc
 50
224.9999999999908
 51
270.0
  0
LINE
  5
1AA21
330
18
100
AcDbEntity
  8
01
  6
BYBLOCK
100
AcDbLine
 10
2583.153842825316
 20
-276.2641423599302
 30
0.0
 11
2582.560949606501
 21
-276.2641423599302
 31
0.0
  0
LINE
  5
1AA23
330
18
100
AcDbEntity
  8
01
  6
BYBLOCK
100
AcDbLine
 10
2572.652958643256
 20
-509.2324720918855
 30
0.0
 11
2572.652958643256
 21
-527.2958126258914
 31
0.0
  0
LINE
  5
1AA24
330
18
100
AcDbEntity
  8
01
  6
BYBLOCK
100
AcDbLine
 10
2576.945851862069
 20
-508.2641423588884
 30
0.0
 11
2583.652958643256
 21
-508.2641423588884
 31
0.0
  0
LINE
  5
1AA25
330
18
100
AcDbEntity
  8
01
  6
BYBLOCK
100
AcDbLine
 10
2576.945851862069
 20
-528.2641423588884
 30
0.0
 11
2583.652958643256
 21
-528.2641423588884
 31
0.0
  0
LINE
  5
1AA26
330
18
100
AcDbEntity
  8
01
  6
BYBLOCK
100
AcDbLine
 10
2582.445851862069
 20
-513.0141423588884
 30
0.0
 11
2582.445851862069
 21
-523.5141423588884
 31
0.0
  0
ARC
  5
1AA27
330
18
100
AcDbEntity
  8
01
  6
BYBLOCK
100
AcDbCircle
 10
2576.945851862069
 20
-518.2641423588884
 30
0.0
 40
10.00000000000009
100
AcDbArc
 50
53.1301023541625
 51
115.4224671781131
  0
ARC
  5
1AA28
330
18
100
AcDbEntity
  8
01
  6
BYBLOCK
100
AcDbCircle
 10
2576.945851862069
 20
-518.2641423588882
 30
0.0
 40
10.00000000000009
100
AcDbArc
 50
244.5775328218868
 51
306.8698976458375
  0
LINE
  5
1AA29
330
18
100
AcDbEntity
  8
01
  6
BYBLOCK
100
AcDbLine
 10
2582.945851862069
 20
-510.2641423588884
 30
0.0
 11
2582.945851862069
 21
-526.2641423588884
 31
0.0
  0
LINE
  5
1AA2A
330
18
100
AcDbEntity
  8
01
  6
BYBLOCK
100
AcDbLine
 10
2572.652958643256
 20
-513.0141423588884
 30
0.0
 11
2582.445851862069
 21
-513.0141423588884
 31
0.0
  0
LINE
  5
1AA2B
330
18
100
AcDbEntity
  8
01
  6
BYBLOCK
100
AcDbLine
 10
2572.652958643256
 20
-523.5141423588884
 30
0.0
 11
2582.445851862069
 21
-523.5141423588884
 31
0.0
  0
LINE
  5
1AA2C
330
18
100
AcDbEntity
  8
01
  6
BYBLOCK
100
AcDbLine
 10
2458.253074983
 20
-454.3641423589022
 30
0.0
 11
2471.053074983
 21
-454.3641423589022
 31
0.0
  0
LINE
  5
1AA2D
330
18
100
AcDbEntity
  8
01
  6
BYBLOCK
100
AcDbLine
 10
2458.253074983
 20
-584.1641423589022
 30
0.0
 11
2471.053074983
 21
-584.1641423589022
 31
0.0
  0
LINE
  5
1AA2E
330
18
100
AcDbEntity
  8
01
  6
BYBLOCK
100
AcDbLine
 10
2452.253074983
 20
-460.3641423589022
 30
0.0
 11
2452.253074983
 21
-578.1641423589022
 31
0.0
  0
LINE
  5
1AA2F
330
18
100
AcDbEntity
  8
01
  6
BYBLOCK
100
AcDbLine
 10
2477.053074983
 20
-460.3641423589022
 30
0.0
 11
2477.053074983
 21
-578.1641423589022
 31
0.0
  0
ARC
  5
1AA30
330
18
100
AcDbEntity
  8
01
  6
BYBLOCK
100
AcDbCircle
 10
2458.253074983
 20
-578.1641423589022
 30
0.0
 40
6.0
100
AcDbArc
 50
180.0
 51
270.0
  0
ARC
  5
1AA31
330
18
100
AcDbEntity
  8
01
  6
BYBLOCK
100
AcDbCircle
 10
2471.053074983
 20
-578.1641423589022
 30
0.0
 40
6.0
100
AcDbArc
 50
270.0
 51
0.0
  0
ARC
  5
1AA32
330
18
100
AcDbEntity
  8
01
  6
BYBLOCK
100
AcDbCircle
 10
2458.253074983
 20
-460.3641423589022
 30
0.0
 40
6.0
100
AcDbArc
 50
90.0
 51
180.0
  0
ARC
  5
1AA33
330
18
100
AcDbEntity
  8
01
  6
BYBLOCK
100
AcDbCircle
 10
2471.053074983
 20
-460.3641423589022
 30
0.0
 40
6.0
100
AcDbArc
 50
0.0
 51
90.0
  0
CIRCLE
  5
1AA34
330
18
100
AcDbEntity
  8
01
  6
BYBLOCK
100
AcDbCircle
 10
2464.653074983
 20
-576.2641423589021
 30
0.0
 40
2.75
  0
CIRCLE
  5
1AA35
330
18
100
AcDbEntity
  8
01
  6
BYBLOCK
100
AcDbCircle
 10
2464.653074983
 20
-576.2641423589021
 30
0.0
 40
4.25
  0
CIRCLE
  5
1AA36
330
18
100
AcDbEntity
  8
01
  6
BYBLOCK
100
AcDbCircle
 10
2464.653074983
 20
-462.2641423589023
 30
0.0
 40
2.75
  0
CIRCLE
  5
1AA37
330
18
100
AcDbEntity
  8
01
  6
BYBLOCK
100
AcDbCircle
 10
2464.653074983
 20
-462.2641423589023
 30
0.0
 40
4.25
  0
LINE
  5
1AA38
330
18
100
AcDbEntity
  8
1CENTER
100
AcDbLine
 10
2470.528100390906
 20
-576.2641423589023
 30
0.0
 11
2458.778049575094
 21
-576.2641423589023
 31
0.0
  0
LINE
  5
1AA39
330
18
100
AcDbEntity
  8
1CENTER
100
AcDbLine
 10
2464.653074983
 20
-570.3891169509959
 30
0.0
 11
2464.653074983
 21
-582.1391677668084
 31
0.0
  0
LINE
  5
1AA3A
330
18
100
AcDbEntity
  8
1CENTER
100
AcDbLine
 10
2470.528100390906
 20
-462.2641423589023
 30
0.0
 11
2458.778049575094
 21
-462.2641423589023
 31
0.0
  0
LINE
  5
1AA3B
330
18
100
AcDbEntity
  8
1CENTER
100
AcDbLine
 10
2464.653074983
 20
-456.3891169509959
 30
0.0
 11
2464.653074983
 21
-468.1391677668084
 31
0.0
  0
ARC
  5
1AA3C
330
18
100
AcDbEntity
  8
01
  6
BYBLOCK
100
AcDbCircle
 10
2464.653074983
 20
-518.2641423589021
 30
0.0
 40
10.15
100
AcDbArc
 50
231.9925780701392
 51
308.0074219298607
  0
LINE
  5
1AA3D
330
18
100
AcDbEntity
  8
01
  6
BYBLOCK
100
AcDbLine
 10
2458.403074983
 20
-510.2666427496492
 30
0.0
 11
2458.403074983
 21
-526.2616419681549
 31
0.0
  0
LINE
  5
1AA3E
330
18
100
AcDbEntity
  8
01
  6
BYBLOCK
100
AcDbLine
 10
2470.903074983
 20
-510.2666427496492
 30
0.0
 11
2470.903074983
 21
-526.2616419681549
 31
0.0
  0
ARC
  5
1AA3F
330
18
100
AcDbEntity
  8
01
  6
BYBLOCK
100
AcDbCircle
 10
2464.653074983
 20
-518.2641423589021
 30
0.0
 40
10.15
100
AcDbArc
 50
51.99257807013929
 51
128.0074219298607
  0
LINE
  5
1AA40
330
18
100
AcDbEntity
  8
01
  6
BYBLOCK
100
AcDbLine
 10
2460.153074983
 20
-513.0141423589021
 30
0.0
 11
2460.153074983
 21
-523.5141423589021
 31
0.0
  0
LINE
  5
1AA41
330
18
100
AcDbEntity
  8
01
  6
BYBLOCK
100
AcDbLine
 10
2470.153074983
 20
-513.0141423589021
 30
0.0
 11
2470.153074983
 21
-523.5141423589021
 31
0.0
  0
LINE
  5
1AA42
330
18
100
AcDbEntity
  8
01
  6
BYBLOCK
100
AcDbLine
 10
2460.653074983
 20
-508.9355572571837
 30
0.0
 11
2460.653074983
 21
-513.0141423589023
 31
0.0
  0
LINE
  5
1AA43
330
18
100
AcDbEntity
  8
01
  6
BYBLOCK
100
AcDbLine
 10
2459.153074983
 20
-513.0141423589023
 30
0.0
 11
2459.153074983
 21
-523.5141423589021
 31
0.0
  0
LINE
  5
1AA44
330
18
100
AcDbEntity
  8
01
  6
BYBLOCK
100
AcDbLine
 10
2460.653074983
 20
-523.5141423589021
 30
0.0
 11
2460.653074983
 21
-527.5927274606204
 31
0.0
  0
LINE
  5
1AA45
330
18
100
AcDbEntity
  8
01
  6
BYBLOCK
100
AcDbLine
 10
2459.153074983
 20
-513.0141423589021
 30
0.0
 11
2470.153074983
 21
-513.0141423589021
 31
0.0
  0
LINE
  5
1AA46
330
18
100
AcDbEntity
  8
01
  6
BYBLOCK
100
AcDbLine
 10
2459.153074983
 20
-523.5141423589021
 30
0.0
 11
2470.153074983
 21
-523.5141423589021
 31
0.0
  0
LINE
  5
1AA48
330
18
100
AcDbEntity
  8
01
100
AcDbLine
 10
2444.653191322743
 20
-420.2641423589018
 30
0.0
 11
2444.653191322743
 21
-610.2641423589021
 31
0.0
  0
LINE
  5
1AA49
330
18
100
AcDbEntity
  8
01
100
AcDbLine
 10
2578.652958643543
 20
-576.2641423586128
 30
0.0
 11
2592.652958643543
 21
-576.2641423586128
 31
0.0
  0
LINE
  5
1AA4A
330
18
100
AcDbEntity
  8
01
100
AcDbLine
 10
2350.653191322745
 20
-462.2641423589016
 30
0.0
 11
2336.653191322745
 21
-462.2641423589016
 31
0.0
  0
LINE
  5
1AA4B
330
18
100
AcDbEntity
  8
01
  6
BYBLOCK
100
AcDbLine
 10
2344.153191322745
 20
-454.3641423589015
 30
0.0
 11
2344.153191322745
 21
-584.1641423589015
 31
0.0
  0
LINE
  5
1AA4C
330
18
100
AcDbEntity
  8
01
  6
BYBLOCK
100
AcDbLine
 10
2344.153191322745
 20
-583.2641423589016
 30
0.0
 11
2341.653191322745
 21
-583.2641423589016
 31
0.0
  0
LINE
  5
1AA4D
330
18
100
AcDbEntity
  8
01
  6
BYBLOCK
100
AcDbLine
 10
2342.953191322744
 20
-482.2641423589016
 30
0.0
 11
2319.653191322745
 21
-482.2641423589016
 31
0.0
  0
LINE
  5
1AA4E
330
18
100
AcDbEntity
  8
01
  6
BYBLOCK
100
AcDbLine
 10
2341.653191322745
 20
-583.2641423589016
 30
0.0
 11
2341.653191322745
 21
-566.7611986337492
 31
0.0
  0
LINE
  5
1AA4F
330
18
100
AcDbEntity
  8
01
  6
BYBLOCK
100
AcDbLine
 10
2345.653191322745
 20
-454.3641423589015
 30
0.0
 11
2345.653191322745
 21
-584.1641423589015
 31
0.0
  0
LINE
  5
1AA50
330
18
100
AcDbEntity
  8
01
  6
BYBLOCK
100
AcDbLine
 10
2345.653191322745
 20
-584.1641423589015
 30
0.0
 11
2344.153191322745
 21
-584.1641423589015
 31
0.0
  0
LINE
  5
1AA51
330
18
100
AcDbEntity
  8
01
  6
BYBLOCK
100
AcDbLine
 10
2344.153191322745
 20
-455.2641423589016
 30
0.0
 11
2341.653191322745
 21
-455.2641423589016
 31
0.0
  0
LINE
  5
1AA52
330
18
100
AcDbEntity
  8
01
  6
BYBLOCK
100
AcDbLine
 10
2345.653191322745
 20
-454.3641423589015
 30
0.0
 11
2344.153191322745
 21
-454.3641423589015
 31
0.0
  0
LINE
  5
1AA53
330
18
100
AcDbEntity
  8
01
  6
BYBLOCK
100
AcDbLine
 10
2344.153191322745
 20
-479.2641423589016
 30
0.0
 11
2342.953191322744
 21
-479.2641423589016
 31
0.0
  0
LINE
  5
1AA54
330
18
100
AcDbEntity
  8
01
  6
BYBLOCK
100
AcDbLine
 10
2327.753191322744
 20
-482.2641423589016
 30
0.0
 11
2319.653191322745
 21
-482.2641423589016
 31
0.0
  0
LINE
  5
1AA55
330
18
100
AcDbEntity
  8
01
  6
BYBLOCK
100
AcDbLine
 10
2342.953191322744
 20
-473.5641423589013
 30
0.0
 11
2342.953191322745
 21
-564.9641423589014
 31
0.0
  0
LINE
  5
1AA56
330
18
100
AcDbEntity
  8
01
  6
BYBLOCK
100
AcDbLine
 10
2342.853191322745
 20
-583.2641423589016
 30
0.0
 11
2342.853191322745
 21
-566.6641423589015
 31
0.0
  0
LINE
  5
1AA57
330
18
100
AcDbEntity
  8
01
  6
BYBLOCK
100
AcDbLine
 10
2342.853191322745
 20
-566.6641423589015
 30
0.0
 11
2343.801719460168
 21
-565.7156142214776
 31
0.0
  0
LINE
  5
1AA58
330
18
100
AcDbEntity
  8
01
  6
BYBLOCK
100
AcDbLine
 10
2342.004663185321
 20
-565.9126704963253
 30
0.0
 11
2342.953191322744
 21
-564.9641423589014
 31
0.0
  0
ARC
  5
1AA59
330
18
100
AcDbEntity
  8
01
  6
BYBLOCK
100
AcDbCircle
 10
2342.853191322745
 20
-566.7611986337492
 30
0.0
 40
1.2
100
AcDbArc
 50
135.0000000000138
 51
180.0
  0
ARC
  5
1AA5A
330
18
100
AcDbEntity
  8
01
  6
BYBLOCK
100
AcDbCircle
 10
2342.953191322744
 20
-564.8670860840537
 30
0.0
 40
1.2
100
AcDbArc
 50
315.0000000000138
 51
0.0
  0
LINE
  5
1AA5B
330
18
100
AcDbEntity
  8
01
  6
BYBLOCK
100
AcDbLine
 10
2341.653191322745
 20
-455.2641423589016
 30
0.0
 11
2341.653191322745
 21
-471.7670860840537
 31
0.0
  0
LINE
  5
1AA5C
330
18
100
AcDbEntity
  8
01
  6
BYBLOCK
100
AcDbLine
 10
2342.853191322745
 20
-455.2641423589016
 30
0.0
 11
2342.853191322745
 21
-471.8641423589015
 31
0.0
  0
LINE
  5
1AA5D
330
18
100
AcDbEntity
  8
01
  6
BYBLOCK
100
AcDbLine
 10
2342.853191322745
 20
-471.8641423589015
 30
0.0
 11
2343.801719460168
 21
-472.8126704963254
 31
0.0
  0
LINE
  5
1AA5E
330
18
100
AcDbEntity
  8
01
  6
BYBLOCK
100
AcDbLine
 10
2342.004663185321
 20
-472.6156142214777
 30
0.0
 11
2342.953191322744
 21
-473.5641423589016
 31
0.0
  0
ARC
  5
1AA5F
330
18
100
AcDbEntity
  8
01
  6
BYBLOCK
100
AcDbCircle
 10
2342.853191322745
 20
-471.7670860840537
 30
0.0
 40
1.2
100
AcDbArc
 50
180.0
 51
224.9999999999862
  0
ARC
  5
1AA60
330
18
100
AcDbEntity
  8
01
  6
BYBLOCK
100
AcDbCircle
 10
2342.953191322744
 20
-473.6611986337493
 30
0.0
 40
1.2
100
AcDbArc
 50
0.0
 51
44.99999999998619
  0
LINE
  5
1AA61
330
18
100
AcDbEntity
  8
01
  6
BYBLOCK
100
AcDbLine
 10
2342.953191322744
 20
-556.2641423589018
 30
0.0
 11
2319.653191322745
 21
-556.2641423589016
 31
0.0
  0
LINE
  5
1AA62
330
18
100
AcDbEntity
  8
01
  6
BYBLOCK
100
AcDbLine
 10
2356.653191322744
 20
-509.2324720918855
 30
0.0
 11
2356.653191322744
 21
-527.2958126258914
 31
0.0
  0
LINE
  5
1AA63
330
18
100
AcDbEntity
  8
01
  6
BYBLOCK
100
AcDbLine
 10
2352.360298103931
 20
-508.2641423588884
 30
0.0
 11
2345.653191322744
 21
-508.2641423588884
 31
0.0
  0
LINE
  5
1AA64
330
18
100
AcDbEntity
  8
01
  6
BYBLOCK
100
AcDbLine
 10
2352.360298103931
 20
-528.2641423588884
 30
0.0
 11
2345.653191322744
 21
-528.2641423588884
 31
0.0
  0
ARC
  5
1AA65
330
18
100
AcDbEntity
  8
01
  6
BYBLOCK
100
AcDbCircle
 10
2352.360298103931
 20
-518.2641423588884
 30
0.0
 40
10.00000000000009
100
AcDbArc
 50
64.57753282188686
 51
90.0
  0
LINE
  5
1AA66
330
18
100
AcDbEntity
  8
01
100
AcDbLine
 10
2350.653191322457
 20
-576.2641423586128
 30
0.0
 11
2336.653191322457
 21
-576.2641423586128
 31
0.0
  0
LINE
  5
1AA67
330
18
100
AcDbEntity
  8
01
  6
CONTINUOUS
100
AcDbLine
 10
2356.153191322744
 20
-526.5789365517192
 30
0.0
 11
2345.653191322745
 21
-526.5789365517192
 31
0.0
  0
ARC
  5
1AA68
330
18
100
AcDbEntity
  8
01
  6
CONTINUOUS
100
AcDbCircle
 10
2356.191771569658
 20
-526.1167973209124
 30
0.0
 40
0.4637468103423796
100
AcDbArc
 50
265.2279066161988
 51
354.2577450626268
  0
LINE
  5
1AA69
330
18
100
AcDbEntity
  8
01
  6
CONTINUOUS
100
AcDbLine
 10
2356.653191322744
 20
-510.7808275853404
 30
0.0
 11
2356.653191322744
 21
-525.7474571324362
 31
0.0
  0
ARC
  5
1AA6A
330
18
100
AcDbEntity
  8
01
  6
CONTINUOUS
100
AcDbCircle
 10
2356.191771569658
 20
-510.411487396864
 30
0.0
 40
0.4637468103423387
100
AcDbArc
 50
5.742254937373203
 51
94.77209338380122
  0
ARC
  5
1AA6B
330
18
100
AcDbEntity
  8
01
  6
BYBLOCK
100
AcDbCircle
 10
2352.360298103931
 20
-518.2641423588882
 30
0.0
 40
10.00000000000009
100
AcDbArc
 50
270.0
 51
295.4224671781132
  0
LINE
  5
1AA6C
330
18
100
AcDbEntity
  8
01
  6
CONTINUOUS
100
AcDbLine
 10
2345.653191322745
 20
-509.9493481660572
 30
0.0
 11
2356.153191322744
 21
-509.9493481660572
 31
0.0
  0
LINE
  5
1AA6D
330
18
100
AcDbEntity
  8
01
100
AcDbLine
 10
2604.652958643256
 20
-540.2641423589016
 30
0.0
 11
2664.652958643256
 21
-540.2641423589016
 31
0.0
  0
LINE
  5
1AA6E
330
18
100
AcDbEntity
  8
01
100
AcDbLine
 10
2634.652958643256
 20
-510.2641423589016
 30
0.0
 11
2634.652958643256
 21
-570.2641423589016
 31
0.0
  0
LINE
  5
1AA6F
330
18
100
AcDbEntity
  8
1HIDDEN
100
AcDbLine
 10
2652.652958643256
 20
-483.2641423589016
 30
0.0
 11
2652.652958643256
 21
-537.1141423589015
 31
0.0
  0
LINE
  5
1AA70
330
18
100
AcDbEntity
  8
1HIDDEN
100
AcDbLine
 10
2609.652958643256
 20
-482.2641423589016
 30
0.0
 11
2651.652958643256
 21
-482.2641423589016
 31
0.0
  0
LINE
  5
1AA73
330
18
100
AcDbEntity
  8
1HIDDEN
100
AcDbLine
 10
2652.652958643256
 20
-543.4141423589017
 30
0.0
 11
2652.652958643256
 21
-555.0641423589013
 31
0.0
  0
LINE
  5
1AA74
330
18
100
AcDbEntity
  8
1HIDDEN
100
AcDbLine
 10
2652.652958643256
 20
-555.2641423589016
 30
0.0
 11
2652.652958643256
 21
-543.4141423589017
 31
0.0
  0
ARC
  5
1AA75
330
18
100
AcDbEntity
  8
1HIDDEN
100
AcDbCircle
 10
2651.652958643256
 20
-483.2641423589016
 30
0.0
 40
1.0
100
AcDbArc
 50
0.0
 51
90.0
  0
ARC
  5
1AA76
330
18
100
AcDbEntity
  8
1HIDDEN
100
AcDbCircle
 10
2651.652958643256
 20
-555.2641423589016
 30
0.0
 40
1.0
100
AcDbArc
 50
270.0
 51
0.0
  0
CIRCLE
  5
1AA77
330
18
100
AcDbEntity
  8
1HIDDEN
100
AcDbCircle
 10
2634.652958643256
 20
-490.2641423589016
 30
0.0
 40
4.75
  0
LINE
  5
1AA79
330
18
100
AcDbEntity
  8
1HIDDEN
100
AcDbLine
 10
2609.652958643256
 20
-556.2641423589016
 30
0.0
 11
2651.652958643256
 21
-556.2641423589012
 31
0.0
  0
LINE
  5
1AA7A
330
18
100
AcDbEntity
  8
1HIDDEN
100
AcDbLine
 10
2634.652958643258
 20
-482.2641423589016
 30
0.0
 11
2651.652958643256
 21
-482.2641423589016
 31
0.0
  0
LINE
  5
1AA7B
330
18
100
AcDbEntity
  8
01
100
AcDbLine
 10
2645.964846910796
 20
-490.2641423589016
 30
0.0
 11
2623.341070375713
 21
-490.2641423589016
 31
0.0
  0
LINE
  5
1AA7C
330
18
100
AcDbEntity
  8
01
100
AcDbLine
 10
2634.652958643256
 20
-478.9522540913599
 30
0.0
 11
2634.652958643256
 21
-501.5760306264433
 31
0.0
  0
LINE
  5
1AA7D
330
18
100
AcDbEntity
  8
01
100
AcDbLine
 10
2446.781476705173
 20
-540.2641423589021
 30
0.0
 11
2424.153191322743
 21
-540.2641423589021
 31
0.0
  0
POINT
  5
1AA7E
330
18
100
AcDbEntity
  8
01
100
AcDbPoint
 10
2430.153074982998
 20
-540.2641423589021
 30
0.0
 50
180.0
  0
CIRCLE
  5
1AA7F
330
18
100
AcDbEntity
  8
01
100
AcDbCircle
 10
2430.153074982998
 20
-540.2641423589021
 30
0.0
 40
2.5
  0
CIRCLE
  5
1AA80
330
18
100
AcDbEntity
  8
01
100
AcDbCircle
 10
2430.153074982998
 20
-540.2641423589021
 30
0.0
 40
3.0
  0
LINE
  5
1AA82
330
18
100
AcDbEntity
  8
1CENTER
100
AcDbLine
 10
2430.153074982998
 20
-546.2641423589021
 30
0.0
 11
2430.153074982998
 21
-534.2641423589021
 31
0.0
  0
LINE
  5
1AA83
330
18
100
AcDbEntity
  8
01
100
AcDbLine
 10
2436.153191322743
 20
-426.7641423589018
 30
0.0
 11
2436.153191322743
 21
-603.7641423589021
 31
0.0
  0
ARC
  5
1AA84
330
18
100
AcDbEntity
  8
01
100
AcDbCircle
 10
2436.653191322743
 20
-603.7641423589021
 30
0.0
 40
0.5
100
AcDbArc
 50
180.0
 51
270.0
  0
LINE
  5
1AA85
330
18
100
AcDbEntity
  8
01
100
AcDbLine
 10
2444.653191322743
 20
-426.2641423589018
 30
0.0
 11
2444.653191322743
 21
-604.2641423589021
 31
0.0
  0
LINE
  5
1AA86
330
18
100
AcDbEntity
  8
01
100
AcDbLine
 10
2436.653191322743
 20
-426.2641423589018
 30
0.0
 11
2444.653191322743
 21
-426.2641423589018
 31
0.0
  0
ARC
  5
1AA87
330
18
100
AcDbEntity
  8
01
100
AcDbCircle
 10
2436.653191322743
 20
-426.7641423589018
 30
0.0
 40
0.5
100
AcDbArc
 50
90.0
 51
180.0
  0
LINE
  5
1AA88
330
18
100
AcDbEntity
  8
01
100
AcDbLine
 10
2436.653191322743
 20
-604.2641423589021
 30
0.0
 11
2444.653191322743
 21
-604.2641423589021
 31
0.0
  0
TEXT
  5
1AA8B
330
18
100
AcDbEntity
  8
1TEXT
100
AcDbText
 10
2276.653090983
 20
-258.7641423589012
 30
0.0
 40
20.0
  1
3-F4K-X-LJ
100
AcDbText
  0
POINT
  5
1AA8C
330
18
100
AcDbEntity
  8
01
100
AcDbPoint
 10
2499.152958643256
 20
-540.2641423589016
 30
0.0
  0
LINE
  5
1AA8D
330
18
100
AcDbEntity
  8
01
100
AcDbLine
 10
2498.752958633255
 20
-542.0141423589016
 30
0.0
 11
2498.752958633255
 21
-541.1641423389015
 31
0.0
  0
LINE
  5
1AA8E
330
18
100
AcDbEntity
  8
01
100
AcDbLine
 10
2499.552958653256
 20
-542.0141423589016
 30
0.0
 11
2499.552958653256
 21
-541.1641423389015
 31
0.0
  0
LINE
  5
1AA8F
330
18
100
AcDbEntity
  8
01
100
AcDbLine
 10
2498.252958663256
 20
-540.664142368902
 30
0.0
 11
2497.402958643256
 21
-540.664142368902
 31
0.0
  0
LINE
  5
1AA90
330
18
100
AcDbEntity
  8
01
100
AcDbLine
 10
2498.252958663256
 20
-539.8641423489021
 30
0.0
 11
2497.402958643256
 21
-539.8641423489021
 31
0.0
  0
LINE
  5
1AA91
330
18
100
AcDbEntity
  8
01
100
AcDbLine
 10
2497.402958643256
 20
-540.664142368902
 30
0.0
 11
2497.402958643256
 21
-539.8641423489021
 31
0.0
  0
LINE
  5
1AA92
330
18
100
AcDbEntity
  8
01
100
AcDbLine
 10
2499.552958653256
 20
-542.0141423589016
 30
0.0
 11
2498.752958633255
 21
-542.0141423589016
 31
0.0
  0
LINE
  5
1AA93
330
18
100
AcDbEntity
  8
01
100
AcDbLine
 10
2499.552958653256
 20
-538.5141423589016
 30
0.0
 11
2499.552958653256
 21
-539.3641423789018
 31
0.0
  0
LINE
  5
1AA94
330
18
100
AcDbEntity
  8
01
100
AcDbLine
 10
2498.752958633255
 20
-538.5141423589016
 30
0.0
 11
2498.752958633255
 21
-539.3641423789018
 31
0.0
  0
LINE
  5
1AA95
330
18
100
AcDbEntity
  8
01
100
AcDbLine
 10
2500.052958623256
 20
-539.8641423489021
 30
0.0
 11
2500.902958643256
 21
-539.8641423489021
 31
0.0
  0
LINE
  5
1AA96
330
18
100
AcDbEntity
  8
01
100
AcDbLine
 10
2500.052958623256
 20
-540.664142368902
 30
0.0
 11
2500.902958643256
 21
-540.664142368902
 31
0.0
  0
LINE
  5
1AA97
330
18
100
AcDbEntity
  8
01
100
AcDbLine
 10
2500.902958643256
 20
-539.8641423489021
 30
0.0
 11
2500.902958643256
 21
-540.664142368902
 31
0.0
  0
LINE
  5
1AA98
330
18
100
AcDbEntity
  8
01
100
AcDbLine
 10
2498.752958633255
 20
-538.5141423589016
 30
0.0
 11
2499.552958653256
 21
-538.5141423589016
 31
0.0
  0
CIRCLE
  5
1AA99
330
18
100
AcDbEntity
  8
01
100
AcDbCircle
 10
2499.152958643256
 20
-540.2641423589016
 30
0.0
 40
2.5
  0
ARC
  5
1AA9A
330
18
100
AcDbEntity
  8
01
100
AcDbCircle
 10
2500.052958623256
 20
-539.3641423789018
 30
0.0
 40
0.5
100
AcDbArc
 50
179.999989999999
 51
270.0
  0
ARC
  5
1AA9B
330
18
100
AcDbEntity
  8
01
100
AcDbCircle
 10
2500.052958623256
 20
-541.1641423389015
 30
0.0
 40
0.5
100
AcDbArc
 50
90.00000299998466
 51
180.000010000001
  0
ARC
  5
1AA9C
330
18
100
AcDbEntity
  8
01
100
AcDbCircle
 10
2498.252958663256
 20
-541.1641423389015
 30
0.0
 40
0.5
100
AcDbArc
 50
0.0
 51
90.00000299998466
  0
ARC
  5
1AA9D
330
18
100
AcDbEntity
  8
01
100
AcDbCircle
 10
2498.252958663256
 20
-539.3641423789018
 30
0.0
 40
0.5
100
AcDbArc
 50
270.0
 51
0.0
  0
LINE
  5
1AA9F
330
18
100
AcDbEntity
  8
1CENTER
100
AcDbLine
 10
2499.152958643256
 20
-546.2641423589016
 30
0.0
 11
2499.152958643256
 21
-534.2641423589016
 31
0.0
  0
LINE
  5
1AAA0
330
18
100
AcDbEntity
  8
01
100
AcDbLine
 10
2482.524673260825
 20
-540.2641423589016
 30
0.0
 11
2505.152958643256
 21
-540.2641423589016
 31
0.0
  0
LINE
  5
1AAA1
330
18
100
AcDbEntity
  8
1CENTER
100
AcDbLine
 10
2618.569283879313
 20
-304.7641343266764
 30
0.0
 11
2626.702956241161
 21
-304.7641423599266
 31
0.0
  0
LINE
  5
1AAA5
330
18
100
AcDbEntity
  8
01
100
AcDbLine
 10
2484.652958643256
 20
-420.2641423589016
 30
0.0
 11
2484.652958643256
 21
-610.2641423589016
 31
0.0
  0
LINE
  5
1AAA6
330
18
100
AcDbEntity
  8
01
100
AcDbLine
 10
2604.652958643256
 20
-540.2641423589016
 30
0.0
 11
2664.652958643256
 21
-540.2641423589016
 31
0.0
  0
LINE
  5
1AAA7
330
18
100
AcDbEntity
  8
01
100
AcDbLine
 10
2634.652958643256
 20
-510.2641423589016
 30
0.0
 11
2634.652958643256
 21
-570.2641423589016
 31
0.0
  0
LINE
  5
1AAA8
330
18
100
AcDbEntity
  8
01
100
AcDbLine
 10
2609.652958643256
 20
-426.7641423589016
 30
0.0
 11
2609.652958643256
 21
-603.7641423589016
 31
0.0
  0
ARC
  5
1AAA9
330
18
100
AcDbEntity
  8
01
100
AcDbCircle
 10
2610.152958643256
 20
-603.7641423589016
 30
0.0
 40
0.5
100
AcDbArc
 50
180.0
 51
270.0
  0
LINE
  5
1AAAA
330
18
100
AcDbEntity
  8
01
100
AcDbLine
 10
2659.652958643256
 20
-426.7641423589016
 30
0.0
 11
2659.652958643255
 21
-530.2641423589018
 31
0.0
  0
LINE
  5
1AAAB
330
18
100
AcDbEntity
  8
01
100
AcDbLine
 10
2659.652958643255
 20
-550.2641423589048
 30
0.0
 11
2659.652958643256
 21
-603.7641423589016
 31
0.0
  0
ARC
  5
1AAAC
330
18
100
AcDbEntity
  8
01
100
AcDbCircle
 10
2659.152958643256
 20
-426.7641423589016
 30
0.0
 40
0.5
100
AcDbArc
 50
0.0
 51
90.0
  0
LINE
  5
1AAAD
330
18
100
AcDbEntity
  8
01
100
AcDbLine
 10
2659.152958643256
 20
-604.2641423589016
 30
0.0
 11
2610.152958643256
 21
-604.2641423589016
 31
0.0
  0
ARC
  5
1AAAE
330
18
100
AcDbEntity
  8
01
100
AcDbCircle
 10
2659.152958643256
 20
-603.7641423589016
 30
0.0
 40
0.5
100
AcDbArc
 50
270.0
 51
0.0
  0
LINE
  5
1AAAF
330
18
100
AcDbEntity
  8
01
100
AcDbLine
 10
2610.152958643256
 20
-426.2641423589016
 30
0.0
 11
2659.152958643256
 21
-426.2641423589016
 31
0.0
  0
ARC
  5
1AAB0
330
18
100
AcDbEntity
  8
01
100
AcDbCircle
 10
2610.152958643256
 20
-426.7641423589016
 30
0.0
 40
0.5
100
AcDbArc
 50
90.0
 51
180.0
  0
LINE
  5
1AAB1
330
18
100
AcDbEntity
  8
01
100
AcDbLine
 10
2493.152958643256
 20
-426.7641423589016
 30
0.0
 11
2493.152958643256
 21
-603.7641423589016
 31
0.0
  0
ARC
  5
1AAB2
330
18
100
AcDbEntity
  8
01
100
AcDbCircle
 10
2492.652958643256
 20
-603.7641423589016
 30
0.0
 40
0.5
100
AcDbArc
 50
270.0
 51
0.0
  0
LINE
  5
1AAB3
330
18
100
AcDbEntity
  8
01
100
AcDbLine
 10
2484.652958643256
 20
-426.2641423589016
 30
0.0
 11
2484.652958643256
 21
-604.2641423589016
 31
0.0
  0
LINE
  5
1AAB4
330
18
100
AcDbEntity
  8
01
100
AcDbLine
 10
2492.652958643256
 20
-426.2641423589016
 30
0.0
 11
2484.652958643256
 21
-426.2641423589016
 31
0.0
  0
ARC
  5
1AAB5
330
18
100
AcDbEntity
  8
01
100
AcDbCircle
 10
2492.652958643256
 20
-426.7641423589016
 30
0.0
 40
0.5
100
AcDbArc
 50
0.0
 51
90.0
  0
LINE
  5
1AAB6
330
18
100
AcDbEntity
  8
01
100
AcDbLine
 10
2492.652958643256
 20
-604.2641423589016
 30
0.0
 11
2484.652958643256
 21
-604.2641423589016
 31
0.0
  0
LINE
  5
1AAB9
330
18
100
AcDbEntity
  8
01
100
AcDbLine
 10
2583.653842825315
 20
-290.2641423599302
 30
0.0
 11
2737.408222980348
 21
-290.2641423599302
 31
0.0
  0
LINE
  5
1AABA
330
18
100
AcDbEntity
  8
01
100
AcDbLine
 10
2609.652958643255
 20
-290.2641423599312
 30
0.0
 11
2659.652958643255
 21
-290.2641423599289
 31
0.0
  0
LINE
  5
1AABB
330
18
100
AcDbEntity
  8
01
100
AcDbLine
 10
2610.152958643252
 20
-298.7641423599312
 30
0.0
 11
2659.152958643255
 21
-298.7641423599275
 31
0.0
  0
LINE
  5
1AABC
330
18
100
AcDbEntity
  8
01
100
AcDbLine
 10
2659.652958643255
 20
-290.2641423599289
 30
0.0
 11
2659.652958643255
 21
-298.2641423599275
 31
0.0
  0
ARC
  5
1AABD
330
18
100
AcDbEntity
  8
01
100
AcDbCircle
 10
2659.152958643255
 20
-298.2641423599275
 30
0.0
 40
0.5
100
AcDbArc
 50
270.0
 51
0.0
  0
LINE
  5
1AABE
330
18
100
AcDbEntity
  8
01
100
AcDbLine
 10
2609.652958643255
 20
-290.2641423599312
 30
0.0
 11
2609.652958643252
 21
-298.2641423599307
 31
0.0
  0
ARC
  5
1AABF
330
18
100
AcDbEntity
  8
01
100
AcDbCircle
 10
2610.152958643252
 20
-298.2641423599312
 30
0.0
 40
0.5
100
AcDbArc
 50
180.0
 51
270.0
  0
LINE
  5
1AAC0
330
18
100
AcDbEntity
  8
01
100
AcDbLine
 10
2634.652958643255
 20
-311.7641423599293
 30
0.0
 11
2634.652958643255
 21
-285.1983114397813
 31
0.0
  0
LINE
  5
1AAC3
330
18
100
AcDbEntity
  8
01
100
AcDbLine
 10
2493.652958643258
 20
-530.2641423589071
 30
0.0
 11
2528.947076290319
 21
-531.4406129471358
 31
0.0
  0
LINE
  5
1AAC4
330
18
100
AcDbEntity
  8
01
100
AcDbLine
 10
2493.652958643255
 20
-550.2641423588998
 30
0.0
 11
2528.947076290313
 21
-549.0876717706674
 31
0.0
  0
CIRCLE
  5
1AAC5
330
18
100
AcDbEntity
  8
01
100
AcDbCircle
 10
2533.652958643257
 20
-540.2641423589021
 30
0.0
 40
10.0
  0
LINE
  5
1AAC6
330
18
100
AcDbEntity
  8
01
100
AcDbLine
 10
2493.652958643256
 20
-550.2641423589016
 30
0.0
 11
2493.652958643256
 21
-530.2641423589016
 31
0.0
  0
ARC
  5
1AAC7
330
18
100
AcDbEntity
  8
01
100
AcDbCircle
 10
2614.652958643251
 20
-549.2641423589021
 30
0.0
 40
1.0
100
AcDbArc
 50
180.0
 51
270.0
  0
ARC
  5
1AAC8
330
18
100
AcDbEntity
  8
01
100
AcDbCircle
 10
2614.652958643251
 20
-531.2641423589021
 30
0.0
 40
1.0
100
AcDbArc
 50
90.0
 51
180.0
  0
LINE
  5
1AAC9
330
18
100
AcDbEntity
  8
01
100
AcDbLine
 10
2651.652958643254
 20
-550.2641423589021
 30
0.0
 11
2614.652958643251
 21
-550.2641423589021
 31
0.0
  0
LINE
  5
1AACA
330
18
100
AcDbEntity
  8
01
100
AcDbLine
 10
2614.652958643251
 20
-530.2641423589021
 30
0.0
 11
2651.652958643254
 21
-530.2641423589021
 31
0.0
  0
LINE
  5
1AACB
330
18
100
AcDbEntity
  8
01
100
AcDbLine
 10
2613.652958643251
 20
-531.2641423589021
 30
0.0
 11
2613.652958643251
 21
-549.2641423589021
 31
0.0
  0
LINE
  5
1AACC
330
18
100
AcDbEntity
  8
01
100
AcDbLine
 10
2653.652958643254
 20
-550.2641423589021
 30
0.0
 11
2748.243018994183
 21
-550.2641423589448
 31
0.0
  0
LINE
  5
1AACD
330
18
100
AcDbEntity
  8
01
100
AcDbLine
 10
2653.652958643254
 20
-530.2641423589021
 30
0.0
 11
2748.243018994184
 21
-530.2641423589021
 31
0.0
  0
ARC
  5
1AACE
330
18
100
AcDbEntity
  8
01
100
AcDbCircle
 10
2653.652958643254
 20
-531.2641423589021
 30
0.0
 40
1.0
100
AcDbArc
 50
90.0
 51
180.0
  0
ARC
  5
1AACF
330
18
100
AcDbEntity
  8
01
100
AcDbCircle
 10
2651.652958643254
 20
-531.2641423589021
 30
0.0
 40
1.0
100
AcDbArc
 50
0.0
 51
90.0
  0
ARC
  5
1AAD0
330
18
100
AcDbEntity
  8
01
100
AcDbCircle
 10
2653.652958643254
 20
-549.2641423589021
 30
0.0
 40
1.0
100
AcDbArc
 50
180.0
 51
270.0
  0
ARC
  5
1AAD1
330
18
100
AcDbEntity
  8
01
100
AcDbCircle
 10
2651.652958643254
 20
-549.2641423589021
 30
0.0
 40
1.0
100
AcDbArc
 50
270.0
 51
0.0
  0
LINE
  5
1AAD2
330
18
100
AcDbEntity
  8
01
100
AcDbLine
 10
2652.652958643254
 20
-531.2641423589021
 30
0.0
 11
2652.652958643254
 21
-549.2641423589021
 31
0.0
  0
ARC
  5
1AAD3
330
18
100
AcDbEntity
  8
01
100
AcDbCircle
 10
2748.243018994184
 20
-531.264142358943
 30
0.0
 40
1.0
100
AcDbArc
 50
5.215908570448235
 51
90.0
  0
ARC
  5
1AAD4
330
18
100
AcDbEntity
  8
01
100
AcDbCircle
 10
2748.243018994184
 20
-549.264142358943
 30
0.0
 40
1.0
100
AcDbArc
 50
270.0
 51
354.7840914295518
  0
ARC
  5
1AAD5
330
18
100
AcDbEntity
  8
01
100
AcDbCircle
 10
2649.652958643254
 20
-540.264142358943
 30
0.0
 40
100.0
100
AcDbArc
 50
354.7840914295518
 51
5.215908570448235
  0
LINE
  5
1AAD6
330
18
100
AcDbEntity
  8
01
100
AcDbLine
 10
2644.65295864325
 20
-299.2641423599298
 30
0.0
 11
2638.153073679367
 21
-299.2641423599291
 31
0.0
  0
LINE
  5
1AAD7
330
18
100
AcDbEntity
  8
01
100
AcDbLine
 10
2635.653073679368
 20
-299.2641423599293
 30
0.0
 11
2633.653073685094
 21
-299.2641423599291
 31
0.0
  0
LINE
  5
1AAD8
330
18
100
AcDbEntity
  8
01
100
AcDbLine
 10
2631.153073679367
 20
-299.2641423599291
 30
0.0
 11
2624.652953169915
 21
-299.2641423599289
 31
0.0
  0
LINE
  5
1AAD9
330
18
100
AcDbEntity
  8
01
100
AcDbLine
 10
2652.652958643252
 20
-333.2641423599298
 30
0.0
 11
2652.65295864325
 21
-345.2641423599298
 31
0.0
  0
ARC
  5
1AADA
330
18
100
AcDbEntity
  8
01
100
AcDbCircle
 10
2634.652958643252
 20
-324.261201183449
 30
0.0
 40
10.2970588235324
100
AcDbArc
 50
209.0689101611711
 51
330.9310898388289
  0
LINE
  5
1AADB
330
18
100
AcDbEntity
  8
01
100
AcDbLine
 10
2644.16990301058
 20
-329.2641423599298
 30
0.0
 11
2652.15295864325
 21
-329.2641423599298
 31
0.0
  0
ARC
  5
1AADC
330
18
100
AcDbEntity
  8
01
100
AcDbCircle
 10
2652.15295864325
 20
-329.7641423599298
 30
0.0
 40
0.5
100
AcDbArc
 50
0.0
 51
90.0
  0
ARC
  5
1AADD
330
18
100
AcDbEntity
  8
01
100
AcDbCircle
 10
2614.652958643252
 20
-330.264142359928
 30
0.0
 40
1.0
100
AcDbArc
 50
90.0
 51
180.0
  0
LINE
  5
1AADE
330
18
100
AcDbEntity
  8
01
100
AcDbLine
 10
2614.652958643252
 20
-329.264142359928
 30
0.0
 11
2625.136014181666
 21
-329.2641423599289
 31
0.0
  0
ARC
  5
1AADF
330
18
100
AcDbEntity
  8
01
100
AcDbCircle
 10
2625.136014181666
 20
-328.7641423599289
 30
0.0
 40
0.5
100
AcDbArc
 50
270.0
 51
1.909162874686648
  0
ARC
  5
1AAE0
330
18
100
AcDbEntity
  8
01
100
AcDbCircle
 10
2644.16990301058
 20
-328.7641423599298
 30
0.0
 40
0.5
100
AcDbArc
 50
178.0908475670123
 51
270.0
  0
LINE
  5
1AAE1
330
18
100
AcDbEntity
  8
01
100
AcDbLine
 10
2624.652953169915
 20
-299.2641423599289
 30
0.0
 11
2625.635736632119
 21
-328.7474848537422
 31
0.0
  0
LINE
  5
1AAE2
330
18
100
AcDbEntity
  8
01
100
AcDbLine
 10
2644.652958643252
 20
-299.2641423599289
 30
0.0
 11
2643.670180557091
 21
-328.7474849448136
 31
0.0
  0
ARC
  5
1AAE3
330
18
100
AcDbEntity
  8
01
100
AcDbCircle
 10
2652.152958643252
 20
-348.7641423599298
 30
0.0
 40
0.5
100
AcDbArc
 50
270.0
 51
0.0
  0
ARC
  5
1AAE4
330
18
100
AcDbEntity
  8
01
100
AcDbCircle
 10
2614.65295864325
 20
-348.264142359928
 30
0.0
 40
1.0
100
AcDbArc
 50
180.0
 51
270.0
  0
LINE
  5
1AAE5
330
18
100
AcDbEntity
  8
01
100
AcDbLine
 10
2614.65295864325
 20
-349.264142359928
 30
0.0
 11
2652.152958643252
 21
-349.2641423599298
 31
0.0
  0
LINE
  5
1AAE6
330
18
100
AcDbEntity
  8
01
100
AcDbLine
 10
2652.652958643252
 20
-329.7641423599298
 30
0.0
 11
2652.652958643254
 21
-348.7641423599298
 31
0.0
  0
LINE
  5
1AAE7
330
18
100
AcDbEntity
  8
01
100
AcDbLine
 10
2613.652958643252
 20
-330.264142359928
 30
0.0
 11
2613.65295864325
 21
-348.264142359928
 31
0.0
  0
ARC
  5
1AAE8
330
18
100
AcDbEntity
  8
01
100
AcDbCircle
 10
2653.652958643253
 20
-330.2641423599298
 30
0.0
 40
1.0
100
AcDbArc
 50
90.0
 51
180.0
  0
ARC
  5
1AAE9
330
18
100
AcDbEntity
  8
01
100
AcDbCircle
 10
2653.652958643253
 20
-348.2641423599298
 30
0.0
 40
1.0
100
AcDbArc
 50
180.0
 51
270.0
  0
LINE
  5
1AAEA
330
18
100
AcDbEntity
  8
01
100
AcDbLine
 10
2652.652958643253
 20
-348.2641423599298
 30
0.0
 11
2652.652958643253
 21
-330.2641423599298
 31
0.0
  0
ARC
  5
1AAEB
330
18
100
AcDbEntity
  8
01
100
AcDbCircle
 10
2748.243018994183
 20
-330.2641423599298
 30
0.0
 40
1.0
100
AcDbArc
 50
5.215908570448235
 51
90.0
  0
ARC
  5
1AAEC
330
18
100
AcDbEntity
  8
01
100
AcDbCircle
 10
2748.243018994183
 20
-348.2641423599298
 30
0.0
 40
1.0
100
AcDbArc
 50
270.0
 51
354.7840914295518
  0
ARC
  5
1AAED
330
18
100
AcDbEntity
  8
01
100
AcDbCircle
 10
2649.652958643253
 20
-339.2641423599298
 30
0.0
 40
100.0
100
AcDbArc
 50
354.7840914295518
 51
5.215908570448235
  0
LINE
  5
1AAEE
330
18
100
AcDbEntity
  8
01
100
AcDbLine
 10
2653.652958643253
 20
-329.2641423599298
 30
0.0
 11
2748.243018994183
 21
-329.2641423599298
 31
0.0
  0
LINE
  5
1AAEF
330
18
100
AcDbEntity
  8
01
100
AcDbLine
 10
2748.243018994183
 20
-349.2641423599298
 30
0.0
 11
2653.652958643253
 21
-349.2641423599298
 31
0.0
  0
LINE
  5
1AAF0
330
18
100
AcDbEntity
  8
1CENTER
100
AcDbLine
 10
2618.569283879313
 20
-235.7641503931841
 30
0.0
 11
2626.702956241161
 21
-235.7641423599339
 31
0.0
  0
LINE
  5
1AAF1
330
18
100
AcDbEntity
  8
01
100
AcDbLine
 10
2652.652958643252
 20
-207.2641423599307
 30
0.0
 11
2652.65295864325
 21
-195.2641423599307
 31
0.0
  0
ARC
  5
1AAF2
330
18
100
AcDbEntity
  8
01
100
AcDbCircle
 10
2634.652958643252
 20
-216.2670835364115
 30
0.0
 40
10.2970588235324
100
AcDbArc
 50
29.06891016117107
 51
150.9310898388289
  0
LINE
  5
1AAF3
330
18
100
AcDbEntity
  8
01
100
AcDbLine
 10
2644.16990301058
 20
-211.2641423599307
 30
0.0
 11
2652.15295864325
 21
-211.2641423599307
 31
0.0
  0
ARC
  5
1AAF4
330
18
100
AcDbEntity
  8
01
100
AcDbCircle
 10
2652.15295864325
 20
-210.7641423599307
 30
0.0
 40
0.5
100
AcDbArc
 50
270.0
 51
0.0
  0
ARC
  5
1AAF5
330
18
100
AcDbEntity
  8
01
100
AcDbCircle
 10
2614.652958643252
 20
-210.2641423599325
 30
0.0
 40
1.0
100
AcDbArc
 50
180.0
 51
270.0
  0
LINE
  5
1AAF6
330
18
100
AcDbEntity
  8
01
100
AcDbLine
 10
2614.652958643252
 20
-211.2641423599325
 30
0.0
 11
2625.136014181666
 21
-211.2641423599316
 31
0.0
  0
ARC
  5
1AAF7
330
18
100
AcDbEntity
  8
01
100
AcDbCircle
 10
2625.136014181666
 20
-211.7641423599316
 30
0.0
 40
0.5
100
AcDbArc
 50
358.0908371253133
 51
90.0
  0
ARC
  5
1AAF8
330
18
100
AcDbEntity
  8
01
100
AcDbCircle
 10
2644.16990301058
 20
-211.7641423599307
 30
0.0
 40
0.5
100
AcDbArc
 50
90.0
 51
181.9091524329877
  0
LINE
  5
1AAF9
330
18
100
AcDbEntity
  8
01
100
AcDbLine
 10
2624.666285811415
 20
-240.864165304137
 30
0.0
 11
2625.635736632119
 21
-211.7807998661183
 31
0.0
  0
LINE
  5
1AAFA
330
18
100
AcDbEntity
  8
01
100
AcDbLine
 10
2644.639626074726
 20
-240.8641653041373
 30
0.0
 11
2643.670180557091
 21
-211.7807997750469
 31
0.0
  0
ARC
  5
1AAFB
330
18
100
AcDbEntity
  8
01
100
AcDbCircle
 10
2652.152958643252
 20
-191.7641423599307
 30
0.0
 40
0.5
100
AcDbArc
 50
0.0
 51
90.0
  0
ARC
  5
1AAFC
330
18
100
AcDbEntity
  8
01
100
AcDbCircle
 10
2614.65295864325
 20
-192.2641423599325
 30
0.0
 40
1.0
100
AcDbArc
 50
90.0
 51
180.0
  0
LINE
  5
1AAFD
330
18
100
AcDbEntity
  8
01
100
AcDbLine
 10
2614.65295864325
 20
-191.2641423599325
 30
0.0
 11
2652.152958643252
 21
-191.2641423599307
 31
0.0
  0
LINE
  5
1AAFE
330
18
100
AcDbEntity
  8
01
100
AcDbLine
 10
2652.652958643252
 20
-210.7641423599307
 30
0.0
 11
2652.652958643254
 21
-191.7641423599307
 31
0.0
  0
LINE
  5
1AAFF
330
18
100
AcDbEntity
  8
01
100
AcDbLine
 10
2613.652958643252
 20
-210.2641423599325
 30
0.0
 11
2613.65295864325
 21
-192.2641423599325
 31
0.0
  0
ARC
  5
1AB00
330
18
100
AcDbEntity
  8
01
100
AcDbCircle
 10
2653.652958643253
 20
-210.2641423599307
 30
0.0
 40
1.0
100
AcDbArc
 50
180.0
 51
270.0
  0
ARC
  5
1AB01
330
18
100
AcDbEntity
  8
01
100
AcDbCircle
 10
2653.652958643253
 20
-192.2641423599307
 30
0.0
 40
1.0
100
AcDbArc
 50
90.0
 51
180.0
  0
LINE
  5
1AB02
330
18
100
AcDbEntity
  8
01
100
AcDbLine
 10
2652.652958643253
 20
-192.2641423599307
 30
0.0
 11
2652.652958643253
 21
-210.2641423599307
 31
0.0
  0
ARC
  5
1AB03
330
18
100
AcDbEntity
  8
01
100
AcDbCircle
 10
2748.243018994183
 20
-210.2641423599307
 30
0.0
 40
1.0
100
AcDbArc
 50
270.0
 51
354.7840914295518
  0
ARC
  5
1AB04
330
18
100
AcDbEntity
  8
01
100
AcDbCircle
 10
2748.243018994183
 20
-192.2641423599307
 30
0.0
 40
1.0
100
AcDbArc
 50
5.215908570448235
 51
90.0
  0
ARC
  5
1AB05
330
18
100
AcDbEntity
  8
01
100
AcDbCircle
 10
2649.652958643253
 20
-201.2641423599307
 30
0.0
 40
100.0
100
AcDbArc
 50
354.7840914295518
 51
5.215908570448235
  0
LINE
  5
1AB06
330
18
100
AcDbEntity
  8
01
100
AcDbLine
 10
2653.652958643253
 20
-211.2641423599307
 30
0.0
 11
2748.243018994183
 21
-211.2641423599307
 31
0.0
  0
LINE
  5
1AB07
330
18
100
AcDbEntity
  8
01
100
AcDbLine
 10
2748.243018994183
 20
-191.2641423599307
 30
0.0
 11
2653.652958643253
 21
-191.2641423599307
 31
0.0
  0
LINE
  5
1AB09
330
18
100
AcDbEntity
  8
01
100
AcDbLine
 10
2324.653191322744
 20
-540.2641423589016
 30
0.0
 11
2264.653191322744
 21
-540.2641423589016
 31
0.0
  0
LINE
  5
1AB0A
330
18
100
AcDbEntity
  8
01
100
AcDbLine
 10
2294.653191322744
 20
-510.2641423589016
 30
0.0
 11
2294.653191322744
 21
-570.2641423589016
 31
0.0
  0
LINE
  5
1AB1B
330
18
100
AcDbEntity
  8
01
100
AcDbLine
 10
2283.341303055203
 20
-490.2641423589016
 30
0.0
 11
2305.965079590287
 21
-490.2641423589016
 31
0.0
  0
LINE
  5
1AB1C
330
18
100
AcDbEntity
  8
01
100
AcDbLine
 10
2294.653191322744
 20
-478.9522540913599
 30
0.0
 11
2294.653191322744
 21
-501.5760306264433
 31
0.0
  0
LINE
  5
1AB1D
330
18
100
AcDbEntity
  8
01
100
AcDbLine
 10
2324.653191322744
 20
-540.2641423589016
 30
0.0
 11
2264.653191322744
 21
-540.2641423589016
 31
0.0
  0
LINE
  5
1AB1E
330
18
100
AcDbEntity
  8
01
100
AcDbLine
 10
2294.653191322744
 20
-510.2641423589016
 30
0.0
 11
2294.653191322744
 21
-570.2641423589016
 31
0.0
  0
LINE
  5
1AB1F
330
18
100
AcDbEntity
  8
01
100
AcDbLine
 10
2319.653191322744
 20
-426.7641423589016
 30
0.0
 11
2319.653191322744
 21
-603.7641423589016
 31
0.0
  0
ARC
  5
1AB20
330
18
100
AcDbEntity
  8
01
100
AcDbCircle
 10
2319.153191322744
 20
-603.7641423589016
 30
0.0
 40
0.5
100
AcDbArc
 50
270.0
 51
0.0
  0
LINE
  5
1AB21
330
18
100
AcDbEntity
  8
01
100
AcDbLine
 10
2269.653191322744
 20
-426.7641423589016
 30
0.0
 11
2269.653191322744
 21
-530.2641423589018
 31
0.0
  0
LINE
  5
1AB22
330
18
100
AcDbEntity
  8
01
100
AcDbLine
 10
2269.653191322744
 20
-550.2641423589048
 30
0.0
 11
2269.653191322744
 21
-603.7641423589016
 31
0.0
  0
ARC
  5
1AB23
330
18
100
AcDbEntity
  8
01
100
AcDbCircle
 10
2270.153191322744
 20
-426.7641423589016
 30
0.0
 40
0.5
100
AcDbArc
 50
90.0
 51
180.0
  0
LINE
  5
1AB24
330
18
100
AcDbEntity
  8
01
100
AcDbLine
 10
2270.153191322744
 20
-604.2641423589016
 30
0.0
 11
2319.153191322744
 21
-604.2641423589016
 31
0.0
  0
ARC
  5
1AB25
330
18
100
AcDbEntity
  8
01
100
AcDbCircle
 10
2270.153191322744
 20
-603.7641423589016
 30
0.0
 40
0.5
100
AcDbArc
 50
180.0
 51
270.0
  0
LINE
  5
1AB26
330
18
100
AcDbEntity
  8
01
100
AcDbLine
 10
2319.153191322744
 20
-426.2641423589016
 30
0.0
 11
2270.153191322744
 21
-426.2641423589016
 31
0.0
  0
ARC
  5
1AB27
330
18
100
AcDbEntity
  8
01
100
AcDbCircle
 10
2319.153191322744
 20
-426.7641423589016
 30
0.0
 40
0.5
100
AcDbArc
 50
0.0
 51
90.0
  0
LINE
  5
1AB28
330
18
100
AcDbEntity
  8
01
100
AcDbLine
 10
2435.653191322742
 20
-530.2641423589071
 30
0.0
 11
2400.359073675681
 21
-531.4406129471358
 31
0.0
  0
LINE
  5
1AB29
330
18
100
AcDbEntity
  8
01
100
AcDbLine
 10
2435.653191322745
 20
-550.2641423588998
 30
0.0
 11
2400.359073675686
 21
-549.0876717706674
 31
0.0
  0
CIRCLE
  5
1AB2A
330
18
100
AcDbEntity
  8
01
100
AcDbCircle
 10
2395.653191322743
 20
-540.2641423589021
 30
0.0
 40
10.0
  0
LINE
  5
1AB2B
330
18
100
AcDbEntity
  8
01
100
AcDbLine
 10
2435.653191322744
 20
-550.2641423589016
 30
0.0
 11
2435.653191322744
 21
-530.2641423589016
 31
0.0
  0
ARC
  5
1AB2C
330
18
100
AcDbEntity
  8
01
100
AcDbCircle
 10
2314.653191322749
 20
-549.2641423589021
 30
0.0
 40
1.0
100
AcDbArc
 50
270.0
 51
0.0
  0
ARC
  5
1AB2D
330
18
100
AcDbEntity
  8
01
100
AcDbCircle
 10
2314.653191322749
 20
-531.2641423589021
 30
0.0
 40
1.0
100
AcDbArc
 50
0.0
 51
90.0
  0
LINE
  5
1AB2E
330
18
100
AcDbEntity
  8
01
100
AcDbLine
 10
2277.653191322746
 20
-550.2641423589021
 30
0.0
 11
2314.653191322749
 21
-550.2641423589021
 31
0.0
  0
LINE
  5
1AB2F
330
18
100
AcDbEntity
  8
01
100
AcDbLine
 10
2314.653191322749
 20
-530.2641423589021
 30
0.0
 11
2277.653191322746
 21
-530.2641423589021
 31
0.0
  0
LINE
  5
1AB30
330
18
100
AcDbEntity
  8
01
100
AcDbLine
 10
2315.653191322749
 20
-531.2641423589021
 30
0.0
 11
2315.653191322749
 21
-549.2641423589021
 31
0.0
  0
LINE
  5
1AB31
330
18
100
AcDbEntity
  8
01
100
AcDbLine
 10
2275.653191322746
 20
-550.2641423589021
 30
0.0
 11
2181.063130971817
 21
-550.2641423589448
 31
0.0
  0
LINE
  5
1AB32
330
18
100
AcDbEntity
  8
01
100
AcDbLine
 10
2275.653191322746
 20
-530.2641423589021
 30
0.0
 11
2181.063130971816
 21
-530.2641423589021
 31
0.0
  0
ARC
  5
1AB33
330
18
100
AcDbEntity
  8
01
100
AcDbCircle
 10
2275.653191322746
 20
-531.2641423589021
 30
0.0
 40
1.0
100
AcDbArc
 50
0.0
 51
90.0
  0
ARC
  5
1AB34
330
18
100
AcDbEntity
  8
01
100
AcDbCircle
 10
2277.653191322746
 20
-531.2641423589021
 30
0.0
 40
1.0
100
AcDbArc
 50
90.0
 51
180.0
  0
ARC
  5
1AB35
330
18
100
AcDbEntity
  8
01
100
AcDbCircle
 10
2275.653191322746
 20
-549.2641423589021
 30
0.0
 40
1.0
100
AcDbArc
 50
270.0
 51
0.0
  0
ARC
  5
1AB36
330
18
100
AcDbEntity
  8
01
100
AcDbCircle
 10
2277.653191322746
 20
-549.2641423589021
 30
0.0
 40
1.0
100
AcDbArc
 50
180.0
 51
270.0
  0
LINE
  5
1AB37
330
18
100
AcDbEntity
  8
01
100
AcDbLine
 10
2276.653191322746
 20
-531.2641423589021
 30
0.0
 11
2276.653191322746
 21
-549.2641423589021
 31
0.0
  0
ARC
  5
1AB38
330
18
100
AcDbEntity
  8
01
100
AcDbCircle
 10
2181.063130971816
 20
-531.264142358943
 30
0.0
 40
1.0
100
AcDbArc
 50
90.0
 51
174.7840914295518
  0
ARC
  5
1AB39
330
18
100
AcDbEntity
  8
01
100
AcDbCircle
 10
2181.063130971816
 20
-549.264142358943
 30
0.0
 40
1.0
100
AcDbArc
 50
185.2159085704482
 51
270.0
  0
ARC
  5
1AB3A
330
18
100
AcDbEntity
  8
01
100
AcDbCircle
 10
2279.653191322746
 20
-540.264142358943
 30
0.0
 40
100.0
100
AcDbArc
 50
174.7840914295518
 51
185.2159085704482
  0
LINE
  5
1AB3B
330
18
100
AcDbEntity
  8
1DIM
100
AcDbLine
 10
2276.653090983001
 20
-299.2641423589012
 30
0.0
 11
2434.153090983001
 21
-299.2641423589018
 31
0.0
  0
TEXT
  5
1AB3C
330
18
100
AcDbEntity
  8
1TEXT
100
AcDbText
 10
2278.053090983001
 20
-297.0141423589012
 30
0.0
 40
6.0
  1
表面処理：脚部
 72
     1
 11
2302.753090983001
 21
-297.0141423589012
 31
0.0
100
AcDbText
  0
LINE
  5
1AB3D
330
18
100
AcDbEntity
  8
1DIM
100
AcDbLine
 10
2276.653090983001
 20
-288.7641423589012
 30
0.0
 11
2434.153090983001
 21
-288.7641423589012
 31
0.0
  0
TEXT
  5
1AB3E
330
18
100
AcDbEntity
  8
1TEXT
100
AcDbText
 10
2397.453090983001
 20
-297.0141423589012
 30
0.0
 40
6.0
  1
コード
 72
     1
 11
2407.753090983001
 21
-297.0141423589012
 31
0.0
100
AcDbText
  0
TEXT
  5
1AB3F
330
18
100
AcDbEntity
  8
1TEXT
100
AcDbText
 10
2331.353090983001
 20
-297.0141423589012
 30
0.0
 40
6.0
  1
表面処理：握り
 72
     1
 11
2355.253090983001
 21
-297.0141423589012
 31
0.0
100
AcDbText
  0
LINE
  5
1AB40
330
18
100
AcDbEntity
  8
1DIM
100
AcDbLine
 10
2329.153090983
 20
-330.7641423589005
 30
0.0
 11
2434.153090983001
 21
-330.7641423589009
 31
0.0
  0
TEXT
  5
1AB41
330
18
100
AcDbEntity
  8
1TEXT
100
AcDbText
 10
2329.813090983002
 20
-318.3356778343752
 30
0.0
 40
6.0
  1
シャンパンゴールド
 41
0.8
 72
     1
 11
2355.253090983002
 21
-318.3356778343752
 31
0.0
100
AcDbText
  0
LINE
  5
1AB42
330
18
100
AcDbEntity
  8
1DIM
100
AcDbLine
 10
2329.153090983001
 20
-288.7641423589012
 30
0.0
 11
2329.153090983
 21
-341.2641423589002
 31
0.0
  0
LINE
  5
1AB43
330
18
100
AcDbEntity
  8
1DIM
100
AcDbLine
 10
2381.653090983
 20
-288.7641423589012
 30
0.0
 11
2381.653090983004
 21
-341.2641423588916
 31
0.0
  0
LINE
  5
1AB44
330
18
100
AcDbEntity
  8
1DIM
100
AcDbLine
 10
2434.153090983001
 20
-288.7641423589012
 30
0.0
 11
2434.153090983
 21
-341.2641423589014
 31
0.0
  0
LINE
  5
1AB45
330
18
100
AcDbEntity
  8
1DIM
100
AcDbLine
 10
2276.653090983
 20
-341.2641423588998
 30
0.0
 11
2276.653090983
 21
-288.7641423589012
 31
0.0
  0
LINE
  5
1AB46
330
18
100
AcDbEntity
  8
1DIM
100
AcDbLine
 10
2329.153090983001
 20
-309.7641423589009
 30
0.0
 11
2434.153090983001
 21
-309.7641423589018
 31
0.0
  0
LINE
  5
1AB47
330
18
100
AcDbEntity
  8
1DIM
100
AcDbLine
 10
2329.153090983001
 20
-320.2641423589009
 30
0.0
 11
2434.153090983001
 21
-320.2641423589018
 31
0.0
  0
TEXT
  5
1AB48
330
18
100
AcDbEntity
  8
1TEXT
100
AcDbText
 10
2288.553090983001
 20
-322.5062962975653
 30
0.0
 40
6.0
  1
クローム
 72
     1
 11
2302.753090983001
 21
-322.5062962975653
 31
0.0
100
AcDbText
  0
TEXT
  5
1AB49
330
18
100
AcDbEntity
  8
1TEXT
100
AcDbText
 10
2385.353090983002
 20
-318.3356778343759
 30
0.0
 40
6.0
  1
3-F4K-CD-LJ
 41
0.7
 72
     1
 11
2407.753090983002
 21
-318.3356778343759
 31
0.0
100
AcDbText
  0
TEXT
  5
1AB4A
330
18
100
AcDbEntity
  8
1TEXT
100
AcDbText
 10
2385.353090983002
 20
-307.8356778343759
 30
0.0
 40
6.0
  1
3-F4K-CS-LJ
 41
0.7
 72
     1
 11
2407.753090983002
 21
-307.8356778343759
 31
0.0
100
AcDbText
  0
TEXT
  5
1AB4B
330
18
100
AcDbEntity
  8
1TEXT
100
AcDbText
 10
2385.353090983002
 20
-328.8356778343759
 30
0.0
 40
6.0
  1
3-F4K-CZ-LJ
 41
0.7
 72
     1
 11
2407.753090983002
 21
-328.8356778343759
 31
0.0
100
AcDbText
  0
TEXT
  5
1AB4C
330
18
100
AcDbEntity
  8
1TEXT
100
AcDbText
 10
2332.933090982999
 20
-307.2305127762568
 30
0.0
 40
6.0
  1
ブラストシルバー
 41
0.8
 72
     1
 11
2355.253090982999
 21
-307.2305127762568
 31
0.0
100
AcDbText
  0
TEXT
  5
1AB4D
330
18
100
AcDbEntity
  8
1TEXT
100
AcDbText
 10
2329.838090982999
 20
-328.2305127762568
 30
0.0
 40
6.0
  1
ステンカラーヘアライン
 41
0.65
 72
     1
 11
2355.253090982999
 21
-328.2305127762568
 31
0.0
100
AcDbText
  0
LINE
  5
1AB4E
330
18
100
AcDbEntity
  8
1DIM
100
AcDbLine
 10
2276.653090983001
 20
-341.2641423588998
 30
0.0
 11
2434.153090983001
 21
-341.2641423589002
 31
0.0
  0
TEXT
  5
1AB4F
330
18
100
AcDbEntity
  8
1TEXT
100
AcDbText
 10
2385.353090983002
 20
-339.3356778343755
 30
0.0
 40
6.0
  1
3-F4K-CK-LJ
 41
0.7
 72
     1
 11
2407.753090983002
 21
-339.3356778343755
 31
0.0
100
AcDbText
  0
TEXT
  5
1AB50
330
18
100
AcDbEntity
  8
1TEXT
100
AcDbText
 10
2337.118090982999
 20
-338.7305127762561
 30
0.0
 40
6.0
  1
ブラストブラック
 41
0.65
 72
     1
 11
2355.253090982999
 21
-338.7305127762561
 31
0.0
100
AcDbText
  0
LINE
  5
1AF4C
330
18
100
AcDbEntity
  8
01
100
AcDbLine
 10
2572.652958643255
 20
-512.2641430570329
 30
0.0
 11
2572.652958643255
 21
-409.5426502742136
 31
0.0
1001
ACAD
1000
DSTYLE
1002
{
1070
    40
1040
1.3
1070
    45
1040
0.5
1002
}
  0
LINE
  5
1AF4D
330
18
100
AcDbEntity
  8
01
100
AcDbLine
 10
2583.652958643255
 20
-454.392825007744
 30
0.0
 11
2583.652958643255
 21
-409.5426502742136
 31
0.0
1001
ACAD
1000
DSTYLE
1002
{
1070
    40
1040
1.3
1070
    45
1040
0.5
1002
}
  0
LINE
  5
1AF4E
330
18
100
AcDbEntity
  8
01
100
AcDbLine
 10
2575.252958643255
 20
-410.8426502742136
 30
0.0
 11
2581.052958643255
 21
-410.8426502742136
 31
0.0
1001
ACAD
1000
DSTYLE
1002
{
1070
    40
1040
1.3
1070
    45
1040
0.5
1002
}
  0
TEXT
  5
1AF52
330
18
100
AcDbEntity
  8
01
  6
CONTINUOUS
100
AcDbText
 10
2545.656119736272
 20
-327.6808090265969
 30
0.0
 40
4.55
  1
材質：亜鉛ダイキャスト
100
AcDbText
  0
TEXT
  5
1AF53
330
18
100
AcDbEntity
  8
01
  6
CONTINUOUS
100
AcDbText
 10
2555.969453069605
 20
-335.2641423599302
 30
0.0
 40
4.55
  1
仕上げ：各種メッキ
100
AcDbText
  0
LINE
  5
1AF54
330
18
100
AcDbEntity
  8
01
100
AcDbLine
 10
2652.652958643255
 20
-482.2641423589016
 30
0.0
 11
2680.952958643255
 21
-482.2641423589016
 31
0.0
1001
ACAD
1000
DSTYLE
1002
{
1070
    40
1040
1.3
1070
    45
1040
0.5
1002
}
  0
LINE
  5
1AF55
330
18
100
AcDbEntity
  8
01
100
AcDbLine
 10
2652.652958643255
 20
-556.2641423589021
 30
0.0
 11
2680.952958643255
 21
-556.2641423589021
 31
0.0
1001
ACAD
1000
DSTYLE
1002
{
1070
    40
1040
1.3
1070
    45
1040
0.5
1002
}
  0
LINE
  5
1AF56
330
18
100
AcDbEntity
  8
01
100
AcDbLine
 10
2679.652958643255
 20
-484.8641423589016
 30
0.0
 11
2679.652958643255
 21
-553.664142358902
 31
0.0
1001
ACAD
1000
DSTYLE
1002
{
1070
    40
1040
1.3
1070
    45
1040
0.5
1002
}
  0
LINE
  5
1AF5A
330
18
100
AcDbEntity
  8
01
100
AcDbLine
 10
2652.652958643255
 20
-482.2641423589016
 30
0.0
 11
2652.652958643255
 21
-399.4627828061654
 31
0.0
1001
ACAD
1000
DSTYLE
1002
{
1070
    40
1040
1.3
1070
    45
1040
0.5
1002
}
  0
LINE
  5
1AF5B
330
18
100
AcDbEntity
  8
01
100
AcDbLine
 10
2583.652958643255
 20
-454.392825007744
 30
0.0
 11
2583.652958643255
 21
-399.4627828061654
 31
0.0
1001
ACAD
1000
DSTYLE
1002
{
1070
    40
1040
1.3
1070
    45
1040
0.5
1002
}
  0
LINE
  5
1AF5C
330
18
100
AcDbEntity
  8
01
100
AcDbLine
 10
2650.052958643255
 20
-400.7627828061654
 30
0.0
 11
2586.252958643255
 21
-400.7627828061654
 31
0.0
1001
ACAD
1000
DSTYLE
1002
{
1070
    40
1040
1.3
1070
    45
1040
0.5
1002
}
  0
LINE
  5
1AF60
330
18
100
AcDbEntity
  8
01
100
AcDbLine
 10
2583.652958643255
 20
-454.392825007744
 30
0.0
 11
2583.652958643255
 21
-409.5426502742136
 31
0.0
1001
ACAD
1000
DSTYLE
1002
{
1070
    40
1040
1.3
1070
    45
1040
0.5
1002
}
  0
LINE
  5
1AF61
330
18
100
AcDbEntity
  8
01
100
AcDbLine
 10
2634.652958643255
 20
-490.2641423589016
 30
0.0
 11
2634.652958643255
 21
-409.5426502742136
 31
0.0
1001
ACAD
1000
DSTYLE
1002
{
1070
    40
1040
1.3
1070
    45
1040
0.5
1002
}
  0
LINE
  5
1AF62
330
18
100
AcDbEntity
  8
01
100
AcDbLine
 10
2586.252958643255
 20
-410.8426502742136
 30
0.0
 11
2632.052958643255
 21
-410.8426502742136
 31
0.0
1001
ACAD
1000
DSTYLE
1002
{
1070
    40
1040
1.3
1070
    45
1040
0.5
1002
}
  0
LINE
  5
1AF66
330
18
100
AcDbEntity
  8
01
100
AcDbLine
 10
2452.153074983
 20
-460.2641423589021
 30
0.0
 11
2452.153074983
 21
-409.5426502742138
 31
0.0
1001
ACAD
1000
DSTYLE
1002
{
1070
    40
1040
1.3
1070
    45
1040
0.5
1002
}
  0
LINE
  5
1AF67
330
18
100
AcDbEntity
  8
01
100
AcDbLine
 10
2477.153074983
 20
-460.2641423589021
 30
0.0
 11
2477.153074983
 21
-409.5426502742138
 31
0.0
1001
ACAD
1000
DSTYLE
1002
{
1070
    40
1040
1.3
1070
    45
1040
0.5
1002
}
  0
LINE
  5
1AF68
330
18
100
AcDbEntity
  8
01
100
AcDbLine
 10
2454.753074983
 20
-410.8426502742138
 30
0.0
 11
2474.553074983
 21
-410.8426502742138
 31
0.0
1001
ACAD
1000
DSTYLE
1002
{
1070
    40
1040
1.3
1070
    45
1040
0.5
1002
}
  0
LINE
  5
1AF6C
330
18
100
AcDbEntity
  8
01
100
AcDbLine
 10
2431.452113088675
 20
-539.5141423589021
 30
0.0
 11
2430.153074982998
 21
-538.7641423589021
 31
0.0
  0
LINE
  5
1AF6D
330
18
100
AcDbEntity
  8
01
100
AcDbLine
 10
2430.153074982998
 20
-538.7641423589021
 30
0.0
 11
2428.854036877321
 21
-539.5141423589021
 31
0.0
  0
LINE
  5
1AF6E
330
18
100
AcDbEntity
  8
01
100
AcDbLine
 10
2428.854036877321
 20
-539.5141423589021
 30
0.0
 11
2428.854036877321
 21
-541.0141423589021
 31
0.0
  0
LINE
  5
1AF6F
330
18
100
AcDbEntity
  8
01
100
AcDbLine
 10
2428.854036877321
 20
-541.0141423589021
 30
0.0
 11
2430.153074982998
 21
-541.7641423589021
 31
0.0
  0
LINE
  5
1AF70
330
18
100
AcDbEntity
  8
01
100
AcDbLine
 10
2430.153074982998
 20
-541.7641423589021
 30
0.0
 11
2431.452113088675
 21
-541.0141423589021
 31
0.0
  0
LINE
  5
1AF71
330
18
100
AcDbEntity
  8
01
100
AcDbLine
 10
2431.452113088675
 20
-541.0141423589021
 30
0.0
 11
2431.452113088675
 21
-539.5141423589021
 31
0.0
  0
LINE
  5
1AF72
330
18
100
AcDbEntity
  8
01
100
AcDbLine
 10
2470.699564649939
 20
-462.2686830138068
 30
0.0000000000563712
 11
2550.985695818148
 21
-462.2686830138068
 31
0.0000000000563712
1001
ACAD
1000
DSTYLE
1002
{
1070
    40
1040
1.3
1070
    45
1040
0.5
1002
}
  0
LINE
  5
1AF73
330
18
100
AcDbEntity
  8
01
100
AcDbLine
 10
2470.699564649939
 20
-576.2686830138068
 30
0.0000000000563712
 11
2550.985695818148
 21
-576.2686830138068
 31
0.0000000000563712
1001
ACAD
1000
DSTYLE
1002
{
1070
    40
1040
1.3
1070
    45
1040
0.5
1002
}
  0
LINE
  5
1AF74
330
18
100
AcDbEntity
  8
01
100
AcDbLine
 10
2549.685695818147
 20
-464.8686830138068
 30
0.0000000000563712
 11
2549.685695818147
 21
-573.6686830138068
 31
0.0000000000563712
1001
ACAD
1000
DSTYLE
1002
{
1070
    40
1040
1.3
1070
    45
1040
0.5
1002
}
  0
LINE
  5
1AF78
330
18
100
AcDbEntity
  8
01
100
AcDbLine
 10
2471.297625046703
 20
-454.3691281582232
 30
0.0000000000563712
 11
2560.350029984372
 21
-454.3691281582232
 31
0.0000000000563712
1001
ACAD
1000
DSTYLE
1002
{
1070
    40
1040
1.3
1070
    45
1040
0.5
1002
}
  0
LINE
  5
1AF79
330
18
100
AcDbEntity
  8
01
100
AcDbLine
 10
2471.224539242033
 20
-584.1686830138067
 30
0.0000000000563712
 11
2560.350029984372
 21
-584.1686830138067
 31
0.0000000000563712
1001
ACAD
1000
DSTYLE
1002
{
1070
    40
1040
1.3
1070
    45
1040
0.5
1002
}
  0
LINE
  5
1AF7A
330
18
100
AcDbEntity
  8
01
100
AcDbLine
 10
2559.050029984372
 20
-456.9691281582233
 30
0.0000000000563712
 11
2559.050029984372
 21
-581.5686830138067
 31
0.0000000000563712
1001
ACAD
1000
DSTYLE
1002
{
1070
    40
1040
1.3
1070
    45
1040
0.5
1002
}
  0
CIRCLE
  5
1AF7E
330
18
100
AcDbEntity
  8
01
100
AcDbCircle
 10
2499.152958643256
 20
-540.2641423589016
 30
0.0
 40
3.0
  0
LINE
  5
1AF7F
330
18
100
AcDbEntity
  8
01
  6
BYBLOCK
100
AcDbLine
 10
2575.252958643255
 20
-411.5393181682136
 30
0.0
 11
2572.652958643255
 21
-410.8426502742136
 31
0.0
  0
LINE
  5
1AF80
330
18
100
AcDbEntity
  8
01
  6
BYBLOCK
100
AcDbLine
 10
2572.652958643255
 20
-410.8426502742136
 30
0.0
 11
2575.252958643255
 21
-410.1459823802136
 31
0.0
  0
LINE
  5
1AF81
330
18
100
AcDbEntity
  8
01
  6
BYBLOCK
100
AcDbLine
 10
2572.652958643255
 20
-410.8426502742136
 30
0.0
 11
2575.252958643255
 21
-410.8426502742136
 31
0.0
  0
LINE
  5
1AF82
330
18
100
AcDbEntity
  8
01
  6
BYBLOCK
100
AcDbLine
 10
2581.052958643255
 20
-410.1459823802136
 30
0.0
 11
2583.652958643255
 21
-410.8426502742136
 31
0.0
  0
LINE
  5
1AF83
330
18
100
AcDbEntity
  8
01
  6
BYBLOCK
100
AcDbLine
 10
2583.652958643255
 20
-410.8426502742136
 30
0.0
 11
2581.052958643255
 21
-411.5393181682136
 31
0.0
  0
LINE
  5
1AF84
330
18
100
AcDbEntity
  8
01
  6
BYBLOCK
100
AcDbLine
 10
2583.652958643255
 20
-410.8426502742136
 30
0.0
 11
2581.052958643255
 21
-410.8426502742136
 31
0.0
  0
TEXT
  5
1AF85
330
18
100
AcDbEntity
  8
01
  6
CONTINUOUS
100
AcDbText
 10
2575.877958643255
 20
-409.9326502742136
 30
0.0
 40
4.55
  1
11
100
AcDbText
1001
ACAD
1000
DSTYLE
1002
{
1070
    40
1040
1.3
1070
    45
1040
0.5
1002
}
  0
LINE
  5
1AF86
330
18
100
AcDbEntity
  8
01
  6
BYBLOCK
100
AcDbLine
 10
2678.956290749255
 20
-484.8641423589016
 30
0.0
 11
2679.652958643255
 21
-482.2641423589016
 31
0.0
  0
LINE
  5
1AF87
330
18
100
AcDbEntity
  8
01
  6
BYBLOCK
100
AcDbLine
 10
2679.652958643255
 20
-482.2641423589016
 30
0.0
 11
2680.349626537255
 21
-484.8641423589016
 31
0.0
  0
LINE
  5
1AF88
330
18
100
AcDbEntity
  8
01
  6
BYBLOCK
100
AcDbLine
 10
2679.652958643255
 20
-482.2641423589016
 30
0.0
 11
2679.652958643255
 21
-484.8641423589016
 31
0.0
  0
LINE
  5
1AF89
330
18
100
AcDbEntity
  8
01
  6
BYBLOCK
100
AcDbLine
 10
2680.349626537255
 20
-553.664142358902
 30
0.0
 11
2679.652958643255
 21
-556.2641423589021
 31
0.0
  0
LINE
  5
1AF8A
330
18
100
AcDbEntity
  8
01
  6
BYBLOCK
100
AcDbLine
 10
2679.652958643255
 20
-556.2641423589021
 30
0.0
 11
2678.956290749255
 21
-553.664142358902
 31
0.0
  0
LINE
  5
1AF8B
330
18
100
AcDbEntity
  8
01
  6
BYBLOCK
100
AcDbLine
 10
2679.652958643255
 20
-556.2641423589021
 30
0.0
 11
2679.652958643255
 21
-553.664142358902
 31
0.0
  0
TEXT
  5
1AF8C
330
18
100
AcDbEntity
  8
01
  6
CONTINUOUS
100
AcDbText
 10
2678.742958643255
 20
-501.2927982728829
 30
0.0
 40
4.55
  1
74
 50
90.0
100
AcDbText
1001
ACAD
1000
DSTYLE
1002
{
1070
    40
1040
1.3
1070
    45
1040
0.5
1002
}
  0
LINE
  5
1AF8D
330
18
100
AcDbEntity
  8
01
  6
BYBLOCK
100
AcDbLine
 10
2650.052958643255
 20
-400.0661149121655
 30
0.0
 11
2652.652958643255
 21
-400.7627828061654
 31
0.0
  0
LINE
  5
1AF8E
330
18
100
AcDbEntity
  8
01
  6
BYBLOCK
100
AcDbLine
 10
2652.652958643255
 20
-400.7627828061654
 30
0.0
 11
2650.052958643255
 21
-401.4594507001654
 31
0.0
  0
LINE
  5
1AF8F
330
18
100
AcDbEntity
  8
01
  6
BYBLOCK
100
AcDbLine
 10
2652.652958643255
 20
-400.7627828061654
 30
0.0
 11
2650.052958643255
 21
-400.7627828061654
 31
0.0
  0
LINE
  5
1AF90
330
18
100
AcDbEntity
  8
01
  6
BYBLOCK
100
AcDbLine
 10
2586.252958643255
 20
-401.4594507001654
 30
0.0
 11
2583.652958643255
 21
-400.7627828061654
 31
0.0
  0
LINE
  5
1AF91
330
18
100
AcDbEntity
  8
01
  6
BYBLOCK
100
AcDbLine
 10
2583.652958643255
 20
-400.7627828061654
 30
0.0
 11
2586.252958643255
 21
-400.0661149121655
 31
0.0
  0
LINE
  5
1AF92
330
18
100
AcDbEntity
  8
01
  6
BYBLOCK
100
AcDbLine
 10
2583.652958643255
 20
-400.7627828061654
 30
0.0
 11
2586.252958643255
 21
-400.7627828061654
 31
0.0
  0
TEXT
  5
1AF93
330
18
100
AcDbEntity
  8
01
  6
CONTINUOUS
100
AcDbText
 10
2614.344440124737
 20
-399.8527828061655
 30
0.0
 40
4.55
  1
69
100
AcDbText
1001
ACAD
1000
DSTYLE
1002
{
1070
    40
1040
1.3
1070
    45
1040
0.5
1002
}
  0
LINE
  5
1AF94
330
18
100
AcDbEntity
  8
01
  6
BYBLOCK
100
AcDbLine
 10
2586.252958643255
 20
-411.5393181682136
 30
0.0
 11
2583.652958643255
 21
-410.8426502742136
 31
0.0
  0
LINE
  5
1AF95
330
18
100
AcDbEntity
  8
01
  6
BYBLOCK
100
AcDbLine
 10
2583.652958643255
 20
-410.8426502742136
 30
0.0
 11
2586.252958643255
 21
-410.1459823802136
 31
0.0
  0
LINE
  5
1AF96
330
18
100
AcDbEntity
  8
01
  6
BYBLOCK
100
AcDbLine
 10
2583.652958643255
 20
-410.8426502742136
 30
0.0
 11
2586.252958643255
 21
-410.8426502742136
 31
0.0
  0
LINE
  5
1AF97
330
18
100
AcDbEntity
  8
01
  6
BYBLOCK
100
AcDbLine
 10
2632.052958643255
 20
-410.1459823802136
 30
0.0
 11
2634.652958643255
 21
-410.8426502742136
 31
0.0
  0
LINE
  5
1AF98
330
18
100
AcDbEntity
  8
01
  6
BYBLOCK
100
AcDbLine
 10
2634.652958643255
 20
-410.8426502742136
 30
0.0
 11
2632.052958643255
 21
-411.5393181682136
 31
0.0
  0
LINE
  5
1AF99
330
18
100
AcDbEntity
  8
01
  6
BYBLOCK
100
AcDbLine
 10
2634.652958643255
 20
-410.8426502742136
 30
0.0
 11
2632.052958643255
 21
-410.8426502742136
 31
0.0
  0
TEXT
  5
1AF9A
330
18
100
AcDbEntity
  8
01
  6
CONTINUOUS
100
AcDbText
 10
2606.103826698811
 20
-409.9326502742136
 30
0.0
 40
4.55
  1
51
100
AcDbText
1001
ACAD
1000
DSTYLE
1002
{
1070
    40
1040
1.3
1070
    45
1040
0.5
1002
}
  0
LINE
  5
1AF9B
330
18
100
AcDbEntity
  8
01
  6
BYBLOCK
100
AcDbLine
 10
2454.753074983
 20
-411.5393181682138
 30
0.0
 11
2452.153074983
 21
-410.8426502742138
 31
0.0
  0
LINE
  5
1AF9C
330
18
100
AcDbEntity
  8
01
  6
BYBLOCK
100
AcDbLine
 10
2452.153074983
 20
-410.8426502742138
 30
0.0
 11
2454.753074983
 21
-410.1459823802139
 31
0.0
  0
LINE
  5
1AF9D
330
18
100
AcDbEntity
  8
01
  6
BYBLOCK
100
AcDbLine
 10
2452.153074983
 20
-410.8426502742138
 30
0.0
 11
2454.753074983
 21
-410.8426502742138
 31
0.0
  0
LINE
  5
1AF9E
330
18
100
AcDbEntity
  8
01
  6
BYBLOCK
100
AcDbLine
 10
2474.553074983
 20
-410.1459823802139
 30
0.0
 11
2477.153074983
 21
-410.8426502742138
 31
0.0
  0
LINE
  5
1AF9F
330
18
100
AcDbEntity
  8
01
  6
BYBLOCK
100
AcDbLine
 10
2477.153074983
 20
-410.8426502742138
 30
0.0
 11
2474.553074983
 21
-411.5393181682138
 31
0.0
  0
LINE
  5
1AFA0
330
18
100
AcDbEntity
  8
01
  6
BYBLOCK
100
AcDbLine
 10
2477.153074983
 20
-410.8426502742138
 30
0.0
 11
2474.553074983
 21
-410.8426502742138
 31
0.0
  0
TEXT
  5
1AFA1
330
18
100
AcDbEntity
  8
01
  6
CONTINUOUS
100
AcDbText
 10
2460.861408316333
 20
-409.9326502742139
 30
0.0
 40
4.55
  1
25
100
AcDbText
1001
ACAD
1000
DSTYLE
1002
{
1070
    40
1040
1.3
1070
    45
1040
0.5
1002
}
  0
LINE
  5
1AFA2
330
18
100
AcDbEntity
  8
01
  6
BYBLOCK
100
AcDbLine
 10
2548.989027924148
 20
-464.8686830138068
 30
0.0000000000563712
 11
2549.685695818147
 21
-462.2686830138068
 31
0.0000000000563712
  0
LINE
  5
1AFA3
330
18
100
AcDbEntity
  8
01
  6
BYBLOCK
100
AcDbLine
 10
2549.685695818147
 20
-462.2686830138068
 30
0.0000000000563712
 11
2550.382363712147
 21
-464.8686830138068
 31
0.0000000000563712
  0
LINE
  5
1AFA4
330
18
100
AcDbEntity
  8
01
  6
BYBLOCK
100
AcDbLine
 10
2549.685695818147
 20
-462.2686830138068
 30
0.0000000000563712
 11
2549.685695818147
 21
-464.8686830138068
 31
0.0000000000563712
  0
LINE
  5
1AFA5
330
18
100
AcDbEntity
  8
01
  6
BYBLOCK
100
AcDbLine
 10
2550.382363712147
 20
-573.6686830138068
 30
0.0000000000563712
 11
2549.685695818147
 21
-576.2686830138068
 31
0.0000000000563712
  0
LINE
  5
1AFA6
330
18
100
AcDbEntity
  8
01
  6
BYBLOCK
100
AcDbLine
 10
2549.685695818147
 20
-576.2686830138068
 30
0.0000000000563712
 11
2548.989027924148
 21
-573.6686830138068
 31
0.0000000000563712
  0
LINE
  5
1AFA7
330
18
100
AcDbEntity
  8
01
  6
BYBLOCK
100
AcDbLine
 10
2549.685695818147
 20
-576.2686830138068
 30
0.0000000000563712
 11
2549.685695818147
 21
-573.6686830138068
 31
0.0000000000563712
  0
TEXT
  5
1AFA8
330
18
100
AcDbEntity
  8
01
  6
CONTINUOUS
100
AcDbText
 10
2548.775695818148
 20
-494.6856606658853
 30
0.0000000000563712
 40
4.55
  1
114
 50
90.0
100
AcDbText
1001
ACAD
1000
DSTYLE
1002
{
1070
    40
1040
1.3
1070
    45
1040
0.5
1002
}
  0
LINE
  5
1AFA9
330
18
100
AcDbEntity
  8
01
  6
BYBLOCK
100
AcDbLine
 10
2558.353362090372
 20
-456.9691281582233
 30
0.0000000000563712
 11
2559.050029984372
 21
-454.3691281582232
 31
0.0000000000563712
  0
LINE
  5
1AFAA
330
18
100
AcDbEntity
  8
01
  6
BYBLOCK
100
AcDbLine
 10
2559.050029984372
 20
-454.3691281582232
 30
0.0000000000563712
 11
2559.746697878372
 21
-456.9691281582233
 31
0.0000000000563712
  0
LINE
  5
1AFAB
330
18
100
AcDbEntity
  8
01
  6
BYBLOCK
100
AcDbLine
 10
2559.050029984372
 20
-454.3691281582232
 30
0.0000000000563712
 11
2559.050029984372
 21
-456.9691281582233
 31
0.0000000000563712
  0
LINE
  5
1AFAC
330
18
100
AcDbEntity
  8
01
  6
BYBLOCK
100
AcDbLine
 10
2559.746697878372
 20
-581.5686830138067
 30
0.0000000000563712
 11
2559.050029984372
 21
-584.1686830138067
 31
0.0000000000563712
  0
LINE
  5
1AFAD
330
18
100
AcDbEntity
  8
01
  6
BYBLOCK
100
AcDbLine
 10
2559.050029984372
 20
-584.1686830138067
 30
0.0000000000563712
 11
2558.353362090372
 21
-581.5686830138067
 31
0.0000000000563712
  0
LINE
  5
1AFAE
330
18
100
AcDbEntity
  8
01
  6
BYBLOCK
100
AcDbLine
 10
2559.050029984372
 20
-584.1686830138067
 30
0.0000000000563712
 11
2559.050029984372
 21
-581.5686830138067
 31
0.0000000000563712
  0
TEXT
  5
1AFAF
330
18
100
AcDbEntity
  8
01
  6
CONTINUOUS
100
AcDbText
 10
2558.140029984372
 20
-495.4702246686929
 30
0.0000000000563712
 40
4.55
  1
130
 50
90.0
100
AcDbText
1001
ACAD
1000
DSTYLE
1002
{
1070
    40
1040
1.3
1070
    45
1040
0.5
1002
}
  0
LINE
  5
1AFB0
330
18
100
AcDbEntity
  8
1DIM
100
AcDbLine
 10
2420.749663814779
 20
-480.2641239050308
 30
0.0
 11
2420.749663814779
 21
-409.5426502742131
 31
0.0
1001
ACAD
1000
DSTYLE
1002
{
1070
    40
1040
1.3
1070
    45
1040
0.5
1070
    79
1070
     2
1070
   179
1070
     2
1070
   272
1070
     2
1070
   341
1005
0
1002
}
  0
LINE
  5
1AFB1
330
18
100
AcDbEntity
  8
1DIM
100
AcDbLine
 10
2444.653191322745
 20
-426.2641423589016
 30
0.0
 11
2444.653191322745
 21
-409.5426502742131
 31
0.0
1001
ACAD
1000
DSTYLE
1002
{
1070
    40
1040
1.3
1070
    45
1040
0.5
1070
    79
1070
     2
1070
   179
1070
     2
1070
   272
1070
     2
1070
   341
1005
0
1002
}
  0
LINE
  5
1AFB2
330
18
100
AcDbEntity
  8
1DIM
100
AcDbLine
 10
2423.349663814779
 20
-410.8426502742132
 30
0.0
 11
2442.053191322745
 21
-410.8426502742132
 31
0.0
1001
ACAD
1000
DSTYLE
1002
{
1070
    40
1040
1.3
1070
    45
1040
0.5
1070
    79
1070
     2
1070
   179
1070
     2
1070
   272
1070
     2
1070
   341
1005
0
1002
}
  0
LINE
  5
1AFB6
330
18
100
AcDbEntity
  8
1DIM
100
AcDbLine
 10
2484.653074983
 20
-426.2641423589016
 30
0.0
 11
2484.653074983
 21
-409.5426502742131
 31
0.0
1001
ACAD
1000
DSTYLE
1002
{
1070
    40
1040
1.3
1070
    45
1040
0.5
1070
    79
1070
     2
1070
   179
1070
     2
1070
   272
1070
     2
1070
   341
1005
0
1002
}
  0
LINE
  5
1AFB7
330
18
100
AcDbEntity
  8
1DIM
100
AcDbLine
 10
2494.950984681484
 20
-490.2518357966551
 30
0.0
 11
2494.950984681484
 21
-409.5426502742131
 31
0.0
1001
ACAD
1000
DSTYLE
1002
{
1070
    40
1040
1.3
1070
    45
1040
0.5
1070
    79
1070
     2
1070
   179
1070
     2
1070
   272
1070
     2
1070
   341
1005
0
1002
}
  0
LINE
  5
1AFB8
330
18
100
AcDbEntity
  8
1DIM
100
AcDbLine
 10
2487.253074983
 20
-410.8426502742132
 30
0.0
 11
2492.350984681484
 21
-410.8426502742132
 31
0.0
1001
ACAD
1000
DSTYLE
1002
{
1070
    40
1040
1.3
1070
    45
1040
0.5
1070
    79
1070
     2
1070
   179
1070
     2
1070
   272
1070
     2
1070
   341
1005
0
1002
}
  0
LINE
  5
1AFB9
330
18
100
AcDbEntity
  8
1DIM
100
AcDbLine
 10
2494.950984681484
 20
-410.8426502742132
 30
0.0
 11
2512.58765134815
 21
-410.8426502742132
 31
0.0
1001
ACAD
1000
DSTYLE
1002
{
1070
    40
1040
1.3
1070
    45
1040
0.5
1070
    79
1070
     2
1070
   179
1070
     2
1070
   272
1070
     2
1070
   341
1005
0
1002
}
  0
LINE
  5
1AFBE
330
18
100
AcDbEntity
  8
1DIM
100
AcDbLine
 10
2632.273707912962
 20
-316.668208075571
 30
0.0
 11
2604.806119736271
 21
-336.1741423599303
 31
0.0
1001
ACAD
1000
DSTYLE
1002
{
1070
    40
1040
1.3
1070
    45
1040
0.5
1002
}
  0
TEXT
  5
1AFBF
330
18
100
AcDbEntity
  8
1DIM
  6
CONTINUOUS
100
AcDbText
 10
2683.221844555122
 20
-310.24307190912
 30
0.0
 40
4.55
  1
材質：アルミ
100
AcDbText
  0
TEXT
  5
1AFC0
330
18
100
AcDbEntity
  8
1DIM
  6
CONTINUOUS
100
AcDbText
 10
2683.373511221789
 20
-317.8264052424533
 30
0.0
 40
4.55
  1
仕上げ：各種仕上げ
100
AcDbText
  0
LINE
  5
1AFC2
330
18
100
AcDbEntity
  8
1DIM
100
AcDbLine
 10
2668.398458560063
 20
-332.3525622451805
 30
0.0
 11
2680.015177888456
 21
-318.7364052424534
 31
0.0
1001
ACAD
1000
DSTYLE
1002
{
1070
    40
1040
1.3
1070
    45
1040
0.5
1002
}
  0
LINE
  5
1AFC3
330
18
100
AcDbEntity
  8
1DIM
100
AcDbLine
 10
2680.015177888456
 20
-318.7364052424534
 30
0.0
 11
2731.603511221789
 21
-318.7364052424534
 31
0.0
1001
ACAD
1000
DSTYLE
1002
{
1070
    40
1040
1.3
1070
    45
1040
0.5
1002
}
  0
LINE
  5
1AFC4
330
18
100
AcDbEntity
  8
1DIM
100
AcDbLine
 10
2651.053842825315
 20
-260.7641423599302
 30
0.0
 11
2671.614233585028
 21
-260.7641423599302
 31
0.0
1001
ACAD
1000
DSTYLE
1002
{
1070
    45
1040
0.5
1070
    40
1040
1.3
1002
}
  0
LINE
  5
1AFC5
330
18
100
AcDbEntity
  8
1DIM
100
AcDbLine
 10
2652.653842825315
 20
-279.5641423599302
 30
0.0
 11
2671.614233585028
 21
-279.5641423599302
 31
0.0
1001
ACAD
1000
DSTYLE
1002
{
1070
    45
1040
0.5
1070
    40
1040
1.3
1002
}
  0
LINE
  5
1AFC6
330
18
100
AcDbEntity
  8
1DIM
100
AcDbLine
 10
2670.314233585028
 20
-263.3641423599303
 30
0.0
 11
2670.314233585028
 21
-276.9641423599302
 31
0.0
1001
ACAD
1000
DSTYLE
1002
{
1070
    45
1040
0.5
1070
    40
1040
1.3
1002
}
  0
LINE
  5
1AFCA
330
18
100
AcDbEntity
  8
1DIM
100
AcDbLine
 10
2634.652958643255
 20
-311.7641423599293
 30
0.0
 11
2634.652958643255
 21
-376.5641423599293
 31
0.0
1001
ACAD
1000
DSTYLE
1002
{
1070
    40
1040
1.3
1070
    45
1040
0.5
1002
}
  0
LINE
  5
1AFCB
330
18
100
AcDbEntity
  8
1DIM
100
AcDbLine
 10
2749.652958643253
 20
-339.2641423599298
 30
0.0
 11
2749.652958643253
 21
-376.5641423599293
 31
0.0
1001
ACAD
1000
DSTYLE
1002
{
1070
    40
1040
1.3
1070
    45
1040
0.5
1002
}
  0
LINE
  5
1AFCC
330
18
100
AcDbEntity
  8
1DIM
100
AcDbLine
 10
2637.252958643255
 20
-375.2641423599293
 30
0.0
 11
2747.052958643253
 21
-375.2641423599293
 31
0.0
1001
ACAD
1000
DSTYLE
1002
{
1070
    40
1040
1.3
1070
    45
1040
0.5
1002
}
  0
LINE
  5
1AFD0
330
18
100
AcDbEntity
  8
1DIM
100
AcDbLine
 10
2613.65295864325
 20
-348.264142359928
 30
0.0
 11
2613.65295864325
 21
-386.5641423599293
 31
0.0
1001
ACAD
1000
DSTYLE
1002
{
1070
    40
1040
1.3
1070
    45
1040
0.5
1002
}
  0
LINE
  5
1AFD1
330
18
100
AcDbEntity
  8
1DIM
100
AcDbLine
 10
2749.652958643253
 20
-339.2641423599298
 30
0.0
 11
2749.652958643253
 21
-386.5641423599293
 31
0.0
1001
ACAD
1000
DSTYLE
1002
{
1070
    40
1040
1.3
1070
    45
1040
0.5
1002
}
  0
LINE
  5
1AFD2
330
18
100
AcDbEntity
  8
1DIM
100
AcDbLine
 10
2616.25295864325
 20
-385.2641423599293
 30
0.0
 11
2747.052958643253
 21
-385.2641423599293
 31
0.0
1001
ACAD
1000
DSTYLE
1002
{
1070
    40
1040
1.3
1070
    45
1040
0.5
1002
}
  0
LINE
  5
1AFD6
330
18
100
AcDbEntity
  8
1DIM
100
AcDbLine
 10
2748.243018994183
 20
-550.2641423589448
 30
0.0
 11
2790.952958643256
 21
-550.2641423589448
 31
0.0
1001
ACAD
1000
DSTYLE
1002
{
1070
    40
1040
1.3
1070
    45
1040
0.5
1002
}
  0
LINE
  5
1AFD7
330
18
100
AcDbEntity
  8
1DIM
100
AcDbLine
 10
2748.243018994184
 20
-530.2641423589021
 30
0.0
 11
2790.952958643256
 21
-530.2641423589021
 31
0.0
1001
ACAD
1000
DSTYLE
1002
{
1070
    40
1040
1.3
1070
    45
1040
0.5
1002
}
  0
LINE
  5
1AFD8
330
18
100
AcDbEntity
  8
1DIM
100
AcDbLine
 10
2789.652958643256
 20
-547.6641423589448
 30
0.0
 11
2789.652958643256
 21
-532.8641423589021
 31
0.0
1001
ACAD
1000
DSTYLE
1002
{
1070
    40
1040
1.3
1070
    45
1040
0.5
1002
}
  0
LINE
  5
1AFDC
330
18
100
AcDbEntity
  8
1DIM
100
AcDbLine
 10
2659.152958643256
 20
-604.2641423589016
 30
0.0
 11
2800.952958643256
 21
-604.2641423589016
 31
0.0
1001
ACAD
1000
DSTYLE
1002
{
1070
    40
1040
1.3
1070
    45
1040
0.5
1070
   341
1005
0
1002
}
  0
LINE
  5
1AFDD
330
18
100
AcDbEntity
  8
1DIM
100
AcDbLine
 10
2659.152958643256
 20
-426.2641423589016
 30
0.0
 11
2800.952958643256
 21
-426.2641423589017
 31
0.0
1001
ACAD
1000
DSTYLE
1002
{
1070
    40
1040
1.3
1070
    45
1040
0.5
1070
   341
1005
0
1002
}
  0
LINE
  5
1AFDE
330
18
100
AcDbEntity
  8
1DIM
100
AcDbLine
 10
2799.652958643256
 20
-601.6641423589016
 30
0.0
 11
2799.652958643256
 21
-428.8641423589017
 31
0.0
1001
ACAD
1000
DSTYLE
1002
{
1070
    40
1040
1.3
1070
    45
1040
0.5
1070
   341
1005
0
1002
}
  0
LINE
  5
1AFE2
330
18
100
AcDbEntity
  8
1DIM
100
AcDbLine
 10
2609.652958643256
 20
-426.7641423589016
 30
0.0
 11
2609.652958643256
 21
-419.564142358902
 31
0.0
1001
ACAD
1000
DSTYLE
1002
{
1070
    40
1040
1.3
1070
    45
1040
0.5
1070
   341
1005
0
1002
}
  0
LINE
  5
1AFE3
330
18
100
AcDbEntity
  8
1DIM
100
AcDbLine
 10
2659.652958643256
 20
-426.7641423589016
 30
0.0
 11
2659.652958643256
 21
-419.564142358902
 31
0.0
1001
ACAD
1000
DSTYLE
1002
{
1070
    40
1040
1.3
1070
    45
1040
0.5
1070
   341
1005
0
1002
}
  0
LINE
  5
1AFE4
330
18
100
AcDbEntity
  8
1DIM
100
AcDbLine
 10
2612.252958643256
 20
-420.864142358902
 30
0.0
 11
2657.052958643256
 21
-420.864142358902
 31
0.0
1001
ACAD
1000
DSTYLE
1002
{
1070
    40
1040
1.3
1070
    45
1040
0.5
1070
   341
1005
0
1002
}
  0
LINE
  5
1AFE8
330
18
100
AcDbEntity
  8
1DIM
100
AcDbLine
 10
2748.243018994183
 20
-329.2641423599298
 30
0.0
 11
2790.953074983002
 21
-329.2641423599298
 31
0.0
1001
ACAD
1000
DSTYLE
1002
{
1070
    40
1040
1.3
1070
    45
1040
0.5
1002
}
  0
LINE
  5
1AFE9
330
18
100
AcDbEntity
  8
1DIM
100
AcDbLine
 10
2737.408222980348
 20
-290.2641423599302
 30
0.0
 11
2790.953074983002
 21
-290.2641423599302
 31
0.0
1001
ACAD
1000
DSTYLE
1002
{
1070
    40
1040
1.3
1070
    45
1040
0.5
1002
}
  0
LINE
  5
1AFEA
330
18
100
AcDbEntity
  8
1DIM
100
AcDbLine
 10
2789.653074983002
 20
-326.6641423599298
 30
0.0
 11
2789.653074983002
 21
-292.8641423599303
 31
0.0
1001
ACAD
1000
DSTYLE
1002
{
1070
    40
1040
1.3
1070
    45
1040
0.5
1002
}
  0
LINE
  5
1AFEE
330
18
100
AcDbEntity
  8
1DIM
100
AcDbLine
 10
2748.243018994183
 20
-349.2641423599298
 30
0.0
 11
2800.953074983002
 21
-349.2641423599298
 31
0.0
1001
ACAD
1000
DSTYLE
1002
{
1070
    40
1040
1.3
1070
    45
1040
0.5
1002
}
  0
LINE
  5
1AFEF
330
18
100
AcDbEntity
  8
1DIM
100
AcDbLine
 10
2737.408222980348
 20
-290.2641423599302
 30
0.0
 11
2800.953074983002
 21
-290.2641423599302
 31
0.0
1001
ACAD
1000
DSTYLE
1002
{
1070
    40
1040
1.3
1070
    45
1040
0.5
1002
}
  0
LINE
  5
1AFF0
330
18
100
AcDbEntity
  8
1DIM
100
AcDbLine
 10
2799.653074983002
 20
-346.6641423599298
 30
0.0
 11
2799.653074983002
 21
-292.8641423599303
 31
0.0
1001
ACAD
1000
DSTYLE
1002
{
1070
    40
1040
1.3
1070
    45
1040
0.5
1002
}
  0
LINE
  5
1AFF4
330
18
100
AcDbEntity
  8
1DIM
100
AcDbLine
 10
2270.153191322744
 20
-604.2641423589016
 30
0.0
 11
2251.041749841887
 21
-604.2641423589016
 31
0.0
1001
ACAD
1000
DSTYLE
1002
{
1070
    40
1040
1.3
1002
}
  0
LINE
  5
1AFF5
330
18
100
AcDbEntity
  8
1DIM
100
AcDbLine
 10
2264.653078982999
 20
-540.2641423589021
 30
0.0
 11
2251.041749841887
 21
-540.2641423589021
 31
0.0
1001
ACAD
1000
DSTYLE
1002
{
1070
    40
1040
1.3
1002
}
  0
LINE
  5
1AFF6
330
18
100
AcDbEntity
  8
1DIM
100
AcDbLine
 10
2252.341749841887
 20
-601.6641423589016
 30
0.0
 11
2252.341749841887
 21
-542.8641423589021
 31
0.0
1001
ACAD
1000
DSTYLE
1002
{
1070
    40
1040
1.3
1002
}
  0
LINE
  5
1AFFA
330
18
100
AcDbEntity
  8
1DIM
100
AcDbLine
 10
2264.653078982999
 20
-540.2641423589021
 30
0.0
 11
2251.041749841887
 21
-540.2641423589021
 31
0.0
1001
ACAD
1000
DSTYLE
1002
{
1070
    40
1040
1.3
1002
}
  0
LINE
  5
1AFFB
330
18
100
AcDbEntity
  8
1DIM
100
AcDbLine
 10
2281.653070982999
 20
-490.2641423589016
 30
0.0
 11
2251.041749841887
 21
-490.2641423589016
 31
0.0
1001
ACAD
1000
DSTYLE
1002
{
1070
    40
1040
1.3
1002
}
  0
LINE
  5
1AFFC
330
18
100
AcDbEntity
  8
1DIM
100
AcDbLine
 10
2252.341749841887
 20
-537.664142358902
 30
0.0
 11
2252.341749841887
 21
-492.8641423589016
 31
0.0
1001
ACAD
1000
DSTYLE
1002
{
1070
    40
1040
1.3
1002
}
  0
LINE
  5
1B000
330
18
100
AcDbEntity
  8
0
  6
BYBLOCK
100
AcDbLine
 10
2423.349663814779
 20
-411.5393181682131
 30
0.0
 11
2420.749663814779
 21
-410.8426502742132
 31
0.0
  0
LINE
  5
1B001
330
18
100
AcDbEntity
  8
0
  6
BYBLOCK
100
AcDbLine
 10
2420.749663814779
 20
-410.8426502742132
 30
0.0
 11
2423.349663814779
 21
-410.1459823802132
 31
0.0
  0
LINE
  5
1B002
330
18
100
AcDbEntity
  8
0
  6
BYBLOCK
100
AcDbLine
 10
2420.749663814779
 20
-410.8426502742132
 30
0.0
 11
2423.349663814779
 21
-410.8426502742132
 31
0.0
  0
LINE
  5
1B003
330
18
100
AcDbEntity
  8
0
  6
BYBLOCK
100
AcDbLine
 10
2442.053191322745
 20
-410.1459823802132
 30
0.0
 11
2444.653191322745
 21
-410.8426502742132
 31
0.0
  0
LINE
  5
1B004
330
18
100
AcDbEntity
  8
0
  6
BYBLOCK
100
AcDbLine
 10
2444.653191322745
 20
-410.8426502742132
 30
0.0
 11
2442.053191322745
 21
-411.5393181682131
 31
0.0
  0
LINE
  5
1B005
330
18
100
AcDbEntity
  8
0
  6
BYBLOCK
100
AcDbLine
 10
2444.653191322745
 20
-410.8426502742132
 30
0.0
 11
2442.053191322745
 21
-410.8426502742132
 31
0.0
  0
TEXT
  5
1B006
330
18
100
AcDbEntity
  8
1DIM
  6
CONTINUOUS
100
AcDbText
 10
2428.909760902095
 20
-409.9326502742132
 30
0.0
 40
4.55
  1
24
100
AcDbText
1001
ACAD
1000
DSTYLE
1002
{
1070
    40
1040
1.3
1070
    45
1040
0.5
1070
    79
1070
     2
1070
   179
1070
     2
1070
   272
1070
     2
1070
   341
1005
0
1002
}
  0
LINE
  5
1B007
330
18
100
AcDbEntity
  8
0
  6
BYBLOCK
100
AcDbLine
 10
2487.253074983
 20
-411.5393181682131
 30
0.0
 11
2484.653074983
 21
-410.8426502742132
 31
0.0
  0
LINE
  5
1B008
330
18
100
AcDbEntity
  8
0
  6
BYBLOCK
100
AcDbLine
 10
2484.653074983
 20
-410.8426502742132
 30
0.0
 11
2487.253074983
 21
-410.1459823802132
 31
0.0
  0
LINE
  5
1B009
330
18
100
AcDbEntity
  8
0
  6
BYBLOCK
100
AcDbLine
 10
2484.653074983
 20
-410.8426502742132
 30
0.0
 11
2487.253074983
 21
-410.8426502742132
 31
0.0
  0
LINE
  5
1B00A
330
18
100
AcDbEntity
  8
0
  6
BYBLOCK
100
AcDbLine
 10
2492.350984681484
 20
-410.1459823802132
 30
0.0
 11
2494.950984681484
 21
-410.8426502742132
 31
0.0
  0
LINE
  5
1B00B
330
18
100
AcDbEntity
  8
0
  6
BYBLOCK
100
AcDbLine
 10
2494.950984681484
 20
-410.8426502742132
 30
0.0
 11
2492.350984681484
 21
-411.5393181682131
 31
0.0
  0
LINE
  5
1B00C
330
18
100
AcDbEntity
  8
0
  6
BYBLOCK
100
AcDbLine
 10
2494.950984681484
 20
-410.8426502742132
 30
0.0
 11
2492.350984681484
 21
-410.8426502742132
 31
0.0
  0
TEXT
  5
1B00D
330
18
100
AcDbEntity
  8
1DIM
  6
CONTINUOUS
100
AcDbText
 10
2499.381818014817
 20
-409.9326502742132
 30
0.0
 40
4.55
  1
10.5
100
AcDbText
1001
ACAD
1000
DSTYLE
1002
{
1070
    40
1040
1.3
1070
    45
1040
0.5
1070
    79
1070
     2
1070
   179
1070
     2
1070
   272
1070
     2
1070
   341
1005
0
1002
}
  0
LINE
  5
1B00E
330
18
100
AcDbEntity
  8
0
  6
BYBLOCK
100
AcDbLine
 10
2631.870337339053
 20
-316.1001954571948
 30
0.0
 11
2634.393559883316
 21
-315.1628085858051
 31
0.0
  0
LINE
  5
1B00F
330
18
100
AcDbEntity
  8
0
  6
BYBLOCK
100
AcDbLine
 10
2634.393559883316
 20
-315.1628085858051
 30
0.0
 11
2632.677078486871
 21
-317.2362206939472
 31
0.0
  0
LINE
  5
1B010
330
18
100
AcDbEntity
  8
0
  6
BYBLOCK
100
AcDbLine
 10
2634.393559883316
 20
-315.1628085858051
 30
0.0
 11
2632.273707912962
 21
-316.668208075571
 31
0.0
  0
LINE
  5
1B011
330
18
100
AcDbEntity
  8
0
  6
BYBLOCK
100
AcDbLine
 10
2668.92845067289
 20
-332.8047287132774
 30
0.0
 11
2666.710950312335
 21
-334.3305197558088
 31
0.0
  0
LINE
  5
1B012
330
18
100
AcDbEntity
  8
0
  6
BYBLOCK
100
AcDbLine
 10
2666.710950312335
 20
-334.3305197558088
 30
0.0
 11
2667.868466447236
 21
-331.9003957770835
 31
0.0
  0
LINE
  5
1B013
330
18
100
AcDbEntity
  8
0
  6
BYBLOCK
100
AcDbLine
 10
2666.710950312335
 20
-334.3305197558088
 30
0.0
 11
2668.398458560063
 21
-332.3525622451805
 31
0.0
  0
LINE
  5
1B014
330
18
100
AcDbEntity
  8
0
  6
BYBLOCK
100
AcDbLine
 10
2669.617565691028
 20
-263.3641423599303
 30
0.0
 11
2670.314233585028
 21
-260.7641423599302
 31
0.0
  0
LINE
  5
1B015
330
18
100
AcDbEntity
  8
0
  6
BYBLOCK
100
AcDbLine
 10
2670.314233585028
 20
-260.7641423599302
 30
0.0
 11
2671.010901479027
 21
-263.3641423599303
 31
0.0
  0
LINE
  5
1B016
330
18
100
AcDbEntity
  8
0
  6
BYBLOCK
100
AcDbLine
 10
2670.314233585028
 20
-260.7641423599302
 30
0.0
 11
2670.314233585028
 21
-263.3641423599303
 31
0.0
  0
LINE
  5
1B017
330
18
100
AcDbEntity
  8
0
  6
BYBLOCK
100
AcDbLine
 10
2671.010901479027
 20
-276.9641423599302
 30
0.0
 11
2670.314233585028
 21
-279.5641423599302
 31
0.0
  0
LINE
  5
1B018
330
18
100
AcDbEntity
  8
0
  6
BYBLOCK
100
AcDbLine
 10
2670.314233585028
 20
-279.5641423599302
 30
0.0
 11
2669.617565691028
 21
-276.9641423599302
 31
0.0
  0
LINE
  5
1B019
330
18
100
AcDbEntity
  8
0
  6
BYBLOCK
100
AcDbLine
 10
2670.314233585028
 20
-279.5641423599302
 30
0.0
 11
2670.314233585028
 21
-276.9641423599302
 31
0.0
  0
TEXT
  5
1B01A
330
18
100
AcDbEntity
  8
1DIM
  6
CONTINUOUS
100
AcDbText
 10
2669.404233585028
 20
-273.1985289340046
 30
0.0
 40
4.55
  1
19
 50
90.0
100
AcDbText
1001
ACAD
1000
DSTYLE
1002
{
1070
    45
1040
0.5
1070
    40
1040
1.3
1002
}
  0
LINE
  5
1B01B
330
18
100
AcDbEntity
  8
0
  6
BYBLOCK
100
AcDbLine
 10
2637.252958643255
 20
-375.9608102539293
 30
0.0
 11
2634.652958643255
 21
-375.2641423599293
 31
0.0
  0
LINE
  5
1B01C
330
18
100
AcDbEntity
  8
0
  6
BYBLOCK
100
AcDbLine
 10
2634.652958643255
 20
-375.2641423599293
 30
0.0
 11
2637.252958643255
 21
-374.5674744659294
 31
0.0
  0
LINE
  5
1B01D
330
18
100
AcDbEntity
  8
0
  6
BYBLOCK
100
AcDbLine
 10
2634.652958643255
 20
-375.2641423599293
 30
0.0
 11
2637.252958643255
 21
-375.2641423599293
 31
0.0
  0
LINE
  5
1B01E
330
18
100
AcDbEntity
  8
0
  6
BYBLOCK
100
AcDbLine
 10
2747.052958643253
 20
-374.5674744659294
 30
0.0
 11
2749.652958643253
 21
-375.2641423599293
 31
0.0
  0
LINE
  5
1B01F
330
18
100
AcDbEntity
  8
0
  6
BYBLOCK
100
AcDbLine
 10
2749.652958643253
 20
-375.2641423599293
 30
0.0
 11
2747.052958643253
 21
-375.9608102539293
 31
0.0
  0
LINE
  5
1B020
330
18
100
AcDbEntity
  8
0
  6
BYBLOCK
100
AcDbLine
 10
2749.652958643253
 20
-375.2641423599293
 30
0.0
 11
2747.052958643253
 21
-375.2641423599293
 31
0.0
  0
TEXT
  5
1B021
330
18
100
AcDbEntity
  8
1DIM
  6
CONTINUOUS
100
AcDbText
 10
2687.602958643254
 20
-374.3541423599294
 30
0.0
 40
4.55
  1
115
100
AcDbText
1001
ACAD
1000
DSTYLE
1002
{
1070
    40
1040
1.3
1070
    45
1040
0.5
1002
}
  0
LINE
  5
1B022
330
18
100
AcDbEntity
  8
0
  6
BYBLOCK
100
AcDbLine
 10
2616.25295864325
 20
-385.9608102539293
 30
0.0
 11
2613.65295864325
 21
-385.2641423599293
 31
0.0
  0
LINE
  5
1B023
330
18
100
AcDbEntity
  8
0
  6
BYBLOCK
100
AcDbLine
 10
2613.65295864325
 20
-385.2641423599293
 30
0.0
 11
2616.25295864325
 21
-384.5674744659294
 31
0.0
  0
LINE
  5
1B024
330
18
100
AcDbEntity
  8
0
  6
BYBLOCK
100
AcDbLine
 10
2613.65295864325
 20
-385.2641423599293
 30
0.0
 11
2616.25295864325
 21
-385.2641423599293
 31
0.0
  0
LINE
  5
1B025
330
18
100
AcDbEntity
  8
0
  6
BYBLOCK
100
AcDbLine
 10
2747.052958643253
 20
-384.5674744659294
 30
0.0
 11
2749.652958643253
 21
-385.2641423599293
 31
0.0
  0
LINE
  5
1B026
330
18
100
AcDbEntity
  8
0
  6
BYBLOCK
100
AcDbLine
 10
2749.652958643253
 20
-385.2641423599293
 30
0.0
 11
2747.052958643253
 21
-385.9608102539293
 31
0.0
  0
LINE
  5
1B027
330
18
100
AcDbEntity
  8
0
  6
BYBLOCK
100
AcDbLine
 10
2749.652958643253
 20
-385.2641423599293
 30
0.0
 11
2747.052958643253
 21
-385.2641423599293
 31
0.0
  0
TEXT
  5
1B028
330
18
100
AcDbEntity
  8
1DIM
  6
CONTINUOUS
100
AcDbText
 10
2676.344625309918
 20
-384.3541423599294
 30
0.0
 40
4.55
  1
136
100
AcDbText
1001
ACAD
1000
DSTYLE
1002
{
1070
    40
1040
1.3
1070
    45
1040
0.5
1002
}
  0
LINE
  5
1B029
330
18
100
AcDbEntity
  8
0
  6
BYBLOCK
100
AcDbLine
 10
2790.349626537256
 20
-547.6641423589448
 30
0.0
 11
2789.652958643256
 21
-550.2641423589448
 31
0.0
  0
LINE
  5
1B02A
330
18
100
AcDbEntity
  8
0
  6
BYBLOCK
100
AcDbLine
 10
2789.652958643256
 20
-550.2641423589448
 30
0.0
 11
2788.956290749256
 21
-547.6641423589448
 31
0.0
  0
LINE
  5
1B02B
330
18
100
AcDbEntity
  8
0
  6
BYBLOCK
100
AcDbLine
 10
2789.652958643256
 20
-550.2641423589448
 30
0.0
 11
2789.652958643256
 21
-547.6641423589448
 31
0.0
  0
LINE
  5
1B02C
330
18
100
AcDbEntity
  8
0
  6
BYBLOCK
100
AcDbLine
 10
2788.956290749256
 20
-532.8641423589021
 30
0.0
 11
2789.652958643256
 21
-530.2641423589021
 31
0.0
  0
LINE
  5
1B02D
330
18
100
AcDbEntity
  8
0
  6
BYBLOCK
100
AcDbLine
 10
2789.652958643256
 20
-530.2641423589021
 30
0.0
 11
2790.349626537256
 21
-532.8641423589021
 31
0.0
  0
LINE
  5
1B02E
330
18
100
AcDbEntity
  8
0
  6
BYBLOCK
100
AcDbLine
 10
2789.652958643256
 20
-530.2641423589021
 30
0.0
 11
2789.652958643256
 21
-532.8641423589021
 31
0.0
  0
TEXT
  5
1B02F
330
18
100
AcDbEntity
  8
1DIM
  6
CONTINUOUS
100
AcDbText
 10
2788.742958643255
 20
-543.7714340255898
 30
0.0
 40
4.55
  1
20
 50
90.0
100
AcDbText
1001
ACAD
1000
DSTYLE
1002
{
1070
    40
1040
1.3
1070
    45
1040
0.5
1002
}
  0
LINE
  5
1B030
330
18
100
AcDbEntity
  8
0
  6
BYBLOCK
100
AcDbLine
 10
2800.349626537256
 20
-601.6641423589016
 30
0.0
 11
2799.652958643256
 21
-604.2641423589016
 31
0.0
  0
LINE
  5
1B031
330
18
100
AcDbEntity
  8
0
  6
BYBLOCK
100
AcDbLine
 10
2799.652958643256
 20
-604.2641423589016
 30
0.0
 11
2798.956290749256
 21
-601.6641423589016
 31
0.0
  0
LINE
  5
1B032
330
18
100
AcDbEntity
  8
0
  6
BYBLOCK
100
AcDbLine
 10
2799.652958643256
 20
-604.2641423589016
 30
0.0
 11
2799.652958643256
 21
-601.6641423589016
 31
0.0
  0
LINE
  5
1B033
330
18
100
AcDbEntity
  8
0
  6
BYBLOCK
100
AcDbLine
 10
2798.956290749256
 20
-428.8641423589017
 30
0.0
 11
2799.652958643256
 21
-426.2641423589017
 31
0.0
  0
LINE
  5
1B034
330
18
100
AcDbEntity
  8
0
  6
BYBLOCK
100
AcDbLine
 10
2799.652958643256
 20
-426.2641423589017
 30
0.0
 11
2800.349626537256
 21
-428.8641423589017
 31
0.0
  0
LINE
  5
1B035
330
18
100
AcDbEntity
  8
0
  6
BYBLOCK
100
AcDbLine
 10
2799.652958643256
 20
-426.2641423589017
 30
0.0
 11
2799.652958643256
 21
-428.8641423589017
 31
0.0
  0
TEXT
  5
1B036
330
18
100
AcDbEntity
  8
1DIM
  6
CONTINUOUS
100
AcDbText
 10
2798.742958643255
 20
-520.5724756922345
 30
0.0
 40
4.55
  1
178
 50
90.0
100
AcDbText
1001
ACAD
1000
DSTYLE
1002
{
1070
    40
1040
1.3
1070
    45
1040
0.5
1070
   341
1005
0
1002
}
  0
LINE
  5
1B037
330
18
100
AcDbEntity
  8
0
  6
BYBLOCK
100
AcDbLine
 10
2612.252958643256
 20
-421.5608102529019
 30
0.0
 11
2609.652958643256
 21
-420.864142358902
 31
0.0
  0
LINE
  5
1B038
330
18
100
AcDbEntity
  8
0
  6
BYBLOCK
100
AcDbLine
 10
2609.652958643256
 20
-420.864142358902
 30
0.0
 11
2612.252958643256
 21
-420.167474464902
 31
0.0
  0
LINE
  5
1B039
330
18
100
AcDbEntity
  8
0
  6
BYBLOCK
100
AcDbLine
 10
2609.652958643256
 20
-420.864142358902
 30
0.0
 11
2612.252958643256
 21
-420.864142358902
 31
0.0
  0
LINE
  5
1B03A
330
18
100
AcDbEntity
  8
0
  6
BYBLOCK
100
AcDbLine
 10
2657.052958643256
 20
-420.167474464902
 30
0.0
 11
2659.652958643256
 21
-420.864142358902
 31
0.0
  0
LINE
  5
1B03B
330
18
100
AcDbEntity
  8
0
  6
BYBLOCK
100
AcDbLine
 10
2659.652958643256
 20
-420.864142358902
 30
0.0
 11
2657.052958643256
 21
-421.5608102529019
 31
0.0
  0
LINE
  5
1B03C
330
18
100
AcDbEntity
  8
0
  6
BYBLOCK
100
AcDbLine
 10
2659.652958643256
 20
-420.864142358902
 30
0.0
 11
2657.052958643256
 21
-420.864142358902
 31
0.0
  0
TEXT
  5
1B03D
330
18
100
AcDbEntity
  8
1DIM
  6
CONTINUOUS
100
AcDbText
 10
2631.129868365478
 20
-419.954142358902
 30
0.0
 40
4.55
  1
50
100
AcDbText
1001
ACAD
1000
DSTYLE
1002
{
1070
    40
1040
1.3
1070
    45
1040
0.5
1070
   341
1005
0
1002
}
  0
LINE
  5
1B03E
330
18
100
AcDbEntity
  8
0
  6
BYBLOCK
100
AcDbLine
 10
2790.349742877002
 20
-326.6641423599298
 30
0.0
 11
2789.653074983002
 21
-329.2641423599298
 31
0.0
  0
LINE
  5
1B03F
330
18
100
AcDbEntity
  8
0
  6
BYBLOCK
100
AcDbLine
 10
2789.653074983002
 20
-329.2641423599298
 30
0.0
 11
2788.956407089002
 21
-326.6641423599298
 31
0.0
  0
LINE
  5
1B040
330
18
100
AcDbEntity
  8
0
  6
BYBLOCK
100
AcDbLine
 10
2789.653074983002
 20
-329.2641423599298
 30
0.0
 11
2789.653074983002
 21
-326.6641423599298
 31
0.0
  0
LINE
  5
1B041
330
18
100
AcDbEntity
  8
0
  6
BYBLOCK
100
AcDbLine
 10
2788.956407089002
 20
-292.8641423599303
 30
0.0
 11
2789.653074983002
 21
-290.2641423599302
 31
0.0
  0
LINE
  5
1B042
330
18
100
AcDbEntity
  8
0
  6
BYBLOCK
100
AcDbLine
 10
2789.653074983002
 20
-290.2641423599302
 30
0.0
 11
2790.349742877002
 21
-292.8641423599303
 31
0.0
  0
LINE
  5
1B043
330
18
100
AcDbEntity
  8
0
  6
BYBLOCK
100
AcDbLine
 10
2789.653074983002
 20
-290.2641423599302
 30
0.0
 11
2789.653074983002
 21
-292.8641423599303
 31
0.0
  0
TEXT
  5
1B044
330
18
100
AcDbEntity
  8
1DIM
  6
CONTINUOUS
100
AcDbText
 10
2788.743074983002
 20
-313.5568622673368
 30
0.0
 40
4.55
  1
39
 50
90.0
100
AcDbText
1001
ACAD
1000
DSTYLE
1002
{
1070
    40
1040
1.3
1070
    45
1040
0.5
1002
}
  0
LINE
  5
1B045
330
18
100
AcDbEntity
  8
0
  6
BYBLOCK
100
AcDbLine
 10
2800.349742877002
 20
-346.6641423599298
 30
0.0
 11
2799.653074983002
 21
-349.2641423599298
 31
0.0
  0
LINE
  5
1B046
330
18
100
AcDbEntity
  8
0
  6
BYBLOCK
100
AcDbLine
 10
2799.653074983002
 20
-349.2641423599298
 30
0.0
 11
2798.956407089002
 21
-346.6641423599298
 31
0.0
  0
LINE
  5
1B047
330
18
100
AcDbEntity
  8
0
  6
BYBLOCK
100
AcDbLine
 10
2799.653074983002
 20
-349.2641423599298
 30
0.0
 11
2799.653074983002
 21
-346.6641423599298
 31
0.0
  0
LINE
  5
1B048
330
18
100
AcDbEntity
  8
0
  6
BYBLOCK
100
AcDbLine
 10
2798.956407089002
 20
-292.8641423599303
 30
0.0
 11
2799.653074983002
 21
-290.2641423599302
 31
0.0
  0
LINE
  5
1B049
330
18
100
AcDbEntity
  8
0
  6
BYBLOCK
100
AcDbLine
 10
2799.653074983002
 20
-290.2641423599302
 30
0.0
 11
2800.349742877002
 21
-292.8641423599303
 31
0.0
  0
LINE
  5
1B04A
330
18
100
AcDbEntity
  8
0
  6
BYBLOCK
100
AcDbLine
 10
2799.653074983002
 20
-290.2641423599302
 30
0.0
 11
2799.653074983002
 21
-292.8641423599303
 31
0.0
  0
TEXT
  5
1B04B
330
18
100
AcDbEntity
  8
1DIM
  6
CONTINUOUS
100
AcDbText
 10
2798.743074983002
 20
-323.572660878448
 30
0.0
 40
4.55
  1
59
 50
90.0
100
AcDbText
1001
ACAD
1000
DSTYLE
1002
{
1070
    40
1040
1.3
1070
    45
1040
0.5
1002
}
  0
LINE
  5
1B04C
330
18
100
AcDbEntity
  8
0
  6
BYBLOCK
100
AcDbLine
 10
2253.038417735887
 20
-601.6641423589016
 30
0.0
 11
2252.341749841887
 21
-604.2641423589016
 31
0.0
  0
LINE
  5
1B04D
330
18
100
AcDbEntity
  8
0
  6
BYBLOCK
100
AcDbLine
 10
2252.341749841887
 20
-604.2641423589016
 30
0.0
 11
2251.645081947887
 21
-601.6641423589016
 31
0.0
  0
LINE
  5
1B04E
330
18
100
AcDbEntity
  8
0
  6
BYBLOCK
100
AcDbLine
 10
2252.341749841887
 20
-604.2641423589016
 30
0.0
 11
2252.341749841887
 21
-601.6641423589016
 31
0.0
  0
LINE
  5
1B04F
330
18
100
AcDbEntity
  8
0
  6
BYBLOCK
100
AcDbLine
 10
2251.645081947887
 20
-542.8641423589021
 30
0.0
 11
2252.341749841887
 21
-540.2641423589021
 31
0.0
  0
LINE
  5
1B050
330
18
100
AcDbEntity
  8
0
  6
BYBLOCK
100
AcDbLine
 10
2252.341749841887
 20
-540.2641423589021
 30
0.0
 11
2253.038417735887
 21
-542.8641423589021
 31
0.0
  0
LINE
  5
1B051
330
18
100
AcDbEntity
  8
0
  6
BYBLOCK
100
AcDbLine
 10
2252.341749841887
 20
-540.2641423589021
 30
0.0
 11
2252.341749841887
 21
-542.8641423589021
 31
0.0
  0
TEXT
  5
1B052
330
18
100
AcDbEntity
  8
1DIM
  6
CONTINUOUS
100
AcDbText
 10
2251.431749841887
 20
-576.0716076366793
 30
0.0
 40
4.55
  1
64
 50
90.0
100
AcDbText
1001
ACAD
1000
DSTYLE
1002
{
1070
    40
1040
1.3
1002
}
  0
LINE
  5
1B053
330
18
100
AcDbEntity
  8
0
  6
BYBLOCK
100
AcDbLine
 10
2253.038417735887
 20
-537.664142358902
 30
0.0
 11
2252.341749841887
 21
-540.2641423589021
 31
0.0
  0
LINE
  5
1B054
330
18
100
AcDbEntity
  8
0
  6
BYBLOCK
100
AcDbLine
 10
2252.341749841887
 20
-540.2641423589021
 30
0.0
 11
2251.645081947887
 21
-537.664142358902
 31
0.0
  0
LINE
  5
1B055
330
18
100
AcDbEntity
  8
0
  6
BYBLOCK
100
AcDbLine
 10
2252.341749841887
 20
-540.2641423589021
 30
0.0
 11
2252.341749841887
 21
-537.664142358902
 31
0.0
  0
LINE
  5
1B056
330
18
100
AcDbEntity
  8
0
  6
BYBLOCK
100
AcDbLine
 10
2251.645081947887
 20
-492.8641423589016
 30
0.0
 11
2252.341749841887
 21
-490.2641423589016
 31
0.0
  0
LINE
  5
1B057
330
18
100
AcDbEntity
  8
0
  6
BYBLOCK
100
AcDbLine
 10
2252.341749841887
 20
-490.2641423589016
 30
0.0
 11
2253.038417735887
 21
-492.8641423589016
 31
0.0
  0
LINE
  5
1B058
330
18
100
AcDbEntity
  8
0
  6
BYBLOCK
100
AcDbLine
 10
2252.341749841887
 20
-490.2641423589016
 30
0.0
 11
2252.341749841887
 21
-492.8641423589016
 31
0.0
  0
TEXT
  5
1B059
330
18
100
AcDbEntity
  8
1DIM
  6
CONTINUOUS
100
AcDbText
 10
2251.431749841887
 20
-518.7872326366792
 30
0.0
 40
4.55
  1
50
 50
90.0
100
AcDbText
1001
ACAD
1000
DSTYLE
1002
{
1070
    40
1040
1.3
1002
}
  0
VIEWPORT
  5
57
330
15
100
AcDbEntity
 67
     1
  8
0
100
AcDbViewport
 68
     1
 10
0.0
 20
0.0
 30
0.0
 40
663.4332925336597
 41
297.0
 68
     1
 69
     1
1001
ACAD
1000
MVIEW
1002
{
1070
    16
1010
0.0
1020
0.0
1030
0.0
1010
0.0
1020
0.0
1030
1.0
1040
0.0
1040
297.0
1040
1.837278951023421
1040
12.29366132359621
1040
50.0
1040
0.0
1040
0.0
1070
    16
1070
  1000
1070
     0
1070
     1
1070
     0
1070
     0
1070
     0
1070
     0
1040
0.0
1040
0.0
1040
0.0
1040
10.0
1040
10.0
1040
10.0
1040
10.0
1070
     0
1002
{
1002
}
1002
}
  0
ENDSEC
  0
SECTION
  2
OBJECTS
  0
DICTIONARY
  5
C
330
0
100
AcDbDictionary
  3
ACAD_COLOR
350
18D
  3
ACAD_GROUP
350
D
  3
ACAD_LAYOUT
350
18E
  3
ACAD_MATERIAL
350
18C
  3
ACAD_MLEADERSTYLE
350
D9E7
  3
ACAD_MLINESTYLE
350
1B
  3
ACAD_PLOTSETTINGS
350
18F
  3
ACAD_SCALELIST
350
D9C5
  3
ACAD_VISUALSTYLE
350
D9B4
  3
ACDBHEADERROUNDTRIPXREC
350
1B05A
  3
ACDBVARIABLEDICTIONARY
350
37
  3
AEC_PROPERTY_SET_DEFS
350
1A999
  3
CONTENTDICTIONARY
350
D8
  3
DRAWINGVARIABLESDICT
350
20
  3
DWGPROPS
350
1B05D
1001
ACAD
1000
TREAT_AS_HARD
1070
     0
  0
DICTIONARY
  5
E6A6
330
2
100
AcDbDictionary
  3
ACAD_LAYERSTATES
360
E6A7
1001
ACAD
1000
TREAT_AS_HARD
1070
     1
  0
DICTIONARY
  5
DA05
330
E
100
AcDbDictionary
  3
ADSK_XREC_LAYER_RECONCILED
360
DA06
1001
ACAD
1000
TREAT_AS_HARD
1070
     1
  0
DICTIONARY
  5
DA07
330
29
100
AcDbDictionary
  3
ADSK_XREC_LAYER_RECONCILED
360
DA08
1001
ACAD
1000
TREAT_AS_HARD
1070
     1
  0
DICTIONARY
  5
DA09
330
31
100
AcDbDictionary
  3
ADSK_XREC_LAYER_RECONCILED
360
DA0A
1001
ACAD
1000
TREAT_AS_HARD
1070
     1
  0
DICTIONARY
  5
DA0F
330
243
100
AcDbDictionary
  3
ADSK_XREC_LAYER_RECONCILED
360
DA10
1001
ACAD
1000
TREAT_AS_HARD
1070
     1
  0
DICTIONARY
  5
DA15
330
24E
100
AcDbDictionary
  3
ADSK_XREC_LAYER_RECONCILED
360
DA16
1001
ACAD
1000
TREAT_AS_HARD
1070
     1
  0
DICTIONARY
  5
DA23
330
2C05
100
AcDbDictionary
  3
ADSK_XREC_LAYER_RECONCILED
360
DA24
1001
ACAD
1000
TREAT_AS_HARD
1070
     1
  0
DICTIONARY
  5
88F
330
18
100
AcDbDictionary
  3
ACAD_SORTENTS
360
890
1001
ACAD
1000
TREAT_AS_HARD
1070
     1
  0
DICTIONARY
  5
18D
102
{ACAD_REACTORS
330
C
102
}
330
C
100
AcDbDictionary
1001
ACAD
1000
TREAT_AS_HARD
1070
     0
  0
DICTIONARY
  5
D
102
{ACAD_REACTORS
330
C
102
}
330
C
100
AcDbDictionary
1001
ACAD
1000
TREAT_AS_HARD
1070
     0
  0
DICTIONARY
  5
18E
102
{ACAD_REACTORS
330
C
102
}
330
C
100
AcDbDictionary
1001
ACAD
1000
TREAT_AS_HARD
1070
     0
  0
DICTIONARY
  5
18C
102
{ACAD_REACTORS
330
C
102
}
330
C
100
AcDbDictionary
  3
BYBLOCK
350
D9A4
  3
BYLAYER
350
D99C
  3
GLOBAL
350
D9AC
1001
ACAD
1000
TREAT_AS_HARD
1070
     0
  0
DICTIONARY
  5
D9E7
102
{ACAD_REACTORS
330
C
102
}
330
C
100
AcDbDictionary
  3
STANDARD
350
D9E8
1001
ACAD
1000
TREAT_AS_HARD
1070
     0
  0
DICTIONARY
  5
1B
102
{ACAD_REACTORS
330
C
102
}
330
C
100
AcDbDictionary
  3
STANDARD
350
1C
1001
ACAD
1000
TREAT_AS_HARD
1070
     0
  0
DICTIONARY
  5
18F
102
{ACAD_REACTORS
330
C
102
}
330
C
100
AcDbDictionary
1001
ACAD
1000
TREAT_AS_HARD
1070
     0
  0
DICTIONARY
  5
D9C5
102
{ACAD_REACTORS
330
C
102
}
330
C
100
AcDbDictionary
  3
A0
350
D9C6
  3
A1
350
D9C7
  3
A2
350
D9C8
  3
A3
350
D9C9
  3
A4
350
D9CA
  3
A5
350
D9CB
  3
A6
350
D9CC
  3
A7
350
D9CD
  3
A8
350
D9CE
  3
A9
350
D9CF
  3
B0
350
D9D0
  3
B1
350
D9D1
  3
B2
350
D9D2
  3
B3
350
D9D3
  3
B4
350
D9D4
  3
B5
350
D9D5
  3
B6
350
D9D6
  3
B7
350
D9D7
  3
B8
350
D9D8
  3
B9
350
D9D9
  3
C0
350
D9DA
  3
C1
350
D9DB
  3
C2
350
D9DC
  3
C3
350
D9DD
  3
C4
350
D9DE
  3
C5
350
D9DF
  3
C6
350
D9E0
  3
C7
350
D9E1
  3
C8
350
D9E2
  3
C9
350
D9E3
  3
D0
350
D9E4
  3
D1
350
D9E5
  3
D2
350
D9E6
1001
ACAD
1000
TREAT_AS_HARD
1070
     0
  0
DICTIONARY
  5
D9B4
102
{ACAD_REACTORS
330
C
102
}
330
C
100
AcDbDictionary
  3
2DWIREFRAME
350
D9BA
  3
3D_HIDDEN
350
D9BC
  3
3DWIREFRAME
350
D9BB
  3
BASIC
350
D9B9
  3
BRIGHTEN
350
D9C0
  3
COLORCHANGE
350
D9C4
  3
CONCEPTUAL
350
D9BD
  3
DIM
350
D9BF
  3
EDGECOLOROFF
350
19C2F
  3
FACEPATTERN
350
D9C3
  3
FLAT
350
D9B5
  3
FLATWITHEDGES
350
D9B6
  3
GOURAUD
350
D9B7
  3
GOURAUDWITHEDGES
350
D9B8
  3
HIDDEN
350
19C7E
  3
JITTEROFF
350
19C2D
  3
LINEPATTERN
350
D9C2
  3
MODELING
350
19C84
  3
OVERHANGOFF
350
19C2E
  3
REALISTIC
350
D9BE
  3
SHADED
350
19C83
  3
SHADED_WITH_EDGES
350
19C82
  3
SHADES_OF_GRAY
350
19C7F
  3
SKETCHY
350
19C80
  3
THICKEN
350
D9C1
  3
WIREFRAME
350
19C7D
  3
X-RAY
350
19C81
1001
ACAD
1000
TREAT_AS_HARD
1070
     0
  0
DICTIONARY
  5
1B05A
102
{ACAD_REACTORS
330
C
102
}
330
C
100
AcDbDictionary
  3
COLORDICT
350
1B05B
  3
MATERIALDICT
350
1B05C
1001
ACAD
1000
TREAT_AS_HARD
1070
     0
  0
DICTIONARY
  5
37
102
{ACAD_REACTORS
330
C
102
}
330
C
100
AcDbDictionary
  3
CANNOSCALE
350
1AEE9
  3
CMLEADERSTYLE
350
DA6A
  3
CTABLESTYLE
350
29E
  3
DIMADEC
350
38
  3
DIMASSOC
350
1CE
  3
HIDETEXT
350
704E
  3
INDEXCTL
350
DA6D
  3
INTERSECTIONCOLOR
350
7052
  3
INTERSECTIONDISPLAY
350
7051
  3
LAYEREVAL
350
1ADB9
  3
LAYERNOTIFY
350
1ADBA
  3
MSLTSCALE
350
1A60C
  3
OBSCOLOR
350
704F
  3
OBSLTYPE
350
7050
  3
PROJECTNAME
350
1CF
  3
SORTENTS
350
DA6C
  3
XCLIPFRAME
350
1AEC9
1001
ACAD
1000
TREAT_AS_HARD
1070
     0
  0
DICTIONARY
  5
1A999
102
{ACAD_REACTORS
330
C
102
}
330
C
100
AcDbDictionary
1001
ACAD
1000
TREAT_AS_HARD
1070
     0
  0
DICTIONARY
  5
D8
102
{ACAD_REACTORS
330
C
102
}
330
C
100
AcDbDictionary
1001
ACAD
1000
TREAT_AS_HARD
1070
     0
  0
DICTIONARY
  5
20
102
{ACAD_REACTORS
330
C
102
}
330
C
100
AcDbDictionary
1001
DRAWINGVARIABLESXDATA
1000
POLARANG
1000
0.261799387799149410000000
1000
POLARMODE
1000
1
1000
POLARSTYLE
1000
1
1001
ACAD
1000
TREAT_AS_HARD
1070
     0
  0
XRECORD
  5
1B05D
102
{ACAD_REACTORS
330
C
102
}
330
C
100
AcDbXrecord
  1
DWGPROPS COOKIE
  2

  3

  4

  6

  7

  8
3684
  9

300
=
301
=
302
=
303
=
304
=
305
=
306
=
307
=
308
=
309
=
 40
0.0
 41
2451318.246352917
 42
2458152.149914502
  1

 90
        0
  0
DICTIONARY
  5
E6A7
102
{ACAD_REACTORS
330
E6A6
102
}
330
E6A6
100
AcDbDictionary
1001
ACAD
1000
TREAT_AS_HARD
1070
     0
  0
ACAD_PROXY_OBJECT
  5
DA06
102
{ACAD_REACTORS
330
DA05
102
}
330
DA05
100
AcDbZombieObject
 90
      499
 91
      516
 93
       34
310
40C8804040
  0
ACAD_PROXY_OBJECT
  5
DA08
102
{ACAD_REACTORS
330
DA07
102
}
330
DA07
100
AcDbZombieObject
 90
      499
 91
      516
 93
       34
310
40C8804040
  0
ACAD_PROXY_OBJECT
  5
DA0A
102
{ACAD_REACTORS
330
DA09
102
}
330
DA09
100
AcDbZombieObject
 90
      499
 91
      516
 93
       34
310
40C8804040
  0
ACAD_PROXY_OBJECT
  5
DA10
102
{ACAD_REACTORS
330
DA0F
102
}
330
DA0F
100
AcDbZombieObject
 90
      499
 91
      516
 93
       34
310
40C8804040
  0
ACAD_PROXY_OBJECT
  5
DA16
102
{ACAD_REACTORS
330
DA15
102
}
330
DA15
100
AcDbZombieObject
 90
      499
 91
      516
 93
       34
310
40C8804040
  0
ACAD_PROXY_OBJECT
  5
DA24
102
{ACAD_REACTORS
330
DA23
102
}
330
DA23
100
AcDbZombieObject
 90
      499
 91
      516
 93
       34
310
40C8804040
  0
SORTENTSTABLE
  5
890
102
{ACAD_REACTORS
330
88F
102
}
330
88F
100
AcDbSortentsTable
330
18
331
0
  5
5BFF
331
1A9BA
  5
1A9DD
331
1A9BB
  5
1A9DE
331
1A9BC
  5
1A9DF
331
1A9BD
  5
1A9E0
331
1A9BE
  5
1A9E1
331
1A9BF
  5
1A9E2
331
1A9C0
  5
1A9E3
331
1A9C1
  5
1A9E4
331
1A9C2
  5
1A9E5
331
1A9C3
  5
1A9E6
331
1A9C4
  5
1A9EB
331
1A9C5
  5
1A9F1
331
1A9C6
  5
1A9F2
331
1A9C7
  5
1A9F6
331
1A9C8
  5
1A9F7
331
1A9C9
  5
1A9F8
331
1A9CA
  5
1A9F9
331
1A9CB
  5
1A9FA
331
1A9CC
  5
1A9FB
331
1A9CD
  5
1A9FC
331
1A9CE
  5
1A9FD
331
1A9D0
  5
1AA0A
331
1A9D1
  5
1AA0B
331
1A9D2
  5
1AA0C
331
1A9D3
  5
1AA0D
331
0
  5
1A9EA
331
1A9D6
  5
1AA14
331
0
  5
1A9EC
331
0
  5
1A9F0
331
1A9DC
  5
1AA3A
331
1A9DD
  5
1AA3B
331
1A9DE
  5
1AA3C
331
1A9DF
  5
1AA3D
331
1A9E0
  5
1AA3E
331
1A9E1
  5
1AA3F
331
1A9E2
  5
1AA40
331
1A9E3
  5
1AA41
331
1A9E4
  5
1AA42
331
1A9E5
  5
1AA43
331
1A9E6
  5
1AA44
331
1A9E7
  5
1AA45
331
1A9E8
  5
1AA46
331
1A9E9
  5
1AA48
331
1A9EA
  5
1AA49
331
1A9EB
  5
1AA4A
331
1A9EC
  5
1AA4B
331
1A9ED
  5
1AA4C
331
1A9EE
  5
1AA4D
331
1A9EF
  5
1AA4E
331
1A9F0
  5
1AA4F
331
1A9F1
  5
1AA50
331
1A9F2
  5
1AA51
331
1A9F3
  5
1AA52
331
1A9F4
  5
1AA53
331
1A9F5
  5
1AA54
331
1A9F6
  5
1AA55
331
1A9F7
  5
1AA56
331
1A9F8
  5
1AA57
331
1A9F9
  5
1AA58
331
1A9FA
  5
1AA5A
331
1A9FB
  5
1AA5B
331
1A9FC
  5
1AA5C
331
1A9FD
  5
1AA5D
331
1A9FE
  5
1AA5E
331
1A9FF
  5
1AA5F
331
1AA00
  5
1AA60
331
1AA01
  5
1AA61
331
1AA02
  5
1AA62
331
1AA03
  5
1AA63
331
1AA04
  5
1AA64
331
1AA05
  5
1AA68
331
1AA06
  5
1AA69
331
1AA07
  5
1AA6A
331
1AA08
  5
1AA6B
331
1AA09
  5
1AA6C
331
1AA0A
  5
1AA6D
331
1AA0B
  5
1AA6E
331
1AA0C
  5
1AA6F
331
1AA0D
  5
1AA70
331
1AA0E
  5
1AA73
331
1AA0F
  5
1AA74
331
1AA10
  5
1AA75
331
1AA11
  5
1AA7A
331
1AA12
  5
1AA7B
331
1AA13
  5
1AA7C
331
1AA14
  5
1AA7D
331
1AA15
  5
1AA7E
331
1AA16
  5
1AA7F
331
1AA17
  5
1AA80
331
1AA18
  5
1AA82
331
1AA19
  5
1AA83
331
1AA1A
  5
1AA84
331
1AA1B
  5
1AA85
331
1AA1C
  5
1AA86
331
1AA1D
  5
1AA87
331
1AA1E
  5
1AA88
331
1AA1F
  5
1AA8B
331
1AA20
  5
1AA8C
331
1AA21
  5
1AA8D
331
0
  5
1AA59
331
1AA23
  5
1AA98
331
1AA24
  5
1AA99
331
1AA25
  5
1AA9A
331
1AA26
  5
1AA9B
331
1AA27
  5
1AA9C
331
1AA28
  5
1AA9D
331
1AA29
  5
1AA9F
331
1AA2A
  5
1AAA0
331
1AA2B
  5
1AAA1
331
1AA2C
  5
1AAA2
331
1AA2D
  5
1AAA3
331
1AA2E
  5
1AAA4
331
1AA2F
  5
1AAA5
331
1AA30
  5
1AAA6
331
1AA31
  5
1AAA7
331
1AA32
  5
1AAA8
331
1AA33
  5
1AAA9
331
1AA34
  5
1AAAA
331
1AA35
  5
1AAAB
331
1AA36
  5
1AAAC
331
1AA37
  5
1AAAD
331
1AA38
  5
1AAAE
331
1AA39
  5
1AAAF
331
1AA3A
  5
1AAB0
331
1AA3B
  5
1AAB1
331
1AA3C
  5
1AAB2
331
1AA3D
  5
1AAB3
331
1AA3E
  5
1AAB4
331
1AA3F
  5
1AAB8
331
1AA40
  5
1AAB9
331
1AA41
  5
1AABA
331
1AA42
  5
1AABE
331
1AA43
  5
1AABF
331
1AA44
  5
1AAC0
331
1AA45
  5
1AAC1
331
1AA46
  5
1AAC2
331
1AA48
  5
1AACD
331
1AA49
  5
1AACE
331
1AA4A
  5
1AACF
331
1AA4B
  5
1AAD0
331
1AA4C
  5
1AAD1
331
1AA4D
  5
1AAD2
331
1AA4E
  5
1AAD3
331
1AA4F
  5
1AAD4
331
1AA50
  5
1AAD5
331
1AA51
  5
1AAD6
331
1AA52
  5
1AAD7
331
1AA53
  5
1AAD8
331
1AA54
  5
1AAD9
331
1AA55
  5
1AADA
331
1AA56
  5
1AADB
331
1AA57
  5
1AADC
331
1AA58
  5
1AADD
331
1AA59
  5
1AADE
331
1AA5A
  5
1AADF
331
1AA5B
  5
1AAE0
331
1AA5C
  5
1AAE1
331
1AA5D
  5
1AAE2
331
1AA5E
  5
1AAE3
331
1AA5F
  5
1AAE4
331
1AA60
  5
1AAE5
331
1AA61
  5
1AAE6
331
1AA62
  5
1AAE7
331
1AA63
  5
1AAE8
331
1AA64
  5
1AAE9
331
1AA65
  5
1AAEA
331
1AA66
  5
1AAEB
331
1AA67
  5
1AAEC
331
1AA68
  5
1AAED
331
1AA69
  5
1AAEE
331
1AA6A
  5
1AAEF
331
1AA6B
  5
1AAF0
331
1AA6C
  5
1AAF1
331
1AA6D
  5
1AAF2
331
1AA6E
  5
1AAF3
331
1AA6F
  5
1AAF4
331
1AA70
  5
1AAF5
331
1AA73
  5
1AAF6
331
1AA74
  5
1AAF7
331
1AA75
  5
1AAF8
331
1AA76
  5
1AAF9
331
1AA77
  5
1AAFA
331
1AA79
  5
1AAFB
331
1AA7A
  5
1AAFC
331
1AA7B
  5
1AAFD
331
1AA7C
  5
1AAFE
331
1AA7D
  5
1AAFF
331
1AA7E
  5
1AB00
331
1AA7F
  5
1AB01
331
1AA80
  5
1AB02
331
1AA82
  5
1AB1D
331
1AA83
  5
1AB1E
331
1AA84
  5
1AB1F
331
1AA85
  5
1AB20
331
1AA86
  5
1AB21
331
1AA87
  5
1AB22
331
1AA88
  5
1AB23
331
1AA8B
  5
1AB3F
331
1AA8C
  5
1AB40
331
1AA8D
  5
1AB44
331
1AA8E
  5
1AB45
331
1AA8F
  5
1AB46
331
1AA90
  5
1AB4A
331
1AA91
  5
1AB4B
331
1AA92
  5
1AB4C
331
1AA93
  5
1AB4D
331
1AA94
  5
1AB4E
331
1AA95
  5
1AB4F
331
1AA96
  5
1AB50
331
1AA97
  5
1AE86
331
1AA98
  5
1AE93
331
1AA99
  5
1AF4C
331
1AA9A
  5
1AF4D
331
1AA9B
  5
1AF4E
331
1AA9C
  5
1AF4F
331
1AA9D
  5
1AF50
331
1AA9F
  5
1AF52
331
1AAA0
  5
1AF53
331
1AAA1
  5
1AF54
331
0
  5
1AB06
331
0
  5
1AB07
331
0
  5
1AB09
331
1AAA5
  5
1AF7F
331
1AAA6
  5
1AF80
331
1AAA7
  5
1AF81
331
1AAA8
  5
1AF82
331
1AAA9
  5
1AF83
331
1AAAA
  5
1AF84
331
1AAAB
  5
1AF85
331
1AAAC
  5
1AF86
331
1AAAD
  5
1AF87
331
1AAAE
  5
1AF88
331
1AAAF
  5
1AF89
331
1AAB0
  5
1AF8A
331
1AAB1
  5
1AF8B
331
1AAB2
  5
1AF8C
331
1AAB3
  5
1AF8D
331
1AAB4
  5
1AF8E
331
1AAB5
  5
1AF8F
331
1AAB6
  5
1AF90
331
0
  5
1AB2C
331
0
  5
1AB2D
331
1AAB9
  5
1AFA5
331
1AABA
  5
1AFA6
331
1AABB
  5
1AFA7
331
1AABC
  5
1AFA8
331
1AABD
  5
1AFA9
331
1AABE
  5
1AFAA
331
1AABF
  5
1AFAB
331
1AAC0
  5
1AFAC
331
0
  5
1AB36
331
0
  5
1AB37
331
1AAC3
  5
1AFC3
331
1AAC4
  5
1AFC4
331
1AAC5
  5
1AFC5
331
1AAC6
  5
1AFC6
331
1AAC7
  5
1AFC7
331
1AAC8
  5
1AFC8
331
1AAC9
  5
1AFC9
331
1AACA
  5
1AFCA
331
1AACB
  5
1AFCB
331
1AACC
  5
1AFCC
331
1AACD
  5
1AFCD
331
1AACE
  5
1AFCE
331
1AACF
  5
1AFCF
331
1AAD0
  5
1AFD0
331
1AAD1
  5
1AFD1
331
1AAD2
  5
1AFD2
331
1AAD3
  5
1AFD3
331
1AAD4
  5
1AFD4
331
1AAD5
  5
1AFD5
331
1AAD6
  5
1AFD6
331
1AAD7
  5
1AFD7
331
1AAD8
  5
1AFD8
331
1AAD9
  5
1AFD9
331
1AADA
  5
1AFDA
331
1AADB
  5
1AFDB
331
1AADC
  5
1AFDC
331
1AADD
  5
1AFDD
331
1AADE
  5
1AFDE
331
1AADF
  5
1AFDF
331
1AAE0
  5
1AFE0
331
1AAE1
  5
1AFE1
331
1AAE2
  5
1AFE2
331
1AAE3
  5
1AFE3
331
1AAE4
  5
1AFE4
331
1AAE5
  5
1AFE5
331
1AAE6
  5
1AFE6
331
1AAE7
  5
1AFE7
331
1AAE8
  5
1AFE8
331
1AAE9
  5
1AFE9
331
1AAEA
  5
1AFEA
331
1AAEB
  5
1AFEB
331
1AAEC
  5
1AFEC
331
1AAED
  5
1AFED
331
1AAEE
  5
1AFEE
331
1AAEF
  5
1AFEF
331
1AAF0
  5
1AFF0
331
1AAF1
  5
1AFF1
331
1AAF2
  5
1AFF2
331
1AAF3
  5
1AFF3
331
1AAF4
  5
1AFF4
331
1AAF5
  5
1AFF5
331
1AAF6
  5
1AFF6
331
1AAF7
  5
1AFFA
331
1AAF8
  5
1AFFB
331
1AAF9
  5
1AFFC
331
1AAFA
  5
1B000
331
1AAFB
  5
1B001
331
1AAFC
  5
1B002
331
1AAFD
  5
1B003
331
1AAFE
  5
1B004
331
1AAFF
  5
1B005
331
1AB00
  5
1B006
331
1AB01
  5
1B007
331
1AB02
  5
1B008
331
1AB03
  5
1B009
331
1AB04
  5
1B00A
331
1AB05
  5
1B00B
331
1AB06
  5
1B00C
331
1AB07
  5
1B00D
331
1AB09
  5
1B00E
331
1AB0A
  5
1B00F
331
1AB1B
  5
1B010
331
1AB1C
  5
1B011
331
1AB1D
  5
1B012
331
1AB1E
  5
1B013
331
1AB1F
  5
1B014
331
1AB20
  5
1B015
331
1AB21
  5
1B016
331
1AB22
  5
1B017
331
1AB23
  5
1B018
331
1AB24
  5
1B019
331
1AB25
  5
1B01A
331
1AB26
  5
1B01B
331
1AB27
  5
1B01C
331
1AB28
  5
1B01D
331
1AB29
  5
1B01E
331
1AB2A
  5
1B01F
331
1AB2B
  5
1B020
331
1AB2C
  5
1B021
331
1AB2D
  5
1B022
331
1AB2E
  5
1B023
331
1AB2F
  5
1B024
331
1AB30
  5
1B025
331
1AB31
  5
1B026
331
1AB32
  5
1B027
331
1AB33
  5
1B028
331
1AB34
  5
1B029
331
1AB35
  5
1B02A
331
1AB36
  5
1B02B
331
1AB37
  5
1B02C
331
1AB38
  5
1B02D
331
1AB39
  5
1B02E
331
1AB3A
  5
1B02F
331
1AB3B
  5
1B030
331
1AB3C
  5
1B031
331
1AB3D
  5
1B032
331
1AB3E
  5
1B033
331
1AB3F
  5
1B034
331
1AB40
  5
1B035
331
1AB41
  5
1B036
331
1AB42
  5
1B037
331
1AB43
  5
1B038
331
1AB44
  5
1B039
331
1AB45
  5
1B03A
331
1AB46
  5
1B03B
331
1AB47
  5
1B03C
331
1AB48
  5
1B03D
331
1AB49
  5
1B03E
331
1AB4A
  5
1B03F
331
1AB4B
  5
1B040
331
1AB4C
  5
1B041
331
1AB4D
  5
1B042
331
1AB4E
  5
1B043
331
1AB4F
  5
1B044
331
1AB50
  5
1B045
331
0
  5
1AFAE
331
0
  5
1AFAF
331
1AF4C
  5
1A9FE
331
1AF4D
  5
1A9FF
331
1AF4E
  5
1AA01
331
0
  5
1A9D3
331
0
  5
1A9D5
331
0
  5
1A9D6
331
1AF52
  5
1AA0E
331
1AF53
  5
1AA0F
331
1AF54
  5
1AA1C
331
1AF55
  5
1AA1D
331
1AF56
  5
1AA1E
331
0
  5
1A9E7
331
0
  5
1A9E8
331
0
  5
1A9E9
331
1AF5A
  5
1AA26
331
1AF5B
  5
1AA27
331
1AF5C
  5
1AA28
331
0
  5
1A9ED
331
0
  5
1A9EE
331
0
  5
1A9EF
331
1AF60
  5
1AA30
331
1AF61
  5
1AA31
331
1AF62
  5
1AA32
331
0
  5
1A9F3
331
0
  5
1A9F4
331
0
  5
1A9F5
331
1AF66
  5
1AAC3
331
1AF67
  5
1AAC4
331
1AF68
  5
1AAC5
331
0
  5
1AA65
331
0
  5
1AA66
331
0
  5
1AA67
331
1AF6C
  5
1AB03
331
1AF6D
  5
1AB04
331
1AF6E
  5
1AB05
331
1AF6F
  5
1AB0A
331
1AF70
  5
1AB1B
331
1AF71
  5
1AB1C
331
1AF72
  5
1AB24
331
1AF73
  5
1AB25
331
1AF74
  5
1AB26
331
0
  5
1AAB5
331
0
  5
1AAB6
331
0
  5
1AAB7
331
1AF78
  5
1AB30
331
1AF79
  5
1AB31
331
1AF7A
  5
1AB32
331
0
  5
1AABB
331
0
  5
1AABC
331
0
  5
1AABD
331
1AF7E
  5
1AF51
331
1AF7F
  5
1AA02
331
1AF80
  5
1AA03
331
1AF81
  5
1AA04
331
1AF82
  5
1AA06
331
1AF83
  5
1AA07
331
1AF84
  5
1AA08
331
1AF85
  5
1AA09
331
1AF86
  5
1AA1F
331
1AF87
  5
1AA20
331
1AF88
  5
1AA21
331
1AF89
  5
1AA22
331
1AF8A
  5
1AA23
331
1AF8B
  5
1AA24
331
1AF8C
  5
1AA25
331
1AF8D
  5
1AA29
331
1AF8E
  5
1AA2A
331
1AF8F
  5
1AA2B
331
1AF90
  5
1AA2C
331
1AF91
  5
1AA2D
331
1AF92
  5
1AA2E
331
1AF93
  5
1AA2F
331
1AF94
  5
1AA33
331
1AF95
  5
1AA34
331
1AF96
  5
1AA35
331
1AF97
  5
1AA36
331
1AF98
  5
1AA37
331
1AF99
  5
1AA38
331
1AF9A
  5
1AA39
331
1AF9B
  5
1AAC6
331
1AF9C
  5
1AAC7
331
1AF9D
  5
1AAC8
331
1AF9E
  5
1AAC9
331
1AF9F
  5
1AACA
331
1AFA0
  5
1AACB
331
1AFA1
  5
1AACC
331
1AFA2
  5
1AB27
331
1AFA3
  5
1AB28
331
1AFA4
  5
1AB29
331
1AFA5
  5
1AB2A
331
1AFA6
  5
1AB2B
331
1AFA7
  5
1AB2E
331
1AFA8
  5
1AB2F
331
1AFA9
  5
1AB33
331
1AFAA
  5
1AB34
331
1AFAB
  5
1AB35
331
1AFAC
  5
1AB38
331
1AFAD
  5
1AB39
331
1AFAE
  5
1AB3A
331
1AFAF
  5
1AB3E
331
1AFB0
  5
1A9BA
331
1AFB1
  5
1A9BB
331
1AFB2
  5
1A9BC
331
0
  5
1A9BD
331
0
  5
1A9BE
331
0
  5
1A9BF
331
1AFB6
  5
1A9CA
331
1AFB7
  5
1A9CB
331
1AFB8
  5
1A9CC
331
1AFB9
  5
1A9CD
331
0
  5
1A9C4
331
0
  5
1A9C5
331
0
  5
1A9C6
331
0
  5
1AA00
331
1AFBE
  5
1AA13
331
1AFBF
  5
1AA15
331
1AFC0
  5
1AA16
331
0
  5
1AA05
331
1AFC2
  5
1AA1A
331
1AFC3
  5
1AA1B
331
1AFC4
  5
1AA8E
331
1AFC5
  5
1AA8F
331
1AFC6
  5
1AA90
331
0
  5
1AA76
331
0
  5
1AA77
331
0
  5
1AA79
331
1AFCA
  5
1AF55
331
1AFCB
  5
1AF56
331
1AFCC
  5
1AF57
331
0
  5
1AB3B
331
0
  5
1AB3C
331
0
  5
1AB3D
331
1AFD0
  5
1AF65
331
1AFD1
  5
1AF66
331
1AFD2
  5
1AF67
331
0
  5
1AB41
331
0
  5
1AB42
331
0
  5
1AB43
331
1AFD6
  5
1AF75
331
1AFD7
  5
1AF76
331
1AFD8
  5
1AF77
331
0
  5
1AB47
331
0
  5
1AB48
331
0
  5
1AB49
331
1AFDC
  5
1AF91
331
1AFDD
  5
1AF92
331
1AFDE
  5
1AF93
331
0
  5
1AF58
331
0
  5
1AF59
331
0
  5
1AF5A
331
1AFE2
  5
1AF9B
331
1AFE3
  5
1AF9C
331
1AFE4
  5
1AF9D
331
0
  5
1AF5E
331
0
  5
1AF5F
331
0
  5
1AF60
331
1AFE8
  5
1AFAD
331
1AFE9
  5
1AFB0
331
1AFEA
  5
1AFB1
331
0
  5
1AF6C
331
0
  5
1AF6D
331
0
  5
1AF6E
331
1AFEE
  5
1AFB9
331
1AFEF
  5
1AFBA
331
1AFF0
  5
1AFBB
331
0
  5
1AF72
331
0
  5
1AF73
331
0
  5
1AF74
331
1AFF4
  5
1B046
331
1AFF5
  5
1B047
331
1AFF6
  5
1B048
331
1AFFA
  5
1B050
331
1AFFB
  5
1B051
331
1AFFC
  5
1B052
331
1B000
  5
1A9C0
331
1B001
  5
1A9C1
331
1B002
  5
1A9C2
331
1B003
  5
1A9C3
331
1B004
  5
1A9C7
331
1B005
  5
1A9C8
331
1B006
  5
1A9C9
331
1B007
  5
1A9CE
331
1B008
  5
1A9D0
331
1B009
  5
1A9D1
331
1B00A
  5
1A9D2
331
1B00B
  5
1A9D7
331
1B00C
  5
1A9D8
331
1B00D
  5
1A9DC
331
1B00E
  5
1AA10
331
1B00F
  5
1AA11
331
1B010
  5
1AA12
331
1B011
  5
1AA17
331
1B012
  5
1AA18
331
1B013
  5
1AA19
331
1B014
  5
1AA91
331
1B015
  5
1AA92
331
1B016
  5
1AA93
331
1B017
  5
1AA94
331
1B018
  5
1AA95
331
1B019
  5
1AA96
331
1B01A
  5
1AA97
331
1B01B
  5
1AF5B
331
1B01C
  5
1AF5C
331
1B01D
  5
1AF5D
331
1B01E
  5
1AF61
331
1B01F
  5
1AF62
331
1B020
  5
1AF63
331
1B021
  5
1AF64
331
1B022
  5
1AF68
331
1B023
  5
1AF69
331
1B024
  5
1AF6A
331
1B025
  5
1AF6B
331
1B026
  5
1AF6F
331
1B027
  5
1AF70
331
1B028
  5
1AF71
331
1B029
  5
1AF78
331
1B02A
  5
1AF79
331
1B02B
  5
1AF7A
331
1B02C
  5
1AF7B
331
1B02D
  5
1AF7C
331
1B02E
  5
1AF7D
331
1B02F
  5
1AF7E
331
1B030
  5
1AF94
331
1B031
  5
1AF95
331
1B032
  5
1AF96
331
1B033
  5
1AF97
331
1B034
  5
1AF98
331
1B035
  5
1AF99
331
1B036
  5
1AF9A
331
1B037
  5
1AF9E
331
1B038
  5
1AF9F
331
1B039
  5
1AFA0
331
1B03A
  5
1AFA1
331
1B03B
  5
1AFA2
331
1B03C
  5
1AFA3
331
1B03D
  5
1AFA4
331
1B03E
  5
1AFB2
331
1B03F
  5
1AFB3
331
1B040
  5
1AFB4
331
1B041
  5
1AFB5
331
1B042
  5
1AFB6
331
1B043
  5
1AFB7
331
1B044
  5
1AFB8
331
1B045
  5
1AFBC
331
1B046
  5
1AFBD
331
1B047
  5
1AFBE
331
1B048
  5
1AFBF
331
1B049
  5
1AFC0
331
1B04A
  5
1AFC1
331
1B04B
  5
1AFC2
331
1B04C
  5
1B049
331
1B04D
  5
1B04A
331
1B04E
  5
1B04B
331
1B04F
  5
1B04C
331
1B050
  5
1B04D
331
1B051
  5
1B04E
331
1B052
  5
1B04F
  0
MATERIAL
  5
D9A4
102
{ACAD_REACTORS
330
18C
102
}
102
{ACAD_XDICTIONARY
360
1B1F8
102
}
330
18C
100
AcDbMaterial
  1
BYBLOCK
 72
     0
 73
     2
 43
0.0208333333333333
 43
0.0
 43
0.0
 43
0.0
 43
0.0
 43
0.0208333333333333
 43
0.0
 43
0.0
 43
0.0
 43
0.0
 43
1.0
 43
0.0
 43
0.0
 43
0.0
 43
0.0
 43
1.0
 77
     0
 78
     2
 47
0.0208333333333333
 47
0.0
 47
0.0
 47
0.0
 47
0.0
 47
0.0208333333333333
 47
0.0
 47
0.0
 47
0.0
 47
0.0
 47
1.0
 47
0.0
 47
0.0
 47
0.0
 47
0.0
 47
1.0
171
     0
172
     2
 49
0.0208333333333333
 49
0.0
 49
0.0
 49
0.0
 49
0.0
 49
0.0208333333333333
 49
0.0
 49
0.0
 49
0.0
 49
0.0
 49
1.0
 49
0.0
 49
0.0
 49
0.0
 49
0.0
 49
1.0
175
     0
176
     2
142
0.0208333333333333
142
0.0
142
0.0
142
0.0
142
0.0
142
0.0208333333333333
142
0.0
142
0.0
142
0.0
142
0.0
142
1.0
142
0.0
142
0.0
142
0.0
142
0.0
142
1.0
179
     0
270
     2
144
0.0208333333333333
144
0.0
144
0.0
144
0.0
144
0.0
144
0.0208333333333333
144
0.0
144
0.0
144
0.0
144
0.0
144
1.0
144
0.0
144
0.0
144
0.0
144
0.0
144
1.0
274
     2
147
0.0208333333333333
147
0.0
147
0.0
147
0.0
147
0.0
147
0.0208333333333333
147
0.0
147
0.0
147
0.0
147
0.0
147
1.0
147
0.0
147
0.0
147
0.0
147
0.0
147
1.0
  0
MATERIAL
  5
D99C
102
{ACAD_REACTORS
330
18C
102
}
102
{ACAD_XDICTIONARY
360
1B1FA
102
}
330
18C
100
AcDbMaterial
  1
BYLAYER
 72
     0
 73
     2
 43
0.0208333333333333
 43
0.0
 43
0.0
 43
0.0
 43
0.0
 43
0.0208333333333333
 43
0.0
 43
0.0
 43
0.0
 43
0.0
 43
1.0
 43
0.0
 43
0.0
 43
0.0
 43
0.0
 43
1.0
 77
     0
 78
     2
 47
0.0208333333333333
 47
0.0
 47
0.0
 47
0.0
 47
0.0
 47
0.0208333333333333
 47
0.0
 47
0.0
 47
0.0
 47
0.0
 47
1.0
 47
0.0
 47
0.0
 47
0.0
 47
0.0
 47
1.0
171
     0
172
     2
 49
0.0208333333333333
 49
0.0
 49
0.0
 49
0.0
 49
0.0
 49
0.0208333333333333
 49
0.0
 49
0.0
 49
0.0
 49
0.0
 49
1.0
 49
0.0
 49
0.0
 49
0.0
 49
0.0
 49
1.0
175
     0
176
     2
142
0.0208333333333333
142
0.0
142
0.0
142
0.0
142
0.0
142
0.0208333333333333
142
0.0
142
0.0
142
0.0
142
0.0
142
1.0
142
0.0
142
0.0
142
0.0
142
0.0
142
1.0
179
     0
270
     2
144
0.0208333333333333
144
0.0
144
0.0
144
0.0
144
0.0
144
0.0208333333333333
144
0.0
144
0.0
144
0.0
144
0.0
144
1.0
144
0.0
144
0.0
144
0.0
144
0.0
144
1.0
274
     2
147
0.0208333333333333
147
0.0
147
0.0
147
0.0
147
0.0
147
0.0208333333333333
147
0.0
147
0.0
147
0.0
147
0.0
147
1.0
147
0.0
147
0.0
147
0.0
147
0.0
147
1.0
  0
MATERIAL
  5
D9AC
102
{ACAD_REACTORS
330
18C
102
}
102
{ACAD_XDICTIONARY
360
1B1FC
102
}
330
18C
100
AcDbMaterial
  1
GLOBAL
 72
     0
 73
     2
 43
0.0208333333333333
 43
0.0
 43
0.0
 43
0.0
 43
0.0
 43
0.0208333333333333
 43
0.0
 43
0.0
 43
0.0
 43
0.0
 43
1.0
 43
0.0
 43
0.0
 43
0.0
 43
0.0
 43
1.0
 77
     0
 78
     2
 47
0.0208333333333333
 47
0.0
 47
0.0
 47
0.0
 47
0.0
 47
0.0208333333333333
 47
0.0
 47
0.0
 47
0.0
 47
0.0
 47
1.0
 47
0.0
 47
0.0
 47
0.0
 47
0.0
 47
1.0
171
     0
172
     2
 49
0.0208333333333333
 49
0.0
 49
0.0
 49
0.0
 49
0.0
 49
0.0208333333333333
 49
0.0
 49
0.0
 49
0.0
 49
0.0
 49
1.0
 49
0.0
 49
0.0
 49
0.0
 49
0.0
 49
1.0
175
     0
176
     2
142
0.0208333333333333
142
0.0
142
0.0
142
0.0
142
0.0
142
0.0208333333333333
142
0.0
142
0.0
142
0.0
142
0.0
142
1.0
142
0.0
142
0.0
142
0.0
142
0.0
142
1.0
179
     0
270
     2
144
0.0208333333333333
144
0.0
144
0.0
144
0.0
144
0.0
144
0.0208333333333333
144
0.0
144
0.0
144
0.0
144
0.0
144
1.0
144
0.0
144
0.0
144
0.0
144
0.0
144
1.0
274
     2
147
0.0208333333333333
147
0.0
147
0.0
147
0.0
147
0.0
147
0.0208333333333333
147
0.0
147
0.0
147
0.0
147
0.0
147
1.0
147
0.0
147
0.0
147
0.0
147
0.0
147
1.0
  0
ACAD_PROXY_OBJECT
  5
D9E8
102
{ACAD_REACTORS
330
D9E7
102
}
330
D9E7
100
AcDbZombieObject
 90
      499
 91
      511
 93
      610
310
40901902A4063FBFFFFFE000000000000002040AD7A3703D0AD73F4214DD185B99185C990000000000000104090141901A00000000000004100000000000000041025764000000000000300FC0
340
12
340
0
340
F
340
0
 94
        0
1001
ACAD_MLEADERVER
1070
     2
  0
MLINESTYLE
  5
1C
102
{ACAD_REACTORS
330
1B
102
}
330
1B
100
AcDbMlineStyle
  2
STANDARD
 70
     0
  3

 62
   256
 51
90.0
 52
90.0
 71
     2
 49
0.5
 62
   256
  6
BYLAYER
 49
-0.5
 62
   256
  6
BYLAYER
  0
ACAD_PROXY_OBJECT
  5
D9C6
102
{ACAD_REACTORS
330
D9C5
102
}
330
D9C5
100
AcDbZombieObject
 90
      499
 91
      510
 93
       41
310
903313A31580
  0
ACAD_PROXY_OBJECT
  5
D9C7
102
{ACAD_REACTORS
330
D9C5
102
}
330
D9C5
100
AcDbZombieObject
 90
      499
 91
      510
 93
      105
310
903313A324000000000000004000
  0
ACAD_PROXY_OBJECT
  5
D9C8
102
{ACAD_REACTORS
330
D9C5
102
}
330
D9C5
100
AcDbZombieObject
 90
      499
 91
      510
 93
      105
310
903313A344000000000000104000
  0
ACAD_PROXY_OBJECT
  5
D9C9
102
{ACAD_REACTORS
330
D9C5
102
}
330
D9C5
100
AcDbZombieObject
 90
      499
 91
      510
 93
      105
310
903313A354000000000000144000
  0
ACAD_PROXY_OBJECT
  5
D9CA
102
{ACAD_REACTORS
330
D9C5
102
}
330
D9C5
100
AcDbZombieObject
 90
      499
 91
      510
 93
      105
310
903313A384000000000000204000
  0
ACAD_PROXY_OBJECT
  5
D9CB
102
{ACAD_REACTORS
330
D9C5
102
}
330
D9C5
100
AcDbZombieObject
 90
      499
 91
      510
 93
      113
310
904313A31304000000000000244000
  0
ACAD_PROXY_OBJECT
  5
D9CC
102
{ACAD_REACTORS
330
D9C5
102
}
330
D9C5
100
AcDbZombieObject
 90
      499
 91
      510
 93
      113
310
904313A31364000000000000304000
  0
ACAD_PROXY_OBJECT
  5
D9CD
102
{ACAD_REACTORS
330
D9C5
102
}
330
D9C5
100
AcDbZombieObject
 90
      499
 91
      510
 93
      113
310
904313A32304000000000000344000
  0
ACAD_PROXY_OBJECT
  5
D9CE
102
{ACAD_REACTORS
330
D9C5
102
}
330
D9C5
100
AcDbZombieObject
 90
      499
 91
      510
 93
      113
310
904313A333040000000000003E4000
  0
ACAD_PROXY_OBJECT
  5
D9CF
102
{ACAD_REACTORS
330
D9C5
102
}
330
D9C5
100
AcDbZombieObject
 90
      499
 91
      510
 93
      113
310
904313A34304000000000000444000
  0
ACAD_PROXY_OBJECT
  5
D9D0
102
{ACAD_REACTORS
330
D9C5
102
}
330
D9C5
100
AcDbZombieObject
 90
      499
 91
      510
 93
      113
310
904313A35304000000000000494000
  0
ACAD_PROXY_OBJECT
  5
D9D1
102
{ACAD_REACTORS
330
D9C5
102
}
330
D9C5
100
AcDbZombieObject
 90
      499
 91
      510
 93
      121
310
905313A3130304000000000000594000
  0
ACAD_PROXY_OBJECT
  5
D9D2
102
{ACAD_REACTORS
330
D9C5
102
}
330
D9C5
100
AcDbZombieObject
 90
      499
 91
      510
 93
      105
310
903323A310000000000000010100
  0
ACAD_PROXY_OBJECT
  5
D9D3
102
{ACAD_REACTORS
330
D9C5
102
}
330
D9C5
100
AcDbZombieObject
 90
      499
 91
      510
 93
      105
310
903343A310000000000000410100
  0
ACAD_PROXY_OBJECT
  5
D9D4
102
{ACAD_REACTORS
330
D9C5
102
}
330
D9C5
100
AcDbZombieObject
 90
      499
 91
      510
 93
      105
310
903383A310000000000000810100
  0
ACAD_PROXY_OBJECT
  5
D9D5
102
{ACAD_REACTORS
330
D9C5
102
}
330
D9C5
100
AcDbZombieObject
 90
      499
 91
      510
 93
      113
310
90431303A310000000000000910100
  0
ACAD_PROXY_OBJECT
  5
D9D6
102
{ACAD_REACTORS
330
D9C5
102
}
330
D9C5
100
AcDbZombieObject
 90
      499
 91
      510
 93
      121
310
9053130303A310000000000001650100
  0
ACAD_PROXY_OBJECT
  5
D9D7
102
{ACAD_REACTORS
330
D9C5
102
}
330
D9C5
100
AcDbZombieObject
 90
      499
 91
      510
 93
      257
310
90E312F31323822203D2031272D3022000000000000200FC000000000000284000
  0
ACAD_PROXY_OBJECT
  5
D9D8
102
{ACAD_REACTORS
330
D9C5
102
}
330
D9C5
100
AcDbZombieObject
 90
      499
 91
      510
 93
      249
310
90D312F363422203D2031272D3022000000000000240FC000000000000284000
  0
ACAD_PROXY_OBJECT
  5
D9D9
102
{ACAD_REACTORS
330
D9C5
102
}
330
D9C5
100
AcDbZombieObject
 90
      499
 91
      510
 93
      249
310
90D312F333222203D2031272D3022000000000000280FC000000000000284000
  0
ACAD_PROXY_OBJECT
  5
D9DA
102
{ACAD_REACTORS
330
D9C5
102
}
330
D9C5
100
AcDbZombieObject
 90
      499
 91
      510
 93
      249
310
90D312F313622203D2031272D30220000000000002C0FC000000000000284000
  0
ACAD_PROXY_OBJECT
  5
D9DB
102
{ACAD_REACTORS
330
D9C5
102
}
330
D9C5
100
AcDbZombieObject
 90
      499
 91
      510
 93
      249
310
90D332F333222203D2031272D30220000000000002E0FC000000000000284000
  0
ACAD_PROXY_OBJECT
  5
D9DC
102
{ACAD_REACTORS
330
D9C5
102
}
330
D9C5
100
AcDbZombieObject
 90
      499
 91
      510
 93
      241
310
90C312F3822203D2031272D3022000000000000300FC000000000000284000
  0
ACAD_PROXY_OBJECT
  5
D9DD
102
{ACAD_REACTORS
330
D9C5
102
}
330
D9C5
100
AcDbZombieObject
 90
      499
 91
      510
 93
      249
310
90D332F313622203D2031272D3022000000000000320FC000000000000284000
  0
ACAD_PROXY_OBJECT
  5
D9DE
102
{ACAD_REACTORS
330
D9C5
102
}
330
D9C5
100
AcDbZombieObject
 90
      499
 91
      510
 93
      241
310
90C312F3422203D2031272D3022000000000000340FC000000000000284000
  0
ACAD_PROXY_OBJECT
  5
D9DF
102
{ACAD_REACTORS
330
D9C5
102
}
330
D9C5
100
AcDbZombieObject
 90
      499
 91
      510
 93
      241
310
90C332F3822203D2031272D3022000000000000360FC000000000000284000
  0
ACAD_PROXY_OBJECT
  5
D9E0
102
{ACAD_REACTORS
330
D9C5
102
}
330
D9C5
100
AcDbZombieObject
 90
      499
 91
      510
 93
      241
310
90C312F3222203D2031272D3022000000000000380FC000000000000284000
  0
ACAD_PROXY_OBJECT
  5
D9E1
102
{ACAD_REACTORS
330
D9C5
102
}
330
D9C5
100
AcDbZombieObject
 90
      499
 91
      510
 93
      241
310
90C332F3422203D2031272D30220000000000003A0FC000000000000284000
  0
ACAD_PROXY_OBJECT
  5
D9E2
102
{ACAD_REACTORS
330
D9C5
102
}
330
D9C5
100
AcDbZombieObject
 90
      499
 91
      510
 93
      161
310
90A3122203D2031272D30224000000000000284000
  0
ACAD_PROXY_OBJECT
  5
D9E3
102
{ACAD_REACTORS
330
D9C5
102
}
330
D9C5
100
AcDbZombieObject
 90
      499
 91
      510
 93
      257
310
90E312D312F3222203D2031272D30220000000000003E0FC000000000000284000
  0
ACAD_PROXY_OBJECT
  5
D9E4
102
{ACAD_REACTORS
330
D9C5
102
}
330
D9C5
100
AcDbZombieObject
 90
      499
 91
      510
 93
      225
310
90A3322203D2031272D302200000000000002100000000000000284000
  0
ACAD_PROXY_OBJECT
  5
D9E5
102
{ACAD_REACTORS
330
D9C5
102
}
330
D9C5
100
AcDbZombieObject
 90
      499
 91
      510
 93
      225
310
90A3622203D2031272D302200000000000006100000000000000284000
  0
ACAD_PROXY_OBJECT
  5
D9E6
102
{ACAD_REACTORS
330
D9C5
102
}
330
D9C5
100
AcDbZombieObject
 90
      499
 91
      510
 93
      249
310
90D31272D3022203D2031272D30220000000000000A100000000000000284000
  0
ACAD_PROXY_OBJECT
  5
D9BA
102
{ACAD_REACTORS
330
D9B4
102
}
330
D9B4
100
AcDbZombieObject
 90
      499
 91
      509
 93
      436
310
42CC9915DA5C99599C985B595049028333333333333E3BF0000000000000FB0107901411070040501600405405064090741402480A0340
1001
ACAD
1000
AcDbSavedByObjectVersion
1070
     0
  0
ACAD_PROXY_OBJECT
  5
D9BC
102
{ACAD_REACTORS
330
D9B4
102
}
330
D9B4
100
AcDbZombieObject
 90
      499
 91
      509
 93
      500
310
424CD108121A5919195B90640502408333333333333E3BF0000000000000FB01079024090700405020000000000001110200405405064090740C02480A0340
1001
ACAD
1000
AcDbSavedByObjectVersion
1070
     0
  0
ACAD_PROXY_OBJECT
  5
D9BB
102
{ACAD_REACTORS
330
D9B4
102
}
330
D9B4
100
AcDbZombieObject
 90
      499
 91
      509
 93
      436
310
42CCD915DA5C99599C985B595059028333333333333E3BF0000000000000FB0107901411070040501600405405064090741402480A0340
1001
ACAD
1000
AcDbSavedByObjectVersion
1070
     0
  0
ACAD_PROXY_OBJECT
  5
D9B9
102
{ACAD_REACTORS
330
D9B4
102
}
330
D9B4
100
AcDbZombieObject
 90
      499
 91
      509
 93
      388
310
4150985CDA58D07406404333333333333E3BF0000000000000FB0107A41107004050150841D405064090741402480A0350
1001
ACAD
1000
AcDbSavedByObjectVersion
1070
     0
  0
ACAD_PROXY_OBJECT
  5
D9C0
102
{ACAD_REACTORS
330
D9B4
102
}
330
D9B4
100
AcDbZombieObject
 90
      499
 91
      509
 93
      428
310
42109C9A59DA1D195B90C409028333333333333E3BF0000000000000FB010790141107004050150841D405064090741402480A029950
1001
ACAD
1000
AcDbSavedByObjectVersion
1070
     0
  0
ACAD_PROXY_OBJECT
  5
D9C4
102
{ACAD_REACTORS
330
D9B4
102
}
330
D9B4
100
AcDbZombieObject
 90
      499
 91
      509
 93
      452
310
42D0DBDB1BDC90DA185B99D95104090240C333333333333E3BF0000000000000FB0108901411070040501508421405064090741402480A0350
1001
ACAD
1000
AcDbSavedByObjectVersion
1070
     0
  0
ACAD_PROXY_OBJECT
  5
D9BD
102
{ACAD_REACTORS
330
D9B4
102
}
330
D9B4
100
AcDbZombieObject
 90
      499
 91
      509
 93
      500
310
4290DBDB98D95C1D1D585B10940D028333333333333E3BF0000000000000FB0107902409070040501000000000000111010841D405064090740C02480A0340
1001
ACAD
1000
AcDbSavedByObjectVersion
1070
     0
  0
ACAD_PROXY_OBJECT
  5
D9BF
102
{ACAD_REACTORS
330
D9B4
102
}
330
D9B4
100
AcDbZombieObject
 90
      499
 91
      509
 93
      412
310
40D11A5B50B409028333333333333E3BF0000000000000FB010790141107004050150841D405064090741402480A02677FFFFFD0
1001
ACAD
1000
AcDbSavedByObjectVersion
1070
     0
  0
ACAD_PROXY_OBJECT
  5
19C2F
102
{ACAD_REACTORS
330
D9B4
102
}
330
D9B4
100
AcDbZombieObject
 90
      499
 91
      509
 93
      452
310
43115919D950DBDB1BDC93D999916409028333333333333E3BF0000000000000FB010790141107004050150841D405064090741402480A0350
1001
ACAD
1000
AcDbSavedByObjectVersion
1070
     0
  0
ACAD_PROXY_OBJECT
  5
D9C3
102
{ACAD_REACTORS
330
D9B4
102
}
330
D9B4
100
AcDbZombieObject
 90
      499
 91
      509
 93
      444
310
42D19858D95C185D1D195C9B90F409028333333333333E3BF0000000000000FB010790141107004050150841D405064090741402480A0350
1001
ACAD
1000
AcDbSavedByObjectVersion
1070
     0
  0
ACAD_PROXY_OBJECT
  5
D9B5
102
{ACAD_REACTORS
330
D9B4
102
}
330
D9B4
100
AcDbZombieObject
 90
      499
 91
      509
 93
      388
310
41119B185D240901404333333333333E3BF0000000000000F9010740A41107004050150841D405064090741402480A1B50
1001
ACAD
1000
AcDbSavedByObjectVersion
1070
     0
  0
ACAD_PROXY_OBJECT
  5
D9B6
102
{ACAD_REACTORS
330
D9B4
102
}
330
D9B4
100
AcDbZombieObject
 90
      499
 91
      509
 93
      476
310
43519B185D15DA5D1A115919D95CD0140901404333333333333E3BF0000000000000F9010740901411070040501600405405064090741402480A1B50
1001
ACAD
1000
AcDbSavedByObjectVersion
1070
     0
  0
ACAD_PROXY_OBJECT
  5
D9B7
102
{ACAD_REACTORS
330
D9B4
102
}
330
D9B4
100
AcDbZombieObject
 90
      499
 91
      509
 93
      412
310
41D1DBDD5C985D5910240902404333333333333E3BF0000000000000F9010740A411070040501641D405064090741402480A1B50
1001
ACAD
1000
AcDbSavedByObjectVersion
1070
     0
  0
ACAD_PROXY_OBJECT
  5
D9B8
102
{ACAD_REACTORS
330
D9B4
102
}
330
D9B4
100
AcDbZombieObject
 90
      499
 91
      509
 93
      500
310
4411DBDD5C985D5915DA5D1A115919D95CD0340902404333333333333E3BF0000000000000F9010740901411070040501600405405064090741402480A1B50
1001
ACAD
1000
AcDbSavedByObjectVersion
1070
     0
  0
ACAD_PROXY_OBJECT
  5
19C7E
102
{ACAD_REACTORS
330
D9B4
102
}
330
D9B4
100
AcDbZombieObject
 90
      499
 91
      509
 93
      476
310
41921A5919195B90640502408333333333333E3BF0000000000000FB01079024090700405020000000000001110200405405064090740C02480A0340
1001
ACAD
1000
AcDbSavedByObjectVersion
1070
     0
  0
ACAD_PROXY_OBJECT
  5
19C2D
102
{ACAD_REACTORS
330
D9B4
102
}
330
D9B4
100
AcDbZombieObject
 90
      499
 91
      509
 93
      428
310
42529A5D1D195C93D999914409028333333333333E3BF0000000000000FB010790141107004050150A41D405064090741402480A0350
1001
ACAD
1000
AcDbSavedByObjectVersion
1070
     0
  0
ACAD_PROXY_OBJECT
  5
D9C2
102
{ACAD_REACTORS
330
D9B4
102
}
330
D9B4
100
AcDbZombieObject
 90
      499
 91
      509
 93
      444
310
42D31A5B995C185D1D195C9B90E409028333333333333E3BF0000000000000FB010790141107004050750841D405064090741402483A0350
1001
ACAD
1000
AcDbSavedByObjectVersion
1070
     0
  0
ACAD_PROXY_OBJECT
  5
19C84
102
{ACAD_REACTORS
330
D9B4
102
}
330
D9B4
100
AcDbZombieObject
 90
      499
 91
      509
 93
      484
310
42135BD9195B1A5B99D0A409028333333333333E3BF0000000000000F901074090290700405010000000000201990108421405064090741402480A1B40
1001
ACAD
1000
AcDbSavedByObjectVersion
1070
     0
  0
ACAD_PROXY_OBJECT
  5
19C2E
102
{ACAD_REACTORS
330
D9B4
102
}
330
D9B4
100
AcDbZombieObject
 90
      499
 91
      509
 93
      444
310
42D3DD995C9A185B99D3D999915409028333333333333E3BF0000000000000FB010790141107004050150941D405064090741402480A0350
1001
ACAD
1000
AcDbSavedByObjectVersion
1070
     0
  0
ACAD_PROXY_OBJECT
  5
D9BE
102
{ACAD_REACTORS
330
D9B4
102
}
330
D9B4
100
AcDbZombieObject
 90
      499
 91
      509
 93
      420
310
425499585B1A5CDD1A58D08409028333333333333E3BF0000000000000FB01079019070040501508421405064090741402480A1B40
1001
ACAD
1000
AcDbSavedByObjectVersion
1070
     0
  0
ACAD_PROXY_OBJECT
  5
19C83
102
{ACAD_REACTORS
330
D9B4
102
}
330
D9B4
100
AcDbZombieObject
 90
      499
 91
      509
 93
      420
310
4194DA1859195911B40902404333333333333E3BF0000000000000F9010740A41107004050150800405405064090840C02480A0B40
1001
ACAD
1000
AcDbSavedByObjectVersion
1070
     0
  0
ACAD_PROXY_OBJECT
  5
19C82
102
{ACAD_REACTORS
330
D9B4
102
}
330
D9B4
100
AcDbZombieObject
 90
      499
 91
      509
 93
      516
310
4454DA18591959081DDA5D1A08195919D95CD1A40902404333333333333E3BF0000000000000F901074090142907004050250800405405064090740C02480A0B40
1001
ACAD
1000
AcDbSavedByObjectVersion
1070
     0
  0
ACAD_PROXY_OBJECT
  5
19C7F
102
{ACAD_REACTORS
330
D9B4
102
}
330
D9B4
100
AcDbZombieObject
 90
      499
 91
      509
 93
      532
310
4394DA1859195CC81BD98811DC985E5174090240C333333333333E3BF0000000000000FB01079024090741D01000000000000111010841D405064090740C02480A0340
1001
ACAD
1000
AcDbSavedByObjectVersion
1070
     0
  0
ACAD_PROXY_OBJECT
  5
19C80
102
{ACAD_REACTORS
330
D9B4
102
}
330
D9B4
100
AcDbZombieObject
 90
      499
 91
      509
 93
      476
310
41D4DAD95D18DA1E51840502408333333333333E3BF0000000000000FB01079024090741D01000000000000111010B41D405064090741802480A0340
1001
ACAD
1000
AcDbSavedByObjectVersion
1070
     0
  0
ACAD_PROXY_OBJECT
  5
D9C1
102
{ACAD_REACTORS
330
D9B4
102
}
330
D9B4
100
AcDbZombieObject
 90
      499
 91
      509
 93
      412
310
41D51A1A58DAD95B90D409028333333333333E3BF0000000000000FB010790141107004050150C41D405064090741402480A0350
1001
ACAD
1000
AcDbSavedByObjectVersion
1070
     0
  0
ACAD_PROXY_OBJECT
  5
19C7D
102
{ACAD_REACTORS
330
D9B4
102
}
330
D9B4
100
AcDbZombieObject
 90
      499
 91
      509
 93
      420
310
4255DA5C99599C985B595059028333333333333E3BF0000000000000FB0107901411070040501600405405064090740C02480A0340
1001
ACAD
1000
AcDbSavedByObjectVersion
1070
     0
  0
ACAD_PROXY_OBJECT
  5
19C81
102
{ACAD_REACTORS
330
D9B4
102
}
330
D9B4
100
AcDbZombieObject
 90
      499
 91
      509
 93
      404
310
41560B54985E51940902404000000000000E03F0000000000000FB010740501907004050150841D405064090740C02480A1B40
1001
ACAD
1000
AcDbSavedByObjectVersion
1070
     0
  0
XRECORD
  5
1B05B
102
{ACAD_REACTORS
330
1B05A
102
}
330
1B05A
100
AcDbXrecord
340
18D
  0
XRECORD
  5
1B05C
102
{ACAD_REACTORS
330
1B05A
102
}
330
1B05A
100
AcDbXrecord
340
18C
  0
DICTIONARYVAR
  5
1AEE9
102
{ACAD_REACTORS
330
37
102
}
330
37
100
DictionaryVariables
280
     0
  1
1:1
  0
DICTIONARYVAR
  5
DA6A
102
{ACAD_REACTORS
330
37
102
}
330
37
100
DictionaryVariables
280
     0
  1
Standard
  0
DICTIONARYVAR
  5
29E
102
{ACAD_REACTORS
330
37
102
}
330
37
100
DictionaryVariables
280
     0
  1
Standard
  0
DICTIONARYVAR
  5
38
102
{ACAD_REACTORS
330
37
102
}
330
37
100
DictionaryVariables
280
     0
  1
-1
  0
DICTIONARYVAR
  5
1CE
102
{ACAD_REACTORS
330
37
102
}
330
37
100
DictionaryVariables
280
     0
  1
2
  0
DICTIONARYVAR
  5
704E
102
{ACAD_REACTORS
330
37
102
}
330
37
100
DictionaryVariables
280
     0
  1
1
  0
DICTIONARYVAR
  5
DA6D
102
{ACAD_REACTORS
330
37
102
}
330
37
100
DictionaryVariables
280
     0
  1
0
  0
DICTIONARYVAR
  5
7052
102
{ACAD_REACTORS
330
37
102
}
330
37
100
DictionaryVariables
280
     0
  1
8
  0
DICTIONARYVAR
  5
7051
102
{ACAD_REACTORS
330
37
102
}
330
37
100
DictionaryVariables
280
     0
  1
1
  0
DICTIONARYVAR
  5
1ADB9
102
{ACAD_REACTORS
330
37
102
}
330
37
100
DictionaryVariables
280
     0
  1
0
  0
DICTIONARYVAR
  5
1ADBA
102
{ACAD_REACTORS
330
37
102
}
330
37
100
DictionaryVariables
280
     0
  1
0
  0
DICTIONARYVAR
  5
1A60C
102
{ACAD_REACTORS
330
37
102
}
330
37
100
DictionaryVariables
280
     0
  1
0
  0
DICTIONARYVAR
  5
704F
102
{ACAD_REACTORS
330
37
102
}
330
37
100
DictionaryVariables
280
     0
  1
120
  0
DICTIONARYVAR
  5
7050
102
{ACAD_REACTORS
330
37
102
}
330
37
100
DictionaryVariables
280
     0
  1
0
  0
DICTIONARYVAR
  5
1CF
102
{ACAD_REACTORS
330
37
102
}
330
37
100
DictionaryVariables
280
     0
  1

  0
DICTIONARYVAR
  5
DA6C
102
{ACAD_REACTORS
330
37
102
}
330
37
100
DictionaryVariables
280
     0
  1
127
  0
DICTIONARYVAR
  5
1AEC9
102
{ACAD_REACTORS
330
37
102
}
330
37
100
DictionaryVariables
280
     0
  1
2
  0
DICTIONARY
  5
1B1F8
330
D9A4
100
AcDbDictionary
  3
ACAD_XREC_ROUNDTRIP
360
1B1F9
1001
ACAD
1000
TREAT_AS_HARD
1070
     1
  0
DICTIONARY
  5
1B1FA
330
D99C
100
AcDbDictionary
  3
ACAD_XREC_ROUNDTRIP
360
1B1FB
1001
ACAD
1000
TREAT_AS_HARD
1070
     1
  0
DICTIONARY
  5
1B1FC
330
D9AC
100
AcDbDictionary
  3
ACAD_XREC_ROUNDTRIP
360
1B1FD
1001
ACAD
1000
TREAT_AS_HARD
1070
     1
  0
XRECORD
  5
1B1F9
102
{ACAD_REACTORS
330
1B1F8
102
}
330
1B1F8
100
AcDbXrecord
102
MATERIAL
148
0.0
149
0.0
149
0.0
 93
        0
 94
      127
282
     0
 72
     0
 77
     0
171
     0
175
     0
179
     0
273
     0
  0
XRECORD
  5
1B1FB
102
{ACAD_REACTORS
330
1B1FA
102
}
330
1B1FA
100
AcDbXrecord
102
MATERIAL
148
0.0
149
0.0
149
0.0
 93
        0
 94
      127
282
     0
 72
     0
 77
     0
171
     0
175
     0
179
     0
273
     0
  0
XRECORD
  5
1B1FD
102
{ACAD_REACTORS
330
1B1FC
102
}
330
1B1FC
100
AcDbXrecord
102
MATERIAL
148
0.0
149
0.0
149
0.0
 93
        0
 94
      127
282
     0
 72
     0
 77
     0
171
     0
175
     0
179
     0
273
     0
  0
ENDSEC
  0
EOF
