  0
SECTION
  2
HEADER
  9
$ACADVER
  1
AC1012
  9
$DWGCODEPAGE
  3
ansi_932
  9
$INSBASE
 10
0.0
 20
0.0
 30
0.0
  9
$EXTMIN
 10
2883.779958800275
 20
-307.5928346837275
 30
0.0
  9
$EXTMAX
 10
3519.445573182373
 20
118.7628124704557
 30
0.0000000003382273
  9
$LIMMIN
 10
0.0
 20
0.0
  9
$LIMMAX
 10
420.0
 20
297.0
  9
$ORTHOMODE
 70
     0
  9
$REGENMODE
 70
     1
  9
$FILLMODE
 70
     1
  9
$QTEXTMODE
 70
     0
  9
$MIRRTEXT
 70
     0
  9
$DRAGMODE
 70
     2
  9
$LTSCALE
 40
0.5
  9
$OSMODE
 70
 14463
  9
$ATTMODE
 70
     1
  9
$TEXTSIZE
 40
4.0
  9
$TRACEWID
 40
1.0
  9
$TEXTSTYLE
  7
STANDARD
  9
$CLAYER
  8
1TEXT
  9
$CELTYPE
  6
BYLAYER
  9
$CECOLOR
 62
   256
  9
$CELTSCALE
 40
1.0
  9
$DELOBJ
 70
     1
  9
$DISPSILH
 70
     0
  9
$DIMSCALE
 40
1.0
  9
$DIMASZ
 40
2.0
  9
$DIMEXO
 40
0.0
  9
$DIMDLI
 40
7.0
  9
$DIMRND
 40
0.0
  9
$DIMDLE
 40
0.0
  9
$DIMEXE
 40
1.0
  9
$DIMTP
 40
0.0
  9
$DIMTM
 40
0.0
  9
$DIMTXT
 40
3.5
  9
$DIMCEN
 40
0.0
  9
$DIMTSZ
 40
0.0
  9
$DIMTOL
 70
     0
  9
$DIMLIM
 70
     0
  9
$DIMTIH
 70
     0
  9
$DIMTOH
 70
     0
  9
$DIMSE1
 70
     0
  9
$DIMSE2
 70
     0
  9
$DIMTAD
 70
     1
  9
$DIMZIN
 70
     8
  9
$DIMBLK
  1

  9
$DIMASO
 70
     1
  9
$DIMSHO
 70
     1
  9
$DIMPOST
  1
 
  9
$DIMAPOST
  1

  9
$DIMALT
 70
     0
  9
$DIMALTD
 70
     2
  9
$DIMALTF
 40
25.4
  9
$DIMLFAC
 40
1.0
  9
$DIMTOFL
 70
     1
  9
$DIMTVP
 40
0.0
  9
$DIMTIX
 70
     0
  9
$DIMSOXD
 70
     0
  9
$DIMSAH
 70
     1
  9
$DIMBLK1
  1
OPEN30
  9
$DIMBLK2
  1
OPEN30
  9
$DIMSTYLE
  2
NEWX10
  9
$DIMCLRD
 70
   256
  9
$DIMCLRE
 70
   256
  9
$DIMCLRT
 70
   201
  9
$DIMTFAC
 40
0.7
  9
$DIMGAP
 40
0.7
  9
$DIMJUST
 70
     0
  9
$DIMSD1
 70
     0
  9
$DIMSD2
 70
     0
  9
$DIMTOLJ
 70
     1
  9
$DIMTZIN
 70
     8
  9
$DIMALTZ
 70
     0
  9
$DIMALTTZ
 70
     0
  9
$DIMFIT
 70
     2
  9
$DIMUPT
 70
     0
  9
$DIMUNIT
 70
     2
  9
$DIMDEC
 70
     2
  9
$DIMTDEC
 70
     4
  9
$DIMALTU
 70
     2
  9
$DIMALTTD
 70
     2
  9
$DIMTXSTY
  7
STANDARD
  9
$DIMAUNIT
 70
     0
  9
$LUNITS
 70
     2
  9
$LUPREC
 70
     4
  9
$SKETCHINC
 40
1.0
  9
$FILLETRAD
 40
0.0
  9
$AUNITS
 70
     0
  9
$AUPREC
 70
     2
  9
$MENU
  1
acad
  9
$ELEVATION
 40
0.0
  9
$PELEVATION
 40
0.0
  9
$THICKNESS
 40
0.0
  9
$LIMCHECK
 70
     0
  9
$CHAMFERA
 40
10.0
  9
$CHAMFERB
 40
10.0
  9
$CHAMFERC
 40
20.0
  9
$CHAMFERD
 40
0.0
  9
$SKPOLY
 70
     0
  9
$TDCREATE
 40
2451318.621352917
  9
$TDUPDATE
 40
2458152.536741146
  9
$TDINDWG
 40
1.5257209375
  9
$TDUSRTIMER
 40
1.5257209375
  9
$USRTIMER
 70
     1
  9
$ANGBASE
 50
0.0
  9
$ANGDIR
 70
     0
  9
$PDMODE
 70
     0
  9
$PDSIZE
 40
0.0
  9
$PLINEWID
 40
0.0
  9
$COORDS
 70
     2
  9
$SPLFRAME
 70
     0
  9
$SPLINETYPE
 70
     6
  9
$SPLINESEGS
 70
     8
  9
$ATTDIA
 70
     0
  9
$ATTREQ
 70
     1
  9
$HANDLING
 70
     1
  9
$HANDSEED
  5
1B1D6
  9
$SURFTAB1
 70
     6
  9
$SURFTAB2
 70
     6
  9
$SURFTYPE
 70
     6
  9
$SURFU
 70
     6
  9
$SURFV
 70
     6
  9
$UCSNAME
  2

  9
$UCSORG
 10
0.0
 20
0.0
 30
0.0
  9
$UCSXDIR
 10
1.0
 20
0.0
 30
0.0
  9
$UCSYDIR
 10
0.0
 20
1.0
 30
0.0
  9
$PUCSNAME
  2

  9
$PUCSORG
 10
0.0
 20
0.0
 30
0.0
  9
$PUCSXDIR
 10
1.0
 20
0.0
 30
0.0
  9
$PUCSYDIR
 10
0.0
 20
1.0
 30
0.0
  9
$USERI1
 70
     0
  9
$USERI2
 70
     0
  9
$USERI3
 70
     0
  9
$USERI4
 70
     0
  9
$USERI5
 70
     0
  9
$USERR1
 40
0.0
  9
$USERR2
 40
0.0
  9
$USERR3
 40
0.0
  9
$USERR4
 40
0.0
  9
$USERR5
 40
0.0
  9
$WORLDVIEW
 70
     1
  9
$SHADEDGE
 70
     3
  9
$SHADEDIF
 70
    70
  9
$TILEMODE
 70
     1
  9
$MAXACTVP
 70
    48
  9
$PINSBASE
 10
0.0
 20
0.0
 30
0.0
  9
$PLIMCHECK
 70
     0
  9
$PEXTMIN
 10
1.000000000000000E+20
 20
1.000000000000000E+20
 30
1.000000000000000E+20
  9
$PEXTMAX
 10
-1.000000000000000E+20
 20
-1.000000000000000E+20
 30
-1.000000000000000E+20
  9
$PLIMMIN
 10
0.0
 20
0.0
  9
$PLIMMAX
 10
420.0
 20
297.0
  9
$UNITMODE
 70
     0
  9
$VISRETAIN
 70
     1
  9
$PLINEGEN
 70
     0
  9
$PSLTSCALE
 70
     1
  9
$TREEDEPTH
 70
  3020
  9
$PICKSTYLE
 70
     1
  9
$CMLSTYLE
  2
STANDARD
  9
$CMLJUST
 70
     0
  9
$CMLSCALE
 40
20.0
  9
$SAVEIMAGES
 70
     1
  0
ENDSEC
  0
SECTION
  2
CLASSES
  0
CLASS
  1
DICTIONARYVAR
  2
AcDbDictionaryVar
  3
ObjectDBX Classes
 90
        0
280
     0
281
     0
  0
CLASS
  1
IDBUFFER
  2
AcDbIdBuffer
  3
ObjectDBX Classes
 90
    32768
280
     0
281
     0
  0
CLASS
  1
LWPOLYLINE
  2
AcDbPolyline
  3
ObjectDBX Classes
 90
    32768
280
     0
281
     1
  0
CLASS
  1
ACDBDICTIONARYWDFLT
  2
AcDbDictionaryWithDefault
  3
ObjectDBX Classes
 90
    32768
280
     0
281
     0
  0
CLASS
  1
ACDBPLACEHOLDER
  2
AcDbPlaceHolder
  3
ObjectDBX Classes
 90
        0
280
     0
281
     0
  0
CLASS
  1
LAYOUT
  2
AcDbLayout
  3
ObjectDBX Classes
 90
        0
280
     0
281
     0
  0
CLASS
  1
TABLESTYLE
  2
AcDbTableStyle
  3
ObjectDBX Classes
 90
     4095
280
     0
281
     0
  0
CLASS
  1
SORTENTSTABLE
  2
AcDbSortentsTable
  3
ObjectDBX Classes
 90
    32768
280
     0
281
     0
  0
CLASS
  1
MATERIAL
  2
AcDbMaterial
  3
ObjectDBX Classes
 90
     1153
280
     0
281
     0
  0
CLASS
  1
VISUALSTYLE
  2
AcDbVisualStyle
  3
ObjectDBX Classes
 90
     4095
280
     0
281
     0
  0
CLASS
  1
SCALE
  2
AcDbScale
  3
ObjectDBX Classes
 90
     1153
280
     0
281
     0
  0
CLASS
  1
MLEADERSTYLE
  2
AcDbMLeaderStyle
  3
ACDB_MLEADERSTYLE_CLASS
 90
     4095
280
     0
281
     0
  0
CLASS
  1
CELLSTYLEMAP
  2
AcDbCellStyleMap
  3
ObjectDBX Classes
 90
     1152
280
     0
281
     0
  0
CLASS
  1
SUN
  2
AcDbSun
  3
SCENEOE
 90
     1153
280
     0
281
     0
  0
CLASS
  1
AEC_REFEDIT_STATUS_TRACKER
  2
AecDbRefEditStatusTracker
  3
AecArchBase60|Product Desc: Autodesk Architectural Desktop 2007 |Company: Autodesk,Inc. |WEB Address: www.autodesk.com
 90
   -32639
280
     1
281
     0
  0
CLASS
  1
NPOCOLLECTION
  2
AcDbImpNonPersistentObjectsCollection
  3
ObjectDBX Classes
 90
   -31615
280
     1
281
     0
  0
CLASS
  1
XRECORD
  2
AcDbXrecord
  3
ObjectDBX Classes
 90
    32768
280
     0
281
     0
  0
CLASS
  1
HATCH
  2
AcDbHatch
  3
ObjectDBX Classes
 90
    32768
280
     0
281
     1
  0
ENDSEC
  0
SECTION
  2
TABLES
  0
TABLE
  2
VPORT
  5
8
330
0
100
AcDbSymbolTable
 70
     1
  0
VPORT
  5
D991
330
8
100
AcDbSymbolTableRecord
100
AcDbViewportTableRecord
  2
*ACTIVE
 70
     0
 10
0.0
 20
0.0
 11
1.0
 21
1.0
 12
3201.612765991324
 22
-94.41501110663589
 13
0.0
 23
0.0
 14
10.0
 24
10.0
 15
10.0
 25
10.0
 16
0.0
 26
0.0
 36
1.0
 17
0.0
 27
0.0
 37
0.0
 40
457.7713264181756
 41
2.233782129742962
 42
50.0
 43
0.0
 44
0.0
 50
0.0
 51
0.0
 71
    16
 72
   100
 73
     1
 74
     1
 75
     0
 76
     0
 77
     0
 78
     0
  0
ENDTAB
  0
TABLE
  2
LTYPE
  5
5
330
0
100
AcDbSymbolTable
 70
     3
  0
LTYPE
  5
12
330
5
100
AcDbSymbolTableRecord
100
AcDbLinetypeTableRecord
  2
BYBLOCK
 70
     0
  3

 72
    65
 73
     0
 40
0.0
  0
LTYPE
  5
13
330
5
100
AcDbSymbolTableRecord
100
AcDbLinetypeTableRecord
  2
BYLAYER
 70
     0
  3

 72
    65
 73
     0
 40
0.0
  0
LTYPE
  5
14
330
5
100
AcDbSymbolTableRecord
100
AcDbLinetypeTableRecord
  2
CONTINUOUS
 70
     0
  3
Solid line
 72
    65
 73
     0
 40
0.0
  0
LTYPE
  5
2C03
330
5
100
AcDbSymbolTableRecord
100
AcDbLinetypeTableRecord
  2
HIDDEN
 70
     0
  3
Hidden __ __ __ __ __ __ __ __ __ __ __ __ __ _
 72
    65
 73
     2
 40
9.524999999999999
 49
6.35
 74
     0
 49
-3.175
 74
     0
  0
LTYPE
  5
13839
330
5
100
AcDbSymbolTableRecord
100
AcDbLinetypeTableRecord
  2
CENTER2
 70
     0
  3
Center (.5x) ___ _ ___ _ ___ _ ___ _ ___ _ ___
 72
    65
 73
     4
 40
28.575
 49
19.05
 74
     0
 49
-3.175
 74
     0
 49
3.175
 74
     0
 49
-3.175
 74
     0
  0
ENDTAB
  0
TABLE
  2
LAYER
  5
2
102
{ACAD_XDICTIONARY
360
E6A6
102
}
330
0
100
AcDbSymbolTable
 70
     6
  0
LAYER
  5
E
102
{ACAD_XDICTIONARY
360
DA05
102
}
330
2
100
AcDbSymbolTableRecord
100
AcDbLayerTableRecord
  2
0
 70
     0
 62
     7
  6
CONTINUOUS
  0
LAYER
  5
29
102
{ACAD_XDICTIONARY
360
DA07
102
}
330
2
100
AcDbSymbolTableRecord
100
AcDbLayerTableRecord
  2
1CENTER
 70
     0
 62
     7
  6
CENTER2
  0
LAYER
  5
31
102
{ACAD_XDICTIONARY
360
DA09
102
}
330
2
100
AcDbSymbolTableRecord
100
AcDbLayerTableRecord
  2
1TEXT
 70
     0
 62
     7
  6
CONTINUOUS
  0
LAYER
  5
243
102
{ACAD_XDICTIONARY
360
DA0F
102
}
330
2
100
AcDbSymbolTableRecord
100
AcDbLayerTableRecord
  2
01
 70
     0
 62
     1
  6
CONTINUOUS
  0
LAYER
  5
24E
102
{ACAD_XDICTIONARY
360
DA15
102
}
330
2
100
AcDbSymbolTableRecord
100
AcDbLayerTableRecord
  2
1DIM
 70
     0
 62
     7
  6
CONTINUOUS
  0
LAYER
  5
2C05
102
{ACAD_XDICTIONARY
360
DA23
102
}
330
2
100
AcDbSymbolTableRecord
100
AcDbLayerTableRecord
  2
1HIDDEN
 70
     0
 62
     7
  6
HIDDEN
  0
ENDTAB
  0
TABLE
  2
STYLE
  5
3
330
0
100
AcDbSymbolTable
 70
     1
  0
STYLE
  5
F
330
3
100
AcDbSymbolTableRecord
100
AcDbTextStyleTableRecord
  2
STANDARD
 70
     0
 40
0.0
 41
1.0
 50
0.0
 71
     0
 42
4.0
  3
txt.shx
  4
extfont.shx
  0
ENDTAB
  0
TABLE
  2
VIEW
  5
6
330
0
100
AcDbSymbolTable
 70
     0
  0
ENDTAB
  0
TABLE
  2
UCS
  5
7
330
0
100
AcDbSymbolTable
 70
     0
  0
ENDTAB
  0
TABLE
  2
APPID
  5
9
330
0
100
AcDbSymbolTable
 70
    13
  0
APPID
  5
10
330
9
100
AcDbSymbolTableRecord
100
AcDbRegAppTableRecord
  2
ACAD
 70
     0
  0
APPID
  5
21
330
9
100
AcDbSymbolTableRecord
100
AcDbRegAppTableRecord
  2
DRAWINGVARIABLESXDATA
 70
     0
  0
APPID
  5
64
330
9
100
AcDbSymbolTableRecord
100
AcDbRegAppTableRecord
  2
CONTENTTABDATA
 70
     0
  0
APPID
  5
65
330
9
100
AcDbSymbolTableRecord
100
AcDbRegAppTableRecord
  2
CONTENTCURRENTTAB
 70
     0
  0
APPID
  5
66
330
9
100
AcDbSymbolTableRecord
100
AcDbRegAppTableRecord
  2
CONTENTBLOCKDESCRIPTION
 70
     0
  0
APPID
  5
67
330
9
100
AcDbSymbolTableRecord
100
AcDbRegAppTableRecord
  2
CONTENTBLOCKICON
 70
     0
  0
APPID
  5
68
330
9
100
AcDbSymbolTableRecord
100
AcDbRegAppTableRecord
  2
CONTENTLONGBLOCKNAME
 70
     0
  0
APPID
  5
2AE
330
9
100
AcDbSymbolTableRecord
100
AcDbRegAppTableRecord
  2
ACAD_PSEXT
 70
     0
  0
APPID
  5
D9E9
330
9
100
AcDbSymbolTableRecord
100
AcDbRegAppTableRecord
  2
ACAD_MLEADERVER
 70
     0
  0
APPID
  5
19D01
330
9
100
AcDbSymbolTableRecord
100
AcDbRegAppTableRecord
  2
ACADANNOTATIVE
 70
     0
  0
APPID
  5
19D02
330
9
100
AcDbSymbolTableRecord
100
AcDbRegAppTableRecord
  2
ACDBBLOCKREPETAG
 70
     0
  0
APPID
  5
1A613
330
9
100
AcDbSymbolTableRecord
100
AcDbRegAppTableRecord
  2
ACAD_OBJECT_CHANGE_GUID
 70
     0
  0
APPID
  5
1A885
330
9
100
AcDbSymbolTableRecord
100
AcDbRegAppTableRecord
  2
ACAECLAYERSTANDARD
 70
     0
  0
ENDTAB
  0
TABLE
  2
DIMSTYLE
  5
A
330
0
100
AcDbSymbolTable
 70
     1
  0
DIMSTYLE
105
48
330
A
100
AcDbSymbolTableRecord
100
AcDbDimStyleTableRecord
  2
NEWX10
 70
     0
  3
 
  4

  5

  6
OPEN30
  7
OPEN30
 40
1.0
 41
2.0
 42
0.0
 43
7.0
 44
1.0
 45
0.0
 46
0.0
 47
0.0
 48
0.0
140
3.5
141
0.0
142
0.0
143
25.4
144
1.0
145
0.0
146
0.7
147
0.7
 71
     0
 72
     0
 73
     0
 74
     0
 75
     0
 76
     0
 77
     1
 78
     8
170
     0
171
     2
172
     1
173
     1
174
     0
175
     0
176
   256
177
   256
178
   201
179
     2
270
     2
271
     2
272
     4
273
     2
274
     2
340
F
275
     0
280
     0
281
     0
282
     0
283
     1
284
     8
285
     0
286
     0
287
     2
288
     0
  0
ENDTAB
  0
TABLE
  2
BLOCK_RECORD
  5
1
330
0
100
AcDbSymbolTable
 70
     8
  0
BLOCK_RECORD
  5
18
102
{ACAD_XDICTIONARY
360
88F
102
}
330
1
100
AcDbSymbolTableRecord
100
AcDbBlockTableRecord
  2
*MODEL_SPACE
  0
BLOCK_RECORD
  5
15
330
1
100
AcDbSymbolTableRecord
100
AcDbBlockTableRecord
  2
*PAPER_SPACE
  0
BLOCK_RECORD
  5
42
330
1
100
AcDbSymbolTableRecord
100
AcDbBlockTableRecord
  2
_OPEN30
  0
BLOCK_RECORD
  5
19D51
330
1
100
AcDbSymbolTableRecord
100
AcDbBlockTableRecord
  2
A3WAKUKAWAJUN2017_HYOUDAI_
  0
BLOCK_RECORD
  5
1B036
330
1
100
AcDbSymbolTableRecord
100
AcDbBlockTableRecord
  2
*X56
  0
BLOCK_RECORD
  5
1B084
330
1
100
AcDbSymbolTableRecord
100
AcDbBlockTableRecord
  2
*X57
  0
BLOCK_RECORD
  5
1B0D6
330
1
100
AcDbSymbolTableRecord
100
AcDbBlockTableRecord
  2
*X58
  0
BLOCK_RECORD
  5
1B127
330
1
100
AcDbSymbolTableRecord
100
AcDbBlockTableRecord
  2
*X59
  0
BLOCK_RECORD
  5
1B164
330
1
100
AcDbSymbolTableRecord
100
AcDbBlockTableRecord
  2
*X60
  0
BLOCK_RECORD
  5
1B1A4
330
1
100
AcDbSymbolTableRecord
100
AcDbBlockTableRecord
  2
*X61
  0
ENDTAB
  0
ENDSEC
  0
SECTION
  2
BLOCKS
  0
BLOCK
  5
19
330
18
100
AcDbEntity
  8
0
100
AcDbBlockBegin
  2
*MODEL_SPACE
 70
     0
 10
0.0
 20
0.0
 30
0.0
  3
*MODEL_SPACE
  1

  0
ENDBLK
  5
1A
330
18
100
AcDbEntity
  8
0
100
AcDbBlockEnd
  0
BLOCK
  5
16
330
15
100
AcDbEntity
 67
     1
  8
0
100
AcDbBlockBegin
  2
*PAPER_SPACE
 70
     0
 10
0.0
 20
0.0
 30
0.0
  3
*PAPER_SPACE
  1

  0
ENDBLK
  5
17
330
15
100
AcDbEntity
 67
     1
  8
0
100
AcDbBlockEnd
  0
BLOCK
  5
43
330
42
100
AcDbEntity
  8
0
100
AcDbBlockBegin
  2
_OPEN30
 70
     0
 10
0.0
 20
0.0
 30
0.0
  3
_OPEN30
  1

  0
LINE
  5
44
330
42
100
AcDbEntity
  8
0
  6
BYBLOCK
 62
     0
100
AcDbLine
 10
-1.0
 20
0.26794919
 30
0.0
 11
0.0
 21
0.0
 31
0.0
  0
LINE
  5
45
330
42
100
AcDbEntity
  8
0
  6
BYBLOCK
 62
     0
100
AcDbLine
 10
0.0
 20
0.0
 30
0.0
 11
-1.0
 21
-0.26794919
 31
0.0
  0
LINE
  5
46
330
42
100
AcDbEntity
  8
0
  6
BYBLOCK
 62
     0
100
AcDbLine
 10
0.0
 20
0.0
 30
0.0
 11
-1.0
 21
0.0
 31
0.0
  0
ENDBLK
  5
47
330
42
100
AcDbEntity
  8
0
100
AcDbBlockEnd
  0
BLOCK
  5
1A474
330
19D51
100
AcDbEntity
  8
0
100
AcDbBlockBegin
  2
A3WAKUKAWAJUN2017_HYOUDAI_
 70
     0
 10
0.0
 20
0.0
 30
0.0
  3
A3WAKUKAWAJUN2017_HYOUDAI_
  1

  0
LINE
  5
19D53
330
19D51
100
AcDbEntity
  8
0
100
AcDbLine
 10
13.26299999998673
 20
-0.0001000000000317
 30
0.0
 11
9.236999999990758
 21
8.999899999990987
 31
0.0
1001
ACAD
1000
ASC_BOUNDS
1002
{
1070
    19
1005
19D94
1002
}
  0
LINE
  5
19D54
330
19D51
100
AcDbEntity
  8
0
100
AcDbLine
 10
5.657999999994331
 20
0.9999999999989768
 30
0.0
 11
9.236999999990758
 21
8.999999999991019
 31
0.0
1001
ACAD
1000
ASC_BOUNDS
1002
{
1070
    19
1005
19D94
1002
}
  0
LINE
  5
19D55
330
19D51
100
AcDbEntity
  8
0
100
AcDbLine
 10
18.59199999998134
 20
-0.2368999999997641
 30
0.0
 11
16.46099999998353
 21
5.432899999994561
 31
0.0
1001
ACAD
1000
ASC_BOUNDS
1002
{
1070
    19
1005
19D95
1002
}
  0
LINE
  5
19D56
330
19D51
100
AcDbEntity
  8
0
100
AcDbLine
 10
18.59199999998134
 20
-0.2368999999997641
 30
0.0
 11
22.38199999997767
 21
8.763099999991255
 31
0.0
1001
ACAD
1000
ASC_BOUNDS
1002
{
1070
    19
1005
19D95
1002
}
  0
LINE
  5
19D57
330
19D51
100
AcDbEntity
  8
0
100
AcDbLine
 10
14.32899999998563
 20
-0.2368999999997641
 30
0.0
 11
16.46099999998353
 21
5.432899999994561
 31
0.0
1001
ACAD
1000
ASC_BOUNDS
1002
{
1070
    19
1005
19D95
1002
}
  0
LINE
  5
19D58
330
19D51
100
AcDbEntity
  8
0
100
AcDbLine
 10
14.32899999998563
 20
-0.2368999999997641
 30
0.0
 11
10.53899999998941
 21
8.763099999991255
 31
0.0
1001
ACAD
1000
ASC_BOUNDS
1002
{
1070
    19
1005
19D95
1002
}
  0
LINE
  5
19D59
330
19D51
100
AcDbEntity
  8
0
100
AcDbLine
 10
19.53899999998043
 20
-0.0001000000000317
 30
0.0
 11
23.56599999997638
 21
8.999899999990987
 31
0.0
1001
ACAD
1000
ASC_BOUNDS
1002
{
1070
    19
1005
19D96
1002
}
  0
LINE
  5
19D5A
330
19D51
100
AcDbEntity
  8
0
100
AcDbLine
 10
26.97358892824991
 20
1.383099999991202
 30
0.0
 11
23.56599999997638
 21
8.999899999990987
 31
0.0
1001
ACAD
1000
ASC_BOUNDS
1002
{
1070
    19
1005
19D96
1002
}
  0
LINE
  5
19D5B
330
19D51
100
AcDbEntity
  8
0
100
AcDbLine
 10
5.657999999994331
 20
0.9999999999989768
 30
0.0
 11
3.181999999996833
 21
4.668599999995308
 31
0.0
1001
ACAD
1000
ASC_BOUNDS
1002
{
1070
    19
1005
19D94
1002
}
  0
LINE
  5
19D5C
330
19D51
100
AcDbEntity
  8
0
100
AcDbLine
 10
4.617999999995391
 20
-0.0001000000000317
 30
0.0
 11
1.420999999998571
 21
4.736799999995242
 31
0.0
1001
ACAD
1000
ASC_BOUNDS
1002
{
1070
    19
1005
19D94
1002
}
  0
LINE
  5
19D5D
330
19D51
100
AcDbEntity
  8
0
100
AcDbLine
 10
1.420999999998571
 20
8.763099999991255
 30
0.0
 11
1.420999999998571
 21
0.0
 31
0.0
1001
ACAD
1000
ASC_BOUNDS
1002
{
1070
    19
1005
19D99
1002
}
  0
LINE
  5
19D5E
330
19D51
100
AcDbEntity
  8
0
100
AcDbLine
 10
0.0
 20
8.763099999991255
 30
0.0
 11
0.0
 21
0.0
 31
0.0
1001
ACAD
1000
ASC_BOUNDS
1002
{
1070
    19
1005
19D99
1002
}
  0
LINE
  5
19D5F
330
19D51
100
AcDbEntity
  8
0
100
AcDbLine
 10
6.766999999993232
 20
-0.0001000000000317
 30
0.0
 11
7.826999999992154
 21
2.368399999997621
 31
0.0
1001
ACAD
1000
ASC_BOUNDS
1002
{
1070
    19
1005
19D94
1002
}
  0
LINE
  5
19D60
330
19D51
100
AcDbEntity
  8
0
100
AcDbLine
 10
0.0
 20
0.0
 30
0.0
 11
1.420999999998571
 21
0.0
 31
0.0
1001
ACAD
1000
ASC_BOUNDS
1002
{
1070
    19
1005
19D99
1002
}
  0
LINE
  5
19D61
330
19D51
100
AcDbEntity
  8
0
100
AcDbLine
 10
4.617999999995391
 20
0.0
 30
0.0
 11
6.766999999993232
 21
0.0
 31
0.0
1001
ACAD
1000
ASC_BOUNDS
1002
{
1070
    19
1005
19D94
1002
}
  0
LINE
  5
19D62
330
19D51
100
AcDbEntity
  8
0
100
AcDbLine
 10
11.70599999998831
 20
-0.0001000000000317
 30
0.0
 11
10.64699999998936
 21
2.368399999997621
 31
0.0
1001
ACAD
1000
ASC_BOUNDS
1002
{
1070
    19
1005
19D94
1002
}
  0
LINE
  5
19D63
330
19D51
100
AcDbEntity
  8
0
100
AcDbLine
 10
7.826999999992154
 20
2.368399999997621
 30
0.0
 11
10.64699999998936
 21
2.368399999997621
 31
0.0
1001
ACAD
1000
ASC_BOUNDS
1002
{
1070
    19
1005
19D94
1002
}
  0
LINE
  5
19D64
330
19D51
100
AcDbEntity
  8
0
100
AcDbLine
 10
11.70599999998831
 20
0.0
 30
0.0
 11
13.26299999998673
 21
0.0
 31
0.0
1001
ACAD
1000
ASC_BOUNDS
1002
{
1070
    19
1005
19D94
1002
}
  0
LINE
  5
19D65
330
19D51
100
AcDbEntity
  8
0
100
AcDbLine
 10
22.15599999997789
 20
2.368399999997621
 30
0.0
 11
24.97599999997499
 21
2.368399999997621
 31
0.0
1001
ACAD
1000
ASC_BOUNDS
1002
{
1070
    19
1005
19D96
1002
}
  0
LINE
  5
19D66
330
19D51
100
AcDbEntity
  8
0
100
AcDbLine
 10
19.53899999998043
 20
0.0
 30
0.0
 11
21.09599999997886
 21
0.0
 31
0.0
1001
ACAD
1000
ASC_BOUNDS
1002
{
1070
    19
1005
19D96
1002
}
  0
LINE
  5
19D67
330
19D51
100
AcDbEntity
  8
0
100
AcDbLine
 10
21.09599999997886
 20
-0.0001000000000317
 30
0.0
 11
22.15599999997789
 21
2.368399999997621
 31
0.0
1001
ACAD
1000
ASC_BOUNDS
1002
{
1070
    19
1005
19D96
1002
}
  0
LINE
  5
19D68
330
19D51
100
AcDbEntity
  8
0
100
AcDbLine
 10
26.02015566812236
 20
0.0330999999912365
 30
0.0
 11
24.97599999997499
 21
2.368399999997621
 31
0.0
1001
ACAD
1000
ASC_BOUNDS
1002
{
1070
    19
1005
19D96
1002
}
  0
LINE
  5
19D69
330
19D51
100
AcDbEntity
  8
0
100
AcDbLine
 10
14.32399999998563
 20
3.315799999996671
 30
0.0
 11
16.46099999998353
 21
8.999899999990987
 31
0.0
1001
ACAD
1000
ASC_BOUNDS
1002
{
1070
    19
1005
19D95
1002
}
  0
LINE
  5
19D6A
330
19D51
100
AcDbEntity
  8
0
100
AcDbLine
 10
6.432999999993513
 20
8.763099999991255
 30
0.0
 11
3.181999999996833
 21
4.668599999995308
 31
0.0
1001
ACAD
1000
ASC_BOUNDS
1002
{
1070
    19
1005
19D94
1002
}
  0
LINE
  5
19D6B
330
19D51
100
AcDbEntity
  8
0
100
AcDbLine
 10
4.617999999995391
 20
8.763099999991255
 30
0.0
 11
1.420999999998571
 21
4.736799999995242
 31
0.0
1001
ACAD
1000
ASC_BOUNDS
1002
{
1070
    19
1005
19D94
1002
}
  0
LINE
  5
19D6C
330
19D51
100
AcDbEntity
  8
0
100
AcDbLine
 10
0.0
 20
8.763099999991255
 30
0.0
 11
1.420999999998571
 21
8.763099999991255
 31
0.0
1001
ACAD
1000
ASC_BOUNDS
1002
{
1070
    19
1005
19D99
1002
}
  0
LINE
  5
19D6D
330
19D51
100
AcDbEntity
  8
0
100
AcDbLine
 10
4.617999999995391
 20
8.763099999991255
 30
0.0
 11
6.432999999993513
 21
8.763099999991255
 31
0.0
1001
ACAD
1000
ASC_BOUNDS
1002
{
1070
    19
1005
19D94
1002
}
  0
LINE
  5
19D6E
330
19D51
100
AcDbEntity
  8
0
100
AcDbLine
 10
14.32399999998563
 20
3.315799999996671
 30
0.0
 11
12.02999999998792
 21
8.763099999991255
 31
0.0
1001
ACAD
1000
ASC_BOUNDS
1002
{
1070
    19
1005
19D95
1002
}
  0
LINE
  5
19D6F
330
19D51
100
AcDbEntity
  8
0
100
AcDbLine
 10
10.06399999998996
 20
3.670999999996297
 30
0.0
 11
9.236999999990758
 21
5.5200999999945
 31
0.0
1001
ACAD
1000
ASC_BOUNDS
1002
{
1070
    19
1005
19D94
1002
}
  0
LINE
  5
19D70
330
19D51
100
AcDbEntity
  8
0
100
AcDbLine
 10
8.409999999991555
 20
3.670999999996297
 30
0.0
 11
9.236999999990758
 21
5.5200999999945
 31
0.0
1001
ACAD
1000
ASC_BOUNDS
1002
{
1070
    19
1005
19D94
1002
}
  0
LINE
  5
19D71
330
19D51
100
AcDbEntity
  8
0
100
AcDbLine
 10
8.409999999991555
 20
3.670999999996297
 30
0.0
 11
10.06399999998996
 21
3.670999999996297
 31
0.0
1001
ACAD
1000
ASC_BOUNDS
1002
{
1070
    19
1005
19D94
1002
}
  0
LINE
  5
19D72
330
19D51
100
AcDbEntity
  8
0
100
AcDbLine
 10
10.53899999998941
 20
8.763099999991255
 30
0.0
 11
12.02999999998792
 21
8.763099999991255
 31
0.0
1001
ACAD
1000
ASC_BOUNDS
1002
{
1070
    19
1005
19D95
1002
}
  0
LINE
  5
19D73
330
19D51
100
AcDbEntity
  8
0
100
AcDbLine
 10
22.7389999999773
 20
3.670999999996297
 30
0.0
 11
23.56599999997638
 21
5.5200999999945
 31
0.0
1001
ACAD
1000
ASC_BOUNDS
1002
{
1070
    19
1005
19D96
1002
}
  0
LINE
  5
19D74
330
19D51
100
AcDbEntity
  8
0
100
AcDbLine
 10
22.7389999999773
 20
3.670999999996297
 30
0.0
 11
24.39299999997559
 21
3.670999999996297
 31
0.0
1001
ACAD
1000
ASC_BOUNDS
1002
{
1070
    19
1005
19D96
1002
}
  0
LINE
  5
19D75
330
19D51
100
AcDbEntity
  8
0
100
AcDbLine
 10
18.59799999998143
 20
3.315799999996671
 30
0.0
 11
20.89099999997916
 21
8.763099999991255
 31
0.0
1001
ACAD
1000
ASC_BOUNDS
1002
{
1070
    19
1005
19D95
1002
}
  0
LINE
  5
19D76
330
19D51
100
AcDbEntity
  8
0
100
AcDbLine
 10
18.59799999998143
 20
3.315799999996671
 30
0.0
 11
16.46099999998353
 21
8.999899999990987
 31
0.0
1001
ACAD
1000
ASC_BOUNDS
1002
{
1070
    19
1005
19D95
1002
}
  0
LINE
  5
19D77
330
19D51
100
AcDbEntity
  8
0
100
AcDbLine
 10
20.89099999997916
 20
8.763099999991255
 30
0.0
 11
22.38199999997767
 21
8.763099999991255
 31
0.0
1001
ACAD
1000
ASC_BOUNDS
1002
{
1070
    19
1005
19D95
1002
}
  0
LINE
  5
19D78
330
19D51
100
AcDbEntity
  8
0
100
AcDbLine
 10
24.39299999997559
 20
3.670999999996297
 30
0.0
 11
23.56599999997638
 21
5.5200999999945
 31
0.0
1001
ACAD
1000
ASC_BOUNDS
1002
{
1070
    19
1005
19D96
1002
}
  0
LINE
  5
19D79
330
19D51
100
AcDbEntity
  8
0
100
AcDbLine
 10
44.99999999995498
 20
-0.2368999999997641
 30
0.0
 11
40.02599999995994
 21
5.341799999994635
 31
0.0
1001
ACAD
1000
ASC_BOUNDS
1002
{
1070
    19
1005
19D98
1002
}
  0
LINE
  5
19D7A
330
19D51
100
AcDbEntity
  8
0
100
AcDbLine
 10
40.02599999995994
 20
5.341799999994635
 30
0.0
 11
40.02599999995994
 21
0.0
 31
0.0
1001
ACAD
1000
ASC_BOUNDS
1002
{
1070
    19
1005
19D98
1002
}
  0
LINE
  5
19D7B
330
19D51
100
AcDbEntity
  8
0
100
AcDbLine
 10
38.60499999996136
 20
8.999999999991019
 30
0.0
 11
38.60499999996136
 21
0.0
 31
0.0
1001
ACAD
1000
ASC_BOUNDS
1002
{
1070
    19
1005
19D98
1002
}
  0
LINE
  5
19D7C
330
19D51
100
AcDbEntity
  8
0
100
AcDbLine
 10
44.99999999995498
 20
8.763099999991255
 30
0.0
 11
44.99999999995498
 21
-0.2368999999997641
 31
0.0
1001
ACAD
1000
ASC_BOUNDS
1002
{
1070
    19
1005
19D98
1002
}
  0
LINE
  5
19D7D
330
19D51
100
AcDbEntity
  8
0
100
AcDbLine
 10
38.60499999996136
 20
0.0
 30
0.0
 11
40.02599999995994
 21
0.0
 31
0.0
1001
ACAD
1000
ASC_BOUNDS
1002
{
1070
    19
1005
19D98
1002
}
  0
LINE
  5
19D7E
330
19D51
100
AcDbEntity
  8
0
100
AcDbLine
 10
43.57899999995641
 20
3.421199999996588
 30
0.0
 11
38.60499999996136
 21
8.999899999990987
 31
0.0
1001
ACAD
1000
ASC_BOUNDS
1002
{
1070
    19
1005
19D98
1002
}
  0
LINE
  5
19D7F
330
19D51
100
AcDbEntity
  8
0
100
AcDbLine
 10
43.57899999995641
 20
8.763099999991255
 30
0.0
 11
43.57899999995641
 21
3.421199999996588
 31
0.0
1001
ACAD
1000
ASC_BOUNDS
1002
{
1070
    19
1005
19D98
1002
}
  0
LINE
  5
19D80
330
19D51
100
AcDbEntity
  8
0
100
AcDbLine
 10
43.57899999995641
 20
8.763099999991255
 30
0.0
 11
44.99999999995498
 21
8.763099999991255
 31
0.0
1001
ACAD
1000
ASC_BOUNDS
1002
{
1070
    19
1005
19D98
1002
}
  0
LINE
  5
19D81
330
19D51
100
AcDbEntity
  8
0
100
AcDbLine
 10
37.67199999996831
 20
8.763099999991255
 30
0.0
 11
36.23199999996837
 21
8.763099999991255
 31
0.0
  0
LINE
  5
19D82
330
19D51
100
AcDbEntity
  8
0
100
AcDbLine
 10
31.64199999996833
 20
8.763099999991255
 30
0.0
 11
31.64199999996833
 21
2.481619422925121
 31
0.0
  0
LINE
  5
19D83
330
19D51
100
AcDbEntity
  8
0
100
AcDbLine
 10
37.67199999996831
 20
8.763099999991255
 30
0.0
 11
37.67199999996831
 21
2.481619422925121
 31
0.0
  0
LINE
  5
19D84
330
19D51
100
AcDbEntity
  8
0
100
AcDbLine
 10
36.23199999996837
 20
8.763099999991255
 30
0.0
 11
36.23199999996837
 21
2.481619422925064
 31
0.0
  0
LINE
  5
19D85
330
19D51
100
AcDbEntity
  8
0
100
AcDbLine
 10
33.08199999996839
 20
8.763099999991255
 30
0.0
 11
33.08199999996839
 21
2.481619422925121
 31
0.0
  0
ARC
  5
19D86
330
19D51
100
AcDbEntity
  8
0
100
AcDbCircle
 10
34.65699999996832
 20
3.183099999991214
 30
0.0
 40
3.420000000000007
100
AcDbArc
 50
240.0000000000255
 51
299.9999999999766
  0
ARC
  5
19D87
330
19D51
100
AcDbEntity
  8
0
100
AcDbCircle
 10
34.65699999996832
 20
3.183099999991214
 30
0.0
 40
1.97999999999999
100
AcDbArc
 50
240.000000000026
 51
299.9999999999703
  0
LINE
  5
19D88
330
19D51
100
AcDbEntity
  8
0
100
AcDbLine
 10
33.08199999996828
 20
8.763099999991255
 30
0.0
 11
31.64199999996833
 21
8.763099999991255
 31
0.0
  0
ARC
  5
19D89
330
19D51
100
AcDbEntity
  8
0
100
AcDbCircle
 10
35.06199999996829
 20
2.481619422925064
 30
0.0
 40
1.17
100
AcDbArc
 50
299.9999999999699
 51
0.0
  0
ARC
  5
19D8A
330
19D51
100
AcDbEntity
  8
0
100
AcDbCircle
 10
34.25199999996835
 20
2.481619422925121
 30
0.0
 40
1.17
100
AcDbArc
 50
180.0
 51
240.0000000000238
  0
ARC
  5
19D8B
330
19D51
100
AcDbEntity
  8
0
100
AcDbCircle
 10
35.06199999996841
 20
2.481619422925121
 30
0.0
 40
2.61
100
AcDbArc
 50
299.9999999999756
 51
0.0
  0
ARC
  5
19D8C
330
19D51
100
AcDbEntity
  8
0
100
AcDbCircle
 10
34.25199999996835
 20
2.481619422925121
 30
0.0
 40
2.61
100
AcDbArc
 50
180.0
 51
240.0000000000244
  0
LINE
  5
19D8D
330
19D51
100
AcDbEntity
  8
0
100
AcDbLine
 10
29.30199999996933
 20
8.763099999991255
 30
0.0
 11
30.74199999996927
 21
8.763099999991255
 31
0.0
1001
ACAD
1000
ASC_BOUNDS
1002
{
1070
    19
1005
19D96
1002
}
  0
LINE
  5
19D8E
330
19D51
100
AcDbEntity
  8
0
100
AcDbLine
 10
30.74199999996927
 20
8.763099999991255
 30
0.0
 11
30.74199999996927
 21
2.373099999991211
 31
0.0
1001
ACAD
1000
ASC_BOUNDS
1002
{
1070
    19
1005
19D96
1002
}
  0
LINE
  5
19D8F
330
19D51
100
AcDbEntity
  8
0
100
AcDbLine
 10
26.02015566812236
 20
0.0330999999912365
 30
0.0
 11
28.40199999996923
 21
0.0330999999912365
 31
0.0
1001
ACAD
1000
ASC_BOUNDS
1002
{
1070
    19
1005
19D96
1002
}
  0
LINE
  5
19D90
330
19D51
100
AcDbEntity
  8
0
100
AcDbLine
 10
29.30199999996933
 20
8.763099999991255
 30
0.0
 11
29.30199999996933
 21
2.283099999991236
 31
0.0
1001
ACAD
1000
ASC_BOUNDS
1002
{
1070
    19
1005
19D96
1002
}
  0
LINE
  5
19D91
330
19D51
100
AcDbEntity
  8
0
100
AcDbLine
 10
26.97358892824991
 20
1.383099999991202
 30
0.0
 11
28.40199999996923
 21
1.383099999991202
 31
0.0
1001
ACAD
1000
ASC_BOUNDS
1002
{
1070
    19
1005
19D96
1002
}
  0
ARC
  5
19D92
330
19D51
100
AcDbEntity
  8
0
100
AcDbCircle
 10
28.40199999996923
 20
2.283099999991236
 30
0.0
 40
0.9
100
AcDbArc
 50
270.0
 51
0.0
1001
ACAD
1000
ASC_BOUNDS
1002
{
1070
    19
1005
19D96
1002
}
  0
ARC
  5
19D93
330
19D51
100
AcDbEntity
  8
0
100
AcDbCircle
 10
28.40199999996923
 20
2.373099999991211
 30
0.0
 40
2.34
100
AcDbArc
 50
270.0
 51
0.0
1001
ACAD
1000
ASC_BOUNDS
1002
{
1070
    19
1005
19D96
1002
}
  0
INSERT
  5
19D94
330
19D51
100
AcDbEntity
  8
0
100
AcDbBlockReference
  2
*X56
 10
0.0
 20
0.0
 30
0.0
1001
ACAD
1000
HATCH
1002
{
1070
    19
1000
ANSI37
1040
0.15
1040
0.0
1000
ASC_BOUNDS
1070
     2
1070
     2
1070
    12
1005
19D53
1005
19D54
1005
19D5B
1005
19D6A
1005
19D6D
1005
19D6B
1005
19D5C
1005
19D61
1005
19D5F
1005
19D63
1005
19D62
1005
19D64
1070
     2
1070
     3
1005
19D6F
1005
19D71
1005
19D70
1000
ASC_SEEDPOINT
1011
3.614004224891801
1021
2.996669441146025
1031
0.0
1000
R14_HATCH_DATA
1000
19D94
1011
1.0
1021
0.0
1031
0.0
1011
0.0
1021
1.0
1031
0.0
1011
0.0
1021
0.0
1031
1.0
1040
0.0
1010
0.0
1020
0.0
1030
1.0
1000
ANSI37
1070
     0
1070
     1
1071
        2
1071
        7
1070
     0
1070
     1
1071
       17
1040
13.26299999998673
1040
-0.0001000000000317
1040
9.236999999990758
1040
8.999899999990987
1040
9.236999999990758
1040
8.999999999991019
1040
5.657999999994331
1040
0.9999999999989768
1040
3.181999999996833
1040
4.668599999995308
1040
6.432999999993513
1040
8.763099999991255
1040
4.617999999995391
1040
8.763099999991255
1040
1.420999999998571
1040
4.736799999995242
1040
4.617999999995391
1040
-0.0001000000000317
1040
4.617999999995391
1040
0.0
1040
6.766999999993232
1040
0.0
1040
6.766999999993232
1040
-0.0001000000000317
1040
7.826999999992154
1040
2.368399999997621
1040
10.64699999998936
1040
2.368399999997621
1040
11.70599999998831
1040
-0.0001000000000317
1040
11.70599999998831
1040
0.0
1040
13.26299999998673
1040
0.0
1071
       12
1005
19D53
1005
19D54
1005
19D5B
1005
19D6A
1005
19D6D
1005
19D6B
1005
19D5C
1005
19D61
1005
19D5F
1005
19D63
1005
19D62
1005
19D64
1071
       22
1070
     0
1070
     1
1071
        3
1040
9.236999999990758
1040
5.5200999999945
1040
10.06399999998996
1040
3.670999999996297
1040
8.409999999991555
1040
3.670999999996297
1071
        3
1005
19D6F
1005
19D71
1005
19D70
1070
     0
1070
     1
1040
0.0
1040
0.15
1070
     0
1070
     2
1040
0.7853981633974483
1040
49.29960901727088
1040
-10.17736998311392
1040
-0.3367596045400932
1040
0.3367596045400932
1070
     0
1040
2.356194490192345
1040
49.29960901727088
1040
-10.17736998311392
1040
-0.3367596045400932
1040
-0.3367596045400932
1070
     0
1040
0.0110235143455945
1071
        2
1040
3.614004224891801
1040
2.996669441146025
1040
0.0
1040
3.614004224891801
1040
2.996669441146025
1040
0.0
1002
}
  0
INSERT
  5
19D95
330
19D51
100
AcDbEntity
  8
0
100
AcDbBlockReference
  2
*X57
 10
0.0
 20
0.0
 30
0.0
1001
ACAD
1000
HATCH
1002
{
1070
    19
1000
ANSI37
1040
0.15
1040
0.0
1000
ASC_BOUNDS
1070
     1
1070
     2
1070
    10
1005
19D55
1005
19D56
1005
19D77
1005
19D75
1005
19D76
1005
19D69
1005
19D6E
1005
19D72
1005
19D58
1005
19D57
1000
ASC_SEEDPOINT
1011
14.73245321214324
1021
2.798246178283421
1031
0.0
1000
R14_HATCH_DATA
1000
19D95
1011
1.0
1021
0.0
1031
0.0
1011
0.0
1021
1.0
1031
0.0
1011
0.0
1021
0.0
1031
1.0
1040
0.0
1010
0.0
1020
0.0
1030
1.0
1000
ANSI37
1070
     0
1070
     1
1071
        1
1071
        7
1070
     0
1070
     1
1071
       10
1040
16.46099999998353
1040
5.432899999994561
1040
18.59199999998134
1040
-0.2368999999997641
1040
22.38199999997767
1040
8.763099999991255
1040
20.89099999997916
1040
8.763099999991255
1040
18.59799999998143
1040
3.315799999996671
1040
16.46099999998353
1040
8.999899999990987
1040
14.32399999998563
1040
3.315799999996671
1040
12.02999999998792
1040
8.763099999991255
1040
10.53899999998941
1040
8.763099999991255
1040
14.32899999998563
1040
-0.2368999999997641
1071
       10
1005
19D55
1005
19D56
1005
19D77
1005
19D75
1005
19D76
1005
19D69
1005
19D6E
1005
19D72
1005
19D58
1005
19D57
1070
     0
1070
     1
1040
0.0
1040
0.15
1070
     0
1070
     2
1040
0.7853981633974483
1040
49.29960901727088
1040
-10.17736998311392
1040
-0.3367596045400932
1040
0.3367596045400932
1070
     0
1040
2.356194490192345
1040
49.29960901727088
1040
-10.17736998311392
1040
-0.3367596045400932
1040
-0.3367596045400932
1070
     0
1040
0.0110235143455945
1071
        1
1040
14.73245321214324
1040
2.798246178283421
1040
0.0
1002
}
  0
INSERT
  5
19D96
330
19D51
100
AcDbEntity
  8
0
100
AcDbBlockReference
  2
*X58
 10
0.0
 20
0.0
 30
0.0
1001
ACAD
1000
HATCH
1002
{
1070
    19
1000
ANSI37
1040
0.15
1040
0.0
1000
ASC_BOUNDS
1070
     2
1070
     2
1070
    13
1005
19D59
1005
19D66
1005
19D67
1005
19D65
1005
19D68
1005
19D8F
1005
19D93
1005
19D8E
1005
19D8D
1005
19D90
1005
19D92
1005
19D91
1005
19D5A
1070
     2
1070
     3
1005
19D73
1005
19D78
1005
19D74
1000
ASC_SEEDPOINT
1011
21.97929957367762
1021
3.294304244259308
1031
0.0
1000
R14_HATCH_DATA
1000
19D96
1011
1.0
1021
0.0
1031
0.0
1011
0.0
1021
1.0
1031
0.0
1011
0.0
1021
0.0
1031
1.0
1040
0.0
1010
0.0
1020
0.0
1030
1.0
1000
ANSI37
1070
     0
1070
     1
1071
        2
1071
        7
1070
     1
1070
     1
1071
       15
1040
23.56599999997638
1040
8.999899999990987
1040
0.0
1040
19.53899999998043
1040
-0.0001000000000317
1040
0.0
1040
19.53899999998043
1040
0.0
1040
0.0
1040
21.09599999997886
1040
0.0
1040
0.0
1040
21.09599999997886
1040
-0.0001000000000317
1040
0.0
1040
22.15599999997789
1040
2.368399999997621
1040
0.0
1040
24.97599999997499
1040
2.368399999997621
1040
0.0
1040
26.02015566812236
1040
0.0330999999912365
1040
0.0
1040
28.40199999996923
1040
0.0330999999912365
1040
0.414213562373095
1040
30.74199999996923
1040
2.373099999991211
1040
0.0
1040
30.74199999996927
1040
8.763099999991255
1040
0.0
1040
29.30199999996933
1040
8.763099999991255
1040
0.0
1040
29.30199999996933
1040
2.283099999991236
1040
-0.414213562373095
1040
28.40199999996923
1040
1.383099999991237
1040
0.0
1040
26.97358892824991
1040
1.383099999991202
1040
0.0
1071
       13
1005
19D59
1005
19D66
1005
19D67
1005
19D65
1005
19D68
1005
19D8F
1005
19D93
1005
19D8E
1005
19D8D
1005
19D90
1005
19D92
1005
19D91
1005
19D5A
1071
       22
1070
     0
1070
     1
1071
        3
1040
22.7389999999773
1040
3.670999999996297
1040
23.56599999997638
1040
5.5200999999945
1040
24.39299999997559
1040
3.670999999996297
1071
        3
1005
19D73
1005
19D78
1005
19D74
1070
     0
1070
     1
1040
0.0
1040
0.15
1070
     0
1070
     2
1040
0.7853981633974483
1040
49.29960901727088
1040
-10.17736998311392
1040
-0.3367596045400932
1040
0.3367596045400932
1070
     0
1040
2.356194490192345
1040
49.29960901727088
1040
-10.17736998311392
1040
-0.3367596045400932
1040
-0.3367596045400932
1070
     0
1040
0.0110235143455945
1071
        2
1040
21.97929957367762
1040
3.294304244259308
1040
0.0
1040
21.97929957367762
1040
3.294304244259308
1040
0.0
1002
}
  0
INSERT
  5
19D97
330
19D51
100
AcDbEntity
  8
0
100
AcDbBlockReference
  2
*X59
 10
0.0
 20
0.0
 30
0.0
1001
ACAD
1000
HATCH
1002
{
1070
    19
1000
ANSI37
1040
0.15
1040
0.0
1000
R14_HATCH_DATA
1000
19D97
1011
1.0
1021
0.0
1031
0.0
1011
0.0
1021
1.0
1031
0.0
1011
0.0
1021
0.0
1031
1.0
1040
0.0
1010
0.0
1020
0.0
1030
1.0
1000
ANSI37
1070
     0
1070
     1
1071
        1
1071
        7
1070
     1
1070
     1
1071
       12
1040
31.64199999996833
1040
2.481619422925121
1040
0.2679491924310942
1040
32.94699999997067
1040
0.2212931190493919
1040
0.2679491924301353
1040
36.36699999995983
1040
0.2212931190459813
1040
0.2679491924321411
1040
37.67199999996831
1040
2.481619422928361
1040
0.0
1040
37.67199999996831
1040
8.763099999991255
1040
0.0
1040
36.23199999996837
1040
8.763099999991255
1040
0.0
1040
36.23199999996837
1040
2.481619422925064
1040
-0.2679491924310291
1040
35.64699999996708
1040
1.468369700498386
1040
-0.267949192430519
1040
33.66699999997093
1040
1.468369700497703
1040
-0.267949192431809
1040
33.08199999996839
1040
2.481619422926997
1040
0.0
1040
33.08199999996839
1040
8.763099999991255
1040
0.0
1040
31.64199999996833
1040
8.763099999991255
1040
0.0
1071
        0
1070
     0
1070
     1
1040
0.0
1040
0.15
1070
     0
1070
     2
1040
0.7853981633974483
1040
49.29960901727088
1040
-10.17736998311392
1040
-0.3367596045400932
1040
0.3367596045400932
1070
     0
1040
2.356194490192345
1040
49.29960901727088
1040
-10.17736998311392
1040
-0.3367596045400932
1040
-0.3367596045400932
1070
     0
1040
0.0110235143455945
1071
        1
1040
32.30357378967278
1040
3.988785755459219
1040
0.0
1002
}
  0
INSERT
  5
19D98
330
19D51
100
AcDbEntity
  8
0
100
AcDbBlockReference
  2
*X60
 10
0.0
 20
0.0
 30
0.0
1001
ACAD
1000
HATCH
1002
{
1070
    19
1000
ANSI37
1040
0.15
1040
0.0
1000
ASC_BOUNDS
1070
     1
1070
     2
1070
     8
1005
19D79
1005
19D7C
1005
19D80
1005
19D7F
1005
19D7E
1005
19D7B
1005
19D7D
1005
19D7A
1000
ASC_SEEDPOINT
1011
39.74896370716704
1021
4.484843821435049
1031
0.0
1000
R14_HATCH_DATA
1000
19D98
1011
1.0
1021
0.0
1031
0.0
1011
0.0
1021
1.0
1031
0.0
1011
0.0
1021
0.0
1031
1.0
1040
0.0
1010
0.0
1020
0.0
1030
1.0
1000
ANSI37
1070
     0
1070
     1
1071
        1
1071
        7
1070
     0
1070
     1
1071
        9
1040
40.02599999995994
1040
5.341799999994635
1040
44.99999999995498
1040
-0.2368999999997641
1040
44.99999999995498
1040
8.763099999991255
1040
43.57899999995641
1040
8.763099999991255
1040
43.57899999995641
1040
3.421199999996588
1040
38.60499999996136
1040
8.999899999990987
1040
38.60499999996136
1040
8.999999999991019
1040
38.60499999996136
1040
0.0
1040
40.02599999995994
1040
0.0
1071
        8
1005
19D79
1005
19D7C
1005
19D80
1005
19D7F
1005
19D7E
1005
19D7B
1005
19D7D
1005
19D7A
1070
     0
1070
     1
1040
0.0
1040
0.15
1070
     0
1070
     2
1040
0.7853981633974483
1040
49.29960901727088
1040
-10.17736998311392
1040
-0.3367596045400932
1040
0.3367596045400932
1070
     0
1040
2.356194490192345
1040
49.29960901727088
1040
-10.17736998311392
1040
-0.3367596045400932
1040
-0.3367596045400932
1070
     0
1040
0.0110235143455945
1071
        1
1040
39.74896370716704
1040
4.484843821435049
1040
0.0
1002
}
  0
INSERT
  5
19D99
330
19D51
100
AcDbEntity
  8
0
100
AcDbBlockReference
  2
*X61
 10
0.0
 20
0.0
 30
0.0
1001
ACAD
1000
HATCH
1002
{
1070
    19
1000
ANSI37
1040
0.15
1040
0.0
1000
ASC_BOUNDS
1070
     1
1070
     2
1070
     4
1005
19D5D
1005
19D6C
1005
19D5E
1005
19D60
1000
ASC_SEEDPOINT
1011
1.079051535452663
1021
4.148538732891836
1031
0.0
1000
R14_HATCH_DATA
1000
19D99
1011
1.0
1021
0.0
1031
0.0
1011
0.0
1021
1.0
1031
0.0
1011
0.0
1021
0.0
1031
1.0
1040
0.0
1010
0.0
1020
0.0
1030
1.0
1000
ANSI37
1070
     0
1070
     1
1071
        1
1071
        7
1070
     0
1070
     1
1071
        4
1040
1.420999999998571
1040
0.0
1040
1.420999999998571
1040
8.763099999991255
1040
0.0
1040
8.763099999991255
1040
0.0
1040
0.0
1071
        4
1005
19D5D
1005
19D6C
1005
19D5E
1005
19D60
1070
     0
1070
     1
1040
0.0
1040
0.15
1070
     0
1070
     2
1040
0.7853981633974483
1040
49.29960901727088
1040
-10.17736998311392
1040
-0.3367596045400932
1040
0.3367596045400932
1070
     0
1040
2.356194490192345
1040
49.29960901727088
1040
-10.17736998311392
1040
-0.3367596045400932
1040
-0.3367596045400932
1070
     0
1040
0.0053004257112761
1071
        1
1040
1.079051535452663
1040
4.148538732891836
1040
0.0
1002
}
  0
ENDBLK
  5
1A475
330
19D51
100
AcDbEntity
  8
0
100
AcDbBlockEnd
  0
BLOCK
  5
1B1C4
330
1B036
100
AcDbEntity
  8
0
100
AcDbBlockBegin
  2
*X56
 70
     1
 10
0.0
 20
0.0
 30
0.0
  3
*X56
  1

  0
LINE
  5
1B037
330
1B036
100
AcDbEntity
  8
0
  6
CONTINUOUS
100
AcDbLine
 10
3.418023043697893
 20
7.251849696850613
 30
0.0
 11
4.929273346838536
 21
8.763099999991255
 31
0.0
  0
LINE
  5
1B038
330
1B036
100
AcDbEntity
  8
0
  6
CONTINUOUS
100
AcDbLine
 10
1.483656411257782
 20
4.643963855330318
 30
0.0
 11
5.60279255591872
 21
8.763099999991255
 31
0.0
  0
LINE
  5
1B039
330
1B036
100
AcDbEntity
  8
0
  6
CONTINUOUS
100
AcDbLine
 10
1.755053947328235
 20
4.241842182320584
 30
0.0
 11
6.276311764998907
 21
8.763099999991255
 31
0.0
  0
LINE
  5
1B03A
330
1B036
100
AcDbEntity
  8
0
  6
CONTINUOUS
100
AcDbLine
 10
2.026451483398688
 20
3.839720509310849
 30
0.0
 11
4.441040904851878
 21
6.254309930764039
 31
0.0
  0
LINE
  5
1B03B
330
1B036
100
AcDbEntity
  8
0
  6
CONTINUOUS
100
AcDbLine
 10
2.297849019469139
 20
3.437598836301114
 30
0.0
 11
3.321765168359338
 21
4.461514985191313
 31
0.0
  0
LINE
  5
1B03C
330
1B036
100
AcDbEntity
  8
0
  6
CONTINUOUS
100
AcDbLine
 10
2.569246555539591
 20
3.03547716329138
 30
0.0
 11
3.593163397972743
 21
4.059394005724531
 31
0.0
  0
LINE
  5
1B03D
330
1B036
100
AcDbEntity
  8
0
  6
CONTINUOUS
100
AcDbLine
 10
2.840644091610043
 20
2.633355490281646
 30
0.0
 11
3.864561627586149
 21
3.657273026257751
 31
0.0
  0
LINE
  5
1B03E
330
1B036
100
AcDbEntity
  8
0
  6
CONTINUOUS
100
AcDbLine
 10
3.112041627680496
 20
2.231233817271911
 30
0.0
 11
4.135959857199554
 21
3.25515204679097
 31
0.0
  0
LINE
  5
1B03F
330
1B036
100
AcDbEntity
  8
0
  6
CONTINUOUS
100
AcDbLine
 10
3.383439163750948
 20
1.829112144262177
 30
0.0
 11
4.40735808681296
 21
2.853031067324189
 31
0.0
  0
LINE
  5
1B040
330
1B036
100
AcDbEntity
  8
0
  6
CONTINUOUS
100
AcDbLine
 10
3.654836699821399
 20
1.426990471252442
 30
0.0
 11
4.678756316426365
 21
2.450910087857407
 31
0.0
  0
LINE
  5
1B041
330
1B036
100
AcDbEntity
  8
0
  6
CONTINUOUS
100
AcDbLine
 10
3.926234235891853
 20
1.024868798242709
 30
0.0
 11
4.95015454603977
 21
2.048789108390626
 31
0.0
  0
LINE
  5
1B042
330
1B036
100
AcDbEntity
  8
0
  6
CONTINUOUS
100
AcDbLine
 10
4.197631771962304
 20
0.6227471252329737
 30
0.0
 11
5.221552775653176
 21
1.646668128923846
 31
0.0
  0
LINE
  5
1B043
330
1B036
100
AcDbEntity
  8
0
  6
CONTINUOUS
100
AcDbLine
 10
8.715877546767851
 20
7.835069736359266
 30
0.0
 11
9.435953450375058
 21
8.555145639966472
 31
0.0
  0
LINE
  5
1B044
330
1B036
100
AcDbEntity
  8
0
  6
CONTINUOUS
100
AcDbLine
 10
8.170620868422267
 20
6.616293848933497
 30
0.0
 11
9.644120833743461
 21
8.08979381425469
 31
0.0
  0
LINE
  5
1B045
330
1B036
100
AcDbEntity
  8
0
  6
CONTINUOUS
100
AcDbLine
 10
7.625364190076684
 20
5.397517961507727
 30
0.0
 11
9.852288217111864
 21
7.624441988542907
 31
0.0
  0
LINE
  5
1B046
330
1B036
100
AcDbEntity
  8
0
  6
CONTINUOUS
100
AcDbLine
 10
7.080107511731101
 20
4.178742074081957
 30
0.0
 11
10.06045560048027
 21
7.159090162831124
 31
0.0
  0
LINE
  5
1B047
330
1B036
100
AcDbEntity
  8
0
  6
CONTINUOUS
100
AcDbLine
 10
6.534850833385518
 20
2.959966186656187
 30
0.0
 11
10.26862298384867
 21
6.693738337119342
 31
0.0
  0
LINE
  5
1B048
330
1B036
100
AcDbEntity
  8
0
  6
CONTINUOUS
100
AcDbLine
 10
4.469029308032756
 20
0.2206254522232385
 30
0.0
 11
5.492951005266582
 21
1.244547149457064
 31
0.0
  0
LINE
  5
1B049
330
1B036
100
AcDbEntity
  8
0
  6
CONTINUOUS
100
AcDbLine
 10
5.989594155039935
 20
1.741190299230417
 30
0.0
 11
8.806950407233131
 21
4.558546551423613
 31
0.0
  0
LINE
  5
1B04A
330
1B036
100
AcDbEntity
  8
0
  6
CONTINUOUS
100
AcDbLine
 10
9.401251593263643
 20
5.152847737454126
 30
0.0
 11
10.47679036721708
 21
6.228386511407559
 31
0.0
  0
LINE
  5
1B04B
330
1B036
100
AcDbEntity
  8
0
  6
CONTINUOUS
100
AcDbLine
 10
4.921837203428691
 20
-0.0000858614610131
 30
0.0
 11
8.592923064886001
 21
3.670999999996297
 31
0.0
  0
LINE
  5
1B04C
330
1B036
100
AcDbEntity
  8
0
  6
CONTINUOUS
100
AcDbLine
 10
9.609390446785305
 20
4.6874673818956
 30
0.0
 11
10.68495775058548
 21
5.763034685695775
 31
0.0
  0
LINE
  5
1B04D
330
1B036
100
AcDbEntity
  8
0
  6
CONTINUOUS
100
AcDbLine
 10
5.595387755019432
 20
-0.0000545189504582
 30
0.0
 11
7.716137258923768
 21
2.120694984953879
 31
0.0
  0
LINE
  5
1B04E
330
1B036
100
AcDbEntity
  8
0
  6
CONTINUOUS
100
AcDbLine
 10
6.268938306610172
 20
-0.000023176439905
 30
0.0
 11
7.170485805526503
 21
0.9015243224764267
 31
0.0
  0
LINE
  5
1B04F
330
1B036
100
AcDbEntity
  8
0
  6
CONTINUOUS
100
AcDbLine
 10
7.963842273967511
 20
2.368399999997621
 30
0.0
 11
9.266442273966188
 21
3.670999999996297
 31
0.0
  0
LINE
  5
1B050
330
1B036
100
AcDbEntity
  8
0
  6
CONTINUOUS
100
AcDbLine
 10
8.637361483047696
 20
2.368399999997621
 30
0.0
 11
9.939961483046375
 21
3.670999999996297
 31
0.0
  0
LINE
  5
1B051
330
1B036
100
AcDbEntity
  8
0
  6
CONTINUOUS
100
AcDbLine
 10
9.817529300306965
 20
4.222087026337075
 30
0.0
 11
10.89312513395388
 21
5.297682859983993
 31
0.0
  0
LINE
  5
1B052
330
1B036
100
AcDbEntity
  8
0
  6
CONTINUOUS
100
AcDbLine
 10
10.02566815382863
 20
3.756706670778549
 30
0.0
 11
11.10129251732229
 21
4.832331034272211
 31
0.0
  0
LINE
  5
1B053
330
1B036
100
AcDbEntity
  8
0
  6
CONTINUOUS
100
AcDbLine
 10
9.310880692127883
 20
2.368399999997621
 30
0.0
 11
11.30945990069069
 21
4.366979208560428
 31
0.0
  0
LINE
  5
1B054
330
1B036
100
AcDbEntity
  8
0
  6
CONTINUOUS
100
AcDbLine
 10
9.98439990120807
 20
2.36839999999762
 30
0.0
 11
11.5176272840591
 21
3.901627382848645
 31
0.0
  0
LINE
  5
1B055
330
1B036
100
AcDbEntity
  8
0
  6
CONTINUOUS
100
AcDbLine
 10
10.65037369446246
 20
2.36085458417182
 30
0.0
 11
11.7257946674275
 21
3.436275557136862
 31
0.0
  0
LINE
  5
1B056
330
1B036
100
AcDbEntity
  8
0
  6
CONTINUOUS
100
AcDbLine
 10
10.85847197087848
 20
1.895433651507656
 30
0.0
 11
11.9339620507959
 21
2.97092373142508
 31
0.0
  0
LINE
  5
1B057
330
1B036
100
AcDbEntity
  8
0
  6
CONTINUOUS
100
AcDbLine
 10
11.0665702472945
 20
1.430012718843491
 30
0.0
 11
12.14212943416431
 21
2.505571905713296
 31
0.0
  0
LINE
  5
1B058
330
1B036
100
AcDbEntity
  8
0
  6
CONTINUOUS
100
AcDbLine
 10
11.27466852371052
 20
0.9645917861793256
 30
0.0
 11
12.35029681753271
 21
2.040220080001513
 31
0.0
  0
LINE
  5
1B059
330
1B036
100
AcDbEntity
  8
0
  6
CONTINUOUS
100
AcDbLine
 10
11.48276680012654
 20
0.4991708535151611
 30
0.0
 11
12.55846420090111
 21
1.57486825428973
 31
0.0
  0
LINE
  5
1B05A
330
1B036
100
AcDbEntity
  8
0
  6
CONTINUOUS
100
AcDbLine
 10
11.69086507654257
 20
0.0337499208509957
 30
0.0
 11
12.76663158426952
 21
1.109516428577947
 31
0.0
  0
LINE
  5
1B05B
330
1B036
100
AcDbEntity
  8
0
  6
CONTINUOUS
100
AcDbLine
 10
12.33057447873954
 20
-0.0000598860322123
 30
0.0
 11
12.97479896763792
 21
0.6441646028661663
 31
0.0
  0
LINE
  5
1B05C
330
1B036
100
AcDbEntity
  8
0
  6
CONTINUOUS
100
AcDbLine
 10
13.00413694809395
 20
-0.0000166257579952
 30
0.0
 11
13.18296635100632
 21
0.1788127771543824
 31
0.0
  0
LINE
  5
1B05D
330
1B036
100
AcDbEntity
  8
0
  6
CONTINUOUS
100
AcDbLine
 10
4.772852165289667
 20
-0.000092794222212
 30
0.0
 11
4.296495091028902
 21
0.4762642800385528
 31
0.0
  0
LINE
  5
1B05E
330
1B036
100
AcDbEntity
  8
0
  6
CONTINUOUS
100
AcDbLine
 10
5.446340034776103
 20
-0.0000614546284616
 30
0.0
 11
2.898195908335625
 21
2.548082671812017
 31
0.0
  0
LINE
  5
1B05F
330
1B036
100
AcDbEntity
  8
0
  6
CONTINUOUS
100
AcDbLine
 10
6.119827904262539
 20
-0.0000301150347113
 30
0.0
 11
1.499896725642348
 21
4.61990106358548
 31
0.0
  0
LINE
  5
1B060
330
1B036
100
AcDbEntity
  8
0
  6
CONTINUOUS
100
AcDbLine
 10
6.775136745476159
 20
0.0181802528318542
 30
0.0
 11
5.699826040202669
 21
1.093490958105344
 31
0.0
  0
LINE
  5
1B061
330
1B036
100
AcDbEntity
  8
0
  6
CONTINUOUS
100
AcDbLine
 10
6.983376846288489
 20
0.4834593610997118
 30
0.0
 11
5.908008617934405
 21
1.558827589453796
 31
0.0
  0
LINE
  5
1B062
330
1B036
100
AcDbEntity
  8
0
  6
CONTINUOUS
100
AcDbLine
 10
5.377063484962296
 20
1.416253513345719
 30
0.0
 11
1.702276957014131
 21
5.091040041293883
 31
0.0
  0
LINE
  5
1B063
330
1B036
100
AcDbEntity
  8
0
  6
CONTINUOUS
100
AcDbLine
 10
3.978745891735324
 20
3.488090315652877
 30
0.0
 11
2.000373521109399
 21
5.466462686278803
 31
0.0
  0
LINE
  5
1B064
330
1B036
100
AcDbEntity
  8
0
  6
CONTINUOUS
100
AcDbLine
 10
7.191616947100819
 20
0.948738469367568
 30
0.0
 11
6.11619119566614
 21
2.024164220802247
 31
0.0
  0
LINE
  5
1B065
330
1B036
100
AcDbEntity
  8
0
  6
CONTINUOUS
100
AcDbLine
 10
7.399857047913149
 20
1.414017577635424
 30
0.0
 11
6.324373773397875
 21
2.489500852150698
 31
0.0
  0
LINE
  5
1B066
330
1B036
100
AcDbEntity
  8
0
  6
CONTINUOUS
100
AcDbLine
 10
7.608097148725479
 20
1.879296685903281
 30
0.0
 11
6.53255635112961
 21
2.95483748349915
 31
0.0
  0
LINE
  5
1B067
330
1B036
100
AcDbEntity
  8
0
  6
CONTINUOUS
100
AcDbLine
 10
7.816337249537808
 20
2.344575794171138
 30
0.0
 11
6.740738928861345
 21
3.420174114847601
 31
0.0
  0
LINE
  5
1B068
330
1B036
100
AcDbEntity
  8
0
  6
CONTINUOUS
100
AcDbLine
 10
3.310241080789734
 20
4.830114335678653
 30
0.0
 11
2.298470085204666
 21
5.84188533126372
 31
0.0
  0
LINE
  5
1B069
330
1B036
100
AcDbEntity
  8
0
  6
CONTINUOUS
100
AcDbLine
 10
3.60832983563551
 20
5.205544789913063
 30
0.0
 11
2.596566649299935
 21
6.217307976248638
 31
0.0
  0
LINE
  5
1B06A
330
1B036
100
AcDbEntity
  8
0
  6
CONTINUOUS
100
AcDbLine
 10
3.906418590481286
 20
5.580975244147473
 30
0.0
 11
2.894663213395203
 21
6.592730621233557
 31
0.0
  0
LINE
  5
1B06B
330
1B036
100
AcDbEntity
  8
0
  6
CONTINUOUS
100
AcDbLine
 10
4.204507345327062
 20
5.956405698381884
 30
0.0
 11
3.192759777490472
 21
6.968153266218474
 31
0.0
  0
LINE
  5
1B06C
330
1B036
100
AcDbEntity
  8
0
  6
CONTINUOUS
100
AcDbLine
 10
8.466032252791512
 20
2.368399999997621
 30
0.0
 11
6.948921506593081
 21
3.885510746196053
 31
0.0
  0
LINE
  5
1B06D
330
1B036
100
AcDbEntity
  8
0
  6
CONTINUOUS
100
AcDbLine
 10
9.139551461871699
 20
2.36839999999762
 30
0.0
 11
7.157104084324816
 21
4.350847377544504
 31
0.0
  0
LINE
  5
1B06E
330
1B036
100
AcDbEntity
  8
0
  6
CONTINUOUS
100
AcDbLine
 10
4.502596100172839
 20
6.331836152616295
 30
0.0
 11
3.49085634158574
 21
7.343575911203393
 31
0.0
  0
LINE
  5
1B06F
330
1B036
100
AcDbEntity
  8
0
  6
CONTINUOUS
100
AcDbLine
 10
4.800684855018615
 20
6.707266606850705
 30
0.0
 11
3.788952905681008
 21
7.718998556188312
 31
0.0
  0
LINE
  5
1B070
330
1B036
100
AcDbEntity
  8
0
  6
CONTINUOUS
100
AcDbLine
 10
12.18154012887317
 20
-0.0000694579236642
 30
0.0
 11
11.32140332908496
 21
0.8600673418645499
 31
0.0
  0
LINE
  5
1B071
330
1B036
100
AcDbEntity
  8
0
  6
CONTINUOUS
100
AcDbLine
 10
12.85501608323566
 20
-0.0000262032059659
 30
0.0
 11
10.77672456435345
 21
2.078265315676246
 31
0.0
  0
LINE
  5
1B072
330
1B036
100
AcDbEntity
  8
0
  6
CONTINUOUS
100
AcDbLine
 10
9.813070670951886
 20
2.36839999999762
 30
0.0
 11
8.51047067095321
 21
3.670999999996297
 31
0.0
  0
LINE
  5
1B073
330
1B036
100
AcDbEntity
  8
0
  6
CONTINUOUS
100
AcDbLine
 10
10.48658988003207
 20
2.36839999999762
 30
0.0
 11
9.183989880033396
 21
3.670999999996297
 31
0.0
  0
LINE
  5
1B074
330
1B036
100
AcDbEntity
  8
0
  6
CONTINUOUS
100
AcDbLine
 10
8.441048632286794
 20
3.740422038662712
 30
0.0
 11
7.365286662056551
 21
4.816184008892956
 31
0.0
  0
LINE
  5
1B075
330
1B036
100
AcDbEntity
  8
0
  6
CONTINUOUS
100
AcDbLine
 10
8.649187485808454
 20
4.205802394221237
 30
0.0
 11
7.573469239788285
 21
5.281520640241407
 31
0.0
  0
LINE
  5
1B076
330
1B036
100
AcDbEntity
  8
0
  6
CONTINUOUS
100
AcDbLine
 10
5.098773609864391
 20
7.082697061085115
 30
0.0
 11
4.087049469776277
 21
8.09442120117323
 31
0.0
  0
LINE
  5
1B077
330
1B036
100
AcDbEntity
  8
0
  6
CONTINUOUS
100
AcDbLine
 10
5.396862364710167
 20
7.458127515319526
 30
0.0
 11
4.385146033871544
 21
8.469843846158149
 31
0.0
  0
LINE
  5
1B078
330
1B036
100
AcDbEntity
  8
0
  6
CONTINUOUS
100
AcDbLine
 10
13.04801363231285
 20
0.4804954567970334
 30
0.0
 11
9.85750908911358
 21
3.670999999996297
 31
0.0
  0
LINE
  5
1B079
330
1B036
100
AcDbEntity
  8
0
  6
CONTINUOUS
100
AcDbLine
 10
8.857326339330116
 20
4.671182749779763
 30
0.0
 11
7.781651817520021
 21
5.746857271589858
 31
0.0
  0
LINE
  5
1B07A
330
1B036
100
AcDbEntity
  8
0
  6
CONTINUOUS
100
AcDbLine
 10
5.694951119555943
 20
7.833557969553937
 30
0.0
 11
4.765409089118624
 21
8.763099999991255
 31
0.0
  0
LINE
  5
1B07B
330
1B036
100
AcDbEntity
  8
0
  6
CONTINUOUS
100
AcDbLine
 10
12.50286117236978
 20
1.699167125820288
 30
0.0
 11
9.68611877250287
 21
4.515909525687196
 31
0.0
  0
LINE
  5
1B07C
330
1B036
100
AcDbEntity
  8
0
  6
CONTINUOUS
100
AcDbLine
 10
9.065465192851777
 20
5.136563105338288
 30
0.0
 11
7.989834395251757
 21
6.21219390293831
 31
0.0
  0
LINE
  5
1B07D
330
1B036
100
AcDbEntity
  8
0
  6
CONTINUOUS
100
AcDbLine
 10
5.993039874401719
 20
8.208988423788346
 30
0.0
 11
5.43892829819881
 21
8.763099999991255
 31
0.0
  0
LINE
  5
1B07E
330
1B036
100
AcDbEntity
  8
0
  6
CONTINUOUS
100
AcDbLine
 10
11.95770871242671
 20
2.917838794843543
 30
0.0
 11
8.19801697298349
 21
6.677530534286761
 31
0.0
  0
LINE
  5
1B07F
330
1B036
100
AcDbEntity
  8
0
  6
CONTINUOUS
100
AcDbLine
 10
6.291128629247495
 20
8.584418878022756
 30
0.0
 11
6.112447507278997
 21
8.763099999991255
 31
0.0
  0
LINE
  5
1B080
330
1B036
100
AcDbEntity
  8
0
  6
CONTINUOUS
100
AcDbLine
 10
11.41255625248364
 20
4.136510463866797
 30
0.0
 11
8.406199550715227
 21
7.142867165635211
 31
0.0
  0
LINE
  5
1B081
330
1B036
100
AcDbEntity
  8
0
  6
CONTINUOUS
100
AcDbLine
 10
10.86740379254057
 20
5.355182132890051
 30
0.0
 11
8.614382128446962
 21
7.608203796983664
 31
0.0
  0
LINE
  5
1B082
330
1B036
100
AcDbEntity
  8
0
  6
CONTINUOUS
100
AcDbLine
 10
10.3222513325975
 20
6.573853801913305
 30
0.0
 11
8.822564706178696
 21
8.073540428332114
 31
0.0
  0
LINE
  5
1B083
330
1B036
100
AcDbEntity
  8
0
  6
CONTINUOUS
100
AcDbLine
 10
9.777098872654436
 20
7.792525470936562
 30
0.0
 11
9.030747283910433
 21
8.538877059680566
 31
0.0
  0
ENDBLK
  5
1B1C5
330
1B036
100
AcDbEntity
  8
0
100
AcDbBlockEnd
  0
BLOCK
  5
1B1C6
330
1B084
100
AcDbEntity
  8
0
100
AcDbBlockBegin
  2
*X57
 70
     1
 10
0.0
 20
0.0
 30
0.0
  3
*X57
  1

  0
LINE
  5
1B085
330
1B084
100
AcDbEntity
  8
0
  6
CONTINUOUS
100
AcDbLine
 10
10.67292308101235
 20
8.445076852443387
 30
0.0
 11
10.99094622856022
 21
8.763099999991255
 31
0.0
  0
LINE
  5
1B086
330
1B084
100
AcDbEntity
  8
0
  6
CONTINUOUS
100
AcDbLine
 10
10.87250383178748
 20
7.971138394138331
 30
0.0
 11
11.6644654376404
 21
8.763099999991255
 31
0.0
  0
LINE
  5
1B087
330
1B084
100
AcDbEntity
  8
0
  6
CONTINUOUS
100
AcDbLine
 10
11.07208458256261
 20
7.497199935833273
 30
0.0
 11
12.12126590876355
 21
8.546381262034211
 31
0.0
  0
LINE
  5
1B088
330
1B084
100
AcDbEntity
  8
0
  6
CONTINUOUS
100
AcDbLine
 10
11.27166533333774
 20
7.023261477528216
 30
0.0
 11
12.32085164573666
 21
8.072447789927136
 31
0.0
  0
LINE
  5
1B089
330
1B084
100
AcDbEntity
  8
0
  6
CONTINUOUS
100
AcDbLine
 10
11.47124608411287
 20
6.549323019223158
 30
0.0
 11
12.52043738270977
 21
7.59851431782006
 31
0.0
  0
LINE
  5
1B08A
330
1B084
100
AcDbEntity
  8
0
  6
CONTINUOUS
100
AcDbLine
 10
11.670826834888
 20
6.075384560918101
 30
0.0
 11
12.72002311968288
 21
7.124580845712984
 31
0.0
  0
LINE
  5
1B08B
330
1B084
100
AcDbEntity
  8
0
  6
CONTINUOUS
100
AcDbLine
 10
11.87040758566313
 20
5.601446102613043
 30
0.0
 11
12.91960885665599
 21
6.650647373605907
 31
0.0
  0
LINE
  5
1B08C
330
1B084
100
AcDbEntity
  8
0
  6
CONTINUOUS
100
AcDbLine
 10
12.06998833643825
 20
5.127507644307986
 30
0.0
 11
13.1191945936291
 21
6.176713901498832
 31
0.0
  0
LINE
  5
1B08D
330
1B084
100
AcDbEntity
  8
0
  6
CONTINUOUS
100
AcDbLine
 10
12.26956908721338
 20
4.65356918600293
 30
0.0
 11
13.31878033060221
 21
5.702780429391757
 31
0.0
  0
LINE
  5
1B08E
330
1B084
100
AcDbEntity
  8
0
  6
CONTINUOUS
100
AcDbLine
 10
12.46914983798851
 20
4.179630727697873
 30
0.0
 11
13.51836606757532
 21
5.228846957284683
 31
0.0
  0
LINE
  5
1B08F
330
1B084
100
AcDbEntity
  8
0
  6
CONTINUOUS
100
AcDbLine
 10
12.66873058876364
 20
3.705692269392816
 30
0.0
 11
13.71795180454843
 21
4.754913485177607
 31
0.0
  0
LINE
  5
1B090
330
1B084
100
AcDbEntity
  8
0
  6
CONTINUOUS
100
AcDbLine
 10
12.86831133953877
 20
3.231753811087759
 30
0.0
 11
13.91753754152154
 21
4.280980013070531
 31
0.0
  0
LINE
  5
1B091
330
1B084
100
AcDbEntity
  8
0
  6
CONTINUOUS
100
AcDbLine
 10
13.0678920903139
 20
2.757815352782702
 30
0.0
 11
14.11712327849465
 21
3.807046540963456
 31
0.0
  0
LINE
  5
1B092
330
1B084
100
AcDbEntity
  8
0
  6
CONTINUOUS
100
AcDbLine
 10
13.26747284108903
 20
2.283876894477644
 30
0.0
 11
14.31670901546777
 21
3.333113068856379
 31
0.0
  0
LINE
  5
1B093
330
1B084
100
AcDbEntity
  8
0
  6
CONTINUOUS
100
AcDbLine
 10
16.36767838827179
 20
8.751678487061342
 30
0.0
 11
16.50332410898388
 21
8.887324207773432
 31
0.0
  0
LINE
  5
1B094
330
1B084
100
AcDbEntity
  8
0
  6
CONTINUOUS
100
AcDbLine
 10
15.96190732182191
 20
7.67238821153127
 30
0.0
 11
16.68735328004734
 21
8.397834169756699
 31
0.0
  0
LINE
  5
1B095
330
1B084
100
AcDbEntity
  8
0
  6
CONTINUOUS
100
AcDbLine
 10
15.55613625537202
 20
6.593097936001196
 30
0.0
 11
16.87138245111079
 21
7.908344131739965
 31
0.0
  0
LINE
  5
1B096
330
1B084
100
AcDbEntity
  8
0
  6
CONTINUOUS
100
AcDbLine
 10
15.15036518892213
 20
5.513807660471122
 30
0.0
 11
17.05541162217424
 21
7.418854093723231
 31
0.0
  0
LINE
  5
1B097
330
1B084
100
AcDbEntity
  8
0
  6
CONTINUOUS
100
AcDbLine
 10
14.74459412247225
 20
4.434517384941048
 30
0.0
 11
17.2394407932377
 21
6.929364055706499
 31
0.0
  0
LINE
  5
1B098
330
1B084
100
AcDbEntity
  8
0
  6
CONTINUOUS
100
AcDbLine
 10
14.33882305602236
 20
3.355227109410975
 30
0.0
 11
17.42346996430115
 21
6.439874017689766
 31
0.0
  0
LINE
  5
1B099
330
1B084
100
AcDbEntity
  8
0
  6
CONTINUOUS
100
AcDbLine
 10
13.46705359186416
 20
1.809938436172586
 30
0.0
 11
16.0819338255367
 21
4.424818669845129
 31
0.0
  0
LINE
  5
1B09A
330
1B084
100
AcDbEntity
  8
0
  6
CONTINUOUS
100
AcDbLine
 10
16.63283254238972
 20
4.975717386698149
 30
0.0
 11
17.60749913536461
 21
5.950383979673033
 31
0.0
  0
LINE
  5
1B09B
330
1B084
100
AcDbEntity
  8
0
  6
CONTINUOUS
100
AcDbLine
 10
13.66663434263929
 20
1.335999977867529
 30
0.0
 11
15.67604797733754
 21
3.345413612565779
 31
0.0
  0
LINE
  5
1B09C
330
1B084
100
AcDbEntity
  8
0
  6
CONTINUOUS
100
AcDbLine
 10
13.86621509341442
 20
0.8620615195624723
 30
0.0
 11
15.27016212913838
 21
2.26600855528643
 31
0.0
  0
LINE
  5
1B09D
330
1B084
100
AcDbEntity
  8
0
  6
CONTINUOUS
100
AcDbLine
 10
16.81682257348267
 20
4.486188208710908
 30
0.0
 11
17.79152830642806
 21
5.460893941656299
 31
0.0
  0
LINE
  5
1B09E
330
1B084
100
AcDbEntity
  8
0
  6
CONTINUOUS
100
AcDbLine
 10
17.00081260457561
 20
3.996659030723667
 30
0.0
 11
17.97555747749151
 21
4.971403903639565
 31
0.0
  0
LINE
  5
1B09F
330
1B084
100
AcDbEntity
  8
0
  6
CONTINUOUS
100
AcDbLine
 10
20.74362343514722
 20
8.412989070375462
 30
0.0
 11
21.09373436476302
 21
8.763099999991256
 31
0.0
  0
LINE
  5
1B0A0
330
1B084
100
AcDbEntity
  8
0
  6
CONTINUOUS
100
AcDbLine
 10
20.25401257174777
 20
7.249858997895826
 30
0.0
 11
21.7672535738432
 21
8.763099999991255
 31
0.0
  0
LINE
  5
1B0A1
330
1B084
100
AcDbEntity
  8
0
  6
CONTINUOUS
100
AcDbLine
 10
14.06579584418955
 20
0.3881230612574149
 30
0.0
 11
14.86427628093921
 21
1.186603498007082
 31
0.0
  0
LINE
  5
1B0A2
330
1B084
100
AcDbEntity
  8
0
  6
CONTINUOUS
100
AcDbLine
 10
14.26537659496467
 20
-0.0858153970476412
 30
0.0
 11
14.45839043274005
 21
0.1071984407277329
 31
0.0
  0
LINE
  5
1B0A3
330
1B084
100
AcDbEntity
  8
0
  6
CONTINUOUS
100
AcDbLine
 10
17.18480263566856
 20
3.507129852736426
 30
0.0
 11
18.15958664855496
 21
4.481913865622833
 31
0.0
  0
LINE
  5
1B0A4
330
1B084
100
AcDbEntity
  8
0
  6
CONTINUOUS
100
AcDbLine
 10
17.3687926667615
 20
3.017600674749186
 30
0.0
 11
18.34361581961842
 21
3.9924238276061
 31
0.0
  0
LINE
  5
1B0A5
330
1B084
100
AcDbEntity
  8
0
  6
CONTINUOUS
100
AcDbLine
 10
19.76440170834832
 20
6.086728925416191
 30
0.0
 11
22.33924590259489
 21
8.661573119662755
 31
0.0
  0
LINE
  5
1B0A6
330
1B084
100
AcDbEntity
  8
0
  6
CONTINUOUS
100
AcDbLine
 10
19.27479084494887
 20
4.923598852936555
 30
0.0
 11
21.84929622842713
 21
7.498104236414807
 31
0.0
  0
LINE
  5
1B0A7
330
1B084
100
AcDbEntity
  8
0
  6
CONTINUOUS
100
AcDbLine
 10
17.55278269785445
 20
2.528071496761945
 30
0.0
 11
18.52764499068187
 21
3.502933789589366
 31
0.0
  0
LINE
  5
1B0A8
330
1B084
100
AcDbEntity
  8
0
  6
CONTINUOUS
100
AcDbLine
 10
18.78517998154942
 20
3.760468780456919
 30
0.0
 11
21.35934655425936
 21
6.33463535316686
 31
0.0
  0
LINE
  5
1B0A9
330
1B084
100
AcDbEntity
  8
0
  6
CONTINUOUS
100
AcDbLine
 10
17.73677272894739
 20
2.038542318774704
 30
0.0
 11
20.8693968800916
 21
5.171166469918914
 31
0.0
  0
LINE
  5
1B0AA
330
1B084
100
AcDbEntity
  8
0
  6
CONTINUOUS
100
AcDbLine
 10
17.92076276004034
 20
1.549013140787464
 30
0.0
 11
20.37944720592384
 21
4.007697586670968
 31
0.0
  0
LINE
  5
1B0AB
330
1B084
100
AcDbEntity
  8
0
  6
CONTINUOUS
100
AcDbLine
 10
18.10475279113329
 20
1.059483962800223
 30
0.0
 11
19.88949753175608
 21
2.84422870342302
 31
0.0
  0
LINE
  5
1B0AC
330
1B084
100
AcDbEntity
  8
0
  6
CONTINUOUS
100
AcDbLine
 10
18.28874282222623
 20
0.5699547848129822
 30
0.0
 11
19.39954785758832
 21
1.680759820175074
 31
0.0
  0
LINE
  5
1B0AD
330
1B084
100
AcDbEntity
  8
0
  6
CONTINUOUS
100
AcDbLine
 10
18.47273285331918
 20
0.0804256068257416
 30
0.0
 11
18.90959818342056
 21
0.517290936927127
 31
0.0
  0
LINE
  5
1B0AE
330
1B084
100
AcDbEntity
  8
0
  6
CONTINUOUS
100
AcDbLine
 10
14.3590401358224
 20
-0.1570118376323384
 30
0.0
 11
14.24903296539946
 21
-0.0470046672093929
 31
0.0
  0
LINE
  5
1B0AF
330
1B084
100
AcDbEntity
  8
0
  6
CONTINUOUS
100
AcDbLine
 10
14.54309291258661
 20
0.332454594683643
 30
0.0
 11
13.75908329123172
 21
1.116464216038529
 31
0.0
  0
LINE
  5
1B0B0
330
1B084
100
AcDbEntity
  8
0
  6
CONTINUOUS
100
AcDbLine
 10
14.72714568935081
 20
0.8219210269996244
 30
0.0
 11
13.26913361706399
 21
2.27993309928645
 31
0.0
  0
LINE
  5
1B0B1
330
1B084
100
AcDbEntity
  8
0
  6
CONTINUOUS
100
AcDbLine
 10
14.91119846611502
 20
1.311387459315606
 30
0.0
 11
12.77918394289625
 21
3.443401982534371
 31
0.0
  0
LINE
  5
1B0B2
330
1B084
100
AcDbEntity
  8
0
  6
CONTINUOUS
100
AcDbLine
 10
15.09525124287922
 20
1.800853891631587
 30
0.0
 11
12.28923426872852
 21
4.606870865782293
 31
0.0
  0
LINE
  5
1B0B3
330
1B084
100
AcDbEntity
  8
0
  6
CONTINUOUS
100
AcDbLine
 10
15.27930401964343
 20
2.290320323947569
 30
0.0
 11
11.79928459456078
 21
5.770339749030213
 31
0.0
  0
LINE
  5
1B0B4
330
1B084
100
AcDbEntity
  8
0
  6
CONTINUOUS
100
AcDbLine
 10
15.46335679640763
 20
2.77978675626355
 30
0.0
 11
14.48885470994921
 21
3.754288842721972
 31
0.0
  0
LINE
  5
1B0B5
330
1B084
100
AcDbEntity
  8
0
  6
CONTINUOUS
100
AcDbLine
 10
13.88507249233704
 20
4.358071060334137
 30
0.0
 11
11.30933492039305
 21
6.933808632278135
 31
0.0
  0
LINE
  5
1B0B6
330
1B084
100
AcDbEntity
  8
0
  6
CONTINUOUS
100
AcDbLine
 10
18.75840522805855
 20
0.1582575336928151
 30
0.0
 11
18.25383727664818
 21
0.6628254851031863
 31
0.0
  0
LINE
  5
1B0B7
330
1B084
100
AcDbEntity
  8
0
  6
CONTINUOUS
100
AcDbLine
 10
15.64740957317184
 20
3.269253188579531
 30
0.0
 11
14.67288388101266
 21
4.243778880738705
 31
0.0
  0
LINE
  5
1B0B8
330
1B084
100
AcDbEntity
  8
0
  6
CONTINUOUS
100
AcDbLine
 10
13.39509276772158
 20
5.521569994029786
 30
0.0
 11
10.81938524622531
 21
8.097277515526056
 31
0.0
  0
LINE
  5
1B0B9
330
1B084
100
AcDbEntity
  8
0
  6
CONTINUOUS
100
AcDbLine
 10
18.95798597883369
 20
0.6321959919978686
 30
0.0
 11
17.84825644852853
 21
1.741925522303024
 31
0.0
  0
LINE
  5
1B0BA
330
1B084
100
AcDbEntity
  8
0
  6
CONTINUOUS
100
AcDbLine
 10
19.15756672960882
 20
1.106134450302922
 30
0.0
 11
17.44267562040888
 21
2.821025559502861
 31
0.0
  0
LINE
  5
1B0BB
330
1B084
100
AcDbEntity
  8
0
  6
CONTINUOUS
100
AcDbLine
 10
15.83146234993604
 20
3.758719620895513
 30
0.0
 11
14.85691305207612
 21
4.733268918755439
 31
0.0
  0
LINE
  5
1B0BC
330
1B084
100
AcDbEntity
  8
0
  6
CONTINUOUS
100
AcDbLine
 10
16.01551512670025
 20
4.248186053211494
 30
0.0
 11
15.04094222313957
 21
5.222758956772172
 31
0.0
  0
LINE
  5
1B0BD
330
1B084
100
AcDbEntity
  8
0
  6
CONTINUOUS
100
AcDbLine
 10
12.90511304310612
 20
6.685068927725435
 30
0.0
 11
10.8270819708403
 21
8.763099999991255
 31
0.0
  0
LINE
  5
1B0BE
330
1B084
100
AcDbEntity
  8
0
  6
CONTINUOUS
100
AcDbLine
 10
12.41513331849066
 20
7.848567861421083
 30
0.0
 11
11.50060117992049
 21
8.763099999991255
 31
0.0
  0
LINE
  5
1B0BF
330
1B084
100
AcDbEntity
  8
0
  6
CONTINUOUS
100
AcDbLine
 10
19.35714748038395
 20
1.580072908607975
 30
0.0
 11
17.03709479228923
 21
3.900125596702697
 31
0.0
  0
LINE
  5
1B0C0
330
1B084
100
AcDbEntity
  8
0
  6
CONTINUOUS
100
AcDbLine
 10
19.55672823115909
 20
2.054011366913028
 30
0.0
 11
16.63151396416958
 21
4.979225633902534
 31
0.0
  0
LINE
  5
1B0C1
330
1B084
100
AcDbEntity
  8
0
  6
CONTINUOUS
100
AcDbLine
 10
16.19956790346445
 20
4.737652485527476
 30
0.0
 11
15.22497139420302
 21
5.712248994788904
 31
0.0
  0
LINE
  5
1B0C2
330
1B084
100
AcDbEntity
  8
0
  6
CONTINUOUS
100
AcDbLine
 10
16.38362068022866
 20
5.227118917843457
 30
0.0
 11
15.40900056526648
 21
6.201739032805637
 31
0.0
  0
LINE
  5
1B0C3
330
1B084
100
AcDbEntity
  8
0
  6
CONTINUOUS
100
AcDbLine
 10
19.75630898193422
 20
2.527949825218081
 30
0.0
 11
18.70774536448286
 21
3.576513442669441
 31
0.0
  0
LINE
  5
1B0C4
330
1B084
100
AcDbEntity
  8
0
  6
CONTINUOUS
100
AcDbLine
 10
19.95588973270936
 20
3.001888283523134
 30
0.0
 11
18.90726987211446
 21
4.050508144118028
 31
0.0
  0
LINE
  5
1B0C5
330
1B084
100
AcDbEntity
  8
0
  6
CONTINUOUS
100
AcDbLine
 10
20.15547048348449
 20
3.475826741828186
 30
0.0
 11
19.10679437974606
 21
4.524502845566614
 31
0.0
  0
LINE
  5
1B0C6
330
1B084
100
AcDbEntity
  8
0
  6
CONTINUOUS
100
AcDbLine
 10
20.35505123425962
 20
3.94976520013324
 30
0.0
 11
19.30631888737766
 21
4.998497547015201
 31
0.0
  0
LINE
  5
1B0C7
330
1B084
100
AcDbEntity
  8
0
  6
CONTINUOUS
100
AcDbLine
 10
20.55463198503475
 20
4.423703658438292
 30
0.0
 11
19.50584339500926
 21
5.472492248463787
 31
0.0
  0
LINE
  5
1B0C8
330
1B084
100
AcDbEntity
  8
0
  6
CONTINUOUS
100
AcDbLine
 10
18.37481191085755
 20
3.909446896294752
 30
0.0
 11
15.59302973632993
 21
6.691229070822371
 31
0.0
  0
LINE
  5
1B0C9
330
1B084
100
AcDbEntity
  8
0
  6
CONTINUOUS
100
AcDbLine
 10
17.96904084440766
 20
4.988737171824825
 30
0.0
 11
15.77705890739338
 21
7.180719108839104
 31
0.0
  0
LINE
  5
1B0CA
330
1B084
100
AcDbEntity
  8
0
  6
CONTINUOUS
100
AcDbLine
 10
17.56326977795777
 20
6.068027447354899
 30
0.0
 11
15.96108807845684
 21
7.670209146855838
 31
0.0
  0
LINE
  5
1B0CB
330
1B084
100
AcDbEntity
  8
0
  6
CONTINUOUS
100
AcDbLine
 10
17.15749871150789
 20
7.147317722884972
 30
0.0
 11
16.14511724952029
 21
8.15969918487257
 31
0.0
  0
LINE
  5
1B0CC
330
1B084
100
AcDbEntity
  8
0
  6
CONTINUOUS
100
AcDbLine
 10
16.751727645058
 20
8.226607998415046
 30
0.0
 11
16.32914642058374
 21
8.649189222889303
 31
0.0
  0
LINE
  5
1B0CD
330
1B084
100
AcDbEntity
  8
0
  6
CONTINUOUS
100
AcDbLine
 10
20.75421273580989
 20
4.897642116743345
 30
0.0
 11
19.70536790264086
 21
5.946486949912374
 31
0.0
  0
LINE
  5
1B0CE
330
1B084
100
AcDbEntity
  8
0
  6
CONTINUOUS
100
AcDbLine
 10
20.95379348658502
 20
5.371580575048398
 30
0.0
 11
19.90489241027246
 21
6.42048165136096
 31
0.0
  0
LINE
  5
1B0CF
330
1B084
100
AcDbEntity
  8
0
  6
CONTINUOUS
100
AcDbLine
 10
21.15337423736015
 20
5.845519033353452
 30
0.0
 11
20.10441691790406
 21
6.894476352809547
 31
0.0
  0
LINE
  5
1B0D0
330
1B084
100
AcDbEntity
  8
0
  6
CONTINUOUS
100
AcDbLine
 10
21.35295498813529
 20
6.319457491658505
 30
0.0
 11
20.30394142553566
 21
7.368471054258134
 31
0.0
  0
LINE
  5
1B0D1
330
1B084
100
AcDbEntity
  8
0
  6
CONTINUOUS
100
AcDbLine
 10
21.55253573891042
 20
6.793395949963558
 30
0.0
 11
20.50346593316726
 21
7.842465755706721
 31
0.0
  0
LINE
  5
1B0D2
330
1B084
100
AcDbEntity
  8
0
  6
CONTINUOUS
100
AcDbLine
 10
21.75211648968556
 20
7.267334408268612
 30
0.0
 11
20.70299044079886
 21
8.316460457155308
 31
0.0
  0
LINE
  5
1B0D3
330
1B084
100
AcDbEntity
  8
0
  6
CONTINUOUS
100
AcDbLine
 10
21.95169724046069
 20
7.741272866573663
 30
0.0
 11
20.9298701070431
 21
8.763099999991256
 31
0.0
  0
LINE
  5
1B0D4
330
1B084
100
AcDbEntity
  8
0
  6
CONTINUOUS
100
AcDbLine
 10
22.15127799123582
 20
8.215211324878716
 30
0.0
 11
21.60338931612328
 21
8.763099999991256
 31
0.0
  0
LINE
  5
1B0D5
330
1B084
100
AcDbEntity
  8
0
  6
CONTINUOUS
100
AcDbLine
 10
22.35085874201096
 20
8.689149783183769
 30
0.0
 11
22.27690852520347
 21
8.763099999991255
 31
0.0
  0
ENDBLK
  5
1B1C7
330
1B084
100
AcDbEntity
  8
0
100
AcDbBlockEnd
  0
BLOCK
  5
1B1C8
330
1B0D6
100
AcDbEntity
  8
0
100
AcDbBlockBegin
  2
*X58
 70
     1
 10
0.0
 20
0.0
 30
0.0
  3
*X58
  1

  0
LINE
  5
1B0D7
330
1B0D6
100
AcDbEntity
  8
0
  6
CONTINUOUS
100
AcDbLine
 10
23.19462913593892
 20
8.169917934846424
 30
0.0
 11
23.70775465517246
 21
8.683043454079957
 31
0.0
  0
LINE
  5
1B0D8
330
1B0D6
100
AcDbEntity
  8
0
  6
CONTINUOUS
100
AcDbLine
 10
22.64923161835078
 20
6.951001208178088
 30
0.0
 11
23.9159364069932
 21
8.217705996820516
 31
0.0
  0
LINE
  5
1B0D9
330
1B0D6
100
AcDbEntity
  8
0
  6
CONTINUOUS
100
AcDbLine
 10
22.10383410076263
 20
5.732084481509751
 30
0.0
 11
24.12411815881395
 21
7.752368539561078
 31
0.0
  0
LINE
  5
1B0DA
330
1B0D6
100
AcDbEntity
  8
0
  6
CONTINUOUS
100
AcDbLine
 10
21.55843658317447
 20
4.513167754841414
 30
0.0
 11
24.3322999106347
 21
7.287031082301639
 31
0.0
  0
LINE
  5
1B0DB
330
1B0D6
100
AcDbEntity
  8
0
  6
CONTINUOUS
100
AcDbLine
 10
21.01303906558632
 20
3.294251028173077
 30
0.0
 11
24.54048166245544
 21
6.821693625042199
 31
0.0
  0
LINE
  5
1B0DC
330
1B0D6
100
AcDbEntity
  8
0
  6
CONTINUOUS
100
AcDbLine
 10
20.46764154799817
 20
2.075334301504738
 30
0.0
 11
23.28571549467848
 21
4.89340824818505
 31
0.0
  0
LINE
  5
1B0DD
330
1B0D6
100
AcDbEntity
  8
0
  6
CONTINUOUS
100
AcDbLine
 10
19.92224403041002
 20
0.8564175748364002
 30
0.0
 11
22.74075865492779
 21
3.674932199354171
 31
0.0
  0
LINE
  5
1B0DE
330
1B0D6
100
AcDbEntity
  8
0
  6
CONTINUOUS
100
AcDbLine
 10
23.67305085490148
 20
5.280743608408048
 30
0.0
 11
24.74866341427619
 21
6.356356167782759
 31
0.0
  0
LINE
  5
1B0DF
330
1B0D6
100
AcDbEntity
  8
0
  6
CONTINUOUS
100
AcDbLine
 10
23.88118970842314
 20
4.815363252849522
 30
0.0
 11
24.95684516609694
 21
5.89101871052332
 31
0.0
  0
LINE
  5
1B0E0
330
1B0D6
100
AcDbEntity
  8
0
  6
CONTINUOUS
100
AcDbLine
 10
19.73925852647308
 20
-0.0000871381807288
 30
0.0
 11
23.4103456646501
 21
3.670999999996297
 31
0.0
  0
LINE
  5
1B0E1
330
1B0D6
100
AcDbEntity
  8
0
  6
CONTINUOUS
100
AcDbLine
 10
24.0893285619448
 20
4.349982897290997
 30
0.0
 11
25.16502691791769
 21
5.42568125326388
 31
0.0
  0
LINE
  5
1B0E2
330
1B0D6
100
AcDbEntity
  8
0
  6
CONTINUOUS
100
AcDbLine
 10
20.41282099582748
 20
-0.0000438779065108
 30
0.0
 11
21.64944178675636
 21
1.236576913022366
 31
0.0
  0
LINE
  5
1B0E3
330
1B0D6
100
AcDbEntity
  8
0
  6
CONTINUOUS
100
AcDbLine
 10
22.78126487373161
 20
2.36839999999762
 30
0.0
 11
24.08386487373029
 21
3.670999999996297
 31
0.0
  0
LINE
  5
1B0E4
330
1B0D6
100
AcDbEntity
  8
0
  6
CONTINUOUS
100
AcDbLine
 10
24.29746741546646
 20
3.884602541732471
 30
0.0
 11
25.37320866973843
 21
4.960343796004441
 31
0.0
  0
LINE
  5
1B0E5
330
1B0D6
100
AcDbEntity
  8
0
  6
CONTINUOUS
100
AcDbLine
 10
21.08638346518189
 20
-0.0000006176322938
 30
0.0
 11
21.10379033335899
 21
0.0174062505448083
 31
0.0
  0
LINE
  5
1B0E6
330
1B0D6
100
AcDbEntity
  8
0
  6
CONTINUOUS
100
AcDbLine
 10
23.4547840828118
 20
2.36839999999762
 30
0.0
 11
25.58139042155918
 21
4.495006338745002
 31
0.0
  0
LINE
  5
1B0E7
330
1B0D6
100
AcDbEntity
  8
0
  6
CONTINUOUS
100
AcDbLine
 10
29.30199999996933
 20
8.215615917155148
 30
0.0
 11
29.84948408280543
 21
8.763099999991255
 31
0.0
  0
LINE
  5
1B0E8
330
1B0D6
100
AcDbEntity
  8
0
  6
CONTINUOUS
100
AcDbLine
 10
24.12830329189199
 20
2.36839999999762
 30
0.0
 11
25.78957217337993
 21
4.029668881485562
 31
0.0
  0
LINE
  5
1B0E9
330
1B0D6
100
AcDbEntity
  8
0
  6
CONTINUOUS
100
AcDbLine
 10
29.30199999996933
 20
7.54209670807496
 30
0.0
 11
30.52300329188562
 21
8.763099999991255
 31
0.0
  0
LINE
  5
1B0EA
330
1B0D6
100
AcDbEntity
  8
0
  6
CONTINUOUS
100
AcDbLine
 10
24.80182250097217
 20
2.36839999999762
 30
0.0
 11
25.99775392520067
 21
3.564331424226122
 31
0.0
  0
LINE
  5
1B0EB
330
1B0D6
100
AcDbEntity
  8
0
  6
CONTINUOUS
100
AcDbLine
 10
29.30199999996933
 20
6.868577498994774
 30
0.0
 11
30.74199999996926
 21
8.308577498994712
 31
0.0
  0
LINE
  5
1B0EC
330
1B0D6
100
AcDbEntity
  8
0
  6
CONTINUOUS
100
AcDbLine
 10
25.13028238392013
 20
2.023340673865392
 30
0.0
 11
26.20593567702142
 21
3.098993966966683
 31
0.0
  0
LINE
  5
1B0ED
330
1B0D6
100
AcDbEntity
  8
0
  6
CONTINUOUS
100
AcDbLine
 10
25.33838066033617
 20
1.557919741201244
 30
0.0
 11
26.41411742884217
 21
2.633656509707244
 31
0.0
  0
LINE
  5
1B0EE
330
1B0D6
100
AcDbEntity
  8
0
  6
CONTINUOUS
100
AcDbLine
 10
25.54647893675221
 20
1.092498808537098
 30
0.0
 11
26.62229918066291
 21
2.168319052447804
 31
0.0
  0
LINE
  5
1B0EF
330
1B0D6
100
AcDbEntity
  8
0
  6
CONTINUOUS
100
AcDbLine
 10
25.75457721316825
 20
0.62707787587295
 30
0.0
 11
26.83048093248366
 21
1.702981595188365
 31
0.0
  0
LINE
  5
1B0F0
330
1B0D6
100
AcDbEntity
  8
0
  6
CONTINUOUS
100
AcDbLine
 10
29.30199999996933
 20
6.195058289914587
 30
0.0
 11
30.74199999996926
 21
7.635058289914522
 31
0.0
  0
LINE
  5
1B0F1
330
1B0D6
100
AcDbEntity
  8
0
  6
CONTINUOUS
100
AcDbLine
 10
29.30199999996933
 20
5.521539080834401
 30
0.0
 11
30.74199999996926
 21
6.961539080834331
 31
0.0
  0
LINE
  5
1B0F2
330
1B0D6
100
AcDbEntity
  8
0
  6
CONTINUOUS
100
AcDbLine
 10
29.30199999996933
 20
4.848019871754214
 30
0.0
 11
30.74199999996925
 21
6.288019871754143
 31
0.0
  0
LINE
  5
1B0F3
330
1B0D6
100
AcDbEntity
  8
0
  6
CONTINUOUS
100
AcDbLine
 10
29.30199999996933
 20
4.174500662674028
 30
0.0
 11
30.74199999996925
 21
5.614500662673953
 31
0.0
  0
LINE
  5
1B0F4
330
1B0D6
100
AcDbEntity
  8
0
  6
CONTINUOUS
100
AcDbLine
 10
25.96267548958429
 20
0.1616569432088024
 30
0.0
 11
27.18411854636669
 21
1.383099999991207
 31
0.0
  0
LINE
  5
1B0F5
330
1B0D6
100
AcDbEntity
  8
0
  6
CONTINUOUS
100
AcDbLine
 10
29.30199999996933
 20
3.500981453593841
 30
0.0
 11
30.74199999996925
 21
4.940981453593762
 31
0.0
  0
LINE
  5
1B0F6
330
1B0D6
100
AcDbEntity
  8
0
  6
CONTINUOUS
100
AcDbLine
 10
26.50763775544691
 20
0.0330999999912356
 30
0.0
 11
27.85763775544689
 21
1.383099999991223
 31
0.0
  0
LINE
  5
1B0F7
330
1B0D6
100
AcDbEntity
  8
0
  6
CONTINUOUS
100
AcDbLine
 10
29.30199999996933
 20
2.827462244513656
 30
0.0
 11
30.74199999996925
 21
4.267462244513574
 31
0.0
  0
LINE
  5
1B0F8
330
1B0D6
100
AcDbEntity
  8
0
  6
CONTINUOUS
100
AcDbLine
 10
27.18115696452709
 20
0.0330999999912356
 30
0.0
 11
28.55073879889363
 21
1.402681834357775
 31
0.0
  0
LINE
  5
1B0F9
330
1B0D6
100
AcDbEntity
  8
0
  6
CONTINUOUS
100
AcDbLine
 10
29.28241816560272
 20
2.134361201066866
 30
0.0
 11
30.74199999996924
 21
3.593943035433383
 31
0.0
  0
LINE
  5
1B0FA
330
1B0D6
100
AcDbEntity
  8
0
  6
CONTINUOUS
100
AcDbLine
 10
27.85467617360728
 20
0.0330999999912356
 30
0.0
 11
30.74199999996924
 21
2.920423826353195
 31
0.0
  0
LINE
  5
1B0FB
330
1B0D6
100
AcDbEntity
  8
0
  6
CONTINUOUS
100
AcDbLine
 10
28.53897559587887
 20
0.0438802131826428
 30
0.0
 11
30.73121978677781
 21
2.236124404081585
 31
0.0
  0
LINE
  5
1B0FC
330
1B0D6
100
AcDbEntity
  8
0
  6
CONTINUOUS
100
AcDbLine
 10
29.45140055588722
 20
0.2827859641107988
 30
0.0
 11
30.49231403584965
 21
1.323699444073236
 31
0.0
  0
LINE
  5
1B0FD
330
1B0D6
100
AcDbEntity
  8
0
  6
CONTINUOUS
100
AcDbLine
 10
19.59027867740337
 20
-0.0000967065718083
 30
0.0
 11
19.55485265190471
 21
0.035329318926844
 31
0.0
  0
LINE
  5
1B0FE
330
1B0D6
100
AcDbEntity
  8
0
  6
CONTINUOUS
100
AcDbLine
 10
20.26375463176586
 20
-0.0000534518541091
 30
0.0
 11
19.76305575737534
 21
0.5006454225364014
 31
0.0
  0
LINE
  5
1B0FF
330
1B0D6
100
AcDbEntity
  8
0
  6
CONTINUOUS
100
AcDbLine
 10
20.93723058612834
 20
-0.0000101971364099
 30
0.0
 11
19.97125886284597
 21
0.965961526145958
 31
0.0
  0
LINE
  5
1B100
330
1B0D6
100
AcDbEntity
  8
0
  6
CONTINUOUS
100
AcDbLine
 10
21.25514828313686
 20
0.355591314935257
 30
0.0
 11
20.1794619683166
 21
1.431277629755512
 31
0.0
  0
LINE
  5
1B101
330
1B0D6
100
AcDbEntity
  8
0
  6
CONTINUOUS
100
AcDbLine
 10
21.46338838394921
 20
0.8208704232030986
 30
0.0
 11
20.38766507378723
 21
1.896593733365069
 31
0.0
  0
LINE
  5
1B102
330
1B0D6
100
AcDbEntity
  8
0
  6
CONTINUOUS
100
AcDbLine
 10
21.67162848476155
 20
1.28614953147094
 30
0.0
 11
20.59586817925786
 21
2.361909836974626
 31
0.0
  0
LINE
  5
1B103
330
1B0D6
100
AcDbEntity
  8
0
  6
CONTINUOUS
100
AcDbLine
 10
21.8798685855739
 20
1.751428639738782
 30
0.0
 11
20.80407128472849
 21
2.827225940584183
 31
0.0
  0
LINE
  5
1B104
330
1B0D6
100
AcDbEntity
  8
0
  6
CONTINUOUS
100
AcDbLine
 10
22.08810868638624
 20
2.216707748006623
 30
0.0
 11
21.01227439019912
 21
3.292542044193739
 31
0.0
  0
LINE
  5
1B105
330
1B0D6
100
AcDbEntity
  8
0
  6
CONTINUOUS
100
AcDbLine
 10
22.60993564347543
 20
2.36839999999762
 30
0.0
 11
21.22047749566975
 21
3.757858147803296
 31
0.0
  0
LINE
  5
1B106
330
1B0D6
100
AcDbEntity
  8
0
  6
CONTINUOUS
100
AcDbLine
 10
23.28345485255561
 20
2.36839999999762
 30
0.0
 11
21.42868060114038
 21
4.223174251412853
 31
0.0
  0
LINE
  5
1B107
330
1B0D6
100
AcDbEntity
  8
0
  6
CONTINUOUS
100
AcDbLine
 10
26.29227406164219
 20
0.0330999999912356
 30
0.0
 11
25.80009199592872
 21
0.5252820657046957
 31
0.0
  0
LINE
  5
1B108
330
1B0D6
100
AcDbEntity
  8
0
  6
CONTINUOUS
100
AcDbLine
 10
23.9569740616358
 20
2.36839999999762
 30
0.0
 11
21.63688370661101
 21
4.688490355022409
 31
0.0
  0
LINE
  5
1B109
330
1B0D6
100
AcDbEntity
  8
0
  6
CONTINUOUS
100
AcDbLine
 10
26.96579327072237
 20
0.0330999999912356
 30
0.0
 11
25.2554132311971
 21
1.743480039516508
 31
0.0
  0
LINE
  5
1B10A
330
1B0D6
100
AcDbEntity
  8
0
  6
CONTINUOUS
100
AcDbLine
 10
24.63049327071599
 20
2.36839999999762
 30
0.0
 11
23.32789327071731
 21
3.670999999996297
 31
0.0
  0
LINE
  5
1B10B
330
1B0D6
100
AcDbEntity
  8
0
  6
CONTINUOUS
100
AcDbLine
 10
22.92098674744635
 20
4.077906523267254
 30
0.0
 11
21.84508681208164
 21
5.153806458631966
 31
0.0
  0
LINE
  5
1B10C
330
1B0D6
100
AcDbEntity
  8
0
  6
CONTINUOUS
100
AcDbLine
 10
27.63931247980256
 20
0.0330999999912356
 30
0.0
 11
24.0014124797975
 21
3.670999999996297
 31
0.0
  0
LINE
  5
1B10D
330
1B0D6
100
AcDbEntity
  8
0
  6
CONTINUOUS
100
AcDbLine
 10
23.129125600968
 20
4.5432868788258
 30
0.0
 11
22.05328991755227
 21
5.619122562241522
 31
0.0
  0
LINE
  5
1B10E
330
1B0D6
100
AcDbEntity
  8
0
  6
CONTINUOUS
100
AcDbLine
 10
28.31283168888275
 20
0.0330999999912356
 30
0.0
 11
24.16488385994816
 21
4.181047828925828
 31
0.0
  0
LINE
  5
1B10F
330
1B0D6
100
AcDbEntity
  8
0
  6
CONTINUOUS
100
AcDbLine
 10
23.33726445448964
 20
5.008667234384345
 30
0.0
 11
22.2614930230229
 21
6.084438665851079
 31
0.0
  0
LINE
  5
1B110
330
1B0D6
100
AcDbEntity
  8
0
  6
CONTINUOUS
100
AcDbLine
 10
28.92085740005492
 20
0.0985934978992438
 30
0.0
 11
27.63635089796295
 21
1.383099999991217
 31
0.0
  0
LINE
  5
1B111
330
1B0D6
100
AcDbEntity
  8
0
  6
CONTINUOUS
100
AcDbLine
 10
26.43704649509776
 20
2.582404402856405
 30
0.0
 11
23.61992702019732
 21
5.399523877756844
 31
0.0
  0
LINE
  5
1B112
330
1B0D6
100
AcDbEntity
  8
0
  6
CONTINUOUS
100
AcDbLine
 10
23.54540330801128
 20
5.47404758994289
 30
0.0
 11
22.46969612849353
 21
6.549754769460635
 31
0.0
  0
LINE
  5
1B113
330
1B0D6
100
AcDbEntity
  8
0
  6
CONTINUOUS
100
AcDbLine
 10
29.42225615078443
 20
0.2707139562499279
 30
0.0
 11
28.30987010704312
 21
1.383099999991234
 31
0.0
  0
LINE
  5
1B114
330
1B0D6
100
AcDbEntity
  8
0
  6
CONTINUOUS
100
AcDbLine
 10
25.89179548232307
 20
3.801174624711282
 30
0.0
 11
22.67789923396416
 21
7.015070873070191
 31
0.0
  0
LINE
  5
1B115
330
1B0D6
100
AcDbEntity
  8
0
  6
CONTINUOUS
100
AcDbLine
 10
29.83624534690007
 20
0.5302439692144705
 30
0.0
 11
28.85811781497101
 21
1.508371501143527
 31
0.0
  0
LINE
  5
1B116
330
1B0D6
100
AcDbEntity
  8
0
  6
CONTINUOUS
100
AcDbLine
 10
25.34654446954838
 20
5.01994484656616
 30
0.0
 11
22.88610233943479
 21
7.480386976679748
 31
0.0
  0
LINE
  5
1B117
330
1B0D6
100
AcDbEntity
  8
0
  6
CONTINUOUS
100
AcDbLine
 10
30.17865975401872
 20
0.8613487711760022
 30
0.0
 11
29.18888744090175
 21
1.851121084292977
 31
0.0
  0
LINE
  5
1B118
330
1B0D6
100
AcDbEntity
  8
0
  6
CONTINUOUS
100
AcDbLine
 10
24.80129345677369
 20
6.238715068421037
 30
0.0
 11
23.09430544490542
 21
7.945703080289305
 31
0.0
  0
LINE
  5
1B119
330
1B0D6
100
AcDbEntity
  8
0
  6
CONTINUOUS
100
AcDbLine
 10
30.45496647202376
 20
1.258561262251155
 30
0.0
 11
29.30199999996933
 21
2.411527734305588
 31
0.0
  0
LINE
  5
1B11A
330
1B0D6
100
AcDbEntity
  8
0
  6
CONTINUOUS
100
AcDbLine
 10
24.256042443999
 20
7.457485290275915
 30
0.0
 11
23.30250855037605
 21
8.411019183898862
 31
0.0
  0
LINE
  5
1B11B
330
1B0D6
100
AcDbEntity
  8
0
  6
CONTINUOUS
100
AcDbLine
 10
30.64868582078271
 20
1.738361122572387
 30
0.0
 11
29.30199999996933
 21
3.085046943385775
 31
0.0
  0
LINE
  5
1B11C
330
1B0D6
100
AcDbEntity
  8
0
  6
CONTINUOUS
100
AcDbLine
 10
23.71079143122431
 20
8.676255512130794
 30
0.0
 11
23.51071165584668
 21
8.876335287508416
 31
0.0
  0
LINE
  5
1B11D
330
1B0D6
100
AcDbEntity
  8
0
  6
CONTINUOUS
100
AcDbLine
 10
30.73802122914428
 20
2.322544923291007
 30
0.0
 11
29.30199999996933
 21
3.758566152465961
 31
0.0
  0
LINE
  5
1B11E
330
1B0D6
100
AcDbEntity
  8
0
  6
CONTINUOUS
100
AcDbLine
 10
30.74199999996924
 20
2.992085361546236
 30
0.0
 11
29.30199999996933
 21
4.432085361546148
 31
0.0
  0
LINE
  5
1B11F
330
1B0D6
100
AcDbEntity
  8
0
  6
CONTINUOUS
100
AcDbLine
 10
30.74199999996924
 20
3.665604570626419
 30
0.0
 11
29.30199999996933
 21
5.105604570626333
 31
0.0
  0
LINE
  5
1B120
330
1B0D6
100
AcDbEntity
  8
0
  6
CONTINUOUS
100
AcDbLine
 10
30.74199999996925
 20
4.339123779706602
 30
0.0
 11
29.30199999996933
 21
5.77912377970652
 31
0.0
  0
LINE
  5
1B121
330
1B0D6
100
AcDbEntity
  8
0
  6
CONTINUOUS
100
AcDbLine
 10
30.74199999996925
 20
5.012642988786785
 30
0.0
 11
29.30199999996933
 21
6.452642988786707
 31
0.0
  0
LINE
  5
1B122
330
1B0D6
100
AcDbEntity
  8
0
  6
CONTINUOUS
100
AcDbLine
 10
30.74199999996925
 20
5.68616219786697
 30
0.0
 11
29.30199999996933
 21
7.126162197866894
 31
0.0
  0
LINE
  5
1B123
330
1B0D6
100
AcDbEntity
  8
0
  6
CONTINUOUS
100
AcDbLine
 10
30.74199999996925
 20
6.359681406947153
 30
0.0
 11
29.30199999996933
 21
7.799681406947081
 31
0.0
  0
LINE
  5
1B124
330
1B0D6
100
AcDbEntity
  8
0
  6
CONTINUOUS
100
AcDbLine
 10
30.74199999996926
 20
7.033200616027337
 30
0.0
 11
29.30199999996933
 21
8.473200616027269
 31
0.0
  0
LINE
  5
1B125
330
1B0D6
100
AcDbEntity
  8
0
  6
CONTINUOUS
100
AcDbLine
 10
30.74199999996926
 20
7.706719825107518
 30
0.0
 11
29.68561982508552
 21
8.763099999991255
 31
0.0
  0
LINE
  5
1B126
330
1B0D6
100
AcDbEntity
  8
0
  6
CONTINUOUS
100
AcDbLine
 10
30.74199999996926
 20
8.380239034187703
 30
0.0
 11
30.35913903416571
 21
8.763099999991255
 31
0.0
  0
ENDBLK
  5
1B1C9
330
1B0D6
100
AcDbEntity
  8
0
100
AcDbBlockEnd
  0
BLOCK
  5
1B1CA
330
1B127
100
AcDbEntity
  8
0
100
AcDbBlockBegin
  2
*X59
 70
     1
 10
0.0
 20
0.0
 30
0.0
  3
*X59
  1

  0
LINE
  5
1B128
330
1B127
100
AcDbEntity
  8
0
  6
CONTINUOUS
100
AcDbLine
 10
31.64199999996833
 20
8.535058289913598
 30
0.0
 11
31.87004171004599
 21
8.763099999991255
 31
0.0
  0
LINE
  5
1B129
330
1B127
100
AcDbEntity
  8
0
  6
CONTINUOUS
100
AcDbLine
 10
31.64199999996833
 20
7.861539080833412
 30
0.0
 11
32.54356091912618
 21
8.763099999991255
 31
0.0
  0
LINE
  5
1B12A
330
1B127
100
AcDbEntity
  8
0
  6
CONTINUOUS
100
AcDbLine
 10
31.64199999996833
 20
7.188019871753226
 30
0.0
 11
33.08199999996839
 21
8.628019871753281
 31
0.0
  0
LINE
  5
1B12B
330
1B127
100
AcDbEntity
  8
0
  6
CONTINUOUS
100
AcDbLine
 10
31.64199999996833
 20
6.51450066267304
 30
0.0
 11
33.08199999996839
 21
7.954500662673095
 31
0.0
  0
LINE
  5
1B12C
330
1B127
100
AcDbEntity
  8
0
  6
CONTINUOUS
100
AcDbLine
 10
31.64199999996833
 20
5.840981453592853
 30
0.0
 11
33.08199999996839
 21
7.280981453592908
 31
0.0
  0
LINE
  5
1B12D
330
1B127
100
AcDbEntity
  8
0
  6
CONTINUOUS
100
AcDbLine
 10
31.64199999996833
 20
5.167462244512667
 30
0.0
 11
33.08199999996839
 21
6.607462244512721
 31
0.0
  0
LINE
  5
1B12E
330
1B127
100
AcDbEntity
  8
0
  6
CONTINUOUS
100
AcDbLine
 10
31.64199999996833
 20
4.493943035432481
 30
0.0
 11
33.08199999996839
 21
5.933943035432535
 31
0.0
  0
LINE
  5
1B12F
330
1B127
100
AcDbEntity
  8
0
  6
CONTINUOUS
100
AcDbLine
 10
31.64199999996833
 20
3.820423826352293
 30
0.0
 11
33.08199999996839
 21
5.260423826352348
 31
0.0
  0
LINE
  5
1B130
330
1B127
100
AcDbEntity
  8
0
  6
CONTINUOUS
100
AcDbLine
 10
31.64199999996833
 20
3.146904617272106
 30
0.0
 11
33.08199999996839
 21
4.586904617272161
 31
0.0
  0
LINE
  5
1B131
330
1B127
100
AcDbEntity
  8
0
  6
CONTINUOUS
100
AcDbLine
 10
36.23199999996837
 20
8.410423826352325
 30
0.0
 11
36.5846761736073
 21
8.763099999991255
 31
0.0
  0
LINE
  5
1B132
330
1B127
100
AcDbEntity
  8
0
  6
CONTINUOUS
100
AcDbLine
 10
36.23199999996837
 20
7.73690461727214
 30
0.0
 11
37.25819538268748
 21
8.763099999991255
 31
0.0
  0
LINE
  5
1B133
330
1B127
100
AcDbEntity
  8
0
  6
CONTINUOUS
100
AcDbLine
 10
31.64257403601376
 20
2.473959444237348
 30
0.0
 11
33.08199999996839
 21
3.913385408191974
 31
0.0
  0
LINE
  5
1B134
330
1B127
100
AcDbEntity
  8
0
  6
CONTINUOUS
100
AcDbLine
 10
36.23199999996837
 20
7.063385408191953
 30
0.0
 11
37.67199999996831
 21
8.503385408191894
 31
0.0
  0
LINE
  5
1B135
330
1B127
100
AcDbEntity
  8
0
  6
CONTINUOUS
100
AcDbLine
 10
31.72013636841932
 20
1.87800256756272
 30
0.0
 11
33.08199999996839
 21
3.239866199111788
 31
0.0
  0
LINE
  5
1B136
330
1B127
100
AcDbEntity
  8
0
  6
CONTINUOUS
100
AcDbLine
 10
36.23199999996837
 20
6.389866199111767
 30
0.0
 11
37.67199999996831
 21
7.829866199111708
 31
0.0
  0
LINE
  5
1B137
330
1B127
100
AcDbEntity
  8
0
  6
CONTINUOUS
100
AcDbLine
 10
31.89042734314753
 20
1.374774333210744
 30
0.0
 11
33.08199999996839
 21
2.566346990031601
 31
0.0
  0
LINE
  5
1B138
330
1B127
100
AcDbEntity
  8
0
  6
CONTINUOUS
100
AcDbLine
 10
36.23199999996837
 20
5.71634699003158
 30
0.0
 11
37.67199999996831
 21
7.156346990031521
 31
0.0
  0
LINE
  5
1B139
330
1B127
100
AcDbEntity
  8
0
  6
CONTINUOUS
100
AcDbLine
 10
32.14210568064475
 20
0.952933461627778
 30
0.0
 11
33.18745552475986
 21
1.998283305742888
 31
0.0
  0
LINE
  5
1B13A
330
1B127
100
AcDbEntity
  8
0
  6
CONTINUOUS
100
AcDbLine
 10
36.23199999996837
 20
5.042827780951393
 30
0.0
 11
37.67199999996831
 21
6.482827780951334
 31
0.0
  0
LINE
  5
1B13B
330
1B127
100
AcDbEntity
  8
0
  6
CONTINUOUS
100
AcDbLine
 10
32.45820639400955
 20
0.5955149659123915
 30
0.0
 11
33.47242681921943
 21
1.60973539112227
 31
0.0
  0
LINE
  5
1B13C
330
1B127
100
AcDbEntity
  8
0
  6
CONTINUOUS
100
AcDbLine
 10
36.23199999996837
 20
4.369308571871207
 30
0.0
 11
37.67199999996831
 21
5.809308571871147
 31
0.0
  0
LINE
  5
1B13D
330
1B127
100
AcDbEntity
  8
0
  6
CONTINUOUS
100
AcDbLine
 10
32.83432456621412
 20
0.2981139290367771
 30
0.0
 11
33.89722476612215
 21
1.361014128944803
 31
0.0
  0
LINE
  5
1B13E
330
1B127
100
AcDbEntity
  8
0
  6
CONTINUOUS
100
AcDbLine
 10
36.23199999996837
 20
3.69578936279102
 30
0.0
 11
37.67199999996831
 21
5.135789362790962
 31
0.0
  0
LINE
  5
1B13F
330
1B127
100
AcDbEntity
  8
0
  6
CONTINUOUS
100
AcDbLine
 10
33.2711633111245
 20
0.0614334648669672
 30
0.0
 11
34.43247338014423
 21
1.222743533886696
 31
0.0
  0
LINE
  5
1B140
330
1B127
100
AcDbEntity
  8
0
  6
CONTINUOUS
100
AcDbLine
 10
36.23199999996837
 20
3.022270153710834
 30
0.0
 11
37.67199999996831
 21
4.462270153710775
 31
0.0
  0
LINE
  5
1B141
330
1B127
100
AcDbEntity
  8
0
  6
CONTINUOUS
100
AcDbLine
 10
33.76515245874577
 20
-0.1180965965919523
 30
0.0
 11
35.1587445516215
 21
1.27549549628378
 31
0.0
  0
LINE
  5
1B142
330
1B127
100
AcDbEntity
  8
0
  6
CONTINUOUS
100
AcDbLine
 10
36.21639478609585
 20
2.333145730758136
 30
0.0
 11
37.67199999996831
 21
3.788750944630588
 31
0.0
  0
LINE
  5
1B143
330
1B127
100
AcDbEntity
  8
0
  6
CONTINUOUS
100
AcDbLine
 10
34.34060583368432
 20
-0.2161624307335863
 30
0.0
 11
37.67199999996831
 21
3.115231735550401
 31
0.0
  0
LINE
  5
1B144
330
1B127
100
AcDbEntity
  8
0
  6
CONTINUOUS
100
AcDbLine
 10
35.01698193613905
 20
-0.2133055373590427
 30
0.0
 11
37.66876712070525
 21
2.438479647207154
 31
0.0
  0
LINE
  5
1B145
330
1B127
100
AcDbEntity
  8
0
  6
CONTINUOUS
100
AcDbLine
 10
35.90743367693304
 20
0.0036269943547609
 30
0.0
 11
37.51723902192366
 21
1.613432339345381
 31
0.0
  0
LINE
  5
1B146
330
1B127
100
AcDbEntity
  8
0
  6
CONTINUOUS
100
AcDbLine
 10
32.55309425579761
 20
0.5074718966376706
 30
0.0
 11
32.27784730925847
 21
0.7827188431768102
 31
0.0
  0
LINE
  5
1B147
330
1B127
100
AcDbEntity
  8
0
  6
CONTINUOUS
100
AcDbLine
 10
33.87496468909684
 20
-0.1408793275813673
 30
0.0
 11
31.67993083278052
 21
2.054154528734943
 31
0.0
  0
LINE
  5
1B148
330
1B127
100
AcDbEntity
  8
0
  6
CONTINUOUS
100
AcDbLine
 10
34.64362813207632
 20
-0.2360235614806649
 30
0.0
 11
31.64199999996833
 21
2.765604570627322
 31
0.0
  0
LINE
  5
1B149
330
1B127
100
AcDbEntity
  8
0
  6
CONTINUOUS
100
AcDbLine
 10
35.25801106796118
 20
-0.1768872882853429
 30
0.0
 11
31.64199999996833
 21
3.439123779707508
 31
0.0
  0
LINE
  5
1B14A
330
1B127
100
AcDbEntity
  8
0
  6
CONTINUOUS
100
AcDbLine
 10
35.79065650332146
 20
-0.0360135145654361
 30
0.0
 11
34.54143210838231
 21
1.213210880373721
 31
0.0
  0
LINE
  5
1B14B
330
1B127
100
AcDbEntity
  8
0
  6
CONTINUOUS
100
AcDbLine
 10
33.08199999996839
 20
2.67264298878764
 30
0.0
 11
31.64199999996833
 21
4.112642988787695
 31
0.0
  0
LINE
  5
1B14C
330
1B127
100
AcDbEntity
  8
0
  6
CONTINUOUS
100
AcDbLine
 10
36.25975597779143
 20
0.1684062200447833
 30
0.0
 11
35.15395110240023
 21
1.274211095435983
 31
0.0
  0
LINE
  5
1B14D
330
1B127
100
AcDbEntity
  8
0
  6
CONTINUOUS
100
AcDbLine
 10
33.08199999996839
 20
3.346162197867826
 30
0.0
 11
31.64199999996833
 21
4.786162197867881
 31
0.0
  0
LINE
  5
1B14E
330
1B127
100
AcDbEntity
  8
0
  6
CONTINUOUS
100
AcDbLine
 10
36.67226329638774
 20
0.4294181105286579
 30
0.0
 11
35.63766478748767
 21
1.464016619428737
 31
0.0
  0
LINE
  5
1B14F
330
1B127
100
AcDbEntity
  8
0
  6
CONTINUOUS
100
AcDbLine
 10
33.08199999996839
 20
4.019681406948012
 30
0.0
 11
31.64199999996833
 21
5.459681406948068
 31
0.0
  0
LINE
  5
1B150
330
1B127
100
AcDbEntity
  8
0
  6
CONTINUOUS
100
AcDbLine
 10
37.01677749710036
 20
0.7584231188962329
 30
0.0
 11
35.99563422741351
 21
1.779566388583076
 31
0.0
  0
LINE
  5
1B151
330
1B127
100
AcDbEntity
  8
0
  6
CONTINUOUS
100
AcDbLine
 10
33.08199999996839
 20
4.693200616028199
 30
0.0
 11
31.64199999996833
 21
6.133200616028255
 31
0.0
  0
LINE
  5
1B152
330
1B127
100
AcDbEntity
  8
0
  6
CONTINUOUS
100
AcDbLine
 10
37.29859977568887
 20
1.1501200493879
 30
0.0
 11
36.20680593341555
 21
2.241913891661226
 31
0.0
  0
LINE
  5
1B153
330
1B127
100
AcDbEntity
  8
0
  6
CONTINUOUS
100
AcDbLine
 10
33.08199999996839
 20
5.366719825108386
 30
0.0
 11
31.64199999996833
 21
6.80671982510844
 31
0.0
  0
LINE
  5
1B154
330
1B127
100
AcDbEntity
  8
0
  6
CONTINUOUS
100
AcDbLine
 10
37.5148623517228
 20
1.607376682434161
 30
0.0
 11
36.23199999996837
 21
2.890239034188594
 31
0.0
  0
LINE
  5
1B155
330
1B127
100
AcDbEntity
  8
0
  6
CONTINUOUS
100
AcDbLine
 10
33.08199999996839
 20
6.040239034188573
 30
0.0
 11
31.64199999996833
 21
7.480239034188627
 31
0.0
  0
LINE
  5
1B156
330
1B127
100
AcDbEntity
  8
0
  6
CONTINUOUS
100
AcDbLine
 10
37.64705163358367
 20
2.148706609653477
 30
0.0
 11
36.23199999996837
 21
3.56375824326878
 31
0.0
  0
LINE
  5
1B157
330
1B127
100
AcDbEntity
  8
0
  6
CONTINUOUS
100
AcDbLine
 10
33.08199999996839
 20
6.713758243268758
 30
0.0
 11
31.64199999996833
 21
8.153758243268815
 31
0.0
  0
LINE
  5
1B158
330
1B127
100
AcDbEntity
  8
0
  6
CONTINUOUS
100
AcDbLine
 10
37.67199999996831
 20
2.797277452349026
 30
0.0
 11
36.23199999996837
 21
4.237277452348967
 31
0.0
  0
LINE
  5
1B159
330
1B127
100
AcDbEntity
  8
0
  6
CONTINUOUS
100
AcDbLine
 10
37.67199999996831
 20
3.470796661429213
 30
0.0
 11
36.23199999996837
 21
4.910796661429154
 31
0.0
  0
LINE
  5
1B15A
330
1B127
100
AcDbEntity
  8
0
  6
CONTINUOUS
100
AcDbLine
 10
37.67199999996831
 20
4.144315870509399
 30
0.0
 11
36.23199999996837
 21
5.58431587050934
 31
0.0
  0
LINE
  5
1B15B
330
1B127
100
AcDbEntity
  8
0
  6
CONTINUOUS
100
AcDbLine
 10
33.08199999996839
 20
7.387277452348945
 30
0.0
 11
31.70617745232608
 21
8.763099999991255
 31
0.0
  0
LINE
  5
1B15C
330
1B127
100
AcDbEntity
  8
0
  6
CONTINUOUS
100
AcDbLine
 10
33.08199999996839
 20
8.060796661429132
 30
0.0
 11
32.37969666140626
 21
8.763099999991255
 31
0.0
  0
LINE
  5
1B15D
330
1B127
100
AcDbEntity
  8
0
  6
CONTINUOUS
100
AcDbLine
 10
33.08199999996839
 20
8.734315870509318
 30
0.0
 11
33.05321587048645
 21
8.763099999991255
 31
0.0
  0
LINE
  5
1B15E
330
1B127
100
AcDbEntity
  8
0
  6
CONTINUOUS
100
AcDbLine
 10
37.67199999996831
 20
4.817835079589585
 30
0.0
 11
36.23199999996837
 21
6.257835079589526
 31
0.0
  0
LINE
  5
1B15F
330
1B127
100
AcDbEntity
  8
0
  6
CONTINUOUS
100
AcDbLine
 10
37.67199999996831
 20
5.491354288669771
 30
0.0
 11
36.23199999996837
 21
6.931354288669713
 31
0.0
  0
LINE
  5
1B160
330
1B127
100
AcDbEntity
  8
0
  6
CONTINUOUS
100
AcDbLine
 10
37.67199999996831
 20
6.164873497749958
 30
0.0
 11
36.23199999996837
 21
7.6048734977499
 31
0.0
  0
LINE
  5
1B161
330
1B127
100
AcDbEntity
  8
0
  6
CONTINUOUS
100
AcDbLine
 10
37.67199999996831
 20
6.838392706830144
 30
0.0
 11
36.23199999996837
 21
8.278392706830086
 31
0.0
  0
LINE
  5
1B162
330
1B127
100
AcDbEntity
  8
0
  6
CONTINUOUS
100
AcDbLine
 10
37.67199999996831
 20
7.511911915910332
 30
0.0
 11
36.42081191588738
 21
8.763099999991255
 31
0.0
  0
LINE
  5
1B163
330
1B127
100
AcDbEntity
  8
0
  6
CONTINUOUS
100
AcDbLine
 10
37.67199999996831
 20
8.185431124990519
 30
0.0
 11
37.09433112496757
 21
8.763099999991255
 31
0.0
  0
ENDBLK
  5
1B1CB
330
1B127
100
AcDbEntity
  8
0
100
AcDbBlockEnd
  0
BLOCK
  5
1B1CC
330
1B164
100
AcDbEntity
  8
0
100
AcDbBlockBegin
  2
*X60
 70
     1
 10
0.0
 20
0.0
 30
0.0
  3
*X60
  1

  0
LINE
  5
1B165
330
1B164
100
AcDbEntity
  8
0
  6
CONTINUOUS
100
AcDbLine
 10
38.60499999996136
 20
8.762866199104765
 30
0.0
 11
38.71672554182345
 21
8.874591740966855
 31
0.0
  0
LINE
  5
1B166
330
1B164
100
AcDbEntity
  8
0
  6
CONTINUOUS
100
AcDbLine
 10
38.60499999996136
 20
8.089346990024577
 30
0.0
 11
39.03418785440363
 21
8.518534844466847
 31
0.0
  0
LINE
  5
1B167
330
1B164
100
AcDbEntity
  8
0
  6
CONTINUOUS
100
AcDbLine
 10
38.60499999996136
 20
7.41582778094439
 30
0.0
 11
39.35165016698382
 21
8.16247794796684
 31
0.0
  0
LINE
  5
1B168
330
1B164
100
AcDbEntity
  8
0
  6
CONTINUOUS
100
AcDbLine
 10
38.60499999996136
 20
6.742308571864204
 30
0.0
 11
39.66911247956399
 21
7.806421051466834
 31
0.0
  0
LINE
  5
1B169
330
1B164
100
AcDbEntity
  8
0
  6
CONTINUOUS
100
AcDbLine
 10
38.60499999996136
 20
6.068789362784018
 30
0.0
 11
39.98657479214418
 21
7.450364154966827
 31
0.0
  0
LINE
  5
1B16A
330
1B164
100
AcDbEntity
  8
0
  6
CONTINUOUS
100
AcDbLine
 10
38.60499999996136
 20
5.395270153703832
 30
0.0
 11
40.30403710472435
 21
7.09430725846682
 31
0.0
  0
LINE
  5
1B16B
330
1B164
100
AcDbEntity
  8
0
  6
CONTINUOUS
100
AcDbLine
 10
38.60499999996136
 20
4.721750944623645
 30
0.0
 11
40.62149941730453
 21
6.738250361966813
 31
0.0
  0
LINE
  5
1B16C
330
1B164
100
AcDbEntity
  8
0
  6
CONTINUOUS
100
AcDbLine
 10
38.60499999996136
 20
4.048231735543458
 30
0.0
 11
40.93896172988471
 21
6.382193465466806
 31
0.0
  0
LINE
  5
1B16D
330
1B164
100
AcDbEntity
  8
0
  6
CONTINUOUS
100
AcDbLine
 10
38.60499999996136
 20
3.374712526463272
 30
0.0
 11
40.02599999995994
 21
4.795712526461843
 31
0.0
  0
LINE
  5
1B16E
330
1B164
100
AcDbEntity
  8
0
  6
CONTINUOUS
100
AcDbLine
 10
38.60499999996136
 20
2.701193317383085
 30
0.0
 11
40.02599999995994
 21
4.122193317381657
 31
0.0
  0
LINE
  5
1B16F
330
1B164
100
AcDbEntity
  8
0
  6
CONTINUOUS
100
AcDbLine
 10
40.28339754687704
 20
5.053110073378947
 30
0.0
 11
41.25642404246489
 21
6.026136568966799
 31
0.0
  0
LINE
  5
1B170
330
1B164
100
AcDbEntity
  8
0
  6
CONTINUOUS
100
AcDbLine
 10
40.60085985945722
 20
4.697053176878939
 30
0.0
 11
41.57388635504507
 21
5.670079672466793
 31
0.0
  0
LINE
  5
1B171
330
1B164
100
AcDbEntity
  8
0
  6
CONTINUOUS
100
AcDbLine
 10
43.57899999995641
 20
8.348712526458318
 30
0.0
 11
43.99338747348935
 21
8.763099999991255
 31
0.0
  0
LINE
  5
1B172
330
1B164
100
AcDbEntity
  8
0
  6
CONTINUOUS
100
AcDbLine
 10
43.57899999995641
 20
7.675193317378131
 30
0.0
 11
44.66690668256953
 21
8.763099999991255
 31
0.0
  0
LINE
  5
1B173
330
1B164
100
AcDbEntity
  8
0
  6
CONTINUOUS
100
AcDbLine
 10
38.60499999996136
 20
2.027674108302898
 30
0.0
 11
40.02599999995994
 21
3.44867410830147
 31
0.0
  0
LINE
  5
1B174
330
1B164
100
AcDbEntity
  8
0
  6
CONTINUOUS
100
AcDbLine
 10
38.60499999996136
 20
1.354154899222712
 30
0.0
 11
40.02599999995994
 21
2.775154899221284
 31
0.0
  0
LINE
  5
1B175
330
1B164
100
AcDbEntity
  8
0
  6
CONTINUOUS
100
AcDbLine
 10
38.60499999996136
 20
0.6806356901425255
 30
0.0
 11
40.02599999995994
 21
2.101635690141098
 31
0.0
  0
LINE
  5
1B176
330
1B164
100
AcDbEntity
  8
0
  6
CONTINUOUS
100
AcDbLine
 10
38.60499999996136
 20
0.0071164810623383
 30
0.0
 11
40.02599999995994
 21
1.428116481060911
 31
0.0
  0
LINE
  5
1B177
330
1B164
100
AcDbEntity
  8
0
  6
CONTINUOUS
100
AcDbLine
 10
40.9183221720374
 20
4.340996280378933
 30
0.0
 11
41.89134866762525
 21
5.314022775966786
 31
0.0
  0
LINE
  5
1B178
330
1B164
100
AcDbEntity
  8
0
  6
CONTINUOUS
100
AcDbLine
 10
41.23578448461758
 20
3.984939383878926
 30
0.0
 11
42.20881098020543
 21
4.957965879466778
 31
0.0
  0
LINE
  5
1B179
330
1B164
100
AcDbEntity
  8
0
  6
CONTINUOUS
100
AcDbLine
 10
41.55324679719776
 20
3.628882487378919
 30
0.0
 11
42.52627329278561
 21
4.601908982966772
 31
0.0
  0
LINE
  5
1B17A
330
1B164
100
AcDbEntity
  8
0
  6
CONTINUOUS
100
AcDbLine
 10
41.87070910977793
 20
3.272825590878912
 30
0.0
 11
42.84373560536579
 21
4.245852086466765
 31
0.0
  0
LINE
  5
1B17B
330
1B164
100
AcDbEntity
  8
0
  6
CONTINUOUS
100
AcDbLine
 10
43.57899999995641
 20
7.001674108297943
 30
0.0
 11
44.99999999995498
 21
8.422674108296516
 31
0.0
  0
LINE
  5
1B17C
330
1B164
100
AcDbEntity
  8
0
  6
CONTINUOUS
100
AcDbLine
 10
43.57899999995641
 20
6.328154899217758
 30
0.0
 11
44.99999999995498
 21
7.749154899216329
 31
0.0
  0
LINE
  5
1B17D
330
1B164
100
AcDbEntity
  8
0
  6
CONTINUOUS
100
AcDbLine
 10
43.57899999995641
 20
5.654635690137571
 30
0.0
 11
44.99999999995498
 21
7.075635690136142
 31
0.0
  0
LINE
  5
1B17E
330
1B164
100
AcDbEntity
  8
0
  6
CONTINUOUS
100
AcDbLine
 10
43.57899999995641
 20
4.981116481057384
 30
0.0
 11
44.99999999995498
 21
6.402116481055955
 31
0.0
  0
LINE
  5
1B17F
330
1B164
100
AcDbEntity
  8
0
  6
CONTINUOUS
100
AcDbLine
 10
39.27140272797921
 20
-0.0000000000000009
 30
0.0
 11
40.02599999995994
 21
0.7545972719807246
 31
0.0
  0
LINE
  5
1B180
330
1B164
100
AcDbEntity
  8
0
  6
CONTINUOUS
100
AcDbLine
 10
39.9449219370594
 20
-0.0000000000000009
 30
0.0
 11
40.02599999995994
 21
0.0810780629005379
 31
0.0
  0
LINE
  5
1B181
330
1B164
100
AcDbEntity
  8
0
  6
CONTINUOUS
100
AcDbLine
 10
42.18817142235812
 20
2.916768694378905
 30
0.0
 11
43.16119791794597
 21
3.889795189966758
 31
0.0
  0
LINE
  5
1B182
330
1B164
100
AcDbEntity
  8
0
  6
CONTINUOUS
100
AcDbLine
 10
42.50563373493829
 20
2.560711797878898
 30
0.0
 11
43.47866023052615
 21
3.533738293466751
 31
0.0
  0
LINE
  5
1B183
330
1B164
100
AcDbEntity
  8
0
  6
CONTINUOUS
100
AcDbLine
 10
43.57899999995641
 20
4.307597271977198
 30
0.0
 11
44.99999999995498
 21
5.728597271975769
 31
0.0
  0
LINE
  5
1B184
330
1B164
100
AcDbEntity
  8
0
  6
CONTINUOUS
100
AcDbLine
 10
43.57899999995641
 20
3.634078062897011
 30
0.0
 11
44.99999999995498
 21
5.055078062895582
 31
0.0
  0
LINE
  5
1B185
330
1B164
100
AcDbEntity
  8
0
  6
CONTINUOUS
100
AcDbLine
 10
42.82309604751848
 20
2.204654901378891
 30
0.0
 11
44.99999999995498
 21
4.381558853815395
 31
0.0
  0
LINE
  5
1B186
330
1B164
100
AcDbEntity
  8
0
  6
CONTINUOUS
100
AcDbLine
 10
43.14055836009865
 20
1.848598004878885
 30
0.0
 11
44.99999999995498
 21
3.70803964473521
 31
0.0
  0
LINE
  5
1B187
330
1B164
100
AcDbEntity
  8
0
  6
CONTINUOUS
100
AcDbLine
 10
43.45802067267883
 20
1.492541108378878
 30
0.0
 11
44.99999999995498
 21
3.034520435655023
 31
0.0
  0
LINE
  5
1B188
330
1B164
100
AcDbEntity
  8
0
  6
CONTINUOUS
100
AcDbLine
 10
43.77548298525902
 20
1.136484211878871
 30
0.0
 11
44.99999999995498
 21
2.361001226574837
 31
0.0
  0
LINE
  5
1B189
330
1B164
100
AcDbEntity
  8
0
  6
CONTINUOUS
100
AcDbLine
 10
44.09294529783919
 20
0.7804273153788639
 30
0.0
 11
44.99999999995498
 21
1.687482017494649
 31
0.0
  0
LINE
  5
1B18A
330
1B164
100
AcDbEntity
  8
0
  6
CONTINUOUS
100
AcDbLine
 10
44.41040761041938
 20
0.4243704188788566
 30
0.0
 11
44.99999999995498
 21
1.013962808414463
 31
0.0
  0
LINE
  5
1B18B
330
1B164
100
AcDbEntity
  8
0
  6
CONTINUOUS
100
AcDbLine
 10
44.72786992299955
 20
0.0683135223788494
 30
0.0
 11
44.99999999995498
 21
0.340443599334276
 31
0.0
  0
LINE
  5
1B18C
330
1B164
100
AcDbEntity
  8
0
  6
CONTINUOUS
100
AcDbLine
 10
39.12223903415696
 20
-0.0000000000000009
 30
0.0
 11
38.60499999996136
 21
0.5172390341955961
 31
0.0
  0
LINE
  5
1B18D
330
1B164
100
AcDbEntity
  8
0
  6
CONTINUOUS
100
AcDbLine
 10
39.79575824323715
 20
-0.0000000000000009
 30
0.0
 11
38.60499999996136
 21
1.190758243275783
 31
0.0
  0
LINE
  5
1B18E
330
1B164
100
AcDbEntity
  8
0
  6
CONTINUOUS
100
AcDbLine
 10
40.02599999995994
 20
0.443277452357397
 30
0.0
 11
38.60499999996136
 21
1.864277452355969
 31
0.0
  0
LINE
  5
1B18F
330
1B164
100
AcDbEntity
  8
0
  6
CONTINUOUS
100
AcDbLine
 10
40.02599999995994
 20
1.116796661437583
 30
0.0
 11
38.60499999996136
 21
2.537796661436155
 31
0.0
  0
LINE
  5
1B190
330
1B164
100
AcDbEntity
  8
0
  6
CONTINUOUS
100
AcDbLine
 10
40.02599999995994
 20
1.79031587051777
 30
0.0
 11
38.60499999996136
 21
3.211315870516341
 31
0.0
  0
LINE
  5
1B191
330
1B164
100
AcDbEntity
  8
0
  6
CONTINUOUS
100
AcDbLine
 10
40.02599999995994
 20
2.463835079597956
 30
0.0
 11
38.60499999996136
 21
3.884835079596527
 31
0.0
  0
LINE
  5
1B192
330
1B164
100
AcDbEntity
  8
0
  6
CONTINUOUS
100
AcDbLine
 10
40.02599999995994
 20
3.137354288678143
 30
0.0
 11
38.60499999996136
 21
4.558354288676714
 31
0.0
  0
LINE
  5
1B193
330
1B164
100
AcDbEntity
  8
0
  6
CONTINUOUS
100
AcDbLine
 10
40.02599999995994
 20
3.810873497758329
 30
0.0
 11
38.60499999996136
 21
5.2318734977569
 31
0.0
  0
LINE
  5
1B194
330
1B164
100
AcDbEntity
  8
0
  6
CONTINUOUS
100
AcDbLine
 10
40.02599999995994
 20
4.484392706838515
 30
0.0
 11
38.60499999996136
 21
5.905392706837086
 31
0.0
  0
LINE
  5
1B195
330
1B164
100
AcDbEntity
  8
0
  6
CONTINUOUS
100
AcDbLine
 10
44.99999999995498
 20
0.183911915923658
 30
0.0
 11
41.53858364506288
 21
3.64532827081576
 31
0.0
  0
LINE
  5
1B196
330
1B164
100
AcDbEntity
  8
0
  6
CONTINUOUS
100
AcDbLine
 10
40.02599999995994
 20
5.157911915918703
 30
0.0
 11
38.60499999996136
 21
6.578911915917274
 31
0.0
  0
LINE
  5
1B197
330
1B164
100
AcDbEntity
  8
0
  6
CONTINUOUS
100
AcDbLine
 10
44.99999999995498
 20
0.8574311250038447
 30
0.0
 11
38.60499999996136
 21
7.25243112499746
 31
0.0
  0
LINE
  5
1B198
330
1B164
100
AcDbEntity
  8
0
  6
CONTINUOUS
100
AcDbLine
 10
44.99999999995498
 20
1.530950334084031
 30
0.0
 11
38.60499999996136
 21
7.925950334077647
 31
0.0
  0
LINE
  5
1B199
330
1B164
100
AcDbEntity
  8
0
  6
CONTINUOUS
100
AcDbLine
 10
44.99999999995498
 20
2.204469543164218
 30
0.0
 11
43.57899999995641
 21
3.625469543162789
 31
0.0
  0
LINE
  5
1B19A
330
1B164
100
AcDbEntity
  8
0
  6
CONTINUOUS
100
AcDbLine
 10
41.89876730984767
 20
5.305702233271528
 30
0.0
 11
38.60499999996136
 21
8.599469543157834
 31
0.0
  0
LINE
  5
1B19B
330
1B164
100
AcDbEntity
  8
0
  6
CONTINUOUS
100
AcDbLine
 10
44.99999999995498
 20
2.877988752244405
 30
0.0
 11
43.57899999995641
 21
4.298988752242975
 31
0.0
  0
LINE
  5
1B19C
330
1B164
100
AcDbEntity
  8
0
  6
CONTINUOUS
100
AcDbLine
 10
44.99999999995498
 20
3.551507961324591
 30
0.0
 11
43.57899999995641
 21
4.972507961323163
 31
0.0
  0
LINE
  5
1B19D
330
1B164
100
AcDbEntity
  8
0
  6
CONTINUOUS
100
AcDbLine
 10
44.99999999995498
 20
4.225027170404777
 30
0.0
 11
43.57899999995641
 21
5.646027170403348
 31
0.0
  0
LINE
  5
1B19E
330
1B164
100
AcDbEntity
  8
0
  6
CONTINUOUS
100
AcDbLine
 10
44.99999999995498
 20
4.898546379484964
 30
0.0
 11
43.57899999995641
 21
6.319546379483535
 31
0.0
  0
LINE
  5
1B19F
330
1B164
100
AcDbEntity
  8
0
  6
CONTINUOUS
100
AcDbLine
 10
44.99999999995498
 20
5.572065588565151
 30
0.0
 11
43.57899999995641
 21
6.993065588563722
 31
0.0
  0
LINE
  5
1B1A0
330
1B164
100
AcDbEntity
  8
0
  6
CONTINUOUS
100
AcDbLine
 10
44.99999999995498
 20
6.245584797645336
 30
0.0
 11
43.57899999995641
 21
7.666584797643908
 31
0.0
  0
LINE
  5
1B1A1
330
1B164
100
AcDbEntity
  8
0
  6
CONTINUOUS
100
AcDbLine
 10
44.99999999995498
 20
6.919104006725522
 30
0.0
 11
43.57899999995641
 21
8.340104006724093
 31
0.0
  0
LINE
  5
1B1A2
330
1B164
100
AcDbEntity
  8
0
  6
CONTINUOUS
100
AcDbLine
 10
44.99999999995498
 20
7.592623215805709
 30
0.0
 11
43.82952321576943
 21
8.763099999991255
 31
0.0
  0
LINE
  5
1B1A3
330
1B164
100
AcDbEntity
  8
0
  6
CONTINUOUS
100
AcDbLine
 10
44.99999999995498
 20
8.266142424885896
 30
0.0
 11
44.50304242484962
 21
8.763099999991255
 31
0.0
  0
ENDBLK
  5
1B1CD
330
1B164
100
AcDbEntity
  8
0
100
AcDbBlockEnd
  0
BLOCK
  5
1B1CE
330
1B1A4
100
AcDbEntity
  8
0
100
AcDbBlockBegin
  2
*X61
 70
     1
 10
0.0
 20
0.0
 30
0.0
  3
*X61
  1

  0
LINE
  5
1B1A5
330
1B1A4
100
AcDbEntity
  8
0
  6
CONTINUOUS
100
AcDbLine
 10
0.0
 20
8.548461116714023
 30
0.0
 11
0.2146388832772324
 21
8.763099999991255
 31
0.0
  0
LINE
  5
1B1A6
330
1B1A4
100
AcDbEntity
  8
0
  6
CONTINUOUS
100
AcDbLine
 10
-0.0000000000000002
 20
7.874941907633837
 30
0.0
 11
0.8881580923574184
 21
8.763099999991255
 31
0.0
  0
LINE
  5
1B1A7
330
1B1A4
100
AcDbEntity
  8
0
  6
CONTINUOUS
100
AcDbLine
 10
0.0
 20
7.20142269855365
 30
0.0
 11
1.420999999998572
 21
8.622422698552223
 31
0.0
  0
LINE
  5
1B1A8
330
1B1A4
100
AcDbEntity
  8
0
  6
CONTINUOUS
100
AcDbLine
 10
-0.0000000000000001
 20
6.527903489473465
 30
0.0
 11
1.420999999998571
 21
7.948903489472036
 31
0.0
  0
LINE
  5
1B1A9
330
1B1A4
100
AcDbEntity
  8
0
  6
CONTINUOUS
100
AcDbLine
 10
-0.0000000000000002
 20
5.854384280393278
 30
0.0
 11
1.420999999998571
 21
7.275384280391849
 31
0.0
  0
LINE
  5
1B1AA
330
1B1A4
100
AcDbEntity
  8
0
  6
CONTINUOUS
100
AcDbLine
 10
-0.0000000000000002
 20
5.180865071313091
 30
0.0
 11
1.420999999998571
 21
6.601865071311663
 31
0.0
  0
LINE
  5
1B1AB
330
1B1A4
100
AcDbEntity
  8
0
  6
CONTINUOUS
100
AcDbLine
 10
0.0
 20
4.507345862232905
 30
0.0
 11
1.420999999998571
 21
5.928345862231477
 31
0.0
  0
LINE
  5
1B1AC
330
1B1A4
100
AcDbEntity
  8
0
  6
CONTINUOUS
100
AcDbLine
 10
-0.0000000000000003
 20
3.833826653152718
 30
0.0
 11
1.420999999998571
 21
5.25482665315129
 31
0.0
  0
LINE
  5
1B1AD
330
1B1A4
100
AcDbEntity
  8
0
  6
CONTINUOUS
100
AcDbLine
 10
-0.0000000000000002
 20
3.160307444072532
 30
0.0
 11
1.420999999998571
 21
4.581307444071103
 31
0.0
  0
LINE
  5
1B1AE
330
1B1A4
100
AcDbEntity
  8
0
  6
CONTINUOUS
100
AcDbLine
 10
-0.0000000000000001
 20
2.486788234992345
 30
0.0
 11
1.420999999998571
 21
3.907788234990917
 31
0.0
  0
LINE
  5
1B1AF
330
1B1A4
100
AcDbEntity
  8
0
  6
CONTINUOUS
100
AcDbLine
 10
-0.0000000000000006
 20
1.813269025912159
 30
0.0
 11
1.420999999998571
 21
3.234269025910731
 31
0.0
  0
LINE
  5
1B1B0
330
1B1A4
100
AcDbEntity
  8
0
  6
CONTINUOUS
100
AcDbLine
 10
0.0
 20
1.139749816831973
 30
0.0
 11
1.420999999998571
 21
2.560749816830544
 31
0.0
  0
LINE
  5
1B1B1
330
1B1A4
100
AcDbEntity
  8
0
  6
CONTINUOUS
100
AcDbLine
 10
0.0000000000000002
 20
0.466230607751787
 30
0.0
 11
1.420999999998571
 21
1.887230607750358
 31
0.0
  0
LINE
  5
1B1B2
330
1B1A4
100
AcDbEntity
  8
0
  6
CONTINUOUS
100
AcDbLine
 10
0.2072886013284003
 20
-0.0000000000000009
 30
0.0
 11
1.420999999998571
 21
1.213711398670171
 31
0.0
  0
LINE
  5
1B1B3
330
1B1A4
100
AcDbEntity
  8
0
  6
CONTINUOUS
100
AcDbLine
 10
0.8808078104085864
 20
-0.0000000000000009
 30
0.0
 11
1.420999999998571
 21
0.5401921895899839
 31
0.0
  0
LINE
  5
1B1B4
330
1B1A4
100
AcDbEntity
  8
0
  6
CONTINUOUS
100
AcDbLine
 10
0.0581249075061505
 20
-0.0000000000000009
 30
0.0
 11
-0.0000000000000002
 21
0.0581249075061496
 31
0.0
  0
LINE
  5
1B1B5
330
1B1A4
100
AcDbEntity
  8
0
  6
CONTINUOUS
100
AcDbLine
 10
0.7316441165863372
 20
-0.0000000000000009
 30
0.0
 11
-0.0000000000000002
 21
0.7316441165863363
 31
0.0
  0
LINE
  5
1B1B6
330
1B1A4
100
AcDbEntity
  8
0
  6
CONTINUOUS
100
AcDbLine
 10
1.405163325666523
 20
-0.0000000000000009
 30
0.0
 11
-0.0000000000000002
 21
1.405163325666523
 31
0.0
  0
LINE
  5
1B1B7
330
1B1A4
100
AcDbEntity
  8
0
  6
CONTINUOUS
100
AcDbLine
 10
1.420999999998572
 20
0.6576825347481381
 30
0.0
 11
-0.0000000000000001
 21
2.07868253474671
 31
0.0
  0
LINE
  5
1B1B8
330
1B1A4
100
AcDbEntity
  8
0
  6
CONTINUOUS
100
AcDbLine
 10
1.420999999998571
 20
1.331201743828324
 30
0.0
 11
-0.0000000000000001
 21
2.752201743826896
 31
0.0
  0
LINE
  5
1B1B9
330
1B1A4
100
AcDbEntity
  8
0
  6
CONTINUOUS
100
AcDbLine
 10
1.420999999998571
 20
2.004720952908511
 30
0.0
 11
-0.0000000000000002
 21
3.425720952907082
 31
0.0
  0
LINE
  5
1B1BA
330
1B1A4
100
AcDbEntity
  8
0
  6
CONTINUOUS
100
AcDbLine
 10
1.420999999998571
 20
2.678240161988697
 30
0.0
 11
-0.0000000000000001
 21
4.099240161987269
 31
0.0
  0
LINE
  5
1B1BB
330
1B1A4
100
AcDbEntity
  8
0
  6
CONTINUOUS
100
AcDbLine
 10
1.420999999998572
 20
3.351759371068884
 30
0.0
 11
0.0
 21
4.772759371067455
 31
0.0
  0
LINE
  5
1B1BC
330
1B1A4
100
AcDbEntity
  8
0
  6
CONTINUOUS
100
AcDbLine
 10
1.420999999998571
 20
4.02527858014907
 30
0.0
 11
-0.0000000000000003
 21
5.446278580147642
 31
0.0
  0
LINE
  5
1B1BD
330
1B1A4
100
AcDbEntity
  8
0
  6
CONTINUOUS
100
AcDbLine
 10
1.420999999998571
 20
4.698797789229257
 30
0.0
 11
0.0
 21
6.119797789227828
 31
0.0
  0
LINE
  5
1B1BE
330
1B1A4
100
AcDbEntity
  8
0
  6
CONTINUOUS
100
AcDbLine
 10
1.420999999998571
 20
5.372316998309444
 30
0.0
 11
-0.0000000000000001
 21
6.793316998308015
 31
0.0
  0
LINE
  5
1B1BF
330
1B1A4
100
AcDbEntity
  8
0
  6
CONTINUOUS
100
AcDbLine
 10
1.420999999998572
 20
6.045836207389629
 30
0.0
 11
-0.0000000000000004
 21
7.466836207388202
 31
0.0
  0
LINE
  5
1B1C0
330
1B1A4
100
AcDbEntity
  8
0
  6
CONTINUOUS
100
AcDbLine
 10
1.420999999998571
 20
6.719355416469816
 30
0.0
 11
0.0
 21
8.140355416468388
 31
0.0
  0
LINE
  5
1B1C1
330
1B1A4
100
AcDbEntity
  8
0
  6
CONTINUOUS
100
AcDbLine
 10
1.420999999998571
 20
7.392874625550003
 30
0.0
 11
0.0507746255573185
 21
8.763099999991255
 31
0.0
  0
LINE
  5
1B1C2
330
1B1A4
100
AcDbEntity
  8
0
  6
CONTINUOUS
100
AcDbLine
 10
1.420999999998571
 20
8.06639383463019
 30
0.0
 11
0.7242938346375052
 21
8.763099999991255
 31
0.0
  0
LINE
  5
1B1C3
330
1B1A4
100
AcDbEntity
  8
0
  6
CONTINUOUS
100
AcDbLine
 10
1.420999999998571
 20
8.739913043710375
 30
0.0
 11
1.397813043717691
 21
8.763099999991255
 31
0.0
  0
ENDBLK
  5
1B1CF
330
1B1A4
100
AcDbEntity
  8
0
100
AcDbBlockEnd
  0
ENDSEC
  0
SECTION
  2
ENTITIES
  0
CIRCLE
  5
1AA72
330
18
100
AcDbEntity
  8
01
100
AcDbCircle
 10
3353.145464842632
 20
-180.1928444795992
 30
0.0000000001127424
 40
2.5
  0
LINE
  5
1AA74
330
18
100
AcDbEntity
  8
01
100
AcDbLine
 10
3000.145569182375
 20
-187.5928346837268
 30
0.0000000001127424
 11
3026.145569182375
 21
-187.5928346837268
 31
0.0000000001127424
  0
LINE
  5
1AA75
330
18
100
AcDbEntity
  8
01
100
AcDbLine
 10
3035.645569182375
 20
-182.0928346837268
 30
0.0000000001127424
 11
2990.645569182375
 21
-182.0928346837268
 31
0.0000000001127424
  0
LINE
  5
1AA76
330
18
100
AcDbEntity
  8
01
100
AcDbLine
 10
3013.145569182375
 20
-159.5928346837268
 30
0.0000000001127424
 11
3013.145569182375
 21
-204.5928346837268
 31
0.0000000001127424
  0
LINE
  5
1AA77
330
18
100
AcDbEntity
  8
01
100
AcDbLine
 10
3330.645464842632
 20
-182.0928346837268
 30
0.0000000001127424
 11
3375.645464842632
 21
-182.0928346837268
 31
0.0000000001127424
  0
LINE
  5
1AA78
330
18
100
AcDbEntity
  8
01
100
AcDbLine
 10
3353.145464842632
 20
-159.5928346837268
 30
0.0000000001127424
 11
3353.145464842632
 21
-204.5928346837268
 31
0.0000000001127424
  0
LINE
  5
1AA79
330
18
100
AcDbEntity
  8
01
100
AcDbLine
 10
3350.645573248471
 20
73.36104846702256
 30
0.0000000000564898
 11
3350.645573248471
 21
60.86102552281955
 31
0.0000000000564898
  0
LINE
  5
1AA7A
330
18
100
AcDbEntity
  8
01
100
AcDbLine
 10
3355.645573248471
 20
73.36104846702437
 30
0.0000000000564898
 11
3355.645573248471
 21
60.86102552281773
 31
0.0000000000564898
  0
LINE
  5
1AA7B
330
18
100
AcDbEntity
  8
01
100
AcDbLine
 10
3163.145573182376
 20
-162.0928346837286
 30
0.0000000001127424
 11
3163.145573182373
 21
-202.0928346837291
 31
0.0000000001127424
  0
LINE
  5
1AA7C
330
18
100
AcDbEntity
  8
01
100
AcDbLine
 10
3163.145573182376
 20
-202.0928346837291
 30
0.0000000001127424
 11
3157.345573182377
 21
-202.0928346837286
 31
0.0000000001127424
  0
ARC
  5
1AA7D
330
18
100
AcDbEntity
  8
01
100
AcDbCircle
 10
3157.345573182377
 20
-201.5928346837286
 30
0.0000000001127424
 40
0.5
100
AcDbArc
 50
180.0
 51
270.0
  0
LINE
  5
1AA7E
330
18
100
AcDbEntity
  8
01
100
AcDbLine
 10
3163.145573182376
 20
-162.0928346837286
 30
0.0000000001127424
 11
3157.345573182377
 21
-162.0928346837295
 31
0.0000000001127424
  0
ARC
  5
1AA7F
330
18
100
AcDbEntity
  8
01
100
AcDbCircle
 10
3157.345573182377
 20
-162.5928346837295
 30
0.0000000001127424
 40
0.5
100
AcDbArc
 50
90.0
 51
180.0
  0
LINE
  5
1AA80
330
18
100
AcDbEntity
  8
01
100
AcDbLine
 10
3161.645573182376
 20
-202.0928346837359
 30
0.0000000001127424
 11
3163.145573182376
 21
-202.0928346837359
 31
0.0000000001127424
  0
LINE
  5
1AA82
330
18
100
AcDbEntity
  8
01
100
AcDbLine
 10
3353.14545684263
 20
17.40716531627345
 30
0.0000000001127424
 11
3353.14545684263
 21
-9.09283468372655
 31
0.0000000001127424
  0
LINE
  5
1AA83
330
18
100
AcDbEntity
  8
01
100
AcDbLine
 10
3353.14545684263
 20
47.40716531421617
 30
0.0000000001127424
 11
3353.14545684263
 21
76.69843840585668
 31
0.0000000001127424
  0
LINE
  5
1AA86
330
18
100
AcDbEntity
  8
01
100
AcDbLine
 10
3333.145572793813
 20
12.40716531524458
 30
0.0000000001127424
 11
3373.145572793813
 21
12.40716531524527
 31
0.0000000001127424
  0
LINE
  5
1AA87
330
18
100
AcDbEntity
  8
01
100
AcDbLine
 10
3372.645572793813
 20
6.107165315244856
 30
0.0000000001127424
 11
3333.645572793813
 21
6.107165315244401
 31
0.0000000001127424
  0
CIRCLE
  5
1AA88
330
18
100
AcDbEntity
  8
01
100
AcDbCircle
 10
3353.145485604051
 20
-182.092858444415
 30
0.0000000001128561
 40
19.99999999999963
  0
LINE
  5
1AA89
330
18
100
AcDbEntity
  8
01
100
AcDbLine
 10
3333.145572793813
 20
12.40716531524458
 30
0.0000000001127424
 11
3333.145572793813
 21
6.607165315244401
 31
0.0000000001127424
  0
ARC
  5
1AA8A
330
18
100
AcDbEntity
  8
01
100
AcDbCircle
 10
3333.645572793813
 20
6.607165315244856
 30
0.0000000001127424
 40
0.5
100
AcDbArc
 50
180.0
 51
270.0
  0
CIRCLE
  5
1AA8B
330
18
100
AcDbEntity
  8
01
100
AcDbCircle
 10
3353.14548592651
 20
-187.5928582402869
 30
0.0000000001128561
 40
3.75
  0
CIRCLE
  5
1AA8C
330
18
100
AcDbEntity
  8
01
100
AcDbCircle
 10
3353.14548592651
 20
-187.5928584444148
 30
0.0000000001128561
 40
3.5000005
  0
LINE
  5
1AA8D
330
18
100
AcDbEntity
  8
01
100
AcDbLine
 10
3352.14548592651
 20
-190.9469612444148
 30
0.0000000001128561
 11
3352.14548592651
 21
-184.2387544444148
 31
0.0000000001128561
  0
LINE
  5
1AA8E
330
18
100
AcDbEntity
  8
01
100
AcDbLine
 10
3354.14548592651
 20
-190.9469612444148
 30
0.0000000001128561
 11
3354.14548592651
 21
-184.2387544444148
 31
0.0000000001128561
  0
ARC
  5
1AA8F
330
18
100
AcDbEntity
  8
01
100
AcDbCircle
 10
3353.145563251667
 20
10.25715993736958
 30
0.0000000001126288
 40
6.0
100
AcDbArc
 50
234.3146660000189
 51
256.8165180000145
  0
LINE
  5
1AA90
330
18
100
AcDbEntity
  8
01
100
AcDbLine
 10
3349.645563251667
 20
5.383759937369405
 30
0.0000000001126288
 11
3349.645563251666
 21
6.107165315244629
 31
0.0000000001126288
  0
LINE
  5
1AA91
330
18
100
AcDbEntity
  8
01
100
AcDbLine
 10
3356.645563251667
 20
5.383759937369405
 30
0.0000000001126288
 11
3356.645563251667
 21
6.107165315244629
 31
0.0000000001126288
  0
LINE
  5
1AA92
330
18
100
AcDbEntity
  8
01
100
AcDbLine
 10
3354.145563251667
 20
4.706611477967044
 30
0.0000000001126288
 11
3354.145563251667
 21
6.107165315244629
 31
0.0000000001126288
  0
ARC
  5
1AA93
330
18
100
AcDbEntity
  8
01
100
AcDbCircle
 10
3351.845560251667
 20
4.707389937369499
 30
0.0000000001126288
 40
0.30000001
100
AcDbArc
 50
256.8165180001219
 51
0.0
  0
ARC
  5
1AA94
330
18
100
AcDbEntity
  8
01
100
AcDbCircle
 10
3354.445562251667
 20
4.707389937369499
 30
0.0000000001126288
 40
0.30000001
100
AcDbArc
 50
179.9999969999697
 51
283.1834799999676
  0
LINE
  5
1AA95
330
18
100
AcDbEntity
  8
01
100
AcDbLine
 10
3352.145563251667
 20
4.707389937369499
 30
0.0000000001126288
 11
3352.145563251667
 21
6.107165315244629
 31
0.0000000001126288
  0
ARC
  5
1AA96
330
18
100
AcDbEntity
  8
01
100
AcDbCircle
 10
3353.145563251667
 20
10.25715993736958
 30
0.0000000001126288
 40
6.0
100
AcDbArc
 50
283.1834825033476
 51
305.6853299999988
  0
LINE
  5
1AA97
330
18
100
AcDbEntity
  8
01
100
AcDbLine
 10
3373.145572793813
 20
12.40716531524527
 30
0.0000000001127424
 11
3373.145572793813
 21
6.607165315244856
 31
0.0000000001127424
  0
ARC
  5
1AA98
330
18
100
AcDbEntity
  8
01
100
AcDbCircle
 10
3372.645572793813
 20
6.607165315244856
 30
0.0000000001127424
 40
0.5
100
AcDbArc
 50
270.0
 51
0.0
  0
LINE
  5
1AA99
330
18
100
AcDbEntity
  8
01
100
AcDbLine
 10
3203.145573182376
 20
-162.0928346837268
 30
0.0000000001127427
 11
3203.145573182372
 21
-202.0928346837268
 31
0.0000000001127427
  0
LINE
  5
1AA9B
330
18
100
AcDbEntity
  8
01
100
AcDbLine
 10
3000.145569182375
 20
-187.5928346837268
 30
0.0000000001127424
 11
3026.145569182375
 21
-187.5928346837268
 31
0.0000000001127424
  0
LINE
  5
1AA9C
330
18
100
AcDbEntity
  8
01
100
AcDbLine
 10
3035.645569182375
 20
-182.0928346837268
 30
0.0000000001127424
 11
2990.645569182375
 21
-182.0928346837268
 31
0.0000000001127424
  0
LINE
  5
1AA9D
330
18
100
AcDbEntity
  8
01
100
AcDbLine
 10
3013.145569182375
 20
-159.5928346837268
 30
0.0000000001127424
 11
3013.145569182375
 21
-204.5928346837268
 31
0.0000000001127424
  0
LINE
  5
1AA9F
330
18
100
AcDbEntity
  8
01
100
AcDbLine
 10
3353.14545684263
 20
47.40716531421572
 30
0.0000000001127424
 11
3353.14545684263
 21
77.0354893170736
 31
0.0000000001127424
  0
LINE
  5
1AAA1
330
18
100
AcDbEntity
  8
01
100
AcDbLine
 10
3156.845573182377
 20
-201.5928346837268
 30
0.0000000001127427
 11
3156.845573182377
 21
-162.5928346837272
 31
0.0000000001127427
  0
CIRCLE
  5
1AAA2
330
18
100
AcDbEntity
  8
01
100
AcDbCircle
 10
3013.145569182373
 20
-182.0928346837268
 30
0.0000000001127424
 40
20.00000000000007
  0
ARC
  5
1AAA3
330
18
100
AcDbEntity
  8
01
100
AcDbCircle
 10
3015.145569182375
 20
-178.5616387496327
 30
0.0000000001127424
 40
0.5000000000000013
100
AcDbArc
 50
0.0
 51
77.51311018581228
  0
ARC
  5
1AAA4
330
18
100
AcDbEntity
  8
01
100
AcDbCircle
 10
3011.145569182375
 20
-196.6240306178211
 30
0.0000000001127424
 40
0.5000000000000029
100
AcDbArc
 50
180.0
 51
257.5131101858123
  0
ARC
  5
1AAA5
330
18
100
AcDbEntity
  8
01
100
AcDbCircle
 10
3015.145569182375
 20
-196.6240306178211
 30
0.0000000001127424
 40
0.5000000000000013
100
AcDbArc
 50
282.4868898141877
 51
0.0
  0
ARC
  5
1AAA6
330
18
100
AcDbEntity
  8
01
100
AcDbCircle
 10
3013.145569182375
 20
-187.5928346837268
 30
0.0000000001127424
 40
9.749999999999995
100
AcDbArc
 50
77.51311018586458
 51
102.4868898141354
  0
ARC
  5
1AAA7
330
18
100
AcDbEntity
  8
01
100
AcDbCircle
 10
3011.145569182375
 20
-178.5616387496327
 30
0.0000000001127424
 40
0.5000000000000029
100
AcDbArc
 50
102.4868898141877
 51
180.0
  0
ARC
  5
1AAA8
330
18
100
AcDbEntity
  8
01
100
AcDbCircle
 10
3013.145569182375
 20
-187.5928346837268
 30
0.0000000001127424
 40
9.75
100
AcDbArc
 50
257.5131101858646
 51
282.4868898141354
  0
LINE
  5
1AAA9
330
18
100
AcDbEntity
  8
01
100
AcDbLine
 10
3015.645569182375
 20
-178.5616387496327
 30
0.0000000001127424
 11
3015.645569182375
 21
-196.6240306178211
 31
0.0000000001127424
  0
LINE
  5
1AAAA
330
18
100
AcDbEntity
  8
01
100
AcDbLine
 10
3010.645569182375
 20
-196.6240306178211
 30
0.0000000001127424
 11
3010.645569182375
 21
-178.5616387496327
 31
0.0000000001127424
  0
SPLINE
  5
1AAAB
330
18
100
AcDbEntity
  8
01
100
AcDbSpline
210
0.0
220
0.0
230
1.0
 70
     8
 71
     3
 72
    18
 73
    14
 74
     0
 42
0.0000000001
 43
0.0000000001
 40
0.0
 40
0.0
 40
0.0
 40
0.0
 40
0.2500000000000002
 40
0.2500000000000002
 40
0.375
 40
0.375
 40
0.4999999999999998
 40
0.4999999999999998
 40
0.6249999999999996
 40
0.6249999999999996
 40
0.7499999999999993
 40
0.7499999999999993
 40
1.0
 40
1.0
 40
1.0
 40
1.0
 10
3016.834758371564
 20
-196.6179320863241
 30
0.0000000001127424
 10
3016.641497314288
 20
-196.6969314113608
 30
0.0000000001127424
 10
3016.44917570256
 20
-196.7681989459304
 30
0.0000000001127424
 10
3016.1698502441
 20
-196.8624560571041
 30
0.0000000001127424
 10
3016.080357101592
 20
-196.8910892822917
 30
0.0000000001127424
 10
3015.9090798938
 20
-196.9434243580924
 30
0.0000000001127424
 10
3015.826430480631
 20
-196.967356523013
 30
0.0000000001127424
 10
3015.67495734119
 20
-197.0093559393597
 30
0.0000000001127424
 10
3015.606285770234
 20
-197.0274178069192
 30
0.0000000001127424
 10
3015.483917795974
 20
-197.0584889450797
 30
0.0000000001127424
 10
3015.430077559357
 20
-197.0715204776866
 30
0.0000000001127424
 10
3015.300723272127
 20
-197.1020755824472
 30
0.0000000001127424
 10
3015.253677290483
 20
-197.1122033710153
 30
0.0000000001127424
 10
3015.253677290483
 20
-197.1122033710153
 30
0.0000000001127424
  0
SPLINE
  5
1AAAC
330
18
100
AcDbEntity
  8
01
100
AcDbSpline
210
0.0
220
0.0
230
1.0
 70
     8
 71
     3
 72
    18
 73
    14
 74
     0
 42
0.0000000001
 43
0.0000000001
 40
0.0
 40
0.0
 40
0.0
 40
0.0
 40
0.2500000000000002
 40
0.2500000000000002
 40
0.3750000000000002
 40
0.3750000000000002
 40
0.5000000000000002
 40
0.5000000000000002
 40
0.6250000000000002
 40
0.6250000000000002
 40
0.7500000000000001
 40
0.7500000000000001
 40
1.0
 40
1.0
 40
1.0
 40
1.0
 10
3009.456379993186
 20
-178.5677372811294
 30
0.0000000001127424
 10
3009.649641050461
 20
-178.4887379560928
 30
0.0000000001127424
 10
3009.84196266219
 20
-178.4174704215234
 30
0.0000000001127424
 10
3010.121288120649
 20
-178.3232133103497
 30
0.0000000001127424
 10
3010.210781263158
 20
-178.2945800851619
 30
0.0000000001127424
 10
3010.382058470949
 20
-178.2422450093613
 30
0.0000000001127424
 10
3010.464707884119
 20
-178.2183128444406
 30
0.0000000001127424
 10
3010.61618102356
 20
-178.1763134280941
 30
0.0000000001127424
 10
3010.684852594516
 20
-178.1582515605346
 30
0.0000000001127424
 10
3010.807220568776
 20
-178.1271804223738
 30
0.0000000001127424
 10
3010.861060805392
 20
-178.114148889767
 30
0.0000000001127424
 10
3010.990415092623
 20
-178.0835937850065
 30
0.0000000001127424
 10
3011.037461074267
 20
-178.0734659964385
 30
0.0000000001127424
 10
3011.037461074267
 20
-178.0734659964385
 30
0.0000000001127424
  0
SPLINE
  5
1AAAD
330
18
100
AcDbEntity
  8
01
100
AcDbSpline
210
0.0
220
0.0
230
1.0
 70
     8
 71
     3
 72
    16
 73
    12
 74
     0
 42
0.0000000001
 43
0.0000000001
 40
0.0
 40
0.0
 40
0.0
 40
0.0
 40
0.1249999999999998
 40
0.1249999999999998
 40
0.2499999999999997
 40
0.2499999999999997
 40
0.4999999999999998
 40
0.4999999999999998
 40
0.7499999999999999
 40
0.7499999999999999
 40
1.0
 40
1.0
 40
1.0
 40
1.0
 10
3011.037461074267
 20
-197.1122033710153
 30
0.0000000001127424
 10
3011.037461074267
 20
-197.1122033710153
 30
0.0000000001127424
 10
3011.02604555214
 20
-197.1096954150244
 30
0.0000000001127424
 10
3010.981612495799
 20
-197.0996906338642
 30
0.0000000001127424
 10
3010.947916895246
 20
-197.0920339688146
 30
0.0000000001127424
 10
3010.818569573784
 20
-197.061489464282
 30
0.0000000001127424
 10
3010.692113693477
 20
-197.0303893105049
 30
0.0000000001127424
 10
3010.391167492481
 20
-196.9469863021334
 30
0.0000000001127424
 10
3010.214374057715
 20
-196.8938373726107
 30
0.0000000001127424
 10
3009.844677785711
 20
-196.7691450460072
 30
0.0000000001127424
 10
3009.649606627477
 20
-196.6969173402765
 30
0.0000000001127424
 10
3009.456379993186
 20
-196.6179320863241
 30
0.0000000001127424
  0
SPLINE
  5
1AAAE
330
18
100
AcDbEntity
  8
01
100
AcDbSpline
210
0.0
220
0.0
230
1.0
 70
     8
 71
     3
 72
    16
 73
    12
 74
     0
 42
0.0000000001
 43
0.0000000001
 40
0.0
 40
0.0
 40
0.0
 40
0.0
 40
0.1249999999999997
 40
0.1249999999999997
 40
0.2499999999999993
 40
0.2499999999999993
 40
0.4999999999999996
 40
0.4999999999999996
 40
0.7499999999999998
 40
0.7499999999999998
 40
1.0
 40
1.0
 40
1.0
 40
1.0
 10
3015.253677290483
 20
-178.0734659964385
 30
0.0000000001127424
 10
3015.253677290483
 20
-178.0734659964385
 30
0.0000000001127424
 10
3015.26509281261
 20
-178.0759739524294
 30
0.0000000001127424
 10
3015.309525868951
 20
-178.0859787335896
 30
0.0000000001127424
 10
3015.343221469504
 20
-178.0936353986392
 30
0.0000000001127424
 10
3015.472568790966
 20
-178.1241799031718
 30
0.0000000001127424
 10
3015.599024671273
 20
-178.1552800569486
 30
0.0000000001127424
 10
3015.899970872269
 20
-178.2386830653202
 30
0.0000000001127424
 10
3016.076764307036
 20
-178.2918319948428
 30
0.0000000001127424
 10
3016.446460579039
 20
-178.4165243214463
 30
0.0000000001127424
 10
3016.641531737273
 20
-178.488752027177
 30
0.0000000001127424
 10
3016.834758371564
 20
-178.5677372811294
 30
0.0000000001127424
  0
ARC
  5
1AAAF
330
18
100
AcDbEntity
  8
01
100
AcDbCircle
 10
3013.145569182375
 20
-187.5928346837268
 30
0.0000000001127424
 40
9.750000000000005
100
AcDbArc
 50
112.2332717982963
 51
247.7667282017037
  0
ARC
  5
1AAB0
330
18
100
AcDbEntity
  8
01
100
AcDbCircle
 10
3013.145569182375
 20
-187.5928346837268
 30
0.0000000001127424
 40
9.750000000000009
100
AcDbArc
 50
292.2332717982963
 51
67.7667282017037
  0
CIRCLE
  5
1AAB1
330
18
100
AcDbEntity
  8
01
100
AcDbCircle
 10
3013.145569182375
 20
-187.5928346837268
 30
0.0000000001127424
 40
10.3
  0
SPLINE
  5
1AAB2
330
18
100
AcDbEntity
  8
01
100
AcDbSpline
210
0.0
220
0.0
230
1.0
 70
    24
 71
     1
 72
     4
 73
     2
 74
     0
 42
0.0000000001
 43
0.0000000001
 40
0.1160848018737504
 40
0.1160848018737504
 40
1.0
 40
1.0
 10
3156.845573182377
 20
-197.3428346837341
 30
0.0000000001127427
 10
3142.145548371364
 20
-197.3428346837341
 30
0.0000000001127427
  0
SPLINE
  5
1AAB3
330
18
100
AcDbEntity
  8
01
100
AcDbSpline
210
0.0
220
0.0
230
1.0
 70
    24
 71
     1
 72
     4
 73
     2
 74
     0
 42
0.0000000001
 43
0.0000000001
 40
0.0
 40
0.0
 40
0.8839151981262495
 40
0.8839151981262495
 10
3142.145548371364
 20
-177.8428346837341
 30
0.0000000001127427
 10
3156.845573182376
 20
-177.8428346837341
 30
0.0000000001127427
  0
ARC
  5
1AAB4
330
18
100
AcDbEntity
  8
01
100
AcDbCircle
 10
3142.145548371364
 20
-196.3428346837341
 30
0.0000000001127427
 40
1.0
100
AcDbArc
 50
180.0
 51
270.0
  0
ARC
  5
1AAB5
330
18
100
AcDbEntity
  8
01
100
AcDbCircle
 10
3142.145548371364
 20
-178.8428346837341
 30
0.0000000001127427
 40
1.0
100
AcDbArc
 50
90.0
 51
180.0
  0
LINE
  5
1AAB6
330
18
100
AcDbEntity
  8
01
100
AcDbLine
 10
3155.645548371364
 20
-179.0305627889622
 30
0.0000000001127427
 11
3155.645548371364
 21
-196.1551065785059
 31
0.0000000001127427
  0
SPLINE
  5
1AAB7
330
18
100
AcDbEntity
  8
01
100
AcDbSpline
210
0.0
220
0.0
230
1.0
 70
     8
 71
     3
 72
    14
 73
    10
 74
     0
 42
0.0000000001
 43
0.0000000001
 40
0.0
 40
0.0
 40
0.0
 40
0.0
 40
0.25
 40
0.25
 40
0.5
 40
0.5
 40
0.75
 40
0.75
 40
1.0
 40
1.0
 40
1.0
 40
1.0
 10
3154.645548371364
 20
-178.56163874964
 30
0.0000000001127427
 10
3154.785516049117
 20
-178.56163874964
 30
0.0000000001127427
 10
3154.923937323262
 20
-178.5712747049467
 30
0.0000000001127427
 10
3155.173987663217
 20
-178.6103556138883
 30
0.0000000001127427
 10
3155.286305226046
 20
-178.640161748762
 30
0.0000000001127427
 10
3155.467352597133
 20
-178.7210814855459
 30
0.0000000001127427
 10
3155.535153233437
 20
-178.7714710217376
 30
0.0000000001127427
 10
3155.62477214998
 20
-178.8908406107523
 30
0.0000000001127427
 10
3155.645548371364
 20
-178.9576400614637
 30
0.0000000001127427
 10
3155.645548371364
 20
-179.0305627889622
 30
0.0000000001127427
  0
SPLINE
  5
1AAB8
330
18
100
AcDbEntity
  8
01
100
AcDbSpline
210
0.0
220
0.0
230
1.0
 70
     8
 71
     3
 72
    14
 73
    10
 74
     0
 42
0.0000000001
 43
0.0000000001
 40
0.0
 40
0.0
 40
0.0
 40
0.0
 40
0.25
 40
0.25
 40
0.5
 40
0.5
 40
0.75
 40
0.75
 40
1.0
 40
1.0
 40
1.0
 40
1.0
 10
3155.645548371364
 20
-196.1551065785059
 30
0.0000000001127427
 10
3155.645548371364
 20
-196.2280232656403
 30
0.0000000001127427
 10
3155.624187964103
 20
-196.2958079615012
 30
0.0000000001127427
 10
3155.535048772427
 20
-196.4141348354649
 30
0.0000000001127427
 10
3155.466116142273
 20
-196.4652476902331
 30
0.0000000001127427
 10
3155.286068701907
 20
-196.5455052823868
 30
0.0000000001127427
 10
3155.173363028412
 20
-196.5754681020933
 30
0.0000000001127427
 10
3154.922792414792
 20
-196.6145164776274
 30
0.0000000001127427
 10
3154.785406265474
 20
-196.6240306178283
 30
0.0000000001127427
 10
3154.645548371364
 20
-196.6240306178283
 30
0.0000000001127427
  0
LINE
  5
1AAB9
330
18
100
AcDbEntity
  8
01
100
AcDbLine
 10
3154.645548371364
 20
-196.6240306178283
 30
0.0000000001127427
 11
3142.145548371364
 21
-196.6240306178283
 31
0.0000000001127427
  0
LINE
  5
1AABA
330
18
100
AcDbEntity
  8
01
100
AcDbLine
 10
3142.145548371364
 20
-178.56163874964
 30
0.0000000001127427
 11
3154.645548371364
 21
-178.56163874964
 31
0.0000000001127427
  0
SPLINE
  5
1AABB
330
18
100
AcDbEntity
  8
01
100
AcDbSpline
210
0.0
220
0.0
230
1.0
 70
     8
 71
     3
 72
    14
 73
    10
 74
     0
 42
0.0000000001
 43
0.0000000001
 40
0.0
 40
0.0
 40
0.0
 40
0.0
 40
0.2500000000000001
 40
0.2500000000000001
 40
0.5000000000000002
 40
0.5000000000000002
 40
0.7500000000000003
 40
0.7500000000000003
 40
1.0
 40
1.0
 40
1.0
 40
1.0
 10
3142.145548371364
 20
-178.56163874964
 30
0.0000000001127427
 10
3142.008339456436
 20
-178.56163874964
 30
0.0000000001127427
 10
3141.873335910925
 20
-178.573013559735
 30
0.0000000001127427
 10
3141.625999452272
 20
-178.6159684270553
 30
0.0000000001127427
 10
3141.515498022906
 20
-178.6472127541599
 30
0.0000000001127427
 10
3141.333304349379
 20
-178.7243982715511
 30
0.0000000001127427
 10
3141.264311246993
 20
-178.7687388868105
 30
0.0000000001127427
 10
3141.169543708507
 20
-178.8667205381887
 30
0.0000000001127427
 10
3141.145548371364
 20
-178.9192139612055
 30
0.0000000001127427
 10
3141.145548371364
 20
-178.9723648589509
 30
0.0000000001127427
  0
SPLINE
  5
1AABC
330
18
100
AcDbEntity
  8
01
100
AcDbSpline
210
0.0
220
0.0
230
1.0
 70
     8
 71
     3
 72
    14
 73
    10
 74
     0
 42
0.0000000001
 43
0.0000000001
 40
0.0
 40
0.0
 40
0.0
 40
0.0
 40
0.2500000000000001
 40
0.2500000000000001
 40
0.5000000000000002
 40
0.5000000000000002
 40
0.7500000000000003
 40
0.7500000000000003
 40
1.0
 40
1.0
 40
1.0
 40
1.0
 10
3142.145548371364
 20
-196.6240306178283
 30
0.0000000001127427
 10
3142.008339456436
 20
-196.6240306178283
 30
0.0000000001127427
 10
3141.873335910925
 20
-196.6126558077331
 30
0.0000000001127427
 10
3141.625999452272
 20
-196.5697009404128
 30
0.0000000001127427
 10
3141.515498022906
 20
-196.5384566133082
 30
0.0000000001127427
 10
3141.333304349379
 20
-196.461271095917
 30
0.0000000001127427
 10
3141.264311246993
 20
-196.4169304806576
 30
0.0000000001127427
 10
3141.169543708507
 20
-196.3189488292794
 30
0.0000000001127427
 10
3141.145548371364
 20
-196.2664554062628
 30
0.0000000001127427
 10
3141.145548371364
 20
-196.2133045085175
 30
0.0000000001127427
  0
LINE
  5
1AABD
330
18
100
AcDbEntity
  8
01
100
AcDbLine
 10
3141.145548371364
 20
-178.9723648589509
 30
0.0000000001127427
 11
3141.145548371364
 21
-196.2133045085175
 31
0.0000000001127427
  0
LINE
  5
1AABE
330
18
100
AcDbEntity
  8
01
100
AcDbLine
 10
3141.145548371364
 20
-196.2133045085175
 30
0.0000000001127427
 11
3141.145548371364
 21
-196.3428346837341
 31
0.0000000001127427
  0
LINE
  5
1AABF
330
18
100
AcDbEntity
  8
01
100
AcDbLine
 10
3333.645572926019
 20
58.70716531524454
 30
0.0000000001127424
 11
3372.645572926019
 21
58.70716531524477
 31
0.0000000001127424
  0
LINE
  5
1AAC0
330
18
100
AcDbEntity
  8
01
100
AcDbLine
 10
3373.145572926019
 20
52.40716531524458
 30
0.0000000001127424
 11
3333.145572926019
 21
52.40716531524413
 31
0.0000000001127424
  0
LINE
  5
1AAC1
330
18
100
AcDbEntity
  8
01
100
AcDbLine
 10
3373.145572926019
 20
52.40716531524458
 30
0.0000000001127424
 11
3373.145572926019
 21
58.20716531524477
 31
0.0000000001127424
  0
ARC
  5
1AAC2
330
18
100
AcDbEntity
  8
01
100
AcDbCircle
 10
3372.645572926019
 20
58.20716531524454
 30
0.0000000001127424
 40
0.5
100
AcDbArc
 50
0.0
 51
90.0
  0
LINE
  5
1AAC3
330
18
100
AcDbEntity
  8
01
100
AcDbLine
 10
3333.145572926019
 20
52.40716531524413
 30
0.0000000001127424
 11
3333.145572926019
 21
58.20716531524454
 31
0.0000000001127424
  0
ARC
  5
1AAC4
330
18
100
AcDbEntity
  8
01
100
AcDbCircle
 10
3333.645572926019
 20
58.20716531524454
 30
0.0000000001127424
 40
0.5
100
AcDbArc
 50
90.0
 51
180.0
  0
LINE
  5
1AAC5
330
18
100
AcDbEntity
  8
01
100
AcDbLine
 10
3349.645585147232
 20
59.90716198204427
 30
0.0000000000565071
 11
3343.895585147226
 21
59.90716198204541
 31
0.0000000000565071
  0
LINE
  5
1AAC6
330
18
100
AcDbEntity
  8
01
100
AcDbLine
 10
3350.645585147234
 20
73.40718492625092
 30
0.0000000000565071
 11
3350.645585147232
 21
60.90716198204427
 31
0.0000000000565071
  0
LINE
  5
1AAC7
330
18
100
AcDbEntity
  8
01
100
AcDbLine
 10
3355.645585147234
 20
73.4071849262491
 30
0.0000000000565071
 11
3355.645585147234
 21
60.90716198204609
 31
0.0000000000565071
  0
ARC
  5
1AAC8
330
18
100
AcDbEntity
  8
01
100
AcDbCircle
 10
3354.645585147235
 20
73.40718492625092
 30
0.0000000000565071
 40
1.0
100
AcDbArc
 50
0.0000000000521102
 51
90.0
  0
ARC
  5
1AAC9
330
18
100
AcDbEntity
  8
01
100
AcDbCircle
 10
3351.645585147235
 20
73.40718492625092
 30
0.0000000000565071
 40
1.0
100
AcDbArc
 50
90.0
 51
180.0
  0
LINE
  5
1AACA
330
18
100
AcDbEntity
  8
01
100
AcDbLine
 10
3354.645585147234
 20
74.40718492625274
 30
0.0000000000565071
 11
3351.645585147235
 21
74.40718492625274
 31
0.0000000000565071
  0
LINE
  5
1AACB
330
18
100
AcDbEntity
  8
01
100
AcDbLine
 10
3362.395585147226
 20
59.90716198204609
 30
0.0000000000565071
 11
3356.645585147234
 21
59.90716198204609
 31
0.0000000000565071
  0
ARC
  5
1AACC
330
18
100
AcDbEntity
  8
01
100
AcDbCircle
 10
3356.645585147235
 20
60.90716198204609
 30
0.0000000000565071
 40
1.0
100
AcDbArc
 50
180.0
 51
270.0
  0
ARC
  5
1AACD
330
18
100
AcDbEntity
  8
01
100
AcDbCircle
 10
3349.645585147233
 20
60.90716198204427
 30
0.0000000000565071
 40
1.0
100
AcDbArc
 50
270.0
 51
0.0
  0
LINE
  5
1AACE
330
18
100
AcDbEntity
  8
01
100
AcDbLine
 10
3343.395585147226
 20
59.40716198204564
 30
0.0000000001127646
 11
3343.395585147226
 21
58.70716531524477
 31
0.0000000001127424
  0
ARC
  5
1AACF
330
18
100
AcDbEntity
  8
01
100
AcDbCircle
 10
3343.895585147226
 20
59.40716198204564
 30
0.0000000001127646
 40
0.5
100
AcDbArc
 50
90.0
 51
180.0
  0
LINE
  5
1AAD0
330
18
100
AcDbEntity
  8
01
100
AcDbLine
 10
3362.895585147226
 20
59.40716198204564
 30
0.0000000001127646
 11
3362.895585147226
 21
58.70716531524477
 31
0.0000000001127424
  0
ARC
  5
1AAD1
330
18
100
AcDbEntity
  8
01
100
AcDbCircle
 10
3362.395585147226
 20
59.40716198204564
 30
0.0000000001127646
 40
0.5
100
AcDbArc
 50
0.0
 51
90.0
  0
LINE
  5
1AAD3
330
18
100
AcDbEntity
  8
01
100
AcDbLine
 10
3209.445573182376
 20
-201.592829819537
 30
0.0000000000564849
 11
3209.445573182376
 21
-162.5928298195374
 31
0.0000000000564849
  0
LINE
  5
1AAD4
330
18
100
AcDbEntity
  8
01
100
AcDbLine
 10
3203.145573182372
 20
-202.0928298195372
 30
0.0000000000564849
 11
3208.945573182376
 21
-202.092829819537
 31
0.0000000000564849
  0
ARC
  5
1AAD5
330
18
100
AcDbEntity
  8
01
100
AcDbCircle
 10
3208.945573182376
 20
-201.592829819537
 30
0.0000000000564849
 40
0.5
100
AcDbArc
 50
270.0
 51
0.0
  0
LINE
  5
1AAD6
330
18
100
AcDbEntity
  8
01
100
AcDbLine
 10
3203.145573182376
 20
-162.092829819537
 30
0.0000000000564849
 11
3208.945573182376
 21
-162.0928298195374
 31
0.0000000000564849
  0
ARC
  5
1AAD7
330
18
100
AcDbEntity
  8
01
100
AcDbCircle
 10
3208.945573182376
 20
-162.5928298195374
 30
0.0000000000564849
 40
0.5
100
AcDbArc
 50
0.0
 51
90.0
  0
LINE
  5
1AAD8
330
18
100
AcDbEntity
  8
01
100
AcDbLine
 10
3210.187556871337
 20
-184.0928333627885
 30
0.0000000001127388
 11
3209.445573182375
 21
-184.0928333627887
 31
0.0000000001127388
  0
LINE
  5
1AAD9
330
18
100
AcDbEntity
  8
01
100
AcDbLine
 10
3210.187556871337
 20
-191.0928333627885
 30
0.0000000001127388
 11
3209.445573182375
 21
-191.0928333627885
 31
0.0000000001127388
  0
ARC
  5
1AADA
330
18
100
AcDbEntity
  8
01
100
AcDbCircle
 10
3205.314156871336
 20
-187.5928333627885
 30
0.0000000001127388
 40
6.0
100
AcDbArc
 50
324.3146699999868
 51
35.68533471265081
  0
LINE
  5
1AAE0
330
18
100
AcDbEntity
  8
01
100
AcDbLine
 10
3297.14545684263
 20
-159.592834683727
 30
0.0000000001127424
 11
3311.14545684263
 21
-159.592834683727
 31
0.0000000001127424
  0
LINE
  5
1AAE1
330
18
100
AcDbEntity
  8
01
100
AcDbLine
 10
3302.14634102469
 20
52.40716531524436
 30
0.0000000001127424
 11
3455.900721179722
 21
52.40716531524436
 31
0.0000000001127424
  0
LINE
  5
1AAE2
330
18
100
AcDbEntity
  8
01
  6
BYBLOCK
100
AcDbLine
 10
3302.14634102469
 20
52.40716531524436
 30
0.0000000001127424
 11
3302.14634102469
 21
12.40716531524436
 31
0.0000000001127424
  0
LINE
  5
1AAE6
330
18
100
AcDbEntity
  8
01
100
AcDbLine
 10
3353.145456842628
 20
47.40716531421572
 30
0.0000000001127424
 11
3353.145456842628
 21
78.32524550346466
 31
0.0000000001127424
  0
LINE
  5
1AAE7
330
18
100
AcDbEntity
  8
01
100
AcDbLine
 10
3328.14545684263
 20
52.40716531524527
 30
0.0000000001127424
 11
3378.14545684263
 21
52.40716531524299
 31
0.0000000001127424
  0
LINE
  5
1AAE8
330
18
100
AcDbEntity
  8
01
100
AcDbLine
 10
3328.645456842626
 20
60.90716531524527
 30
0.0000000001127424
 11
3350.645573248471
 21
60.90716531524345
 31
0.0000000001127424
  0
LINE
  5
1AAE9
330
18
100
AcDbEntity
  8
01
100
AcDbLine
 10
3355.645573248471
 20
60.90716531524322
 30
0.0000000001127424
 11
3377.64545684263
 21
60.90716531524163
 31
0.0000000001127424
  0
LINE
  5
1AAEA
330
18
100
AcDbEntity
  8
01
100
AcDbLine
 10
3378.14545684263
 20
52.40716531524299
 30
0.0000000001127424
 11
3378.14545684263
 21
60.40716531524163
 31
0.0000000001127424
  0
ARC
  5
1AAEB
330
18
100
AcDbEntity
  8
01
100
AcDbCircle
 10
3377.64545684263
 20
60.40716531524163
 30
0.0000000001127424
 40
0.5
100
AcDbArc
 50
0.0
 51
90.0
  0
LINE
  5
1AAEC
330
18
100
AcDbEntity
  8
01
100
AcDbLine
 10
3328.14545684263
 20
52.40716531524527
 30
0.0000000001127424
 11
3328.145456842626
 21
60.40716531524481
 31
0.0000000001127424
  0
ARC
  5
1AAED
330
18
100
AcDbEntity
  8
01
100
AcDbCircle
 10
3328.645456842626
 20
60.40716531524527
 30
0.0000000001127424
 40
0.5
100
AcDbArc
 50
90.0
 51
180.0
  0
LINE
  5
1AAEE
330
18
100
AcDbEntity
  8
01
  6
BYBLOCK
100
AcDbLine
 10
3303.64545684263
 20
-151.6928346837269
 30
0.0000000001127424
 11
3303.64545684263
 21
-281.4928346837269
 31
0.0000000001127424
  0
LINE
  5
1AAEF
330
18
100
AcDbEntity
  8
01
  6
BYBLOCK
100
AcDbLine
 10
3303.64545684263
 20
-280.592834683727
 30
0.0000000001127424
 11
3306.14545684263
 21
-280.592834683727
 31
0.0000000001127424
  0
LINE
  5
1AAF0
330
18
100
AcDbEntity
  8
01
  6
BYBLOCK
100
AcDbLine
 10
3306.14545684263
 20
-280.592834683727
 30
0.0000000001127424
 11
3306.14545684263
 21
-264.0898909585746
 31
0.0000000001127424
  0
LINE
  5
1AAF1
330
18
100
AcDbEntity
  8
01
  6
BYBLOCK
100
AcDbLine
 10
3302.14545684263
 20
-151.6928346837269
 30
0.0000000001127424
 11
3302.14545684263
 21
-281.4928346837269
 31
0.0000000001127424
  0
LINE
  5
1AAF2
330
18
100
AcDbEntity
  8
01
  6
BYBLOCK
100
AcDbLine
 10
3302.14545684263
 20
-281.4928346837269
 30
0.0000000001127424
 11
3303.64545684263
 21
-281.4928346837269
 31
0.0000000001127424
  0
LINE
  5
1AAF3
330
18
100
AcDbEntity
  8
01
  6
BYBLOCK
100
AcDbLine
 10
3303.64545684263
 20
-152.592834683727
 30
0.0000000001127424
 11
3306.14545684263
 21
-152.592834683727
 31
0.0000000001127424
  0
LINE
  5
1AAF4
330
18
100
AcDbEntity
  8
01
  6
BYBLOCK
100
AcDbLine
 10
3302.14545684263
 20
-151.6928346837269
 30
0.0000000001127424
 11
3303.64545684263
 21
-151.6928346837269
 31
0.0000000001127424
  0
LINE
  5
1AAF5
330
18
100
AcDbEntity
  8
01
  6
BYBLOCK
100
AcDbLine
 10
3303.64545684263
 20
-176.592834683727
 30
0.0000000001127424
 11
3304.84545684263
 21
-176.592834683727
 31
0.0000000001127424
  0
LINE
  5
1AAF6
330
18
100
AcDbEntity
  8
01
  6
BYBLOCK
100
AcDbLine
 10
3304.84545684263
 20
-170.8928346837267
 30
0.0000000001127424
 11
3304.84545684263
 21
-262.2928346837268
 31
0.0000000001127424
  0
LINE
  5
1AAF7
330
18
100
AcDbEntity
  8
01
  6
BYBLOCK
100
AcDbLine
 10
3304.94545684263
 20
-280.592834683727
 30
0.0000000001127424
 11
3304.94545684263
 21
-263.9928346837269
 31
0.0000000001127424
  0
LINE
  5
1AAF8
330
18
100
AcDbEntity
  8
01
  6
BYBLOCK
100
AcDbLine
 10
3304.94545684263
 20
-263.9928346837269
 30
0.0000000001127424
 11
3303.996928705205
 21
-263.044306546303
 31
0.0000000001127424
  0
LINE
  5
1AAF9
330
18
100
AcDbEntity
  8
01
  6
BYBLOCK
100
AcDbLine
 10
3305.793984980053
 20
-263.2413628211507
 30
0.0000000001127424
 11
3304.84545684263
 21
-262.2928346837268
 31
0.0000000001127424
  0
ARC
  5
1AAFA
330
18
100
AcDbEntity
  8
01
  6
BYBLOCK
100
AcDbCircle
 10
3304.94545684263
 20
-264.0898909585746
 30
0.0000000001127424
 40
1.2
100
AcDbArc
 50
0.0
 51
45.00000000004606
  0
ARC
  5
1AAFB
330
18
100
AcDbEntity
  8
01
  6
BYBLOCK
100
AcDbCircle
 10
3304.84545684263
 20
-262.1957784088791
 30
0.0000000001127424
 40
1.2
100
AcDbArc
 50
180.0
 51
225.000000000046
  0
LINE
  5
1AAFC
330
18
100
AcDbEntity
  8
01
  6
BYBLOCK
100
AcDbLine
 10
3306.14545684263
 20
-152.592834683727
 30
0.0000000001127424
 11
3306.14545684263
 21
-169.0957784088791
 31
0.0000000001127424
  0
LINE
  5
1AAFD
330
18
100
AcDbEntity
  8
01
  6
BYBLOCK
100
AcDbLine
 10
3304.94545684263
 20
-152.592834683727
 30
0.0000000001127424
 11
3304.94545684263
 21
-169.1928346837269
 31
0.0000000001127424
  0
LINE
  5
1AAFE
330
18
100
AcDbEntity
  8
01
  6
BYBLOCK
100
AcDbLine
 10
3304.94545684263
 20
-169.1928346837269
 30
0.0000000001127424
 11
3303.996928705205
 21
-170.1413628211508
 31
0.0000000001127424
  0
LINE
  5
1AAFF
330
18
100
AcDbEntity
  8
01
  6
BYBLOCK
100
AcDbLine
 10
3305.793984980053
 20
-169.9443065463031
 30
0.0000000001127424
 11
3304.84545684263
 21
-170.892834683727
 31
0.0000000001127424
  0
ARC
  5
1AB00
330
18
100
AcDbEntity
  8
01
  6
BYBLOCK
100
AcDbCircle
 10
3304.94545684263
 20
-169.0957784088791
 30
0.0000000001127424
 40
1.2
100
AcDbArc
 50
314.999999999954
 51
0.0
  0
ARC
  5
1AB01
330
18
100
AcDbEntity
  8
01
  6
BYBLOCK
100
AcDbCircle
 10
3304.84545684263
 20
-170.9898909585747
 30
0.0000000001127424
 40
1.2
100
AcDbArc
 50
134.9999999999539
 51
180.0
  0
CIRCLE
  5
1AB02
330
18
100
AcDbEntity
  8
1HIDDEN
100
AcDbCircle
 10
3353.14545684263
 20
-187.592834683727
 30
0.0000000001127424
 40
4.75
  0
LINE
  5
1AB03
330
18
100
AcDbEntity
  8
01
  6
BYBLOCK
100
AcDbLine
 10
3304.84545684263
 20
-253.5928346837272
 30
0.0000000001127424
 11
3333.936084130331
 21
-253.592834683727
 31
0.0000000001127424
  0
ARC
  5
1AB04
330
18
100
AcDbEntity
  8
01
  6
BYBLOCK
100
AcDbCircle
 10
3305.24634102469
 20
35.96841585824427
 30
0.0000000001127424
 40
1.6
100
AcDbArc
 50
115.944479772022
 51
180.0
  0
ARC
  5
1AB05
330
18
100
AcDbEntity
  8
01
  6
BYBLOCK
100
AcDbCircle
 10
3305.24634102469
 20
28.84591477224444
 30
0.0000000001127424
 40
1.6
100
AcDbArc
 50
180.0
 51
244.055520227978
  0
ARC
  5
1AB06
330
18
100
AcDbEntity
  8
01
  6
BYBLOCK
100
AcDbCircle
 10
3304.546341024689
 20
27.56841585824441
 30
0.0000000001127424
 40
1.6
100
AcDbArc
 50
0.0
 51
64.05552022797804
  0
ARC
  5
1AB07
330
18
100
AcDbEntity
  8
01
  6
BYBLOCK
100
AcDbCircle
 10
3304.546341024689
 20
37.2459147722443
 30
0.0000000001127424
 40
1.6
100
AcDbArc
 50
295.944479772022
 51
0.0
  0
LINE
  5
1AB08
330
18
100
AcDbEntity
  8
01
  6
BYBLOCK
100
AcDbLine
 10
3306.14634102469
 20
37.2459147722443
 30
0.0000000001127424
 11
3306.14634102469
 21
44.6071653152444
 31
0.0000000001127424
  0
LINE
  5
1AB09
330
18
100
AcDbEntity
  8
01
  6
BYBLOCK
100
AcDbLine
 10
3305.24634102469
 20
29.00716531524427
 30
0.0000000001127424
 11
3305.24634102469
 21
35.80716531524445
 31
0.0000000001127424
  0
LINE
  5
1AB0A
330
18
100
AcDbEntity
  8
01
  6
BYBLOCK
100
AcDbLine
 10
3306.14634102469
 20
20.40716531524436
 30
0.0000000001127424
 11
3306.14634102469
 21
27.56841585824441
 31
0.0000000001127424
  0
LINE
  5
1AB0B
330
18
100
AcDbEntity
  8
01
  6
BYBLOCK
100
AcDbLine
 10
3304.546341024689
 20
37.40716531524436
 30
0.0000000001127424
 11
3304.54634102469
 21
44.6071653152444
 31
0.0000000001127424
  0
LINE
  5
1AB0C
330
18
100
AcDbEntity
  8
01
  6
BYBLOCK
100
AcDbLine
 10
3304.546341024689
 20
27.40716531524436
 30
0.0000000001127424
 11
3304.546341024689
 21
20.30716531524445
 31
0.0000000001127424
  0
ARC
  5
1AB0D
330
18
100
AcDbEntity
  8
01
  6
BYBLOCK
100
AcDbCircle
 10
3369.546341024689
 20
40.30716531524445
 30
0.0000000001127424
 40
1.6
100
AcDbArc
 50
0.0
 51
90.0
  0
LINE
  5
1AB0E
330
18
100
AcDbEntity
  8
01
  6
BYBLOCK
100
AcDbLine
 10
3303.64634102469
 20
44.80716531524445
 30
0.0000000001127424
 11
3303.64634102469
 21
20.00716531524449
 31
0.0000000001127424
  0
LINE
  5
1AB0F
330
18
100
AcDbEntity
  8
01
  6
BYBLOCK
100
AcDbLine
 10
3369.546341024689
 20
41.90716531524436
 30
0.0000000001127424
 11
3306.14634102469
 21
41.90716531524436
 31
0.0000000001127424
  0
LINE
  5
1AB10
330
18
100
AcDbEntity
  8
01
  6
BYBLOCK
100
AcDbLine
 10
3369.546341024689
 20
24.70716531524431
 30
0.0000000001127424
 11
3369.546341024689
 21
41.90716531524436
 31
0.0000000001127424
  0
LINE
  5
1AB11
330
18
100
AcDbEntity
  8
01
  6
BYBLOCK
100
AcDbLine
 10
3371.14634102469
 20
23.1071653152444
 30
0.0000000001127424
 11
3371.14634102469
 21
40.30716531524445
 31
0.0000000001127424
  0
LINE
  5
1AB12
330
18
100
AcDbEntity
  8
01
  6
BYBLOCK
100
AcDbLine
 10
3303.64634102469
 20
44.6071653152444
 30
0.0000000001127424
 11
3306.14634102469
 21
44.6071653152444
 31
0.0000000001127424
  0
LINE
  5
1AB13
330
18
100
AcDbEntity
  8
01
  6
BYBLOCK
100
AcDbLine
 10
3306.14634102469
 20
20.40716531524436
 30
0.0000000001127424
 11
3304.546341024689
 21
20.40716531524436
 31
0.0000000001127424
  0
LINE
  5
1AB14
330
18
100
AcDbEntity
  8
01
  6
BYBLOCK
100
AcDbLine
 10
3304.546341024689
 20
20.30716531524445
 30
0.0000000001127424
 11
3303.64634102469
 21
20.30716531524445
 31
0.0000000001127424
  0
ARC
  5
1AB15
330
18
100
AcDbEntity
  8
01
  6
BYBLOCK
100
AcDbCircle
 10
3300.846935952089
 20
26.70716531524499
 30
0.0000000001127424
 40
0.3000000000000051
100
AcDbArc
 50
232.8678058729389
 51
270.0
  0
LINE
  5
1AB16
330
18
100
AcDbEntity
  8
01
  6
BYBLOCK
100
AcDbLine
 10
3301.64634102469
 20
26.40716531524504
 30
0.0000000001127424
 11
3300.846935952089
 21
26.40716531524504
 31
0.0000000001127424
  0
LINE
  5
1AB17
330
18
100
AcDbEntity
  8
01
  6
BYBLOCK
100
AcDbLine
 10
3291.24634102469
 20
36.08015418144919
 30
0.0000000001127424
 11
3291.24634102469
 21
35.90953212590011
 31
0.0000000001127424
  0
ARC
  5
1AB18
330
18
100
AcDbEntity
  8
01
  6
BYBLOCK
100
AcDbCircle
 10
3291.546341024689
 20
35.90953212590011
 30
0.0000000001127424
 40
0.3
100
AcDbArc
 50
180.0
 51
217.7405295629614
  0
ARC
  5
1AB19
330
18
100
AcDbEntity
  8
01
  6
BYBLOCK
100
AcDbCircle
 10
3330.848641623974
 20
66.33023506984091
 30
0.0000000001127424
 40
50.00000000000002
100
AcDbArc
 50
217.7405295629745
 51
232.8678058729532
  0
LINE
  5
1AB1A
330
18
100
AcDbEntity
  8
01
  6
BYBLOCK
100
AcDbLine
 10
3291.046341024689
 20
37.20716531524454
 30
0.0000000001127424
 11
3291.046341024689
 21
37.90716531524436
 31
0.0000000001127424
  0
ARC
  5
1AB1B
330
18
100
AcDbEntity
  8
01
  6
BYBLOCK
100
AcDbCircle
 10
3291.546341024689
 20
37.90716531524436
 30
0.0000000001127424
 40
0.5000000000000142
100
AcDbArc
 50
90.0
 51
180.0
  0
LINE
  5
1AB1C
330
18
100
AcDbEntity
  8
01
  6
BYBLOCK
100
AcDbLine
 10
3301.64634102469
 20
38.40716531524436
 30
0.0000000001127424
 11
3291.546341024689
 21
38.40716531524436
 31
0.0000000001127424
  0
LINE
  5
1AB1D
330
18
100
AcDbEntity
  8
01
  6
BYBLOCK
100
AcDbLine
 10
3291.046341024689
 20
36.82848565880408
 30
0.0000000001127424
 11
3291.046341024689
 21
37.20716531524454
 31
0.0000000001127424
  0
SPLINE
  5
1AB1E
330
18
100
AcDbEntity
  8
01
  6
BYBLOCK
100
AcDbSpline
210
0.0
220
0.0
230
1.0
 70
     8
 71
     3
 72
     8
 73
     4
 74
     0
 42
0.0000000001
 43
0.0000000001
 40
0.0
 40
0.0
 40
0.0
 40
0.0
 40
1.0
 40
1.0
 40
1.0
 40
1.0
 10
3291.072073565954
 20
36.55183522935499
 30
0.0000000001127424
 10
3291.054605679843
 20
36.64492142523545
 30
0.0000000001127424
 10
3291.046341024689
 20
36.73818743612696
 30
0.0000000001127424
 10
3291.046341024689
 20
36.82848565880454
 30
0.0000000001127424
  0
ARC
  5
1AB1F
330
18
100
AcDbEntity
  8
01
  6
BYBLOCK
100
AcDbCircle
 10
3292.546341024689
 20
36.82848565880408
 30
0.0000000001127424
 40
1.499999999999998
100
AcDbArc
 50
190.628112987605
 51
225.000000000046
  0
LINE
  5
1AB20
330
18
100
AcDbEntity
  8
01
  6
BYBLOCK
100
AcDbLine
 10
3302.14634102469
 20
39.25716531524449
 30
0.0000000001127424
 11
3301.64634102469
 21
39.25716531524449
 31
0.0000000001127424
  0
LINE
  5
1AB21
330
18
100
AcDbEntity
  8
01
  6
BYBLOCK
100
AcDbLine
 10
3301.64634102469
 20
25.55716531524445
 30
0.0000000001127424
 11
3302.14634102469
 21
25.55716531524445
 31
0.0000000001127424
  0
LINE
  5
1AB22
330
18
100
AcDbEntity
  8
01
  6
BYBLOCK
100
AcDbLine
 10
3301.64634102469
 20
25.55716531524445
 30
0.0000000001127424
 11
3301.64634102469
 21
39.25716531524449
 31
0.0000000001127424
  0
LINE
  5
1AB23
330
18
100
AcDbEntity
  8
01
  6
BYBLOCK
100
AcDbLine
 10
3302.14634102469
 20
44.80716531524445
 30
0.0000000001127424
 11
3303.64634102469
 21
44.80716531524445
 31
0.0000000001127424
  0
LINE
  5
1AB24
330
18
100
AcDbEntity
  8
01
  6
BYBLOCK
100
AcDbLine
 10
3302.14634102469
 20
20.00716531524449
 30
0.0000000001127424
 11
3303.64634102469
 21
20.00716531524449
 31
0.0000000001127424
  0
LINE
  5
1AB25
330
18
100
AcDbEntity
  8
01
  6
BYBLOCK
100
AcDbLine
 10
3302.14634102469
 20
20.00716531524449
 30
0.0000000001127424
 11
3302.14634102469
 21
44.80716531524445
 31
0.0000000001127424
  0
LINE
  5
1AB26
330
18
100
AcDbEntity
  8
01
  6
BYBLOCK
100
AcDbLine
 10
3371.14634102469
 20
24.70716531524431
 30
0.0000000001127424
 11
3306.14634102469
 21
24.70716531524431
 31
0.0000000001127424
  0
LINE
  5
1AB27
330
18
100
AcDbEntity
  8
01
  6
BYBLOCK
100
AcDbLine
 10
3371.14634102469
 20
23.1071653152444
 30
0.0000000001127424
 11
3320.74634102469
 21
23.1071653152444
 31
0.0000000001127424
  0
LINE
  5
1AB28
330
18
100
AcDbEntity
  8
01
  6
BYBLOCK
100
AcDbLine
 10
3323.583599324893
 20
23.1071653152444
 30
0.0000000001127424
 11
3306.14634102469
 21
23.1071653152444
 31
0.0000000001127424
  0
LINE
  5
1AB29
330
18
100
AcDbEntity
  8
01
  6
BYBLOCK
100
AcDbLine
 10
3300.699894415283
 20
26.55361192465102
 30
0.0000000001127424
 11
3291.485680852909
 21
35.76782548702408
 31
0.0000000001127424
  0
ARC
  5
1AB2A
330
18
100
AcDbEntity
  8
01
  6
BYBLOCK
100
AcDbCircle
 10
3301.053447805876
 20
26.90716531524436
 30
0.0000000001127424
 40
0.5
100
AcDbArc
 50
224.9999999999908
 51
270.0
  0
LINE
  5
1AB2B
330
18
100
AcDbEntity
  8
01
  6
BYBLOCK
100
AcDbLine
 10
3301.64634102469
 20
26.40716531524436
 30
0.0000000001127424
 11
3301.053447805876
 21
26.40716531524436
 31
0.0000000001127424
  0
LINE
  5
1AB2D
330
18
100
AcDbEntity
  8
01
  6
BYBLOCK
100
AcDbLine
 10
3291.14545684263
 20
-206.5611644167109
 30
0.0000000001127424
 11
3291.14545684263
 21
-224.6245049507168
 31
0.0000000001127424
  0
LINE
  5
1AB2E
330
18
100
AcDbEntity
  8
01
  6
BYBLOCK
100
AcDbLine
 10
3295.438350061443
 20
-205.5928346837138
 30
0.0000000001127424
 11
3302.14545684263
 21
-205.5928346837138
 31
0.0000000001127424
  0
LINE
  5
1AB2F
330
18
100
AcDbEntity
  8
01
  6
BYBLOCK
100
AcDbLine
 10
3295.438350061443
 20
-225.5928346837138
 30
0.0000000001127424
 11
3302.14545684263
 21
-225.5928346837138
 31
0.0000000001127424
  0
LINE
  5
1AB30
330
18
100
AcDbEntity
  8
01
  6
BYBLOCK
100
AcDbLine
 10
3300.938350061444
 20
-210.3428346837138
 30
0.0000000001127424
 11
3300.938350061443
 21
-220.8428346837138
 31
0.0000000001127424
  0
ARC
  5
1AB31
330
18
100
AcDbEntity
  8
01
  6
BYBLOCK
100
AcDbCircle
 10
3295.438350061443
 20
-215.5928346837138
 30
0.0000000001127424
 40
10.00000000000009
100
AcDbArc
 50
53.13010235413383
 51
115.4224671781395
  0
ARC
  5
1AB32
330
18
100
AcDbEntity
  8
01
  6
BYBLOCK
100
AcDbCircle
 10
3295.438350061443
 20
-215.5928346837136
 30
0.0000000001127424
 40
10.00000000000009
100
AcDbArc
 50
244.5775328218606
 51
306.8698976458558
  0
LINE
  5
1AB33
330
18
100
AcDbEntity
  8
01
  6
BYBLOCK
100
AcDbLine
 10
3301.438350061444
 20
-207.5928346837138
 30
0.0000000001127424
 11
3301.438350061444
 21
-223.5928346837138
 31
0.0000000001127424
  0
LINE
  5
1AB34
330
18
100
AcDbEntity
  8
01
  6
BYBLOCK
100
AcDbLine
 10
3291.14545684263
 20
-210.3428346837138
 30
0.0000000001127424
 11
3300.938350061444
 21
-210.3428346837138
 31
0.0000000001127424
  0
LINE
  5
1AB35
330
18
100
AcDbEntity
  8
01
  6
BYBLOCK
100
AcDbLine
 10
3291.14545684263
 20
-220.8428346837138
 30
0.0000000001127424
 11
3300.938350061444
 21
-220.8428346837138
 31
0.0000000001127424
  0
LINE
  5
1AB36
330
18
100
AcDbEntity
  8
01
  6
BYBLOCK
100
AcDbLine
 10
3176.745573182375
 20
-151.6928346837276
 30
0.0000000001127424
 11
3189.545573182374
 21
-151.6928346837276
 31
0.0000000001127424
  0
LINE
  5
1AB37
330
18
100
AcDbEntity
  8
01
  6
BYBLOCK
100
AcDbLine
 10
3176.745573182375
 20
-281.4928346837276
 30
0.0000000001127424
 11
3189.545573182374
 21
-281.4928346837276
 31
0.0000000001127424
  0
LINE
  5
1AB38
330
18
100
AcDbEntity
  8
01
  6
BYBLOCK
100
AcDbLine
 10
3170.745573182375
 20
-157.6928346837276
 30
0.0000000001127424
 11
3170.745573182375
 21
-275.4928346837276
 31
0.0000000001127424
  0
LINE
  5
1AB39
330
18
100
AcDbEntity
  8
01
  6
BYBLOCK
100
AcDbLine
 10
3195.545573182374
 20
-157.6928346837276
 30
0.0000000001127424
 11
3195.545573182374
 21
-275.4928346837276
 31
0.0000000001127424
  0
ARC
  5
1AB3A
330
18
100
AcDbEntity
  8
01
  6
BYBLOCK
100
AcDbCircle
 10
3176.745573182375
 20
-275.4928346837276
 30
0.0000000001127424
 40
6.0
100
AcDbArc
 50
180.0
 51
270.0
  0
ARC
  5
1AB3B
330
18
100
AcDbEntity
  8
01
  6
BYBLOCK
100
AcDbCircle
 10
3189.545573182374
 20
-275.4928346837276
 30
0.0000000001127424
 40
6.0
100
AcDbArc
 50
270.0
 51
0.0
  0
ARC
  5
1AB3C
330
18
100
AcDbEntity
  8
01
  6
BYBLOCK
100
AcDbCircle
 10
3176.745573182375
 20
-157.6928346837276
 30
0.0000000001127424
 40
6.0
100
AcDbArc
 50
90.0
 51
180.0
  0
ARC
  5
1AB3D
330
18
100
AcDbEntity
  8
01
  6
BYBLOCK
100
AcDbCircle
 10
3189.545573182374
 20
-157.6928346837276
 30
0.0000000001127424
 40
6.0
100
AcDbArc
 50
0.0
 51
90.0
  0
CIRCLE
  5
1AB3E
330
18
100
AcDbEntity
  8
01
  6
BYBLOCK
100
AcDbCircle
 10
3183.145573182374
 20
-273.5928346837275
 30
0.0000000001127424
 40
2.75
  0
CIRCLE
  5
1AB3F
330
18
100
AcDbEntity
  8
01
  6
BYBLOCK
100
AcDbCircle
 10
3183.145573182374
 20
-273.5928346837275
 30
0.0000000001127424
 40
4.25
  0
CIRCLE
  5
1AB40
330
18
100
AcDbEntity
  8
01
  6
BYBLOCK
100
AcDbCircle
 10
3183.145573182374
 20
-159.5928346837277
 30
0.0000000001127424
 40
2.75
  0
CIRCLE
  5
1AB41
330
18
100
AcDbEntity
  8
01
  6
BYBLOCK
100
AcDbCircle
 10
3183.145573182374
 20
-159.5928346837277
 30
0.0000000001127424
 40
4.25
  0
LINE
  5
1AB42
330
18
100
AcDbEntity
  8
1CENTER
100
AcDbLine
 10
3189.02059859028
 20
-273.5928346837277
 30
0.0000000001127424
 11
3177.270547774468
 21
-273.5928346837277
 31
0.0000000001127424
  0
LINE
  5
1AB43
330
18
100
AcDbEntity
  8
1CENTER
100
AcDbLine
 10
3183.145573182374
 20
-267.7178092758213
 30
0.0000000001127424
 11
3183.145573182374
 21
-279.4678600916338
 31
0.0000000001127424
  0
LINE
  5
1AB44
330
18
100
AcDbEntity
  8
1CENTER
100
AcDbLine
 10
3189.02059859028
 20
-159.5928346837277
 30
0.0000000001127424
 11
3177.270547774468
 21
-159.5928346837277
 31
0.0000000001127424
  0
LINE
  5
1AB45
330
18
100
AcDbEntity
  8
1CENTER
100
AcDbLine
 10
3183.145573182374
 20
-153.7178092758213
 30
0.0000000001127424
 11
3183.145573182374
 21
-165.4678600916338
 31
0.0000000001127424
  0
ARC
  5
1AB46
330
18
100
AcDbEntity
  8
01
  6
BYBLOCK
100
AcDbCircle
 10
3183.145573182374
 20
-215.5928346837275
 30
0.0000000001127424
 40
10.15
100
AcDbArc
 50
231.9925780701392
 51
308.0074219298607
  0
LINE
  5
1AB47
330
18
100
AcDbEntity
  8
01
  6
BYBLOCK
100
AcDbLine
 10
3176.895573182374
 20
-207.5953350744746
 30
0.0000000001127424
 11
3176.895573182374
 21
-223.5903342929803
 31
0.0000000001127424
  0
LINE
  5
1AB48
330
18
100
AcDbEntity
  8
01
  6
BYBLOCK
100
AcDbLine
 10
3189.395573182374
 20
-207.5953350744746
 30
0.0000000001127424
 11
3189.395573182374
 21
-223.5903342929803
 31
0.0000000001127424
  0
ARC
  5
1AB49
330
18
100
AcDbEntity
  8
01
  6
BYBLOCK
100
AcDbCircle
 10
3183.145573182374
 20
-215.5928346837275
 30
0.0000000001127424
 40
10.15
100
AcDbArc
 50
51.99257807013929
 51
128.0074219298607
  0
LINE
  5
1AB4A
330
18
100
AcDbEntity
  8
01
  6
BYBLOCK
100
AcDbLine
 10
3178.645573182374
 20
-210.3428346837275
 30
0.0000000001127424
 11
3178.645573182374
 21
-220.8428346837275
 31
0.0000000001127424
  0
LINE
  5
1AB4B
330
18
100
AcDbEntity
  8
01
  6
BYBLOCK
100
AcDbLine
 10
3188.645573182374
 20
-210.3428346837275
 30
0.0000000001127424
 11
3188.645573182374
 21
-220.8428346837275
 31
0.0000000001127424
  0
LINE
  5
1AB4C
330
18
100
AcDbEntity
  8
01
  6
BYBLOCK
100
AcDbLine
 10
3179.145573182374
 20
-206.2642495820091
 30
0.0000000001127424
 11
3179.145573182374
 21
-210.3428346837277
 31
0.0000000001127424
  0
LINE
  5
1AB4D
330
18
100
AcDbEntity
  8
01
  6
BYBLOCK
100
AcDbLine
 10
3177.645573182374
 20
-210.3428346837277
 30
0.0000000001127424
 11
3177.645573182374
 21
-220.8428346837275
 31
0.0000000001127424
  0
LINE
  5
1AB4E
330
18
100
AcDbEntity
  8
01
  6
BYBLOCK
100
AcDbLine
 10
3179.145573182374
 20
-220.8428346837275
 30
0.0000000001127424
 11
3179.145573182374
 21
-224.9214197854458
 31
0.0000000001127424
  0
LINE
  5
1AB4F
330
18
100
AcDbEntity
  8
01
  6
BYBLOCK
100
AcDbLine
 10
3177.645573182374
 20
-210.3428346837275
 30
0.0000000001127424
 11
3188.645573182374
 21
-210.3428346837275
 31
0.0000000001127424
  0
LINE
  5
1AB50
330
18
100
AcDbEntity
  8
01
  6
BYBLOCK
100
AcDbLine
 10
3177.645573182374
 20
-220.8428346837275
 30
0.0000000001127424
 11
3188.645573182374
 21
-220.8428346837275
 31
0.0000000001127424
  0
LINE
  5
1AB52
330
18
100
AcDbEntity
  8
01
100
AcDbLine
 10
3163.145689522117
 20
-117.5928346837272
 30
0.0000000001127424
 11
3163.145689522117
 21
-307.5928346837275
 31
0.0000000001127424
  0
LINE
  5
1AB53
330
18
100
AcDbEntity
  8
01
100
AcDbLine
 10
3163.145689522117
 20
-212.5928346837275
 30
0.0000000001127424
 11
3163.145689522117
 21
-262.5928346837275
 31
0.0000000001127424
  0
LINE
  5
1AB54
330
18
100
AcDbEntity
  8
01
100
AcDbLine
 10
3154.645689522117
 20
-261.5928346837275
 30
0.0000000001127424
 11
3154.645689522117
 21
-213.5928346837275
 31
0.0000000001127424
  0
LINE
  5
1AB55
330
18
100
AcDbEntity
  8
01
100
AcDbLine
 10
3163.145689522117
 20
-262.5928346837275
 30
0.0000000001127424
 11
3155.645689522117
 21
-262.5928346837275
 31
0.0000000001127424
  0
ARC
  5
1AB56
330
18
100
AcDbEntity
  8
01
100
AcDbCircle
 10
3155.645689522117
 20
-261.5928346837275
 30
0.0000000001127424
 40
1.0
100
AcDbArc
 50
180.0
 51
270.0
  0
LINE
  5
1AB57
330
18
100
AcDbEntity
  8
01
100
AcDbLine
 10
3163.145689522117
 20
-212.5928346837275
 30
0.0000000001127424
 11
3155.645689522117
 21
-212.5928346837275
 31
0.0000000001127424
  0
ARC
  5
1AB58
330
18
100
AcDbEntity
  8
01
100
AcDbCircle
 10
3155.645689522117
 20
-213.5928346837275
 30
0.0000000001127424
 40
1.0
100
AcDbArc
 50
90.0
 51
180.0
  0
LINE
  5
1AB59
330
18
100
AcDbEntity
  8
01
100
AcDbLine
 10
3165.27397490455
 20
-237.5928346837275
 30
0.0000000001127424
 11
3142.645689522117
 21
-237.5928346837275
 31
0.0000000001127424
  0
POINT
  5
1AB5A
330
18
100
AcDbEntity
  8
01
100
AcDbPoint
 10
3148.645573182374
 20
-237.5928346837275
 30
0.0000000001127424
 50
180.0
  0
CIRCLE
  5
1AB5B
330
18
100
AcDbEntity
  8
01
100
AcDbCircle
 10
3148.645573182374
 20
-237.5928346837275
 30
0.0000000001127424
 40
2.5
  0
CIRCLE
  5
1AB5C
330
18
100
AcDbEntity
  8
01
100
AcDbCircle
 10
3148.645573182374
 20
-237.5928346837275
 30
0.0000000001127424
 40
3.0
  0
LINE
  5
1AB5E
330
18
100
AcDbEntity
  8
1CENTER
100
AcDbLine
 10
3148.645573182374
 20
-243.5928346837275
 30
0.0000000001127424
 11
3148.645573182374
 21
-231.5928346837275
 31
0.0000000001127424
  0
LINE
  5
1AB5F
330
18
100
AcDbEntity
  8
01
100
AcDbLine
 10
3297.145456842917
 20
-273.5928346834382
 30
0.0000000001127424
 11
3311.145456842917
 21
-273.5928346834382
 31
0.0000000001127424
  0
LINE
  5
1AB60
330
18
100
AcDbEntity
  8
01
100
AcDbLine
 10
3364.457345110171
 20
-187.592834683727
 30
0.0000000001127424
 11
3341.833568575087
 21
-187.592834683727
 31
0.0000000001127424
  0
LINE
  5
1AB61
330
18
100
AcDbEntity
  8
01
100
AcDbLine
 10
3353.14545684263
 20
-176.2809464161853
 30
0.0000000001127424
 11
3353.14545684263
 21
-198.9047229512687
 31
0.0000000001127424
  0
LINE
  5
1AB62
330
18
100
AcDbEntity
  8
01
  6
BYBLOCK
100
AcDbLine
 10
3075.145689522121
 20
-206.5611644167109
 30
0.0000000001127424
 11
3075.145689522121
 21
-224.6245049507168
 31
0.0000000001127424
  0
LINE
  5
1AB63
330
18
100
AcDbEntity
  8
01
  6
BYBLOCK
100
AcDbLine
 10
3070.852796303308
 20
-205.5928346837138
 30
0.0000000001127424
 11
3064.145689522121
 21
-205.5928346837138
 31
0.0000000001127424
  0
LINE
  5
1AB64
330
18
100
AcDbEntity
  8
01
  6
BYBLOCK
100
AcDbLine
 10
3070.852796303308
 20
-225.5928346837138
 30
0.0000000001127424
 11
3064.145689522121
 21
-225.5928346837138
 31
0.0000000001127424
  0
ARC
  5
1AB65
330
18
100
AcDbEntity
  8
01
  6
BYBLOCK
100
AcDbCircle
 10
3070.852796303308
 20
-215.5928346837138
 30
0.0000000001127424
 40
10.00000000000009
100
AcDbArc
 50
64.57753282186054
 51
90.0
  0
LINE
  5
1AB66
330
18
100
AcDbEntity
  8
01
  6
CONTINUOUS
100
AcDbLine
 10
3074.645689522121
 20
-223.9076288765445
 30
0.0000000001127424
 11
3064.145689522121
 21
-223.9076288765445
 31
0.0000000001127424
  0
ARC
  5
1AB67
330
18
100
AcDbEntity
  8
01
  6
CONTINUOUS
100
AcDbCircle
 10
3074.684269769034
 20
-223.4454896457378
 30
0.0000000001127424
 40
0.4637468103423796
100
AcDbArc
 50
265.2279066161988
 51
354.2577450626255
  0
LINE
  5
1AB68
330
18
100
AcDbEntity
  8
01
  6
CONTINUOUS
100
AcDbLine
 10
3075.145689522121
 20
-208.1095199101658
 30
0.0000000001127424
 11
3075.145689522121
 21
-223.0761494572616
 31
0.0000000001127424
  0
ARC
  5
1AB69
330
18
100
AcDbEntity
  8
01
  6
CONTINUOUS
100
AcDbCircle
 10
3074.684269769034
 20
-207.7401797216894
 30
0.0000000001127424
 40
0.4637468103423387
100
AcDbArc
 50
5.742254937374508
 51
94.77209338380122
  0
ARC
  5
1AB6A
330
18
100
AcDbEntity
  8
01
  6
BYBLOCK
100
AcDbCircle
 10
3070.852796303308
 20
-215.5928346837136
 30
0.0000000001127424
 40
10.00000000000009
100
AcDbArc
 50
270.0
 51
295.4224671781395
  0
LINE
  5
1AB6B
330
18
100
AcDbEntity
  8
01
  6
CONTINUOUS
100
AcDbLine
 10
3064.145689522121
 20
-207.2780404908826
 30
0.0000000001127424
 11
3074.645689522121
 21
-207.2780404908826
 31
0.0000000001127424
  0
LINE
  5
1AB6C
330
18
100
AcDbEntity
  8
01
100
AcDbLine
 10
3371.14545684263
 20
-220.2434831108326
 30
0.0000000001127424
 11
3371.14545684263
 21
-252.592834683727
 31
0.0000000001127424
  0
ARC
  5
1AB71
330
18
100
AcDbEntity
  8
01
100
AcDbCircle
 10
3370.14545684263
 20
-252.592834683727
 30
0.0000000001127424
 40
1.0
100
AcDbArc
 50
270.0
 51
0.0
  0
LINE
  5
1AB76
330
18
100
AcDbEntity
  8
01
100
AcDbLine
 10
3333.936084130331
 20
-253.592834683727
 30
0.0000000001127424
 11
3370.14545684263
 21
-253.5928346837268
 31
0.0000000001127424
  0
LINE
  5
1AB77
330
18
100
AcDbEntity
  8
01
100
AcDbLine
 10
3043.145689522121
 20
-237.592834683727
 30
0.0000000001127424
 11
2983.145689522121
 21
-237.592834683727
 31
0.0000000001127424
  0
LINE
  5
1AB78
330
18
100
AcDbEntity
  8
01
100
AcDbLine
 10
3013.145689522121
 20
-207.592834683727
 30
0.0000000001127424
 11
3013.145689522121
 21
-267.592834683727
 31
0.0000000001127424
  0
LINE
  5
1AB79
330
18
100
AcDbEntity
  8
01
  6
BYBLOCK
100
AcDbLine
 10
3371.14545684263
 20
-190.8107157161487
 30
0.0000000001128561
 11
3371.14545684263
 21
-220.2434831108299
 31
0.0000000001127424
  0
LINE
  5
1AB7A
330
18
100
AcDbEntity
  8
01
  6
BYBLOCK
100
AcDbLine
 10
3304.84545684263
 20
-179.592834683727
 30
0.0000000001127424
 11
3333.302353764647
 21
-179.592834683727
 31
0.0000000001128561
  0
ARC
  5
1AB7B
330
18
100
AcDbEntity
  8
1HIDDEN
100
AcDbCircle
 10
3370.14545684263
 20
-180.592834683727
 30
0.0000000001127424
 40
1.0
100
AcDbArc
 50
0.0
 51
90.0
  0
LINE
  5
1AB7C
330
18
100
AcDbEntity
  8
1HIDDEN
100
AcDbLine
 10
3333.302353764647
 20
-179.592834683727
 30
0.0000000001128561
 11
3370.14545684263
 21
-179.592834683727
 31
0.0000000001127424
  0
LINE
  5
1AB7D
330
18
100
AcDbEntity
  8
1HIDDEN
100
AcDbLine
 10
3371.14545684263
 20
-180.592834683727
 30
0.0000000001127424
 11
3371.14545684263
 21
-190.8107157161487
 31
0.0000000001128561
  0
LINE
  5
1AB7E
330
18
100
AcDbEntity
  8
01
100
AcDbLine
 10
3069.145689522121
 20
-159.592834683727
 30
0.0000000001127424
 11
3055.145689522121
 21
-159.592834683727
 31
0.0000000001127424
  0
LINE
  5
1AB7F
330
18
100
AcDbEntity
  8
01
  6
BYBLOCK
100
AcDbLine
 10
3062.645689522121
 20
-151.6928346837269
 30
0.0000000001127424
 11
3062.645689522121
 21
-281.4928346837269
 31
0.0000000001127424
  0
LINE
  5
1AB80
330
18
100
AcDbEntity
  8
01
  6
BYBLOCK
100
AcDbLine
 10
3062.645689522121
 20
-280.592834683727
 30
0.0000000001127424
 11
3060.145689522121
 21
-280.592834683727
 31
0.0000000001127424
  0
LINE
  5
1AB81
330
18
100
AcDbEntity
  8
01
  6
BYBLOCK
100
AcDbLine
 10
3060.145689522121
 20
-280.592834683727
 30
0.0000000001127424
 11
3060.145689522121
 21
-264.0898909585746
 31
0.0000000001127424
  0
LINE
  5
1AB82
330
18
100
AcDbEntity
  8
01
  6
BYBLOCK
100
AcDbLine
 10
3064.145689522121
 20
-151.6928346837269
 30
0.0000000001127424
 11
3064.145689522121
 21
-281.4928346837269
 31
0.0000000001127424
  0
LINE
  5
1AB83
330
18
100
AcDbEntity
  8
01
  6
BYBLOCK
100
AcDbLine
 10
3064.145689522121
 20
-281.4928346837269
 30
0.0000000001127424
 11
3062.645689522121
 21
-281.4928346837269
 31
0.0000000001127424
  0
LINE
  5
1AB84
330
18
100
AcDbEntity
  8
01
  6
BYBLOCK
100
AcDbLine
 10
3062.645689522121
 20
-152.592834683727
 30
0.0000000001127424
 11
3060.145689522121
 21
-152.592834683727
 31
0.0000000001127424
  0
LINE
  5
1AB85
330
18
100
AcDbEntity
  8
01
  6
BYBLOCK
100
AcDbLine
 10
3064.145689522121
 20
-151.6928346837269
 30
0.0000000001127424
 11
3062.645689522121
 21
-151.6928346837269
 31
0.0000000001127424
  0
LINE
  5
1AB86
330
18
100
AcDbEntity
  8
01
  6
BYBLOCK
100
AcDbLine
 10
3062.645689522121
 20
-176.592834683727
 30
0.0000000001127424
 11
3061.445689522121
 21
-176.592834683727
 31
0.0000000001127424
  0
LINE
  5
1AB87
330
18
100
AcDbEntity
  8
01
  6
BYBLOCK
100
AcDbLine
 10
3061.445689522121
 20
-170.8928346837267
 30
0.0000000001127424
 11
3061.445689522121
 21
-262.2928346837268
 31
0.0000000001127424
  0
LINE
  5
1AB88
330
18
100
AcDbEntity
  8
01
  6
BYBLOCK
100
AcDbLine
 10
3061.345689522121
 20
-280.592834683727
 30
0.0000000001127424
 11
3061.345689522121
 21
-263.9928346837269
 31
0.0000000001127424
  0
LINE
  5
1AB89
330
18
100
AcDbEntity
  8
01
  6
BYBLOCK
100
AcDbLine
 10
3061.345689522121
 20
-263.9928346837269
 30
0.0000000001127424
 11
3062.294217659545
 21
-263.044306546303
 31
0.0000000001127424
  0
LINE
  5
1AB8A
330
18
100
AcDbEntity
  8
01
  6
BYBLOCK
100
AcDbLine
 10
3060.497161384697
 20
-263.2413628211507
 30
0.0000000001127424
 11
3061.445689522121
 21
-262.2928346837268
 31
0.0000000001127424
  0
ARC
  5
1AB8B
330
18
100
AcDbEntity
  8
01
  6
BYBLOCK
100
AcDbCircle
 10
3061.345689522121
 20
-264.0898909585746
 30
0.0000000001127424
 40
1.2
100
AcDbArc
 50
134.9999999999539
 51
180.0
  0
ARC
  5
1AB8C
330
18
100
AcDbEntity
  8
01
  6
BYBLOCK
100
AcDbCircle
 10
3061.445689522121
 20
-262.1957784088791
 30
0.0000000001127424
 40
1.2
100
AcDbArc
 50
314.999999999954
 51
0.0
  0
LINE
  5
1AB8D
330
18
100
AcDbEntity
  8
01
  6
BYBLOCK
100
AcDbLine
 10
3060.145689522121
 20
-152.592834683727
 30
0.0000000001127424
 11
3060.145689522121
 21
-169.0957784088791
 31
0.0000000001127424
  0
LINE
  5
1AB8E
330
18
100
AcDbEntity
  8
01
  6
BYBLOCK
100
AcDbLine
 10
3061.345689522121
 20
-152.592834683727
 30
0.0000000001127424
 11
3061.345689522121
 21
-169.1928346837269
 31
0.0000000001127424
  0
LINE
  5
1AB8F
330
18
100
AcDbEntity
  8
01
  6
BYBLOCK
100
AcDbLine
 10
3061.345689522121
 20
-169.1928346837269
 30
0.0000000001127424
 11
3062.294217659545
 21
-170.1413628211508
 31
0.0000000001127424
  0
LINE
  5
1AB90
330
18
100
AcDbEntity
  8
01
  6
BYBLOCK
100
AcDbLine
 10
3060.497161384697
 20
-169.9443065463031
 30
0.0000000001127424
 11
3061.445689522121
 21
-170.892834683727
 31
0.0000000001127424
  0
ARC
  5
1AB91
330
18
100
AcDbEntity
  8
01
  6
BYBLOCK
100
AcDbCircle
 10
3061.345689522121
 20
-169.0957784088791
 30
0.0000000001127424
 40
1.2
100
AcDbArc
 50
180.0
 51
225.000000000046
  0
ARC
  5
1AB92
330
18
100
AcDbEntity
  8
01
  6
BYBLOCK
100
AcDbCircle
 10
3061.445689522121
 20
-170.9898909585747
 30
0.0000000001127424
 40
1.2
100
AcDbArc
 50
0.0
 51
45.00000000004606
  0
LINE
  5
1AB93
330
18
100
AcDbEntity
  8
01
  6
BYBLOCK
100
AcDbLine
 10
3061.445689522121
 20
-253.5928346837272
 30
0.0000000001127424
 11
3032.35506223442
 21
-253.592834683727
 31
0.0000000001127424
  0
LINE
  5
1AB94
330
18
100
AcDbEntity
  8
01
  6
BYBLOCK
100
AcDbLine
 10
3070.852796303308
 20
-205.5928346837138
 30
0.0000000001127424
 11
3064.145689522121
 21
-205.5928346837138
 31
0.0000000001127424
  0
LINE
  5
1AB95
330
18
100
AcDbEntity
  8
01
  6
BYBLOCK
100
AcDbLine
 10
3070.852796303308
 20
-225.5928346837138
 30
0.0000000001127424
 11
3064.145689522121
 21
-225.5928346837138
 31
0.0000000001127424
  0
LINE
  5
1AB96
330
18
100
AcDbEntity
  8
01
100
AcDbLine
 10
3069.145689521833
 20
-273.5928346834382
 30
0.0000000001127424
 11
3055.145689521833
 21
-273.5928346834382
 31
0.0000000001127424
  0
LINE
  5
1AB97
330
18
100
AcDbEntity
  8
01
  6
BYBLOCK
100
AcDbLine
 10
2995.145689522121
 20
-190.8107157161487
 30
0.0000000001128561
 11
2995.145689522121
 21
-220.2434831108299
 31
0.0000000001127424
  0
LINE
  5
1AB98
330
18
100
AcDbEntity
  8
01
  6
BYBLOCK
100
AcDbLine
 10
3061.445689522121
 20
-179.592834683727
 30
0.0000000001127424
 11
3032.988792600104
 21
-179.592834683727
 31
0.0000000001128561
  0
TEXT
  5
1AB9B
330
18
100
AcDbEntity
  8
1TEXT
100
AcDbText
 10
2995.145589182374
 20
43.90716531627299
 30
0.0000000001127424
 40
20.0
  1
3-FKC-X-LJ
100
AcDbText
  0
LINE
  5
1AB9C
330
18
100
AcDbEntity
  8
01
100
AcDbLine
 10
3329.145573182373
 20
3.907165315244356
 30
0.0000000001127424
 11
3377.145573182373
 21
3.907165315244356
 31
0.0000000001127424
  0
LINE
  5
1AB9D
330
18
100
AcDbEntity
  8
01
100
AcDbLine
 10
3328.145573182373
 20
12.40716531524436
 30
0.0000000001127424
 11
3328.145573182373
 21
4.907165315244356
 31
0.0000000001127424
  0
ARC
  5
1AB9E
330
18
100
AcDbEntity
  8
01
100
AcDbCircle
 10
3329.145573182373
 20
4.907165315244356
 30
0.0000000001127424
 40
1.0
100
AcDbArc
 50
180.0
 51
270.0
  0
LINE
  5
1AB9F
330
18
100
AcDbEntity
  8
01
100
AcDbLine
 10
3378.145573182373
 20
12.40716531524436
 30
0.0000000001127424
 11
3378.145573182373
 21
4.907165315244356
 31
0.0000000001127424
  0
ARC
  5
1ABA0
330
18
100
AcDbEntity
  8
01
100
AcDbCircle
 10
3377.145573182373
 20
4.907165315244356
 30
0.0000000001127424
 40
1.0
100
AcDbArc
 50
270.0
 51
0.0
  0
ARC
  5
1ABA1
330
18
100
AcDbEntity
  8
01
100
AcDbCircle
 10
3353.14545684263
 20
-237.5915163706243
 30
0.0000000001127424
 40
25.0
100
AcDbArc
 50
17.45760312372635
 51
342.5423968762736
  0
LINE
  5
1ABA3
330
18
100
AcDbEntity
  8
01
100
AcDbLine
 10
3203.14545684263
 20
-212.5915163706243
 30
0.0000000001127424
 11
3203.14545684263
 21
-262.5915163706243
 31
0.0000000001127424
  0
LINE
  5
1ABA4
330
18
100
AcDbEntity
  8
01
100
AcDbLine
 10
3211.64545684263
 20
-261.5915163706243
 30
0.0000000001127424
 11
3211.64545684263
 21
-213.5915163706243
 31
0.0000000001127424
  0
LINE
  5
1ABA5
330
18
100
AcDbEntity
  8
01
100
AcDbLine
 10
3203.14545684263
 20
-262.5915163706243
 30
0.0000000001127424
 11
3210.64545684263
 21
-262.5915163706243
 31
0.0000000001127424
  0
ARC
  5
1ABA6
330
18
100
AcDbEntity
  8
01
100
AcDbCircle
 10
3210.64545684263
 20
-261.5915163706243
 30
0.0000000001127424
 40
1.0
100
AcDbArc
 50
270.0
 51
0.0
  0
LINE
  5
1ABA7
330
18
100
AcDbEntity
  8
01
100
AcDbLine
 10
3203.14545684263
 20
-212.5915163706243
 30
0.0000000001127424
 11
3210.64545684263
 21
-212.5915163706243
 31
0.0000000001127424
  0
ARC
  5
1ABA8
330
18
100
AcDbEntity
  8
01
100
AcDbCircle
 10
3210.64545684263
 20
-213.5915163706243
 30
0.0000000001127424
 40
1.0
100
AcDbArc
 50
0.0
 51
90.0
  0
POINT
  5
1ABA9
330
18
100
AcDbEntity
  8
01
100
AcDbPoint
 10
3217.64545684263
 20
-237.5915163706243
 30
0.0000000001127424
  0
LINE
  5
1ABAA
330
18
100
AcDbEntity
  8
01
100
AcDbLine
 10
3217.245456832631
 20
-239.3415163706243
 30
0.0000000001127424
 11
3217.245456832631
 21
-238.4915163506241
 31
0.0000000001127424
  0
LINE
  5
1ABAB
330
18
100
AcDbEntity
  8
01
100
AcDbLine
 10
3218.045456852632
 20
-239.3415163706243
 30
0.0000000001127424
 11
3218.045456852632
 21
-238.4915163506241
 31
0.0000000001127424
  0
LINE
  5
1ABAC
330
18
100
AcDbEntity
  8
01
100
AcDbLine
 10
3216.74545686263
 20
-237.9915163806247
 30
0.0000000001127424
 11
3215.89545684263
 21
-237.9915163806247
 31
0.0000000001127424
  0
LINE
  5
1ABAD
330
18
100
AcDbEntity
  8
01
100
AcDbLine
 10
3216.74545686263
 20
-237.1915163606247
 30
0.0000000001127424
 11
3215.89545684263
 21
-237.1915163606247
 31
0.0000000001127424
  0
LINE
  5
1ABAE
330
18
100
AcDbEntity
  8
01
100
AcDbLine
 10
3215.89545684263
 20
-237.9915163806247
 30
0.0000000001127424
 11
3215.89545684263
 21
-237.1915163606247
 31
0.0000000001127424
  0
LINE
  5
1ABAF
330
18
100
AcDbEntity
  8
01
100
AcDbLine
 10
3218.045456852632
 20
-239.3415163706243
 30
0.0000000001127424
 11
3217.245456832631
 21
-239.3415163706243
 31
0.0000000001127424
  0
LINE
  5
1ABB0
330
18
100
AcDbEntity
  8
01
100
AcDbLine
 10
3218.045456852632
 20
-235.8415163706243
 30
0.0000000001127424
 11
3218.045456852632
 21
-236.6915163906244
 31
0.0000000001127424
  0
LINE
  5
1ABB1
330
18
100
AcDbEntity
  8
01
100
AcDbLine
 10
3217.245456832631
 20
-235.8415163706243
 30
0.0000000001127424
 11
3217.245456832631
 21
-236.6915163906244
 31
0.0000000001127424
  0
LINE
  5
1ABB2
330
18
100
AcDbEntity
  8
01
100
AcDbLine
 10
3218.54545682263
 20
-237.1915163606247
 30
0.0000000001127424
 11
3219.39545684263
 21
-237.1915163606247
 31
0.0000000001127424
  0
LINE
  5
1ABB3
330
18
100
AcDbEntity
  8
01
100
AcDbLine
 10
3218.54545682263
 20
-237.9915163806247
 30
0.0000000001127424
 11
3219.39545684263
 21
-237.9915163806247
 31
0.0000000001127424
  0
LINE
  5
1ABB4
330
18
100
AcDbEntity
  8
01
100
AcDbLine
 10
3219.39545684263
 20
-237.1915163606247
 30
0.0000000001127424
 11
3219.39545684263
 21
-237.9915163806247
 31
0.0000000001127424
  0
LINE
  5
1ABB5
330
18
100
AcDbEntity
  8
01
100
AcDbLine
 10
3217.245456832631
 20
-235.8415163706243
 30
0.0000000001127424
 11
3218.045456852632
 21
-235.8415163706243
 31
0.0000000001127424
  0
CIRCLE
  5
1ABB6
330
18
100
AcDbEntity
  8
01
100
AcDbCircle
 10
3217.64545684263
 20
-237.5915163706243
 30
0.0000000001127424
 40
2.5
  0
ARC
  5
1ABB7
330
18
100
AcDbEntity
  8
01
100
AcDbCircle
 10
3218.54545682263
 20
-236.6915163906244
 30
0.0000000001127424
 40
0.5
100
AcDbArc
 50
179.999989999999
 51
270.0
  0
ARC
  5
1ABB8
330
18
100
AcDbEntity
  8
01
100
AcDbCircle
 10
3218.54545682263
 20
-238.4915163506241
 30
0.0000000001127424
 40
0.5
100
AcDbArc
 50
90.00000299998466
 51
180.000010000001
  0
ARC
  5
1ABB9
330
18
100
AcDbEntity
  8
01
100
AcDbCircle
 10
3216.74545686263
 20
-238.4915163506241
 30
0.0000000001127424
 40
0.5
100
AcDbArc
 50
0.0
 51
90.00000299998466
  0
ARC
  5
1ABBA
330
18
100
AcDbEntity
  8
01
100
AcDbCircle
 10
3216.74545686263
 20
-236.6915163906244
 30
0.0000000001127424
 40
0.5
100
AcDbArc
 50
270.0
 51
0.0
  0
LINE
  5
1ABBC
330
18
100
AcDbEntity
  8
1CENTER
100
AcDbLine
 10
3217.64545684263
 20
-243.5915163706243
 30
0.0000000001127424
 11
3217.64545684263
 21
-231.5915163706243
 31
0.0000000001127424
  0
LINE
  5
1ABBD
330
18
100
AcDbEntity
  8
01
100
AcDbLine
 10
3201.017171460199
 20
-237.5915163706243
 30
0.0000000001127424
 11
3223.64545684263
 21
-237.5915163706243
 31
0.0000000001127424
  0
LINE
  5
1ABBE
330
18
100
AcDbEntity
  8
01
100
AcDbLine
 10
3328.145573182373
 20
12.40716531524436
 30
0.0000000001127424
 11
3378.145573182373
 21
12.40716531524436
 31
0.0000000001127424
  0
LINE
  5
1ABBF
330
18
100
AcDbEntity
  8
01
  6
BYBLOCK
100
AcDbLine
 10
3302.14634102469
 20
12.40716531524436
 30
0.0000000001127424
 11
3455.900721179721
 21
12.40716531524436
 31
0.0000000001127424
  0
LINE
  5
1ABC0
330
18
100
AcDbEntity
  8
1CENTER
100
AcDbLine
 10
3337.061898418432
 20
-2.092826651502719
 30
0.0000000001127424
 11
3345.19557078028
 21
-2.092834684752916
 31
0.0000000001127424
  0
LINE
  5
1ABC1
330
18
100
AcDbEntity
  8
01
100
AcDbLine
 10
3353.145573182373
 20
17.40716531524436
 30
0.0000000001127424
 11
3353.145573182373
 21
-9.092834684755644
 31
0.0000000001127424
  0
LINE
  5
1ABC7
330
18
100
AcDbEntity
  8
01
100
AcDbLine
 10
3203.14545684263
 20
-117.5915163706243
 30
0.0000000001127424
 11
3203.14545684263
 21
-307.5915163706243
 31
0.0000000001127424
  0
LINE
  5
1ABC8
330
18
100
AcDbEntity
  8
01
100
AcDbLine
 10
3323.14545684263
 20
-237.5915163706243
 30
0.0000000001127424
 11
3383.14545684263
 21
-237.5915163706243
 31
0.0000000001127424
  0
LINE
  5
1ABC9
330
18
100
AcDbEntity
  8
01
100
AcDbLine
 10
3353.14545684263
 20
-207.5915163706243
 30
0.0000000001127424
 11
3353.14545684263
 21
-267.5915163706243
 31
0.0000000001127424
  0
LINE
  5
1ABCA
330
18
100
AcDbEntity
  8
01
100
AcDbLine
 10
3212.145456842641
 20
-249.5905086142536
 30
0.0000000001127424
 11
3212.145456842619
 21
-225.5915156631377
 31
0.0000000001127424
  0
ARC
  5
1ABCB
330
18
100
AcDbEntity
  8
01
100
AcDbCircle
 10
3266.282585686973
 20
-237.5909827500377
 30
0.0000000001127424
 40
2.883832661122661
100
AcDbArc
 50
289.1048968311358
 51
70.89510316489256
  0
ARC
  5
1ABCC
330
18
100
AcDbEntity
  8
01
100
AcDbCircle
 10
3212.14430201869
 20
-393.7983742421429
 30
0.0000000001127424
 40
168.2068585829793
100
AcDbArc
 50
70.88455311685235
 51
89.99960663593417
  0
ARC
  5
1ABCD
330
18
100
AcDbEntity
  8
01
100
AcDbCircle
 10
3212.144302000037
 20
-81.38465715746793
 30
0.0000000001127424
 40
168.2058514607437
100
AcDbArc
 50
270.0003933728204
 51
289.1155699351367
  0
LINE
  5
1ABCE
330
18
100
AcDbEntity
  8
1CENTER
100
AcDbLine
 10
3353.14545684263
 20
-243.5915163706243
 30
0.0000000001127424
 11
3353.14545684263
 21
-231.5915163706243
 31
0.0000000001127424
  0
LINE
  5
1ABCF
330
18
100
AcDbEntity
  8
1CENTER
100
AcDbLine
 10
3347.14545684263
 20
-237.5915163706243
 30
0.0000000001127424
 11
3359.14545684263
 21
-237.5915163706243
 31
0.0000000001127424
  0
LINE
  5
1ABD0
330
18
100
AcDbEntity
  8
01
100
AcDbLine
 10
3477.961211009311
 20
-230.4268226961292
 30
0.0000000001127424
 11
3481.511187564472
 21
-230.4268226961294
 31
0.0000000001127424
  0
LINE
  5
1ABD1
330
18
100
AcDbEntity
  8
01
100
AcDbLine
 10
3477.961211009332
 20
-244.7562099577683
 30
0.0000000001127424
 11
3481.511187564473
 21
-244.7562099577683
 31
0.0000000001127424
  0
LINE
  5
1ABD2
330
18
100
AcDbEntity
  8
01
100
AcDbLine
 10
3482.511187564472
 20
-231.4268226961294
 30
0.0000000001127424
 11
3482.511187564473
 21
-243.7562099577683
 31
0.0000000001127424
  0
ARC
  5
1ABD3
330
18
100
AcDbEntity
  8
01
100
AcDbCircle
 10
3481.511187564473
 20
-243.7562099577683
 30
0.0000000001127424
 40
1.0
100
AcDbArc
 50
270.0
 51
0.0
  0
ARC
  5
1ABD4
330
18
100
AcDbEntity
  8
01
100
AcDbCircle
 10
3481.511187564472
 20
-231.4268226961294
 30
0.0000000001127424
 40
1.0
100
AcDbArc
 50
0.0
 51
90.0
  0
LINE
  5
1ABD5
330
18
100
AcDbEntity
  8
01
100
AcDbLine
 10
3369.862428051933
 20
-245.0915163706243
 30
0.0000000001127424
 11
3477.661211009331
 21
-245.0915163706243
 31
0.0000000001127424
  0
ARC
  5
1ABD6
330
18
100
AcDbEntity
  8
01
100
AcDbCircle
 10
3369.862428051933
 20
-244.7915163706243
 30
0.0000000001127424
 40
0.3
100
AcDbArc
 50
180.0
 51
270.0
  0
LINE
  5
1ABD7
330
18
100
AcDbEntity
  8
01
100
AcDbLine
 10
3369.862428051933
 20
-230.0915163706243
 30
0.0000000001127424
 11
3477.661211009333
 21
-230.091516370624
 31
0.0000000001127424
  0
ARC
  5
1ABD8
330
18
100
AcDbEntity
  8
01
100
AcDbCircle
 10
3369.862428051933
 20
-230.3915163706242
 30
0.0000000001127424
 40
0.3
100
AcDbArc
 50
90.0
 51
180.0
  0
LINE
  5
1ABD9
330
18
100
AcDbEntity
  8
01
100
AcDbLine
 10
3477.961211009333
 20
-230.391516370624
 30
0.0000000001127424
 11
3477.961211009331
 21
-244.7915163706241
 31
0.0000000001127424
  0
ARC
  5
1ABDA
330
18
100
AcDbEntity
  8
01
100
AcDbCircle
 10
3477.661211009331
 20
-244.7915163706241
 30
0.0000000001127424
 40
0.3
100
AcDbArc
 50
270.0
 51
359.999999999987
  0
ARC
  5
1ABDB
330
18
100
AcDbEntity
  8
01
100
AcDbCircle
 10
3477.661211009333
 20
-230.391516370624
 30
0.0000000001127424
 40
0.3
100
AcDbArc
 50
0.0
 51
90.0
  0
ARC
  5
1ABDC
330
18
100
AcDbEntity
  8
01
100
AcDbCircle
 10
2881.958242696683
 20
-237.6565587772886
 30
0.0000000001127424
 40
482.7722247470638
100
AcDbArc
 50
0.8655947922477992
 51
1.316048965187828
  0
ARC
  5
1ABDD
330
18
100
AcDbEntity
  8
01
100
AcDbCircle
 10
3363.603383261234
 20
-226.5915188637734
 30
0.0000000001127424
 40
1.0
100
AcDbArc
 50
1.316048965200852
 51
90.00000000005213
  0
ARC
  5
1ABDE
330
18
100
AcDbEntity
  8
01
100
AcDbCircle
 10
-2881.954635835505
 20
-237.5264162166261
 30
-0.0000000001127424
 40
482.7758320976027
210
0.0
220
0.0
230
-1.0
100
AcDbArc
 50
180.8655954026974
 51
181.3160465718773
  0
ARC
  5
1ABDF
330
18
100
AcDbEntity
  8
01
100
AcDbCircle
 10
3363.603383261237
 20
-248.5915188624056
 30
0.0000000001127424
 40
1.0
100
AcDbArc
 50
270.0
 51
358.6839534281357
  0
LINE
  5
1ABE0
330
18
100
AcDbEntity
  8
01
100
AcDbLine
 10
3363.603383261237
 20
-249.5915188624056
 30
0.0000000001127424
 11
3342.687489552446
 21
-249.5915188624056
 31
0.0000000001127424
  0
LINE
  5
1ABE1
330
18
100
AcDbEntity
  8
01
100
AcDbLine
 10
3342.687489538787
 20
-225.5915188637734
 30
0.0000000001127424
 11
3363.603383261233
 21
-225.5915188637737
 31
0.0000000001127424
  0
ARC
  5
1ABE2
330
18
100
AcDbEntity
  8
01
100
AcDbCircle
 10
-3820.89842282165
 20
-237.6024827757194
 30
-0.0000000001127424
 40
479.33717774423
210
0.0
220
0.0
230
-1.0
100
AcDbArc
 50
358.6836047565743
 51
359.7880206781267
  0
ARC
  5
1ABE3
330
18
100
AcDbEntity
  8
01
100
AcDbCircle
 10
3342.687489552446
 20
-248.5915188624056
 30
0.0000000001127424
 40
1.0
100
AcDbArc
 50
181.3163952434388
 51
270.0
  0
ARC
  5
1ABE4
330
18
100
AcDbEntity
  8
01
100
AcDbCircle
 10
3820.897670656549
 20
-237.5805451280289
 30
0.0000000001127424
 40
479.3364255656463
100
AcDbArc
 50
178.6836038630524
 51
179.788020947408
  0
ARC
  5
1ABE5
330
18
100
AcDbEntity
  8
01
100
AcDbCircle
 10
3342.687489538787
 20
-226.5915188637734
 30
0.0000000001127424
 40
1.0
100
AcDbArc
 50
90.0
 51
178.6836038630394
  0
ARC
  5
1ABE6
330
18
100
AcDbEntity
  8
01
100
AcDbCircle
 10
-3821.903657342023
 20
-237.590879947425
 30
-0.0000000001127424
 40
480.3424483767695
210
0.0
220
0.0
230
-1.0
100
AcDbArc
 50
359.7870803071478
 51
359.999924081524
  0
ARC
  5
1ABE7
330
18
100
AcDbEntity
  8
01
100
AcDbCircle
 10
3821.90354545336
 20
-237.5921527841163
 30
0.0000000001127424
 40
480.3423364881063
100
AcDbArc
 50
179.7870802823562
 51
179.9999240930924
  0
LINE
  5
1ABE8
330
18
100
AcDbEntity
  8
01
100
AcDbLine
 10
3364.709935986489
 20
-230.4268235202953
 30
0.0000000001127424
 11
3369.262428051932
 21
-230.4268235202953
 31
0.0000000001127424
  0
LINE
  5
1ABE9
330
18
100
AcDbEntity
  8
01
100
AcDbLine
 10
3364.709935986489
 20
-244.7562107819342
 30
0.0000000001127424
 11
3369.262428051932
 21
-244.7562107819342
 31
0.0000000001127424
  0
ARC
  5
1ABEA
330
18
100
AcDbEntity
  8
01
100
AcDbCircle
 10
3364.793197542678
 20
-244.8425492085275
 30
0.0000000001127424
 40
0.1199449629845831
100
AcDbArc
 50
133.9606898865693
 51
169.0040227537662
  0
LINE
  5
1ABEB
330
18
100
AcDbEntity
  8
01
100
AcDbLine
 10
3364.675454699912
 20
-244.8196708973437
 30
0.0000000001127424
 11
3364.675408894258
 21
-244.817435149256
 31
0.0000000001127424
  0
ARC
  5
1ABEC
330
18
100
AcDbEntity
  8
01
100
AcDbCircle
 10
-3364.793197302199
 20
-230.3404853704526
 30
-0.0000000001127424
 40
0.1199447344078585
210
0.0
220
0.0
230
-1.0
100
AcDbArc
 50
313.9606355963367
 51
349.0039824349836
  0
LINE
  5
1ABED
330
18
100
AcDbEntity
  8
01
100
AcDbLine
 10
3364.675454699912
 20
-230.3633637208925
 30
0.0000000001127424
 11
3364.675408894258
 21
-230.3655994827495
 31
0.0000000001127424
  0
LINE
  5
1ABEE
330
18
100
AcDbEntity
  8
01
100
AcDbLine
 10
3369.562428051932
 20
-230.3915163706242
 30
0.0000000001127424
 11
3369.562428051932
 21
-244.7915163706243
 31
0.0000000001127424
  0
ARC
  5
1ABEF
330
18
100
AcDbEntity
  8
01
100
AcDbCircle
 10
3369.262428051932
 20
-244.4562107819343
 30
0.0000000001127424
 40
0.3
100
AcDbArc
 50
270.0
 51
0.0
  0
ARC
  5
1ABF0
330
18
100
AcDbEntity
  8
01
100
AcDbCircle
 10
3369.262428051932
 20
-230.7268235202953
 30
0.0000000001127424
 40
0.3
100
AcDbArc
 50
0.0
 51
90.0
  0
LINE
  5
1ABF1
330
18
100
AcDbEntity
  8
01
100
AcDbLine
 10
3369.862544341208
 20
-28.29212038360879
 30
0.0000000001127424
 11
3477.661325209527
 21
-28.292111338322
 31
0.0000000001127424
  0
ARC
  5
1ABF2
330
18
100
AcDbEntity
  8
01
100
AcDbCircle
 10
3369.862544366381
 20
-28.59212038360897
 30
0.0000000001127424
 40
0.3
100
AcDbArc
 50
90.00000480763568
 51
180.0000048076096
  0
LINE
  5
1ABF3
330
18
100
AcDbEntity
  8
01
100
AcDbLine
 10
3477.961325246621
 20
-28.592112152239
 30
0.0000000001127424
 11
3477.961327349075
 21
-53.64847360859608
 31
0.0000000001127424
  0
ARC
  5
1ABF4
330
18
100
AcDbEntity
  8
01
100
AcDbCircle
 10
3477.661327349075
 20
-53.64847363376884
 30
0.0000000001127424
 40
0.3
100
AcDbArc
 50
270.0000048076357
 51
0.0000048076356707
  0
ARC
  5
1ABF5
330
18
100
AcDbEntity
  8
01
100
AcDbCircle
 10
3477.66132524662
 20
-28.59211217741199
 30
0.0000000001127424
 40
0.3
100
AcDbArc
 50
0.0000048076356707
 51
90.00000480763568
  0
LINE
  5
1ABF6
330
18
100
AcDbEntity
  8
01
100
AcDbLine
 10
3477.662036918701
 20
-53.94847279461919
 30
0.0000000001127424
 11
3369.862546494007
 21
-53.94848183996692
 31
0.0000000001127424
  0
ARC
  5
1ABF7
330
18
100
AcDbEntity
  8
01
100
AcDbCircle
 10
3369.862546468834
 20
-53.64848183996696
 30
0.0000000001127424
 40
0.3
100
AcDbArc
 50
180.0000048076357
 51
270.0000048076357
  0
LINE
  5
1ABF8
330
18
100
AcDbEntity
  8
01
100
AcDbLine
 10
3477.961325389327
 20
-28.59283184207948
 30
0.0000000001127424
 11
3481.561325389326
 21
-28.59283184207948
 31
0.0000000001127424
  0
LINE
  5
1ABF9
330
18
100
AcDbEntity
  8
01
100
AcDbLine
 10
3477.961325389327
 20
-53.61306981907614
 30
0.0000000001127424
 11
3481.561325389326
 21
-53.61306981907614
 31
0.0000000001127424
  0
LINE
  5
1ABFA
330
18
100
AcDbEntity
  8
01
100
AcDbLine
 10
3482.561325389326
 20
-29.59283184207948
 30
0.0000000001127424
 11
3482.561325389326
 21
-52.61306981907614
 31
0.0000000001127424
  0
ARC
  5
1ABFB
330
18
100
AcDbEntity
  8
01
100
AcDbCircle
 10
3481.561325389326
 20
-52.61306981907614
 30
0.0000000001127424
 40
1.0
100
AcDbArc
 50
270.0
 51
0.0
  0
ARC
  5
1ABFC
330
18
100
AcDbEntity
  8
01
100
AcDbCircle
 10
3481.561325389326
 20
-29.59283184207948
 30
0.0000000001127424
 40
1.0
100
AcDbArc
 50
0.0
 51
90.0
  0
LINE
  5
1ABFD
330
18
100
AcDbEntity
  8
01
100
AcDbLine
 10
3364.72982349275
 20
-24.59355719209248
 30
0.0000000001127424
 11
3364.729821143237
 21
3.407166287268637
 31
0.0000000001127424
  0
LINE
  5
1ABFE
330
18
100
AcDbEntity
  8
01
100
AcDbLine
 10
3368.729823828381
 20
-28.59355685645664
 30
0.0000000001127424
 11
3369.262544366502
 21
-28.59355681175725
 31
0.0000000001127424
  0
ARC
  5
1ABFF
330
18
100
AcDbEntity
  8
01
100
AcDbCircle
 10
3368.72982349275
 20
-24.59355685645664
 30
0.0000000001127424
 40
4.0
100
AcDbArc
 50
180.0000048076357
 51
270.0000048075315
  0
LINE
  5
1AC00
330
18
100
AcDbEntity
  8
01
100
AcDbLine
 10
3341.561330089989
 20
-52.61379711313498
 30
0.0000000001127424
 11
3341.561325389327
 21
3.407164343220529
 31
0.0000000001127424
  0
LINE
  5
1AC01
330
18
100
AcDbEntity
  8
01
100
AcDbLine
 10
3341.561325389327
 20
3.407164343220529
 30
0.0000000001127424
 11
3364.729821143237
 21
3.407166287268637
 31
0.0000000001127424
  0
LINE
  5
1AC02
330
18
100
AcDbEntity
  8
01
100
AcDbLine
 10
3369.562544366381
 20
-28.59212040878197
 30
0.0000000001127424
 11
3369.562546468834
 21
-53.64848186513973
 31
0.0000000001127424
  0
ARC
  5
1AC03
330
18
100
AcDbEntity
  8
01
100
AcDbCircle
 10
3369.262546440751
 20
-53.31379477616747
 30
0.0000000001127424
 40
0.3
100
AcDbArc
 50
270.0000048346288
 51
0.0000048076356707
  0
ARC
  5
1AC04
330
18
100
AcDbEntity
  8
01
100
AcDbCircle
 10
3369.262544391674
 20
-28.89355681175698
 30
0.0000000001127424
 40
0.3
100
AcDbArc
 50
0.0000048076096156
 51
90.00000480753145
  0
LINE
  5
1AC05
330
18
100
AcDbEntity
  8
01
100
AcDbLine
 10
3369.262546466065
 20
-53.61379477616742
 30
0.0000000001127424
 11
3342.56133017437
 21
-53.61379702922591
 31
0.0000000001127424
  0
ARC
  5
1AC06
330
18
100
AcDbEntity
  8
01
100
AcDbCircle
 10
3342.561330089989
 20
-52.61379702922591
 30
0.0000000001127424
 40
1.0
100
AcDbArc
 50
180.0000048076357
 51
270.0000048346288
  0
LINE
  5
1AC09
330
18
100
AcDbEntity
  8
01
100
AcDbLine
 10
3369.862544341208
 20
93.1064510140975
 30
0.0000000001127424
 11
3477.661325209527
 21
93.10644196881071
 31
0.0000000001127424
  0
ARC
  5
1AC0A
330
18
100
AcDbEntity
  8
01
100
AcDbCircle
 10
3369.862544366381
 20
93.40645101409768
 30
0.0000000001127424
 40
0.3
100
AcDbArc
 50
179.9999951923904
 51
269.9999951923643
  0
LINE
  5
1AC0B
330
18
100
AcDbEntity
  8
01
100
AcDbLine
 10
3477.961325246621
 20
93.40644278272771
 30
0.0000000001127424
 11
3477.961327349075
 21
118.4628042390848
 31
0.0000000001127424
  0
ARC
  5
1AC0C
330
18
100
AcDbEntity
  8
01
100
AcDbCircle
 10
3477.661327349075
 20
118.4628042642576
 30
0.0000000001127424
 40
0.3
100
AcDbArc
 50
359.9999951923643
 51
89.99999519236432
  0
ARC
  5
1AC0D
330
18
100
AcDbEntity
  8
01
100
AcDbCircle
 10
3477.66132524662
 20
93.4064428079007
 30
0.0000000001127424
 40
0.3
100
AcDbArc
 50
269.9999951923643
 51
359.9999951923643
  0
LINE
  5
1AC0E
330
18
100
AcDbEntity
  8
01
100
AcDbLine
 10
3477.662036918701
 20
118.7628034251079
 30
0.0000000001127424
 11
3369.862546494007
 21
118.7628124704556
 31
0.0000000001127424
  0
ARC
  5
1AC0F
330
18
100
AcDbEntity
  8
01
100
AcDbCircle
 10
3369.862546468834
 20
118.4628124704557
 30
0.0000000001127424
 40
0.3
100
AcDbArc
 50
89.99999519236432
 51
179.9999951923643
  0
LINE
  5
1AC10
330
18
100
AcDbEntity
  8
01
100
AcDbLine
 10
3477.961325389327
 20
93.40716247256819
 30
0.0000000001127424
 11
3481.561325389326
 21
93.40716247256819
 31
0.0000000001127424
  0
LINE
  5
1AC11
330
18
100
AcDbEntity
  8
01
100
AcDbLine
 10
3477.961325389327
 20
118.4274004495649
 30
0.0000000001127424
 11
3481.561325389326
 21
118.4274004495649
 31
0.0000000001127424
  0
LINE
  5
1AC12
330
18
100
AcDbEntity
  8
01
100
AcDbLine
 10
3482.561325389326
 20
94.40716247256819
 30
0.0000000001127424
 11
3482.561325389326
 21
117.4274004495649
 31
0.0000000001127424
  0
ARC
  5
1AC13
330
18
100
AcDbEntity
  8
01
100
AcDbCircle
 10
3481.561325389326
 20
117.4274004495649
 30
0.0000000001127424
 40
1.0
100
AcDbArc
 50
0.0
 51
90.0
  0
ARC
  5
1AC14
330
18
100
AcDbEntity
  8
01
100
AcDbCircle
 10
3481.561325389326
 20
94.40716247256819
 30
0.0000000001127424
 40
1.0
100
AcDbArc
 50
270.0
 51
0.0
  0
LINE
  5
1AC15
330
18
100
AcDbEntity
  8
01
100
AcDbLine
 10
3364.72982349275
 20
89.40788782258119
 30
0.0000000001127424
 11
3364.729821143237
 21
61.40716434322007
 31
0.0000000001127424
  0
LINE
  5
1AC16
330
18
100
AcDbEntity
  8
01
100
AcDbLine
 10
3368.729823828381
 20
93.40788748694536
 30
0.0000000001127424
 11
3369.262544366502
 21
93.40788744224596
 31
0.0000000001127424
  0
ARC
  5
1AC17
330
18
100
AcDbEntity
  8
01
100
AcDbCircle
 10
3368.72982349275
 20
89.40788748694536
 30
0.0000000001127424
 40
4.0
100
AcDbArc
 50
89.99999519246855
 51
179.9999951923643
  0
LINE
  5
1AC18
330
18
100
AcDbEntity
  8
01
100
AcDbLine
 10
3341.561330089989
 20
117.4281277436237
 30
0.0000000001127424
 11
3341.561325389327
 21
61.40716628726818
 31
0.0000000001127424
  0
LINE
  5
1AC19
330
18
100
AcDbEntity
  8
01
100
AcDbLine
 10
3341.561325389327
 20
61.40716628726818
 30
0.0000000001127424
 11
3350.64557324847
 21
61.40716552501681
 31
0.0000000001127424
  0
LINE
  5
1AC1A
330
18
100
AcDbEntity
  8
01
100
AcDbLine
 10
3355.645573248471
 20
61.40716510547122
 30
0.0000000001127424
 11
3364.729821143237
 21
61.40716434322007
 31
0.0000000001127424
  0
LINE
  5
1AC1B
330
18
100
AcDbEntity
  8
01
100
AcDbLine
 10
3369.562544366381
 20
93.40645103927068
 30
0.0000000001127424
 11
3369.562546468834
 21
118.4628124956284
 31
0.0000000001127424
  0
ARC
  5
1AC1C
330
18
100
AcDbEntity
  8
01
100
AcDbCircle
 10
3369.262546440751
 20
118.1281254066562
 30
0.0000000001127424
 40
0.3
100
AcDbArc
 50
359.9999951923643
 51
89.99999516537125
  0
ARC
  5
1AC1D
330
18
100
AcDbEntity
  8
01
100
AcDbCircle
 10
3369.262544391674
 20
93.70788744224569
 30
0.0000000001127424
 40
0.3
100
AcDbArc
 50
269.9999951924685
 51
359.9999951923904
  0
LINE
  5
1AC1E
330
18
100
AcDbEntity
  8
01
100
AcDbLine
 10
3369.262546466065
 20
118.4281254066561
 30
0.0000000001127424
 11
3342.56133017437
 21
118.4281276597146
 31
0.0000000001127424
  0
ARC
  5
1AC1F
330
18
100
AcDbEntity
  8
01
100
AcDbCircle
 10
3342.561330089989
 20
117.4281276597146
 30
0.0000000001127424
 40
1.0
100
AcDbArc
 50
89.99999516537125
 51
179.9999951923643
  0
ARC
  5
1AC20
330
18
100
AcDbEntity
  8
01
100
AcDbCircle
 10
3013.145689522119
 20
-237.5915163706243
 30
0.0000000001127424
 40
25.0
100
AcDbArc
 50
197.4576031237139
 51
162.5423968762861
  0
LINE
  5
1AC21
330
18
100
AcDbEntity
  8
01
100
AcDbLine
 10
3154.145689522108
 20
-249.5905086142536
 30
0.0000000001127424
 11
3154.14568952213
 21
-225.5915156631377
 31
0.0000000001127424
  0
ARC
  5
1AC22
330
18
100
AcDbEntity
  8
01
100
AcDbCircle
 10
3100.008560677776
 20
-237.5909827500377
 30
0.0000000001127424
 40
2.883832661122661
100
AcDbArc
 50
109.1048968351074
 51
250.8951031688643
  0
ARC
  5
1AC23
330
18
100
AcDbEntity
  8
01
100
AcDbCircle
 10
3154.146844346059
 20
-393.7983742421429
 30
0.0000000001127424
 40
168.2068585829793
100
AcDbArc
 50
90.00039336411794
 51
109.1154468831477
  0
ARC
  5
1AC24
330
18
100
AcDbEntity
  8
01
100
AcDbCircle
 10
3154.146844364712
 20
-81.38465715746793
 30
0.0000000001127424
 40
168.2058514607437
100
AcDbArc
 50
250.8844300648634
 51
269.9996066272317
  0
LINE
  5
1AC25
330
18
100
AcDbEntity
  8
1CENTER
100
AcDbLine
 10
3013.145689522119
 20
-243.5915163706243
 30
0.0000000001127424
 11
3013.145689522119
 21
-231.5915163706243
 31
0.0000000001127424
  0
LINE
  5
1AC26
330
18
100
AcDbEntity
  8
1CENTER
100
AcDbLine
 10
3019.145689522119
 20
-237.5915163706243
 30
0.0000000001127424
 11
3007.145689522119
 21
-237.5915163706243
 31
0.0000000001127424
  0
LINE
  5
1AC27
330
18
100
AcDbEntity
  8
01
100
AcDbLine
 10
2888.329935355438
 20
-230.4268226961292
 30
0.0000000001127424
 11
2884.779958800277
 21
-230.4268226961294
 31
0.0000000001127424
  0
LINE
  5
1AC28
330
18
100
AcDbEntity
  8
01
100
AcDbLine
 10
2888.329935355417
 20
-244.7562099577683
 30
0.0000000001127424
 11
2884.779958800275
 21
-244.7562099577683
 31
0.0000000001127424
  0
LINE
  5
1AC29
330
18
100
AcDbEntity
  8
01
100
AcDbLine
 10
2883.779958800277
 20
-231.4268226961294
 30
0.0000000001127424
 11
2883.779958800275
 21
-243.7562099577683
 31
0.0000000001127424
  0
ARC
  5
1AC2A
330
18
100
AcDbEntity
  8
01
100
AcDbCircle
 10
2884.779958800275
 20
-243.7562099577683
 30
0.0000000001127424
 40
1.0
100
AcDbArc
 50
180.0
 51
270.0
  0
ARC
  5
1AC2B
330
18
100
AcDbEntity
  8
01
100
AcDbCircle
 10
2884.779958800277
 20
-231.4268226961294
 30
0.0000000001127424
 40
1.0
100
AcDbArc
 50
90.0
 51
180.0
  0
LINE
  5
1AC2C
330
18
100
AcDbEntity
  8
01
100
AcDbLine
 10
2996.428718312816
 20
-245.0915163706243
 30
0.0000000001127424
 11
2888.629935355418
 21
-245.0915163706243
 31
0.0000000001127424
  0
ARC
  5
1AC2D
330
18
100
AcDbEntity
  8
01
100
AcDbCircle
 10
2996.428718312816
 20
-244.7915163706243
 30
0.0000000001127424
 40
0.3
100
AcDbArc
 50
270.0
 51
0.0
  0
LINE
  5
1AC2E
330
18
100
AcDbEntity
  8
01
100
AcDbLine
 10
2996.428718312816
 20
-230.0915163706243
 30
0.0000000001127424
 11
2888.629935355416
 21
-230.091516370624
 31
0.0000000001127424
  0
ARC
  5
1AC2F
330
18
100
AcDbEntity
  8
01
100
AcDbCircle
 10
2996.428718312816
 20
-230.3915163706242
 30
0.0000000001127424
 40
0.3
100
AcDbArc
 50
0.0
 51
90.0
  0
LINE
  5
1AC30
330
18
100
AcDbEntity
  8
01
100
AcDbLine
 10
2888.329935355416
 20
-230.391516370624
 30
0.0000000001127424
 11
2888.329935355418
 21
-244.7915163706241
 31
0.0000000001127424
  0
ARC
  5
1AC31
330
18
100
AcDbEntity
  8
01
100
AcDbCircle
 10
2888.629935355418
 20
-244.7915163706241
 30
0.0000000001127424
 40
0.3
100
AcDbArc
 50
180.000000000013
 51
270.0
  0
ARC
  5
1AC32
330
18
100
AcDbEntity
  8
01
100
AcDbCircle
 10
2888.629935355416
 20
-230.391516370624
 30
0.0000000001127424
 40
0.3
100
AcDbArc
 50
90.0
 51
180.0
  0
ARC
  5
1AC33
330
18
100
AcDbEntity
  8
01
100
AcDbCircle
 10
3484.332903668066
 20
-237.6565587772886
 30
0.0000000001127424
 40
482.7722247470638
100
AcDbArc
 50
178.6839510348122
 51
179.1344052077522
  0
ARC
  5
1AC34
330
18
100
AcDbEntity
  8
01
100
AcDbCircle
 10
3002.687763103515
 20
-226.5915188637734
 30
0.0000000001127424
 40
1.0
100
AcDbArc
 50
89.99999999989578
 51
178.6839510347992
  0
ARC
  5
1AC35
330
18
100
AcDbEntity
  8
01
100
AcDbCircle
 10
-3484.336510529244
 20
-237.5264162166261
 30
-0.0000000001127424
 40
482.7758320976027
210
0.0
220
0.0
230
-1.0
100
AcDbArc
 50
358.6839534281227
 51
359.1344045973026
  0
ARC
  5
1AC36
330
18
100
AcDbEntity
  8
01
100
AcDbCircle
 10
3002.687763103512
 20
-248.5915188624056
 30
0.0000000001127424
 40
1.0
100
AcDbArc
 50
181.3160465718643
 51
270.0
  0
LINE
  5
1AC37
330
18
100
AcDbEntity
  8
01
100
AcDbLine
 10
3002.687763103512
 20
-249.5915188624056
 30
0.0000000001127424
 11
3023.603656812303
 21
-249.5915188624056
 31
0.0000000001127424
  0
LINE
  5
1AC38
330
18
100
AcDbEntity
  8
01
100
AcDbLine
 10
3023.603656825961
 20
-225.5915188637734
 30
0.0000000001127424
 11
3002.687763103516
 21
-225.5915188637737
 31
0.0000000001127424
  0
ARC
  5
1AC39
330
18
100
AcDbEntity
  8
01
100
AcDbCircle
 10
-2545.392723543099
 20
-237.6024827757194
 30
-0.0000000001127424
 40
479.33717774423
210
0.0
220
0.0
230
-1.0
100
AcDbArc
 50
180.2119793218733
 51
181.3163952434257
  0
ARC
  5
1AC3A
330
18
100
AcDbEntity
  8
01
100
AcDbCircle
 10
3023.603656812303
 20
-248.5915188624056
 30
0.0000000001127424
 40
1.0
100
AcDbArc
 50
270.0
 51
358.6836047565612
  0
ARC
  5
1AC3B
330
18
100
AcDbEntity
  8
01
100
AcDbCircle
 10
2545.3934757082
 20
-237.5805451280289
 30
0.0000000001127424
 40
479.3364255656463
100
AcDbArc
 50
0.2119790525919863
 51
1.31639613694758
  0
ARC
  5
1AC3C
330
18
100
AcDbEntity
  8
01
100
AcDbCircle
 10
3023.603656825961
 20
-226.5915188637734
 30
0.0000000001127424
 40
1.0
100
AcDbArc
 50
1.316396136960603
 51
90.0
  0
ARC
  5
1AC3D
330
18
100
AcDbEntity
  8
01
100
AcDbCircle
 10
-2544.387489022726
 20
-237.590879947425
 30
-0.0000000001127424
 40
480.3424483767695
210
0.0
220
0.0
230
-1.0
100
AcDbArc
 50
180.000075918476
 51
180.2129196928522
  0
ARC
  5
1AC3E
330
18
100
AcDbEntity
  8
01
100
AcDbCircle
 10
2544.387600911389
 20
-237.5921527841163
 30
0.0000000001127424
 40
480.3423364881063
100
AcDbArc
 50
0.0000759069075514
 51
0.2129197176437416
  0
LINE
  5
1AC3F
330
18
100
AcDbEntity
  8
01
100
AcDbLine
 10
3001.58121037826
 20
-230.4268235202953
 30
0.0000000001127424
 11
2997.028718312817
 21
-230.4268235202953
 31
0.0000000001127424
  0
LINE
  5
1AC40
330
18
100
AcDbEntity
  8
01
100
AcDbLine
 10
3001.58121037826
 20
-244.7562107819342
 30
0.0000000001127424
 11
2997.028718312817
 21
-244.7562107819342
 31
0.0000000001127424
  0
ARC
  5
1AC41
330
18
100
AcDbEntity
  8
01
100
AcDbCircle
 10
3001.497948822071
 20
-244.8425492085275
 30
0.0000000001127424
 40
0.1199449629845831
100
AcDbArc
 50
10.99597724624022
 51
46.03931011343067
  0
LINE
  5
1AC42
330
18
100
AcDbEntity
  8
01
100
AcDbLine
 10
3001.615691664837
 20
-244.8196708973437
 30
0.0000000001127424
 11
3001.615737470491
 21
-244.817435149256
 31
0.0000000001127424
  0
ARC
  5
1AC43
330
18
100
AcDbEntity
  8
01
100
AcDbCircle
 10
-3001.49794906255
 20
-230.3404853704526
 30
-0.0000000001127424
 40
0.1199447344078585
210
0.0
220
0.0
230
-1.0
100
AcDbArc
 50
190.9960175650099
 51
226.0393644036633
  0
LINE
  5
1AC44
330
18
100
AcDbEntity
  8
01
100
AcDbLine
 10
3001.615691664837
 20
-230.3633637208925
 30
0.0000000001127424
 11
3001.615737470491
 21
-230.3655994827495
 31
0.0000000001127424
  0
LINE
  5
1AC45
330
18
100
AcDbEntity
  8
01
100
AcDbLine
 10
2996.728718312816
 20
-230.3915163706242
 30
0.0000000001127424
 11
2996.728718312816
 21
-244.7915163706243
 31
0.0000000001127424
  0
ARC
  5
1AC46
330
18
100
AcDbEntity
  8
01
100
AcDbCircle
 10
2997.028718312817
 20
-244.4562107819343
 30
0.0000000001127424
 40
0.3
100
AcDbArc
 50
180.0
 51
270.0
  0
ARC
  5
1AC47
330
18
100
AcDbEntity
  8
01
100
AcDbCircle
 10
2997.028718312817
 20
-230.7268235202953
 30
0.0000000001127424
 40
0.3
100
AcDbArc
 50
90.0
 51
180.0
  0
LINE
  5
1AC48
330
18
100
AcDbEntity
  8
1DIM
100
AcDbLine
 10
2995.145589182374
 20
3.40716531627254
 30
0.0000000001127424
 11
3100.145589182374
 21
3.407165316272312
 31
0.0000000001127424
  0
LINE
  5
1AC49
330
18
100
AcDbEntity
  8
1DIM
100
AcDbLine
 10
2995.145589182374
 20
13.90716531627299
 30
0.0000000001127424
 11
3100.145589182374
 21
13.90716531627322
 31
0.0000000001127424
  0
TEXT
  5
1AC4A
330
18
100
AcDbEntity
  8
1TEXT
100
AcDbText
 10
3063.445589182375
 20
5.657165316273222
 30
0.0000000001127424
 40
6.0
  1
コード
 72
     1
 11
3073.745589182375
 21
5.657165316273222
 31
0.0000000001127424
100
AcDbText
  0
TEXT
  5
1AC4B
330
18
100
AcDbEntity
  8
1TEXT
100
AcDbText
 10
3007.345589182375
 20
5.657165316273222
 30
0.0000000001127424
 40
6.0
  1
表面処理
 72
     1
 11
3021.245589182375
 21
5.657165316273222
 31
0.0000000001127424
100
AcDbText
  0
TEXT
  5
1AC4C
330
18
100
AcDbEntity
  8
1TEXT
100
AcDbText
 10
3001.405589182375
 20
-15.6643701592011
 30
0.0000000001127424
 40
6.0
  1
サテンニッケル
 41
0.8
 72
     1
 11
3021.245589182376
 21
-15.6643701592011
 31
0.0000000001127424
100
AcDbText
  0
LINE
  5
1AC4D
330
18
100
AcDbEntity
  8
1DIM
100
AcDbLine
 10
3047.645589182373
 20
13.90716531627322
 30
0.0000000001127424
 11
3047.645589182375
 21
-17.59283468371814
 31
0.0000000001127424
  0
LINE
  5
1AC4E
330
18
100
AcDbEntity
  8
1DIM
100
AcDbLine
 10
3100.145589182374
 20
13.90716531627322
 30
0.0000000001127424
 11
3100.145589182373
 21
-17.59283468372769
 31
0.0000000001127424
  0
LINE
  5
1AC4F
330
18
100
AcDbEntity
  8
1DIM
100
AcDbLine
 10
2995.145589182374
 20
-17.5928346837261
 30
0.0000000001127424
 11
2995.145589182374
 21
13.90716531627299
 31
0.0000000001127424
  0
LINE
  5
1AC50
330
18
100
AcDbEntity
  8
1DIM
100
AcDbLine
 10
2995.145589182374
 20
-7.092834683726778
 30
0.0000000001127424
 11
3100.145589182374
 21
-7.092834683727688
 31
0.0000000001127424
  0
LINE
  5
1AC51
330
18
100
AcDbEntity
  8
1DIM
100
AcDbLine
 10
2995.145589182374
 20
-17.59283468372701
 30
0.0000000001127424
 11
3100.145589182374
 21
-17.59283468372769
 31
0.0000000001127424
  0
TEXT
  5
1AC52
330
18
100
AcDbEntity
  8
1TEXT
100
AcDbText
 10
3051.345589182376
 20
-15.66437015920155
 30
0.0000000001127424
 40
6.0
  1
3-FKC-CN-LJ
 41
0.7
 72
     1
 11
3073.745589182376
 21
-15.66437015920155
 31
0.0000000001127424
100
AcDbText
  0
TEXT
  5
1AC53
330
18
100
AcDbEntity
  8
1TEXT
100
AcDbText
 10
3051.345589182376
 20
-5.164370159201553
 30
0.0000000001127424
 40
6.0
  1
3-FKC-CB-LJ
 41
0.7
 72
     1
 11
3073.745589182376
 21
-5.164370159201553
 31
0.0000000001127424
100
AcDbText
  0
TEXT
  5
1AC54
330
18
100
AcDbEntity
  8
1TEXT
100
AcDbText
 10
3001.565589182373
 20
-4.559205101082625
 30
0.0000000001127424
 40
6.0
  1
パールクローム
 41
0.8
 72
     1
 11
3021.245589182373
 21
-4.559205101082625
 31
0.0000000001127424
100
AcDbText
  0
LINE
  5
1AEFF
330
18
100
AcDbEntity
  8
01
100
AcDbLine
 10
2993.145569182371
 20
-182.0928346837268
 30
0.0000000002254849
 11
2993.145569182371
 21
-153.2928346837268
 31
0.0000000002254849
1001
ACAD
1000
DSTYLE
1002
{
1070
     3
1000
φ<>
1070
    40
1040
1.3
1070
    45
1040
0.5
1070
   271
1070
     4
1070
   272
1070
     2
1002
}
  0
LINE
  5
1AF00
330
18
100
AcDbEntity
  8
01
100
AcDbLine
 10
3033.145569182371
 20
-182.0928346837268
 30
0.0000000002254849
 11
3033.145569182371
 21
-153.2928346837268
 31
0.0000000002254849
1001
ACAD
1000
DSTYLE
1002
{
1070
     3
1000
φ<>
1070
    40
1040
1.3
1070
    45
1040
0.5
1070
   271
1070
     4
1070
   272
1070
     2
1002
}
  0
LINE
  5
1AF01
330
18
100
AcDbEntity
  8
01
100
AcDbLine
 10
2995.745569182371
 20
-154.5928346837268
 30
0.0000000002254849
 11
3030.545569182371
 21
-154.5928346837268
 31
0.0000000002254849
1001
ACAD
1000
DSTYLE
1002
{
1070
     3
1000
φ<>
1070
    40
1040
1.3
1070
    45
1040
0.5
1070
   271
1070
     4
1070
   272
1070
     2
1002
}
  0
LINE
  5
1AF05
330
18
100
AcDbEntity
  8
01
100
AcDbLine
 10
3163.145573182376
 20
-162.0928346837268
 30
0.0000000002254849
 11
3163.145573182376
 21
-130.2928346837268
 31
0.0000000002254849
1001
ACAD
1000
DSTYLE
1002
{
1070
    40
1040
1.3
1070
    45
1040
0.5
1070
   341
1005
0
1002
}
  0
LINE
  5
1AF06
330
18
100
AcDbEntity
  8
01
100
AcDbLine
 10
3141.145187616657
 20
-177.5928396837257
 30
0.0000000002254849
 11
3141.145187616657
 21
-130.2928346837268
 31
0.0000000002254849
1001
ACAD
1000
DSTYLE
1002
{
1070
    40
1040
1.3
1070
    45
1040
0.5
1070
   341
1005
0
1002
}
  0
LINE
  5
1AF07
330
18
100
AcDbEntity
  8
01
100
AcDbLine
 10
3160.545573182376
 20
-131.5928346837268
 30
0.0000000002254849
 11
3143.745187616656
 21
-131.5928346837268
 31
0.0000000002254849
1001
ACAD
1000
DSTYLE
1002
{
1070
    40
1040
1.3
1070
    45
1040
0.5
1070
   341
1005
0
1002
}
  0
LINE
  5
1AF0B
330
18
100
AcDbEntity
  8
01
100
AcDbLine
 10
3333.14545652017
 20
-182.0928346837268
 30
0.0000000002254849
 11
3333.14545652017
 21
-153.2928346837268
 31
0.0000000002254849
1001
ACAD
1000
DSTYLE
1002
{
1070
     3
1000
φ<>
1070
    40
1040
1.3
1070
    45
1040
0.5
1070
   271
1070
     4
1070
   272
1070
     2
1002
}
  0
LINE
  5
1AF0C
330
18
100
AcDbEntity
  8
01
100
AcDbLine
 10
3373.14545652017
 20
-182.0928346837268
 30
0.0000000002254849
 11
3373.14545652017
 21
-153.2928346837268
 31
0.0000000002254849
1001
ACAD
1000
DSTYLE
1002
{
1070
     3
1000
φ<>
1070
    40
1040
1.3
1070
    45
1040
0.5
1070
   271
1070
     4
1070
   272
1070
     2
1002
}
  0
LINE
  5
1AF0D
330
18
100
AcDbEntity
  8
01
100
AcDbLine
 10
3335.74545652017
 20
-154.5928346837268
 30
0.0000000002254849
 11
3370.54545652017
 21
-154.5928346837268
 31
0.0000000002254849
1001
ACAD
1000
DSTYLE
1002
{
1070
     3
1000
φ<>
1070
    40
1040
1.3
1070
    45
1040
0.5
1070
   271
1070
     4
1070
   272
1070
     2
1002
}
  0
LINE
  5
1AF11
330
18
100
AcDbEntity
  8
01
100
AcDbLine
 10
2993.145569182371
 20
-182.0928346837268
 30
0.0000000002254849
 11
2993.145569182371
 21
-153.2928346837268
 31
0.0000000002254849
1001
ACAD
1000
DSTYLE
1002
{
1070
     3
1000
φ<>
1070
    40
1040
1.3
1070
    45
1040
0.5
1070
   271
1070
     4
1070
   272
1070
     2
1002
}
  0
LINE
  5
1AF12
330
18
100
AcDbEntity
  8
01
100
AcDbLine
 10
3033.145569182371
 20
-182.0928346837268
 30
0.0000000002254849
 11
3033.145569182371
 21
-153.2928346837268
 31
0.0000000002254849
1001
ACAD
1000
DSTYLE
1002
{
1070
     3
1000
φ<>
1070
    40
1040
1.3
1070
    45
1040
0.5
1070
   271
1070
     4
1070
   272
1070
     2
1002
}
  0
LINE
  5
1AF13
330
18
100
AcDbEntity
  8
01
100
AcDbLine
 10
2995.745569182371
 20
-154.5928346837268
 30
0.0000000002254849
 11
3030.545569182371
 21
-154.5928346837268
 31
0.0000000002254849
1001
ACAD
1000
DSTYLE
1002
{
1070
     3
1000
φ<>
1070
    40
1040
1.3
1070
    45
1040
0.5
1070
   271
1070
     4
1070
   272
1070
     2
1002
}
  0
LINE
  5
1AF17
330
18
100
AcDbEntity
  8
01
100
AcDbLine
 10
3163.145573182376
 20
-162.0928346837268
 30
0.0000000002254849
 11
3163.145573182376
 21
-130.2928346837268
 31
0.0000000002254849
1001
ACAD
1000
DSTYLE
1002
{
1070
    40
1040
1.3
1070
    45
1040
0.5
1070
   341
1005
0
1002
}
  0
LINE
  5
1AF18
330
18
100
AcDbEntity
  8
01
100
AcDbLine
 10
3141.145548371364
 20
-178.9723648589509
 30
0.0000000002254849
 11
3141.145548371364
 21
-130.2928346837268
 31
0.0000000002254849
1001
ACAD
1000
DSTYLE
1002
{
1070
    40
1040
1.3
1070
    45
1040
0.5
1070
   341
1005
0
1002
}
  0
LINE
  5
1AF19
330
18
100
AcDbEntity
  8
01
100
AcDbLine
 10
3160.545573182376
 20
-131.5928346837268
 30
0.0000000002254849
 11
3143.745548371364
 21
-131.5928346837268
 31
0.0000000002254849
1001
ACAD
1000
DSTYLE
1002
{
1070
    40
1040
1.3
1070
    45
1040
0.5
1070
   341
1005
0
1002
}
  0
LINE
  5
1AF1D
330
18
100
AcDbEntity
  8
01
100
AcDbLine
 10
3203.145573182375
 20
-162.0928346837268
 30
0.0000000000564849
 11
3203.145573182375
 21
-130.2928346837268
 31
0.0000000000564849
1001
ACAD
1000
DSTYLE
1002
{
1070
    40
1040
1.3
1070
    45
1040
0.5
1070
   271
1070
     1
1070
   341
1005
0
1002
}
  0
LINE
  5
1AF1E
330
18
100
AcDbEntity
  8
01
100
AcDbLine
 10
3211.314156871336
 20
-187.5928331160346
 30
0.0000000000564849
 11
3211.314156871336
 21
-130.2928346837268
 31
0.0000000000564849
1001
ACAD
1000
DSTYLE
1002
{
1070
    40
1040
1.3
1070
    45
1040
0.5
1070
   271
1070
     1
1070
   341
1005
0
1002
}
  0
LINE
  5
1AF1F
330
18
100
AcDbEntity
  8
01
100
AcDbLine
 10
3205.745573182375
 20
-131.5928346837268
 30
0.0000000000564849
 11
3208.714156871336
 21
-131.5928346837268
 31
0.0000000000564849
1001
ACAD
1000
DSTYLE
1002
{
1070
    40
1040
1.3
1070
    45
1040
0.5
1070
   271
1070
     1
1070
   341
1005
0
1002
}
  0
TEXT
  5
1AF23
330
18
100
AcDbEntity
  8
01
  6
CONTINUOUS
100
AcDbText
 10
3264.148617935648
 20
-25.00950135142231
 30
0.0000000001127424
 40
4.55
  1
材質：亜鉛ダイキャスト
100
AcDbText
  0
TEXT
  5
1AF24
330
18
100
AcDbEntity
  8
01
  6
CONTINUOUS
100
AcDbText
 10
3279.618617935648
 20
-32.59283468475564
 30
0.0000000001127424
 40
4.55
  1
仕上げ：クローム
100
AcDbText
  0
LINE
  5
1AF25
330
18
100
AcDbEntity
  8
01
100
AcDbLine
 10
3291.14545684263
 20
-209.5928353818583
 30
0.0000000002254849
 11
3291.14545684263
 21
-106.871342599039
 31
0.0000000002254849
1001
ACAD
1000
DSTYLE
1002
{
1070
    40
1040
1.3
1070
    45
1040
0.5
1002
}
  0
LINE
  5
1AF26
330
18
100
AcDbEntity
  8
01
100
AcDbLine
 10
3302.14545684263
 20
-151.7215173325694
 30
0.0000000002254849
 11
3302.14545684263
 21
-106.871342599039
 31
0.0000000002254849
1001
ACAD
1000
DSTYLE
1002
{
1070
    40
1040
1.3
1070
    45
1040
0.5
1002
}
  0
LINE
  5
1AF27
330
18
100
AcDbEntity
  8
01
100
AcDbLine
 10
3293.74545684263
 20
-108.171342599039
 30
0.0000000002254849
 11
3299.54545684263
 21
-108.171342599039
 31
0.0000000002254849
1001
ACAD
1000
DSTYLE
1002
{
1070
    40
1040
1.3
1070
    45
1040
0.5
1002
}
  0
LINE
  5
1AF2B
330
18
100
AcDbEntity
  8
01
100
AcDbLine
 10
3371.14545684263
 20
-179.592834683727
 30
0.0000000002254849
 11
3399.44545684263
 21
-179.592834683727
 31
0.0000000002254849
1001
ACAD
1000
DSTYLE
1002
{
1070
    40
1040
1.3
1070
    45
1040
0.5
1002
}
  0
LINE
  5
1AF2C
330
18
100
AcDbEntity
  8
01
100
AcDbLine
 10
3371.14545684263
 20
-253.5928346837275
 30
0.0000000002254849
 11
3399.44545684263
 21
-253.5928346837275
 31
0.0000000002254849
1001
ACAD
1000
DSTYLE
1002
{
1070
    40
1040
1.3
1070
    45
1040
0.5
1002
}
  0
LINE
  5
1AF2D
330
18
100
AcDbEntity
  8
01
100
AcDbLine
 10
3398.14545684263
 20
-182.192834683727
 30
0.0000000002254849
 11
3398.14545684263
 21
-250.9928346837275
 31
0.0000000002254849
1001
ACAD
1000
DSTYLE
1002
{
1070
    40
1040
1.3
1070
    45
1040
0.5
1002
}
  0
LINE
  5
1AF31
330
18
100
AcDbEntity
  8
01
100
AcDbLine
 10
3371.14545684263
 20
-179.592834683727
 30
0.0000000002254849
 11
3371.14545684263
 21
-96.79147513099083
 31
0.0000000002254849
1001
ACAD
1000
DSTYLE
1002
{
1070
    40
1040
1.3
1070
    45
1040
0.5
1002
}
  0
LINE
  5
1AF32
330
18
100
AcDbEntity
  8
01
100
AcDbLine
 10
3302.14545684263
 20
-151.7215173325694
 30
0.0000000002254849
 11
3302.14545684263
 21
-96.79147513099083
 31
0.0000000002254849
1001
ACAD
1000
DSTYLE
1002
{
1070
    40
1040
1.3
1070
    45
1040
0.5
1002
}
  0
LINE
  5
1AF33
330
18
100
AcDbEntity
  8
01
100
AcDbLine
 10
3368.54545684263
 20
-98.09147513099083
 30
0.0000000002254849
 11
3304.74545684263
 21
-98.09147513099083
 31
0.0000000002254849
1001
ACAD
1000
DSTYLE
1002
{
1070
    40
1040
1.3
1070
    45
1040
0.5
1002
}
  0
LINE
  5
1AF37
330
18
100
AcDbEntity
  8
01
100
AcDbLine
 10
3302.14545684263
 20
-151.7215173325694
 30
0.0000000002254849
 11
3302.14545684263
 21
-106.871342599039
 31
0.0000000002254849
1001
ACAD
1000
DSTYLE
1002
{
1070
    40
1040
1.3
1070
    45
1040
0.5
1002
}
  0
LINE
  5
1AF38
330
18
100
AcDbEntity
  8
01
100
AcDbLine
 10
3353.14545684263
 20
-187.592834683727
 30
0.0000000002254849
 11
3353.14545684263
 21
-106.871342599039
 31
0.0000000002254849
1001
ACAD
1000
DSTYLE
1002
{
1070
    40
1040
1.3
1070
    45
1040
0.5
1002
}
  0
LINE
  5
1AF39
330
18
100
AcDbEntity
  8
01
100
AcDbLine
 10
3304.74545684263
 20
-108.171342599039
 30
0.0000000002254849
 11
3350.54545684263
 21
-108.171342599039
 31
0.0000000002254849
1001
ACAD
1000
DSTYLE
1002
{
1070
    40
1040
1.3
1070
    45
1040
0.5
1002
}
  0
LINE
  5
1AF3D
330
18
100
AcDbEntity
  8
01
100
AcDbLine
 10
3170.645573182374
 20
-157.5928346837275
 30
0.0000000002254849
 11
3170.645573182374
 21
-106.8713425990392
 31
0.0000000002254849
1001
ACAD
1000
DSTYLE
1002
{
1070
    40
1040
1.3
1070
    45
1040
0.5
1002
}
  0
LINE
  5
1AF3E
330
18
100
AcDbEntity
  8
01
100
AcDbLine
 10
3195.645573182374
 20
-157.5928346837275
 30
0.0000000002254849
 11
3195.645573182374
 21
-106.8713425990392
 31
0.0000000002254849
1001
ACAD
1000
DSTYLE
1002
{
1070
    40
1040
1.3
1070
    45
1040
0.5
1002
}
  0
LINE
  5
1AF3F
330
18
100
AcDbEntity
  8
01
100
AcDbLine
 10
3173.245573182374
 20
-108.1713425990392
 30
0.0000000002254849
 11
3193.045573182374
 21
-108.1713425990392
 31
0.0000000002254849
1001
ACAD
1000
DSTYLE
1002
{
1070
    40
1040
1.3
1070
    45
1040
0.5
1002
}
  0
LINE
  5
1AF43
330
18
100
AcDbEntity
  8
01
100
AcDbLine
 10
3149.944611288051
 20
-236.8428346837275
 30
0.0
 11
3148.645573182374
 21
-236.0928346837275
 31
0.0
  0
LINE
  5
1AF44
330
18
100
AcDbEntity
  8
01
100
AcDbLine
 10
3148.645573182374
 20
-236.0928346837275
 30
0.0
 11
3147.346535076697
 21
-236.8428346837275
 31
0.0
  0
LINE
  5
1AF45
330
18
100
AcDbEntity
  8
01
100
AcDbLine
 10
3147.346535076697
 20
-236.8428346837275
 30
0.0
 11
3147.346535076697
 21
-238.3428346837275
 31
0.0
  0
LINE
  5
1AF46
330
18
100
AcDbEntity
  8
01
100
AcDbLine
 10
3147.346535076697
 20
-238.3428346837275
 30
0.0
 11
3148.645573182374
 21
-239.0928346837275
 31
0.0
  0
LINE
  5
1AF47
330
18
100
AcDbEntity
  8
01
100
AcDbLine
 10
3148.645573182374
 20
-239.0928346837275
 30
0.0
 11
3149.944611288051
 21
-238.3428346837275
 31
0.0
  0
LINE
  5
1AF48
330
18
100
AcDbEntity
  8
01
100
AcDbLine
 10
3149.944611288051
 20
-238.3428346837275
 30
0.0
 11
3149.944611288051
 21
-236.8428346837275
 31
0.0
  0
LINE
  5
1AF49
330
18
100
AcDbEntity
  8
01
100
AcDbLine
 10
3188.94751278561
 20
-159.5923895393112
 30
0.0000000003382273
 11
3269.233643953819
 21
-159.5923895393112
 31
0.0000000003382273
1001
ACAD
1000
DSTYLE
1002
{
1070
    40
1040
1.3
1070
    45
1040
0.5
1002
}
  0
LINE
  5
1AF4A
330
18
100
AcDbEntity
  8
01
100
AcDbLine
 10
3188.94751278561
 20
-273.5923895393112
 30
0.0000000003382273
 11
3269.233643953819
 21
-273.5923895393112
 31
0.0000000003382273
1001
ACAD
1000
DSTYLE
1002
{
1070
    40
1040
1.3
1070
    45
1040
0.5
1002
}
  0
LINE
  5
1AF4B
330
18
100
AcDbEntity
  8
01
100
AcDbLine
 10
3267.933643953818
 20
-162.1923895393112
 30
0.0000000003382273
 11
3267.933643953818
 21
-270.9923895393112
 31
0.0000000003382273
1001
ACAD
1000
DSTYLE
1002
{
1070
    40
1040
1.3
1070
    45
1040
0.5
1002
}
  0
LINE
  5
1AF4F
330
18
100
AcDbEntity
  8
01
100
AcDbLine
 10
3189.545573182374
 20
-151.6928346837276
 30
0.0000000003382273
 11
3278.597978120043
 21
-151.6928346837276
 31
0.0000000003382273
1001
ACAD
1000
DSTYLE
1002
{
1070
    40
1040
1.3
1070
    45
1040
0.5
1002
}
  0
LINE
  5
1AF50
330
18
100
AcDbEntity
  8
01
100
AcDbLine
 10
3189.472487377704
 20
-281.492389539311
 30
0.0000000003382273
 11
3278.597978120043
 21
-281.4923895393111
 31
0.0000000003382273
1001
ACAD
1000
DSTYLE
1002
{
1070
    40
1040
1.3
1070
    45
1040
0.5
1002
}
  0
LINE
  5
1AF51
330
18
100
AcDbEntity
  8
01
100
AcDbLine
 10
3277.297978120043
 20
-154.2928346837276
 30
0.0000000003382273
 11
3277.297978120043
 21
-278.8923895393111
 31
0.0000000003382273
1001
ACAD
1000
DSTYLE
1002
{
1070
    40
1040
1.3
1070
    45
1040
0.5
1002
}
  0
LINE
  5
1AF55
330
18
100
AcDbEntity
  8
01
100
AcDbLine
 10
3353.14545684263
 20
-212.5915163706243
 30
0.0000000002254849
 11
3316.84545684263
 21
-212.5915163706243
 31
0.0000000002254849
1001
ACAD
1000
DSTYLE
1002
{
1070
     3
1000
φ<>
1070
    40
1040
1.3
1070
    45
1040
0.5
1002
}
  0
LINE
  5
1AF56
330
18
100
AcDbEntity
  8
01
100
AcDbLine
 10
3353.14545684263
 20
-262.5915163706234
 30
0.0000000002254849
 11
3316.84545684263
 21
-262.5915163706234
 31
0.0000000002254849
1001
ACAD
1000
DSTYLE
1002
{
1070
     3
1000
φ<>
1070
    40
1040
1.3
1070
    45
1040
0.5
1002
}
  0
LINE
  5
1AF57
330
18
100
AcDbEntity
  8
01
100
AcDbLine
 10
3318.14545684263
 20
-215.1915163706243
 30
0.0000000002254849
 11
3318.14545684263
 21
-259.9915163706233
 31
0.0000000002254849
1001
ACAD
1000
DSTYLE
1002
{
1070
     3
1000
φ<>
1070
    40
1040
1.3
1070
    45
1040
0.5
1002
}
  0
CIRCLE
  5
1AF5B
330
18
100
AcDbEntity
  8
01
100
AcDbCircle
 10
3217.64545684263
 20
-237.5915163706243
 30
0.0000000001127424
 40
3.0
  0
LINE
  5
1AF5C
330
18
100
AcDbEntity
  8
01
  6
BYBLOCK
100
AcDbLine
 10
2995.745569182371
 20
-155.2895025777268
 30
0.0000000002254849
 11
2993.145569182371
 21
-154.5928346837268
 31
0.0000000002254849
  0
LINE
  5
1AF5D
330
18
100
AcDbEntity
  8
01
  6
BYBLOCK
100
AcDbLine
 10
2993.145569182371
 20
-154.5928346837268
 30
0.0000000002254849
 11
2995.745569182371
 21
-153.8961667897268
 31
0.0000000002254849
  0
LINE
  5
1AF5E
330
18
100
AcDbEntity
  8
01
  6
BYBLOCK
100
AcDbLine
 10
2993.145569182371
 20
-154.5928346837268
 30
0.0000000002254849
 11
2995.745569182371
 21
-154.5928346837268
 31
0.0000000002254849
  0
LINE
  5
1AF5F
330
18
100
AcDbEntity
  8
01
  6
BYBLOCK
100
AcDbLine
 10
3030.545569182371
 20
-153.8961667897268
 30
0.0000000002254849
 11
3033.145569182371
 21
-154.5928346837268
 31
0.0000000002254849
  0
LINE
  5
1AF60
330
18
100
AcDbEntity
  8
01
  6
BYBLOCK
100
AcDbLine
 10
3033.145569182371
 20
-154.5928346837268
 30
0.0000000002254849
 11
3030.545569182371
 21
-155.2895025777268
 31
0.0000000002254849
  0
LINE
  5
1AF61
330
18
100
AcDbEntity
  8
01
  6
BYBLOCK
100
AcDbLine
 10
3033.145569182371
 20
-154.5928346837268
 30
0.0000000002254849
 11
3030.545569182371
 21
-154.5928346837268
 31
0.0000000002254849
  0
TEXT
  5
1AF62
330
18
100
AcDbEntity
  8
01
  6
CONTINUOUS
100
AcDbText
 10
3006.301610849038
 20
-153.6828346837268
 30
0.0000000002254849
 40
4.55
  1
φ40
100
AcDbText
1001
ACAD
1000
DSTYLE
1002
{
1070
     3
1000
φ<>
1070
    40
1040
1.3
1070
    45
1040
0.5
1070
   271
1070
     4
1070
   272
1070
     2
1002
}
  0
LINE
  5
1AF63
330
18
100
AcDbEntity
  8
01
  6
BYBLOCK
100
AcDbLine
 10
3160.545573182376
 20
-130.8961667897268
 30
0.0000000002254849
 11
3163.145573182376
 21
-131.5928346837268
 31
0.0000000002254849
  0
LINE
  5
1AF64
330
18
100
AcDbEntity
  8
01
  6
BYBLOCK
100
AcDbLine
 10
3163.145573182376
 20
-131.5928346837268
 30
0.0000000002254849
 11
3160.545573182376
 21
-132.2895025777268
 31
0.0000000002254849
  0
LINE
  5
1AF65
330
18
100
AcDbEntity
  8
01
  6
BYBLOCK
100
AcDbLine
 10
3163.145573182376
 20
-131.5928346837268
 30
0.0000000002254849
 11
3160.545573182376
 21
-131.5928346837268
 31
0.0000000002254849
  0
LINE
  5
1AF66
330
18
100
AcDbEntity
  8
01
  6
BYBLOCK
100
AcDbLine
 10
3143.745187616656
 20
-132.2895025777268
 30
0.0000000002254849
 11
3141.145187616657
 21
-131.5928346837268
 31
0.0000000002254849
  0
LINE
  5
1AF67
330
18
100
AcDbEntity
  8
01
  6
BYBLOCK
100
AcDbLine
 10
3141.145187616657
 20
-131.5928346837268
 30
0.0000000002254849
 11
3143.745187616656
 21
-130.8961667897268
 31
0.0000000002254849
  0
LINE
  5
1AF68
330
18
100
AcDbEntity
  8
01
  6
BYBLOCK
100
AcDbLine
 10
3141.145187616657
 20
-131.5928346837268
 30
0.0000000002254849
 11
3143.745187616656
 21
-131.5928346837268
 31
0.0000000002254849
  0
TEXT
  5
1AF69
330
18
100
AcDbEntity
  8
01
  6
CONTINUOUS
100
AcDbText
 10
3148.35371373285
 20
-130.6828346837268
 30
0.0000000002254849
 40
4.55
  1
22
100
AcDbText
1001
ACAD
1000
DSTYLE
1002
{
1070
    40
1040
1.3
1070
    45
1040
0.5
1070
   341
1005
0
1002
}
  0
LINE
  5
1AF6A
330
18
100
AcDbEntity
  8
01
  6
BYBLOCK
100
AcDbLine
 10
3335.74545652017
 20
-155.2895025777268
 30
0.0000000002254849
 11
3333.14545652017
 21
-154.5928346837268
 31
0.0000000002254849
  0
LINE
  5
1AF6B
330
18
100
AcDbEntity
  8
01
  6
BYBLOCK
100
AcDbLine
 10
3333.14545652017
 20
-154.5928346837268
 30
0.0000000002254849
 11
3335.74545652017
 21
-153.8961667897268
 31
0.0000000002254849
  0
LINE
  5
1AF6C
330
18
100
AcDbEntity
  8
01
  6
BYBLOCK
100
AcDbLine
 10
3333.14545652017
 20
-154.5928346837268
 30
0.0000000002254849
 11
3335.74545652017
 21
-154.5928346837268
 31
0.0000000002254849
  0
LINE
  5
1AF6D
330
18
100
AcDbEntity
  8
01
  6
BYBLOCK
100
AcDbLine
 10
3370.54545652017
 20
-153.8961667897268
 30
0.0000000002254849
 11
3373.14545652017
 21
-154.5928346837268
 31
0.0000000002254849
  0
LINE
  5
1AF6E
330
18
100
AcDbEntity
  8
01
  6
BYBLOCK
100
AcDbLine
 10
3373.14545652017
 20
-154.5928346837268
 30
0.0000000002254849
 11
3370.54545652017
 21
-155.2895025777268
 31
0.0000000002254849
  0
LINE
  5
1AF6F
330
18
100
AcDbEntity
  8
01
  6
BYBLOCK
100
AcDbLine
 10
3373.14545652017
 20
-154.5928346837268
 30
0.0000000002254849
 11
3370.54545652017
 21
-154.5928346837268
 31
0.0000000002254849
  0
TEXT
  5
1AF70
330
18
100
AcDbEntity
  8
01
  6
CONTINUOUS
100
AcDbText
 10
3346.301498186837
 20
-153.6828346837268
 30
0.0000000002254849
 40
4.55
  1
φ40
100
AcDbText
1001
ACAD
1000
DSTYLE
1002
{
1070
     3
1000
φ<>
1070
    40
1040
1.3
1070
    45
1040
0.5
1070
   271
1070
     4
1070
   272
1070
     2
1002
}
  0
LINE
  5
1AF71
330
18
100
AcDbEntity
  8
01
  6
BYBLOCK
100
AcDbLine
 10
2995.745569182371
 20
-155.2895025777268
 30
0.0000000002254849
 11
2993.145569182371
 21
-154.5928346837268
 31
0.0000000002254849
  0
LINE
  5
1AF72
330
18
100
AcDbEntity
  8
01
  6
BYBLOCK
100
AcDbLine
 10
2993.145569182371
 20
-154.5928346837268
 30
0.0000000002254849
 11
2995.745569182371
 21
-153.8961667897268
 31
0.0000000002254849
  0
LINE
  5
1AF73
330
18
100
AcDbEntity
  8
01
  6
BYBLOCK
100
AcDbLine
 10
2993.145569182371
 20
-154.5928346837268
 30
0.0000000002254849
 11
2995.745569182371
 21
-154.5928346837268
 31
0.0000000002254849
  0
LINE
  5
1AF74
330
18
100
AcDbEntity
  8
01
  6
BYBLOCK
100
AcDbLine
 10
3030.545569182371
 20
-153.8961667897268
 30
0.0000000002254849
 11
3033.145569182371
 21
-154.5928346837268
 31
0.0000000002254849
  0
LINE
  5
1AF75
330
18
100
AcDbEntity
  8
01
  6
BYBLOCK
100
AcDbLine
 10
3033.145569182371
 20
-154.5928346837268
 30
0.0000000002254849
 11
3030.545569182371
 21
-155.2895025777268
 31
0.0000000002254849
  0
LINE
  5
1AF76
330
18
100
AcDbEntity
  8
01
  6
BYBLOCK
100
AcDbLine
 10
3033.145569182371
 20
-154.5928346837268
 30
0.0000000002254849
 11
3030.545569182371
 21
-154.5928346837268
 31
0.0000000002254849
  0
TEXT
  5
1AF77
330
18
100
AcDbEntity
  8
01
  6
CONTINUOUS
100
AcDbText
 10
3006.301610849038
 20
-153.6828346837268
 30
0.0000000002254849
 40
4.55
  1
φ40
100
AcDbText
1001
ACAD
1000
DSTYLE
1002
{
1070
     3
1000
φ<>
1070
    40
1040
1.3
1070
    45
1040
0.5
1070
   271
1070
     4
1070
   272
1070
     2
1002
}
  0
LINE
  5
1AF78
330
18
100
AcDbEntity
  8
01
  6
BYBLOCK
100
AcDbLine
 10
3160.545573182376
 20
-130.8961667897268
 30
0.0000000002254849
 11
3163.145573182376
 21
-131.5928346837268
 31
0.0000000002254849
  0
LINE
  5
1AF79
330
18
100
AcDbEntity
  8
01
  6
BYBLOCK
100
AcDbLine
 10
3163.145573182376
 20
-131.5928346837268
 30
0.0000000002254849
 11
3160.545573182376
 21
-132.2895025777268
 31
0.0000000002254849
  0
LINE
  5
1AF7A
330
18
100
AcDbEntity
  8
01
  6
BYBLOCK
100
AcDbLine
 10
3163.145573182376
 20
-131.5928346837268
 30
0.0000000002254849
 11
3160.545573182376
 21
-131.5928346837268
 31
0.0000000002254849
  0
LINE
  5
1AF7B
330
18
100
AcDbEntity
  8
01
  6
BYBLOCK
100
AcDbLine
 10
3143.745548371364
 20
-132.2895025777268
 30
0.0000000002254849
 11
3141.145548371364
 21
-131.5928346837268
 31
0.0000000002254849
  0
LINE
  5
1AF7C
330
18
100
AcDbEntity
  8
01
  6
BYBLOCK
100
AcDbLine
 10
3141.145548371364
 20
-131.5928346837268
 30
0.0000000002254849
 11
3143.745548371364
 21
-130.8961667897268
 31
0.0000000002254849
  0
LINE
  5
1AF7D
330
18
100
AcDbEntity
  8
01
  6
BYBLOCK
100
AcDbLine
 10
3141.145548371364
 20
-131.5928346837268
 30
0.0000000002254849
 11
3143.745548371364
 21
-131.5928346837268
 31
0.0000000002254849
  0
TEXT
  5
1AF7E
330
18
100
AcDbEntity
  8
01
  6
CONTINUOUS
100
AcDbText
 10
3148.353894110204
 20
-130.6828346837268
 30
0.0000000002254849
 40
4.55
  1
22
100
AcDbText
1001
ACAD
1000
DSTYLE
1002
{
1070
    40
1040
1.3
1070
    45
1040
0.5
1070
   341
1005
0
1002
}
  0
LINE
  5
1AF7F
330
18
100
AcDbEntity
  8
01
  6
BYBLOCK
100
AcDbLine
 10
3205.745573182375
 20
-132.2895025777268
 30
0.0000000000564849
 11
3203.145573182375
 21
-131.5928346837268
 31
0.0000000000564849
  0
LINE
  5
1AF80
330
18
100
AcDbEntity
  8
01
  6
BYBLOCK
100
AcDbLine
 10
3203.145573182375
 20
-131.5928346837268
 30
0.0000000000564849
 11
3205.745573182375
 21
-130.8961667897268
 31
0.0000000000564849
  0
LINE
  5
1AF81
330
18
100
AcDbEntity
  8
01
  6
BYBLOCK
100
AcDbLine
 10
3203.145573182375
 20
-131.5928346837268
 30
0.0000000000564849
 11
3205.745573182375
 21
-131.5928346837268
 31
0.0000000000564849
  0
LINE
  5
1AF82
330
18
100
AcDbEntity
  8
01
  6
BYBLOCK
100
AcDbLine
 10
3208.714156871336
 20
-130.8961667897268
 30
0.0000000000564849
 11
3211.314156871336
 21
-131.5928346837268
 31
0.0000000000564849
  0
LINE
  5
1AF83
330
18
100
AcDbEntity
  8
01
  6
BYBLOCK
100
AcDbLine
 10
3211.314156871336
 20
-131.5928346837268
 30
0.0000000000564849
 11
3208.714156871336
 21
-132.2895025777268
 31
0.0000000000564849
  0
LINE
  5
1AF84
330
18
100
AcDbEntity
  8
01
  6
BYBLOCK
100
AcDbLine
 10
3211.314156871336
 20
-131.5928346837268
 30
0.0000000000564849
 11
3208.714156871336
 21
-131.5928346837268
 31
0.0000000000564849
  0
TEXT
  5
1AF85
330
18
100
AcDbEntity
  8
01
  6
CONTINUOUS
100
AcDbText
 10
3205.713198360189
 20
-130.6828346837268
 30
0.0000000000564849
 40
4.55
  1
8
100
AcDbText
1001
ACAD
1000
DSTYLE
1002
{
1070
    40
1040
1.3
1070
    45
1040
0.5
1070
   271
1070
     1
1070
   341
1005
0
1002
}
  0
LINE
  5
1AF86
330
18
100
AcDbEntity
  8
01
  6
BYBLOCK
100
AcDbLine
 10
3293.74545684263
 20
-108.868010493039
 30
0.0000000002254849
 11
3291.14545684263
 21
-108.171342599039
 31
0.0000000002254849
  0
LINE
  5
1AF87
330
18
100
AcDbEntity
  8
01
  6
BYBLOCK
100
AcDbLine
 10
3291.14545684263
 20
-108.171342599039
 30
0.0000000002254849
 11
3293.74545684263
 21
-107.474674705039
 31
0.0000000002254849
  0
LINE
  5
1AF88
330
18
100
AcDbEntity
  8
01
  6
BYBLOCK
100
AcDbLine
 10
3291.14545684263
 20
-108.171342599039
 30
0.0000000002254849
 11
3293.74545684263
 21
-108.171342599039
 31
0.0000000002254849
  0
LINE
  5
1AF89
330
18
100
AcDbEntity
  8
01
  6
BYBLOCK
100
AcDbLine
 10
3299.54545684263
 20
-107.474674705039
 30
0.0000000002254849
 11
3302.14545684263
 21
-108.171342599039
 31
0.0000000002254849
  0
LINE
  5
1AF8A
330
18
100
AcDbEntity
  8
01
  6
BYBLOCK
100
AcDbLine
 10
3302.14545684263
 20
-108.171342599039
 30
0.0000000002254849
 11
3299.54545684263
 21
-108.868010493039
 31
0.0000000002254849
  0
LINE
  5
1AF8B
330
18
100
AcDbEntity
  8
01
  6
BYBLOCK
100
AcDbLine
 10
3302.14545684263
 20
-108.171342599039
 30
0.0000000002254849
 11
3299.54545684263
 21
-108.171342599039
 31
0.0000000002254849
  0
TEXT
  5
1AF8C
330
18
100
AcDbEntity
  8
01
  6
CONTINUOUS
100
AcDbText
 10
3294.37045684263
 20
-107.261342599039
 30
0.0000000002254849
 40
4.55
  1
11
100
AcDbText
1001
ACAD
1000
DSTYLE
1002
{
1070
    40
1040
1.3
1070
    45
1040
0.5
1002
}
  0
LINE
  5
1AF8D
330
18
100
AcDbEntity
  8
01
  6
BYBLOCK
100
AcDbLine
 10
3397.44878894863
 20
-182.192834683727
 30
0.0000000002254849
 11
3398.14545684263
 21
-179.592834683727
 31
0.0000000002254849
  0
LINE
  5
1AF8E
330
18
100
AcDbEntity
  8
01
  6
BYBLOCK
100
AcDbLine
 10
3398.14545684263
 20
-179.592834683727
 30
0.0000000002254849
 11
3398.84212473663
 21
-182.192834683727
 31
0.0000000002254849
  0
LINE
  5
1AF8F
330
18
100
AcDbEntity
  8
01
  6
BYBLOCK
100
AcDbLine
 10
3398.14545684263
 20
-179.592834683727
 30
0.0000000002254849
 11
3398.14545684263
 21
-182.192834683727
 31
0.0000000002254849
  0
LINE
  5
1AF90
330
18
100
AcDbEntity
  8
01
  6
BYBLOCK
100
AcDbLine
 10
3398.84212473663
 20
-250.9928346837275
 30
0.0000000002254849
 11
3398.14545684263
 21
-253.5928346837275
 31
0.0000000002254849
  0
LINE
  5
1AF91
330
18
100
AcDbEntity
  8
01
  6
BYBLOCK
100
AcDbLine
 10
3398.14545684263
 20
-253.5928346837275
 30
0.0000000002254849
 11
3397.44878894863
 21
-250.9928346837275
 31
0.0000000002254849
  0
LINE
  5
1AF92
330
18
100
AcDbEntity
  8
01
  6
BYBLOCK
100
AcDbLine
 10
3398.14545684263
 20
-253.5928346837275
 30
0.0000000002254849
 11
3398.14545684263
 21
-250.9928346837275
 31
0.0000000002254849
  0
TEXT
  5
1AF93
330
18
100
AcDbEntity
  8
01
  6
CONTINUOUS
100
AcDbText
 10
3397.23545684263
 20
-198.6214905977085
 30
0.0000000002254849
 40
4.55
  1
74
 50
90.0
100
AcDbText
1001
ACAD
1000
DSTYLE
1002
{
1070
    40
1040
1.3
1070
    45
1040
0.5
1002
}
  0
LINE
  5
1AF94
330
18
100
AcDbEntity
  8
01
  6
BYBLOCK
100
AcDbLine
 10
3368.54545684263
 20
-97.39480723699083
 30
0.0000000002254849
 11
3371.14545684263
 21
-98.09147513099083
 31
0.0000000002254849
  0
LINE
  5
1AF95
330
18
100
AcDbEntity
  8
01
  6
BYBLOCK
100
AcDbLine
 10
3371.14545684263
 20
-98.09147513099083
 30
0.0000000002254849
 11
3368.54545684263
 21
-98.78814302499083
 31
0.0000000002254849
  0
LINE
  5
1AF96
330
18
100
AcDbEntity
  8
01
  6
BYBLOCK
100
AcDbLine
 10
3371.14545684263
 20
-98.09147513099083
 30
0.0000000002254849
 11
3368.54545684263
 21
-98.09147513099083
 31
0.0000000002254849
  0
LINE
  5
1AF97
330
18
100
AcDbEntity
  8
01
  6
BYBLOCK
100
AcDbLine
 10
3304.74545684263
 20
-98.78814302499083
 30
0.0000000002254849
 11
3302.14545684263
 21
-98.09147513099083
 31
0.0000000002254849
  0
LINE
  5
1AF98
330
18
100
AcDbEntity
  8
01
  6
BYBLOCK
100
AcDbLine
 10
3302.14545684263
 20
-98.09147513099083
 30
0.0000000002254849
 11
3304.74545684263
 21
-97.39480723699083
 31
0.0000000002254849
  0
LINE
  5
1AF99
330
18
100
AcDbEntity
  8
01
  6
BYBLOCK
100
AcDbLine
 10
3302.14545684263
 20
-98.09147513099083
 30
0.0000000002254849
 11
3304.74545684263
 21
-98.09147513099083
 31
0.0000000002254849
  0
TEXT
  5
1AF9A
330
18
100
AcDbEntity
  8
01
  6
CONTINUOUS
100
AcDbText
 10
3332.836938324111
 20
-97.18147513099082
 30
0.0000000002254849
 40
4.55
  1
69
100
AcDbText
1001
ACAD
1000
DSTYLE
1002
{
1070
    40
1040
1.3
1070
    45
1040
0.5
1002
}
  0
LINE
  5
1AF9B
330
18
100
AcDbEntity
  8
01
  6
BYBLOCK
100
AcDbLine
 10
3304.74545684263
 20
-108.868010493039
 30
0.0000000002254849
 11
3302.14545684263
 21
-108.171342599039
 31
0.0000000002254849
  0
LINE
  5
1AF9C
330
18
100
AcDbEntity
  8
01
  6
BYBLOCK
100
AcDbLine
 10
3302.14545684263
 20
-108.171342599039
 30
0.0000000002254849
 11
3304.74545684263
 21
-107.474674705039
 31
0.0000000002254849
  0
LINE
  5
1AF9D
330
18
100
AcDbEntity
  8
01
  6
BYBLOCK
100
AcDbLine
 10
3302.14545684263
 20
-108.171342599039
 30
0.0000000002254849
 11
3304.74545684263
 21
-108.171342599039
 31
0.0000000002254849
  0
LINE
  5
1AF9E
330
18
100
AcDbEntity
  8
01
  6
BYBLOCK
100
AcDbLine
 10
3350.54545684263
 20
-107.474674705039
 30
0.0000000002254849
 11
3353.14545684263
 21
-108.171342599039
 31
0.0000000002254849
  0
LINE
  5
1AF9F
330
18
100
AcDbEntity
  8
01
  6
BYBLOCK
100
AcDbLine
 10
3353.14545684263
 20
-108.171342599039
 30
0.0000000002254849
 11
3350.54545684263
 21
-108.868010493039
 31
0.0000000002254849
  0
LINE
  5
1AFA0
330
18
100
AcDbEntity
  8
01
  6
BYBLOCK
100
AcDbLine
 10
3353.14545684263
 20
-108.171342599039
 30
0.0000000002254849
 11
3350.54545684263
 21
-108.171342599039
 31
0.0000000002254849
  0
TEXT
  5
1AFA1
330
18
100
AcDbEntity
  8
01
  6
CONTINUOUS
100
AcDbText
 10
3324.596324898185
 20
-107.261342599039
 30
0.0000000002254849
 40
4.55
  1
51
100
AcDbText
1001
ACAD
1000
DSTYLE
1002
{
1070
    40
1040
1.3
1070
    45
1040
0.5
1002
}
  0
LINE
  5
1AFA2
330
18
100
AcDbEntity
  8
01
  6
BYBLOCK
100
AcDbLine
 10
3173.245573182374
 20
-108.8680104930392
 30
0.0000000002254849
 11
3170.645573182374
 21
-108.1713425990392
 31
0.0000000002254849
  0
LINE
  5
1AFA3
330
18
100
AcDbEntity
  8
01
  6
BYBLOCK
100
AcDbLine
 10
3170.645573182374
 20
-108.1713425990392
 30
0.0000000002254849
 11
3173.245573182374
 21
-107.4746747050392
 31
0.0000000002254849
  0
LINE
  5
1AFA4
330
18
100
AcDbEntity
  8
01
  6
BYBLOCK
100
AcDbLine
 10
3170.645573182374
 20
-108.1713425990392
 30
0.0000000002254849
 11
3173.245573182374
 21
-108.1713425990392
 31
0.0000000002254849
  0
LINE
  5
1AFA5
330
18
100
AcDbEntity
  8
01
  6
BYBLOCK
100
AcDbLine
 10
3193.045573182374
 20
-107.4746747050392
 30
0.0000000002254849
 11
3195.645573182374
 21
-108.1713425990392
 31
0.0000000002254849
  0
LINE
  5
1AFA6
330
18
100
AcDbEntity
  8
01
  6
BYBLOCK
100
AcDbLine
 10
3195.645573182374
 20
-108.1713425990392
 30
0.0000000002254849
 11
3193.045573182374
 21
-108.8680104930392
 31
0.0000000002254849
  0
LINE
  5
1AFA7
330
18
100
AcDbEntity
  8
01
  6
BYBLOCK
100
AcDbLine
 10
3195.645573182374
 20
-108.1713425990392
 30
0.0000000002254849
 11
3193.045573182374
 21
-108.1713425990392
 31
0.0000000002254849
  0
TEXT
  5
1AFA8
330
18
100
AcDbEntity
  8
01
  6
CONTINUOUS
100
AcDbText
 10
3179.353906515708
 20
-107.2613425990392
 30
0.0000000002254849
 40
4.55
  1
25
100
AcDbText
1001
ACAD
1000
DSTYLE
1002
{
1070
    40
1040
1.3
1070
    45
1040
0.5
1002
}
  0
LINE
  5
1AFA9
330
18
100
AcDbEntity
  8
01
  6
BYBLOCK
100
AcDbLine
 10
3267.236976059819
 20
-162.1923895393112
 30
0.0000000003382273
 11
3267.933643953818
 21
-159.5923895393112
 31
0.0000000003382273
  0
LINE
  5
1AFAA
330
18
100
AcDbEntity
  8
01
  6
BYBLOCK
100
AcDbLine
 10
3267.933643953818
 20
-159.5923895393112
 30
0.0000000003382273
 11
3268.630311847818
 21
-162.1923895393112
 31
0.0000000003382273
  0
LINE
  5
1AFAB
330
18
100
AcDbEntity
  8
01
  6
BYBLOCK
100
AcDbLine
 10
3267.933643953818
 20
-159.5923895393112
 30
0.0000000003382273
 11
3267.933643953818
 21
-162.1923895393112
 31
0.0000000003382273
  0
LINE
  5
1AFAC
330
18
100
AcDbEntity
  8
01
  6
BYBLOCK
100
AcDbLine
 10
3268.630311847818
 20
-270.9923895393112
 30
0.0000000003382273
 11
3267.933643953818
 21
-273.5923895393112
 31
0.0000000003382273
  0
LINE
  5
1AFAD
330
18
100
AcDbEntity
  8
01
  6
BYBLOCK
100
AcDbLine
 10
3267.933643953818
 20
-273.5923895393112
 30
0.0000000003382273
 11
3267.236976059819
 21
-270.9923895393112
 31
0.0000000003382273
  0
LINE
  5
1AFAE
330
18
100
AcDbEntity
  8
01
  6
BYBLOCK
100
AcDbLine
 10
3267.933643953818
 20
-273.5923895393112
 30
0.0000000003382273
 11
3267.933643953818
 21
-270.9923895393112
 31
0.0000000003382273
  0
TEXT
  5
1AFAF
330
18
100
AcDbEntity
  8
01
  6
CONTINUOUS
100
AcDbText
 10
3267.023643953818
 20
-192.0093671913896
 30
0.0000000003382273
 40
4.55
  1
114
 50
90.0
100
AcDbText
1001
ACAD
1000
DSTYLE
1002
{
1070
    40
1040
1.3
1070
    45
1040
0.5
1002
}
  0
LINE
  5
1AFB0
330
18
100
AcDbEntity
  8
01
  6
BYBLOCK
100
AcDbLine
 10
3276.601310226043
 20
-154.2928346837276
 30
0.0000000003382273
 11
3277.297978120043
 21
-151.6928346837276
 31
0.0000000003382273
  0
LINE
  5
1AFB1
330
18
100
AcDbEntity
  8
01
  6
BYBLOCK
100
AcDbLine
 10
3277.297978120043
 20
-151.6928346837276
 30
0.0000000003382273
 11
3277.994646014043
 21
-154.2928346837276
 31
0.0000000003382273
  0
LINE
  5
1AFB2
330
18
100
AcDbEntity
  8
01
  6
BYBLOCK
100
AcDbLine
 10
3277.297978120043
 20
-151.6928346837276
 30
0.0000000003382273
 11
3277.297978120043
 21
-154.2928346837276
 31
0.0000000003382273
  0
LINE
  5
1AFB3
330
18
100
AcDbEntity
  8
01
  6
BYBLOCK
100
AcDbLine
 10
3277.994646014043
 20
-278.8923895393111
 30
0.0000000003382273
 11
3277.297978120043
 21
-281.4923895393111
 31
0.0000000003382273
  0
LINE
  5
1AFB4
330
18
100
AcDbEntity
  8
01
  6
BYBLOCK
100
AcDbLine
 10
3277.297978120043
 20
-281.4923895393111
 30
0.0000000003382273
 11
3276.601310226043
 21
-278.8923895393111
 31
0.0000000003382273
  0
LINE
  5
1AFB5
330
18
100
AcDbEntity
  8
01
  6
BYBLOCK
100
AcDbLine
 10
3277.297978120043
 20
-281.4923895393111
 30
0.0000000003382273
 11
3277.297978120043
 21
-278.8923895393111
 31
0.0000000003382273
  0
TEXT
  5
1AFB6
330
18
100
AcDbEntity
  8
01
  6
CONTINUOUS
100
AcDbText
 10
3276.387978120043
 20
-192.7939311941973
 30
0.0000000003382273
 40
4.55
  1
130
 50
90.0
100
AcDbText
1001
ACAD
1000
DSTYLE
1002
{
1070
    40
1040
1.3
1070
    45
1040
0.5
1002
}
  0
LINE
  5
1AFB7
330
18
100
AcDbEntity
  8
01
  6
BYBLOCK
100
AcDbLine
 10
3317.44878894863
 20
-215.1915163706243
 30
0.0000000002254849
 11
3318.14545684263
 21
-212.5915163706243
 31
0.0000000002254849
  0
LINE
  5
1AFB8
330
18
100
AcDbEntity
  8
01
  6
BYBLOCK
100
AcDbLine
 10
3318.14545684263
 20
-212.5915163706243
 30
0.0000000002254849
 11
3318.84212473663
 21
-215.1915163706243
 31
0.0000000002254849
  0
LINE
  5
1AFB9
330
18
100
AcDbEntity
  8
01
  6
BYBLOCK
100
AcDbLine
 10
3318.14545684263
 20
-212.5915163706243
 30
0.0000000002254849
 11
3318.14545684263
 21
-215.1915163706243
 31
0.0000000002254849
  0
LINE
  5
1AFBA
330
18
100
AcDbEntity
  8
01
  6
BYBLOCK
100
AcDbLine
 10
3318.84212473663
 20
-259.9915163706233
 30
0.0000000002254849
 11
3318.14545684263
 21
-262.5915163706234
 31
0.0000000002254849
  0
LINE
  5
1AFBB
330
18
100
AcDbEntity
  8
01
  6
BYBLOCK
100
AcDbLine
 10
3318.14545684263
 20
-262.5915163706234
 30
0.0000000002254849
 11
3317.44878894863
 21
-259.9915163706233
 31
0.0000000002254849
  0
LINE
  5
1AFBC
330
18
100
AcDbEntity
  8
01
  6
BYBLOCK
100
AcDbLine
 10
3318.14545684263
 20
-262.5915163706234
 30
0.0000000002254849
 11
3318.14545684263
 21
-259.9915163706233
 31
0.0000000002254849
  0
TEXT
  5
1AFBD
330
18
100
AcDbEntity
  8
01
  6
CONTINUOUS
100
AcDbText
 10
3317.23545684263
 20
-245.7910192772233
 30
0.0000000002254849
 40
4.55
  1
φ50
 50
90.0
100
AcDbText
1001
ACAD
1000
DSTYLE
1002
{
1070
     3
1000
φ<>
1070
    40
1040
1.3
1070
    45
1040
0.5
1002
}
  0
LINE
  5
1AFBE
330
18
100
AcDbEntity
  8
1DIM
100
AcDbLine
 10
2983.145577182374
 20
-237.5928346837268
 30
0.0000000002254849
 11
2968.151724780086
 21
-237.5928346837268
 31
0.0000000002254849
1001
ACAD
1000
DSTYLE
1002
{
1070
    40
1040
1.3
1070
    45
1040
0.5
1070
   341
1005
0
1002
}
  0
LINE
  5
1AFBF
330
18
100
AcDbEntity
  8
1DIM
100
AcDbLine
 10
2990.645569182375
 20
-182.0928346837268
 30
0.0000000002254849
 11
2968.151724780086
 21
-182.0928346837268
 31
0.0000000002254849
1001
ACAD
1000
DSTYLE
1002
{
1070
    40
1040
1.3
1070
    45
1040
0.5
1070
   341
1005
0
1002
}
  0
LINE
  5
1AFC0
330
18
100
AcDbEntity
  8
1DIM
100
AcDbLine
 10
2969.451724780086
 20
-234.9928346837268
 30
0.0000000002254849
 11
2969.451724780086
 21
-184.6928346837268
 31
0.0000000002254849
1001
ACAD
1000
DSTYLE
1002
{
1070
    40
1040
1.3
1070
    45
1040
0.5
1070
   341
1005
0
1002
}
  0
LINE
  5
1AFC4
330
18
100
AcDbEntity
  8
1DIM
100
AcDbLine
 10
2983.145577182374
 20
-237.5928346837268
 30
0.0000000002254849
 11
2968.151724780086
 21
-237.5928346837268
 31
0.0000000002254849
1001
ACAD
1000
DSTYLE
1002
{
1070
    40
1040
1.3
1070
    45
1040
0.5
1070
   341
1005
0
1002
}
  0
LINE
  5
1AFC5
330
18
100
AcDbEntity
  8
1DIM
100
AcDbLine
 10
2990.645569182375
 20
-182.0928346837268
 30
0.0000000002254849
 11
2968.151724780086
 21
-182.0928346837268
 31
0.0000000002254849
1001
ACAD
1000
DSTYLE
1002
{
1070
    40
1040
1.3
1070
    45
1040
0.5
1070
   341
1005
0
1002
}
  0
LINE
  5
1AFC6
330
18
100
AcDbEntity
  8
1DIM
100
AcDbLine
 10
2969.451724780086
 20
-234.9928346837268
 30
0.0000000002254849
 11
2969.451724780086
 21
-184.6928346837268
 31
0.0000000002254849
1001
ACAD
1000
DSTYLE
1002
{
1070
    40
1040
1.3
1070
    45
1040
0.5
1070
   341
1005
0
1002
}
  0
SOLID
  5
1AFCA
330
18
100
AcDbEntity
  8
1DIM
100
AcDbTrace
 10
3350.515306197376
 20
-13.64359173867084
 30
0.0000000001127424
 11
3352.88605808269
 21
-12.49150091063052
 31
0.0000000001127424
 12
3351.017106027298
 22
-14.35020906212207
 32
0.0000000001127424
 13
3351.017106027298
 23
-14.35020906212207
 33
0.0000000001127424
1001
ACAD
1000
DSTYLE
1002
{
1070
    40
1040
1.3
1070
    45
1040
0.5
1002
}
  0
LINE
  5
1AFCB
330
18
100
AcDbEntity
  8
1DIM
100
AcDbLine
 10
3350.766206112336
 20
-13.99690040039646
 30
0.0000000001127424
 11
3323.298617935648
 21
-33.50283468475564
 31
0.0000000001127424
1001
ACAD
1000
DSTYLE
1002
{
1070
    40
1040
1.3
1070
    45
1040
0.5
1002
}
  0
TEXT
  5
1AFCC
330
18
100
AcDbEntity
  8
1DIM
  6
CONTINUOUS
100
AcDbText
 10
3401.714342754497
 20
-8.53202015392382
 30
0.0000000001127424
 40
4.55
  1
材質：亜鉛ダイキャスト
100
AcDbText
  0
TEXT
  5
1AFCD
330
18
100
AcDbEntity
  8
1DIM
  6
CONTINUOUS
100
AcDbText
 10
3401.866009421164
 20
-16.11535348725715
 30
0.0000000001127424
 40
4.55
  1
仕上げ：各種メッキ
100
AcDbText
  0
SOLID
  5
1AFCE
330
18
100
AcDbEntity
  8
1DIM
100
AcDbTrace
 10
3387.220616344543
 20
-30.92276186460553
 30
0.0000000001127424
 11
3385.20344851171
 21
-32.61946800061264
 31
0.0000000001127424
 12
3386.561297174333
 22
-30.36025911536299
 32
0.0000000001127424
 13
3386.561297174333
 23
-30.36025911536299
 33
0.0000000001127424
1001
ACAD
1000
DSTYLE
1002
{
1070
    40
1040
1.3
1070
    45
1040
0.5
1002
}
  0
LINE
  5
1AFCF
330
18
100
AcDbEntity
  8
1DIM
100
AcDbLine
 10
3386.890956759438
 20
-30.64151048998426
 30
0.0000000001127424
 11
3398.507676087831
 21
-17.02535348725715
 31
0.0000000001127424
1001
ACAD
1000
DSTYLE
1002
{
1070
    40
1040
1.3
1070
    45
1040
0.5
1002
}
  0
LINE
  5
1AFD0
330
18
100
AcDbEntity
  8
1DIM
100
AcDbLine
 10
3398.507676087831
 20
-17.02535348725715
 30
0.0000000001127424
 11
3459.954342754497
 21
-17.02535348725715
 31
0.0000000001127424
1001
ACAD
1000
DSTYLE
1002
{
1070
    40
1040
1.3
1070
    45
1040
0.5
1002
}
  0
LINE
  5
1AFD1
330
18
100
AcDbEntity
  8
1DIM
100
AcDbLine
 10
3369.546341024689
 20
41.90716531524436
 30
0.0000000002254849
 11
3390.106731784403
 21
41.90716531524435
 31
0.0000000002254849
1001
ACAD
1000
DSTYLE
1002
{
1070
    45
1040
0.5
1070
    40
1040
1.3
1002
}
  0
LINE
  5
1AFD2
330
18
100
AcDbEntity
  8
1DIM
100
AcDbLine
 10
3371.14634102469
 20
23.1071653152444
 30
0.0000000002254849
 11
3390.106731784403
 21
23.1071653152444
 31
0.0000000002254849
1001
ACAD
1000
DSTYLE
1002
{
1070
    45
1040
0.5
1070
    40
1040
1.3
1002
}
  0
LINE
  5
1AFD3
330
18
100
AcDbEntity
  8
1DIM
100
AcDbLine
 10
3388.806731784402
 20
39.30716531524435
 30
0.0000000002254849
 11
3388.806731784402
 21
25.7071653152444
 31
0.0000000002254849
1001
ACAD
1000
DSTYLE
1002
{
1070
    45
1040
0.5
1070
    40
1040
1.3
1002
}
  0
LINE
  5
1AFD7
330
18
100
AcDbEntity
  8
1DIM
100
AcDbLine
 10
3353.145573182373
 20
-9.092834684755644
 30
0.0000000002254849
 11
3353.145573182373
 21
-73.89283468475564
 31
0.0000000002254849
1001
ACAD
1000
DSTYLE
1002
{
1070
    40
1040
1.3
1070
    45
1040
0.5
1002
}
  0
LINE
  5
1AFD8
330
18
100
AcDbEntity
  8
1DIM
100
AcDbLine
 10
3482.561325389326
 20
-52.61306981907614
 30
0.0000000002254849
 11
3482.561325389326
 21
-73.89283468475564
 31
0.0000000002254849
1001
ACAD
1000
DSTYLE
1002
{
1070
    40
1040
1.3
1070
    45
1040
0.5
1002
}
  0
LINE
  5
1AFD9
330
18
100
AcDbEntity
  8
1DIM
100
AcDbLine
 10
3355.745573182372
 20
-72.59283468475564
 30
0.0000000002254849
 11
3479.961325389326
 21
-72.59283468475564
 31
0.0000000002254849
1001
ACAD
1000
DSTYLE
1002
{
1070
    40
1040
1.3
1070
    45
1040
0.5
1002
}
  0
LINE
  5
1AFDD
330
18
100
AcDbEntity
  8
1DIM
100
AcDbLine
 10
3341.561330089989
 20
-52.61379702922591
 30
0.0000000002254849
 11
3341.561330089989
 21
-83.89283468475564
 31
0.0000000002254849
1001
ACAD
1000
DSTYLE
1002
{
1070
    40
1040
1.3
1070
    45
1040
0.5
1002
}
  0
LINE
  5
1AFDE
330
18
100
AcDbEntity
  8
1DIM
100
AcDbLine
 10
3482.561325389326
 20
-52.61306981907614
 30
0.0000000002254849
 11
3482.561325389326
 21
-83.89283468475564
 31
0.0000000002254849
1001
ACAD
1000
DSTYLE
1002
{
1070
    40
1040
1.3
1070
    45
1040
0.5
1002
}
  0
LINE
  5
1AFDF
330
18
100
AcDbEntity
  8
1DIM
100
AcDbLine
 10
3344.161330089989
 20
-82.59283468475564
 30
0.0000000002254849
 11
3479.961325389326
 21
-82.59283468475564
 31
0.0000000002254849
1001
ACAD
1000
DSTYLE
1002
{
1070
    40
1040
1.3
1070
    45
1040
0.5
1002
}
  0
LINE
  5
1AFE3
330
18
100
AcDbEntity
  8
1DIM
100
AcDbLine
 10
3477.661325209527
 20
-28.292111338322
 30
0.0000000002254849
 11
3509.445573182373
 21
-28.29211133832201
 31
0.0000000002254849
1001
ACAD
1000
DSTYLE
1002
{
1070
    40
1040
1.3
1070
    45
1040
0.5
1002
}
  0
LINE
  5
1AFE4
330
18
100
AcDbEntity
  8
1DIM
100
AcDbLine
 10
3455.900721179721
 20
12.40716531524436
 30
0.0000000002254849
 11
3509.445573182373
 21
12.40716531524434
 31
0.0000000002254849
1001
ACAD
1000
DSTYLE
1002
{
1070
    40
1040
1.3
1070
    45
1040
0.5
1002
}
  0
LINE
  5
1AFE5
330
18
100
AcDbEntity
  8
1DIM
100
AcDbLine
 10
3508.145573182373
 20
-25.69211133832201
 30
0.0000000002254849
 11
3508.145573182373
 21
9.80716531524434
 31
0.0000000002254849
1001
ACAD
1000
DSTYLE
1002
{
1070
    40
1040
1.3
1070
    45
1040
0.5
1002
}
  0
LINE
  5
1AFE9
330
18
100
AcDbEntity
  8
1DIM
100
AcDbLine
 10
3477.661327349075
 20
-53.9484736337688
 30
0.0000000002254849
 11
3519.445573182373
 21
-53.94847363376881
 31
0.0000000002254849
1001
ACAD
1000
DSTYLE
1002
{
1070
    40
1040
1.3
1070
    45
1040
0.5
1002
}
  0
LINE
  5
1AFEA
330
18
100
AcDbEntity
  8
1DIM
100
AcDbLine
 10
3455.900721179721
 20
12.40716531524436
 30
0.0000000002254849
 11
3519.445573182373
 21
12.40716531524434
 31
0.0000000002254849
1001
ACAD
1000
DSTYLE
1002
{
1070
    40
1040
1.3
1070
    45
1040
0.5
1002
}
  0
LINE
  5
1AFEB
330
18
100
AcDbEntity
  8
1DIM
100
AcDbLine
 10
3518.145573182373
 20
-51.3484736337688
 30
0.0000000002254849
 11
3518.145573182373
 21
9.807165315244339
 31
0.0000000002254849
1001
ACAD
1000
DSTYLE
1002
{
1070
    40
1040
1.3
1070
    45
1040
0.5
1002
}
  0
LINE
  5
1AFEF
330
18
100
AcDbEntity
  8
1DIM
100
AcDbLine
 10
3477.661211009331
 20
-245.0915163706243
 30
0.0000000002254849
 11
3509.44545684263
 21
-245.0915163706243
 31
0.0000000002254849
1001
ACAD
1000
DSTYLE
1002
{
1070
    40
1040
1.3
1070
    45
1040
0.5
1002
}
  0
LINE
  5
1AFF0
330
18
100
AcDbEntity
  8
1DIM
100
AcDbLine
 10
3477.661211009333
 20
-230.091516370624
 30
0.0000000002254849
 11
3509.44545684263
 21
-230.091516370624
 31
0.0000000002254849
1001
ACAD
1000
DSTYLE
1002
{
1070
    40
1040
1.3
1070
    45
1040
0.5
1002
}
  0
LINE
  5
1AFF1
330
18
100
AcDbEntity
  8
1DIM
100
AcDbLine
 10
3508.14545684263
 20
-242.4915163706243
 30
0.0000000002254849
 11
3508.14545684263
 21
-232.691516370624
 31
0.0000000002254849
1001
ACAD
1000
DSTYLE
1002
{
1070
    40
1040
1.3
1070
    45
1040
0.5
1002
}
  0
TEXT
  5
1AFF5
330
18
100
AcDbEntity
  8
1DIM
  6
CONTINUOUS
100
AcDbText
 10
3445.728529779873
 20
-89.95396356738381
 30
0.0
 40
4.55
  1
材質：亜鉛ダイキャスト
100
AcDbText
  0
TEXT
  5
1AFF6
330
18
100
AcDbEntity
  8
1DIM
  6
CONTINUOUS
100
AcDbText
 10
3461.198529779873
 20
-97.53729690071714
 30
0.0
 40
4.55
  1
仕上げ：クローム
100
AcDbText
  0
SOLID
  5
1AFF7
330
18
100
AcDbEntity
  8
1DIM
100
AcDbTrace
 10
3481.197739208113
 20
-47.96593346724443
 30
0.0
 11
3480.400598290516
 21
-45.45349558039629
 31
0.0
 12
3481.969495229923
 22
-47.57159382441026
 32
0.0
 13
3481.969495229923
 23
-47.57159382441026
 33
0.0
1001
ACAD
1000
DSTYLE
1002
{
1070
    40
1040
1.3
1070
    45
1040
0.5
1002
}
  0
LINE
  5
1AFF8
330
18
100
AcDbEntity
  8
1DIM
100
AcDbLine
 10
3481.583617219018
 20
-47.76876364582734
 30
0.0
 11
3507.478529779873
 21
-98.44729690071713
 31
0.0
1001
ACAD
1000
DSTYLE
1002
{
1070
    40
1040
1.3
1070
    45
1040
0.5
1002
}
  0
LINE
  5
1AFF9
330
18
100
AcDbEntity
  8
1DIM
100
AcDbLine
 10
3507.478529779873
 20
-98.44729690071713
 30
0.0
 11
3446.031863113206
 21
-98.44729690071713
 31
0.0
1001
ACAD
1000
DSTYLE
1002
{
1070
    40
1040
1.3
1070
    45
1040
0.5
1002
}
  0
LINE
  5
1AFFA
330
18
100
AcDbEntity
  8
0
  6
BYBLOCK
100
AcDbLine
 10
2970.148392674086
 20
-234.9928346837268
 30
0.0000000002254849
 11
2969.451724780086
 21
-237.5928346837268
 31
0.0000000002254849
  0
LINE
  5
1AFFB
330
18
100
AcDbEntity
  8
0
  6
BYBLOCK
100
AcDbLine
 10
2969.451724780086
 20
-237.5928346837268
 30
0.0000000002254849
 11
2968.755056886086
 21
-234.9928346837268
 31
0.0000000002254849
  0
LINE
  5
1AFFC
330
18
100
AcDbEntity
  8
0
  6
BYBLOCK
100
AcDbLine
 10
2969.451724780086
 20
-237.5928346837268
 30
0.0000000002254849
 11
2969.451724780086
 21
-234.9928346837268
 31
0.0000000002254849
  0
LINE
  5
1AFFD
330
18
100
AcDbEntity
  8
0
  6
BYBLOCK
100
AcDbLine
 10
2968.755056886086
 20
-184.6928346837268
 30
0.0000000002254849
 11
2969.451724780086
 21
-182.0928346837268
 31
0.0000000002254849
  0
LINE
  5
1AFFE
330
18
100
AcDbEntity
  8
0
  6
BYBLOCK
100
AcDbLine
 10
2969.451724780086
 20
-182.0928346837268
 30
0.0000000002254849
 11
2970.148392674086
 21
-184.6928346837268
 31
0.0000000002254849
  0
LINE
  5
1AFFF
330
18
100
AcDbEntity
  8
0
  6
BYBLOCK
100
AcDbLine
 10
2969.451724780086
 20
-182.0928346837268
 30
0.0000000002254849
 11
2969.451724780086
 21
-184.6928346837268
 31
0.0000000002254849
  0
TEXT
  5
1B000
330
18
100
AcDbEntity
  8
1DIM
  6
CONTINUOUS
100
AcDbText
 10
2968.541724780086
 20
-216.6994319059486
 30
0.0000000002254849
 40
4.55
  1
55.5
 50
90.0
100
AcDbText
1001
ACAD
1000
DSTYLE
1002
{
1070
    40
1040
1.3
1070
    45
1040
0.5
1070
   341
1005
0
1002
}
  0
LINE
  5
1B001
330
18
100
AcDbEntity
  8
0
  6
BYBLOCK
100
AcDbLine
 10
2970.148392674086
 20
-234.9928346837268
 30
0.0000000002254849
 11
2969.451724780086
 21
-237.5928346837268
 31
0.0000000002254849
  0
LINE
  5
1B002
330
18
100
AcDbEntity
  8
0
  6
BYBLOCK
100
AcDbLine
 10
2969.451724780086
 20
-237.5928346837268
 30
0.0000000002254849
 11
2968.755056886086
 21
-234.9928346837268
 31
0.0000000002254849
  0
LINE
  5
1B003
330
18
100
AcDbEntity
  8
0
  6
BYBLOCK
100
AcDbLine
 10
2969.451724780086
 20
-237.5928346837268
 30
0.0000000002254849
 11
2969.451724780086
 21
-234.9928346837268
 31
0.0000000002254849
  0
LINE
  5
1B004
330
18
100
AcDbEntity
  8
0
  6
BYBLOCK
100
AcDbLine
 10
2968.755056886086
 20
-184.6928346837268
 30
0.0000000002254849
 11
2969.451724780086
 21
-182.0928346837268
 31
0.0000000002254849
  0
LINE
  5
1B005
330
18
100
AcDbEntity
  8
0
  6
BYBLOCK
100
AcDbLine
 10
2969.451724780086
 20
-182.0928346837268
 30
0.0000000002254849
 11
2970.148392674086
 21
-184.6928346837268
 31
0.0000000002254849
  0
LINE
  5
1B006
330
18
100
AcDbEntity
  8
0
  6
BYBLOCK
100
AcDbLine
 10
2969.451724780086
 20
-182.0928346837268
 30
0.0000000002254849
 11
2969.451724780086
 21
-184.6928346837268
 31
0.0000000002254849
  0
TEXT
  5
1B007
330
18
100
AcDbEntity
  8
1DIM
  6
CONTINUOUS
100
AcDbText
 10
2968.541724780086
 20
-216.6994319059486
 30
0.0000000002254849
 40
4.55
  1
55.5
 50
90.0
100
AcDbText
1001
ACAD
1000
DSTYLE
1002
{
1070
    40
1040
1.3
1070
    45
1040
0.5
1070
   341
1005
0
1002
}
  0
LINE
  5
1B008
330
18
100
AcDbEntity
  8
0
  6
BYBLOCK
100
AcDbLine
 10
3388.110063890403
 20
39.30716531524435
 30
0.0000000002254849
 11
3388.806731784402
 21
41.90716531524435
 31
0.0000000002254849
  0
LINE
  5
1B009
330
18
100
AcDbEntity
  8
0
  6
BYBLOCK
100
AcDbLine
 10
3388.806731784402
 20
41.90716531524435
 30
0.0000000002254849
 11
3389.503399678402
 21
39.30716531524435
 31
0.0000000002254849
  0
LINE
  5
1B00A
330
18
100
AcDbEntity
  8
0
  6
BYBLOCK
100
AcDbLine
 10
3388.806731784402
 20
41.90716531524435
 30
0.0000000002254849
 11
3388.806731784402
 21
39.30716531524435
 31
0.0000000002254849
  0
LINE
  5
1B00B
330
18
100
AcDbEntity
  8
0
  6
BYBLOCK
100
AcDbLine
 10
3389.503399678402
 20
25.7071653152444
 30
0.0000000002254849
 11
3388.806731784402
 21
23.1071653152444
 31
0.0000000002254849
  0
LINE
  5
1B00C
330
18
100
AcDbEntity
  8
0
  6
BYBLOCK
100
AcDbLine
 10
3388.806731784402
 20
23.1071653152444
 30
0.0000000002254849
 11
3388.110063890403
 21
25.7071653152444
 31
0.0000000002254849
  0
LINE
  5
1B00D
330
18
100
AcDbEntity
  8
0
  6
BYBLOCK
100
AcDbLine
 10
3388.806731784402
 20
23.1071653152444
 30
0.0000000002254849
 11
3388.806731784402
 21
25.7071653152444
 31
0.0000000002254849
  0
TEXT
  5
1B00E
330
18
100
AcDbEntity
  8
1DIM
  6
CONTINUOUS
100
AcDbText
 10
3387.896731784403
 20
29.4727787411698
 30
0.0000000002254849
 40
4.55
  1
19
 50
90.0
100
AcDbText
1001
ACAD
1000
DSTYLE
1002
{
1070
    45
1040
0.5
1070
    40
1040
1.3
1002
}
  0
LINE
  5
1B00F
330
18
100
AcDbEntity
  8
0
  6
BYBLOCK
100
AcDbLine
 10
3355.745573182372
 20
-73.28950257875564
 30
0.0000000002254849
 11
3353.145573182373
 21
-72.59283468475564
 31
0.0000000002254849
  0
LINE
  5
1B010
330
18
100
AcDbEntity
  8
0
  6
BYBLOCK
100
AcDbLine
 10
3353.145573182373
 20
-72.59283468475564
 30
0.0000000002254849
 11
3355.745573182372
 21
-71.89616679075564
 31
0.0000000002254849
  0
LINE
  5
1B011
330
18
100
AcDbEntity
  8
0
  6
BYBLOCK
100
AcDbLine
 10
3353.145573182373
 20
-72.59283468475564
 30
0.0000000002254849
 11
3355.745573182372
 21
-72.59283468475564
 31
0.0000000002254849
  0
LINE
  5
1B012
330
18
100
AcDbEntity
  8
0
  6
BYBLOCK
100
AcDbLine
 10
3479.961325389326
 20
-71.89616679075564
 30
0.0000000002254849
 11
3482.561325389326
 21
-72.59283468475564
 31
0.0000000002254849
  0
LINE
  5
1B013
330
18
100
AcDbEntity
  8
0
  6
BYBLOCK
100
AcDbLine
 10
3482.561325389326
 20
-72.59283468475564
 30
0.0000000002254849
 11
3479.961325389326
 21
-73.28950257875564
 31
0.0000000002254849
  0
LINE
  5
1B014
330
18
100
AcDbEntity
  8
0
  6
BYBLOCK
100
AcDbLine
 10
3482.561325389326
 20
-72.59283468475564
 30
0.0000000002254849
 11
3479.961325389326
 21
-72.59283468475564
 31
0.0000000002254849
  0
TEXT
  5
1B015
330
18
100
AcDbEntity
  8
1DIM
  6
CONTINUOUS
100
AcDbText
 10
3409.510729378442
 20
-71.68283468475563
 30
0.0000000002254849
 40
4.55
  1
129.5
100
AcDbText
1001
ACAD
1000
DSTYLE
1002
{
1070
    40
1040
1.3
1070
    45
1040
0.5
1002
}
  0
LINE
  5
1B016
330
18
100
AcDbEntity
  8
0
  6
BYBLOCK
100
AcDbLine
 10
3344.161330089989
 20
-83.28950257875564
 30
0.0000000002254849
 11
3341.561330089989
 21
-82.59283468475564
 31
0.0000000002254849
  0
LINE
  5
1B017
330
18
100
AcDbEntity
  8
0
  6
BYBLOCK
100
AcDbLine
 10
3341.561330089989
 20
-82.59283468475564
 30
0.0000000002254849
 11
3344.161330089989
 21
-81.89616679075564
 31
0.0000000002254849
  0
LINE
  5
1B018
330
18
100
AcDbEntity
  8
0
  6
BYBLOCK
100
AcDbLine
 10
3341.561330089989
 20
-82.59283468475564
 30
0.0000000002254849
 11
3344.161330089989
 21
-82.59283468475564
 31
0.0000000002254849
  0
LINE
  5
1B019
330
18
100
AcDbEntity
  8
0
  6
BYBLOCK
100
AcDbLine
 10
3479.961325389326
 20
-81.89616679075564
 30
0.0000000002254849
 11
3482.561325389326
 21
-82.59283468475564
 31
0.0000000002254849
  0
LINE
  5
1B01A
330
18
100
AcDbEntity
  8
0
  6
BYBLOCK
100
AcDbLine
 10
3482.561325389326
 20
-82.59283468475564
 30
0.0000000002254849
 11
3479.961325389326
 21
-83.28950257875564
 31
0.0000000002254849
  0
LINE
  5
1B01B
330
18
100
AcDbEntity
  8
0
  6
BYBLOCK
100
AcDbLine
 10
3482.561325389326
 20
-82.59283468475564
 30
0.0000000002254849
 11
3479.961325389326
 21
-82.59283468475564
 31
0.0000000002254849
  0
TEXT
  5
1B01C
330
18
100
AcDbEntity
  8
1DIM
  6
CONTINUOUS
100
AcDbText
 10
3407.511327739658
 20
-81.68283468475563
 30
0.0000000002254849
 40
4.55
  1
141
100
AcDbText
1001
ACAD
1000
DSTYLE
1002
{
1070
    40
1040
1.3
1070
    45
1040
0.5
1002
}
  0
LINE
  5
1B01D
330
18
100
AcDbEntity
  8
0
  6
BYBLOCK
100
AcDbLine
 10
3508.842241076372
 20
-25.69211133832201
 30
0.0000000002254849
 11
3508.145573182373
 21
-28.29211133832201
 31
0.0000000002254849
  0
LINE
  5
1B01E
330
18
100
AcDbEntity
  8
0
  6
BYBLOCK
100
AcDbLine
 10
3508.145573182373
 20
-28.29211133832201
 30
0.0000000002254849
 11
3507.448905288373
 21
-25.69211133832201
 31
0.0000000002254849
  0
LINE
  5
1B01F
330
18
100
AcDbEntity
  8
0
  6
BYBLOCK
100
AcDbLine
 10
3508.145573182373
 20
-28.29211133832201
 30
0.0000000002254849
 11
3508.145573182373
 21
-25.69211133832201
 31
0.0000000002254849
  0
LINE
  5
1B020
330
18
100
AcDbEntity
  8
0
  6
BYBLOCK
100
AcDbLine
 10
3507.448905288373
 20
9.80716531524434
 30
0.0000000002254849
 11
3508.145573182373
 21
12.40716531524434
 31
0.0000000002254849
  0
LINE
  5
1B021
330
18
100
AcDbEntity
  8
0
  6
BYBLOCK
100
AcDbLine
 10
3508.145573182373
 20
12.40716531524434
 30
0.0000000002254849
 11
3508.842241076372
 21
9.80716531524434
 31
0.0000000002254849
  0
LINE
  5
1B022
330
18
100
AcDbEntity
  8
0
  6
BYBLOCK
100
AcDbLine
 10
3508.145573182373
 20
12.40716531524434
 30
0.0000000002254849
 11
3508.145573182373
 21
9.80716531524434
 31
0.0000000002254849
  0
TEXT
  5
1B023
330
18
100
AcDbEntity
  8
1DIM
  6
CONTINUOUS
100
AcDbText
 10
3507.235573182373
 20
-14.38830634487158
 30
0.0000000002254849
 40
4.55
  1
40.5
 50
90.0
100
AcDbText
1001
ACAD
1000
DSTYLE
1002
{
1070
    40
1040
1.3
1070
    45
1040
0.5
1002
}
  0
LINE
  5
1B024
330
18
100
AcDbEntity
  8
0
  6
BYBLOCK
100
AcDbLine
 10
3518.842241076372
 20
-51.3484736337688
 30
0.0000000002254849
 11
3518.145573182373
 21
-53.94847363376881
 31
0.0000000002254849
  0
LINE
  5
1B025
330
18
100
AcDbEntity
  8
0
  6
BYBLOCK
100
AcDbLine
 10
3518.145573182373
 20
-53.94847363376881
 30
0.0000000002254849
 11
3517.448905288373
 21
-51.3484736337688
 31
0.0000000002254849
  0
LINE
  5
1B026
330
18
100
AcDbEntity
  8
0
  6
BYBLOCK
100
AcDbLine
 10
3518.145573182373
 20
-53.94847363376881
 30
0.0000000002254849
 11
3518.145573182373
 21
-51.3484736337688
 31
0.0000000002254849
  0
LINE
  5
1B027
330
18
100
AcDbEntity
  8
0
  6
BYBLOCK
100
AcDbLine
 10
3517.448905288373
 20
9.807165315244339
 30
0.0000000002254849
 11
3518.145573182373
 21
12.40716531524434
 31
0.0000000002254849
  0
LINE
  5
1B028
330
18
100
AcDbEntity
  8
0
  6
BYBLOCK
100
AcDbLine
 10
3518.145573182373
 20
12.40716531524434
 30
0.0000000002254849
 11
3518.842241076372
 21
9.807165315244339
 31
0.0000000002254849
  0
LINE
  5
1B029
330
18
100
AcDbEntity
  8
0
  6
BYBLOCK
100
AcDbLine
 10
3518.145573182373
 20
12.40716531524434
 30
0.0000000002254849
 11
3518.145573182373
 21
9.807165315244339
 31
0.0000000002254849
  0
TEXT
  5
1B02A
330
18
100
AcDbEntity
  8
1DIM
  6
CONTINUOUS
100
AcDbText
 10
3517.235573182373
 20
-27.6272513814838
 30
0.0000000002254849
 40
4.55
  1
66.5
 50
90.0
100
AcDbText
1001
ACAD
1000
DSTYLE
1002
{
1070
    40
1040
1.3
1070
    45
1040
0.5
1002
}
  0
LINE
  5
1B02B
330
18
100
AcDbEntity
  8
0
  6
BYBLOCK
100
AcDbLine
 10
3508.84212473663
 20
-242.4915163706243
 30
0.0000000002254849
 11
3508.14545684263
 21
-245.0915163706243
 31
0.0000000002254849
  0
LINE
  5
1B02C
330
18
100
AcDbEntity
  8
0
  6
BYBLOCK
100
AcDbLine
 10
3508.14545684263
 20
-245.0915163706243
 30
0.0000000002254849
 11
3507.44878894863
 21
-242.4915163706243
 31
0.0000000002254849
  0
LINE
  5
1B02D
330
18
100
AcDbEntity
  8
0
  6
BYBLOCK
100
AcDbLine
 10
3508.14545684263
 20
-245.0915163706243
 30
0.0000000002254849
 11
3508.14545684263
 21
-242.4915163706243
 31
0.0000000002254849
  0
LINE
  5
1B02E
330
18
100
AcDbEntity
  8
0
  6
BYBLOCK
100
AcDbLine
 10
3507.44878894863
 20
-232.691516370624
 30
0.0000000002254849
 11
3508.14545684263
 21
-230.091516370624
 31
0.0000000002254849
  0
LINE
  5
1B02F
330
18
100
AcDbEntity
  8
0
  6
BYBLOCK
100
AcDbLine
 10
3508.14545684263
 20
-230.091516370624
 30
0.0000000002254849
 11
3508.84212473663
 21
-232.691516370624
 31
0.0000000002254849
  0
LINE
  5
1B030
330
18
100
AcDbEntity
  8
0
  6
BYBLOCK
100
AcDbLine
 10
3508.14545684263
 20
-230.091516370624
 30
0.0000000002254849
 11
3508.14545684263
 21
-232.691516370624
 31
0.0000000002254849
  0
TEXT
  5
1B031
330
18
100
AcDbEntity
  8
1DIM
  6
CONTINUOUS
100
AcDbText
 10
3507.235456842629
 20
-240.6248497039569
 30
0.0000000002254849
 40
4.55
  1
15
 50
90.0
100
AcDbText
1001
ACAD
1000
DSTYLE
1002
{
1070
    40
1040
1.3
1070
    45
1040
0.5
1002
}
  0
VIEWPORT
  5
57
330
15
100
AcDbEntity
 67
     1
  8
0
100
AcDbViewport
 68
     1
 10
0.0
 20
0.0
 30
0.0
 40
663.4332925336597
 41
297.0
 68
     1
 69
     1
1001
ACAD
1000
MVIEW
1002
{
1070
    16
1010
0.0
1020
0.0
1030
0.0
1010
0.0
1020
0.0
1030
1.0
1040
0.0
1040
297.0
1040
1.83727895102345
1040
12.29366132359621
1040
50.0
1040
0.0
1040
0.0
1070
    16
1070
   100
1070
     0
1070
     1
1070
     0
1070
     0
1070
     0
1070
     0
1040
0.0
1040
0.0
1040
0.0
1040
10.0
1040
10.0
1040
10.0
1040
10.0
1070
     0
1002
{
1002
}
1002
}
  0
ENDSEC
  0
SECTION
  2
OBJECTS
  0
DICTIONARY
  5
C
330
0
100
AcDbDictionary
  3
ACAD_COLOR
350
18D
  3
ACAD_GROUP
350
D
  3
ACAD_LAYOUT
350
18E
  3
ACAD_MATERIAL
350
18C
  3
ACAD_MLEADERSTYLE
350
D9E7
  3
ACAD_MLINESTYLE
350
1B
  3
ACAD_PLOTSETTINGS
350
18F
  3
ACAD_SCALELIST
350
D9C5
  3
ACAD_VISUALSTYLE
350
D9B4
  3
ACDBHEADERROUNDTRIPXREC
350
1B032
  3
ACDBVARIABLEDICTIONARY
350
37
  3
AEC_PROPERTY_SET_DEFS
350
1AA6E
  3
CONTENTDICTIONARY
350
D8
  3
DRAWINGVARIABLESDICT
350
20
  3
DWGPROPS
350
1B035
1001
ACAD
1000
TREAT_AS_HARD
1070
     0
  0
DICTIONARY
  5
E6A6
330
2
100
AcDbDictionary
  3
ACAD_LAYERSTATES
360
E6A7
1001
ACAD
1000
TREAT_AS_HARD
1070
     1
  0
DICTIONARY
  5
DA05
330
E
100
AcDbDictionary
  3
ADSK_XREC_LAYER_RECONCILED
360
DA06
1001
ACAD
1000
TREAT_AS_HARD
1070
     1
  0
DICTIONARY
  5
DA07
330
29
100
AcDbDictionary
  3
ADSK_XREC_LAYER_RECONCILED
360
DA08
1001
ACAD
1000
TREAT_AS_HARD
1070
     1
  0
DICTIONARY
  5
DA09
330
31
100
AcDbDictionary
  3
ADSK_XREC_LAYER_RECONCILED
360
DA0A
1001
ACAD
1000
TREAT_AS_HARD
1070
     1
  0
DICTIONARY
  5
DA0F
330
243
100
AcDbDictionary
  3
ADSK_XREC_LAYER_RECONCILED
360
DA10
1001
ACAD
1000
TREAT_AS_HARD
1070
     1
  0
DICTIONARY
  5
DA15
330
24E
100
AcDbDictionary
  3
ADSK_XREC_LAYER_RECONCILED
360
DA16
1001
ACAD
1000
TREAT_AS_HARD
1070
     1
  0
DICTIONARY
  5
DA23
330
2C05
100
AcDbDictionary
  3
ADSK_XREC_LAYER_RECONCILED
360
DA24
1001
ACAD
1000
TREAT_AS_HARD
1070
     1
  0
DICTIONARY
  5
88F
330
18
100
AcDbDictionary
  3
ACAD_SORTENTS
360
890
1001
ACAD
1000
TREAT_AS_HARD
1070
     1
  0
DICTIONARY
  5
18D
102
{ACAD_REACTORS
330
C
102
}
330
C
100
AcDbDictionary
1001
ACAD
1000
TREAT_AS_HARD
1070
     0
  0
DICTIONARY
  5
D
102
{ACAD_REACTORS
330
C
102
}
330
C
100
AcDbDictionary
1001
ACAD
1000
TREAT_AS_HARD
1070
     0
  0
DICTIONARY
  5
18E
102
{ACAD_REACTORS
330
C
102
}
330
C
100
AcDbDictionary
1001
ACAD
1000
TREAT_AS_HARD
1070
     0
  0
DICTIONARY
  5
18C
102
{ACAD_REACTORS
330
C
102
}
330
C
100
AcDbDictionary
  3
BYBLOCK
350
D9A4
  3
BYLAYER
350
D99C
  3
GLOBAL
350
D9AC
1001
ACAD
1000
TREAT_AS_HARD
1070
     0
  0
DICTIONARY
  5
D9E7
102
{ACAD_REACTORS
330
C
102
}
330
C
100
AcDbDictionary
  3
STANDARD
350
D9E8
1001
ACAD
1000
TREAT_AS_HARD
1070
     0
  0
DICTIONARY
  5
1B
102
{ACAD_REACTORS
330
C
102
}
330
C
100
AcDbDictionary
  3
STANDARD
350
1C
1001
ACAD
1000
TREAT_AS_HARD
1070
     0
  0
DICTIONARY
  5
18F
102
{ACAD_REACTORS
330
C
102
}
330
C
100
AcDbDictionary
1001
ACAD
1000
TREAT_AS_HARD
1070
     0
  0
DICTIONARY
  5
D9C5
102
{ACAD_REACTORS
330
C
102
}
330
C
100
AcDbDictionary
  3
A0
350
D9C6
  3
A1
350
D9C7
  3
A2
350
D9C8
  3
A3
350
D9C9
  3
A4
350
D9CA
  3
A5
350
D9CB
  3
A6
350
D9CC
  3
A7
350
D9CD
  3
A8
350
D9CE
  3
A9
350
D9CF
  3
B0
350
D9D0
  3
B1
350
D9D1
  3
B2
350
D9D2
  3
B3
350
D9D3
  3
B4
350
D9D4
  3
B5
350
D9D5
  3
B6
350
D9D6
  3
B7
350
D9D7
  3
B8
350
D9D8
  3
B9
350
D9D9
  3
C0
350
D9DA
  3
C1
350
D9DB
  3
C2
350
D9DC
  3
C3
350
D9DD
  3
C4
350
D9DE
  3
C5
350
D9DF
  3
C6
350
D9E0
  3
C7
350
D9E1
  3
C8
350
D9E2
  3
C9
350
D9E3
  3
D0
350
D9E4
  3
D1
350
D9E5
  3
D2
350
D9E6
1001
ACAD
1000
TREAT_AS_HARD
1070
     0
  0
DICTIONARY
  5
D9B4
102
{ACAD_REACTORS
330
C
102
}
330
C
100
AcDbDictionary
  3
2DWIREFRAME
350
D9BA
  3
3D_HIDDEN
350
D9BC
  3
3DWIREFRAME
350
D9BB
  3
BASIC
350
D9B9
  3
BRIGHTEN
350
D9C0
  3
COLORCHANGE
350
D9C4
  3
CONCEPTUAL
350
D9BD
  3
DIM
350
D9BF
  3
EDGECOLOROFF
350
19C2F
  3
FACEPATTERN
350
D9C3
  3
FLAT
350
D9B5
  3
FLATWITHEDGES
350
D9B6
  3
GOURAUD
350
D9B7
  3
GOURAUDWITHEDGES
350
D9B8
  3
HIDDEN
350
19C7E
  3
JITTEROFF
350
19C2D
  3
LINEPATTERN
350
D9C2
  3
MODELING
350
19C84
  3
OVERHANGOFF
350
19C2E
  3
REALISTIC
350
D9BE
  3
SHADED
350
19C83
  3
SHADED_WITH_EDGES
350
19C82
  3
SHADES_OF_GRAY
350
19C7F
  3
SKETCHY
350
19C80
  3
THICKEN
350
D9C1
  3
WIREFRAME
350
19C7D
  3
X-RAY
350
19C81
1001
ACAD
1000
TREAT_AS_HARD
1070
     0
  0
DICTIONARY
  5
1B032
102
{ACAD_REACTORS
330
C
102
}
330
C
100
AcDbDictionary
  3
COLORDICT
350
1B033
  3
MATERIALDICT
350
1B034
1001
ACAD
1000
TREAT_AS_HARD
1070
     0
  0
DICTIONARY
  5
37
102
{ACAD_REACTORS
330
C
102
}
330
C
100
AcDbDictionary
  3
CANNOSCALE
350
1AE86
  3
CMLEADERSTYLE
350
DA6A
  3
CTABLESTYLE
350
29E
  3
DIMADEC
350
38
  3
DIMASSOC
350
1CE
  3
HIDETEXT
350
704E
  3
INDEXCTL
350
DA6D
  3
INTERSECTIONCOLOR
350
7052
  3
INTERSECTIONDISPLAY
350
7051
  3
MSLTSCALE
350
1A60C
  3
OBSCOLOR
350
704F
  3
OBSLTYPE
350
7050
  3
PROJECTNAME
350
1CF
  3
SORTENTS
350
DA6C
  3
XCLIPFRAME
350
1AE61
1001
ACAD
1000
TREAT_AS_HARD
1070
     0
  0
DICTIONARY
  5
1AA6E
102
{ACAD_REACTORS
330
C
102
}
330
C
100
AcDbDictionary
1001
ACAD
1000
TREAT_AS_HARD
1070
     0
  0
DICTIONARY
  5
D8
102
{ACAD_REACTORS
330
C
102
}
330
C
100
AcDbDictionary
1001
ACAD
1000
TREAT_AS_HARD
1070
     0
  0
DICTIONARY
  5
20
102
{ACAD_REACTORS
330
C
102
}
330
C
100
AcDbDictionary
1001
DRAWINGVARIABLESXDATA
1000
POLARANG
1000
0.261799387799149410000000
1000
POLARMODE
1000
1
1000
POLARSTYLE
1000
1
1001
ACAD
1000
TREAT_AS_HARD
1070
     0
  0
XRECORD
  5
1B035
102
{ACAD_REACTORS
330
C
102
}
330
C
100
AcDbXrecord
  1
DWGPROPS COOKIE
  2

  3

  4

  6

  7

  8
3684
  9

300
=
301
=
302
=
303
=
304
=
305
=
306
=
307
=
308
=
309
=
 40
0.0
 41
2451318.246352917
 42
2458152.161741146
  1

 90
        0
  0
DICTIONARY
  5
E6A7
102
{ACAD_REACTORS
330
E6A6
102
}
330
E6A6
100
AcDbDictionary
1001
ACAD
1000
TREAT_AS_HARD
1070
     0
  0
ACAD_PROXY_OBJECT
  5
DA06
102
{ACAD_REACTORS
330
DA05
102
}
330
DA05
100
AcDbZombieObject
 90
      499
 91
      516
 93
       34
310
40C8804040
  0
ACAD_PROXY_OBJECT
  5
DA08
102
{ACAD_REACTORS
330
DA07
102
}
330
DA07
100
AcDbZombieObject
 90
      499
 91
      516
 93
       34
310
40C8804040
  0
ACAD_PROXY_OBJECT
  5
DA0A
102
{ACAD_REACTORS
330
DA09
102
}
330
DA09
100
AcDbZombieObject
 90
      499
 91
      516
 93
       34
310
40C8804040
  0
ACAD_PROXY_OBJECT
  5
DA10
102
{ACAD_REACTORS
330
DA0F
102
}
330
DA0F
100
AcDbZombieObject
 90
      499
 91
      516
 93
       34
310
40C8804040
  0
ACAD_PROXY_OBJECT
  5
DA16
102
{ACAD_REACTORS
330
DA15
102
}
330
DA15
100
AcDbZombieObject
 90
      499
 91
      516
 93
       34
310
40C8804040
  0
ACAD_PROXY_OBJECT
  5
DA24
102
{ACAD_REACTORS
330
DA23
102
}
330
DA23
100
AcDbZombieObject
 90
      499
 91
      516
 93
       34
310
40C8804040
  0
SORTENTSTABLE
  5
890
102
{ACAD_REACTORS
330
88F
102
}
330
88F
100
AcDbSortentsTable
330
18
331
0
  5
5BFF
331
1AA74
  5
1AA82
331
1AA75
  5
1AA83
331
1AA76
  5
1AA85
331
1AA77
  5
1AA86
331
1AA78
  5
1AA87
331
1AA79
  5
1AA88
331
1AA7A
  5
1AA89
331
1AA7B
  5
1AA8A
331
1AA7C
  5
1AA8B
331
1AA7D
  5
1AA8F
331
1AA7E
  5
1AA90
331
1AA7F
  5
1AA91
331
1AA80
  5
1AA92
331
1AA82
  5
1AAA2
331
1AA83
  5
1AAA3
331
0
  5
1AAAE
331
1AA86
  5
1AAC2
331
1AA87
  5
1AAC3
331
1AA88
  5
1AAC4
331
1AA89
  5
1AAC5
331
1AA8A
  5
1AAC6
331
1AA8B
  5
1AAC7
331
1AA8C
  5
1AAC8
331
1AA8D
  5
1AAC9
331
1AA8E
  5
1AACA
331
1AA8F
  5
1AACB
331
1AA90
  5
1AACC
331
1AA91
  5
1AACD
331
1AA92
  5
1AACE
331
1AA93
  5
1AACF
331
1AA94
  5
1AAD0
331
1AA95
  5
1AAD1
331
1AA96
  5
1AAD3
331
1AA97
  5
1AAD4
331
1AA98
  5
1AAD5
331
1AA99
  5
1AAD6
331
1AA9B
  5
1AAE6
331
1AA9C
  5
1AAE8
331
1AA9D
  5
1AAE9
331
1AA9F
  5
1AAF7
331
0
  5
1AAE7
331
1AAA1
  5
1AB05
331
1AAA2
  5
1AB06
331
1AAA3
  5
1AB07
331
1AAA4
  5
1AB08
331
1AAA5
  5
1AB09
331
1AAA6
  5
1AB0A
331
1AAA7
  5
1AB0B
331
1AAA8
  5
1AB0F
331
1AAA9
  5
1AB10
331
1AAAA
  5
1AB11
331
1AAAB
  5
1AB12
331
1AAAC
  5
1AB13
331
1AAAD
  5
1AB14
331
1AAAE
  5
1AB18
331
1AAAF
  5
1AB19
331
1AAB0
  5
1AB1A
331
1AAB1
  5
1AB1E
331
1AAB2
  5
1AB1F
331
1AAB3
  5
1AB20
331
1AAB4
  5
1AB24
331
1AAB5
  5
1AB25
331
1AAB6
  5
1AB26
331
1AAB7
  5
1AB27
331
1AAB8
  5
1AB28
331
1AAB9
  5
1AB29
331
1AABA
  5
1AB2A
331
1AABB
  5
1AB2B
331
1AABC
  5
1AB2C
331
1AABD
  5
1AB2D
331
1AABE
  5
1AB2E
331
1AABF
  5
1AB2F
331
1AAC0
  5
1AB30
331
1AAC1
  5
1AB31
331
1AAC2
  5
1AB32
331
1AAC3
  5
1AB33
331
1AAC4
  5
1AB34
331
1AAC5
  5
1AB35
331
1AAC6
  5
1AB36
331
1AAC7
  5
1AB37
331
1AAC8
  5
1AB38
331
1AAC9
  5
1AB39
331
1AACA
  5
1AB3A
331
1AACB
  5
1AB3B
331
1AACC
  5
1AB3F
331
1AACD
  5
1AB40
331
1AACE
  5
1AB41
331
1AACF
  5
1AB42
331
1AAD0
  5
1AB43
331
1AAD1
  5
1AB44
331
1AAD3
  5
1AB4F
331
1AAD4
  5
1AB50
331
1AAD5
  5
1AB52
331
1AAD6
  5
1AB53
331
1AAD7
  5
1AB54
331
1AAD8
  5
1AB55
331
1AAD9
  5
1AB56
331
1AADA
  5
1AB57
331
0
  5
1AB3C
331
0
  5
1AB3D
331
0
  5
1AB3E
331
1AAE0
  5
1AB6C
331
1AAE1
  5
1AB71
331
1AAE2
  5
1AB76
331
1AAE6
  5
1AB95
331
1AAE7
  5
1AB96
331
1AAE8
  5
1AB97
331
1AAE9
  5
1AB98
331
1AAEA
  5
1AB9B
331
1AAEB
  5
1AB9C
331
1AAEC
  5
1AB9D
331
1AAED
  5
1ABA1
331
1AAEE
  5
1ABA3
331
1AAEF
  5
1ABA4
331
1AAF0
  5
1ABA5
331
1AAF1
  5
1ABA6
331
1AAF2
  5
1ABA7
331
1AAF3
  5
1ABA8
331
1AAF4
  5
1ABA9
331
1AAF5
  5
1ABAA
331
1AAF6
  5
1ABAB
331
1AAF7
  5
1ABAC
331
1AAF8
  5
1ABAD
331
1AAF9
  5
1ABAE
331
1AAFA
  5
1ABAF
331
1AAFB
  5
1ABB0
331
1AAFC
  5
1ABB1
331
1AAFD
  5
1ABB2
331
1AAFE
  5
1ABB3
331
1AAFF
  5
1ABB4
331
1AB00
  5
1ABB5
331
1AB01
  5
1ABB6
331
1AB02
  5
1ABB7
331
1AB03
  5
1ABB8
331
1AB04
  5
1ABB9
331
1AB05
  5
1ABBA
331
1AB06
  5
1ABBC
331
1AB07
  5
1ABBD
331
1AB08
  5
1ABBE
331
1AB09
  5
1ABBF
331
1AB0A
  5
1ABC0
331
1AB0B
  5
1ABC2
331
1AB0C
  5
1ABC3
331
1AB0D
  5
1ABC4
331
1AB0E
  5
1ABC5
331
1AB0F
  5
1ABC6
331
1AB10
  5
1ABC7
331
1AB11
  5
1ABC8
331
1AB12
  5
1ABC9
331
1AB13
  5
1ABCA
331
1AB14
  5
1ABCB
331
1AB15
  5
1ABCC
331
1AB16
  5
1ABCD
331
1AB17
  5
1ABCE
331
1AB18
  5
1ABCF
331
1AB19
  5
1ABD0
331
1AB1A
  5
1ABD1
331
1AB1B
  5
1ABD2
331
1AB1C
  5
1ABD3
331
1AB1D
  5
1ABD4
331
1AB1E
  5
1ABD5
331
1AB1F
  5
1ABD6
331
1AB20
  5
1ABD7
331
1AB21
  5
1ABDB
331
1AB22
  5
1ABDC
331
1AB23
  5
1ABDD
331
1AB24
  5
1ABDE
331
1AB25
  5
1ABDF
331
1AB26
  5
1ABE0
331
1AB27
  5
1ABE1
331
1AB28
  5
1ABE2
331
1AB29
  5
1ABE3
331
1AB2A
  5
1ABE4
331
1AB2B
  5
1ABE5
331
0
  5
1ABC1
331
1AB2D
  5
1ABF6
331
1AB2E
  5
1ABF7
331
1AB2F
  5
1ABF8
331
1AB30
  5
1ABF9
331
1AB31
  5
1ABFA
331
1AB32
  5
1ABFB
331
1AB33
  5
1ABFC
331
1AB34
  5
1AC00
331
1AB35
  5
1AC01
331
1AB36
  5
1AC02
331
1AB37
  5
1AC03
331
1AB38
  5
1AC04
331
1AB39
  5
1AC05
331
1AB3A
  5
1AC06
331
1AB3B
  5
1AC07
331
1AB3C
  5
1AC08
331
1AB3D
  5
1AC09
331
1AB3E
  5
1AC0A
331
1AB3F
  5
1AC0B
331
1AB40
  5
1AC0C
331
1AB41
  5
1AC0D
331
1AB42
  5
1AC0E
331
1AB43
  5
1AC0F
331
1AB44
  5
1AC10
331
1AB45
  5
1AC11
331
1AB46
  5
1AC12
331
1AB47
  5
1AC13
331
1AB48
  5
1AC14
331
1AB49
  5
1AC15
331
1AB4A
  5
1AC16
331
1AB4B
  5
1AC17
331
1AB4C
  5
1AC18
331
1AB4D
  5
1AC19
331
1AB4E
  5
1AC1A
331
1AB4F
  5
1AC1B
331
1AB50
  5
1AC1C
331
1AB52
  5
1AC27
331
1AB53
  5
1AC28
331
1AB54
  5
1AC29
331
1AB55
  5
1AC2A
331
1AB56
  5
1AC2B
331
1AB57
  5
1AC2C
331
1AB58
  5
1AC2D
331
1AB59
  5
1AC2E
331
1AB5A
  5
1AC2F
331
1AB5B
  5
1AC30
331
1AB5C
  5
1AC31
331
1AB5E
  5
1AC38
331
1AB5F
  5
1AC39
331
1AB60
  5
1AC3A
331
1AB61
  5
1AC3B
331
1AB62
  5
1AC3C
331
1AB63
  5
1AC3D
331
1AB64
  5
1AC3E
331
1AB65
  5
1AC3F
331
1AB66
  5
1AC40
331
1AB67
  5
1AC41
331
1AB68
  5
1AC42
331
1AB69
  5
1AC43
331
1AB6A
  5
1AC44
331
1AB6B
  5
1AC45
331
1AB6C
  5
1AC46
331
1AB71
  5
1AC47
331
1AB76
  5
1AC48
331
1AB77
  5
1AC49
331
1AB78
  5
1AC4A
331
1AB79
  5
1AC4B
331
1AB7A
  5
1AC4C
331
1AB7B
  5
1AC4D
331
1AB7C
  5
1AC4E
331
1AB7D
  5
1AC4F
331
1AB7E
  5
1AC50
331
1AB7F
  5
1AC51
331
1AB80
  5
1AC52
331
1AB81
  5
1AC53
331
1AB82
  5
1AC54
331
1AB83
  5
1AEFF
331
1AB84
  5
1AF00
331
1AB85
  5
1AF01
331
1AB86
  5
1AF02
331
1AB87
  5
1AF03
331
1AB88
  5
1AF04
331
1AB89
  5
1AF05
331
1AB8A
  5
1AF06
331
1AB8B
  5
1AF07
331
1AB8C
  5
1AF08
331
1AB8D
  5
1AF09
331
1AB8E
  5
1AF0A
331
1AB8F
  5
1AF0B
331
1AB90
  5
1AF0C
331
1AB91
  5
1AF0D
331
1AB92
  5
1AF0E
331
1AB93
  5
1AF0F
331
1AB94
  5
1AF10
331
1AB95
  5
1AF11
331
1AB96
  5
1AF12
331
1AB97
  5
1AF13
331
1AB98
  5
1AF14
331
1AB9B
  5
1AF29
331
1AB9C
  5
1AF2A
331
1AB9D
  5
1AF30
331
1AB9E
  5
1AF31
331
1AB9F
  5
1AF32
331
1ABA0
  5
1AF33
331
1ABA1
  5
1AF34
331
1ABA3
  5
1AF3F
331
1ABA4
  5
1AF40
331
1ABA5
  5
1AF41
331
1ABA6
  5
1AF42
331
1ABA7
  5
1AF43
331
1ABA8
  5
1AF44
331
1ABA9
  5
1AF45
331
1ABAA
  5
1AF46
331
1ABAB
  5
1AF47
331
1ABAC
  5
1AF48
331
1ABAD
  5
1AF49
331
1ABAE
  5
1AF4A
331
1ABAF
  5
1AF4B
331
1ABB0
  5
1AF4F
331
1ABB1
  5
1AF50
331
1ABB2
  5
1AF51
331
1ABB3
  5
1AF55
331
1ABB4
  5
1AF56
331
1ABB5
  5
1AF57
331
1ABB6
  5
1AF5B
331
1ABB7
  5
1AF5C
331
1ABB8
  5
1AF5D
331
1ABB9
  5
1AF61
331
1ABBA
  5
1AF62
331
1ABBC
  5
1AF67
331
1ABBD
  5
1AF68
331
1ABBE
  5
1AF69
331
1ABBF
  5
1AF6A
331
1ABC0
  5
1AF6B
331
1ABC1
  5
1AF6C
331
0
  5
1AF2B
331
0
  5
1AF2C
331
0
  5
1AF2D
331
0
  5
1AF2E
331
0
  5
1AF2F
331
1ABC7
  5
1AFA1
331
1ABC8
  5
1AFA2
331
1ABC9
  5
1AFA3
331
1ABCA
  5
1AFA4
331
1ABCB
  5
1AFA5
331
1ABCC
  5
1AFA6
331
1ABCD
  5
1AFA7
331
1ABCE
  5
1AFA8
331
1ABCF
  5
1AFA9
331
1ABD0
  5
1AFAA
331
1ABD1
  5
1AFAB
331
1ABD2
  5
1AFAC
331
1ABD3
  5
1AFAD
331
1ABD4
  5
1AFAE
331
1ABD5
  5
1AFAF
331
1ABD6
  5
1AFB0
331
1ABD7
  5
1AFB1
331
1ABD8
  5
1AFB2
331
1ABD9
  5
1AFB3
331
1ABDA
  5
1AFB4
331
1ABDB
  5
1AFB5
331
1ABDC
  5
1AFB6
331
1ABDD
  5
1AFB7
331
1ABDE
  5
1AFB8
331
1ABDF
  5
1AFB9
331
1ABE0
  5
1AFBA
331
1ABE1
  5
1AFBB
331
1ABE2
  5
1AFBC
331
1ABE3
  5
1AFBD
331
1ABE4
  5
1AFBE
331
1ABE5
  5
1AFBF
331
1ABE6
  5
1AFC0
331
1ABE7
  5
1AFC1
331
1ABE8
  5
1AFC2
331
1ABE9
  5
1AFC3
331
1ABEA
  5
1AFC4
331
1ABEB
  5
1AFC5
331
1ABEC
  5
1AFC6
331
1ABED
  5
1AFC7
331
1ABEE
  5
1AFC8
331
1ABEF
  5
1AFC9
331
1ABF0
  5
1AFCA
331
1ABF1
  5
1AFCB
331
1ABF2
  5
1AFCC
331
1ABF3
  5
1AFCD
331
1ABF4
  5
1AFCE
331
1ABF5
  5
1AFCF
331
1ABF6
  5
1AFD0
331
1ABF7
  5
1AFD1
331
1ABF8
  5
1AFD2
331
1ABF9
  5
1AFD3
331
1ABFA
  5
1AFD4
331
1ABFB
  5
1AFD5
331
1ABFC
  5
1AFD6
331
1ABFD
  5
1AFD7
331
1ABFE
  5
1AFD8
331
1ABFF
  5
1AFD9
331
1AC00
  5
1AFDA
331
1AC01
  5
1AFDB
331
1AC02
  5
1AFDC
331
1AC03
  5
1AFDD
331
1AC04
  5
1AFDE
331
1AC05
  5
1AFDF
331
1AC06
  5
1AFE0
331
0
  5
1AF70
331
0
  5
1AF71
331
1AC09
  5
1AFE6
331
1AC0A
  5
1AFE7
331
1AC0B
  5
1AFE8
331
1AC0C
  5
1AFE9
331
1AC0D
  5
1AFEA
331
1AC0E
  5
1AFEB
331
1AC0F
  5
1AFEC
331
1AC10
  5
1AFED
331
1AC11
  5
1AFEE
331
1AC12
  5
1AFEF
331
1AC13
  5
1AFF0
331
1AC14
  5
1AFF1
331
1AC15
  5
1AFF2
331
1AC16
  5
1AFF3
331
1AC17
  5
1AFF4
331
1AC18
  5
1AFF5
331
1AC19
  5
1AFF6
331
1AC1A
  5
1AFF7
331
1AC1B
  5
1AFF8
331
1AC1C
  5
1AFF9
331
1AC1D
  5
1AFFA
331
1AC1E
  5
1AFFB
331
1AC1F
  5
1AFFC
331
1AC20
  5
1AFFD
331
1AC21
  5
1AFFE
331
1AC22
  5
1AFFF
331
1AC23
  5
1B000
331
1AC24
  5
1B001
331
1AC25
  5
1B002
331
1AC26
  5
1B003
331
1AC27
  5
1B004
331
1AC28
  5
1B005
331
1AC29
  5
1B006
331
1AC2A
  5
1B007
331
1AC2B
  5
1B008
331
1AC2C
  5
1B009
331
1AC2D
  5
1B00A
331
1AC2E
  5
1B00B
331
1AC2F
  5
1B00C
331
1AC30
  5
1B00D
331
1AC31
  5
1B00E
331
1AC32
  5
1B00F
331
1AC33
  5
1B010
331
1AC34
  5
1B011
331
1AC35
  5
1B012
331
1AC36
  5
1B013
331
1AC37
  5
1B014
331
1AC38
  5
1B015
331
1AC39
  5
1B016
331
1AC3A
  5
1B017
331
1AC3B
  5
1B018
331
1AC3C
  5
1B019
331
1AC3D
  5
1B01A
331
1AC3E
  5
1B01B
331
1AC3F
  5
1B01C
331
1AC40
  5
1B01D
331
1AC41
  5
1B01E
331
1AC42
  5
1B01F
331
1AC43
  5
1B020
331
1AC44
  5
1B021
331
1AC45
  5
1B022
331
1AC46
  5
1B023
331
1AC47
  5
1B024
331
1AC48
  5
1B025
331
1AC49
  5
1B026
331
1AC4A
  5
1B027
331
1AC4B
  5
1B028
331
1AC4C
  5
1B029
331
1AC4D
  5
1B02A
331
1AC4E
  5
1B02B
331
1AC4F
  5
1B02C
331
1AC50
  5
1B02D
331
1AC51
  5
1B02E
331
1AC52
  5
1B02F
331
1AC53
  5
1B030
331
1AC54
  5
1B031
331
1AEFF
  5
1AA74
331
1AF00
  5
1AA75
331
1AF01
  5
1AA76
331
0
  5
1AA77
331
0
  5
1AA78
331
0
  5
1AA79
331
1AF05
  5
1AA93
331
1AF06
  5
1AA97
331
1AF07
  5
1AA98
331
0
  5
1AA8C
331
0
  5
1AA8D
331
0
  5
1AA8E
331
1AF0B
  5
1AAA4
331
1AF0C
  5
1AAA5
331
1AF0D
  5
1AAA6
331
0
  5
1AA94
331
0
  5
1AA95
331
0
  5
1AA96
331
1AF11
  5
1AAD7
331
1AF12
  5
1AAD8
331
1AF13
  5
1AAD9
331
0
  5
1AAB1
331
0
  5
1AAB2
331
0
  5
1AAB3
331
1AF17
  5
1AAEA
331
1AF18
  5
1AAEB
331
1AF19
  5
1AAEC
331
0
  5
1AABA
331
0
  5
1AABB
331
0
  5
1AABC
331
1AF1D
  5
1AB45
331
1AF1E
  5
1AB46
331
1AF1F
  5
1AB47
331
0
  5
1AAF9
331
0
  5
1AAFA
331
0
  5
1AAFB
331
1AF23
  5
1AB58
331
1AF24
  5
1AB59
331
1AF25
  5
1AB62
331
1AF26
  5
1AB63
331
1AF27
  5
1AB64
331
0
  5
1AB0C
331
0
  5
1AB0D
331
0
  5
1AB0E
331
1AF2B
  5
1AB77
331
1AF2C
  5
1AB78
331
1AF2D
  5
1AB79
331
0
  5
1AB15
331
0
  5
1AB16
331
0
  5
1AB17
331
1AF31
  5
1AB81
331
1AF32
  5
1AB82
331
1AF33
  5
1AB83
331
0
  5
1AB1B
331
0
  5
1AB1C
331
0
  5
1AB1D
331
1AF37
  5
1AB8B
331
1AF38
  5
1AB8C
331
1AF39
  5
1AB8D
331
0
  5
1AB21
331
0
  5
1AB22
331
0
  5
1AB23
331
1AF3D
  5
1AC1D
331
1AF3E
  5
1AC1E
331
1AF3F
  5
1AC1F
331
0
  5
1AB9E
331
0
  5
1AB9F
331
0
  5
1ABA0
331
1AF43
  5
1AC32
331
1AF44
  5
1AC33
331
1AF45
  5
1AC34
331
1AF46
  5
1AC35
331
1AF47
  5
1AC36
331
1AF48
  5
1AC37
331
1AF49
  5
1AF15
331
1AF4A
  5
1AF16
331
1AF4B
  5
1AF17
331
0
  5
1ABEA
331
0
  5
1ABEB
331
0
  5
1ABEC
331
1AF4F
  5
1AF1F
331
1AF50
  5
1AF20
331
1AF51
  5
1AF21
331
0
  5
1ABF0
331
0
  5
1ABF1
331
0
  5
1ABF2
331
1AF55
  5
1AF35
331
1AF56
  5
1AF36
331
1AF57
  5
1AF37
331
0
  5
1ABFD
331
0
  5
1ABFE
331
0
  5
1ABFF
331
1AF5B
  5
1AF63
331
1AF5C
  5
1AA7A
331
1AF5D
  5
1AA7B
331
1AF5E
  5
1AA7C
331
1AF5F
  5
1AA7D
331
1AF60
  5
1AA7E
331
1AF61
  5
1AA7F
331
1AF62
  5
1AA80
331
1AF63
  5
1AA99
331
1AF64
  5
1AA9B
331
1AF65
  5
1AA9C
331
1AF66
  5
1AA9D
331
1AF67
  5
1AA9F
331
1AF68
  5
1AAA0
331
1AF69
  5
1AAA1
331
1AF6A
  5
1AAA7
331
1AF6B
  5
1AAA8
331
1AF6C
  5
1AAA9
331
1AF6D
  5
1AAAA
331
1AF6E
  5
1AAAB
331
1AF6F
  5
1AAAC
331
1AF70
  5
1AAAD
331
1AF71
  5
1AADA
331
1AF72
  5
1AADC
331
1AF73
  5
1AADD
331
1AF74
  5
1AADE
331
1AF75
  5
1AAE0
331
1AF76
  5
1AAE1
331
1AF77
  5
1AAE2
331
1AF78
  5
1AAED
331
1AF79
  5
1AAEE
331
1AF7A
  5
1AAEF
331
1AF7B
  5
1AAF0
331
1AF7C
  5
1AAF4
331
1AF7D
  5
1AAF5
331
1AF7E
  5
1AAF6
331
1AF7F
  5
1AB48
331
1AF80
  5
1AB49
331
1AF81
  5
1AB4A
331
1AF82
  5
1AB4B
331
1AF83
  5
1AB4C
331
1AF84
  5
1AB4D
331
1AF85
  5
1AB4E
331
1AF86
  5
1AB65
331
1AF87
  5
1AB66
331
1AF88
  5
1AB67
331
1AF89
  5
1AB68
331
1AF8A
  5
1AB69
331
1AF8B
  5
1AB6A
331
1AF8C
  5
1AB6B
331
1AF8D
  5
1AB7A
331
1AF8E
  5
1AB7B
331
1AF8F
  5
1AB7C
331
1AF90
  5
1AB7D
331
1AF91
  5
1AB7E
331
1AF92
  5
1AB7F
331
1AF93
  5
1AB80
331
1AF94
  5
1AB84
331
1AF95
  5
1AB85
331
1AF96
  5
1AB86
331
1AF97
  5
1AB87
331
1AF98
  5
1AB88
331
1AF99
  5
1AB89
331
1AF9A
  5
1AB8A
331
1AF9B
  5
1AB8E
331
1AF9C
  5
1AB8F
331
1AF9D
  5
1AB90
331
1AF9E
  5
1AB91
331
1AF9F
  5
1AB92
331
1AFA0
  5
1AB93
331
1AFA1
  5
1AB94
331
1AFA2
  5
1AC20
331
1AFA3
  5
1AC21
331
1AFA4
  5
1AC22
331
1AFA5
  5
1AC23
331
1AFA6
  5
1AC24
331
1AFA7
  5
1AC25
331
1AFA8
  5
1AC26
331
1AFA9
  5
1AF18
331
1AFAA
  5
1AF19
331
1AFAB
  5
1AF1A
331
1AFAC
  5
1AF1B
331
1AFAD
  5
1AF1C
331
1AFAE
  5
1AF1D
331
1AFAF
  5
1AF1E
331
1AFB0
  5
1AF22
331
1AFB1
  5
1AF23
331
1AFB2
  5
1AF24
331
1AFB3
  5
1AF25
331
1AFB4
  5
1AF26
331
1AFB5
  5
1AF27
331
1AFB6
  5
1AF28
331
1AFB7
  5
1AF38
331
1AFB8
  5
1AF39
331
1AFB9
  5
1AF3A
331
1AFBA
  5
1AF3B
331
1AFBB
  5
1AF3C
331
1AFBC
  5
1AF3D
331
1AFBD
  5
1AF3E
331
1AFBE
  5
1AAAF
331
1AFBF
  5
1AAB0
331
1AFC0
  5
1AAB4
331
0
  5
1AAB5
331
0
  5
1AAB6
331
0
  5
1AAB7
331
1AFC4
  5
1AAF8
331
1AFC5
  5
1AAFC
331
1AFC6
  5
1AAFD
331
0
  5
1AAF1
331
0
  5
1AAF2
331
0
  5
1AAF3
331
1AFCA
  5
1AB5A
331
1AFCB
  5
1AB5B
331
1AFCC
  5
1AB5C
331
1AFCD
  5
1AB5E
331
1AFCE
  5
1AB5F
331
1AFCF
  5
1AB60
331
1AFD0
  5
1AB61
331
1AFD1
  5
1ABE6
331
1AFD2
  5
1ABE7
331
1AFD3
  5
1ABE8
331
0
  5
1ABD8
331
0
  5
1ABD9
331
0
  5
1ABDA
331
1AFD7
  5
1AF6D
331
1AFD8
  5
1AF6E
331
1AFD9
  5
1AF6F
331
0
  5
1AF4C
331
0
  5
1AF4D
331
0
  5
1AF4E
331
1AFDD
  5
1AF79
331
1AFDE
  5
1AF7A
331
1AFDF
  5
1AF7B
331
0
  5
1AF52
331
0
  5
1AF53
331
0
  5
1AF54
331
1AFE3
  5
1AF83
331
1AFE4
  5
1AF84
331
1AFE5
  5
1AF85
331
0
  5
1AF58
331
0
  5
1AF59
331
0
  5
1AF5A
331
1AFE9
  5
1AF8D
331
1AFEA
  5
1AF8E
331
1AFEB
  5
1AF8F
331
0
  5
1AF5E
331
0
  5
1AF5F
331
0
  5
1AF60
331
1AFEF
  5
1AF97
331
1AFF0
  5
1AF98
331
1AFF1
  5
1AF99
331
0
  5
1AF64
331
0
  5
1AF65
331
0
  5
1AF66
331
1AFF5
  5
1AFE1
331
1AFF6
  5
1AFE2
331
1AFF7
  5
1AFE3
331
1AFF8
  5
1AFE4
331
1AFF9
  5
1AFE5
331
1AFFA
  5
1AAB8
331
1AFFB
  5
1AAB9
331
1AFFC
  5
1AABD
331
1AFFD
  5
1AABE
331
1AFFE
  5
1AABF
331
1AFFF
  5
1AAC0
331
1B000
  5
1AAC1
331
1B001
  5
1AAFE
331
1B002
  5
1AAFF
331
1B003
  5
1AB00
331
1B004
  5
1AB01
331
1B005
  5
1AB02
331
1B006
  5
1AB03
331
1B007
  5
1AB04
331
1B008
  5
1ABE9
331
1B009
  5
1ABED
331
1B00A
  5
1ABEE
331
1B00B
  5
1ABEF
331
1B00C
  5
1ABF3
331
1B00D
  5
1ABF4
331
1B00E
  5
1ABF5
331
1B00F
  5
1AF72
331
1B010
  5
1AF73
331
1B011
  5
1AF74
331
1B012
  5
1AF75
331
1B013
  5
1AF76
331
1B014
  5
1AF77
331
1B015
  5
1AF78
331
1B016
  5
1AF7C
331
1B017
  5
1AF7D
331
1B018
  5
1AF7E
331
1B019
  5
1AF7F
331
1B01A
  5
1AF80
331
1B01B
  5
1AF81
331
1B01C
  5
1AF82
331
1B01D
  5
1AF86
331
1B01E
  5
1AF87
331
1B01F
  5
1AF88
331
1B020
  5
1AF89
331
1B021
  5
1AF8A
331
1B022
  5
1AF8B
331
1B023
  5
1AF8C
331
1B024
  5
1AF90
331
1B025
  5
1AF91
331
1B026
  5
1AF92
331
1B027
  5
1AF93
331
1B028
  5
1AF94
331
1B029
  5
1AF95
331
1B02A
  5
1AF96
331
1B02B
  5
1AF9A
331
1B02C
  5
1AF9B
331
1B02D
  5
1AF9C
331
1B02E
  5
1AF9D
331
1B02F
  5
1AF9E
331
1B030
  5
1AF9F
331
1B031
  5
1AFA0
  0
MATERIAL
  5
D9A4
102
{ACAD_REACTORS
330
18C
102
}
102
{ACAD_XDICTIONARY
360
1B1D0
102
}
330
18C
100
AcDbMaterial
  1
BYBLOCK
 72
     0
 73
     2
 43
0.0208333333333333
 43
0.0
 43
0.0
 43
0.0
 43
0.0
 43
0.0208333333333333
 43
0.0
 43
0.0
 43
0.0
 43
0.0
 43
1.0
 43
0.0
 43
0.0
 43
0.0
 43
0.0
 43
1.0
 77
     0
 78
     2
 47
0.0208333333333333
 47
0.0
 47
0.0
 47
0.0
 47
0.0
 47
0.0208333333333333
 47
0.0
 47
0.0
 47
0.0
 47
0.0
 47
1.0
 47
0.0
 47
0.0
 47
0.0
 47
0.0
 47
1.0
171
     0
172
     2
 49
0.0208333333333333
 49
0.0
 49
0.0
 49
0.0
 49
0.0
 49
0.0208333333333333
 49
0.0
 49
0.0
 49
0.0
 49
0.0
 49
1.0
 49
0.0
 49
0.0
 49
0.0
 49
0.0
 49
1.0
175
     0
176
     2
142
0.0208333333333333
142
0.0
142
0.0
142
0.0
142
0.0
142
0.0208333333333333
142
0.0
142
0.0
142
0.0
142
0.0
142
1.0
142
0.0
142
0.0
142
0.0
142
0.0
142
1.0
179
     0
270
     2
144
0.0208333333333333
144
0.0
144
0.0
144
0.0
144
0.0
144
0.0208333333333333
144
0.0
144
0.0
144
0.0
144
0.0
144
1.0
144
0.0
144
0.0
144
0.0
144
0.0
144
1.0
274
     2
147
0.0208333333333333
147
0.0
147
0.0
147
0.0
147
0.0
147
0.0208333333333333
147
0.0
147
0.0
147
0.0
147
0.0
147
1.0
147
0.0
147
0.0
147
0.0
147
0.0
147
1.0
  0
MATERIAL
  5
D99C
102
{ACAD_REACTORS
330
18C
102
}
102
{ACAD_XDICTIONARY
360
1B1D2
102
}
330
18C
100
AcDbMaterial
  1
BYLAYER
 72
     0
 73
     2
 43
0.0208333333333333
 43
0.0
 43
0.0
 43
0.0
 43
0.0
 43
0.0208333333333333
 43
0.0
 43
0.0
 43
0.0
 43
0.0
 43
1.0
 43
0.0
 43
0.0
 43
0.0
 43
0.0
 43
1.0
 77
     0
 78
     2
 47
0.0208333333333333
 47
0.0
 47
0.0
 47
0.0
 47
0.0
 47
0.0208333333333333
 47
0.0
 47
0.0
 47
0.0
 47
0.0
 47
1.0
 47
0.0
 47
0.0
 47
0.0
 47
0.0
 47
1.0
171
     0
172
     2
 49
0.0208333333333333
 49
0.0
 49
0.0
 49
0.0
 49
0.0
 49
0.0208333333333333
 49
0.0
 49
0.0
 49
0.0
 49
0.0
 49
1.0
 49
0.0
 49
0.0
 49
0.0
 49
0.0
 49
1.0
175
     0
176
     2
142
0.0208333333333333
142
0.0
142
0.0
142
0.0
142
0.0
142
0.0208333333333333
142
0.0
142
0.0
142
0.0
142
0.0
142
1.0
142
0.0
142
0.0
142
0.0
142
0.0
142
1.0
179
     0
270
     2
144
0.0208333333333333
144
0.0
144
0.0
144
0.0
144
0.0
144
0.0208333333333333
144
0.0
144
0.0
144
0.0
144
0.0
144
1.0
144
0.0
144
0.0
144
0.0
144
0.0
144
1.0
274
     2
147
0.0208333333333333
147
0.0
147
0.0
147
0.0
147
0.0
147
0.0208333333333333
147
0.0
147
0.0
147
0.0
147
0.0
147
1.0
147
0.0
147
0.0
147
0.0
147
0.0
147
1.0
  0
MATERIAL
  5
D9AC
102
{ACAD_REACTORS
330
18C
102
}
102
{ACAD_XDICTIONARY
360
1B1D4
102
}
330
18C
100
AcDbMaterial
  1
GLOBAL
 72
     0
 73
     2
 43
0.0208333333333333
 43
0.0
 43
0.0
 43
0.0
 43
0.0
 43
0.0208333333333333
 43
0.0
 43
0.0
 43
0.0
 43
0.0
 43
1.0
 43
0.0
 43
0.0
 43
0.0
 43
0.0
 43
1.0
 77
     0
 78
     2
 47
0.0208333333333333
 47
0.0
 47
0.0
 47
0.0
 47
0.0
 47
0.0208333333333333
 47
0.0
 47
0.0
 47
0.0
 47
0.0
 47
1.0
 47
0.0
 47
0.0
 47
0.0
 47
0.0
 47
1.0
171
     0
172
     2
 49
0.0208333333333333
 49
0.0
 49
0.0
 49
0.0
 49
0.0
 49
0.0208333333333333
 49
0.0
 49
0.0
 49
0.0
 49
0.0
 49
1.0
 49
0.0
 49
0.0
 49
0.0
 49
0.0
 49
1.0
175
     0
176
     2
142
0.0208333333333333
142
0.0
142
0.0
142
0.0
142
0.0
142
0.0208333333333333
142
0.0
142
0.0
142
0.0
142
0.0
142
1.0
142
0.0
142
0.0
142
0.0
142
0.0
142
1.0
179
     0
270
     2
144
0.0208333333333333
144
0.0
144
0.0
144
0.0
144
0.0
144
0.0208333333333333
144
0.0
144
0.0
144
0.0
144
0.0
144
1.0
144
0.0
144
0.0
144
0.0
144
0.0
144
1.0
274
     2
147
0.0208333333333333
147
0.0
147
0.0
147
0.0
147
0.0
147
0.0208333333333333
147
0.0
147
0.0
147
0.0
147
0.0
147
1.0
147
0.0
147
0.0
147
0.0
147
0.0
147
1.0
  0
ACAD_PROXY_OBJECT
  5
D9E8
102
{ACAD_REACTORS
330
D9E7
102
}
330
D9E7
100
AcDbZombieObject
 90
      499
 91
      511
 93
      610
310
40901902A4063FBFFFFFE000000000000002040AD7A3703D0AD73F4214DD185B99185C990000000000000104090141901A00000000000004100000000000000041025764000000000000300FC0
340
12
340
0
340
F
340
0
 94
        0
1001
ACAD_MLEADERVER
1070
     2
  0
MLINESTYLE
  5
1C
102
{ACAD_REACTORS
330
1B
102
}
330
1B
100
AcDbMlineStyle
  2
STANDARD
 70
     0
  3

 62
   256
 51
90.0
 52
90.0
 71
     2
 49
0.5
 62
   256
  6
BYLAYER
 49
-0.5
 62
   256
  6
BYLAYER
  0
ACAD_PROXY_OBJECT
  5
D9C6
102
{ACAD_REACTORS
330
D9C5
102
}
330
D9C5
100
AcDbZombieObject
 90
      499
 91
      510
 93
       41
310
903313A31580
  0
ACAD_PROXY_OBJECT
  5
D9C7
102
{ACAD_REACTORS
330
D9C5
102
}
330
D9C5
100
AcDbZombieObject
 90
      499
 91
      510
 93
      105
310
903313A324000000000000004000
  0
ACAD_PROXY_OBJECT
  5
D9C8
102
{ACAD_REACTORS
330
D9C5
102
}
330
D9C5
100
AcDbZombieObject
 90
      499
 91
      510
 93
      105
310
903313A344000000000000104000
  0
ACAD_PROXY_OBJECT
  5
D9C9
102
{ACAD_REACTORS
330
D9C5
102
}
330
D9C5
100
AcDbZombieObject
 90
      499
 91
      510
 93
      105
310
903313A354000000000000144000
  0
ACAD_PROXY_OBJECT
  5
D9CA
102
{ACAD_REACTORS
330
D9C5
102
}
330
D9C5
100
AcDbZombieObject
 90
      499
 91
      510
 93
      105
310
903313A384000000000000204000
  0
ACAD_PROXY_OBJECT
  5
D9CB
102
{ACAD_REACTORS
330
D9C5
102
}
330
D9C5
100
AcDbZombieObject
 90
      499
 91
      510
 93
      113
310
904313A31304000000000000244000
  0
ACAD_PROXY_OBJECT
  5
D9CC
102
{ACAD_REACTORS
330
D9C5
102
}
330
D9C5
100
AcDbZombieObject
 90
      499
 91
      510
 93
      113
310
904313A31364000000000000304000
  0
ACAD_PROXY_OBJECT
  5
D9CD
102
{ACAD_REACTORS
330
D9C5
102
}
330
D9C5
100
AcDbZombieObject
 90
      499
 91
      510
 93
      113
310
904313A32304000000000000344000
  0
ACAD_PROXY_OBJECT
  5
D9CE
102
{ACAD_REACTORS
330
D9C5
102
}
330
D9C5
100
AcDbZombieObject
 90
      499
 91
      510
 93
      113
310
904313A333040000000000003E4000
  0
ACAD_PROXY_OBJECT
  5
D9CF
102
{ACAD_REACTORS
330
D9C5
102
}
330
D9C5
100
AcDbZombieObject
 90
      499
 91
      510
 93
      113
310
904313A34304000000000000444000
  0
ACAD_PROXY_OBJECT
  5
D9D0
102
{ACAD_REACTORS
330
D9C5
102
}
330
D9C5
100
AcDbZombieObject
 90
      499
 91
      510
 93
      113
310
904313A35304000000000000494000
  0
ACAD_PROXY_OBJECT
  5
D9D1
102
{ACAD_REACTORS
330
D9C5
102
}
330
D9C5
100
AcDbZombieObject
 90
      499
 91
      510
 93
      121
310
905313A3130304000000000000594000
  0
ACAD_PROXY_OBJECT
  5
D9D2
102
{ACAD_REACTORS
330
D9C5
102
}
330
D9C5
100
AcDbZombieObject
 90
      499
 91
      510
 93
      105
310
903323A310000000000000010100
  0
ACAD_PROXY_OBJECT
  5
D9D3
102
{ACAD_REACTORS
330
D9C5
102
}
330
D9C5
100
AcDbZombieObject
 90
      499
 91
      510
 93
      105
310
903343A310000000000000410100
  0
ACAD_PROXY_OBJECT
  5
D9D4
102
{ACAD_REACTORS
330
D9C5
102
}
330
D9C5
100
AcDbZombieObject
 90
      499
 91
      510
 93
      105
310
903383A310000000000000810100
  0
ACAD_PROXY_OBJECT
  5
D9D5
102
{ACAD_REACTORS
330
D9C5
102
}
330
D9C5
100
AcDbZombieObject
 90
      499
 91
      510
 93
      113
310
90431303A310000000000000910100
  0
ACAD_PROXY_OBJECT
  5
D9D6
102
{ACAD_REACTORS
330
D9C5
102
}
330
D9C5
100
AcDbZombieObject
 90
      499
 91
      510
 93
      121
310
9053130303A310000000000001650100
  0
ACAD_PROXY_OBJECT
  5
D9D7
102
{ACAD_REACTORS
330
D9C5
102
}
330
D9C5
100
AcDbZombieObject
 90
      499
 91
      510
 93
      257
310
90E312F31323822203D2031272D3022000000000000200FC000000000000284000
  0
ACAD_PROXY_OBJECT
  5
D9D8
102
{ACAD_REACTORS
330
D9C5
102
}
330
D9C5
100
AcDbZombieObject
 90
      499
 91
      510
 93
      249
310
90D312F363422203D2031272D3022000000000000240FC000000000000284000
  0
ACAD_PROXY_OBJECT
  5
D9D9
102
{ACAD_REACTORS
330
D9C5
102
}
330
D9C5
100
AcDbZombieObject
 90
      499
 91
      510
 93
      249
310
90D312F333222203D2031272D3022000000000000280FC000000000000284000
  0
ACAD_PROXY_OBJECT
  5
D9DA
102
{ACAD_REACTORS
330
D9C5
102
}
330
D9C5
100
AcDbZombieObject
 90
      499
 91
      510
 93
      249
310
90D312F313622203D2031272D30220000000000002C0FC000000000000284000
  0
ACAD_PROXY_OBJECT
  5
D9DB
102
{ACAD_REACTORS
330
D9C5
102
}
330
D9C5
100
AcDbZombieObject
 90
      499
 91
      510
 93
      249
310
90D332F333222203D2031272D30220000000000002E0FC000000000000284000
  0
ACAD_PROXY_OBJECT
  5
D9DC
102
{ACAD_REACTORS
330
D9C5
102
}
330
D9C5
100
AcDbZombieObject
 90
      499
 91
      510
 93
      241
310
90C312F3822203D2031272D3022000000000000300FC000000000000284000
  0
ACAD_PROXY_OBJECT
  5
D9DD
102
{ACAD_REACTORS
330
D9C5
102
}
330
D9C5
100
AcDbZombieObject
 90
      499
 91
      510
 93
      249
310
90D332F313622203D2031272D3022000000000000320FC000000000000284000
  0
ACAD_PROXY_OBJECT
  5
D9DE
102
{ACAD_REACTORS
330
D9C5
102
}
330
D9C5
100
AcDbZombieObject
 90
      499
 91
      510
 93
      241
310
90C312F3422203D2031272D3022000000000000340FC000000000000284000
  0
ACAD_PROXY_OBJECT
  5
D9DF
102
{ACAD_REACTORS
330
D9C5
102
}
330
D9C5
100
AcDbZombieObject
 90
      499
 91
      510
 93
      241
310
90C332F3822203D2031272D3022000000000000360FC000000000000284000
  0
ACAD_PROXY_OBJECT
  5
D9E0
102
{ACAD_REACTORS
330
D9C5
102
}
330
D9C5
100
AcDbZombieObject
 90
      499
 91
      510
 93
      241
310
90C312F3222203D2031272D3022000000000000380FC000000000000284000
  0
ACAD_PROXY_OBJECT
  5
D9E1
102
{ACAD_REACTORS
330
D9C5
102
}
330
D9C5
100
AcDbZombieObject
 90
      499
 91
      510
 93
      241
310
90C332F3422203D2031272D30220000000000003A0FC000000000000284000
  0
ACAD_PROXY_OBJECT
  5
D9E2
102
{ACAD_REACTORS
330
D9C5
102
}
330
D9C5
100
AcDbZombieObject
 90
      499
 91
      510
 93
      161
310
90A3122203D2031272D30224000000000000284000
  0
ACAD_PROXY_OBJECT
  5
D9E3
102
{ACAD_REACTORS
330
D9C5
102
}
330
D9C5
100
AcDbZombieObject
 90
      499
 91
      510
 93
      257
310
90E312D312F3222203D2031272D30220000000000003E0FC000000000000284000
  0
ACAD_PROXY_OBJECT
  5
D9E4
102
{ACAD_REACTORS
330
D9C5
102
}
330
D9C5
100
AcDbZombieObject
 90
      499
 91
      510
 93
      225
310
90A3322203D2031272D302200000000000002100000000000000284000
  0
ACAD_PROXY_OBJECT
  5
D9E5
102
{ACAD_REACTORS
330
D9C5
102
}
330
D9C5
100
AcDbZombieObject
 90
      499
 91
      510
 93
      225
310
90A3622203D2031272D302200000000000006100000000000000284000
  0
ACAD_PROXY_OBJECT
  5
D9E6
102
{ACAD_REACTORS
330
D9C5
102
}
330
D9C5
100
AcDbZombieObject
 90
      499
 91
      510
 93
      249
310
90D31272D3022203D2031272D30220000000000000A100000000000000284000
  0
ACAD_PROXY_OBJECT
  5
D9BA
102
{ACAD_REACTORS
330
D9B4
102
}
330
D9B4
100
AcDbZombieObject
 90
      499
 91
      509
 93
      436
310
42CC9915DA5C99599C985B595049028333333333333E3BF0000000000000FB0107901411070040501600405405064090741402480A0340
1001
ACAD
1000
AcDbSavedByObjectVersion
1070
     0
  0
ACAD_PROXY_OBJECT
  5
D9BC
102
{ACAD_REACTORS
330
D9B4
102
}
330
D9B4
100
AcDbZombieObject
 90
      499
 91
      509
 93
      500
310
424CD108121A5919195B90640502408333333333333E3BF0000000000000FB01079024090700405020000000000001110200405405064090740C02480A0340
1001
ACAD
1000
AcDbSavedByObjectVersion
1070
     0
  0
ACAD_PROXY_OBJECT
  5
D9BB
102
{ACAD_REACTORS
330
D9B4
102
}
330
D9B4
100
AcDbZombieObject
 90
      499
 91
      509
 93
      436
310
42CCD915DA5C99599C985B595059028333333333333E3BF0000000000000FB0107901411070040501600405405064090741402480A0340
1001
ACAD
1000
AcDbSavedByObjectVersion
1070
     0
  0
ACAD_PROXY_OBJECT
  5
D9B9
102
{ACAD_REACTORS
330
D9B4
102
}
330
D9B4
100
AcDbZombieObject
 90
      499
 91
      509
 93
      388
310
4150985CDA58D07406404333333333333E3BF0000000000000FB0107A41107004050150841D405064090741402480A0350
1001
ACAD
1000
AcDbSavedByObjectVersion
1070
     0
  0
ACAD_PROXY_OBJECT
  5
D9C0
102
{ACAD_REACTORS
330
D9B4
102
}
330
D9B4
100
AcDbZombieObject
 90
      499
 91
      509
 93
      428
310
42109C9A59DA1D195B90C409028333333333333E3BF0000000000000FB010790141107004050150841D405064090741402480A029950
1001
ACAD
1000
AcDbSavedByObjectVersion
1070
     0
  0
ACAD_PROXY_OBJECT
  5
D9C4
102
{ACAD_REACTORS
330
D9B4
102
}
330
D9B4
100
AcDbZombieObject
 90
      499
 91
      509
 93
      452
310
42D0DBDB1BDC90DA185B99D95104090240C333333333333E3BF0000000000000FB0108901411070040501508421405064090741402480A0350
1001
ACAD
1000
AcDbSavedByObjectVersion
1070
     0
  0
ACAD_PROXY_OBJECT
  5
D9BD
102
{ACAD_REACTORS
330
D9B4
102
}
330
D9B4
100
AcDbZombieObject
 90
      499
 91
      509
 93
      500
310
4290DBDB98D95C1D1D585B10940D028333333333333E3BF0000000000000FB0107902409070040501000000000000111010841D405064090740C02480A0340
1001
ACAD
1000
AcDbSavedByObjectVersion
1070
     0
  0
ACAD_PROXY_OBJECT
  5
D9BF
102
{ACAD_REACTORS
330
D9B4
102
}
330
D9B4
100
AcDbZombieObject
 90
      499
 91
      509
 93
      412
310
40D11A5B50B409028333333333333E3BF0000000000000FB010790141107004050150841D405064090741402480A02677FFFFFD0
1001
ACAD
1000
AcDbSavedByObjectVersion
1070
     0
  0
ACAD_PROXY_OBJECT
  5
19C2F
102
{ACAD_REACTORS
330
D9B4
102
}
330
D9B4
100
AcDbZombieObject
 90
      499
 91
      509
 93
      452
310
43115919D950DBDB1BDC93D999916409028333333333333E3BF0000000000000FB010790141107004050150841D405064090741402480A0350
1001
ACAD
1000
AcDbSavedByObjectVersion
1070
     0
  0
ACAD_PROXY_OBJECT
  5
D9C3
102
{ACAD_REACTORS
330
D9B4
102
}
330
D9B4
100
AcDbZombieObject
 90
      499
 91
      509
 93
      444
310
42D19858D95C185D1D195C9B90F409028333333333333E3BF0000000000000FB010790141107004050150841D405064090741402480A0350
1001
ACAD
1000
AcDbSavedByObjectVersion
1070
     0
  0
ACAD_PROXY_OBJECT
  5
D9B5
102
{ACAD_REACTORS
330
D9B4
102
}
330
D9B4
100
AcDbZombieObject
 90
      499
 91
      509
 93
      388
310
41119B185D240901404333333333333E3BF0000000000000F9010740A41107004050150841D405064090741402480A1B50
1001
ACAD
1000
AcDbSavedByObjectVersion
1070
     0
  0
ACAD_PROXY_OBJECT
  5
D9B6
102
{ACAD_REACTORS
330
D9B4
102
}
330
D9B4
100
AcDbZombieObject
 90
      499
 91
      509
 93
      476
310
43519B185D15DA5D1A115919D95CD0140901404333333333333E3BF0000000000000F9010740901411070040501600405405064090741402480A1B50
1001
ACAD
1000
AcDbSavedByObjectVersion
1070
     0
  0
ACAD_PROXY_OBJECT
  5
D9B7
102
{ACAD_REACTORS
330
D9B4
102
}
330
D9B4
100
AcDbZombieObject
 90
      499
 91
      509
 93
      412
310
41D1DBDD5C985D5910240902404333333333333E3BF0000000000000F9010740A411070040501641D405064090741402480A1B50
1001
ACAD
1000
AcDbSavedByObjectVersion
1070
     0
  0
ACAD_PROXY_OBJECT
  5
D9B8
102
{ACAD_REACTORS
330
D9B4
102
}
330
D9B4
100
AcDbZombieObject
 90
      499
 91
      509
 93
      500
310
4411DBDD5C985D5915DA5D1A115919D95CD0340902404333333333333E3BF0000000000000F9010740901411070040501600405405064090741402480A1B50
1001
ACAD
1000
AcDbSavedByObjectVersion
1070
     0
  0
ACAD_PROXY_OBJECT
  5
19C7E
102
{ACAD_REACTORS
330
D9B4
102
}
330
D9B4
100
AcDbZombieObject
 90
      499
 91
      509
 93
      476
310
41921A5919195B90640502408333333333333E3BF0000000000000FB01079024090700405020000000000001110200405405064090740C02480A0340
1001
ACAD
1000
AcDbSavedByObjectVersion
1070
     0
  0
ACAD_PROXY_OBJECT
  5
19C2D
102
{ACAD_REACTORS
330
D9B4
102
}
330
D9B4
100
AcDbZombieObject
 90
      499
 91
      509
 93
      428
310
42529A5D1D195C93D999914409028333333333333E3BF0000000000000FB010790141107004050150A41D405064090741402480A0350
1001
ACAD
1000
AcDbSavedByObjectVersion
1070
     0
  0
ACAD_PROXY_OBJECT
  5
D9C2
102
{ACAD_REACTORS
330
D9B4
102
}
330
D9B4
100
AcDbZombieObject
 90
      499
 91
      509
 93
      444
310
42D31A5B995C185D1D195C9B90E409028333333333333E3BF0000000000000FB010790141107004050750841D405064090741402483A0350
1001
ACAD
1000
AcDbSavedByObjectVersion
1070
     0
  0
ACAD_PROXY_OBJECT
  5
19C84
102
{ACAD_REACTORS
330
D9B4
102
}
330
D9B4
100
AcDbZombieObject
 90
      499
 91
      509
 93
      484
310
42135BD9195B1A5B99D0A409028333333333333E3BF0000000000000F901074090290700405010000000000201990108421405064090741402480A1B40
1001
ACAD
1000
AcDbSavedByObjectVersion
1070
     0
  0
ACAD_PROXY_OBJECT
  5
19C2E
102
{ACAD_REACTORS
330
D9B4
102
}
330
D9B4
100
AcDbZombieObject
 90
      499
 91
      509
 93
      444
310
42D3DD995C9A185B99D3D999915409028333333333333E3BF0000000000000FB010790141107004050150941D405064090741402480A0350
1001
ACAD
1000
AcDbSavedByObjectVersion
1070
     0
  0
ACAD_PROXY_OBJECT
  5
D9BE
102
{ACAD_REACTORS
330
D9B4
102
}
330
D9B4
100
AcDbZombieObject
 90
      499
 91
      509
 93
      420
310
425499585B1A5CDD1A58D08409028333333333333E3BF0000000000000FB01079019070040501508421405064090741402480A1B40
1001
ACAD
1000
AcDbSavedByObjectVersion
1070
     0
  0
ACAD_PROXY_OBJECT
  5
19C83
102
{ACAD_REACTORS
330
D9B4
102
}
330
D9B4
100
AcDbZombieObject
 90
      499
 91
      509
 93
      420
310
4194DA1859195911B40902404333333333333E3BF0000000000000F9010740A41107004050150800405405064090840C02480A0B40
1001
ACAD
1000
AcDbSavedByObjectVersion
1070
     0
  0
ACAD_PROXY_OBJECT
  5
19C82
102
{ACAD_REACTORS
330
D9B4
102
}
330
D9B4
100
AcDbZombieObject
 90
      499
 91
      509
 93
      516
310
4454DA18591959081DDA5D1A08195919D95CD1A40902404333333333333E3BF0000000000000F901074090142907004050250800405405064090740C02480A0B40
1001
ACAD
1000
AcDbSavedByObjectVersion
1070
     0
  0
ACAD_PROXY_OBJECT
  5
19C7F
102
{ACAD_REACTORS
330
D9B4
102
}
330
D9B4
100
AcDbZombieObject
 90
      499
 91
      509
 93
      532
310
4394DA1859195CC81BD98811DC985E5174090240C333333333333E3BF0000000000000FB01079024090741D01000000000000111010841D405064090740C02480A0340
1001
ACAD
1000
AcDbSavedByObjectVersion
1070
     0
  0
ACAD_PROXY_OBJECT
  5
19C80
102
{ACAD_REACTORS
330
D9B4
102
}
330
D9B4
100
AcDbZombieObject
 90
      499
 91
      509
 93
      476
310
41D4DAD95D18DA1E51840502408333333333333E3BF0000000000000FB01079024090741D01000000000000111010B41D405064090741802480A0340
1001
ACAD
1000
AcDbSavedByObjectVersion
1070
     0
  0
ACAD_PROXY_OBJECT
  5
D9C1
102
{ACAD_REACTORS
330
D9B4
102
}
330
D9B4
100
AcDbZombieObject
 90
      499
 91
      509
 93
      412
310
41D51A1A58DAD95B90D409028333333333333E3BF0000000000000FB010790141107004050150C41D405064090741402480A0350
1001
ACAD
1000
AcDbSavedByObjectVersion
1070
     0
  0
ACAD_PROXY_OBJECT
  5
19C7D
102
{ACAD_REACTORS
330
D9B4
102
}
330
D9B4
100
AcDbZombieObject
 90
      499
 91
      509
 93
      420
310
4255DA5C99599C985B595059028333333333333E3BF0000000000000FB0107901411070040501600405405064090740C02480A0340
1001
ACAD
1000
AcDbSavedByObjectVersion
1070
     0
  0
ACAD_PROXY_OBJECT
  5
19C81
102
{ACAD_REACTORS
330
D9B4
102
}
330
D9B4
100
AcDbZombieObject
 90
      499
 91
      509
 93
      404
310
41560B54985E51940902404000000000000E03F0000000000000FB010740501907004050150841D405064090740C02480A1B40
1001
ACAD
1000
AcDbSavedByObjectVersion
1070
     0
  0
XRECORD
  5
1B033
102
{ACAD_REACTORS
330
1B032
102
}
330
1B032
100
AcDbXrecord
340
18D
  0
XRECORD
  5
1B034
102
{ACAD_REACTORS
330
1B032
102
}
330
1B032
100
AcDbXrecord
340
18C
  0
DICTIONARYVAR
  5
1AE86
102
{ACAD_REACTORS
330
37
102
}
330
37
100
DictionaryVariables
280
     0
  1
1:1
  0
DICTIONARYVAR
  5
DA6A
102
{ACAD_REACTORS
330
37
102
}
330
37
100
DictionaryVariables
280
     0
  1
Standard
  0
DICTIONARYVAR
  5
29E
102
{ACAD_REACTORS
330
37
102
}
330
37
100
DictionaryVariables
280
     0
  1
Standard
  0
DICTIONARYVAR
  5
38
102
{ACAD_REACTORS
330
37
102
}
330
37
100
DictionaryVariables
280
     0
  1
-1
  0
DICTIONARYVAR
  5
1CE
102
{ACAD_REACTORS
330
37
102
}
330
37
100
DictionaryVariables
280
     0
  1
2
  0
DICTIONARYVAR
  5
704E
102
{ACAD_REACTORS
330
37
102
}
330
37
100
DictionaryVariables
280
     0
  1
1
  0
DICTIONARYVAR
  5
DA6D
102
{ACAD_REACTORS
330
37
102
}
330
37
100
DictionaryVariables
280
     0
  1
0
  0
DICTIONARYVAR
  5
7052
102
{ACAD_REACTORS
330
37
102
}
330
37
100
DictionaryVariables
280
     0
  1
8
  0
DICTIONARYVAR
  5
7051
102
{ACAD_REACTORS
330
37
102
}
330
37
100
DictionaryVariables
280
     0
  1
1
  0
DICTIONARYVAR
  5
1A60C
102
{ACAD_REACTORS
330
37
102
}
330
37
100
DictionaryVariables
280
     0
  1
0
  0
DICTIONARYVAR
  5
704F
102
{ACAD_REACTORS
330
37
102
}
330
37
100
DictionaryVariables
280
     0
  1
8
  0
DICTIONARYVAR
  5
7050
102
{ACAD_REACTORS
330
37
102
}
330
37
100
DictionaryVariables
280
     0
  1
2
  0
DICTIONARYVAR
  5
1CF
102
{ACAD_REACTORS
330
37
102
}
330
37
100
DictionaryVariables
280
     0
  1

  0
DICTIONARYVAR
  5
DA6C
102
{ACAD_REACTORS
330
37
102
}
330
37
100
DictionaryVariables
280
     0
  1
127
  0
DICTIONARYVAR
  5
1AE61
102
{ACAD_REACTORS
330
37
102
}
330
37
100
DictionaryVariables
280
     0
  1
2
  0
DICTIONARY
  5
1B1D0
330
D9A4
100
AcDbDictionary
  3
ACAD_XREC_ROUNDTRIP
360
1B1D1
1001
ACAD
1000
TREAT_AS_HARD
1070
     1
  0
DICTIONARY
  5
1B1D2
330
D99C
100
AcDbDictionary
  3
ACAD_XREC_ROUNDTRIP
360
1B1D3
1001
ACAD
1000
TREAT_AS_HARD
1070
     1
  0
DICTIONARY
  5
1B1D4
330
D9AC
100
AcDbDictionary
  3
ACAD_XREC_ROUNDTRIP
360
1B1D5
1001
ACAD
1000
TREAT_AS_HARD
1070
     1
  0
XRECORD
  5
1B1D1
102
{ACAD_REACTORS
330
1B1D0
102
}
330
1B1D0
100
AcDbXrecord
102
MATERIAL
148
0.0
149
0.0
149
0.0
 93
        0
 94
      127
282
     0
 72
     0
 77
     0
171
     0
175
     0
179
     0
273
     0
  0
XRECORD
  5
1B1D3
102
{ACAD_REACTORS
330
1B1D2
102
}
330
1B1D2
100
AcDbXrecord
102
MATERIAL
148
0.0
149
0.0
149
0.0
 93
        0
 94
      127
282
     0
 72
     0
 77
     0
171
     0
175
     0
179
     0
273
     0
  0
XRECORD
  5
1B1D5
102
{ACAD_REACTORS
330
1B1D4
102
}
330
1B1D4
100
AcDbXrecord
102
MATERIAL
148
0.0
149
0.0
149
0.0
 93
        0
 94
      127
282
     0
 72
     0
 77
     0
171
     0
175
     0
179
     0
273
     0
  0
ENDSEC
  0
EOF
