  0
SECTION
  2
HEADER
  9
$ACADVER
  1
AC1012
  9
$DWGCODEPAGE
  3
ansi_932
  9
$INSBASE
 10
0.0
 20
0.0
 30
0.0
  9
$EXTMIN
 10
2410.163306322965
 20
-502.5285127324989
 30
0.0000000000563712
  9
$EXTMAX
 10
3074.012632866667
 20
-77.55997972638964
 30
0.0000000003382273
  9
$LIMMIN
 10
0.0
 20
0.0
  9
$LIMMAX
 10
420.0
 20
297.0
  9
$ORTHOMODE
 70
     0
  9
$REGENMODE
 70
     1
  9
$FILLMODE
 70
     1
  9
$QTEXTMODE
 70
     0
  9
$MIRRTEXT
 70
     0
  9
$DRAGMODE
 70
     2
  9
$LTSCALE
 40
0.5
  9
$OSMODE
 70
 14463
  9
$ATTMODE
 70
     1
  9
$TEXTSIZE
 40
4.0
  9
$TRACEWID
 40
1.0
  9
$TEXTSTYLE
  7
STANDARD
  9
$CLAYER
  8
1TEXT
  9
$CELTYPE
  6
BYLAYER
  9
$CECOLOR
 62
   256
  9
$CELTSCALE
 40
1.0
  9
$DELOBJ
 70
     1
  9
$DISPSILH
 70
     0
  9
$DIMSCALE
 40
1.0
  9
$DIMASZ
 40
2.0
  9
$DIMEXO
 40
0.0
  9
$DIMDLI
 40
7.0
  9
$DIMRND
 40
0.0
  9
$DIMDLE
 40
0.0
  9
$DIMEXE
 40
1.0
  9
$DIMTP
 40
0.0
  9
$DIMTM
 40
0.0
  9
$DIMTXT
 40
3.5
  9
$DIMCEN
 40
0.0
  9
$DIMTSZ
 40
0.0
  9
$DIMTOL
 70
     0
  9
$DIMLIM
 70
     0
  9
$DIMTIH
 70
     0
  9
$DIMTOH
 70
     0
  9
$DIMSE1
 70
     0
  9
$DIMSE2
 70
     0
  9
$DIMTAD
 70
     1
  9
$DIMZIN
 70
     8
  9
$DIMBLK
  1

  9
$DIMASO
 70
     1
  9
$DIMSHO
 70
     1
  9
$DIMPOST
  1
 
  9
$DIMAPOST
  1

  9
$DIMALT
 70
     0
  9
$DIMALTD
 70
     2
  9
$DIMALTF
 40
25.4
  9
$DIMLFAC
 40
1.0
  9
$DIMTOFL
 70
     1
  9
$DIMTVP
 40
0.0
  9
$DIMTIX
 70
     0
  9
$DIMSOXD
 70
     0
  9
$DIMSAH
 70
     1
  9
$DIMBLK1
  1
OPEN30
  9
$DIMBLK2
  1
OPEN30
  9
$DIMSTYLE
  2
NEWX10
  9
$DIMCLRD
 70
   256
  9
$DIMCLRE
 70
   256
  9
$DIMCLRT
 70
   201
  9
$DIMTFAC
 40
0.7
  9
$DIMGAP
 40
0.7
  9
$DIMJUST
 70
     0
  9
$DIMSD1
 70
     0
  9
$DIMSD2
 70
     0
  9
$DIMTOLJ
 70
     1
  9
$DIMTZIN
 70
     8
  9
$DIMALTZ
 70
     0
  9
$DIMALTTZ
 70
     0
  9
$DIMFIT
 70
     2
  9
$DIMUPT
 70
     0
  9
$DIMUNIT
 70
     2
  9
$DIMDEC
 70
     2
  9
$DIMTDEC
 70
     4
  9
$DIMALTU
 70
     2
  9
$DIMALTTD
 70
     2
  9
$DIMTXSTY
  7
STANDARD
  9
$DIMAUNIT
 70
     0
  9
$LUNITS
 70
     2
  9
$LUPREC
 70
     4
  9
$SKETCHINC
 40
1.0
  9
$FILLETRAD
 40
0.0
  9
$AUNITS
 70
     0
  9
$AUPREC
 70
     2
  9
$MENU
  1
acad
  9
$ELEVATION
 40
0.0
  9
$PELEVATION
 40
0.0
  9
$THICKNESS
 40
0.0
  9
$LIMCHECK
 70
     0
  9
$CHAMFERA
 40
10.0
  9
$CHAMFERB
 40
10.0
  9
$CHAMFERC
 40
20.0
  9
$CHAMFERD
 40
0.0
  9
$SKPOLY
 70
     0
  9
$TDCREATE
 40
2451318.621352917
  9
$TDUPDATE
 40
2458152.538325266
  9
$TDINDWG
 40
1.5254196528
  9
$TDUSRTIMER
 40
1.5254196528
  9
$USRTIMER
 70
     1
  9
$ANGBASE
 50
0.0
  9
$ANGDIR
 70
     0
  9
$PDMODE
 70
     0
  9
$PDSIZE
 40
0.0
  9
$PLINEWID
 40
0.0
  9
$COORDS
 70
     2
  9
$SPLFRAME
 70
     0
  9
$SPLINETYPE
 70
     6
  9
$SPLINESEGS
 70
     8
  9
$ATTDIA
 70
     0
  9
$ATTREQ
 70
     1
  9
$HANDLING
 70
     1
  9
$HANDSEED
  5
1B281
  9
$SURFTAB1
 70
     6
  9
$SURFTAB2
 70
     6
  9
$SURFTYPE
 70
     6
  9
$SURFU
 70
     6
  9
$SURFV
 70
     6
  9
$UCSNAME
  2

  9
$UCSORG
 10
0.0
 20
0.0
 30
0.0
  9
$UCSXDIR
 10
1.0
 20
0.0
 30
0.0
  9
$UCSYDIR
 10
0.0
 20
1.0
 30
0.0
  9
$PUCSNAME
  2

  9
$PUCSORG
 10
0.0
 20
0.0
 30
0.0
  9
$PUCSXDIR
 10
1.0
 20
0.0
 30
0.0
  9
$PUCSYDIR
 10
0.0
 20
1.0
 30
0.0
  9
$USERI1
 70
     0
  9
$USERI2
 70
     0
  9
$USERI3
 70
     0
  9
$USERI4
 70
     0
  9
$USERI5
 70
     0
  9
$USERR1
 40
0.0
  9
$USERR2
 40
0.0
  9
$USERR3
 40
0.0
  9
$USERR4
 40
0.0
  9
$USERR5
 40
0.0
  9
$WORLDVIEW
 70
     1
  9
$SHADEDGE
 70
     3
  9
$SHADEDIF
 70
    70
  9
$TILEMODE
 70
     1
  9
$MAXACTVP
 70
    48
  9
$PINSBASE
 10
0.0
 20
0.0
 30
0.0
  9
$PLIMCHECK
 70
     0
  9
$PEXTMIN
 10
1.000000000000000E+20
 20
1.000000000000000E+20
 30
1.000000000000000E+20
  9
$PEXTMAX
 10
-1.000000000000000E+20
 20
-1.000000000000000E+20
 30
-1.000000000000000E+20
  9
$PLIMMIN
 10
0.0
 20
0.0
  9
$PLIMMAX
 10
420.0
 20
297.0
  9
$UNITMODE
 70
     0
  9
$VISRETAIN
 70
     1
  9
$PLINEGEN
 70
     0
  9
$PSLTSCALE
 70
     1
  9
$TREEDEPTH
 70
  3020
  9
$PICKSTYLE
 70
     1
  9
$CMLSTYLE
  2
STANDARD
  9
$CMLJUST
 70
     0
  9
$CMLSCALE
 40
20.0
  9
$SAVEIMAGES
 70
     1
  0
ENDSEC
  0
SECTION
  2
CLASSES
  0
CLASS
  1
DICTIONARYVAR
  2
AcDbDictionaryVar
  3
ObjectDBX Classes
 90
        0
280
     0
281
     0
  0
CLASS
  1
IDBUFFER
  2
AcDbIdBuffer
  3
ObjectDBX Classes
 90
    32768
280
     0
281
     0
  0
CLASS
  1
LWPOLYLINE
  2
AcDbPolyline
  3
ObjectDBX Classes
 90
    32768
280
     0
281
     1
  0
CLASS
  1
ACDBDICTIONARYWDFLT
  2
AcDbDictionaryWithDefault
  3
ObjectDBX Classes
 90
    32768
280
     0
281
     0
  0
CLASS
  1
ACDBPLACEHOLDER
  2
AcDbPlaceHolder
  3
ObjectDBX Classes
 90
        0
280
     0
281
     0
  0
CLASS
  1
LAYOUT
  2
AcDbLayout
  3
ObjectDBX Classes
 90
        0
280
     0
281
     0
  0
CLASS
  1
TABLESTYLE
  2
AcDbTableStyle
  3
ObjectDBX Classes
 90
     4095
280
     0
281
     0
  0
CLASS
  1
SORTENTSTABLE
  2
AcDbSortentsTable
  3
ObjectDBX Classes
 90
    32768
280
     0
281
     0
  0
CLASS
  1
MATERIAL
  2
AcDbMaterial
  3
ObjectDBX Classes
 90
     1153
280
     0
281
     0
  0
CLASS
  1
VISUALSTYLE
  2
AcDbVisualStyle
  3
ObjectDBX Classes
 90
     4095
280
     0
281
     0
  0
CLASS
  1
SCALE
  2
AcDbScale
  3
ObjectDBX Classes
 90
     1153
280
     0
281
     0
  0
CLASS
  1
MLEADERSTYLE
  2
AcDbMLeaderStyle
  3
ACDB_MLEADERSTYLE_CLASS
 90
     4095
280
     0
281
     0
  0
CLASS
  1
CELLSTYLEMAP
  2
AcDbCellStyleMap
  3
ObjectDBX Classes
 90
     1152
280
     0
281
     0
  0
CLASS
  1
SUN
  2
AcDbSun
  3
SCENEOE
 90
     1153
280
     0
281
     0
  0
CLASS
  1
AEC_REFEDIT_STATUS_TRACKER
  2
AecDbRefEditStatusTracker
  3
AecArchBase60|Product Desc: Autodesk Architectural Desktop 2007 |Company: Autodesk,Inc. |WEB Address: www.autodesk.com
 90
   -32639
280
     1
281
     0
  0
CLASS
  1
NPOCOLLECTION
  2
AcDbImpNonPersistentObjectsCollection
  3
ObjectDBX Classes
 90
   -31615
280
     1
281
     0
  0
CLASS
  1
XRECORD
  2
AcDbXrecord
  3
ObjectDBX Classes
 90
    32768
280
     0
281
     0
  0
CLASS
  1
HATCH
  2
AcDbHatch
  3
ObjectDBX Classes
 90
    32768
280
     0
281
     1
  0
ENDSEC
  0
SECTION
  2
TABLES
  0
TABLE
  2
VPORT
  5
8
330
0
100
AcDbSymbolTable
 70
     1
  0
VPORT
  5
D991
330
8
100
AcDbSymbolTableRecord
100
AcDbViewportTableRecord
  2
*ACTIVE
 70
     0
 10
0.0
 20
0.0
 11
1.0
 21
1.0
 12
2742.087969594816
 22
-290.0442462294443
 13
0.0
 23
0.0
 14
10.0
 24
10.0
 15
10.0
 25
10.0
 16
0.0
 26
0.0
 36
1.0
 17
0.0
 27
0.0
 37
0.0
 40
456.282003859191
 41
2.233782129742962
 42
50.0
 43
0.0
 44
0.0
 50
0.0
 51
0.0
 71
    16
 72
   100
 73
     1
 74
     1
 75
     0
 76
     0
 77
     0
 78
     0
  0
ENDTAB
  0
TABLE
  2
LTYPE
  5
5
330
0
100
AcDbSymbolTable
 70
     3
  0
LTYPE
  5
12
330
5
100
AcDbSymbolTableRecord
100
AcDbLinetypeTableRecord
  2
BYBLOCK
 70
     0
  3

 72
    65
 73
     0
 40
0.0
  0
LTYPE
  5
13
330
5
100
AcDbSymbolTableRecord
100
AcDbLinetypeTableRecord
  2
BYLAYER
 70
     0
  3

 72
    65
 73
     0
 40
0.0
  0
LTYPE
  5
14
330
5
100
AcDbSymbolTableRecord
100
AcDbLinetypeTableRecord
  2
CONTINUOUS
 70
     0
  3
Solid line
 72
    65
 73
     0
 40
0.0
  0
LTYPE
  5
2C03
330
5
100
AcDbSymbolTableRecord
100
AcDbLinetypeTableRecord
  2
HIDDEN
 70
     0
  3
Hidden __ __ __ __ __ __ __ __ __ __ __ __ __ _
 72
    65
 73
     2
 40
9.524999999999999
 49
6.35
 74
     0
 49
-3.175
 74
     0
  0
LTYPE
  5
13839
330
5
100
AcDbSymbolTableRecord
100
AcDbLinetypeTableRecord
  2
CENTER2
 70
     0
  3
Center (.5x) ___ _ ___ _ ___ _ ___ _ ___ _ ___
 72
    65
 73
     4
 40
28.575
 49
19.05
 74
     0
 49
-3.175
 74
     0
 49
3.175
 74
     0
 49
-3.175
 74
     0
  0
ENDTAB
  0
TABLE
  2
LAYER
  5
2
102
{ACAD_XDICTIONARY
360
E6A6
102
}
330
0
100
AcDbSymbolTable
 70
     7
  0
LAYER
  5
E
102
{ACAD_XDICTIONARY
360
DA05
102
}
330
2
100
AcDbSymbolTableRecord
100
AcDbLayerTableRecord
  2
0
 70
     0
 62
     7
  6
CONTINUOUS
  0
LAYER
  5
29
102
{ACAD_XDICTIONARY
360
DA07
102
}
330
2
100
AcDbSymbolTableRecord
100
AcDbLayerTableRecord
  2
1CENTER
 70
     0
 62
     7
  6
CENTER2
  0
LAYER
  5
31
102
{ACAD_XDICTIONARY
360
DA09
102
}
330
2
100
AcDbSymbolTableRecord
100
AcDbLayerTableRecord
  2
1TEXT
 70
     0
 62
     7
  6
CONTINUOUS
  0
LAYER
  5
243
102
{ACAD_XDICTIONARY
360
DA0F
102
}
330
2
100
AcDbSymbolTableRecord
100
AcDbLayerTableRecord
  2
01
 70
     0
 62
     1
  6
CONTINUOUS
  0
LAYER
  5
24E
102
{ACAD_XDICTIONARY
360
DA15
102
}
330
2
100
AcDbSymbolTableRecord
100
AcDbLayerTableRecord
  2
1DIM
 70
     0
 62
     7
  6
CONTINUOUS
  0
LAYER
  5
252
102
{ACAD_XDICTIONARY
360
DA17
102
}
330
2
100
AcDbSymbolTableRecord
100
AcDbLayerTableRecord
  2
1HATCH
 70
     0
 62
     7
  6
CONTINUOUS
  0
LAYER
  5
2C05
102
{ACAD_XDICTIONARY
360
DA23
102
}
330
2
100
AcDbSymbolTableRecord
100
AcDbLayerTableRecord
  2
1HIDDEN
 70
     0
 62
     7
  6
HIDDEN
  0
ENDTAB
  0
TABLE
  2
STYLE
  5
3
330
0
100
AcDbSymbolTable
 70
     1
  0
STYLE
  5
F
330
3
100
AcDbSymbolTableRecord
100
AcDbTextStyleTableRecord
  2
STANDARD
 70
     0
 40
0.0
 41
1.0
 50
0.0
 71
     0
 42
4.0
  3
txt.shx
  4
extfont.shx
  0
ENDTAB
  0
TABLE
  2
VIEW
  5
6
330
0
100
AcDbSymbolTable
 70
     0
  0
ENDTAB
  0
TABLE
  2
UCS
  5
7
330
0
100
AcDbSymbolTable
 70
     0
  0
ENDTAB
  0
TABLE
  2
APPID
  5
9
330
0
100
AcDbSymbolTable
 70
    15
  0
APPID
  5
10
330
9
100
AcDbSymbolTableRecord
100
AcDbRegAppTableRecord
  2
ACAD
 70
     0
  0
APPID
  5
21
330
9
100
AcDbSymbolTableRecord
100
AcDbRegAppTableRecord
  2
DRAWINGVARIABLESXDATA
 70
     0
  0
APPID
  5
64
330
9
100
AcDbSymbolTableRecord
100
AcDbRegAppTableRecord
  2
CONTENTTABDATA
 70
     0
  0
APPID
  5
65
330
9
100
AcDbSymbolTableRecord
100
AcDbRegAppTableRecord
  2
CONTENTCURRENTTAB
 70
     0
  0
APPID
  5
66
330
9
100
AcDbSymbolTableRecord
100
AcDbRegAppTableRecord
  2
CONTENTBLOCKDESCRIPTION
 70
     0
  0
APPID
  5
67
330
9
100
AcDbSymbolTableRecord
100
AcDbRegAppTableRecord
  2
CONTENTBLOCKICON
 70
     0
  0
APPID
  5
68
330
9
100
AcDbSymbolTableRecord
100
AcDbRegAppTableRecord
  2
CONTENTLONGBLOCKNAME
 70
     0
  0
APPID
  5
2AE
330
9
100
AcDbSymbolTableRecord
100
AcDbRegAppTableRecord
  2
ACAD_PSEXT
 70
     0
  0
APPID
  5
D9E9
330
9
100
AcDbSymbolTableRecord
100
AcDbRegAppTableRecord
  2
ACAD_MLEADERVER
 70
     0
  0
APPID
  5
19D01
330
9
100
AcDbSymbolTableRecord
100
AcDbRegAppTableRecord
  2
ACADANNOTATIVE
 70
     0
  0
APPID
  5
19D02
330
9
100
AcDbSymbolTableRecord
100
AcDbRegAppTableRecord
  2
ACDBBLOCKREPETAG
 70
     0
  0
APPID
  5
1A613
330
9
100
AcDbSymbolTableRecord
100
AcDbRegAppTableRecord
  2
ACAD_OBJECT_CHANGE_GUID
 70
     0
  0
APPID
  5
1A879
330
9
100
AcDbSymbolTableRecord
100
AcDbRegAppTableRecord
  2
ACAECLAYERSTANDARD
 70
     0
  0
APPID
  5
1A87A
330
9
100
AcDbSymbolTableRecord
100
AcDbRegAppTableRecord
  2
GRADIENTCOLOR1ACI
 70
     0
  0
APPID
  5
1A87B
330
9
100
AcDbSymbolTableRecord
100
AcDbRegAppTableRecord
  2
GRADIENTCOLOR2ACI
 70
     0
  0
ENDTAB
  0
TABLE
  2
DIMSTYLE
  5
A
330
0
100
AcDbSymbolTable
 70
     1
  0
DIMSTYLE
105
48
330
A
100
AcDbSymbolTableRecord
100
AcDbDimStyleTableRecord
  2
NEWX10
 70
     0
  3
 
  4

  5

  6
OPEN30
  7
OPEN30
 40
1.0
 41
2.0
 42
0.0
 43
7.0
 44
1.0
 45
0.0
 46
0.0
 47
0.0
 48
0.0
140
3.5
141
0.0
142
0.0
143
25.4
144
1.0
145
0.0
146
0.7
147
0.7
 71
     0
 72
     0
 73
     0
 74
     0
 75
     0
 76
     0
 77
     1
 78
     8
170
     0
171
     2
172
     1
173
     1
174
     0
175
     0
176
   256
177
   256
178
   201
179
     2
270
     2
271
     2
272
     4
273
     2
274
     2
340
F
275
     0
280
     0
281
     0
282
     0
283
     1
284
     8
285
     0
286
     0
287
     2
288
     0
  0
ENDTAB
  0
TABLE
  2
BLOCK_RECORD
  5
1
330
0
100
AcDbSymbolTable
 70
     8
  0
BLOCK_RECORD
  5
18
102
{ACAD_XDICTIONARY
360
88F
102
}
330
1
100
AcDbSymbolTableRecord
100
AcDbBlockTableRecord
  2
*MODEL_SPACE
  0
BLOCK_RECORD
  5
15
330
1
100
AcDbSymbolTableRecord
100
AcDbBlockTableRecord
  2
*PAPER_SPACE
  0
BLOCK_RECORD
  5
42
330
1
100
AcDbSymbolTableRecord
100
AcDbBlockTableRecord
  2
_OPEN30
  0
BLOCK_RECORD
  5
19D51
330
1
100
AcDbSymbolTableRecord
100
AcDbBlockTableRecord
  2
A3WAKUKAWAJUN2017_HYOUDAI_
  0
BLOCK_RECORD
  5
1B0E1
330
1
100
AcDbSymbolTableRecord
100
AcDbBlockTableRecord
  2
*X54
  0
BLOCK_RECORD
  5
1B12F
330
1
100
AcDbSymbolTableRecord
100
AcDbBlockTableRecord
  2
*X55
  0
BLOCK_RECORD
  5
1B181
330
1
100
AcDbSymbolTableRecord
100
AcDbBlockTableRecord
  2
*X56
  0
BLOCK_RECORD
  5
1B1D2
330
1
100
AcDbSymbolTableRecord
100
AcDbBlockTableRecord
  2
*X57
  0
BLOCK_RECORD
  5
1B20F
330
1
100
AcDbSymbolTableRecord
100
AcDbBlockTableRecord
  2
*X58
  0
BLOCK_RECORD
  5
1B24F
330
1
100
AcDbSymbolTableRecord
100
AcDbBlockTableRecord
  2
*X59
  0
ENDTAB
  0
ENDSEC
  0
SECTION
  2
BLOCKS
  0
BLOCK
  5
19
330
18
100
AcDbEntity
  8
0
100
AcDbBlockBegin
  2
*MODEL_SPACE
 70
     0
 10
0.0
 20
0.0
 30
0.0
  3
*MODEL_SPACE
  1

  0
ENDBLK
  5
1A
330
18
100
AcDbEntity
  8
0
100
AcDbBlockEnd
  0
BLOCK
  5
16
330
15
100
AcDbEntity
 67
     1
  8
0
100
AcDbBlockBegin
  2
*PAPER_SPACE
 70
     0
 10
0.0
 20
0.0
 30
0.0
  3
*PAPER_SPACE
  1

  0
ENDBLK
  5
17
330
15
100
AcDbEntity
 67
     1
  8
0
100
AcDbBlockEnd
  0
BLOCK
  5
43
330
42
100
AcDbEntity
  8
0
100
AcDbBlockBegin
  2
_OPEN30
 70
     0
 10
0.0
 20
0.0
 30
0.0
  3
_OPEN30
  1

  0
LINE
  5
44
330
42
100
AcDbEntity
  8
0
  6
BYBLOCK
 62
     0
100
AcDbLine
 10
-1.0
 20
0.26794919
 30
0.0
 11
0.0
 21
0.0
 31
0.0
  0
LINE
  5
45
330
42
100
AcDbEntity
  8
0
  6
BYBLOCK
 62
     0
100
AcDbLine
 10
0.0
 20
0.0
 30
0.0
 11
-1.0
 21
-0.26794919
 31
0.0
  0
LINE
  5
46
330
42
100
AcDbEntity
  8
0
  6
BYBLOCK
 62
     0
100
AcDbLine
 10
0.0
 20
0.0
 30
0.0
 11
-1.0
 21
0.0
 31
0.0
  0
ENDBLK
  5
47
330
42
100
AcDbEntity
  8
0
100
AcDbBlockEnd
  0
BLOCK
  5
1A474
330
19D51
100
AcDbEntity
  8
0
100
AcDbBlockBegin
  2
A3WAKUKAWAJUN2017_HYOUDAI_
 70
     0
 10
0.0
 20
0.0
 30
0.0
  3
A3WAKUKAWAJUN2017_HYOUDAI_
  1

  0
LINE
  5
19D53
330
19D51
100
AcDbEntity
  8
0
100
AcDbLine
 10
13.26299999998673
 20
-0.0001000000000317
 30
0.0
 11
9.236999999990758
 21
8.999899999990987
 31
0.0
1001
ACAD
1000
ASC_BOUNDS
1002
{
1070
    19
1005
19D94
1002
}
  0
LINE
  5
19D54
330
19D51
100
AcDbEntity
  8
0
100
AcDbLine
 10
5.657999999994331
 20
0.9999999999989768
 30
0.0
 11
9.236999999990758
 21
8.999999999991019
 31
0.0
1001
ACAD
1000
ASC_BOUNDS
1002
{
1070
    19
1005
19D94
1002
}
  0
LINE
  5
19D55
330
19D51
100
AcDbEntity
  8
0
100
AcDbLine
 10
18.59199999998134
 20
-0.2368999999997641
 30
0.0
 11
16.46099999998353
 21
5.432899999994561
 31
0.0
1001
ACAD
1000
ASC_BOUNDS
1002
{
1070
    19
1005
19D95
1002
}
  0
LINE
  5
19D56
330
19D51
100
AcDbEntity
  8
0
100
AcDbLine
 10
18.59199999998134
 20
-0.2368999999997641
 30
0.0
 11
22.38199999997767
 21
8.763099999991255
 31
0.0
1001
ACAD
1000
ASC_BOUNDS
1002
{
1070
    19
1005
19D95
1002
}
  0
LINE
  5
19D57
330
19D51
100
AcDbEntity
  8
0
100
AcDbLine
 10
14.32899999998563
 20
-0.2368999999997641
 30
0.0
 11
16.46099999998353
 21
5.432899999994561
 31
0.0
1001
ACAD
1000
ASC_BOUNDS
1002
{
1070
    19
1005
19D95
1002
}
  0
LINE
  5
19D58
330
19D51
100
AcDbEntity
  8
0
100
AcDbLine
 10
14.32899999998563
 20
-0.2368999999997641
 30
0.0
 11
10.53899999998941
 21
8.763099999991255
 31
0.0
1001
ACAD
1000
ASC_BOUNDS
1002
{
1070
    19
1005
19D95
1002
}
  0
LINE
  5
19D59
330
19D51
100
AcDbEntity
  8
0
100
AcDbLine
 10
19.53899999998043
 20
-0.0001000000000317
 30
0.0
 11
23.56599999997638
 21
8.999899999990987
 31
0.0
1001
ACAD
1000
ASC_BOUNDS
1002
{
1070
    19
1005
19D96
1002
}
  0
LINE
  5
19D5A
330
19D51
100
AcDbEntity
  8
0
100
AcDbLine
 10
26.97358892824991
 20
1.383099999991202
 30
0.0
 11
23.56599999997638
 21
8.999899999990987
 31
0.0
1001
ACAD
1000
ASC_BOUNDS
1002
{
1070
    19
1005
19D96
1002
}
  0
LINE
  5
19D5B
330
19D51
100
AcDbEntity
  8
0
100
AcDbLine
 10
5.657999999994331
 20
0.9999999999989768
 30
0.0
 11
3.181999999996833
 21
4.668599999995308
 31
0.0
1001
ACAD
1000
ASC_BOUNDS
1002
{
1070
    19
1005
19D94
1002
}
  0
LINE
  5
19D5C
330
19D51
100
AcDbEntity
  8
0
100
AcDbLine
 10
4.617999999995391
 20
-0.0001000000000317
 30
0.0
 11
1.420999999998571
 21
4.736799999995242
 31
0.0
1001
ACAD
1000
ASC_BOUNDS
1002
{
1070
    19
1005
19D94
1002
}
  0
LINE
  5
19D5D
330
19D51
100
AcDbEntity
  8
0
100
AcDbLine
 10
1.420999999998571
 20
8.763099999991255
 30
0.0
 11
1.420999999998571
 21
0.0
 31
0.0
1001
ACAD
1000
ASC_BOUNDS
1002
{
1070
    19
1005
19D99
1002
}
  0
LINE
  5
19D5E
330
19D51
100
AcDbEntity
  8
0
100
AcDbLine
 10
0.0
 20
8.763099999991255
 30
0.0
 11
0.0
 21
0.0
 31
0.0
1001
ACAD
1000
ASC_BOUNDS
1002
{
1070
    19
1005
19D99
1002
}
  0
LINE
  5
19D5F
330
19D51
100
AcDbEntity
  8
0
100
AcDbLine
 10
6.766999999993232
 20
-0.0001000000000317
 30
0.0
 11
7.826999999992154
 21
2.368399999997621
 31
0.0
1001
ACAD
1000
ASC_BOUNDS
1002
{
1070
    19
1005
19D94
1002
}
  0
LINE
  5
19D60
330
19D51
100
AcDbEntity
  8
0
100
AcDbLine
 10
0.0
 20
0.0
 30
0.0
 11
1.420999999998571
 21
0.0
 31
0.0
1001
ACAD
1000
ASC_BOUNDS
1002
{
1070
    19
1005
19D99
1002
}
  0
LINE
  5
19D61
330
19D51
100
AcDbEntity
  8
0
100
AcDbLine
 10
4.617999999995391
 20
0.0
 30
0.0
 11
6.766999999993232
 21
0.0
 31
0.0
1001
ACAD
1000
ASC_BOUNDS
1002
{
1070
    19
1005
19D94
1002
}
  0
LINE
  5
19D62
330
19D51
100
AcDbEntity
  8
0
100
AcDbLine
 10
11.70599999998831
 20
-0.0001000000000317
 30
0.0
 11
10.64699999998936
 21
2.368399999997621
 31
0.0
1001
ACAD
1000
ASC_BOUNDS
1002
{
1070
    19
1005
19D94
1002
}
  0
LINE
  5
19D63
330
19D51
100
AcDbEntity
  8
0
100
AcDbLine
 10
7.826999999992154
 20
2.368399999997621
 30
0.0
 11
10.64699999998936
 21
2.368399999997621
 31
0.0
1001
ACAD
1000
ASC_BOUNDS
1002
{
1070
    19
1005
19D94
1002
}
  0
LINE
  5
19D64
330
19D51
100
AcDbEntity
  8
0
100
AcDbLine
 10
11.70599999998831
 20
0.0
 30
0.0
 11
13.26299999998673
 21
0.0
 31
0.0
1001
ACAD
1000
ASC_BOUNDS
1002
{
1070
    19
1005
19D94
1002
}
  0
LINE
  5
19D65
330
19D51
100
AcDbEntity
  8
0
100
AcDbLine
 10
22.15599999997789
 20
2.368399999997621
 30
0.0
 11
24.97599999997499
 21
2.368399999997621
 31
0.0
1001
ACAD
1000
ASC_BOUNDS
1002
{
1070
    19
1005
19D96
1002
}
  0
LINE
  5
19D66
330
19D51
100
AcDbEntity
  8
0
100
AcDbLine
 10
19.53899999998043
 20
0.0
 30
0.0
 11
21.09599999997886
 21
0.0
 31
0.0
1001
ACAD
1000
ASC_BOUNDS
1002
{
1070
    19
1005
19D96
1002
}
  0
LINE
  5
19D67
330
19D51
100
AcDbEntity
  8
0
100
AcDbLine
 10
21.09599999997886
 20
-0.0001000000000317
 30
0.0
 11
22.15599999997789
 21
2.368399999997621
 31
0.0
1001
ACAD
1000
ASC_BOUNDS
1002
{
1070
    19
1005
19D96
1002
}
  0
LINE
  5
19D68
330
19D51
100
AcDbEntity
  8
0
100
AcDbLine
 10
26.02015566812236
 20
0.0330999999912365
 30
0.0
 11
24.97599999997499
 21
2.368399999997621
 31
0.0
1001
ACAD
1000
ASC_BOUNDS
1002
{
1070
    19
1005
19D96
1002
}
  0
LINE
  5
19D69
330
19D51
100
AcDbEntity
  8
0
100
AcDbLine
 10
14.32399999998563
 20
3.315799999996671
 30
0.0
 11
16.46099999998353
 21
8.999899999990987
 31
0.0
1001
ACAD
1000
ASC_BOUNDS
1002
{
1070
    19
1005
19D95
1002
}
  0
LINE
  5
19D6A
330
19D51
100
AcDbEntity
  8
0
100
AcDbLine
 10
6.432999999993513
 20
8.763099999991255
 30
0.0
 11
3.181999999996833
 21
4.668599999995308
 31
0.0
1001
ACAD
1000
ASC_BOUNDS
1002
{
1070
    19
1005
19D94
1002
}
  0
LINE
  5
19D6B
330
19D51
100
AcDbEntity
  8
0
100
AcDbLine
 10
4.617999999995391
 20
8.763099999991255
 30
0.0
 11
1.420999999998571
 21
4.736799999995242
 31
0.0
1001
ACAD
1000
ASC_BOUNDS
1002
{
1070
    19
1005
19D94
1002
}
  0
LINE
  5
19D6C
330
19D51
100
AcDbEntity
  8
0
100
AcDbLine
 10
0.0
 20
8.763099999991255
 30
0.0
 11
1.420999999998571
 21
8.763099999991255
 31
0.0
1001
ACAD
1000
ASC_BOUNDS
1002
{
1070
    19
1005
19D99
1002
}
  0
LINE
  5
19D6D
330
19D51
100
AcDbEntity
  8
0
100
AcDbLine
 10
4.617999999995391
 20
8.763099999991255
 30
0.0
 11
6.432999999993513
 21
8.763099999991255
 31
0.0
1001
ACAD
1000
ASC_BOUNDS
1002
{
1070
    19
1005
19D94
1002
}
  0
LINE
  5
19D6E
330
19D51
100
AcDbEntity
  8
0
100
AcDbLine
 10
14.32399999998563
 20
3.315799999996671
 30
0.0
 11
12.02999999998792
 21
8.763099999991255
 31
0.0
1001
ACAD
1000
ASC_BOUNDS
1002
{
1070
    19
1005
19D95
1002
}
  0
LINE
  5
19D6F
330
19D51
100
AcDbEntity
  8
0
100
AcDbLine
 10
10.06399999998996
 20
3.670999999996297
 30
0.0
 11
9.236999999990758
 21
5.5200999999945
 31
0.0
1001
ACAD
1000
ASC_BOUNDS
1002
{
1070
    19
1005
19D94
1002
}
  0
LINE
  5
19D70
330
19D51
100
AcDbEntity
  8
0
100
AcDbLine
 10
8.409999999991555
 20
3.670999999996297
 30
0.0
 11
9.236999999990758
 21
5.5200999999945
 31
0.0
1001
ACAD
1000
ASC_BOUNDS
1002
{
1070
    19
1005
19D94
1002
}
  0
LINE
  5
19D71
330
19D51
100
AcDbEntity
  8
0
100
AcDbLine
 10
8.409999999991555
 20
3.670999999996297
 30
0.0
 11
10.06399999998996
 21
3.670999999996297
 31
0.0
1001
ACAD
1000
ASC_BOUNDS
1002
{
1070
    19
1005
19D94
1002
}
  0
LINE
  5
19D72
330
19D51
100
AcDbEntity
  8
0
100
AcDbLine
 10
10.53899999998941
 20
8.763099999991255
 30
0.0
 11
12.02999999998792
 21
8.763099999991255
 31
0.0
1001
ACAD
1000
ASC_BOUNDS
1002
{
1070
    19
1005
19D95
1002
}
  0
LINE
  5
19D73
330
19D51
100
AcDbEntity
  8
0
100
AcDbLine
 10
22.7389999999773
 20
3.670999999996297
 30
0.0
 11
23.56599999997638
 21
5.5200999999945
 31
0.0
1001
ACAD
1000
ASC_BOUNDS
1002
{
1070
    19
1005
19D96
1002
}
  0
LINE
  5
19D74
330
19D51
100
AcDbEntity
  8
0
100
AcDbLine
 10
22.7389999999773
 20
3.670999999996297
 30
0.0
 11
24.39299999997559
 21
3.670999999996297
 31
0.0
1001
ACAD
1000
ASC_BOUNDS
1002
{
1070
    19
1005
19D96
1002
}
  0
LINE
  5
19D75
330
19D51
100
AcDbEntity
  8
0
100
AcDbLine
 10
18.59799999998143
 20
3.315799999996671
 30
0.0
 11
20.89099999997916
 21
8.763099999991255
 31
0.0
1001
ACAD
1000
ASC_BOUNDS
1002
{
1070
    19
1005
19D95
1002
}
  0
LINE
  5
19D76
330
19D51
100
AcDbEntity
  8
0
100
AcDbLine
 10
18.59799999998143
 20
3.315799999996671
 30
0.0
 11
16.46099999998353
 21
8.999899999990987
 31
0.0
1001
ACAD
1000
ASC_BOUNDS
1002
{
1070
    19
1005
19D95
1002
}
  0
LINE
  5
19D77
330
19D51
100
AcDbEntity
  8
0
100
AcDbLine
 10
20.89099999997916
 20
8.763099999991255
 30
0.0
 11
22.38199999997767
 21
8.763099999991255
 31
0.0
1001
ACAD
1000
ASC_BOUNDS
1002
{
1070
    19
1005
19D95
1002
}
  0
LINE
  5
19D78
330
19D51
100
AcDbEntity
  8
0
100
AcDbLine
 10
24.39299999997559
 20
3.670999999996297
 30
0.0
 11
23.56599999997638
 21
5.5200999999945
 31
0.0
1001
ACAD
1000
ASC_BOUNDS
1002
{
1070
    19
1005
19D96
1002
}
  0
LINE
  5
19D79
330
19D51
100
AcDbEntity
  8
0
100
AcDbLine
 10
44.99999999995498
 20
-0.2368999999997641
 30
0.0
 11
40.02599999995994
 21
5.341799999994635
 31
0.0
1001
ACAD
1000
ASC_BOUNDS
1002
{
1070
    19
1005
19D98
1002
}
  0
LINE
  5
19D7A
330
19D51
100
AcDbEntity
  8
0
100
AcDbLine
 10
40.02599999995994
 20
5.341799999994635
 30
0.0
 11
40.02599999995994
 21
0.0
 31
0.0
1001
ACAD
1000
ASC_BOUNDS
1002
{
1070
    19
1005
19D98
1002
}
  0
LINE
  5
19D7B
330
19D51
100
AcDbEntity
  8
0
100
AcDbLine
 10
38.60499999996136
 20
8.999999999991019
 30
0.0
 11
38.60499999996136
 21
0.0
 31
0.0
1001
ACAD
1000
ASC_BOUNDS
1002
{
1070
    19
1005
19D98
1002
}
  0
LINE
  5
19D7C
330
19D51
100
AcDbEntity
  8
0
100
AcDbLine
 10
44.99999999995498
 20
8.763099999991255
 30
0.0
 11
44.99999999995498
 21
-0.2368999999997641
 31
0.0
1001
ACAD
1000
ASC_BOUNDS
1002
{
1070
    19
1005
19D98
1002
}
  0
LINE
  5
19D7D
330
19D51
100
AcDbEntity
  8
0
100
AcDbLine
 10
38.60499999996136
 20
0.0
 30
0.0
 11
40.02599999995994
 21
0.0
 31
0.0
1001
ACAD
1000
ASC_BOUNDS
1002
{
1070
    19
1005
19D98
1002
}
  0
LINE
  5
19D7E
330
19D51
100
AcDbEntity
  8
0
100
AcDbLine
 10
43.57899999995641
 20
3.421199999996588
 30
0.0
 11
38.60499999996136
 21
8.999899999990987
 31
0.0
1001
ACAD
1000
ASC_BOUNDS
1002
{
1070
    19
1005
19D98
1002
}
  0
LINE
  5
19D7F
330
19D51
100
AcDbEntity
  8
0
100
AcDbLine
 10
43.57899999995641
 20
8.763099999991255
 30
0.0
 11
43.57899999995641
 21
3.421199999996588
 31
0.0
1001
ACAD
1000
ASC_BOUNDS
1002
{
1070
    19
1005
19D98
1002
}
  0
LINE
  5
19D80
330
19D51
100
AcDbEntity
  8
0
100
AcDbLine
 10
43.57899999995641
 20
8.763099999991255
 30
0.0
 11
44.99999999995498
 21
8.763099999991255
 31
0.0
1001
ACAD
1000
ASC_BOUNDS
1002
{
1070
    19
1005
19D98
1002
}
  0
LINE
  5
19D81
330
19D51
100
AcDbEntity
  8
0
100
AcDbLine
 10
37.67199999996831
 20
8.763099999991255
 30
0.0
 11
36.23199999996837
 21
8.763099999991255
 31
0.0
  0
LINE
  5
19D82
330
19D51
100
AcDbEntity
  8
0
100
AcDbLine
 10
31.64199999996833
 20
8.763099999991255
 30
0.0
 11
31.64199999996833
 21
2.481619422925121
 31
0.0
  0
LINE
  5
19D83
330
19D51
100
AcDbEntity
  8
0
100
AcDbLine
 10
37.67199999996831
 20
8.763099999991255
 30
0.0
 11
37.67199999996831
 21
2.481619422925121
 31
0.0
  0
LINE
  5
19D84
330
19D51
100
AcDbEntity
  8
0
100
AcDbLine
 10
36.23199999996837
 20
8.763099999991255
 30
0.0
 11
36.23199999996837
 21
2.481619422925064
 31
0.0
  0
LINE
  5
19D85
330
19D51
100
AcDbEntity
  8
0
100
AcDbLine
 10
33.08199999996839
 20
8.763099999991255
 30
0.0
 11
33.08199999996839
 21
2.481619422925121
 31
0.0
  0
ARC
  5
19D86
330
19D51
100
AcDbEntity
  8
0
100
AcDbCircle
 10
34.65699999996832
 20
3.183099999991214
 30
0.0
 40
3.420000000000007
100
AcDbArc
 50
240.0000000000255
 51
299.9999999999766
  0
ARC
  5
19D87
330
19D51
100
AcDbEntity
  8
0
100
AcDbCircle
 10
34.65699999996832
 20
3.183099999991214
 30
0.0
 40
1.97999999999999
100
AcDbArc
 50
240.000000000026
 51
299.9999999999703
  0
LINE
  5
19D88
330
19D51
100
AcDbEntity
  8
0
100
AcDbLine
 10
33.08199999996828
 20
8.763099999991255
 30
0.0
 11
31.64199999996833
 21
8.763099999991255
 31
0.0
  0
ARC
  5
19D89
330
19D51
100
AcDbEntity
  8
0
100
AcDbCircle
 10
35.06199999996829
 20
2.481619422925064
 30
0.0
 40
1.17
100
AcDbArc
 50
299.9999999999699
 51
0.0
  0
ARC
  5
19D8A
330
19D51
100
AcDbEntity
  8
0
100
AcDbCircle
 10
34.25199999996835
 20
2.481619422925121
 30
0.0
 40
1.17
100
AcDbArc
 50
180.0
 51
240.0000000000238
  0
ARC
  5
19D8B
330
19D51
100
AcDbEntity
  8
0
100
AcDbCircle
 10
35.06199999996841
 20
2.481619422925121
 30
0.0
 40
2.61
100
AcDbArc
 50
299.9999999999756
 51
0.0
  0
ARC
  5
19D8C
330
19D51
100
AcDbEntity
  8
0
100
AcDbCircle
 10
34.25199999996835
 20
2.481619422925121
 30
0.0
 40
2.61
100
AcDbArc
 50
180.0
 51
240.0000000000244
  0
LINE
  5
19D8D
330
19D51
100
AcDbEntity
  8
0
100
AcDbLine
 10
29.30199999996933
 20
8.763099999991255
 30
0.0
 11
30.74199999996927
 21
8.763099999991255
 31
0.0
1001
ACAD
1000
ASC_BOUNDS
1002
{
1070
    19
1005
19D96
1002
}
  0
LINE
  5
19D8E
330
19D51
100
AcDbEntity
  8
0
100
AcDbLine
 10
30.74199999996927
 20
8.763099999991255
 30
0.0
 11
30.74199999996927
 21
2.373099999991211
 31
0.0
1001
ACAD
1000
ASC_BOUNDS
1002
{
1070
    19
1005
19D96
1002
}
  0
LINE
  5
19D8F
330
19D51
100
AcDbEntity
  8
0
100
AcDbLine
 10
26.02015566812236
 20
0.0330999999912365
 30
0.0
 11
28.40199999996923
 21
0.0330999999912365
 31
0.0
1001
ACAD
1000
ASC_BOUNDS
1002
{
1070
    19
1005
19D96
1002
}
  0
LINE
  5
19D90
330
19D51
100
AcDbEntity
  8
0
100
AcDbLine
 10
29.30199999996933
 20
8.763099999991255
 30
0.0
 11
29.30199999996933
 21
2.283099999991236
 31
0.0
1001
ACAD
1000
ASC_BOUNDS
1002
{
1070
    19
1005
19D96
1002
}
  0
LINE
  5
19D91
330
19D51
100
AcDbEntity
  8
0
100
AcDbLine
 10
26.97358892824991
 20
1.383099999991202
 30
0.0
 11
28.40199999996923
 21
1.383099999991202
 31
0.0
1001
ACAD
1000
ASC_BOUNDS
1002
{
1070
    19
1005
19D96
1002
}
  0
ARC
  5
19D92
330
19D51
100
AcDbEntity
  8
0
100
AcDbCircle
 10
28.40199999996923
 20
2.283099999991236
 30
0.0
 40
0.9
100
AcDbArc
 50
270.0
 51
0.0
1001
ACAD
1000
ASC_BOUNDS
1002
{
1070
    19
1005
19D96
1002
}
  0
ARC
  5
19D93
330
19D51
100
AcDbEntity
  8
0
100
AcDbCircle
 10
28.40199999996923
 20
2.373099999991211
 30
0.0
 40
2.34
100
AcDbArc
 50
270.0
 51
0.0
1001
ACAD
1000
ASC_BOUNDS
1002
{
1070
    19
1005
19D96
1002
}
  0
INSERT
  5
19D94
330
19D51
100
AcDbEntity
  8
0
100
AcDbBlockReference
  2
*X54
 10
0.0
 20
0.0
 30
0.0
1001
ACAD
1000
HATCH
1002
{
1070
    19
1000
ANSI37
1040
0.15
1040
0.0
1000
ASC_BOUNDS
1070
     2
1070
     2
1070
    12
1005
19D53
1005
19D54
1005
19D5B
1005
19D6A
1005
19D6D
1005
19D6B
1005
19D5C
1005
19D61
1005
19D5F
1005
19D63
1005
19D62
1005
19D64
1070
     2
1070
     3
1005
19D6F
1005
19D71
1005
19D70
1000
ASC_SEEDPOINT
1011
3.614004224891801
1021
2.996669441146025
1031
0.0
1000
R14_HATCH_DATA
1000
19D94
1011
1.0
1021
0.0
1031
0.0
1011
0.0
1021
1.0
1031
0.0
1011
0.0
1021
0.0
1031
1.0
1040
0.0
1010
0.0
1020
0.0
1030
1.0
1000
ANSI37
1070
     0
1070
     1
1071
        2
1071
        7
1070
     0
1070
     1
1071
       17
1040
13.26299999998673
1040
-0.0001000000000317
1040
9.236999999990758
1040
8.999899999990987
1040
9.236999999990758
1040
8.999999999991019
1040
5.657999999994331
1040
0.9999999999989768
1040
3.181999999996833
1040
4.668599999995308
1040
6.432999999993513
1040
8.763099999991255
1040
4.617999999995391
1040
8.763099999991255
1040
1.420999999998571
1040
4.736799999995242
1040
4.617999999995391
1040
-0.0001000000000317
1040
4.617999999995391
1040
0.0
1040
6.766999999993232
1040
0.0
1040
6.766999999993232
1040
-0.0001000000000317
1040
7.826999999992154
1040
2.368399999997621
1040
10.64699999998936
1040
2.368399999997621
1040
11.70599999998831
1040
-0.0001000000000317
1040
11.70599999998831
1040
0.0
1040
13.26299999998673
1040
0.0
1071
       12
1005
19D53
1005
19D54
1005
19D5B
1005
19D6A
1005
19D6D
1005
19D6B
1005
19D5C
1005
19D61
1005
19D5F
1005
19D63
1005
19D62
1005
19D64
1071
       22
1070
     0
1070
     1
1071
        3
1040
9.236999999990758
1040
5.5200999999945
1040
10.06399999998996
1040
3.670999999996297
1040
8.409999999991555
1040
3.670999999996297
1071
        3
1005
19D6F
1005
19D71
1005
19D70
1070
     0
1070
     1
1040
0.0
1040
0.15
1070
     0
1070
     2
1040
0.7853981633974483
1040
49.29960901727088
1040
-10.17736998311392
1040
-0.3367596045400932
1040
0.3367596045400932
1070
     0
1040
2.356194490192345
1040
49.29960901727088
1040
-10.17736998311392
1040
-0.3367596045400932
1040
-0.3367596045400932
1070
     0
1040
0.0110235143455945
1071
        2
1040
3.614004224891801
1040
2.996669441146025
1040
0.0
1040
3.614004224891801
1040
2.996669441146025
1040
0.0
1002
}
  0
INSERT
  5
19D95
330
19D51
100
AcDbEntity
  8
0
100
AcDbBlockReference
  2
*X55
 10
0.0
 20
0.0
 30
0.0
1001
ACAD
1000
HATCH
1002
{
1070
    19
1000
ANSI37
1040
0.15
1040
0.0
1000
ASC_BOUNDS
1070
     1
1070
     2
1070
    10
1005
19D55
1005
19D56
1005
19D77
1005
19D75
1005
19D76
1005
19D69
1005
19D6E
1005
19D72
1005
19D58
1005
19D57
1000
ASC_SEEDPOINT
1011
14.73245321214324
1021
2.798246178283421
1031
0.0
1000
R14_HATCH_DATA
1000
19D95
1011
1.0
1021
0.0
1031
0.0
1011
0.0
1021
1.0
1031
0.0
1011
0.0
1021
0.0
1031
1.0
1040
0.0
1010
0.0
1020
0.0
1030
1.0
1000
ANSI37
1070
     0
1070
     1
1071
        1
1071
        7
1070
     0
1070
     1
1071
       10
1040
16.46099999998353
1040
5.432899999994561
1040
18.59199999998134
1040
-0.2368999999997641
1040
22.38199999997767
1040
8.763099999991255
1040
20.89099999997916
1040
8.763099999991255
1040
18.59799999998143
1040
3.315799999996671
1040
16.46099999998353
1040
8.999899999990987
1040
14.32399999998563
1040
3.315799999996671
1040
12.02999999998792
1040
8.763099999991255
1040
10.53899999998941
1040
8.763099999991255
1040
14.32899999998563
1040
-0.2368999999997641
1071
       10
1005
19D55
1005
19D56
1005
19D77
1005
19D75
1005
19D76
1005
19D69
1005
19D6E
1005
19D72
1005
19D58
1005
19D57
1070
     0
1070
     1
1040
0.0
1040
0.15
1070
     0
1070
     2
1040
0.7853981633974483
1040
49.29960901727088
1040
-10.17736998311392
1040
-0.3367596045400932
1040
0.3367596045400932
1070
     0
1040
2.356194490192345
1040
49.29960901727088
1040
-10.17736998311392
1040
-0.3367596045400932
1040
-0.3367596045400932
1070
     0
1040
0.0110235143455945
1071
        1
1040
14.73245321214324
1040
2.798246178283421
1040
0.0
1002
}
  0
INSERT
  5
19D96
330
19D51
100
AcDbEntity
  8
0
100
AcDbBlockReference
  2
*X56
 10
0.0
 20
0.0
 30
0.0
1001
ACAD
1000
HATCH
1002
{
1070
    19
1000
ANSI37
1040
0.15
1040
0.0
1000
ASC_BOUNDS
1070
     2
1070
     2
1070
    13
1005
19D59
1005
19D66
1005
19D67
1005
19D65
1005
19D68
1005
19D8F
1005
19D93
1005
19D8E
1005
19D8D
1005
19D90
1005
19D92
1005
19D91
1005
19D5A
1070
     2
1070
     3
1005
19D73
1005
19D78
1005
19D74
1000
ASC_SEEDPOINT
1011
21.97929957367762
1021
3.294304244259308
1031
0.0
1000
R14_HATCH_DATA
1000
19D96
1011
1.0
1021
0.0
1031
0.0
1011
0.0
1021
1.0
1031
0.0
1011
0.0
1021
0.0
1031
1.0
1040
0.0
1010
0.0
1020
0.0
1030
1.0
1000
ANSI37
1070
     0
1070
     1
1071
        2
1071
        7
1070
     1
1070
     1
1071
       15
1040
23.56599999997638
1040
8.999899999990987
1040
0.0
1040
19.53899999998043
1040
-0.0001000000000317
1040
0.0
1040
19.53899999998043
1040
0.0
1040
0.0
1040
21.09599999997886
1040
0.0
1040
0.0
1040
21.09599999997886
1040
-0.0001000000000317
1040
0.0
1040
22.15599999997789
1040
2.368399999997621
1040
0.0
1040
24.97599999997499
1040
2.368399999997621
1040
0.0
1040
26.02015566812236
1040
0.0330999999912365
1040
0.0
1040
28.40199999996923
1040
0.0330999999912365
1040
0.414213562373095
1040
30.74199999996923
1040
2.373099999991211
1040
0.0
1040
30.74199999996927
1040
8.763099999991255
1040
0.0
1040
29.30199999996933
1040
8.763099999991255
1040
0.0
1040
29.30199999996933
1040
2.283099999991236
1040
-0.414213562373095
1040
28.40199999996923
1040
1.383099999991237
1040
0.0
1040
26.97358892824991
1040
1.383099999991202
1040
0.0
1071
       13
1005
19D59
1005
19D66
1005
19D67
1005
19D65
1005
19D68
1005
19D8F
1005
19D93
1005
19D8E
1005
19D8D
1005
19D90
1005
19D92
1005
19D91
1005
19D5A
1071
       22
1070
     0
1070
     1
1071
        3
1040
22.7389999999773
1040
3.670999999996297
1040
23.56599999997638
1040
5.5200999999945
1040
24.39299999997559
1040
3.670999999996297
1071
        3
1005
19D73
1005
19D78
1005
19D74
1070
     0
1070
     1
1040
0.0
1040
0.15
1070
     0
1070
     2
1040
0.7853981633974483
1040
49.29960901727088
1040
-10.17736998311392
1040
-0.3367596045400932
1040
0.3367596045400932
1070
     0
1040
2.356194490192345
1040
49.29960901727088
1040
-10.17736998311392
1040
-0.3367596045400932
1040
-0.3367596045400932
1070
     0
1040
0.0110235143455945
1071
        2
1040
21.97929957367762
1040
3.294304244259308
1040
0.0
1040
21.97929957367762
1040
3.294304244259308
1040
0.0
1002
}
  0
INSERT
  5
19D97
330
19D51
100
AcDbEntity
  8
0
100
AcDbBlockReference
  2
*X57
 10
0.0
 20
0.0
 30
0.0
1001
ACAD
1000
HATCH
1002
{
1070
    19
1000
ANSI37
1040
0.15
1040
0.0
1000
R14_HATCH_DATA
1000
19D97
1011
1.0
1021
0.0
1031
0.0
1011
0.0
1021
1.0
1031
0.0
1011
0.0
1021
0.0
1031
1.0
1040
0.0
1010
0.0
1020
0.0
1030
1.0
1000
ANSI37
1070
     0
1070
     1
1071
        1
1071
        7
1070
     1
1070
     1
1071
       12
1040
31.64199999996833
1040
2.481619422925121
1040
0.2679491924310942
1040
32.94699999997067
1040
0.2212931190493919
1040
0.2679491924301353
1040
36.36699999995983
1040
0.2212931190459813
1040
0.2679491924321411
1040
37.67199999996831
1040
2.481619422928361
1040
0.0
1040
37.67199999996831
1040
8.763099999991255
1040
0.0
1040
36.23199999996837
1040
8.763099999991255
1040
0.0
1040
36.23199999996837
1040
2.481619422925064
1040
-0.2679491924310291
1040
35.64699999996708
1040
1.468369700498386
1040
-0.267949192430519
1040
33.66699999997093
1040
1.468369700497703
1040
-0.267949192431809
1040
33.08199999996839
1040
2.481619422926997
1040
0.0
1040
33.08199999996839
1040
8.763099999991255
1040
0.0
1040
31.64199999996833
1040
8.763099999991255
1040
0.0
1071
        0
1070
     0
1070
     1
1040
0.0
1040
0.15
1070
     0
1070
     2
1040
0.7853981633974483
1040
49.29960901727088
1040
-10.17736998311392
1040
-0.3367596045400932
1040
0.3367596045400932
1070
     0
1040
2.356194490192345
1040
49.29960901727088
1040
-10.17736998311392
1040
-0.3367596045400932
1040
-0.3367596045400932
1070
     0
1040
0.0110235143455945
1071
        1
1040
32.30357378967278
1040
3.988785755459219
1040
0.0
1002
}
  0
INSERT
  5
19D98
330
19D51
100
AcDbEntity
  8
0
100
AcDbBlockReference
  2
*X58
 10
0.0
 20
0.0
 30
0.0
1001
ACAD
1000
HATCH
1002
{
1070
    19
1000
ANSI37
1040
0.15
1040
0.0
1000
ASC_BOUNDS
1070
     1
1070
     2
1070
     8
1005
19D79
1005
19D7C
1005
19D80
1005
19D7F
1005
19D7E
1005
19D7B
1005
19D7D
1005
19D7A
1000
ASC_SEEDPOINT
1011
39.74896370716704
1021
4.484843821435049
1031
0.0
1000
R14_HATCH_DATA
1000
19D98
1011
1.0
1021
0.0
1031
0.0
1011
0.0
1021
1.0
1031
0.0
1011
0.0
1021
0.0
1031
1.0
1040
0.0
1010
0.0
1020
0.0
1030
1.0
1000
ANSI37
1070
     0
1070
     1
1071
        1
1071
        7
1070
     0
1070
     1
1071
        9
1040
40.02599999995994
1040
5.341799999994635
1040
44.99999999995498
1040
-0.2368999999997641
1040
44.99999999995498
1040
8.763099999991255
1040
43.57899999995641
1040
8.763099999991255
1040
43.57899999995641
1040
3.421199999996588
1040
38.60499999996136
1040
8.999899999990987
1040
38.60499999996136
1040
8.999999999991019
1040
38.60499999996136
1040
0.0
1040
40.02599999995994
1040
0.0
1071
        8
1005
19D79
1005
19D7C
1005
19D80
1005
19D7F
1005
19D7E
1005
19D7B
1005
19D7D
1005
19D7A
1070
     0
1070
     1
1040
0.0
1040
0.15
1070
     0
1070
     2
1040
0.7853981633974483
1040
49.29960901727088
1040
-10.17736998311392
1040
-0.3367596045400932
1040
0.3367596045400932
1070
     0
1040
2.356194490192345
1040
49.29960901727088
1040
-10.17736998311392
1040
-0.3367596045400932
1040
-0.3367596045400932
1070
     0
1040
0.0110235143455945
1071
        1
1040
39.74896370716704
1040
4.484843821435049
1040
0.0
1002
}
  0
INSERT
  5
19D99
330
19D51
100
AcDbEntity
  8
0
100
AcDbBlockReference
  2
*X59
 10
0.0
 20
0.0
 30
0.0
1001
ACAD
1000
HATCH
1002
{
1070
    19
1000
ANSI37
1040
0.15
1040
0.0
1000
ASC_BOUNDS
1070
     1
1070
     2
1070
     4
1005
19D5D
1005
19D6C
1005
19D5E
1005
19D60
1000
ASC_SEEDPOINT
1011
1.079051535452663
1021
4.148538732891836
1031
0.0
1000
R14_HATCH_DATA
1000
19D99
1011
1.0
1021
0.0
1031
0.0
1011
0.0
1021
1.0
1031
0.0
1011
0.0
1021
0.0
1031
1.0
1040
0.0
1010
0.0
1020
0.0
1030
1.0
1000
ANSI37
1070
     0
1070
     1
1071
        1
1071
        7
1070
     0
1070
     1
1071
        4
1040
1.420999999998571
1040
0.0
1040
1.420999999998571
1040
8.763099999991255
1040
0.0
1040
8.763099999991255
1040
0.0
1040
0.0
1071
        4
1005
19D5D
1005
19D6C
1005
19D5E
1005
19D60
1070
     0
1070
     1
1040
0.0
1040
0.15
1070
     0
1070
     2
1040
0.7853981633974483
1040
49.29960901727088
1040
-10.17736998311392
1040
-0.3367596045400932
1040
0.3367596045400932
1070
     0
1040
2.356194490192345
1040
49.29960901727088
1040
-10.17736998311392
1040
-0.3367596045400932
1040
-0.3367596045400932
1070
     0
1040
0.0053004257112761
1071
        1
1040
1.079051535452663
1040
4.148538732891836
1040
0.0
1002
}
  0
ENDBLK
  5
1A475
330
19D51
100
AcDbEntity
  8
0
100
AcDbBlockEnd
  0
BLOCK
  5
1B26F
330
1B0E1
100
AcDbEntity
  8
0
100
AcDbBlockBegin
  2
*X54
 70
     1
 10
0.0
 20
0.0
 30
0.0
  3
*X54
  1

  0
LINE
  5
1B0E2
330
1B0E1
100
AcDbEntity
  8
0
  6
CONTINUOUS
100
AcDbLine
 10
3.418023043697893
 20
7.251849696850613
 30
0.0
 11
4.929273346838536
 21
8.763099999991255
 31
0.0
  0
LINE
  5
1B0E3
330
1B0E1
100
AcDbEntity
  8
0
  6
CONTINUOUS
100
AcDbLine
 10
1.483656411257782
 20
4.643963855330318
 30
0.0
 11
5.60279255591872
 21
8.763099999991255
 31
0.0
  0
LINE
  5
1B0E4
330
1B0E1
100
AcDbEntity
  8
0
  6
CONTINUOUS
100
AcDbLine
 10
1.755053947328235
 20
4.241842182320584
 30
0.0
 11
6.276311764998907
 21
8.763099999991255
 31
0.0
  0
LINE
  5
1B0E5
330
1B0E1
100
AcDbEntity
  8
0
  6
CONTINUOUS
100
AcDbLine
 10
2.026451483398688
 20
3.839720509310849
 30
0.0
 11
4.441040904851878
 21
6.254309930764039
 31
0.0
  0
LINE
  5
1B0E6
330
1B0E1
100
AcDbEntity
  8
0
  6
CONTINUOUS
100
AcDbLine
 10
2.297849019469139
 20
3.437598836301114
 30
0.0
 11
3.321765168359338
 21
4.461514985191313
 31
0.0
  0
LINE
  5
1B0E7
330
1B0E1
100
AcDbEntity
  8
0
  6
CONTINUOUS
100
AcDbLine
 10
2.569246555539591
 20
3.03547716329138
 30
0.0
 11
3.593163397972743
 21
4.059394005724531
 31
0.0
  0
LINE
  5
1B0E8
330
1B0E1
100
AcDbEntity
  8
0
  6
CONTINUOUS
100
AcDbLine
 10
2.840644091610043
 20
2.633355490281646
 30
0.0
 11
3.864561627586149
 21
3.657273026257751
 31
0.0
  0
LINE
  5
1B0E9
330
1B0E1
100
AcDbEntity
  8
0
  6
CONTINUOUS
100
AcDbLine
 10
3.112041627680496
 20
2.231233817271911
 30
0.0
 11
4.135959857199554
 21
3.25515204679097
 31
0.0
  0
LINE
  5
1B0EA
330
1B0E1
100
AcDbEntity
  8
0
  6
CONTINUOUS
100
AcDbLine
 10
3.383439163750948
 20
1.829112144262177
 30
0.0
 11
4.40735808681296
 21
2.853031067324189
 31
0.0
  0
LINE
  5
1B0EB
330
1B0E1
100
AcDbEntity
  8
0
  6
CONTINUOUS
100
AcDbLine
 10
3.654836699821399
 20
1.426990471252442
 30
0.0
 11
4.678756316426365
 21
2.450910087857407
 31
0.0
  0
LINE
  5
1B0EC
330
1B0E1
100
AcDbEntity
  8
0
  6
CONTINUOUS
100
AcDbLine
 10
3.926234235891853
 20
1.024868798242709
 30
0.0
 11
4.95015454603977
 21
2.048789108390626
 31
0.0
  0
LINE
  5
1B0ED
330
1B0E1
100
AcDbEntity
  8
0
  6
CONTINUOUS
100
AcDbLine
 10
4.197631771962304
 20
0.6227471252329737
 30
0.0
 11
5.221552775653176
 21
1.646668128923846
 31
0.0
  0
LINE
  5
1B0EE
330
1B0E1
100
AcDbEntity
  8
0
  6
CONTINUOUS
100
AcDbLine
 10
8.715877546767851
 20
7.835069736359266
 30
0.0
 11
9.435953450375058
 21
8.555145639966472
 31
0.0
  0
LINE
  5
1B0EF
330
1B0E1
100
AcDbEntity
  8
0
  6
CONTINUOUS
100
AcDbLine
 10
8.170620868422267
 20
6.616293848933497
 30
0.0
 11
9.644120833743461
 21
8.08979381425469
 31
0.0
  0
LINE
  5
1B0F0
330
1B0E1
100
AcDbEntity
  8
0
  6
CONTINUOUS
100
AcDbLine
 10
7.625364190076684
 20
5.397517961507727
 30
0.0
 11
9.852288217111864
 21
7.624441988542907
 31
0.0
  0
LINE
  5
1B0F1
330
1B0E1
100
AcDbEntity
  8
0
  6
CONTINUOUS
100
AcDbLine
 10
7.080107511731101
 20
4.178742074081957
 30
0.0
 11
10.06045560048027
 21
7.159090162831124
 31
0.0
  0
LINE
  5
1B0F2
330
1B0E1
100
AcDbEntity
  8
0
  6
CONTINUOUS
100
AcDbLine
 10
6.534850833385518
 20
2.959966186656187
 30
0.0
 11
10.26862298384867
 21
6.693738337119342
 31
0.0
  0
LINE
  5
1B0F3
330
1B0E1
100
AcDbEntity
  8
0
  6
CONTINUOUS
100
AcDbLine
 10
4.469029308032756
 20
0.2206254522232385
 30
0.0
 11
5.492951005266582
 21
1.244547149457064
 31
0.0
  0
LINE
  5
1B0F4
330
1B0E1
100
AcDbEntity
  8
0
  6
CONTINUOUS
100
AcDbLine
 10
5.989594155039935
 20
1.741190299230417
 30
0.0
 11
8.806950407233131
 21
4.558546551423613
 31
0.0
  0
LINE
  5
1B0F5
330
1B0E1
100
AcDbEntity
  8
0
  6
CONTINUOUS
100
AcDbLine
 10
9.401251593263643
 20
5.152847737454126
 30
0.0
 11
10.47679036721708
 21
6.228386511407559
 31
0.0
  0
LINE
  5
1B0F6
330
1B0E1
100
AcDbEntity
  8
0
  6
CONTINUOUS
100
AcDbLine
 10
4.921837203428691
 20
-0.0000858614610131
 30
0.0
 11
8.592923064886001
 21
3.670999999996297
 31
0.0
  0
LINE
  5
1B0F7
330
1B0E1
100
AcDbEntity
  8
0
  6
CONTINUOUS
100
AcDbLine
 10
9.609390446785305
 20
4.6874673818956
 30
0.0
 11
10.68495775058548
 21
5.763034685695775
 31
0.0
  0
LINE
  5
1B0F8
330
1B0E1
100
AcDbEntity
  8
0
  6
CONTINUOUS
100
AcDbLine
 10
5.595387755019432
 20
-0.0000545189504582
 30
0.0
 11
7.716137258923768
 21
2.120694984953879
 31
0.0
  0
LINE
  5
1B0F9
330
1B0E1
100
AcDbEntity
  8
0
  6
CONTINUOUS
100
AcDbLine
 10
6.268938306610172
 20
-0.000023176439905
 30
0.0
 11
7.170485805526503
 21
0.9015243224764267
 31
0.0
  0
LINE
  5
1B0FA
330
1B0E1
100
AcDbEntity
  8
0
  6
CONTINUOUS
100
AcDbLine
 10
7.963842273967511
 20
2.368399999997621
 30
0.0
 11
9.266442273966188
 21
3.670999999996297
 31
0.0
  0
LINE
  5
1B0FB
330
1B0E1
100
AcDbEntity
  8
0
  6
CONTINUOUS
100
AcDbLine
 10
8.637361483047696
 20
2.368399999997621
 30
0.0
 11
9.939961483046375
 21
3.670999999996297
 31
0.0
  0
LINE
  5
1B0FC
330
1B0E1
100
AcDbEntity
  8
0
  6
CONTINUOUS
100
AcDbLine
 10
9.817529300306965
 20
4.222087026337075
 30
0.0
 11
10.89312513395388
 21
5.297682859983993
 31
0.0
  0
LINE
  5
1B0FD
330
1B0E1
100
AcDbEntity
  8
0
  6
CONTINUOUS
100
AcDbLine
 10
10.02566815382863
 20
3.756706670778549
 30
0.0
 11
11.10129251732229
 21
4.832331034272211
 31
0.0
  0
LINE
  5
1B0FE
330
1B0E1
100
AcDbEntity
  8
0
  6
CONTINUOUS
100
AcDbLine
 10
9.310880692127883
 20
2.368399999997621
 30
0.0
 11
11.30945990069069
 21
4.366979208560428
 31
0.0
  0
LINE
  5
1B0FF
330
1B0E1
100
AcDbEntity
  8
0
  6
CONTINUOUS
100
AcDbLine
 10
9.98439990120807
 20
2.36839999999762
 30
0.0
 11
11.5176272840591
 21
3.901627382848645
 31
0.0
  0
LINE
  5
1B100
330
1B0E1
100
AcDbEntity
  8
0
  6
CONTINUOUS
100
AcDbLine
 10
10.65037369446246
 20
2.36085458417182
 30
0.0
 11
11.7257946674275
 21
3.436275557136862
 31
0.0
  0
LINE
  5
1B101
330
1B0E1
100
AcDbEntity
  8
0
  6
CONTINUOUS
100
AcDbLine
 10
10.85847197087848
 20
1.895433651507656
 30
0.0
 11
11.9339620507959
 21
2.97092373142508
 31
0.0
  0
LINE
  5
1B102
330
1B0E1
100
AcDbEntity
  8
0
  6
CONTINUOUS
100
AcDbLine
 10
11.0665702472945
 20
1.430012718843491
 30
0.0
 11
12.14212943416431
 21
2.505571905713296
 31
0.0
  0
LINE
  5
1B103
330
1B0E1
100
AcDbEntity
  8
0
  6
CONTINUOUS
100
AcDbLine
 10
11.27466852371052
 20
0.9645917861793256
 30
0.0
 11
12.35029681753271
 21
2.040220080001513
 31
0.0
  0
LINE
  5
1B104
330
1B0E1
100
AcDbEntity
  8
0
  6
CONTINUOUS
100
AcDbLine
 10
11.48276680012654
 20
0.4991708535151611
 30
0.0
 11
12.55846420090111
 21
1.57486825428973
 31
0.0
  0
LINE
  5
1B105
330
1B0E1
100
AcDbEntity
  8
0
  6
CONTINUOUS
100
AcDbLine
 10
11.69086507654257
 20
0.0337499208509957
 30
0.0
 11
12.76663158426952
 21
1.109516428577947
 31
0.0
  0
LINE
  5
1B106
330
1B0E1
100
AcDbEntity
  8
0
  6
CONTINUOUS
100
AcDbLine
 10
12.33057447873954
 20
-0.0000598860322123
 30
0.0
 11
12.97479896763792
 21
0.6441646028661663
 31
0.0
  0
LINE
  5
1B107
330
1B0E1
100
AcDbEntity
  8
0
  6
CONTINUOUS
100
AcDbLine
 10
13.00413694809395
 20
-0.0000166257579952
 30
0.0
 11
13.18296635100632
 21
0.1788127771543824
 31
0.0
  0
LINE
  5
1B108
330
1B0E1
100
AcDbEntity
  8
0
  6
CONTINUOUS
100
AcDbLine
 10
4.772852165289667
 20
-0.000092794222212
 30
0.0
 11
4.296495091028902
 21
0.4762642800385528
 31
0.0
  0
LINE
  5
1B109
330
1B0E1
100
AcDbEntity
  8
0
  6
CONTINUOUS
100
AcDbLine
 10
5.446340034776103
 20
-0.0000614546284616
 30
0.0
 11
2.898195908335625
 21
2.548082671812017
 31
0.0
  0
LINE
  5
1B10A
330
1B0E1
100
AcDbEntity
  8
0
  6
CONTINUOUS
100
AcDbLine
 10
6.119827904262539
 20
-0.0000301150347113
 30
0.0
 11
1.499896725642348
 21
4.61990106358548
 31
0.0
  0
LINE
  5
1B10B
330
1B0E1
100
AcDbEntity
  8
0
  6
CONTINUOUS
100
AcDbLine
 10
6.775136745476159
 20
0.0181802528318542
 30
0.0
 11
5.699826040202669
 21
1.093490958105344
 31
0.0
  0
LINE
  5
1B10C
330
1B0E1
100
AcDbEntity
  8
0
  6
CONTINUOUS
100
AcDbLine
 10
6.983376846288489
 20
0.4834593610997118
 30
0.0
 11
5.908008617934405
 21
1.558827589453796
 31
0.0
  0
LINE
  5
1B10D
330
1B0E1
100
AcDbEntity
  8
0
  6
CONTINUOUS
100
AcDbLine
 10
5.377063484962296
 20
1.416253513345719
 30
0.0
 11
1.702276957014131
 21
5.091040041293883
 31
0.0
  0
LINE
  5
1B10E
330
1B0E1
100
AcDbEntity
  8
0
  6
CONTINUOUS
100
AcDbLine
 10
3.978745891735324
 20
3.488090315652877
 30
0.0
 11
2.000373521109399
 21
5.466462686278803
 31
0.0
  0
LINE
  5
1B10F
330
1B0E1
100
AcDbEntity
  8
0
  6
CONTINUOUS
100
AcDbLine
 10
7.191616947100819
 20
0.948738469367568
 30
0.0
 11
6.11619119566614
 21
2.024164220802247
 31
0.0
  0
LINE
  5
1B110
330
1B0E1
100
AcDbEntity
  8
0
  6
CONTINUOUS
100
AcDbLine
 10
7.399857047913149
 20
1.414017577635424
 30
0.0
 11
6.324373773397875
 21
2.489500852150698
 31
0.0
  0
LINE
  5
1B111
330
1B0E1
100
AcDbEntity
  8
0
  6
CONTINUOUS
100
AcDbLine
 10
7.608097148725479
 20
1.879296685903281
 30
0.0
 11
6.53255635112961
 21
2.95483748349915
 31
0.0
  0
LINE
  5
1B112
330
1B0E1
100
AcDbEntity
  8
0
  6
CONTINUOUS
100
AcDbLine
 10
7.816337249537808
 20
2.344575794171138
 30
0.0
 11
6.740738928861345
 21
3.420174114847601
 31
0.0
  0
LINE
  5
1B113
330
1B0E1
100
AcDbEntity
  8
0
  6
CONTINUOUS
100
AcDbLine
 10
3.310241080789734
 20
4.830114335678653
 30
0.0
 11
2.298470085204666
 21
5.84188533126372
 31
0.0
  0
LINE
  5
1B114
330
1B0E1
100
AcDbEntity
  8
0
  6
CONTINUOUS
100
AcDbLine
 10
3.60832983563551
 20
5.205544789913063
 30
0.0
 11
2.596566649299935
 21
6.217307976248638
 31
0.0
  0
LINE
  5
1B115
330
1B0E1
100
AcDbEntity
  8
0
  6
CONTINUOUS
100
AcDbLine
 10
3.906418590481286
 20
5.580975244147473
 30
0.0
 11
2.894663213395203
 21
6.592730621233557
 31
0.0
  0
LINE
  5
1B116
330
1B0E1
100
AcDbEntity
  8
0
  6
CONTINUOUS
100
AcDbLine
 10
4.204507345327062
 20
5.956405698381884
 30
0.0
 11
3.192759777490472
 21
6.968153266218474
 31
0.0
  0
LINE
  5
1B117
330
1B0E1
100
AcDbEntity
  8
0
  6
CONTINUOUS
100
AcDbLine
 10
8.466032252791512
 20
2.368399999997621
 30
0.0
 11
6.948921506593081
 21
3.885510746196053
 31
0.0
  0
LINE
  5
1B118
330
1B0E1
100
AcDbEntity
  8
0
  6
CONTINUOUS
100
AcDbLine
 10
9.139551461871699
 20
2.36839999999762
 30
0.0
 11
7.157104084324816
 21
4.350847377544504
 31
0.0
  0
LINE
  5
1B119
330
1B0E1
100
AcDbEntity
  8
0
  6
CONTINUOUS
100
AcDbLine
 10
4.502596100172839
 20
6.331836152616295
 30
0.0
 11
3.49085634158574
 21
7.343575911203393
 31
0.0
  0
LINE
  5
1B11A
330
1B0E1
100
AcDbEntity
  8
0
  6
CONTINUOUS
100
AcDbLine
 10
4.800684855018615
 20
6.707266606850705
 30
0.0
 11
3.788952905681008
 21
7.718998556188312
 31
0.0
  0
LINE
  5
1B11B
330
1B0E1
100
AcDbEntity
  8
0
  6
CONTINUOUS
100
AcDbLine
 10
12.18154012887317
 20
-0.0000694579236642
 30
0.0
 11
11.32140332908496
 21
0.8600673418645499
 31
0.0
  0
LINE
  5
1B11C
330
1B0E1
100
AcDbEntity
  8
0
  6
CONTINUOUS
100
AcDbLine
 10
12.85501608323566
 20
-0.0000262032059659
 30
0.0
 11
10.77672456435345
 21
2.078265315676246
 31
0.0
  0
LINE
  5
1B11D
330
1B0E1
100
AcDbEntity
  8
0
  6
CONTINUOUS
100
AcDbLine
 10
9.813070670951886
 20
2.36839999999762
 30
0.0
 11
8.51047067095321
 21
3.670999999996297
 31
0.0
  0
LINE
  5
1B11E
330
1B0E1
100
AcDbEntity
  8
0
  6
CONTINUOUS
100
AcDbLine
 10
10.48658988003207
 20
2.36839999999762
 30
0.0
 11
9.183989880033396
 21
3.670999999996297
 31
0.0
  0
LINE
  5
1B11F
330
1B0E1
100
AcDbEntity
  8
0
  6
CONTINUOUS
100
AcDbLine
 10
8.441048632286794
 20
3.740422038662712
 30
0.0
 11
7.365286662056551
 21
4.816184008892956
 31
0.0
  0
LINE
  5
1B120
330
1B0E1
100
AcDbEntity
  8
0
  6
CONTINUOUS
100
AcDbLine
 10
8.649187485808454
 20
4.205802394221237
 30
0.0
 11
7.573469239788285
 21
5.281520640241407
 31
0.0
  0
LINE
  5
1B121
330
1B0E1
100
AcDbEntity
  8
0
  6
CONTINUOUS
100
AcDbLine
 10
5.098773609864391
 20
7.082697061085115
 30
0.0
 11
4.087049469776277
 21
8.09442120117323
 31
0.0
  0
LINE
  5
1B122
330
1B0E1
100
AcDbEntity
  8
0
  6
CONTINUOUS
100
AcDbLine
 10
5.396862364710167
 20
7.458127515319526
 30
0.0
 11
4.385146033871544
 21
8.469843846158149
 31
0.0
  0
LINE
  5
1B123
330
1B0E1
100
AcDbEntity
  8
0
  6
CONTINUOUS
100
AcDbLine
 10
13.04801363231285
 20
0.4804954567970334
 30
0.0
 11
9.85750908911358
 21
3.670999999996297
 31
0.0
  0
LINE
  5
1B124
330
1B0E1
100
AcDbEntity
  8
0
  6
CONTINUOUS
100
AcDbLine
 10
8.857326339330116
 20
4.671182749779763
 30
0.0
 11
7.781651817520021
 21
5.746857271589858
 31
0.0
  0
LINE
  5
1B125
330
1B0E1
100
AcDbEntity
  8
0
  6
CONTINUOUS
100
AcDbLine
 10
5.694951119555943
 20
7.833557969553937
 30
0.0
 11
4.765409089118624
 21
8.763099999991255
 31
0.0
  0
LINE
  5
1B126
330
1B0E1
100
AcDbEntity
  8
0
  6
CONTINUOUS
100
AcDbLine
 10
12.50286117236978
 20
1.699167125820288
 30
0.0
 11
9.68611877250287
 21
4.515909525687196
 31
0.0
  0
LINE
  5
1B127
330
1B0E1
100
AcDbEntity
  8
0
  6
CONTINUOUS
100
AcDbLine
 10
9.065465192851777
 20
5.136563105338288
 30
0.0
 11
7.989834395251757
 21
6.21219390293831
 31
0.0
  0
LINE
  5
1B128
330
1B0E1
100
AcDbEntity
  8
0
  6
CONTINUOUS
100
AcDbLine
 10
5.993039874401719
 20
8.208988423788346
 30
0.0
 11
5.43892829819881
 21
8.763099999991255
 31
0.0
  0
LINE
  5
1B129
330
1B0E1
100
AcDbEntity
  8
0
  6
CONTINUOUS
100
AcDbLine
 10
11.95770871242671
 20
2.917838794843543
 30
0.0
 11
8.19801697298349
 21
6.677530534286761
 31
0.0
  0
LINE
  5
1B12A
330
1B0E1
100
AcDbEntity
  8
0
  6
CONTINUOUS
100
AcDbLine
 10
6.291128629247495
 20
8.584418878022756
 30
0.0
 11
6.112447507278997
 21
8.763099999991255
 31
0.0
  0
LINE
  5
1B12B
330
1B0E1
100
AcDbEntity
  8
0
  6
CONTINUOUS
100
AcDbLine
 10
11.41255625248364
 20
4.136510463866797
 30
0.0
 11
8.406199550715227
 21
7.142867165635211
 31
0.0
  0
LINE
  5
1B12C
330
1B0E1
100
AcDbEntity
  8
0
  6
CONTINUOUS
100
AcDbLine
 10
10.86740379254057
 20
5.355182132890051
 30
0.0
 11
8.614382128446962
 21
7.608203796983664
 31
0.0
  0
LINE
  5
1B12D
330
1B0E1
100
AcDbEntity
  8
0
  6
CONTINUOUS
100
AcDbLine
 10
10.3222513325975
 20
6.573853801913305
 30
0.0
 11
8.822564706178696
 21
8.073540428332114
 31
0.0
  0
LINE
  5
1B12E
330
1B0E1
100
AcDbEntity
  8
0
  6
CONTINUOUS
100
AcDbLine
 10
9.777098872654436
 20
7.792525470936562
 30
0.0
 11
9.030747283910433
 21
8.538877059680566
 31
0.0
  0
ENDBLK
  5
1B270
330
1B0E1
100
AcDbEntity
  8
0
100
AcDbBlockEnd
  0
BLOCK
  5
1B271
330
1B12F
100
AcDbEntity
  8
0
100
AcDbBlockBegin
  2
*X55
 70
     1
 10
0.0
 20
0.0
 30
0.0
  3
*X55
  1

  0
LINE
  5
1B130
330
1B12F
100
AcDbEntity
  8
0
  6
CONTINUOUS
100
AcDbLine
 10
10.67292308101235
 20
8.445076852443387
 30
0.0
 11
10.99094622856022
 21
8.763099999991255
 31
0.0
  0
LINE
  5
1B131
330
1B12F
100
AcDbEntity
  8
0
  6
CONTINUOUS
100
AcDbLine
 10
10.87250383178748
 20
7.971138394138331
 30
0.0
 11
11.6644654376404
 21
8.763099999991255
 31
0.0
  0
LINE
  5
1B132
330
1B12F
100
AcDbEntity
  8
0
  6
CONTINUOUS
100
AcDbLine
 10
11.07208458256261
 20
7.497199935833273
 30
0.0
 11
12.12126590876355
 21
8.546381262034211
 31
0.0
  0
LINE
  5
1B133
330
1B12F
100
AcDbEntity
  8
0
  6
CONTINUOUS
100
AcDbLine
 10
11.27166533333774
 20
7.023261477528216
 30
0.0
 11
12.32085164573666
 21
8.072447789927136
 31
0.0
  0
LINE
  5
1B134
330
1B12F
100
AcDbEntity
  8
0
  6
CONTINUOUS
100
AcDbLine
 10
11.47124608411287
 20
6.549323019223158
 30
0.0
 11
12.52043738270977
 21
7.59851431782006
 31
0.0
  0
LINE
  5
1B135
330
1B12F
100
AcDbEntity
  8
0
  6
CONTINUOUS
100
AcDbLine
 10
11.670826834888
 20
6.075384560918101
 30
0.0
 11
12.72002311968288
 21
7.124580845712984
 31
0.0
  0
LINE
  5
1B136
330
1B12F
100
AcDbEntity
  8
0
  6
CONTINUOUS
100
AcDbLine
 10
11.87040758566313
 20
5.601446102613043
 30
0.0
 11
12.91960885665599
 21
6.650647373605907
 31
0.0
  0
LINE
  5
1B137
330
1B12F
100
AcDbEntity
  8
0
  6
CONTINUOUS
100
AcDbLine
 10
12.06998833643825
 20
5.127507644307986
 30
0.0
 11
13.1191945936291
 21
6.176713901498832
 31
0.0
  0
LINE
  5
1B138
330
1B12F
100
AcDbEntity
  8
0
  6
CONTINUOUS
100
AcDbLine
 10
12.26956908721338
 20
4.65356918600293
 30
0.0
 11
13.31878033060221
 21
5.702780429391757
 31
0.0
  0
LINE
  5
1B139
330
1B12F
100
AcDbEntity
  8
0
  6
CONTINUOUS
100
AcDbLine
 10
12.46914983798851
 20
4.179630727697873
 30
0.0
 11
13.51836606757532
 21
5.228846957284683
 31
0.0
  0
LINE
  5
1B13A
330
1B12F
100
AcDbEntity
  8
0
  6
CONTINUOUS
100
AcDbLine
 10
12.66873058876364
 20
3.705692269392816
 30
0.0
 11
13.71795180454843
 21
4.754913485177607
 31
0.0
  0
LINE
  5
1B13B
330
1B12F
100
AcDbEntity
  8
0
  6
CONTINUOUS
100
AcDbLine
 10
12.86831133953877
 20
3.231753811087759
 30
0.0
 11
13.91753754152154
 21
4.280980013070531
 31
0.0
  0
LINE
  5
1B13C
330
1B12F
100
AcDbEntity
  8
0
  6
CONTINUOUS
100
AcDbLine
 10
13.0678920903139
 20
2.757815352782702
 30
0.0
 11
14.11712327849465
 21
3.807046540963456
 31
0.0
  0
LINE
  5
1B13D
330
1B12F
100
AcDbEntity
  8
0
  6
CONTINUOUS
100
AcDbLine
 10
13.26747284108903
 20
2.283876894477644
 30
0.0
 11
14.31670901546777
 21
3.333113068856379
 31
0.0
  0
LINE
  5
1B13E
330
1B12F
100
AcDbEntity
  8
0
  6
CONTINUOUS
100
AcDbLine
 10
16.36767838827179
 20
8.751678487061342
 30
0.0
 11
16.50332410898388
 21
8.887324207773432
 31
0.0
  0
LINE
  5
1B13F
330
1B12F
100
AcDbEntity
  8
0
  6
CONTINUOUS
100
AcDbLine
 10
15.96190732182191
 20
7.67238821153127
 30
0.0
 11
16.68735328004734
 21
8.397834169756699
 31
0.0
  0
LINE
  5
1B140
330
1B12F
100
AcDbEntity
  8
0
  6
CONTINUOUS
100
AcDbLine
 10
15.55613625537202
 20
6.593097936001196
 30
0.0
 11
16.87138245111079
 21
7.908344131739965
 31
0.0
  0
LINE
  5
1B141
330
1B12F
100
AcDbEntity
  8
0
  6
CONTINUOUS
100
AcDbLine
 10
15.15036518892213
 20
5.513807660471122
 30
0.0
 11
17.05541162217424
 21
7.418854093723231
 31
0.0
  0
LINE
  5
1B142
330
1B12F
100
AcDbEntity
  8
0
  6
CONTINUOUS
100
AcDbLine
 10
14.74459412247225
 20
4.434517384941048
 30
0.0
 11
17.2394407932377
 21
6.929364055706499
 31
0.0
  0
LINE
  5
1B143
330
1B12F
100
AcDbEntity
  8
0
  6
CONTINUOUS
100
AcDbLine
 10
14.33882305602236
 20
3.355227109410975
 30
0.0
 11
17.42346996430115
 21
6.439874017689766
 31
0.0
  0
LINE
  5
1B144
330
1B12F
100
AcDbEntity
  8
0
  6
CONTINUOUS
100
AcDbLine
 10
13.46705359186416
 20
1.809938436172586
 30
0.0
 11
16.0819338255367
 21
4.424818669845129
 31
0.0
  0
LINE
  5
1B145
330
1B12F
100
AcDbEntity
  8
0
  6
CONTINUOUS
100
AcDbLine
 10
16.63283254238972
 20
4.975717386698149
 30
0.0
 11
17.60749913536461
 21
5.950383979673033
 31
0.0
  0
LINE
  5
1B146
330
1B12F
100
AcDbEntity
  8
0
  6
CONTINUOUS
100
AcDbLine
 10
13.66663434263929
 20
1.335999977867529
 30
0.0
 11
15.67604797733754
 21
3.345413612565779
 31
0.0
  0
LINE
  5
1B147
330
1B12F
100
AcDbEntity
  8
0
  6
CONTINUOUS
100
AcDbLine
 10
13.86621509341442
 20
0.8620615195624723
 30
0.0
 11
15.27016212913838
 21
2.26600855528643
 31
0.0
  0
LINE
  5
1B148
330
1B12F
100
AcDbEntity
  8
0
  6
CONTINUOUS
100
AcDbLine
 10
16.81682257348267
 20
4.486188208710908
 30
0.0
 11
17.79152830642806
 21
5.460893941656299
 31
0.0
  0
LINE
  5
1B149
330
1B12F
100
AcDbEntity
  8
0
  6
CONTINUOUS
100
AcDbLine
 10
17.00081260457561
 20
3.996659030723667
 30
0.0
 11
17.97555747749151
 21
4.971403903639565
 31
0.0
  0
LINE
  5
1B14A
330
1B12F
100
AcDbEntity
  8
0
  6
CONTINUOUS
100
AcDbLine
 10
20.74362343514722
 20
8.412989070375462
 30
0.0
 11
21.09373436476302
 21
8.763099999991256
 31
0.0
  0
LINE
  5
1B14B
330
1B12F
100
AcDbEntity
  8
0
  6
CONTINUOUS
100
AcDbLine
 10
20.25401257174777
 20
7.249858997895826
 30
0.0
 11
21.7672535738432
 21
8.763099999991255
 31
0.0
  0
LINE
  5
1B14C
330
1B12F
100
AcDbEntity
  8
0
  6
CONTINUOUS
100
AcDbLine
 10
14.06579584418955
 20
0.3881230612574149
 30
0.0
 11
14.86427628093921
 21
1.186603498007082
 31
0.0
  0
LINE
  5
1B14D
330
1B12F
100
AcDbEntity
  8
0
  6
CONTINUOUS
100
AcDbLine
 10
14.26537659496467
 20
-0.0858153970476412
 30
0.0
 11
14.45839043274005
 21
0.1071984407277329
 31
0.0
  0
LINE
  5
1B14E
330
1B12F
100
AcDbEntity
  8
0
  6
CONTINUOUS
100
AcDbLine
 10
17.18480263566856
 20
3.507129852736426
 30
0.0
 11
18.15958664855496
 21
4.481913865622833
 31
0.0
  0
LINE
  5
1B14F
330
1B12F
100
AcDbEntity
  8
0
  6
CONTINUOUS
100
AcDbLine
 10
17.3687926667615
 20
3.017600674749186
 30
0.0
 11
18.34361581961842
 21
3.9924238276061
 31
0.0
  0
LINE
  5
1B150
330
1B12F
100
AcDbEntity
  8
0
  6
CONTINUOUS
100
AcDbLine
 10
19.76440170834832
 20
6.086728925416191
 30
0.0
 11
22.33924590259489
 21
8.661573119662755
 31
0.0
  0
LINE
  5
1B151
330
1B12F
100
AcDbEntity
  8
0
  6
CONTINUOUS
100
AcDbLine
 10
19.27479084494887
 20
4.923598852936555
 30
0.0
 11
21.84929622842713
 21
7.498104236414807
 31
0.0
  0
LINE
  5
1B152
330
1B12F
100
AcDbEntity
  8
0
  6
CONTINUOUS
100
AcDbLine
 10
17.55278269785445
 20
2.528071496761945
 30
0.0
 11
18.52764499068187
 21
3.502933789589366
 31
0.0
  0
LINE
  5
1B153
330
1B12F
100
AcDbEntity
  8
0
  6
CONTINUOUS
100
AcDbLine
 10
18.78517998154942
 20
3.760468780456919
 30
0.0
 11
21.35934655425936
 21
6.33463535316686
 31
0.0
  0
LINE
  5
1B154
330
1B12F
100
AcDbEntity
  8
0
  6
CONTINUOUS
100
AcDbLine
 10
17.73677272894739
 20
2.038542318774704
 30
0.0
 11
20.8693968800916
 21
5.171166469918914
 31
0.0
  0
LINE
  5
1B155
330
1B12F
100
AcDbEntity
  8
0
  6
CONTINUOUS
100
AcDbLine
 10
17.92076276004034
 20
1.549013140787464
 30
0.0
 11
20.37944720592384
 21
4.007697586670968
 31
0.0
  0
LINE
  5
1B156
330
1B12F
100
AcDbEntity
  8
0
  6
CONTINUOUS
100
AcDbLine
 10
18.10475279113329
 20
1.059483962800223
 30
0.0
 11
19.88949753175608
 21
2.84422870342302
 31
0.0
  0
LINE
  5
1B157
330
1B12F
100
AcDbEntity
  8
0
  6
CONTINUOUS
100
AcDbLine
 10
18.28874282222623
 20
0.5699547848129822
 30
0.0
 11
19.39954785758832
 21
1.680759820175074
 31
0.0
  0
LINE
  5
1B158
330
1B12F
100
AcDbEntity
  8
0
  6
CONTINUOUS
100
AcDbLine
 10
18.47273285331918
 20
0.0804256068257416
 30
0.0
 11
18.90959818342056
 21
0.517290936927127
 31
0.0
  0
LINE
  5
1B159
330
1B12F
100
AcDbEntity
  8
0
  6
CONTINUOUS
100
AcDbLine
 10
14.3590401358224
 20
-0.1570118376323384
 30
0.0
 11
14.24903296539946
 21
-0.0470046672093929
 31
0.0
  0
LINE
  5
1B15A
330
1B12F
100
AcDbEntity
  8
0
  6
CONTINUOUS
100
AcDbLine
 10
14.54309291258661
 20
0.332454594683643
 30
0.0
 11
13.75908329123172
 21
1.116464216038529
 31
0.0
  0
LINE
  5
1B15B
330
1B12F
100
AcDbEntity
  8
0
  6
CONTINUOUS
100
AcDbLine
 10
14.72714568935081
 20
0.8219210269996244
 30
0.0
 11
13.26913361706399
 21
2.27993309928645
 31
0.0
  0
LINE
  5
1B15C
330
1B12F
100
AcDbEntity
  8
0
  6
CONTINUOUS
100
AcDbLine
 10
14.91119846611502
 20
1.311387459315606
 30
0.0
 11
12.77918394289625
 21
3.443401982534371
 31
0.0
  0
LINE
  5
1B15D
330
1B12F
100
AcDbEntity
  8
0
  6
CONTINUOUS
100
AcDbLine
 10
15.09525124287922
 20
1.800853891631587
 30
0.0
 11
12.28923426872852
 21
4.606870865782293
 31
0.0
  0
LINE
  5
1B15E
330
1B12F
100
AcDbEntity
  8
0
  6
CONTINUOUS
100
AcDbLine
 10
15.27930401964343
 20
2.290320323947569
 30
0.0
 11
11.79928459456078
 21
5.770339749030213
 31
0.0
  0
LINE
  5
1B15F
330
1B12F
100
AcDbEntity
  8
0
  6
CONTINUOUS
100
AcDbLine
 10
15.46335679640763
 20
2.77978675626355
 30
0.0
 11
14.48885470994921
 21
3.754288842721972
 31
0.0
  0
LINE
  5
1B160
330
1B12F
100
AcDbEntity
  8
0
  6
CONTINUOUS
100
AcDbLine
 10
13.88507249233704
 20
4.358071060334137
 30
0.0
 11
11.30933492039305
 21
6.933808632278135
 31
0.0
  0
LINE
  5
1B161
330
1B12F
100
AcDbEntity
  8
0
  6
CONTINUOUS
100
AcDbLine
 10
18.75840522805855
 20
0.1582575336928151
 30
0.0
 11
18.25383727664818
 21
0.6628254851031863
 31
0.0
  0
LINE
  5
1B162
330
1B12F
100
AcDbEntity
  8
0
  6
CONTINUOUS
100
AcDbLine
 10
15.64740957317184
 20
3.269253188579531
 30
0.0
 11
14.67288388101266
 21
4.243778880738705
 31
0.0
  0
LINE
  5
1B163
330
1B12F
100
AcDbEntity
  8
0
  6
CONTINUOUS
100
AcDbLine
 10
13.39509276772158
 20
5.521569994029786
 30
0.0
 11
10.81938524622531
 21
8.097277515526056
 31
0.0
  0
LINE
  5
1B164
330
1B12F
100
AcDbEntity
  8
0
  6
CONTINUOUS
100
AcDbLine
 10
18.95798597883369
 20
0.6321959919978686
 30
0.0
 11
17.84825644852853
 21
1.741925522303024
 31
0.0
  0
LINE
  5
1B165
330
1B12F
100
AcDbEntity
  8
0
  6
CONTINUOUS
100
AcDbLine
 10
19.15756672960882
 20
1.106134450302922
 30
0.0
 11
17.44267562040888
 21
2.821025559502861
 31
0.0
  0
LINE
  5
1B166
330
1B12F
100
AcDbEntity
  8
0
  6
CONTINUOUS
100
AcDbLine
 10
15.83146234993604
 20
3.758719620895513
 30
0.0
 11
14.85691305207612
 21
4.733268918755439
 31
0.0
  0
LINE
  5
1B167
330
1B12F
100
AcDbEntity
  8
0
  6
CONTINUOUS
100
AcDbLine
 10
16.01551512670025
 20
4.248186053211494
 30
0.0
 11
15.04094222313957
 21
5.222758956772172
 31
0.0
  0
LINE
  5
1B168
330
1B12F
100
AcDbEntity
  8
0
  6
CONTINUOUS
100
AcDbLine
 10
12.90511304310612
 20
6.685068927725435
 30
0.0
 11
10.8270819708403
 21
8.763099999991255
 31
0.0
  0
LINE
  5
1B169
330
1B12F
100
AcDbEntity
  8
0
  6
CONTINUOUS
100
AcDbLine
 10
12.41513331849066
 20
7.848567861421083
 30
0.0
 11
11.50060117992049
 21
8.763099999991255
 31
0.0
  0
LINE
  5
1B16A
330
1B12F
100
AcDbEntity
  8
0
  6
CONTINUOUS
100
AcDbLine
 10
19.35714748038395
 20
1.580072908607975
 30
0.0
 11
17.03709479228923
 21
3.900125596702697
 31
0.0
  0
LINE
  5
1B16B
330
1B12F
100
AcDbEntity
  8
0
  6
CONTINUOUS
100
AcDbLine
 10
19.55672823115909
 20
2.054011366913028
 30
0.0
 11
16.63151396416958
 21
4.979225633902534
 31
0.0
  0
LINE
  5
1B16C
330
1B12F
100
AcDbEntity
  8
0
  6
CONTINUOUS
100
AcDbLine
 10
16.19956790346445
 20
4.737652485527476
 30
0.0
 11
15.22497139420302
 21
5.712248994788904
 31
0.0
  0
LINE
  5
1B16D
330
1B12F
100
AcDbEntity
  8
0
  6
CONTINUOUS
100
AcDbLine
 10
16.38362068022866
 20
5.227118917843457
 30
0.0
 11
15.40900056526648
 21
6.201739032805637
 31
0.0
  0
LINE
  5
1B16E
330
1B12F
100
AcDbEntity
  8
0
  6
CONTINUOUS
100
AcDbLine
 10
19.75630898193422
 20
2.527949825218081
 30
0.0
 11
18.70774536448286
 21
3.576513442669441
 31
0.0
  0
LINE
  5
1B16F
330
1B12F
100
AcDbEntity
  8
0
  6
CONTINUOUS
100
AcDbLine
 10
19.95588973270936
 20
3.001888283523134
 30
0.0
 11
18.90726987211446
 21
4.050508144118028
 31
0.0
  0
LINE
  5
1B170
330
1B12F
100
AcDbEntity
  8
0
  6
CONTINUOUS
100
AcDbLine
 10
20.15547048348449
 20
3.475826741828186
 30
0.0
 11
19.10679437974606
 21
4.524502845566614
 31
0.0
  0
LINE
  5
1B171
330
1B12F
100
AcDbEntity
  8
0
  6
CONTINUOUS
100
AcDbLine
 10
20.35505123425962
 20
3.94976520013324
 30
0.0
 11
19.30631888737766
 21
4.998497547015201
 31
0.0
  0
LINE
  5
1B172
330
1B12F
100
AcDbEntity
  8
0
  6
CONTINUOUS
100
AcDbLine
 10
20.55463198503475
 20
4.423703658438292
 30
0.0
 11
19.50584339500926
 21
5.472492248463787
 31
0.0
  0
LINE
  5
1B173
330
1B12F
100
AcDbEntity
  8
0
  6
CONTINUOUS
100
AcDbLine
 10
18.37481191085755
 20
3.909446896294752
 30
0.0
 11
15.59302973632993
 21
6.691229070822371
 31
0.0
  0
LINE
  5
1B174
330
1B12F
100
AcDbEntity
  8
0
  6
CONTINUOUS
100
AcDbLine
 10
17.96904084440766
 20
4.988737171824825
 30
0.0
 11
15.77705890739338
 21
7.180719108839104
 31
0.0
  0
LINE
  5
1B175
330
1B12F
100
AcDbEntity
  8
0
  6
CONTINUOUS
100
AcDbLine
 10
17.56326977795777
 20
6.068027447354899
 30
0.0
 11
15.96108807845684
 21
7.670209146855838
 31
0.0
  0
LINE
  5
1B176
330
1B12F
100
AcDbEntity
  8
0
  6
CONTINUOUS
100
AcDbLine
 10
17.15749871150789
 20
7.147317722884972
 30
0.0
 11
16.14511724952029
 21
8.15969918487257
 31
0.0
  0
LINE
  5
1B177
330
1B12F
100
AcDbEntity
  8
0
  6
CONTINUOUS
100
AcDbLine
 10
16.751727645058
 20
8.226607998415046
 30
0.0
 11
16.32914642058374
 21
8.649189222889303
 31
0.0
  0
LINE
  5
1B178
330
1B12F
100
AcDbEntity
  8
0
  6
CONTINUOUS
100
AcDbLine
 10
20.75421273580989
 20
4.897642116743345
 30
0.0
 11
19.70536790264086
 21
5.946486949912374
 31
0.0
  0
LINE
  5
1B179
330
1B12F
100
AcDbEntity
  8
0
  6
CONTINUOUS
100
AcDbLine
 10
20.95379348658502
 20
5.371580575048398
 30
0.0
 11
19.90489241027246
 21
6.42048165136096
 31
0.0
  0
LINE
  5
1B17A
330
1B12F
100
AcDbEntity
  8
0
  6
CONTINUOUS
100
AcDbLine
 10
21.15337423736015
 20
5.845519033353452
 30
0.0
 11
20.10441691790406
 21
6.894476352809547
 31
0.0
  0
LINE
  5
1B17B
330
1B12F
100
AcDbEntity
  8
0
  6
CONTINUOUS
100
AcDbLine
 10
21.35295498813529
 20
6.319457491658505
 30
0.0
 11
20.30394142553566
 21
7.368471054258134
 31
0.0
  0
LINE
  5
1B17C
330
1B12F
100
AcDbEntity
  8
0
  6
CONTINUOUS
100
AcDbLine
 10
21.55253573891042
 20
6.793395949963558
 30
0.0
 11
20.50346593316726
 21
7.842465755706721
 31
0.0
  0
LINE
  5
1B17D
330
1B12F
100
AcDbEntity
  8
0
  6
CONTINUOUS
100
AcDbLine
 10
21.75211648968556
 20
7.267334408268612
 30
0.0
 11
20.70299044079886
 21
8.316460457155308
 31
0.0
  0
LINE
  5
1B17E
330
1B12F
100
AcDbEntity
  8
0
  6
CONTINUOUS
100
AcDbLine
 10
21.95169724046069
 20
7.741272866573663
 30
0.0
 11
20.9298701070431
 21
8.763099999991256
 31
0.0
  0
LINE
  5
1B17F
330
1B12F
100
AcDbEntity
  8
0
  6
CONTINUOUS
100
AcDbLine
 10
22.15127799123582
 20
8.215211324878716
 30
0.0
 11
21.60338931612328
 21
8.763099999991256
 31
0.0
  0
LINE
  5
1B180
330
1B12F
100
AcDbEntity
  8
0
  6
CONTINUOUS
100
AcDbLine
 10
22.35085874201096
 20
8.689149783183769
 30
0.0
 11
22.27690852520347
 21
8.763099999991255
 31
0.0
  0
ENDBLK
  5
1B272
330
1B12F
100
AcDbEntity
  8
0
100
AcDbBlockEnd
  0
BLOCK
  5
1B273
330
1B181
100
AcDbEntity
  8
0
100
AcDbBlockBegin
  2
*X56
 70
     1
 10
0.0
 20
0.0
 30
0.0
  3
*X56
  1

  0
LINE
  5
1B182
330
1B181
100
AcDbEntity
  8
0
  6
CONTINUOUS
100
AcDbLine
 10
23.19462913593892
 20
8.169917934846424
 30
0.0
 11
23.70775465517246
 21
8.683043454079957
 31
0.0
  0
LINE
  5
1B183
330
1B181
100
AcDbEntity
  8
0
  6
CONTINUOUS
100
AcDbLine
 10
22.64923161835078
 20
6.951001208178088
 30
0.0
 11
23.9159364069932
 21
8.217705996820516
 31
0.0
  0
LINE
  5
1B184
330
1B181
100
AcDbEntity
  8
0
  6
CONTINUOUS
100
AcDbLine
 10
22.10383410076263
 20
5.732084481509751
 30
0.0
 11
24.12411815881395
 21
7.752368539561078
 31
0.0
  0
LINE
  5
1B185
330
1B181
100
AcDbEntity
  8
0
  6
CONTINUOUS
100
AcDbLine
 10
21.55843658317447
 20
4.513167754841414
 30
0.0
 11
24.3322999106347
 21
7.287031082301639
 31
0.0
  0
LINE
  5
1B186
330
1B181
100
AcDbEntity
  8
0
  6
CONTINUOUS
100
AcDbLine
 10
21.01303906558632
 20
3.294251028173077
 30
0.0
 11
24.54048166245544
 21
6.821693625042199
 31
0.0
  0
LINE
  5
1B187
330
1B181
100
AcDbEntity
  8
0
  6
CONTINUOUS
100
AcDbLine
 10
20.46764154799817
 20
2.075334301504738
 30
0.0
 11
23.28571549467848
 21
4.89340824818505
 31
0.0
  0
LINE
  5
1B188
330
1B181
100
AcDbEntity
  8
0
  6
CONTINUOUS
100
AcDbLine
 10
19.92224403041002
 20
0.8564175748364002
 30
0.0
 11
22.74075865492779
 21
3.674932199354171
 31
0.0
  0
LINE
  5
1B189
330
1B181
100
AcDbEntity
  8
0
  6
CONTINUOUS
100
AcDbLine
 10
23.67305085490148
 20
5.280743608408048
 30
0.0
 11
24.74866341427619
 21
6.356356167782759
 31
0.0
  0
LINE
  5
1B18A
330
1B181
100
AcDbEntity
  8
0
  6
CONTINUOUS
100
AcDbLine
 10
23.88118970842314
 20
4.815363252849522
 30
0.0
 11
24.95684516609694
 21
5.89101871052332
 31
0.0
  0
LINE
  5
1B18B
330
1B181
100
AcDbEntity
  8
0
  6
CONTINUOUS
100
AcDbLine
 10
19.73925852647308
 20
-0.0000871381807288
 30
0.0
 11
23.4103456646501
 21
3.670999999996297
 31
0.0
  0
LINE
  5
1B18C
330
1B181
100
AcDbEntity
  8
0
  6
CONTINUOUS
100
AcDbLine
 10
24.0893285619448
 20
4.349982897290997
 30
0.0
 11
25.16502691791769
 21
5.42568125326388
 31
0.0
  0
LINE
  5
1B18D
330
1B181
100
AcDbEntity
  8
0
  6
CONTINUOUS
100
AcDbLine
 10
20.41282099582748
 20
-0.0000438779065108
 30
0.0
 11
21.64944178675636
 21
1.236576913022366
 31
0.0
  0
LINE
  5
1B18E
330
1B181
100
AcDbEntity
  8
0
  6
CONTINUOUS
100
AcDbLine
 10
22.78126487373161
 20
2.36839999999762
 30
0.0
 11
24.08386487373029
 21
3.670999999996297
 31
0.0
  0
LINE
  5
1B18F
330
1B181
100
AcDbEntity
  8
0
  6
CONTINUOUS
100
AcDbLine
 10
24.29746741546646
 20
3.884602541732471
 30
0.0
 11
25.37320866973843
 21
4.960343796004441
 31
0.0
  0
LINE
  5
1B190
330
1B181
100
AcDbEntity
  8
0
  6
CONTINUOUS
100
AcDbLine
 10
21.08638346518189
 20
-0.0000006176322938
 30
0.0
 11
21.10379033335899
 21
0.0174062505448083
 31
0.0
  0
LINE
  5
1B191
330
1B181
100
AcDbEntity
  8
0
  6
CONTINUOUS
100
AcDbLine
 10
23.4547840828118
 20
2.36839999999762
 30
0.0
 11
25.58139042155918
 21
4.495006338745002
 31
0.0
  0
LINE
  5
1B192
330
1B181
100
AcDbEntity
  8
0
  6
CONTINUOUS
100
AcDbLine
 10
29.30199999996933
 20
8.215615917155148
 30
0.0
 11
29.84948408280543
 21
8.763099999991255
 31
0.0
  0
LINE
  5
1B193
330
1B181
100
AcDbEntity
  8
0
  6
CONTINUOUS
100
AcDbLine
 10
24.12830329189199
 20
2.36839999999762
 30
0.0
 11
25.78957217337993
 21
4.029668881485562
 31
0.0
  0
LINE
  5
1B194
330
1B181
100
AcDbEntity
  8
0
  6
CONTINUOUS
100
AcDbLine
 10
29.30199999996933
 20
7.54209670807496
 30
0.0
 11
30.52300329188562
 21
8.763099999991255
 31
0.0
  0
LINE
  5
1B195
330
1B181
100
AcDbEntity
  8
0
  6
CONTINUOUS
100
AcDbLine
 10
24.80182250097217
 20
2.36839999999762
 30
0.0
 11
25.99775392520067
 21
3.564331424226122
 31
0.0
  0
LINE
  5
1B196
330
1B181
100
AcDbEntity
  8
0
  6
CONTINUOUS
100
AcDbLine
 10
29.30199999996933
 20
6.868577498994774
 30
0.0
 11
30.74199999996926
 21
8.308577498994712
 31
0.0
  0
LINE
  5
1B197
330
1B181
100
AcDbEntity
  8
0
  6
CONTINUOUS
100
AcDbLine
 10
25.13028238392013
 20
2.023340673865392
 30
0.0
 11
26.20593567702142
 21
3.098993966966683
 31
0.0
  0
LINE
  5
1B198
330
1B181
100
AcDbEntity
  8
0
  6
CONTINUOUS
100
AcDbLine
 10
25.33838066033617
 20
1.557919741201244
 30
0.0
 11
26.41411742884217
 21
2.633656509707244
 31
0.0
  0
LINE
  5
1B199
330
1B181
100
AcDbEntity
  8
0
  6
CONTINUOUS
100
AcDbLine
 10
25.54647893675221
 20
1.092498808537098
 30
0.0
 11
26.62229918066291
 21
2.168319052447804
 31
0.0
  0
LINE
  5
1B19A
330
1B181
100
AcDbEntity
  8
0
  6
CONTINUOUS
100
AcDbLine
 10
25.75457721316825
 20
0.62707787587295
 30
0.0
 11
26.83048093248366
 21
1.702981595188365
 31
0.0
  0
LINE
  5
1B19B
330
1B181
100
AcDbEntity
  8
0
  6
CONTINUOUS
100
AcDbLine
 10
29.30199999996933
 20
6.195058289914587
 30
0.0
 11
30.74199999996926
 21
7.635058289914522
 31
0.0
  0
LINE
  5
1B19C
330
1B181
100
AcDbEntity
  8
0
  6
CONTINUOUS
100
AcDbLine
 10
29.30199999996933
 20
5.521539080834401
 30
0.0
 11
30.74199999996926
 21
6.961539080834331
 31
0.0
  0
LINE
  5
1B19D
330
1B181
100
AcDbEntity
  8
0
  6
CONTINUOUS
100
AcDbLine
 10
29.30199999996933
 20
4.848019871754214
 30
0.0
 11
30.74199999996925
 21
6.288019871754143
 31
0.0
  0
LINE
  5
1B19E
330
1B181
100
AcDbEntity
  8
0
  6
CONTINUOUS
100
AcDbLine
 10
29.30199999996933
 20
4.174500662674028
 30
0.0
 11
30.74199999996925
 21
5.614500662673953
 31
0.0
  0
LINE
  5
1B19F
330
1B181
100
AcDbEntity
  8
0
  6
CONTINUOUS
100
AcDbLine
 10
25.96267548958429
 20
0.1616569432088024
 30
0.0
 11
27.18411854636669
 21
1.383099999991207
 31
0.0
  0
LINE
  5
1B1A0
330
1B181
100
AcDbEntity
  8
0
  6
CONTINUOUS
100
AcDbLine
 10
29.30199999996933
 20
3.500981453593841
 30
0.0
 11
30.74199999996925
 21
4.940981453593762
 31
0.0
  0
LINE
  5
1B1A1
330
1B181
100
AcDbEntity
  8
0
  6
CONTINUOUS
100
AcDbLine
 10
26.50763775544691
 20
0.0330999999912356
 30
0.0
 11
27.85763775544689
 21
1.383099999991223
 31
0.0
  0
LINE
  5
1B1A2
330
1B181
100
AcDbEntity
  8
0
  6
CONTINUOUS
100
AcDbLine
 10
29.30199999996933
 20
2.827462244513656
 30
0.0
 11
30.74199999996925
 21
4.267462244513574
 31
0.0
  0
LINE
  5
1B1A3
330
1B181
100
AcDbEntity
  8
0
  6
CONTINUOUS
100
AcDbLine
 10
27.18115696452709
 20
0.0330999999912356
 30
0.0
 11
28.55073879889363
 21
1.402681834357775
 31
0.0
  0
LINE
  5
1B1A4
330
1B181
100
AcDbEntity
  8
0
  6
CONTINUOUS
100
AcDbLine
 10
29.28241816560272
 20
2.134361201066866
 30
0.0
 11
30.74199999996924
 21
3.593943035433383
 31
0.0
  0
LINE
  5
1B1A5
330
1B181
100
AcDbEntity
  8
0
  6
CONTINUOUS
100
AcDbLine
 10
27.85467617360728
 20
0.0330999999912356
 30
0.0
 11
30.74199999996924
 21
2.920423826353195
 31
0.0
  0
LINE
  5
1B1A6
330
1B181
100
AcDbEntity
  8
0
  6
CONTINUOUS
100
AcDbLine
 10
28.53897559587887
 20
0.0438802131826428
 30
0.0
 11
30.73121978677781
 21
2.236124404081585
 31
0.0
  0
LINE
  5
1B1A7
330
1B181
100
AcDbEntity
  8
0
  6
CONTINUOUS
100
AcDbLine
 10
29.45140055588722
 20
0.2827859641107988
 30
0.0
 11
30.49231403584965
 21
1.323699444073236
 31
0.0
  0
LINE
  5
1B1A8
330
1B181
100
AcDbEntity
  8
0
  6
CONTINUOUS
100
AcDbLine
 10
19.59027867740337
 20
-0.0000967065718083
 30
0.0
 11
19.55485265190471
 21
0.035329318926844
 31
0.0
  0
LINE
  5
1B1A9
330
1B181
100
AcDbEntity
  8
0
  6
CONTINUOUS
100
AcDbLine
 10
20.26375463176586
 20
-0.0000534518541091
 30
0.0
 11
19.76305575737534
 21
0.5006454225364014
 31
0.0
  0
LINE
  5
1B1AA
330
1B181
100
AcDbEntity
  8
0
  6
CONTINUOUS
100
AcDbLine
 10
20.93723058612834
 20
-0.0000101971364099
 30
0.0
 11
19.97125886284597
 21
0.965961526145958
 31
0.0
  0
LINE
  5
1B1AB
330
1B181
100
AcDbEntity
  8
0
  6
CONTINUOUS
100
AcDbLine
 10
21.25514828313686
 20
0.355591314935257
 30
0.0
 11
20.1794619683166
 21
1.431277629755512
 31
0.0
  0
LINE
  5
1B1AC
330
1B181
100
AcDbEntity
  8
0
  6
CONTINUOUS
100
AcDbLine
 10
21.46338838394921
 20
0.8208704232030986
 30
0.0
 11
20.38766507378723
 21
1.896593733365069
 31
0.0
  0
LINE
  5
1B1AD
330
1B181
100
AcDbEntity
  8
0
  6
CONTINUOUS
100
AcDbLine
 10
21.67162848476155
 20
1.28614953147094
 30
0.0
 11
20.59586817925786
 21
2.361909836974626
 31
0.0
  0
LINE
  5
1B1AE
330
1B181
100
AcDbEntity
  8
0
  6
CONTINUOUS
100
AcDbLine
 10
21.8798685855739
 20
1.751428639738782
 30
0.0
 11
20.80407128472849
 21
2.827225940584183
 31
0.0
  0
LINE
  5
1B1AF
330
1B181
100
AcDbEntity
  8
0
  6
CONTINUOUS
100
AcDbLine
 10
22.08810868638624
 20
2.216707748006623
 30
0.0
 11
21.01227439019912
 21
3.292542044193739
 31
0.0
  0
LINE
  5
1B1B0
330
1B181
100
AcDbEntity
  8
0
  6
CONTINUOUS
100
AcDbLine
 10
22.60993564347543
 20
2.36839999999762
 30
0.0
 11
21.22047749566975
 21
3.757858147803296
 31
0.0
  0
LINE
  5
1B1B1
330
1B181
100
AcDbEntity
  8
0
  6
CONTINUOUS
100
AcDbLine
 10
23.28345485255561
 20
2.36839999999762
 30
0.0
 11
21.42868060114038
 21
4.223174251412853
 31
0.0
  0
LINE
  5
1B1B2
330
1B181
100
AcDbEntity
  8
0
  6
CONTINUOUS
100
AcDbLine
 10
26.29227406164219
 20
0.0330999999912356
 30
0.0
 11
25.80009199592872
 21
0.5252820657046957
 31
0.0
  0
LINE
  5
1B1B3
330
1B181
100
AcDbEntity
  8
0
  6
CONTINUOUS
100
AcDbLine
 10
23.9569740616358
 20
2.36839999999762
 30
0.0
 11
21.63688370661101
 21
4.688490355022409
 31
0.0
  0
LINE
  5
1B1B4
330
1B181
100
AcDbEntity
  8
0
  6
CONTINUOUS
100
AcDbLine
 10
26.96579327072237
 20
0.0330999999912356
 30
0.0
 11
25.2554132311971
 21
1.743480039516508
 31
0.0
  0
LINE
  5
1B1B5
330
1B181
100
AcDbEntity
  8
0
  6
CONTINUOUS
100
AcDbLine
 10
24.63049327071599
 20
2.36839999999762
 30
0.0
 11
23.32789327071731
 21
3.670999999996297
 31
0.0
  0
LINE
  5
1B1B6
330
1B181
100
AcDbEntity
  8
0
  6
CONTINUOUS
100
AcDbLine
 10
22.92098674744635
 20
4.077906523267254
 30
0.0
 11
21.84508681208164
 21
5.153806458631966
 31
0.0
  0
LINE
  5
1B1B7
330
1B181
100
AcDbEntity
  8
0
  6
CONTINUOUS
100
AcDbLine
 10
27.63931247980256
 20
0.0330999999912356
 30
0.0
 11
24.0014124797975
 21
3.670999999996297
 31
0.0
  0
LINE
  5
1B1B8
330
1B181
100
AcDbEntity
  8
0
  6
CONTINUOUS
100
AcDbLine
 10
23.129125600968
 20
4.5432868788258
 30
0.0
 11
22.05328991755227
 21
5.619122562241522
 31
0.0
  0
LINE
  5
1B1B9
330
1B181
100
AcDbEntity
  8
0
  6
CONTINUOUS
100
AcDbLine
 10
28.31283168888275
 20
0.0330999999912356
 30
0.0
 11
24.16488385994816
 21
4.181047828925828
 31
0.0
  0
LINE
  5
1B1BA
330
1B181
100
AcDbEntity
  8
0
  6
CONTINUOUS
100
AcDbLine
 10
23.33726445448964
 20
5.008667234384345
 30
0.0
 11
22.2614930230229
 21
6.084438665851079
 31
0.0
  0
LINE
  5
1B1BB
330
1B181
100
AcDbEntity
  8
0
  6
CONTINUOUS
100
AcDbLine
 10
28.92085740005492
 20
0.0985934978992438
 30
0.0
 11
27.63635089796295
 21
1.383099999991217
 31
0.0
  0
LINE
  5
1B1BC
330
1B181
100
AcDbEntity
  8
0
  6
CONTINUOUS
100
AcDbLine
 10
26.43704649509776
 20
2.582404402856405
 30
0.0
 11
23.61992702019732
 21
5.399523877756844
 31
0.0
  0
LINE
  5
1B1BD
330
1B181
100
AcDbEntity
  8
0
  6
CONTINUOUS
100
AcDbLine
 10
23.54540330801128
 20
5.47404758994289
 30
0.0
 11
22.46969612849353
 21
6.549754769460635
 31
0.0
  0
LINE
  5
1B1BE
330
1B181
100
AcDbEntity
  8
0
  6
CONTINUOUS
100
AcDbLine
 10
29.42225615078443
 20
0.2707139562499279
 30
0.0
 11
28.30987010704312
 21
1.383099999991234
 31
0.0
  0
LINE
  5
1B1BF
330
1B181
100
AcDbEntity
  8
0
  6
CONTINUOUS
100
AcDbLine
 10
25.89179548232307
 20
3.801174624711282
 30
0.0
 11
22.67789923396416
 21
7.015070873070191
 31
0.0
  0
LINE
  5
1B1C0
330
1B181
100
AcDbEntity
  8
0
  6
CONTINUOUS
100
AcDbLine
 10
29.83624534690007
 20
0.5302439692144705
 30
0.0
 11
28.85811781497101
 21
1.508371501143527
 31
0.0
  0
LINE
  5
1B1C1
330
1B181
100
AcDbEntity
  8
0
  6
CONTINUOUS
100
AcDbLine
 10
25.34654446954838
 20
5.01994484656616
 30
0.0
 11
22.88610233943479
 21
7.480386976679748
 31
0.0
  0
LINE
  5
1B1C2
330
1B181
100
AcDbEntity
  8
0
  6
CONTINUOUS
100
AcDbLine
 10
30.17865975401872
 20
0.8613487711760022
 30
0.0
 11
29.18888744090175
 21
1.851121084292977
 31
0.0
  0
LINE
  5
1B1C3
330
1B181
100
AcDbEntity
  8
0
  6
CONTINUOUS
100
AcDbLine
 10
24.80129345677369
 20
6.238715068421037
 30
0.0
 11
23.09430544490542
 21
7.945703080289305
 31
0.0
  0
LINE
  5
1B1C4
330
1B181
100
AcDbEntity
  8
0
  6
CONTINUOUS
100
AcDbLine
 10
30.45496647202376
 20
1.258561262251155
 30
0.0
 11
29.30199999996933
 21
2.411527734305588
 31
0.0
  0
LINE
  5
1B1C5
330
1B181
100
AcDbEntity
  8
0
  6
CONTINUOUS
100
AcDbLine
 10
24.256042443999
 20
7.457485290275915
 30
0.0
 11
23.30250855037605
 21
8.411019183898862
 31
0.0
  0
LINE
  5
1B1C6
330
1B181
100
AcDbEntity
  8
0
  6
CONTINUOUS
100
AcDbLine
 10
30.64868582078271
 20
1.738361122572387
 30
0.0
 11
29.30199999996933
 21
3.085046943385775
 31
0.0
  0
LINE
  5
1B1C7
330
1B181
100
AcDbEntity
  8
0
  6
CONTINUOUS
100
AcDbLine
 10
23.71079143122431
 20
8.676255512130794
 30
0.0
 11
23.51071165584668
 21
8.876335287508416
 31
0.0
  0
LINE
  5
1B1C8
330
1B181
100
AcDbEntity
  8
0
  6
CONTINUOUS
100
AcDbLine
 10
30.73802122914428
 20
2.322544923291007
 30
0.0
 11
29.30199999996933
 21
3.758566152465961
 31
0.0
  0
LINE
  5
1B1C9
330
1B181
100
AcDbEntity
  8
0
  6
CONTINUOUS
100
AcDbLine
 10
30.74199999996924
 20
2.992085361546236
 30
0.0
 11
29.30199999996933
 21
4.432085361546148
 31
0.0
  0
LINE
  5
1B1CA
330
1B181
100
AcDbEntity
  8
0
  6
CONTINUOUS
100
AcDbLine
 10
30.74199999996924
 20
3.665604570626419
 30
0.0
 11
29.30199999996933
 21
5.105604570626333
 31
0.0
  0
LINE
  5
1B1CB
330
1B181
100
AcDbEntity
  8
0
  6
CONTINUOUS
100
AcDbLine
 10
30.74199999996925
 20
4.339123779706602
 30
0.0
 11
29.30199999996933
 21
5.77912377970652
 31
0.0
  0
LINE
  5
1B1CC
330
1B181
100
AcDbEntity
  8
0
  6
CONTINUOUS
100
AcDbLine
 10
30.74199999996925
 20
5.012642988786785
 30
0.0
 11
29.30199999996933
 21
6.452642988786707
 31
0.0
  0
LINE
  5
1B1CD
330
1B181
100
AcDbEntity
  8
0
  6
CONTINUOUS
100
AcDbLine
 10
30.74199999996925
 20
5.68616219786697
 30
0.0
 11
29.30199999996933
 21
7.126162197866894
 31
0.0
  0
LINE
  5
1B1CE
330
1B181
100
AcDbEntity
  8
0
  6
CONTINUOUS
100
AcDbLine
 10
30.74199999996925
 20
6.359681406947153
 30
0.0
 11
29.30199999996933
 21
7.799681406947081
 31
0.0
  0
LINE
  5
1B1CF
330
1B181
100
AcDbEntity
  8
0
  6
CONTINUOUS
100
AcDbLine
 10
30.74199999996926
 20
7.033200616027337
 30
0.0
 11
29.30199999996933
 21
8.473200616027269
 31
0.0
  0
LINE
  5
1B1D0
330
1B181
100
AcDbEntity
  8
0
  6
CONTINUOUS
100
AcDbLine
 10
30.74199999996926
 20
7.706719825107518
 30
0.0
 11
29.68561982508552
 21
8.763099999991255
 31
0.0
  0
LINE
  5
1B1D1
330
1B181
100
AcDbEntity
  8
0
  6
CONTINUOUS
100
AcDbLine
 10
30.74199999996926
 20
8.380239034187703
 30
0.0
 11
30.35913903416571
 21
8.763099999991255
 31
0.0
  0
ENDBLK
  5
1B274
330
1B181
100
AcDbEntity
  8
0
100
AcDbBlockEnd
  0
BLOCK
  5
1B275
330
1B1D2
100
AcDbEntity
  8
0
100
AcDbBlockBegin
  2
*X57
 70
     1
 10
0.0
 20
0.0
 30
0.0
  3
*X57
  1

  0
LINE
  5
1B1D3
330
1B1D2
100
AcDbEntity
  8
0
  6
CONTINUOUS
100
AcDbLine
 10
31.64199999996833
 20
8.535058289913598
 30
0.0
 11
31.87004171004599
 21
8.763099999991255
 31
0.0
  0
LINE
  5
1B1D4
330
1B1D2
100
AcDbEntity
  8
0
  6
CONTINUOUS
100
AcDbLine
 10
31.64199999996833
 20
7.861539080833412
 30
0.0
 11
32.54356091912618
 21
8.763099999991255
 31
0.0
  0
LINE
  5
1B1D5
330
1B1D2
100
AcDbEntity
  8
0
  6
CONTINUOUS
100
AcDbLine
 10
31.64199999996833
 20
7.188019871753226
 30
0.0
 11
33.08199999996839
 21
8.628019871753281
 31
0.0
  0
LINE
  5
1B1D6
330
1B1D2
100
AcDbEntity
  8
0
  6
CONTINUOUS
100
AcDbLine
 10
31.64199999996833
 20
6.51450066267304
 30
0.0
 11
33.08199999996839
 21
7.954500662673095
 31
0.0
  0
LINE
  5
1B1D7
330
1B1D2
100
AcDbEntity
  8
0
  6
CONTINUOUS
100
AcDbLine
 10
31.64199999996833
 20
5.840981453592853
 30
0.0
 11
33.08199999996839
 21
7.280981453592908
 31
0.0
  0
LINE
  5
1B1D8
330
1B1D2
100
AcDbEntity
  8
0
  6
CONTINUOUS
100
AcDbLine
 10
31.64199999996833
 20
5.167462244512667
 30
0.0
 11
33.08199999996839
 21
6.607462244512721
 31
0.0
  0
LINE
  5
1B1D9
330
1B1D2
100
AcDbEntity
  8
0
  6
CONTINUOUS
100
AcDbLine
 10
31.64199999996833
 20
4.493943035432481
 30
0.0
 11
33.08199999996839
 21
5.933943035432535
 31
0.0
  0
LINE
  5
1B1DA
330
1B1D2
100
AcDbEntity
  8
0
  6
CONTINUOUS
100
AcDbLine
 10
31.64199999996833
 20
3.820423826352293
 30
0.0
 11
33.08199999996839
 21
5.260423826352348
 31
0.0
  0
LINE
  5
1B1DB
330
1B1D2
100
AcDbEntity
  8
0
  6
CONTINUOUS
100
AcDbLine
 10
31.64199999996833
 20
3.146904617272106
 30
0.0
 11
33.08199999996839
 21
4.586904617272161
 31
0.0
  0
LINE
  5
1B1DC
330
1B1D2
100
AcDbEntity
  8
0
  6
CONTINUOUS
100
AcDbLine
 10
36.23199999996837
 20
8.410423826352325
 30
0.0
 11
36.5846761736073
 21
8.763099999991255
 31
0.0
  0
LINE
  5
1B1DD
330
1B1D2
100
AcDbEntity
  8
0
  6
CONTINUOUS
100
AcDbLine
 10
36.23199999996837
 20
7.73690461727214
 30
0.0
 11
37.25819538268748
 21
8.763099999991255
 31
0.0
  0
LINE
  5
1B1DE
330
1B1D2
100
AcDbEntity
  8
0
  6
CONTINUOUS
100
AcDbLine
 10
31.64257403601376
 20
2.473959444237348
 30
0.0
 11
33.08199999996839
 21
3.913385408191974
 31
0.0
  0
LINE
  5
1B1DF
330
1B1D2
100
AcDbEntity
  8
0
  6
CONTINUOUS
100
AcDbLine
 10
36.23199999996837
 20
7.063385408191953
 30
0.0
 11
37.67199999996831
 21
8.503385408191894
 31
0.0
  0
LINE
  5
1B1E0
330
1B1D2
100
AcDbEntity
  8
0
  6
CONTINUOUS
100
AcDbLine
 10
31.72013636841932
 20
1.87800256756272
 30
0.0
 11
33.08199999996839
 21
3.239866199111788
 31
0.0
  0
LINE
  5
1B1E1
330
1B1D2
100
AcDbEntity
  8
0
  6
CONTINUOUS
100
AcDbLine
 10
36.23199999996837
 20
6.389866199111767
 30
0.0
 11
37.67199999996831
 21
7.829866199111708
 31
0.0
  0
LINE
  5
1B1E2
330
1B1D2
100
AcDbEntity
  8
0
  6
CONTINUOUS
100
AcDbLine
 10
31.89042734314753
 20
1.374774333210744
 30
0.0
 11
33.08199999996839
 21
2.566346990031601
 31
0.0
  0
LINE
  5
1B1E3
330
1B1D2
100
AcDbEntity
  8
0
  6
CONTINUOUS
100
AcDbLine
 10
36.23199999996837
 20
5.71634699003158
 30
0.0
 11
37.67199999996831
 21
7.156346990031521
 31
0.0
  0
LINE
  5
1B1E4
330
1B1D2
100
AcDbEntity
  8
0
  6
CONTINUOUS
100
AcDbLine
 10
32.14210568064475
 20
0.952933461627778
 30
0.0
 11
33.18745552475986
 21
1.998283305742888
 31
0.0
  0
LINE
  5
1B1E5
330
1B1D2
100
AcDbEntity
  8
0
  6
CONTINUOUS
100
AcDbLine
 10
36.23199999996837
 20
5.042827780951393
 30
0.0
 11
37.67199999996831
 21
6.482827780951334
 31
0.0
  0
LINE
  5
1B1E6
330
1B1D2
100
AcDbEntity
  8
0
  6
CONTINUOUS
100
AcDbLine
 10
32.45820639400955
 20
0.5955149659123915
 30
0.0
 11
33.47242681921943
 21
1.60973539112227
 31
0.0
  0
LINE
  5
1B1E7
330
1B1D2
100
AcDbEntity
  8
0
  6
CONTINUOUS
100
AcDbLine
 10
36.23199999996837
 20
4.369308571871207
 30
0.0
 11
37.67199999996831
 21
5.809308571871147
 31
0.0
  0
LINE
  5
1B1E8
330
1B1D2
100
AcDbEntity
  8
0
  6
CONTINUOUS
100
AcDbLine
 10
32.83432456621412
 20
0.2981139290367771
 30
0.0
 11
33.89722476612215
 21
1.361014128944803
 31
0.0
  0
LINE
  5
1B1E9
330
1B1D2
100
AcDbEntity
  8
0
  6
CONTINUOUS
100
AcDbLine
 10
36.23199999996837
 20
3.69578936279102
 30
0.0
 11
37.67199999996831
 21
5.135789362790962
 31
0.0
  0
LINE
  5
1B1EA
330
1B1D2
100
AcDbEntity
  8
0
  6
CONTINUOUS
100
AcDbLine
 10
33.2711633111245
 20
0.0614334648669672
 30
0.0
 11
34.43247338014423
 21
1.222743533886696
 31
0.0
  0
LINE
  5
1B1EB
330
1B1D2
100
AcDbEntity
  8
0
  6
CONTINUOUS
100
AcDbLine
 10
36.23199999996837
 20
3.022270153710834
 30
0.0
 11
37.67199999996831
 21
4.462270153710775
 31
0.0
  0
LINE
  5
1B1EC
330
1B1D2
100
AcDbEntity
  8
0
  6
CONTINUOUS
100
AcDbLine
 10
33.76515245874577
 20
-0.1180965965919523
 30
0.0
 11
35.1587445516215
 21
1.27549549628378
 31
0.0
  0
LINE
  5
1B1ED
330
1B1D2
100
AcDbEntity
  8
0
  6
CONTINUOUS
100
AcDbLine
 10
36.21639478609585
 20
2.333145730758136
 30
0.0
 11
37.67199999996831
 21
3.788750944630588
 31
0.0
  0
LINE
  5
1B1EE
330
1B1D2
100
AcDbEntity
  8
0
  6
CONTINUOUS
100
AcDbLine
 10
34.34060583368432
 20
-0.2161624307335863
 30
0.0
 11
37.67199999996831
 21
3.115231735550401
 31
0.0
  0
LINE
  5
1B1EF
330
1B1D2
100
AcDbEntity
  8
0
  6
CONTINUOUS
100
AcDbLine
 10
35.01698193613905
 20
-0.2133055373590427
 30
0.0
 11
37.66876712070525
 21
2.438479647207154
 31
0.0
  0
LINE
  5
1B1F0
330
1B1D2
100
AcDbEntity
  8
0
  6
CONTINUOUS
100
AcDbLine
 10
35.90743367693304
 20
0.0036269943547609
 30
0.0
 11
37.51723902192366
 21
1.613432339345381
 31
0.0
  0
LINE
  5
1B1F1
330
1B1D2
100
AcDbEntity
  8
0
  6
CONTINUOUS
100
AcDbLine
 10
32.55309425579761
 20
0.5074718966376706
 30
0.0
 11
32.27784730925847
 21
0.7827188431768102
 31
0.0
  0
LINE
  5
1B1F2
330
1B1D2
100
AcDbEntity
  8
0
  6
CONTINUOUS
100
AcDbLine
 10
33.87496468909684
 20
-0.1408793275813673
 30
0.0
 11
31.67993083278052
 21
2.054154528734943
 31
0.0
  0
LINE
  5
1B1F3
330
1B1D2
100
AcDbEntity
  8
0
  6
CONTINUOUS
100
AcDbLine
 10
34.64362813207632
 20
-0.2360235614806649
 30
0.0
 11
31.64199999996833
 21
2.765604570627322
 31
0.0
  0
LINE
  5
1B1F4
330
1B1D2
100
AcDbEntity
  8
0
  6
CONTINUOUS
100
AcDbLine
 10
35.25801106796118
 20
-0.1768872882853429
 30
0.0
 11
31.64199999996833
 21
3.439123779707508
 31
0.0
  0
LINE
  5
1B1F5
330
1B1D2
100
AcDbEntity
  8
0
  6
CONTINUOUS
100
AcDbLine
 10
35.79065650332146
 20
-0.0360135145654361
 30
0.0
 11
34.54143210838231
 21
1.213210880373721
 31
0.0
  0
LINE
  5
1B1F6
330
1B1D2
100
AcDbEntity
  8
0
  6
CONTINUOUS
100
AcDbLine
 10
33.08199999996839
 20
2.67264298878764
 30
0.0
 11
31.64199999996833
 21
4.112642988787695
 31
0.0
  0
LINE
  5
1B1F7
330
1B1D2
100
AcDbEntity
  8
0
  6
CONTINUOUS
100
AcDbLine
 10
36.25975597779143
 20
0.1684062200447833
 30
0.0
 11
35.15395110240023
 21
1.274211095435983
 31
0.0
  0
LINE
  5
1B1F8
330
1B1D2
100
AcDbEntity
  8
0
  6
CONTINUOUS
100
AcDbLine
 10
33.08199999996839
 20
3.346162197867826
 30
0.0
 11
31.64199999996833
 21
4.786162197867881
 31
0.0
  0
LINE
  5
1B1F9
330
1B1D2
100
AcDbEntity
  8
0
  6
CONTINUOUS
100
AcDbLine
 10
36.67226329638774
 20
0.4294181105286579
 30
0.0
 11
35.63766478748767
 21
1.464016619428737
 31
0.0
  0
LINE
  5
1B1FA
330
1B1D2
100
AcDbEntity
  8
0
  6
CONTINUOUS
100
AcDbLine
 10
33.08199999996839
 20
4.019681406948012
 30
0.0
 11
31.64199999996833
 21
5.459681406948068
 31
0.0
  0
LINE
  5
1B1FB
330
1B1D2
100
AcDbEntity
  8
0
  6
CONTINUOUS
100
AcDbLine
 10
37.01677749710036
 20
0.7584231188962329
 30
0.0
 11
35.99563422741351
 21
1.779566388583076
 31
0.0
  0
LINE
  5
1B1FC
330
1B1D2
100
AcDbEntity
  8
0
  6
CONTINUOUS
100
AcDbLine
 10
33.08199999996839
 20
4.693200616028199
 30
0.0
 11
31.64199999996833
 21
6.133200616028255
 31
0.0
  0
LINE
  5
1B1FD
330
1B1D2
100
AcDbEntity
  8
0
  6
CONTINUOUS
100
AcDbLine
 10
37.29859977568887
 20
1.1501200493879
 30
0.0
 11
36.20680593341555
 21
2.241913891661226
 31
0.0
  0
LINE
  5
1B1FE
330
1B1D2
100
AcDbEntity
  8
0
  6
CONTINUOUS
100
AcDbLine
 10
33.08199999996839
 20
5.366719825108386
 30
0.0
 11
31.64199999996833
 21
6.80671982510844
 31
0.0
  0
LINE
  5
1B1FF
330
1B1D2
100
AcDbEntity
  8
0
  6
CONTINUOUS
100
AcDbLine
 10
37.5148623517228
 20
1.607376682434161
 30
0.0
 11
36.23199999996837
 21
2.890239034188594
 31
0.0
  0
LINE
  5
1B200
330
1B1D2
100
AcDbEntity
  8
0
  6
CONTINUOUS
100
AcDbLine
 10
33.08199999996839
 20
6.040239034188573
 30
0.0
 11
31.64199999996833
 21
7.480239034188627
 31
0.0
  0
LINE
  5
1B201
330
1B1D2
100
AcDbEntity
  8
0
  6
CONTINUOUS
100
AcDbLine
 10
37.64705163358367
 20
2.148706609653477
 30
0.0
 11
36.23199999996837
 21
3.56375824326878
 31
0.0
  0
LINE
  5
1B202
330
1B1D2
100
AcDbEntity
  8
0
  6
CONTINUOUS
100
AcDbLine
 10
33.08199999996839
 20
6.713758243268758
 30
0.0
 11
31.64199999996833
 21
8.153758243268815
 31
0.0
  0
LINE
  5
1B203
330
1B1D2
100
AcDbEntity
  8
0
  6
CONTINUOUS
100
AcDbLine
 10
37.67199999996831
 20
2.797277452349026
 30
0.0
 11
36.23199999996837
 21
4.237277452348967
 31
0.0
  0
LINE
  5
1B204
330
1B1D2
100
AcDbEntity
  8
0
  6
CONTINUOUS
100
AcDbLine
 10
37.67199999996831
 20
3.470796661429213
 30
0.0
 11
36.23199999996837
 21
4.910796661429154
 31
0.0
  0
LINE
  5
1B205
330
1B1D2
100
AcDbEntity
  8
0
  6
CONTINUOUS
100
AcDbLine
 10
37.67199999996831
 20
4.144315870509399
 30
0.0
 11
36.23199999996837
 21
5.58431587050934
 31
0.0
  0
LINE
  5
1B206
330
1B1D2
100
AcDbEntity
  8
0
  6
CONTINUOUS
100
AcDbLine
 10
33.08199999996839
 20
7.387277452348945
 30
0.0
 11
31.70617745232608
 21
8.763099999991255
 31
0.0
  0
LINE
  5
1B207
330
1B1D2
100
AcDbEntity
  8
0
  6
CONTINUOUS
100
AcDbLine
 10
33.08199999996839
 20
8.060796661429132
 30
0.0
 11
32.37969666140626
 21
8.763099999991255
 31
0.0
  0
LINE
  5
1B208
330
1B1D2
100
AcDbEntity
  8
0
  6
CONTINUOUS
100
AcDbLine
 10
33.08199999996839
 20
8.734315870509318
 30
0.0
 11
33.05321587048645
 21
8.763099999991255
 31
0.0
  0
LINE
  5
1B209
330
1B1D2
100
AcDbEntity
  8
0
  6
CONTINUOUS
100
AcDbLine
 10
37.67199999996831
 20
4.817835079589585
 30
0.0
 11
36.23199999996837
 21
6.257835079589526
 31
0.0
  0
LINE
  5
1B20A
330
1B1D2
100
AcDbEntity
  8
0
  6
CONTINUOUS
100
AcDbLine
 10
37.67199999996831
 20
5.491354288669771
 30
0.0
 11
36.23199999996837
 21
6.931354288669713
 31
0.0
  0
LINE
  5
1B20B
330
1B1D2
100
AcDbEntity
  8
0
  6
CONTINUOUS
100
AcDbLine
 10
37.67199999996831
 20
6.164873497749958
 30
0.0
 11
36.23199999996837
 21
7.6048734977499
 31
0.0
  0
LINE
  5
1B20C
330
1B1D2
100
AcDbEntity
  8
0
  6
CONTINUOUS
100
AcDbLine
 10
37.67199999996831
 20
6.838392706830144
 30
0.0
 11
36.23199999996837
 21
8.278392706830086
 31
0.0
  0
LINE
  5
1B20D
330
1B1D2
100
AcDbEntity
  8
0
  6
CONTINUOUS
100
AcDbLine
 10
37.67199999996831
 20
7.511911915910332
 30
0.0
 11
36.42081191588738
 21
8.763099999991255
 31
0.0
  0
LINE
  5
1B20E
330
1B1D2
100
AcDbEntity
  8
0
  6
CONTINUOUS
100
AcDbLine
 10
37.67199999996831
 20
8.185431124990519
 30
0.0
 11
37.09433112496757
 21
8.763099999991255
 31
0.0
  0
ENDBLK
  5
1B276
330
1B1D2
100
AcDbEntity
  8
0
100
AcDbBlockEnd
  0
BLOCK
  5
1B277
330
1B20F
100
AcDbEntity
  8
0
100
AcDbBlockBegin
  2
*X58
 70
     1
 10
0.0
 20
0.0
 30
0.0
  3
*X58
  1

  0
LINE
  5
1B210
330
1B20F
100
AcDbEntity
  8
0
  6
CONTINUOUS
100
AcDbLine
 10
38.60499999996136
 20
8.762866199104765
 30
0.0
 11
38.71672554182345
 21
8.874591740966855
 31
0.0
  0
LINE
  5
1B211
330
1B20F
100
AcDbEntity
  8
0
  6
CONTINUOUS
100
AcDbLine
 10
38.60499999996136
 20
8.089346990024577
 30
0.0
 11
39.03418785440363
 21
8.518534844466847
 31
0.0
  0
LINE
  5
1B212
330
1B20F
100
AcDbEntity
  8
0
  6
CONTINUOUS
100
AcDbLine
 10
38.60499999996136
 20
7.41582778094439
 30
0.0
 11
39.35165016698382
 21
8.16247794796684
 31
0.0
  0
LINE
  5
1B213
330
1B20F
100
AcDbEntity
  8
0
  6
CONTINUOUS
100
AcDbLine
 10
38.60499999996136
 20
6.742308571864204
 30
0.0
 11
39.66911247956399
 21
7.806421051466834
 31
0.0
  0
LINE
  5
1B214
330
1B20F
100
AcDbEntity
  8
0
  6
CONTINUOUS
100
AcDbLine
 10
38.60499999996136
 20
6.068789362784018
 30
0.0
 11
39.98657479214418
 21
7.450364154966827
 31
0.0
  0
LINE
  5
1B215
330
1B20F
100
AcDbEntity
  8
0
  6
CONTINUOUS
100
AcDbLine
 10
38.60499999996136
 20
5.395270153703832
 30
0.0
 11
40.30403710472435
 21
7.09430725846682
 31
0.0
  0
LINE
  5
1B216
330
1B20F
100
AcDbEntity
  8
0
  6
CONTINUOUS
100
AcDbLine
 10
38.60499999996136
 20
4.721750944623645
 30
0.0
 11
40.62149941730453
 21
6.738250361966813
 31
0.0
  0
LINE
  5
1B217
330
1B20F
100
AcDbEntity
  8
0
  6
CONTINUOUS
100
AcDbLine
 10
38.60499999996136
 20
4.048231735543458
 30
0.0
 11
40.93896172988471
 21
6.382193465466806
 31
0.0
  0
LINE
  5
1B218
330
1B20F
100
AcDbEntity
  8
0
  6
CONTINUOUS
100
AcDbLine
 10
38.60499999996136
 20
3.374712526463272
 30
0.0
 11
40.02599999995994
 21
4.795712526461843
 31
0.0
  0
LINE
  5
1B219
330
1B20F
100
AcDbEntity
  8
0
  6
CONTINUOUS
100
AcDbLine
 10
38.60499999996136
 20
2.701193317383085
 30
0.0
 11
40.02599999995994
 21
4.122193317381657
 31
0.0
  0
LINE
  5
1B21A
330
1B20F
100
AcDbEntity
  8
0
  6
CONTINUOUS
100
AcDbLine
 10
40.28339754687704
 20
5.053110073378947
 30
0.0
 11
41.25642404246489
 21
6.026136568966799
 31
0.0
  0
LINE
  5
1B21B
330
1B20F
100
AcDbEntity
  8
0
  6
CONTINUOUS
100
AcDbLine
 10
40.60085985945722
 20
4.697053176878939
 30
0.0
 11
41.57388635504507
 21
5.670079672466793
 31
0.0
  0
LINE
  5
1B21C
330
1B20F
100
AcDbEntity
  8
0
  6
CONTINUOUS
100
AcDbLine
 10
43.57899999995641
 20
8.348712526458318
 30
0.0
 11
43.99338747348935
 21
8.763099999991255
 31
0.0
  0
LINE
  5
1B21D
330
1B20F
100
AcDbEntity
  8
0
  6
CONTINUOUS
100
AcDbLine
 10
43.57899999995641
 20
7.675193317378131
 30
0.0
 11
44.66690668256953
 21
8.763099999991255
 31
0.0
  0
LINE
  5
1B21E
330
1B20F
100
AcDbEntity
  8
0
  6
CONTINUOUS
100
AcDbLine
 10
38.60499999996136
 20
2.027674108302898
 30
0.0
 11
40.02599999995994
 21
3.44867410830147
 31
0.0
  0
LINE
  5
1B21F
330
1B20F
100
AcDbEntity
  8
0
  6
CONTINUOUS
100
AcDbLine
 10
38.60499999996136
 20
1.354154899222712
 30
0.0
 11
40.02599999995994
 21
2.775154899221284
 31
0.0
  0
LINE
  5
1B220
330
1B20F
100
AcDbEntity
  8
0
  6
CONTINUOUS
100
AcDbLine
 10
38.60499999996136
 20
0.6806356901425255
 30
0.0
 11
40.02599999995994
 21
2.101635690141098
 31
0.0
  0
LINE
  5
1B221
330
1B20F
100
AcDbEntity
  8
0
  6
CONTINUOUS
100
AcDbLine
 10
38.60499999996136
 20
0.0071164810623383
 30
0.0
 11
40.02599999995994
 21
1.428116481060911
 31
0.0
  0
LINE
  5
1B222
330
1B20F
100
AcDbEntity
  8
0
  6
CONTINUOUS
100
AcDbLine
 10
40.9183221720374
 20
4.340996280378933
 30
0.0
 11
41.89134866762525
 21
5.314022775966786
 31
0.0
  0
LINE
  5
1B223
330
1B20F
100
AcDbEntity
  8
0
  6
CONTINUOUS
100
AcDbLine
 10
41.23578448461758
 20
3.984939383878926
 30
0.0
 11
42.20881098020543
 21
4.957965879466778
 31
0.0
  0
LINE
  5
1B224
330
1B20F
100
AcDbEntity
  8
0
  6
CONTINUOUS
100
AcDbLine
 10
41.55324679719776
 20
3.628882487378919
 30
0.0
 11
42.52627329278561
 21
4.601908982966772
 31
0.0
  0
LINE
  5
1B225
330
1B20F
100
AcDbEntity
  8
0
  6
CONTINUOUS
100
AcDbLine
 10
41.87070910977793
 20
3.272825590878912
 30
0.0
 11
42.84373560536579
 21
4.245852086466765
 31
0.0
  0
LINE
  5
1B226
330
1B20F
100
AcDbEntity
  8
0
  6
CONTINUOUS
100
AcDbLine
 10
43.57899999995641
 20
7.001674108297943
 30
0.0
 11
44.99999999995498
 21
8.422674108296516
 31
0.0
  0
LINE
  5
1B227
330
1B20F
100
AcDbEntity
  8
0
  6
CONTINUOUS
100
AcDbLine
 10
43.57899999995641
 20
6.328154899217758
 30
0.0
 11
44.99999999995498
 21
7.749154899216329
 31
0.0
  0
LINE
  5
1B228
330
1B20F
100
AcDbEntity
  8
0
  6
CONTINUOUS
100
AcDbLine
 10
43.57899999995641
 20
5.654635690137571
 30
0.0
 11
44.99999999995498
 21
7.075635690136142
 31
0.0
  0
LINE
  5
1B229
330
1B20F
100
AcDbEntity
  8
0
  6
CONTINUOUS
100
AcDbLine
 10
43.57899999995641
 20
4.981116481057384
 30
0.0
 11
44.99999999995498
 21
6.402116481055955
 31
0.0
  0
LINE
  5
1B22A
330
1B20F
100
AcDbEntity
  8
0
  6
CONTINUOUS
100
AcDbLine
 10
39.27140272797921
 20
-0.0000000000000009
 30
0.0
 11
40.02599999995994
 21
0.7545972719807246
 31
0.0
  0
LINE
  5
1B22B
330
1B20F
100
AcDbEntity
  8
0
  6
CONTINUOUS
100
AcDbLine
 10
39.9449219370594
 20
-0.0000000000000009
 30
0.0
 11
40.02599999995994
 21
0.0810780629005379
 31
0.0
  0
LINE
  5
1B22C
330
1B20F
100
AcDbEntity
  8
0
  6
CONTINUOUS
100
AcDbLine
 10
42.18817142235812
 20
2.916768694378905
 30
0.0
 11
43.16119791794597
 21
3.889795189966758
 31
0.0
  0
LINE
  5
1B22D
330
1B20F
100
AcDbEntity
  8
0
  6
CONTINUOUS
100
AcDbLine
 10
42.50563373493829
 20
2.560711797878898
 30
0.0
 11
43.47866023052615
 21
3.533738293466751
 31
0.0
  0
LINE
  5
1B22E
330
1B20F
100
AcDbEntity
  8
0
  6
CONTINUOUS
100
AcDbLine
 10
43.57899999995641
 20
4.307597271977198
 30
0.0
 11
44.99999999995498
 21
5.728597271975769
 31
0.0
  0
LINE
  5
1B22F
330
1B20F
100
AcDbEntity
  8
0
  6
CONTINUOUS
100
AcDbLine
 10
43.57899999995641
 20
3.634078062897011
 30
0.0
 11
44.99999999995498
 21
5.055078062895582
 31
0.0
  0
LINE
  5
1B230
330
1B20F
100
AcDbEntity
  8
0
  6
CONTINUOUS
100
AcDbLine
 10
42.82309604751848
 20
2.204654901378891
 30
0.0
 11
44.99999999995498
 21
4.381558853815395
 31
0.0
  0
LINE
  5
1B231
330
1B20F
100
AcDbEntity
  8
0
  6
CONTINUOUS
100
AcDbLine
 10
43.14055836009865
 20
1.848598004878885
 30
0.0
 11
44.99999999995498
 21
3.70803964473521
 31
0.0
  0
LINE
  5
1B232
330
1B20F
100
AcDbEntity
  8
0
  6
CONTINUOUS
100
AcDbLine
 10
43.45802067267883
 20
1.492541108378878
 30
0.0
 11
44.99999999995498
 21
3.034520435655023
 31
0.0
  0
LINE
  5
1B233
330
1B20F
100
AcDbEntity
  8
0
  6
CONTINUOUS
100
AcDbLine
 10
43.77548298525902
 20
1.136484211878871
 30
0.0
 11
44.99999999995498
 21
2.361001226574837
 31
0.0
  0
LINE
  5
1B234
330
1B20F
100
AcDbEntity
  8
0
  6
CONTINUOUS
100
AcDbLine
 10
44.09294529783919
 20
0.7804273153788639
 30
0.0
 11
44.99999999995498
 21
1.687482017494649
 31
0.0
  0
LINE
  5
1B235
330
1B20F
100
AcDbEntity
  8
0
  6
CONTINUOUS
100
AcDbLine
 10
44.41040761041938
 20
0.4243704188788566
 30
0.0
 11
44.99999999995498
 21
1.013962808414463
 31
0.0
  0
LINE
  5
1B236
330
1B20F
100
AcDbEntity
  8
0
  6
CONTINUOUS
100
AcDbLine
 10
44.72786992299955
 20
0.0683135223788494
 30
0.0
 11
44.99999999995498
 21
0.340443599334276
 31
0.0
  0
LINE
  5
1B237
330
1B20F
100
AcDbEntity
  8
0
  6
CONTINUOUS
100
AcDbLine
 10
39.12223903415696
 20
-0.0000000000000009
 30
0.0
 11
38.60499999996136
 21
0.5172390341955961
 31
0.0
  0
LINE
  5
1B238
330
1B20F
100
AcDbEntity
  8
0
  6
CONTINUOUS
100
AcDbLine
 10
39.79575824323715
 20
-0.0000000000000009
 30
0.0
 11
38.60499999996136
 21
1.190758243275783
 31
0.0
  0
LINE
  5
1B239
330
1B20F
100
AcDbEntity
  8
0
  6
CONTINUOUS
100
AcDbLine
 10
40.02599999995994
 20
0.443277452357397
 30
0.0
 11
38.60499999996136
 21
1.864277452355969
 31
0.0
  0
LINE
  5
1B23A
330
1B20F
100
AcDbEntity
  8
0
  6
CONTINUOUS
100
AcDbLine
 10
40.02599999995994
 20
1.116796661437583
 30
0.0
 11
38.60499999996136
 21
2.537796661436155
 31
0.0
  0
LINE
  5
1B23B
330
1B20F
100
AcDbEntity
  8
0
  6
CONTINUOUS
100
AcDbLine
 10
40.02599999995994
 20
1.79031587051777
 30
0.0
 11
38.60499999996136
 21
3.211315870516341
 31
0.0
  0
LINE
  5
1B23C
330
1B20F
100
AcDbEntity
  8
0
  6
CONTINUOUS
100
AcDbLine
 10
40.02599999995994
 20
2.463835079597956
 30
0.0
 11
38.60499999996136
 21
3.884835079596527
 31
0.0
  0
LINE
  5
1B23D
330
1B20F
100
AcDbEntity
  8
0
  6
CONTINUOUS
100
AcDbLine
 10
40.02599999995994
 20
3.137354288678143
 30
0.0
 11
38.60499999996136
 21
4.558354288676714
 31
0.0
  0
LINE
  5
1B23E
330
1B20F
100
AcDbEntity
  8
0
  6
CONTINUOUS
100
AcDbLine
 10
40.02599999995994
 20
3.810873497758329
 30
0.0
 11
38.60499999996136
 21
5.2318734977569
 31
0.0
  0
LINE
  5
1B23F
330
1B20F
100
AcDbEntity
  8
0
  6
CONTINUOUS
100
AcDbLine
 10
40.02599999995994
 20
4.484392706838515
 30
0.0
 11
38.60499999996136
 21
5.905392706837086
 31
0.0
  0
LINE
  5
1B240
330
1B20F
100
AcDbEntity
  8
0
  6
CONTINUOUS
100
AcDbLine
 10
44.99999999995498
 20
0.183911915923658
 30
0.0
 11
41.53858364506288
 21
3.64532827081576
 31
0.0
  0
LINE
  5
1B241
330
1B20F
100
AcDbEntity
  8
0
  6
CONTINUOUS
100
AcDbLine
 10
40.02599999995994
 20
5.157911915918703
 30
0.0
 11
38.60499999996136
 21
6.578911915917274
 31
0.0
  0
LINE
  5
1B242
330
1B20F
100
AcDbEntity
  8
0
  6
CONTINUOUS
100
AcDbLine
 10
44.99999999995498
 20
0.8574311250038447
 30
0.0
 11
38.60499999996136
 21
7.25243112499746
 31
0.0
  0
LINE
  5
1B243
330
1B20F
100
AcDbEntity
  8
0
  6
CONTINUOUS
100
AcDbLine
 10
44.99999999995498
 20
1.530950334084031
 30
0.0
 11
38.60499999996136
 21
7.925950334077647
 31
0.0
  0
LINE
  5
1B244
330
1B20F
100
AcDbEntity
  8
0
  6
CONTINUOUS
100
AcDbLine
 10
44.99999999995498
 20
2.204469543164218
 30
0.0
 11
43.57899999995641
 21
3.625469543162789
 31
0.0
  0
LINE
  5
1B245
330
1B20F
100
AcDbEntity
  8
0
  6
CONTINUOUS
100
AcDbLine
 10
41.89876730984767
 20
5.305702233271528
 30
0.0
 11
38.60499999996136
 21
8.599469543157834
 31
0.0
  0
LINE
  5
1B246
330
1B20F
100
AcDbEntity
  8
0
  6
CONTINUOUS
100
AcDbLine
 10
44.99999999995498
 20
2.877988752244405
 30
0.0
 11
43.57899999995641
 21
4.298988752242975
 31
0.0
  0
LINE
  5
1B247
330
1B20F
100
AcDbEntity
  8
0
  6
CONTINUOUS
100
AcDbLine
 10
44.99999999995498
 20
3.551507961324591
 30
0.0
 11
43.57899999995641
 21
4.972507961323163
 31
0.0
  0
LINE
  5
1B248
330
1B20F
100
AcDbEntity
  8
0
  6
CONTINUOUS
100
AcDbLine
 10
44.99999999995498
 20
4.225027170404777
 30
0.0
 11
43.57899999995641
 21
5.646027170403348
 31
0.0
  0
LINE
  5
1B249
330
1B20F
100
AcDbEntity
  8
0
  6
CONTINUOUS
100
AcDbLine
 10
44.99999999995498
 20
4.898546379484964
 30
0.0
 11
43.57899999995641
 21
6.319546379483535
 31
0.0
  0
LINE
  5
1B24A
330
1B20F
100
AcDbEntity
  8
0
  6
CONTINUOUS
100
AcDbLine
 10
44.99999999995498
 20
5.572065588565151
 30
0.0
 11
43.57899999995641
 21
6.993065588563722
 31
0.0
  0
LINE
  5
1B24B
330
1B20F
100
AcDbEntity
  8
0
  6
CONTINUOUS
100
AcDbLine
 10
44.99999999995498
 20
6.245584797645336
 30
0.0
 11
43.57899999995641
 21
7.666584797643908
 31
0.0
  0
LINE
  5
1B24C
330
1B20F
100
AcDbEntity
  8
0
  6
CONTINUOUS
100
AcDbLine
 10
44.99999999995498
 20
6.919104006725522
 30
0.0
 11
43.57899999995641
 21
8.340104006724093
 31
0.0
  0
LINE
  5
1B24D
330
1B20F
100
AcDbEntity
  8
0
  6
CONTINUOUS
100
AcDbLine
 10
44.99999999995498
 20
7.592623215805709
 30
0.0
 11
43.82952321576943
 21
8.763099999991255
 31
0.0
  0
LINE
  5
1B24E
330
1B20F
100
AcDbEntity
  8
0
  6
CONTINUOUS
100
AcDbLine
 10
44.99999999995498
 20
8.266142424885896
 30
0.0
 11
44.50304242484962
 21
8.763099999991255
 31
0.0
  0
ENDBLK
  5
1B278
330
1B20F
100
AcDbEntity
  8
0
100
AcDbBlockEnd
  0
BLOCK
  5
1B279
330
1B24F
100
AcDbEntity
  8
0
100
AcDbBlockBegin
  2
*X59
 70
     1
 10
0.0
 20
0.0
 30
0.0
  3
*X59
  1

  0
LINE
  5
1B250
330
1B24F
100
AcDbEntity
  8
0
  6
CONTINUOUS
100
AcDbLine
 10
0.0
 20
8.548461116714023
 30
0.0
 11
0.2146388832772324
 21
8.763099999991255
 31
0.0
  0
LINE
  5
1B251
330
1B24F
100
AcDbEntity
  8
0
  6
CONTINUOUS
100
AcDbLine
 10
-0.0000000000000002
 20
7.874941907633837
 30
0.0
 11
0.8881580923574184
 21
8.763099999991255
 31
0.0
  0
LINE
  5
1B252
330
1B24F
100
AcDbEntity
  8
0
  6
CONTINUOUS
100
AcDbLine
 10
0.0
 20
7.20142269855365
 30
0.0
 11
1.420999999998572
 21
8.622422698552223
 31
0.0
  0
LINE
  5
1B253
330
1B24F
100
AcDbEntity
  8
0
  6
CONTINUOUS
100
AcDbLine
 10
-0.0000000000000001
 20
6.527903489473465
 30
0.0
 11
1.420999999998571
 21
7.948903489472036
 31
0.0
  0
LINE
  5
1B254
330
1B24F
100
AcDbEntity
  8
0
  6
CONTINUOUS
100
AcDbLine
 10
-0.0000000000000002
 20
5.854384280393278
 30
0.0
 11
1.420999999998571
 21
7.275384280391849
 31
0.0
  0
LINE
  5
1B255
330
1B24F
100
AcDbEntity
  8
0
  6
CONTINUOUS
100
AcDbLine
 10
-0.0000000000000002
 20
5.180865071313091
 30
0.0
 11
1.420999999998571
 21
6.601865071311663
 31
0.0
  0
LINE
  5
1B256
330
1B24F
100
AcDbEntity
  8
0
  6
CONTINUOUS
100
AcDbLine
 10
0.0
 20
4.507345862232905
 30
0.0
 11
1.420999999998571
 21
5.928345862231477
 31
0.0
  0
LINE
  5
1B257
330
1B24F
100
AcDbEntity
  8
0
  6
CONTINUOUS
100
AcDbLine
 10
-0.0000000000000003
 20
3.833826653152718
 30
0.0
 11
1.420999999998571
 21
5.25482665315129
 31
0.0
  0
LINE
  5
1B258
330
1B24F
100
AcDbEntity
  8
0
  6
CONTINUOUS
100
AcDbLine
 10
-0.0000000000000002
 20
3.160307444072532
 30
0.0
 11
1.420999999998571
 21
4.581307444071103
 31
0.0
  0
LINE
  5
1B259
330
1B24F
100
AcDbEntity
  8
0
  6
CONTINUOUS
100
AcDbLine
 10
-0.0000000000000001
 20
2.486788234992345
 30
0.0
 11
1.420999999998571
 21
3.907788234990917
 31
0.0
  0
LINE
  5
1B25A
330
1B24F
100
AcDbEntity
  8
0
  6
CONTINUOUS
100
AcDbLine
 10
-0.0000000000000006
 20
1.813269025912159
 30
0.0
 11
1.420999999998571
 21
3.234269025910731
 31
0.0
  0
LINE
  5
1B25B
330
1B24F
100
AcDbEntity
  8
0
  6
CONTINUOUS
100
AcDbLine
 10
0.0
 20
1.139749816831973
 30
0.0
 11
1.420999999998571
 21
2.560749816830544
 31
0.0
  0
LINE
  5
1B25C
330
1B24F
100
AcDbEntity
  8
0
  6
CONTINUOUS
100
AcDbLine
 10
0.0000000000000002
 20
0.466230607751787
 30
0.0
 11
1.420999999998571
 21
1.887230607750358
 31
0.0
  0
LINE
  5
1B25D
330
1B24F
100
AcDbEntity
  8
0
  6
CONTINUOUS
100
AcDbLine
 10
0.2072886013284003
 20
-0.0000000000000009
 30
0.0
 11
1.420999999998571
 21
1.213711398670171
 31
0.0
  0
LINE
  5
1B25E
330
1B24F
100
AcDbEntity
  8
0
  6
CONTINUOUS
100
AcDbLine
 10
0.8808078104085864
 20
-0.0000000000000009
 30
0.0
 11
1.420999999998571
 21
0.5401921895899839
 31
0.0
  0
LINE
  5
1B25F
330
1B24F
100
AcDbEntity
  8
0
  6
CONTINUOUS
100
AcDbLine
 10
0.0581249075061505
 20
-0.0000000000000009
 30
0.0
 11
-0.0000000000000002
 21
0.0581249075061496
 31
0.0
  0
LINE
  5
1B260
330
1B24F
100
AcDbEntity
  8
0
  6
CONTINUOUS
100
AcDbLine
 10
0.7316441165863372
 20
-0.0000000000000009
 30
0.0
 11
-0.0000000000000002
 21
0.7316441165863363
 31
0.0
  0
LINE
  5
1B261
330
1B24F
100
AcDbEntity
  8
0
  6
CONTINUOUS
100
AcDbLine
 10
1.405163325666523
 20
-0.0000000000000009
 30
0.0
 11
-0.0000000000000002
 21
1.405163325666523
 31
0.0
  0
LINE
  5
1B262
330
1B24F
100
AcDbEntity
  8
0
  6
CONTINUOUS
100
AcDbLine
 10
1.420999999998572
 20
0.6576825347481381
 30
0.0
 11
-0.0000000000000001
 21
2.07868253474671
 31
0.0
  0
LINE
  5
1B263
330
1B24F
100
AcDbEntity
  8
0
  6
CONTINUOUS
100
AcDbLine
 10
1.420999999998571
 20
1.331201743828324
 30
0.0
 11
-0.0000000000000001
 21
2.752201743826896
 31
0.0
  0
LINE
  5
1B264
330
1B24F
100
AcDbEntity
  8
0
  6
CONTINUOUS
100
AcDbLine
 10
1.420999999998571
 20
2.004720952908511
 30
0.0
 11
-0.0000000000000002
 21
3.425720952907082
 31
0.0
  0
LINE
  5
1B265
330
1B24F
100
AcDbEntity
  8
0
  6
CONTINUOUS
100
AcDbLine
 10
1.420999999998571
 20
2.678240161988697
 30
0.0
 11
-0.0000000000000001
 21
4.099240161987269
 31
0.0
  0
LINE
  5
1B266
330
1B24F
100
AcDbEntity
  8
0
  6
CONTINUOUS
100
AcDbLine
 10
1.420999999998572
 20
3.351759371068884
 30
0.0
 11
0.0
 21
4.772759371067455
 31
0.0
  0
LINE
  5
1B267
330
1B24F
100
AcDbEntity
  8
0
  6
CONTINUOUS
100
AcDbLine
 10
1.420999999998571
 20
4.02527858014907
 30
0.0
 11
-0.0000000000000003
 21
5.446278580147642
 31
0.0
  0
LINE
  5
1B268
330
1B24F
100
AcDbEntity
  8
0
  6
CONTINUOUS
100
AcDbLine
 10
1.420999999998571
 20
4.698797789229257
 30
0.0
 11
0.0
 21
6.119797789227828
 31
0.0
  0
LINE
  5
1B269
330
1B24F
100
AcDbEntity
  8
0
  6
CONTINUOUS
100
AcDbLine
 10
1.420999999998571
 20
5.372316998309444
 30
0.0
 11
-0.0000000000000001
 21
6.793316998308015
 31
0.0
  0
LINE
  5
1B26A
330
1B24F
100
AcDbEntity
  8
0
  6
CONTINUOUS
100
AcDbLine
 10
1.420999999998572
 20
6.045836207389629
 30
0.0
 11
-0.0000000000000004
 21
7.466836207388202
 31
0.0
  0
LINE
  5
1B26B
330
1B24F
100
AcDbEntity
  8
0
  6
CONTINUOUS
100
AcDbLine
 10
1.420999999998571
 20
6.719355416469816
 30
0.0
 11
0.0
 21
8.140355416468388
 31
0.0
  0
LINE
  5
1B26C
330
1B24F
100
AcDbEntity
  8
0
  6
CONTINUOUS
100
AcDbLine
 10
1.420999999998571
 20
7.392874625550003
 30
0.0
 11
0.0507746255573185
 21
8.763099999991255
 31
0.0
  0
LINE
  5
1B26D
330
1B24F
100
AcDbEntity
  8
0
  6
CONTINUOUS
100
AcDbLine
 10
1.420999999998571
 20
8.06639383463019
 30
0.0
 11
0.7242938346375052
 21
8.763099999991255
 31
0.0
  0
LINE
  5
1B26E
330
1B24F
100
AcDbEntity
  8
0
  6
CONTINUOUS
100
AcDbLine
 10
1.420999999998571
 20
8.739913043710375
 30
0.0
 11
1.397813043717691
 21
8.763099999991255
 31
0.0
  0
ENDBLK
  5
1B27A
330
1B24F
100
AcDbEntity
  8
0
100
AcDbBlockEnd
  0
ENDSEC
  0
SECTION
  2
ENTITIES
  0
CIRCLE
  5
1AAC1
330
18
100
AcDbEntity
  8
01
100
AcDbCircle
 10
2876.659742535258
 20
-375.1285225283707
 30
0.0000000001127424
 40
2.5
  0
LINE
  5
1AAC3
330
18
100
AcDbEntity
  8
01
100
AcDbLine
 10
2523.659846875001
 20
-382.5285127324983
 30
0.0000000001127424
 11
2549.659846875001
 21
-382.5285127324983
 31
0.0000000001127424
  0
LINE
  5
1AAC4
330
18
100
AcDbEntity
  8
01
100
AcDbLine
 10
2559.159846875001
 20
-377.0285127324983
 30
0.0000000001127424
 11
2514.159846875001
 21
-377.0285127324983
 31
0.0000000001127424
  0
LINE
  5
1AAC5
330
18
100
AcDbEntity
  8
01
100
AcDbLine
 10
2536.659846875001
 20
-354.5285127324983
 30
0.0000000001127424
 11
2536.659846875001
 21
-399.5285127324983
 31
0.0000000001127424
  0
LINE
  5
1AAC6
330
18
100
AcDbEntity
  8
01
100
AcDbLine
 10
2854.159742535258
 20
-377.0285127324983
 30
0.0000000001127424
 11
2899.159742535258
 21
-377.0285127324983
 31
0.0000000001127424
  0
LINE
  5
1AAC7
330
18
100
AcDbEntity
  8
01
100
AcDbLine
 10
2876.659742535258
 20
-354.5285127324983
 30
0.0000000001127424
 11
2876.659742535258
 21
-399.5285127324983
 31
0.0000000001127424
  0
LINE
  5
1AAC8
330
18
100
AcDbEntity
  8
01
100
AcDbLine
 10
2876.659734535256
 20
-177.528512732498
 30
0.0000000001127424
 11
2876.659734535256
 21
-204.028512732498
 31
0.0000000001127424
  0
LINE
  5
1AAC9
330
18
100
AcDbEntity
  8
01
100
AcDbLine
 10
2876.659734535256
 20
-147.5285127345553
 30
0.0000000001127424
 11
2876.659734535256
 21
-118.2372396429148
 31
0.0000000001127424
  0
LINE
  5
1AACC
330
18
100
AcDbEntity
  8
01
100
AcDbLine
 10
2523.659846875001
 20
-382.5285127324983
 30
0.0000000001127424
 11
2549.659846875001
 21
-382.5285127324983
 31
0.0000000001127424
  0
LINE
  5
1AACD
330
18
100
AcDbEntity
  8
01
100
AcDbLine
 10
2559.159846875001
 20
-377.0285127324983
 30
0.0000000001127424
 11
2514.159846875001
 21
-377.0285127324983
 31
0.0000000001127424
  0
LINE
  5
1AACE
330
18
100
AcDbEntity
  8
01
100
AcDbLine
 10
2536.659846875001
 20
-354.5285127324983
 30
0.0000000001127424
 11
2536.659846875001
 21
-399.5285127324983
 31
0.0000000001127424
  0
LINE
  5
1AACF
330
18
100
AcDbEntity
  8
01
100
AcDbLine
 10
2876.659734535256
 20
-147.5285127345558
 30
0.0000000001127424
 11
2876.659734535256
 21
-117.9001887316979
 31
0.0000000001127424
  0
LINE
  5
1AAD2
330
18
100
AcDbEntity
  8
01
100
AcDbLine
 10
2820.659734535256
 20
-354.5285127324985
 30
0.0000000001127424
 11
2834.659734535256
 21
-354.5285127324985
 31
0.0000000001127424
  0
LINE
  5
1AAD3
330
18
100
AcDbEntity
  8
01
100
AcDbLine
 10
2825.660618717316
 20
-142.5285127335271
 30
0.0000000001127424
 11
2979.414998872348
 21
-142.5285127335271
 31
0.0000000001127424
  0
LINE
  5
1AAD4
330
18
100
AcDbEntity
  8
01
  6
BYBLOCK
100
AcDbLine
 10
2825.660618717316
 20
-142.5285127335271
 30
0.0000000001127424
 11
2825.660618717316
 21
-182.5285127335271
 31
0.0000000001127424
  0
LINE
  5
1AAD8
330
18
100
AcDbEntity
  8
01
100
AcDbLine
 10
2876.659734535254
 20
-147.5285127345558
 30
0.0000000001127424
 11
2876.659734535254
 21
-116.6104325453068
 31
0.0000000001127424
  0
LINE
  5
1AAD9
330
18
100
AcDbEntity
  8
01
  6
BYBLOCK
100
AcDbLine
 10
2827.159734535256
 20
-346.6285127324984
 30
0.0000000001127424
 11
2827.159734535256
 21
-476.4285127324983
 31
0.0000000001127424
  0
LINE
  5
1AADA
330
18
100
AcDbEntity
  8
01
  6
BYBLOCK
100
AcDbLine
 10
2827.159734535256
 20
-475.5285127324985
 30
0.0000000001127424
 11
2829.659734535256
 21
-475.5285127324985
 31
0.0000000001127424
  0
LINE
  5
1AADB
330
18
100
AcDbEntity
  8
01
  6
BYBLOCK
100
AcDbLine
 10
2829.659734535256
 20
-475.5285127324985
 30
0.0000000001127424
 11
2829.659734535256
 21
-459.0255690073461
 31
0.0000000001127424
  0
LINE
  5
1AADC
330
18
100
AcDbEntity
  8
01
  6
BYBLOCK
100
AcDbLine
 10
2825.659734535256
 20
-346.6285127324984
 30
0.0000000001127424
 11
2825.659734535256
 21
-476.4285127324983
 31
0.0000000001127424
  0
LINE
  5
1AADD
330
18
100
AcDbEntity
  8
01
  6
BYBLOCK
100
AcDbLine
 10
2825.659734535256
 20
-476.4285127324983
 30
0.0000000001127424
 11
2827.159734535256
 21
-476.4285127324983
 31
0.0000000001127424
  0
LINE
  5
1AADE
330
18
100
AcDbEntity
  8
01
  6
BYBLOCK
100
AcDbLine
 10
2827.159734535256
 20
-347.5285127324985
 30
0.0000000001127424
 11
2829.659734535256
 21
-347.5285127324985
 31
0.0000000001127424
  0
LINE
  5
1AADF
330
18
100
AcDbEntity
  8
01
  6
BYBLOCK
100
AcDbLine
 10
2825.659734535256
 20
-346.6285127324984
 30
0.0000000001127424
 11
2827.159734535256
 21
-346.6285127324984
 31
0.0000000001127424
  0
LINE
  5
1AAE0
330
18
100
AcDbEntity
  8
01
  6
BYBLOCK
100
AcDbLine
 10
2827.159734535256
 20
-371.5285127324985
 30
0.0000000001127424
 11
2828.359734535255
 21
-371.5285127324985
 31
0.0000000001127424
  0
LINE
  5
1AAE1
330
18
100
AcDbEntity
  8
01
  6
BYBLOCK
100
AcDbLine
 10
2828.359734535255
 20
-365.8285127324982
 30
0.0000000001127424
 11
2828.359734535255
 21
-457.2285127324983
 31
0.0000000001127424
  0
LINE
  5
1AAE2
330
18
100
AcDbEntity
  8
01
  6
BYBLOCK
100
AcDbLine
 10
2828.459734535256
 20
-475.5285127324985
 30
0.0000000001127424
 11
2828.459734535256
 21
-458.9285127324983
 31
0.0000000001127424
  0
LINE
  5
1AAE3
330
18
100
AcDbEntity
  8
01
  6
BYBLOCK
100
AcDbLine
 10
2828.459734535256
 20
-458.9285127324983
 30
0.0000000001127424
 11
2827.511206397831
 21
-457.9799845950745
 31
0.0000000001127424
  0
LINE
  5
1AAE4
330
18
100
AcDbEntity
  8
01
  6
BYBLOCK
100
AcDbLine
 10
2829.308262672679
 20
-458.1770408699222
 30
0.0000000001127424
 11
2828.359734535255
 21
-457.2285127324983
 31
0.0000000001127424
  0
ARC
  5
1AAE5
330
18
100
AcDbEntity
  8
01
  6
BYBLOCK
100
AcDbCircle
 10
2828.459734535256
 20
-459.0255690073461
 30
0.0000000001127424
 40
1.2
100
AcDbArc
 50
0.0
 51
45.00000000004606
  0
ARC
  5
1AAE6
330
18
100
AcDbEntity
  8
01
  6
BYBLOCK
100
AcDbCircle
 10
2828.359734535255
 20
-457.1314564576505
 30
0.0000000001127424
 40
1.2
100
AcDbArc
 50
180.0
 51
225.000000000046
  0
LINE
  5
1AAE7
330
18
100
AcDbEntity
  8
01
  6
BYBLOCK
100
AcDbLine
 10
2829.659734535256
 20
-347.5285127324985
 30
0.0000000001127424
 11
2829.659734535256
 21
-364.0314564576506
 31
0.0000000001127424
  0
LINE
  5
1AAE8
330
18
100
AcDbEntity
  8
01
  6
BYBLOCK
100
AcDbLine
 10
2828.459734535256
 20
-347.5285127324985
 30
0.0000000001127424
 11
2828.459734535256
 21
-364.1285127324984
 31
0.0000000001127424
  0
LINE
  5
1AAE9
330
18
100
AcDbEntity
  8
01
  6
BYBLOCK
100
AcDbLine
 10
2828.459734535256
 20
-364.1285127324984
 30
0.0000000001127424
 11
2827.511206397831
 21
-365.0770408699223
 31
0.0000000001127424
  0
LINE
  5
1AAEA
330
18
100
AcDbEntity
  8
01
  6
BYBLOCK
100
AcDbLine
 10
2829.308262672679
 20
-364.8799845950746
 30
0.0000000001127424
 11
2828.359734535255
 21
-365.8285127324984
 31
0.0000000001127424
  0
ARC
  5
1AAEB
330
18
100
AcDbEntity
  8
01
  6
BYBLOCK
100
AcDbCircle
 10
2828.459734535256
 20
-364.0314564576506
 30
0.0000000001127424
 40
1.2
100
AcDbArc
 50
314.999999999954
 51
0.0
  0
ARC
  5
1AAEC
330
18
100
AcDbEntity
  8
01
  6
BYBLOCK
100
AcDbCircle
 10
2828.359734535255
 20
-365.9255690073462
 30
0.0000000001127424
 40
1.2
100
AcDbArc
 50
134.9999999999539
 51
180.0
  0
CIRCLE
  5
1AAED
330
18
100
AcDbEntity
  8
1HIDDEN
100
AcDbCircle
 10
2876.659734535256
 20
-382.5285127324985
 30
0.0000000001127424
 40
4.75
  0
LINE
  5
1AAEE
330
18
100
AcDbEntity
  8
01
  6
BYBLOCK
100
AcDbLine
 10
2828.359734535255
 20
-448.5285127324987
 30
0.0000000001127424
 11
2853.074781705124
 21
-448.5285127324985
 31
0.0000000001127424
  0
ARC
  5
1AAEF
330
18
100
AcDbEntity
  8
01
  6
BYBLOCK
100
AcDbCircle
 10
2828.760618717316
 20
-158.9672621905272
 30
0.0000000001127424
 40
1.6
100
AcDbArc
 50
115.944479772022
 51
180.0
  0
ARC
  5
1AAF0
330
18
100
AcDbEntity
  8
01
  6
BYBLOCK
100
AcDbCircle
 10
2828.760618717316
 20
-166.089763276527
 30
0.0000000001127424
 40
1.6
100
AcDbArc
 50
180.0
 51
244.055520227978
  0
ARC
  5
1AAF1
330
18
100
AcDbEntity
  8
01
  6
BYBLOCK
100
AcDbCircle
 10
2828.060618717315
 20
-167.3672621905271
 30
0.0000000001127424
 40
1.6
100
AcDbArc
 50
0.0
 51
64.05552022797804
  0
ARC
  5
1AAF2
330
18
100
AcDbEntity
  8
01
  6
BYBLOCK
100
AcDbCircle
 10
2828.060618717315
 20
-157.6897632765272
 30
0.0000000001127424
 40
1.6
100
AcDbArc
 50
295.944479772022
 51
0.0
  0
LINE
  5
1AAF3
330
18
100
AcDbEntity
  8
01
  6
BYBLOCK
100
AcDbLine
 10
2829.660618717316
 20
-157.6897632765272
 30
0.0000000001127424
 11
2829.660618717316
 21
-150.3285127335271
 31
0.0000000001127424
  0
LINE
  5
1AAF4
330
18
100
AcDbEntity
  8
01
  6
BYBLOCK
100
AcDbLine
 10
2828.760618717316
 20
-165.9285127335272
 30
0.0000000001127424
 11
2828.760618717316
 21
-159.128512733527
 31
0.0000000001127424
  0
LINE
  5
1AAF5
330
18
100
AcDbEntity
  8
01
  6
BYBLOCK
100
AcDbLine
 10
2829.660618717316
 20
-174.5285127335271
 30
0.0000000001127424
 11
2829.660618717316
 21
-167.3672621905271
 31
0.0000000001127424
  0
LINE
  5
1AAF6
330
18
100
AcDbEntity
  8
01
  6
BYBLOCK
100
AcDbLine
 10
2828.060618717315
 20
-157.5285127335271
 30
0.0000000001127424
 11
2828.060618717316
 21
-150.3285127335271
 31
0.0000000001127424
  0
LINE
  5
1AAF7
330
18
100
AcDbEntity
  8
01
  6
BYBLOCK
100
AcDbLine
 10
2828.060618717315
 20
-167.5285127335271
 30
0.0000000001127424
 11
2828.060618717315
 21
-174.628512733527
 31
0.0000000001127424
  0
ARC
  5
1AAF8
330
18
100
AcDbEntity
  8
01
  6
BYBLOCK
100
AcDbCircle
 10
2893.060618717315
 20
-154.628512733527
 30
0.0000000001127424
 40
1.6
100
AcDbArc
 50
0.0
 51
90.0
  0
LINE
  5
1AAF9
330
18
100
AcDbEntity
  8
01
  6
BYBLOCK
100
AcDbLine
 10
2827.160618717316
 20
-150.128512733527
 30
0.0000000001127424
 11
2827.160618717316
 21
-174.928512733527
 31
0.0000000001127424
  0
LINE
  5
1AAFA
330
18
100
AcDbEntity
  8
01
  6
BYBLOCK
100
AcDbLine
 10
2893.060618717315
 20
-153.0285127335271
 30
0.0000000001127424
 11
2829.660618717316
 21
-153.0285127335271
 31
0.0000000001127424
  0
LINE
  5
1AAFB
330
18
100
AcDbEntity
  8
01
  6
BYBLOCK
100
AcDbLine
 10
2893.060618717315
 20
-170.2285127335272
 30
0.0000000001127424
 11
2893.060618717315
 21
-153.0285127335271
 31
0.0000000001127424
  0
LINE
  5
1AAFC
330
18
100
AcDbEntity
  8
01
  6
BYBLOCK
100
AcDbLine
 10
2894.660618717316
 20
-171.8285127335271
 30
0.0000000001127424
 11
2894.660618717316
 21
-154.628512733527
 31
0.0000000001127424
  0
LINE
  5
1AAFD
330
18
100
AcDbEntity
  8
01
  6
BYBLOCK
100
AcDbLine
 10
2827.160618717316
 20
-150.3285127335271
 30
0.0000000001127424
 11
2829.660618717316
 21
-150.3285127335271
 31
0.0000000001127424
  0
LINE
  5
1AAFE
330
18
100
AcDbEntity
  8
01
  6
BYBLOCK
100
AcDbLine
 10
2829.660618717316
 20
-174.5285127335271
 30
0.0000000001127424
 11
2828.060618717315
 21
-174.5285127335271
 31
0.0000000001127424
  0
LINE
  5
1AAFF
330
18
100
AcDbEntity
  8
01
  6
BYBLOCK
100
AcDbLine
 10
2828.060618717315
 20
-174.628512733527
 30
0.0000000001127424
 11
2827.160618717316
 21
-174.628512733527
 31
0.0000000001127424
  0
ARC
  5
1AB00
330
18
100
AcDbEntity
  8
01
  6
BYBLOCK
100
AcDbCircle
 10
2824.361213644715
 20
-168.2285127335265
 30
0.0000000001127424
 40
0.3000000000000051
100
AcDbArc
 50
232.8678058729389
 51
270.0
  0
LINE
  5
1AB01
330
18
100
AcDbEntity
  8
01
  6
BYBLOCK
100
AcDbLine
 10
2825.160618717316
 20
-168.5285127335264
 30
0.0000000001127424
 11
2824.361213644715
 21
-168.5285127335264
 31
0.0000000001127424
  0
LINE
  5
1AB02
330
18
100
AcDbEntity
  8
01
  6
BYBLOCK
100
AcDbLine
 10
2814.760618717316
 20
-158.8555238673223
 30
0.0000000001127424
 11
2814.760618717316
 21
-159.0261459228714
 31
0.0000000001127424
  0
ARC
  5
1AB03
330
18
100
AcDbEntity
  8
01
  6
BYBLOCK
100
AcDbCircle
 10
2815.060618717315
 20
-159.0261459228714
 30
0.0000000001127424
 40
0.3
100
AcDbArc
 50
180.0
 51
217.7405295629614
  0
ARC
  5
1AB04
330
18
100
AcDbEntity
  8
01
  6
BYBLOCK
100
AcDbCircle
 10
2854.3629193166
 20
-128.6054429789306
 30
0.0000000001127424
 40
50.00000000000002
100
AcDbArc
 50
217.7405295629745
 51
232.8678058729532
  0
LINE
  5
1AB05
330
18
100
AcDbEntity
  8
01
  6
BYBLOCK
100
AcDbLine
 10
2814.560618717315
 20
-157.7285127335269
 30
0.0000000001127424
 11
2814.560618717315
 21
-157.0285127335271
 31
0.0000000001127424
  0
ARC
  5
1AB06
330
18
100
AcDbEntity
  8
01
  6
BYBLOCK
100
AcDbCircle
 10
2815.060618717315
 20
-157.0285127335271
 30
0.0000000001127424
 40
0.5000000000000142
100
AcDbArc
 50
90.0
 51
180.0
  0
LINE
  5
1AB07
330
18
100
AcDbEntity
  8
01
  6
BYBLOCK
100
AcDbLine
 10
2825.160618717316
 20
-156.5285127335271
 30
0.0000000001127424
 11
2815.060618717315
 21
-156.5285127335271
 31
0.0000000001127424
  0
LINE
  5
1AB08
330
18
100
AcDbEntity
  8
01
  6
BYBLOCK
100
AcDbLine
 10
2814.560618717315
 20
-158.1071923899674
 30
0.0000000001127424
 11
2814.560618717315
 21
-157.7285127335269
 31
0.0000000001127424
  0
SPLINE
  5
1AB09
330
18
100
AcDbEntity
  8
01
  6
BYBLOCK
100
AcDbSpline
210
0.0
220
0.0
230
1.0
 70
     8
 71
     3
 72
     8
 73
     4
 74
     0
 42
0.0000000001
 43
0.0000000001
 40
0.0
 40
0.0
 40
0.0
 40
0.0
 40
1.0
 40
1.0
 40
1.0
 40
1.0
 10
2814.58635125858
 20
-158.3838428194165
 30
0.0000000001127424
 10
2814.568883372469
 20
-158.290756623536
 30
0.0000000001127424
 10
2814.560618717315
 20
-158.1974906126445
 30
0.0000000001127424
 10
2814.560618717315
 20
-158.1071923899669
 30
0.0000000001127424
  0
ARC
  5
1AB0A
330
18
100
AcDbEntity
  8
01
  6
BYBLOCK
100
AcDbCircle
 10
2816.060618717315
 20
-158.1071923899674
 30
0.0000000001127424
 40
1.499999999999998
100
AcDbArc
 50
190.628112987605
 51
225.000000000046
  0
LINE
  5
1AB0B
330
18
100
AcDbEntity
  8
01
  6
BYBLOCK
100
AcDbLine
 10
2825.660618717316
 20
-155.678512733527
 30
0.0000000001127424
 11
2825.160618717316
 21
-155.678512733527
 31
0.0000000001127424
  0
LINE
  5
1AB0C
330
18
100
AcDbEntity
  8
01
  6
BYBLOCK
100
AcDbLine
 10
2825.160618717316
 20
-169.378512733527
 30
0.0000000001127424
 11
2825.660618717316
 21
-169.378512733527
 31
0.0000000001127424
  0
LINE
  5
1AB0D
330
18
100
AcDbEntity
  8
01
  6
BYBLOCK
100
AcDbLine
 10
2825.160618717316
 20
-169.378512733527
 30
0.0000000001127424
 11
2825.160618717316
 21
-155.678512733527
 31
0.0000000001127424
  0
LINE
  5
1AB0E
330
18
100
AcDbEntity
  8
01
  6
BYBLOCK
100
AcDbLine
 10
2825.660618717316
 20
-150.128512733527
 30
0.0000000001127424
 11
2827.160618717316
 21
-150.128512733527
 31
0.0000000001127424
  0
LINE
  5
1AB0F
330
18
100
AcDbEntity
  8
01
  6
BYBLOCK
100
AcDbLine
 10
2825.660618717316
 20
-174.928512733527
 30
0.0000000001127424
 11
2827.160618717316
 21
-174.928512733527
 31
0.0000000001127424
  0
LINE
  5
1AB10
330
18
100
AcDbEntity
  8
01
  6
BYBLOCK
100
AcDbLine
 10
2825.660618717316
 20
-174.928512733527
 30
0.0000000001127424
 11
2825.660618717316
 21
-150.128512733527
 31
0.0000000001127424
  0
LINE
  5
1AB11
330
18
100
AcDbEntity
  8
01
  6
BYBLOCK
100
AcDbLine
 10
2894.660618717316
 20
-170.2285127335272
 30
0.0000000001127424
 11
2829.660618717316
 21
-170.2285127335272
 31
0.0000000001127424
  0
LINE
  5
1AB12
330
18
100
AcDbEntity
  8
01
  6
BYBLOCK
100
AcDbLine
 10
2894.660618717316
 20
-171.8285127335271
 30
0.0000000001127424
 11
2844.260618717316
 21
-171.8285127335271
 31
0.0000000001127424
  0
LINE
  5
1AB13
330
18
100
AcDbEntity
  8
01
  6
BYBLOCK
100
AcDbLine
 10
2847.097877017519
 20
-171.8285127335271
 30
0.0000000001127424
 11
2829.660618717316
 21
-171.8285127335271
 31
0.0000000001127424
  0
LINE
  5
1AB14
330
18
100
AcDbEntity
  8
01
  6
BYBLOCK
100
AcDbLine
 10
2824.214172107909
 20
-168.3820661241205
 30
0.0000000001127424
 11
2814.999958545535
 21
-159.1678525617474
 31
0.0000000001127424
  0
ARC
  5
1AB15
330
18
100
AcDbEntity
  8
01
  6
BYBLOCK
100
AcDbCircle
 10
2824.567725498502
 20
-168.0285127335271
 30
0.0000000001127424
 40
0.5
100
AcDbArc
 50
224.9999999999908
 51
270.0
  0
LINE
  5
1AB16
330
18
100
AcDbEntity
  8
01
  6
BYBLOCK
100
AcDbLine
 10
2825.160618717316
 20
-168.5285127335271
 30
0.0000000001127424
 11
2824.567725498502
 21
-168.5285127335271
 31
0.0000000001127424
  0
LINE
  5
1AB18
330
18
100
AcDbEntity
  8
01
  6
BYBLOCK
100
AcDbLine
 10
2814.659734535256
 20
-401.4968424654824
 30
0.0000000001127424
 11
2814.659734535256
 21
-419.5601829994882
 31
0.0000000001127424
  0
LINE
  5
1AB19
330
18
100
AcDbEntity
  8
01
  6
BYBLOCK
100
AcDbLine
 10
2818.952627754069
 20
-400.5285127324853
 30
0.0000000001127424
 11
2825.659734535256
 21
-400.5285127324853
 31
0.0000000001127424
  0
LINE
  5
1AB1A
330
18
100
AcDbEntity
  8
01
  6
BYBLOCK
100
AcDbLine
 10
2818.952627754069
 20
-420.5285127324853
 30
0.0000000001127424
 11
2825.659734535256
 21
-420.5285127324853
 31
0.0000000001127424
  0
LINE
  5
1AB1B
330
18
100
AcDbEntity
  8
01
  6
BYBLOCK
100
AcDbLine
 10
2824.45262775407
 20
-405.2785127324853
 30
0.0000000001127424
 11
2824.452627754069
 21
-415.7785127324853
 31
0.0000000001127424
  0
ARC
  5
1AB1C
330
18
100
AcDbEntity
  8
01
  6
BYBLOCK
100
AcDbCircle
 10
2818.952627754069
 20
-410.5285127324853
 30
0.0000000001127424
 40
10.00000000000009
100
AcDbArc
 50
53.13010235413383
 51
115.4224671781395
  0
ARC
  5
1AB1D
330
18
100
AcDbEntity
  8
01
  6
BYBLOCK
100
AcDbCircle
 10
2818.952627754069
 20
-410.5285127324851
 30
0.0000000001127424
 40
10.00000000000009
100
AcDbArc
 50
244.5775328218606
 51
306.8698976458558
  0
LINE
  5
1AB1E
330
18
100
AcDbEntity
  8
01
  6
BYBLOCK
100
AcDbLine
 10
2824.95262775407
 20
-402.5285127324853
 30
0.0000000001127424
 11
2824.95262775407
 21
-418.5285127324853
 31
0.0000000001127424
  0
LINE
  5
1AB1F
330
18
100
AcDbEntity
  8
01
  6
BYBLOCK
100
AcDbLine
 10
2814.659734535256
 20
-405.2785127324853
 30
0.0000000001127424
 11
2824.45262775407
 21
-405.2785127324853
 31
0.0000000001127424
  0
LINE
  5
1AB20
330
18
100
AcDbEntity
  8
01
  6
BYBLOCK
100
AcDbLine
 10
2814.659734535256
 20
-415.7785127324853
 30
0.0000000001127424
 11
2824.45262775407
 21
-415.7785127324853
 31
0.0000000001127424
  0
LINE
  5
1AB21
330
18
100
AcDbEntity
  8
01
  6
BYBLOCK
100
AcDbLine
 10
2700.259850875001
 20
-346.6285127324991
 30
0.0000000001127424
 11
2713.059850875
 21
-346.6285127324991
 31
0.0000000001127424
  0
LINE
  5
1AB22
330
18
100
AcDbEntity
  8
01
  6
BYBLOCK
100
AcDbLine
 10
2700.259850875001
 20
-476.428512732499
 30
0.0000000001127424
 11
2713.059850875
 21
-476.428512732499
 31
0.0000000001127424
  0
LINE
  5
1AB23
330
18
100
AcDbEntity
  8
01
  6
BYBLOCK
100
AcDbLine
 10
2694.259850875001
 20
-352.6285127324991
 30
0.0000000001127424
 11
2694.259850875001
 21
-470.428512732499
 31
0.0000000001127424
  0
LINE
  5
1AB24
330
18
100
AcDbEntity
  8
01
  6
BYBLOCK
100
AcDbLine
 10
2719.059850875
 20
-352.6285127324991
 30
0.0000000001127424
 11
2719.059850875
 21
-470.428512732499
 31
0.0000000001127424
  0
ARC
  5
1AB25
330
18
100
AcDbEntity
  8
01
  6
BYBLOCK
100
AcDbCircle
 10
2700.259850875001
 20
-470.428512732499
 30
0.0000000001127424
 40
6.0
100
AcDbArc
 50
180.0
 51
270.0
  0
ARC
  5
1AB26
330
18
100
AcDbEntity
  8
01
  6
BYBLOCK
100
AcDbCircle
 10
2713.059850875
 20
-470.428512732499
 30
0.0000000001127424
 40
6.0
100
AcDbArc
 50
270.0
 51
0.0
  0
ARC
  5
1AB27
330
18
100
AcDbEntity
  8
01
  6
BYBLOCK
100
AcDbCircle
 10
2700.259850875001
 20
-352.6285127324991
 30
0.0000000001127424
 40
6.0
100
AcDbArc
 50
90.0
 51
180.0
  0
ARC
  5
1AB28
330
18
100
AcDbEntity
  8
01
  6
BYBLOCK
100
AcDbCircle
 10
2713.059850875
 20
-352.6285127324991
 30
0.0000000001127424
 40
6.0
100
AcDbArc
 50
0.0
 51
90.0
  0
CIRCLE
  5
1AB29
330
18
100
AcDbEntity
  8
01
  6
BYBLOCK
100
AcDbCircle
 10
2706.659850875
 20
-468.5285127324989
 30
0.0000000001127424
 40
2.75
  0
CIRCLE
  5
1AB2A
330
18
100
AcDbEntity
  8
01
  6
BYBLOCK
100
AcDbCircle
 10
2706.659850875
 20
-468.5285127324989
 30
0.0000000001127424
 40
4.25
  0
CIRCLE
  5
1AB2B
330
18
100
AcDbEntity
  8
01
  6
BYBLOCK
100
AcDbCircle
 10
2706.659850875
 20
-354.5285127324992
 30
0.0000000001127424
 40
2.75
  0
CIRCLE
  5
1AB2C
330
18
100
AcDbEntity
  8
01
  6
BYBLOCK
100
AcDbCircle
 10
2706.659850875
 20
-354.5285127324992
 30
0.0000000001127424
 40
4.25
  0
LINE
  5
1AB2D
330
18
100
AcDbEntity
  8
1CENTER
100
AcDbLine
 10
2712.534876282906
 20
-468.5285127324992
 30
0.0000000001127424
 11
2700.784825467094
 21
-468.5285127324992
 31
0.0000000001127424
  0
LINE
  5
1AB2E
330
18
100
AcDbEntity
  8
1CENTER
100
AcDbLine
 10
2706.659850875
 20
-462.6534873245928
 30
0.0000000001127424
 11
2706.659850875
 21
-474.4035381404053
 31
0.0000000001127424
  0
LINE
  5
1AB2F
330
18
100
AcDbEntity
  8
1CENTER
100
AcDbLine
 10
2712.534876282906
 20
-354.5285127324992
 30
0.0000000001127424
 11
2700.784825467094
 21
-354.5285127324992
 31
0.0000000001127424
  0
LINE
  5
1AB30
330
18
100
AcDbEntity
  8
1CENTER
100
AcDbLine
 10
2706.659850875
 20
-348.6534873245928
 30
0.0000000001127424
 11
2706.659850875
 21
-360.4035381404053
 31
0.0000000001127424
  0
ARC
  5
1AB31
330
18
100
AcDbEntity
  8
01
  6
BYBLOCK
100
AcDbCircle
 10
2706.659850875
 20
-410.5285127324989
 30
0.0000000001127424
 40
10.15
100
AcDbArc
 50
231.9925780701392
 51
308.0074219298607
  0
LINE
  5
1AB32
330
18
100
AcDbEntity
  8
01
  6
BYBLOCK
100
AcDbLine
 10
2700.409850875
 20
-402.5310131232461
 30
0.0000000001127424
 11
2700.409850875
 21
-418.5260123417518
 31
0.0000000001127424
  0
LINE
  5
1AB33
330
18
100
AcDbEntity
  8
01
  6
BYBLOCK
100
AcDbLine
 10
2712.909850875
 20
-402.5310131232461
 30
0.0000000001127424
 11
2712.909850875
 21
-418.5260123417518
 31
0.0000000001127424
  0
ARC
  5
1AB34
330
18
100
AcDbEntity
  8
01
  6
BYBLOCK
100
AcDbCircle
 10
2706.659850875
 20
-410.5285127324989
 30
0.0000000001127424
 40
10.15
100
AcDbArc
 50
51.99257807013929
 51
128.0074219298607
  0
LINE
  5
1AB35
330
18
100
AcDbEntity
  8
01
  6
BYBLOCK
100
AcDbLine
 10
2702.159850875
 20
-405.2785127324989
 30
0.0000000001127424
 11
2702.159850875
 21
-415.7785127324989
 31
0.0000000001127424
  0
LINE
  5
1AB36
330
18
100
AcDbEntity
  8
01
  6
BYBLOCK
100
AcDbLine
 10
2712.159850875
 20
-405.2785127324989
 30
0.0000000001127424
 11
2712.159850875
 21
-415.7785127324989
 31
0.0000000001127424
  0
LINE
  5
1AB37
330
18
100
AcDbEntity
  8
01
  6
BYBLOCK
100
AcDbLine
 10
2702.659850875
 20
-401.1999276307806
 30
0.0000000001127424
 11
2702.659850875
 21
-405.2785127324992
 31
0.0000000001127424
  0
LINE
  5
1AB38
330
18
100
AcDbEntity
  8
01
  6
BYBLOCK
100
AcDbLine
 10
2701.159850875
 20
-405.2785127324992
 30
0.0000000001127424
 11
2701.159850875
 21
-415.7785127324989
 31
0.0000000001127424
  0
LINE
  5
1AB39
330
18
100
AcDbEntity
  8
01
  6
BYBLOCK
100
AcDbLine
 10
2702.659850875
 20
-415.7785127324989
 30
0.0000000001127424
 11
2702.659850875
 21
-419.8570978342173
 31
0.0000000001127424
  0
LINE
  5
1AB3A
330
18
100
AcDbEntity
  8
01
  6
BYBLOCK
100
AcDbLine
 10
2701.159850875
 20
-405.2785127324989
 30
0.0000000001127424
 11
2712.159850875
 21
-405.2785127324989
 31
0.0000000001127424
  0
LINE
  5
1AB3B
330
18
100
AcDbEntity
  8
01
  6
BYBLOCK
100
AcDbLine
 10
2701.159850875
 20
-415.7785127324989
 30
0.0000000001127424
 11
2712.159850875
 21
-415.7785127324989
 31
0.0000000001127424
  0
LINE
  5
1AB3D
330
18
100
AcDbEntity
  8
01
100
AcDbLine
 10
2686.659967214743
 20
-312.5285127324987
 30
0.0000000001127424
 11
2686.659967214743
 21
-502.5285127324989
 31
0.0000000001127424
  0
LINE
  5
1AB3E
330
18
100
AcDbEntity
  8
01
100
AcDbLine
 10
2688.788252597175
 20
-432.5285127324989
 30
0.0000000001127424
 11
2666.159967214743
 21
-432.5285127324989
 31
0.0000000001127424
  0
LINE
  5
1AB3F
330
18
100
AcDbEntity
  8
01
100
AcDbLine
 10
2820.659734535543
 20
-468.5285127322097
 30
0.0000000001127424
 11
2834.659734535543
 21
-468.5285127322097
 31
0.0000000001127424
  0
LINE
  5
1AB40
330
18
100
AcDbEntity
  8
01
100
AcDbLine
 10
2887.971622802796
 20
-382.5285127324985
 30
0.0000000001127424
 11
2865.347846267713
 21
-382.5285127324985
 31
0.0000000001127424
  0
LINE
  5
1AB41
330
18
100
AcDbEntity
  8
01
100
AcDbLine
 10
2876.659734535256
 20
-371.2166244649568
 30
0.0000000001127424
 11
2876.659734535256
 21
-393.8404010000402
 31
0.0000000001127424
  0
LINE
  5
1AB42
330
18
100
AcDbEntity
  8
01
  6
BYBLOCK
100
AcDbLine
 10
2598.659967214747
 20
-401.4968424654824
 30
0.0000000001127424
 11
2598.659967214747
 21
-419.5601829994882
 31
0.0000000001127424
  0
LINE
  5
1AB43
330
18
100
AcDbEntity
  8
01
  6
BYBLOCK
100
AcDbLine
 10
2594.367073995933
 20
-400.5285127324853
 30
0.0000000001127424
 11
2587.659967214747
 21
-400.5285127324853
 31
0.0000000001127424
  0
LINE
  5
1AB44
330
18
100
AcDbEntity
  8
01
  6
BYBLOCK
100
AcDbLine
 10
2594.367073995933
 20
-420.5285127324853
 30
0.0000000001127424
 11
2587.659967214747
 21
-420.5285127324853
 31
0.0000000001127424
  0
ARC
  5
1AB45
330
18
100
AcDbEntity
  8
01
  6
BYBLOCK
100
AcDbCircle
 10
2594.367073995933
 20
-410.5285127324853
 30
0.0000000001127424
 40
10.00000000000009
100
AcDbArc
 50
64.57753282186054
 51
90.0
  0
LINE
  5
1AB46
330
18
100
AcDbEntity
  8
01
  6
CONTINUOUS
100
AcDbLine
 10
2598.159967214747
 20
-418.843306925316
 30
0.0000000001127424
 11
2587.659967214747
 21
-418.843306925316
 31
0.0000000001127424
  0
ARC
  5
1AB47
330
18
100
AcDbEntity
  8
01
  6
CONTINUOUS
100
AcDbCircle
 10
2598.19854746166
 20
-418.3811676945093
 30
0.0000000001127424
 40
0.4637468103423796
100
AcDbArc
 50
265.2279066161988
 51
354.2577450626255
  0
LINE
  5
1AB48
330
18
100
AcDbEntity
  8
01
  6
CONTINUOUS
100
AcDbLine
 10
2598.659967214747
 20
-403.0451979589373
 30
0.0000000001127424
 11
2598.659967214747
 21
-418.0118275060331
 31
0.0000000001127424
  0
ARC
  5
1AB49
330
18
100
AcDbEntity
  8
01
  6
CONTINUOUS
100
AcDbCircle
 10
2598.19854746166
 20
-402.6758577704609
 30
0.0000000001127424
 40
0.4637468103423387
100
AcDbArc
 50
5.742254937374508
 51
94.77209338380122
  0
ARC
  5
1AB4A
330
18
100
AcDbEntity
  8
01
  6
BYBLOCK
100
AcDbCircle
 10
2594.367073995933
 20
-410.5285127324851
 30
0.0000000001127424
 40
10.00000000000009
100
AcDbArc
 50
270.0
 51
295.4224671781395
  0
LINE
  5
1AB4B
330
18
100
AcDbEntity
  8
01
  6
CONTINUOUS
100
AcDbLine
 10
2587.659967214747
 20
-402.2137185396541
 30
0.0000000001127424
 11
2598.159967214747
 21
-402.2137185396541
 31
0.0000000001127424
  0
LINE
  5
1AB4C
330
18
100
AcDbEntity
  8
01
100
AcDbLine
 10
2894.659734535256
 20
-410.4321329385093
 30
0.0000000001127424
 11
2894.659734535256
 21
-447.5285127324985
 31
0.0000000001127424
  0
ARC
  5
1AB51
330
18
100
AcDbEntity
  8
01
100
AcDbCircle
 10
2893.659734535256
 20
-447.5285127324985
 30
0.0000000001127424
 40
1.0
100
AcDbArc
 50
270.0
 51
0.0
  0
LINE
  5
1AB56
330
18
100
AcDbEntity
  8
01
100
AcDbLine
 10
2853.074781705125
 20
-448.5285127324985
 30
0.0000000001127424
 11
2893.659734535256
 21
-448.5285127324983
 31
0.0000000001127424
  0
LINE
  5
1AB57
330
18
100
AcDbEntity
  8
01
100
AcDbLine
 10
2566.659967214747
 20
-432.5285127324985
 30
0.0000000001127424
 11
2506.659967214747
 21
-432.5285127324985
 31
0.0000000001127424
  0
LINE
  5
1AB58
330
18
100
AcDbEntity
  8
01
100
AcDbLine
 10
2536.659967214747
 20
-402.5285127324985
 30
0.0000000001127424
 11
2536.659967214747
 21
-462.5285127324985
 31
0.0000000001127424
  0
LINE
  5
1AB59
330
18
100
AcDbEntity
  8
01
  6
BYBLOCK
100
AcDbLine
 10
2894.659734535256
 20
-390.5272749800226
 30
0.0000000001128561
 11
2894.659734535256
 21
-410.4321329385089
 31
0.0000000001127424
  0
LINE
  5
1AB5A
330
18
100
AcDbEntity
  8
01
  6
BYBLOCK
100
AcDbLine
 10
2828.359734535255
 20
-374.5285127324985
 30
0.0000000001127424
 11
2854.296895977226
 21
-374.5285127324985
 31
0.0000000001127424
  0
ARC
  5
1AB5B
330
18
100
AcDbEntity
  8
1HIDDEN
100
AcDbCircle
 10
2893.659734535256
 20
-375.5285127324985
 30
0.0000000001127424
 40
1.0
100
AcDbArc
 50
0.0
 51
90.0
  0
LINE
  5
1AB5C
330
18
100
AcDbEntity
  8
1HIDDEN
100
AcDbLine
 10
2854.296895977226
 20
-374.5285127324985
 30
0.0000000001127424
 11
2893.659734535256
 21
-374.5285127324985
 31
0.0000000001127424
  0
LINE
  5
1AB5D
330
18
100
AcDbEntity
  8
1HIDDEN
100
AcDbLine
 10
2894.659734535256
 20
-375.5285127324985
 30
0.0000000001127424
 11
2894.659734535256
 21
-390.5272749800226
 31
0.0000000001128561
  0
LINE
  5
1AB5E
330
18
100
AcDbEntity
  8
01
100
AcDbLine
 10
2592.659967214747
 20
-354.5285127324985
 30
0.0000000001127424
 11
2578.659967214747
 21
-354.5285127324985
 31
0.0000000001127424
  0
LINE
  5
1AB5F
330
18
100
AcDbEntity
  8
01
  6
BYBLOCK
100
AcDbLine
 10
2586.159967214747
 20
-346.6285127324984
 30
0.0000000001127424
 11
2586.159967214747
 21
-476.4285127324983
 31
0.0000000001127424
  0
LINE
  5
1AB60
330
18
100
AcDbEntity
  8
01
  6
BYBLOCK
100
AcDbLine
 10
2586.159967214747
 20
-475.5285127324985
 30
0.0000000001127424
 11
2583.659967214747
 21
-475.5285127324985
 31
0.0000000001127424
  0
LINE
  5
1AB61
330
18
100
AcDbEntity
  8
01
  6
BYBLOCK
100
AcDbLine
 10
2583.659967214747
 20
-475.5285127324985
 30
0.0000000001127424
 11
2583.659967214747
 21
-459.0255690073461
 31
0.0000000001127424
  0
LINE
  5
1AB62
330
18
100
AcDbEntity
  8
01
  6
BYBLOCK
100
AcDbLine
 10
2587.659967214747
 20
-346.6285127324984
 30
0.0000000001127424
 11
2587.659967214747
 21
-476.4285127324983
 31
0.0000000001127424
  0
LINE
  5
1AB63
330
18
100
AcDbEntity
  8
01
  6
BYBLOCK
100
AcDbLine
 10
2587.659967214747
 20
-476.4285127324983
 30
0.0000000001127424
 11
2586.159967214747
 21
-476.4285127324983
 31
0.0000000001127424
  0
LINE
  5
1AB64
330
18
100
AcDbEntity
  8
01
  6
BYBLOCK
100
AcDbLine
 10
2586.159967214747
 20
-347.5285127324985
 30
0.0000000001127424
 11
2583.659967214747
 21
-347.5285127324985
 31
0.0000000001127424
  0
LINE
  5
1AB65
330
18
100
AcDbEntity
  8
01
  6
BYBLOCK
100
AcDbLine
 10
2587.659967214747
 20
-346.6285127324984
 30
0.0000000001127424
 11
2586.159967214747
 21
-346.6285127324984
 31
0.0000000001127424
  0
LINE
  5
1AB66
330
18
100
AcDbEntity
  8
01
  6
BYBLOCK
100
AcDbLine
 10
2586.159967214747
 20
-371.5285127324985
 30
0.0000000001127424
 11
2584.959967214747
 21
-371.5285127324985
 31
0.0000000001127424
  0
LINE
  5
1AB67
330
18
100
AcDbEntity
  8
01
  6
BYBLOCK
100
AcDbLine
 10
2584.959967214747
 20
-365.8285127324982
 30
0.0000000001127424
 11
2584.959967214747
 21
-457.2285127324983
 31
0.0000000001127424
  0
LINE
  5
1AB68
330
18
100
AcDbEntity
  8
01
  6
BYBLOCK
100
AcDbLine
 10
2584.859967214747
 20
-475.5285127324985
 30
0.0000000001127424
 11
2584.859967214747
 21
-458.9285127324983
 31
0.0000000001127424
  0
LINE
  5
1AB69
330
18
100
AcDbEntity
  8
01
  6
BYBLOCK
100
AcDbLine
 10
2584.859967214747
 20
-458.9285127324983
 30
0.0000000001127424
 11
2585.808495352171
 21
-457.9799845950745
 31
0.0000000001127424
  0
LINE
  5
1AB6A
330
18
100
AcDbEntity
  8
01
  6
BYBLOCK
100
AcDbLine
 10
2584.011439077323
 20
-458.1770408699222
 30
0.0000000001127424
 11
2584.959967214747
 21
-457.2285127324983
 31
0.0000000001127424
  0
ARC
  5
1AB6B
330
18
100
AcDbEntity
  8
01
  6
BYBLOCK
100
AcDbCircle
 10
2584.859967214747
 20
-459.0255690073461
 30
0.0000000001127424
 40
1.2
100
AcDbArc
 50
134.9999999999539
 51
180.0
  0
ARC
  5
1AB6C
330
18
100
AcDbEntity
  8
01
  6
BYBLOCK
100
AcDbCircle
 10
2584.959967214747
 20
-457.1314564576505
 30
0.0000000001127424
 40
1.2
100
AcDbArc
 50
314.999999999954
 51
0.0
  0
LINE
  5
1AB6D
330
18
100
AcDbEntity
  8
01
  6
BYBLOCK
100
AcDbLine
 10
2583.659967214747
 20
-347.5285127324985
 30
0.0000000001127424
 11
2583.659967214747
 21
-364.0314564576506
 31
0.0000000001127424
  0
LINE
  5
1AB6E
330
18
100
AcDbEntity
  8
01
  6
BYBLOCK
100
AcDbLine
 10
2584.859967214747
 20
-347.5285127324985
 30
0.0000000001127424
 11
2584.859967214747
 21
-364.1285127324984
 31
0.0000000001127424
  0
LINE
  5
1AB6F
330
18
100
AcDbEntity
  8
01
  6
BYBLOCK
100
AcDbLine
 10
2584.859967214747
 20
-364.1285127324984
 30
0.0000000001127424
 11
2585.808495352171
 21
-365.0770408699223
 31
0.0000000001127424
  0
LINE
  5
1AB70
330
18
100
AcDbEntity
  8
01
  6
BYBLOCK
100
AcDbLine
 10
2584.011439077323
 20
-364.8799845950746
 30
0.0000000001127424
 11
2584.959967214747
 21
-365.8285127324984
 31
0.0000000001127424
  0
ARC
  5
1AB71
330
18
100
AcDbEntity
  8
01
  6
BYBLOCK
100
AcDbCircle
 10
2584.859967214747
 20
-364.0314564576506
 30
0.0000000001127424
 40
1.2
100
AcDbArc
 50
180.0
 51
225.000000000046
  0
ARC
  5
1AB72
330
18
100
AcDbEntity
  8
01
  6
BYBLOCK
100
AcDbCircle
 10
2584.959967214747
 20
-365.9255690073462
 30
0.0000000001127424
 40
1.2
100
AcDbArc
 50
0.0
 51
45.00000000004606
  0
LINE
  5
1AB73
330
18
100
AcDbEntity
  8
01
  6
BYBLOCK
100
AcDbLine
 10
2584.959967214747
 20
-448.5285127324987
 30
0.0000000001127424
 11
2560.244920044876
 21
-448.5285127324985
 31
0.0000000001127424
  0
LINE
  5
1AB74
330
18
100
AcDbEntity
  8
01
  6
BYBLOCK
100
AcDbLine
 10
2594.367073995933
 20
-400.5285127324853
 30
0.0000000001127424
 11
2587.659967214747
 21
-400.5285127324853
 31
0.0000000001127424
  0
LINE
  5
1AB75
330
18
100
AcDbEntity
  8
01
  6
BYBLOCK
100
AcDbLine
 10
2594.367073995933
 20
-420.5285127324853
 30
0.0000000001127424
 11
2587.659967214747
 21
-420.5285127324853
 31
0.0000000001127424
  0
LINE
  5
1AB76
330
18
100
AcDbEntity
  8
01
100
AcDbLine
 10
2592.659967214459
 20
-468.5285127322097
 30
0.0000000001127424
 11
2578.659967214459
 21
-468.5285127322097
 31
0.0000000001127424
  0
LINE
  5
1AB77
330
18
100
AcDbEntity
  8
01
  6
BYBLOCK
100
AcDbLine
 10
2518.659967214747
 20
-390.5286731840005
 30
0.0000000001128341
 11
2518.659967214747
 21
-410.4321329385079
 31
0.0000000001127424
  0
LINE
  5
1AB78
330
18
100
AcDbEntity
  8
01
  6
BYBLOCK
100
AcDbLine
 10
2584.959967214747
 20
-374.5285127324985
 30
0.0000000001127424
 11
2559.020526650001
 21
-374.5285127324985
 31
0.0000000001128461
  0
TEXT
  5
1AB7B
330
18
100
AcDbEntity
  8
1TEXT
100
AcDbText
 10
2518.659866875
 20
-151.0285127324985
 30
0.0000000001127424
 40
20.0
  1
3-GLB-X-LJ
100
AcDbText
  0
LINE
  5
1AB7C
330
18
100
AcDbEntity
  8
01
100
AcDbLine
 10
2724.531449152825
 20
-432.5285127324985
 30
0.0000000001127424
 11
2747.159734535256
 21
-432.5285127324985
 31
0.0000000001127424
  0
LINE
  5
1AB7D
330
18
100
AcDbEntity
  8
01
  6
BYBLOCK
100
AcDbLine
 10
2825.660618717316
 20
-182.5285127335271
 30
0.0000000001127424
 11
2979.414998872347
 21
-182.5285127335271
 31
0.0000000001127424
  0
LINE
  5
1AB7E
330
18
100
AcDbEntity
  8
01
100
AcDbLine
 10
2876.659850874998
 20
-177.5285127335271
 30
0.0000000001127424
 11
2876.659850874998
 21
-204.0285127335271
 31
0.0000000001127424
  0
LINE
  5
1AB80
330
18
100
AcDbEntity
  8
01
100
AcDbLine
 10
2726.659734535256
 20
-312.5285127324985
 30
0.0000000001127424
 11
2726.659734535256
 21
-502.5285127324985
 31
0.0000000001127424
  0
LINE
  5
1AB81
330
18
100
AcDbEntity
  8
1CENTER
100
AcDbLine
 10
2741.159734535256
 20
-447.5285127324985
 30
0.0000000001127424
 11
2741.159734535256
 21
-439.5285127324985
 31
0.0000000001127424
  0
LINE
  5
1AB82
330
18
100
AcDbEntity
  8
01
100
AcDbLine
 10
2846.659734535256
 20
-432.5285127324985
 30
0.0000000001127424
 11
2906.659734535256
 21
-432.5285127324985
 31
0.0000000001127424
  0
LINE
  5
1AB83
330
18
100
AcDbEntity
  8
01
100
AcDbLine
 10
2876.659734535256
 20
-402.5285127324985
 30
0.0000000001127424
 11
2876.659734535256
 21
-462.5285127324985
 31
0.0000000001127424
  0
LINE
  5
1AB84
330
18
100
AcDbEntity
  8
01
100
AcDbLine
 10
2726.659734535256
 20
-407.5285127324985
 30
0.0000000001127424
 11
2726.659734535256
 21
-457.5285127324985
 31
0.0000000001127424
  0
LINE
  5
1AB85
330
18
100
AcDbEntity
  8
01
100
AcDbLine
 10
2724.531449152825
 20
-432.5285127324985
 30
0.0000000001127424
 11
2747.159734535256
 21
-432.5285127324985
 31
0.0000000001127424
  0
LINE
  5
1AB86
330
18
100
AcDbEntity
  8
1CENTER
100
AcDbLine
 10
2741.159734535256
 20
-447.5285127324985
 30
0.0000000001127424
 11
2741.159734535256
 21
-439.5285127324985
 31
0.0000000001127424
  0
ARC
  5
1AB87
330
18
100
AcDbEntity
  8
01
100
AcDbCircle
 10
1235.159734535256
 20
-432.5285127324985
 30
0.0000000001127424
 40
1500.0
100
AcDbArc
 50
359.0547130097186
 51
359.793734748218
  0
SPLINE
  5
1AB88
330
18
100
AcDbEntity
  8
01
100
AcDbSpline
210
0.0
220
0.0
230
1.0
 70
     8
 71
     3
 72
    46
 73
    42
 74
     0
 42
0.0000000001
 43
0.0000000001
 40
0.0
 40
0.0
 40
0.0
 40
0.0
 40
0.0624999999999994
 40
0.0624999999999994
 40
0.0937499999999992
 40
0.0937499999999992
 40
0.1249999999999991
 40
0.1249999999999991
 40
0.187499999999999
 40
0.187499999999999
 40
0.2499999999999989
 40
0.2499999999999989
 40
0.3124999999999987
 40
0.3124999999999987
 40
0.3437499999999987
 40
0.3437499999999987
 40
0.3749999999999987
 40
0.3749999999999987
 40
0.4374999999999988
 40
0.4374999999999988
 40
0.4999999999999988
 40
0.4999999999999988
 40
0.5624999999999988
 40
0.5624999999999988
 40
0.6249999999999989
 40
0.6249999999999989
 40
0.6562499999999989
 40
0.6562499999999989
 40
0.6874999999999989
 40
0.6874999999999989
 40
0.7499999999999993
 40
0.7499999999999993
 40
0.8124999999999997
 40
0.8124999999999997
 40
0.8437499999999999
 40
0.8437499999999999
 40
0.875
 40
0.875
 40
0.9375
 40
0.9375
 40
1.0
 40
1.0
 40
1.0
 40
1.0
 10
2735.105930236955
 20
-427.1285127324988
 30
0.0000000001127424
 10
2735.103195364621
 20
-427.1285127324988
 30
0.0000000001127424
 10
2735.100506169473
 20
-427.1635103779006
 30
0.0000000001127424
 10
2735.096538092633
 20
-427.2663575696922
 30
0.0000000001127424
 10
2735.095226434435
 20
-427.3090941391981
 30
0.0000000001127424
 10
2735.092625690025
 20
-427.4118614537799
 30
0.0000000001127424
 10
2735.091333073306
 20
-427.4721823379966
 30
0.0000000001127424
 10
2735.087572979793
 20
-427.675424581417
 30
0.0000000001127424
 10
2735.085195127223
 20
-427.8412555642369
 30
0.0000000001127424
 10
2735.08069486914
 20
-428.2330462386033
 30
0.0000000001127424
 10
2735.078564075772
 20
-428.4610936919341
 30
0.0000000001127424
 10
2735.074744738556
 20
-428.9592498187792
 30
0.0000000001127424
 10
2735.073030863242
 20
-429.2310631959342
 30
0.0000000001127424
 10
2735.070760743884
 20
-429.6736991211835
 30
0.0000000001127424
 10
2735.070055874129
 20
-429.8270671410771
 30
0.0000000001127424
 10
2735.068778378633
 20
-430.1387838236867
 30
0.0000000001127424
 10
2735.068201316401
 20
-430.2979496383002
 30
0.0000000001127424
 10
2735.066652382829
 20
-430.7852191541804
 30
0.0000000001127424
 10
2735.065857512366
 20
-431.12540672297
 30
0.0000000001127424
 10
2735.064793370487
 20
-431.8223872809801
 30
0.0000000001127424
 10
2735.064530016588
 20
-432.1727245357131
 30
0.0000000001127424
 10
2735.064526363375
 20
-432.8769941561793
 30
0.0000000001127424
 10
2735.064794552637
 20
-433.2346612331692
 30
0.0000000001127424
 10
2735.065849637928
 20
-433.9272077025478
 30
0.0000000001127424
 10
2735.066630505999
 20
-434.2638105893936
 30
0.0000000001127424
 10
2735.068183872793
 20
-434.7541300603905
 30
0.0000000001127424
 10
2735.068769639792
 20
-434.9159761433345
 30
0.0000000001127424
 10
2735.070050875021
 20
-435.2288702583435
 30
0.0000000001127424
 10
2735.070746274899
 20
-435.380193648685
 30
0.0000000001127424
 10
2735.07299286599
 20
-435.8191626857231
 30
0.0000000001127424
 10
2735.074702883824
 20
-436.0919535581422
 30
0.0000000001127424
 10
2735.078564002085
 20
-436.5962812186042
 30
0.0000000001127424
 10
2735.080659079368
 20
-436.8203064203469
 30
0.0000000001127424
 10
2735.084020631323
 20
-437.1137889577137
 30
0.0000000001127424
 10
2735.085178870627
 20
-437.2045967739994
 30
0.0000000001127424
 10
2735.0875723748
 20
-437.3718786046481
 30
0.0000000001127424
 10
2735.088813200134
 20
-437.4485752327362
 30
0.0000000001127424
 10
2735.092575446176
 20
-437.6521206731593
 30
0.0000000001127424
 10
2735.095155702499
 20
-437.7543584002794
 30
0.0000000001127424
 10
2735.100458594338
 20
-437.892752206172
 30
0.0000000001127424
 10
2735.103195352688
 20
-437.928512732499
 30
0.0000000001127424
 10
2735.105930236955
 20
-437.928512732499
 30
0.0000000001127424
  0
ARC
  5
1AB89
330
18
100
AcDbEntity
  8
01
100
AcDbCircle
 10
1235.159734535256
 20
-432.5285127324985
 30
0.0000000001127424
 40
1500.0
100
AcDbArc
 50
0.2062652517820224
 51
0.9452869902814662
  0
ARC
  5
1AB8A
330
18
100
AcDbEntity
  8
01
100
AcDbCircle
 10
2734.655632826086
 20
-407.7870291679653
 30
0.0000000001127424
 40
0.3000000000000317
100
AcDbArc
 50
0.9452869913239584
 51
81.36283119001705
  0
ARC
  5
1AB8B
330
18
100
AcDbEntity
  8
01
100
AcDbCircle
 10
2734.655632826086
 20
-457.2699962970325
 30
0.0000000001127424
 40
0.3000000000000037
100
AcDbArc
 50
278.6371688099829
 51
359.054713008676
  0
LINE
  5
1AB8C
330
18
100
AcDbEntity
  8
01
100
AcDbLine
 10
2733.074155831405
 20
-407.24336248142
 30
0.0000000001127424
 11
2734.700685846919
 21
-407.49043141795
 31
0.0000000001127424
  0
LINE
  5
1AB8D
330
18
100
AcDbEntity
  8
01
100
AcDbLine
 10
2734.700685846919
 20
-457.5665940470469
 30
0.0000000001127424
 11
2733.074155831405
 21
-457.8136629835778
 31
0.0000000001127424
  0
ARC
  5
1AB8E
330
18
100
AcDbEntity
  8
01
100
AcDbCircle
 10
2733.449597671676
 20
-460.2853109003679
 30
0.0000000001127424
 40
2.500000000000002
100
AcDbArc
 50
98.63716880998294
 51
158.1985905136312
  0
ARC
  5
1AB8F
330
18
100
AcDbEntity
  8
01
100
AcDbCircle
 10
2733.449597671676
 20
-404.7717145646291
 30
0.0000000001127424
 40
2.500000000000016
100
AcDbArc
 50
201.8014094863688
 51
261.3628311900171
  0
LINE
  5
1AB90
330
18
100
AcDbEntity
  8
01
100
AcDbLine
 10
2730.535167654093
 20
-404.2170955295921
 30
0.0000000001127424
 11
2731.128405944463
 21
-405.7001912555149
 31
0.0000000001127424
  0
LINE
  5
1AB91
330
18
100
AcDbEntity
  8
01
100
AcDbLine
 10
2731.128405944463
 20
-459.3568342094829
 30
0.0000000001127424
 11
2730.535167654093
 21
-460.8399299354048
 31
0.0000000001127424
  0
ARC
  5
1AB92
330
18
100
AcDbEntity
  8
01
100
AcDbCircle
 10
2730.256624646828
 20
-404.3285127324987
 30
0.0000000001127424
 40
0.3000000000000114
100
AcDbArc
 50
21.80140948636875
 51
90.0
  0
ARC
  5
1AB93
330
18
100
AcDbEntity
  8
01
100
AcDbCircle
 10
2730.256624646828
 20
-460.7285127324983
 30
0.0000000001127424
 40
0.2999999999999972
100
AcDbArc
 50
270.0
 51
338.1985905136312
  0
LINE
  5
1AB94
330
18
100
AcDbEntity
  8
01
100
AcDbLine
 10
2730.256624646828
 20
-461.0285127324985
 30
0.0000000001127424
 11
2726.659734535256
 21
-461.0285127324985
 31
0.0000000001127424
  0
LINE
  5
1AB95
330
18
100
AcDbEntity
  8
01
100
AcDbLine
 10
2726.659734535256
 20
-404.0285127324985
 30
0.0000000001127424
 11
2730.256624646828
 21
-404.0285127324985
 31
0.0000000001127424
  0
LINE
  5
1AB96
330
18
100
AcDbEntity
  8
01
100
AcDbLine
 10
2726.659734535256
 20
-461.0285127324985
 30
0.0000000001127424
 11
2726.659734535256
 21
-404.0285127324985
 31
0.0000000001127424
  0
LINE
  5
1AB97
330
18
100
AcDbEntity
  8
01
100
AcDbLine
 10
2730.459734535257
 20
-404.613125164831
 30
0.0000000001127424
 11
2730.459734535257
 21
-460.1547059181573
 31
0.0000000001127424
  0
LINE
  5
1AB99
330
18
100
AcDbEntity
  8
01
100
AcDbLine
 10
2755.657415281011
 20
-424.0285127324985
 30
0.0000000001127424
 11
2754.593276665472
 21
-424.0285127324985
 31
0.0000000001127424
  0
LINE
  5
1AB9A
330
18
100
AcDbEntity
  8
01
100
AcDbLine
 10
2755.657415281011
 20
-441.0285127324985
 30
0.0000000001127424
 11
2754.593276665472
 21
-441.0285127324985
 31
0.0000000001127424
  0
LINE
  5
1AB9B
330
18
100
AcDbEntity
  8
01
100
AcDbLine
 10
2735.659734535261
 20
-446.5285127325803
 30
0.0000000001127424
 11
2735.65973453525
 21
-418.5285127323721
 31
0.0000000001127424
  0
ARC
  5
1AB9C
330
18
100
AcDbEntity
  8
01
100
AcDbCircle
 10
2733.766421374627
 20
-415.7822169524641
 30
0.0000000001127424
 40
30.0
100
AcDbArc
 50
277.4567122819772
 51
295.7148631092972
  0
ARC
  5
1AB9D
330
18
100
AcDbEntity
  8
01
100
AcDbCircle
 10
2754.593276665472
 20
-459.0285127324985
 30
0.0000000001127424
 40
18.0
100
AcDbArc
 50
90.0
 51
115.7148631092972
  0
ARC
  5
1AB9E
330
18
100
AcDbEntity
  8
01
100
AcDbCircle
 10
2733.766421374627
 20
-449.2748085125329
 30
0.0000000001127424
 40
30.0
100
AcDbArc
 50
64.28513689070283
 51
82.54328771802285
  0
ARC
  5
1AB9F
330
18
100
AcDbEntity
  8
01
100
AcDbCircle
 10
2754.593276665472
 20
-406.0285127324985
 30
0.0000000001127424
 40
18.0
100
AcDbArc
 50
244.2851368907028
 51
270.0
  0
ARC
  5
1ABA0
330
18
100
AcDbEntity
  8
01
100
AcDbCircle
 10
2777.659734535257
 20
-432.5285127324985
 30
0.0000000001127424
 40
13.89492221023397
100
AcDbArc
 50
215.2320895118606
 51
144.7679104881394
  0
ARC
  5
1ABA1
330
18
100
AcDbEntity
  8
01
100
AcDbCircle
 10
2777.659734535257
 20
-432.5285127324985
 30
0.0000000001127424
 40
7.5
100
AcDbArc
 50
270.0000000000521
 51
90.0
  0
LINE
  5
1ABA2
330
18
100
AcDbEntity
  8
01
100
AcDbLine
 10
2777.659734535257
 20
-425.0285127324985
 30
0.0000000001127424
 11
2755.657415281011
 21
-424.0285127324985
 31
0.0000000001127424
  0
LINE
  5
1ABA3
330
18
100
AcDbEntity
  8
01
100
AcDbLine
 10
2777.659734535261
 20
-440.0285127324985
 30
0.0000000001127424
 11
2755.657415281011
 21
-441.0285127324985
 31
0.0000000001127424
  0
ARC
  5
1ABA4
330
18
100
AcDbEntity
  8
01
100
AcDbCircle
 10
2733.766421374627
 20
-415.7822169524632
 30
0.0000000001127424
 40
30.0
100
AcDbArc
 50
277.4567122819772
 51
278.2278741503167
  0
LINE
  5
1ABA5
330
18
100
AcDbEntity
  8
1HATCH
100
AcDbLine
 10
2761.963277795853
 20
-424.3151126332602
 30
0.0000000001127424
 11
2762.13537942566
 21
-424.4872142630682
 31
0.0000000001127424
1001
GRADIENTCOLOR1ACI
1070
     5
1001
GRADIENTCOLOR2ACI
1070
     2
1001
ACAD
1010
0.0
1020
0.0
1030
0.0
  0
LINE
  5
1ABA6
330
18
100
AcDbEntity
  8
01
100
AcDbLine
 10
2735.659734535261
 20
-446.5285127325803
 30
0.0000000001127424
 11
2736.159734535257
 21
-446.5285127325803
 31
0.0000000001127424
  0
ARC
  5
1ABA7
330
18
100
AcDbEntity
  8
01
100
AcDbCircle
 10
2735.919396597595
 20
-444.5430058260906
 30
0.0000000001127424
 40
2.0
100
AcDbArc
 50
276.9018543472715
 51
330.4782807048537
  0
LINE
  5
1ABA8
330
18
100
AcDbEntity
  8
01
100
AcDbLine
 10
2735.659734535254
 20
-418.5285139618788
 30
0.0000000001127424
 11
2736.159734535257
 21
-418.5285139618788
 31
0.0000000001127424
  0
ARC
  5
1ABA9
330
18
100
AcDbEntity
  8
01
100
AcDbCircle
 10
2735.919396597595
 20
-420.5140208683686
 30
0.0000000001127424
 40
2.0
100
AcDbArc
 50
29.52171929514627
 51
83.09814565272852
  0
ARC
  5
1ABAB
330
18
100
AcDbEntity
  8
01
100
AcDbCircle
 10
2876.65973453527
 20
-432.5285127325055
 30
0.0000000001127424
 40
28.5
100
AcDbArc
 50
270.0
 51
344.7424767095418
  0
ARC
  5
1ABAC
330
18
100
AcDbEntity
  8
01
100
AcDbCircle
 10
2876.65973453527
 20
-432.5285127325055
 30
0.0000000001127424
 40
28.5
100
AcDbArc
 50
15.25752329047076
 51
269.9404809058121
  0
ARC
  5
1ABAD
330
18
100
AcDbEntity
  8
01
100
AcDbCircle
 10
2876.65973453527
 20
-432.5285127325055
 30
0.0000000001127424
 40
25.50000000000034
100
AcDbArc
 50
17.10463517664097
 51
342.8953648233777
  0
ARC
  5
1ABAE
330
18
100
AcDbEntity
  8
01
100
AcDbCircle
 10
2876.65973453527
 20
-432.5285127325051
 30
0.0000000001127424
 40
25.00000000000034
100
AcDbArc
 50
17.45760312373877
 51
342.5423968762799
  0
LINE
  5
1ABAF
330
18
100
AcDbEntity
  8
01
100
AcDbLine
 10
2878.653714622183
 20
-440.0285127324985
 30
0.0000000001127424
 11
2908.739528970763
 21
-440.0285127324985
 31
0.0000000001127424
  0
LINE
  5
1ABB0
330
18
100
AcDbEntity
  8
01
100
AcDbLine
 10
2878.223775918309
 20
-425.0285127324985
 30
0.0000000001127424
 11
2908.235042586323
 21
-425.0285127324985
 31
0.0000000001127424
  0
LINE
  5
1ABB1
330
18
100
AcDbEntity
  8
01
100
AcDbLine
 10
2995.159734535257
 20
-424.6156543855568
 30
0.0000000001127424
 11
2995.159734535256
 21
-440.4413710794406
 31
0.0000000001127424
  0
ARC
  5
1ABB2
330
18
100
AcDbEntity
  8
01
100
AcDbCircle
 10
2974.436512793704
 20
-460.5599797253592
 30
0.0000000001127424
 40
42.0
100
AcDbArc
 50
61.24572459628552
 51
101.161289609138
  0
ARC
  5
1ABB3
330
18
100
AcDbEntity
  8
01
100
AcDbCircle
 10
2994.159734535257
 20
-424.6156543855568
 30
0.0000000001127424
 40
1.0
100
AcDbArc
 50
0.0
 51
61.24572459628552
  0
ARC
  5
1ABB4
330
18
100
AcDbEntity
  8
01
100
AcDbCircle
 10
2908.235042586323
 20
-125.0285127324985
 30
0.0000000001127424
 40
300.0
100
AcDbArc
 50
270.0
 51
281.161289609138
  0
ARC
  5
1ABB5
330
18
100
AcDbEntity
  8
01
100
AcDbCircle
 10
2974.436512793704
 20
-404.4970457396378
 30
0.0000000001127424
 40
42.0
100
AcDbArc
 50
258.838710390862
 51
298.7542754037145
  0
ARC
  5
1ABB6
330
18
100
AcDbEntity
  8
01
100
AcDbCircle
 10
2994.159734535256
 20
-440.4413710794406
 30
0.0000000001127424
 40
1.0
100
AcDbArc
 50
298.7542754037145
 51
0.0
  0
ARC
  5
1ABB7
330
18
100
AcDbEntity
  8
01
100
AcDbCircle
 10
2908.235042586323
 20
-740.0285127324985
 30
0.0000000001127424
 40
300.0
100
AcDbArc
 50
78.83871039086202
 51
90.0
  0
ARC
  5
1ABB8
330
18
100
AcDbEntity
  8
01
100
AcDbCircle
 10
2876.659734535256
 20
-432.5285127324985
 30
0.0000000001127424
 40
13.99999999999864
100
AcDbArc
 50
32.39236548588711
 51
327.6076345141129
  0
ARC
  5
1ABB9
330
18
100
AcDbEntity
  8
01
100
AcDbCircle
 10
2876.659734535257
 20
-432.5285127324985
 30
0.0000000001127424
 40
12.99999999999909
100
AcDbArc
 50
35.23441798459615
 51
324.7655820154039
  0
ELLIPSE
  5
1ABBA
330
18
100
AcDbEntity
  8
01
100
AcDbEllipse
 10
2876.659734535256
 20
-444.6803120882978
 30
0.0000000001127424
 11
3.199999999999818
 21
0.0
 31
0.0
210
0.0
220
0.0
230
-1.0
 40
0.2478458218750176
 41
0.0
 42
6.283185307179586
  0
LINE
  5
1ABBB
330
18
100
AcDbEntity
  8
01
100
AcDbLine
 10
2997.156395427036
 20
-426.5285127324985
 30
0.0000000001127424
 11
2997.156395427036
 21
-438.5285127324987
 31
0.0000000001127424
  0
ARC
  5
1ABBC
330
18
100
AcDbEntity
  8
01
100
AcDbCircle
 10
2997.156395427036
 20
-432.5285127324985
 30
0.0000000001127424
 40
6.0
100
AcDbArc
 50
270.0
 51
90.0
  0
LINE
  5
1ABBD
330
18
100
AcDbEntity
  8
01
100
AcDbLine
 10
2995.159734535256
 20
-425.0285127324985
 30
0.0000000001127424
 11
2995.659734535256
 21
-425.0285127324985
 31
0.0000000001127424
  0
ARC
  5
1ABBE
330
18
100
AcDbEntity
  8
01
100
AcDbCircle
 10
2995.207249799832
 20
-426.9766548125858
 30
0.0000000001127424
 40
2.0
100
AcDbArc
 50
12.94825799928985
 51
76.92405539483647
  0
LINE
  5
1ABBF
330
18
100
AcDbEntity
  8
01
100
AcDbLine
 10
2995.159734535256
 20
-440.0285127324985
 30
0.0000000001127424
 11
2995.659734535256
 21
-440.0285127324985
 31
0.0000000001127424
  0
ARC
  5
1ABC0
330
18
100
AcDbEntity
  8
01
100
AcDbCircle
 10
2995.207249799832
 20
-438.0803706524109
 30
0.0000000001127424
 40
2.0
100
AcDbArc
 50
283.0759446051636
 51
347.0517420006911
  0
LINE
  5
1ABC1
330
18
100
AcDbEntity
  8
1CENTER
100
AcDbLine
 10
2672.159967214745
 20
-447.5285127324985
 30
0.0000000001127424
 11
2672.159967214745
 21
-439.5285127324985
 31
0.0000000001127424
  0
LINE
  5
1ABC2
330
18
100
AcDbEntity
  8
01
100
AcDbLine
 10
2536.659967214745
 20
-402.5285127324985
 30
0.0000000001127424
 11
2536.659967214745
 21
-462.5285127324985
 31
0.0000000001127424
  0
LINE
  5
1ABC3
330
18
100
AcDbEntity
  8
01
100
AcDbLine
 10
2686.659967214745
 20
-407.5285127324985
 30
0.0000000001127424
 11
2686.659967214745
 21
-457.5285127324985
 31
0.0000000001127424
  0
LINE
  5
1ABC4
330
18
100
AcDbEntity
  8
1CENTER
100
AcDbLine
 10
2672.159967214745
 20
-447.5285127324985
 30
0.0000000001127424
 11
2672.159967214745
 21
-439.5285127324985
 31
0.0000000001127424
  0
ARC
  5
1ABC5
330
18
100
AcDbEntity
  8
01
100
AcDbCircle
 10
4178.159967214745
 20
-432.5285127324985
 30
0.0000000001127424
 40
1500.0
100
AcDbArc
 50
180.206265251782
 51
180.9452869902815
  0
SPLINE
  5
1ABC6
330
18
100
AcDbEntity
  8
01
100
AcDbSpline
210
0.0
220
0.0
230
1.0
 70
     8
 71
     3
 72
    46
 73
    42
 74
     0
 42
0.0000000001
 43
0.0000000001
 40
0.0
 40
0.0
 40
0.0
 40
0.0
 40
0.0624999999999994
 40
0.0624999999999994
 40
0.0937499999999992
 40
0.0937499999999992
 40
0.1249999999999991
 40
0.1249999999999991
 40
0.187499999999999
 40
0.187499999999999
 40
0.2499999999999989
 40
0.2499999999999989
 40
0.3124999999999987
 40
0.3124999999999987
 40
0.3437499999999987
 40
0.3437499999999987
 40
0.3749999999999987
 40
0.3749999999999987
 40
0.4374999999999988
 40
0.4374999999999988
 40
0.4999999999999988
 40
0.4999999999999988
 40
0.5624999999999988
 40
0.5624999999999988
 40
0.6249999999999989
 40
0.6249999999999989
 40
0.6562499999999989
 40
0.6562499999999989
 40
0.6874999999999989
 40
0.6874999999999989
 40
0.7499999999999993
 40
0.7499999999999993
 40
0.8124999999999997
 40
0.8124999999999997
 40
0.8437499999999999
 40
0.8437499999999999
 40
0.875
 40
0.875
 40
0.9375
 40
0.9375
 40
1.0
 40
1.0
 40
1.0
 40
1.0
 10
2678.213771513046
 20
-427.1285127324988
 30
0.0000000001127424
 10
2678.21650638538
 20
-427.1285127324988
 30
0.0000000001127424
 10
2678.219195580527
 20
-427.1635103779006
 30
0.0000000001127424
 10
2678.223163657368
 20
-427.2663575696922
 30
0.0000000001127424
 10
2678.224475315566
 20
-427.3090941391981
 30
0.0000000001127424
 10
2678.227076059976
 20
-427.4118614537799
 30
0.0000000001127424
 10
2678.228368676694
 20
-427.4721823379966
 30
0.0000000001127424
 10
2678.232128770208
 20
-427.675424581417
 30
0.0000000001127424
 10
2678.234506622778
 20
-427.8412555642369
 30
0.0000000001127424
 10
2678.239006880861
 20
-428.2330462386033
 30
0.0000000001127424
 10
2678.241137674228
 20
-428.4610936919341
 30
0.0000000001127424
 10
2678.244957011445
 20
-428.9592498187792
 30
0.0000000001127424
 10
2678.246670886759
 20
-429.2310631959342
 30
0.0000000001127424
 10
2678.248941006116
 20
-429.6736991211835
 30
0.0000000001127424
 10
2678.249645875871
 20
-429.8270671410771
 30
0.0000000001127424
 10
2678.250923371367
 20
-430.1387838236867
 30
0.0000000001127424
 10
2678.251500433599
 20
-430.2979496383002
 30
0.0000000001127424
 10
2678.253049367172
 20
-430.7852191541804
 30
0.0000000001127424
 10
2678.253844237634
 20
-431.12540672297
 30
0.0000000001127424
 10
2678.254908379514
 20
-431.8223872809801
 30
0.0000000001127424
 10
2678.255171733413
 20
-432.1727245357131
 30
0.0000000001127424
 10
2678.255175386626
 20
-432.8769941561793
 30
0.0000000001127424
 10
2678.254907197364
 20
-433.2346612331692
 30
0.0000000001127424
 10
2678.253852112072
 20
-433.9272077025478
 30
0.0000000001127424
 10
2678.253071244001
 20
-434.2638105893936
 30
0.0000000001127424
 10
2678.251517877207
 20
-434.7541300603905
 30
0.0000000001127424
 10
2678.250932110209
 20
-434.9159761433345
 30
0.0000000001127424
 10
2678.24965087498
 20
-435.2288702583435
 30
0.0000000001127424
 10
2678.248955475102
 20
-435.380193648685
 30
0.0000000001127424
 10
2678.24670888401
 20
-435.8191626857231
 30
0.0000000001127424
 10
2678.244998866177
 20
-436.0919535581422
 30
0.0000000001127424
 10
2678.241137747916
 20
-436.5962812186042
 30
0.0000000001127424
 10
2678.239042670632
 20
-436.8203064203469
 30
0.0000000001127424
 10
2678.235681118677
 20
-437.1137889577137
 30
0.0000000001127424
 10
2678.234522879374
 20
-437.2045967739994
 30
0.0000000001127424
 10
2678.2321293752
 20
-437.3718786046481
 30
0.0000000001127424
 10
2678.230888549867
 20
-437.4485752327362
 30
0.0000000001127424
 10
2678.227126303825
 20
-437.6521206731593
 30
0.0000000001127424
 10
2678.224546047501
 20
-437.7543584002794
 30
0.0000000001127424
 10
2678.219243155662
 20
-437.892752206172
 30
0.0000000001127424
 10
2678.216506397313
 20
-437.928512732499
 30
0.0000000001127424
 10
2678.213771513046
 20
-437.928512732499
 30
0.0000000001127424
  0
ARC
  5
1ABC7
330
18
100
AcDbEntity
  8
01
100
AcDbCircle
 10
4178.159967214745
 20
-432.5285127324985
 30
0.0000000001127424
 40
1500.0
100
AcDbArc
 50
179.0547130097185
 51
179.793734748218
  0
ARC
  5
1ABC8
330
18
100
AcDbEntity
  8
01
100
AcDbCircle
 10
2678.664068923915
 20
-407.7870291679653
 30
0.0000000001127424
 40
0.3000000000000317
100
AcDbArc
 50
98.63716880998294
 51
179.054713008676
  0
ARC
  5
1ABC9
330
18
100
AcDbEntity
  8
01
100
AcDbCircle
 10
2678.664068923915
 20
-457.2699962970325
 30
0.0000000001127424
 40
0.3000000000000037
100
AcDbArc
 50
180.945286991324
 51
261.3628311900171
  0
LINE
  5
1ABCA
330
18
100
AcDbEntity
  8
01
100
AcDbLine
 10
2680.245545918596
 20
-407.24336248142
 30
0.0000000001127424
 11
2678.619015903082
 21
-407.49043141795
 31
0.0000000001127424
  0
LINE
  5
1ABCB
330
18
100
AcDbEntity
  8
01
100
AcDbLine
 10
2678.619015903082
 20
-457.5665940470469
 30
0.0000000001127424
 11
2680.245545918596
 21
-457.8136629835778
 31
0.0000000001127424
  0
ARC
  5
1ABCC
330
18
100
AcDbEntity
  8
01
100
AcDbCircle
 10
2679.870104078324
 20
-460.2853109003679
 30
0.0000000001127424
 40
2.500000000000002
100
AcDbArc
 50
21.80140948635665
 51
81.36283119001705
  0
ARC
  5
1ABCD
330
18
100
AcDbEntity
  8
01
100
AcDbCircle
 10
2679.870104078324
 20
-404.7717145646291
 30
0.0000000001127424
 40
2.500000000000016
100
AcDbArc
 50
278.6371688099829
 51
338.1985905136434
  0
LINE
  5
1ABCE
330
18
100
AcDbEntity
  8
01
100
AcDbLine
 10
2682.784534095907
 20
-404.2170955295921
 30
0.0000000001127424
 11
2682.191295805537
 21
-405.7001912555149
 31
0.0000000001127424
  0
LINE
  5
1ABCF
330
18
100
AcDbEntity
  8
01
100
AcDbLine
 10
2682.191295805537
 20
-459.3568342094829
 30
0.0000000001127424
 11
2682.784534095907
 21
-460.8399299354048
 31
0.0000000001127424
  0
ARC
  5
1ABD0
330
18
100
AcDbEntity
  8
01
100
AcDbCircle
 10
2683.063077103173
 20
-404.3285127324987
 30
0.0000000001127424
 40
0.3000000000000114
100
AcDbArc
 50
90.0
 51
158.1985905136434
  0
ARC
  5
1ABD1
330
18
100
AcDbEntity
  8
01
100
AcDbCircle
 10
2683.063077103173
 20
-460.7285127324983
 30
0.0000000001127424
 40
0.2999999999999972
100
AcDbArc
 50
201.8014094863566
 51
270.0
  0
LINE
  5
1ABD2
330
18
100
AcDbEntity
  8
01
100
AcDbLine
 10
2683.063077103173
 20
-461.0285127324985
 30
0.0000000001127424
 11
2686.659967214745
 21
-461.0285127324985
 31
0.0000000001127424
  0
LINE
  5
1ABD3
330
18
100
AcDbEntity
  8
01
100
AcDbLine
 10
2686.659967214745
 20
-404.0285127324985
 30
0.0000000001127424
 11
2683.063077103173
 21
-404.0285127324985
 31
0.0000000001127424
  0
LINE
  5
1ABD4
330
18
100
AcDbEntity
  8
01
100
AcDbLine
 10
2686.659967214745
 20
-461.0285127324985
 30
0.0000000001127424
 11
2686.659967214745
 21
-404.0285127324985
 31
0.0000000001127424
  0
LINE
  5
1ABD5
330
18
100
AcDbEntity
  8
01
100
AcDbLine
 10
2682.859967214744
 20
-404.613125164831
 30
0.0000000001127424
 11
2682.859967214744
 21
-460.1547059181573
 31
0.0000000001127424
  0
LINE
  5
1ABD7
330
18
100
AcDbEntity
  8
01
100
AcDbLine
 10
2657.66228646899
 20
-424.0285127324985
 30
0.0000000001127424
 11
2658.726425084528
 21
-424.0285127324985
 31
0.0000000001127424
  0
LINE
  5
1ABD8
330
18
100
AcDbEntity
  8
01
100
AcDbLine
 10
2657.66228646899
 20
-441.0285127324985
 30
0.0000000001127424
 11
2658.726425084528
 21
-441.0285127324985
 31
0.0000000001127424
  0
LINE
  5
1ABD9
330
18
100
AcDbEntity
  8
01
100
AcDbLine
 10
2677.659967214739
 20
-446.5285127325803
 30
0.0000000001127424
 11
2677.65996721475
 21
-418.5285127323721
 31
0.0000000001127424
  0
ARC
  5
1ABDA
330
18
100
AcDbEntity
  8
01
100
AcDbCircle
 10
2679.553280375373
 20
-415.7822169524641
 30
0.0000000001127424
 40
30.0
100
AcDbArc
 50
244.2851368907028
 51
262.5432877180228
  0
ARC
  5
1ABDB
330
18
100
AcDbEntity
  8
01
100
AcDbCircle
 10
2658.726425084528
 20
-459.0285127324985
 30
0.0000000001127424
 40
18.0
100
AcDbArc
 50
64.28513689070283
 51
90.0
  0
ARC
  5
1ABDC
330
18
100
AcDbEntity
  8
01
100
AcDbCircle
 10
2679.553280375373
 20
-449.2748085125329
 30
0.0000000001127424
 40
30.0
100
AcDbArc
 50
97.45671228197715
 51
115.7148631092972
  0
ARC
  5
1ABDD
330
18
100
AcDbEntity
  8
01
100
AcDbCircle
 10
2658.726425084528
 20
-406.0285127324985
 30
0.0000000001127424
 40
18.0
100
AcDbArc
 50
270.0
 51
295.7148631092972
  0
ARC
  5
1ABDE
330
18
100
AcDbEntity
  8
01
100
AcDbCircle
 10
2635.659967214743
 20
-432.5285127324985
 30
0.0000000001127424
 40
13.89492221023397
100
AcDbArc
 50
35.23208951186059
 51
324.7679104881394
  0
ARC
  5
1ABDF
330
18
100
AcDbEntity
  8
01
100
AcDbCircle
 10
2635.659967214743
 20
-432.5285127324985
 30
0.0000000001127424
 40
7.5
100
AcDbArc
 50
90.0
 51
270.0
  0
LINE
  5
1ABE0
330
18
100
AcDbEntity
  8
01
100
AcDbLine
 10
2635.659967214743
 20
-425.0285127324985
 30
0.0000000001127424
 11
2657.66228646899
 21
-424.0285127324985
 31
0.0000000001127424
  0
LINE
  5
1ABE1
330
18
100
AcDbEntity
  8
01
100
AcDbLine
 10
2635.659967214739
 20
-440.0285127324985
 30
0.0000000001127424
 11
2657.66228646899
 21
-441.0285127324985
 31
0.0000000001127424
  0
ARC
  5
1ABE2
330
18
100
AcDbEntity
  8
01
100
AcDbCircle
 10
2679.553280375373
 20
-415.7822169524632
 30
0.0000000001127424
 40
30.0
100
AcDbArc
 50
261.7721258496308
 51
262.5432877180228
  0
LINE
  5
1ABE3
330
18
100
AcDbEntity
  8
1HATCH
100
AcDbLine
 10
2651.356423954147
 20
-424.3151126332602
 30
0.0000000001127424
 11
2651.18432232434
 21
-424.4872142630682
 31
0.0000000001127424
1001
GRADIENTCOLOR1ACI
1070
     5
1001
GRADIENTCOLOR2ACI
1070
     2
1001
ACAD
1010
0.0
1020
0.0
1030
0.0
  0
LINE
  5
1ABE4
330
18
100
AcDbEntity
  8
01
100
AcDbLine
 10
2677.659967214739
 20
-446.5285127325803
 30
0.0000000001127424
 11
2677.159967214743
 21
-446.5285127325803
 31
0.0000000001127424
  0
ARC
  5
1ABE5
330
18
100
AcDbEntity
  8
01
100
AcDbCircle
 10
2677.400305152406
 20
-444.5430058260906
 30
0.0000000001127424
 40
2.0
100
AcDbArc
 50
209.521719295164
 51
263.0981456527811
  0
LINE
  5
1ABE6
330
18
100
AcDbEntity
  8
01
100
AcDbLine
 10
2677.659967214747
 20
-418.5285139618788
 30
0.0000000001127424
 11
2677.159967214743
 21
-418.5285139618788
 31
0.0000000001127424
  0
ARC
  5
1ABE7
330
18
100
AcDbEntity
  8
01
100
AcDbCircle
 10
2677.400305152406
 20
-420.5140208683686
 30
0.0000000001127424
 40
2.0
100
AcDbArc
 50
96.90185434721896
 51
150.478280704836
  0
ARC
  5
1ABE8
330
18
100
AcDbEntity
  8
01
100
AcDbCircle
 10
2536.65996721473
 20
-432.5285127325055
 30
0.0000000001127424
 40
28.5
100
AcDbArc
 50
195.2575232904582
 51
270.0
  0
ARC
  5
1ABE9
330
18
100
AcDbEntity
  8
01
100
AcDbCircle
 10
2536.65996721473
 20
-432.5285127325055
 30
0.0000000001127424
 40
28.5
100
AcDbArc
 50
270.05951909424
 51
164.7424767095292
  0
ARC
  5
1ABEA
330
18
100
AcDbEntity
  8
01
100
AcDbCircle
 10
2536.65996721473
 20
-432.5285127325055
 30
0.0000000001127424
 40
25.50000000000034
100
AcDbArc
 50
197.1046351766285
 51
162.8953648233466
  0
ARC
  5
1ABEB
330
18
100
AcDbEntity
  8
01
100
AcDbCircle
 10
2536.65996721473
 20
-432.5285127325051
 30
0.0000000001127424
 40
25.00000000000034
100
AcDbArc
 50
197.4576031237038
 51
162.5423968762737
  0
LINE
  5
1ABEC
330
18
100
AcDbEntity
  8
01
100
AcDbLine
 10
2534.665987127818
 20
-440.0285127324985
 30
0.0000000001127424
 11
2504.580172779238
 21
-440.0285127324985
 31
0.0000000001127424
  0
LINE
  5
1ABED
330
18
100
AcDbEntity
  8
01
100
AcDbLine
 10
2535.095925831692
 20
-425.0285127324985
 30
0.0000000001127424
 11
2505.084659163677
 21
-425.0285127324985
 31
0.0000000001127424
  0
LINE
  5
1ABEE
330
18
100
AcDbEntity
  8
01
100
AcDbLine
 10
2418.159967214743
 20
-424.6156543855568
 30
0.0000000001127424
 11
2418.159967214745
 21
-440.4413710794406
 31
0.0000000001127424
  0
ARC
  5
1ABEF
330
18
100
AcDbEntity
  8
01
100
AcDbCircle
 10
2438.883188956296
 20
-460.5599797253592
 30
0.0000000001127424
 40
42.0
100
AcDbArc
 50
78.83871039080964
 51
118.7542754037145
  0
ARC
  5
1ABF0
330
18
100
AcDbEntity
  8
01
100
AcDbCircle
 10
2419.159967214743
 20
-424.6156543855568
 30
0.0000000001127424
 40
1.0
100
AcDbArc
 50
118.7542754037145
 51
180.0
  0
ARC
  5
1ABF1
330
18
100
AcDbEntity
  8
01
100
AcDbCircle
 10
2505.084659163677
 20
-125.0285127324985
 30
0.0000000001127424
 40
300.0
100
AcDbArc
 50
258.8387103908096
 51
270.0
  0
ARC
  5
1ABF2
330
18
100
AcDbEntity
  8
01
100
AcDbCircle
 10
2438.883188956296
 20
-404.4970457396378
 30
0.0000000001127424
 40
42.0
100
AcDbArc
 50
241.2457245962855
 51
281.1612896091904
  0
ARC
  5
1ABF3
330
18
100
AcDbEntity
  8
01
100
AcDbCircle
 10
2419.159967214745
 20
-440.4413710794406
 30
0.0000000001127424
 40
1.0
100
AcDbArc
 50
180.0
 51
241.2457245962855
  0
ARC
  5
1ABF4
330
18
100
AcDbEntity
  8
01
100
AcDbCircle
 10
2505.084659163677
 20
-740.0285127324985
 30
0.0000000001127424
 40
300.0
100
AcDbArc
 50
90.0
 51
101.1612896091904
  0
ARC
  5
1ABF5
330
18
100
AcDbEntity
  8
01
100
AcDbCircle
 10
2536.659967214745
 20
-432.5285127324985
 30
0.0000000001127424
 40
13.99999999999864
100
AcDbArc
 50
212.3923654858871
 51
147.6076345141129
  0
ARC
  5
1ABF6
330
18
100
AcDbEntity
  8
01
100
AcDbCircle
 10
2536.659967214743
 20
-432.5285127324985
 30
0.0000000001127424
 40
12.99999999999909
100
AcDbArc
 50
215.2344179845961
 51
144.7655820154039
  0
ELLIPSE
  5
1ABF7
330
18
100
AcDbEntity
  8
01
100
AcDbEllipse
 10
2536.659967214745
 20
-444.6803120882978
 30
0.0000000001127424
 11
-3.199999999999818
 21
0.0
 31
0.0
210
0.0
220
0.0
230
1.0
 40
0.2478458218750176
 41
0.0
 42
6.283185307179586
  0
LINE
  5
1ABF8
330
18
100
AcDbEntity
  8
01
100
AcDbLine
 10
2416.163306322965
 20
-426.5285127324985
 30
0.0000000001127424
 11
2416.163306322965
 21
-438.5285127324987
 31
0.0000000001127424
  0
ARC
  5
1ABF9
330
18
100
AcDbEntity
  8
01
100
AcDbCircle
 10
2416.163306322965
 20
-432.5285127324985
 30
0.0000000001127424
 40
6.0
100
AcDbArc
 50
90.0
 51
270.0
  0
LINE
  5
1ABFA
330
18
100
AcDbEntity
  8
01
100
AcDbLine
 10
2418.159967214745
 20
-425.0285127324985
 30
0.0000000001127424
 11
2417.659967214745
 21
-425.0285127324985
 31
0.0000000001127424
  0
ARC
  5
1ABFB
330
18
100
AcDbEntity
  8
01
100
AcDbCircle
 10
2418.112451950169
 20
-426.9766548125858
 30
0.0000000001127424
 40
2.0
100
AcDbArc
 50
103.0759446052172
 51
167.0517420007038
  0
LINE
  5
1ABFC
330
18
100
AcDbEntity
  8
01
100
AcDbLine
 10
2418.159967214745
 20
-440.0285127324985
 30
0.0000000001127424
 11
2417.659967214745
 21
-440.0285127324985
 31
0.0000000001127424
  0
ARC
  5
1ABFD
330
18
100
AcDbEntity
  8
01
100
AcDbCircle
 10
2418.112451950169
 20
-438.0803706524109
 30
0.0000000001127424
 40
2.0
100
AcDbArc
 50
192.9482579993182
 51
256.9240553947827
  0
TEXT
  5
1ABFE
330
18
100
AcDbEntity
  8
1TEXT
100
AcDbText
 10
2627.942637071272
 20
-199.6718788373046
 30
0.0000000001127424
 40
6.0
  1
3-GLB-039H-LJ
 41
0.6
 72
     1
 11
2650.455970404605
 21
-199.6718788373046
 31
0.0000000001127424
100
AcDbText
  0
TEXT
  5
1ABFF
330
18
100
AcDbEntity
  8
1TEXT
100
AcDbText
 10
2522.658477986114
 20
-189.2785127324985
 30
0.0000000001127424
 40
6.0
  1
表面処理:本体
 72
     1
 11
2544.759866875002
 21
-189.2785127324985
 31
0.0000000001127424
100
AcDbText
  0
TEXT
  5
1AC00
330
18
100
AcDbEntity
  8
1TEXT
100
AcDbText
 10
2525.239866875002
 20
-199.5314457217853
 30
0.0000000001127424
 40
6.0
  1
シェルホワイト
 41
0.8
 72
     1
 11
2544.759866875002
 21
-199.5314457217853
 31
0.0000000001127424
100
AcDbText
  0
LINE
  5
1AC01
330
18
100
AcDbEntity
  8
1DIM
100
AcDbLine
 10
2518.659866875
 20
-181.0285127324985
 30
0.0000000001127424
 11
2623.659866875
 21
-181.0285127324985
 31
0.0000000001127424
  0
LINE
  5
1AC02
330
18
100
AcDbEntity
  8
1DIM
100
AcDbLine
 10
2518.659866875
 20
-191.5285127324985
 30
0.0000000001127424
 11
2623.659866875
 21
-191.5285127324985
 31
0.0000000001127424
  0
LINE
  5
1AC03
330
18
100
AcDbEntity
  8
1DIM
100
AcDbLine
 10
2518.659866875
 20
-202.0285127324985
 30
0.0000000001127424
 11
2623.659866875
 21
-202.0285127324985
 31
0.0000000001127424
  0
LINE
  5
1AC04
330
18
100
AcDbEntity
  8
1DIM
100
AcDbLine
 10
2518.659866875
 20
-202.0285127324985
 30
0.0000000001127424
 11
2623.659866875
 21
-202.0285127324985
 31
0.0000000001127424
  0
LINE
  5
1AC05
330
18
100
AcDbEntity
  8
1DIM
100
AcDbLine
 10
2571.159866875
 20
-181.0285127324985
 30
0.0000000001127424
 11
2571.159866875
 21
-202.0285127324985
 31
0.0000000001127424
  0
LINE
  5
1AC06
330
18
100
AcDbEntity
  8
1DIM
100
AcDbLine
 10
2518.659866875
 20
-202.0285127324985
 30
0.0000000001127424
 11
2518.659866875
 21
-181.0285127324985
 31
0.0000000001127424
  0
LINE
  5
1AC07
330
18
100
AcDbEntity
  8
1DIM
100
AcDbLine
 10
2623.659866875
 20
-202.0285127324985
 30
0.0000000001127424
 11
2623.659866875
 21
-181.0285127324985
 31
0.0000000001127424
  0
LINE
  5
1AC08
330
18
100
AcDbEntity
  8
1DIM
100
AcDbLine
 10
2572.9170088919
 20
-181.0285129630893
 30
0.0000000001127424
 11
2677.9170088919
 21
-181.0285129630893
 31
0.0000000001127424
  0
LINE
  5
1AC09
330
18
100
AcDbEntity
  8
1DIM
100
AcDbLine
 10
2572.9170088919
 20
-191.5285129630893
 30
0.0000000001127424
 11
2677.9170088919
 21
-191.5285129630893
 31
0.0000000001127424
  0
LINE
  5
1AC0A
330
18
100
AcDbEntity
  8
1DIM
100
AcDbLine
 10
2572.9170088919
 20
-202.0285129630893
 30
0.0000000001127424
 11
2677.9170088919
 21
-202.0285129630893
 31
0.0000000001127424
  0
LINE
  5
1AC0B
330
18
100
AcDbEntity
  8
1DIM
100
AcDbLine
 10
2572.9170088919
 20
-202.0285129630893
 30
0.0000000001127424
 11
2677.9170088919
 21
-202.0285129630893
 31
0.0000000001127424
  0
TEXT
  5
1AC0C
330
18
100
AcDbEntity
  8
1TEXT
100
AcDbText
 10
2641.217008891902
 20
-189.2785129630893
 30
0.0000000001127424
 40
6.0
  1
コード
 72
     1
 11
2651.517008891902
 21
-189.2785129630893
 31
0.0000000001127424
100
AcDbText
  0
LINE
  5
1AC0D
330
18
100
AcDbEntity
  8
1DIM
100
AcDbLine
 10
2677.9170088919
 20
-202.0285129630893
 30
0.0000000001127424
 11
2677.9170088919
 21
-181.0285129630893
 31
0.0000000001127424
  0
TEXT
  5
1AC0E
330
18
100
AcDbEntity
  8
1TEXT
100
AcDbText
 10
2574.026766223815
 20
-189.2785127324985
 30
0.0000000001127424
 40
6.0
  1
表面処理:キャップ
 41
0.8
 72
     1
 11
2597.467877334926
 21
-189.2785127324985
 31
0.0000000001127424
100
AcDbText
  0
TEXT
  5
1AC0F
330
18
100
AcDbEntity
  8
1TEXT
100
AcDbText
 10
2572.852735828998
 20
-199.6322417034894
 30
0.0000000001127424
 40
6.0
  1
ヘアラインゴールド
 41
0.8
 72
     1
 11
2597.972735828997
 21
-199.6322417034894
 31
0.0000000001127424
100
AcDbText
  0
LINE
  5
1AC10
330
18
100
AcDbEntity
  8
01
100
AcDbLine
 10
2877.659735790093
 20
-190.4782827335273
 30
0.0000000001126288
 11
2877.659735790093
 21
-189.7280126158003
 31
0.0000000001126288
  0
ARC
  5
1AC11
330
18
100
AcDbEntity
  8
01
100
AcDbCircle
 10
2875.359736790094
 20
-190.4782827335273
 30
0.0000000001126288
 40
0.30000001
100
AcDbArc
 50
256.8165200000324
 51
0.0000029999846689
  0
ARC
  5
1AC12
330
18
100
AcDbEntity
  8
01
100
AcDbCircle
 10
2876.659735790093
 20
-184.9285127335268
 30
0.0000000001126288
 40
6.0
100
AcDbArc
 50
283.1834820000377
 51
305.6853339999122
  0
ARC
  5
1AC13
330
18
100
AcDbEntity
  8
01
100
AcDbCircle
 10
2877.959738790093
 20
-190.4782827335273
 30
0.0000000001126288
 40
0.30000001
100
AcDbArc
 50
180.0
 51
283.1834820000377
  0
LINE
  5
1AC14
330
18
100
AcDbEntity
  8
01
100
AcDbLine
 10
2880.159735790093
 20
-189.8019127335272
 30
0.0000000001126288
 11
2880.159735790094
 21
-189.7223873031785
 31
0.0000000001126288
  0
LINE
  5
1AC15
330
18
100
AcDbEntity
  8
01
100
AcDbLine
 10
2873.159735790093
 20
-189.8019127335272
 30
0.0000000001126288
 11
2873.159735790093
 21
-189.7223881263458
 31
0.0000000001126288
  0
ARC
  5
1AC16
330
18
100
AcDbEntity
  8
01
100
AcDbCircle
 10
2876.659735790093
 20
-184.9285127335268
 30
0.0000000001126288
 40
6.0
100
AcDbArc
 50
234.3146700000012
 51
256.8165174966524
  0
LINE
  5
1AC17
330
18
100
AcDbEntity
  8
01
100
AcDbLine
 10
2875.659735790093
 20
-190.4790611929295
 30
0.0000000001126288
 11
2875.659735790092
 21
-189.7280128509897
 31
0.0000000001126288
  0
LINE
  5
1AC18
330
18
100
AcDbEntity
  8
01
100
AcDbLine
 10
2899.159618195513
 20
-182.5285127335271
 30
0.0000000001127424
 11
2854.159618195513
 21
-182.5285127335271
 31
0.0000000001127424
  0
ARC
  5
1AC19
330
18
100
AcDbEntity
  8
01
100
AcDbCircle
 10
2876.659618195512
 20
810.2714872664735
 30
0.0000000001127424
 40
1000.0
100
AcDbArc
 50
270.0
 51
271.0751712542446
  0
ARC
  5
1AC1A
330
18
100
AcDbEntity
  8
01
100
AcDbCircle
 10
2895.418166050423
 20
-189.2525028820253
 30
0.0000000001127424
 40
0.3
100
AcDbArc
 50
271.0751712542967
 51
345.8238167343487
  0
ARC
  5
1AC1B
330
18
100
AcDbEntity
  8
01
100
AcDbCircle
 10
2876.659618195513
 20
810.2714872664735
 30
0.0000000001127424
 40
1000.0
100
AcDbArc
 50
268.9248287457554
 51
270.0
  0
LINE
  5
1AC1C
330
18
100
AcDbEntity
  8
01
100
AcDbLine
 10
2854.159618195512
 20
-182.5285127335271
 30
0.0000000001127424
 11
2854.159618195512
 21
-186.0675973034911
 31
0.0000000001127424
  0
LINE
  5
1AC1D
330
18
100
AcDbEntity
  8
01
100
AcDbLine
 10
2899.159618195513
 20
-182.5285127335271
 30
0.0000000001127424
 11
2899.159618195513
 21
-186.0675973034911
 31
0.0000000001127424
  0
ARC
  5
1AC1E
330
18
100
AcDbEntity
  8
01
100
AcDbCircle
 10
2899.587219163575
 20
-190.3055917385398
 30
0.0000000001127424
 40
4.0
100
AcDbArc
 50
99.74186250374977
 51
165.8238167343487
  0
ARC
  5
1AC1F
330
18
100
AcDbEntity
  8
01
100
AcDbCircle
 10
2898.859618195513
 20
-186.0675973034911
 30
0.0000000001127424
 40
0.3
100
AcDbArc
 50
279.7418625037498
 51
0.0
  0
ARC
  5
1AC20
330
18
100
AcDbEntity
  8
01
100
AcDbCircle
 10
2853.732017227449
 20
-190.3055917385398
 30
0.0000000001127424
 40
4.0
100
AcDbArc
 50
14.1761832656513
 51
80.25813749625023
  0
ARC
  5
1AC21
330
18
100
AcDbEntity
  8
01
100
AcDbCircle
 10
2857.901070340601
 20
-189.2525028820253
 30
0.0000000001127424
 40
0.3
100
AcDbArc
 50
194.1761832656513
 51
268.9248287457554
  0
ARC
  5
1AC22
330
18
100
AcDbEntity
  8
01
100
AcDbCircle
 10
2854.459618195511
 20
-186.0675973034911
 30
0.0000000001127424
 40
0.3
100
AcDbArc
 50
180.0
 51
260.2581374962502
  0
LINE
  5
1AC23
330
18
100
AcDbEntity
  8
01
100
AcDbLine
 10
2854.40885533727
 20
-186.3632713338673
 30
0.0000000001127424
 11
2898.910381053749
 21
-186.3632713338418
 31
0.0000000001127424
  0
LINE
  5
1AC24
330
18
100
AcDbEntity
  8
01
100
AcDbLine
 10
2899.159618195513
 20
-142.5285127335271
 30
0.0000000001127424
 11
2854.159618195513
 21
-142.5285127335271
 31
0.0000000001127424
  0
ARC
  5
1AC25
330
18
100
AcDbEntity
  8
01
100
AcDbCircle
 10
2876.659618195512
 20
-1135.328512733527
 30
0.0000000001127424
 40
1000.0
100
AcDbArc
 50
88.92482874575539
 51
90.0
  0
ARC
  5
1AC26
330
18
100
AcDbEntity
  8
01
100
AcDbCircle
 10
2895.418166050423
 20
-135.804522585029
 30
0.0000000001127424
 40
0.3
100
AcDbArc
 50
14.1761832656513
 51
88.92482874570328
  0
ARC
  5
1AC27
330
18
100
AcDbEntity
  8
01
100
AcDbCircle
 10
2876.659618195513
 20
-1135.328512733527
 30
0.0000000001127424
 40
1000.0
100
AcDbArc
 50
90.0
 51
91.07517125424461
  0
LINE
  5
1AC28
330
18
100
AcDbEntity
  8
01
100
AcDbLine
 10
2854.159618195512
 20
-142.5285127335271
 30
0.0000000001127424
 11
2854.159618195512
 21
-138.9894281635632
 31
0.0000000001127424
  0
LINE
  5
1AC29
330
18
100
AcDbEntity
  8
01
100
AcDbLine
 10
2899.159618195513
 20
-142.5285127335271
 30
0.0000000001127424
 11
2899.159618195513
 21
-138.9894281635632
 31
0.0000000001127424
  0
ARC
  5
1AC2A
330
18
100
AcDbEntity
  8
01
100
AcDbCircle
 10
2899.587219163575
 20
-134.7514337285145
 30
0.0000000001127424
 40
4.0
100
AcDbArc
 50
194.1761832656513
 51
260.2581374962502
  0
ARC
  5
1AC2B
330
18
100
AcDbEntity
  8
01
100
AcDbCircle
 10
2898.859618195513
 20
-138.9894281635632
 30
0.0000000001127424
 40
0.3
100
AcDbArc
 50
0.0
 51
80.25813749625023
  0
ARC
  5
1AC2C
330
18
100
AcDbEntity
  8
01
100
AcDbCircle
 10
2853.732017227449
 20
-134.7514337285145
 30
0.0000000001127424
 40
4.0
100
AcDbArc
 50
279.7418625037498
 51
345.8238167343487
  0
ARC
  5
1AC2D
330
18
100
AcDbEntity
  8
01
100
AcDbCircle
 10
2857.901070340601
 20
-135.804522585029
 30
0.0000000001127424
 40
0.3
100
AcDbArc
 50
91.07517125424461
 51
165.8238167343487
  0
ARC
  5
1AC2E
330
18
100
AcDbEntity
  8
01
100
AcDbCircle
 10
2854.459618195511
 20
-138.9894281635632
 30
0.0000000001127424
 40
0.3
100
AcDbArc
 50
99.74186250374977
 51
180.0
  0
LINE
  5
1AC2F
330
18
100
AcDbEntity
  8
01
100
AcDbLine
 10
2854.40885533727
 20
-138.693754133187
 30
0.0000000001127424
 11
2898.910381053749
 21
-138.6937541332125
 31
0.0000000001127424
  0
LINE
  5
1AC30
330
18
100
AcDbEntity
  8
01
100
AcDbLine
 10
2867.429669886813
 20
-135.0285127335271
 30
0.0000000001127424
 11
2885.929669886813
 21
-135.0285127335271
 31
0.0000000001127424
  0
ARC
  5
1AC31
330
18
100
AcDbEntity
  8
01
100
AcDbCircle
 10
2885.929669886812
 20
-135.5285127335271
 30
0.0000000001127424
 40
0.5000000000003975
100
AcDbArc
 50
0.0000000000521102
 51
89.99999999973944
  0
ARC
  5
1AC32
330
18
100
AcDbEntity
  8
01
100
AcDbCircle
 10
2867.429669886813
 20
-135.5285127335271
 30
0.0000000001127424
 40
0.5000000000003566
100
AcDbArc
 50
90.00000000005213
 51
179.9999999997395
  0
ARC
  5
1AC33
330
18
100
AcDbEntity
  8
01
100
AcDbCircle
 10
2871.65954620576
 20
-134.0284936009
 30
0.0000000001127424
 40
1.000021247364248
100
AcDbArc
 50
270.0879483596558
 51
359.9987807493782
  0
ARC
  5
1AC34
330
18
100
AcDbEntity
  8
01
100
AcDbCircle
 10
2881.659738093675
 20
-134.0285148812134
 30
0.0000000001127424
 40
1.000000000074975
100
AcDbArc
 50
180.0000000045336
 51
270.000000004273
  0
ARC
  5
1AC37
330
18
100
AcDbEntity
  8
01
100
AcDbCircle
 10
2873.198110831885
 20
-125.9660572829314
 30
0.0000000001127424
 40
1.499999999999999
100
AcDbArc
 50
177.0589800956151
 51
223.5104049163868
  0
LINE
  5
1AC38
330
18
100
AcDbEntity
  8
01
100
AcDbLine
 10
2880.659738093599
 20
-134.0285148812879
 30
0.0000000001127424
 11
2880.659738093545
 21
-128.3757593064281
 31
0.0000000001127424
  0
LINE
  5
1AC39
330
18
100
AcDbEntity
  8
01
100
AcDbLine
 10
2872.659738093599
 20
-134.0285148812879
 30
0.0000000001127424
 11
2872.659738093599
 21
-128.375759306248
 31
0.0000000001127424
  0
ARC
  5
1AC3A
330
18
100
AcDbEntity
  8
01
100
AcDbCircle
 10
2880.121365355506
 20
-125.9660572829223
 30
0.0000000001127424
 40
1.499999999999999
100
AcDbArc
 50
316.4895950802083
 51
2.941019903550249
  0
ARC
  5
1AC3B
330
18
100
AcDbEntity
  8
01
100
AcDbCircle
 10
2882.65973809356
 20
-128.3757593059115
 30
0.0000000001127424
 40
1.999999999999999
100
AcDbArc
 50
143.0178058706897
 51
179.9999999991141
  0
ARC
  5
1AC3C
330
18
100
AcDbEntity
  8
01
100
AcDbCircle
 10
2870.659738093599
 20
-128.375759306248
 30
0.0000000001127424
 40
2.0
100
AcDbArc
 50
0.0
 51
32.62901003828592
  0
ARC
  5
1AC3E
330
18
100
AcDbEntity
  8
01
100
AcDbCircle
 10
2882.724998095604
 20
-128.4308304377289
 30
0.0000000001127424
 40
2.085251372005462
100
AcDbArc
 50
136.6267268407299
 51
142.8877364312747
  0
ARC
  5
1AC3F
330
18
100
AcDbEntity
  8
01
100
AcDbCircle
 10
2879.164309951187
 20
-125.7141044749039
 30
0.0000000001127424
 40
2.394833768223352
100
AcDbArc
 50
321.4043977567364
 51
323.9689904781108
  0
LINE
  5
1AC43
330
18
100
AcDbEntity
  8
01
100
AcDbLine
 10
2851.659618195513
 20
-142.5285127335274
 30
0.0000000001127424
 11
2901.659618195513
 21
-142.5285127335274
 31
0.0000000001127424
  0
ARC
  5
1AC44
330
18
100
AcDbEntity
  8
01
100
AcDbCircle
 10
2876.659618195513
 20
-1634.028512733527
 30
0.0000000001127424
 40
1500.0
100
AcDbArc
 50
89.05471300971844
 51
89.793734748218
  0
SPLINE
  5
1AC45
330
18
100
AcDbEntity
  8
01
100
AcDbSpline
210
0.0
220
0.0
230
1.0
 70
     8
 71
     3
 72
    16
 73
    12
 74
     0
 42
0.0000000001
 43
0.0000000001
 40
0.0
 40
0.0
 40
0.0
 40
0.0
 40
0.0624999999999994
 40
0.0624999999999994
 40
0.0937499999999992
 40
0.0937499999999992
 40
0.1249999999999991
 40
0.1249999999999991
 40
0.187499999999999
 40
0.187499999999999
 40
0.2341687957503941
 40
0.2341687957503941
 40
0.2341687957503941
 40
0.2341687957503941
 10
2871.259618195513
 20
-134.0823170318281
 30
0.0000000001127424
 10
2871.259618195513
 20
-134.0850519041624
 30
0.0000000001127424
 10
2871.294615840915
 20
-134.0877410993098
 30
0.0000000001127424
 10
2871.397463032707
 20
-134.0917091761494
 30
0.0000000001127424
 10
2871.440199602212
 20
-134.0930208343489
 30
0.0000000001127424
 10
2871.542966916794
 20
-134.0956215787573
 30
0.0000000001127424
 10
2871.603287801011
 20
-134.0969141954756
 30
0.0000000001127424
 10
2871.806530044431
 20
-134.1006742889895
 30
0.0000000001127424
 10
2871.972361027251
 20
-134.1030521415605
 30
0.0000000001127424
 10
2872.314531556106
 20
-134.1069824436036
 30
0.0000000001127424
 10
2872.478733545419
 20
-134.1085960795708
 30
0.0000000001127424
 10
2872.656232094174
 20
-134.1101008004555
 30
0.0000000001127424
  0
SPLINE
  5
1AC46
330
18
100
AcDbEntity
  8
01
100
AcDbSpline
210
0.0
220
0.0
230
1.0
 70
     8
 71
     3
 72
    16
 73
    12
 74
     0
 42
0.0000000001
 43
0.0000000001
 40
0.7659757562320073
 40
0.7659757562320073
 40
0.7659757562320073
 40
0.7659757562320073
 40
0.8124999999999997
 40
0.8124999999999997
 40
0.8437499999999999
 40
0.8437499999999999
 40
0.875
 40
0.875
 40
0.9375
 40
0.9375
 40
1.0
 40
1.0
 40
1.0
 40
1.0
 10
2880.663071835875
 20
-134.1101014653575
 30
0.0000000001127424
 10
2880.84006014831
 20
-134.1086026759954
 30
0.0000000001127424
 10
2881.001423675098
 20
-134.1070153538458
 30
0.0000000001127424
 10
2881.244894420728
 20
-134.1042266374598
 30
0.0000000001127424
 10
2881.335702237014
 20
-134.1030683981562
 30
0.0000000001127424
 10
2881.502984067663
 20
-134.1006748939835
 30
0.0000000001127424
 10
2881.579680695751
 20
-134.0994340686493
 30
0.0000000001127424
 10
2881.783226136174
 20
-134.095671822608
 30
0.0000000001127424
 10
2881.885463863294
 20
-134.0930915662839
 30
0.0000000001127424
 10
2882.023857669186
 20
-134.0877886744447
 30
0.0000000001127424
 10
2882.059618195513
 20
-134.0850519160958
 30
0.0000000001127424
 10
2882.059618195513
 20
-134.0823170318281
 30
0.0000000001127424
  0
ARC
  5
1AC47
330
18
100
AcDbEntity
  8
01
100
AcDbCircle
 10
2876.659618195513
 20
-1634.028512733527
 30
0.0000000001127424
 40
1500.0
100
AcDbArc
 50
90.20626525178199
 51
90.94528699028157
  0
ARC
  5
1AC48
330
18
100
AcDbEntity
  8
01
100
AcDbCircle
 10
2851.91813463098
 20
-134.5326144426963
 30
0.0000000001127424
 40
0.3000000000000317
100
AcDbArc
 50
90.94528699132394
 51
171.3628311900171
  0
ARC
  5
1AC49
330
18
100
AcDbEntity
  8
01
100
AcDbCircle
 10
2901.401101760047
 20
-134.5326144426963
 30
0.0000000001127424
 40
0.3000000000000037
100
AcDbArc
 50
8.637168809982956
 51
89.05471300867605
  0
LINE
  5
1AC4A
330
18
100
AcDbEntity
  8
01
100
AcDbLine
 10
2851.374467944434
 20
-136.1140914373782
 30
0.0000000001127424
 11
2851.621536880964
 21
-134.4875614218645
 31
0.0000000001127424
  0
LINE
  5
1AC4B
330
18
100
AcDbEntity
  8
01
100
AcDbLine
 10
2901.697699510061
 20
-134.4875614218645
 30
0.0000000001127424
 11
2901.944768446592
 21
-136.1140914373782
 31
0.0000000001127424
  0
ARC
  5
1AC4C
330
18
100
AcDbEntity
  8
01
100
AcDbCircle
 10
2904.416416363382
 20
-135.7386495971077
 30
0.0000000001127424
 40
2.500000000000002
100
AcDbArc
 50
188.6371688099829
 51
248.1985905136434
  0
ARC
  5
1AC4D
330
18
100
AcDbEntity
  8
01
100
AcDbCircle
 10
2848.902820027643
 20
-135.7386495971077
 30
0.0000000001127424
 40
2.500000000000016
100
AcDbArc
 50
291.8014094863566
 51
351.362831190017
  0
LINE
  5
1AC4E
330
18
100
AcDbEntity
  8
01
100
AcDbLine
 10
2848.348200992607
 20
-138.6530796146899
 30
0.0000000001127424
 11
2849.831296718529
 21
-138.0598413243206
 31
0.0000000001127424
  0
LINE
  5
1AC4F
330
18
100
AcDbEntity
  8
01
100
AcDbLine
 10
2903.487939672497
 20
-138.0598413243206
 30
0.0000000001127424
 11
2904.971035398419
 21
-138.6530796146899
 31
0.0000000001127424
  0
ARC
  5
1AC50
330
18
100
AcDbEntity
  8
01
100
AcDbCircle
 10
2848.459618195513
 20
-138.9316226219553
 30
0.0000000001127424
 40
0.3000000000000114
100
AcDbArc
 50
111.8014094863566
 51
180.0
  0
ARC
  5
1AC51
330
18
100
AcDbEntity
  8
01
100
AcDbCircle
 10
2904.859618195513
 20
-138.9316226219553
 30
0.0000000001127424
 40
0.2999999999999972
100
AcDbArc
 50
0.0
 51
68.19859051364335
  0
LINE
  5
1AC52
330
18
100
AcDbEntity
  8
01
100
AcDbLine
 10
2905.159618195513
 20
-138.9316226219553
 30
0.0000000001127424
 11
2905.159618195513
 21
-142.5285127335274
 31
0.0000000001127424
  0
LINE
  5
1AC53
330
18
100
AcDbEntity
  8
01
100
AcDbLine
 10
2848.159618195513
 20
-142.5285127335274
 30
0.0000000001127424
 11
2848.159618195513
 21
-138.9316226219553
 31
0.0000000001127424
  0
LINE
  5
1AC54
330
18
100
AcDbEntity
  8
01
100
AcDbLine
 10
2905.159618195513
 20
-142.5285127335274
 30
0.0000000001127424
 11
2848.159618195513
 21
-142.5285127335274
 31
0.0000000001127424
  0
LINE
  5
1AC55
330
18
100
AcDbEntity
  8
01
100
AcDbLine
 10
2899.007682838048
 20
-138.7285127335272
 30
0.0000000001127424
 11
2904.285811381172
 21
-138.7285127335272
 31
0.0000000001127424
  0
LINE
  5
1AC56
330
18
100
AcDbEntity
  8
01
100
AcDbLine
 10
2851.659734535256
 20
-182.5285127335274
 30
0.0000000001127424
 11
2901.659734535256
 21
-182.5285127335274
 31
0.0000000001127424
  0
LINE
  5
1AC57
330
18
100
AcDbEntity
  8
01
100
AcDbLine
 10
2851.659734535256
 20
-182.5285127335274
 30
0.0000000001127424
 11
2901.659734535256
 21
-182.5285127335274
 31
0.0000000001127424
  0
ARC
  5
1AC58
330
18
100
AcDbEntity
  8
01
100
AcDbCircle
 10
2876.659734535256
 20
1308.971487266472
 30
0.0000000001127424
 40
1500.0
100
AcDbArc
 50
270.206265251782
 51
270.9452869902816
  0
SPLINE
  5
1AC59
330
18
100
AcDbEntity
  8
01
100
AcDbSpline
210
0.0
220
0.0
230
1.0
 70
     8
 71
     3
 72
    46
 73
    42
 74
     0
 42
0.0000000001
 43
0.0000000001
 40
0.0
 40
0.0
 40
0.0
 40
0.0
 40
0.0624999999999994
 40
0.0624999999999994
 40
0.0937499999999992
 40
0.0937499999999992
 40
0.1249999999999991
 40
0.1249999999999991
 40
0.187499999999999
 40
0.187499999999999
 40
0.2499999999999989
 40
0.2499999999999989
 40
0.3124999999999987
 40
0.3124999999999987
 40
0.3437499999999987
 40
0.3437499999999987
 40
0.3749999999999987
 40
0.3749999999999987
 40
0.4374999999999988
 40
0.4374999999999988
 40
0.4999999999999988
 40
0.4999999999999988
 40
0.5624999999999988
 40
0.5624999999999988
 40
0.6249999999999989
 40
0.6249999999999989
 40
0.6562499999999989
 40
0.6562499999999989
 40
0.6874999999999989
 40
0.6874999999999989
 40
0.7499999999999993
 40
0.7499999999999993
 40
0.8124999999999997
 40
0.8124999999999997
 40
0.8437499999999999
 40
0.8437499999999999
 40
0.875
 40
0.875
 40
0.9375
 40
0.9375
 40
1.0
 40
1.0
 40
1.0
 40
1.0
 10
2871.259734535256
 20
-190.9747084352266
 30
0.0000000001127424
 10
2871.259734535256
 20
-190.9719735628923
 30
0.0000000001127424
 10
2871.294732180658
 20
-190.9692843677449
 30
0.0000000001127424
 10
2871.397579372449
 20
-190.9653162909053
 30
0.0000000001127424
 10
2871.440315941955
 20
-190.9640046327058
 30
0.0000000001127424
 10
2871.543083256537
 20
-190.9614038882974
 30
0.0000000001127424
 10
2871.603404140754
 20
-190.9601112715791
 30
0.0000000001127424
 10
2871.806646384174
 20
-190.9563511780652
 30
0.0000000001127424
 10
2871.972477366994
 20
-190.9539733254942
 30
0.0000000001127424
 10
2872.36426804136
 20
-190.9494730674123
 30
0.0000000001127424
 10
2872.592315494691
 20
-190.9473422740448
 30
0.0000000001127424
 10
2873.090471621536
 20
-190.9435229368282
 30
0.0000000001127424
 10
2873.362284998691
 20
-190.9418090615127
 30
0.0000000001127424
 10
2873.804920923941
 20
-190.9395389421561
 30
0.0000000001127424
 10
2873.958288943834
 20
-190.9388340724008
 30
0.0000000001127424
 10
2874.270005626444
 20
-190.9375565769051
 30
0.0000000001127424
 10
2874.429171441057
 20
-190.9369795146722
 30
0.0000000001127424
 10
2874.916440956938
 20
-190.9354305811003
 30
0.0000000001127424
 10
2875.256628525727
 20
-190.9346357106378
 30
0.0000000001127424
 10
2875.953609083737
 20
-190.9335715687594
 30
0.0000000001127424
 10
2876.30394633847
 20
-190.9333082148596
 30
0.0000000001127424
 10
2877.008215958936
 20
-190.9333045616459
 30
0.0000000001127424
 10
2877.365883035926
 20
-190.9335727509088
 30
0.0000000001127424
 10
2878.058429505305
 20
-190.9346278362
 30
0.0000000001127424
 10
2878.395032392151
 20
-190.9354087042711
 30
0.0000000001127424
 10
2878.885351863148
 20
-190.936962071065
 30
0.0000000001127424
 10
2879.047197946092
 20
-190.9375478380625
 30
0.0000000001127424
 10
2879.360092061101
 20
-190.9388290732923
 30
0.0000000001127424
 10
2879.511415451442
 20
-190.9395244731695
 30
0.0000000001127424
 10
2879.95038448848
 20
-190.941771064262
 30
0.0000000001127424
 10
2880.223175360899
 20
-190.9434810820949
 30
0.0000000001127424
 10
2880.727503021361
 20
-190.9473422003575
 30
0.0000000001127424
 10
2880.951528223104
 20
-190.9494372776398
 30
0.0000000001127424
 10
2881.245010760471
 20
-190.9527988295949
 30
0.0000000001127424
 10
2881.335818576757
 20
-190.9539570688985
 30
0.0000000001127424
 10
2881.503100407405
 20
-190.9563505730712
 30
0.0000000001127424
 10
2881.579797035493
 20
-190.9575913984054
 30
0.0000000001127424
 10
2881.783342475916
 20
-190.9613536444467
 30
0.0000000001127424
 10
2881.885580203037
 20
-190.9639339007708
 30
0.0000000001127424
 10
2882.023974008929
 20
-190.96923679261
 30
0.0000000001127424
 10
2882.059734535256
 20
-190.9719735509589
 30
0.0000000001127424
 10
2882.059734535256
 20
-190.9747084352266
 30
0.0000000001127424
  0
ARC
  5
1AC5A
330
18
100
AcDbEntity
  8
01
100
AcDbCircle
 10
2876.659734535256
 20
1308.971487266472
 30
0.0000000001127424
 40
1500.0
100
AcDbArc
 50
269.0547130097184
 51
269.793734748218
  0
ARC
  5
1AC5B
330
18
100
AcDbEntity
  8
01
100
AcDbCircle
 10
2851.918250970723
 20
-190.5244110243584
 30
0.0000000001127424
 40
0.3000000000000317
100
AcDbArc
 50
188.6371688099829
 51
269.054713008676
  0
ARC
  5
1AC5C
330
18
100
AcDbEntity
  8
01
100
AcDbCircle
 10
2901.40121809979
 20
-190.5244110243584
 30
0.0000000001127424
 40
0.3000000000000037
100
AcDbArc
 50
270.945286991324
 51
351.362831190017
  0
LINE
  5
1AC5D
330
18
100
AcDbEntity
  8
01
100
AcDbLine
 10
2851.374584284177
 20
-188.9429340296765
 30
0.0000000001127424
 11
2851.621653220707
 21
-190.5694640451902
 31
0.0000000001127424
  0
LINE
  5
1AC5E
330
18
100
AcDbEntity
  8
01
100
AcDbLine
 10
2901.697815849804
 20
-190.5694640451902
 30
0.0000000001127424
 11
2901.944884786335
 21
-188.9429340296765
 31
0.0000000001127424
  0
ARC
  5
1AC5F
330
18
100
AcDbEntity
  8
01
100
AcDbCircle
 10
2904.416532703125
 20
-189.318375869947
 30
0.0000000001127424
 40
2.500000000000002
100
AcDbArc
 50
111.8014094863566
 51
171.3628311900171
  0
ARC
  5
1AC60
330
18
100
AcDbEntity
  8
01
100
AcDbCircle
 10
2848.902936367386
 20
-189.318375869947
 30
0.0000000001127424
 40
2.500000000000016
100
AcDbArc
 50
8.637168809982956
 51
68.19859051364335
  0
LINE
  5
1AC61
330
18
100
AcDbEntity
  8
01
100
AcDbLine
 10
2848.348317332349
 20
-186.4039458523648
 30
0.0000000001127424
 11
2849.831413058272
 21
-186.9971841427341
 31
0.0000000001127424
  0
LINE
  5
1AC62
330
18
100
AcDbEntity
  8
01
100
AcDbLine
 10
2903.48805601224
 20
-186.9971841427341
 30
0.0000000001127424
 11
2904.971151738162
 21
-186.4039458523648
 31
0.0000000001127424
  0
ARC
  5
1AC63
330
18
100
AcDbEntity
  8
01
100
AcDbCircle
 10
2848.459734535256
 20
-186.1254028450994
 30
0.0000000001127424
 40
0.3000000000000114
100
AcDbArc
 50
180.0
 51
248.1985905136434
  0
ARC
  5
1AC64
330
18
100
AcDbEntity
  8
01
100
AcDbCircle
 10
2904.859734535255
 20
-186.1254028450994
 30
0.0000000001127424
 40
0.2999999999999972
100
AcDbArc
 50
291.8014094863566
 51
0.0
  0
LINE
  5
1AC65
330
18
100
AcDbEntity
  8
01
100
AcDbLine
 10
2905.159734535256
 20
-186.1254028450994
 30
0.0000000001127424
 11
2905.159734535256
 21
-182.5285127335274
 31
0.0000000001127424
  0
LINE
  5
1AC66
330
18
100
AcDbEntity
  8
01
100
AcDbLine
 10
2848.159734535256
 20
-182.5285127335274
 30
0.0000000001127424
 11
2848.159734535256
 21
-186.1254028450994
 31
0.0000000001127424
  0
LINE
  5
1AC67
330
18
100
AcDbEntity
  8
01
100
AcDbLine
 10
2905.159734535256
 20
-182.5285127335274
 30
0.0000000001127424
 11
2848.159734535256
 21
-182.5285127335274
 31
0.0000000001127424
  0
LINE
  5
1AC68
330
18
100
AcDbEntity
  8
01
100
AcDbLine
 10
2899.007682838047
 20
-186.3285127335275
 30
0.0000000001127424
 11
2904.285927720915
 21
-186.3285127335275
 31
0.0000000001127424
  0
ARC
  5
1AC69
330
18
100
AcDbEntity
  8
01
100
AcDbCircle
 10
2876.659734535256
 20
-1634.028512733527
 30
0.0000000001127424
 40
1500.0
100
AcDbArc
 50
89.05471300971844
 51
89.793734748218
  0
SPLINE
  5
1AC6A
330
18
100
AcDbEntity
  8
01
100
AcDbSpline
210
0.0
220
0.0
230
1.0
 70
     8
 71
     3
 72
    16
 73
    12
 74
     0
 42
0.0000000001
 43
0.0000000001
 40
0.0
 40
0.0
 40
0.0
 40
0.0
 40
0.0624999999999994
 40
0.0624999999999994
 40
0.0937499999999992
 40
0.0937499999999992
 40
0.1249999999999991
 40
0.1249999999999991
 40
0.187499999999999
 40
0.187499999999999
 40
0.2341586064496377
 40
0.2341586064496377
 40
0.2341586064496377
 40
0.2341586064496377
 10
2871.259734535256
 20
-134.0823170318281
 30
0.0000000001127424
 10
2871.259734535256
 20
-134.0850519041624
 30
0.0000000001127424
 10
2871.294732180658
 20
-134.0877410993098
 30
0.0000000001127424
 10
2871.397579372449
 20
-134.0917091761494
 30
0.0000000001127424
 10
2871.440315941955
 20
-134.0930208343489
 30
0.0000000001127424
 10
2871.543083256537
 20
-134.0956215787573
 30
0.0000000001127424
 10
2871.603404140754
 20
-134.0969141954756
 30
0.0000000001127424
 10
2871.806646384174
 20
-134.1006742889895
 30
0.0000000001127424
 10
2871.972477366994
 20
-134.1030521415605
 30
0.0000000001127424
 10
2872.314615959264
 20
-134.1069820767675
 30
0.0000000001127424
 10
2872.478778184854
 20
-134.10859537495
 30
0.0000000001127424
 10
2872.656232174873
 20
-134.1100998148529
 30
0.0000000001127424
  0
SPLINE
  5
1AC6B
330
18
100
AcDbEntity
  8
01
100
AcDbSpline
210
0.0
220
0.0
230
1.0
 70
     8
 71
     3
 72
    16
 73
    12
 74
     0
 42
0.0000000001
 43
0.0000000001
 40
0.7659655695619205
 40
0.7659655695619205
 40
0.7659655695619205
 40
0.7659655695619205
 40
0.8124999999999997
 40
0.8124999999999997
 40
0.8437499999999999
 40
0.8437499999999999
 40
0.875
 40
0.875
 40
0.9375
 40
0.9375
 40
1.0
 40
1.0
 40
1.0
 40
1.0
 10
2880.663071916463
 20
-134.1101024498425
 30
0.0000000001127424
 10
2880.840105824914
 20
-134.1086033710926
 30
0.0000000001127424
 10
2881.001508125671
 20
-134.1070157191048
 30
0.0000000001127424
 10
2881.245010760471
 20
-134.1042266374598
 30
0.0000000001127424
 10
2881.335818576757
 20
-134.1030683981562
 30
0.0000000001127424
 10
2881.503100407405
 20
-134.1006748939835
 30
0.0000000001127424
 10
2881.579797035493
 20
-134.0994340686493
 30
0.0000000001127424
 10
2881.783342475916
 20
-134.095671822608
 30
0.0000000001127424
 10
2881.885580203037
 20
-134.0930915662839
 30
0.0000000001127424
 10
2882.023974008929
 20
-134.0877886744447
 30
0.0000000001127424
 10
2882.059734535256
 20
-134.0850519160958
 30
0.0000000001127424
 10
2882.059734535256
 20
-134.0823170318281
 30
0.0000000001127424
  0
ARC
  5
1AC6C
330
18
100
AcDbEntity
  8
01
100
AcDbCircle
 10
2901.40121809979
 20
-134.5326144426963
 30
0.0000000001127424
 40
0.3000000000000037
100
AcDbArc
 50
8.637168809982956
 51
89.05471300867605
  0
LINE
  5
1AC6D
330
18
100
AcDbEntity
  8
01
100
AcDbLine
 10
2901.697815849804
 20
-134.4875614218645
 30
0.0000000001127424
 11
2901.944884786335
 21
-136.1140914373782
 31
0.0000000001127424
  0
LINE
  5
1AC6E
330
18
100
AcDbEntity
  8
01
100
AcDbLine
 10
2854.311553552978
 20
-138.7285127335272
 30
0.0000000001127424
 11
2849.033425009854
 21
-138.7285127335272
 31
0.0000000001127424
  0
LINE
  5
1AC6F
330
18
100
AcDbEntity
  8
01
100
AcDbLine
 10
2854.311786232464
 20
-186.3285127335275
 30
0.0000000001127424
 11
2849.033541349597
 21
-186.3285127335275
 31
0.0000000001127424
  0
LINE
  5
1AC70
330
18
100
AcDbEntity
  8
01
100
AcDbLine
 10
2889.659618195555
 20
-131.5285127335314
 30
0.0000000001127424
 11
2880.659738093575
 21
-131.5285127335314
 31
0.0000000001127424
  0
LINE
  5
1AC71
330
18
100
AcDbEntity
  8
01
100
AcDbLine
 10
2872.659738093599
 20
-131.5285127335314
 30
0.0000000001127424
 11
2863.659618195554
 21
-131.5285127335314
 31
0.0000000001127424
  0
LINE
  5
1AC72
330
18
100
AcDbEntity
  8
01
100
AcDbLine
 10
2885.159618195555
 20
-113.5308319877754
 30
0.0000000001127424
 11
2885.159618195555
 21
-114.5949706033139
 31
0.0000000001127424
  0
LINE
  5
1AC73
330
18
100
AcDbEntity
  8
01
100
AcDbLine
 10
2868.159618195555
 20
-113.5308319877754
 30
0.0000000001127424
 11
2868.159618195555
 21
-114.5949706033139
 31
0.0000000001127424
  0
LINE
  5
1AC74
330
18
100
AcDbEntity
  8
01
100
AcDbLine
 10
2898.659618195554
 20
-99.02851273352871
 30
0.0000000001127424
 11
2908.739412631061
 21
-99.02851273352871
 31
0.0000000001127424
  0
LINE
  5
1AC75
330
18
100
AcDbEntity
  8
01
100
AcDbLine
 10
2898.659618195554
 20
-84.02851273352871
 30
0.0000000001127424
 11
2908.234926246621
 21
-84.02851273352871
 31
0.0000000001127424
  0
LINE
  5
1AC76
330
18
100
AcDbEntity
  8
01
100
AcDbLine
 10
2906.659618195555
 20
-84.02851273352871
 30
0.0000000001127424
 11
2906.490686851754
 21
-84.02851273352871
 31
0.0000000001127424
  0
LINE
  5
1AC77
330
18
100
AcDbEntity
  8
01
100
AcDbLine
 10
2906.659618195555
 20
-84.02851273352871
 30
0.0000000001127424
 11
2906.735309517521
 21
-84.02851273352871
 31
0.0000000001127424
  0
LINE
  5
1AC78
330
18
100
AcDbEntity
  8
01
100
AcDbLine
 10
2906.735309517521
 20
-84.02851273352871
 30
0.0000000001127424
 11
2907.742331630884
 21
-84.02851273352871
 31
0.0000000001127424
  0
LINE
  5
1AC79
330
18
100
AcDbEntity
  8
01
100
AcDbLine
 10
2906.735309517521
 20
-99.02851273353076
 30
0.0000000001127424
 11
2907.742331630893
 21
-99.02851273353076
 31
0.0000000001127424
  0
ARC
  5
1AC7A
330
18
100
AcDbEntity
  8
01
100
AcDbCircle
 10
2893.405913975588
 20
-135.4218258941587
 30
0.0000000001127424
 40
30.0
100
AcDbArc
 50
154.2851368907028
 51
172.5432877180237
  0
ARC
  5
1AC7B
330
18
100
AcDbEntity
  8
01
100
AcDbCircle
 10
2850.159618195555
 20
-114.5949706033139
 30
0.0000000001127424
 40
18.0
100
AcDbArc
 50
334.2851368907028
 51
0.0
  0
ARC
  5
1AC7C
330
18
100
AcDbEntity
  8
01
100
AcDbCircle
 10
2859.91332241552
 20
-135.4218258941587
 30
0.0000000001127424
 40
30.0
100
AcDbArc
 50
7.456712281976303
 51
25.71486310929717
  0
ARC
  5
1AC7D
330
18
100
AcDbEntity
  8
01
100
AcDbCircle
 10
2903.159618195555
 20
-114.5949706033139
 30
0.0000000001127424
 40
18.0
100
AcDbArc
 50
180.0
 51
205.7148631092971
  0
ELLIPSE
  5
1AC7E
330
18
100
AcDbEntity
  8
01
100
AcDbEllipse
 10
2898.659618195555
 20
-113.5308319877754
 30
0.0000000001127424
 11
0.0
 21
-14.50231925424657
 31
0.0
210
0.0
220
0.0
230
1.0
 40
0.9308855889410189
 41
3.141592653589793
 42
4.71238898038469
  0
ELLIPSE
  5
1AC7F
330
18
100
AcDbEntity
  8
01
100
AcDbEllipse
 10
2898.659618195555
 20
-113.5308319877754
 30
0.0000000001127424
 11
-30.5
 21
-1.136868377216160E-13
 31
0.0
210
0.0
220
0.0
230
1.0
 40
0.9672891558769368
 41
4.71238898038469
 42
6.283185307179586
  0
ARC
  5
1AC80
330
18
100
AcDbEntity
  8
01
100
AcDbCircle
 10
2974.566699995232
 20
-63.42343494376269
 30
0.0000000001127424
 40
42.0
100
AcDbArc
 50
298.5467753750061
 51
299.3607996693262
  0
LINE
  5
1AC81
330
18
100
AcDbEntity
  8
01
100
AcDbLine
 10
2862.659618195555
 20
-133.5285127335274
 30
0.0000000001127424
 11
2872.6597380936
 21
-133.5285127335274
 31
0.0000000001127424
  0
LINE
  5
1AC82
330
18
100
AcDbEntity
  8
01
100
AcDbLine
 10
2880.659738093595
 20
-133.5285127335274
 30
0.0000000001127424
 11
2890.65961819547
 21
-133.5285127335274
 31
0.0000000001127424
  0
LINE
  5
1AC83
330
18
100
AcDbEntity
  8
01
100
AcDbLine
 10
2862.659618195555
 20
-133.0285127335274
 30
0.0000000001127424
 11
2872.6597380936
 21
-133.0285127335274
 31
0.0000000001127424
  0
LINE
  5
1AC84
330
18
100
AcDbEntity
  8
01
100
AcDbLine
 10
2880.659738093589
 20
-133.0285127335274
 30
0.0000000001127424
 11
2890.659618195555
 21
-133.0285127335274
 31
0.0000000001127424
  0
ARC
  5
1AC85
330
18
100
AcDbEntity
  8
01
100
AcDbCircle
 10
2908.234926246621
 20
215.9714872664713
 30
0.0000000001127424
 40
300.0
100
AcDbArc
 50
270.0
 51
281.161289609138
  0
ARC
  5
1AC86
330
18
100
AcDbEntity
  8
01
100
AcDbCircle
 10
2974.436396454003
 20
-63.497045740668
 30
0.0000000001127424
 40
42.0
100
AcDbArc
 50
258.838710390862
 51
298.7542754037145
  0
ARC
  5
1AC87
330
18
100
AcDbEntity
  8
01
100
AcDbCircle
 10
2908.234926246621
 20
-399.0285127335287
 30
0.0000000001127424
 40
300.0
100
AcDbArc
 50
78.83871039086202
 51
90.0
  0
LINE
  5
1AC88
330
18
100
AcDbEntity
  8
01
100
AcDbLine
 10
2995.159618195555
 20
-83.61565438658727
 30
0.0000000001127424
 11
2995.159618195555
 21
-99.44137108047062
 31
0.0000000001127424
  0
ARC
  5
1AC89
330
18
100
AcDbEntity
  8
01
100
AcDbCircle
 10
2974.436396454003
 20
-119.5599797263897
 30
0.0000000001127424
 40
42.0
100
AcDbArc
 50
61.24572459628552
 51
101.161289609138
  0
ARC
  5
1AC8A
330
18
100
AcDbEntity
  8
01
100
AcDbCircle
 10
2994.159618195555
 20
-83.61565438658727
 30
0.0000000001127424
 40
1.0
100
AcDbArc
 50
0.0
 51
61.24572459628552
  0
ARC
  5
1AC8B
330
18
100
AcDbEntity
  8
01
100
AcDbCircle
 10
2994.159618195555
 20
-99.44137108047062
 30
0.0000000001127424
 40
1.0
100
AcDbArc
 50
298.7542754037145
 51
0.0
  0
LINE
  5
1AC8C
330
18
100
AcDbEntity
  8
01
100
AcDbLine
 10
2862.659618195555
 20
-133.5285127335314
 30
0.0000000001127424
 11
2862.659618195555
 21
-133.0285127335274
 31
0.0000000001127424
  0
ARC
  5
1AC8D
330
18
100
AcDbEntity
  8
01
100
AcDbCircle
 10
2864.645125102044
 20
-133.2688506711913
 30
0.0000000001127424
 40
2.0
100
AcDbArc
 50
119.5217192951931
 51
173.0981456527423
  0
LINE
  5
1AC8E
330
18
100
AcDbEntity
  8
01
100
AcDbLine
 10
2890.659618195555
 20
-133.5285127335314
 30
0.0000000001127424
 11
2890.659618195555
 21
-133.0285127335274
 31
0.0000000001127424
  0
ARC
  5
1AC8F
330
18
100
AcDbEntity
  8
01
100
AcDbCircle
 10
2888.674111289065
 20
-133.268850671192
 30
0.0000000001127424
 40
2.0
100
AcDbArc
 50
6.901854347272257
 51
60.47828070480688
  0
LINE
  5
1AC90
330
18
100
AcDbEntity
  8
01
100
AcDbLine
 10
2997.156279087335
 20
-85.52851273352871
 30
0.0000000001127424
 11
2997.156279087335
 21
-97.52851273352894
 31
0.0000000001127424
  0
ARC
  5
1AC91
330
18
100
AcDbEntity
  8
01
100
AcDbCircle
 10
2997.156279087335
 20
-91.52851273352871
 30
0.0000000001127424
 40
6.0
100
AcDbArc
 50
270.0
 51
90.0
  0
LINE
  5
1AC92
330
18
100
AcDbEntity
  8
01
100
AcDbLine
 10
2995.159618195555
 20
-84.02851273352871
 30
0.0000000001127424
 11
2995.659618195555
 21
-84.02851273352871
 31
0.0000000001127424
  0
ARC
  5
1AC93
330
18
100
AcDbEntity
  8
01
100
AcDbCircle
 10
2995.207133460129
 20
-85.97665481361605
 30
0.0000000001127424
 40
2.0
100
AcDbArc
 50
12.94825799929619
 51
76.92405539483647
  0
LINE
  5
1AC94
330
18
100
AcDbEntity
  8
01
100
AcDbLine
 10
2995.159618195555
 20
-99.02851273352871
 30
0.0000000001127424
 11
2995.659618195555
 21
-99.02851273352871
 31
0.0000000001127424
  0
ARC
  5
1AC95
330
18
100
AcDbEntity
  8
01
100
AcDbCircle
 10
2995.207133460129
 20
-97.08037065344115
 30
0.0000000001127424
 40
2.0
100
AcDbArc
 50
283.0759446051636
 51
347.0517420006911
  0
LINE
  5
1AC9A
330
18
100
AcDbEntity
  8
01
100
AcDbLine
 10
2889.659618195513
 20
-193.5285127335233
 30
0.0000000001127424
 11
2863.659618195511
 21
-193.5285127335233
 31
0.0000000001127424
  0
LINE
  5
1AC9B
330
18
100
AcDbEntity
  8
01
100
AcDbLine
 10
2885.159618195513
 20
-211.5261934792793
 30
0.0000000001127424
 11
2885.159618195513
 21
-210.4620548637408
 31
0.0000000001127424
  0
LINE
  5
1AC9C
330
18
100
AcDbEntity
  8
01
100
AcDbLine
 10
2868.159618195513
 20
-211.5261934792793
 30
0.0000000001127424
 11
2868.159618195513
 21
-210.4620548637408
 31
0.0000000001127424
  0
LINE
  5
1AC9D
330
18
100
AcDbEntity
  8
01
100
AcDbLine
 10
2898.659618195511
 20
-226.028512733526
 30
0.0000000001127424
 11
2908.739412631018
 21
-226.028512733526
 31
0.0000000001127424
  0
LINE
  5
1AC9E
330
18
100
AcDbEntity
  8
01
100
AcDbLine
 10
2898.659618195511
 20
-241.028512733526
 30
0.0000000001127424
 11
2908.234926246579
 21
-241.028512733526
 31
0.0000000001127424
  0
LINE
  5
1AC9F
330
18
100
AcDbEntity
  8
01
100
AcDbLine
 10
2906.659618195513
 20
-241.028512733526
 30
0.0000000001127424
 11
2906.490686851711
 21
-241.028512733526
 31
0.0000000001127424
  0
LINE
  5
1ACA0
330
18
100
AcDbEntity
  8
01
100
AcDbLine
 10
2906.659618195513
 20
-241.028512733526
 30
0.0000000001127424
 11
2906.735309517479
 21
-241.028512733526
 31
0.0000000001127424
  0
LINE
  5
1ACA1
330
18
100
AcDbEntity
  8
01
100
AcDbLine
 10
2906.735309517479
 20
-241.028512733526
 30
0.0000000001127424
 11
2907.742331630842
 21
-241.028512733526
 31
0.0000000001127424
  0
LINE
  5
1ACA2
330
18
100
AcDbEntity
  8
01
100
AcDbLine
 10
2906.735309517479
 20
-226.0285127335239
 30
0.0000000001127424
 11
2907.742331630851
 21
-226.0285127335239
 31
0.0000000001127424
  0
ARC
  5
1ACA3
330
18
100
AcDbEntity
  8
01
100
AcDbCircle
 10
2893.405913975545
 20
-189.635199572896
 30
0.0000000001127424
 40
30.0
100
AcDbArc
 50
187.4567122819763
 51
205.7148631092971
  0
ARC
  5
1ACA4
330
18
100
AcDbEntity
  8
01
100
AcDbCircle
 10
2850.159618195513
 20
-210.4620548637408
 30
0.0000000001127424
 40
18.0
100
AcDbArc
 50
0.0
 51
25.71486310929717
  0
ARC
  5
1ACA5
330
18
100
AcDbEntity
  8
01
100
AcDbCircle
 10
2859.913322415478
 20
-189.635199572896
 30
0.0000000001127424
 40
30.0
100
AcDbArc
 50
334.2851368907028
 51
352.5432877180091
  0
ARC
  5
1ACA6
330
18
100
AcDbEntity
  8
01
100
AcDbCircle
 10
2903.159618195513
 20
-210.4620548637408
 30
0.0000000001127424
 40
18.0
100
AcDbArc
 50
154.2851368907028
 51
180.0
  0
ELLIPSE
  5
1ACA7
330
18
100
AcDbEntity
  8
01
100
AcDbEllipse
 10
2898.659618195513
 20
-211.5261934792793
 30
0.0000000001127424
 11
0.0
 21
14.50231925424657
 31
0.0
210
0.0
220
0.0
230
-1.0
 40
0.9308855889410189
 41
3.141592653589793
 42
4.71238898038469
  0
ELLIPSE
  5
1ACA8
330
18
100
AcDbEntity
  8
01
100
AcDbEllipse
 10
2898.659618195513
 20
-211.5261934792793
 30
0.0000000001127424
 11
-30.5
 21
1.136868377216160E-13
 31
0.0
210
0.0
220
0.0
230
-1.0
 40
0.9672891558769368
 41
4.71238898038469
 42
6.283185307179586
  0
ARC
  5
1ACA9
330
18
100
AcDbEntity
  8
1DIM
100
AcDbCircle
 10
2974.566699995189
 20
-261.633590523292
 30
0.0000000001127424
 40
42.0
100
AcDbArc
 50
60.63920033067381
 51
61.45322462499385
  0
LINE
  5
1ACAA
330
18
100
AcDbEntity
  8
01
100
AcDbLine
 10
2862.659618195513
 20
-191.5285127335274
 30
0.0000000001127424
 11
2890.659618195427
 21
-191.5285127335274
 31
0.0000000001127424
  0
LINE
  5
1ACAB
330
18
100
AcDbEntity
  8
01
100
AcDbLine
 10
2862.659618195513
 20
-192.0285127335274
 30
0.0000000001127424
 11
2890.659618195513
 21
-192.0285127335274
 31
0.0000000001127424
  0
ARC
  5
1ACAC
330
18
100
AcDbEntity
  8
01
100
AcDbCircle
 10
2908.234926246579
 20
-541.028512733526
 30
0.0000000001127424
 40
300.0
100
AcDbArc
 50
78.83871039086202
 51
90.0
  0
ARC
  5
1ACAD
330
18
100
AcDbEntity
  8
01
100
AcDbCircle
 10
2974.43639645396
 20
-261.5599797263867
 30
0.0000000001127424
 40
42.0
100
AcDbArc
 50
61.24572459628552
 51
101.161289609138
  0
ARC
  5
1ACAE
330
18
100
AcDbEntity
  8
01
100
AcDbCircle
 10
2908.234926246579
 20
73.97148726647401
 30
0.0000000001127424
 40
300.0
100
AcDbArc
 50
270.0
 51
281.161289609138
  0
LINE
  5
1ACAF
330
18
100
AcDbEntity
  8
01
100
AcDbLine
 10
2995.159618195513
 20
-241.4413710804674
 30
0.0000000001127424
 11
2995.159618195513
 21
-225.6156543865841
 31
0.0000000001127424
  0
ARC
  5
1ACB0
330
18
100
AcDbEntity
  8
01
100
AcDbCircle
 10
2974.43639645396
 20
-205.497045740665
 30
0.0000000001127424
 40
42.0
100
AcDbArc
 50
258.838710390862
 51
298.7542754037145
  0
ARC
  5
1ACB1
330
18
100
AcDbEntity
  8
01
100
AcDbCircle
 10
2994.159618195513
 20
-241.4413710804674
 30
0.0000000001127424
 40
1.0
100
AcDbArc
 50
298.7542754037145
 51
0.0
  0
ARC
  5
1ACB2
330
18
100
AcDbEntity
  8
01
100
AcDbCircle
 10
2994.159618195513
 20
-225.6156543865841
 30
0.0000000001127424
 40
1.0
100
AcDbArc
 50
0.0
 51
61.24572459628552
  0
LINE
  5
1ACB3
330
18
100
AcDbEntity
  8
01
100
AcDbLine
 10
2862.659618195513
 20
-191.5285127335233
 30
0.0000000001127424
 11
2862.659618195513
 21
-192.0285127335274
 31
0.0000000001127424
  0
ARC
  5
1ACB4
330
18
100
AcDbEntity
  8
01
100
AcDbCircle
 10
2864.645125102002
 20
-191.7881747958634
 30
0.0000000001127424
 40
2.0
100
AcDbArc
 50
186.9018543472577
 51
240.4782807048069
  0
LINE
  5
1ACB5
330
18
100
AcDbEntity
  8
01
100
AcDbLine
 10
2890.659618195513
 20
-191.5285127335233
 30
0.0000000001127424
 11
2890.659618195513
 21
-192.0285127335274
 31
0.0000000001127424
  0
ARC
  5
1ACB6
330
18
100
AcDbEntity
  8
01
100
AcDbCircle
 10
2888.674111289022
 20
-191.7881747958627
 30
0.0000000001127424
 40
2.0
100
AcDbArc
 50
299.5217192951931
 51
353.0981456527277
  0
LINE
  5
1ACB7
330
18
100
AcDbEntity
  8
01
100
AcDbLine
 10
2997.156279087292
 20
-239.528512733526
 30
0.0000000001127424
 11
2997.156279087292
 21
-227.5285127335258
 31
0.0000000001127424
  0
ARC
  5
1ACB8
330
18
100
AcDbEntity
  8
01
100
AcDbCircle
 10
2997.156279087292
 20
-233.528512733526
 30
0.0000000001127424
 40
6.0
100
AcDbArc
 50
270.0
 51
90.0
  0
LINE
  5
1ACB9
330
18
100
AcDbEntity
  8
01
100
AcDbLine
 10
2995.159618195512
 20
-241.028512733526
 30
0.0000000001127424
 11
2995.659618195512
 21
-241.028512733526
 31
0.0000000001127424
  0
ARC
  5
1ACBA
330
18
100
AcDbEntity
  8
01
100
AcDbCircle
 10
2995.207133460087
 20
-239.0803706534386
 30
0.0000000001127424
 40
2.0
100
AcDbArc
 50
283.0759446051636
 51
347.0517420007038
  0
LINE
  5
1ACBB
330
18
100
AcDbEntity
  8
01
100
AcDbLine
 10
2995.159618195512
 20
-226.028512733526
 30
0.0000000001127424
 11
2995.659618195512
 21
-226.028512733526
 31
0.0000000001127424
  0
ARC
  5
1ACBC
330
18
100
AcDbEntity
  8
01
100
AcDbCircle
 10
2995.207133460087
 20
-227.9766548136135
 30
0.0000000001127424
 40
2.0
100
AcDbArc
 50
12.94825799930889
 51
76.92405539483647
  0
CIRCLE
  5
1ACC0
330
18
100
AcDbEntity
  8
01
100
AcDbCircle
 10
2876.659734535256
 20
-382.5285125280816
 30
0.0000000001127424
 40
3.75
  0
CIRCLE
  5
1ACC1
330
18
100
AcDbEntity
  8
01
100
AcDbCircle
 10
2876.659734535256
 20
-382.5285127322095
 30
0.0000000001127424
 40
3.5000005
  0
LINE
  5
1ACC2
330
18
100
AcDbEntity
  8
01
100
AcDbLine
 10
2877.659734535256
 20
-385.8826155322095
 30
0.0000000001127424
 11
2877.659734535256
 21
-379.1744087322095
 31
0.0000000001127424
  0
LINE
  5
1ACC3
330
18
100
AcDbEntity
  8
01
100
AcDbLine
 10
2875.659734535256
 20
-385.8826155322095
 30
0.0000000001127424
 11
2875.659734535256
 21
-379.1744087322095
 31
0.0000000001127424
  0
CIRCLE
  5
1ACC5
330
18
100
AcDbEntity
  8
01
100
AcDbCircle
 10
2876.657360015558
 20
-377.0304415864988
 30
0.0000000001127424
 40
22.5
  0
CIRCLE
  5
1ACC6
330
18
100
AcDbEntity
  8
01
100
AcDbCircle
 10
2876.657360015556
 20
-377.0304415864994
 30
0.0000000001127424
 40
22.29
  0
CIRCLE
  5
1ACC7
330
18
100
AcDbEntity
  8
01
100
AcDbCircle
 10
2876.657360015556
 20
-377.0304415864994
 30
0.0000000001127424
 40
19.0
  0
ARC
  5
1ACCA
330
18
100
AcDbEntity
  8
01
100
AcDbCircle
 10
2727.898199363876
 20
-382.5285114115675
 30
0.0000000000563712
 40
6.761421521126972
100
AcDbArc
 50
331.1686164602378
 51
28.19757905005426
  0
LINE
  5
1ACCB
330
18
100
AcDbEntity
  8
01
100
AcDbLine
 10
2686.659850875002
 20
-354.5304415867879
 30
0.0000000001127424
 11
2686.659850875002
 21
-399.5304415867879
 31
0.0000000001127424
  0
ARC
  5
1ACCC
330
18
100
AcDbEntity
  8
01
100
AcDbCircle
 10
3679.459850875002
 20
-377.0304415867886
 30
0.0000000001127424
 40
1000.0
100
AcDbArc
 50
178.9248287457554
 51
180.0
  0
ARC
  5
1ACCD
330
18
100
AcDbEntity
  8
01
100
AcDbCircle
 10
2679.935860726504
 20
-358.2718937318778
 30
0.0000000001127424
 40
0.3
100
AcDbArc
 50
104.1761832656497
 51
178.9248287456968
  0
ARC
  5
1ACCE
330
18
100
AcDbEntity
  8
01
100
AcDbCircle
 10
3679.459850875002
 20
-377.0304415867884
 30
0.0000000001127424
 40
1000.0
100
AcDbArc
 50
180.0
 51
181.0751712542446
  0
LINE
  5
1ACCF
330
18
100
AcDbEntity
  8
01
100
AcDbLine
 10
2686.659850875002
 20
-399.530441586789
 30
0.0000000001127424
 11
2683.120766305038
 21
-399.530441586789
 31
0.0000000001127424
  0
LINE
  5
1ACD0
330
18
100
AcDbEntity
  8
01
100
AcDbLine
 10
2686.659850875002
 20
-354.5304415867879
 30
0.0000000001127424
 11
2683.120766305038
 21
-354.5304415867879
 31
0.0000000001127424
  0
ARC
  5
1ACD1
330
18
100
AcDbEntity
  8
01
100
AcDbCircle
 10
2678.882771869989
 20
-354.1028406187254
 30
0.0000000001127424
 40
4.0
100
AcDbArc
 50
284.1761832656497
 51
350.2581374962631
  0
ARC
  5
1ACD2
330
18
100
AcDbEntity
  8
01
100
AcDbCircle
 10
2683.120766305038
 20
-354.8304415867879
 30
0.0000000001127424
 40
0.3
100
AcDbArc
 50
90.0
 51
170.2581374962631
  0
ARC
  5
1ACD3
330
18
100
AcDbEntity
  8
01
100
AcDbCircle
 10
2678.882771869989
 20
-399.9580425548514
 30
0.0000000001127424
 40
4.0
100
AcDbArc
 50
9.741862503736936
 51
75.8238167343503
  0
ARC
  5
1ACD4
330
18
100
AcDbEntity
  8
01
100
AcDbCircle
 10
2679.935860726504
 20
-395.7889894416991
 30
0.0000000001127424
 40
0.3
100
AcDbArc
 50
181.0751712542511
 51
255.8238167343503
  0
ARC
  5
1ACD5
330
18
100
AcDbEntity
  8
01
100
AcDbCircle
 10
2683.120766305038
 20
-399.2304415867891
 30
0.0000000001127424
 40
0.3
100
AcDbArc
 50
189.7418625037369
 51
270.0
  0
LINE
  5
1ACD6
330
18
100
AcDbEntity
  8
01
100
AcDbLine
 10
2682.825092274662
 20
-399.28120444503
 30
0.0000000001127424
 11
2682.825092274687
 21
-354.7796787285513
 31
0.0000000001127424
  0
LINE
  5
1ACD7
330
18
100
AcDbEntity
  8
01
100
AcDbLine
 10
2678.959850875002
 20
-382.528513376263
 30
0.0000000001127424
 11
2678.959851279332
 21
-391.7785034659086
 31
0.0000000001127424
  0
LINE
  5
1ACD8
330
18
100
AcDbEntity
  8
01
100
AcDbLine
 10
2678.959851279333
 20
-373.2785232866175
 30
0.0000000001127424
 11
2678.959850875002
 21
-382.528513376263
 31
0.0000000001127424
  0
ARC
  5
1ACD9
330
18
100
AcDbEntity
  8
01
100
AcDbCircle
 10
2679.459859713029
 20
-391.7785049828487
 30
0.0000000001127424
 40
0.5000084337392914
100
AcDbArc
 50
180.0003261594393
 51
269.9990335858663
  0
ARC
  5
1ACDA
330
18
100
AcDbEntity
  8
01
100
AcDbCircle
 10
2679.459859713029
 20
-373.2785217696796
 30
0.0000000001127424
 40
0.5000084337417281
100
AcDbArc
 50
90.0009664141337
 51
179.9996738402807
  0
ARC
  5
1ACDB
330
18
100
AcDbEntity
  8
01
100
AcDbCircle
 10
2668.427194379391
 20
-394.12879679354
 30
0.0000000001127424
 40
1.500000000000001
100
AcDbArc
 50
248.9635837817505
 51
345.5539247770851
  0
ARC
  5
1ACDC
330
18
100
AcDbEntity
  8
01
100
AcDbCircle
 10
2668.427194398476
 20
-370.9282071448165
 30
0.0000000001127424
 40
1.5
100
AcDbArc
 50
14.44607512785772
 51
111.0364165352597
  0
ARC
  5
1ACDD
330
18
100
AcDbEntity
  8
01
100
AcDbCircle
 10
2673.036098649703
 20
-376.5284883593274
 30
0.0000000001127424
 40
2.000013567111268
100
AcDbArc
 50
186.8925049822913
 51
269.9996362637661
  0
ARC
  5
1ACDE
330
18
100
AcDbEntity
  8
01
100
AcDbCircle
 10
2673.036084202446
 20
-388.528499209183
 30
0.0000000001127424
 40
1.99999727125782
100
AcDbArc
 50
89.9999498551807
 51
173.1079137070695
  0
LINE
  5
1ACDF
330
18
100
AcDbEntity
  8
01
100
AcDbLine
 10
2677.959848967654
 20
-378.5285019321713
 30
0.0000000001127424
 11
2673.036084855118
 21
-378.5285019321713
 31
0.0000000001127424
  0
LINE
  5
1ACE0
330
18
100
AcDbEntity
  8
01
100
AcDbLine
 10
2677.959848967654
 20
-386.5285019321713
 30
0.0000000001127424
 11
2673.03608453655
 21
-386.5285019321713
 31
0.0000000001127424
  0
ARC
  5
1ACE1
330
18
100
AcDbEntity
  8
01
100
AcDbCircle
 10
2672.888642968428
 20
-382.5286552837858
 30
0.0000000001127424
 40
13.92879400161829
100
AcDbArc
 50
111.0361095903723
 51
179.9993691914271
  0
ARC
  5
1ACE2
330
18
100
AcDbEntity
  8
01
100
AcDbCircle
 10
2677.959824468303
 20
-387.5286953816238
 30
0.0000000001127424
 40
1.00002449696401
100
AcDbArc
 50
0.0070867014715199
 51
89.99859632640197
  0
ARC
  5
1ACE3
330
18
100
AcDbEntity
  8
01
100
AcDbCircle
 10
2677.959824814584
 20
-377.5283265703633
 30
0.0000000001127424
 40
1.00002415319642
100
AcDbArc
 50
270.0013838370136
 51
0.0007820534812681
  0
ARC
  5
1ACE4
330
18
100
AcDbEntity
  8
01
100
AcDbCircle
 10
2672.888642968428
 20
-382.5283485804732
 30
0.0000000001127424
 40
13.92879400161829
100
AcDbArc
 50
180.0006308085794
 51
248.9636137060521
  0
ARC
  5
1ACE5
330
18
100
AcDbEntity
  8
01
100
AcDbCircle
 10
2623.397391349584
 20
-382.5285020086314
 30
0.0000000001127424
 40
48.0
100
AcDbArc
 50
345.5539248722497
 51
354.0846156061903
  0
ARC
  5
1ACE6
330
18
100
AcDbEntity
  8
01
100
AcDbCircle
 10
2623.397391349584
 20
-382.5285020086314
 30
0.0000000001127424
 40
48.0
100
AcDbArc
 50
5.915341272161447
 51
14.44648558684192
  0
LINE
  5
1ACE7
330
18
100
AcDbEntity
  8
01
100
AcDbLine
 10
2726.659850875002
 20
-354.5304415867879
 30
0.0000000001127424
 11
2726.659850875002
 21
-399.5304415867879
 31
0.0000000001127424
  0
ARC
  5
1ACE8
330
18
100
AcDbEntity
  8
01
100
AcDbCircle
 10
1733.859850875002
 20
-377.0304415867886
 30
0.0000000001127424
 40
1000.0
100
AcDbArc
 50
0.0
 51
1.075171254244616
  0
ARC
  5
1ACE9
330
18
100
AcDbEntity
  8
01
100
AcDbCircle
 10
2733.3838410235
 20
-358.2718937318778
 30
0.0000000001127424
 40
0.3
100
AcDbArc
 50
1.07517125430323
 51
75.8238167343503
  0
ARC
  5
1ACEA
330
18
100
AcDbEntity
  8
01
100
AcDbCircle
 10
1733.859850875002
 20
-377.0304415867884
 30
0.0000000001127424
 40
1000.0
100
AcDbArc
 50
358.9248287457553
 51
0.0
  0
LINE
  5
1ACEB
330
18
100
AcDbEntity
  8
01
100
AcDbLine
 10
2726.659850875002
 20
-399.530441586789
 30
0.0000000001127424
 11
2730.198935444966
 21
-399.530441586789
 31
0.0000000001127424
  0
LINE
  5
1ACEC
330
18
100
AcDbEntity
  8
01
100
AcDbLine
 10
2726.659850875002
 20
-354.5304415867879
 30
0.0000000001127424
 11
2730.198935444966
 21
-354.5304415867879
 31
0.0000000001127424
  0
ARC
  5
1ACED
330
18
100
AcDbEntity
  8
01
100
AcDbCircle
 10
2734.436929880015
 20
-354.1028406187254
 30
0.0000000001127424
 40
4.0
100
AcDbArc
 50
189.7418625037434
 51
255.8238167343503
  0
ARC
  5
1ACEE
330
18
100
AcDbEntity
  8
01
100
AcDbCircle
 10
2730.198935444966
 20
-354.8304415867879
 30
0.0000000001127424
 40
0.3
100
AcDbArc
 50
9.741862503743356
 51
90.0
  0
ARC
  5
1ACEF
330
18
100
AcDbEntity
  8
01
100
AcDbCircle
 10
2734.436929880015
 20
-399.9580425548514
 30
0.0000000001127424
 40
4.0
100
AcDbArc
 50
104.1761832656497
 51
170.2581374962566
  0
ARC
  5
1ACF0
330
18
100
AcDbEntity
  8
01
100
AcDbCircle
 10
2733.3838410235
 20
-395.7889894416991
 30
0.0000000001127424
 40
0.3
100
AcDbArc
 50
284.1761832656497
 51
358.9248287457489
  0
ARC
  5
1ACF1
330
18
100
AcDbEntity
  8
01
100
AcDbCircle
 10
2730.198935444966
 20
-399.2304415867891
 30
0.0000000001127424
 40
0.3
100
AcDbArc
 50
270.0
 51
350.2581374962566
  0
LINE
  5
1ACF2
330
18
100
AcDbEntity
  8
01
100
AcDbLine
 10
2730.494609475342
 20
-399.28120444503
 30
0.0000000001127424
 11
2730.494609475317
 21
-354.7796787285513
 31
0.0000000001127424
  0
ARC
  5
1ACF3
330
18
100
AcDbEntity
  8
01
100
AcDbCircle
 10
2536.662229394703
 20
-382.5265838782084
 30
0.0000000001127424
 40
10.05
100
AcDbArc
 50
110.0454680348206
 51
249.9469134583226
  0
ARC
  5
1ACF4
330
18
100
AcDbEntity
  8
01
100
AcDbCircle
 10
2536.662229394703
 20
-382.5265838782084
 30
0.0000000001127424
 40
10.05
100
AcDbArc
 50
290.0224750536341
 51
69.9914596174671
  0
ARC
  5
1ACF5
330
18
100
AcDbEntity
  8
01
100
AcDbCircle
 10
2536.662229394703
 20
-382.5265838782084
 30
0.0000000001127424
 40
9.74999999999999
100
AcDbArc
 50
0.0000000001563306
 51
68.45395418619165
  0
ARC
  5
1ACF6
330
18
100
AcDbEntity
  8
01
100
AcDbCircle
 10
2536.662229394703
 20
-382.5265838782084
 30
0.0000000001127424
 40
9.749999999999998
100
AcDbArc
 50
111.5843693294114
 51
180.0
  0
ARC
  5
1ACF7
330
18
100
AcDbEntity
  8
01
100
AcDbCircle
 10
2536.662229394703
 20
-382.5265838782084
 30
0.0000000001127424
 40
9.750000000000007
100
AcDbArc
 50
180.0000000001563
 51
248.4084387346873
  0
ARC
  5
1ACF8
330
18
100
AcDbEntity
  8
01
100
AcDbCircle
 10
2536.662229394703
 20
-382.5265838782084
 30
0.0000000001127424
 40
9.75
100
AcDbArc
 50
291.5595539139855
 51
0.0
  0
ELLIPSE
  5
1ACF9
330
18
100
AcDbEntity
  8
01
100
AcDbEllipse
 10
2536.659846875001
 20
-382.5285127324983
 30
0.0000000001127424
 11
-0.0003610284613241425
 21
13.09998045870975
 31
0.0
210
0.0
220
0.0
230
1.0
 40
0.3791170530975356
 41
0.0
 42
6.283185307179586
  0
CIRCLE
  5
1ACFA
330
18
100
AcDbEntity
  8
01
100
AcDbCircle
 10
2536.659846875003
 20
-377.0285127324977
 30
0.0000000001127424
 40
22.5
  0
CIRCLE
  5
1ACFB
330
18
100
AcDbEntity
  8
01
100
AcDbCircle
 10
2536.659846875001
 20
-377.0285127324983
 30
0.0000000001127424
 40
22.29
  0
CIRCLE
  5
1ACFC
330
18
100
AcDbEntity
  8
01
100
AcDbCircle
 10
2536.659846875001
 20
-377.0285127324983
 30
0.0000000001127424
 40
19.0
  0
LINE
  5
1AF91
330
18
100
AcDbEntity
  8
01
100
AcDbLine
 10
2516.659846874997
 20
-377.0285127324983
 30
0.0000000002254849
 11
2516.659846874997
 21
-348.2285127324982
 31
0.0000000002254849
1001
ACAD
1000
DSTYLE
1002
{
1070
     3
1000
φ<>
1070
    40
1040
1.3
1070
    45
1040
0.5
1070
   271
1070
     4
1070
   272
1070
     2
1002
}
  0
LINE
  5
1AF92
330
18
100
AcDbEntity
  8
01
100
AcDbLine
 10
2556.659846874997
 20
-377.0285127324983
 30
0.0000000002254849
 11
2556.659846874997
 21
-348.2285127324982
 31
0.0000000002254849
1001
ACAD
1000
DSTYLE
1002
{
1070
     3
1000
φ<>
1070
    40
1040
1.3
1070
    45
1040
0.5
1070
   271
1070
     4
1070
   272
1070
     2
1002
}
  0
LINE
  5
1AF93
330
18
100
AcDbEntity
  8
01
100
AcDbLine
 10
2519.259846874997
 20
-349.5285127324983
 30
0.0000000002254849
 11
2554.059846874997
 21
-349.5285127324983
 31
0.0000000002254849
1001
ACAD
1000
DSTYLE
1002
{
1070
     3
1000
φ<>
1070
    40
1040
1.3
1070
    45
1040
0.5
1070
   271
1070
     4
1070
   272
1070
     2
1002
}
  0
LINE
  5
1AF97
330
18
100
AcDbEntity
  8
01
100
AcDbLine
 10
2516.659846874997
 20
-377.0285127324983
 30
0.0000000002254849
 11
2516.659846874997
 21
-348.2285127324982
 31
0.0000000002254849
1001
ACAD
1000
DSTYLE
1002
{
1070
     3
1000
φ<>
1070
    40
1040
1.3
1070
    45
1040
0.5
1070
   271
1070
     4
1070
   272
1070
     2
1002
}
  0
LINE
  5
1AF98
330
18
100
AcDbEntity
  8
01
100
AcDbLine
 10
2556.659846874997
 20
-377.0285127324983
 30
0.0000000002254849
 11
2556.659846874997
 21
-348.2285127324982
 31
0.0000000002254849
1001
ACAD
1000
DSTYLE
1002
{
1070
     3
1000
φ<>
1070
    40
1040
1.3
1070
    45
1040
0.5
1070
   271
1070
     4
1070
   272
1070
     2
1002
}
  0
LINE
  5
1AF99
330
18
100
AcDbEntity
  8
01
100
AcDbLine
 10
2519.259846874997
 20
-349.5285127324983
 30
0.0000000002254849
 11
2554.059846874997
 21
-349.5285127324983
 31
0.0000000002254849
1001
ACAD
1000
DSTYLE
1002
{
1070
     3
1000
φ<>
1070
    40
1040
1.3
1070
    45
1040
0.5
1070
   271
1070
     4
1070
   272
1070
     2
1002
}
  0
LINE
  5
1AF9D
330
18
100
AcDbEntity
  8
01
100
AcDbLine
 10
2814.659734535256
 20
-404.5285134306298
 30
0.0000000002254849
 11
2814.659734535256
 21
-301.8070206478105
 31
0.0000000002254849
1001
ACAD
1000
DSTYLE
1002
{
1070
    40
1040
1.3
1070
    45
1040
0.5
1002
}
  0
LINE
  5
1AF9E
330
18
100
AcDbEntity
  8
01
100
AcDbLine
 10
2825.659734535256
 20
-346.6571953813409
 30
0.0000000002254849
 11
2825.659734535256
 21
-301.8070206478105
 31
0.0000000002254849
1001
ACAD
1000
DSTYLE
1002
{
1070
    40
1040
1.3
1070
    45
1040
0.5
1002
}
  0
LINE
  5
1AF9F
330
18
100
AcDbEntity
  8
01
100
AcDbLine
 10
2817.259734535256
 20
-303.1070206478105
 30
0.0000000002254849
 11
2823.059734535256
 21
-303.1070206478105
 31
0.0000000002254849
1001
ACAD
1000
DSTYLE
1002
{
1070
    40
1040
1.3
1070
    45
1040
0.5
1002
}
  0
LINE
  5
1AFA3
330
18
100
AcDbEntity
  8
01
100
AcDbLine
 10
2894.659734535256
 20
-374.5285127324985
 30
0.0000000002254849
 11
2922.959734535256
 21
-374.5285127324985
 31
0.0000000002254849
1001
ACAD
1000
DSTYLE
1002
{
1070
    40
1040
1.3
1070
    45
1040
0.5
1002
}
  0
LINE
  5
1AFA4
330
18
100
AcDbEntity
  8
01
100
AcDbLine
 10
2894.659734535256
 20
-448.5285127324989
 30
0.0000000002254849
 11
2922.959734535256
 21
-448.5285127324989
 31
0.0000000002254849
1001
ACAD
1000
DSTYLE
1002
{
1070
    40
1040
1.3
1070
    45
1040
0.5
1002
}
  0
LINE
  5
1AFA5
330
18
100
AcDbEntity
  8
01
100
AcDbLine
 10
2921.659734535256
 20
-377.1285127324985
 30
0.0000000002254849
 11
2921.659734535256
 21
-445.9285127324989
 31
0.0000000002254849
1001
ACAD
1000
DSTYLE
1002
{
1070
    40
1040
1.3
1070
    45
1040
0.5
1002
}
  0
LINE
  5
1AFA9
330
18
100
AcDbEntity
  8
01
100
AcDbLine
 10
2894.659734535256
 20
-374.5285127324985
 30
0.0000000002254849
 11
2894.659734535256
 21
-291.7271531797623
 31
0.0000000002254849
1001
ACAD
1000
DSTYLE
1002
{
1070
    40
1040
1.3
1070
    45
1040
0.5
1002
}
  0
LINE
  5
1AFAA
330
18
100
AcDbEntity
  8
01
100
AcDbLine
 10
2825.659734535256
 20
-346.6571953813409
 30
0.0000000002254849
 11
2825.659734535256
 21
-291.7271531797623
 31
0.0000000002254849
1001
ACAD
1000
DSTYLE
1002
{
1070
    40
1040
1.3
1070
    45
1040
0.5
1002
}
  0
LINE
  5
1AFAB
330
18
100
AcDbEntity
  8
01
100
AcDbLine
 10
2892.059734535256
 20
-293.0271531797623
 30
0.0000000002254849
 11
2828.259734535256
 21
-293.0271531797623
 31
0.0000000002254849
1001
ACAD
1000
DSTYLE
1002
{
1070
    40
1040
1.3
1070
    45
1040
0.5
1002
}
  0
LINE
  5
1AFAF
330
18
100
AcDbEntity
  8
01
100
AcDbLine
 10
2825.659734535256
 20
-346.6571953813409
 30
0.0000000002254849
 11
2825.659734535256
 21
-301.8070206478105
 31
0.0000000002254849
1001
ACAD
1000
DSTYLE
1002
{
1070
    40
1040
1.3
1070
    45
1040
0.5
1002
}
  0
LINE
  5
1AFB0
330
18
100
AcDbEntity
  8
01
100
AcDbLine
 10
2876.659734535256
 20
-382.5285127324985
 30
0.0000000002254849
 11
2876.659734535256
 21
-301.8070206478105
 31
0.0000000002254849
1001
ACAD
1000
DSTYLE
1002
{
1070
    40
1040
1.3
1070
    45
1040
0.5
1002
}
  0
LINE
  5
1AFB1
330
18
100
AcDbEntity
  8
01
100
AcDbLine
 10
2828.259734535256
 20
-303.1070206478105
 30
0.0000000002254849
 11
2874.059734535256
 21
-303.1070206478105
 31
0.0000000002254849
1001
ACAD
1000
DSTYLE
1002
{
1070
    40
1040
1.3
1070
    45
1040
0.5
1002
}
  0
LINE
  5
1AFB5
330
18
100
AcDbEntity
  8
01
100
AcDbLine
 10
2694.159850875
 20
-352.5285127324989
 30
0.0000000002254849
 11
2694.159850875
 21
-301.8070206478107
 31
0.0000000002254849
1001
ACAD
1000
DSTYLE
1002
{
1070
    40
1040
1.3
1070
    45
1040
0.5
1002
}
  0
LINE
  5
1AFB6
330
18
100
AcDbEntity
  8
01
100
AcDbLine
 10
2719.159850875
 20
-352.5285127324989
 30
0.0000000002254849
 11
2719.159850875
 21
-301.8070206478107
 31
0.0000000002254849
1001
ACAD
1000
DSTYLE
1002
{
1070
    40
1040
1.3
1070
    45
1040
0.5
1002
}
  0
LINE
  5
1AFB7
330
18
100
AcDbEntity
  8
01
100
AcDbLine
 10
2696.759850875
 20
-303.1070206478107
 30
0.0000000002254849
 11
2716.559850875
 21
-303.1070206478107
 31
0.0000000002254849
1001
ACAD
1000
DSTYLE
1002
{
1070
    40
1040
1.3
1070
    45
1040
0.5
1002
}
  0
LINE
  5
1AFBB
330
18
100
AcDbEntity
  8
01
100
AcDbLine
 10
2712.461790478236
 20
-354.5280675880826
 30
0.0000000003382273
 11
2792.747921646444
 21
-354.5280675880826
 31
0.0000000003382273
1001
ACAD
1000
DSTYLE
1002
{
1070
    40
1040
1.3
1070
    45
1040
0.5
1002
}
  0
LINE
  5
1AFBC
330
18
100
AcDbEntity
  8
01
100
AcDbLine
 10
2712.461790478236
 20
-468.5280675880826
 30
0.0000000003382273
 11
2792.747921646444
 21
-468.5280675880826
 31
0.0000000003382273
1001
ACAD
1000
DSTYLE
1002
{
1070
    40
1040
1.3
1070
    45
1040
0.5
1002
}
  0
LINE
  5
1AFBD
330
18
100
AcDbEntity
  8
01
100
AcDbLine
 10
2791.447921646444
 20
-357.1280675880827
 30
0.0000000003382273
 11
2791.447921646444
 21
-465.9280675880826
 31
0.0000000003382273
1001
ACAD
1000
DSTYLE
1002
{
1070
    40
1040
1.3
1070
    45
1040
0.5
1002
}
  0
LINE
  5
1AFC1
330
18
100
AcDbEntity
  8
01
100
AcDbLine
 10
2713.059850875
 20
-346.6285127324991
 30
0.0000000003382273
 11
2802.112255812669
 21
-346.6285127324991
 31
0.0000000003382273
1001
ACAD
1000
DSTYLE
1002
{
1070
    40
1040
1.3
1070
    45
1040
0.5
1002
}
  0
LINE
  5
1AFC2
330
18
100
AcDbEntity
  8
01
100
AcDbLine
 10
2712.98676507033
 20
-476.4280675880825
 30
0.0000000003382273
 11
2802.112255812669
 21
-476.4280675880825
 31
0.0000000003382273
1001
ACAD
1000
DSTYLE
1002
{
1070
    40
1040
1.3
1070
    45
1040
0.5
1002
}
  0
LINE
  5
1AFC3
330
18
100
AcDbEntity
  8
01
100
AcDbLine
 10
2800.812255812669
 20
-349.2285127324991
 30
0.0000000003382273
 11
2800.812255812669
 21
-473.8280675880825
 31
0.0000000003382273
1001
ACAD
1000
DSTYLE
1002
{
1070
    40
1040
1.3
1070
    45
1040
0.5
1002
}
  0
LINE
  5
1AFC7
330
18
100
AcDbEntity
  8
01
100
AcDbLine
 10
2876.674537493905
 20
-404.0285165768491
 30
0.0000000002254849
 11
2840.359734535261
 21
-404.0285165768491
 31
0.0000000002254849
1001
ACAD
1000
DSTYLE
1002
{
1070
     3
1000
φ<>
1070
    40
1040
1.3
1070
    45
1040
0.5
1002
}
  0
LINE
  5
1AFC8
330
18
100
AcDbEntity
  8
01
100
AcDbLine
 10
2876.65973453527
 20
-461.0285127325055
 30
0.0000000002254849
 11
2840.359734535261
 21
-461.0285127325055
 31
0.0000000002254849
1001
ACAD
1000
DSTYLE
1002
{
1070
     3
1000
φ<>
1070
    40
1040
1.3
1070
    45
1040
0.5
1002
}
  0
LINE
  5
1AFC9
330
18
100
AcDbEntity
  8
01
100
AcDbLine
 10
2841.659734535261
 20
-406.6285165768492
 30
0.0000000002254849
 11
2841.659734535261
 21
-458.4285127325055
 31
0.0000000002254849
1001
ACAD
1000
DSTYLE
1002
{
1070
     3
1000
φ<>
1070
    40
1040
1.3
1070
    45
1040
0.5
1002
}
  0
LINE
  5
1AFCD
330
18
100
AcDbEntity
  8
01
100
AcDbLine
 10
2876.659734278902
 20
-115.0285127335271
 30
0.0000000001127424
 11
2877.226438075289
 21
-115.1111695938787
 31
0.0000000001127424
  0
LINE
  5
1AFCE
330
18
100
AcDbEntity
  8
01
100
AcDbLine
 10
2877.226438075289
 20
-115.1111695938787
 30
0.0000000001127424
 11
2877.761609584078
 21
-115.3345582657537
 31
0.0000000001127424
  0
LINE
  5
1AFCF
330
18
100
AcDbEntity
  8
01
100
AcDbLine
 10
2877.761609584078
 20
-115.3345582657537
 30
0.0000000001127424
 11
2878.238286524996
 21
-115.6626069718084
 31
0.0000000001127424
  0
LINE
  5
1AFD0
330
18
100
AcDbEntity
  8
01
100
AcDbLine
 10
2878.238286524996
 20
-115.6626069718084
 30
0.0000000001127424
 11
2878.656850367769
 21
-116.0635316544256
 31
0.0000000001127424
  0
LINE
  5
1AFD1
330
18
100
AcDbEntity
  8
01
100
AcDbLine
 10
2878.656850367769
 20
-116.0635316544256
 30
0.0000000001127424
 11
2879.02573922275
 21
-116.5092408829412
 31
0.0000000001127424
  0
LINE
  5
1AFD2
330
18
100
AcDbEntity
  8
01
100
AcDbLine
 10
2879.02573922275
 20
-116.5092408829412
 30
0.0000000001127424
 11
2879.352483302339
 21
-116.9862306290349
 31
0.0000000001127424
  0
LINE
  5
1AFD3
330
18
100
AcDbEntity
  8
01
100
AcDbLine
 10
2879.352483302339
 20
-116.9862306290349
 30
0.0000000001127424
 11
2879.643941432222
 21
-117.4865358048162
 31
0.0000000001127424
  0
LINE
  5
1AFD4
330
18
100
AcDbEntity
  8
01
100
AcDbLine
 10
2879.643941432222
 20
-117.4865358048162
 30
0.0000000001127424
 11
2879.904813319429
 21
-118.0038545304021
 31
0.0000000001127424
  0
LINE
  5
1AFD5
330
18
100
AcDbEntity
  8
01
100
AcDbLine
 10
2879.904813319429
 20
-118.0038545304021
 30
0.0000000001127424
 11
2880.138806849703
 21
-118.5329835587224
 31
0.0000000001127424
  0
LINE
  5
1AFD6
330
18
100
AcDbEntity
  8
01
100
AcDbLine
 10
2880.138806849703
 20
-118.5329835587224
 30
0.0000000001127424
 11
2880.349156886324
 21
-119.0715425186834
 31
0.0000000001127424
  0
LINE
  5
1AFD7
330
18
100
AcDbEntity
  8
01
100
AcDbLine
 10
2880.349156886324
 20
-119.0715425186834
 30
0.0000000001127424
 11
2880.538816004976
 21
-119.6185090714177
 31
0.0000000001127424
  0
LINE
  5
1AFD8
330
18
100
AcDbEntity
  8
01
100
AcDbLine
 10
2880.538816004976
 20
-119.6185090714177
 30
0.0000000001127424
 11
2880.709714442476
 21
-120.1722505264959
 31
0.0000000001127424
  0
LINE
  5
1AFD9
330
18
100
AcDbEntity
  8
01
100
AcDbLine
 10
2880.709714442476
 20
-120.1722505264959
 30
0.0000000001127424
 11
2880.863179713472
 21
-120.7307832413396
 31
0.0000000001127424
  0
LINE
  5
1AFDA
330
18
100
AcDbEntity
  8
01
100
AcDbLine
 10
2880.863179713472
 20
-120.7307832413396
 30
0.0000000001127424
 11
2881.000493556246
 21
-121.2932222061834
 31
0.0000000001127424
  0
LINE
  5
1AFDB
330
18
100
AcDbEntity
  8
01
100
AcDbLine
 10
2881.000493556246
 20
-121.2932222061834
 30
0.0000000001127424
 11
2881.122899562105
 21
-121.8594300919256
 31
0.0000000001127424
  0
LINE
  5
1AFDC
330
18
100
AcDbEntity
  8
01
100
AcDbLine
 10
2881.122899562105
 20
-121.8594300919256
 30
0.0000000001127424
 11
2881.231282740816
 21
-122.4286592179021
 31
0.0000000001127424
  0
LINE
  5
1AFDD
330
18
100
AcDbEntity
  8
01
100
AcDbLine
 10
2881.231282740816
 20
-122.4286592179021
 30
0.0000000001127424
 11
2881.326245814546
 21
-122.9997499161443
 31
0.0000000001127424
  0
LINE
  5
1AFDE
330
18
100
AcDbEntity
  8
01
100
AcDbLine
 10
2881.326245814546
 20
-122.9997499161443
 30
0.0000000001127424
 11
2881.408406764253
 21
-123.5722596817693
 31
0.0000000001127424
  0
LINE
  5
1AFDF
330
18
100
AcDbEntity
  8
01
100
AcDbLine
 10
2881.408406764253
 20
-123.5722596817693
 30
0.0000000001127424
 11
2881.47836068271
 21
-124.1464936905584
 31
0.0000000001127424
  0
LINE
  5
1AFE0
330
18
100
AcDbEntity
  8
01
100
AcDbLine
 10
2881.47836068271
 20
-124.1464936905584
 30
0.0000000001127424
 11
2881.536565333589
 21
-124.7223909073552
 31
0.0000000001127424
  0
LINE
  5
1AFE1
330
18
100
AcDbEntity
  8
01
100
AcDbLine
 10
2881.536565333589
 20
-124.7223909073552
 30
0.0000000001127424
 11
2881.583295375093
 21
-125.2994935684881
 31
0.0000000001127424
  0
LINE
  5
1AFE2
330
18
100
AcDbEntity
  8
01
100
AcDbLine
 10
2881.583295375093
 20
-125.2994935684881
 30
0.0000000001127424
 11
2881.619390040621
 21
-125.8890931778631
 31
0.0000000001127424
  0
LINE
  5
1AFE3
330
18
100
AcDbEntity
  8
01
100
AcDbLine
 10
2876.659734278902
 20
-115.0285127335271
 30
0.0000000001127424
 11
2876.09303811191
 21
-115.1111695938787
 31
0.0000000001127424
  0
LINE
  5
1AFE4
330
18
100
AcDbEntity
  8
01
100
AcDbLine
 10
2876.09303811191
 20
-115.1111695938787
 30
0.0000000001127424
 11
2875.557866603121
 21
-115.3345582657537
 31
0.0000000001127424
  0
LINE
  5
1AFE5
330
18
100
AcDbEntity
  8
01
100
AcDbLine
 10
2875.557866603121
 20
-115.3345582657537
 30
0.0000000001127424
 11
2875.081189662203
 21
-115.6626069718084
 31
0.0000000001127424
  0
LINE
  5
1AFE6
330
18
100
AcDbEntity
  8
01
100
AcDbLine
 10
2875.081189662203
 20
-115.6626069718084
 30
0.0000000001127424
 11
2874.662622004732
 21
-116.0635316544256
 31
0.0000000001127424
  0
LINE
  5
1AFE7
330
18
100
AcDbEntity
  8
01
100
AcDbLine
 10
2874.662622004732
 20
-116.0635316544256
 30
0.0000000001127424
 11
2874.293733149751
 21
-116.5092408829412
 31
0.0000000001127424
  0
LINE
  5
1AFE8
330
18
100
AcDbEntity
  8
01
100
AcDbLine
 10
2874.293733149751
 20
-116.5092408829412
 30
0.0000000001127424
 11
2873.966996699556
 21
-116.9862306290349
 31
0.0000000001127424
  0
LINE
  5
1AFE9
330
18
100
AcDbEntity
  8
01
100
AcDbLine
 10
2873.966996699556
 20
-116.9862306290349
 30
0.0000000001127424
 11
2873.675534754976
 21
-117.4865358048162
 31
0.0000000001127424
  0
LINE
  5
1AFEA
330
18
100
AcDbEntity
  8
01
100
AcDbLine
 10
2873.675534754976
 20
-117.4865358048162
 30
0.0000000001127424
 11
2873.414659053072
 21
-118.0038545304021
 31
0.0000000001127424
  0
LINE
  5
1AFEB
330
18
100
AcDbEntity
  8
01
100
AcDbLine
 10
2873.414659053072
 20
-118.0038545304021
 30
0.0000000001127424
 11
2873.180673152193
 21
-118.5329835587224
 31
0.0000000001127424
  0
LINE
  5
1AFEC
330
18
100
AcDbEntity
  8
01
100
AcDbLine
 10
2873.180673152193
 20
-118.5329835587224
 30
0.0000000001127424
 11
2872.970315486177
 21
-119.0715425186834
 31
0.0000000001127424
  0
LINE
  5
1AFED
330
18
100
AcDbEntity
  8
01
100
AcDbLine
 10
2872.970315486177
 20
-119.0715425186834
 30
0.0000000001127424
 11
2872.780660182222
 21
-119.6185090714177
 31
0.0000000001127424
  0
LINE
  5
1AFEE
330
18
100
AcDbEntity
  8
01
100
AcDbLine
 10
2872.780660182222
 20
-119.6185090714177
 30
0.0000000001127424
 11
2872.609765559419
 21
-120.1722505264959
 31
0.0000000001127424
  0
LINE
  5
1AFEF
330
18
100
AcDbEntity
  8
01
100
AcDbLine
 10
2872.609765559419
 20
-120.1722505264959
 30
0.0000000001127424
 11
2872.456300288423
 21
-120.7307832413396
 31
0.0000000001127424
  0
LINE
  5
1AFF0
330
18
100
AcDbEntity
  8
01
100
AcDbLine
 10
2872.456300288423
 20
-120.7307832413396
 30
0.0000000001127424
 11
2872.318982630953
 21
-121.2932222061834
 31
0.0000000001127424
  0
LINE
  5
1AFF1
330
18
100
AcDbEntity
  8
01
100
AcDbLine
 10
2872.318982630953
 20
-121.2932222061834
 30
0.0000000001127424
 11
2872.196580439791
 21
-121.8594300919256
 31
0.0000000001127424
  0
LINE
  5
1AFF2
330
18
100
AcDbEntity
  8
01
100
AcDbLine
 10
2872.196580439791
 20
-121.8594300919256
 30
0.0000000001127424
 11
2872.088193446382
 21
-122.4286592179021
 31
0.0000000001127424
  0
LINE
  5
1AFF3
330
18
100
AcDbEntity
  8
01
100
AcDbLine
 10
2872.088193446382
 20
-122.4286592179021
 30
0.0000000001127424
 11
2871.993226557955
 21
-122.9997499161443
 31
0.0000000001127424
  0
LINE
  5
1AFF4
330
18
100
AcDbEntity
  8
01
100
AcDbLine
 10
2871.993226557955
 20
-122.9997499161443
 30
0.0000000001127424
 11
2871.911073237642
 21
-123.5722596817693
 31
0.0000000001127424
  0
LINE
  5
1AFF5
330
18
100
AcDbEntity
  8
01
100
AcDbLine
 10
2871.911073237642
 20
-123.5722596817693
 30
0.0000000001127424
 11
2871.841119319185
 21
-124.1464936905584
 31
0.0000000001127424
  0
LINE
  5
1AFF6
330
18
100
AcDbEntity
  8
01
100
AcDbLine
 10
2871.841119319185
 20
-124.1464936905584
 30
0.0000000001127424
 11
2871.782910853609
 21
-124.7223909073552
 31
0.0000000001127424
  0
LINE
  5
1AFF7
330
18
100
AcDbEntity
  8
01
100
AcDbLine
 10
2871.782910853609
 20
-124.7223909073552
 30
0.0000000001127424
 11
2871.736180812105
 21
-125.2994935684881
 31
0.0000000001127424
  0
LINE
  5
1AFF8
330
18
100
AcDbEntity
  8
01
100
AcDbLine
 10
2871.736180812105
 20
-125.2994935684881
 30
0.0000000001127424
 11
2871.700086146578
 21
-125.8890931778631
 31
0.0000000001127424
  0
LINE
  5
1AFF9
330
18
100
AcDbEntity
  8
01
100
AcDbLine
 10
2872.11023858188
 20
-126.9987886124334
 30
0.0000000001127424
 11
2872.127137690767
 21
-127.0168397598943
 31
0.0000000001127424
  0
LINE
  5
1AFFA
330
18
100
AcDbEntity
  8
01
100
AcDbLine
 10
2872.127137690767
 20
-127.0168397598943
 30
0.0000000001127424
 11
2872.34409859775
 21
-127.2973573380193
 31
0.0000000001127424
  0
LINE
  5
1AFFB
330
18
100
AcDbEntity
  8
01
100
AcDbLine
 10
2871.700086146578
 20
-125.8890931778631
 30
0.0000000001127424
 11
2871.712026149019
 21
-126.1681764298162
 31
0.0000000001127424
  0
LINE
  5
1AFFC
330
18
100
AcDbEntity
  8
01
100
AcDbLine
 10
2871.712026149019
 20
-126.1681764298162
 30
0.0000000001127424
 11
2871.775048762544
 21
-126.440347450324
 31
0.0000000001127424
  0
LINE
  5
1AFFD
330
18
100
AcDbEntity
  8
01
100
AcDbLine
 10
2871.775048762544
 20
-126.440347450324
 30
0.0000000001127424
 11
2871.923482447847
 21
-126.7567384415349
 31
0.0000000001127424
  0
TEXT
  5
1AFFE
330
18
100
AcDbEntity
  8
01
  6
CONTINUOUS
100
AcDbText
 10
2787.662779288531
 20
-219.945179400194
 30
0.0000000001127424
 40
4.55
  1
材質：亜鉛ダイキャスト
100
AcDbText
  0
TEXT
  5
1AFFF
330
18
100
AcDbEntity
  8
01
  6
CONTINUOUS
100
AcDbText
 10
2797.672779288531
 20
-227.5285127335274
 30
0.0000000001127424
 40
4.55
  1
仕上げ：各種仕上げ
100
AcDbText
  0
TEXT
  5
1B000
330
18
100
AcDbEntity
  8
01
  6
CONTINUOUS
100
AcDbText
 10
3025.782632866667
 20
-268.0563677294965
 30
0.0000000001127424
 40
4.55
  1
仕上げ：各種仕上げ
100
AcDbText
  0
TEXT
  5
1B001
330
18
100
AcDbEntity
  8
01
  6
CONTINUOUS
100
AcDbText
 10
3025.6309662
 20
-261.6133177629215
 30
0.0000000001127424
 40
4.55
  1
材質：真鍮
100
AcDbText
  0
LINE
  5
1B002
330
18
100
AcDbEntity
  8
01
100
AcDbLine
 10
2854.157360098236
 20
-377.0285127322095
 30
0.0000000002254849
 11
2854.157360098236
 21
-348.2285127322095
 31
0.0000000002254849
1001
ACAD
1000
DSTYLE
1002
{
1070
     3
1000
φ<>
1070
    40
1040
1.3
1070
    45
1040
0.5
1070
   271
1070
     4
1070
   272
1070
     2
1002
}
  0
LINE
  5
1B003
330
18
100
AcDbEntity
  8
01
100
AcDbLine
 10
2899.159742535258
 20
-377.0285127322095
 30
0.0000000002254849
 11
2899.159742535258
 21
-348.2285127322095
 31
0.0000000002254849
1001
ACAD
1000
DSTYLE
1002
{
1070
     3
1000
φ<>
1070
    40
1040
1.3
1070
    45
1040
0.5
1070
   271
1070
     4
1070
   272
1070
     2
1002
}
  0
LINE
  5
1B004
330
18
100
AcDbEntity
  8
01
100
AcDbLine
 10
2856.757360098235
 20
-349.5285127322095
 30
0.0000000002254849
 11
2896.559742535258
 21
-349.5285127322095
 31
0.0000000002254849
1001
ACAD
1000
DSTYLE
1002
{
1070
     3
1000
φ<>
1070
    40
1040
1.3
1070
    45
1040
0.5
1070
   271
1070
     4
1070
   272
1070
     2
1002
}
  0
LINE
  5
1B008
330
18
100
AcDbEntity
  8
01
100
AcDbLine
 10
2686.659850875002
 20
-357.0285127324985
 30
0.0000000002254849
 11
2686.659850875002
 21
-325.2285127324985
 31
0.0000000002254849
1001
ACAD
1000
DSTYLE
1002
{
1070
    40
1040
1.3
1070
    45
1040
0.5
1070
   341
1005
0
1002
}
  0
LINE
  5
1B009
330
18
100
AcDbEntity
  8
01
100
AcDbLine
 10
2658.959848967654
 20
-382.5285019321307
 30
0.0000000002254849
 11
2658.959848967654
 21
-325.2285127324985
 31
0.0000000002254849
1001
ACAD
1000
DSTYLE
1002
{
1070
    40
1040
1.3
1070
    45
1040
0.5
1070
   341
1005
0
1002
}
  0
LINE
  5
1B00A
330
18
100
AcDbEntity
  8
01
100
AcDbLine
 10
2684.059850875002
 20
-326.5285127324985
 30
0.0000000002254849
 11
2661.559848967654
 21
-326.5285127324985
 31
0.0000000002254849
1001
ACAD
1000
DSTYLE
1002
{
1070
    40
1040
1.3
1070
    45
1040
0.5
1070
   341
1005
0
1002
}
  0
LINE
  5
1B00E
330
18
100
AcDbEntity
  8
01
100
AcDbLine
 10
2726.659850875002
 20
-357.0285127324985
 30
0.0000000002254849
 11
2726.659850875002
 21
-325.2285127324985
 31
0.0000000002254849
1001
ACAD
1000
DSTYLE
1002
{
1070
    40
1040
1.3
1070
    45
1040
0.5
1070
   271
1070
     1
1070
   341
1005
0
1002
}
  0
LINE
  5
1B00F
330
18
100
AcDbEntity
  8
01
100
AcDbLine
 10
2734.659620885005
 20
-382.5285114115675
 30
0.0000000002254849
 11
2734.659620885005
 21
-325.2285127324985
 31
0.0000000002254849
1001
ACAD
1000
DSTYLE
1002
{
1070
    40
1040
1.3
1070
    45
1040
0.5
1070
   271
1070
     1
1070
   341
1005
0
1002
}
  0
LINE
  5
1B010
330
18
100
AcDbEntity
  8
01
100
AcDbLine
 10
2729.259850875002
 20
-326.5285127324985
 30
0.0000000002254849
 11
2732.059620885005
 21
-326.5285127324985
 31
0.0000000002254849
1001
ACAD
1000
DSTYLE
1002
{
1070
    40
1040
1.3
1070
    45
1040
0.5
1070
   271
1070
     1
1070
   341
1005
0
1002
}
  0
LINE
  5
1B014
330
18
100
AcDbEntity
  8
01
  6
BYBLOCK
100
AcDbLine
 10
2519.259846874997
 20
-350.2251806264982
 30
0.0000000002254849
 11
2516.659846874997
 21
-349.5285127324983
 31
0.0000000002254849
  0
LINE
  5
1B015
330
18
100
AcDbEntity
  8
01
  6
BYBLOCK
100
AcDbLine
 10
2516.659846874997
 20
-349.5285127324983
 30
0.0000000002254849
 11
2519.259846874997
 21
-348.8318448384983
 31
0.0000000002254849
  0
LINE
  5
1B016
330
18
100
AcDbEntity
  8
01
  6
BYBLOCK
100
AcDbLine
 10
2516.659846874997
 20
-349.5285127324983
 30
0.0000000002254849
 11
2519.259846874997
 21
-349.5285127324983
 31
0.0000000002254849
  0
LINE
  5
1B017
330
18
100
AcDbEntity
  8
01
  6
BYBLOCK
100
AcDbLine
 10
2554.059846874997
 20
-348.8318448384983
 30
0.0000000002254849
 11
2556.659846874997
 21
-349.5285127324983
 31
0.0000000002254849
  0
LINE
  5
1B018
330
18
100
AcDbEntity
  8
01
  6
BYBLOCK
100
AcDbLine
 10
2556.659846874997
 20
-349.5285127324983
 30
0.0000000002254849
 11
2554.059846874997
 21
-350.2251806264982
 31
0.0000000002254849
  0
LINE
  5
1B019
330
18
100
AcDbEntity
  8
01
  6
BYBLOCK
100
AcDbLine
 10
2556.659846874997
 20
-349.5285127324983
 30
0.0000000002254849
 11
2554.059846874997
 21
-349.5285127324983
 31
0.0000000002254849
  0
TEXT
  5
1B01A
330
18
100
AcDbEntity
  8
01
  6
CONTINUOUS
100
AcDbText
 10
2529.815888541664
 20
-348.6185127324983
 30
0.0000000002254849
 40
4.55
  1
φ40
100
AcDbText
1001
ACAD
1000
DSTYLE
1002
{
1070
     3
1000
φ<>
1070
    40
1040
1.3
1070
    45
1040
0.5
1070
   271
1070
     4
1070
   272
1070
     2
1002
}
  0
LINE
  5
1B01B
330
18
100
AcDbEntity
  8
01
  6
BYBLOCK
100
AcDbLine
 10
2519.259846874997
 20
-350.2251806264982
 30
0.0000000002254849
 11
2516.659846874997
 21
-349.5285127324983
 31
0.0000000002254849
  0
LINE
  5
1B01C
330
18
100
AcDbEntity
  8
01
  6
BYBLOCK
100
AcDbLine
 10
2516.659846874997
 20
-349.5285127324983
 30
0.0000000002254849
 11
2519.259846874997
 21
-348.8318448384983
 31
0.0000000002254849
  0
LINE
  5
1B01D
330
18
100
AcDbEntity
  8
01
  6
BYBLOCK
100
AcDbLine
 10
2516.659846874997
 20
-349.5285127324983
 30
0.0000000002254849
 11
2519.259846874997
 21
-349.5285127324983
 31
0.0000000002254849
  0
LINE
  5
1B01E
330
18
100
AcDbEntity
  8
01
  6
BYBLOCK
100
AcDbLine
 10
2554.059846874997
 20
-348.8318448384983
 30
0.0000000002254849
 11
2556.659846874997
 21
-349.5285127324983
 31
0.0000000002254849
  0
LINE
  5
1B01F
330
18
100
AcDbEntity
  8
01
  6
BYBLOCK
100
AcDbLine
 10
2556.659846874997
 20
-349.5285127324983
 30
0.0000000002254849
 11
2554.059846874997
 21
-350.2251806264982
 31
0.0000000002254849
  0
LINE
  5
1B020
330
18
100
AcDbEntity
  8
01
  6
BYBLOCK
100
AcDbLine
 10
2556.659846874997
 20
-349.5285127324983
 30
0.0000000002254849
 11
2554.059846874997
 21
-349.5285127324983
 31
0.0000000002254849
  0
TEXT
  5
1B021
330
18
100
AcDbEntity
  8
01
  6
CONTINUOUS
100
AcDbText
 10
2529.815888541664
 20
-348.6185127324983
 30
0.0000000002254849
 40
4.55
  1
φ40
100
AcDbText
1001
ACAD
1000
DSTYLE
1002
{
1070
     3
1000
φ<>
1070
    40
1040
1.3
1070
    45
1040
0.5
1070
   271
1070
     4
1070
   272
1070
     2
1002
}
  0
LINE
  5
1B022
330
18
100
AcDbEntity
  8
01
  6
BYBLOCK
100
AcDbLine
 10
2817.259734535256
 20
-303.8036885418105
 30
0.0000000002254849
 11
2814.659734535256
 21
-303.1070206478105
 31
0.0000000002254849
  0
LINE
  5
1B023
330
18
100
AcDbEntity
  8
01
  6
BYBLOCK
100
AcDbLine
 10
2814.659734535256
 20
-303.1070206478105
 30
0.0000000002254849
 11
2817.259734535256
 21
-302.4103527538105
 31
0.0000000002254849
  0
LINE
  5
1B024
330
18
100
AcDbEntity
  8
01
  6
BYBLOCK
100
AcDbLine
 10
2814.659734535256
 20
-303.1070206478105
 30
0.0000000002254849
 11
2817.259734535256
 21
-303.1070206478105
 31
0.0000000002254849
  0
LINE
  5
1B025
330
18
100
AcDbEntity
  8
01
  6
BYBLOCK
100
AcDbLine
 10
2823.059734535256
 20
-302.4103527538105
 30
0.0000000002254849
 11
2825.659734535256
 21
-303.1070206478105
 31
0.0000000002254849
  0
LINE
  5
1B026
330
18
100
AcDbEntity
  8
01
  6
BYBLOCK
100
AcDbLine
 10
2825.659734535256
 20
-303.1070206478105
 30
0.0000000002254849
 11
2823.059734535256
 21
-303.8036885418105
 31
0.0000000002254849
  0
LINE
  5
1B027
330
18
100
AcDbEntity
  8
01
  6
BYBLOCK
100
AcDbLine
 10
2825.659734535256
 20
-303.1070206478105
 30
0.0000000002254849
 11
2823.059734535256
 21
-303.1070206478105
 31
0.0000000002254849
  0
TEXT
  5
1B028
330
18
100
AcDbEntity
  8
01
  6
CONTINUOUS
100
AcDbText
 10
2817.884734535256
 20
-302.1970206478105
 30
0.0000000002254849
 40
4.55
  1
11
100
AcDbText
1001
ACAD
1000
DSTYLE
1002
{
1070
    40
1040
1.3
1070
    45
1040
0.5
1002
}
  0
LINE
  5
1B029
330
18
100
AcDbEntity
  8
01
  6
BYBLOCK
100
AcDbLine
 10
2920.963066641256
 20
-377.1285127324985
 30
0.0000000002254849
 11
2921.659734535256
 21
-374.5285127324985
 31
0.0000000002254849
  0
LINE
  5
1B02A
330
18
100
AcDbEntity
  8
01
  6
BYBLOCK
100
AcDbLine
 10
2921.659734535256
 20
-374.5285127324985
 30
0.0000000002254849
 11
2922.356402429255
 21
-377.1285127324985
 31
0.0000000002254849
  0
LINE
  5
1B02B
330
18
100
AcDbEntity
  8
01
  6
BYBLOCK
100
AcDbLine
 10
2921.659734535256
 20
-374.5285127324985
 30
0.0000000002254849
 11
2921.659734535256
 21
-377.1285127324985
 31
0.0000000002254849
  0
LINE
  5
1B02C
330
18
100
AcDbEntity
  8
01
  6
BYBLOCK
100
AcDbLine
 10
2922.356402429255
 20
-445.9285127324989
 30
0.0000000002254849
 11
2921.659734535256
 21
-448.5285127324989
 31
0.0000000002254849
  0
LINE
  5
1B02D
330
18
100
AcDbEntity
  8
01
  6
BYBLOCK
100
AcDbLine
 10
2921.659734535256
 20
-448.5285127324989
 30
0.0000000002254849
 11
2920.963066641256
 21
-445.9285127324989
 31
0.0000000002254849
  0
LINE
  5
1B02E
330
18
100
AcDbEntity
  8
01
  6
BYBLOCK
100
AcDbLine
 10
2921.659734535256
 20
-448.5285127324989
 30
0.0000000002254849
 11
2921.659734535256
 21
-445.9285127324989
 31
0.0000000002254849
  0
TEXT
  5
1B02F
330
18
100
AcDbEntity
  8
01
  6
CONTINUOUS
100
AcDbText
 10
2920.749734535256
 20
-393.55716864648
 30
0.0000000002254849
 40
4.55
  1
74
 50
90.0
100
AcDbText
1001
ACAD
1000
DSTYLE
1002
{
1070
    40
1040
1.3
1070
    45
1040
0.5
1002
}
  0
LINE
  5
1B030
330
18
100
AcDbEntity
  8
01
  6
BYBLOCK
100
AcDbLine
 10
2892.059734535256
 20
-292.3304852857623
 30
0.0000000002254849
 11
2894.659734535256
 21
-293.0271531797623
 31
0.0000000002254849
  0
LINE
  5
1B031
330
18
100
AcDbEntity
  8
01
  6
BYBLOCK
100
AcDbLine
 10
2894.659734535256
 20
-293.0271531797623
 30
0.0000000002254849
 11
2892.059734535256
 21
-293.7238210737623
 31
0.0000000002254849
  0
LINE
  5
1B032
330
18
100
AcDbEntity
  8
01
  6
BYBLOCK
100
AcDbLine
 10
2894.659734535256
 20
-293.0271531797623
 30
0.0000000002254849
 11
2892.059734535256
 21
-293.0271531797623
 31
0.0000000002254849
  0
LINE
  5
1B033
330
18
100
AcDbEntity
  8
01
  6
BYBLOCK
100
AcDbLine
 10
2828.259734535256
 20
-293.7238210737623
 30
0.0000000002254849
 11
2825.659734535256
 21
-293.0271531797623
 31
0.0000000002254849
  0
LINE
  5
1B034
330
18
100
AcDbEntity
  8
01
  6
BYBLOCK
100
AcDbLine
 10
2825.659734535256
 20
-293.0271531797623
 30
0.0000000002254849
 11
2828.259734535256
 21
-292.3304852857623
 31
0.0000000002254849
  0
LINE
  5
1B035
330
18
100
AcDbEntity
  8
01
  6
BYBLOCK
100
AcDbLine
 10
2825.659734535256
 20
-293.0271531797623
 30
0.0000000002254849
 11
2828.259734535256
 21
-293.0271531797623
 31
0.0000000002254849
  0
TEXT
  5
1B036
330
18
100
AcDbEntity
  8
01
  6
CONTINUOUS
100
AcDbText
 10
2856.351216016737
 20
-292.1171531797623
 30
0.0000000002254849
 40
4.55
  1
69
100
AcDbText
1001
ACAD
1000
DSTYLE
1002
{
1070
    40
1040
1.3
1070
    45
1040
0.5
1002
}
  0
LINE
  5
1B037
330
18
100
AcDbEntity
  8
01
  6
BYBLOCK
100
AcDbLine
 10
2828.259734535256
 20
-303.8036885418105
 30
0.0000000002254849
 11
2825.659734535256
 21
-303.1070206478105
 31
0.0000000002254849
  0
LINE
  5
1B038
330
18
100
AcDbEntity
  8
01
  6
BYBLOCK
100
AcDbLine
 10
2825.659734535256
 20
-303.1070206478105
 30
0.0000000002254849
 11
2828.259734535256
 21
-302.4103527538105
 31
0.0000000002254849
  0
LINE
  5
1B039
330
18
100
AcDbEntity
  8
01
  6
BYBLOCK
100
AcDbLine
 10
2825.659734535256
 20
-303.1070206478105
 30
0.0000000002254849
 11
2828.259734535256
 21
-303.1070206478105
 31
0.0000000002254849
  0
LINE
  5
1B03A
330
18
100
AcDbEntity
  8
01
  6
BYBLOCK
100
AcDbLine
 10
2874.059734535256
 20
-302.4103527538105
 30
0.0000000002254849
 11
2876.659734535256
 21
-303.1070206478105
 31
0.0000000002254849
  0
LINE
  5
1B03B
330
18
100
AcDbEntity
  8
01
  6
BYBLOCK
100
AcDbLine
 10
2876.659734535256
 20
-303.1070206478105
 30
0.0000000002254849
 11
2874.059734535256
 21
-303.8036885418105
 31
0.0000000002254849
  0
LINE
  5
1B03C
330
18
100
AcDbEntity
  8
01
  6
BYBLOCK
100
AcDbLine
 10
2876.659734535256
 20
-303.1070206478105
 30
0.0000000002254849
 11
2874.059734535256
 21
-303.1070206478105
 31
0.0000000002254849
  0
TEXT
  5
1B03D
330
18
100
AcDbEntity
  8
01
  6
CONTINUOUS
100
AcDbText
 10
2848.110602590811
 20
-302.1970206478105
 30
0.0000000002254849
 40
4.55
  1
51
100
AcDbText
1001
ACAD
1000
DSTYLE
1002
{
1070
    40
1040
1.3
1070
    45
1040
0.5
1002
}
  0
LINE
  5
1B03E
330
18
100
AcDbEntity
  8
01
  6
BYBLOCK
100
AcDbLine
 10
2696.759850875
 20
-303.8036885418107
 30
0.0000000002254849
 11
2694.159850875
 21
-303.1070206478107
 31
0.0000000002254849
  0
LINE
  5
1B03F
330
18
100
AcDbEntity
  8
01
  6
BYBLOCK
100
AcDbLine
 10
2694.159850875
 20
-303.1070206478107
 30
0.0000000002254849
 11
2696.759850875
 21
-302.4103527538107
 31
0.0000000002254849
  0
LINE
  5
1B040
330
18
100
AcDbEntity
  8
01
  6
BYBLOCK
100
AcDbLine
 10
2694.159850875
 20
-303.1070206478107
 30
0.0000000002254849
 11
2696.759850875
 21
-303.1070206478107
 31
0.0000000002254849
  0
LINE
  5
1B041
330
18
100
AcDbEntity
  8
01
  6
BYBLOCK
100
AcDbLine
 10
2716.559850875
 20
-302.4103527538107
 30
0.0000000002254849
 11
2719.159850875
 21
-303.1070206478107
 31
0.0000000002254849
  0
LINE
  5
1B042
330
18
100
AcDbEntity
  8
01
  6
BYBLOCK
100
AcDbLine
 10
2719.159850875
 20
-303.1070206478107
 30
0.0000000002254849
 11
2716.559850875
 21
-303.8036885418107
 31
0.0000000002254849
  0
LINE
  5
1B043
330
18
100
AcDbEntity
  8
01
  6
BYBLOCK
100
AcDbLine
 10
2719.159850875
 20
-303.1070206478107
 30
0.0000000002254849
 11
2716.559850875
 21
-303.1070206478107
 31
0.0000000002254849
  0
TEXT
  5
1B044
330
18
100
AcDbEntity
  8
01
  6
CONTINUOUS
100
AcDbText
 10
2702.868184208334
 20
-302.1970206478107
 30
0.0000000002254849
 40
4.55
  1
25
100
AcDbText
1001
ACAD
1000
DSTYLE
1002
{
1070
    40
1040
1.3
1070
    45
1040
0.5
1002
}
  0
LINE
  5
1B045
330
18
100
AcDbEntity
  8
01
  6
BYBLOCK
100
AcDbLine
 10
2790.751253752444
 20
-357.1280675880827
 30
0.0000000003382273
 11
2791.447921646444
 21
-354.5280675880826
 31
0.0000000003382273
  0
LINE
  5
1B046
330
18
100
AcDbEntity
  8
01
  6
BYBLOCK
100
AcDbLine
 10
2791.447921646444
 20
-354.5280675880826
 30
0.0000000003382273
 11
2792.144589540444
 21
-357.1280675880827
 31
0.0000000003382273
  0
LINE
  5
1B047
330
18
100
AcDbEntity
  8
01
  6
BYBLOCK
100
AcDbLine
 10
2791.447921646444
 20
-354.5280675880826
 30
0.0000000003382273
 11
2791.447921646444
 21
-357.1280675880827
 31
0.0000000003382273
  0
LINE
  5
1B048
330
18
100
AcDbEntity
  8
01
  6
BYBLOCK
100
AcDbLine
 10
2792.144589540444
 20
-465.9280675880826
 30
0.0000000003382273
 11
2791.447921646444
 21
-468.5280675880826
 31
0.0000000003382273
  0
LINE
  5
1B049
330
18
100
AcDbEntity
  8
01
  6
BYBLOCK
100
AcDbLine
 10
2791.447921646444
 20
-468.5280675880826
 30
0.0000000003382273
 11
2790.751253752444
 21
-465.9280675880826
 31
0.0000000003382273
  0
LINE
  5
1B04A
330
18
100
AcDbEntity
  8
01
  6
BYBLOCK
100
AcDbLine
 10
2791.447921646444
 20
-468.5280675880826
 30
0.0000000003382273
 11
2791.447921646444
 21
-465.9280675880826
 31
0.0000000003382273
  0
TEXT
  5
1B04B
330
18
100
AcDbEntity
  8
01
  6
CONTINUOUS
100
AcDbText
 10
2790.537921646444
 20
-386.9450452401611
 30
0.0000000003382273
 40
4.55
  1
114
 50
90.0
100
AcDbText
1001
ACAD
1000
DSTYLE
1002
{
1070
    40
1040
1.3
1070
    45
1040
0.5
1002
}
  0
LINE
  5
1B04C
330
18
100
AcDbEntity
  8
01
  6
BYBLOCK
100
AcDbLine
 10
2800.115587918669
 20
-349.2285127324991
 30
0.0000000003382273
 11
2800.812255812669
 21
-346.6285127324991
 31
0.0000000003382273
  0
LINE
  5
1B04D
330
18
100
AcDbEntity
  8
01
  6
BYBLOCK
100
AcDbLine
 10
2800.812255812669
 20
-346.6285127324991
 30
0.0000000003382273
 11
2801.508923706669
 21
-349.2285127324991
 31
0.0000000003382273
  0
LINE
  5
1B04E
330
18
100
AcDbEntity
  8
01
  6
BYBLOCK
100
AcDbLine
 10
2800.812255812669
 20
-346.6285127324991
 30
0.0000000003382273
 11
2800.812255812669
 21
-349.2285127324991
 31
0.0000000003382273
  0
LINE
  5
1B04F
330
18
100
AcDbEntity
  8
01
  6
BYBLOCK
100
AcDbLine
 10
2801.508923706669
 20
-473.8280675880825
 30
0.0000000003382273
 11
2800.812255812669
 21
-476.4280675880825
 31
0.0000000003382273
  0
LINE
  5
1B050
330
18
100
AcDbEntity
  8
01
  6
BYBLOCK
100
AcDbLine
 10
2800.812255812669
 20
-476.4280675880825
 30
0.0000000003382273
 11
2800.115587918669
 21
-473.8280675880825
 31
0.0000000003382273
  0
LINE
  5
1B051
330
18
100
AcDbEntity
  8
01
  6
BYBLOCK
100
AcDbLine
 10
2800.812255812669
 20
-476.4280675880825
 30
0.0000000003382273
 11
2800.812255812669
 21
-473.8280675880825
 31
0.0000000003382273
  0
TEXT
  5
1B052
330
18
100
AcDbEntity
  8
01
  6
CONTINUOUS
100
AcDbText
 10
2799.902255812669
 20
-387.7296092429688
 30
0.0000000003382273
 40
4.55
  1
130
 50
90.0
100
AcDbText
1001
ACAD
1000
DSTYLE
1002
{
1070
    40
1040
1.3
1070
    45
1040
0.5
1002
}
  0
LINE
  5
1B053
330
18
100
AcDbEntity
  8
01
  6
BYBLOCK
100
AcDbLine
 10
2840.963066641261
 20
-406.6285165768492
 30
0.0000000002254849
 11
2841.659734535261
 21
-404.0285165768491
 31
0.0000000002254849
  0
LINE
  5
1B054
330
18
100
AcDbEntity
  8
01
  6
BYBLOCK
100
AcDbLine
 10
2841.659734535261
 20
-404.0285165768491
 30
0.0000000002254849
 11
2842.356402429261
 21
-406.6285165768492
 31
0.0000000002254849
  0
LINE
  5
1B055
330
18
100
AcDbEntity
  8
01
  6
BYBLOCK
100
AcDbLine
 10
2841.659734535261
 20
-404.0285165768491
 30
0.0000000002254849
 11
2841.659734535261
 21
-406.6285165768492
 31
0.0000000002254849
  0
LINE
  5
1B056
330
18
100
AcDbEntity
  8
01
  6
BYBLOCK
100
AcDbLine
 10
2842.356402429261
 20
-458.4285127325055
 30
0.0000000002254849
 11
2841.659734535261
 21
-461.0285127325055
 31
0.0000000002254849
  0
LINE
  5
1B057
330
18
100
AcDbEntity
  8
01
  6
BYBLOCK
100
AcDbLine
 10
2841.659734535261
 20
-461.0285127325055
 30
0.0000000002254849
 11
2840.963066641261
 21
-458.4285127325055
 31
0.0000000002254849
  0
LINE
  5
1B058
330
18
100
AcDbEntity
  8
01
  6
BYBLOCK
100
AcDbLine
 10
2841.659734535261
 20
-461.0285127325055
 30
0.0000000002254849
 11
2841.659734535261
 21
-458.4285127325055
 31
0.0000000002254849
  0
TEXT
  5
1B059
330
18
100
AcDbEntity
  8
01
  6
CONTINUOUS
100
AcDbText
 10
2840.749734535261
 20
-441.0123906391004
 30
0.0000000002254849
 40
4.55
  1
φ57
 50
90.0
100
AcDbText
1001
ACAD
1000
DSTYLE
1002
{
1070
     3
1000
φ<>
1070
    40
1040
1.3
1070
    45
1040
0.5
1002
}
  0
LINE
  5
1B05A
330
18
100
AcDbEntity
  8
01
  6
BYBLOCK
100
AcDbLine
 10
2856.757360098235
 20
-350.2251806262095
 30
0.0000000002254849
 11
2854.157360098236
 21
-349.5285127322095
 31
0.0000000002254849
  0
LINE
  5
1B05B
330
18
100
AcDbEntity
  8
01
  6
BYBLOCK
100
AcDbLine
 10
2854.157360098236
 20
-349.5285127322095
 30
0.0000000002254849
 11
2856.757360098235
 21
-348.8318448382095
 31
0.0000000002254849
  0
LINE
  5
1B05C
330
18
100
AcDbEntity
  8
01
  6
BYBLOCK
100
AcDbLine
 10
2854.157360098236
 20
-349.5285127322095
 30
0.0000000002254849
 11
2856.757360098235
 21
-349.5285127322095
 31
0.0000000002254849
  0
LINE
  5
1B05D
330
18
100
AcDbEntity
  8
01
  6
BYBLOCK
100
AcDbLine
 10
2896.559742535258
 20
-348.8318448382095
 30
0.0000000002254849
 11
2899.159742535258
 21
-349.5285127322095
 31
0.0000000002254849
  0
LINE
  5
1B05E
330
18
100
AcDbEntity
  8
01
  6
BYBLOCK
100
AcDbLine
 10
2899.159742535258
 20
-349.5285127322095
 30
0.0000000002254849
 11
2896.559742535258
 21
-350.2251806262095
 31
0.0000000002254849
  0
LINE
  5
1B05F
330
18
100
AcDbEntity
  8
01
  6
BYBLOCK
100
AcDbLine
 10
2899.159742535258
 20
-349.5285127322095
 30
0.0000000002254849
 11
2896.559742535258
 21
-349.5285127322095
 31
0.0000000002254849
  0
TEXT
  5
1B060
330
18
100
AcDbEntity
  8
01
  6
CONTINUOUS
100
AcDbText
 10
2869.530217983414
 20
-348.6185127322095
 30
0.0000000002254849
 40
4.55
  1
φ45
100
AcDbText
1001
ACAD
1000
DSTYLE
1002
{
1070
     3
1000
φ<>
1070
    40
1040
1.3
1070
    45
1040
0.5
1070
   271
1070
     4
1070
   272
1070
     2
1002
}
  0
LINE
  5
1B061
330
18
100
AcDbEntity
  8
01
  6
BYBLOCK
100
AcDbLine
 10
2684.059850875002
 20
-325.8318448384985
 30
0.0000000002254849
 11
2686.659850875002
 21
-326.5285127324985
 31
0.0000000002254849
  0
LINE
  5
1B062
330
18
100
AcDbEntity
  8
01
  6
BYBLOCK
100
AcDbLine
 10
2686.659850875002
 20
-326.5285127324985
 30
0.0000000002254849
 11
2684.059850875002
 21
-327.2251806264985
 31
0.0000000002254849
  0
LINE
  5
1B063
330
18
100
AcDbEntity
  8
01
  6
BYBLOCK
100
AcDbLine
 10
2686.659850875002
 20
-326.5285127324985
 30
0.0000000002254849
 11
2684.059850875002
 21
-326.5285127324985
 31
0.0000000002254849
  0
LINE
  5
1B064
330
18
100
AcDbEntity
  8
01
  6
BYBLOCK
100
AcDbLine
 10
2661.559848967654
 20
-327.2251806264985
 30
0.0000000002254849
 11
2658.959848967654
 21
-326.5285127324985
 31
0.0000000002254849
  0
LINE
  5
1B065
330
18
100
AcDbEntity
  8
01
  6
BYBLOCK
100
AcDbLine
 10
2658.959848967654
 20
-326.5285127324985
 30
0.0000000002254849
 11
2661.559848967654
 21
-325.8318448384985
 31
0.0000000002254849
  0
LINE
  5
1B066
330
18
100
AcDbEntity
  8
01
  6
BYBLOCK
100
AcDbLine
 10
2658.959848967654
 20
-326.5285127324985
 30
0.0000000002254849
 11
2661.559848967654
 21
-326.5285127324985
 31
0.0000000002254849
  0
TEXT
  5
1B067
330
18
100
AcDbEntity
  8
01
  6
CONTINUOUS
100
AcDbText
 10
2665.984849921328
 20
-325.6185127324985
 30
0.0000000002254849
 40
4.55
  1
27.5
100
AcDbText
1001
ACAD
1000
DSTYLE
1002
{
1070
    40
1040
1.3
1070
    45
1040
0.5
1070
   341
1005
0
1002
}
  0
LINE
  5
1B068
330
18
100
AcDbEntity
  8
01
  6
BYBLOCK
100
AcDbLine
 10
2729.259850875002
 20
-327.2251806264985
 30
0.0000000002254849
 11
2726.659850875002
 21
-326.5285127324985
 31
0.0000000002254849
  0
LINE
  5
1B069
330
18
100
AcDbEntity
  8
01
  6
BYBLOCK
100
AcDbLine
 10
2726.659850875002
 20
-326.5285127324985
 30
0.0000000002254849
 11
2729.259850875002
 21
-325.8318448384985
 31
0.0000000002254849
  0
LINE
  5
1B06A
330
18
100
AcDbEntity
  8
01
  6
BYBLOCK
100
AcDbLine
 10
2726.659850875002
 20
-326.5285127324985
 30
0.0000000002254849
 11
2729.259850875002
 21
-326.5285127324985
 31
0.0000000002254849
  0
LINE
  5
1B06B
330
18
100
AcDbEntity
  8
01
  6
BYBLOCK
100
AcDbLine
 10
2732.059620885005
 20
-325.8318448384985
 30
0.0000000002254849
 11
2734.659620885005
 21
-326.5285127324985
 31
0.0000000002254849
  0
LINE
  5
1B06C
330
18
100
AcDbEntity
  8
01
  6
BYBLOCK
100
AcDbLine
 10
2734.659620885005
 20
-326.5285127324985
 30
0.0000000002254849
 11
2732.059620885005
 21
-327.2251806264985
 31
0.0000000002254849
  0
LINE
  5
1B06D
330
18
100
AcDbEntity
  8
01
  6
BYBLOCK
100
AcDbLine
 10
2734.659620885005
 20
-326.5285127324985
 30
0.0000000002254849
 11
2732.059620885005
 21
-326.5285127324985
 31
0.0000000002254849
  0
TEXT
  5
1B06E
330
18
100
AcDbEntity
  8
01
  6
CONTINUOUS
100
AcDbText
 10
2729.143069213337
 20
-325.6185127324985
 30
0.0000000002254849
 40
4.55
  1
8
100
AcDbText
1001
ACAD
1000
DSTYLE
1002
{
1070
    40
1040
1.3
1070
    45
1040
0.5
1070
   271
1070
     1
1070
   341
1005
0
1002
}
  0
LINE
  5
1B06F
330
18
100
AcDbEntity
  8
1DIM
100
AcDbLine
 10
2506.659854875
 20
-432.5285127324983
 30
0.0000000002254849
 11
2491.666002472712
 21
-432.5285127324983
 31
0.0000000002254849
1001
ACAD
1000
DSTYLE
1002
{
1070
    40
1040
1.3
1070
    45
1040
0.5
1070
   341
1005
0
1002
}
  0
LINE
  5
1B070
330
18
100
AcDbEntity
  8
1DIM
100
AcDbLine
 10
2514.159846875001
 20
-377.0285127324983
 30
0.0000000002254849
 11
2491.666002472712
 21
-377.0285127324983
 31
0.0000000002254849
1001
ACAD
1000
DSTYLE
1002
{
1070
    40
1040
1.3
1070
    45
1040
0.5
1070
   341
1005
0
1002
}
  0
LINE
  5
1B071
330
18
100
AcDbEntity
  8
1DIM
100
AcDbLine
 10
2492.966002472712
 20
-429.9285127324982
 30
0.0000000002254849
 11
2492.966002472712
 21
-379.6285127324983
 31
0.0000000002254849
1001
ACAD
1000
DSTYLE
1002
{
1070
    40
1040
1.3
1070
    45
1040
0.5
1070
   341
1005
0
1002
}
  0
LINE
  5
1B075
330
18
100
AcDbEntity
  8
1DIM
100
AcDbLine
 10
2506.659854875
 20
-432.5285127324983
 30
0.0000000002254849
 11
2491.666002472712
 21
-432.5285127324983
 31
0.0000000002254849
1001
ACAD
1000
DSTYLE
1002
{
1070
    40
1040
1.3
1070
    45
1040
0.5
1070
   341
1005
0
1002
}
  0
LINE
  5
1B076
330
18
100
AcDbEntity
  8
1DIM
100
AcDbLine
 10
2514.159846875001
 20
-377.0285127324983
 30
0.0000000002254849
 11
2491.666002472712
 21
-377.0285127324983
 31
0.0000000002254849
1001
ACAD
1000
DSTYLE
1002
{
1070
    40
1040
1.3
1070
    45
1040
0.5
1070
   341
1005
0
1002
}
  0
LINE
  5
1B077
330
18
100
AcDbEntity
  8
1DIM
100
AcDbLine
 10
2492.966002472712
 20
-429.9285127324982
 30
0.0000000002254849
 11
2492.966002472712
 21
-379.6285127324983
 31
0.0000000002254849
1001
ACAD
1000
DSTYLE
1002
{
1070
    40
1040
1.3
1070
    45
1040
0.5
1070
   341
1005
0
1002
}
  0
LINE
  5
1B07B
330
18
100
AcDbEntity
  8
1DIM
100
AcDbLine
 10
2893.060618717315
 20
-153.0285127335271
 30
0.0000000002254849
 11
2913.621009477029
 21
-153.0285127335271
 31
0.0000000002254849
1001
ACAD
1000
DSTYLE
1002
{
1070
    45
1040
0.5
1070
    40
1040
1.3
1002
}
  0
LINE
  5
1B07C
330
18
100
AcDbEntity
  8
1DIM
100
AcDbLine
 10
2894.660618717316
 20
-171.8285127335271
 30
0.0000000002254849
 11
2913.621009477029
 21
-171.8285127335271
 31
0.0000000002254849
1001
ACAD
1000
DSTYLE
1002
{
1070
    45
1040
0.5
1070
    40
1040
1.3
1002
}
  0
LINE
  5
1B07D
330
18
100
AcDbEntity
  8
1DIM
100
AcDbLine
 10
2912.321009477028
 20
-155.6285127335271
 30
0.0000000002254849
 11
2912.321009477028
 21
-169.2285127335271
 31
0.0000000002254849
1001
ACAD
1000
DSTYLE
1002
{
1070
    45
1040
0.5
1070
    40
1040
1.3
1002
}
  0
LINE
  5
1B081
330
18
100
AcDbEntity
  8
1DIM
100
AcDbLine
 10
2974.436512793704
 20
-446.4970457396378
 30
0.0000000002254849
 11
3032.959734535256
 21
-446.4970457396378
 31
0.0000000002254849
1001
ACAD
1000
DSTYLE
1002
{
1070
    40
1040
1.3
1070
    45
1040
0.5
1002
}
  0
LINE
  5
1B082
330
18
100
AcDbEntity
  8
1DIM
100
AcDbLine
 10
2974.436512793704
 20
-418.5599797253592
 30
0.0000000002254849
 11
3032.959734535256
 21
-418.5599797253592
 31
0.0000000002254849
1001
ACAD
1000
DSTYLE
1002
{
1070
    40
1040
1.3
1070
    45
1040
0.5
1002
}
  0
LINE
  5
1B083
330
18
100
AcDbEntity
  8
1DIM
100
AcDbLine
 10
3031.659734535256
 20
-443.8970457396377
 30
0.0000000002254849
 11
3031.659734535256
 21
-421.1599797253592
 31
0.0000000002254849
1001
ACAD
1000
DSTYLE
1002
{
1070
    40
1040
1.3
1070
    45
1040
0.5
1002
}
  0
LINE
  5
1B087
330
18
100
AcDbEntity
  8
1DIM
100
AcDbLine
 10
2741.161875534096
 20
-444.0262934246052
 30
0.0000000001127424
 11
2741.161874580422
 21
-444.0196787395466
 31
0.0000000001127424
  0
LINE
  5
1B088
330
18
100
AcDbEntity
  8
1DIM
100
AcDbLine
 10
2672.157826215905
 20
-444.0262934246052
 30
0.0000000001127424
 11
2672.157827169579
 21
-444.0196787395466
 31
0.0000000001127424
  0
SOLID
  5
1B089
330
18
100
AcDbEntity
  8
1DIM
100
AcDbTrace
 10
2874.029467550259
 20
-208.5792697874425
 30
0.0000000001127424
 11
2876.400219435573
 21
-207.4271789594022
 31
0.0000000001127424
 12
2874.531267380181
 22
-209.2858871108938
 32
0.0000000001127424
 13
2874.531267380181
 23
-209.2858871108938
 33
0.0000000001127424
1001
ACAD
1000
DSTYLE
1002
{
1070
    40
1040
1.3
1070
    45
1040
0.5
1002
}
  0
LINE
  5
1B08A
330
18
100
AcDbEntity
  8
1DIM
100
AcDbLine
 10
2874.28036746522
 20
-208.9325784491681
 30
0.0000000001127424
 11
2846.812779288531
 21
-228.4385127335273
 31
0.0000000001127424
1001
ACAD
1000
DSTYLE
1002
{
1070
    40
1040
1.3
1070
    45
1040
0.5
1002
}
  0
LINE
  5
1B08B
330
18
100
AcDbEntity
  8
1DIM
100
AcDbLine
 10
2876.659618195513
 20
-204.0285127335274
 30
0.0000000002254849
 11
2876.659618195513
 21
-268.8285127335274
 31
0.0000000002254849
1001
ACAD
1000
DSTYLE
1002
{
1070
    40
1040
1.3
1070
    45
1040
0.5
1002
}
  0
LINE
  5
1B08C
330
18
100
AcDbEntity
  8
1DIM
100
AcDbLine
 10
3003.156279087292
 20
-233.528512733526
 30
0.0000000002254849
 11
3003.156279087292
 21
-268.8285127335274
 31
0.0000000002254849
1001
ACAD
1000
DSTYLE
1002
{
1070
    40
1040
1.3
1070
    45
1040
0.5
1002
}
  0
LINE
  5
1B08D
330
18
100
AcDbEntity
  8
1DIM
100
AcDbLine
 10
2879.259618195513
 20
-267.5285127335274
 30
0.0000000002254849
 11
3000.556279087292
 21
-267.5285127335274
 31
0.0000000002254849
1001
ACAD
1000
DSTYLE
1002
{
1070
    40
1040
1.3
1070
    45
1040
0.5
1002
}
  0
LINE
  5
1B091
330
18
100
AcDbEntity
  8
1DIM
100
AcDbLine
 10
2862.659618195513
 20
-191.5285127335233
 30
0.0000000002254849
 11
2862.659618195513
 21
-278.8285127335274
 31
0.0000000002254849
1001
ACAD
1000
DSTYLE
1002
{
1070
    40
1040
1.3
1070
    45
1040
0.5
1002
}
  0
LINE
  5
1B092
330
18
100
AcDbEntity
  8
1DIM
100
AcDbLine
 10
3003.156279087292
 20
-233.528512733526
 30
0.0000000002254849
 11
3003.156279087292
 21
-278.8285127335274
 31
0.0000000002254849
1001
ACAD
1000
DSTYLE
1002
{
1070
    40
1040
1.3
1070
    45
1040
0.5
1002
}
  0
LINE
  5
1B093
330
18
100
AcDbEntity
  8
1DIM
100
AcDbLine
 10
2865.259618195513
 20
-277.5285127335274
 30
0.0000000002254849
 11
3000.556279087292
 21
-277.5285127335274
 31
0.0000000002254849
1001
ACAD
1000
DSTYLE
1002
{
1070
    40
1040
1.3
1070
    45
1040
0.5
1002
}
  0
LINE
  5
1B097
330
18
100
AcDbEntity
  8
1DIM
100
AcDbLine
 10
2974.43639645396
 20
-219.5599797263867
 30
0.0000000002254849
 11
3024.456279087292
 21
-219.5599797263867
 31
0.0000000002254849
1001
ACAD
1000
DSTYLE
1002
{
1070
    40
1040
1.3
1070
    45
1040
0.5
1002
}
  0
LINE
  5
1B098
330
18
100
AcDbEntity
  8
1DIM
100
AcDbLine
 10
2979.414766192861
 20
-182.5285127335274
 30
0.0000000002254849
 11
3024.456279087292
 21
-182.5285127335274
 31
0.0000000002254849
1001
ACAD
1000
DSTYLE
1002
{
1070
    40
1040
1.3
1070
    45
1040
0.5
1002
}
  0
LINE
  5
1B099
330
18
100
AcDbEntity
  8
1DIM
100
AcDbLine
 10
3023.156279087292
 20
-216.9599797263867
 30
0.0000000002254849
 11
3023.156279087292
 21
-185.1285127335274
 31
0.0000000002254849
1001
ACAD
1000
DSTYLE
1002
{
1070
    40
1040
1.3
1070
    45
1040
0.5
1002
}
  0
LINE
  5
1B09D
330
18
100
AcDbEntity
  8
1DIM
100
AcDbLine
 10
2974.43639645396
 20
-247.497045740665
 30
0.0000000002254849
 11
3034.456279087292
 21
-247.4970457406651
 31
0.0000000002254849
1001
ACAD
1000
DSTYLE
1002
{
1070
    40
1040
1.3
1070
    45
1040
0.5
1002
}
  0
LINE
  5
1B09E
330
18
100
AcDbEntity
  8
1DIM
100
AcDbLine
 10
2979.414766192861
 20
-182.5285127335274
 30
0.0000000002254849
 11
3034.456279087292
 21
-182.5285127335274
 31
0.0000000002254849
1001
ACAD
1000
DSTYLE
1002
{
1070
    40
1040
1.3
1070
    45
1040
0.5
1002
}
  0
LINE
  5
1B09F
330
18
100
AcDbEntity
  8
1DIM
100
AcDbLine
 10
3033.156279087292
 20
-244.8970457406651
 30
0.0000000002254849
 11
3033.156279087292
 21
-185.1285127335274
 31
0.0000000002254849
1001
ACAD
1000
DSTYLE
1002
{
1070
    40
1040
1.3
1070
    45
1040
0.5
1002
}
  0
SOLID
  5
1B0A3
330
18
100
AcDbEntity
  8
1DIM
100
AcDbTrace
 10
2999.433765370153
 20
-236.8631957118529
 30
0.0000000001127424
 11
2998.176345004851
 21
-234.5465878894754
 31
0.0000000001127424
 12
3000.117128968476
 22
-236.3301616570318
 32
0.0000000001127424
 13
3000.117128968476
 23
-236.3301616570318
 33
0.0000000001127424
1001
ACAD
1000
DSTYLE
1002
{
1070
    40
1040
1.3
1070
    45
1040
0.5
1002
}
  0
LINE
  5
1B0A4
330
18
100
AcDbEntity
  8
1DIM
100
AcDbLine
 10
2999.775447169315
 20
-236.5966786844424
 30
0.0000000001127424
 11
3025.024299533334
 21
-268.9663677294965
 31
0.0000000001127424
1001
ACAD
1000
DSTYLE
1002
{
1070
    40
1040
1.3
1070
    45
1040
0.5
1002
}
  0
LINE
  5
1B0A5
330
18
100
AcDbEntity
  8
0
  6
BYBLOCK
100
AcDbLine
 10
2493.662670366712
 20
-429.9285127324982
 30
0.0000000002254849
 11
2492.966002472712
 21
-432.5285127324983
 31
0.0000000002254849
  0
LINE
  5
1B0A6
330
18
100
AcDbEntity
  8
0
  6
BYBLOCK
100
AcDbLine
 10
2492.966002472712
 20
-432.5285127324983
 30
0.0000000002254849
 11
2492.269334578712
 21
-429.9285127324982
 31
0.0000000002254849
  0
LINE
  5
1B0A7
330
18
100
AcDbEntity
  8
0
  6
BYBLOCK
100
AcDbLine
 10
2492.966002472712
 20
-432.5285127324983
 30
0.0000000002254849
 11
2492.966002472712
 21
-429.9285127324982
 31
0.0000000002254849
  0
LINE
  5
1B0A8
330
18
100
AcDbEntity
  8
0
  6
BYBLOCK
100
AcDbLine
 10
2492.269334578712
 20
-379.6285127324983
 30
0.0000000002254849
 11
2492.966002472712
 21
-377.0285127324983
 31
0.0000000002254849
  0
LINE
  5
1B0A9
330
18
100
AcDbEntity
  8
0
  6
BYBLOCK
100
AcDbLine
 10
2492.966002472712
 20
-377.0285127324983
 30
0.0000000002254849
 11
2493.662670366712
 21
-379.6285127324983
 31
0.0000000002254849
  0
LINE
  5
1B0AA
330
18
100
AcDbEntity
  8
0
  6
BYBLOCK
100
AcDbLine
 10
2492.966002472712
 20
-377.0285127324983
 30
0.0000000002254849
 11
2492.966002472712
 21
-379.6285127324983
 31
0.0000000002254849
  0
TEXT
  5
1B0AB
330
18
100
AcDbEntity
  8
1DIM
  6
CONTINUOUS
100
AcDbText
 10
2492.056002472711
 20
-411.6351099547201
 30
0.0000000002254849
 40
4.55
  1
55.5
 50
90.0
100
AcDbText
1001
ACAD
1000
DSTYLE
1002
{
1070
    40
1040
1.3
1070
    45
1040
0.5
1070
   341
1005
0
1002
}
  0
LINE
  5
1B0AC
330
18
100
AcDbEntity
  8
0
  6
BYBLOCK
100
AcDbLine
 10
2493.662670366712
 20
-429.9285127324982
 30
0.0000000002254849
 11
2492.966002472712
 21
-432.5285127324983
 31
0.0000000002254849
  0
LINE
  5
1B0AD
330
18
100
AcDbEntity
  8
0
  6
BYBLOCK
100
AcDbLine
 10
2492.966002472712
 20
-432.5285127324983
 30
0.0000000002254849
 11
2492.269334578712
 21
-429.9285127324982
 31
0.0000000002254849
  0
LINE
  5
1B0AE
330
18
100
AcDbEntity
  8
0
  6
BYBLOCK
100
AcDbLine
 10
2492.966002472712
 20
-432.5285127324983
 30
0.0000000002254849
 11
2492.966002472712
 21
-429.9285127324982
 31
0.0000000002254849
  0
LINE
  5
1B0AF
330
18
100
AcDbEntity
  8
0
  6
BYBLOCK
100
AcDbLine
 10
2492.269334578712
 20
-379.6285127324983
 30
0.0000000002254849
 11
2492.966002472712
 21
-377.0285127324983
 31
0.0000000002254849
  0
LINE
  5
1B0B0
330
18
100
AcDbEntity
  8
0
  6
BYBLOCK
100
AcDbLine
 10
2492.966002472712
 20
-377.0285127324983
 30
0.0000000002254849
 11
2493.662670366712
 21
-379.6285127324983
 31
0.0000000002254849
  0
LINE
  5
1B0B1
330
18
100
AcDbEntity
  8
0
  6
BYBLOCK
100
AcDbLine
 10
2492.966002472712
 20
-377.0285127324983
 30
0.0000000002254849
 11
2492.966002472712
 21
-379.6285127324983
 31
0.0000000002254849
  0
TEXT
  5
1B0B2
330
18
100
AcDbEntity
  8
1DIM
  6
CONTINUOUS
100
AcDbText
 10
2492.056002472711
 20
-411.6351099547201
 30
0.0000000002254849
 40
4.55
  1
55.5
 50
90.0
100
AcDbText
1001
ACAD
1000
DSTYLE
1002
{
1070
    40
1040
1.3
1070
    45
1040
0.5
1070
   341
1005
0
1002
}
  0
LINE
  5
1B0B3
330
18
100
AcDbEntity
  8
0
  6
BYBLOCK
100
AcDbLine
 10
2911.624341583029
 20
-155.6285127335271
 30
0.0000000002254849
 11
2912.321009477028
 21
-153.0285127335271
 31
0.0000000002254849
  0
LINE
  5
1B0B4
330
18
100
AcDbEntity
  8
0
  6
BYBLOCK
100
AcDbLine
 10
2912.321009477028
 20
-153.0285127335271
 30
0.0000000002254849
 11
2913.017677371028
 21
-155.6285127335271
 31
0.0000000002254849
  0
LINE
  5
1B0B5
330
18
100
AcDbEntity
  8
0
  6
BYBLOCK
100
AcDbLine
 10
2912.321009477028
 20
-153.0285127335271
 30
0.0000000002254849
 11
2912.321009477028
 21
-155.6285127335271
 31
0.0000000002254849
  0
LINE
  5
1B0B6
330
18
100
AcDbEntity
  8
0
  6
BYBLOCK
100
AcDbLine
 10
2913.017677371028
 20
-169.2285127335271
 30
0.0000000002254849
 11
2912.321009477028
 21
-171.8285127335271
 31
0.0000000002254849
  0
LINE
  5
1B0B7
330
18
100
AcDbEntity
  8
0
  6
BYBLOCK
100
AcDbLine
 10
2912.321009477028
 20
-171.8285127335271
 30
0.0000000002254849
 11
2911.624341583029
 21
-169.2285127335271
 31
0.0000000002254849
  0
LINE
  5
1B0B8
330
18
100
AcDbEntity
  8
0
  6
BYBLOCK
100
AcDbLine
 10
2912.321009477028
 20
-171.8285127335271
 30
0.0000000002254849
 11
2912.321009477028
 21
-169.2285127335271
 31
0.0000000002254849
  0
TEXT
  5
1B0B9
330
18
100
AcDbEntity
  8
1DIM
  6
CONTINUOUS
100
AcDbText
 10
2911.411009477029
 20
-165.4628993076017
 30
0.0000000002254849
 40
4.55
  1
19
 50
90.0
100
AcDbText
1001
ACAD
1000
DSTYLE
1002
{
1070
    45
1040
0.5
1070
    40
1040
1.3
1002
}
  0
LINE
  5
1B0BA
330
18
100
AcDbEntity
  8
0
  6
BYBLOCK
100
AcDbLine
 10
3032.356402429255
 20
-443.8970457396377
 30
0.0000000002254849
 11
3031.659734535256
 21
-446.4970457396378
 31
0.0000000002254849
  0
LINE
  5
1B0BB
330
18
100
AcDbEntity
  8
0
  6
BYBLOCK
100
AcDbLine
 10
3031.659734535256
 20
-446.4970457396378
 30
0.0000000002254849
 11
3030.963066641256
 21
-443.8970457396377
 31
0.0000000002254849
  0
LINE
  5
1B0BC
330
18
100
AcDbEntity
  8
0
  6
BYBLOCK
100
AcDbLine
 10
3031.659734535256
 20
-446.4970457396378
 30
0.0000000002254849
 11
3031.659734535256
 21
-443.8970457396377
 31
0.0000000002254849
  0
LINE
  5
1B0BD
330
18
100
AcDbEntity
  8
0
  6
BYBLOCK
100
AcDbLine
 10
3030.963066641256
 20
-421.1599797253592
 30
0.0000000002254849
 11
3031.659734535256
 21
-418.5599797253592
 31
0.0000000002254849
  0
LINE
  5
1B0BE
330
18
100
AcDbEntity
  8
0
  6
BYBLOCK
100
AcDbLine
 10
3031.659734535256
 20
-418.5599797253592
 30
0.0000000002254849
 11
3032.356402429255
 21
-421.1599797253592
 31
0.0000000002254849
  0
LINE
  5
1B0BF
330
18
100
AcDbEntity
  8
0
  6
BYBLOCK
100
AcDbLine
 10
3031.659734535256
 20
-418.5599797253592
 30
0.0000000002254849
 11
3031.659734535256
 21
-421.1599797253592
 31
0.0000000002254849
  0
TEXT
  5
1B0C0
330
18
100
AcDbEntity
  8
1DIM
  6
CONTINUOUS
100
AcDbText
 10
3030.749734535256
 20
-436.3201793991643
 30
0.0000000002254849
 40
4.55
  1
28
 50
90.0
100
AcDbText
1001
ACAD
1000
DSTYLE
1002
{
1070
    40
1040
1.3
1070
    45
1040
0.5
1002
}
  0
LINE
  5
1B0C1
330
18
100
AcDbEntity
  8
0
  6
BYBLOCK
100
AcDbLine
 10
2879.259618195513
 20
-268.2251806275273
 30
0.0000000002254849
 11
2876.659618195513
 21
-267.5285127335274
 31
0.0000000002254849
  0
LINE
  5
1B0C2
330
18
100
AcDbEntity
  8
0
  6
BYBLOCK
100
AcDbLine
 10
2876.659618195513
 20
-267.5285127335274
 30
0.0000000002254849
 11
2879.259618195513
 21
-266.8318448395274
 31
0.0000000002254849
  0
LINE
  5
1B0C3
330
18
100
AcDbEntity
  8
0
  6
BYBLOCK
100
AcDbLine
 10
2876.659618195513
 20
-267.5285127335274
 30
0.0000000002254849
 11
2879.259618195513
 21
-267.5285127335274
 31
0.0000000002254849
  0
LINE
  5
1B0C4
330
18
100
AcDbEntity
  8
0
  6
BYBLOCK
100
AcDbLine
 10
3000.556279087292
 20
-266.8318448395274
 30
0.0000000002254849
 11
3003.156279087292
 21
-267.5285127335274
 31
0.0000000002254849
  0
LINE
  5
1B0C5
330
18
100
AcDbEntity
  8
0
  6
BYBLOCK
100
AcDbLine
 10
3003.156279087292
 20
-267.5285127335274
 30
0.0000000002254849
 11
3000.556279087292
 21
-268.2251806275273
 31
0.0000000002254849
  0
LINE
  5
1B0C6
330
18
100
AcDbEntity
  8
0
  6
BYBLOCK
100
AcDbLine
 10
3003.156279087292
 20
-267.5285127335274
 30
0.0000000002254849
 11
3000.556279087292
 21
-267.5285127335274
 31
0.0000000002254849
  0
TEXT
  5
1B0C7
330
18
100
AcDbEntity
  8
1DIM
  6
CONTINUOUS
100
AcDbText
 10
2931.550483363625
 20
-266.6185127335274
 30
0.0000000002254849
 40
4.55
  1
126.5
100
AcDbText
1001
ACAD
1000
DSTYLE
1002
{
1070
    40
1040
1.3
1070
    45
1040
0.5
1002
}
  0
LINE
  5
1B0C8
330
18
100
AcDbEntity
  8
0
  6
BYBLOCK
100
AcDbLine
 10
2865.259618195513
 20
-278.2251806275273
 30
0.0000000002254849
 11
2862.659618195513
 21
-277.5285127335274
 31
0.0000000002254849
  0
LINE
  5
1B0C9
330
18
100
AcDbEntity
  8
0
  6
BYBLOCK
100
AcDbLine
 10
2862.659618195513
 20
-277.5285127335274
 30
0.0000000002254849
 11
2865.259618195513
 21
-276.8318448395274
 31
0.0000000002254849
  0
LINE
  5
1B0CA
330
18
100
AcDbEntity
  8
0
  6
BYBLOCK
100
AcDbLine
 10
2862.659618195513
 20
-277.5285127335274
 30
0.0000000002254849
 11
2865.259618195513
 21
-277.5285127335274
 31
0.0000000002254849
  0
LINE
  5
1B0CB
330
18
100
AcDbEntity
  8
0
  6
BYBLOCK
100
AcDbLine
 10
3000.556279087292
 20
-276.8318448395274
 30
0.0000000002254849
 11
3003.156279087292
 21
-277.5285127335274
 31
0.0000000002254849
  0
LINE
  5
1B0CC
330
18
100
AcDbEntity
  8
0
  6
BYBLOCK
100
AcDbLine
 10
3003.156279087292
 20
-277.5285127335274
 30
0.0000000002254849
 11
3000.556279087292
 21
-278.2251806275273
 31
0.0000000002254849
  0
LINE
  5
1B0CD
330
18
100
AcDbEntity
  8
0
  6
BYBLOCK
100
AcDbLine
 10
3003.156279087292
 20
-277.5285127335274
 30
0.0000000002254849
 11
3000.556279087292
 21
-277.5285127335274
 31
0.0000000002254849
  0
TEXT
  5
1B0CE
330
18
100
AcDbEntity
  8
1DIM
  6
CONTINUOUS
100
AcDbText
 10
2924.945448641402
 20
-276.6185127335274
 30
0.0000000002254849
 40
4.55
  1
140.5
100
AcDbText
1001
ACAD
1000
DSTYLE
1002
{
1070
    40
1040
1.3
1070
    45
1040
0.5
1002
}
  0
LINE
  5
1B0CF
330
18
100
AcDbEntity
  8
0
  6
BYBLOCK
100
AcDbLine
 10
3023.852946981292
 20
-216.9599797263867
 30
0.0000000002254849
 11
3023.156279087292
 21
-219.5599797263867
 31
0.0000000002254849
  0
LINE
  5
1B0D0
330
18
100
AcDbEntity
  8
0
  6
BYBLOCK
100
AcDbLine
 10
3023.156279087292
 20
-219.5599797263867
 30
0.0000000002254849
 11
3022.459611193292
 21
-216.9599797263867
 31
0.0000000002254849
  0
LINE
  5
1B0D1
330
18
100
AcDbEntity
  8
0
  6
BYBLOCK
100
AcDbLine
 10
3023.156279087292
 20
-219.5599797263867
 30
0.0000000002254849
 11
3023.156279087292
 21
-216.9599797263867
 31
0.0000000002254849
  0
LINE
  5
1B0D2
330
18
100
AcDbEntity
  8
0
  6
BYBLOCK
100
AcDbLine
 10
3022.459611193292
 20
-185.1285127335274
 30
0.0000000002254849
 11
3023.156279087292
 21
-182.5285127335274
 31
0.0000000002254849
  0
LINE
  5
1B0D3
330
18
100
AcDbEntity
  8
0
  6
BYBLOCK
100
AcDbLine
 10
3023.156279087292
 20
-182.5285127335274
 30
0.0000000002254849
 11
3023.852946981292
 21
-185.1285127335274
 31
0.0000000002254849
  0
LINE
  5
1B0D4
330
18
100
AcDbEntity
  8
0
  6
BYBLOCK
100
AcDbLine
 10
3023.156279087292
 20
-182.5285127335274
 30
0.0000000002254849
 11
3023.156279087292
 21
-185.1285127335274
 31
0.0000000002254849
  0
TEXT
  5
1B0D5
330
18
100
AcDbEntity
  8
1DIM
  6
CONTINUOUS
100
AcDbText
 10
3022.246279087292
 20
-204.8359128966231
 30
0.0000000002254849
 40
4.55
  1
37
 50
90.0
100
AcDbText
1001
ACAD
1000
DSTYLE
1002
{
1070
    40
1040
1.3
1070
    45
1040
0.5
1002
}
  0
LINE
  5
1B0D6
330
18
100
AcDbEntity
  8
0
  6
BYBLOCK
100
AcDbLine
 10
3033.852946981292
 20
-244.8970457406651
 30
0.0000000002254849
 11
3033.156279087292
 21
-247.4970457406651
 31
0.0000000002254849
  0
LINE
  5
1B0D7
330
18
100
AcDbEntity
  8
0
  6
BYBLOCK
100
AcDbLine
 10
3033.156279087292
 20
-247.4970457406651
 30
0.0000000002254849
 11
3032.459611193292
 21
-244.8970457406651
 31
0.0000000002254849
  0
LINE
  5
1B0D8
330
18
100
AcDbEntity
  8
0
  6
BYBLOCK
100
AcDbLine
 10
3033.156279087292
 20
-247.4970457406651
 30
0.0000000002254849
 11
3033.156279087292
 21
-244.8970457406651
 31
0.0000000002254849
  0
LINE
  5
1B0D9
330
18
100
AcDbEntity
  8
0
  6
BYBLOCK
100
AcDbLine
 10
3032.459611193292
 20
-185.1285127335274
 30
0.0000000002254849
 11
3033.156279087292
 21
-182.5285127335274
 31
0.0000000002254849
  0
LINE
  5
1B0DA
330
18
100
AcDbEntity
  8
0
  6
BYBLOCK
100
AcDbLine
 10
3033.156279087292
 20
-182.5285127335274
 30
0.0000000002254849
 11
3033.852946981292
 21
-185.1285127335274
 31
0.0000000002254849
  0
LINE
  5
1B0DB
330
18
100
AcDbEntity
  8
0
  6
BYBLOCK
100
AcDbLine
 10
3033.156279087292
 20
-182.5285127335274
 30
0.0000000002254849
 11
3033.156279087292
 21
-185.1285127335274
 31
0.0000000002254849
  0
TEXT
  5
1B0DC
330
18
100
AcDbEntity
  8
1DIM
  6
CONTINUOUS
100
AcDbText
 10
3032.246279087292
 20
-218.8202445148736
 30
0.0000000002254849
 40
4.55
  1
65
 50
90.0
100
AcDbText
1001
ACAD
1000
DSTYLE
1002
{
1070
    40
1040
1.3
1070
    45
1040
0.5
1002
}
  0
VIEWPORT
  5
57
330
15
100
AcDbEntity
 67
     1
  8
0
100
AcDbViewport
 68
     1
 10
0.0
 20
0.0
 30
0.0
 40
663.4332925336597
 41
297.0
 68
     1
 69
     1
1001
ACAD
1000
MVIEW
1002
{
1070
    16
1010
0.0
1020
0.0
1030
0.0
1010
0.0
1020
0.0
1030
1.0
1040
0.0
1040
297.0
1040
1.83727895102345
1040
12.29366132359621
1040
50.0
1040
0.0
1040
0.0
1070
    16
1070
   100
1070
     0
1070
     1
1070
     0
1070
     0
1070
     0
1070
     0
1040
0.0
1040
0.0
1040
0.0
1040
10.0
1040
10.0
1040
10.0
1040
10.0
1070
     0
1002
{
1002
}
1002
}
  0
ENDSEC
  0
SECTION
  2
OBJECTS
  0
DICTIONARY
  5
C
330
0
100
AcDbDictionary
  3
ACAD_COLOR
350
18D
  3
ACAD_GROUP
350
D
  3
ACAD_LAYOUT
350
18E
  3
ACAD_MATERIAL
350
18C
  3
ACAD_MLEADERSTYLE
350
D9E7
  3
ACAD_MLINESTYLE
350
1B
  3
ACAD_PLOTSETTINGS
350
18F
  3
ACAD_SCALELIST
350
D9C5
  3
ACAD_VISUALSTYLE
350
D9B4
  3
ACDBHEADERROUNDTRIPXREC
350
1B0DD
  3
ACDBVARIABLEDICTIONARY
350
37
  3
AEC_PROPERTY_SET_DEFS
350
1AABD
  3
CONTENTDICTIONARY
350
D8
  3
DRAWINGVARIABLESDICT
350
20
  3
DWGPROPS
350
1B0E0
1001
ACAD
1000
TREAT_AS_HARD
1070
     0
  0
DICTIONARY
  5
E6A6
330
2
100
AcDbDictionary
  3
ACAD_LAYERSTATES
360
E6A7
1001
ACAD
1000
TREAT_AS_HARD
1070
     1
  0
DICTIONARY
  5
DA05
330
E
100
AcDbDictionary
  3
ADSK_XREC_LAYER_RECONCILED
360
DA06
1001
ACAD
1000
TREAT_AS_HARD
1070
     1
  0
DICTIONARY
  5
DA07
330
29
100
AcDbDictionary
  3
ADSK_XREC_LAYER_RECONCILED
360
DA08
1001
ACAD
1000
TREAT_AS_HARD
1070
     1
  0
DICTIONARY
  5
DA09
330
31
100
AcDbDictionary
  3
ADSK_XREC_LAYER_RECONCILED
360
DA0A
1001
ACAD
1000
TREAT_AS_HARD
1070
     1
  0
DICTIONARY
  5
DA0F
330
243
100
AcDbDictionary
  3
ADSK_XREC_LAYER_RECONCILED
360
DA10
1001
ACAD
1000
TREAT_AS_HARD
1070
     1
  0
DICTIONARY
  5
DA15
330
24E
100
AcDbDictionary
  3
ADSK_XREC_LAYER_RECONCILED
360
DA16
1001
ACAD
1000
TREAT_AS_HARD
1070
     1
  0
DICTIONARY
  5
DA17
330
252
100
AcDbDictionary
  3
ADSK_XREC_LAYER_RECONCILED
360
DA18
1001
ACAD
1000
TREAT_AS_HARD
1070
     1
  0
DICTIONARY
  5
DA23
330
2C05
100
AcDbDictionary
  3
ADSK_XREC_LAYER_RECONCILED
360
DA24
1001
ACAD
1000
TREAT_AS_HARD
1070
     1
  0
DICTIONARY
  5
88F
330
18
100
AcDbDictionary
  3
ACAD_SORTENTS
360
890
1001
ACAD
1000
TREAT_AS_HARD
1070
     1
  0
DICTIONARY
  5
18D
102
{ACAD_REACTORS
330
C
102
}
330
C
100
AcDbDictionary
1001
ACAD
1000
TREAT_AS_HARD
1070
     0
  0
DICTIONARY
  5
D
102
{ACAD_REACTORS
330
C
102
}
330
C
100
AcDbDictionary
1001
ACAD
1000
TREAT_AS_HARD
1070
     0
  0
DICTIONARY
  5
18E
102
{ACAD_REACTORS
330
C
102
}
330
C
100
AcDbDictionary
1001
ACAD
1000
TREAT_AS_HARD
1070
     0
  0
DICTIONARY
  5
18C
102
{ACAD_REACTORS
330
C
102
}
330
C
100
AcDbDictionary
  3
BYBLOCK
350
D9A4
  3
BYLAYER
350
D99C
  3
GLOBAL
350
D9AC
1001
ACAD
1000
TREAT_AS_HARD
1070
     0
  0
DICTIONARY
  5
D9E7
102
{ACAD_REACTORS
330
C
102
}
330
C
100
AcDbDictionary
  3
STANDARD
350
D9E8
1001
ACAD
1000
TREAT_AS_HARD
1070
     0
  0
DICTIONARY
  5
1B
102
{ACAD_REACTORS
330
C
102
}
330
C
100
AcDbDictionary
  3
STANDARD
350
1C
1001
ACAD
1000
TREAT_AS_HARD
1070
     0
  0
DICTIONARY
  5
18F
102
{ACAD_REACTORS
330
C
102
}
330
C
100
AcDbDictionary
1001
ACAD
1000
TREAT_AS_HARD
1070
     0
  0
DICTIONARY
  5
D9C5
102
{ACAD_REACTORS
330
C
102
}
330
C
100
AcDbDictionary
  3
A0
350
D9C6
  3
A1
350
D9C7
  3
A2
350
D9C8
  3
A3
350
D9C9
  3
A4
350
D9CA
  3
A5
350
D9CB
  3
A6
350
D9CC
  3
A7
350
D9CD
  3
A8
350
D9CE
  3
A9
350
D9CF
  3
B0
350
D9D0
  3
B1
350
D9D1
  3
B2
350
D9D2
  3
B3
350
D9D3
  3
B4
350
D9D4
  3
B5
350
D9D5
  3
B6
350
D9D6
  3
B7
350
D9D7
  3
B8
350
D9D8
  3
B9
350
D9D9
  3
C0
350
D9DA
  3
C1
350
D9DB
  3
C2
350
D9DC
  3
C3
350
D9DD
  3
C4
350
D9DE
  3
C5
350
D9DF
  3
C6
350
D9E0
  3
C7
350
D9E1
  3
C8
350
D9E2
  3
C9
350
D9E3
  3
D0
350
D9E4
  3
D1
350
D9E5
  3
D2
350
D9E6
1001
ACAD
1000
TREAT_AS_HARD
1070
     0
  0
DICTIONARY
  5
D9B4
102
{ACAD_REACTORS
330
C
102
}
330
C
100
AcDbDictionary
  3
2DWIREFRAME
350
D9BA
  3
3D_HIDDEN
350
D9BC
  3
3DWIREFRAME
350
D9BB
  3
BASIC
350
D9B9
  3
BRIGHTEN
350
D9C0
  3
COLORCHANGE
350
D9C4
  3
CONCEPTUAL
350
D9BD
  3
DIM
350
D9BF
  3
EDGECOLOROFF
350
19C2F
  3
FACEPATTERN
350
D9C3
  3
FLAT
350
D9B5
  3
FLATWITHEDGES
350
D9B6
  3
GOURAUD
350
D9B7
  3
GOURAUDWITHEDGES
350
D9B8
  3
HIDDEN
350
19C7E
  3
JITTEROFF
350
19C2D
  3
LINEPATTERN
350
D9C2
  3
MODELING
350
19C84
  3
OVERHANGOFF
350
19C2E
  3
REALISTIC
350
D9BE
  3
SHADED
350
19C83
  3
SHADED_WITH_EDGES
350
19C82
  3
SHADES_OF_GRAY
350
19C7F
  3
SKETCHY
350
19C80
  3
THICKEN
350
D9C1
  3
WIREFRAME
350
19C7D
  3
X-RAY
350
19C81
1001
ACAD
1000
TREAT_AS_HARD
1070
     0
  0
DICTIONARY
  5
1B0DD
102
{ACAD_REACTORS
330
C
102
}
330
C
100
AcDbDictionary
  3
COLORDICT
350
1B0DE
  3
MATERIALDICT
350
1B0DF
1001
ACAD
1000
TREAT_AS_HARD
1070
     0
  0
DICTIONARY
  5
37
102
{ACAD_REACTORS
330
C
102
}
330
C
100
AcDbDictionary
  3
CANNOSCALE
350
1AF18
  3
CMLEADERSTYLE
350
DA6A
  3
CTABLESTYLE
350
29E
  3
DIMADEC
350
38
  3
DIMASSOC
350
1CE
  3
HIDETEXT
350
704E
  3
INDEXCTL
350
DA6D
  3
INTERSECTIONCOLOR
350
7052
  3
INTERSECTIONDISPLAY
350
7051
  3
MSLTSCALE
350
1A60C
  3
OBSCOLOR
350
704F
  3
OBSLTYPE
350
7050
  3
PROJECTNAME
350
1CF
  3
SORTENTS
350
DA6C
  3
XCLIPFRAME
350
1AEF4
1001
ACAD
1000
TREAT_AS_HARD
1070
     0
  0
DICTIONARY
  5
1AABD
102
{ACAD_REACTORS
330
C
102
}
330
C
100
AcDbDictionary
1001
ACAD
1000
TREAT_AS_HARD
1070
     0
  0
DICTIONARY
  5
D8
102
{ACAD_REACTORS
330
C
102
}
330
C
100
AcDbDictionary
1001
ACAD
1000
TREAT_AS_HARD
1070
     0
  0
DICTIONARY
  5
20
102
{ACAD_REACTORS
330
C
102
}
330
C
100
AcDbDictionary
1001
DRAWINGVARIABLESXDATA
1000
POLARANG
1000
0.261799387799149410000000
1000
POLARMODE
1000
1
1000
POLARSTYLE
1000
1
1001
ACAD
1000
TREAT_AS_HARD
1070
     0
  0
XRECORD
  5
1B0E0
102
{ACAD_REACTORS
330
C
102
}
330
C
100
AcDbXrecord
  1
DWGPROPS COOKIE
  2

  3

  4

  6

  7

  8
3684
  9

300
=
301
=
302
=
303
=
304
=
305
=
306
=
307
=
308
=
309
=
 40
0.0
 41
2451318.246352917
 42
2458152.163325266
  1

 90
        0
  0
DICTIONARY
  5
E6A7
102
{ACAD_REACTORS
330
E6A6
102
}
330
E6A6
100
AcDbDictionary
1001
ACAD
1000
TREAT_AS_HARD
1070
     0
  0
ACAD_PROXY_OBJECT
  5
DA06
102
{ACAD_REACTORS
330
DA05
102
}
330
DA05
100
AcDbZombieObject
 90
      499
 91
      516
 93
       34
310
40C8804040
  0
ACAD_PROXY_OBJECT
  5
DA08
102
{ACAD_REACTORS
330
DA07
102
}
330
DA07
100
AcDbZombieObject
 90
      499
 91
      516
 93
       34
310
40C8804040
  0
ACAD_PROXY_OBJECT
  5
DA0A
102
{ACAD_REACTORS
330
DA09
102
}
330
DA09
100
AcDbZombieObject
 90
      499
 91
      516
 93
       34
310
40C8804040
  0
ACAD_PROXY_OBJECT
  5
DA10
102
{ACAD_REACTORS
330
DA0F
102
}
330
DA0F
100
AcDbZombieObject
 90
      499
 91
      516
 93
       34
310
40C8804040
  0
ACAD_PROXY_OBJECT
  5
DA16
102
{ACAD_REACTORS
330
DA15
102
}
330
DA15
100
AcDbZombieObject
 90
      499
 91
      516
 93
       34
310
40C8804040
  0
ACAD_PROXY_OBJECT
  5
DA18
102
{ACAD_REACTORS
330
DA17
102
}
330
DA17
100
AcDbZombieObject
 90
      499
 91
      516
 93
       34
310
40C8804040
  0
ACAD_PROXY_OBJECT
  5
DA24
102
{ACAD_REACTORS
330
DA23
102
}
330
DA23
100
AcDbZombieObject
 90
      499
 91
      516
 93
       34
310
40C8804040
  0
SORTENTSTABLE
  5
890
102
{ACAD_REACTORS
330
88F
102
}
330
88F
100
AcDbSortentsTable
330
18
331
0
  5
5BFF
331
1AAC3
  5
1AAD2
331
1AAC4
  5
1AAD3
331
1AAC5
  5
1AAD4
331
1AAC6
  5
1AAD8
331
1AAC7
  5
1AADC
331
1AAC8
  5
1AADD
331
1AAC9
  5
1AADE
331
0
  5
1AADF
331
1AACC
  5
1AB07
331
1AACD
  5
1AB08
331
1AACE
  5
1AB09
331
1AACF
  5
1AB0A
331
0
  5
1AAF7
331
1AAD2
  5
1AB1F
331
1AAD3
  5
1AB20
331
1AAD4
  5
1AB21
331
1AAD8
  5
1AB41
331
1AAD9
  5
1AB42
331
1AADA
  5
1AB43
331
1AADB
  5
1AB44
331
1AADC
  5
1AB45
331
1AADD
  5
1AB46
331
1AADE
  5
1AB47
331
1AADF
  5
1AB48
331
1AAE0
  5
1AB49
331
1AAE1
  5
1AB4A
331
1AAE2
  5
1AB4B
331
1AAE3
  5
1AB4C
331
1AAE4
  5
1AB51
331
1AAE5
  5
1AB56
331
1AAE6
  5
1AB57
331
1AAE7
  5
1AB58
331
1AAE8
  5
1AB59
331
1AAE9
  5
1AB5A
331
1AAEA
  5
1AB5B
331
1AAEB
  5
1AB5C
331
1AAEC
  5
1AB5D
331
1AAED
  5
1AB5E
331
1AAEE
  5
1AB5F
331
1AAEF
  5
1AB60
331
1AAF0
  5
1AB61
331
1AAF1
  5
1AB62
331
1AAF2
  5
1AB63
331
1AAF3
  5
1AB64
331
1AAF4
  5
1AB65
331
1AAF5
  5
1AB66
331
1AAF6
  5
1AB67
331
1AAF7
  5
1AB68
331
1AAF8
  5
1AB69
331
1AAF9
  5
1AB6A
331
1AAFA
  5
1AB6B
331
1AAFB
  5
1AB6F
331
1AAFC
  5
1AB70
331
1AAFD
  5
1AB72
331
1AAFE
  5
1AB73
331
1AAFF
  5
1AB74
331
1AB00
  5
1AB75
331
1AB01
  5
1AB76
331
1AB02
  5
1AB77
331
1AB03
  5
1AB78
331
1AB04
  5
1AB7B
331
1AB05
  5
1AB7C
331
1AB06
  5
1AB7D
331
1AB07
  5
1AB7E
331
1AB08
  5
1AB7F
331
1AB09
  5
1AB80
331
1AB0A
  5
1AB81
331
1AB0B
  5
1AB82
331
1AB0C
  5
1AB86
331
1AB0D
  5
1AB87
331
1AB0E
  5
1AB88
331
1AB0F
  5
1AB89
331
1AB10
  5
1AB8A
331
1AB11
  5
1AB8B
331
1AB12
  5
1AB8C
331
1AB13
  5
1AB8D
331
1AB14
  5
1AB8E
331
1AB15
  5
1AB8F
331
1AB16
  5
1AB90
331
0
  5
1AB71
331
1AB18
  5
1AB9B
331
1AB19
  5
1AB9C
331
1AB1A
  5
1AB9D
331
1AB1B
  5
1AB9E
331
1AB1C
  5
1AB9F
331
1AB1D
  5
1ABA0
331
1AB1E
  5
1ABA1
331
1AB1F
  5
1ABA2
331
1AB20
  5
1ABA3
331
1AB21
  5
1ABA4
331
1AB22
  5
1ABA5
331
1AB23
  5
1ABA6
331
1AB24
  5
1ABA7
331
1AB25
  5
1ABAC
331
1AB26
  5
1ABAD
331
1AB27
  5
1ABAE
331
1AB28
  5
1ABB2
331
1AB29
  5
1ABB3
331
1AB2A
  5
1ABB4
331
1AB2B
  5
1ABB5
331
1AB2C
  5
1ABB6
331
1AB2D
  5
1ABB7
331
1AB2E
  5
1ABB8
331
1AB2F
  5
1ABB9
331
1AB30
  5
1ABBA
331
1AB31
  5
1ABBB
331
1AB32
  5
1ABBC
331
1AB33
  5
1ABBD
331
1AB34
  5
1ABBE
331
1AB35
  5
1ABBF
331
1AB36
  5
1ABC0
331
1AB37
  5
1ABC1
331
1AB38
  5
1ABC2
331
1AB39
  5
1ABC3
331
1AB3A
  5
1ABC4
331
1AB3B
  5
1ABC5
331
1AB3D
  5
1ABD0
331
1AB3E
  5
1ABD1
331
1AB3F
  5
1ABD2
331
1AB40
  5
1ABD3
331
1AB41
  5
1ABD4
331
1AB42
  5
1ABD5
331
1AB43
  5
1ABD6
331
1AB44
  5
1ABD7
331
1AB45
  5
1ABD8
331
1AB46
  5
1ABD9
331
1AB47
  5
1ABDA
331
1AB48
  5
1ABDB
331
1AB49
  5
1ABDC
331
1AB4A
  5
1ABDD
331
1AB4B
  5
1ABDE
331
1AB4C
  5
1ABDF
331
1AB51
  5
1ABE0
331
1AB56
  5
1ABE1
331
1AB57
  5
1ABE2
331
1AB58
  5
1ABE3
331
1AB59
  5
1ABE7
331
1AB5A
  5
1ABE8
331
1AB5B
  5
1ABE9
331
1AB5C
  5
1ABEA
331
1AB5D
  5
1ABEB
331
1AB5E
  5
1ABEC
331
1AB5F
  5
1ABED
331
1AB60
  5
1ABEE
331
1AB61
  5
1ABEF
331
1AB62
  5
1ABF0
331
1AB63
  5
1ABF1
331
1AB64
  5
1ABF2
331
1AB65
  5
1ABF3
331
1AB66
  5
1ABF4
331
1AB67
  5
1ABF5
331
1AB68
  5
1ABF6
331
1AB69
  5
1ABF7
331
1AB6A
  5
1ABF9
331
1AB6B
  5
1ABFA
331
1AB6C
  5
1ABFB
331
1AB6D
  5
1ABFC
331
1AB6E
  5
1ABFD
331
1AB6F
  5
1ABFE
331
1AB70
  5
1ABFF
331
1AB71
  5
1AC00
331
1AB72
  5
1AC01
331
1AB73
  5
1AC02
331
1AB74
  5
1AC03
331
1AB75
  5
1AC04
331
1AB76
  5
1AC05
331
1AB77
  5
1AC06
331
1AB78
  5
1AC07
331
1AB7B
  5
1AC20
331
1AB7C
  5
1AC21
331
1AB7D
  5
1AC22
331
1AB7E
  5
1AC23
331
0
  5
1ABF8
331
1AB80
  5
1AC2E
331
1AB81
  5
1AC2F
331
1AB82
  5
1AC30
331
1AB83
  5
1AC31
331
1AB84
  5
1AC32
331
1AB85
  5
1AC33
331
1AB86
  5
1AC34
331
1AB87
  5
1AC37
331
1AB88
  5
1AC38
331
1AB89
  5
1AC39
331
1AB8A
  5
1AC3A
331
1AB8B
  5
1AC3B
331
1AB8C
  5
1AC3C
331
1AB8D
  5
1AC3E
331
1AB8E
  5
1AC3F
331
1AB8F
  5
1AC41
331
1AB90
  5
1AC43
331
1AB91
  5
1AC44
331
1AB92
  5
1AC45
331
1AB93
  5
1AC46
331
1AB94
  5
1AC47
331
1AB95
  5
1AC48
331
1AB96
  5
1AC49
331
1AB97
  5
1AC4A
331
0
  5
1AC11
331
1AB99
  5
1AC4C
331
1AB9A
  5
1AC4D
331
1AB9B
  5
1AC4E
331
1AB9C
  5
1AC4F
331
1AB9D
  5
1AC50
331
1AB9E
  5
1AC51
331
1AB9F
  5
1AC52
331
1ABA0
  5
1AC53
331
1ABA1
  5
1AC54
331
1ABA2
  5
1AC55
331
1ABA3
  5
1AC56
331
1ABA4
  5
1AC57
331
1ABA5
  5
1AC58
331
1ABA6
  5
1AC59
331
1ABA7
  5
1AC5A
331
1ABA8
  5
1AC5B
331
1ABA9
  5
1AC5C
331
1ABAB
  5
1AC68
331
1ABAC
  5
1AC69
331
1ABAD
  5
1AC6A
331
1ABAE
  5
1AC6B
331
1ABAF
  5
1AC6C
331
1ABB0
  5
1AC6D
331
1ABB1
  5
1AC6E
331
1ABB2
  5
1AC6F
331
1ABB3
  5
1AC70
331
1ABB4
  5
1AC71
331
1ABB5
  5
1AC72
331
1ABB6
  5
1AC73
331
1ABB7
  5
1AC74
331
1ABB8
  5
1AC75
331
1ABB9
  5
1AC76
331
1ABBA
  5
1AC77
331
1ABBB
  5
1AC78
331
1ABBC
  5
1AC79
331
1ABBD
  5
1AC7A
331
1ABBE
  5
1AC7B
331
1ABBF
  5
1AC7C
331
1ABC0
  5
1AC7D
331
1ABC1
  5
1AC7E
331
1ABC2
  5
1AC7F
331
1ABC3
  5
1AC80
331
1ABC4
  5
1AC81
331
1ABC5
  5
1AC82
331
1ABC6
  5
1AC83
331
1ABC7
  5
1AC84
331
1ABC8
  5
1AC85
331
1ABC9
  5
1AC86
331
1ABCA
  5
1AC87
331
1ABCB
  5
1AC88
331
1ABCC
  5
1AC89
331
1ABCD
  5
1AC8A
331
1ABCE
  5
1AC8B
331
1ABCF
  5
1AC8C
331
1ABD0
  5
1AC8D
331
1ABD1
  5
1AC8E
331
1ABD2
  5
1AC8F
331
1ABD3
  5
1AC90
331
1ABD4
  5
1AC91
331
1ABD5
  5
1AC92
331
0
  5
1AC5D
331
1ABD7
  5
1AC94
331
1ABD8
  5
1AC95
331
1ABD9
  5
1AC96
331
1ABDA
  5
1AC97
331
1ABDB
  5
1AC98
331
1ABDC
  5
1AC99
331
1ABDD
  5
1AC9A
331
1ABDE
  5
1AC9B
331
1ABDF
  5
1AC9C
331
1ABE0
  5
1AC9D
331
1ABE1
  5
1AC9E
331
1ABE2
  5
1AC9F
331
1ABE3
  5
1ACA0
331
1ABE4
  5
1ACA1
331
1ABE5
  5
1ACA2
331
1ABE6
  5
1ACA3
331
1ABE7
  5
1ACA4
331
1ABE8
  5
1ACA5
331
1ABE9
  5
1ACA6
331
1ABEA
  5
1ACA7
331
1ABEB
  5
1ACA8
331
1ABEC
  5
1ACA9
331
1ABED
  5
1ACAA
331
1ABEE
  5
1ACAB
331
1ABEF
  5
1ACAC
331
1ABF0
  5
1ACAD
331
1ABF1
  5
1ACAE
331
1ABF2
  5
1ACAF
331
1ABF3
  5
1ACB0
331
1ABF4
  5
1ACB1
331
1ABF5
  5
1ACB2
331
1ABF6
  5
1ACB3
331
1ABF7
  5
1ACB4
331
1ABF8
  5
1ACB5
331
1ABF9
  5
1ACB6
331
1ABFA
  5
1ACB7
331
1ABFB
  5
1ACB8
331
1ABFC
  5
1ACB9
331
1ABFD
  5
1ACBA
331
1ABFE
  5
1ACBB
331
1ABFF
  5
1ACBC
331
1AC00
  5
1ACBD
331
1AC01
  5
1ACC0
331
1AC02
  5
1ACC1
331
1AC03
  5
1ACC2
331
1AC04
  5
1ACC3
331
1AC05
  5
1ACC5
331
1AC06
  5
1ACC6
331
1AC07
  5
1ACC7
331
1AC08
  5
1ACCA
331
1AC09
  5
1ACCB
331
1AC0A
  5
1ACCC
331
1AC0B
  5
1ACCD
331
1AC0C
  5
1ACCE
331
1AC0D
  5
1ACCF
331
1AC0E
  5
1ACD0
331
1AC0F
  5
1ACD1
331
1AC10
  5
1ACD2
331
1AC11
  5
1ACD3
331
1AC12
  5
1ACD4
331
1AC13
  5
1ACD5
331
1AC14
  5
1ACD6
331
1AC15
  5
1ACD7
331
1AC16
  5
1ACD8
331
1AC17
  5
1ACD9
331
1AC18
  5
1ACDA
331
1AC19
  5
1ACDB
331
1AC1A
  5
1ACDC
331
1AC1B
  5
1ACDD
331
1AC1C
  5
1ACDE
331
1AC1D
  5
1ACDF
331
1AC1E
  5
1ACE0
331
1AC1F
  5
1ACE1
331
1AC20
  5
1ACE2
331
1AC21
  5
1ACE3
331
1AC22
  5
1ACE4
331
1AC23
  5
1ACE5
331
1AC24
  5
1ACE6
331
1AC25
  5
1ACE7
331
1AC26
  5
1ACE8
331
1AC27
  5
1ACE9
331
1AC28
  5
1ACEA
331
1AC29
  5
1ACEB
331
1AC2A
  5
1ACEC
331
1AC2B
  5
1ACED
331
1AC2C
  5
1ACEE
331
1AC2D
  5
1ACEF
331
1AC2E
  5
1ACF0
331
1AC2F
  5
1ACF1
331
1AC30
  5
1ACF2
331
1AC31
  5
1ACF3
331
1AC32
  5
1ACF4
331
1AC33
  5
1ACF5
331
1AC34
  5
1ACF6
331
1AC37
  5
1AFB8
331
1AC38
  5
1AFB9
331
1AC39
  5
1AFBA
331
1AC3A
  5
1AFBB
331
1AC3B
  5
1AFBC
331
1AC3C
  5
1AFBD
331
1AC3E
  5
1AFC0
331
1AC3F
  5
1AFC1
331
0
  5
1ACFA
331
1AC43
  5
1AFC9
331
1AC44
  5
1AFCA
331
1AC45
  5
1AFCB
331
1AC46
  5
1AFCC
331
1AC47
  5
1AFCD
331
1AC48
  5
1AFCE
331
1AC49
  5
1AFD2
331
1AC4A
  5
1AFD3
331
1AC4B
  5
1AFD4
331
1AC4C
  5
1AFD5
331
1AC4D
  5
1AFD6
331
1AC4E
  5
1AFD7
331
1AC4F
  5
1AFDB
331
1AC50
  5
1AFDC
331
1AC51
  5
1AFDD
331
1AC52
  5
1AFE1
331
1AC53
  5
1AFE2
331
1AC54
  5
1AFE3
331
1AC55
  5
1AFE4
331
1AC56
  5
1AFE5
331
1AC57
  5
1AFE6
331
1AC58
  5
1AFE7
331
1AC59
  5
1AFE8
331
1AC5A
  5
1AFE9
331
1AC5B
  5
1AFEA
331
1AC5C
  5
1AFEB
331
1AC5D
  5
1AFEC
331
1AC5E
  5
1AFF1
331
1AC5F
  5
1AFF2
331
1AC60
  5
1AFF3
331
1AC61
  5
1AFF4
331
1AC62
  5
1AFF5
331
1AC63
  5
1AFF6
331
1AC64
  5
1AFF7
331
1AC65
  5
1AFF8
331
1AC66
  5
1AFF9
331
1AC67
  5
1AFFA
331
1AC68
  5
1AFFB
331
1AC69
  5
1AFFC
331
1AC6A
  5
1AFFD
331
1AC6B
  5
1AFFE
331
1AC6C
  5
1AFFF
331
1AC6D
  5
1B000
331
1AC6E
  5
1B001
331
1AC6F
  5
1B002
331
1AC70
  5
1B003
331
1AC71
  5
1B004
331
1AC72
  5
1B005
331
1AC73
  5
1B006
331
1AC74
  5
1B007
331
1AC75
  5
1B008
331
1AC76
  5
1B009
331
1AC77
  5
1B00A
331
1AC78
  5
1B00B
331
1AC79
  5
1B00C
331
1AC7A
  5
1B00D
331
1AC7B
  5
1B00E
331
1AC7C
  5
1B00F
331
1AC7D
  5
1B013
331
1AC7E
  5
1B015
331
1AC7F
  5
1B016
331
1AC80
  5
1B01A
331
1AC81
  5
1B01B
331
1AC82
  5
1B01C
331
1AC83
  5
1B020
331
1AC84
  5
1B021
331
1AC85
  5
1B022
331
1AC86
  5
1B026
331
1AC87
  5
1B027
331
1AC88
  5
1B028
331
1AC89
  5
1B029
331
1AC8A
  5
1B02A
331
1AC8B
  5
1B02B
331
1AC8C
  5
1B02C
331
1AC8D
  5
1B02D
331
1AC8E
  5
1B02E
331
1AC8F
  5
1B02F
331
1AC90
  5
1B030
331
1AC91
  5
1B031
331
1AC92
  5
1B032
331
1AC93
  5
1B033
331
1AC94
  5
1B034
331
1AC95
  5
1B035
331
0
  5
1AFED
331
0
  5
1AFEE
331
0
  5
1AFEF
331
0
  5
1AFF0
331
1AC9A
  5
1B05E
331
1AC9B
  5
1B05F
331
1AC9C
  5
1B060
331
1AC9D
  5
1B061
331
1AC9E
  5
1B062
331
1AC9F
  5
1B063
331
1ACA0
  5
1B064
331
1ACA1
  5
1B065
331
1ACA2
  5
1B066
331
1ACA3
  5
1B067
331
1ACA4
  5
1B068
331
1ACA5
  5
1B069
331
1ACA6
  5
1B06A
331
1ACA7
  5
1B06B
331
1ACA8
  5
1B06C
331
1ACA9
  5
1B06D
331
1ACAA
  5
1B06E
331
1ACAB
  5
1B06F
331
1ACAC
  5
1B070
331
1ACAD
  5
1B071
331
1ACAE
  5
1B072
331
1ACAF
  5
1B073
331
1ACB0
  5
1B074
331
1ACB1
  5
1B075
331
1ACB2
  5
1B076
331
1ACB3
  5
1B077
331
1ACB4
  5
1B078
331
1ACB5
  5
1B079
331
1ACB6
  5
1B07A
331
1ACB7
  5
1B07B
331
1ACB8
  5
1B07C
331
1ACB9
  5
1B07D
331
1ACBA
  5
1B07E
331
1ACBB
  5
1B07F
331
1ACBC
  5
1B080
331
0
  5
1B014
331
1ACC0
  5
1B085
331
1ACC1
  5
1B086
331
1ACC2
  5
1B087
331
1ACC3
  5
1B088
331
1ACC5
  5
1B093
331
1ACC6
  5
1B094
331
1ACC7
  5
1B095
331
1ACCA
  5
1B0AA
331
1ACCB
  5
1B0AB
331
1ACCC
  5
1B0AC
331
1ACCD
  5
1B0AD
331
1ACCE
  5
1B0AE
331
1ACCF
  5
1B0AF
331
1ACD0
  5
1B0B0
331
1ACD1
  5
1B0B1
331
1ACD2
  5
1B0B2
331
1ACD3
  5
1B0B3
331
1ACD4
  5
1B0B4
331
1ACD5
  5
1B0B5
331
1ACD6
  5
1B0B6
331
1ACD7
  5
1B0B7
331
1ACD8
  5
1B0B8
331
1ACD9
  5
1B0B9
331
1ACDA
  5
1B0BA
331
1ACDB
  5
1B0BB
331
1ACDC
  5
1B0BC
331
1ACDD
  5
1B0BD
331
1ACDE
  5
1B0BE
331
1ACDF
  5
1B0BF
331
1ACE0
  5
1B0C0
331
1ACE1
  5
1B0C1
331
1ACE2
  5
1B0C2
331
1ACE3
  5
1B0C3
331
1ACE4
  5
1B0C4
331
1ACE5
  5
1B0C5
331
1ACE6
  5
1B0C6
331
1ACE7
  5
1B0C7
331
1ACE8
  5
1B0C8
331
1ACE9
  5
1B0C9
331
1ACEA
  5
1B0CA
331
1ACEB
  5
1B0CB
331
1ACEC
  5
1B0CC
331
1ACED
  5
1B0CD
331
1ACEE
  5
1B0CE
331
1ACEF
  5
1B0CF
331
1ACF0
  5
1B0D0
331
1ACF1
  5
1B0D1
331
1ACF2
  5
1B0D2
331
1ACF3
  5
1B0D3
331
1ACF4
  5
1B0D4
331
1ACF5
  5
1B0D5
331
1ACF6
  5
1B0D6
331
1ACF7
  5
1B0D7
331
1ACF8
  5
1B0D8
331
1ACF9
  5
1B0D9
331
1ACFA
  5
1B0DA
331
1ACFB
  5
1B0DB
331
1ACFC
  5
1B0DC
331
1AF91
  5
1AAC3
331
1AF92
  5
1AAC4
331
1AF93
  5
1AAC5
331
0
  5
1AAC6
331
0
  5
1AAC7
331
0
  5
1AAC8
331
1AF97
  5
1AAF6
331
1AF98
  5
1AAF8
331
1AF99
  5
1AAFC
331
0
  5
1AAD9
331
0
  5
1AADA
331
0
  5
1AADB
331
1AF9D
  5
1AB15
331
1AF9E
  5
1AB16
331
1AF9F
  5
1AB17
331
0
  5
1AAE4
331
0
  5
1AAE5
331
0
  5
1AAE6
331
1AFA3
  5
1AB22
331
1AFA4
  5
1AB23
331
1AFA5
  5
1AB24
331
0
  5
1AAED
331
0
  5
1AAEE
331
0
  5
1AAEF
331
1AFA9
  5
1AB2C
331
1AFAA
  5
1AB2D
331
1AFAB
  5
1AB2E
331
0
  5
1AAF3
331
0
  5
1AAF4
331
0
  5
1AAF5
331
1AFAF
  5
1AB36
331
1AFB0
  5
1AB37
331
1AFB1
  5
1AB38
331
0
  5
1AAF9
331
0
  5
1AAFA
331
0
  5
1AAFB
331
1AFB5
  5
1ABC6
331
1AFB6
  5
1ABC7
331
1AFB7
  5
1ABC8
331
0
  5
1AB6C
331
0
  5
1AB6D
331
0
  5
1AB6E
331
1AFBB
  5
1AC08
331
1AFBC
  5
1AC09
331
1AFBD
  5
1AC0A
331
0
  5
1ABA8
331
0
  5
1ABA9
331
0
  5
1ABAB
331
1AFC1
  5
1AC16
331
1AFC2
  5
1AC17
331
1AFC3
  5
1AC18
331
0
  5
1ABAF
331
0
  5
1ABB0
331
0
  5
1ABB1
331
1AFC7
  5
1AC5E
331
1AFC8
  5
1AC5F
331
1AFC9
  5
1AC60
331
0
  5
1ABE4
331
0
  5
1ABE5
331
0
  5
1ABE6
331
1AFCD
  5
1ACF7
331
1AFCE
  5
1ACF8
331
1AFCF
  5
1ACF9
331
1AFD0
  5
1ACFB
331
1AFD1
  5
1ACFC
331
1AFD2
  5
1AF91
331
1AFD3
  5
1AF92
331
1AFD4
  5
1AF93
331
1AFD5
  5
1AF94
331
1AFD6
  5
1AF95
331
1AFD7
  5
1AF96
331
1AFD8
  5
1AF97
331
1AFD9
  5
1AF98
331
1AFDA
  5
1AF99
331
1AFDB
  5
1AF9A
331
1AFDC
  5
1AF9B
331
1AFDD
  5
1AF9C
331
1AFDE
  5
1AF9D
331
1AFDF
  5
1AF9E
331
1AFE0
  5
1AF9F
331
1AFE1
  5
1AFA0
331
1AFE2
  5
1AFA1
331
1AFE3
  5
1AFA2
331
1AFE4
  5
1AFA3
331
1AFE5
  5
1AFA4
331
1AFE6
  5
1AFA5
331
1AFE7
  5
1AFA6
331
1AFE8
  5
1AFA7
331
1AFE9
  5
1AFA8
331
1AFEA
  5
1AFA9
331
1AFEB
  5
1AFAA
331
1AFEC
  5
1AFAB
331
1AFED
  5
1AFAC
331
1AFEE
  5
1AFAD
331
1AFEF
  5
1AFAE
331
1AFF0
  5
1AFAF
331
1AFF1
  5
1AFB0
331
1AFF2
  5
1AFB1
331
1AFF3
  5
1AFB2
331
1AFF4
  5
1AFB3
331
1AFF5
  5
1AFB4
331
1AFF6
  5
1AFB5
331
1AFF7
  5
1AFB6
331
1AFF8
  5
1AFB7
331
1AFF9
  5
1AFBE
331
1AFFA
  5
1AFBF
331
1AFFB
  5
1AFC2
331
1AFFC
  5
1AFC3
331
1AFFD
  5
1AFC4
331
1AFFE
  5
1AFC7
331
1AFFF
  5
1AFC8
331
1B000
  5
1B083
331
1B001
  5
1B084
331
1B002
  5
1B089
331
1B003
  5
1B08A
331
1B004
  5
1B08B
331
0
  5
1AFCF
331
0
  5
1AFD0
331
0
  5
1AFD1
331
1B008
  5
1B096
331
1B009
  5
1B097
331
1B00A
  5
1B098
331
0
  5
1AFD8
331
0
  5
1AFD9
331
0
  5
1AFDA
331
1B00E
  5
1B0A0
331
1B00F
  5
1B0A1
331
1B010
  5
1B0A2
331
0
  5
1AFDE
331
0
  5
1AFDF
331
0
  5
1AFE0
331
1B014
  5
1AAC9
331
1B015
  5
1AACA
331
1B016
  5
1AACC
331
1B017
  5
1AACD
331
1B018
  5
1AACE
331
1B019
  5
1AACF
331
1B01A
  5
1AAD0
331
1B01B
  5
1AAFD
331
1B01C
  5
1AAFE
331
1B01D
  5
1AAFF
331
1B01E
  5
1AB00
331
1B01F
  5
1AB01
331
1B020
  5
1AB02
331
1B021
  5
1AB03
331
1B022
  5
1AB18
331
1B023
  5
1AB19
331
1B024
  5
1AB1A
331
1B025
  5
1AB1B
331
1B026
  5
1AB1C
331
1B027
  5
1AB1D
331
1B028
  5
1AB1E
331
1B029
  5
1AB25
331
1B02A
  5
1AB26
331
1B02B
  5
1AB27
331
1B02C
  5
1AB28
331
1B02D
  5
1AB29
331
1B02E
  5
1AB2A
331
1B02F
  5
1AB2B
331
1B030
  5
1AB2F
331
1B031
  5
1AB30
331
1B032
  5
1AB31
331
1B033
  5
1AB32
331
1B034
  5
1AB33
331
1B035
  5
1AB34
331
1B036
  5
1AB35
331
1B037
  5
1AB39
331
1B038
  5
1AB3A
331
1B039
  5
1AB3B
331
1B03A
  5
1AB3D
331
1B03B
  5
1AB3E
331
1B03C
  5
1AB3F
331
1B03D
  5
1AB40
331
1B03E
  5
1ABC9
331
1B03F
  5
1ABCA
331
1B040
  5
1ABCB
331
1B041
  5
1ABCC
331
1B042
  5
1ABCD
331
1B043
  5
1ABCE
331
1B044
  5
1ABCF
331
1B045
  5
1AC0B
331
1B046
  5
1AC0C
331
1B047
  5
1AC0D
331
1B048
  5
1AC12
331
1B049
  5
1AC13
331
1B04A
  5
1AC14
331
1B04B
  5
1AC15
331
1B04C
  5
1AC19
331
1B04D
  5
1AC1A
331
1B04E
  5
1AC1B
331
1B04F
  5
1AC1C
331
1B050
  5
1AC1D
331
1B051
  5
1AC1E
331
1B052
  5
1AC1F
331
1B053
  5
1AC61
331
1B054
  5
1AC62
331
1B055
  5
1AC63
331
1B056
  5
1AC64
331
1B057
  5
1AC65
331
1B058
  5
1AC66
331
1B059
  5
1AC67
331
1B05A
  5
1B08C
331
1B05B
  5
1B08D
331
1B05C
  5
1B08E
331
1B05D
  5
1B08F
331
1B05E
  5
1B090
331
1B05F
  5
1B091
331
1B060
  5
1B092
331
1B061
  5
1B099
331
1B062
  5
1B09A
331
1B063
  5
1B09B
331
1B064
  5
1B09C
331
1B065
  5
1B09D
331
1B066
  5
1B09E
331
1B067
  5
1B09F
331
1B068
  5
1B0A3
331
1B069
  5
1B0A4
331
1B06A
  5
1B0A5
331
1B06B
  5
1B0A6
331
1B06C
  5
1B0A7
331
1B06D
  5
1B0A8
331
1B06E
  5
1B0A9
331
1B06F
  5
1AAE0
331
1B070
  5
1AAE1
331
1B071
  5
1AAE2
331
0
  5
1AAE3
331
0
  5
1AAE7
331
0
  5
1AAE8
331
1B075
  5
1AB0B
331
1B076
  5
1AB0C
331
1B077
  5
1AB0D
331
0
  5
1AB04
331
0
  5
1AB05
331
0
  5
1AB06
331
1B07B
  5
1AB91
331
1B07C
  5
1AB92
331
1B07D
  5
1AB93
331
0
  5
1AB83
331
0
  5
1AB84
331
0
  5
1AB85
331
1B081
  5
1AC24
331
1B082
  5
1AC25
331
1B083
  5
1AC26
331
0
  5
1AC0E
331
0
  5
1AC0F
331
0
  5
1AC10
331
1B087
  5
1AC4B
331
1B088
  5
1AC93
331
1B089
  5
1AFC5
331
1B08A
  5
1AFC6
331
1B08B
  5
1B036
331
1B08C
  5
1B037
331
1B08D
  5
1B038
331
0
  5
1B010
331
0
  5
1B011
331
0
  5
1B012
331
1B091
  5
1B040
331
1B092
  5
1B041
331
1B093
  5
1B042
331
0
  5
1B017
331
0
  5
1B018
331
0
  5
1B019
331
1B097
  5
1B04A
331
1B098
  5
1B04B
331
1B099
  5
1B04C
331
0
  5
1B01D
331
0
  5
1B01E
331
0
  5
1B01F
331
1B09D
  5
1B054
331
1B09E
  5
1B055
331
1B09F
  5
1B056
331
0
  5
1B023
331
0
  5
1B024
331
0
  5
1B025
331
1B0A3
  5
1B081
331
1B0A4
  5
1B082
331
1B0A5
  5
1AAE9
331
1B0A6
  5
1AAEA
331
1B0A7
  5
1AAEB
331
1B0A8
  5
1AAEC
331
1B0A9
  5
1AAF0
331
1B0AA
  5
1AAF1
331
1B0AB
  5
1AAF2
331
1B0AC
  5
1AB0E
331
1B0AD
  5
1AB0F
331
1B0AE
  5
1AB10
331
1B0AF
  5
1AB11
331
1B0B0
  5
1AB12
331
1B0B1
  5
1AB13
331
1B0B2
  5
1AB14
331
1B0B3
  5
1AB94
331
1B0B4
  5
1AB95
331
1B0B5
  5
1AB96
331
1B0B6
  5
1AB97
331
1B0B7
  5
1AB98
331
1B0B8
  5
1AB99
331
1B0B9
  5
1AB9A
331
1B0BA
  5
1AC27
331
1B0BB
  5
1AC28
331
1B0BC
  5
1AC29
331
1B0BD
  5
1AC2A
331
1B0BE
  5
1AC2B
331
1B0BF
  5
1AC2C
331
1B0C0
  5
1AC2D
331
1B0C1
  5
1B039
331
1B0C2
  5
1B03A
331
1B0C3
  5
1B03B
331
1B0C4
  5
1B03C
331
1B0C5
  5
1B03D
331
1B0C6
  5
1B03E
331
1B0C7
  5
1B03F
331
1B0C8
  5
1B043
331
1B0C9
  5
1B044
331
1B0CA
  5
1B045
331
1B0CB
  5
1B046
331
1B0CC
  5
1B047
331
1B0CD
  5
1B048
331
1B0CE
  5
1B049
331
1B0CF
  5
1B04D
331
1B0D0
  5
1B04E
331
1B0D1
  5
1B04F
331
1B0D2
  5
1B050
331
1B0D3
  5
1B051
331
1B0D4
  5
1B052
331
1B0D5
  5
1B053
331
1B0D6
  5
1B057
331
1B0D7
  5
1B058
331
1B0D8
  5
1B059
331
1B0D9
  5
1B05A
331
1B0DA
  5
1B05B
331
1B0DB
  5
1B05C
331
1B0DC
  5
1B05D
  0
MATERIAL
  5
D9A4
102
{ACAD_REACTORS
330
18C
102
}
102
{ACAD_XDICTIONARY
360
1B27B
102
}
330
18C
100
AcDbMaterial
  1
BYBLOCK
 72
     0
 73
     2
 43
0.0208333333333333
 43
0.0
 43
0.0
 43
0.0
 43
0.0
 43
0.0208333333333333
 43
0.0
 43
0.0
 43
0.0
 43
0.0
 43
1.0
 43
0.0
 43
0.0
 43
0.0
 43
0.0
 43
1.0
 77
     0
 78
     2
 47
0.0208333333333333
 47
0.0
 47
0.0
 47
0.0
 47
0.0
 47
0.0208333333333333
 47
0.0
 47
0.0
 47
0.0
 47
0.0
 47
1.0
 47
0.0
 47
0.0
 47
0.0
 47
0.0
 47
1.0
171
     0
172
     2
 49
0.0208333333333333
 49
0.0
 49
0.0
 49
0.0
 49
0.0
 49
0.0208333333333333
 49
0.0
 49
0.0
 49
0.0
 49
0.0
 49
1.0
 49
0.0
 49
0.0
 49
0.0
 49
0.0
 49
1.0
175
     0
176
     2
142
0.0208333333333333
142
0.0
142
0.0
142
0.0
142
0.0
142
0.0208333333333333
142
0.0
142
0.0
142
0.0
142
0.0
142
1.0
142
0.0
142
0.0
142
0.0
142
0.0
142
1.0
179
     0
270
     2
144
0.0208333333333333
144
0.0
144
0.0
144
0.0
144
0.0
144
0.0208333333333333
144
0.0
144
0.0
144
0.0
144
0.0
144
1.0
144
0.0
144
0.0
144
0.0
144
0.0
144
1.0
274
     2
147
0.0208333333333333
147
0.0
147
0.0
147
0.0
147
0.0
147
0.0208333333333333
147
0.0
147
0.0
147
0.0
147
0.0
147
1.0
147
0.0
147
0.0
147
0.0
147
0.0
147
1.0
  0
MATERIAL
  5
D99C
102
{ACAD_REACTORS
330
18C
102
}
102
{ACAD_XDICTIONARY
360
1B27D
102
}
330
18C
100
AcDbMaterial
  1
BYLAYER
 72
     0
 73
     2
 43
0.0208333333333333
 43
0.0
 43
0.0
 43
0.0
 43
0.0
 43
0.0208333333333333
 43
0.0
 43
0.0
 43
0.0
 43
0.0
 43
1.0
 43
0.0
 43
0.0
 43
0.0
 43
0.0
 43
1.0
 77
     0
 78
     2
 47
0.0208333333333333
 47
0.0
 47
0.0
 47
0.0
 47
0.0
 47
0.0208333333333333
 47
0.0
 47
0.0
 47
0.0
 47
0.0
 47
1.0
 47
0.0
 47
0.0
 47
0.0
 47
0.0
 47
1.0
171
     0
172
     2
 49
0.0208333333333333
 49
0.0
 49
0.0
 49
0.0
 49
0.0
 49
0.0208333333333333
 49
0.0
 49
0.0
 49
0.0
 49
0.0
 49
1.0
 49
0.0
 49
0.0
 49
0.0
 49
0.0
 49
1.0
175
     0
176
     2
142
0.0208333333333333
142
0.0
142
0.0
142
0.0
142
0.0
142
0.0208333333333333
142
0.0
142
0.0
142
0.0
142
0.0
142
1.0
142
0.0
142
0.0
142
0.0
142
0.0
142
1.0
179
     0
270
     2
144
0.0208333333333333
144
0.0
144
0.0
144
0.0
144
0.0
144
0.0208333333333333
144
0.0
144
0.0
144
0.0
144
0.0
144
1.0
144
0.0
144
0.0
144
0.0
144
0.0
144
1.0
274
     2
147
0.0208333333333333
147
0.0
147
0.0
147
0.0
147
0.0
147
0.0208333333333333
147
0.0
147
0.0
147
0.0
147
0.0
147
1.0
147
0.0
147
0.0
147
0.0
147
0.0
147
1.0
  0
MATERIAL
  5
D9AC
102
{ACAD_REACTORS
330
18C
102
}
102
{ACAD_XDICTIONARY
360
1B27F
102
}
330
18C
100
AcDbMaterial
  1
GLOBAL
 72
     0
 73
     2
 43
0.0208333333333333
 43
0.0
 43
0.0
 43
0.0
 43
0.0
 43
0.0208333333333333
 43
0.0
 43
0.0
 43
0.0
 43
0.0
 43
1.0
 43
0.0
 43
0.0
 43
0.0
 43
0.0
 43
1.0
 77
     0
 78
     2
 47
0.0208333333333333
 47
0.0
 47
0.0
 47
0.0
 47
0.0
 47
0.0208333333333333
 47
0.0
 47
0.0
 47
0.0
 47
0.0
 47
1.0
 47
0.0
 47
0.0
 47
0.0
 47
0.0
 47
1.0
171
     0
172
     2
 49
0.0208333333333333
 49
0.0
 49
0.0
 49
0.0
 49
0.0
 49
0.0208333333333333
 49
0.0
 49
0.0
 49
0.0
 49
0.0
 49
1.0
 49
0.0
 49
0.0
 49
0.0
 49
0.0
 49
1.0
175
     0
176
     2
142
0.0208333333333333
142
0.0
142
0.0
142
0.0
142
0.0
142
0.0208333333333333
142
0.0
142
0.0
142
0.0
142
0.0
142
1.0
142
0.0
142
0.0
142
0.0
142
0.0
142
1.0
179
     0
270
     2
144
0.0208333333333333
144
0.0
144
0.0
144
0.0
144
0.0
144
0.0208333333333333
144
0.0
144
0.0
144
0.0
144
0.0
144
1.0
144
0.0
144
0.0
144
0.0
144
0.0
144
1.0
274
     2
147
0.0208333333333333
147
0.0
147
0.0
147
0.0
147
0.0
147
0.0208333333333333
147
0.0
147
0.0
147
0.0
147
0.0
147
1.0
147
0.0
147
0.0
147
0.0
147
0.0
147
1.0
  0
ACAD_PROXY_OBJECT
  5
D9E8
102
{ACAD_REACTORS
330
D9E7
102
}
330
D9E7
100
AcDbZombieObject
 90
      499
 91
      511
 93
      610
310
40901902A4063FBFFFFFE000000000000002040AD7A3703D0AD73F4214DD185B99185C990000000000000104090141901A00000000000004100000000000000041025764000000000000300FC0
340
12
340
0
340
F
340
0
 94
        0
1001
ACAD_MLEADERVER
1070
     2
  0
MLINESTYLE
  5
1C
102
{ACAD_REACTORS
330
1B
102
}
330
1B
100
AcDbMlineStyle
  2
STANDARD
 70
     0
  3

 62
   256
 51
90.0
 52
90.0
 71
     2
 49
0.5
 62
   256
  6
BYLAYER
 49
-0.5
 62
   256
  6
BYLAYER
  0
ACAD_PROXY_OBJECT
  5
D9C6
102
{ACAD_REACTORS
330
D9C5
102
}
330
D9C5
100
AcDbZombieObject
 90
      499
 91
      510
 93
       41
310
903313A31580
  0
ACAD_PROXY_OBJECT
  5
D9C7
102
{ACAD_REACTORS
330
D9C5
102
}
330
D9C5
100
AcDbZombieObject
 90
      499
 91
      510
 93
      105
310
903313A324000000000000004000
  0
ACAD_PROXY_OBJECT
  5
D9C8
102
{ACAD_REACTORS
330
D9C5
102
}
330
D9C5
100
AcDbZombieObject
 90
      499
 91
      510
 93
      105
310
903313A344000000000000104000
  0
ACAD_PROXY_OBJECT
  5
D9C9
102
{ACAD_REACTORS
330
D9C5
102
}
330
D9C5
100
AcDbZombieObject
 90
      499
 91
      510
 93
      105
310
903313A354000000000000144000
  0
ACAD_PROXY_OBJECT
  5
D9CA
102
{ACAD_REACTORS
330
D9C5
102
}
330
D9C5
100
AcDbZombieObject
 90
      499
 91
      510
 93
      105
310
903313A384000000000000204000
  0
ACAD_PROXY_OBJECT
  5
D9CB
102
{ACAD_REACTORS
330
D9C5
102
}
330
D9C5
100
AcDbZombieObject
 90
      499
 91
      510
 93
      113
310
904313A31304000000000000244000
  0
ACAD_PROXY_OBJECT
  5
D9CC
102
{ACAD_REACTORS
330
D9C5
102
}
330
D9C5
100
AcDbZombieObject
 90
      499
 91
      510
 93
      113
310
904313A31364000000000000304000
  0
ACAD_PROXY_OBJECT
  5
D9CD
102
{ACAD_REACTORS
330
D9C5
102
}
330
D9C5
100
AcDbZombieObject
 90
      499
 91
      510
 93
      113
310
904313A32304000000000000344000
  0
ACAD_PROXY_OBJECT
  5
D9CE
102
{ACAD_REACTORS
330
D9C5
102
}
330
D9C5
100
AcDbZombieObject
 90
      499
 91
      510
 93
      113
310
904313A333040000000000003E4000
  0
ACAD_PROXY_OBJECT
  5
D9CF
102
{ACAD_REACTORS
330
D9C5
102
}
330
D9C5
100
AcDbZombieObject
 90
      499
 91
      510
 93
      113
310
904313A34304000000000000444000
  0
ACAD_PROXY_OBJECT
  5
D9D0
102
{ACAD_REACTORS
330
D9C5
102
}
330
D9C5
100
AcDbZombieObject
 90
      499
 91
      510
 93
      113
310
904313A35304000000000000494000
  0
ACAD_PROXY_OBJECT
  5
D9D1
102
{ACAD_REACTORS
330
D9C5
102
}
330
D9C5
100
AcDbZombieObject
 90
      499
 91
      510
 93
      121
310
905313A3130304000000000000594000
  0
ACAD_PROXY_OBJECT
  5
D9D2
102
{ACAD_REACTORS
330
D9C5
102
}
330
D9C5
100
AcDbZombieObject
 90
      499
 91
      510
 93
      105
310
903323A310000000000000010100
  0
ACAD_PROXY_OBJECT
  5
D9D3
102
{ACAD_REACTORS
330
D9C5
102
}
330
D9C5
100
AcDbZombieObject
 90
      499
 91
      510
 93
      105
310
903343A310000000000000410100
  0
ACAD_PROXY_OBJECT
  5
D9D4
102
{ACAD_REACTORS
330
D9C5
102
}
330
D9C5
100
AcDbZombieObject
 90
      499
 91
      510
 93
      105
310
903383A310000000000000810100
  0
ACAD_PROXY_OBJECT
  5
D9D5
102
{ACAD_REACTORS
330
D9C5
102
}
330
D9C5
100
AcDbZombieObject
 90
      499
 91
      510
 93
      113
310
90431303A310000000000000910100
  0
ACAD_PROXY_OBJECT
  5
D9D6
102
{ACAD_REACTORS
330
D9C5
102
}
330
D9C5
100
AcDbZombieObject
 90
      499
 91
      510
 93
      121
310
9053130303A310000000000001650100
  0
ACAD_PROXY_OBJECT
  5
D9D7
102
{ACAD_REACTORS
330
D9C5
102
}
330
D9C5
100
AcDbZombieObject
 90
      499
 91
      510
 93
      257
310
90E312F31323822203D2031272D3022000000000000200FC000000000000284000
  0
ACAD_PROXY_OBJECT
  5
D9D8
102
{ACAD_REACTORS
330
D9C5
102
}
330
D9C5
100
AcDbZombieObject
 90
      499
 91
      510
 93
      249
310
90D312F363422203D2031272D3022000000000000240FC000000000000284000
  0
ACAD_PROXY_OBJECT
  5
D9D9
102
{ACAD_REACTORS
330
D9C5
102
}
330
D9C5
100
AcDbZombieObject
 90
      499
 91
      510
 93
      249
310
90D312F333222203D2031272D3022000000000000280FC000000000000284000
  0
ACAD_PROXY_OBJECT
  5
D9DA
102
{ACAD_REACTORS
330
D9C5
102
}
330
D9C5
100
AcDbZombieObject
 90
      499
 91
      510
 93
      249
310
90D312F313622203D2031272D30220000000000002C0FC000000000000284000
  0
ACAD_PROXY_OBJECT
  5
D9DB
102
{ACAD_REACTORS
330
D9C5
102
}
330
D9C5
100
AcDbZombieObject
 90
      499
 91
      510
 93
      249
310
90D332F333222203D2031272D30220000000000002E0FC000000000000284000
  0
ACAD_PROXY_OBJECT
  5
D9DC
102
{ACAD_REACTORS
330
D9C5
102
}
330
D9C5
100
AcDbZombieObject
 90
      499
 91
      510
 93
      241
310
90C312F3822203D2031272D3022000000000000300FC000000000000284000
  0
ACAD_PROXY_OBJECT
  5
D9DD
102
{ACAD_REACTORS
330
D9C5
102
}
330
D9C5
100
AcDbZombieObject
 90
      499
 91
      510
 93
      249
310
90D332F313622203D2031272D3022000000000000320FC000000000000284000
  0
ACAD_PROXY_OBJECT
  5
D9DE
102
{ACAD_REACTORS
330
D9C5
102
}
330
D9C5
100
AcDbZombieObject
 90
      499
 91
      510
 93
      241
310
90C312F3422203D2031272D3022000000000000340FC000000000000284000
  0
ACAD_PROXY_OBJECT
  5
D9DF
102
{ACAD_REACTORS
330
D9C5
102
}
330
D9C5
100
AcDbZombieObject
 90
      499
 91
      510
 93
      241
310
90C332F3822203D2031272D3022000000000000360FC000000000000284000
  0
ACAD_PROXY_OBJECT
  5
D9E0
102
{ACAD_REACTORS
330
D9C5
102
}
330
D9C5
100
AcDbZombieObject
 90
      499
 91
      510
 93
      241
310
90C312F3222203D2031272D3022000000000000380FC000000000000284000
  0
ACAD_PROXY_OBJECT
  5
D9E1
102
{ACAD_REACTORS
330
D9C5
102
}
330
D9C5
100
AcDbZombieObject
 90
      499
 91
      510
 93
      241
310
90C332F3422203D2031272D30220000000000003A0FC000000000000284000
  0
ACAD_PROXY_OBJECT
  5
D9E2
102
{ACAD_REACTORS
330
D9C5
102
}
330
D9C5
100
AcDbZombieObject
 90
      499
 91
      510
 93
      161
310
90A3122203D2031272D30224000000000000284000
  0
ACAD_PROXY_OBJECT
  5
D9E3
102
{ACAD_REACTORS
330
D9C5
102
}
330
D9C5
100
AcDbZombieObject
 90
      499
 91
      510
 93
      257
310
90E312D312F3222203D2031272D30220000000000003E0FC000000000000284000
  0
ACAD_PROXY_OBJECT
  5
D9E4
102
{ACAD_REACTORS
330
D9C5
102
}
330
D9C5
100
AcDbZombieObject
 90
      499
 91
      510
 93
      225
310
90A3322203D2031272D302200000000000002100000000000000284000
  0
ACAD_PROXY_OBJECT
  5
D9E5
102
{ACAD_REACTORS
330
D9C5
102
}
330
D9C5
100
AcDbZombieObject
 90
      499
 91
      510
 93
      225
310
90A3622203D2031272D302200000000000006100000000000000284000
  0
ACAD_PROXY_OBJECT
  5
D9E6
102
{ACAD_REACTORS
330
D9C5
102
}
330
D9C5
100
AcDbZombieObject
 90
      499
 91
      510
 93
      249
310
90D31272D3022203D2031272D30220000000000000A100000000000000284000
  0
ACAD_PROXY_OBJECT
  5
D9BA
102
{ACAD_REACTORS
330
D9B4
102
}
330
D9B4
100
AcDbZombieObject
 90
      499
 91
      509
 93
      436
310
42CC9915DA5C99599C985B595049028333333333333E3BF0000000000000FB0107901411070040501600405405064090741402480A0340
1001
ACAD
1000
AcDbSavedByObjectVersion
1070
     0
  0
ACAD_PROXY_OBJECT
  5
D9BC
102
{ACAD_REACTORS
330
D9B4
102
}
330
D9B4
100
AcDbZombieObject
 90
      499
 91
      509
 93
      500
310
424CD108121A5919195B90640502408333333333333E3BF0000000000000FB01079024090700405020000000000001110200405405064090740C02480A0340
1001
ACAD
1000
AcDbSavedByObjectVersion
1070
     0
  0
ACAD_PROXY_OBJECT
  5
D9BB
102
{ACAD_REACTORS
330
D9B4
102
}
330
D9B4
100
AcDbZombieObject
 90
      499
 91
      509
 93
      436
310
42CCD915DA5C99599C985B595059028333333333333E3BF0000000000000FB0107901411070040501600405405064090741402480A0340
1001
ACAD
1000
AcDbSavedByObjectVersion
1070
     0
  0
ACAD_PROXY_OBJECT
  5
D9B9
102
{ACAD_REACTORS
330
D9B4
102
}
330
D9B4
100
AcDbZombieObject
 90
      499
 91
      509
 93
      388
310
4150985CDA58D07406404333333333333E3BF0000000000000FB0107A41107004050150841D405064090741402480A0350
1001
ACAD
1000
AcDbSavedByObjectVersion
1070
     0
  0
ACAD_PROXY_OBJECT
  5
D9C0
102
{ACAD_REACTORS
330
D9B4
102
}
330
D9B4
100
AcDbZombieObject
 90
      499
 91
      509
 93
      428
310
42109C9A59DA1D195B90C409028333333333333E3BF0000000000000FB010790141107004050150841D405064090741402480A029950
1001
ACAD
1000
AcDbSavedByObjectVersion
1070
     0
  0
ACAD_PROXY_OBJECT
  5
D9C4
102
{ACAD_REACTORS
330
D9B4
102
}
330
D9B4
100
AcDbZombieObject
 90
      499
 91
      509
 93
      452
310
42D0DBDB1BDC90DA185B99D95104090240C333333333333E3BF0000000000000FB0108901411070040501508421405064090741402480A0350
1001
ACAD
1000
AcDbSavedByObjectVersion
1070
     0
  0
ACAD_PROXY_OBJECT
  5
D9BD
102
{ACAD_REACTORS
330
D9B4
102
}
330
D9B4
100
AcDbZombieObject
 90
      499
 91
      509
 93
      500
310
4290DBDB98D95C1D1D585B10940D028333333333333E3BF0000000000000FB0107902409070040501000000000000111010841D405064090740C02480A0340
1001
ACAD
1000
AcDbSavedByObjectVersion
1070
     0
  0
ACAD_PROXY_OBJECT
  5
D9BF
102
{ACAD_REACTORS
330
D9B4
102
}
330
D9B4
100
AcDbZombieObject
 90
      499
 91
      509
 93
      412
310
40D11A5B50B409028333333333333E3BF0000000000000FB010790141107004050150841D405064090741402480A02677FFFFFD0
1001
ACAD
1000
AcDbSavedByObjectVersion
1070
     0
  0
ACAD_PROXY_OBJECT
  5
19C2F
102
{ACAD_REACTORS
330
D9B4
102
}
330
D9B4
100
AcDbZombieObject
 90
      499
 91
      509
 93
      452
310
43115919D950DBDB1BDC93D999916409028333333333333E3BF0000000000000FB010790141107004050150841D405064090741402480A0350
1001
ACAD
1000
AcDbSavedByObjectVersion
1070
     0
  0
ACAD_PROXY_OBJECT
  5
D9C3
102
{ACAD_REACTORS
330
D9B4
102
}
330
D9B4
100
AcDbZombieObject
 90
      499
 91
      509
 93
      444
310
42D19858D95C185D1D195C9B90F409028333333333333E3BF0000000000000FB010790141107004050150841D405064090741402480A0350
1001
ACAD
1000
AcDbSavedByObjectVersion
1070
     0
  0
ACAD_PROXY_OBJECT
  5
D9B5
102
{ACAD_REACTORS
330
D9B4
102
}
330
D9B4
100
AcDbZombieObject
 90
      499
 91
      509
 93
      388
310
41119B185D240901404333333333333E3BF0000000000000F9010740A41107004050150841D405064090741402480A1B50
1001
ACAD
1000
AcDbSavedByObjectVersion
1070
     0
  0
ACAD_PROXY_OBJECT
  5
D9B6
102
{ACAD_REACTORS
330
D9B4
102
}
330
D9B4
100
AcDbZombieObject
 90
      499
 91
      509
 93
      476
310
43519B185D15DA5D1A115919D95CD0140901404333333333333E3BF0000000000000F9010740901411070040501600405405064090741402480A1B50
1001
ACAD
1000
AcDbSavedByObjectVersion
1070
     0
  0
ACAD_PROXY_OBJECT
  5
D9B7
102
{ACAD_REACTORS
330
D9B4
102
}
330
D9B4
100
AcDbZombieObject
 90
      499
 91
      509
 93
      412
310
41D1DBDD5C985D5910240902404333333333333E3BF0000000000000F9010740A411070040501641D405064090741402480A1B50
1001
ACAD
1000
AcDbSavedByObjectVersion
1070
     0
  0
ACAD_PROXY_OBJECT
  5
D9B8
102
{ACAD_REACTORS
330
D9B4
102
}
330
D9B4
100
AcDbZombieObject
 90
      499
 91
      509
 93
      500
310
4411DBDD5C985D5915DA5D1A115919D95CD0340902404333333333333E3BF0000000000000F9010740901411070040501600405405064090741402480A1B50
1001
ACAD
1000
AcDbSavedByObjectVersion
1070
     0
  0
ACAD_PROXY_OBJECT
  5
19C7E
102
{ACAD_REACTORS
330
D9B4
102
}
330
D9B4
100
AcDbZombieObject
 90
      499
 91
      509
 93
      476
310
41921A5919195B90640502408333333333333E3BF0000000000000FB01079024090700405020000000000001110200405405064090740C02480A0340
1001
ACAD
1000
AcDbSavedByObjectVersion
1070
     0
  0
ACAD_PROXY_OBJECT
  5
19C2D
102
{ACAD_REACTORS
330
D9B4
102
}
330
D9B4
100
AcDbZombieObject
 90
      499
 91
      509
 93
      428
310
42529A5D1D195C93D999914409028333333333333E3BF0000000000000FB010790141107004050150A41D405064090741402480A0350
1001
ACAD
1000
AcDbSavedByObjectVersion
1070
     0
  0
ACAD_PROXY_OBJECT
  5
D9C2
102
{ACAD_REACTORS
330
D9B4
102
}
330
D9B4
100
AcDbZombieObject
 90
      499
 91
      509
 93
      444
310
42D31A5B995C185D1D195C9B90E409028333333333333E3BF0000000000000FB010790141107004050750841D405064090741402483A0350
1001
ACAD
1000
AcDbSavedByObjectVersion
1070
     0
  0
ACAD_PROXY_OBJECT
  5
19C84
102
{ACAD_REACTORS
330
D9B4
102
}
330
D9B4
100
AcDbZombieObject
 90
      499
 91
      509
 93
      484
310
42135BD9195B1A5B99D0A409028333333333333E3BF0000000000000F901074090290700405010000000000201990108421405064090741402480A1B40
1001
ACAD
1000
AcDbSavedByObjectVersion
1070
     0
  0
ACAD_PROXY_OBJECT
  5
19C2E
102
{ACAD_REACTORS
330
D9B4
102
}
330
D9B4
100
AcDbZombieObject
 90
      499
 91
      509
 93
      444
310
42D3DD995C9A185B99D3D999915409028333333333333E3BF0000000000000FB010790141107004050150941D405064090741402480A0350
1001
ACAD
1000
AcDbSavedByObjectVersion
1070
     0
  0
ACAD_PROXY_OBJECT
  5
D9BE
102
{ACAD_REACTORS
330
D9B4
102
}
330
D9B4
100
AcDbZombieObject
 90
      499
 91
      509
 93
      420
310
425499585B1A5CDD1A58D08409028333333333333E3BF0000000000000FB01079019070040501508421405064090741402480A1B40
1001
ACAD
1000
AcDbSavedByObjectVersion
1070
     0
  0
ACAD_PROXY_OBJECT
  5
19C83
102
{ACAD_REACTORS
330
D9B4
102
}
330
D9B4
100
AcDbZombieObject
 90
      499
 91
      509
 93
      420
310
4194DA1859195911B40902404333333333333E3BF0000000000000F9010740A41107004050150800405405064090840C02480A0B40
1001
ACAD
1000
AcDbSavedByObjectVersion
1070
     0
  0
ACAD_PROXY_OBJECT
  5
19C82
102
{ACAD_REACTORS
330
D9B4
102
}
330
D9B4
100
AcDbZombieObject
 90
      499
 91
      509
 93
      516
310
4454DA18591959081DDA5D1A08195919D95CD1A40902404333333333333E3BF0000000000000F901074090142907004050250800405405064090740C02480A0B40
1001
ACAD
1000
AcDbSavedByObjectVersion
1070
     0
  0
ACAD_PROXY_OBJECT
  5
19C7F
102
{ACAD_REACTORS
330
D9B4
102
}
330
D9B4
100
AcDbZombieObject
 90
      499
 91
      509
 93
      532
310
4394DA1859195CC81BD98811DC985E5174090240C333333333333E3BF0000000000000FB01079024090741D01000000000000111010841D405064090740C02480A0340
1001
ACAD
1000
AcDbSavedByObjectVersion
1070
     0
  0
ACAD_PROXY_OBJECT
  5
19C80
102
{ACAD_REACTORS
330
D9B4
102
}
330
D9B4
100
AcDbZombieObject
 90
      499
 91
      509
 93
      476
310
41D4DAD95D18DA1E51840502408333333333333E3BF0000000000000FB01079024090741D01000000000000111010B41D405064090741802480A0340
1001
ACAD
1000
AcDbSavedByObjectVersion
1070
     0
  0
ACAD_PROXY_OBJECT
  5
D9C1
102
{ACAD_REACTORS
330
D9B4
102
}
330
D9B4
100
AcDbZombieObject
 90
      499
 91
      509
 93
      412
310
41D51A1A58DAD95B90D409028333333333333E3BF0000000000000FB010790141107004050150C41D405064090741402480A0350
1001
ACAD
1000
AcDbSavedByObjectVersion
1070
     0
  0
ACAD_PROXY_OBJECT
  5
19C7D
102
{ACAD_REACTORS
330
D9B4
102
}
330
D9B4
100
AcDbZombieObject
 90
      499
 91
      509
 93
      420
310
4255DA5C99599C985B595059028333333333333E3BF0000000000000FB0107901411070040501600405405064090740C02480A0340
1001
ACAD
1000
AcDbSavedByObjectVersion
1070
     0
  0
ACAD_PROXY_OBJECT
  5
19C81
102
{ACAD_REACTORS
330
D9B4
102
}
330
D9B4
100
AcDbZombieObject
 90
      499
 91
      509
 93
      404
310
41560B54985E51940902404000000000000E03F0000000000000FB010740501907004050150841D405064090740C02480A1B40
1001
ACAD
1000
AcDbSavedByObjectVersion
1070
     0
  0
XRECORD
  5
1B0DE
102
{ACAD_REACTORS
330
1B0DD
102
}
330
1B0DD
100
AcDbXrecord
340
18D
  0
XRECORD
  5
1B0DF
102
{ACAD_REACTORS
330
1B0DD
102
}
330
1B0DD
100
AcDbXrecord
340
18C
  0
DICTIONARYVAR
  5
1AF18
102
{ACAD_REACTORS
330
37
102
}
330
37
100
DictionaryVariables
280
     0
  1
1:1
  0
DICTIONARYVAR
  5
DA6A
102
{ACAD_REACTORS
330
37
102
}
330
37
100
DictionaryVariables
280
     0
  1
Standard
  0
DICTIONARYVAR
  5
29E
102
{ACAD_REACTORS
330
37
102
}
330
37
100
DictionaryVariables
280
     0
  1
Standard
  0
DICTIONARYVAR
  5
38
102
{ACAD_REACTORS
330
37
102
}
330
37
100
DictionaryVariables
280
     0
  1
-1
  0
DICTIONARYVAR
  5
1CE
102
{ACAD_REACTORS
330
37
102
}
330
37
100
DictionaryVariables
280
     0
  1
2
  0
DICTIONARYVAR
  5
704E
102
{ACAD_REACTORS
330
37
102
}
330
37
100
DictionaryVariables
280
     0
  1
1
  0
DICTIONARYVAR
  5
DA6D
102
{ACAD_REACTORS
330
37
102
}
330
37
100
DictionaryVariables
280
     0
  1
0
  0
DICTIONARYVAR
  5
7052
102
{ACAD_REACTORS
330
37
102
}
330
37
100
DictionaryVariables
280
     0
  1
8
  0
DICTIONARYVAR
  5
7051
102
{ACAD_REACTORS
330
37
102
}
330
37
100
DictionaryVariables
280
     0
  1
1
  0
DICTIONARYVAR
  5
1A60C
102
{ACAD_REACTORS
330
37
102
}
330
37
100
DictionaryVariables
280
     0
  1
0
  0
DICTIONARYVAR
  5
704F
102
{ACAD_REACTORS
330
37
102
}
330
37
100
DictionaryVariables
280
     0
  1
8
  0
DICTIONARYVAR
  5
7050
102
{ACAD_REACTORS
330
37
102
}
330
37
100
DictionaryVariables
280
     0
  1
2
  0
DICTIONARYVAR
  5
1CF
102
{ACAD_REACTORS
330
37
102
}
330
37
100
DictionaryVariables
280
     0
  1

  0
DICTIONARYVAR
  5
DA6C
102
{ACAD_REACTORS
330
37
102
}
330
37
100
DictionaryVariables
280
     0
  1
127
  0
DICTIONARYVAR
  5
1AEF4
102
{ACAD_REACTORS
330
37
102
}
330
37
100
DictionaryVariables
280
     0
  1
2
  0
DICTIONARY
  5
1B27B
330
D9A4
100
AcDbDictionary
  3
ACAD_XREC_ROUNDTRIP
360
1B27C
1001
ACAD
1000
TREAT_AS_HARD
1070
     1
  0
DICTIONARY
  5
1B27D
330
D99C
100
AcDbDictionary
  3
ACAD_XREC_ROUNDTRIP
360
1B27E
1001
ACAD
1000
TREAT_AS_HARD
1070
     1
  0
DICTIONARY
  5
1B27F
330
D9AC
100
AcDbDictionary
  3
ACAD_XREC_ROUNDTRIP
360
1B280
1001
ACAD
1000
TREAT_AS_HARD
1070
     1
  0
XRECORD
  5
1B27C
102
{ACAD_REACTORS
330
1B27B
102
}
330
1B27B
100
AcDbXrecord
102
MATERIAL
148
0.0
149
0.0
149
0.0
 93
        0
 94
      127
282
     0
 72
     0
 77
     0
171
     0
175
     0
179
     0
273
     0
  0
XRECORD
  5
1B27E
102
{ACAD_REACTORS
330
1B27D
102
}
330
1B27D
100
AcDbXrecord
102
MATERIAL
148
0.0
149
0.0
149
0.0
 93
        0
 94
      127
282
     0
 72
     0
 77
     0
171
     0
175
     0
179
     0
273
     0
  0
XRECORD
  5
1B280
102
{ACAD_REACTORS
330
1B27F
102
}
330
1B27F
100
AcDbXrecord
102
MATERIAL
148
0.0
149
0.0
149
0.0
 93
        0
 94
      127
282
     0
 72
     0
 77
     0
171
     0
175
     0
179
     0
273
     0
  0
ENDSEC
  0
EOF
