  0
SECTION
  2
HEADER
  9
$ACADVER
  1
AC1012
  9
$DWGCODEPAGE
  3
ansi_932
  9
$INSBASE
 10
0.0
 20
0.0
 30
0.0
  9
$EXTMIN
 10
2232.965727733316
 20
-745.8949673694609
 30
-0.0000000000562575
  9
$EXTMAX
 10
2859.265574530813
 20
-325.9948455606117
 30
0.0000000000562748
  9
$LIMMIN
 10
0.0
 20
0.0
  9
$LIMMAX
 10
420.0
 20
297.0
  9
$ORTHOMODE
 70
     0
  9
$REGENMODE
 70
     1
  9
$FILLMODE
 70
     1
  9
$QTEXTMODE
 70
     0
  9
$MIRRTEXT
 70
     0
  9
$DRAGMODE
 70
     2
  9
$LTSCALE
 40
0.5
  9
$OSMODE
 70
 16383
  9
$ATTMODE
 70
     1
  9
$TEXTSIZE
 40
4.0
  9
$TRACEWID
 40
1.0
  9
$TEXTSTYLE
  7
STANDARD
  9
$CLAYER
  8
1TEXT
  9
$CELTYPE
  6
BYLAYER
  9
$CECOLOR
 62
   256
  9
$CELTSCALE
 40
1.0
  9
$DELOBJ
 70
     1
  9
$DISPSILH
 70
     0
  9
$DIMSCALE
 40
1.0
  9
$DIMASZ
 40
2.0
  9
$DIMEXO
 40
0.0
  9
$DIMDLI
 40
7.0
  9
$DIMRND
 40
0.0
  9
$DIMDLE
 40
0.0
  9
$DIMEXE
 40
1.0
  9
$DIMTP
 40
0.0
  9
$DIMTM
 40
0.0
  9
$DIMTXT
 40
3.5
  9
$DIMCEN
 40
0.0
  9
$DIMTSZ
 40
0.0
  9
$DIMTOL
 70
     0
  9
$DIMLIM
 70
     0
  9
$DIMTIH
 70
     0
  9
$DIMTOH
 70
     0
  9
$DIMSE1
 70
     0
  9
$DIMSE2
 70
     0
  9
$DIMTAD
 70
     1
  9
$DIMZIN
 70
     8
  9
$DIMBLK
  1

  9
$DIMASO
 70
     1
  9
$DIMSHO
 70
     1
  9
$DIMPOST
  1
 
  9
$DIMAPOST
  1

  9
$DIMALT
 70
     0
  9
$DIMALTD
 70
     2
  9
$DIMALTF
 40
25.4
  9
$DIMLFAC
 40
1.0
  9
$DIMTOFL
 70
     1
  9
$DIMTVP
 40
0.0
  9
$DIMTIX
 70
     0
  9
$DIMSOXD
 70
     0
  9
$DIMSAH
 70
     1
  9
$DIMBLK1
  1
OPEN30
  9
$DIMBLK2
  1
OPEN30
  9
$DIMSTYLE
  2
NEWX10
  9
$DIMCLRD
 70
   256
  9
$DIMCLRE
 70
   256
  9
$DIMCLRT
 70
   201
  9
$DIMTFAC
 40
0.7
  9
$DIMGAP
 40
0.7
  9
$DIMJUST
 70
     0
  9
$DIMSD1
 70
     0
  9
$DIMSD2
 70
     0
  9
$DIMTOLJ
 70
     1
  9
$DIMTZIN
 70
     8
  9
$DIMALTZ
 70
     0
  9
$DIMALTTZ
 70
     0
  9
$DIMFIT
 70
     2
  9
$DIMUPT
 70
     0
  9
$DIMUNIT
 70
     2
  9
$DIMDEC
 70
     2
  9
$DIMTDEC
 70
     4
  9
$DIMALTU
 70
     2
  9
$DIMALTTD
 70
     2
  9
$DIMTXSTY
  7
STANDARD
  9
$DIMAUNIT
 70
     0
  9
$LUNITS
 70
     2
  9
$LUPREC
 70
     4
  9
$SKETCHINC
 40
1.0
  9
$FILLETRAD
 40
0.0
  9
$AUNITS
 70
     0
  9
$AUPREC
 70
     2
  9
$MENU
  1
acad
  9
$ELEVATION
 40
0.0
  9
$PELEVATION
 40
0.0
  9
$THICKNESS
 40
0.0
  9
$LIMCHECK
 70
     0
  9
$CHAMFERA
 40
10.0
  9
$CHAMFERB
 40
10.0
  9
$CHAMFERC
 40
20.0
  9
$CHAMFERD
 40
0.0
  9
$SKPOLY
 70
     0
  9
$TDCREATE
 40
2451318.621352917
  9
$TDUPDATE
 40
2458449.464838276
  9
$TDINDWG
 40
1.5743506829
  9
$TDUSRTIMER
 40
1.5743506829
  9
$USRTIMER
 70
     1
  9
$ANGBASE
 50
0.0
  9
$ANGDIR
 70
     0
  9
$PDMODE
 70
     0
  9
$PDSIZE
 40
0.0
  9
$PLINEWID
 40
0.0
  9
$COORDS
 70
     2
  9
$SPLFRAME
 70
     0
  9
$SPLINETYPE
 70
     6
  9
$SPLINESEGS
 70
     8
  9
$ATTDIA
 70
     0
  9
$ATTREQ
 70
     1
  9
$HANDLING
 70
     1
  9
$HANDSEED
  5
1BB33
  9
$SURFTAB1
 70
     6
  9
$SURFTAB2
 70
     6
  9
$SURFTYPE
 70
     6
  9
$SURFU
 70
     6
  9
$SURFV
 70
     6
  9
$UCSNAME
  2

  9
$UCSORG
 10
0.0
 20
0.0
 30
0.0
  9
$UCSXDIR
 10
1.0
 20
0.0
 30
0.0
  9
$UCSYDIR
 10
0.0
 20
1.0
 30
0.0
  9
$PUCSNAME
  2

  9
$PUCSORG
 10
0.0
 20
0.0
 30
0.0
  9
$PUCSXDIR
 10
1.0
 20
0.0
 30
0.0
  9
$PUCSYDIR
 10
0.0
 20
1.0
 30
0.0
  9
$USERI1
 70
     0
  9
$USERI2
 70
     0
  9
$USERI3
 70
     0
  9
$USERI4
 70
     0
  9
$USERI5
 70
     0
  9
$USERR1
 40
0.0
  9
$USERR2
 40
0.0
  9
$USERR3
 40
0.0
  9
$USERR4
 40
0.0
  9
$USERR5
 40
0.0
  9
$WORLDVIEW
 70
     1
  9
$SHADEDGE
 70
     3
  9
$SHADEDIF
 70
    70
  9
$TILEMODE
 70
     1
  9
$MAXACTVP
 70
    48
  9
$PINSBASE
 10
0.0
 20
0.0
 30
0.0
  9
$PLIMCHECK
 70
     0
  9
$PEXTMIN
 10
1.000000000000000E+20
 20
1.000000000000000E+20
 30
1.000000000000000E+20
  9
$PEXTMAX
 10
-1.000000000000000E+20
 20
-1.000000000000000E+20
 30
-1.000000000000000E+20
  9
$PLIMMIN
 10
0.0
 20
0.0
  9
$PLIMMAX
 10
420.0
 20
297.0
  9
$UNITMODE
 70
     0
  9
$VISRETAIN
 70
     1
  9
$PLINEGEN
 70
     0
  9
$PSLTSCALE
 70
     1
  9
$TREEDEPTH
 70
  3020
  9
$PICKSTYLE
 70
     0
  9
$CMLSTYLE
  2
STANDARD
  9
$CMLJUST
 70
     0
  9
$CMLSCALE
 40
20.0
  9
$SAVEIMAGES
 70
     1
  0
ENDSEC
  0
SECTION
  2
CLASSES
  0
CLASS
  1
DICTIONARYVAR
  2
AcDbDictionaryVar
  3
ObjectDBX Classes
 90
        0
280
     0
281
     0
  0
CLASS
  1
IDBUFFER
  2
AcDbIdBuffer
  3
ObjectDBX Classes
 90
    32768
280
     0
281
     0
  0
CLASS
  1
LWPOLYLINE
  2
AcDbPolyline
  3
ObjectDBX Classes
 90
    32768
280
     0
281
     1
  0
CLASS
  1
ACDBDICTIONARYWDFLT
  2
AcDbDictionaryWithDefault
  3
ObjectDBX Classes
 90
    32768
280
     0
281
     0
  0
CLASS
  1
ACDBPLACEHOLDER
  2
AcDbPlaceHolder
  3
ObjectDBX Classes
 90
        0
280
     0
281
     0
  0
CLASS
  1
LAYOUT
  2
AcDbLayout
  3
ObjectDBX Classes
 90
        0
280
     0
281
     0
  0
CLASS
  1
TABLESTYLE
  2
AcDbTableStyle
  3
ObjectDBX Classes
 90
     4095
280
     0
281
     0
  0
CLASS
  1
SORTENTSTABLE
  2
AcDbSortentsTable
  3
ObjectDBX Classes
 90
    32768
280
     0
281
     0
  0
CLASS
  1
MATERIAL
  2
AcDbMaterial
  3
ObjectDBX Classes
 90
     1153
280
     0
281
     0
  0
CLASS
  1
VISUALSTYLE
  2
AcDbVisualStyle
  3
ObjectDBX Classes
 90
     4095
280
     0
281
     0
  0
CLASS
  1
SCALE
  2
AcDbScale
  3
ObjectDBX Classes
 90
     1153
280
     0
281
     0
  0
CLASS
  1
MLEADERSTYLE
  2
AcDbMLeaderStyle
  3
ACDB_MLEADERSTYLE_CLASS
 90
     4095
280
     0
281
     0
  0
CLASS
  1
CELLSTYLEMAP
  2
AcDbCellStyleMap
  3
ObjectDBX Classes
 90
     1152
280
     0
281
     0
  0
CLASS
  1
SUN
  2
AcDbSun
  3
SCENEOE
 90
     1153
280
     0
281
     0
  0
CLASS
  1
AEC_REFEDIT_STATUS_TRACKER
  2
AecDbRefEditStatusTracker
  3
AecArchBase60|Product Desc: Autodesk Architectural Desktop 2007 |Company: Autodesk,Inc. |WEB Address: www.autodesk.com
 90
      129
280
     1
281
     0
  0
CLASS
  1
NPOCOLLECTION
  2
AcDbImpNonPersistentObjectsCollection
  3
ObjectDBX Classes
 90
     1153
280
     1
281
     0
  0
CLASS
  1
XRECORD
  2
AcDbXrecord
  3
ObjectDBX Classes
 90
    32768
280
     0
281
     0
  0
CLASS
  1
HATCH
  2
AcDbHatch
  3
ObjectDBX Classes
 90
    32768
280
     0
281
     1
  0
ENDSEC
  0
SECTION
  2
TABLES
  0
TABLE
  2
VPORT
  5
8
330
0
100
AcDbSymbolTable
 70
     1
  0
VPORT
  5
D991
330
8
100
AcDbSymbolTableRecord
100
AcDbViewportTableRecord
  2
*ACTIVE
 70
     0
 10
0.0
 20
0.0
 11
1.0
 21
1.0
 12
2546.115651132065
 22
-535.9449064650363
 13
0.0
 23
0.0
 14
10.0
 24
10.0
 15
10.0
 25
10.0
 16
0.0
 26
0.0
 36
1.0
 17
0.0
 27
0.0
 37
0.0
 40
450.8401307842382
 41
1.803066037735849
 42
50.0
 43
0.0
 44
0.0
 50
0.0
 51
0.0
 71
    16
 72
   100
 73
     1
 74
     1
 75
     0
 76
     0
 77
     0
 78
     0
  0
ENDTAB
  0
TABLE
  2
LTYPE
  5
5
330
0
100
AcDbSymbolTable
 70
     3
  0
LTYPE
  5
12
330
5
100
AcDbSymbolTableRecord
100
AcDbLinetypeTableRecord
  2
BYBLOCK
 70
     0
  3

 72
    65
 73
     0
 40
0.0
  0
LTYPE
  5
13
330
5
100
AcDbSymbolTableRecord
100
AcDbLinetypeTableRecord
  2
BYLAYER
 70
     0
  3

 72
    65
 73
     0
 40
0.0
  0
LTYPE
  5
14
330
5
100
AcDbSymbolTableRecord
100
AcDbLinetypeTableRecord
  2
CONTINUOUS
 70
     0
  3
Solid line
 72
    65
 73
     0
 40
0.0
  0
LTYPE
  5
2C03
330
5
100
AcDbSymbolTableRecord
100
AcDbLinetypeTableRecord
  2
HIDDEN
 70
     0
  3
Hidden __ __ __ __ __ __ __ __ __ __ __ __ __ _
 72
    65
 73
     2
 40
9.524999999999999
 49
6.35
 74
     0
 49
-3.175
 74
     0
  0
LTYPE
  5
13839
330
5
100
AcDbSymbolTableRecord
100
AcDbLinetypeTableRecord
  2
CENTER2
 70
     0
  3
Center (.5x) ___ _ ___ _ ___ _ ___ _ ___ _ ___
 72
    65
 73
     4
 40
28.575
 49
19.05
 74
     0
 49
-3.175
 74
     0
 49
3.175
 74
     0
 49
-3.175
 74
     0
  0
ENDTAB
  0
TABLE
  2
LAYER
  5
2
102
{ACAD_XDICTIONARY
360
E6A6
102
}
330
0
100
AcDbSymbolTable
 70
     6
  0
LAYER
  5
E
102
{ACAD_XDICTIONARY
360
DA05
102
}
330
2
100
AcDbSymbolTableRecord
100
AcDbLayerTableRecord
  2
0
 70
     0
 62
     7
  6
CONTINUOUS
  0
LAYER
  5
29
102
{ACAD_XDICTIONARY
360
DA07
102
}
330
2
100
AcDbSymbolTableRecord
100
AcDbLayerTableRecord
  2
1CENTER
 70
     0
 62
     7
  6
CENTER2
  0
LAYER
  5
31
102
{ACAD_XDICTIONARY
360
DA09
102
}
330
2
100
AcDbSymbolTableRecord
100
AcDbLayerTableRecord
  2
1TEXT
 70
     0
 62
     7
  6
CONTINUOUS
  0
LAYER
  5
243
102
{ACAD_XDICTIONARY
360
DA0F
102
}
330
2
100
AcDbSymbolTableRecord
100
AcDbLayerTableRecord
  2
01
 70
     0
 62
     1
  6
CONTINUOUS
  0
LAYER
  5
24E
102
{ACAD_XDICTIONARY
360
DA15
102
}
330
2
100
AcDbSymbolTableRecord
100
AcDbLayerTableRecord
  2
1DIM
 70
     0
 62
     7
  6
CONTINUOUS
  0
LAYER
  5
2C05
102
{ACAD_XDICTIONARY
360
DA23
102
}
330
2
100
AcDbSymbolTableRecord
100
AcDbLayerTableRecord
  2
1HIDDEN
 70
     0
 62
     7
  6
HIDDEN
  0
ENDTAB
  0
TABLE
  2
STYLE
  5
3
330
0
100
AcDbSymbolTable
 70
     1
  0
STYLE
  5
F
330
3
100
AcDbSymbolTableRecord
100
AcDbTextStyleTableRecord
  2
STANDARD
 70
     0
 40
0.0
 41
1.0
 50
0.0
 71
     0
 42
4.0
  3
txt.shx
  4
extfont.shx
  0
ENDTAB
  0
TABLE
  2
VIEW
  5
6
330
0
100
AcDbSymbolTable
 70
     0
  0
ENDTAB
  0
TABLE
  2
UCS
  5
7
330
0
100
AcDbSymbolTable
 70
     0
  0
ENDTAB
  0
TABLE
  2
APPID
  5
9
330
0
100
AcDbSymbolTable
 70
    13
  0
APPID
  5
10
330
9
100
AcDbSymbolTableRecord
100
AcDbRegAppTableRecord
  2
ACAD
 70
     0
  0
APPID
  5
21
330
9
100
AcDbSymbolTableRecord
100
AcDbRegAppTableRecord
  2
DRAWINGVARIABLESXDATA
 70
     0
  0
APPID
  5
64
330
9
100
AcDbSymbolTableRecord
100
AcDbRegAppTableRecord
  2
CONTENTTABDATA
 70
     0
  0
APPID
  5
65
330
9
100
AcDbSymbolTableRecord
100
AcDbRegAppTableRecord
  2
CONTENTCURRENTTAB
 70
     0
  0
APPID
  5
66
330
9
100
AcDbSymbolTableRecord
100
AcDbRegAppTableRecord
  2
CONTENTBLOCKDESCRIPTION
 70
     0
  0
APPID
  5
67
330
9
100
AcDbSymbolTableRecord
100
AcDbRegAppTableRecord
  2
CONTENTBLOCKICON
 70
     0
  0
APPID
  5
68
330
9
100
AcDbSymbolTableRecord
100
AcDbRegAppTableRecord
  2
CONTENTLONGBLOCKNAME
 70
     0
  0
APPID
  5
2AE
330
9
100
AcDbSymbolTableRecord
100
AcDbRegAppTableRecord
  2
ACAD_PSEXT
 70
     0
  0
APPID
  5
D9E9
330
9
100
AcDbSymbolTableRecord
100
AcDbRegAppTableRecord
  2
ACAD_MLEADERVER
 70
     0
  0
APPID
  5
19D01
330
9
100
AcDbSymbolTableRecord
100
AcDbRegAppTableRecord
  2
ACADANNOTATIVE
 70
     0
  0
APPID
  5
19D02
330
9
100
AcDbSymbolTableRecord
100
AcDbRegAppTableRecord
  2
ACDBBLOCKREPETAG
 70
     0
  0
APPID
  5
1A613
330
9
100
AcDbSymbolTableRecord
100
AcDbRegAppTableRecord
  2
ACAD_OBJECT_CHANGE_GUID
 70
     0
  0
APPID
  5
1A7EB
330
9
100
AcDbSymbolTableRecord
100
AcDbRegAppTableRecord
  2
ACAECLAYERSTANDARD
 70
     0
  0
ENDTAB
  0
TABLE
  2
DIMSTYLE
  5
A
330
0
100
AcDbSymbolTable
 70
     1
  0
DIMSTYLE
105
48
330
A
100
AcDbSymbolTableRecord
100
AcDbDimStyleTableRecord
  2
NEWX10
 70
     0
  3
 
  4

  5

  6
OPEN30
  7
OPEN30
 40
1.0
 41
2.0
 42
0.0
 43
7.0
 44
1.0
 45
0.0
 46
0.0
 47
0.0
 48
0.0
140
3.5
141
0.0
142
0.0
143
25.4
144
1.0
145
0.0
146
0.7
147
0.7
 71
     0
 72
     0
 73
     0
 74
     0
 75
     0
 76
     0
 77
     1
 78
     8
170
     0
171
     2
172
     1
173
     1
174
     0
175
     0
176
   256
177
   256
178
   201
179
     2
270
     2
271
     2
272
     4
273
     2
274
     2
340
F
275
     0
280
     0
281
     0
282
     0
283
     1
284
     8
285
     0
286
     0
287
     2
288
     0
  0
ENDTAB
  0
TABLE
  2
BLOCK_RECORD
  5
1
330
0
100
AcDbSymbolTable
 70
     8
  0
BLOCK_RECORD
  5
18
102
{ACAD_XDICTIONARY
360
88F
102
}
330
1
100
AcDbSymbolTableRecord
100
AcDbBlockTableRecord
  2
*MODEL_SPACE
  0
BLOCK_RECORD
  5
15
330
1
100
AcDbSymbolTableRecord
100
AcDbBlockTableRecord
  2
*PAPER_SPACE
  0
BLOCK_RECORD
  5
42
330
1
100
AcDbSymbolTableRecord
100
AcDbBlockTableRecord
  2
_OPEN30
  0
BLOCK_RECORD
  5
19D51
330
1
100
AcDbSymbolTableRecord
100
AcDbBlockTableRecord
  2
A3WAKUKAWAJUN2017_HYOUDAI_
  0
BLOCK_RECORD
  5
1B993
330
1
100
AcDbSymbolTableRecord
100
AcDbBlockTableRecord
  2
*X91
  0
BLOCK_RECORD
  5
1B9E1
330
1
100
AcDbSymbolTableRecord
100
AcDbBlockTableRecord
  2
*X92
  0
BLOCK_RECORD
  5
1BA33
330
1
100
AcDbSymbolTableRecord
100
AcDbBlockTableRecord
  2
*X93
  0
BLOCK_RECORD
  5
1BA84
330
1
100
AcDbSymbolTableRecord
100
AcDbBlockTableRecord
  2
*X94
  0
BLOCK_RECORD
  5
1BAC1
330
1
100
AcDbSymbolTableRecord
100
AcDbBlockTableRecord
  2
*X95
  0
BLOCK_RECORD
  5
1BB01
330
1
100
AcDbSymbolTableRecord
100
AcDbBlockTableRecord
  2
*X96
  0
ENDTAB
  0
ENDSEC
  0
SECTION
  2
BLOCKS
  0
BLOCK
  5
19
330
18
100
AcDbEntity
  8
0
100
AcDbBlockBegin
  2
*MODEL_SPACE
 70
     0
 10
0.0
 20
0.0
 30
0.0
  3
*MODEL_SPACE
  1

  0
ENDBLK
  5
1A
330
18
100
AcDbEntity
  8
0
100
AcDbBlockEnd
  0
BLOCK
  5
16
330
15
100
AcDbEntity
 67
     1
  8
0
100
AcDbBlockBegin
  2
*PAPER_SPACE
 70
     0
 10
0.0
 20
0.0
 30
0.0
  3
*PAPER_SPACE
  1

  0
ENDBLK
  5
17
330
15
100
AcDbEntity
 67
     1
  8
0
100
AcDbBlockEnd
  0
BLOCK
  5
43
330
42
100
AcDbEntity
  8
0
100
AcDbBlockBegin
  2
_OPEN30
 70
     0
 10
0.0
 20
0.0
 30
0.0
  3
_OPEN30
  1

  0
LINE
  5
44
330
42
100
AcDbEntity
  8
0
  6
BYBLOCK
 62
     0
100
AcDbLine
 10
-1.0
 20
0.26794919
 30
0.0
 11
0.0
 21
0.0
 31
0.0
  0
LINE
  5
45
330
42
100
AcDbEntity
  8
0
  6
BYBLOCK
 62
     0
100
AcDbLine
 10
0.0
 20
0.0
 30
0.0
 11
-1.0
 21
-0.26794919
 31
0.0
  0
LINE
  5
46
330
42
100
AcDbEntity
  8
0
  6
BYBLOCK
 62
     0
100
AcDbLine
 10
0.0
 20
0.0
 30
0.0
 11
-1.0
 21
0.0
 31
0.0
  0
ENDBLK
  5
47
330
42
100
AcDbEntity
  8
0
100
AcDbBlockEnd
  0
BLOCK
  5
1A474
330
19D51
100
AcDbEntity
  8
0
100
AcDbBlockBegin
  2
A3WAKUKAWAJUN2017_HYOUDAI_
 70
     0
 10
0.0
 20
0.0
 30
0.0
  3
A3WAKUKAWAJUN2017_HYOUDAI_
  1

  0
LINE
  5
19D53
330
19D51
100
AcDbEntity
  8
0
100
AcDbLine
 10
13.26299999998673
 20
-0.0001000000000317
 30
0.0
 11
9.236999999990758
 21
8.999899999990987
 31
0.0
1001
ACAD
1000
ASC_BOUNDS
1002
{
1070
    19
1005
19D94
1002
}
  0
LINE
  5
19D54
330
19D51
100
AcDbEntity
  8
0
100
AcDbLine
 10
5.657999999994331
 20
0.9999999999989768
 30
0.0
 11
9.236999999990758
 21
8.999999999991019
 31
0.0
1001
ACAD
1000
ASC_BOUNDS
1002
{
1070
    19
1005
19D94
1002
}
  0
LINE
  5
19D55
330
19D51
100
AcDbEntity
  8
0
100
AcDbLine
 10
18.59199999998134
 20
-0.2368999999997641
 30
0.0
 11
16.46099999998353
 21
5.432899999994561
 31
0.0
1001
ACAD
1000
ASC_BOUNDS
1002
{
1070
    19
1005
19D95
1002
}
  0
LINE
  5
19D56
330
19D51
100
AcDbEntity
  8
0
100
AcDbLine
 10
18.59199999998134
 20
-0.2368999999997641
 30
0.0
 11
22.38199999997767
 21
8.763099999991255
 31
0.0
1001
ACAD
1000
ASC_BOUNDS
1002
{
1070
    19
1005
19D95
1002
}
  0
LINE
  5
19D57
330
19D51
100
AcDbEntity
  8
0
100
AcDbLine
 10
14.32899999998563
 20
-0.2368999999997641
 30
0.0
 11
16.46099999998353
 21
5.432899999994561
 31
0.0
1001
ACAD
1000
ASC_BOUNDS
1002
{
1070
    19
1005
19D95
1002
}
  0
LINE
  5
19D58
330
19D51
100
AcDbEntity
  8
0
100
AcDbLine
 10
14.32899999998563
 20
-0.2368999999997641
 30
0.0
 11
10.53899999998941
 21
8.763099999991255
 31
0.0
1001
ACAD
1000
ASC_BOUNDS
1002
{
1070
    19
1005
19D95
1002
}
  0
LINE
  5
19D59
330
19D51
100
AcDbEntity
  8
0
100
AcDbLine
 10
19.53899999998043
 20
-0.0001000000000317
 30
0.0
 11
23.56599999997638
 21
8.999899999990987
 31
0.0
1001
ACAD
1000
ASC_BOUNDS
1002
{
1070
    19
1005
19D96
1002
}
  0
LINE
  5
19D5A
330
19D51
100
AcDbEntity
  8
0
100
AcDbLine
 10
26.97358892824991
 20
1.383099999991202
 30
0.0
 11
23.56599999997638
 21
8.999899999990987
 31
0.0
1001
ACAD
1000
ASC_BOUNDS
1002
{
1070
    19
1005
19D96
1002
}
  0
LINE
  5
19D5B
330
19D51
100
AcDbEntity
  8
0
100
AcDbLine
 10
5.657999999994331
 20
0.9999999999989768
 30
0.0
 11
3.181999999996833
 21
4.668599999995308
 31
0.0
1001
ACAD
1000
ASC_BOUNDS
1002
{
1070
    19
1005
19D94
1002
}
  0
LINE
  5
19D5C
330
19D51
100
AcDbEntity
  8
0
100
AcDbLine
 10
4.617999999995391
 20
-0.0001000000000317
 30
0.0
 11
1.420999999998571
 21
4.736799999995242
 31
0.0
1001
ACAD
1000
ASC_BOUNDS
1002
{
1070
    19
1005
19D94
1002
}
  0
LINE
  5
19D5D
330
19D51
100
AcDbEntity
  8
0
100
AcDbLine
 10
1.420999999998571
 20
8.763099999991255
 30
0.0
 11
1.420999999998571
 21
0.0
 31
0.0
1001
ACAD
1000
ASC_BOUNDS
1002
{
1070
    19
1005
19D99
1002
}
  0
LINE
  5
19D5E
330
19D51
100
AcDbEntity
  8
0
100
AcDbLine
 10
0.0
 20
8.763099999991255
 30
0.0
 11
0.0
 21
0.0
 31
0.0
1001
ACAD
1000
ASC_BOUNDS
1002
{
1070
    19
1005
19D99
1002
}
  0
LINE
  5
19D5F
330
19D51
100
AcDbEntity
  8
0
100
AcDbLine
 10
6.766999999993232
 20
-0.0001000000000317
 30
0.0
 11
7.826999999992154
 21
2.368399999997621
 31
0.0
1001
ACAD
1000
ASC_BOUNDS
1002
{
1070
    19
1005
19D94
1002
}
  0
LINE
  5
19D60
330
19D51
100
AcDbEntity
  8
0
100
AcDbLine
 10
0.0
 20
0.0
 30
0.0
 11
1.420999999998571
 21
0.0
 31
0.0
1001
ACAD
1000
ASC_BOUNDS
1002
{
1070
    19
1005
19D99
1002
}
  0
LINE
  5
19D61
330
19D51
100
AcDbEntity
  8
0
100
AcDbLine
 10
4.617999999995391
 20
0.0
 30
0.0
 11
6.766999999993232
 21
0.0
 31
0.0
1001
ACAD
1000
ASC_BOUNDS
1002
{
1070
    19
1005
19D94
1002
}
  0
LINE
  5
19D62
330
19D51
100
AcDbEntity
  8
0
100
AcDbLine
 10
11.70599999998831
 20
-0.0001000000000317
 30
0.0
 11
10.64699999998936
 21
2.368399999997621
 31
0.0
1001
ACAD
1000
ASC_BOUNDS
1002
{
1070
    19
1005
19D94
1002
}
  0
LINE
  5
19D63
330
19D51
100
AcDbEntity
  8
0
100
AcDbLine
 10
7.826999999992154
 20
2.368399999997621
 30
0.0
 11
10.64699999998936
 21
2.368399999997621
 31
0.0
1001
ACAD
1000
ASC_BOUNDS
1002
{
1070
    19
1005
19D94
1002
}
  0
LINE
  5
19D64
330
19D51
100
AcDbEntity
  8
0
100
AcDbLine
 10
11.70599999998831
 20
0.0
 30
0.0
 11
13.26299999998673
 21
0.0
 31
0.0
1001
ACAD
1000
ASC_BOUNDS
1002
{
1070
    19
1005
19D94
1002
}
  0
LINE
  5
19D65
330
19D51
100
AcDbEntity
  8
0
100
AcDbLine
 10
22.15599999997789
 20
2.368399999997621
 30
0.0
 11
24.97599999997499
 21
2.368399999997621
 31
0.0
1001
ACAD
1000
ASC_BOUNDS
1002
{
1070
    19
1005
19D96
1002
}
  0
LINE
  5
19D66
330
19D51
100
AcDbEntity
  8
0
100
AcDbLine
 10
19.53899999998043
 20
0.0
 30
0.0
 11
21.09599999997886
 21
0.0
 31
0.0
1001
ACAD
1000
ASC_BOUNDS
1002
{
1070
    19
1005
19D96
1002
}
  0
LINE
  5
19D67
330
19D51
100
AcDbEntity
  8
0
100
AcDbLine
 10
21.09599999997886
 20
-0.0001000000000317
 30
0.0
 11
22.15599999997789
 21
2.368399999997621
 31
0.0
1001
ACAD
1000
ASC_BOUNDS
1002
{
1070
    19
1005
19D96
1002
}
  0
LINE
  5
19D68
330
19D51
100
AcDbEntity
  8
0
100
AcDbLine
 10
26.02015566812236
 20
0.0330999999912365
 30
0.0
 11
24.97599999997499
 21
2.368399999997621
 31
0.0
1001
ACAD
1000
ASC_BOUNDS
1002
{
1070
    19
1005
19D96
1002
}
  0
LINE
  5
19D69
330
19D51
100
AcDbEntity
  8
0
100
AcDbLine
 10
14.32399999998563
 20
3.315799999996671
 30
0.0
 11
16.46099999998353
 21
8.999899999990987
 31
0.0
1001
ACAD
1000
ASC_BOUNDS
1002
{
1070
    19
1005
19D95
1002
}
  0
LINE
  5
19D6A
330
19D51
100
AcDbEntity
  8
0
100
AcDbLine
 10
6.432999999993513
 20
8.763099999991255
 30
0.0
 11
3.181999999996833
 21
4.668599999995308
 31
0.0
1001
ACAD
1000
ASC_BOUNDS
1002
{
1070
    19
1005
19D94
1002
}
  0
LINE
  5
19D6B
330
19D51
100
AcDbEntity
  8
0
100
AcDbLine
 10
4.617999999995391
 20
8.763099999991255
 30
0.0
 11
1.420999999998571
 21
4.736799999995242
 31
0.0
1001
ACAD
1000
ASC_BOUNDS
1002
{
1070
    19
1005
19D94
1002
}
  0
LINE
  5
19D6C
330
19D51
100
AcDbEntity
  8
0
100
AcDbLine
 10
0.0
 20
8.763099999991255
 30
0.0
 11
1.420999999998571
 21
8.763099999991255
 31
0.0
1001
ACAD
1000
ASC_BOUNDS
1002
{
1070
    19
1005
19D99
1002
}
  0
LINE
  5
19D6D
330
19D51
100
AcDbEntity
  8
0
100
AcDbLine
 10
4.617999999995391
 20
8.763099999991255
 30
0.0
 11
6.432999999993513
 21
8.763099999991255
 31
0.0
1001
ACAD
1000
ASC_BOUNDS
1002
{
1070
    19
1005
19D94
1002
}
  0
LINE
  5
19D6E
330
19D51
100
AcDbEntity
  8
0
100
AcDbLine
 10
14.32399999998563
 20
3.315799999996671
 30
0.0
 11
12.02999999998792
 21
8.763099999991255
 31
0.0
1001
ACAD
1000
ASC_BOUNDS
1002
{
1070
    19
1005
19D95
1002
}
  0
LINE
  5
19D6F
330
19D51
100
AcDbEntity
  8
0
100
AcDbLine
 10
10.06399999998996
 20
3.670999999996297
 30
0.0
 11
9.236999999990758
 21
5.5200999999945
 31
0.0
1001
ACAD
1000
ASC_BOUNDS
1002
{
1070
    19
1005
19D94
1002
}
  0
LINE
  5
19D70
330
19D51
100
AcDbEntity
  8
0
100
AcDbLine
 10
8.409999999991555
 20
3.670999999996297
 30
0.0
 11
9.236999999990758
 21
5.5200999999945
 31
0.0
1001
ACAD
1000
ASC_BOUNDS
1002
{
1070
    19
1005
19D94
1002
}
  0
LINE
  5
19D71
330
19D51
100
AcDbEntity
  8
0
100
AcDbLine
 10
8.409999999991555
 20
3.670999999996297
 30
0.0
 11
10.06399999998996
 21
3.670999999996297
 31
0.0
1001
ACAD
1000
ASC_BOUNDS
1002
{
1070
    19
1005
19D94
1002
}
  0
LINE
  5
19D72
330
19D51
100
AcDbEntity
  8
0
100
AcDbLine
 10
10.53899999998941
 20
8.763099999991255
 30
0.0
 11
12.02999999998792
 21
8.763099999991255
 31
0.0
1001
ACAD
1000
ASC_BOUNDS
1002
{
1070
    19
1005
19D95
1002
}
  0
LINE
  5
19D73
330
19D51
100
AcDbEntity
  8
0
100
AcDbLine
 10
22.7389999999773
 20
3.670999999996297
 30
0.0
 11
23.56599999997638
 21
5.5200999999945
 31
0.0
1001
ACAD
1000
ASC_BOUNDS
1002
{
1070
    19
1005
19D96
1002
}
  0
LINE
  5
19D74
330
19D51
100
AcDbEntity
  8
0
100
AcDbLine
 10
22.7389999999773
 20
3.670999999996297
 30
0.0
 11
24.39299999997559
 21
3.670999999996297
 31
0.0
1001
ACAD
1000
ASC_BOUNDS
1002
{
1070
    19
1005
19D96
1002
}
  0
LINE
  5
19D75
330
19D51
100
AcDbEntity
  8
0
100
AcDbLine
 10
18.59799999998143
 20
3.315799999996671
 30
0.0
 11
20.89099999997916
 21
8.763099999991255
 31
0.0
1001
ACAD
1000
ASC_BOUNDS
1002
{
1070
    19
1005
19D95
1002
}
  0
LINE
  5
19D76
330
19D51
100
AcDbEntity
  8
0
100
AcDbLine
 10
18.59799999998143
 20
3.315799999996671
 30
0.0
 11
16.46099999998353
 21
8.999899999990987
 31
0.0
1001
ACAD
1000
ASC_BOUNDS
1002
{
1070
    19
1005
19D95
1002
}
  0
LINE
  5
19D77
330
19D51
100
AcDbEntity
  8
0
100
AcDbLine
 10
20.89099999997916
 20
8.763099999991255
 30
0.0
 11
22.38199999997767
 21
8.763099999991255
 31
0.0
1001
ACAD
1000
ASC_BOUNDS
1002
{
1070
    19
1005
19D95
1002
}
  0
LINE
  5
19D78
330
19D51
100
AcDbEntity
  8
0
100
AcDbLine
 10
24.39299999997559
 20
3.670999999996297
 30
0.0
 11
23.56599999997638
 21
5.5200999999945
 31
0.0
1001
ACAD
1000
ASC_BOUNDS
1002
{
1070
    19
1005
19D96
1002
}
  0
LINE
  5
19D79
330
19D51
100
AcDbEntity
  8
0
100
AcDbLine
 10
44.99999999995498
 20
-0.2368999999997641
 30
0.0
 11
40.02599999995994
 21
5.341799999994635
 31
0.0
1001
ACAD
1000
ASC_BOUNDS
1002
{
1070
    19
1005
19D98
1002
}
  0
LINE
  5
19D7A
330
19D51
100
AcDbEntity
  8
0
100
AcDbLine
 10
40.02599999995994
 20
5.341799999994635
 30
0.0
 11
40.02599999995994
 21
0.0
 31
0.0
1001
ACAD
1000
ASC_BOUNDS
1002
{
1070
    19
1005
19D98
1002
}
  0
LINE
  5
19D7B
330
19D51
100
AcDbEntity
  8
0
100
AcDbLine
 10
38.60499999996136
 20
8.999999999991019
 30
0.0
 11
38.60499999996136
 21
0.0
 31
0.0
1001
ACAD
1000
ASC_BOUNDS
1002
{
1070
    19
1005
19D98
1002
}
  0
LINE
  5
19D7C
330
19D51
100
AcDbEntity
  8
0
100
AcDbLine
 10
44.99999999995498
 20
8.763099999991255
 30
0.0
 11
44.99999999995498
 21
-0.2368999999997641
 31
0.0
1001
ACAD
1000
ASC_BOUNDS
1002
{
1070
    19
1005
19D98
1002
}
  0
LINE
  5
19D7D
330
19D51
100
AcDbEntity
  8
0
100
AcDbLine
 10
38.60499999996136
 20
0.0
 30
0.0
 11
40.02599999995994
 21
0.0
 31
0.0
1001
ACAD
1000
ASC_BOUNDS
1002
{
1070
    19
1005
19D98
1002
}
  0
LINE
  5
19D7E
330
19D51
100
AcDbEntity
  8
0
100
AcDbLine
 10
43.57899999995641
 20
3.421199999996588
 30
0.0
 11
38.60499999996136
 21
8.999899999990987
 31
0.0
1001
ACAD
1000
ASC_BOUNDS
1002
{
1070
    19
1005
19D98
1002
}
  0
LINE
  5
19D7F
330
19D51
100
AcDbEntity
  8
0
100
AcDbLine
 10
43.57899999995641
 20
8.763099999991255
 30
0.0
 11
43.57899999995641
 21
3.421199999996588
 31
0.0
1001
ACAD
1000
ASC_BOUNDS
1002
{
1070
    19
1005
19D98
1002
}
  0
LINE
  5
19D80
330
19D51
100
AcDbEntity
  8
0
100
AcDbLine
 10
43.57899999995641
 20
8.763099999991255
 30
0.0
 11
44.99999999995498
 21
8.763099999991255
 31
0.0
1001
ACAD
1000
ASC_BOUNDS
1002
{
1070
    19
1005
19D98
1002
}
  0
LINE
  5
19D81
330
19D51
100
AcDbEntity
  8
0
100
AcDbLine
 10
37.67199999996831
 20
8.763099999991255
 30
0.0
 11
36.23199999996837
 21
8.763099999991255
 31
0.0
  0
LINE
  5
19D82
330
19D51
100
AcDbEntity
  8
0
100
AcDbLine
 10
31.64199999996833
 20
8.763099999991255
 30
0.0
 11
31.64199999996833
 21
2.481619422925121
 31
0.0
  0
LINE
  5
19D83
330
19D51
100
AcDbEntity
  8
0
100
AcDbLine
 10
37.67199999996831
 20
8.763099999991255
 30
0.0
 11
37.67199999996831
 21
2.481619422925121
 31
0.0
  0
LINE
  5
19D84
330
19D51
100
AcDbEntity
  8
0
100
AcDbLine
 10
36.23199999996837
 20
8.763099999991255
 30
0.0
 11
36.23199999996837
 21
2.481619422925064
 31
0.0
  0
LINE
  5
19D85
330
19D51
100
AcDbEntity
  8
0
100
AcDbLine
 10
33.08199999996839
 20
8.763099999991255
 30
0.0
 11
33.08199999996839
 21
2.481619422925121
 31
0.0
  0
ARC
  5
19D86
330
19D51
100
AcDbEntity
  8
0
100
AcDbCircle
 10
34.65699999996832
 20
3.183099999991214
 30
0.0
 40
3.420000000000007
100
AcDbArc
 50
240.0000000000255
 51
299.9999999999766
  0
ARC
  5
19D87
330
19D51
100
AcDbEntity
  8
0
100
AcDbCircle
 10
34.65699999996832
 20
3.183099999991214
 30
0.0
 40
1.97999999999999
100
AcDbArc
 50
240.000000000026
 51
299.9999999999703
  0
LINE
  5
19D88
330
19D51
100
AcDbEntity
  8
0
100
AcDbLine
 10
33.08199999996828
 20
8.763099999991255
 30
0.0
 11
31.64199999996833
 21
8.763099999991255
 31
0.0
  0
ARC
  5
19D89
330
19D51
100
AcDbEntity
  8
0
100
AcDbCircle
 10
35.06199999996829
 20
2.481619422925064
 30
0.0
 40
1.17
100
AcDbArc
 50
299.9999999999699
 51
0.0
  0
ARC
  5
19D8A
330
19D51
100
AcDbEntity
  8
0
100
AcDbCircle
 10
34.25199999996835
 20
2.481619422925121
 30
0.0
 40
1.17
100
AcDbArc
 50
180.0
 51
240.0000000000238
  0
ARC
  5
19D8B
330
19D51
100
AcDbEntity
  8
0
100
AcDbCircle
 10
35.06199999996841
 20
2.481619422925121
 30
0.0
 40
2.61
100
AcDbArc
 50
299.9999999999756
 51
0.0
  0
ARC
  5
19D8C
330
19D51
100
AcDbEntity
  8
0
100
AcDbCircle
 10
34.25199999996835
 20
2.481619422925121
 30
0.0
 40
2.61
100
AcDbArc
 50
180.0
 51
240.0000000000244
  0
LINE
  5
19D8D
330
19D51
100
AcDbEntity
  8
0
100
AcDbLine
 10
29.30199999996933
 20
8.763099999991255
 30
0.0
 11
30.74199999996927
 21
8.763099999991255
 31
0.0
1001
ACAD
1000
ASC_BOUNDS
1002
{
1070
    19
1005
19D96
1002
}
  0
LINE
  5
19D8E
330
19D51
100
AcDbEntity
  8
0
100
AcDbLine
 10
30.74199999996927
 20
8.763099999991255
 30
0.0
 11
30.74199999996927
 21
2.373099999991211
 31
0.0
1001
ACAD
1000
ASC_BOUNDS
1002
{
1070
    19
1005
19D96
1002
}
  0
LINE
  5
19D8F
330
19D51
100
AcDbEntity
  8
0
100
AcDbLine
 10
26.02015566812236
 20
0.0330999999912365
 30
0.0
 11
28.40199999996923
 21
0.0330999999912365
 31
0.0
1001
ACAD
1000
ASC_BOUNDS
1002
{
1070
    19
1005
19D96
1002
}
  0
LINE
  5
19D90
330
19D51
100
AcDbEntity
  8
0
100
AcDbLine
 10
29.30199999996933
 20
8.763099999991255
 30
0.0
 11
29.30199999996933
 21
2.283099999991236
 31
0.0
1001
ACAD
1000
ASC_BOUNDS
1002
{
1070
    19
1005
19D96
1002
}
  0
LINE
  5
19D91
330
19D51
100
AcDbEntity
  8
0
100
AcDbLine
 10
26.97358892824991
 20
1.383099999991202
 30
0.0
 11
28.40199999996923
 21
1.383099999991202
 31
0.0
1001
ACAD
1000
ASC_BOUNDS
1002
{
1070
    19
1005
19D96
1002
}
  0
ARC
  5
19D92
330
19D51
100
AcDbEntity
  8
0
100
AcDbCircle
 10
28.40199999996923
 20
2.283099999991236
 30
0.0
 40
0.9
100
AcDbArc
 50
270.0
 51
0.0
1001
ACAD
1000
ASC_BOUNDS
1002
{
1070
    19
1005
19D96
1002
}
  0
ARC
  5
19D93
330
19D51
100
AcDbEntity
  8
0
100
AcDbCircle
 10
28.40199999996923
 20
2.373099999991211
 30
0.0
 40
2.34
100
AcDbArc
 50
270.0
 51
0.0
1001
ACAD
1000
ASC_BOUNDS
1002
{
1070
    19
1005
19D96
1002
}
  0
INSERT
  5
19D94
330
19D51
100
AcDbEntity
  8
0
100
AcDbBlockReference
  2
*X91
 10
0.0
 20
0.0
 30
0.0
1001
ACAD
1000
HATCH
1002
{
1070
    19
1000
ANSI37
1040
0.15
1040
0.0
1000
ASC_BOUNDS
1070
     2
1070
     2
1070
    12
1005
19D53
1005
19D54
1005
19D5B
1005
19D6A
1005
19D6D
1005
19D6B
1005
19D5C
1005
19D61
1005
19D5F
1005
19D63
1005
19D62
1005
19D64
1070
     2
1070
     3
1005
19D6F
1005
19D71
1005
19D70
1000
ASC_SEEDPOINT
1011
3.614004224891801
1021
2.996669441146025
1031
0.0
1000
R14_HATCH_DATA
1000
19D94
1011
1.0
1021
0.0
1031
0.0
1011
0.0
1021
1.0
1031
0.0
1011
0.0
1021
0.0
1031
1.0
1040
0.0
1010
0.0
1020
0.0
1030
1.0
1000
ANSI37
1070
     0
1070
     1
1071
        2
1071
        7
1070
     0
1070
     1
1071
       17
1040
13.26299999998673
1040
-0.0001000000000317
1040
9.236999999990758
1040
8.999899999990987
1040
9.236999999990758
1040
8.999999999991019
1040
5.657999999994331
1040
0.9999999999989768
1040
3.181999999996833
1040
4.668599999995308
1040
6.432999999993513
1040
8.763099999991255
1040
4.617999999995391
1040
8.763099999991255
1040
1.420999999998571
1040
4.736799999995242
1040
4.617999999995391
1040
-0.0001000000000317
1040
4.617999999995391
1040
0.0
1040
6.766999999993232
1040
0.0
1040
6.766999999993232
1040
-0.0001000000000317
1040
7.826999999992154
1040
2.368399999997621
1040
10.64699999998936
1040
2.368399999997621
1040
11.70599999998831
1040
-0.0001000000000317
1040
11.70599999998831
1040
0.0
1040
13.26299999998673
1040
0.0
1071
       12
1005
19D53
1005
19D54
1005
19D5B
1005
19D6A
1005
19D6D
1005
19D6B
1005
19D5C
1005
19D61
1005
19D5F
1005
19D63
1005
19D62
1005
19D64
1071
       22
1070
     0
1070
     1
1071
        3
1040
9.236999999990758
1040
5.5200999999945
1040
10.06399999998996
1040
3.670999999996297
1040
8.409999999991555
1040
3.670999999996297
1071
        3
1005
19D6F
1005
19D71
1005
19D70
1070
     0
1070
     1
1040
0.0
1040
0.15
1070
     0
1070
     2
1040
0.7853981633974483
1040
49.29960901727088
1040
-10.17736998311392
1040
-0.3367596045400932
1040
0.3367596045400932
1070
     0
1040
2.356194490192345
1040
49.29960901727088
1040
-10.17736998311392
1040
-0.3367596045400932
1040
-0.3367596045400932
1070
     0
1040
0.0110235143455945
1071
        2
1040
3.614004224891801
1040
2.996669441146025
1040
0.0
1040
3.614004224891801
1040
2.996669441146025
1040
0.0
1002
}
  0
INSERT
  5
19D95
330
19D51
100
AcDbEntity
  8
0
100
AcDbBlockReference
  2
*X92
 10
0.0
 20
0.0
 30
0.0
1001
ACAD
1000
HATCH
1002
{
1070
    19
1000
ANSI37
1040
0.15
1040
0.0
1000
ASC_BOUNDS
1070
     1
1070
     2
1070
    10
1005
19D55
1005
19D56
1005
19D77
1005
19D75
1005
19D76
1005
19D69
1005
19D6E
1005
19D72
1005
19D58
1005
19D57
1000
ASC_SEEDPOINT
1011
14.73245321214324
1021
2.798246178283421
1031
0.0
1000
R14_HATCH_DATA
1000
19D95
1011
1.0
1021
0.0
1031
0.0
1011
0.0
1021
1.0
1031
0.0
1011
0.0
1021
0.0
1031
1.0
1040
0.0
1010
0.0
1020
0.0
1030
1.0
1000
ANSI37
1070
     0
1070
     1
1071
        1
1071
        7
1070
     0
1070
     1
1071
       10
1040
16.46099999998353
1040
5.432899999994561
1040
18.59199999998134
1040
-0.2368999999997641
1040
22.38199999997767
1040
8.763099999991255
1040
20.89099999997916
1040
8.763099999991255
1040
18.59799999998143
1040
3.315799999996671
1040
16.46099999998353
1040
8.999899999990987
1040
14.32399999998563
1040
3.315799999996671
1040
12.02999999998792
1040
8.763099999991255
1040
10.53899999998941
1040
8.763099999991255
1040
14.32899999998563
1040
-0.2368999999997641
1071
       10
1005
19D55
1005
19D56
1005
19D77
1005
19D75
1005
19D76
1005
19D69
1005
19D6E
1005
19D72
1005
19D58
1005
19D57
1070
     0
1070
     1
1040
0.0
1040
0.15
1070
     0
1070
     2
1040
0.7853981633974483
1040
49.29960901727088
1040
-10.17736998311392
1040
-0.3367596045400932
1040
0.3367596045400932
1070
     0
1040
2.356194490192345
1040
49.29960901727088
1040
-10.17736998311392
1040
-0.3367596045400932
1040
-0.3367596045400932
1070
     0
1040
0.0110235143455945
1071
        1
1040
14.73245321214324
1040
2.798246178283421
1040
0.0
1002
}
  0
INSERT
  5
19D96
330
19D51
100
AcDbEntity
  8
0
100
AcDbBlockReference
  2
*X93
 10
0.0
 20
0.0
 30
0.0
1001
ACAD
1000
HATCH
1002
{
1070
    19
1000
ANSI37
1040
0.15
1040
0.0
1000
ASC_BOUNDS
1070
     2
1070
     2
1070
    13
1005
19D59
1005
19D66
1005
19D67
1005
19D65
1005
19D68
1005
19D8F
1005
19D93
1005
19D8E
1005
19D8D
1005
19D90
1005
19D92
1005
19D91
1005
19D5A
1070
     2
1070
     3
1005
19D73
1005
19D78
1005
19D74
1000
ASC_SEEDPOINT
1011
21.97929957367762
1021
3.294304244259308
1031
0.0
1000
R14_HATCH_DATA
1000
19D96
1011
1.0
1021
0.0
1031
0.0
1011
0.0
1021
1.0
1031
0.0
1011
0.0
1021
0.0
1031
1.0
1040
0.0
1010
0.0
1020
0.0
1030
1.0
1000
ANSI37
1070
     0
1070
     1
1071
        2
1071
        7
1070
     1
1070
     1
1071
       15
1040
23.56599999997638
1040
8.999899999990987
1040
0.0
1040
19.53899999998043
1040
-0.0001000000000317
1040
0.0
1040
19.53899999998043
1040
0.0
1040
0.0
1040
21.09599999997886
1040
0.0
1040
0.0
1040
21.09599999997886
1040
-0.0001000000000317
1040
0.0
1040
22.15599999997789
1040
2.368399999997621
1040
0.0
1040
24.97599999997499
1040
2.368399999997621
1040
0.0
1040
26.02015566812236
1040
0.0330999999912365
1040
0.0
1040
28.40199999996923
1040
0.0330999999912365
1040
0.414213562373095
1040
30.74199999996923
1040
2.373099999991211
1040
0.0
1040
30.74199999996927
1040
8.763099999991255
1040
0.0
1040
29.30199999996933
1040
8.763099999991255
1040
0.0
1040
29.30199999996933
1040
2.283099999991236
1040
-0.414213562373095
1040
28.40199999996923
1040
1.383099999991237
1040
0.0
1040
26.97358892824991
1040
1.383099999991202
1040
0.0
1071
       13
1005
19D59
1005
19D66
1005
19D67
1005
19D65
1005
19D68
1005
19D8F
1005
19D93
1005
19D8E
1005
19D8D
1005
19D90
1005
19D92
1005
19D91
1005
19D5A
1071
       22
1070
     0
1070
     1
1071
        3
1040
22.7389999999773
1040
3.670999999996297
1040
23.56599999997638
1040
5.5200999999945
1040
24.39299999997559
1040
3.670999999996297
1071
        3
1005
19D73
1005
19D78
1005
19D74
1070
     0
1070
     1
1040
0.0
1040
0.15
1070
     0
1070
     2
1040
0.7853981633974483
1040
49.29960901727088
1040
-10.17736998311392
1040
-0.3367596045400932
1040
0.3367596045400932
1070
     0
1040
2.356194490192345
1040
49.29960901727088
1040
-10.17736998311392
1040
-0.3367596045400932
1040
-0.3367596045400932
1070
     0
1040
0.0110235143455945
1071
        2
1040
21.97929957367762
1040
3.294304244259308
1040
0.0
1040
21.97929957367762
1040
3.294304244259308
1040
0.0
1002
}
  0
INSERT
  5
19D97
330
19D51
100
AcDbEntity
  8
0
100
AcDbBlockReference
  2
*X94
 10
0.0
 20
0.0
 30
0.0
1001
ACAD
1000
HATCH
1002
{
1070
    19
1000
ANSI37
1040
0.15
1040
0.0
1000
R14_HATCH_DATA
1000
19D97
1011
1.0
1021
0.0
1031
0.0
1011
0.0
1021
1.0
1031
0.0
1011
0.0
1021
0.0
1031
1.0
1040
0.0
1010
0.0
1020
0.0
1030
1.0
1000
ANSI37
1070
     0
1070
     1
1071
        1
1071
        7
1070
     1
1070
     1
1071
       12
1040
31.64199999996833
1040
2.481619422925121
1040
0.2679491924310942
1040
32.94699999997067
1040
0.2212931190493919
1040
0.2679491924301353
1040
36.36699999995983
1040
0.2212931190459813
1040
0.2679491924321411
1040
37.67199999996831
1040
2.481619422928361
1040
0.0
1040
37.67199999996831
1040
8.763099999991255
1040
0.0
1040
36.23199999996837
1040
8.763099999991255
1040
0.0
1040
36.23199999996837
1040
2.481619422925064
1040
-0.2679491924310291
1040
35.64699999996708
1040
1.468369700498386
1040
-0.267949192430519
1040
33.66699999997093
1040
1.468369700497703
1040
-0.267949192431809
1040
33.08199999996839
1040
2.481619422926997
1040
0.0
1040
33.08199999996839
1040
8.763099999991255
1040
0.0
1040
31.64199999996833
1040
8.763099999991255
1040
0.0
1071
        0
1070
     0
1070
     1
1040
0.0
1040
0.15
1070
     0
1070
     2
1040
0.7853981633974483
1040
49.29960901727088
1040
-10.17736998311392
1040
-0.3367596045400932
1040
0.3367596045400932
1070
     0
1040
2.356194490192345
1040
49.29960901727088
1040
-10.17736998311392
1040
-0.3367596045400932
1040
-0.3367596045400932
1070
     0
1040
0.0110235143455945
1071
        1
1040
32.30357378967278
1040
3.988785755459219
1040
0.0
1002
}
  0
INSERT
  5
19D98
330
19D51
100
AcDbEntity
  8
0
100
AcDbBlockReference
  2
*X95
 10
0.0
 20
0.0
 30
0.0
1001
ACAD
1000
HATCH
1002
{
1070
    19
1000
ANSI37
1040
0.15
1040
0.0
1000
ASC_BOUNDS
1070
     1
1070
     2
1070
     8
1005
19D79
1005
19D7C
1005
19D80
1005
19D7F
1005
19D7E
1005
19D7B
1005
19D7D
1005
19D7A
1000
ASC_SEEDPOINT
1011
39.74896370716704
1021
4.484843821435049
1031
0.0
1000
R14_HATCH_DATA
1000
19D98
1011
1.0
1021
0.0
1031
0.0
1011
0.0
1021
1.0
1031
0.0
1011
0.0
1021
0.0
1031
1.0
1040
0.0
1010
0.0
1020
0.0
1030
1.0
1000
ANSI37
1070
     0
1070
     1
1071
        1
1071
        7
1070
     0
1070
     1
1071
        9
1040
40.02599999995994
1040
5.341799999994635
1040
44.99999999995498
1040
-0.2368999999997641
1040
44.99999999995498
1040
8.763099999991255
1040
43.57899999995641
1040
8.763099999991255
1040
43.57899999995641
1040
3.421199999996588
1040
38.60499999996136
1040
8.999899999990987
1040
38.60499999996136
1040
8.999999999991019
1040
38.60499999996136
1040
0.0
1040
40.02599999995994
1040
0.0
1071
        8
1005
19D79
1005
19D7C
1005
19D80
1005
19D7F
1005
19D7E
1005
19D7B
1005
19D7D
1005
19D7A
1070
     0
1070
     1
1040
0.0
1040
0.15
1070
     0
1070
     2
1040
0.7853981633974483
1040
49.29960901727088
1040
-10.17736998311392
1040
-0.3367596045400932
1040
0.3367596045400932
1070
     0
1040
2.356194490192345
1040
49.29960901727088
1040
-10.17736998311392
1040
-0.3367596045400932
1040
-0.3367596045400932
1070
     0
1040
0.0110235143455945
1071
        1
1040
39.74896370716704
1040
4.484843821435049
1040
0.0
1002
}
  0
INSERT
  5
19D99
330
19D51
100
AcDbEntity
  8
0
100
AcDbBlockReference
  2
*X96
 10
0.0
 20
0.0
 30
0.0
1001
ACAD
1000
HATCH
1002
{
1070
    19
1000
ANSI37
1040
0.15
1040
0.0
1000
ASC_BOUNDS
1070
     1
1070
     2
1070
     4
1005
19D5D
1005
19D6C
1005
19D5E
1005
19D60
1000
ASC_SEEDPOINT
1011
1.079051535452663
1021
4.148538732891836
1031
0.0
1000
R14_HATCH_DATA
1000
19D99
1011
1.0
1021
0.0
1031
0.0
1011
0.0
1021
1.0
1031
0.0
1011
0.0
1021
0.0
1031
1.0
1040
0.0
1010
0.0
1020
0.0
1030
1.0
1000
ANSI37
1070
     0
1070
     1
1071
        1
1071
        7
1070
     0
1070
     1
1071
        4
1040
1.420999999998571
1040
0.0
1040
1.420999999998571
1040
8.763099999991255
1040
0.0
1040
8.763099999991255
1040
0.0
1040
0.0
1071
        4
1005
19D5D
1005
19D6C
1005
19D5E
1005
19D60
1070
     0
1070
     1
1040
0.0
1040
0.15
1070
     0
1070
     2
1040
0.7853981633974483
1040
49.29960901727088
1040
-10.17736998311392
1040
-0.3367596045400932
1040
0.3367596045400932
1070
     0
1040
2.356194490192345
1040
49.29960901727088
1040
-10.17736998311392
1040
-0.3367596045400932
1040
-0.3367596045400932
1070
     0
1040
0.0053004257112761
1071
        1
1040
1.079051535452663
1040
4.148538732891836
1040
0.0
1002
}
  0
ENDBLK
  5
1A475
330
19D51
100
AcDbEntity
  8
0
100
AcDbBlockEnd
  0
BLOCK
  5
1BB21
330
1B993
100
AcDbEntity
  8
0
100
AcDbBlockBegin
  2
*X91
 70
     1
 10
0.0
 20
0.0
 30
0.0
  3
*X91
  1

  0
LINE
  5
1B994
330
1B993
100
AcDbEntity
  8
0
  6
CONTINUOUS
100
AcDbLine
 10
3.418023043697893
 20
7.251849696850613
 30
0.0
 11
4.929273346838536
 21
8.763099999991255
 31
0.0
  0
LINE
  5
1B995
330
1B993
100
AcDbEntity
  8
0
  6
CONTINUOUS
100
AcDbLine
 10
1.483656411257782
 20
4.643963855330318
 30
0.0
 11
5.60279255591872
 21
8.763099999991255
 31
0.0
  0
LINE
  5
1B996
330
1B993
100
AcDbEntity
  8
0
  6
CONTINUOUS
100
AcDbLine
 10
1.755053947328235
 20
4.241842182320584
 30
0.0
 11
6.276311764998907
 21
8.763099999991255
 31
0.0
  0
LINE
  5
1B997
330
1B993
100
AcDbEntity
  8
0
  6
CONTINUOUS
100
AcDbLine
 10
2.026451483398688
 20
3.839720509310849
 30
0.0
 11
4.441040904851878
 21
6.254309930764039
 31
0.0
  0
LINE
  5
1B998
330
1B993
100
AcDbEntity
  8
0
  6
CONTINUOUS
100
AcDbLine
 10
2.297849019469139
 20
3.437598836301114
 30
0.0
 11
3.321765168359338
 21
4.461514985191313
 31
0.0
  0
LINE
  5
1B999
330
1B993
100
AcDbEntity
  8
0
  6
CONTINUOUS
100
AcDbLine
 10
2.569246555539591
 20
3.03547716329138
 30
0.0
 11
3.593163397972743
 21
4.059394005724531
 31
0.0
  0
LINE
  5
1B99A
330
1B993
100
AcDbEntity
  8
0
  6
CONTINUOUS
100
AcDbLine
 10
2.840644091610043
 20
2.633355490281646
 30
0.0
 11
3.864561627586149
 21
3.657273026257751
 31
0.0
  0
LINE
  5
1B99B
330
1B993
100
AcDbEntity
  8
0
  6
CONTINUOUS
100
AcDbLine
 10
3.112041627680496
 20
2.231233817271911
 30
0.0
 11
4.135959857199554
 21
3.25515204679097
 31
0.0
  0
LINE
  5
1B99C
330
1B993
100
AcDbEntity
  8
0
  6
CONTINUOUS
100
AcDbLine
 10
3.383439163750948
 20
1.829112144262177
 30
0.0
 11
4.40735808681296
 21
2.853031067324189
 31
0.0
  0
LINE
  5
1B99D
330
1B993
100
AcDbEntity
  8
0
  6
CONTINUOUS
100
AcDbLine
 10
3.654836699821399
 20
1.426990471252442
 30
0.0
 11
4.678756316426365
 21
2.450910087857407
 31
0.0
  0
LINE
  5
1B99E
330
1B993
100
AcDbEntity
  8
0
  6
CONTINUOUS
100
AcDbLine
 10
3.926234235891853
 20
1.024868798242709
 30
0.0
 11
4.95015454603977
 21
2.048789108390626
 31
0.0
  0
LINE
  5
1B99F
330
1B993
100
AcDbEntity
  8
0
  6
CONTINUOUS
100
AcDbLine
 10
4.197631771962304
 20
0.6227471252329737
 30
0.0
 11
5.221552775653176
 21
1.646668128923846
 31
0.0
  0
LINE
  5
1B9A0
330
1B993
100
AcDbEntity
  8
0
  6
CONTINUOUS
100
AcDbLine
 10
8.715877546767851
 20
7.835069736359266
 30
0.0
 11
9.435953450375058
 21
8.555145639966472
 31
0.0
  0
LINE
  5
1B9A1
330
1B993
100
AcDbEntity
  8
0
  6
CONTINUOUS
100
AcDbLine
 10
8.170620868422267
 20
6.616293848933497
 30
0.0
 11
9.644120833743461
 21
8.08979381425469
 31
0.0
  0
LINE
  5
1B9A2
330
1B993
100
AcDbEntity
  8
0
  6
CONTINUOUS
100
AcDbLine
 10
7.625364190076684
 20
5.397517961507727
 30
0.0
 11
9.852288217111864
 21
7.624441988542907
 31
0.0
  0
LINE
  5
1B9A3
330
1B993
100
AcDbEntity
  8
0
  6
CONTINUOUS
100
AcDbLine
 10
7.080107511731101
 20
4.178742074081957
 30
0.0
 11
10.06045560048027
 21
7.159090162831124
 31
0.0
  0
LINE
  5
1B9A4
330
1B993
100
AcDbEntity
  8
0
  6
CONTINUOUS
100
AcDbLine
 10
6.534850833385518
 20
2.959966186656187
 30
0.0
 11
10.26862298384867
 21
6.693738337119342
 31
0.0
  0
LINE
  5
1B9A5
330
1B993
100
AcDbEntity
  8
0
  6
CONTINUOUS
100
AcDbLine
 10
4.469029308032756
 20
0.2206254522232385
 30
0.0
 11
5.492951005266582
 21
1.244547149457064
 31
0.0
  0
LINE
  5
1B9A6
330
1B993
100
AcDbEntity
  8
0
  6
CONTINUOUS
100
AcDbLine
 10
5.989594155039935
 20
1.741190299230417
 30
0.0
 11
8.806950407233131
 21
4.558546551423613
 31
0.0
  0
LINE
  5
1B9A7
330
1B993
100
AcDbEntity
  8
0
  6
CONTINUOUS
100
AcDbLine
 10
9.401251593263643
 20
5.152847737454126
 30
0.0
 11
10.47679036721708
 21
6.228386511407559
 31
0.0
  0
LINE
  5
1B9A8
330
1B993
100
AcDbEntity
  8
0
  6
CONTINUOUS
100
AcDbLine
 10
4.921837203428691
 20
-0.0000858614610131
 30
0.0
 11
8.592923064886001
 21
3.670999999996297
 31
0.0
  0
LINE
  5
1B9A9
330
1B993
100
AcDbEntity
  8
0
  6
CONTINUOUS
100
AcDbLine
 10
9.609390446785305
 20
4.6874673818956
 30
0.0
 11
10.68495775058548
 21
5.763034685695775
 31
0.0
  0
LINE
  5
1B9AA
330
1B993
100
AcDbEntity
  8
0
  6
CONTINUOUS
100
AcDbLine
 10
5.595387755019432
 20
-0.0000545189504582
 30
0.0
 11
7.716137258923768
 21
2.120694984953879
 31
0.0
  0
LINE
  5
1B9AB
330
1B993
100
AcDbEntity
  8
0
  6
CONTINUOUS
100
AcDbLine
 10
6.268938306610172
 20
-0.000023176439905
 30
0.0
 11
7.170485805526503
 21
0.9015243224764267
 31
0.0
  0
LINE
  5
1B9AC
330
1B993
100
AcDbEntity
  8
0
  6
CONTINUOUS
100
AcDbLine
 10
7.963842273967511
 20
2.368399999997621
 30
0.0
 11
9.266442273966188
 21
3.670999999996297
 31
0.0
  0
LINE
  5
1B9AD
330
1B993
100
AcDbEntity
  8
0
  6
CONTINUOUS
100
AcDbLine
 10
8.637361483047696
 20
2.368399999997621
 30
0.0
 11
9.939961483046375
 21
3.670999999996297
 31
0.0
  0
LINE
  5
1B9AE
330
1B993
100
AcDbEntity
  8
0
  6
CONTINUOUS
100
AcDbLine
 10
9.817529300306965
 20
4.222087026337075
 30
0.0
 11
10.89312513395388
 21
5.297682859983993
 31
0.0
  0
LINE
  5
1B9AF
330
1B993
100
AcDbEntity
  8
0
  6
CONTINUOUS
100
AcDbLine
 10
10.02566815382863
 20
3.756706670778549
 30
0.0
 11
11.10129251732229
 21
4.832331034272211
 31
0.0
  0
LINE
  5
1B9B0
330
1B993
100
AcDbEntity
  8
0
  6
CONTINUOUS
100
AcDbLine
 10
9.310880692127883
 20
2.368399999997621
 30
0.0
 11
11.30945990069069
 21
4.366979208560428
 31
0.0
  0
LINE
  5
1B9B1
330
1B993
100
AcDbEntity
  8
0
  6
CONTINUOUS
100
AcDbLine
 10
9.98439990120807
 20
2.36839999999762
 30
0.0
 11
11.5176272840591
 21
3.901627382848645
 31
0.0
  0
LINE
  5
1B9B2
330
1B993
100
AcDbEntity
  8
0
  6
CONTINUOUS
100
AcDbLine
 10
10.65037369446246
 20
2.36085458417182
 30
0.0
 11
11.7257946674275
 21
3.436275557136862
 31
0.0
  0
LINE
  5
1B9B3
330
1B993
100
AcDbEntity
  8
0
  6
CONTINUOUS
100
AcDbLine
 10
10.85847197087848
 20
1.895433651507656
 30
0.0
 11
11.9339620507959
 21
2.97092373142508
 31
0.0
  0
LINE
  5
1B9B4
330
1B993
100
AcDbEntity
  8
0
  6
CONTINUOUS
100
AcDbLine
 10
11.0665702472945
 20
1.430012718843491
 30
0.0
 11
12.14212943416431
 21
2.505571905713296
 31
0.0
  0
LINE
  5
1B9B5
330
1B993
100
AcDbEntity
  8
0
  6
CONTINUOUS
100
AcDbLine
 10
11.27466852371052
 20
0.9645917861793256
 30
0.0
 11
12.35029681753271
 21
2.040220080001513
 31
0.0
  0
LINE
  5
1B9B6
330
1B993
100
AcDbEntity
  8
0
  6
CONTINUOUS
100
AcDbLine
 10
11.48276680012654
 20
0.4991708535151611
 30
0.0
 11
12.55846420090111
 21
1.57486825428973
 31
0.0
  0
LINE
  5
1B9B7
330
1B993
100
AcDbEntity
  8
0
  6
CONTINUOUS
100
AcDbLine
 10
11.69086507654257
 20
0.0337499208509957
 30
0.0
 11
12.76663158426952
 21
1.109516428577947
 31
0.0
  0
LINE
  5
1B9B8
330
1B993
100
AcDbEntity
  8
0
  6
CONTINUOUS
100
AcDbLine
 10
12.33057447873954
 20
-0.0000598860322123
 30
0.0
 11
12.97479896763792
 21
0.6441646028661663
 31
0.0
  0
LINE
  5
1B9B9
330
1B993
100
AcDbEntity
  8
0
  6
CONTINUOUS
100
AcDbLine
 10
13.00413694809395
 20
-0.0000166257579952
 30
0.0
 11
13.18296635100632
 21
0.1788127771543824
 31
0.0
  0
LINE
  5
1B9BA
330
1B993
100
AcDbEntity
  8
0
  6
CONTINUOUS
100
AcDbLine
 10
4.772852165289667
 20
-0.000092794222212
 30
0.0
 11
4.296495091028902
 21
0.4762642800385528
 31
0.0
  0
LINE
  5
1B9BB
330
1B993
100
AcDbEntity
  8
0
  6
CONTINUOUS
100
AcDbLine
 10
5.446340034776103
 20
-0.0000614546284616
 30
0.0
 11
2.898195908335625
 21
2.548082671812017
 31
0.0
  0
LINE
  5
1B9BC
330
1B993
100
AcDbEntity
  8
0
  6
CONTINUOUS
100
AcDbLine
 10
6.119827904262539
 20
-0.0000301150347113
 30
0.0
 11
1.499896725642348
 21
4.61990106358548
 31
0.0
  0
LINE
  5
1B9BD
330
1B993
100
AcDbEntity
  8
0
  6
CONTINUOUS
100
AcDbLine
 10
6.775136745476159
 20
0.0181802528318542
 30
0.0
 11
5.699826040202669
 21
1.093490958105344
 31
0.0
  0
LINE
  5
1B9BE
330
1B993
100
AcDbEntity
  8
0
  6
CONTINUOUS
100
AcDbLine
 10
6.983376846288489
 20
0.4834593610997118
 30
0.0
 11
5.908008617934405
 21
1.558827589453796
 31
0.0
  0
LINE
  5
1B9BF
330
1B993
100
AcDbEntity
  8
0
  6
CONTINUOUS
100
AcDbLine
 10
5.377063484962296
 20
1.416253513345719
 30
0.0
 11
1.702276957014131
 21
5.091040041293883
 31
0.0
  0
LINE
  5
1B9C0
330
1B993
100
AcDbEntity
  8
0
  6
CONTINUOUS
100
AcDbLine
 10
3.978745891735324
 20
3.488090315652877
 30
0.0
 11
2.000373521109399
 21
5.466462686278803
 31
0.0
  0
LINE
  5
1B9C1
330
1B993
100
AcDbEntity
  8
0
  6
CONTINUOUS
100
AcDbLine
 10
7.191616947100819
 20
0.948738469367568
 30
0.0
 11
6.11619119566614
 21
2.024164220802247
 31
0.0
  0
LINE
  5
1B9C2
330
1B993
100
AcDbEntity
  8
0
  6
CONTINUOUS
100
AcDbLine
 10
7.399857047913149
 20
1.414017577635424
 30
0.0
 11
6.324373773397875
 21
2.489500852150698
 31
0.0
  0
LINE
  5
1B9C3
330
1B993
100
AcDbEntity
  8
0
  6
CONTINUOUS
100
AcDbLine
 10
7.608097148725479
 20
1.879296685903281
 30
0.0
 11
6.53255635112961
 21
2.95483748349915
 31
0.0
  0
LINE
  5
1B9C4
330
1B993
100
AcDbEntity
  8
0
  6
CONTINUOUS
100
AcDbLine
 10
7.816337249537808
 20
2.344575794171138
 30
0.0
 11
6.740738928861345
 21
3.420174114847601
 31
0.0
  0
LINE
  5
1B9C5
330
1B993
100
AcDbEntity
  8
0
  6
CONTINUOUS
100
AcDbLine
 10
3.310241080789734
 20
4.830114335678653
 30
0.0
 11
2.298470085204666
 21
5.84188533126372
 31
0.0
  0
LINE
  5
1B9C6
330
1B993
100
AcDbEntity
  8
0
  6
CONTINUOUS
100
AcDbLine
 10
3.60832983563551
 20
5.205544789913063
 30
0.0
 11
2.596566649299935
 21
6.217307976248638
 31
0.0
  0
LINE
  5
1B9C7
330
1B993
100
AcDbEntity
  8
0
  6
CONTINUOUS
100
AcDbLine
 10
3.906418590481286
 20
5.580975244147473
 30
0.0
 11
2.894663213395203
 21
6.592730621233557
 31
0.0
  0
LINE
  5
1B9C8
330
1B993
100
AcDbEntity
  8
0
  6
CONTINUOUS
100
AcDbLine
 10
4.204507345327062
 20
5.956405698381884
 30
0.0
 11
3.192759777490472
 21
6.968153266218474
 31
0.0
  0
LINE
  5
1B9C9
330
1B993
100
AcDbEntity
  8
0
  6
CONTINUOUS
100
AcDbLine
 10
8.466032252791512
 20
2.368399999997621
 30
0.0
 11
6.948921506593081
 21
3.885510746196053
 31
0.0
  0
LINE
  5
1B9CA
330
1B993
100
AcDbEntity
  8
0
  6
CONTINUOUS
100
AcDbLine
 10
9.139551461871699
 20
2.36839999999762
 30
0.0
 11
7.157104084324816
 21
4.350847377544504
 31
0.0
  0
LINE
  5
1B9CB
330
1B993
100
AcDbEntity
  8
0
  6
CONTINUOUS
100
AcDbLine
 10
4.502596100172839
 20
6.331836152616295
 30
0.0
 11
3.49085634158574
 21
7.343575911203393
 31
0.0
  0
LINE
  5
1B9CC
330
1B993
100
AcDbEntity
  8
0
  6
CONTINUOUS
100
AcDbLine
 10
4.800684855018615
 20
6.707266606850705
 30
0.0
 11
3.788952905681008
 21
7.718998556188312
 31
0.0
  0
LINE
  5
1B9CD
330
1B993
100
AcDbEntity
  8
0
  6
CONTINUOUS
100
AcDbLine
 10
12.18154012887317
 20
-0.0000694579236642
 30
0.0
 11
11.32140332908496
 21
0.8600673418645499
 31
0.0
  0
LINE
  5
1B9CE
330
1B993
100
AcDbEntity
  8
0
  6
CONTINUOUS
100
AcDbLine
 10
12.85501608323566
 20
-0.0000262032059659
 30
0.0
 11
10.77672456435345
 21
2.078265315676246
 31
0.0
  0
LINE
  5
1B9CF
330
1B993
100
AcDbEntity
  8
0
  6
CONTINUOUS
100
AcDbLine
 10
9.813070670951886
 20
2.36839999999762
 30
0.0
 11
8.51047067095321
 21
3.670999999996297
 31
0.0
  0
LINE
  5
1B9D0
330
1B993
100
AcDbEntity
  8
0
  6
CONTINUOUS
100
AcDbLine
 10
10.48658988003207
 20
2.36839999999762
 30
0.0
 11
9.183989880033396
 21
3.670999999996297
 31
0.0
  0
LINE
  5
1B9D1
330
1B993
100
AcDbEntity
  8
0
  6
CONTINUOUS
100
AcDbLine
 10
8.441048632286794
 20
3.740422038662712
 30
0.0
 11
7.365286662056551
 21
4.816184008892956
 31
0.0
  0
LINE
  5
1B9D2
330
1B993
100
AcDbEntity
  8
0
  6
CONTINUOUS
100
AcDbLine
 10
8.649187485808454
 20
4.205802394221237
 30
0.0
 11
7.573469239788285
 21
5.281520640241407
 31
0.0
  0
LINE
  5
1B9D3
330
1B993
100
AcDbEntity
  8
0
  6
CONTINUOUS
100
AcDbLine
 10
5.098773609864391
 20
7.082697061085115
 30
0.0
 11
4.087049469776277
 21
8.09442120117323
 31
0.0
  0
LINE
  5
1B9D4
330
1B993
100
AcDbEntity
  8
0
  6
CONTINUOUS
100
AcDbLine
 10
5.396862364710167
 20
7.458127515319526
 30
0.0
 11
4.385146033871544
 21
8.469843846158149
 31
0.0
  0
LINE
  5
1B9D5
330
1B993
100
AcDbEntity
  8
0
  6
CONTINUOUS
100
AcDbLine
 10
13.04801363231285
 20
0.4804954567970334
 30
0.0
 11
9.85750908911358
 21
3.670999999996297
 31
0.0
  0
LINE
  5
1B9D6
330
1B993
100
AcDbEntity
  8
0
  6
CONTINUOUS
100
AcDbLine
 10
8.857326339330116
 20
4.671182749779763
 30
0.0
 11
7.781651817520021
 21
5.746857271589858
 31
0.0
  0
LINE
  5
1B9D7
330
1B993
100
AcDbEntity
  8
0
  6
CONTINUOUS
100
AcDbLine
 10
5.694951119555943
 20
7.833557969553937
 30
0.0
 11
4.765409089118624
 21
8.763099999991255
 31
0.0
  0
LINE
  5
1B9D8
330
1B993
100
AcDbEntity
  8
0
  6
CONTINUOUS
100
AcDbLine
 10
12.50286117236978
 20
1.699167125820288
 30
0.0
 11
9.68611877250287
 21
4.515909525687196
 31
0.0
  0
LINE
  5
1B9D9
330
1B993
100
AcDbEntity
  8
0
  6
CONTINUOUS
100
AcDbLine
 10
9.065465192851777
 20
5.136563105338288
 30
0.0
 11
7.989834395251757
 21
6.21219390293831
 31
0.0
  0
LINE
  5
1B9DA
330
1B993
100
AcDbEntity
  8
0
  6
CONTINUOUS
100
AcDbLine
 10
5.993039874401719
 20
8.208988423788346
 30
0.0
 11
5.43892829819881
 21
8.763099999991255
 31
0.0
  0
LINE
  5
1B9DB
330
1B993
100
AcDbEntity
  8
0
  6
CONTINUOUS
100
AcDbLine
 10
11.95770871242671
 20
2.917838794843543
 30
0.0
 11
8.19801697298349
 21
6.677530534286761
 31
0.0
  0
LINE
  5
1B9DC
330
1B993
100
AcDbEntity
  8
0
  6
CONTINUOUS
100
AcDbLine
 10
6.291128629247495
 20
8.584418878022756
 30
0.0
 11
6.112447507278997
 21
8.763099999991255
 31
0.0
  0
LINE
  5
1B9DD
330
1B993
100
AcDbEntity
  8
0
  6
CONTINUOUS
100
AcDbLine
 10
11.41255625248364
 20
4.136510463866797
 30
0.0
 11
8.406199550715227
 21
7.142867165635211
 31
0.0
  0
LINE
  5
1B9DE
330
1B993
100
AcDbEntity
  8
0
  6
CONTINUOUS
100
AcDbLine
 10
10.86740379254057
 20
5.355182132890051
 30
0.0
 11
8.614382128446962
 21
7.608203796983664
 31
0.0
  0
LINE
  5
1B9DF
330
1B993
100
AcDbEntity
  8
0
  6
CONTINUOUS
100
AcDbLine
 10
10.3222513325975
 20
6.573853801913305
 30
0.0
 11
8.822564706178696
 21
8.073540428332114
 31
0.0
  0
LINE
  5
1B9E0
330
1B993
100
AcDbEntity
  8
0
  6
CONTINUOUS
100
AcDbLine
 10
9.777098872654436
 20
7.792525470936562
 30
0.0
 11
9.030747283910433
 21
8.538877059680566
 31
0.0
  0
ENDBLK
  5
1BB22
330
1B993
100
AcDbEntity
  8
0
100
AcDbBlockEnd
  0
BLOCK
  5
1BB23
330
1B9E1
100
AcDbEntity
  8
0
100
AcDbBlockBegin
  2
*X92
 70
     1
 10
0.0
 20
0.0
 30
0.0
  3
*X92
  1

  0
LINE
  5
1B9E2
330
1B9E1
100
AcDbEntity
  8
0
  6
CONTINUOUS
100
AcDbLine
 10
10.67292308101235
 20
8.445076852443387
 30
0.0
 11
10.99094622856022
 21
8.763099999991255
 31
0.0
  0
LINE
  5
1B9E3
330
1B9E1
100
AcDbEntity
  8
0
  6
CONTINUOUS
100
AcDbLine
 10
10.87250383178748
 20
7.971138394138331
 30
0.0
 11
11.6644654376404
 21
8.763099999991255
 31
0.0
  0
LINE
  5
1B9E4
330
1B9E1
100
AcDbEntity
  8
0
  6
CONTINUOUS
100
AcDbLine
 10
11.07208458256261
 20
7.497199935833273
 30
0.0
 11
12.12126590876355
 21
8.546381262034211
 31
0.0
  0
LINE
  5
1B9E5
330
1B9E1
100
AcDbEntity
  8
0
  6
CONTINUOUS
100
AcDbLine
 10
11.27166533333774
 20
7.023261477528216
 30
0.0
 11
12.32085164573666
 21
8.072447789927136
 31
0.0
  0
LINE
  5
1B9E6
330
1B9E1
100
AcDbEntity
  8
0
  6
CONTINUOUS
100
AcDbLine
 10
11.47124608411287
 20
6.549323019223158
 30
0.0
 11
12.52043738270977
 21
7.59851431782006
 31
0.0
  0
LINE
  5
1B9E7
330
1B9E1
100
AcDbEntity
  8
0
  6
CONTINUOUS
100
AcDbLine
 10
11.670826834888
 20
6.075384560918101
 30
0.0
 11
12.72002311968288
 21
7.124580845712984
 31
0.0
  0
LINE
  5
1B9E8
330
1B9E1
100
AcDbEntity
  8
0
  6
CONTINUOUS
100
AcDbLine
 10
11.87040758566313
 20
5.601446102613043
 30
0.0
 11
12.91960885665599
 21
6.650647373605907
 31
0.0
  0
LINE
  5
1B9E9
330
1B9E1
100
AcDbEntity
  8
0
  6
CONTINUOUS
100
AcDbLine
 10
12.06998833643825
 20
5.127507644307986
 30
0.0
 11
13.1191945936291
 21
6.176713901498832
 31
0.0
  0
LINE
  5
1B9EA
330
1B9E1
100
AcDbEntity
  8
0
  6
CONTINUOUS
100
AcDbLine
 10
12.26956908721338
 20
4.65356918600293
 30
0.0
 11
13.31878033060221
 21
5.702780429391757
 31
0.0
  0
LINE
  5
1B9EB
330
1B9E1
100
AcDbEntity
  8
0
  6
CONTINUOUS
100
AcDbLine
 10
12.46914983798851
 20
4.179630727697873
 30
0.0
 11
13.51836606757532
 21
5.228846957284683
 31
0.0
  0
LINE
  5
1B9EC
330
1B9E1
100
AcDbEntity
  8
0
  6
CONTINUOUS
100
AcDbLine
 10
12.66873058876364
 20
3.705692269392816
 30
0.0
 11
13.71795180454843
 21
4.754913485177607
 31
0.0
  0
LINE
  5
1B9ED
330
1B9E1
100
AcDbEntity
  8
0
  6
CONTINUOUS
100
AcDbLine
 10
12.86831133953877
 20
3.231753811087759
 30
0.0
 11
13.91753754152154
 21
4.280980013070531
 31
0.0
  0
LINE
  5
1B9EE
330
1B9E1
100
AcDbEntity
  8
0
  6
CONTINUOUS
100
AcDbLine
 10
13.0678920903139
 20
2.757815352782702
 30
0.0
 11
14.11712327849465
 21
3.807046540963456
 31
0.0
  0
LINE
  5
1B9EF
330
1B9E1
100
AcDbEntity
  8
0
  6
CONTINUOUS
100
AcDbLine
 10
13.26747284108903
 20
2.283876894477644
 30
0.0
 11
14.31670901546777
 21
3.333113068856379
 31
0.0
  0
LINE
  5
1B9F0
330
1B9E1
100
AcDbEntity
  8
0
  6
CONTINUOUS
100
AcDbLine
 10
16.36767838827179
 20
8.751678487061342
 30
0.0
 11
16.50332410898388
 21
8.887324207773432
 31
0.0
  0
LINE
  5
1B9F1
330
1B9E1
100
AcDbEntity
  8
0
  6
CONTINUOUS
100
AcDbLine
 10
15.96190732182191
 20
7.67238821153127
 30
0.0
 11
16.68735328004734
 21
8.397834169756699
 31
0.0
  0
LINE
  5
1B9F2
330
1B9E1
100
AcDbEntity
  8
0
  6
CONTINUOUS
100
AcDbLine
 10
15.55613625537202
 20
6.593097936001196
 30
0.0
 11
16.87138245111079
 21
7.908344131739965
 31
0.0
  0
LINE
  5
1B9F3
330
1B9E1
100
AcDbEntity
  8
0
  6
CONTINUOUS
100
AcDbLine
 10
15.15036518892213
 20
5.513807660471122
 30
0.0
 11
17.05541162217424
 21
7.418854093723231
 31
0.0
  0
LINE
  5
1B9F4
330
1B9E1
100
AcDbEntity
  8
0
  6
CONTINUOUS
100
AcDbLine
 10
14.74459412247225
 20
4.434517384941048
 30
0.0
 11
17.2394407932377
 21
6.929364055706499
 31
0.0
  0
LINE
  5
1B9F5
330
1B9E1
100
AcDbEntity
  8
0
  6
CONTINUOUS
100
AcDbLine
 10
14.33882305602236
 20
3.355227109410975
 30
0.0
 11
17.42346996430115
 21
6.439874017689766
 31
0.0
  0
LINE
  5
1B9F6
330
1B9E1
100
AcDbEntity
  8
0
  6
CONTINUOUS
100
AcDbLine
 10
13.46705359186416
 20
1.809938436172586
 30
0.0
 11
16.0819338255367
 21
4.424818669845129
 31
0.0
  0
LINE
  5
1B9F7
330
1B9E1
100
AcDbEntity
  8
0
  6
CONTINUOUS
100
AcDbLine
 10
16.63283254238972
 20
4.975717386698149
 30
0.0
 11
17.60749913536461
 21
5.950383979673033
 31
0.0
  0
LINE
  5
1B9F8
330
1B9E1
100
AcDbEntity
  8
0
  6
CONTINUOUS
100
AcDbLine
 10
13.66663434263929
 20
1.335999977867529
 30
0.0
 11
15.67604797733754
 21
3.345413612565779
 31
0.0
  0
LINE
  5
1B9F9
330
1B9E1
100
AcDbEntity
  8
0
  6
CONTINUOUS
100
AcDbLine
 10
13.86621509341442
 20
0.8620615195624723
 30
0.0
 11
15.27016212913838
 21
2.26600855528643
 31
0.0
  0
LINE
  5
1B9FA
330
1B9E1
100
AcDbEntity
  8
0
  6
CONTINUOUS
100
AcDbLine
 10
16.81682257348267
 20
4.486188208710908
 30
0.0
 11
17.79152830642806
 21
5.460893941656299
 31
0.0
  0
LINE
  5
1B9FB
330
1B9E1
100
AcDbEntity
  8
0
  6
CONTINUOUS
100
AcDbLine
 10
17.00081260457561
 20
3.996659030723667
 30
0.0
 11
17.97555747749151
 21
4.971403903639565
 31
0.0
  0
LINE
  5
1B9FC
330
1B9E1
100
AcDbEntity
  8
0
  6
CONTINUOUS
100
AcDbLine
 10
20.74362343514722
 20
8.412989070375462
 30
0.0
 11
21.09373436476302
 21
8.763099999991256
 31
0.0
  0
LINE
  5
1B9FD
330
1B9E1
100
AcDbEntity
  8
0
  6
CONTINUOUS
100
AcDbLine
 10
20.25401257174777
 20
7.249858997895826
 30
0.0
 11
21.7672535738432
 21
8.763099999991255
 31
0.0
  0
LINE
  5
1B9FE
330
1B9E1
100
AcDbEntity
  8
0
  6
CONTINUOUS
100
AcDbLine
 10
14.06579584418955
 20
0.3881230612574149
 30
0.0
 11
14.86427628093921
 21
1.186603498007082
 31
0.0
  0
LINE
  5
1B9FF
330
1B9E1
100
AcDbEntity
  8
0
  6
CONTINUOUS
100
AcDbLine
 10
14.26537659496467
 20
-0.0858153970476412
 30
0.0
 11
14.45839043274005
 21
0.1071984407277329
 31
0.0
  0
LINE
  5
1BA00
330
1B9E1
100
AcDbEntity
  8
0
  6
CONTINUOUS
100
AcDbLine
 10
17.18480263566856
 20
3.507129852736426
 30
0.0
 11
18.15958664855496
 21
4.481913865622833
 31
0.0
  0
LINE
  5
1BA01
330
1B9E1
100
AcDbEntity
  8
0
  6
CONTINUOUS
100
AcDbLine
 10
17.3687926667615
 20
3.017600674749186
 30
0.0
 11
18.34361581961842
 21
3.9924238276061
 31
0.0
  0
LINE
  5
1BA02
330
1B9E1
100
AcDbEntity
  8
0
  6
CONTINUOUS
100
AcDbLine
 10
19.76440170834832
 20
6.086728925416191
 30
0.0
 11
22.33924590259489
 21
8.661573119662755
 31
0.0
  0
LINE
  5
1BA03
330
1B9E1
100
AcDbEntity
  8
0
  6
CONTINUOUS
100
AcDbLine
 10
19.27479084494887
 20
4.923598852936555
 30
0.0
 11
21.84929622842713
 21
7.498104236414807
 31
0.0
  0
LINE
  5
1BA04
330
1B9E1
100
AcDbEntity
  8
0
  6
CONTINUOUS
100
AcDbLine
 10
17.55278269785445
 20
2.528071496761945
 30
0.0
 11
18.52764499068187
 21
3.502933789589366
 31
0.0
  0
LINE
  5
1BA05
330
1B9E1
100
AcDbEntity
  8
0
  6
CONTINUOUS
100
AcDbLine
 10
18.78517998154942
 20
3.760468780456919
 30
0.0
 11
21.35934655425936
 21
6.33463535316686
 31
0.0
  0
LINE
  5
1BA06
330
1B9E1
100
AcDbEntity
  8
0
  6
CONTINUOUS
100
AcDbLine
 10
17.73677272894739
 20
2.038542318774704
 30
0.0
 11
20.8693968800916
 21
5.171166469918914
 31
0.0
  0
LINE
  5
1BA07
330
1B9E1
100
AcDbEntity
  8
0
  6
CONTINUOUS
100
AcDbLine
 10
17.92076276004034
 20
1.549013140787464
 30
0.0
 11
20.37944720592384
 21
4.007697586670968
 31
0.0
  0
LINE
  5
1BA08
330
1B9E1
100
AcDbEntity
  8
0
  6
CONTINUOUS
100
AcDbLine
 10
18.10475279113329
 20
1.059483962800223
 30
0.0
 11
19.88949753175608
 21
2.84422870342302
 31
0.0
  0
LINE
  5
1BA09
330
1B9E1
100
AcDbEntity
  8
0
  6
CONTINUOUS
100
AcDbLine
 10
18.28874282222623
 20
0.5699547848129822
 30
0.0
 11
19.39954785758832
 21
1.680759820175074
 31
0.0
  0
LINE
  5
1BA0A
330
1B9E1
100
AcDbEntity
  8
0
  6
CONTINUOUS
100
AcDbLine
 10
18.47273285331918
 20
0.0804256068257416
 30
0.0
 11
18.90959818342056
 21
0.517290936927127
 31
0.0
  0
LINE
  5
1BA0B
330
1B9E1
100
AcDbEntity
  8
0
  6
CONTINUOUS
100
AcDbLine
 10
14.3590401358224
 20
-0.1570118376323384
 30
0.0
 11
14.24903296539946
 21
-0.0470046672093929
 31
0.0
  0
LINE
  5
1BA0C
330
1B9E1
100
AcDbEntity
  8
0
  6
CONTINUOUS
100
AcDbLine
 10
14.54309291258661
 20
0.332454594683643
 30
0.0
 11
13.75908329123172
 21
1.116464216038529
 31
0.0
  0
LINE
  5
1BA0D
330
1B9E1
100
AcDbEntity
  8
0
  6
CONTINUOUS
100
AcDbLine
 10
14.72714568935081
 20
0.8219210269996244
 30
0.0
 11
13.26913361706399
 21
2.27993309928645
 31
0.0
  0
LINE
  5
1BA0E
330
1B9E1
100
AcDbEntity
  8
0
  6
CONTINUOUS
100
AcDbLine
 10
14.91119846611502
 20
1.311387459315606
 30
0.0
 11
12.77918394289625
 21
3.443401982534371
 31
0.0
  0
LINE
  5
1BA0F
330
1B9E1
100
AcDbEntity
  8
0
  6
CONTINUOUS
100
AcDbLine
 10
15.09525124287922
 20
1.800853891631587
 30
0.0
 11
12.28923426872852
 21
4.606870865782293
 31
0.0
  0
LINE
  5
1BA10
330
1B9E1
100
AcDbEntity
  8
0
  6
CONTINUOUS
100
AcDbLine
 10
15.27930401964343
 20
2.290320323947569
 30
0.0
 11
11.79928459456078
 21
5.770339749030213
 31
0.0
  0
LINE
  5
1BA11
330
1B9E1
100
AcDbEntity
  8
0
  6
CONTINUOUS
100
AcDbLine
 10
15.46335679640763
 20
2.77978675626355
 30
0.0
 11
14.48885470994921
 21
3.754288842721972
 31
0.0
  0
LINE
  5
1BA12
330
1B9E1
100
AcDbEntity
  8
0
  6
CONTINUOUS
100
AcDbLine
 10
13.88507249233704
 20
4.358071060334137
 30
0.0
 11
11.30933492039305
 21
6.933808632278135
 31
0.0
  0
LINE
  5
1BA13
330
1B9E1
100
AcDbEntity
  8
0
  6
CONTINUOUS
100
AcDbLine
 10
18.75840522805855
 20
0.1582575336928151
 30
0.0
 11
18.25383727664818
 21
0.6628254851031863
 31
0.0
  0
LINE
  5
1BA14
330
1B9E1
100
AcDbEntity
  8
0
  6
CONTINUOUS
100
AcDbLine
 10
15.64740957317184
 20
3.269253188579531
 30
0.0
 11
14.67288388101266
 21
4.243778880738705
 31
0.0
  0
LINE
  5
1BA15
330
1B9E1
100
AcDbEntity
  8
0
  6
CONTINUOUS
100
AcDbLine
 10
13.39509276772158
 20
5.521569994029786
 30
0.0
 11
10.81938524622531
 21
8.097277515526056
 31
0.0
  0
LINE
  5
1BA16
330
1B9E1
100
AcDbEntity
  8
0
  6
CONTINUOUS
100
AcDbLine
 10
18.95798597883369
 20
0.6321959919978686
 30
0.0
 11
17.84825644852853
 21
1.741925522303024
 31
0.0
  0
LINE
  5
1BA17
330
1B9E1
100
AcDbEntity
  8
0
  6
CONTINUOUS
100
AcDbLine
 10
19.15756672960882
 20
1.106134450302922
 30
0.0
 11
17.44267562040888
 21
2.821025559502861
 31
0.0
  0
LINE
  5
1BA18
330
1B9E1
100
AcDbEntity
  8
0
  6
CONTINUOUS
100
AcDbLine
 10
15.83146234993604
 20
3.758719620895513
 30
0.0
 11
14.85691305207612
 21
4.733268918755439
 31
0.0
  0
LINE
  5
1BA19
330
1B9E1
100
AcDbEntity
  8
0
  6
CONTINUOUS
100
AcDbLine
 10
16.01551512670025
 20
4.248186053211494
 30
0.0
 11
15.04094222313957
 21
5.222758956772172
 31
0.0
  0
LINE
  5
1BA1A
330
1B9E1
100
AcDbEntity
  8
0
  6
CONTINUOUS
100
AcDbLine
 10
12.90511304310612
 20
6.685068927725435
 30
0.0
 11
10.8270819708403
 21
8.763099999991255
 31
0.0
  0
LINE
  5
1BA1B
330
1B9E1
100
AcDbEntity
  8
0
  6
CONTINUOUS
100
AcDbLine
 10
12.41513331849066
 20
7.848567861421083
 30
0.0
 11
11.50060117992049
 21
8.763099999991255
 31
0.0
  0
LINE
  5
1BA1C
330
1B9E1
100
AcDbEntity
  8
0
  6
CONTINUOUS
100
AcDbLine
 10
19.35714748038395
 20
1.580072908607975
 30
0.0
 11
17.03709479228923
 21
3.900125596702697
 31
0.0
  0
LINE
  5
1BA1D
330
1B9E1
100
AcDbEntity
  8
0
  6
CONTINUOUS
100
AcDbLine
 10
19.55672823115909
 20
2.054011366913028
 30
0.0
 11
16.63151396416958
 21
4.979225633902534
 31
0.0
  0
LINE
  5
1BA1E
330
1B9E1
100
AcDbEntity
  8
0
  6
CONTINUOUS
100
AcDbLine
 10
16.19956790346445
 20
4.737652485527476
 30
0.0
 11
15.22497139420302
 21
5.712248994788904
 31
0.0
  0
LINE
  5
1BA1F
330
1B9E1
100
AcDbEntity
  8
0
  6
CONTINUOUS
100
AcDbLine
 10
16.38362068022866
 20
5.227118917843457
 30
0.0
 11
15.40900056526648
 21
6.201739032805637
 31
0.0
  0
LINE
  5
1BA20
330
1B9E1
100
AcDbEntity
  8
0
  6
CONTINUOUS
100
AcDbLine
 10
19.75630898193422
 20
2.527949825218081
 30
0.0
 11
18.70774536448286
 21
3.576513442669441
 31
0.0
  0
LINE
  5
1BA21
330
1B9E1
100
AcDbEntity
  8
0
  6
CONTINUOUS
100
AcDbLine
 10
19.95588973270936
 20
3.001888283523134
 30
0.0
 11
18.90726987211446
 21
4.050508144118028
 31
0.0
  0
LINE
  5
1BA22
330
1B9E1
100
AcDbEntity
  8
0
  6
CONTINUOUS
100
AcDbLine
 10
20.15547048348449
 20
3.475826741828186
 30
0.0
 11
19.10679437974606
 21
4.524502845566614
 31
0.0
  0
LINE
  5
1BA23
330
1B9E1
100
AcDbEntity
  8
0
  6
CONTINUOUS
100
AcDbLine
 10
20.35505123425962
 20
3.94976520013324
 30
0.0
 11
19.30631888737766
 21
4.998497547015201
 31
0.0
  0
LINE
  5
1BA24
330
1B9E1
100
AcDbEntity
  8
0
  6
CONTINUOUS
100
AcDbLine
 10
20.55463198503475
 20
4.423703658438292
 30
0.0
 11
19.50584339500926
 21
5.472492248463787
 31
0.0
  0
LINE
  5
1BA25
330
1B9E1
100
AcDbEntity
  8
0
  6
CONTINUOUS
100
AcDbLine
 10
18.37481191085755
 20
3.909446896294752
 30
0.0
 11
15.59302973632993
 21
6.691229070822371
 31
0.0
  0
LINE
  5
1BA26
330
1B9E1
100
AcDbEntity
  8
0
  6
CONTINUOUS
100
AcDbLine
 10
17.96904084440766
 20
4.988737171824825
 30
0.0
 11
15.77705890739338
 21
7.180719108839104
 31
0.0
  0
LINE
  5
1BA27
330
1B9E1
100
AcDbEntity
  8
0
  6
CONTINUOUS
100
AcDbLine
 10
17.56326977795777
 20
6.068027447354899
 30
0.0
 11
15.96108807845684
 21
7.670209146855838
 31
0.0
  0
LINE
  5
1BA28
330
1B9E1
100
AcDbEntity
  8
0
  6
CONTINUOUS
100
AcDbLine
 10
17.15749871150789
 20
7.147317722884972
 30
0.0
 11
16.14511724952029
 21
8.15969918487257
 31
0.0
  0
LINE
  5
1BA29
330
1B9E1
100
AcDbEntity
  8
0
  6
CONTINUOUS
100
AcDbLine
 10
16.751727645058
 20
8.226607998415046
 30
0.0
 11
16.32914642058374
 21
8.649189222889303
 31
0.0
  0
LINE
  5
1BA2A
330
1B9E1
100
AcDbEntity
  8
0
  6
CONTINUOUS
100
AcDbLine
 10
20.75421273580989
 20
4.897642116743345
 30
0.0
 11
19.70536790264086
 21
5.946486949912374
 31
0.0
  0
LINE
  5
1BA2B
330
1B9E1
100
AcDbEntity
  8
0
  6
CONTINUOUS
100
AcDbLine
 10
20.95379348658502
 20
5.371580575048398
 30
0.0
 11
19.90489241027246
 21
6.42048165136096
 31
0.0
  0
LINE
  5
1BA2C
330
1B9E1
100
AcDbEntity
  8
0
  6
CONTINUOUS
100
AcDbLine
 10
21.15337423736015
 20
5.845519033353452
 30
0.0
 11
20.10441691790406
 21
6.894476352809547
 31
0.0
  0
LINE
  5
1BA2D
330
1B9E1
100
AcDbEntity
  8
0
  6
CONTINUOUS
100
AcDbLine
 10
21.35295498813529
 20
6.319457491658505
 30
0.0
 11
20.30394142553566
 21
7.368471054258134
 31
0.0
  0
LINE
  5
1BA2E
330
1B9E1
100
AcDbEntity
  8
0
  6
CONTINUOUS
100
AcDbLine
 10
21.55253573891042
 20
6.793395949963558
 30
0.0
 11
20.50346593316726
 21
7.842465755706721
 31
0.0
  0
LINE
  5
1BA2F
330
1B9E1
100
AcDbEntity
  8
0
  6
CONTINUOUS
100
AcDbLine
 10
21.75211648968556
 20
7.267334408268612
 30
0.0
 11
20.70299044079886
 21
8.316460457155308
 31
0.0
  0
LINE
  5
1BA30
330
1B9E1
100
AcDbEntity
  8
0
  6
CONTINUOUS
100
AcDbLine
 10
21.95169724046069
 20
7.741272866573663
 30
0.0
 11
20.9298701070431
 21
8.763099999991256
 31
0.0
  0
LINE
  5
1BA31
330
1B9E1
100
AcDbEntity
  8
0
  6
CONTINUOUS
100
AcDbLine
 10
22.15127799123582
 20
8.215211324878716
 30
0.0
 11
21.60338931612328
 21
8.763099999991256
 31
0.0
  0
LINE
  5
1BA32
330
1B9E1
100
AcDbEntity
  8
0
  6
CONTINUOUS
100
AcDbLine
 10
22.35085874201096
 20
8.689149783183769
 30
0.0
 11
22.27690852520347
 21
8.763099999991255
 31
0.0
  0
ENDBLK
  5
1BB24
330
1B9E1
100
AcDbEntity
  8
0
100
AcDbBlockEnd
  0
BLOCK
  5
1BB25
330
1BA33
100
AcDbEntity
  8
0
100
AcDbBlockBegin
  2
*X93
 70
     1
 10
0.0
 20
0.0
 30
0.0
  3
*X93
  1

  0
LINE
  5
1BA34
330
1BA33
100
AcDbEntity
  8
0
  6
CONTINUOUS
100
AcDbLine
 10
23.19462913593892
 20
8.169917934846424
 30
0.0
 11
23.70775465517246
 21
8.683043454079957
 31
0.0
  0
LINE
  5
1BA35
330
1BA33
100
AcDbEntity
  8
0
  6
CONTINUOUS
100
AcDbLine
 10
22.64923161835078
 20
6.951001208178088
 30
0.0
 11
23.9159364069932
 21
8.217705996820516
 31
0.0
  0
LINE
  5
1BA36
330
1BA33
100
AcDbEntity
  8
0
  6
CONTINUOUS
100
AcDbLine
 10
22.10383410076263
 20
5.732084481509751
 30
0.0
 11
24.12411815881395
 21
7.752368539561078
 31
0.0
  0
LINE
  5
1BA37
330
1BA33
100
AcDbEntity
  8
0
  6
CONTINUOUS
100
AcDbLine
 10
21.55843658317447
 20
4.513167754841414
 30
0.0
 11
24.3322999106347
 21
7.287031082301639
 31
0.0
  0
LINE
  5
1BA38
330
1BA33
100
AcDbEntity
  8
0
  6
CONTINUOUS
100
AcDbLine
 10
21.01303906558632
 20
3.294251028173077
 30
0.0
 11
24.54048166245544
 21
6.821693625042199
 31
0.0
  0
LINE
  5
1BA39
330
1BA33
100
AcDbEntity
  8
0
  6
CONTINUOUS
100
AcDbLine
 10
20.46764154799817
 20
2.075334301504738
 30
0.0
 11
23.28571549467848
 21
4.89340824818505
 31
0.0
  0
LINE
  5
1BA3A
330
1BA33
100
AcDbEntity
  8
0
  6
CONTINUOUS
100
AcDbLine
 10
19.92224403041002
 20
0.8564175748364002
 30
0.0
 11
22.74075865492779
 21
3.674932199354171
 31
0.0
  0
LINE
  5
1BA3B
330
1BA33
100
AcDbEntity
  8
0
  6
CONTINUOUS
100
AcDbLine
 10
23.67305085490148
 20
5.280743608408048
 30
0.0
 11
24.74866341427619
 21
6.356356167782759
 31
0.0
  0
LINE
  5
1BA3C
330
1BA33
100
AcDbEntity
  8
0
  6
CONTINUOUS
100
AcDbLine
 10
23.88118970842314
 20
4.815363252849522
 30
0.0
 11
24.95684516609694
 21
5.89101871052332
 31
0.0
  0
LINE
  5
1BA3D
330
1BA33
100
AcDbEntity
  8
0
  6
CONTINUOUS
100
AcDbLine
 10
19.73925852647308
 20
-0.0000871381807288
 30
0.0
 11
23.4103456646501
 21
3.670999999996297
 31
0.0
  0
LINE
  5
1BA3E
330
1BA33
100
AcDbEntity
  8
0
  6
CONTINUOUS
100
AcDbLine
 10
24.0893285619448
 20
4.349982897290997
 30
0.0
 11
25.16502691791769
 21
5.42568125326388
 31
0.0
  0
LINE
  5
1BA3F
330
1BA33
100
AcDbEntity
  8
0
  6
CONTINUOUS
100
AcDbLine
 10
20.41282099582748
 20
-0.0000438779065108
 30
0.0
 11
21.64944178675636
 21
1.236576913022366
 31
0.0
  0
LINE
  5
1BA40
330
1BA33
100
AcDbEntity
  8
0
  6
CONTINUOUS
100
AcDbLine
 10
22.78126487373161
 20
2.36839999999762
 30
0.0
 11
24.08386487373029
 21
3.670999999996297
 31
0.0
  0
LINE
  5
1BA41
330
1BA33
100
AcDbEntity
  8
0
  6
CONTINUOUS
100
AcDbLine
 10
24.29746741546646
 20
3.884602541732471
 30
0.0
 11
25.37320866973843
 21
4.960343796004441
 31
0.0
  0
LINE
  5
1BA42
330
1BA33
100
AcDbEntity
  8
0
  6
CONTINUOUS
100
AcDbLine
 10
21.08638346518189
 20
-0.0000006176322938
 30
0.0
 11
21.10379033335899
 21
0.0174062505448083
 31
0.0
  0
LINE
  5
1BA43
330
1BA33
100
AcDbEntity
  8
0
  6
CONTINUOUS
100
AcDbLine
 10
23.4547840828118
 20
2.36839999999762
 30
0.0
 11
25.58139042155918
 21
4.495006338745002
 31
0.0
  0
LINE
  5
1BA44
330
1BA33
100
AcDbEntity
  8
0
  6
CONTINUOUS
100
AcDbLine
 10
29.30199999996933
 20
8.215615917155148
 30
0.0
 11
29.84948408280543
 21
8.763099999991255
 31
0.0
  0
LINE
  5
1BA45
330
1BA33
100
AcDbEntity
  8
0
  6
CONTINUOUS
100
AcDbLine
 10
24.12830329189199
 20
2.36839999999762
 30
0.0
 11
25.78957217337993
 21
4.029668881485562
 31
0.0
  0
LINE
  5
1BA46
330
1BA33
100
AcDbEntity
  8
0
  6
CONTINUOUS
100
AcDbLine
 10
29.30199999996933
 20
7.54209670807496
 30
0.0
 11
30.52300329188562
 21
8.763099999991255
 31
0.0
  0
LINE
  5
1BA47
330
1BA33
100
AcDbEntity
  8
0
  6
CONTINUOUS
100
AcDbLine
 10
24.80182250097217
 20
2.36839999999762
 30
0.0
 11
25.99775392520067
 21
3.564331424226122
 31
0.0
  0
LINE
  5
1BA48
330
1BA33
100
AcDbEntity
  8
0
  6
CONTINUOUS
100
AcDbLine
 10
29.30199999996933
 20
6.868577498994774
 30
0.0
 11
30.74199999996926
 21
8.308577498994712
 31
0.0
  0
LINE
  5
1BA49
330
1BA33
100
AcDbEntity
  8
0
  6
CONTINUOUS
100
AcDbLine
 10
25.13028238392013
 20
2.023340673865392
 30
0.0
 11
26.20593567702142
 21
3.098993966966683
 31
0.0
  0
LINE
  5
1BA4A
330
1BA33
100
AcDbEntity
  8
0
  6
CONTINUOUS
100
AcDbLine
 10
25.33838066033617
 20
1.557919741201244
 30
0.0
 11
26.41411742884217
 21
2.633656509707244
 31
0.0
  0
LINE
  5
1BA4B
330
1BA33
100
AcDbEntity
  8
0
  6
CONTINUOUS
100
AcDbLine
 10
25.54647893675221
 20
1.092498808537098
 30
0.0
 11
26.62229918066291
 21
2.168319052447804
 31
0.0
  0
LINE
  5
1BA4C
330
1BA33
100
AcDbEntity
  8
0
  6
CONTINUOUS
100
AcDbLine
 10
25.75457721316825
 20
0.62707787587295
 30
0.0
 11
26.83048093248366
 21
1.702981595188365
 31
0.0
  0
LINE
  5
1BA4D
330
1BA33
100
AcDbEntity
  8
0
  6
CONTINUOUS
100
AcDbLine
 10
29.30199999996933
 20
6.195058289914587
 30
0.0
 11
30.74199999996926
 21
7.635058289914522
 31
0.0
  0
LINE
  5
1BA4E
330
1BA33
100
AcDbEntity
  8
0
  6
CONTINUOUS
100
AcDbLine
 10
29.30199999996933
 20
5.521539080834401
 30
0.0
 11
30.74199999996926
 21
6.961539080834331
 31
0.0
  0
LINE
  5
1BA4F
330
1BA33
100
AcDbEntity
  8
0
  6
CONTINUOUS
100
AcDbLine
 10
29.30199999996933
 20
4.848019871754214
 30
0.0
 11
30.74199999996925
 21
6.288019871754143
 31
0.0
  0
LINE
  5
1BA50
330
1BA33
100
AcDbEntity
  8
0
  6
CONTINUOUS
100
AcDbLine
 10
29.30199999996933
 20
4.174500662674028
 30
0.0
 11
30.74199999996925
 21
5.614500662673953
 31
0.0
  0
LINE
  5
1BA51
330
1BA33
100
AcDbEntity
  8
0
  6
CONTINUOUS
100
AcDbLine
 10
25.96267548958429
 20
0.1616569432088024
 30
0.0
 11
27.18411854636669
 21
1.383099999991207
 31
0.0
  0
LINE
  5
1BA52
330
1BA33
100
AcDbEntity
  8
0
  6
CONTINUOUS
100
AcDbLine
 10
29.30199999996933
 20
3.500981453593841
 30
0.0
 11
30.74199999996925
 21
4.940981453593762
 31
0.0
  0
LINE
  5
1BA53
330
1BA33
100
AcDbEntity
  8
0
  6
CONTINUOUS
100
AcDbLine
 10
26.50763775544691
 20
0.0330999999912356
 30
0.0
 11
27.85763775544689
 21
1.383099999991223
 31
0.0
  0
LINE
  5
1BA54
330
1BA33
100
AcDbEntity
  8
0
  6
CONTINUOUS
100
AcDbLine
 10
29.30199999996933
 20
2.827462244513656
 30
0.0
 11
30.74199999996925
 21
4.267462244513574
 31
0.0
  0
LINE
  5
1BA55
330
1BA33
100
AcDbEntity
  8
0
  6
CONTINUOUS
100
AcDbLine
 10
27.18115696452709
 20
0.0330999999912356
 30
0.0
 11
28.55073879889363
 21
1.402681834357775
 31
0.0
  0
LINE
  5
1BA56
330
1BA33
100
AcDbEntity
  8
0
  6
CONTINUOUS
100
AcDbLine
 10
29.28241816560272
 20
2.134361201066866
 30
0.0
 11
30.74199999996924
 21
3.593943035433383
 31
0.0
  0
LINE
  5
1BA57
330
1BA33
100
AcDbEntity
  8
0
  6
CONTINUOUS
100
AcDbLine
 10
27.85467617360728
 20
0.0330999999912356
 30
0.0
 11
30.74199999996924
 21
2.920423826353195
 31
0.0
  0
LINE
  5
1BA58
330
1BA33
100
AcDbEntity
  8
0
  6
CONTINUOUS
100
AcDbLine
 10
28.53897559587887
 20
0.0438802131826428
 30
0.0
 11
30.73121978677781
 21
2.236124404081585
 31
0.0
  0
LINE
  5
1BA59
330
1BA33
100
AcDbEntity
  8
0
  6
CONTINUOUS
100
AcDbLine
 10
29.45140055588722
 20
0.2827859641107988
 30
0.0
 11
30.49231403584965
 21
1.323699444073236
 31
0.0
  0
LINE
  5
1BA5A
330
1BA33
100
AcDbEntity
  8
0
  6
CONTINUOUS
100
AcDbLine
 10
19.59027867740337
 20
-0.0000967065718083
 30
0.0
 11
19.55485265190471
 21
0.035329318926844
 31
0.0
  0
LINE
  5
1BA5B
330
1BA33
100
AcDbEntity
  8
0
  6
CONTINUOUS
100
AcDbLine
 10
20.26375463176586
 20
-0.0000534518541091
 30
0.0
 11
19.76305575737534
 21
0.5006454225364014
 31
0.0
  0
LINE
  5
1BA5C
330
1BA33
100
AcDbEntity
  8
0
  6
CONTINUOUS
100
AcDbLine
 10
20.93723058612834
 20
-0.0000101971364099
 30
0.0
 11
19.97125886284597
 21
0.965961526145958
 31
0.0
  0
LINE
  5
1BA5D
330
1BA33
100
AcDbEntity
  8
0
  6
CONTINUOUS
100
AcDbLine
 10
21.25514828313686
 20
0.355591314935257
 30
0.0
 11
20.1794619683166
 21
1.431277629755512
 31
0.0
  0
LINE
  5
1BA5E
330
1BA33
100
AcDbEntity
  8
0
  6
CONTINUOUS
100
AcDbLine
 10
21.46338838394921
 20
0.8208704232030986
 30
0.0
 11
20.38766507378723
 21
1.896593733365069
 31
0.0
  0
LINE
  5
1BA5F
330
1BA33
100
AcDbEntity
  8
0
  6
CONTINUOUS
100
AcDbLine
 10
21.67162848476155
 20
1.28614953147094
 30
0.0
 11
20.59586817925786
 21
2.361909836974626
 31
0.0
  0
LINE
  5
1BA60
330
1BA33
100
AcDbEntity
  8
0
  6
CONTINUOUS
100
AcDbLine
 10
21.8798685855739
 20
1.751428639738782
 30
0.0
 11
20.80407128472849
 21
2.827225940584183
 31
0.0
  0
LINE
  5
1BA61
330
1BA33
100
AcDbEntity
  8
0
  6
CONTINUOUS
100
AcDbLine
 10
22.08810868638624
 20
2.216707748006623
 30
0.0
 11
21.01227439019912
 21
3.292542044193739
 31
0.0
  0
LINE
  5
1BA62
330
1BA33
100
AcDbEntity
  8
0
  6
CONTINUOUS
100
AcDbLine
 10
22.60993564347543
 20
2.36839999999762
 30
0.0
 11
21.22047749566975
 21
3.757858147803296
 31
0.0
  0
LINE
  5
1BA63
330
1BA33
100
AcDbEntity
  8
0
  6
CONTINUOUS
100
AcDbLine
 10
23.28345485255561
 20
2.36839999999762
 30
0.0
 11
21.42868060114038
 21
4.223174251412853
 31
0.0
  0
LINE
  5
1BA64
330
1BA33
100
AcDbEntity
  8
0
  6
CONTINUOUS
100
AcDbLine
 10
26.29227406164219
 20
0.0330999999912356
 30
0.0
 11
25.80009199592872
 21
0.5252820657046957
 31
0.0
  0
LINE
  5
1BA65
330
1BA33
100
AcDbEntity
  8
0
  6
CONTINUOUS
100
AcDbLine
 10
23.9569740616358
 20
2.36839999999762
 30
0.0
 11
21.63688370661101
 21
4.688490355022409
 31
0.0
  0
LINE
  5
1BA66
330
1BA33
100
AcDbEntity
  8
0
  6
CONTINUOUS
100
AcDbLine
 10
26.96579327072237
 20
0.0330999999912356
 30
0.0
 11
25.2554132311971
 21
1.743480039516508
 31
0.0
  0
LINE
  5
1BA67
330
1BA33
100
AcDbEntity
  8
0
  6
CONTINUOUS
100
AcDbLine
 10
24.63049327071599
 20
2.36839999999762
 30
0.0
 11
23.32789327071731
 21
3.670999999996297
 31
0.0
  0
LINE
  5
1BA68
330
1BA33
100
AcDbEntity
  8
0
  6
CONTINUOUS
100
AcDbLine
 10
22.92098674744635
 20
4.077906523267254
 30
0.0
 11
21.84508681208164
 21
5.153806458631966
 31
0.0
  0
LINE
  5
1BA69
330
1BA33
100
AcDbEntity
  8
0
  6
CONTINUOUS
100
AcDbLine
 10
27.63931247980256
 20
0.0330999999912356
 30
0.0
 11
24.0014124797975
 21
3.670999999996297
 31
0.0
  0
LINE
  5
1BA6A
330
1BA33
100
AcDbEntity
  8
0
  6
CONTINUOUS
100
AcDbLine
 10
23.129125600968
 20
4.5432868788258
 30
0.0
 11
22.05328991755227
 21
5.619122562241522
 31
0.0
  0
LINE
  5
1BA6B
330
1BA33
100
AcDbEntity
  8
0
  6
CONTINUOUS
100
AcDbLine
 10
28.31283168888275
 20
0.0330999999912356
 30
0.0
 11
24.16488385994816
 21
4.181047828925828
 31
0.0
  0
LINE
  5
1BA6C
330
1BA33
100
AcDbEntity
  8
0
  6
CONTINUOUS
100
AcDbLine
 10
23.33726445448964
 20
5.008667234384345
 30
0.0
 11
22.2614930230229
 21
6.084438665851079
 31
0.0
  0
LINE
  5
1BA6D
330
1BA33
100
AcDbEntity
  8
0
  6
CONTINUOUS
100
AcDbLine
 10
28.92085740005492
 20
0.0985934978992438
 30
0.0
 11
27.63635089796295
 21
1.383099999991217
 31
0.0
  0
LINE
  5
1BA6E
330
1BA33
100
AcDbEntity
  8
0
  6
CONTINUOUS
100
AcDbLine
 10
26.43704649509776
 20
2.582404402856405
 30
0.0
 11
23.61992702019732
 21
5.399523877756844
 31
0.0
  0
LINE
  5
1BA6F
330
1BA33
100
AcDbEntity
  8
0
  6
CONTINUOUS
100
AcDbLine
 10
23.54540330801128
 20
5.47404758994289
 30
0.0
 11
22.46969612849353
 21
6.549754769460635
 31
0.0
  0
LINE
  5
1BA70
330
1BA33
100
AcDbEntity
  8
0
  6
CONTINUOUS
100
AcDbLine
 10
29.42225615078443
 20
0.2707139562499279
 30
0.0
 11
28.30987010704312
 21
1.383099999991234
 31
0.0
  0
LINE
  5
1BA71
330
1BA33
100
AcDbEntity
  8
0
  6
CONTINUOUS
100
AcDbLine
 10
25.89179548232307
 20
3.801174624711282
 30
0.0
 11
22.67789923396416
 21
7.015070873070191
 31
0.0
  0
LINE
  5
1BA72
330
1BA33
100
AcDbEntity
  8
0
  6
CONTINUOUS
100
AcDbLine
 10
29.83624534690007
 20
0.5302439692144705
 30
0.0
 11
28.85811781497101
 21
1.508371501143527
 31
0.0
  0
LINE
  5
1BA73
330
1BA33
100
AcDbEntity
  8
0
  6
CONTINUOUS
100
AcDbLine
 10
25.34654446954838
 20
5.01994484656616
 30
0.0
 11
22.88610233943479
 21
7.480386976679748
 31
0.0
  0
LINE
  5
1BA74
330
1BA33
100
AcDbEntity
  8
0
  6
CONTINUOUS
100
AcDbLine
 10
30.17865975401872
 20
0.8613487711760022
 30
0.0
 11
29.18888744090175
 21
1.851121084292977
 31
0.0
  0
LINE
  5
1BA75
330
1BA33
100
AcDbEntity
  8
0
  6
CONTINUOUS
100
AcDbLine
 10
24.80129345677369
 20
6.238715068421037
 30
0.0
 11
23.09430544490542
 21
7.945703080289305
 31
0.0
  0
LINE
  5
1BA76
330
1BA33
100
AcDbEntity
  8
0
  6
CONTINUOUS
100
AcDbLine
 10
30.45496647202376
 20
1.258561262251155
 30
0.0
 11
29.30199999996933
 21
2.411527734305588
 31
0.0
  0
LINE
  5
1BA77
330
1BA33
100
AcDbEntity
  8
0
  6
CONTINUOUS
100
AcDbLine
 10
24.256042443999
 20
7.457485290275915
 30
0.0
 11
23.30250855037605
 21
8.411019183898862
 31
0.0
  0
LINE
  5
1BA78
330
1BA33
100
AcDbEntity
  8
0
  6
CONTINUOUS
100
AcDbLine
 10
30.64868582078271
 20
1.738361122572387
 30
0.0
 11
29.30199999996933
 21
3.085046943385775
 31
0.0
  0
LINE
  5
1BA79
330
1BA33
100
AcDbEntity
  8
0
  6
CONTINUOUS
100
AcDbLine
 10
23.71079143122431
 20
8.676255512130794
 30
0.0
 11
23.51071165584668
 21
8.876335287508416
 31
0.0
  0
LINE
  5
1BA7A
330
1BA33
100
AcDbEntity
  8
0
  6
CONTINUOUS
100
AcDbLine
 10
30.73802122914428
 20
2.322544923291007
 30
0.0
 11
29.30199999996933
 21
3.758566152465961
 31
0.0
  0
LINE
  5
1BA7B
330
1BA33
100
AcDbEntity
  8
0
  6
CONTINUOUS
100
AcDbLine
 10
30.74199999996924
 20
2.992085361546236
 30
0.0
 11
29.30199999996933
 21
4.432085361546148
 31
0.0
  0
LINE
  5
1BA7C
330
1BA33
100
AcDbEntity
  8
0
  6
CONTINUOUS
100
AcDbLine
 10
30.74199999996924
 20
3.665604570626419
 30
0.0
 11
29.30199999996933
 21
5.105604570626333
 31
0.0
  0
LINE
  5
1BA7D
330
1BA33
100
AcDbEntity
  8
0
  6
CONTINUOUS
100
AcDbLine
 10
30.74199999996925
 20
4.339123779706602
 30
0.0
 11
29.30199999996933
 21
5.77912377970652
 31
0.0
  0
LINE
  5
1BA7E
330
1BA33
100
AcDbEntity
  8
0
  6
CONTINUOUS
100
AcDbLine
 10
30.74199999996925
 20
5.012642988786785
 30
0.0
 11
29.30199999996933
 21
6.452642988786707
 31
0.0
  0
LINE
  5
1BA7F
330
1BA33
100
AcDbEntity
  8
0
  6
CONTINUOUS
100
AcDbLine
 10
30.74199999996925
 20
5.68616219786697
 30
0.0
 11
29.30199999996933
 21
7.126162197866894
 31
0.0
  0
LINE
  5
1BA80
330
1BA33
100
AcDbEntity
  8
0
  6
CONTINUOUS
100
AcDbLine
 10
30.74199999996925
 20
6.359681406947153
 30
0.0
 11
29.30199999996933
 21
7.799681406947081
 31
0.0
  0
LINE
  5
1BA81
330
1BA33
100
AcDbEntity
  8
0
  6
CONTINUOUS
100
AcDbLine
 10
30.74199999996926
 20
7.033200616027337
 30
0.0
 11
29.30199999996933
 21
8.473200616027269
 31
0.0
  0
LINE
  5
1BA82
330
1BA33
100
AcDbEntity
  8
0
  6
CONTINUOUS
100
AcDbLine
 10
30.74199999996926
 20
7.706719825107518
 30
0.0
 11
29.68561982508552
 21
8.763099999991255
 31
0.0
  0
LINE
  5
1BA83
330
1BA33
100
AcDbEntity
  8
0
  6
CONTINUOUS
100
AcDbLine
 10
30.74199999996926
 20
8.380239034187703
 30
0.0
 11
30.35913903416571
 21
8.763099999991255
 31
0.0
  0
ENDBLK
  5
1BB26
330
1BA33
100
AcDbEntity
  8
0
100
AcDbBlockEnd
  0
BLOCK
  5
1BB27
330
1BA84
100
AcDbEntity
  8
0
100
AcDbBlockBegin
  2
*X94
 70
     1
 10
0.0
 20
0.0
 30
0.0
  3
*X94
  1

  0
LINE
  5
1BA85
330
1BA84
100
AcDbEntity
  8
0
  6
CONTINUOUS
100
AcDbLine
 10
31.64199999996833
 20
8.535058289913598
 30
0.0
 11
31.87004171004599
 21
8.763099999991255
 31
0.0
  0
LINE
  5
1BA86
330
1BA84
100
AcDbEntity
  8
0
  6
CONTINUOUS
100
AcDbLine
 10
31.64199999996833
 20
7.861539080833412
 30
0.0
 11
32.54356091912618
 21
8.763099999991255
 31
0.0
  0
LINE
  5
1BA87
330
1BA84
100
AcDbEntity
  8
0
  6
CONTINUOUS
100
AcDbLine
 10
31.64199999996833
 20
7.188019871753226
 30
0.0
 11
33.08199999996839
 21
8.628019871753281
 31
0.0
  0
LINE
  5
1BA88
330
1BA84
100
AcDbEntity
  8
0
  6
CONTINUOUS
100
AcDbLine
 10
31.64199999996833
 20
6.51450066267304
 30
0.0
 11
33.08199999996839
 21
7.954500662673095
 31
0.0
  0
LINE
  5
1BA89
330
1BA84
100
AcDbEntity
  8
0
  6
CONTINUOUS
100
AcDbLine
 10
31.64199999996833
 20
5.840981453592853
 30
0.0
 11
33.08199999996839
 21
7.280981453592908
 31
0.0
  0
LINE
  5
1BA8A
330
1BA84
100
AcDbEntity
  8
0
  6
CONTINUOUS
100
AcDbLine
 10
31.64199999996833
 20
5.167462244512667
 30
0.0
 11
33.08199999996839
 21
6.607462244512721
 31
0.0
  0
LINE
  5
1BA8B
330
1BA84
100
AcDbEntity
  8
0
  6
CONTINUOUS
100
AcDbLine
 10
31.64199999996833
 20
4.493943035432481
 30
0.0
 11
33.08199999996839
 21
5.933943035432535
 31
0.0
  0
LINE
  5
1BA8C
330
1BA84
100
AcDbEntity
  8
0
  6
CONTINUOUS
100
AcDbLine
 10
31.64199999996833
 20
3.820423826352293
 30
0.0
 11
33.08199999996839
 21
5.260423826352348
 31
0.0
  0
LINE
  5
1BA8D
330
1BA84
100
AcDbEntity
  8
0
  6
CONTINUOUS
100
AcDbLine
 10
31.64199999996833
 20
3.146904617272106
 30
0.0
 11
33.08199999996839
 21
4.586904617272161
 31
0.0
  0
LINE
  5
1BA8E
330
1BA84
100
AcDbEntity
  8
0
  6
CONTINUOUS
100
AcDbLine
 10
36.23199999996837
 20
8.410423826352325
 30
0.0
 11
36.5846761736073
 21
8.763099999991255
 31
0.0
  0
LINE
  5
1BA8F
330
1BA84
100
AcDbEntity
  8
0
  6
CONTINUOUS
100
AcDbLine
 10
36.23199999996837
 20
7.73690461727214
 30
0.0
 11
37.25819538268748
 21
8.763099999991255
 31
0.0
  0
LINE
  5
1BA90
330
1BA84
100
AcDbEntity
  8
0
  6
CONTINUOUS
100
AcDbLine
 10
31.64257403601376
 20
2.473959444237348
 30
0.0
 11
33.08199999996839
 21
3.913385408191974
 31
0.0
  0
LINE
  5
1BA91
330
1BA84
100
AcDbEntity
  8
0
  6
CONTINUOUS
100
AcDbLine
 10
36.23199999996837
 20
7.063385408191953
 30
0.0
 11
37.67199999996831
 21
8.503385408191894
 31
0.0
  0
LINE
  5
1BA92
330
1BA84
100
AcDbEntity
  8
0
  6
CONTINUOUS
100
AcDbLine
 10
31.72013636841932
 20
1.87800256756272
 30
0.0
 11
33.08199999996839
 21
3.239866199111788
 31
0.0
  0
LINE
  5
1BA93
330
1BA84
100
AcDbEntity
  8
0
  6
CONTINUOUS
100
AcDbLine
 10
36.23199999996837
 20
6.389866199111767
 30
0.0
 11
37.67199999996831
 21
7.829866199111708
 31
0.0
  0
LINE
  5
1BA94
330
1BA84
100
AcDbEntity
  8
0
  6
CONTINUOUS
100
AcDbLine
 10
31.89042734314753
 20
1.374774333210744
 30
0.0
 11
33.08199999996839
 21
2.566346990031601
 31
0.0
  0
LINE
  5
1BA95
330
1BA84
100
AcDbEntity
  8
0
  6
CONTINUOUS
100
AcDbLine
 10
36.23199999996837
 20
5.71634699003158
 30
0.0
 11
37.67199999996831
 21
7.156346990031521
 31
0.0
  0
LINE
  5
1BA96
330
1BA84
100
AcDbEntity
  8
0
  6
CONTINUOUS
100
AcDbLine
 10
32.14210568064475
 20
0.952933461627778
 30
0.0
 11
33.18745552475986
 21
1.998283305742888
 31
0.0
  0
LINE
  5
1BA97
330
1BA84
100
AcDbEntity
  8
0
  6
CONTINUOUS
100
AcDbLine
 10
36.23199999996837
 20
5.042827780951393
 30
0.0
 11
37.67199999996831
 21
6.482827780951334
 31
0.0
  0
LINE
  5
1BA98
330
1BA84
100
AcDbEntity
  8
0
  6
CONTINUOUS
100
AcDbLine
 10
32.45820639400955
 20
0.5955149659123915
 30
0.0
 11
33.47242681921943
 21
1.60973539112227
 31
0.0
  0
LINE
  5
1BA99
330
1BA84
100
AcDbEntity
  8
0
  6
CONTINUOUS
100
AcDbLine
 10
36.23199999996837
 20
4.369308571871207
 30
0.0
 11
37.67199999996831
 21
5.809308571871147
 31
0.0
  0
LINE
  5
1BA9A
330
1BA84
100
AcDbEntity
  8
0
  6
CONTINUOUS
100
AcDbLine
 10
32.83432456621412
 20
0.2981139290367771
 30
0.0
 11
33.89722476612215
 21
1.361014128944803
 31
0.0
  0
LINE
  5
1BA9B
330
1BA84
100
AcDbEntity
  8
0
  6
CONTINUOUS
100
AcDbLine
 10
36.23199999996837
 20
3.69578936279102
 30
0.0
 11
37.67199999996831
 21
5.135789362790962
 31
0.0
  0
LINE
  5
1BA9C
330
1BA84
100
AcDbEntity
  8
0
  6
CONTINUOUS
100
AcDbLine
 10
33.2711633111245
 20
0.0614334648669672
 30
0.0
 11
34.43247338014423
 21
1.222743533886696
 31
0.0
  0
LINE
  5
1BA9D
330
1BA84
100
AcDbEntity
  8
0
  6
CONTINUOUS
100
AcDbLine
 10
36.23199999996837
 20
3.022270153710834
 30
0.0
 11
37.67199999996831
 21
4.462270153710775
 31
0.0
  0
LINE
  5
1BA9E
330
1BA84
100
AcDbEntity
  8
0
  6
CONTINUOUS
100
AcDbLine
 10
33.76515245874577
 20
-0.1180965965919523
 30
0.0
 11
35.1587445516215
 21
1.27549549628378
 31
0.0
  0
LINE
  5
1BA9F
330
1BA84
100
AcDbEntity
  8
0
  6
CONTINUOUS
100
AcDbLine
 10
36.21639478609585
 20
2.333145730758136
 30
0.0
 11
37.67199999996831
 21
3.788750944630588
 31
0.0
  0
LINE
  5
1BAA0
330
1BA84
100
AcDbEntity
  8
0
  6
CONTINUOUS
100
AcDbLine
 10
34.34060583368432
 20
-0.2161624307335863
 30
0.0
 11
37.67199999996831
 21
3.115231735550401
 31
0.0
  0
LINE
  5
1BAA1
330
1BA84
100
AcDbEntity
  8
0
  6
CONTINUOUS
100
AcDbLine
 10
35.01698193613905
 20
-0.2133055373590427
 30
0.0
 11
37.66876712070525
 21
2.438479647207154
 31
0.0
  0
LINE
  5
1BAA2
330
1BA84
100
AcDbEntity
  8
0
  6
CONTINUOUS
100
AcDbLine
 10
35.90743367693304
 20
0.0036269943547609
 30
0.0
 11
37.51723902192366
 21
1.613432339345381
 31
0.0
  0
LINE
  5
1BAA3
330
1BA84
100
AcDbEntity
  8
0
  6
CONTINUOUS
100
AcDbLine
 10
32.55309425579761
 20
0.5074718966376706
 30
0.0
 11
32.27784730925847
 21
0.7827188431768102
 31
0.0
  0
LINE
  5
1BAA4
330
1BA84
100
AcDbEntity
  8
0
  6
CONTINUOUS
100
AcDbLine
 10
33.87496468909684
 20
-0.1408793275813673
 30
0.0
 11
31.67993083278052
 21
2.054154528734943
 31
0.0
  0
LINE
  5
1BAA5
330
1BA84
100
AcDbEntity
  8
0
  6
CONTINUOUS
100
AcDbLine
 10
34.64362813207632
 20
-0.2360235614806649
 30
0.0
 11
31.64199999996833
 21
2.765604570627322
 31
0.0
  0
LINE
  5
1BAA6
330
1BA84
100
AcDbEntity
  8
0
  6
CONTINUOUS
100
AcDbLine
 10
35.25801106796118
 20
-0.1768872882853429
 30
0.0
 11
31.64199999996833
 21
3.439123779707508
 31
0.0
  0
LINE
  5
1BAA7
330
1BA84
100
AcDbEntity
  8
0
  6
CONTINUOUS
100
AcDbLine
 10
35.79065650332146
 20
-0.0360135145654361
 30
0.0
 11
34.54143210838231
 21
1.213210880373721
 31
0.0
  0
LINE
  5
1BAA8
330
1BA84
100
AcDbEntity
  8
0
  6
CONTINUOUS
100
AcDbLine
 10
33.08199999996839
 20
2.67264298878764
 30
0.0
 11
31.64199999996833
 21
4.112642988787695
 31
0.0
  0
LINE
  5
1BAA9
330
1BA84
100
AcDbEntity
  8
0
  6
CONTINUOUS
100
AcDbLine
 10
36.25975597779143
 20
0.1684062200447833
 30
0.0
 11
35.15395110240023
 21
1.274211095435983
 31
0.0
  0
LINE
  5
1BAAA
330
1BA84
100
AcDbEntity
  8
0
  6
CONTINUOUS
100
AcDbLine
 10
33.08199999996839
 20
3.346162197867826
 30
0.0
 11
31.64199999996833
 21
4.786162197867881
 31
0.0
  0
LINE
  5
1BAAB
330
1BA84
100
AcDbEntity
  8
0
  6
CONTINUOUS
100
AcDbLine
 10
36.67226329638774
 20
0.4294181105286579
 30
0.0
 11
35.63766478748767
 21
1.464016619428737
 31
0.0
  0
LINE
  5
1BAAC
330
1BA84
100
AcDbEntity
  8
0
  6
CONTINUOUS
100
AcDbLine
 10
33.08199999996839
 20
4.019681406948012
 30
0.0
 11
31.64199999996833
 21
5.459681406948068
 31
0.0
  0
LINE
  5
1BAAD
330
1BA84
100
AcDbEntity
  8
0
  6
CONTINUOUS
100
AcDbLine
 10
37.01677749710036
 20
0.7584231188962329
 30
0.0
 11
35.99563422741351
 21
1.779566388583076
 31
0.0
  0
LINE
  5
1BAAE
330
1BA84
100
AcDbEntity
  8
0
  6
CONTINUOUS
100
AcDbLine
 10
33.08199999996839
 20
4.693200616028199
 30
0.0
 11
31.64199999996833
 21
6.133200616028255
 31
0.0
  0
LINE
  5
1BAAF
330
1BA84
100
AcDbEntity
  8
0
  6
CONTINUOUS
100
AcDbLine
 10
37.29859977568887
 20
1.1501200493879
 30
0.0
 11
36.20680593341555
 21
2.241913891661226
 31
0.0
  0
LINE
  5
1BAB0
330
1BA84
100
AcDbEntity
  8
0
  6
CONTINUOUS
100
AcDbLine
 10
33.08199999996839
 20
5.366719825108386
 30
0.0
 11
31.64199999996833
 21
6.80671982510844
 31
0.0
  0
LINE
  5
1BAB1
330
1BA84
100
AcDbEntity
  8
0
  6
CONTINUOUS
100
AcDbLine
 10
37.5148623517228
 20
1.607376682434161
 30
0.0
 11
36.23199999996837
 21
2.890239034188594
 31
0.0
  0
LINE
  5
1BAB2
330
1BA84
100
AcDbEntity
  8
0
  6
CONTINUOUS
100
AcDbLine
 10
33.08199999996839
 20
6.040239034188573
 30
0.0
 11
31.64199999996833
 21
7.480239034188627
 31
0.0
  0
LINE
  5
1BAB3
330
1BA84
100
AcDbEntity
  8
0
  6
CONTINUOUS
100
AcDbLine
 10
37.64705163358367
 20
2.148706609653477
 30
0.0
 11
36.23199999996837
 21
3.56375824326878
 31
0.0
  0
LINE
  5
1BAB4
330
1BA84
100
AcDbEntity
  8
0
  6
CONTINUOUS
100
AcDbLine
 10
33.08199999996839
 20
6.713758243268758
 30
0.0
 11
31.64199999996833
 21
8.153758243268815
 31
0.0
  0
LINE
  5
1BAB5
330
1BA84
100
AcDbEntity
  8
0
  6
CONTINUOUS
100
AcDbLine
 10
37.67199999996831
 20
2.797277452349026
 30
0.0
 11
36.23199999996837
 21
4.237277452348967
 31
0.0
  0
LINE
  5
1BAB6
330
1BA84
100
AcDbEntity
  8
0
  6
CONTINUOUS
100
AcDbLine
 10
37.67199999996831
 20
3.470796661429213
 30
0.0
 11
36.23199999996837
 21
4.910796661429154
 31
0.0
  0
LINE
  5
1BAB7
330
1BA84
100
AcDbEntity
  8
0
  6
CONTINUOUS
100
AcDbLine
 10
37.67199999996831
 20
4.144315870509399
 30
0.0
 11
36.23199999996837
 21
5.58431587050934
 31
0.0
  0
LINE
  5
1BAB8
330
1BA84
100
AcDbEntity
  8
0
  6
CONTINUOUS
100
AcDbLine
 10
33.08199999996839
 20
7.387277452348945
 30
0.0
 11
31.70617745232608
 21
8.763099999991255
 31
0.0
  0
LINE
  5
1BAB9
330
1BA84
100
AcDbEntity
  8
0
  6
CONTINUOUS
100
AcDbLine
 10
33.08199999996839
 20
8.060796661429132
 30
0.0
 11
32.37969666140626
 21
8.763099999991255
 31
0.0
  0
LINE
  5
1BABA
330
1BA84
100
AcDbEntity
  8
0
  6
CONTINUOUS
100
AcDbLine
 10
33.08199999996839
 20
8.734315870509318
 30
0.0
 11
33.05321587048645
 21
8.763099999991255
 31
0.0
  0
LINE
  5
1BABB
330
1BA84
100
AcDbEntity
  8
0
  6
CONTINUOUS
100
AcDbLine
 10
37.67199999996831
 20
4.817835079589585
 30
0.0
 11
36.23199999996837
 21
6.257835079589526
 31
0.0
  0
LINE
  5
1BABC
330
1BA84
100
AcDbEntity
  8
0
  6
CONTINUOUS
100
AcDbLine
 10
37.67199999996831
 20
5.491354288669771
 30
0.0
 11
36.23199999996837
 21
6.931354288669713
 31
0.0
  0
LINE
  5
1BABD
330
1BA84
100
AcDbEntity
  8
0
  6
CONTINUOUS
100
AcDbLine
 10
37.67199999996831
 20
6.164873497749958
 30
0.0
 11
36.23199999996837
 21
7.6048734977499
 31
0.0
  0
LINE
  5
1BABE
330
1BA84
100
AcDbEntity
  8
0
  6
CONTINUOUS
100
AcDbLine
 10
37.67199999996831
 20
6.838392706830144
 30
0.0
 11
36.23199999996837
 21
8.278392706830086
 31
0.0
  0
LINE
  5
1BABF
330
1BA84
100
AcDbEntity
  8
0
  6
CONTINUOUS
100
AcDbLine
 10
37.67199999996831
 20
7.511911915910332
 30
0.0
 11
36.42081191588738
 21
8.763099999991255
 31
0.0
  0
LINE
  5
1BAC0
330
1BA84
100
AcDbEntity
  8
0
  6
CONTINUOUS
100
AcDbLine
 10
37.67199999996831
 20
8.185431124990519
 30
0.0
 11
37.09433112496757
 21
8.763099999991255
 31
0.0
  0
ENDBLK
  5
1BB28
330
1BA84
100
AcDbEntity
  8
0
100
AcDbBlockEnd
  0
BLOCK
  5
1BB29
330
1BAC1
100
AcDbEntity
  8
0
100
AcDbBlockBegin
  2
*X95
 70
     1
 10
0.0
 20
0.0
 30
0.0
  3
*X95
  1

  0
LINE
  5
1BAC2
330
1BAC1
100
AcDbEntity
  8
0
  6
CONTINUOUS
100
AcDbLine
 10
38.60499999996136
 20
8.762866199104765
 30
0.0
 11
38.71672554182345
 21
8.874591740966855
 31
0.0
  0
LINE
  5
1BAC3
330
1BAC1
100
AcDbEntity
  8
0
  6
CONTINUOUS
100
AcDbLine
 10
38.60499999996136
 20
8.089346990024577
 30
0.0
 11
39.03418785440363
 21
8.518534844466847
 31
0.0
  0
LINE
  5
1BAC4
330
1BAC1
100
AcDbEntity
  8
0
  6
CONTINUOUS
100
AcDbLine
 10
38.60499999996136
 20
7.41582778094439
 30
0.0
 11
39.35165016698382
 21
8.16247794796684
 31
0.0
  0
LINE
  5
1BAC5
330
1BAC1
100
AcDbEntity
  8
0
  6
CONTINUOUS
100
AcDbLine
 10
38.60499999996136
 20
6.742308571864204
 30
0.0
 11
39.66911247956399
 21
7.806421051466834
 31
0.0
  0
LINE
  5
1BAC6
330
1BAC1
100
AcDbEntity
  8
0
  6
CONTINUOUS
100
AcDbLine
 10
38.60499999996136
 20
6.068789362784018
 30
0.0
 11
39.98657479214418
 21
7.450364154966827
 31
0.0
  0
LINE
  5
1BAC7
330
1BAC1
100
AcDbEntity
  8
0
  6
CONTINUOUS
100
AcDbLine
 10
38.60499999996136
 20
5.395270153703832
 30
0.0
 11
40.30403710472435
 21
7.09430725846682
 31
0.0
  0
LINE
  5
1BAC8
330
1BAC1
100
AcDbEntity
  8
0
  6
CONTINUOUS
100
AcDbLine
 10
38.60499999996136
 20
4.721750944623645
 30
0.0
 11
40.62149941730453
 21
6.738250361966813
 31
0.0
  0
LINE
  5
1BAC9
330
1BAC1
100
AcDbEntity
  8
0
  6
CONTINUOUS
100
AcDbLine
 10
38.60499999996136
 20
4.048231735543458
 30
0.0
 11
40.93896172988471
 21
6.382193465466806
 31
0.0
  0
LINE
  5
1BACA
330
1BAC1
100
AcDbEntity
  8
0
  6
CONTINUOUS
100
AcDbLine
 10
38.60499999996136
 20
3.374712526463272
 30
0.0
 11
40.02599999995994
 21
4.795712526461843
 31
0.0
  0
LINE
  5
1BACB
330
1BAC1
100
AcDbEntity
  8
0
  6
CONTINUOUS
100
AcDbLine
 10
38.60499999996136
 20
2.701193317383085
 30
0.0
 11
40.02599999995994
 21
4.122193317381657
 31
0.0
  0
LINE
  5
1BACC
330
1BAC1
100
AcDbEntity
  8
0
  6
CONTINUOUS
100
AcDbLine
 10
40.28339754687704
 20
5.053110073378947
 30
0.0
 11
41.25642404246489
 21
6.026136568966799
 31
0.0
  0
LINE
  5
1BACD
330
1BAC1
100
AcDbEntity
  8
0
  6
CONTINUOUS
100
AcDbLine
 10
40.60085985945722
 20
4.697053176878939
 30
0.0
 11
41.57388635504507
 21
5.670079672466793
 31
0.0
  0
LINE
  5
1BACE
330
1BAC1
100
AcDbEntity
  8
0
  6
CONTINUOUS
100
AcDbLine
 10
43.57899999995641
 20
8.348712526458318
 30
0.0
 11
43.99338747348935
 21
8.763099999991255
 31
0.0
  0
LINE
  5
1BACF
330
1BAC1
100
AcDbEntity
  8
0
  6
CONTINUOUS
100
AcDbLine
 10
43.57899999995641
 20
7.675193317378131
 30
0.0
 11
44.66690668256953
 21
8.763099999991255
 31
0.0
  0
LINE
  5
1BAD0
330
1BAC1
100
AcDbEntity
  8
0
  6
CONTINUOUS
100
AcDbLine
 10
38.60499999996136
 20
2.027674108302898
 30
0.0
 11
40.02599999995994
 21
3.44867410830147
 31
0.0
  0
LINE
  5
1BAD1
330
1BAC1
100
AcDbEntity
  8
0
  6
CONTINUOUS
100
AcDbLine
 10
38.60499999996136
 20
1.354154899222712
 30
0.0
 11
40.02599999995994
 21
2.775154899221284
 31
0.0
  0
LINE
  5
1BAD2
330
1BAC1
100
AcDbEntity
  8
0
  6
CONTINUOUS
100
AcDbLine
 10
38.60499999996136
 20
0.6806356901425255
 30
0.0
 11
40.02599999995994
 21
2.101635690141098
 31
0.0
  0
LINE
  5
1BAD3
330
1BAC1
100
AcDbEntity
  8
0
  6
CONTINUOUS
100
AcDbLine
 10
38.60499999996136
 20
0.0071164810623383
 30
0.0
 11
40.02599999995994
 21
1.428116481060911
 31
0.0
  0
LINE
  5
1BAD4
330
1BAC1
100
AcDbEntity
  8
0
  6
CONTINUOUS
100
AcDbLine
 10
40.9183221720374
 20
4.340996280378933
 30
0.0
 11
41.89134866762525
 21
5.314022775966786
 31
0.0
  0
LINE
  5
1BAD5
330
1BAC1
100
AcDbEntity
  8
0
  6
CONTINUOUS
100
AcDbLine
 10
41.23578448461758
 20
3.984939383878926
 30
0.0
 11
42.20881098020543
 21
4.957965879466778
 31
0.0
  0
LINE
  5
1BAD6
330
1BAC1
100
AcDbEntity
  8
0
  6
CONTINUOUS
100
AcDbLine
 10
41.55324679719776
 20
3.628882487378919
 30
0.0
 11
42.52627329278561
 21
4.601908982966772
 31
0.0
  0
LINE
  5
1BAD7
330
1BAC1
100
AcDbEntity
  8
0
  6
CONTINUOUS
100
AcDbLine
 10
41.87070910977793
 20
3.272825590878912
 30
0.0
 11
42.84373560536579
 21
4.245852086466765
 31
0.0
  0
LINE
  5
1BAD8
330
1BAC1
100
AcDbEntity
  8
0
  6
CONTINUOUS
100
AcDbLine
 10
43.57899999995641
 20
7.001674108297943
 30
0.0
 11
44.99999999995498
 21
8.422674108296516
 31
0.0
  0
LINE
  5
1BAD9
330
1BAC1
100
AcDbEntity
  8
0
  6
CONTINUOUS
100
AcDbLine
 10
43.57899999995641
 20
6.328154899217758
 30
0.0
 11
44.99999999995498
 21
7.749154899216329
 31
0.0
  0
LINE
  5
1BADA
330
1BAC1
100
AcDbEntity
  8
0
  6
CONTINUOUS
100
AcDbLine
 10
43.57899999995641
 20
5.654635690137571
 30
0.0
 11
44.99999999995498
 21
7.075635690136142
 31
0.0
  0
LINE
  5
1BADB
330
1BAC1
100
AcDbEntity
  8
0
  6
CONTINUOUS
100
AcDbLine
 10
43.57899999995641
 20
4.981116481057384
 30
0.0
 11
44.99999999995498
 21
6.402116481055955
 31
0.0
  0
LINE
  5
1BADC
330
1BAC1
100
AcDbEntity
  8
0
  6
CONTINUOUS
100
AcDbLine
 10
39.27140272797921
 20
-0.0000000000000009
 30
0.0
 11
40.02599999995994
 21
0.7545972719807246
 31
0.0
  0
LINE
  5
1BADD
330
1BAC1
100
AcDbEntity
  8
0
  6
CONTINUOUS
100
AcDbLine
 10
39.9449219370594
 20
-0.0000000000000009
 30
0.0
 11
40.02599999995994
 21
0.0810780629005379
 31
0.0
  0
LINE
  5
1BADE
330
1BAC1
100
AcDbEntity
  8
0
  6
CONTINUOUS
100
AcDbLine
 10
42.18817142235812
 20
2.916768694378905
 30
0.0
 11
43.16119791794597
 21
3.889795189966758
 31
0.0
  0
LINE
  5
1BADF
330
1BAC1
100
AcDbEntity
  8
0
  6
CONTINUOUS
100
AcDbLine
 10
42.50563373493829
 20
2.560711797878898
 30
0.0
 11
43.47866023052615
 21
3.533738293466751
 31
0.0
  0
LINE
  5
1BAE0
330
1BAC1
100
AcDbEntity
  8
0
  6
CONTINUOUS
100
AcDbLine
 10
43.57899999995641
 20
4.307597271977198
 30
0.0
 11
44.99999999995498
 21
5.728597271975769
 31
0.0
  0
LINE
  5
1BAE1
330
1BAC1
100
AcDbEntity
  8
0
  6
CONTINUOUS
100
AcDbLine
 10
43.57899999995641
 20
3.634078062897011
 30
0.0
 11
44.99999999995498
 21
5.055078062895582
 31
0.0
  0
LINE
  5
1BAE2
330
1BAC1
100
AcDbEntity
  8
0
  6
CONTINUOUS
100
AcDbLine
 10
42.82309604751848
 20
2.204654901378891
 30
0.0
 11
44.99999999995498
 21
4.381558853815395
 31
0.0
  0
LINE
  5
1BAE3
330
1BAC1
100
AcDbEntity
  8
0
  6
CONTINUOUS
100
AcDbLine
 10
43.14055836009865
 20
1.848598004878885
 30
0.0
 11
44.99999999995498
 21
3.70803964473521
 31
0.0
  0
LINE
  5
1BAE4
330
1BAC1
100
AcDbEntity
  8
0
  6
CONTINUOUS
100
AcDbLine
 10
43.45802067267883
 20
1.492541108378878
 30
0.0
 11
44.99999999995498
 21
3.034520435655023
 31
0.0
  0
LINE
  5
1BAE5
330
1BAC1
100
AcDbEntity
  8
0
  6
CONTINUOUS
100
AcDbLine
 10
43.77548298525902
 20
1.136484211878871
 30
0.0
 11
44.99999999995498
 21
2.361001226574837
 31
0.0
  0
LINE
  5
1BAE6
330
1BAC1
100
AcDbEntity
  8
0
  6
CONTINUOUS
100
AcDbLine
 10
44.09294529783919
 20
0.7804273153788639
 30
0.0
 11
44.99999999995498
 21
1.687482017494649
 31
0.0
  0
LINE
  5
1BAE7
330
1BAC1
100
AcDbEntity
  8
0
  6
CONTINUOUS
100
AcDbLine
 10
44.41040761041938
 20
0.4243704188788566
 30
0.0
 11
44.99999999995498
 21
1.013962808414463
 31
0.0
  0
LINE
  5
1BAE8
330
1BAC1
100
AcDbEntity
  8
0
  6
CONTINUOUS
100
AcDbLine
 10
44.72786992299955
 20
0.0683135223788494
 30
0.0
 11
44.99999999995498
 21
0.340443599334276
 31
0.0
  0
LINE
  5
1BAE9
330
1BAC1
100
AcDbEntity
  8
0
  6
CONTINUOUS
100
AcDbLine
 10
39.12223903415696
 20
-0.0000000000000009
 30
0.0
 11
38.60499999996136
 21
0.5172390341955961
 31
0.0
  0
LINE
  5
1BAEA
330
1BAC1
100
AcDbEntity
  8
0
  6
CONTINUOUS
100
AcDbLine
 10
39.79575824323715
 20
-0.0000000000000009
 30
0.0
 11
38.60499999996136
 21
1.190758243275783
 31
0.0
  0
LINE
  5
1BAEB
330
1BAC1
100
AcDbEntity
  8
0
  6
CONTINUOUS
100
AcDbLine
 10
40.02599999995994
 20
0.443277452357397
 30
0.0
 11
38.60499999996136
 21
1.864277452355969
 31
0.0
  0
LINE
  5
1BAEC
330
1BAC1
100
AcDbEntity
  8
0
  6
CONTINUOUS
100
AcDbLine
 10
40.02599999995994
 20
1.116796661437583
 30
0.0
 11
38.60499999996136
 21
2.537796661436155
 31
0.0
  0
LINE
  5
1BAED
330
1BAC1
100
AcDbEntity
  8
0
  6
CONTINUOUS
100
AcDbLine
 10
40.02599999995994
 20
1.79031587051777
 30
0.0
 11
38.60499999996136
 21
3.211315870516341
 31
0.0
  0
LINE
  5
1BAEE
330
1BAC1
100
AcDbEntity
  8
0
  6
CONTINUOUS
100
AcDbLine
 10
40.02599999995994
 20
2.463835079597956
 30
0.0
 11
38.60499999996136
 21
3.884835079596527
 31
0.0
  0
LINE
  5
1BAEF
330
1BAC1
100
AcDbEntity
  8
0
  6
CONTINUOUS
100
AcDbLine
 10
40.02599999995994
 20
3.137354288678143
 30
0.0
 11
38.60499999996136
 21
4.558354288676714
 31
0.0
  0
LINE
  5
1BAF0
330
1BAC1
100
AcDbEntity
  8
0
  6
CONTINUOUS
100
AcDbLine
 10
40.02599999995994
 20
3.810873497758329
 30
0.0
 11
38.60499999996136
 21
5.2318734977569
 31
0.0
  0
LINE
  5
1BAF1
330
1BAC1
100
AcDbEntity
  8
0
  6
CONTINUOUS
100
AcDbLine
 10
40.02599999995994
 20
4.484392706838515
 30
0.0
 11
38.60499999996136
 21
5.905392706837086
 31
0.0
  0
LINE
  5
1BAF2
330
1BAC1
100
AcDbEntity
  8
0
  6
CONTINUOUS
100
AcDbLine
 10
44.99999999995498
 20
0.183911915923658
 30
0.0
 11
41.53858364506288
 21
3.64532827081576
 31
0.0
  0
LINE
  5
1BAF3
330
1BAC1
100
AcDbEntity
  8
0
  6
CONTINUOUS
100
AcDbLine
 10
40.02599999995994
 20
5.157911915918703
 30
0.0
 11
38.60499999996136
 21
6.578911915917274
 31
0.0
  0
LINE
  5
1BAF4
330
1BAC1
100
AcDbEntity
  8
0
  6
CONTINUOUS
100
AcDbLine
 10
44.99999999995498
 20
0.8574311250038447
 30
0.0
 11
38.60499999996136
 21
7.25243112499746
 31
0.0
  0
LINE
  5
1BAF5
330
1BAC1
100
AcDbEntity
  8
0
  6
CONTINUOUS
100
AcDbLine
 10
44.99999999995498
 20
1.530950334084031
 30
0.0
 11
38.60499999996136
 21
7.925950334077647
 31
0.0
  0
LINE
  5
1BAF6
330
1BAC1
100
AcDbEntity
  8
0
  6
CONTINUOUS
100
AcDbLine
 10
44.99999999995498
 20
2.204469543164218
 30
0.0
 11
43.57899999995641
 21
3.625469543162789
 31
0.0
  0
LINE
  5
1BAF7
330
1BAC1
100
AcDbEntity
  8
0
  6
CONTINUOUS
100
AcDbLine
 10
41.89876730984767
 20
5.305702233271528
 30
0.0
 11
38.60499999996136
 21
8.599469543157834
 31
0.0
  0
LINE
  5
1BAF8
330
1BAC1
100
AcDbEntity
  8
0
  6
CONTINUOUS
100
AcDbLine
 10
44.99999999995498
 20
2.877988752244405
 30
0.0
 11
43.57899999995641
 21
4.298988752242975
 31
0.0
  0
LINE
  5
1BAF9
330
1BAC1
100
AcDbEntity
  8
0
  6
CONTINUOUS
100
AcDbLine
 10
44.99999999995498
 20
3.551507961324591
 30
0.0
 11
43.57899999995641
 21
4.972507961323163
 31
0.0
  0
LINE
  5
1BAFA
330
1BAC1
100
AcDbEntity
  8
0
  6
CONTINUOUS
100
AcDbLine
 10
44.99999999995498
 20
4.225027170404777
 30
0.0
 11
43.57899999995641
 21
5.646027170403348
 31
0.0
  0
LINE
  5
1BAFB
330
1BAC1
100
AcDbEntity
  8
0
  6
CONTINUOUS
100
AcDbLine
 10
44.99999999995498
 20
4.898546379484964
 30
0.0
 11
43.57899999995641
 21
6.319546379483535
 31
0.0
  0
LINE
  5
1BAFC
330
1BAC1
100
AcDbEntity
  8
0
  6
CONTINUOUS
100
AcDbLine
 10
44.99999999995498
 20
5.572065588565151
 30
0.0
 11
43.57899999995641
 21
6.993065588563722
 31
0.0
  0
LINE
  5
1BAFD
330
1BAC1
100
AcDbEntity
  8
0
  6
CONTINUOUS
100
AcDbLine
 10
44.99999999995498
 20
6.245584797645336
 30
0.0
 11
43.57899999995641
 21
7.666584797643908
 31
0.0
  0
LINE
  5
1BAFE
330
1BAC1
100
AcDbEntity
  8
0
  6
CONTINUOUS
100
AcDbLine
 10
44.99999999995498
 20
6.919104006725522
 30
0.0
 11
43.57899999995641
 21
8.340104006724093
 31
0.0
  0
LINE
  5
1BAFF
330
1BAC1
100
AcDbEntity
  8
0
  6
CONTINUOUS
100
AcDbLine
 10
44.99999999995498
 20
7.592623215805709
 30
0.0
 11
43.82952321576943
 21
8.763099999991255
 31
0.0
  0
LINE
  5
1BB00
330
1BAC1
100
AcDbEntity
  8
0
  6
CONTINUOUS
100
AcDbLine
 10
44.99999999995498
 20
8.266142424885896
 30
0.0
 11
44.50304242484962
 21
8.763099999991255
 31
0.0
  0
ENDBLK
  5
1BB2A
330
1BAC1
100
AcDbEntity
  8
0
100
AcDbBlockEnd
  0
BLOCK
  5
1BB2B
330
1BB01
100
AcDbEntity
  8
0
100
AcDbBlockBegin
  2
*X96
 70
     1
 10
0.0
 20
0.0
 30
0.0
  3
*X96
  1

  0
LINE
  5
1BB02
330
1BB01
100
AcDbEntity
  8
0
  6
CONTINUOUS
100
AcDbLine
 10
0.0
 20
8.548461116714023
 30
0.0
 11
0.2146388832772324
 21
8.763099999991255
 31
0.0
  0
LINE
  5
1BB03
330
1BB01
100
AcDbEntity
  8
0
  6
CONTINUOUS
100
AcDbLine
 10
-0.0000000000000002
 20
7.874941907633837
 30
0.0
 11
0.8881580923574184
 21
8.763099999991255
 31
0.0
  0
LINE
  5
1BB04
330
1BB01
100
AcDbEntity
  8
0
  6
CONTINUOUS
100
AcDbLine
 10
0.0
 20
7.20142269855365
 30
0.0
 11
1.420999999998572
 21
8.622422698552223
 31
0.0
  0
LINE
  5
1BB05
330
1BB01
100
AcDbEntity
  8
0
  6
CONTINUOUS
100
AcDbLine
 10
-0.0000000000000001
 20
6.527903489473465
 30
0.0
 11
1.420999999998571
 21
7.948903489472036
 31
0.0
  0
LINE
  5
1BB06
330
1BB01
100
AcDbEntity
  8
0
  6
CONTINUOUS
100
AcDbLine
 10
-0.0000000000000002
 20
5.854384280393278
 30
0.0
 11
1.420999999998571
 21
7.275384280391849
 31
0.0
  0
LINE
  5
1BB07
330
1BB01
100
AcDbEntity
  8
0
  6
CONTINUOUS
100
AcDbLine
 10
-0.0000000000000002
 20
5.180865071313091
 30
0.0
 11
1.420999999998571
 21
6.601865071311663
 31
0.0
  0
LINE
  5
1BB08
330
1BB01
100
AcDbEntity
  8
0
  6
CONTINUOUS
100
AcDbLine
 10
0.0
 20
4.507345862232905
 30
0.0
 11
1.420999999998571
 21
5.928345862231477
 31
0.0
  0
LINE
  5
1BB09
330
1BB01
100
AcDbEntity
  8
0
  6
CONTINUOUS
100
AcDbLine
 10
-0.0000000000000003
 20
3.833826653152718
 30
0.0
 11
1.420999999998571
 21
5.25482665315129
 31
0.0
  0
LINE
  5
1BB0A
330
1BB01
100
AcDbEntity
  8
0
  6
CONTINUOUS
100
AcDbLine
 10
-0.0000000000000002
 20
3.160307444072532
 30
0.0
 11
1.420999999998571
 21
4.581307444071103
 31
0.0
  0
LINE
  5
1BB0B
330
1BB01
100
AcDbEntity
  8
0
  6
CONTINUOUS
100
AcDbLine
 10
-0.0000000000000001
 20
2.486788234992345
 30
0.0
 11
1.420999999998571
 21
3.907788234990917
 31
0.0
  0
LINE
  5
1BB0C
330
1BB01
100
AcDbEntity
  8
0
  6
CONTINUOUS
100
AcDbLine
 10
-0.0000000000000006
 20
1.813269025912159
 30
0.0
 11
1.420999999998571
 21
3.234269025910731
 31
0.0
  0
LINE
  5
1BB0D
330
1BB01
100
AcDbEntity
  8
0
  6
CONTINUOUS
100
AcDbLine
 10
0.0
 20
1.139749816831973
 30
0.0
 11
1.420999999998571
 21
2.560749816830544
 31
0.0
  0
LINE
  5
1BB0E
330
1BB01
100
AcDbEntity
  8
0
  6
CONTINUOUS
100
AcDbLine
 10
0.0000000000000002
 20
0.466230607751787
 30
0.0
 11
1.420999999998571
 21
1.887230607750358
 31
0.0
  0
LINE
  5
1BB0F
330
1BB01
100
AcDbEntity
  8
0
  6
CONTINUOUS
100
AcDbLine
 10
0.2072886013284003
 20
-0.0000000000000009
 30
0.0
 11
1.420999999998571
 21
1.213711398670171
 31
0.0
  0
LINE
  5
1BB10
330
1BB01
100
AcDbEntity
  8
0
  6
CONTINUOUS
100
AcDbLine
 10
0.8808078104085864
 20
-0.0000000000000009
 30
0.0
 11
1.420999999998571
 21
0.5401921895899839
 31
0.0
  0
LINE
  5
1BB11
330
1BB01
100
AcDbEntity
  8
0
  6
CONTINUOUS
100
AcDbLine
 10
0.0581249075061505
 20
-0.0000000000000009
 30
0.0
 11
-0.0000000000000002
 21
0.0581249075061496
 31
0.0
  0
LINE
  5
1BB12
330
1BB01
100
AcDbEntity
  8
0
  6
CONTINUOUS
100
AcDbLine
 10
0.7316441165863372
 20
-0.0000000000000009
 30
0.0
 11
-0.0000000000000002
 21
0.7316441165863363
 31
0.0
  0
LINE
  5
1BB13
330
1BB01
100
AcDbEntity
  8
0
  6
CONTINUOUS
100
AcDbLine
 10
1.405163325666523
 20
-0.0000000000000009
 30
0.0
 11
-0.0000000000000002
 21
1.405163325666523
 31
0.0
  0
LINE
  5
1BB14
330
1BB01
100
AcDbEntity
  8
0
  6
CONTINUOUS
100
AcDbLine
 10
1.420999999998572
 20
0.6576825347481381
 30
0.0
 11
-0.0000000000000001
 21
2.07868253474671
 31
0.0
  0
LINE
  5
1BB15
330
1BB01
100
AcDbEntity
  8
0
  6
CONTINUOUS
100
AcDbLine
 10
1.420999999998571
 20
1.331201743828324
 30
0.0
 11
-0.0000000000000001
 21
2.752201743826896
 31
0.0
  0
LINE
  5
1BB16
330
1BB01
100
AcDbEntity
  8
0
  6
CONTINUOUS
100
AcDbLine
 10
1.420999999998571
 20
2.004720952908511
 30
0.0
 11
-0.0000000000000002
 21
3.425720952907082
 31
0.0
  0
LINE
  5
1BB17
330
1BB01
100
AcDbEntity
  8
0
  6
CONTINUOUS
100
AcDbLine
 10
1.420999999998571
 20
2.678240161988697
 30
0.0
 11
-0.0000000000000001
 21
4.099240161987269
 31
0.0
  0
LINE
  5
1BB18
330
1BB01
100
AcDbEntity
  8
0
  6
CONTINUOUS
100
AcDbLine
 10
1.420999999998572
 20
3.351759371068884
 30
0.0
 11
0.0
 21
4.772759371067455
 31
0.0
  0
LINE
  5
1BB19
330
1BB01
100
AcDbEntity
  8
0
  6
CONTINUOUS
100
AcDbLine
 10
1.420999999998571
 20
4.02527858014907
 30
0.0
 11
-0.0000000000000003
 21
5.446278580147642
 31
0.0
  0
LINE
  5
1BB1A
330
1BB01
100
AcDbEntity
  8
0
  6
CONTINUOUS
100
AcDbLine
 10
1.420999999998571
 20
4.698797789229257
 30
0.0
 11
0.0
 21
6.119797789227828
 31
0.0
  0
LINE
  5
1BB1B
330
1BB01
100
AcDbEntity
  8
0
  6
CONTINUOUS
100
AcDbLine
 10
1.420999999998571
 20
5.372316998309444
 30
0.0
 11
-0.0000000000000001
 21
6.793316998308015
 31
0.0
  0
LINE
  5
1BB1C
330
1BB01
100
AcDbEntity
  8
0
  6
CONTINUOUS
100
AcDbLine
 10
1.420999999998572
 20
6.045836207389629
 30
0.0
 11
-0.0000000000000004
 21
7.466836207388202
 31
0.0
  0
LINE
  5
1BB1D
330
1BB01
100
AcDbEntity
  8
0
  6
CONTINUOUS
100
AcDbLine
 10
1.420999999998571
 20
6.719355416469816
 30
0.0
 11
0.0
 21
8.140355416468388
 31
0.0
  0
LINE
  5
1BB1E
330
1BB01
100
AcDbEntity
  8
0
  6
CONTINUOUS
100
AcDbLine
 10
1.420999999998571
 20
7.392874625550003
 30
0.0
 11
0.0507746255573185
 21
8.763099999991255
 31
0.0
  0
LINE
  5
1BB1F
330
1BB01
100
AcDbEntity
  8
0
  6
CONTINUOUS
100
AcDbLine
 10
1.420999999998571
 20
8.06639383463019
 30
0.0
 11
0.7242938346375052
 21
8.763099999991255
 31
0.0
  0
LINE
  5
1BB20
330
1BB01
100
AcDbEntity
  8
0
  6
CONTINUOUS
100
AcDbLine
 10
1.420999999998571
 20
8.739913043710375
 30
0.0
 11
1.397813043717691
 21
8.763099999991255
 31
0.0
  0
ENDBLK
  5
1BB2C
330
1BB01
100
AcDbEntity
  8
0
100
AcDbBlockEnd
  0
ENDSEC
  0
SECTION
  2
ENTITIES
  0
CIRCLE
  5
1AA40
330
18
100
AcDbEntity
  8
01
100
AcDbCircle
 10
2692.965466191073
 20
-618.4949771653331
 30
0.0
 40
2.5
  0
LINE
  5
1AA41
330
18
100
AcDbEntity
  8
01
100
AcDbLine
 10
2339.965570530815
 20
-625.8949673694605
 30
0.0
 11
2365.965570530815
 21
-625.8949673694605
 31
0.0
  0
LINE
  5
1AA42
330
18
100
AcDbEntity
  8
01
100
AcDbLine
 10
2375.465570530815
 20
-620.3949673694605
 30
0.0
 11
2330.465570530815
 21
-620.3949673694605
 31
0.0
  0
LINE
  5
1AA43
330
18
100
AcDbEntity
  8
01
100
AcDbLine
 10
2352.965570530815
 20
-597.8949673694605
 30
0.0
 11
2352.965570530815
 21
-642.8949673694605
 31
0.0
  0
LINE
  5
1AA44
330
18
100
AcDbEntity
  8
01
100
AcDbLine
 10
2670.465466191073
 20
-620.3949673694605
 30
0.0
 11
2715.465466191073
 21
-620.3949673694605
 31
0.0
  0
LINE
  5
1AA45
330
18
100
AcDbEntity
  8
01
100
AcDbLine
 10
2692.965466191073
 20
-597.8949673694605
 30
0.0
 11
2692.965466191073
 21
-642.8949673694605
 31
0.0
  0
LINE
  5
1AA47
330
18
100
AcDbEntity
  8
01
100
AcDbLine
 10
2555.376444316488
 20
-625.8949673694677
 30
-0.0000000000562575
 11
2538.790360692937
 21
-625.8949673694677
 31
-0.0000000000562575
  0
CIRCLE
  5
1AA49
330
18
100
AcDbEntity
  8
01
100
AcDbCircle
 10
2692.96546619136
 20
-625.8949671653326
 30
0.0
 40
3.75
  0
CIRCLE
  5
1AA4A
330
18
100
AcDbEntity
  8
01
100
AcDbCircle
 10
2692.96546619136
 20
-625.8949673694605
 30
0.0
 40
3.5000005
  0
LINE
  5
1AA4B
330
18
100
AcDbEntity
  8
01
100
AcDbLine
 10
2693.96546619136
 20
-629.2490701694604
 30
0.0
 11
2693.96546619136
 21
-622.5408633694605
 31
0.0
  0
LINE
  5
1AA4C
330
18
100
AcDbEntity
  8
01
100
AcDbLine
 10
2691.96546619136
 20
-629.2490701694604
 30
0.0
 11
2691.96546619136
 21
-622.5408633694605
 31
0.0
  0
LINE
  5
1AA4D
330
18
100
AcDbEntity
  8
01
100
AcDbLine
 10
2673.465465868613
 20
-600.3949673697497
 30
0.0
 11
2712.465465868613
 21
-600.3949673697497
 31
0.0
  0
ARC
  5
1AA4E
330
18
100
AcDbEntity
  8
01
100
AcDbCircle
 10
2712.465465868613
 20
-600.8949673697497
 30
0.0
 40
0.5
100
AcDbArc
 50
0.0
 51
90.0
  0
LINE
  5
1AA4F
330
18
100
AcDbEntity
  8
01
100
AcDbLine
 10
2673.465465868613
 20
-640.3949673697497
 30
0.0
 11
2712.465465868613
 21
-640.3949673697497
 31
0.0
  0
ARC
  5
1AA50
330
18
100
AcDbEntity
  8
01
100
AcDbCircle
 10
2673.465465868613
 20
-639.8949673697497
 30
0.0
 40
0.5
100
AcDbArc
 50
180.0
 51
270.0
  0
LINE
  5
1AA51
330
18
100
AcDbEntity
  8
01
100
AcDbLine
 10
2672.965465868613
 20
-639.8949673697497
 30
0.0
 11
2672.965465868613
 21
-600.8949673697497
 31
0.0
  0
ARC
  5
1AA52
330
18
100
AcDbEntity
  8
01
100
AcDbCircle
 10
2673.465465868613
 20
-600.8949673697497
 30
0.0
 40
0.5
100
AcDbArc
 50
90.0
 51
180.0
  0
LINE
  5
1AA53
330
18
100
AcDbEntity
  8
01
100
AcDbLine
 10
2712.965465868613
 20
-639.8949673697497
 30
0.0
 11
2712.965465868613
 21
-600.8949673697497
 31
0.0
  0
ARC
  5
1AA54
330
18
100
AcDbEntity
  8
01
100
AcDbCircle
 10
2712.465465868613
 20
-639.8949673697497
 30
0.0
 40
0.5
100
AcDbArc
 50
270.0
 51
0.0
  0
LINE
  5
1AA55
330
18
100
AcDbEntity
  8
01
100
AcDbLine
 10
2333.465578208358
 20
-600.3949673697497
 30
0.0
 11
2372.465578208356
 21
-600.3949673697497
 31
0.0
  0
ARC
  5
1AA56
330
18
100
AcDbEntity
  8
01
100
AcDbCircle
 10
2372.465578208356
 20
-600.8949673697497
 30
0.0
 40
0.5
100
AcDbArc
 50
0.0
 51
90.0
  0
LINE
  5
1AA57
330
18
100
AcDbEntity
  8
01
100
AcDbLine
 10
2333.465578208356
 20
-640.3949673697497
 30
0.0
 11
2372.465578208356
 21
-640.3949673697497
 31
0.0
  0
ARC
  5
1AA58
330
18
100
AcDbEntity
  8
01
100
AcDbCircle
 10
2333.465578208356
 20
-639.8949673697497
 30
0.0
 40
0.5
100
AcDbArc
 50
180.0
 51
270.0
  0
LINE
  5
1AA59
330
18
100
AcDbEntity
  8
01
100
AcDbLine
 10
2332.965578208356
 20
-639.8949673697497
 30
0.0
 11
2332.965578208358
 21
-600.8949673697497
 31
0.0
  0
ARC
  5
1AA5A
330
18
100
AcDbEntity
  8
01
100
AcDbCircle
 10
2333.465578208358
 20
-600.8949673697497
 30
0.0
 40
0.5
100
AcDbArc
 50
90.0
 51
180.0
  0
LINE
  5
1AA5B
330
18
100
AcDbEntity
  8
01
100
AcDbLine
 10
2372.965578208356
 20
-639.8949673697497
 30
0.0
 11
2372.965578208356
 21
-600.8949673697497
 31
0.0
  0
ARC
  5
1AA5C
330
18
100
AcDbEntity
  8
01
100
AcDbCircle
 10
2372.465578208356
 20
-639.8949673697497
 30
0.0
 40
0.5
100
AcDbArc
 50
270.0
 51
0.0
  0
LINE
  5
1AA70
330
18
100
AcDbEntity
  8
01
100
AcDbLine
 10
2502.965574530816
 20
-600.8949673697357
 30
0.0
 11
2502.965574530816
 21
-600.3949673697357
 31
0.0
  0
LINE
  5
1AA71
330
18
100
AcDbEntity
  8
01
100
AcDbLine
 10
2502.965574530816
 20
-600.8949673697357
 30
0.0
 11
2502.965574530816
 21
-639.8949673697356
 31
0.0
  0
LINE
  5
1AA73
330
18
100
AcDbEntity
  8
01
100
AcDbLine
 10
2502.965574530816
 20
-640.3949673697356
 30
0.0
 11
2502.965574530816
 21
-639.8949673697356
 31
0.0
  0
LINE
  5
1AA82
330
18
100
AcDbEntity
  8
01
100
AcDbLine
 10
2495.465574530816
 20
-619.1599840732746
 30
0.0
 11
2495.465574530816
 21
-632.6299506656608
 31
0.0
  0
LINE
  5
1AA90
330
18
100
AcDbEntity
  8
01
100
AcDbLine
 10
2542.965574530816
 20
-600.3949673694677
 30
0.0
 11
2542.965574530816
 21
-640.3949673694678
 31
0.0
  0
LINE
  5
1AAA3
330
18
100
AcDbEntity
  8
01
100
AcDbLine
 10
2712.965574274459
 20
-385.8949673704855
 30
0.0
 11
2672.965574274459
 21
-385.8949673704921
 31
0.0
  0
LINE
  5
1AAB9
330
18
100
AcDbEntity
  8
01
100
AcDbLine
 10
2712.965574274459
 20
-425.8949673704886
 30
0.0
 11
2672.965574274459
 21
-425.8949673704886
 31
0.0
  0
TEXT
  5
1AABE
330
18
100
AcDbEntity
  8
1TEXT
100
AcDbText
 10
2334.965590530815
 20
-394.3949673694609
 30
0.0
 40
20.0
  1
3-GZT-X-LJ-8
100
AcDbText
  0
LINE
  5
1AACD
330
18
100
AcDbEntity
  8
01
100
AcDbLine
 10
2641.96634237313
 20
-385.8949673704896
 30
0.0
 11
2795.720722528165
 21
-385.8949673704896
 31
0.0
  0
LINE
  5
1AAD0
330
18
100
AcDbEntity
  8
01
100
AcDbLine
 10
2641.96634237313
 20
-385.8949673704896
 30
0.0
 11
2641.96634237313
 21
-425.8949673704896
 31
0.0
  0
LINE
  5
1AAD2
330
18
100
AcDbEntity
  8
01
100
AcDbLine
 10
2692.96545819107
 20
-390.8949673715182
 30
0.0
 11
2692.96545819107
 21
-364.3949673715182
 31
0.0
  0
LINE
  5
1AAD3
330
18
100
AcDbEntity
  8
01
100
AcDbLine
 10
2666.465458191074
 20
-385.8949673704896
 30
0.0
 11
2719.46545819107
 21
-385.8949673704896
 31
0.0
  0
LINE
  5
1AAD4
330
18
100
AcDbEntity
  8
01
100
AcDbLine
 10
2666.965458191074
 20
-377.3949673704896
 30
0.0
 11
2690.465470412285
 21
-377.3949673704896
 31
0.0
  0
LINE
  5
1AAD5
330
18
100
AcDbEntity
  8
01
100
AcDbLine
 10
2695.465470412287
 20
-377.3949673704896
 30
0.0
 11
2718.96545819107
 21
-377.3949673704896
 31
0.0
  0
LINE
  5
1AAD6
330
18
100
AcDbEntity
  8
01
100
AcDbLine
 10
2719.46545819107
 20
-385.8949673704896
 30
0.0
 11
2719.46545819107
 21
-377.8949673704896
 31
0.0
  0
LINE
  5
1AAD7
330
18
100
AcDbEntity
  8
01
100
AcDbLine
 10
2666.465458191074
 20
-385.8949673704896
 30
0.0
 11
2666.465458191074
 21
-377.8949673704896
 31
0.0
  0
ARC
  5
1AAD8
330
18
100
AcDbEntity
  8
01
100
AcDbCircle
 10
2666.965458191074
 20
-377.8949673704896
 30
0.0
 40
0.5
100
AcDbArc
 50
90.0
 51
180.0
  0
ARC
  5
1AAD9
330
18
100
AcDbEntity
  8
01
100
AcDbCircle
 10
2718.96545819107
 20
-377.8949673704896
 30
0.0
 40
0.5
100
AcDbArc
 50
0.0
 51
90.0
  0
ARC
  5
1AADA
330
18
100
AcDbEntity
  8
01
100
AcDbCircle
 10
2645.06634237313
 20
-402.3337168274896
 30
0.0
 40
1.6
100
AcDbArc
 50
115.944479772022
 51
180.0
  0
ARC
  5
1AADB
330
18
100
AcDbEntity
  8
01
100
AcDbCircle
 10
2645.06634237313
 20
-409.4562179134897
 30
0.0
 40
1.6
100
AcDbArc
 50
180.0
 51
244.055520227978
  0
ARC
  5
1AADC
330
18
100
AcDbEntity
  8
01
100
AcDbCircle
 10
2644.36634237313
 20
-410.7337168274897
 30
0.0
 40
1.6
100
AcDbArc
 50
0.0
 51
64.05552022797804
  0
ARC
  5
1AADD
330
18
100
AcDbEntity
  8
01
100
AcDbCircle
 10
2644.36634237313
 20
-401.0562179134898
 30
0.0
 40
1.6
100
AcDbArc
 50
295.944479772022
 51
0.0
  0
LINE
  5
1AADE
330
18
100
AcDbEntity
  8
01
100
AcDbLine
 10
2645.96634237313
 20
-401.0562179134898
 30
0.0
 11
2645.96634237313
 21
-393.6949673704897
 31
0.0
  0
LINE
  5
1AADF
330
18
100
AcDbEntity
  8
01
100
AcDbLine
 10
2645.06634237313
 20
-409.2949673704896
 30
0.0
 11
2645.06634237313
 21
-402.4949673704897
 31
0.0
  0
LINE
  5
1AAE0
330
18
100
AcDbEntity
  8
01
100
AcDbLine
 10
2645.96634237313
 20
-417.8949673704898
 30
0.0
 11
2645.96634237313
 21
-410.7337168274897
 31
0.0
  0
LINE
  5
1AAE1
330
18
100
AcDbEntity
  8
01
100
AcDbLine
 10
2644.36634237313
 20
-400.8949673704898
 30
0.0
 11
2644.36634237313
 21
-393.6949673704897
 31
0.0
  0
LINE
  5
1AAE2
330
18
100
AcDbEntity
  8
01
100
AcDbLine
 10
2644.36634237313
 20
-410.8949673704898
 30
0.0
 11
2644.36634237313
 21
-417.9949673704897
 31
0.0
  0
ARC
  5
1AAE3
330
18
100
AcDbEntity
  8
01
100
AcDbCircle
 10
2709.36634237313
 20
-397.9949673704897
 30
0.0
 40
1.6
100
AcDbArc
 50
0.0
 51
90.0
  0
LINE
  5
1AAE4
330
18
100
AcDbEntity
  8
01
100
AcDbLine
 10
2643.46634237313
 20
-393.4949673704897
 30
0.0
 11
2643.46634237313
 21
-418.2949673704896
 31
0.0
  0
LINE
  5
1AAE5
330
18
100
AcDbEntity
  8
01
100
AcDbLine
 10
2709.36634237313
 20
-396.3949673704896
 30
0.0
 11
2645.96634237313
 21
-396.3949673704896
 31
0.0
  0
LINE
  5
1AAE6
330
18
100
AcDbEntity
  8
01
100
AcDbLine
 10
2709.36634237313
 20
-413.5949673704898
 30
0.0
 11
2709.36634237313
 21
-396.3949673704896
 31
0.0
  0
LINE
  5
1AAE7
330
18
100
AcDbEntity
  8
01
100
AcDbLine
 10
2710.96634237313
 20
-415.1949673704897
 30
0.0
 11
2710.96634237313
 21
-397.9949673704897
 31
0.0
  0
LINE
  5
1AAE8
330
18
100
AcDbEntity
  8
01
100
AcDbLine
 10
2643.46634237313
 20
-393.6949673704897
 30
0.0
 11
2645.96634237313
 21
-393.6949673704897
 31
0.0
  0
LINE
  5
1AAE9
330
18
100
AcDbEntity
  8
01
100
AcDbLine
 10
2645.96634237313
 20
-417.8949673704898
 30
0.0
 11
2644.36634237313
 21
-417.8949673704898
 31
0.0
  0
LINE
  5
1AAEA
330
18
100
AcDbEntity
  8
01
100
AcDbLine
 10
2644.36634237313
 20
-417.9949673704895
 30
0.0
 11
2643.46634237313
 21
-417.9949673704895
 31
0.0
  0
ARC
  5
1AAEB
330
18
100
AcDbEntity
  8
01
100
AcDbCircle
 10
2640.666937300529
 20
-400.1949673704902
 30
0.0
 40
0.3000000000000051
100
AcDbArc
 50
90.0
 51
127.1321941269999
  0
LINE
  5
1AAEC
330
18
100
AcDbEntity
  8
01
100
AcDbLine
 10
2641.46634237313
 20
-399.89496737049
 30
0.0
 11
2640.666937300529
 21
-399.89496737049
 31
0.0
  0
LINE
  5
1AAED
330
18
100
AcDbEntity
  8
01
100
AcDbLine
 10
2631.06634237313
 20
-409.5679562366944
 30
0.0
 11
2631.06634237313
 21
-409.3973341811451
 31
0.0
  0
ARC
  5
1AAEE
330
18
100
AcDbEntity
  8
01
100
AcDbCircle
 10
2631.36634237313
 20
-409.3973341811451
 30
0.0
 40
0.3
100
AcDbArc
 50
142.2594704370021
 51
180.0
  0
ARC
  5
1AAEF
330
18
100
AcDbEntity
  8
01
100
AcDbCircle
 10
2670.668642972413
 20
-439.8180371250859
 30
0.0
 40
50.00000000000002
100
AcDbArc
 50
127.1321941269999
 51
142.2594704370021
  0
LINE
  5
1AAF0
330
18
100
AcDbEntity
  8
01
100
AcDbLine
 10
2630.86634237313
 20
-410.6949673704897
 30
0.0
 11
2630.86634237313
 21
-411.3949673704896
 31
0.0
  0
ARC
  5
1AAF1
330
18
100
AcDbEntity
  8
01
100
AcDbCircle
 10
2631.36634237313
 20
-411.3949673704896
 30
0.0
 40
0.5000000000000142
100
AcDbArc
 50
180.0
 51
270.0
  0
LINE
  5
1AAF2
330
18
100
AcDbEntity
  8
01
100
AcDbLine
 10
2641.46634237313
 20
-411.8949673704896
 30
0.0
 11
2631.36634237313
 21
-411.8949673704896
 31
0.0
  0
LINE
  5
1AAF3
330
18
100
AcDbEntity
  8
01
100
AcDbLine
 10
2630.86634237313
 20
-410.3162877140493
 30
0.0
 11
2630.86634237313
 21
-410.6949673704897
 31
0.0
  0
SPLINE
  5
1AAF4
330
18
100
AcDbEntity
  8
01
100
AcDbSpline
210
0.0
220
0.0
230
1.0
 70
     8
 71
     3
 72
     8
 73
     4
 74
     0
 42
0.0000000001
 43
0.0000000001
 40
0.0
 40
0.0
 40
0.0
 40
0.0
 40
1.0
 40
1.0
 40
1.0
 40
1.0
 10
2630.892074914394
 20
-410.0396372846002
 30
0.0
 10
2630.874607028282
 20
-410.1327234804806
 30
0.0
 10
2630.86634237313
 20
-410.2259894913722
 30
0.0
 10
2630.86634237313
 20
-410.3162877140497
 30
0.0
  0
ARC
  5
1AAF5
330
18
100
AcDbEntity
  8
01
100
AcDbCircle
 10
2632.36634237313
 20
-410.3162877140493
 30
0.0
 40
1.499999999999998
100
AcDbArc
 50
135.0000000000092
 51
169.3718870123951
  0
LINE
  5
1AAF6
330
18
100
AcDbEntity
  8
01
100
AcDbLine
 10
2641.96634237313
 20
-399.0449673704896
 30
0.0
 11
2641.46634237313
 21
-399.0449673704896
 31
0.0
  0
LINE
  5
1AAF7
330
18
100
AcDbEntity
  8
01
100
AcDbLine
 10
2641.46634237313
 20
-412.7449673704895
 30
0.0
 11
2641.96634237313
 21
-412.7449673704895
 31
0.0
  0
LINE
  5
1AAF8
330
18
100
AcDbEntity
  8
01
100
AcDbLine
 10
2641.46634237313
 20
-412.7449673704895
 30
0.0
 11
2641.46634237313
 21
-399.0449673704896
 31
0.0
  0
LINE
  5
1AAF9
330
18
100
AcDbEntity
  8
01
100
AcDbLine
 10
2641.96634237313
 20
-393.4949673704897
 30
0.0
 11
2643.46634237313
 21
-393.4949673704897
 31
0.0
  0
LINE
  5
1AAFA
330
18
100
AcDbEntity
  8
01
100
AcDbLine
 10
2641.96634237313
 20
-418.2949673704896
 30
0.0
 11
2643.46634237313
 21
-418.2949673704896
 31
0.0
  0
LINE
  5
1AAFB
330
18
100
AcDbEntity
  8
01
100
AcDbLine
 10
2641.96634237313
 20
-418.2949673704896
 30
0.0
 11
2641.96634237313
 21
-393.4949673704897
 31
0.0
  0
LINE
  5
1AAFC
330
18
100
AcDbEntity
  8
01
100
AcDbLine
 10
2710.96634237313
 20
-413.5949673704898
 30
0.0
 11
2645.96634237313
 21
-413.5949673704898
 31
0.0
  0
LINE
  5
1AAFD
330
18
100
AcDbEntity
  8
01
100
AcDbLine
 10
2710.96634237313
 20
-415.1949673704897
 30
0.0
 11
2660.56634237313
 21
-415.1949673704897
 31
0.0
  0
LINE
  5
1AAFE
330
18
100
AcDbEntity
  8
01
100
AcDbLine
 10
2663.403600673332
 20
-415.1949673704897
 30
0.0
 11
2645.96634237313
 21
-415.1949673704897
 31
0.0
  0
LINE
  5
1AAFF
330
18
100
AcDbEntity
  8
01
100
AcDbLine
 10
2640.519895763723
 20
-400.0414139798962
 30
0.0
 11
2631.305682201349
 21
-409.2556275422693
 31
0.0
  0
ARC
  5
1AB00
330
18
100
AcDbEntity
  8
01
100
AcDbCircle
 10
2640.873449154317
 20
-400.3949673704896
 30
0.0
 40
0.5
100
AcDbArc
 50
90.0
 51
135.0000000000092
  0
LINE
  5
1AB01
330
18
100
AcDbEntity
  8
01
100
AcDbLine
 10
2641.46634237313
 20
-399.8949673704896
 30
0.0
 11
2640.873449154317
 21
-399.8949673704896
 31
0.0
  0
LINE
  5
1AB06
330
18
100
AcDbEntity
  8
01
100
AcDbLine
 10
2666.46545819107
 20
-691.8949673694614
 30
0.0
 11
2710.96545819107
 21
-691.8949673694609
 31
0.0
  0
LINE
  5
1AB07
330
18
100
AcDbEntity
  8
01
100
AcDbLine
 10
2636.96545819107
 20
-711.8949673694609
 30
0.0
 11
2650.96545819107
 21
-711.8949673694609
 31
0.0
  0
LINE
  5
1AB08
330
18
100
AcDbEntity
  8
01
100
AcDbLine
 10
2636.96545819107
 20
-597.8949673694609
 30
0.0
 11
2650.96545819107
 21
-597.8949673694609
 31
0.0
  0
LINE
  5
1AB09
330
18
100
AcDbEntity
  8
01
100
AcDbLine
 10
2529.465574530816
 20
-597.8949673694609
 30
0.0
 11
2516.465574530816
 21
-597.8949673694609
 31
0.0
  0
LINE
  5
1AB0A
330
18
100
AcDbEntity
  8
01
100
AcDbLine
 10
2522.965574530816
 20
-591.3949673694609
 30
0.0
 11
2522.965574530816
 21
-604.3949673694609
 31
0.0
  0
LINE
  5
1AB0B
330
18
100
AcDbEntity
  8
01
100
AcDbLine
 10
2529.465574530816
 20
-711.8949673694609
 30
0.0
 11
2516.465574530816
 21
-711.8949673694609
 31
0.0
  0
LINE
  5
1AB0C
330
18
100
AcDbEntity
  8
01
100
AcDbLine
 10
2522.965574530816
 20
-705.3949673694609
 30
0.0
 11
2522.965574530816
 21
-718.3949673694609
 31
0.0
  0
LINE
  5
1AB0D
330
18
100
AcDbEntity
  8
01
100
AcDbLine
 10
2382.965578530814
 20
-675.8949673694609
 30
0.0
 11
2322.965578530814
 21
-675.8949673694609
 31
0.0
  0
LINE
  5
1AB0E
330
18
100
AcDbEntity
  8
01
100
AcDbLine
 10
2352.965578530814
 20
-645.8949673694609
 30
0.0
 11
2352.965578530814
 21
-705.8949673694609
 31
0.0
  0
LINE
  5
1AB12
330
18
100
AcDbEntity
  8
01
100
AcDbLine
 10
2704.277346458323
 20
-625.8949673697501
 30
0.0
 11
2681.65356992324
 21
-625.8949673697501
 31
0.0
  0
LINE
  5
1AB13
330
18
100
AcDbEntity
  8
01
100
AcDbLine
 10
2692.965458190783
 20
-614.5830791022084
 30
0.0
 11
2692.965458190783
 21
-637.2068556372918
 31
0.0
  0
LINE
  5
1AB14
330
18
100
AcDbEntity
  8
01
100
AcDbLine
 10
2502.965690870559
 20
-555.8949673694609
 30
0.0
 11
2502.965690870559
 21
-745.8949673694609
 31
0.0
  0
LINE
  5
1AB15
330
18
100
AcDbEntity
  8
01
100
AcDbLine
 10
2505.093976252992
 20
-675.8949673694609
 30
0.0
 11
2482.465690870559
 21
-675.8949673694609
 31
0.0
  0
POINT
  5
1AB16
330
18
100
AcDbEntity
  8
01
100
AcDbPoint
 10
2488.465574530816
 20
-675.8949673694609
 30
0.0
 50
180.0
  0
CIRCLE
  5
1AB17
330
18
100
AcDbEntity
  8
01
100
AcDbCircle
 10
2488.465574530816
 20
-675.8949673694609
 30
0.0
 40
2.5
  0
CIRCLE
  5
1AB18
330
18
100
AcDbEntity
  8
01
100
AcDbCircle
 10
2488.465574530816
 20
-675.8949673694609
 30
0.0
 40
3.0
  0
LINE
  5
1AB1A
330
18
100
AcDbEntity
  8
1CENTER
100
AcDbLine
 10
2488.465574530816
 20
-681.8949673694609
 30
0.0
 11
2488.465574530816
 21
-669.8949673694609
 31
0.0
  0
LINE
  5
1AB1B
330
18
100
AcDbEntity
  8
01
100
AcDbLine
 10
2502.965690870559
 20
-702.39496736946
 30
0.0
 11
2502.965690870559
 21
-649.3949673694627
 31
0.0
  0
LINE
  5
1AB1C
330
18
100
AcDbEntity
  8
01
100
AcDbLine
 10
2494.465690870559
 20
-701.89496736946
 30
0.0
 11
2494.465690870559
 21
-649.8949673694627
 31
0.0
  0
LINE
  5
1AB1D
330
18
100
AcDbEntity
  8
01
100
AcDbLine
 10
2502.965690870559
 20
-649.3949673694627
 30
0.0
 11
2494.965690870559
 21
-649.3949673694627
 31
0.0
  0
LINE
  5
1AB1E
330
18
100
AcDbEntity
  8
01
100
AcDbLine
 10
2502.965690870559
 20
-702.39496736946
 30
0.0
 11
2494.965690870559
 21
-702.39496736946
 31
0.0
  0
ARC
  5
1AB1F
330
18
100
AcDbEntity
  8
01
100
AcDbCircle
 10
2494.965690870559
 20
-701.89496736946
 30
0.0
 40
0.5
100
AcDbArc
 50
180.0
 51
270.0
  0
ARC
  5
1AB20
330
18
100
AcDbEntity
  8
01
100
AcDbCircle
 10
2494.965690870559
 20
-649.8949673694627
 30
0.0
 40
0.5
100
AcDbArc
 50
90.0
 51
180.0
  0
LINE
  5
1AB21
330
18
100
AcDbEntity
  8
01
100
AcDbLine
 10
2643.46545819107
 20
-589.9949673694608
 30
0.0
 11
2643.46545819107
 21
-719.7949673694608
 31
0.0
  0
LINE
  5
1AB22
330
18
100
AcDbEntity
  8
01
100
AcDbLine
 10
2643.46545819107
 20
-718.8949673694607
 30
0.0
 11
2645.96545819107
 21
-718.8949673694607
 31
0.0
  0
LINE
  5
1AB23
330
18
100
AcDbEntity
  8
01
100
AcDbLine
 10
2710.965458191072
 20
-640.3949673697497
 30
0.0
 11
2710.96545819107
 21
-649.3949673694627
 31
0.0
  0
LINE
  5
1AB24
330
18
100
AcDbEntity
  8
01
100
AcDbLine
 10
2644.665458191069
 20
-617.8949673694607
 30
0.0
 11
2672.965465868613
 21
-617.8949673694605
 31
0.0
  0
LINE
  5
1AB25
330
18
100
AcDbEntity
  8
1HIDDEN
100
AcDbLine
 10
2672.965465868613
 20
-617.8949673694605
 30
0.0
 11
2709.96545819107
 21
-617.8949673694607
 31
0.0
  0
LINE
  5
1AB26
330
18
100
AcDbEntity
  8
01
100
AcDbLine
 10
2645.96545819107
 20
-718.8949673694607
 30
0.0
 11
2645.96545819107
 21
-702.3920236443083
 31
0.0
  0
LINE
  5
1AB27
330
18
100
AcDbEntity
  8
01
100
AcDbLine
 10
2641.96545819107
 20
-589.9949673694606
 30
0.0
 11
2641.96545819107
 21
-719.7949673694608
 31
0.0
  0
LINE
  5
1AB28
330
18
100
AcDbEntity
  8
01
100
AcDbLine
 10
2641.96545819107
 20
-719.7949673694608
 30
0.0
 11
2643.46545819107
 21
-719.7949673694608
 31
0.0
  0
LINE
  5
1AB29
330
18
100
AcDbEntity
  8
01
100
AcDbLine
 10
2643.46545819107
 20
-590.8949673694607
 30
0.0
 11
2645.96545819107
 21
-590.8949673694607
 31
0.0
  0
LINE
  5
1AB2A
330
18
100
AcDbEntity
  8
01
100
AcDbLine
 10
2641.96545819107
 20
-589.9949673694606
 30
0.0
 11
2643.46545819107
 21
-589.9949673694606
 31
0.0
  0
LINE
  5
1AB2B
330
18
100
AcDbEntity
  8
01
100
AcDbLine
 10
2516.565574530817
 20
-589.9949673694608
 30
0.0
 11
2529.365574530816
 21
-589.9949673694608
 31
0.0
  0
LINE
  5
1AB2C
330
18
100
AcDbEntity
  8
01
100
AcDbLine
 10
2516.565574530817
 20
-719.7949673694608
 30
0.0
 11
2529.365574530816
 21
-719.7949673694608
 31
0.0
  0
LINE
  5
1AB2D
330
18
100
AcDbEntity
  8
01
100
AcDbLine
 10
2510.565574530817
 20
-595.9949673694608
 30
0.0
 11
2510.565574530817
 21
-713.7949673694608
 31
0.0
  0
LINE
  5
1AB2E
330
18
100
AcDbEntity
  8
01
100
AcDbLine
 10
2535.365574530816
 20
-595.9949673694608
 30
0.0
 11
2535.365574530816
 21
-713.7949673694608
 31
0.0
  0
ARC
  5
1AB2F
330
18
100
AcDbEntity
  8
01
100
AcDbCircle
 10
2516.565574530817
 20
-713.7949673694608
 30
0.0
 40
6.0
100
AcDbArc
 50
180.0
 51
270.0
  0
ARC
  5
1AB30
330
18
100
AcDbEntity
  8
01
100
AcDbCircle
 10
2529.365574530816
 20
-713.7949673694608
 30
0.0
 40
6.0
100
AcDbArc
 50
270.0
 51
0.0
  0
ARC
  5
1AB31
330
18
100
AcDbEntity
  8
01
100
AcDbCircle
 10
2516.565574530817
 20
-595.9949673694608
 30
0.0
 40
6.0
100
AcDbArc
 50
90.0
 51
180.0
  0
ARC
  5
1AB32
330
18
100
AcDbEntity
  8
01
100
AcDbCircle
 10
2529.365574530816
 20
-595.9949673694608
 30
0.0
 40
6.0
100
AcDbArc
 50
0.0
 51
90.0
  0
CIRCLE
  5
1AB33
330
18
100
AcDbEntity
  8
01
100
AcDbCircle
 10
2522.965574530816
 20
-711.8949673694607
 30
0.0
 40
2.75
  0
CIRCLE
  5
1AB34
330
18
100
AcDbEntity
  8
01
100
AcDbCircle
 10
2522.965574530816
 20
-711.8949673694607
 30
0.0
 40
4.25
  0
CIRCLE
  5
1AB35
330
18
100
AcDbEntity
  8
01
100
AcDbCircle
 10
2522.965574530816
 20
-597.8949673694609
 30
0.0
 40
2.75
  0
CIRCLE
  5
1AB36
330
18
100
AcDbEntity
  8
01
100
AcDbCircle
 10
2522.965574530816
 20
-597.8949673694609
 30
0.0
 40
4.25
  0
ARC
  5
1AB37
330
18
100
AcDbEntity
  8
1HIDDEN
100
AcDbCircle
 10
2709.96545819107
 20
-618.8949673694609
 30
0.0
 40
1.0
100
AcDbArc
 50
0.0
 51
90.0
  0
LINE
  5
1AB38
330
18
100
AcDbEntity
  8
01
100
AcDbLine
 10
2644.665458191069
 20
-609.1949673694606
 30
0.0
 11
2644.665458191069
 21
-700.5949673694607
 31
0.0
  0
LINE
  5
1AB39
330
18
100
AcDbEntity
  8
01
100
AcDbLine
 10
2644.765458191071
 20
-718.8949673694607
 30
0.0
 11
2644.765458191071
 21
-702.2949673694608
 31
0.0
  0
LINE
  5
1AB3A
330
18
100
AcDbEntity
  8
01
100
AcDbLine
 10
2644.765458191071
 20
-702.2949673694608
 30
0.0
 11
2643.816930053646
 21
-701.3464392320367
 31
0.0
  0
LINE
  5
1AB3B
330
18
100
AcDbEntity
  8
01
100
AcDbLine
 10
2645.613986328494
 20
-701.5434955068846
 30
0.0
 11
2644.665458191069
 21
-700.5949673694607
 31
0.0
  0
ARC
  5
1AB3C
330
18
100
AcDbEntity
  8
01
100
AcDbCircle
 10
2644.765458191071
 20
-702.3920236443083
 30
0.0
 40
1.2
100
AcDbArc
 50
0.0
 51
44.99999999999078
  0
ARC
  5
1AB3D
330
18
100
AcDbEntity
  8
01
100
AcDbCircle
 10
2644.665458191069
 20
-700.497911094613
 30
0.0
 40
1.2
100
AcDbArc
 50
180.0
 51
224.9999999999908
  0
LINE
  5
1AB3E
330
18
100
AcDbEntity
  8
01
100
AcDbLine
 10
2645.96545819107
 20
-590.8949673694607
 30
0.0
 11
2645.96545819107
 21
-607.397911094613
 31
0.0
  0
LINE
  5
1AB3F
330
18
100
AcDbEntity
  8
01
100
AcDbLine
 10
2644.765458191071
 20
-590.8949673694607
 30
0.0
 11
2644.765458191071
 21
-607.4949673694608
 31
0.0
  0
LINE
  5
1AB40
330
18
100
AcDbEntity
  8
01
100
AcDbLine
 10
2644.765458191071
 20
-607.4949673694608
 30
0.0
 11
2643.816930053646
 21
-608.4434955068847
 31
0.0
  0
LINE
  5
1AB41
330
18
100
AcDbEntity
  8
01
100
AcDbLine
 10
2645.613986328494
 20
-608.246439232037
 30
0.0
 11
2644.665458191069
 21
-609.1949673694609
 31
0.0
  0
ARC
  5
1AB42
330
18
100
AcDbEntity
  8
01
100
AcDbCircle
 10
2644.765458191071
 20
-607.397911094613
 30
0.0
 40
1.2
100
AcDbArc
 50
315.0000000000092
 51
0.0
  0
ARC
  5
1AB43
330
18
100
AcDbEntity
  8
01
100
AcDbCircle
 10
2644.665458191069
 20
-609.2920236443084
 30
0.0
 40
1.2
100
AcDbArc
 50
135.0000000000092
 51
180.0
  0
LINE
  5
1AB44
330
18
100
AcDbEntity
  8
01
100
AcDbLine
 10
2644.665458191069
 20
-691.8949673694611
 30
0.0
 11
2666.465458191074
 21
-691.8949673694611
 31
0.0
  0
LINE
  5
1AB45
330
18
100
AcDbEntity
  8
01
100
AcDbLine
 10
2630.96545819107
 20
-644.8632971024446
 30
0.0
 11
2630.96545819107
 21
-662.9266376364507
 31
0.0
  0
LINE
  5
1AB46
330
18
100
AcDbEntity
  8
01
100
AcDbLine
 10
2635.258351409883
 20
-643.8949673694475
 30
0.0
 11
2641.96545819107
 21
-643.8949673694475
 31
0.0
  0
LINE
  5
1AB47
330
18
100
AcDbEntity
  8
01
100
AcDbLine
 10
2635.258351409883
 20
-663.8949673694475
 30
0.0
 11
2641.96545819107
 21
-663.8949673694477
 31
0.0
  0
LINE
  5
1AB48
330
18
100
AcDbEntity
  8
01
100
AcDbLine
 10
2640.758351409883
 20
-648.6449673694477
 30
0.0
 11
2640.758351409883
 21
-659.1449673694475
 31
0.0
  0
ARC
  5
1AB49
330
18
100
AcDbEntity
  8
01
100
AcDbCircle
 10
2635.258351409883
 20
-653.8949673694477
 30
0.0
 40
10.00000000000009
100
AcDbArc
 50
90.0
 51
115.4224671781103
  0
ARC
  5
1AB4A
330
18
100
AcDbEntity
  8
01
100
AcDbCircle
 10
2635.258351409883
 20
-653.8949673694475
 30
0.0
 40
10.00000000000009
100
AcDbArc
 50
244.5775328218897
 51
270.0
  0
LINE
  5
1AB4B
330
18
100
AcDbEntity
  8
01
100
AcDbLine
 10
2630.96545819107
 20
-648.6449673694475
 30
0.0
 11
2640.758351409883
 21
-648.6449673694475
 31
0.0
  0
LINE
  5
1AB4C
330
18
100
AcDbEntity
  8
01
100
AcDbLine
 10
2630.96545819107
 20
-659.1449673694475
 30
0.0
 11
2640.758351409883
 21
-659.1449673694475
 31
0.0
  0
LINE
  5
1AB4D
330
18
100
AcDbEntity
  8
01
100
AcDbLine
 10
2515.965574530816
 20
-645.7363829334205
 30
0.0
 11
2515.965574530816
 21
-662.0535518055011
 31
0.0
  0
LINE
  5
1AB4E
330
18
100
AcDbEntity
  8
01
100
AcDbLine
 10
2529.965574530816
 20
-645.7363829334205
 30
0.0
 11
2529.965574530816
 21
-662.0535518055011
 31
0.0
  0
ARC
  5
1AB4F
330
18
100
AcDbEntity
  8
01
100
AcDbCircle
 10
2522.965574530816
 20
-653.8949673694607
 30
0.0
 40
10.75
100
AcDbArc
 50
49.37067121664803
 51
130.629328783352
  0
ARC
  5
1AB50
330
18
100
AcDbEntity
  8
01
100
AcDbCircle
 10
2522.965574530816
 20
-653.8949673694607
 30
0.0
 40
10.75
100
AcDbArc
 50
229.370671216648
 51
310.629328783352
  0
ARC
  5
1AB51
330
18
100
AcDbEntity
  8
01
100
AcDbCircle
 10
2522.965574530816
 20
-653.8949673694607
 30
0.0
 40
10.0
100
AcDbArc
 50
56.25101140414051
 51
123.7489885958595
  0
LINE
  5
1AB52
330
18
100
AcDbEntity
  8
01
100
AcDbLine
 10
2516.965574530816
 20
-646.4116525959129
 30
0.0
 11
2516.965574530816
 21
-661.3782821430087
 31
0.0
  0
LINE
  5
1AB53
330
18
100
AcDbEntity
  8
01
100
AcDbLine
 10
2528.965574530816
 20
-646.4116525959129
 30
0.0
 11
2528.965574530816
 21
-661.3782821430087
 31
0.0
  0
ARC
  5
1AB54
330
18
100
AcDbEntity
  8
01
100
AcDbCircle
 10
2522.965574530816
 20
-653.8949673694607
 30
0.0
 40
10.0
100
AcDbArc
 50
236.2510114040466
 51
303.7489885958595
  0
ARC
  5
1AB55
330
18
100
AcDbEntity
  8
01
100
AcDbCircle
 10
2517.965574530816
 20
-646.4116525959131
 30
0.0
 40
1.0
100
AcDbArc
 50
123.7489885958595
 51
180.0
  0
ARC
  5
1AB56
330
18
100
AcDbEntity
  8
01
100
AcDbCircle
 10
2527.965574530816
 20
-646.4116525959129
 30
0.0
 40
1.0
100
AcDbArc
 50
0.0
 51
56.25101140414051
  0
ARC
  5
1AB57
330
18
100
AcDbEntity
  8
01
100
AcDbCircle
 10
2517.965574530816
 20
-661.3782821430087
 30
0.0
 40
1.0
100
AcDbArc
 50
180.0
 51
236.2510114040466
  0
ARC
  5
1AB58
330
18
100
AcDbEntity
  8
01
100
AcDbCircle
 10
2527.965574530816
 20
-661.3782821430087
 30
0.0
 40
1.0
100
AcDbArc
 50
303.7489885958595
 51
0.0
  0
LINE
  5
1AB59
330
18
100
AcDbEntity
  8
01
100
AcDbLine
 10
2528.465574530816
 20
-648.6449673694607
 30
0.0
 11
2528.465574530816
 21
-659.1449673694607
 31
0.0
  0
LINE
  5
1AB5A
330
18
100
AcDbEntity
  8
01
100
AcDbLine
 10
2517.465574530816
 20
-648.6449673694609
 30
0.0
 11
2517.465574530816
 21
-659.1449673694607
 31
0.0
  0
LINE
  5
1AB5B
330
18
100
AcDbEntity
  8
01
100
AcDbLine
 10
2517.465574530816
 20
-648.6449673694607
 30
0.0
 11
2528.465574530816
 21
-648.6449673694607
 31
0.0
  0
LINE
  5
1AB5C
330
18
100
AcDbEntity
  8
01
100
AcDbLine
 10
2517.465574530816
 20
-659.1449673694607
 30
0.0
 11
2528.465574530816
 21
-659.1449673694607
 31
0.0
  0
LINE
  5
1AB5D
330
18
100
AcDbEntity
  8
1HIDDEN
100
AcDbLine
 10
2710.965458191072
 20
-649.3949673694627
 30
0.0
 11
2710.965458191072
 21
-691.8949673694609
 31
0.0
  0
LINE
  5
1AB5E
330
18
100
AcDbEntity
  8
01
100
AcDbLine
 10
2408.965690870563
 20
-711.8949673694609
 30
0.0
 11
2394.965690870563
 21
-711.8949673694609
 31
0.0
  0
LINE
  5
1AB5F
330
18
100
AcDbEntity
  8
01
100
AcDbLine
 10
2408.965690870563
 20
-597.8949673694609
 30
0.0
 11
2394.965690870563
 21
-597.8949673694609
 31
0.0
  0
LINE
  5
1AB60
330
18
100
AcDbEntity
  8
01
100
AcDbLine
 10
2341.653802603309
 20
-625.8949673697501
 30
0.0
 11
2364.277579138393
 21
-625.8949673697501
 31
0.0
  0
LINE
  5
1AB61
330
18
100
AcDbEntity
  8
01
100
AcDbLine
 10
2352.96569087085
 20
-614.5830791022084
 30
0.0
 11
2352.96569087085
 21
-637.2068556372918
 31
0.0
  0
LINE
  5
1AB62
330
18
100
AcDbEntity
  8
01
100
AcDbLine
 10
2402.465690870563
 20
-589.9949673694608
 30
0.0
 11
2402.465690870563
 21
-719.7949673694608
 31
0.0
  0
LINE
  5
1AB63
330
18
100
AcDbEntity
  8
01
100
AcDbLine
 10
2402.465690870563
 20
-718.8949673694607
 30
0.0
 11
2399.965690870563
 21
-718.8949673694607
 31
0.0
  0
LINE
  5
1AB64
330
18
100
AcDbEntity
  8
01
100
AcDbLine
 10
2334.965690870563
 20
-640.3949673697497
 30
0.0
 11
2334.965690870563
 21
-649.3949673694627
 31
0.0
  0
LINE
  5
1AB65
330
18
100
AcDbEntity
  8
01
100
AcDbLine
 10
2401.265690870564
 20
-617.8949673694607
 30
0.0
 11
2372.965578208356
 21
-617.8949673694607
 31
0.0
  0
LINE
  5
1AB66
330
18
100
AcDbEntity
  8
01
100
AcDbLine
 10
2399.965690870563
 20
-718.8949673694607
 30
0.0
 11
2399.965690870563
 21
-702.3920236443083
 31
0.0
  0
LINE
  5
1AB67
330
18
100
AcDbEntity
  8
01
100
AcDbLine
 10
2403.965690870563
 20
-589.9949673694606
 30
0.0
 11
2403.965690870563
 21
-719.7949673694608
 31
0.0
  0
LINE
  5
1AB68
330
18
100
AcDbEntity
  8
01
100
AcDbLine
 10
2403.965690870563
 20
-719.7949673694608
 30
0.0
 11
2402.465690870563
 21
-719.7949673694608
 31
0.0
  0
LINE
  5
1AB69
330
18
100
AcDbEntity
  8
01
100
AcDbLine
 10
2402.465690870563
 20
-590.8949673694607
 30
0.0
 11
2399.965690870563
 21
-590.8949673694607
 31
0.0
  0
LINE
  5
1AB6A
330
18
100
AcDbEntity
  8
01
100
AcDbLine
 10
2403.965690870563
 20
-589.9949673694606
 30
0.0
 11
2402.465690870563
 21
-589.9949673694606
 31
0.0
  0
LINE
  5
1AB6B
330
18
100
AcDbEntity
  8
01
100
AcDbLine
 10
2401.265690870564
 20
-609.1949673694606
 30
0.0
 11
2401.265690870564
 21
-700.5949673694607
 31
0.0
  0
LINE
  5
1AB6C
330
18
100
AcDbEntity
  8
01
100
AcDbLine
 10
2401.165690870562
 20
-718.8949673694607
 30
0.0
 11
2401.165690870562
 21
-702.2949673694608
 31
0.0
  0
LINE
  5
1AB6D
330
18
100
AcDbEntity
  8
01
100
AcDbLine
 10
2401.165690870562
 20
-702.2949673694608
 30
0.0
 11
2402.114219007987
 21
-701.3464392320367
 31
0.0
  0
LINE
  5
1AB6E
330
18
100
AcDbEntity
  8
01
100
AcDbLine
 10
2400.317162733139
 20
-701.5434955068846
 30
0.0
 11
2401.265690870564
 21
-700.5949673694607
 31
0.0
  0
ARC
  5
1AB6F
330
18
100
AcDbEntity
  8
01
100
AcDbCircle
 10
2401.165690870562
 20
-702.3920236443083
 30
0.0
 40
1.2
100
AcDbArc
 50
135.0000000000092
 51
180.0
  0
ARC
  5
1AB70
330
18
100
AcDbEntity
  8
01
100
AcDbCircle
 10
2401.265690870564
 20
-700.497911094613
 30
0.0
 40
1.2
100
AcDbArc
 50
315.0000000000092
 51
0.0
  0
LINE
  5
1AB71
330
18
100
AcDbEntity
  8
01
100
AcDbLine
 10
2399.965690870563
 20
-590.8949673694607
 30
0.0
 11
2399.965690870563
 21
-607.397911094613
 31
0.0
  0
LINE
  5
1AB72
330
18
100
AcDbEntity
  8
01
100
AcDbLine
 10
2401.165690870562
 20
-590.8949673694607
 30
0.0
 11
2401.165690870562
 21
-607.4949673694608
 31
0.0
  0
LINE
  5
1AB73
330
18
100
AcDbEntity
  8
01
100
AcDbLine
 10
2401.165690870562
 20
-607.4949673694608
 30
0.0
 11
2402.114219007987
 21
-608.4434955068847
 31
0.0
  0
LINE
  5
1AB74
330
18
100
AcDbEntity
  8
01
100
AcDbLine
 10
2400.317162733139
 20
-608.246439232037
 30
0.0
 11
2401.265690870564
 21
-609.1949673694609
 31
0.0
  0
ARC
  5
1AB75
330
18
100
AcDbEntity
  8
01
100
AcDbCircle
 10
2401.165690870562
 20
-607.397911094613
 30
0.0
 40
1.2
100
AcDbArc
 50
180.0
 51
224.9999999999908
  0
ARC
  5
1AB76
330
18
100
AcDbEntity
  8
01
100
AcDbCircle
 10
2401.265690870564
 20
-609.2920236443084
 30
0.0
 40
1.2
100
AcDbArc
 50
0.0
 51
44.99999999999078
  0
LINE
  5
1AB77
330
18
100
AcDbEntity
  8
01
100
AcDbLine
 10
2334.965690870561
 20
-640.3949673697497
 30
0.0
 11
2334.965690870561
 21
-649.3949673694627
 31
0.0
  0
LINE
  5
1AB78
330
18
100
AcDbEntity
  8
01
100
AcDbLine
 10
2401.265690870564
 20
-691.8949673694611
 30
0.0
 11
2379.465690870559
 21
-691.8949673694611
 31
0.0
  0
LINE
  5
1AB79
330
18
100
AcDbEntity
  8
01
100
AcDbLine
 10
2414.965690870563
 20
-644.8632971024446
 30
0.0
 11
2414.965690870563
 21
-662.9266376364507
 31
0.0
  0
LINE
  5
1AB7A
330
18
100
AcDbEntity
  8
01
100
AcDbLine
 10
2410.67279765175
 20
-643.8949673694475
 30
0.0
 11
2403.965690870563
 21
-643.8949673694475
 31
0.0
  0
LINE
  5
1AB7B
330
18
100
AcDbEntity
  8
01
100
AcDbLine
 10
2410.67279765175
 20
-663.8949673694475
 30
0.0
 11
2403.965690870563
 21
-663.8949673694477
 31
0.0
  0
LINE
  5
1AB7C
330
18
100
AcDbEntity
  8
01
100
AcDbLine
 10
2405.17279765175
 20
-648.6449673694477
 30
0.0
 11
2405.17279765175
 21
-659.1449673694475
 31
0.0
  0
ARC
  5
1AB7D
330
18
100
AcDbEntity
  8
01
100
AcDbCircle
 10
2410.67279765175
 20
-653.8949673694477
 30
0.0
 40
10.00000000000009
100
AcDbArc
 50
64.5775328218023
 51
126.8698976458701
  0
ARC
  5
1AB7E
330
18
100
AcDbEntity
  8
01
100
AcDbCircle
 10
2410.67279765175
 20
-653.8949673694475
 30
0.0
 40
10.00000000000009
100
AcDbArc
 50
233.1301023541299
 51
295.4224671781977
  0
LINE
  5
1AB7F
330
18
100
AcDbEntity
  8
01
100
AcDbLine
 10
2404.67279765175
 20
-645.8949673694475
 30
0.0
 11
2404.67279765175
 21
-661.8949673694475
 31
0.0
  0
LINE
  5
1AB80
330
18
100
AcDbEntity
  8
01
100
AcDbLine
 10
2414.965690870563
 20
-648.6449673694475
 30
0.0
 11
2405.17279765175
 21
-648.6449673694475
 31
0.0
  0
LINE
  5
1AB81
330
18
100
AcDbEntity
  8
01
100
AcDbLine
 10
2414.965690870563
 20
-659.1449673694475
 30
0.0
 11
2405.17279765175
 21
-659.1449673694475
 31
0.0
  0
LINE
  5
1AB82
330
18
100
AcDbEntity
  8
1HIDDEN
100
AcDbLine
 10
2710.96545819107
 20
-618.8949673694609
 30
0.0
 11
2710.965458191072
 21
-640.3949673697497
 31
0.0
  0
POINT
  5
1AB83
330
18
100
AcDbEntity
  8
01
100
AcDbPoint
 10
2557.46545819107
 20
-675.8936490563577
 30
0.0
  0
LINE
  5
1AB84
330
18
100
AcDbEntity
  8
01
100
AcDbLine
 10
2557.065458181071
 20
-677.6436490563577
 30
0.0
 11
2557.065458181071
 21
-676.7936490363576
 31
0.0
  0
LINE
  5
1AB85
330
18
100
AcDbEntity
  8
01
100
AcDbLine
 10
2557.865458201072
 20
-677.6436490563577
 30
0.0
 11
2557.865458201072
 21
-676.7936490363576
 31
0.0
  0
LINE
  5
1AB86
330
18
100
AcDbEntity
  8
01
100
AcDbLine
 10
2556.56545821107
 20
-676.2936490663582
 30
0.0
 11
2555.71545819107
 21
-676.2936490663582
 31
0.0
  0
LINE
  5
1AB87
330
18
100
AcDbEntity
  8
01
100
AcDbLine
 10
2556.56545821107
 20
-675.4936490463582
 30
0.0
 11
2555.71545819107
 21
-675.4936490463582
 31
0.0
  0
LINE
  5
1AB88
330
18
100
AcDbEntity
  8
01
100
AcDbLine
 10
2555.71545819107
 20
-676.2936490663582
 30
0.0
 11
2555.71545819107
 21
-675.4936490463582
 31
0.0
  0
LINE
  5
1AB89
330
18
100
AcDbEntity
  8
01
100
AcDbLine
 10
2557.865458201072
 20
-677.6436490563577
 30
0.0
 11
2557.065458181071
 21
-677.6436490563577
 31
0.0
  0
LINE
  5
1AB8A
330
18
100
AcDbEntity
  8
01
100
AcDbLine
 10
2557.865458201072
 20
-674.1436490563577
 30
0.0
 11
2557.865458201072
 21
-674.9936490763579
 31
0.0
  0
LINE
  5
1AB8B
330
18
100
AcDbEntity
  8
01
100
AcDbLine
 10
2557.065458181071
 20
-674.1436490563577
 30
0.0
 11
2557.065458181071
 21
-674.9936490763579
 31
0.0
  0
LINE
  5
1AB8C
330
18
100
AcDbEntity
  8
01
100
AcDbLine
 10
2558.36545817107
 20
-675.4936490463582
 30
0.0
 11
2559.21545819107
 21
-675.4936490463582
 31
0.0
  0
LINE
  5
1AB8D
330
18
100
AcDbEntity
  8
01
100
AcDbLine
 10
2558.36545817107
 20
-676.2936490663582
 30
0.0
 11
2559.21545819107
 21
-676.2936490663582
 31
0.0
  0
LINE
  5
1AB8E
330
18
100
AcDbEntity
  8
01
100
AcDbLine
 10
2559.21545819107
 20
-675.4936490463582
 30
0.0
 11
2559.21545819107
 21
-676.2936490663582
 31
0.0
  0
LINE
  5
1AB8F
330
18
100
AcDbEntity
  8
01
100
AcDbLine
 10
2557.065458181071
 20
-674.1436490563577
 30
0.0
 11
2557.865458201072
 21
-674.1436490563577
 31
0.0
  0
CIRCLE
  5
1AB90
330
18
100
AcDbEntity
  8
01
100
AcDbCircle
 10
2557.46545819107
 20
-675.8936490563577
 30
0.0
 40
2.5
  0
ARC
  5
1AB91
330
18
100
AcDbEntity
  8
01
100
AcDbCircle
 10
2558.36545817107
 20
-674.9936490763579
 30
0.0
 40
0.5
100
AcDbArc
 50
179.999989999999
 51
270.0
  0
ARC
  5
1AB92
330
18
100
AcDbEntity
  8
01
100
AcDbCircle
 10
2558.36545817107
 20
-676.7936490363576
 30
0.0
 40
0.5
100
AcDbArc
 50
90.00000299998466
 51
180.000010000001
  0
ARC
  5
1AB93
330
18
100
AcDbEntity
  8
01
100
AcDbCircle
 10
2556.56545821107
 20
-676.7936490363576
 30
0.0
 40
0.5
100
AcDbArc
 50
0.0
 51
90.00000299998466
  0
ARC
  5
1AB94
330
18
100
AcDbEntity
  8
01
100
AcDbCircle
 10
2556.56545821107
 20
-674.9936490763579
 30
0.0
 40
0.5
100
AcDbArc
 50
270.0
 51
0.0
  0
LINE
  5
1AB96
330
18
100
AcDbEntity
  8
1CENTER
100
AcDbLine
 10
2557.46545819107
 20
-681.8936490563577
 30
0.0
 11
2557.46545819107
 21
-669.8936490563577
 31
0.0
  0
LINE
  5
1AB97
330
18
100
AcDbEntity
  8
01
100
AcDbLine
 10
2540.837172808639
 20
-675.8936490563577
 30
0.0
 11
2563.46545819107
 21
-675.8936490563577
 31
0.0
  0
LINE
  5
1AB98
330
18
100
AcDbEntity
  8
01
  6
BYBLOCK
100
AcDbLine
 10
2641.96634237313
 20
-425.8949673704896
 30
0.0
 11
2795.720722528161
 21
-425.8949673704896
 31
0.0
  0
LINE
  5
1AB99
330
18
100
AcDbEntity
  8
1CENTER
100
AcDbLine
 10
2676.881899766872
 20
-440.3949593372366
 30
0.0
 11
2685.01557212872
 21
-440.3949673704868
 31
0.0
  0
LINE
  5
1AB9A
330
18
100
AcDbEntity
  8
01
100
AcDbLine
 10
2692.965574530813
 20
-420.8949673704896
 30
0.0
 11
2692.965574530813
 21
-447.3949673704896
 31
0.0
  0
LINE
  5
1ABA0
330
18
100
AcDbEntity
  8
01
100
AcDbLine
 10
2542.96545819107
 20
-555.8936490563577
 30
0.0
 11
2542.96545819107
 21
-745.8936490563577
 31
0.0
  0
LINE
  5
1ABA1
330
18
100
AcDbEntity
  8
01
100
AcDbLine
 10
2662.96545819107
 20
-675.8936490563577
 30
0.0
 11
2722.96545819107
 21
-675.8936490563577
 31
0.0
  0
LINE
  5
1ABA2
330
18
100
AcDbEntity
  8
01
100
AcDbLine
 10
2692.96545819107
 20
-645.8936490563577
 30
0.0
 11
2692.96545819107
 21
-705.8936490563577
 31
0.0
  0
LINE
  5
1ABA4
330
18
100
AcDbEntity
  8
01
100
AcDbLine
 10
2718.96545819107
 20
-649.3936490563595
 30
0.0
 11
2666.965458191074
 21
-649.3936490563595
 31
0.0
  0
LINE
  5
1ABA5
330
18
100
AcDbEntity
  8
01
100
AcDbLine
 10
2666.965458191074
 20
-702.3936490563595
 30
0.0
 11
2718.96545819107
 21
-702.3936490563595
 31
0.0
  0
LINE
  5
1ABA6
330
18
100
AcDbEntity
  8
01
100
AcDbLine
 10
2666.465458191074
 20
-649.8936490563595
 30
0.0
 11
2666.465458191074
 21
-701.8936490563595
 31
0.0
  0
ARC
  5
1ABA7
330
18
100
AcDbEntity
  8
01
100
AcDbCircle
 10
2666.965458191074
 20
-701.8936490563595
 30
0.0
 40
0.5
100
AcDbArc
 50
180.0
 51
270.0
  0
ARC
  5
1ABA8
330
18
100
AcDbEntity
  8
01
100
AcDbCircle
 10
2666.965458191074
 20
-649.8936490563595
 30
0.0
 40
0.5
100
AcDbArc
 50
90.0
 51
180.0
  0
LINE
  5
1ABA9
330
18
100
AcDbEntity
  8
01
100
AcDbLine
 10
2719.46545819107
 20
-649.8936490563595
 30
0.0
 11
2719.46545819107
 21
-666.1740555024838
 31
0.0
  0
LINE
  5
1ABAA
330
18
100
AcDbEntity
  8
01
100
AcDbLine
 10
2719.46545819107
 20
-685.6122127104499
 30
0.0
 11
2719.46545819107
 21
-701.8936490563595
 31
0.0
  0
ARC
  5
1ABAB
330
18
100
AcDbEntity
  8
01
100
AcDbCircle
 10
2718.96545819107
 20
-701.8936490563595
 30
0.0
 40
0.5
100
AcDbArc
 50
270.0
 51
0.0
  0
ARC
  5
1ABAC
330
18
100
AcDbEntity
  8
01
100
AcDbCircle
 10
2718.96545819107
 20
-649.8936490563595
 30
0.0
 40
0.5
100
AcDbArc
 50
0.0
 51
90.0
  0
LINE
  5
1ABAD
330
18
100
AcDbEntity
  8
01
100
AcDbLine
 10
2666.465574530816
 20
-425.8949673704896
 30
0.0
 11
2719.465574530813
 21
-425.8949673704896
 31
0.0
  0
LINE
  5
1ABAE
330
18
100
AcDbEntity
  8
01
100
AcDbLine
 10
2666.965574530816
 20
-434.3949673704896
 30
0.0
 11
2692.965574530813
 21
-434.3949673704896
 31
0.0
  0
LINE
  5
1ABAF
330
18
100
AcDbEntity
  8
01
100
AcDbLine
 10
2692.033999109858
 20
-434.3949673704896
 30
0.0
 11
2694.033999109858
 21
-434.3949673704896
 31
0.0
  0
LINE
  5
1ABB0
330
18
100
AcDbEntity
  8
01
100
AcDbLine
 10
2692.965574530813
 20
-434.3949673704896
 30
0.0
 11
2718.965574530813
 21
-434.3949673704896
 31
0.0
  0
LINE
  5
1ABB1
330
18
100
AcDbEntity
  8
01
100
AcDbLine
 10
2719.465574530813
 20
-425.8949673704896
 30
0.0
 11
2719.465574530813
 21
-433.8949673704896
 31
0.0
  0
LINE
  5
1ABB2
330
18
100
AcDbEntity
  8
01
100
AcDbLine
 10
2666.465574530816
 20
-425.8949673704896
 30
0.0
 11
2666.465574530816
 21
-433.8949673704896
 31
0.0
  0
ARC
  5
1ABB3
330
18
100
AcDbEntity
  8
01
100
AcDbCircle
 10
2666.965574530816
 20
-433.8949673704896
 30
0.0
 40
0.5
100
AcDbArc
 50
180.0
 51
270.0
  0
ARC
  5
1ABB4
330
18
100
AcDbEntity
  8
01
100
AcDbCircle
 10
2718.965574530813
 20
-433.8949673704896
 30
0.0
 40
0.5
100
AcDbArc
 50
270.0
 51
0.0
  0
LINE
  5
1ABB5
330
18
100
AcDbEntity
  8
01
100
AcDbLine
 10
2542.96545819107
 20
-702.3936490563568
 30
0.0
 11
2542.96545819107
 21
-649.3936490563595
 31
0.0
  0
LINE
  5
1ABB6
330
18
100
AcDbEntity
  8
01
100
AcDbLine
 10
2551.46545819107
 20
-701.8936490563568
 30
0.0
 11
2551.46545819107
 21
-649.8936490563595
 31
0.0
  0
LINE
  5
1ABB7
330
18
100
AcDbEntity
  8
01
100
AcDbLine
 10
2542.96545819107
 20
-649.3936490563595
 30
0.0
 11
2550.96545819107
 21
-649.3936490563595
 31
0.0
  0
LINE
  5
1ABB8
330
18
100
AcDbEntity
  8
01
100
AcDbLine
 10
2542.96545819107
 20
-702.3936490563568
 30
0.0
 11
2550.96545819107
 21
-702.3936490563568
 31
0.0
  0
ARC
  5
1ABB9
330
18
100
AcDbEntity
  8
01
100
AcDbCircle
 10
2550.96545819107
 20
-701.8936490563568
 30
0.0
 40
0.5
100
AcDbArc
 50
270.0
 51
0.0
  0
ARC
  5
1ABBA
330
18
100
AcDbEntity
  8
01
100
AcDbCircle
 10
2550.96545819107
 20
-649.8936490563595
 30
0.0
 40
0.5
100
AcDbArc
 50
0.0
 51
90.0
  0
SPLINE
  5
1ABBB
330
18
100
AcDbEntity
  8
01
100
AcDbSpline
210
0.0
220
0.0
230
1.0
 70
     8
 71
     3
 72
    18
 73
    14
 74
     0
 42
0.0000000001
 43
0.0000000001
 40
0.0000649757542841
 40
0.0000649757542841
 40
0.0000649757542841
 40
0.0000649757542841
 40
0.0860520609830585
 40
0.2305629888503389
 40
0.3725690207133783
 40
0.5129959002680089
 40
0.6565061431096817
 40
0.7501835193149282
 40
0.8477363410374643
 40
0.8940869277261254
 40
0.9350128367551847
 40
0.9703342150502404
 40
1.0
 40
1.0
 40
1.0
 40
1.0
 10
2703.965544600421
 20
-457.8949995067049
 30
0.0
 10
2703.965539230697
 20
-457.227093462366
 30
0.0
 10
2703.965524838272
 20
-455.4366964303548
 30
0.0
 10
2703.965511457503
 20
-452.5428629249444
 30
0.0
 10
2703.965609885013
 20
-449.2266761806003
 30
0.0
 10
2703.965322018065
 20
-445.9207715446154
 30
0.0
 10
2703.96529257549
 20
-442.9869149467603
 30
0.0
 10
2703.965582624919
 20
-440.386380234076
 30
0.0
 10
2703.965527212117
 20
-438.5514026505447
 30
0.0
 10
2703.965485177617
 20
-437.1148949264351
 30
0.0
 10
2703.965596453559
 20
-436.1634247293895
 30
0.0
 10
2703.965465742377
 20
-435.3748290237057
 30
0.0
 10
2703.965553699353
 20
-435.0453638803205
 30
0.0
 10
2703.965593850556
 20
-434.8949673773176
 30
0.0
  0
LINE
  5
1ABBC
330
18
100
AcDbEntity
  8
01
100
AcDbLine
 10
2811.465555211073
 20
-461.8949673701544
 30
0.0
 11
2707.965544599399
 21
-461.8949673481465
 31
0.0
  0
ARC
  5
1ABBD
330
18
100
AcDbEntity
  8
01
100
AcDbCircle
 10
2811.465555211073
 20
-463.3949673701544
 30
0.0
 40
1.5
100
AcDbArc
 50
0.0
 51
89.99999998718089
  0
LINE
  5
1ABBE
330
18
100
AcDbEntity
  8
01
100
AcDbLine
 10
2682.96555521107
 20
-434.6961352685147
 30
0.0
 11
2682.96555521107
 21
-434.8949673704896
 31
0.0
  0
LINE
  5
1ABBF
330
18
100
AcDbEntity
  8
01
100
AcDbLine
 10
2702.96555521107
 20
-434.8949673704896
 30
0.0
 11
2702.96555521107
 21
-434.6961352685147
 31
0.0
  0
LINE
  5
1ABC0
330
18
100
AcDbEntity
  8
01
100
AcDbLine
 10
2685.015589788173
 20
-434.3949673704896
 30
0.0
 11
2685.015589788173
 21
-434.6961352685147
 31
0.0
  0
LINE
  5
1ABC1
330
18
100
AcDbEntity
  8
01
100
AcDbLine
 10
2700.915589788175
 20
-434.6961352685147
 30
0.0
 11
2700.915589788175
 21
-434.3949673704896
 31
0.0
  0
SPLINE
  5
1ABC2
330
18
100
AcDbEntity
  8
01
100
AcDbSpline
210
0.0
220
0.0
230
1.0
 70
     8
 71
     3
 72
    15
 73
    11
 74
     0
 42
0.0000000001
 43
0.0000000001
 40
0.0
 40
0.0
 40
0.0
 40
0.0
 40
0.0621384659276811
 40
0.1194624660158409
 40
0.2375262378245288
 40
0.485056379678497
 40
0.6028685908047778
 40
0.741824810946498
 40
0.8709376368659568
 40
1.0
 40
1.0
 40
1.0
 40
1.0
 10
2702.490000726985
 20
-464.1605665908777
 30
0.0
 10
2702.527554574214
 20
-464.1748772481
 30
0.0
 10
2702.599752610188
 20
-464.2023897780053
 30
0.0
 10
2702.746198381722
 20
-464.2494511445806
 30
0.0
 10
2703.011592092183
 20
-464.3190692610345
 30
0.0
 10
2703.323357485125
 20
-464.3668387413608
 30
0.0
 10
2703.652349923518
 20
-464.390944856333
 30
0.0
 10
2703.905689465885
 20
-464.3957946745612
 30
0.0
 10
2704.167270615458
 20
-464.3883181065033
 30
0.0
 10
2704.337211950567
 20
-464.3730526009543
 30
0.0
 10
2704.4221660098
 20
-464.3654213400736
 30
0.0
  0
SPLINE
  5
1ABC3
330
18
100
AcDbEntity
  8
01
100
AcDbSpline
210
0.0
220
0.0
230
1.0
 70
     8
 71
     3
 72
    11
 73
     7
 74
     0
 42
0.0000000001
 43
0.0000000001
 40
0.0
 40
0.0
 40
0.0
 40
0.0
 40
0.246667354855828
 40
0.4951061132192802
 40
0.7459932421170662
 40
0.9999999999999999
 40
0.9999999999999999
 40
0.9999999999999999
 40
0.9999999999999999
 10
2702.158999274557
 20
-463.9828965600917
 30
0.0
 10
2702.1848575009
 20
-464.0004351191095
 30
0.0
 10
2702.236759650447
 20
-464.035638187598
 30
0.0
 10
2702.318396798658
 20
-464.0821208783271
 30
0.0
 10
2702.402753643294
 20
-464.1244898900226
 30
0.0
 10
2702.460798816276
 20
-464.1484915901727
 30
0.0
 10
2702.490000726985
 20
-464.1605665908777
 30
0.0
  0
SPLINE
  5
1ABC4
330
18
100
AcDbEntity
  8
01
100
AcDbSpline
210
0.0
220
0.0
230
1.0
 70
     8
 71
     3
 72
    19
 73
    15
 74
     0
 42
0.0000000001
 43
0.0000000001
 40
0.0
 40
0.0
 40
0.0
 40
0.0
 40
0.0974617489138209
 40
0.1847107255476317
 40
0.261814459899569
 40
0.3288460592983783
 40
0.385864790067484
 40
0.4277977639963271
 40
0.5108213901195143
 40
0.5928931626424222
 40
0.6749542339723672
 40
0.7852446773393177
 40
0.8934743715277373
 40
1.0
 40
1.0
 40
1.0
 40
1.0
 10
2701.527375446304
 20
-462.1824853000788
 30
0.0
 10
2701.527847074706
 20
-462.2458083450491
 30
0.0
 10
2701.528740910749
 20
-462.3658189718916
 30
0.0
 10
2701.539845393449
 20
-462.5356810991442
 30
0.0
 10
2701.557731662872
 20
-462.6853652646213
 30
0.0
 10
2701.579026642526
 20
-462.8147008680984
 30
0.0
 10
2701.600695950102
 20
-462.9206995698704
 30
0.0
 10
2701.629431755227
 20
-463.0359238302243
 30
0.0
 10
2701.668203532036
 20
-463.1654989613465
 30
0.0
 10
2701.724854555388
 20
-463.3168461316558
 30
0.0
 10
2701.799187752545
 20
-463.4803012027418
 30
0.0
 10
2701.895796124786
 20
-463.651842532361
 30
0.0
 10
2702.017385085738
 20
-463.8270995582005
 30
0.0
 10
2702.112044917593
 20
-463.9312396738613
 30
0.0
 10
2702.158999274557
 20
-463.9828965600917
 30
0.0
  0
SPLINE
  5
1ABC5
330
18
100
AcDbEntity
  8
01
100
AcDbSpline
210
0.0
220
0.0
230
1.0
 70
     8
 71
     3
 72
    11
 73
     7
 74
     0
 42
0.0000000001
 43
0.0000000001
 40
0.0
 40
0.0
 40
0.0
 40
0.0
 40
0.2788341038430541
 40
0.5384644005889189
 40
0.7788535199034351
 40
0.9999999999999999
 40
0.9999999999999999
 40
0.9999999999999999
 40
0.9999999999999999
 10
2701.581305389357
 20
-461.5275354338982
 30
0.0
 10
2701.572637581469
 20
-461.5880175426163
 30
0.0
 10
2701.555898933241
 20
-461.704816248255
 30
0.0
 10
2701.539810288029
 20
-461.8748396238674
 30
0.0
 10
2701.529845127682
 20
-462.0327046704823
 30
0.0
 10
2701.528175469272
 20
-462.1339657035986
 30
0.0
 10
2701.527375446304
 20
-462.1824853000788
 30
0.0
  0
SPLINE
  5
1ABC6
330
18
100
AcDbEntity
  8
01
100
AcDbSpline
210
0.0
220
0.0
230
1.0
 70
     8
 71
     3
 72
     9
 73
     5
 74
     0
 42
0.0000000001
 43
0.0000000001
 40
0.0
 40
0.0
 40
0.0
 40
0.0
 40
0.477460274534142
 40
1.0
 40
1.0
 40
1.0
 40
1.0
 10
2702.107394412052
 20
-465.1010734115229
 30
0.0
 10
2698.897859013979
 20
-468.2814907087235
 30
0.0
 10
2692.175759670311
 20
-474.9426046627667
 30
0.0
 10
2685.45978103882
 20
-481.6076554369328
 30
0.0
 10
2681.950415408485
 20
-485.0904092386812
 30
0.0
  0
LINE
  5
1ABC7
330
18
100
AcDbEntity
  8
01
100
AcDbLine
 10
2703.965593850556
 20
-434.8949673704896
 30
0.0
 11
2681.96555521107
 21
-434.8949673704896
 31
0.0
  0
SPLINE
  5
1ABC8
330
18
100
AcDbEntity
  8
01
100
AcDbSpline
210
0.0
220
0.0
230
1.0
 70
     8
 71
     3
 72
    12
 73
     8
 74
     0
 42
0.0000000001
 43
0.0000000001
 40
0.0
 40
0.0
 40
0.0
 40
0.0
 40
0.157441155016458
 40
0.3235627903252723
 40
0.4984485582856485
 40
0.7268212218397349
 40
0.9831250544958003
 40
0.9831250544958003
 40
0.9831250544958003
 40
0.9831250544958003
 10
2703.96555521107
 20
-434.8949673704896
 30
0.0
 10
2703.846611307369
 20
-436.2932184867544
 30
0.0
 10
2703.602165556388
 20
-439.1668129589674
 30
0.0
 10
2703.218083766566
 20
-443.5928895846608
 30
0.0
 10
2702.771147780953
 20
-448.6480734973592
 30
0.0
 10
2702.241828023179
 20
-454.5028802630567
 30
0.0
 10
2701.837613526323
 20
-458.8038877878124
 30
0.0
 10
2701.581305389357
 20
-461.5275354338982
 30
0.0
  0
LINE
  5
1ABC9
330
18
100
AcDbEntity
  8
01
100
AcDbLine
 10
2682.743746866639
 20
-436.3111774455741
 30
0.0
 11
2700.344224899548
 21
-464.1014059185899
 31
0.0
  0
LINE
  5
1ABCA
330
18
100
AcDbEntity
  8
01
100
AcDbLine
 10
2681.915808602967
 20
-436.1635058770661
 30
0.0
 11
2681.96555521107
 21
-434.8949673704896
 31
0.0
  0
LINE
  5
1ABCB
330
18
100
AcDbEntity
  8
01
100
AcDbLine
 10
2680.050976753167
 20
-483.7167180469768
 30
0.0
 11
2681.915808602967
 21
-436.1635058770661
 31
0.0
  0
LINE
  5
1ABCC
330
18
100
AcDbEntity
  8
01
100
AcDbLine
 10
2702.96555521107
 20
-434.6961352685147
 30
0.0
 11
2692.965574530813
 21
-434.6961352685147
 31
0.0
  0
LINE
  5
1ABCD
330
18
100
AcDbEntity
  8
01
100
AcDbLine
 10
2694.111441423192
 20
-434.6961352685147
 30
0.0
 11
2691.956552796527
 21
-434.6961352685147
 31
0.0
  0
LINE
  5
1ABCE
330
18
100
AcDbEntity
  8
01
100
AcDbLine
 10
2692.965574530813
 20
-434.6961352685147
 30
0.0
 11
2682.96555521107
 21
-434.6961352685147
 31
0.0
  0
LINE
  5
1ABCF
330
18
100
AcDbEntity
  8
01
100
AcDbLine
 10
2811.441712269666
 20
-461.9202546089626
 30
0.0
 11
2811.441712554622
 21
-461.920254338629
 31
0.0
  0
ARC
  5
1ABD0
330
18
100
AcDbEntity
  8
01
100
AcDbCircle
 10
2811.465555211059
 20
-478.4636328255236
 30
0.0
 40
1.5
100
AcDbArc
 50
272.6837751591837
 51
0.0000000000130276
  0
LINE
  5
1ABD1
330
18
100
AcDbEntity
  8
01
100
AcDbLine
 10
2812.965555211073
 20
-478.4636328255218
 30
0.0
 11
2812.965555211073
 21
-463.3949673701544
 31
0.0
  0
LINE
  5
1ABD2
330
18
100
AcDbEntity
  8
01
100
AcDbLine
 10
2682.143087827229
 20
-485.7928955291071
 30
0.0
 11
2811.535790590499
 21
-479.9619875870784
 31
0.0
  0
ARC
  5
1ABD3
330
18
100
AcDbEntity
  8
01
100
AcDbCircle
 10
2682.04944065463
 20
-483.7950891803674
 30
0.0
 40
2.0
100
AcDbArc
 50
177.7542574341064
 51
272.6837751593922
  0
ARC
  5
1ABD4
330
18
100
AcDbEntity
  8
01
100
AcDbCircle
 10
2707.965544600292
 20
-457.8949673481465
 30
0.0
 40
4.0
100
AcDbArc
 50
180.0004606374193
 51
269.9999999871809
  0
LINE
  5
1ABD5
330
18
100
AcDbEntity
  8
01
100
AcDbLine
 10
2704.422168082147
 20
-464.3654197168706
 30
0.0
 11
2811.441711984647
 21
-461.9202548793572
 31
0.0
  0
LINE
  5
1ABD6
330
18
100
AcDbEntity
  8
01
100
AcDbLine
 10
2602.865580000948
 20
-680.1254468557948
 30
0.0
 11
2602.865580000948
 21
-671.6644246689342
 31
0.0
  0
ARC
  5
1ABD7
330
18
100
AcDbEntity
  8
01
100
AcDbCircle
 10
2601.865580000948
 20
-680.1254468557948
 30
0.0
 40
1.0
100
AcDbArc
 50
285.8640017184883
 51
0.0
  0
LINE
  5
1ABD8
330
18
100
AcDbEntity
  8
01
100
AcDbLine
 10
2551.766626089096
 20
-685.8936490563577
 30
0.0
 11
2551.96545819107
 21
-685.8936490563577
 31
0.0
  0
LINE
  5
1ABD9
330
18
100
AcDbEntity
  8
01
100
AcDbLine
 10
2551.96545819107
 20
-665.8936490563577
 30
0.0
 11
2551.766626089096
 21
-665.8936490563577
 31
0.0
  0
SPLINE
  5
1ABDA
330
18
100
AcDbEntity
  8
01
100
AcDbSpline
210
0.0
220
0.0
230
1.0
 70
     8
 71
     3
 72
     9
 73
     5
 74
     0
 42
0.0000000001
 43
0.0000000001
 40
0.0
 40
0.0
 40
0.0
 40
0.0
 40
0.4105674575655068
 40
0.9999999999999999
 40
0.9999999999999999
 40
0.9999999999999999
 40
0.9999999999999999
 10
2602.044002100317
 20
-670.6685665711242
 30
0.0
 10
2602.031950055371
 20
-670.6640800378267
 30
0.0
 10
2602.002595451827
 20
-670.6531523980069
 30
0.0
 10
2601.935530712078
 20
-670.6416356398926
 30
0.0
 10
2601.896000572021
 20
-670.6348472878766
 30
0.0
  0
SPLINE
  5
1ABDB
330
18
100
AcDbEntity
  8
01
100
AcDbSpline
210
0.0
220
0.0
230
1.0
 70
     8
 71
     3
 72
     8
 73
     4
 74
     0
 42
0.0000000001
 43
0.0000000001
 40
0.0
 40
0.0
 40
0.0
 40
0.0
 40
1.0
 40
1.0
 40
1.0
 40
1.0
 10
2600.94576286881
 20
-681.2783461608418
 30
0.0
 10
2600.904355988859
 20
-681.2830365532749
 30
0.0
 10
2600.862923176209
 20
-681.2874960535922
 30
0.0
 10
2600.821468315847
 20
-681.2917250399827
 30
0.0
  0
LINE
  5
1ABDC
330
18
100
AcDbEntity
  8
01
100
AcDbLine
 10
2602.859348329856
 20
-680.1228734437813
 30
0.0
 11
2602.863386349688
 21
-680.1205691912495
 31
0.0
  0
SPLINE
  5
1ABDD
330
18
100
AcDbEntity
  8
01
100
AcDbSpline
210
0.0
220
0.0
230
1.0
 70
     8
 71
     3
 72
     8
 73
     4
 74
     0
 42
0.0000000001
 43
0.0000000001
 40
0.0
 40
0.0
 40
0.0
 40
0.0
 40
1.0
 40
1.0
 40
1.0
 40
1.0
 10
2600.821468315659
 20
-670.4955730727437
 30
0.0
 10
2600.862923176096
 20
-670.4998020591341
 30
0.0
 10
2600.90435598881
 20
-670.5042615594488
 30
0.0
 10
2600.94576286881
 20
-670.5089519518791
 30
0.0
  0
LINE
  5
1ABDE
330
18
100
AcDbEntity
  8
01
100
AcDbLine
 10
2551.96545819107
 20
-686.8936490563577
 30
0.0
 11
2551.96545819107
 21
-664.8936490563577
 31
0.0
  0
LINE
  5
1ABDF
330
18
100
AcDbEntity
  8
01
100
AcDbLine
 10
2600.82146823414
 20
-681.2917250348768
 30
0.0
 11
2553.381668266143
 21
-686.8728779673705
 31
0.0
  0
LINE
  5
1ABE0
330
18
100
AcDbEntity
  8
01
100
AcDbLine
 10
2600.821468206911
 20
-670.4955730795403
 30
0.0
 11
2553.381668266155
 21
-664.9144201453349
 31
0.0
  0
ARC
  5
1ABE1
330
18
100
AcDbEntity
  8
01
100
AcDbCircle
 10
2553.272066538982
 20
-686.5941286051369
 30
0.0
 40
0.2995225292744162
100
AcDbArc
 50
270.2134280259119
 51
291.4643031510248
  0
LINE
  5
1ABE2
330
18
100
AcDbEntity
  8
01
100
AcDbLine
 10
2553.273182264343
 20
-686.8936490563577
 30
0.0
 11
2551.96545819107
 21
-686.8936490563577
 31
0.0
  0
LINE
  5
1ABE3
330
18
100
AcDbEntity
  8
01
100
AcDbLine
 10
2551.96545819107
 20
-664.8936490563577
 30
0.0
 11
2553.273182264343
 21
-664.8936490563577
 31
0.0
  0
ARC
  5
1ABE4
330
18
100
AcDbEntity
  8
01
100
AcDbCircle
 10
2553.272066539036
 20
-665.1931695074858
 30
0.0
 40
0.2995225291803009
100
AcDbArc
 50
68.53569685099045
 51
89.7865719848229
  0
LINE
  5
1ABE5
330
18
100
AcDbEntity
  8
01
100
AcDbLine
 10
2553.273182264343
 20
-686.8936490563577
 30
0.0
 11
2581.567755431718
 21
-686.8936490563577
 31
0.0
  0
LINE
  5
1ABE6
330
18
100
AcDbEntity
  8
01
100
AcDbLine
 10
2551.766626089096
 20
-665.8936490563577
 30
0.0
 11
2551.766626089096
 21
-685.8936490563577
 31
0.0
  0
SPLINE
  5
1ABE7
330
18
100
AcDbEntity
  8
01
100
AcDbSpline
210
0.0
220
0.0
230
1.0
 70
     8
 71
     3
 72
    10
 73
     6
 74
     0
 42
0.0000000001
 43
0.0000000001
 40
0.0
 40
0.0
 40
0.0
 40
0.0
 40
0.2453247720985068
 40
0.6314965854619112
 40
1.0
 40
1.0
 40
1.0
 40
1.0
 10
2601.896019716128
 20
-681.152452651137
 30
0.0
 10
2601.840197922897
 20
-681.1639948893938
 30
0.0
 10
2601.696505659299
 20
-681.1937060513995
 30
0.0
 10
2601.363678544744
 20
-681.2332625718612
 30
0.0
 10
2601.082876723703
 20
-681.2635546955611
 30
0.0
 10
2600.94576286858
 20
-681.2783461589664
 30
0.0
  0
SPLINE
  5
1ABE8
330
18
100
AcDbEntity
  8
01
100
AcDbSpline
210
0.0
220
0.0
230
1.0
 70
     8
 71
     3
 72
    10
 73
     6
 74
     0
 42
0.0000000001
 43
0.0000000001
 40
0.0
 40
0.0
 40
0.0
 40
0.0
 40
0.2451891194566391
 40
0.6313454626814465
 40
1.0
 40
1.0
 40
1.0
 40
1.0
 10
2601.896000572021
 20
-670.6348472878766
 30
0.0
 10
2601.840224379904
 20
-670.6233108755554
 30
0.0
 10
2601.696604443191
 20
-670.5936053911086
 30
0.0
 10
2601.363784019896
 20
-670.554046771052
 30
0.0
 10
2601.082932550605
 20
-670.5237493909866
 30
0.0
 10
2600.945762868588
 20
-670.5089519537509
 30
0.0
  0
LINE
  5
1ABE9
330
18
100
AcDbEntity
  8
01
100
AcDbLine
 10
2602.847844116549
 20
-680.1294381992196
 30
0.0
 11
2602.859348329856
 21
-680.1228734437813
 31
0.0
  0
LINE
  5
1ABEA
330
18
100
AcDbEntity
  8
01
100
AcDbLine
 10
2551.46545819107
 20
-683.8436492499735
 30
0.0
 11
2551.766626089096
 21
-683.8436492499735
 31
0.0
  0
LINE
  5
1ABEB
330
18
100
AcDbEntity
  8
01
100
AcDbLine
 10
2551.766626089096
 20
-667.9436492499739
 30
0.0
 11
2551.46545819107
 21
-667.9436492499736
 31
0.0
  0
ARC
  5
1ABEC
330
18
100
AcDbEntity
  8
01
100
AcDbCircle
 10
2581.567755431598
 20
-685.8936490563777
 30
0.0
 40
1.0
100
AcDbArc
 50
270.0000000068786
 51
285.8538633042972
  0
LINE
  5
1ABED
330
18
100
AcDbEntity
  8
01
100
AcDbLine
 10
2581.840940131632
 20
-686.8556106562704
 30
0.0
 11
2602.138934914567
 21
-681.0873601009474
 31
0.0
  0
ARC
  5
1ABEE
330
18
100
AcDbEntity
  8
01
100
AcDbCircle
 10
2601.865580000948
 20
-671.6615520784884
 30
0.0
 40
1.0
100
AcDbArc
 50
0.0
 51
74.13599828151175
  0
LINE
  5
1ABEF
330
18
100
AcDbEntity
  8
01
100
AcDbLine
 10
2553.273182264343
 20
-664.8933498779255
 30
0.0
 11
2581.567755431718
 21
-664.8933498779255
 31
0.0
  0
ARC
  5
1ABF0
330
18
100
AcDbEntity
  8
01
100
AcDbCircle
 10
2581.567755431598
 20
-665.8933498779055
 30
0.0
 40
1.0
100
AcDbArc
 50
74.14613669570276
 51
89.99999999301724
  0
LINE
  5
1ABF1
330
18
100
AcDbEntity
  8
01
100
AcDbLine
 10
2581.840940131632
 20
-664.9313882780128
 30
0.0
 11
2602.138934914567
 21
-670.6996388333358
 31
0.0
  0
LINE
  5
1ABF2
330
18
100
AcDbEntity
  8
01
100
AcDbLine
 10
2680.049308863911
 20
-671.490448753566
 30
0.0
 11
2680.049308863911
 21
-680.2968493591494
 31
0.0
  0
ARC
  5
1ABF3
330
18
100
AcDbEntity
  8
01
100
AcDbCircle
 10
2681.049308863911
 20
-671.490448753566
 30
0.0
 40
1.0
100
AcDbArc
 50
161.5650511770862
 51
180.0
  0
LINE
  5
1ABF4
330
18
100
AcDbEntity
  8
01
100
AcDbLine
 10
2680.10062556586
 20
-680.6130771251661
 30
0.0
 11
2681.966225464929
 21
-686.2098768223733
 31
0.0
  0
ARC
  5
1ABF5
330
18
100
AcDbEntity
  8
01
100
AcDbCircle
 10
2681.049308863911
 20
-680.2968493591494
 30
0.0
 40
1.0
100
AcDbArc
 50
180.0
 51
198.4349488229199
  0
LINE
  5
1ABF6
330
18
100
AcDbEntity
  8
01
100
AcDbLine
 10
2681.966225464929
 20
-665.5774212903397
 30
0.0
 11
2680.10062556586
 21
-671.1742209875493
 31
0.0
  0
SPLINE
  5
1ABF7
330
18
100
AcDbEntity
  8
01
100
AcDbSpline
210
0.0
220
0.0
230
1.0
 70
     8
 71
     3
 72
     9
 73
     5
 74
     0
 42
0.0000000001
 43
0.0000000001
 40
0.0
 40
0.0
 40
0.0
 40
0.0
 40
0.4971336847320229
 40
0.9999999999999999
 40
0.9999999999999999
 40
0.9999999999999999
 40
0.9999999999999999
 10
2702.26840082497
 20
-686.7730023390799
 30
0.0
 10
2702.620795240141
 20
-686.7006550344009
 30
0.0
 10
2703.329647659509
 20
-686.555126161784
 30
0.0
 10
2704.102366212582
 20
-686.496995489484
 30
0.0
 10
2704.490940344104
 20
-686.4677635325003
 30
0.0
  0
SPLINE
  5
1ABF8
330
18
100
AcDbEntity
  8
01
100
AcDbSpline
210
0.0
220
0.0
230
1.0
 70
     8
 71
     3
 72
     9
 73
     5
 74
     0
 42
0.0000000001
 43
0.0000000001
 40
0.0
 40
0.0
 40
0.0
 40
0.0
 40
0.5060576294160237
 40
0.9999999999999999
 40
0.9999999999999999
 40
0.9999999999999999
 40
0.9999999999999999
 10
2704.474613268026
 20
-665.3185662565842
 30
0.0
 10
2704.08632043474
 20
-665.2889780255638
 30
0.0
 10
2703.319030682117
 20
-665.230509919758
 30
0.0
 10
2702.615399603364
 20
-665.0857224494047
 30
0.0
 10
2702.267846400307
 20
-665.0142057830675
 30
0.0
  0
LINE
  5
1ABF9
330
18
100
AcDbEntity
  8
01
100
AcDbLine
 10
2702.267998393704
 20
-665.0142364451839
 30
0.0
 11
2701.813086292589
 21
-664.9125702642997
 31
0.0
  0
LINE
  5
1ABFA
330
18
100
AcDbEntity
  8
01
100
AcDbLine
 10
2701.813163675116
 20
-686.874728482734
 30
0.0
 11
2702.268035055647
 21
-686.7730766895053
 31
0.0
  0
ARC
  5
1ABFB
330
18
100
AcDbEntity
  8
01
100
AcDbCircle
 10
2701.619873047849
 20
-665.8936490563566
 30
0.0
 40
1.000000000000058
100
AcDbArc
 50
78.43054995700243
 51
90.00000000010422
  0
ARC
  5
1ABFC
330
18
100
AcDbEntity
  8
01
100
AcDbCircle
 10
2701.619953564011
 20
-685.8936490563564
 30
0.0
 40
1.0
100
AcDbArc
 50
270.0
 51
281.8628305241962
  0
ARC
  5
1ABFD
330
18
100
AcDbEntity
  8
01
100
AcDbCircle
 10
2682.91490876298
 20
-665.8936490563564
 30
0.0
 40
1.0
100
AcDbArc
 50
90.0
 51
161.5650511770801
  0
ARC
  5
1ABFE
330
18
100
AcDbEntity
  8
01
100
AcDbCircle
 10
2682.91490876298
 20
-685.8936490563564
 30
0.0
 40
1.0
100
AcDbArc
 50
198.4349488229199
 51
270.0
  0
SPLINE
  5
1ABFF
330
18
100
AcDbEntity
  8
01
100
AcDbSpline
210
0.0
220
0.0
230
1.0
 70
     8
 71
     3
 72
    10
 73
     6
 74
     0
 42
0.0000000001
 43
0.0000000001
 40
0.0
 40
0.0
 40
0.0
 40
0.0
 40
0.3343415713576167
 40
0.6676648310217684
 40
0.9999999999999999
 40
0.9999999999999999
 40
0.9999999999999999
 40
0.9999999999999999
 10
2681.783547738082
 20
-680.1294381992183
 30
0.0
 10
2681.823417622124
 20
-680.1279925841003
 30
0.0
 10
2681.903035957602
 20
-680.1251057568071
 30
0.0
 10
2682.023134897273
 20
-680.1221460309515
 30
0.0
 10
2682.103055200822
 20
-680.121094284085
 30
0.0
 10
2682.142956036508
 20
-680.1205691912481
 30
0.0
  0
SPLINE
  5
1AC00
330
18
100
AcDbEntity
  8
01
100
AcDbSpline
210
0.0
220
0.0
230
1.0
 70
     8
 71
     3
 72
    10
 73
     6
 74
     0
 42
0.0000000001
 43
0.0000000001
 40
0.0
 40
0.0
 40
0.0
 40
0.0
 40
0.3323351691751165
 40
0.6656584288392461
 40
1.0
 40
1.0
 40
1.0
 40
1.0
 10
2682.142956036508
 20
-671.6667289214648
 30
0.0
 10
2682.103055200801
 20
-671.6662038286278
 30
0.0
 10
2682.023134897229
 20
-671.6651520817612
 30
0.0
 10
2681.903035957564
 20
-671.6621923559065
 30
0.0
 10
2681.823417622115
 20
-671.6593055286131
 30
0.0
 10
2681.783547738097
 20
-671.6578599134954
 30
0.0
  0
SPLINE
  5
1AC01
330
18
100
AcDbEntity
  8
01
100
AcDbSpline
210
0.0
220
0.0
230
1.0
 70
     8
 71
     3
 72
    19
 73
    15
 74
     0
 42
0.0000000001
 43
0.0000000001
 40
0.0
 40
0.0
 40
0.0
 40
0.0
 40
0.0424084333662313
 40
0.0886689639415328
 40
0.1387821038209021
 40
0.1927481509182004
 40
0.2505672382792412
 40
0.3218805652856683
 40
0.5002505393646266
 40
0.6128084937673238
 40
0.7500691770242507
 40
0.8537312650327051
 40
0.9370474150957282
 40
1.0
 40
1.0
 40
1.0
 40
1.0
 10
2681.783547830767
 20
-671.6578587102464
 30
0.0
 10
2681.743366709473
 20
-671.6562108352138
 30
0.0
 10
2681.659354683746
 20
-671.6527654032501
 30
0.0
 10
2681.529816453653
 20
-671.6465468666889
 30
0.0
 10
2681.391993560094
 20
-671.6393087329003
 30
0.0
 10
2681.247414319797
 20
-671.630960420429
 30
0.0
 10
2681.089516024701
 20
-671.6210568573648
 30
0.0
 10
2680.837425392266
 20
-671.6032791989152
 30
0.0
 10
2680.574272716097
 20
-671.5823829495911
 30
0.0
 10
2680.3296366276
 20
-671.5579960631461
 30
0.0
 10
2680.178790822231
 20
-671.5383264792337
 30
0.0
 10
2680.091909142006
 20
-671.5202490425662
 30
0.0
 10
2680.054648440621
 20
-671.5060929404555
 30
0.0
 10
2680.050915488687
 20
-671.4974433920398
 30
0.0
 10
2680.049308863911
 20
-671.4937207138397
 30
0.0
  0
SPLINE
  5
1AC02
330
18
100
AcDbEntity
  8
01
100
AcDbSpline
210
0.0
220
0.0
230
1.0
 70
     8
 71
     3
 72
     8
 73
     4
 74
     0
 42
0.0000000001
 43
0.0000000001
 40
0.0
 40
0.0
 40
0.0
 40
0.0
 40
1.0
 40
1.0
 40
1.0
 40
1.0
 10
2680.883230872428
 20
-681.2917250399811
 30
0.0
 10
2687.374282313997
 20
-683.1523681428345
 30
0.0
 10
2693.861839597556
 20
-685.0127910462335
 30
0.0
 10
2700.344093259467
 20
-686.8728779769257
 30
0.0
  0
SPLINE
  5
1AC03
330
18
100
AcDbEntity
  8
01
100
AcDbSpline
210
0.0
220
0.0
230
1.0
 70
     8
 71
     3
 72
     8
 73
     4
 74
     0
 42
0.0000000001
 43
0.0000000001
 40
0.0
 40
0.0
 40
0.0
 40
0.0
 40
1.0
 40
1.0
 40
1.0
 40
1.0
 10
2680.889595200314
 20
-681.27834616084
 30
0.0
 10
2680.887432621518
 20
-681.2830365532737
 30
0.0
 10
2680.885309911794
 20
-681.2874960535909
 30
0.0
 10
2680.883230872428
 20
-681.2917250399811
 30
0.0
  0
SPLINE
  5
1AC04
330
18
100
AcDbEntity
  8
01
100
AcDbSpline
210
0.0
220
0.0
230
1.0
 70
     8
 71
     3
 72
     8
 73
     4
 74
     0
 42
0.0000000001
 43
0.0000000001
 40
0.0
 40
0.0
 40
0.0
 40
0.0
 40
1.0
 40
1.0
 40
1.0
 40
1.0
 10
2680.883230872248
 20
-670.4955730727426
 30
0.0
 10
2680.885309911661
 20
-670.4998020591328
 30
0.0
 10
2680.887432621449
 20
-670.5042615594476
 30
0.0
 10
2680.889595200312
 20
-670.5089519518773
 30
0.0
  0
SPLINE
  5
1AC05
330
18
100
AcDbEntity
  8
01
100
AcDbSpline
210
0.0
220
0.0
230
1.0
 70
     8
 71
     3
 72
     8
 73
     4
 74
     0
 42
0.0000000001
 43
0.0000000001
 40
0.0
 40
0.0
 40
0.0
 40
0.0
 40
1.0
 40
1.0
 40
1.0
 40
1.0
 10
2700.344093259419
 20
-664.9144201357902
 30
0.0
 10
2693.861839596836
 20
-666.7745070665254
 30
0.0
 10
2687.374282311047
 20
-668.634929970069
 30
0.0
 10
2680.883230872248
 20
-670.4955730727426
 30
0.0
  0
SPLINE
  5
1AC06
330
18
100
AcDbEntity
  8
01
100
AcDbSpline
210
0.0
220
0.0
230
1.0
 70
     8
 71
     3
 72
    10
 73
     6
 74
     0
 42
0.0000000001
 43
0.0000000001
 40
0.0
 40
0.0
 40
0.0
 40
0.0
 40
0.5
 40
0.5
 40
1.0
 40
1.0
 40
1.0
 40
1.0
 10
2812.024759592449
 20
-680.2634628325567
 30
0.0
 10
2812.025087884084
 20
-680.2784833741476
 30
0.0
 10
2811.970010160446
 20
-680.2966326397417
 30
0.0
 10
2811.783099337909
 20
-680.3289028083553
 30
0.0
 10
2811.650632223359
 20
-680.3430729901128
 30
0.0
 10
2811.518116936401
 20
-680.3508847122295
 30
0.0
  0
SPLINE
  5
1AC07
330
18
100
AcDbEntity
  8
01
100
AcDbSpline
210
0.0
220
0.0
230
1.0
 70
     8
 71
     3
 72
    16
 73
    12
 74
     0
 42
0.0000000001
 43
0.0000000001
 40
0.0
 40
0.0
 40
0.0
 40
0.0
 40
0.0786888963696355
 40
0.1564566302556064
 40
0.2345339740335824
 40
0.3141309596038094
 40
0.4548534519938955
 40
0.5585179707417066
 40
0.6632215900757792
 40
0.8323892133719423
 40
1.0
 40
1.0
 40
1.0
 40
1.0
 10
2812.024759590976
 20
-671.5146875983418
 30
0.0
 10
2812.024087139299
 20
-671.5122958746348
 30
0.0
 10
2812.022750107925
 20
-671.5075404256585
 30
0.0
 10
2812.010988369967
 20
-671.4999360905923
 30
0.0
 10
2811.992016088027
 20
-671.4920915030494
 30
0.0
 10
2811.958839736731
 20
-671.4819984992679
 30
0.0
 10
2811.910099295273
 20
-671.4710082248977
 30
0.0
 10
2811.843702152956
 20
-671.4596768992009
 30
0.0
 10
2811.761086534842
 20
-671.4483092030704
 30
0.0
 10
2811.652074312768
 20
-671.4363133388891
 30
0.0
 10
2811.56263144411
 20
-671.4302722722292
 30
0.0
 10
2811.518116745029
 20
-671.4272657020182
 30
0.0
  0
SPLINE
  5
1AC08
330
18
100
AcDbEntity
  8
01
100
AcDbSpline
210
0.0
220
0.0
230
1.0
 70
     8
 71
     3
 72
    21
 73
    17
 74
     0
 42
0.0000000001
 43
0.0000000001
 40
0.0
 40
0.0
 40
0.0
 40
0.0
 40
0.0543026746903798
 40
0.1089515020728126
 40
0.1639470580616293
 40
0.2192899076506203
 40
0.2749806051673976
 40
0.3310196945209795
 40
0.3874077094427233
 40
0.4441451737208603
 40
0.501232601428756
 40
0.5866890531856455
 40
0.6792957212739271
 40
0.7790511301746228
 40
0.8859533378763902
 40
0.9999999999999999
 40
0.9999999999999999
 40
0.9999999999999999
 40
0.9999999999999999
 10
2811.535656707764
 20
-677.5250478095489
 30
0.0
 10
2811.576938088197
 20
-677.5247962657171
 30
0.0
 10
2811.659763997447
 20
-677.5242915745858
 30
0.0
 10
2811.782930428813
 20
-677.5240528520764
 30
0.0
 10
2811.904693960975
 20
-677.5241891740358
 30
0.0
 10
2812.024105645777
 20
-677.5247386572333
 30
0.0
 10
2812.140261870255
 20
-677.5256909508774
 30
0.0
 10
2812.252240514724
 20
-677.5270490069257
 30
0.0
 10
2812.359127094011
 20
-677.5288114540061
 30
0.0
 10
2812.460019765397
 20
-677.5309808217029
 30
0.0
 10
2812.569410224628
 20
-677.5339683333983
 30
0.0
 10
2812.684403884748
 20
-677.538199062651
 30
0.0
 10
2812.797163128988
 20
-677.5440439679015
 30
0.0
 10
2812.888355168251
 20
-677.5511219067224
 30
0.0
 10
2812.952639076889
 20
-677.5593911551942
 30
0.0
 10
2812.961069708755
 20
-677.5656228683116
 30
0.0
 10
2812.965421328317
 20
-677.5688394771176
 30
0.0
  0
SPLINE
  5
1AC09
330
18
100
AcDbEntity
  8
01
100
AcDbSpline
210
0.0
220
0.0
230
1.0
 70
     8
 71
     3
 72
    23
 73
    19
 74
     0
 42
0.0000000001
 43
0.0000000001
 40
0.0
 40
0.0
 40
0.0
 40
0.0
 40
0.0528182523272466
 40
0.1041556312968589
 40
0.154012137786094
 40
0.2023877805948915
 40
0.2492825772105166
 40
0.2946965546967934
 40
0.3386297507331105
 40
0.3810822148345328
 40
0.4220540097921852
 40
0.4615452133835036
 40
0.4995559204152067
 40
0.6018854951636194
 40
0.7030916251542205
 40
0.8031773224853901
 40
0.9021457048440085
 40
0.9999999999999999
 40
0.9999999999999999
 40
0.9999999999999999
 40
0.9999999999999999
 10
2812.965421328317
 20
-674.2093108864063
 30
0.0
 10
2812.964489099292
 20
-674.2108127638816
 30
0.0
 10
2812.962650778295
 20
-674.2137744104654
 30
0.0
 10
2812.948128471216
 20
-674.217992554827
 30
0.0
 10
2812.926003535616
 20
-674.2219646320408
 30
0.0
 10
2812.896325223955
 20
-674.2256800262038
 30
0.0
 10
2812.860187948706
 20
-674.2291414706468
 30
0.0
 10
2812.818403132106
 20
-674.2323482910546
 30
0.0
 10
2812.771826848609
 20
-674.2353006486413
 30
0.0
 10
2812.721264765069
 20
-674.2379986311017
 30
0.0
 10
2812.667490536484
 20
-674.2404418616544
 30
0.0
 10
2812.611225660164
 20
-674.2426318054321
 30
0.0
 10
2812.519673081463
 20
-674.2456779660857
 30
0.0
 10
2812.382212086838
 20
-674.2490841597838
 30
0.0
 10
2812.187615892976
 20
-674.2521174344153
 30
0.0
 10
2811.978246700054
 20
-674.2538118933932
 30
0.0
 10
2811.759626914426
 20
-674.2542950020292
 30
0.0
 10
2811.610031188097
 20
-674.2534985338945
 30
0.0
 10
2811.535656707764
 20
-674.253102553975
 30
0.0
  0
LINE
  5
1AC0A
330
18
100
AcDbEntity
  8
01
100
AcDbLine
 10
2812.965421328317
 20
-672.5095051451821
 30
0.0
 11
2812.965421328317
 21
-679.271589952897
 31
0.0
  0
ARC
  5
1AC0B
330
18
100
AcDbEntity
  8
01
100
AcDbCircle
 10
2811.969049460459
 20
-679.2686452858112
 30
0.0
 40
0.9963762191656275
100
AcDbArc
 50
273.2052359898751
 51
359.8306691403985
  0
ARC
  5
1AC0C
330
18
100
AcDbEntity
  8
01
100
AcDbCircle
 10
2811.969049460447
 20
-672.5095051451821
 30
0.0
 40
0.9963762191788412
100
AcDbArc
 50
0.1693308598880618
 51
86.79476409415366
  0
SPLINE
  5
1AC0E
330
18
100
AcDbEntity
  8
01
100
AcDbSpline
210
0.0
220
0.0
230
1.0
 70
    24
 71
     3
 72
    18
 73
    14
 74
     0
 42
0.0000000001
 43
0.0000000001
 40
0.0
 40
0.0
 40
0.0
 40
0.0
 40
0.0839597436665112
 40
0.1667230443678697
 40
0.2492037561948338
 40
0.3323250542961265
 40
0.4169891616065288
 40
0.5040503494536523
 40
0.5942948411753061
 40
0.6884291316167205
 40
0.7870761765890856
 40
0.8907776366593899
 40
0.9999999999999999
 40
0.9999999999999999
 40
0.9999999999999999
 40
0.9999999999999999
 10
2700.515386795892
 20
-664.8936490563564
 30
0.0
 10
2700.535368517459
 20
-664.8936490563564
 30
0.0
 10
2700.575047217101
 20
-664.8936490563564
 30
0.0
 10
2700.64543589581
 20
-664.8936490563564
 30
0.0
 10
2700.723004249066
 20
-664.8936490563564
 30
0.0
 10
2700.808522664806
 20
-664.8936490563564
 30
0.0
 10
2700.901739399606
 20
-664.8936490563564
 30
0.0
 10
2701.002677601281
 20
-664.8936490563564
 30
0.0
 10
2701.111293823701
 20
-664.8936490563564
 30
0.0
 10
2701.227574766911
 20
-664.8936490563564
 30
0.0
 10
2701.351514514728
 20
-664.8936490563564
 30
0.0
 10
2701.483101528683
 20
-664.8936490563564
 30
0.0
 10
2701.573501216749
 20
-664.8936490563564
 30
0.0
 10
2701.619873047847
 20
-664.8936490563564
 30
0.0
  0
SPLINE
  5
1AC0F
330
18
100
AcDbEntity
  8
01
100
AcDbSpline
210
0.0
220
0.0
230
1.0
 70
    24
 71
     3
 72
    17
 73
    13
 74
     0
 42
0.0000000001
 43
0.0000000001
 40
0.0
 40
0.0
 40
0.0
 40
0.0
 40
0.119840269243393
 40
0.2330526218349997
 40
0.3402725498500652
 40
0.4422476384012315
 40
0.5398460704773309
 40
0.6340571034811102
 40
0.7259794243438825
 40
0.8167948247074236
 40
0.9077282638308446
 40
1.0
 40
1.0
 40
1.0
 40
1.0
 10
2701.619953564011
 20
-686.8936490563564
 30
0.0
 10
2701.569073458054
 20
-686.8936490563564
 30
0.0
 10
2701.470127234322
 20
-686.8936490563564
 30
0.0
 10
2701.326558205702
 20
-686.8936490563564
 30
0.0
 10
2701.192227510367
 20
-686.8936490563564
 30
0.0
 10
2701.067153134761
 20
-686.8936490563564
 30
0.0
 10
2700.951343277761
 20
-686.8936490563564
 30
0.0
 10
2700.844853958743
 20
-686.8936490563564
 30
0.0
 10
2700.747665345668
 20
-686.8936490563564
 30
0.0
 10
2700.66009862862
 20
-686.8936490563564
 30
0.0
 10
2700.581237043506
 20
-686.8936490563564
 30
0.0
 10
2700.537443514338
 20
-686.8936490563564
 30
0.0
 10
2700.51538679589
 20
-686.8936490563564
 30
0.0
  0
LINE
  5
1AC10
330
18
100
AcDbEntity
  8
01
100
AcDbLine
 10
2682.91490876298
 20
-686.8936490563564
 30
0.0
 11
2700.51538679589
 21
-686.8936490563564
 31
0.0
  0
ARC
  5
1AC11
330
18
100
AcDbEntity
  8
01
100
AcDbCircle
 10
2682.915192198535
 20
-665.6126789262004
 30
0.0
 40
0.7190299257078011
100
AcDbArc
 50
90.02258551549211
 51
103.8052866215116
  0
LINE
  5
1AC12
330
18
100
AcDbEntity
  8
01
100
AcDbLine
 10
2682.91490876298
 20
-664.8936490563564
 30
0.0
 11
2700.515386795892
 21
-664.8936490563564
 31
0.0
  0
SPLINE
  5
1AC13
330
18
100
AcDbEntity
  8
01
100
AcDbSpline
210
0.0
220
0.0
230
1.0
 70
     8
 71
     3
 72
    10
 73
     6
 74
     0
 42
0.0000000001
 43
0.0000000001
 40
0.0
 40
0.0
 40
0.0
 40
0.0
 40
0.3467292126223085
 40
0.7381714902233174
 40
1.0
 40
1.0
 40
1.0
 40
1.0
 10
2703.719013508001
 20
-686.5414909373102
 30
0.0
 10
2703.648832862654
 20
-686.6127597007011
 30
0.0
 10
2703.499421305528
 20
-686.7644878140624
 30
0.0
 10
2703.223730215105
 20
-686.875482865276
 30
0.0
 10
2703.036772984916
 20
-686.8884513398315
 30
0.0
 10
2702.961841220144
 20
-686.8936490563564
 30
0.0
  0
LINE
  5
1AC14
330
18
100
AcDbEntity
  8
01
100
AcDbLine
 10
2701.717171757428
 20
-686.8936490563564
 30
0.0
 11
2702.961841220144
 21
-686.8936490563564
 31
0.0
  0
SPLINE
  5
1AC15
330
18
100
AcDbEntity
  8
01
100
AcDbSpline
210
0.0
220
0.0
230
1.0
 70
     8
 71
     3
 72
    10
 73
     6
 74
     0
 42
0.0000000001
 43
0.0000000001
 40
0.0
 40
0.0
 40
0.0
 40
0.0
 40
0.3465002606936584
 40
0.7380791582456137
 40
1.0
 40
1.0
 40
1.0
 40
1.0
 10
2703.718789341815
 20
-665.2456075184747
 30
0.0
 10
2703.64867751723
 20
-665.1744131522397
 30
0.0
 10
2703.499332531547
 20
-665.0227622478586
 30
0.0
 10
2703.223728882293
 20
-664.9118169159127
 30
0.0
 10
2703.036772153228
 20
-664.8988472583266
 30
0.0
 10
2702.961840426552
 20
-664.8936490563564
 30
0.0
  0
LINE
  5
1AC16
330
18
100
AcDbEntity
  8
01
100
AcDbLine
 10
2701.717091241265
 20
-664.8936490563564
 30
0.0
 11
2702.961840426552
 21
-664.8936490563564
 31
0.0
  0
SPLINE
  5
1AC17
330
18
100
AcDbEntity
  8
01
100
AcDbSpline
210
0.0
220
0.0
230
1.0
 70
     8
 71
     3
 72
    25
 73
    21
 74
     0
 42
0.0000000001
 43
0.0000000001
 40
0.0
 40
0.0
 40
0.0
 40
0.0
 40
0.1275162504934405
 40
0.2820472593569216
 40
0.282166234814581
 40
0.28226285145005
 40
0.2824422449791314
 40
0.2827844777606477
 40
0.2834654010868402
 40
0.2849038909289052
 40
0.2881823005716541
 40
0.2962995820095712
 40
0.3180103346272334
 40
0.3797758007695785
 40
0.5630581963624083
 40
0.6230334448296416
 40
0.6899303875311185
 40
0.763747743545052
 40
0.8444840918070824
 40
1.0
 40
1.0
 40
1.0
 40
1.0
 10
2681.783547738082
 20
-680.1294381992183
 30
0.0
 10
2681.676601850187
 20
-680.1341268302639
 30
0.0
 10
2681.44005321844
 20
-680.144497395046
 30
0.0
 10
2681.217237907852
 20
-680.1580345513474
 30
0.0
 10
2681.101374126832
 20
-680.1656644263679
 30
0.0
 10
2681.101078411618
 20
-680.165683932264
 30
0.0
 10
2681.100615595594
 20
-680.1657145039654
 30
0.0
 10
2681.099715536565
 20
-680.1657741078342
 30
0.0
 10
2681.097873765596
 20
-680.1658965424027
 30
0.0
 10
2681.093838200987
 20
-680.1661662889065
 30
0.0
 10
2681.084258833448
 20
-680.1668112221183
 30
0.0
 10
2681.059647244648
 20
-680.1684838977673
 30
0.0
 10
2680.992277927845
 20
-680.1731329573823
 30
0.0
 10
2680.802312227307
 20
-680.1867064674012
 30
0.0
 10
2680.607755119024
 20
-680.2023836115396
 30
0.0
 10
2680.44194535063
 20
-680.2181339803841
 30
0.0
 10
2680.345493221855
 20
-680.2281982128128
 30
0.0
 10
2680.253998074079
 20
-680.2392302574332
 30
0.0
 10
2680.146162540818
 20
-680.2544938911418
 30
0.0
 10
2680.104853022202
 20
-680.2663299452369
 30
0.0
 10
2680.077660531427
 20
-680.2741211711478
 30
0.0
  0
LINE
  5
1AC18
330
18
100
AcDbEntity
  8
1CENTER
100
AcDbLine
 10
2692.96545819107
 20
-688.988296738849
 30
0.0
 11
2692.96545819107
 21
-662.7990013738664
 31
0.0
  0
LINE
  5
1AC19
330
18
100
AcDbEntity
  8
01
100
AcDbLine
 10
2704.474613268026
 20
-665.3185662565842
 30
0.0
 11
2811.518116745029
 21
-671.4272657020182
 31
0.0
  0
LINE
  5
1AC1A
330
18
100
AcDbEntity
  8
01
100
AcDbLine
 10
2811.514758818278
 20
-680.3530881345804
 30
0.0
 11
2704.490940344104
 21
-686.4677635325003
 31
0.0
  0
LINE
  5
1AC1B
330
18
100
AcDbEntity
  8
01
100
AcDbLine
 10
2811.535656707764
 20
-674.253102553975
 30
0.0
 11
2682.142956036508
 21
-671.6667289214648
 31
0.0
  0
LINE
  5
1AC1C
330
18
100
AcDbEntity
  8
01
100
AcDbLine
 10
2682.142956036506
 20
-680.1205691912481
 30
0.0
 11
2811.535656707764
 21
-677.5250478095489
 31
0.0
  0
LINE
  5
1AC1D
330
18
100
AcDbEntity
  8
1CENTER
100
AcDbLine
 10
2676.881899766872
 20
-371.3949754037425
 30
0.0
 11
2685.01557212872
 21
-371.3949673704923
 31
0.0
  0
SPLINE
  5
1AC1E
330
18
100
AcDbEntity
  8
01
100
AcDbSpline
210
0.0
220
0.0
230
1.0
 70
     8
 71
     3
 72
    18
 73
    14
 74
     0
 42
0.0000000001
 43
0.0000000001
 40
0.0000649757542841
 40
0.0000649757542841
 40
0.0000649757542841
 40
0.0000649757542841
 40
0.0860520609830585
 40
0.2305629888503389
 40
0.3725690207133783
 40
0.5129959002680089
 40
0.6565061431096817
 40
0.7501835193149282
 40
0.8477363410374643
 40
0.8940869277261254
 40
0.9350128367551847
 40
0.9703342150502404
 40
1.0
 40
1.0
 40
1.0
 40
1.0
 10
2703.965544600421
 20
-353.8949352342742
 30
0.0
 10
2703.965539230697
 20
-354.5628412786131
 30
0.0
 10
2703.965524838272
 20
-356.3532383106243
 30
0.0
 10
2703.965511457503
 20
-359.2470718160347
 30
0.0
 10
2703.965609885013
 20
-362.5632585603788
 30
0.0
 10
2703.965322018065
 20
-365.8691631963637
 30
0.0
 10
2703.96529257549
 20
-368.8030197942188
 30
0.0
 10
2703.965582624919
 20
-371.4035545069031
 30
0.0
 10
2703.965527212117
 20
-373.2385320904344
 30
0.0
 10
2703.965485177617
 20
-374.675039814544
 30
0.0
 10
2703.965596453559
 20
-375.6265100115896
 30
0.0
 10
2703.965465742377
 20
-376.4151057172734
 30
0.0
 10
2703.965553699353
 20
-376.7445708606587
 30
0.0
 10
2703.965593850556
 20
-376.8949673636615
 30
0.0
  0
LINE
  5
1AC1F
330
18
100
AcDbEntity
  8
01
100
AcDbLine
 10
2811.465555211073
 20
-349.8949673708247
 30
0.0
 11
2707.965544599399
 21
-349.8949673928327
 31
0.0
  0
ARC
  5
1AC20
330
18
100
AcDbEntity
  8
01
100
AcDbCircle
 10
2811.465555211073
 20
-348.3949673708247
 30
0.0
 40
1.5
100
AcDbArc
 50
270.0000000128191
 51
0.0
  0
LINE
  5
1AC21
330
18
100
AcDbEntity
  8
01
100
AcDbLine
 10
2682.96555521107
 20
-377.0937994724644
 30
0.0
 11
2682.96555521107
 21
-376.8949673704896
 31
0.0
  0
LINE
  5
1AC22
330
18
100
AcDbEntity
  8
01
100
AcDbLine
 10
2702.96555521107
 20
-376.8949673704896
 30
0.0
 11
2702.96555521107
 21
-377.0937994724644
 31
0.0
  0
LINE
  5
1AC23
330
18
100
AcDbEntity
  8
01
100
AcDbLine
 10
2685.015589788173
 20
-377.3949673704896
 30
0.0
 11
2685.015589788173
 21
-377.0937994724644
 31
0.0
  0
LINE
  5
1AC24
330
18
100
AcDbEntity
  8
01
100
AcDbLine
 10
2700.915589788175
 20
-377.0937994724644
 30
0.0
 11
2700.915589788175
 21
-377.3949673704896
 31
0.0
  0
SPLINE
  5
1AC25
330
18
100
AcDbEntity
  8
01
100
AcDbSpline
210
0.0
220
0.0
230
1.0
 70
     8
 71
     3
 72
    15
 73
    11
 74
     0
 42
0.0000000001
 43
0.0000000001
 40
0.0
 40
0.0
 40
0.0
 40
0.0
 40
0.0621384659276811
 40
0.1194624660158409
 40
0.2375262378245288
 40
0.485056379678497
 40
0.6028685908047778
 40
0.741824810946498
 40
0.8709376368659568
 40
1.0
 40
1.0
 40
1.0
 40
1.0
 10
2702.490000726985
 20
-347.6293681501014
 30
0.0
 10
2702.527554574214
 20
-347.6150574928791
 30
0.0
 10
2702.599752610188
 20
-347.5875449629738
 30
0.0
 10
2702.746198381722
 20
-347.5404835963985
 30
0.0
 10
2703.011592092183
 20
-347.4708654799446
 30
0.0
 10
2703.323357485125
 20
-347.4230959996183
 30
0.0
 10
2703.652349923518
 20
-347.3989898846461
 30
0.0
 10
2703.905689465885
 20
-347.3941400664179
 30
0.0
 10
2704.167270615458
 20
-347.4016166344758
 30
0.0
 10
2704.337211950567
 20
-347.4168821400248
 30
0.0
 10
2704.4221660098
 20
-347.4245134009055
 30
0.0
  0
SPLINE
  5
1AC26
330
18
100
AcDbEntity
  8
01
100
AcDbSpline
210
0.0
220
0.0
230
1.0
 70
     8
 71
     3
 72
    11
 73
     7
 74
     0
 42
0.0000000001
 43
0.0000000001
 40
0.0
 40
0.0
 40
0.0
 40
0.0
 40
0.246667354855828
 40
0.4951061132192802
 40
0.7459932421170662
 40
0.9999999999999999
 40
0.9999999999999999
 40
0.9999999999999999
 40
0.9999999999999999
 10
2702.158999274557
 20
-347.8070381808874
 30
0.0
 10
2702.1848575009
 20
-347.7894996218696
 30
0.0
 10
2702.236759650447
 20
-347.7542965533811
 30
0.0
 10
2702.318396798658
 20
-347.707813862652
 30
0.0
 10
2702.402753643294
 20
-347.6654448509565
 30
0.0
 10
2702.460798816276
 20
-347.6414431508064
 30
0.0
 10
2702.490000726985
 20
-347.6293681501014
 30
0.0
  0
SPLINE
  5
1AC27
330
18
100
AcDbEntity
  8
01
100
AcDbSpline
210
0.0
220
0.0
230
1.0
 70
     8
 71
     3
 72
    19
 73
    15
 74
     0
 42
0.0000000001
 43
0.0000000001
 40
0.0
 40
0.0
 40
0.0
 40
0.0
 40
0.0974617489138209
 40
0.1847107255476317
 40
0.261814459899569
 40
0.3288460592983783
 40
0.385864790067484
 40
0.4277977639963271
 40
0.5108213901195143
 40
0.5928931626424222
 40
0.6749542339723672
 40
0.7852446773393177
 40
0.8934743715277373
 40
1.0
 40
1.0
 40
1.0
 40
1.0
 10
2701.527375446304
 20
-349.6074494409003
 30
0.0
 10
2701.527847074706
 20
-349.54412639593
 30
0.0
 10
2701.528740910749
 20
-349.4241157690875
 30
0.0
 10
2701.539845393449
 20
-349.2542536418349
 30
0.0
 10
2701.557731662872
 20
-349.1045694763578
 30
0.0
 10
2701.579026642526
 20
-348.9752338728807
 30
0.0
 10
2701.600695950102
 20
-348.8692351711087
 30
0.0
 10
2701.629431755227
 20
-348.7540109107548
 30
0.0
 10
2701.668203532036
 20
-348.6244357796326
 30
0.0
 10
2701.724854555388
 20
-348.4730886093233
 30
0.0
 10
2701.799187752545
 20
-348.3096335382373
 30
0.0
 10
2701.895796124786
 20
-348.1380922086181
 30
0.0
 10
2702.017385085738
 20
-347.9628351827786
 30
0.0
 10
2702.112044917593
 20
-347.8586950671178
 30
0.0
 10
2702.158999274557
 20
-347.8070381808874
 30
0.0
  0
SPLINE
  5
1AC28
330
18
100
AcDbEntity
  8
01
100
AcDbSpline
210
0.0
220
0.0
230
1.0
 70
     8
 71
     3
 72
    11
 73
     7
 74
     0
 42
0.0000000001
 43
0.0000000001
 40
0.0
 40
0.0
 40
0.0
 40
0.0
 40
0.2788341038430541
 40
0.5384644005889189
 40
0.7788535199034351
 40
0.9999999999999999
 40
0.9999999999999999
 40
0.9999999999999999
 40
0.9999999999999999
 10
2701.581305389357
 20
-350.262399307081
 30
0.0
 10
2701.572637581469
 20
-350.2019171983628
 30
0.0
 10
2701.555898933241
 20
-350.0851184927241
 30
0.0
 10
2701.539810288029
 20
-349.9150951171117
 30
0.0
 10
2701.529845127682
 20
-349.7572300704968
 30
0.0
 10
2701.528175469272
 20
-349.6559690373805
 30
0.0
 10
2701.527375446304
 20
-349.6074494409003
 30
0.0
  0
SPLINE
  5
1AC29
330
18
100
AcDbEntity
  8
01
100
AcDbSpline
210
0.0
220
0.0
230
1.0
 70
     8
 71
     3
 72
     9
 73
     5
 74
     0
 42
0.0000000001
 43
0.0000000001
 40
0.0
 40
0.0
 40
0.0
 40
0.0
 40
0.477460274534142
 40
1.0
 40
1.0
 40
1.0
 40
1.0
 10
2702.107394412052
 20
-346.6888613294562
 30
0.0
 10
2698.897859013979
 20
-343.5084440322556
 30
0.0
 10
2692.175759670311
 20
-336.8473300782124
 30
0.0
 10
2685.45978103882
 20
-330.1822793040463
 30
0.0
 10
2681.950415408485
 20
-326.6995255022979
 30
0.0
  0
LINE
  5
1AC2A
330
18
100
AcDbEntity
  8
01
100
AcDbLine
 10
2703.965593850556
 20
-376.8949673704896
 30
0.0
 11
2695.465470412287
 21
-376.8949673704896
 31
0.0
  0
LINE
  5
1AC2B
330
18
100
AcDbEntity
  8
01
100
AcDbLine
 10
2690.465470412285
 20
-376.8949673704896
 30
0.0
 11
2681.96555521107
 21
-376.8949673704896
 31
0.0
  0
SPLINE
  5
1AC2C
330
18
100
AcDbEntity
  8
01
100
AcDbSpline
210
0.0
220
0.0
230
1.0
 70
     8
 71
     3
 72
    12
 73
     8
 74
     0
 42
0.0000000001
 43
0.0000000001
 40
0.0
 40
0.0
 40
0.0
 40
0.0
 40
0.157441155016458
 40
0.3235627903252723
 40
0.4984485582856485
 40
0.7268212218397349
 40
0.9831250544958003
 40
0.9831250544958003
 40
0.9831250544958003
 40
0.9831250544958003
 10
2703.96555521107
 20
-376.8949673704896
 30
0.0
 10
2703.846611307369
 20
-375.4967162542247
 30
0.0
 10
2703.602165556388
 20
-372.6231217820117
 30
0.0
 10
2703.218083766566
 20
-368.1970451563183
 30
0.0
 10
2702.771147780953
 20
-363.1418612436199
 30
0.0
 10
2702.241828023179
 20
-357.2870544779224
 30
0.0
 10
2701.837613526323
 20
-352.9860469531667
 30
0.0
 10
2701.581305389357
 20
-350.262399307081
 30
0.0
  0
LINE
  5
1AC2D
330
18
100
AcDbEntity
  8
01
100
AcDbLine
 10
2682.743746866639
 20
-375.478757295405
 30
0.0
 11
2700.344224899548
 21
-347.6885288223892
 31
0.0
  0
LINE
  5
1AC2E
330
18
100
AcDbEntity
  8
01
100
AcDbLine
 10
2681.915808602967
 20
-375.626428863913
 30
0.0
 11
2681.96555521107
 21
-376.8949673704896
 31
0.0
  0
LINE
  5
1AC2F
330
18
100
AcDbEntity
  8
01
100
AcDbLine
 10
2680.050976753167
 20
-328.0732166940023
 30
0.0
 11
2681.915808602967
 21
-375.626428863913
 31
0.0
  0
LINE
  5
1AC30
330
18
100
AcDbEntity
  8
01
100
AcDbLine
 10
2702.96555521107
 20
-377.0937994724644
 30
0.0
 11
2695.465470412287
 21
-377.0937994724644
 31
0.0
  0
LINE
  5
1AC31
330
18
100
AcDbEntity
  8
01
100
AcDbLine
 10
2690.465470412285
 20
-377.0937994724644
 30
0.0
 11
2682.96555521107
 21
-377.0937994724644
 31
0.0
  0
LINE
  5
1AC32
330
18
100
AcDbEntity
  8
01
100
AcDbLine
 10
2811.441712269666
 20
-349.8696801320165
 30
0.0
 11
2811.441712554622
 21
-349.8696804023501
 31
0.0
  0
ARC
  5
1AC33
330
18
100
AcDbEntity
  8
01
100
AcDbCircle
 10
2811.465555211059
 20
-333.3263019154555
 30
0.0
 40
1.5
100
AcDbArc
 50
0.0
 51
87.31622484081629
  0
LINE
  5
1AC34
330
18
100
AcDbEntity
  8
01
100
AcDbLine
 10
2812.965555211073
 20
-333.3263019154573
 30
0.0
 11
2812.965555211073
 21
-348.3949673708247
 31
0.0
  0
LINE
  5
1AC35
330
18
100
AcDbEntity
  8
01
100
AcDbLine
 10
2682.143087827229
 20
-325.997039211872
 30
0.0
 11
2811.535790590499
 21
-331.8279471539007
 31
0.0
  0
ARC
  5
1AC36
330
18
100
AcDbEntity
  8
01
100
AcDbCircle
 10
2682.04944065463
 20
-327.9948455606117
 30
0.0
 40
2.0
100
AcDbArc
 50
87.31622484060777
 51
182.2457425658935
  0
ARC
  5
1AC37
330
18
100
AcDbEntity
  8
01
100
AcDbCircle
 10
2707.965544600292
 20
-353.8949673928327
 30
0.0
 40
4.0
100
AcDbArc
 50
90.0000000128191
 51
179.9995393625938
  0
LINE
  5
1AC38
330
18
100
AcDbEntity
  8
01
100
AcDbLine
 10
2704.422168082147
 20
-347.4245150241085
 30
0.0
 11
2811.441711984647
 21
-349.8696798616219
 31
0.0
  0
LINE
  5
1AC3B
330
18
100
AcDbEntity
  8
01
100
AcDbLine
 10
2326.965690870563
 20
-649.3936490563595
 30
0.0
 11
2378.965690870559
 21
-649.3936490563595
 31
0.0
  0
LINE
  5
1AC3C
330
18
100
AcDbEntity
  8
01
100
AcDbLine
 10
2378.965690870559
 20
-702.3936490563595
 30
0.0
 11
2326.965690870563
 21
-702.3936490563595
 31
0.0
  0
LINE
  5
1AC3D
330
18
100
AcDbEntity
  8
01
100
AcDbLine
 10
2379.465690870559
 20
-649.8936490563595
 30
0.0
 11
2379.465690870559
 21
-701.8936490563595
 31
0.0
  0
ARC
  5
1AC3E
330
18
100
AcDbEntity
  8
01
100
AcDbCircle
 10
2378.965690870559
 20
-701.8936490563595
 30
0.0
 40
0.5
100
AcDbArc
 50
270.0
 51
0.0
  0
ARC
  5
1AC3F
330
18
100
AcDbEntity
  8
01
100
AcDbCircle
 10
2378.965690870559
 20
-649.8936490563595
 30
0.0
 40
0.5
100
AcDbArc
 50
0.0
 51
90.0
  0
LINE
  5
1AC40
330
18
100
AcDbEntity
  8
01
100
AcDbLine
 10
2326.465690870563
 20
-649.8936490563595
 30
0.0
 11
2326.465690870563
 21
-666.1740555024838
 31
0.0
  0
LINE
  5
1AC41
330
18
100
AcDbEntity
  8
01
100
AcDbLine
 10
2326.465690870563
 20
-685.6122127104499
 30
0.0
 11
2326.465690870563
 21
-701.8936490563595
 31
0.0
  0
ARC
  5
1AC42
330
18
100
AcDbEntity
  8
01
100
AcDbCircle
 10
2326.965690870563
 20
-701.8936490563595
 30
0.0
 40
0.5
100
AcDbArc
 50
180.0
 51
270.0
  0
ARC
  5
1AC43
330
18
100
AcDbEntity
  8
01
100
AcDbCircle
 10
2326.965690870563
 20
-649.8936490563595
 30
0.0
 40
0.5
100
AcDbArc
 50
90.0
 51
180.0
  0
LINE
  5
1AC44
330
18
100
AcDbEntity
  8
01
100
AcDbLine
 10
2443.065569060685
 20
-680.1254468557948
 30
0.0
 11
2443.065569060685
 21
-671.6644246689342
 31
0.0
  0
ARC
  5
1AC45
330
18
100
AcDbEntity
  8
01
100
AcDbCircle
 10
2444.065569060685
 20
-680.1254468557948
 30
0.0
 40
1.0
100
AcDbArc
 50
180.0
 51
254.1359982815117
  0
LINE
  5
1AC46
330
18
100
AcDbEntity
  8
01
100
AcDbLine
 10
2494.164522972537
 20
-685.8936490563577
 30
0.0
 11
2493.965690870563
 21
-685.8936490563577
 31
0.0
  0
LINE
  5
1AC47
330
18
100
AcDbEntity
  8
01
100
AcDbLine
 10
2493.965690870563
 20
-665.8936490563577
 30
0.0
 11
2494.164522972537
 21
-665.8936490563577
 31
0.0
  0
SPLINE
  5
1AC48
330
18
100
AcDbEntity
  8
01
100
AcDbSpline
210
0.0
220
0.0
230
1.0
 70
     8
 71
     3
 72
     9
 73
     5
 74
     0
 42
0.0000000001
 43
0.0000000001
 40
0.0
 40
0.0
 40
0.0
 40
0.0
 40
0.4105674575655068
 40
0.9999999999999999
 40
0.9999999999999999
 40
0.9999999999999999
 40
0.9999999999999999
 10
2443.887146961316
 20
-670.6685665711242
 30
0.0
 10
2443.899199006261
 20
-670.6640800378267
 30
0.0
 10
2443.928553609806
 20
-670.6531523980069
 30
0.0
 10
2443.995618349555
 20
-670.6416356398926
 30
0.0
 10
2444.035148489612
 20
-670.6348472878766
 30
0.0
  0
SPLINE
  5
1AC49
330
18
100
AcDbEntity
  8
01
100
AcDbSpline
210
0.0
220
0.0
230
1.0
 70
     8
 71
     3
 72
     8
 73
     4
 74
     0
 42
0.0000000001
 43
0.0000000001
 40
0.0
 40
0.0
 40
0.0
 40
0.0
 40
1.0
 40
1.0
 40
1.0
 40
1.0
 10
2444.985386192823
 20
-681.2783461608418
 30
0.0
 10
2445.026793072774
 20
-681.2830365532749
 30
0.0
 10
2445.068225885424
 20
-681.2874960535922
 30
0.0
 10
2445.109680745786
 20
-681.2917250399827
 30
0.0
  0
LINE
  5
1AC4A
330
18
100
AcDbEntity
  8
01
100
AcDbLine
 10
2443.071800731776
 20
-680.1228734437813
 30
0.0
 11
2443.067762711945
 21
-680.1205691912495
 31
0.0
  0
SPLINE
  5
1AC4B
330
18
100
AcDbEntity
  8
01
100
AcDbSpline
210
0.0
220
0.0
230
1.0
 70
     8
 71
     3
 72
     8
 73
     4
 74
     0
 42
0.0000000001
 43
0.0000000001
 40
0.0
 40
0.0
 40
0.0
 40
0.0
 40
1.0
 40
1.0
 40
1.0
 40
1.0
 10
2445.109680745973
 20
-670.4955730727437
 30
0.0
 10
2445.068225885537
 20
-670.4998020591341
 30
0.0
 10
2445.026793072823
 20
-670.5042615594488
 30
0.0
 10
2444.985386192823
 20
-670.5089519518791
 30
0.0
  0
LINE
  5
1AC4C
330
18
100
AcDbEntity
  8
01
100
AcDbLine
 10
2493.965690870563
 20
-686.8936490563577
 30
0.0
 11
2493.965690870563
 21
-664.8936490563577
 31
0.0
  0
LINE
  5
1AC4D
330
18
100
AcDbEntity
  8
01
100
AcDbLine
 10
2445.109680827493
 20
-681.2917250348768
 30
0.0
 11
2492.54948079549
 21
-686.8728779673705
 31
0.0
  0
LINE
  5
1AC4E
330
18
100
AcDbEntity
  8
01
100
AcDbLine
 10
2445.109680854722
 20
-670.4955730795403
 30
0.0
 11
2492.549480795477
 21
-664.9144201453349
 31
0.0
  0
ARC
  5
1AC4F
330
18
100
AcDbEntity
  8
01
100
AcDbCircle
 10
2492.659082522651
 20
-686.5941286051369
 30
0.0
 40
0.2995225292744162
100
AcDbArc
 50
248.5356968489752
 51
269.7865719740881
  0
LINE
  5
1AC50
330
18
100
AcDbEntity
  8
01
100
AcDbLine
 10
2492.65796679729
 20
-686.8936490563577
 30
0.0
 11
2493.965690870563
 21
-686.8936490563577
 31
0.0
  0
LINE
  5
1AC51
330
18
100
AcDbEntity
  8
01
100
AcDbLine
 10
2493.965690870563
 20
-664.8936490563577
 30
0.0
 11
2492.65796679729
 21
-664.8936490563577
 31
0.0
  0
ARC
  5
1AC52
330
18
100
AcDbEntity
  8
01
100
AcDbCircle
 10
2492.659082522597
 20
-665.1931695074858
 30
0.0
 40
0.2995225291803009
100
AcDbArc
 50
90.21342801528131
 51
111.4643031490095
  0
LINE
  5
1AC53
330
18
100
AcDbEntity
  8
01
100
AcDbLine
 10
2492.65796679729
 20
-686.8936490563577
 30
0.0
 11
2464.363393629915
 21
-686.8936490563577
 31
0.0
  0
LINE
  5
1AC54
330
18
100
AcDbEntity
  8
01
100
AcDbLine
 10
2494.164522972537
 20
-665.8936490563577
 30
0.0
 11
2494.164522972537
 21
-685.8936490563577
 31
0.0
  0
SPLINE
  5
1AC55
330
18
100
AcDbEntity
  8
01
100
AcDbSpline
210
0.0
220
0.0
230
1.0
 70
     8
 71
     3
 72
    10
 73
     6
 74
     0
 42
0.0000000001
 43
0.0000000001
 40
0.0
 40
0.0
 40
0.0
 40
0.0
 40
0.2453247720985068
 40
0.6314965854619112
 40
1.0
 40
1.0
 40
1.0
 40
1.0
 10
2444.035129345505
 20
-681.152452651137
 30
0.0
 10
2444.090951138735
 20
-681.1639948893938
 30
0.0
 10
2444.234643402334
 20
-681.1937060513995
 30
0.0
 10
2444.567470516889
 20
-681.2332625718612
 30
0.0
 10
2444.84827233793
 20
-681.2635546955611
 30
0.0
 10
2444.985386193052
 20
-681.2783461589664
 30
0.0
  0
SPLINE
  5
1AC56
330
18
100
AcDbEntity
  8
01
100
AcDbSpline
210
0.0
220
0.0
230
1.0
 70
     8
 71
     3
 72
    10
 73
     6
 74
     0
 42
0.0000000001
 43
0.0000000001
 40
0.0
 40
0.0
 40
0.0
 40
0.0
 40
0.2451891194566391
 40
0.6313454626814465
 40
1.0
 40
1.0
 40
1.0
 40
1.0
 10
2444.035148489612
 20
-670.6348472878766
 30
0.0
 10
2444.090924681729
 20
-670.6233108755554
 30
0.0
 10
2444.234544618442
 20
-670.5936053911086
 30
0.0
 10
2444.567365041737
 20
-670.554046771052
 30
0.0
 10
2444.848216511028
 20
-670.5237493909866
 30
0.0
 10
2444.985386193045
 20
-670.5089519537509
 30
0.0
  0
LINE
  5
1AC57
330
18
100
AcDbEntity
  8
01
100
AcDbLine
 10
2443.083304945084
 20
-680.1294381992196
 30
0.0
 11
2443.071800731776
 21
-680.1228734437813
 31
0.0
  0
LINE
  5
1AC58
330
18
100
AcDbEntity
  8
01
100
AcDbLine
 10
2494.465690870563
 20
-683.8436492499735
 30
0.0
 11
2494.164522972537
 21
-683.8436492499735
 31
0.0
  0
LINE
  5
1AC59
330
18
100
AcDbEntity
  8
01
100
AcDbLine
 10
2494.164522972537
 20
-667.9436492499739
 30
0.0
 11
2494.465690870563
 21
-667.9436492499736
 31
0.0
  0
ARC
  5
1AC5A
330
18
100
AcDbEntity
  8
01
100
AcDbCircle
 10
2464.363393630035
 20
-685.8936490563777
 30
0.0
 40
1.0
100
AcDbArc
 50
254.1461366957028
 51
269.9999999931214
  0
LINE
  5
1AC5B
330
18
100
AcDbEntity
  8
01
100
AcDbLine
 10
2464.090208930001
 20
-686.8556106562704
 30
0.0
 11
2443.792214147065
 21
-681.0873601009474
 31
0.0
  0
ARC
  5
1AC5C
330
18
100
AcDbEntity
  8
01
100
AcDbCircle
 10
2444.065569060685
 20
-671.6615520784884
 30
0.0
 40
1.0
100
AcDbArc
 50
105.8640017184883
 51
180.0
  0
LINE
  5
1AC5D
330
18
100
AcDbEntity
  8
01
100
AcDbLine
 10
2492.65796679729
 20
-664.8933498779255
 30
0.0
 11
2464.363393629915
 21
-664.8933498779255
 31
0.0
  0
ARC
  5
1AC5E
330
18
100
AcDbEntity
  8
01
100
AcDbCircle
 10
2464.363393630035
 20
-665.8933498779055
 30
0.0
 40
1.0
100
AcDbArc
 50
90.00000000698277
 51
105.8538633042972
  0
LINE
  5
1AC5F
330
18
100
AcDbEntity
  8
01
100
AcDbLine
 10
2464.090208930001
 20
-664.9313882780128
 30
0.0
 11
2443.792214147065
 21
-670.6996388333358
 31
0.0
  0
LINE
  5
1AC60
330
18
100
AcDbEntity
  8
01
100
AcDbLine
 10
2365.881840197721
 20
-671.490448753566
 30
0.0
 11
2365.881840197721
 21
-680.2968493591494
 31
0.0
  0
ARC
  5
1AC61
330
18
100
AcDbEntity
  8
01
100
AcDbCircle
 10
2364.881840197721
 20
-671.490448753566
 30
0.0
 40
1.0
100
AcDbArc
 50
0.0
 51
18.43494882290759
  0
LINE
  5
1AC62
330
18
100
AcDbEntity
  8
01
100
AcDbLine
 10
2365.830523495772
 20
-680.6130771251661
 30
0.0
 11
2363.964923596704
 21
-686.2098768223733
 31
0.0
  0
ARC
  5
1AC63
330
18
100
AcDbEntity
  8
01
100
AcDbCircle
 10
2364.881840197721
 20
-680.2968493591494
 30
0.0
 40
1.0
100
AcDbArc
 50
341.5650511770862
 51
0.0
  0
LINE
  5
1AC64
330
18
100
AcDbEntity
  8
01
100
AcDbLine
 10
2363.964923596704
 20
-665.5774212903397
 30
0.0
 11
2365.830523495772
 21
-671.1742209875493
 31
0.0
  0
SPLINE
  5
1AC65
330
18
100
AcDbEntity
  8
01
100
AcDbSpline
210
0.0
220
0.0
230
1.0
 70
     8
 71
     3
 72
     9
 73
     5
 74
     0
 42
0.0000000001
 43
0.0000000001
 40
0.0
 40
0.0
 40
0.0
 40
0.0
 40
0.4971336847320229
 40
0.9999999999999999
 40
0.9999999999999999
 40
0.9999999999999999
 40
0.9999999999999999
 10
2343.662748236663
 20
-686.7730023390799
 30
0.0
 10
2343.310353821492
 20
-686.7006550344009
 30
0.0
 10
2342.601501402124
 20
-686.555126161784
 30
0.0
 10
2341.828782849051
 20
-686.496995489484
 30
0.0
 10
2341.440208717529
 20
-686.4677635325003
 30
0.0
  0
SPLINE
  5
1AC66
330
18
100
AcDbEntity
  8
01
100
AcDbSpline
210
0.0
220
0.0
230
1.0
 70
     8
 71
     3
 72
     9
 73
     5
 74
     0
 42
0.0000000001
 43
0.0000000001
 40
0.0
 40
0.0
 40
0.0
 40
0.0
 40
0.5060576294160237
 40
0.9999999999999999
 40
0.9999999999999999
 40
0.9999999999999999
 40
0.9999999999999999
 10
2341.456535793607
 20
-665.3185662565842
 30
0.0
 10
2341.844828626893
 20
-665.2889780255638
 30
0.0
 10
2342.612118379516
 20
-665.230509919758
 30
0.0
 10
2343.315749458269
 20
-665.0857224494047
 30
0.0
 10
2343.663302661326
 20
-665.0142057830675
 30
0.0
  0
LINE
  5
1AC67
330
18
100
AcDbEntity
  8
01
100
AcDbLine
 10
2343.663150667929
 20
-665.0142364451839
 30
0.0
 11
2344.118062769044
 21
-664.9125702642997
 31
0.0
  0
LINE
  5
1AC68
330
18
100
AcDbEntity
  8
01
100
AcDbLine
 10
2344.117985386517
 20
-686.874728482734
 30
0.0
 11
2343.663114005986
 21
-686.7730766895053
 31
0.0
  0
ARC
  5
1AC69
330
18
100
AcDbEntity
  8
01
100
AcDbCircle
 10
2344.311276013784
 20
-665.8936490563566
 30
0.0
 40
1.000000000000058
100
AcDbArc
 50
89.99999999989578
 51
101.5694500429976
  0
ARC
  5
1AC6A
330
18
100
AcDbEntity
  8
01
100
AcDbCircle
 10
2344.311195497622
 20
-685.8936490563564
 30
0.0
 40
1.0
100
AcDbArc
 50
258.1371694758038
 51
270.0
  0
ARC
  5
1AC6B
330
18
100
AcDbEntity
  8
01
100
AcDbCircle
 10
2363.016240298653
 20
-665.8936490563564
 30
0.0
 40
1.0
100
AcDbArc
 50
18.43494882291377
 51
90.0
  0
ARC
  5
1AC6C
330
18
100
AcDbEntity
  8
01
100
AcDbCircle
 10
2363.016240298653
 20
-685.8936490563564
 30
0.0
 40
1.0
100
AcDbArc
 50
270.0
 51
341.5650511770862
  0
SPLINE
  5
1AC6D
330
18
100
AcDbEntity
  8
01
100
AcDbSpline
210
0.0
220
0.0
230
1.0
 70
     8
 71
     3
 72
    10
 73
     6
 74
     0
 42
0.0000000001
 43
0.0000000001
 40
0.0
 40
0.0
 40
0.0
 40
0.0
 40
0.3343415713576167
 40
0.6676648310217684
 40
0.9999999999999999
 40
0.9999999999999999
 40
0.9999999999999999
 40
0.9999999999999999
 10
2364.147601323551
 20
-680.1294381992183
 30
0.0
 10
2364.107731439509
 20
-680.1279925841003
 30
0.0
 10
2364.028113104031
 20
-680.1251057568071
 30
0.0
 10
2363.90801416436
 20
-680.1221460309515
 30
0.0
 10
2363.82809386081
 20
-680.121094284085
 30
0.0
 10
2363.788193025125
 20
-680.1205691912481
 30
0.0
  0
SPLINE
  5
1AC6E
330
18
100
AcDbEntity
  8
01
100
AcDbSpline
210
0.0
220
0.0
230
1.0
 70
     8
 71
     3
 72
    10
 73
     6
 74
     0
 42
0.0000000001
 43
0.0000000001
 40
0.0
 40
0.0
 40
0.0
 40
0.0
 40
0.3323351691751165
 40
0.6656584288392461
 40
1.0
 40
1.0
 40
1.0
 40
1.0
 10
2363.788193025125
 20
-671.6667289214648
 30
0.0
 10
2363.828093860832
 20
-671.6662038286278
 30
0.0
 10
2363.908014164404
 20
-671.6651520817612
 30
0.0
 10
2364.028113104069
 20
-671.6621923559065
 30
0.0
 10
2364.107731439518
 20
-671.6593055286131
 30
0.0
 10
2364.147601323536
 20
-671.6578599134954
 30
0.0
  0
SPLINE
  5
1AC6F
330
18
100
AcDbEntity
  8
01
100
AcDbSpline
210
0.0
220
0.0
230
1.0
 70
     8
 71
     3
 72
    19
 73
    15
 74
     0
 42
0.0000000001
 43
0.0000000001
 40
0.0
 40
0.0
 40
0.0
 40
0.0
 40
0.0424084333662313
 40
0.0886689639415328
 40
0.1387821038209021
 40
0.1927481509182004
 40
0.2505672382792412
 40
0.3218805652856683
 40
0.5002505393646266
 40
0.6128084937673238
 40
0.7500691770242507
 40
0.8537312650327051
 40
0.9370474150957282
 40
1.0
 40
1.0
 40
1.0
 40
1.0
 10
2364.147601230866
 20
-671.6578587102464
 30
0.0
 10
2364.18778235216
 20
-671.6562108352138
 30
0.0
 10
2364.271794377887
 20
-671.6527654032501
 30
0.0
 10
2364.401332607979
 20
-671.6465468666889
 30
0.0
 10
2364.539155501539
 20
-671.6393087329003
 30
0.0
 10
2364.683734741836
 20
-671.630960420429
 30
0.0
 10
2364.841633036932
 20
-671.6210568573648
 30
0.0
 10
2365.093723669367
 20
-671.6032791989152
 30
0.0
 10
2365.356876345536
 20
-671.5823829495911
 30
0.0
 10
2365.601512434033
 20
-671.5579960631461
 30
0.0
 10
2365.752358239401
 20
-671.5383264792337
 30
0.0
 10
2365.839239919626
 20
-671.5202490425662
 30
0.0
 10
2365.876500621011
 20
-671.5060929404555
 30
0.0
 10
2365.880233572946
 20
-671.4974433920398
 30
0.0
 10
2365.881840197721
 20
-671.4937207138397
 30
0.0
  0
SPLINE
  5
1AC70
330
18
100
AcDbEntity
  8
01
100
AcDbSpline
210
0.0
220
0.0
230
1.0
 70
     8
 71
     3
 72
     8
 73
     4
 74
     0
 42
0.0000000001
 43
0.0000000001
 40
0.0
 40
0.0
 40
0.0
 40
0.0
 40
1.0
 40
1.0
 40
1.0
 40
1.0
 10
2365.047918189205
 20
-681.2917250399811
 30
0.0
 10
2358.556866747635
 20
-683.1523681428345
 30
0.0
 10
2352.069309464076
 20
-685.0127910462335
 30
0.0
 10
2345.587055802166
 20
-686.8728779769257
 30
0.0
  0
SPLINE
  5
1AC71
330
18
100
AcDbEntity
  8
01
100
AcDbSpline
210
0.0
220
0.0
230
1.0
 70
     8
 71
     3
 72
     8
 73
     4
 74
     0
 42
0.0000000001
 43
0.0000000001
 40
0.0
 40
0.0
 40
0.0
 40
0.0
 40
1.0
 40
1.0
 40
1.0
 40
1.0
 10
2365.041553861319
 20
-681.27834616084
 30
0.0
 10
2365.043716440115
 20
-681.2830365532737
 30
0.0
 10
2365.045839149839
 20
-681.2874960535909
 30
0.0
 10
2365.047918189205
 20
-681.2917250399811
 30
0.0
  0
SPLINE
  5
1AC72
330
18
100
AcDbEntity
  8
01
100
AcDbSpline
210
0.0
220
0.0
230
1.0
 70
     8
 71
     3
 72
     8
 73
     4
 74
     0
 42
0.0000000001
 43
0.0000000001
 40
0.0
 40
0.0
 40
0.0
 40
0.0
 40
1.0
 40
1.0
 40
1.0
 40
1.0
 10
2365.047918189385
 20
-670.4955730727426
 30
0.0
 10
2365.045839149971
 20
-670.4998020591328
 30
0.0
 10
2365.043716440184
 20
-670.5042615594476
 30
0.0
 10
2365.041553861321
 20
-670.5089519518773
 30
0.0
  0
SPLINE
  5
1AC73
330
18
100
AcDbEntity
  8
01
100
AcDbSpline
210
0.0
220
0.0
230
1.0
 70
     8
 71
     3
 72
     8
 73
     4
 74
     0
 42
0.0000000001
 43
0.0000000001
 40
0.0
 40
0.0
 40
0.0
 40
0.0
 40
1.0
 40
1.0
 40
1.0
 40
1.0
 10
2345.587055802213
 20
-664.9144201357902
 30
0.0
 10
2352.069309464797
 20
-666.7745070665254
 30
0.0
 10
2358.556866750586
 20
-668.634929970069
 30
0.0
 10
2365.047918189385
 20
-670.4955730727426
 30
0.0
  0
SPLINE
  5
1AC74
330
18
100
AcDbEntity
  8
01
100
AcDbSpline
210
0.0
220
0.0
230
1.0
 70
     8
 71
     3
 72
    10
 73
     6
 74
     0
 42
0.0000000001
 43
0.0000000001
 40
0.0
 40
0.0
 40
0.0
 40
0.0
 40
0.5
 40
0.5
 40
1.0
 40
1.0
 40
1.0
 40
1.0
 10
2233.906389469184
 20
-680.2634628325567
 30
0.0
 10
2233.906061177549
 20
-680.2784833741476
 30
0.0
 10
2233.961138901187
 20
-680.2966326397417
 30
0.0
 10
2234.148049723723
 20
-680.3289028083553
 30
0.0
 10
2234.280516838274
 20
-680.3430729901128
 30
0.0
 10
2234.413032125231
 20
-680.3508847122295
 30
0.0
  0
SPLINE
  5
1AC75
330
18
100
AcDbEntity
  8
01
100
AcDbSpline
210
0.0
220
0.0
230
1.0
 70
     8
 71
     3
 72
    16
 73
    12
 74
     0
 42
0.0000000001
 43
0.0000000001
 40
0.0
 40
0.0
 40
0.0
 40
0.0
 40
0.0786888963696355
 40
0.1564566302556064
 40
0.2345339740335824
 40
0.3141309596038094
 40
0.4548534519938955
 40
0.5585179707417066
 40
0.6632215900757792
 40
0.8323892133719423
 40
1.0
 40
1.0
 40
1.0
 40
1.0
 10
2233.906389470657
 20
-671.5146875983418
 30
0.0
 10
2233.907061922334
 20
-671.5122958746348
 30
0.0
 10
2233.908398953708
 20
-671.5075404256585
 30
0.0
 10
2233.920160691666
 20
-671.4999360905923
 30
0.0
 10
2233.939132973605
 20
-671.4920915030494
 30
0.0
 10
2233.972309324902
 20
-671.4819984992679
 30
0.0
 10
2234.02104976636
 20
-671.4710082248977
 30
0.0
 10
2234.087446908677
 20
-671.4596768992009
 30
0.0
 10
2234.17006252679
 20
-671.4483092030704
 30
0.0
 10
2234.279074748864
 20
-671.4363133388891
 30
0.0
 10
2234.368517617523
 20
-671.4302722722292
 30
0.0
 10
2234.413032316604
 20
-671.4272657020182
 30
0.0
  0
SPLINE
  5
1AC76
330
18
100
AcDbEntity
  8
01
100
AcDbSpline
210
0.0
220
0.0
230
1.0
 70
     8
 71
     3
 72
    21
 73
    17
 74
     0
 42
0.0000000001
 43
0.0000000001
 40
0.0
 40
0.0
 40
0.0
 40
0.0
 40
0.0543026746903798
 40
0.1089515020728126
 40
0.1639470580616293
 40
0.2192899076506203
 40
0.2749806051673976
 40
0.3310196945209795
 40
0.3874077094427233
 40
0.4441451737208603
 40
0.501232601428756
 40
0.5866890531856455
 40
0.6792957212739271
 40
0.7790511301746228
 40
0.8859533378763902
 40
0.9999999999999999
 40
0.9999999999999999
 40
0.9999999999999999
 40
0.9999999999999999
 10
2234.395492353869
 20
-677.5250478095489
 30
0.0
 10
2234.354210973436
 20
-677.5247962657171
 30
0.0
 10
2234.271385064186
 20
-677.5242915745858
 30
0.0
 10
2234.14821863282
 20
-677.5240528520764
 30
0.0
 10
2234.026455100658
 20
-677.5241891740358
 30
0.0
 10
2233.907043415856
 20
-677.5247386572333
 30
0.0
 10
2233.790887191378
 20
-677.5256909508774
 30
0.0
 10
2233.678908546909
 20
-677.5270490069257
 30
0.0
 10
2233.572021967621
 20
-677.5288114540061
 30
0.0
 10
2233.471129296236
 20
-677.5309808217029
 30
0.0
 10
2233.361738837005
 20
-677.5339683333983
 30
0.0
 10
2233.246745176885
 20
-677.538199062651
 30
0.0
 10
2233.133985932644
 20
-677.5440439679015
 30
0.0
 10
2233.042793893382
 20
-677.5511219067224
 30
0.0
 10
2232.978509984744
 20
-677.5593911551942
 30
0.0
 10
2232.970079352878
 20
-677.5656228683116
 30
0.0
 10
2232.965727733316
 20
-677.5688394771176
 30
0.0
  0
SPLINE
  5
1AC77
330
18
100
AcDbEntity
  8
01
100
AcDbSpline
210
0.0
220
0.0
230
1.0
 70
     8
 71
     3
 72
    23
 73
    19
 74
     0
 42
0.0000000001
 43
0.0000000001
 40
0.0
 40
0.0
 40
0.0
 40
0.0
 40
0.0528182523272466
 40
0.1041556312968589
 40
0.154012137786094
 40
0.2023877805948915
 40
0.2492825772105166
 40
0.2946965546967934
 40
0.3386297507331105
 40
0.3810822148345328
 40
0.4220540097921852
 40
0.4615452133835036
 40
0.4995559204152067
 40
0.6018854951636194
 40
0.7030916251542205
 40
0.8031773224853901
 40
0.9021457048440085
 40
0.9999999999999999
 40
0.9999999999999999
 40
0.9999999999999999
 40
0.9999999999999999
 10
2232.965727733316
 20
-674.2093108864063
 30
0.0
 10
2232.966659962341
 20
-674.2108127638816
 30
0.0
 10
2232.968498283338
 20
-674.2137744104654
 30
0.0
 10
2232.983020590417
 20
-674.217992554827
 30
0.0
 10
2233.005145526017
 20
-674.2219646320408
 30
0.0
 10
2233.034823837678
 20
-674.2256800262038
 30
0.0
 10
2233.070961112927
 20
-674.2291414706468
 30
0.0
 10
2233.112745929527
 20
-674.2323482910546
 30
0.0
 10
2233.159322213024
 20
-674.2353006486413
 30
0.0
 10
2233.209884296563
 20
-674.2379986311017
 30
0.0
 10
2233.263658525148
 20
-674.2404418616544
 30
0.0
 10
2233.319923401469
 20
-674.2426318054321
 30
0.0
 10
2233.41147598017
 20
-674.2456779660857
 30
0.0
 10
2233.548936974795
 20
-674.2490841597838
 30
0.0
 10
2233.743533168657
 20
-674.2521174344153
 30
0.0
 10
2233.952902361579
 20
-674.2538118933932
 30
0.0
 10
2234.171522147207
 20
-674.2542950020292
 30
0.0
 10
2234.321117873536
 20
-674.2534985338945
 30
0.0
 10
2234.395492353869
 20
-674.253102553975
 30
0.0
  0
LINE
  5
1AC78
330
18
100
AcDbEntity
  8
01
100
AcDbLine
 10
2232.965727733316
 20
-672.5095051451821
 30
0.0
 11
2232.965727733316
 21
-679.271589952897
 31
0.0
  0
ARC
  5
1AC79
330
18
100
AcDbEntity
  8
01
100
AcDbCircle
 10
2233.962099601174
 20
-679.2686452858112
 30
0.0
 40
0.9963762191656275
100
AcDbArc
 50
180.1693308596015
 51
266.7947640101249
  0
ARC
  5
1AC7A
330
18
100
AcDbEntity
  8
01
100
AcDbCircle
 10
2233.962099601186
 20
-672.5095051451821
 30
0.0
 40
0.9963762191788412
100
AcDbArc
 50
93.20523590574192
 51
179.830669140112
  0
SPLINE
  5
1AC7C
330
18
100
AcDbEntity
  8
01
100
AcDbSpline
210
0.0
220
0.0
230
1.0
 70
    24
 71
     3
 72
    18
 73
    14
 74
     0
 42
0.0000000001
 43
0.0000000001
 40
0.0
 40
0.0
 40
0.0
 40
0.0
 40
0.0839597436665112
 40
0.1667230443678697
 40
0.2492037561948338
 40
0.3323250542961265
 40
0.4169891616065288
 40
0.5040503494536523
 40
0.5942948411753061
 40
0.6884291316167205
 40
0.7870761765890856
 40
0.8907776366593899
 40
0.9999999999999999
 40
0.9999999999999999
 40
0.9999999999999999
 40
0.9999999999999999
 10
2345.415762265741
 20
-664.8936490563564
 30
0.0
 10
2345.395780544174
 20
-664.8936490563564
 30
0.0
 10
2345.356101844532
 20
-664.8936490563564
 30
0.0
 10
2345.285713165823
 20
-664.8936490563564
 30
0.0
 10
2345.208144812567
 20
-664.8936490563564
 30
0.0
 10
2345.122626396826
 20
-664.8936490563564
 30
0.0
 10
2345.029409662026
 20
-664.8936490563564
 30
0.0
 10
2344.928471460352
 20
-664.8936490563564
 30
0.0
 10
2344.819855237932
 20
-664.8936490563564
 30
0.0
 10
2344.703574294722
 20
-664.8936490563564
 30
0.0
 10
2344.579634546905
 20
-664.8936490563564
 30
0.0
 10
2344.44804753295
 20
-664.8936490563564
 30
0.0
 10
2344.357647844884
 20
-664.8936490563564
 30
0.0
 10
2344.311276013786
 20
-664.8936490563564
 30
0.0
  0
SPLINE
  5
1AC7D
330
18
100
AcDbEntity
  8
01
100
AcDbSpline
210
0.0
220
0.0
230
1.0
 70
    24
 71
     3
 72
    17
 73
    13
 74
     0
 42
0.0000000001
 43
0.0000000001
 40
0.0
 40
0.0
 40
0.0
 40
0.0
 40
0.119840269243393
 40
0.2330526218349997
 40
0.3402725498500652
 40
0.4422476384012315
 40
0.5398460704773309
 40
0.6340571034811102
 40
0.7259794243438825
 40
0.8167948247074236
 40
0.9077282638308446
 40
1.0
 40
1.0
 40
1.0
 40
1.0
 10
2344.311195497622
 20
-686.8936490563564
 30
0.0
 10
2344.362075603579
 20
-686.8936490563564
 30
0.0
 10
2344.461021827311
 20
-686.8936490563564
 30
0.0
 10
2344.604590855931
 20
-686.8936490563564
 30
0.0
 10
2344.738921551266
 20
-686.8936490563564
 30
0.0
 10
2344.863995926872
 20
-686.8936490563564
 30
0.0
 10
2344.979805783872
 20
-686.8936490563564
 30
0.0
 10
2345.086295102889
 20
-686.8936490563564
 30
0.0
 10
2345.183483715965
 20
-686.8936490563564
 30
0.0
 10
2345.271050433013
 20
-686.8936490563564
 30
0.0
 10
2345.349912018127
 20
-686.8936490563564
 30
0.0
 10
2345.393705547295
 20
-686.8936490563564
 30
0.0
 10
2345.415762265743
 20
-686.8936490563564
 30
0.0
  0
LINE
  5
1AC7E
330
18
100
AcDbEntity
  8
01
100
AcDbLine
 10
2363.016240298653
 20
-686.8936490563564
 30
0.0
 11
2345.415762265743
 21
-686.8936490563564
 31
0.0
  0
ARC
  5
1AC7F
330
18
100
AcDbEntity
  8
01
100
AcDbCircle
 10
2363.015956863098
 20
-665.6126789262004
 30
0.0
 40
0.7190299257078011
100
AcDbArc
 50
76.19471337848836
 51
89.97741448450789
  0
LINE
  5
1AC80
330
18
100
AcDbEntity
  8
01
100
AcDbLine
 10
2363.016240298653
 20
-664.8936490563564
 30
0.0
 11
2345.415762265741
 21
-664.8936490563564
 31
0.0
  0
SPLINE
  5
1AC81
330
18
100
AcDbEntity
  8
01
100
AcDbSpline
210
0.0
220
0.0
230
1.0
 70
     8
 71
     3
 72
    10
 73
     6
 74
     0
 42
0.0000000001
 43
0.0000000001
 40
0.0
 40
0.0
 40
0.0
 40
0.0
 40
0.3467292126223085
 40
0.7381714902233174
 40
1.0
 40
1.0
 40
1.0
 40
1.0
 10
2342.212135553632
 20
-686.5414909373102
 30
0.0
 10
2342.282316198979
 20
-686.6127597007011
 30
0.0
 10
2342.431727756105
 20
-686.7644878140624
 30
0.0
 10
2342.707418846528
 20
-686.875482865276
 30
0.0
 10
2342.894376076717
 20
-686.8884513398315
 30
0.0
 10
2342.969307841488
 20
-686.8936490563564
 30
0.0
  0
LINE
  5
1AC82
330
18
100
AcDbEntity
  8
01
100
AcDbLine
 10
2344.213977304204
 20
-686.8936490563564
 30
0.0
 11
2342.969307841488
 21
-686.8936490563564
 31
0.0
  0
SPLINE
  5
1AC83
330
18
100
AcDbEntity
  8
01
100
AcDbSpline
210
0.0
220
0.0
230
1.0
 70
     8
 71
     3
 72
    10
 73
     6
 74
     0
 42
0.0000000001
 43
0.0000000001
 40
0.0
 40
0.0
 40
0.0
 40
0.0
 40
0.3465002606936584
 40
0.7380791582456137
 40
1.0
 40
1.0
 40
1.0
 40
1.0
 10
2342.212359719818
 20
-665.2456075184747
 30
0.0
 10
2342.282471544403
 20
-665.1744131522397
 30
0.0
 10
2342.431816530086
 20
-665.0227622478586
 30
0.0
 10
2342.707420179339
 20
-664.9118169159127
 30
0.0
 10
2342.894376908404
 20
-664.8988472583266
 30
0.0
 10
2342.969308635081
 20
-664.8936490563564
 30
0.0
  0
LINE
  5
1AC84
330
18
100
AcDbEntity
  8
01
100
AcDbLine
 10
2344.214057820368
 20
-664.8936490563564
 30
0.0
 11
2342.969308635081
 21
-664.8936490563564
 31
0.0
  0
SPLINE
  5
1AC85
330
18
100
AcDbEntity
  8
01
100
AcDbSpline
210
0.0
220
0.0
230
1.0
 70
     8
 71
     3
 72
    25
 73
    21
 74
     0
 42
0.0000000001
 43
0.0000000001
 40
0.0
 40
0.0
 40
0.0
 40
0.0
 40
0.1275162504934405
 40
0.2820472593569216
 40
0.282166234814581
 40
0.28226285145005
 40
0.2824422449791314
 40
0.2827844777606477
 40
0.2834654010868402
 40
0.2849038909289052
 40
0.2881823005716541
 40
0.2962995820095712
 40
0.3180103346272334
 40
0.3797758007695785
 40
0.5630581963624083
 40
0.6230334448296416
 40
0.6899303875311185
 40
0.763747743545052
 40
0.8444840918070824
 40
1.0
 40
1.0
 40
1.0
 40
1.0
 10
2364.147601323551
 20
-680.1294381992183
 30
0.0
 10
2364.254547211446
 20
-680.1341268302639
 30
0.0
 10
2364.491095843193
 20
-680.144497395046
 30
0.0
 10
2364.713911153781
 20
-680.1580345513474
 30
0.0
 10
2364.829774934801
 20
-680.1656644263679
 30
0.0
 10
2364.830070650015
 20
-680.165683932264
 30
0.0
 10
2364.830533466039
 20
-680.1657145039654
 30
0.0
 10
2364.831433525068
 20
-680.1657741078342
 30
0.0
 10
2364.833275296037
 20
-680.1658965424027
 30
0.0
 10
2364.837310860646
 20
-680.1661662889065
 30
0.0
 10
2364.846890228185
 20
-680.1668112221183
 30
0.0
 10
2364.871501816985
 20
-680.1684838977673
 30
0.0
 10
2364.938871133788
 20
-680.1731329573823
 30
0.0
 10
2365.128836834326
 20
-680.1867064674012
 30
0.0
 10
2365.323393942609
 20
-680.2023836115396
 30
0.0
 10
2365.489203711003
 20
-680.2181339803841
 30
0.0
 10
2365.585655839778
 20
-680.2281982128128
 30
0.0
 10
2365.677150987553
 20
-680.2392302574332
 30
0.0
 10
2365.784986520815
 20
-680.2544938911418
 30
0.0
 10
2365.82629603943
 20
-680.2663299452369
 30
0.0
 10
2365.853488530206
 20
-680.2741211711478
 30
0.0
  0
LINE
  5
1AC86
330
18
100
AcDbEntity
  8
1CENTER
100
AcDbLine
 10
2352.965690870563
 20
-688.988296738849
 30
0.0
 11
2352.965690870563
 21
-662.7990013738664
 31
0.0
  0
LINE
  5
1AC87
330
18
100
AcDbEntity
  8
01
100
AcDbLine
 10
2341.456535793607
 20
-665.3185662565842
 30
0.0
 11
2234.413032316604
 21
-671.4272657020182
 31
0.0
  0
LINE
  5
1AC88
330
18
100
AcDbEntity
  8
01
100
AcDbLine
 10
2234.416390243355
 20
-680.3530881345804
 30
0.0
 11
2341.440208717529
 21
-686.4677635325003
 31
0.0
  0
LINE
  5
1AC89
330
18
100
AcDbEntity
  8
01
100
AcDbLine
 10
2234.395492353869
 20
-674.253102553975
 30
0.0
 11
2363.788193025125
 21
-671.6667289214648
 31
0.0
  0
LINE
  5
1AC8A
330
18
100
AcDbEntity
  8
01
100
AcDbLine
 10
2363.788193025127
 20
-680.1205691912481
 30
0.0
 11
2234.395492353869
 21
-677.5250478095489
 31
0.0
  0
TEXT
  5
1AEF1
330
18
100
AcDbEntity
  8
1TEXT
100
AcDbText
 10
2349.425576167759
 20
-446.7170738678615
 30
0.0
 40
6.0
  1
表面処理
 72
     1
 11
2363.325576167759
 21
-446.7170738678615
 31
0.0
100
AcDbText
  0
TEXT
  5
1AEF2
330
18
100
AcDbEntity
  8
1TEXT
100
AcDbText
 10
2343.805576167759
 20
-456.9700068571483
 30
0.0
 40
6.0
  1
マットブラック
 41
0.8000000000000002
 72
     1
 11
2363.325576167759
 21
-456.9700068571483
 31
0.0
100
AcDbText
  0
LINE
  5
1AEF3
330
18
100
AcDbEntity
  8
1DIM
100
AcDbLine
 10
2337.225576167757
 20
-438.4670738678615
 30
0.0
 11
2442.225576167757
 21
-438.4670738678615
 31
0.0
  0
LINE
  5
1AEF4
330
18
100
AcDbEntity
  8
1DIM
100
AcDbLine
 10
2337.225576167757
 20
-448.9670738678615
 30
0.0
 11
2442.225576167757
 21
-448.9670738678615
 31
0.0
  0
LINE
  5
1AEF5
330
18
100
AcDbEntity
  8
1DIM
100
AcDbLine
 10
2337.225576167757
 20
-459.4670738678615
 30
0.0
 11
2442.225576167757
 21
-459.4670738678615
 31
0.0
  0
LINE
  5
1AEF6
330
18
100
AcDbEntity
  8
1DIM
100
AcDbLine
 10
2337.225576167757
 20
-459.4670738678615
 30
0.0
 11
2442.225576167757
 21
-459.4670738678615
 31
0.0
  0
LINE
  5
1AEF7
330
18
100
AcDbEntity
  8
1DIM
100
AcDbLine
 10
2389.725576167757
 20
-438.4670738678615
 30
0.0
 11
2389.725576167757
 21
-459.4670738678615
 31
0.0
  0
TEXT
  5
1AEF8
330
18
100
AcDbEntity
  8
1TEXT
100
AcDbText
 10
2391.813076167759
 20
-457.5386093433354
 30
0.0
 40
6.0
  1
3-GZT-003-LJ-8
 41
0.6
 72
     1
 11
2415.825576167759
 21
-457.5386093433354
 31
0.0
100
AcDbText
  0
TEXT
  5
1AEF9
330
18
100
AcDbEntity
  8
1TEXT
100
AcDbText
 10
2405.525576167759
 20
-446.7170738678615
 30
0.0
 40
6.0
  1
コード
 72
     1
 11
2415.825576167759
 21
-446.7170738678615
 31
0.0
100
AcDbText
  0
LINE
  5
1AEFA
330
18
100
AcDbEntity
  8
1DIM
100
AcDbLine
 10
2337.225576167757
 20
-459.4670738678615
 30
0.0
 11
2337.225576167757
 21
-438.4670738678615
 31
0.0
  0
LINE
  5
1AEFB
330
18
100
AcDbEntity
  8
1DIM
100
AcDbLine
 10
2442.225576167757
 20
-459.4670738678615
 30
0.0
 11
2442.225576167757
 21
-438.4670738678615
 31
0.0
  0
TEXT
  5
1AEFC
330
18
100
AcDbEntity
  8
1TEXT
100
AcDbText
 10
2346.685576167759
 20
-467.4700068571483
 30
0.0
 40
6.0
  1
マットグレー
 41
0.8000000000000002
 72
     1
 11
2363.325576167759
 21
-467.4700068571483
 31
0.0
100
AcDbText
  0
LINE
  5
1AEFD
330
18
100
AcDbEntity
  8
1DIM
100
AcDbLine
 10
2337.225576167757
 20
-459.4670738678615
 30
0.0
 11
2442.225576167757
 21
-459.4670738678615
 31
0.0
  0
LINE
  5
1AEFE
330
18
100
AcDbEntity
  8
1DIM
100
AcDbLine
 10
2337.225576167757
 20
-469.9670738678615
 30
0.0
 11
2442.225576167757
 21
-469.9670738678615
 31
0.0
  0
LINE
  5
1AEFF
330
18
100
AcDbEntity
  8
1DIM
100
AcDbLine
 10
2337.225576167757
 20
-469.9670738678615
 30
0.0
 11
2442.225576167757
 21
-469.9670738678615
 31
0.0
  0
LINE
  5
1AF00
330
18
100
AcDbEntity
  8
1DIM
100
AcDbLine
 10
2389.725576167757
 20
-459.4670738678615
 30
0.0
 11
2389.725576167757
 21
-469.9670738678615
 31
0.0
  0
TEXT
  5
1AF01
330
18
100
AcDbEntity
  8
1TEXT
100
AcDbText
 10
2391.488076167759
 20
-468.0386093433354
 30
0.0
 40
6.0
  1
3-GZT-065-LJ-8
 41
0.6
 72
     1
 11
2415.825576167759
 21
-468.0386093433354
 31
0.0
100
AcDbText
  0
LINE
  5
1AF02
330
18
100
AcDbEntity
  8
1DIM
100
AcDbLine
 10
2337.225576167757
 20
-469.9670738678615
 30
0.0
 11
2337.225576167757
 21
-459.4670738678615
 31
0.0
  0
LINE
  5
1AF03
330
18
100
AcDbEntity
  8
1DIM
100
AcDbLine
 10
2442.225576167757
 20
-469.9670738678615
 30
0.0
 11
2442.225576167757
 21
-459.4670738678615
 31
0.0
  0
LINE
  5
1B394
330
18
100
AcDbEntity
  8
01
100
AcDbLine
 10
2339.965570530815
 20
-625.8949673694605
 30
0.0
 11
2365.965570530815
 21
-625.8949673694605
 31
0.0
  0
LINE
  5
1B396
330
18
100
AcDbEntity
  8
01
100
AcDbLine
 10
2352.965570530815
 20
-597.8949673694605
 30
0.0
 11
2352.965570530815
 21
-642.8949673694605
 31
0.0
  0
LINE
  5
1B3A6
330
18
100
AcDbEntity
  8
01
100
AcDbLine
 10
2333.465578208358
 20
-600.3949673697497
 30
0.0
 11
2372.465578208356
 21
-600.3949673697497
 31
0.0
  0
ARC
  5
1B3A7
330
18
100
AcDbEntity
  8
01
100
AcDbCircle
 10
2372.465578208356
 20
-600.8949673697497
 30
0.0
 40
0.5
100
AcDbArc
 50
0.0
 51
90.0
  0
LINE
  5
1B3A8
330
18
100
AcDbEntity
  8
01
100
AcDbLine
 10
2333.465578208356
 20
-640.3949673697497
 30
0.0
 11
2372.465578208356
 21
-640.3949673697497
 31
0.0
  0
ARC
  5
1B3A9
330
18
100
AcDbEntity
  8
01
100
AcDbCircle
 10
2333.465578208356
 20
-639.8949673697497
 30
0.0
 40
0.5
100
AcDbArc
 50
180.0
 51
270.0
  0
LINE
  5
1B3AA
330
18
100
AcDbEntity
  8
01
100
AcDbLine
 10
2332.965578208356
 20
-639.8949673697497
 30
0.0
 11
2332.965578208358
 21
-600.8949673697497
 31
0.0
  0
ARC
  5
1B3AB
330
18
100
AcDbEntity
  8
01
100
AcDbCircle
 10
2333.465578208358
 20
-600.8949673697497
 30
0.0
 40
0.5
100
AcDbArc
 50
90.0
 51
180.0
  0
LINE
  5
1B3AC
330
18
100
AcDbEntity
  8
01
100
AcDbLine
 10
2372.965578208356
 20
-639.8949673697497
 30
0.0
 11
2372.965578208356
 21
-600.8949673697497
 31
0.0
  0
ARC
  5
1B3AD
330
18
100
AcDbEntity
  8
01
100
AcDbCircle
 10
2372.465578208356
 20
-639.8949673697497
 30
0.0
 40
0.5
100
AcDbArc
 50
270.0
 51
0.0
  0
LINE
  5
1B3B4
330
18
100
AcDbEntity
  8
01
100
AcDbLine
 10
2495.465574530816
 20
-619.1599840732746
 30
0.0
 11
2495.465574530816
 21
-632.6299506656608
 31
0.0
  0
LINE
  5
1B450
330
18
100
AcDbEntity
  8
01
100
AcDbLine
 10
2341.653802603309
 20
-625.8949673697501
 30
0.0
 11
2364.277579138393
 21
-625.8949673697501
 31
0.0
  0
LINE
  5
1B451
330
18
100
AcDbEntity
  8
01
100
AcDbLine
 10
2352.96569087085
 20
-614.5830791022084
 30
0.0
 11
2352.96569087085
 21
-637.2068556372918
 31
0.0
  0
LINE
  5
1B58C
330
18
100
AcDbEntity
  8
01
100
AcDbLine
 10
2339.965570530815
 20
-625.8949673694605
 30
0.0
 11
2365.965570530815
 21
-625.8949673694605
 31
0.0
  0
LINE
  5
1B58E
330
18
100
AcDbEntity
  8
01
100
AcDbLine
 10
2352.965570530815
 20
-597.8949673694605
 30
0.0
 11
2352.965570530815
 21
-642.8949673694605
 31
0.0
  0
LINE
  5
1B592
330
18
100
AcDbEntity
  8
01
100
AcDbLine
 10
2673.465458191072
 20
-379.5949673704894
 30
0.0
 11
2712.465458191071
 21
-379.5949673704891
 31
0.0
  0
LINE
  5
1B593
330
18
100
AcDbEntity
  8
01
100
AcDbLine
 10
2712.965458191072
 20
-385.8949673704893
 30
0.0
 11
2672.965458191072
 21
-385.8949673704898
 31
0.0
  0
LINE
  5
1B594
330
18
100
AcDbEntity
  8
01
100
AcDbLine
 10
2712.965458191072
 20
-385.8949673704893
 30
0.0
 11
2712.965458191071
 21
-380.0949673704891
 31
0.0
  0
ARC
  5
1B595
330
18
100
AcDbEntity
  8
01
100
AcDbCircle
 10
2712.465458191072
 20
-380.0949673704894
 30
0.0
 40
0.5
100
AcDbArc
 50
0.0
 51
90.0
  0
LINE
  5
1B596
330
18
100
AcDbEntity
  8
01
100
AcDbLine
 10
2672.965458191072
 20
-385.8949673704898
 30
0.0
 11
2672.965458191072
 21
-380.0949673704894
 31
0.0
  0
ARC
  5
1B597
330
18
100
AcDbEntity
  8
01
100
AcDbCircle
 10
2673.465458191072
 20
-380.0949673704894
 30
0.0
 40
0.5
100
AcDbArc
 50
90.0
 51
180.0
  0
LINE
  5
1B598
330
18
100
AcDbEntity
  8
01
100
AcDbLine
 10
2689.465470412285
 20
-378.3949707036896
 30
0.0000000000000173
 11
2683.715470412279
 21
-378.3949707036887
 31
0.0000000000000173
  0
LINE
  5
1B599
330
18
100
AcDbEntity
  8
01
100
AcDbLine
 10
2690.465470412287
 20
-364.894947759483
 30
0.0000000000000173
 11
2690.465470412285
 21
-377.3949707036896
 31
0.0000000000000173
  0
LINE
  5
1B59A
330
18
100
AcDbEntity
  8
01
100
AcDbLine
 10
2695.465470412287
 20
-364.8949477594848
 30
0.0000000000000173
 11
2695.465470412287
 21
-377.3949707036878
 31
0.0000000000000173
  0
ARC
  5
1B59B
330
18
100
AcDbEntity
  8
01
100
AcDbCircle
 10
2694.465470412287
 20
-364.894947759483
 30
0.0000000000000173
 40
1.0
100
AcDbArc
 50
0.0000000000521102
 51
90.0
  0
ARC
  5
1B59C
330
18
100
AcDbEntity
  8
01
100
AcDbCircle
 10
2691.465470412287
 20
-364.894947759483
 30
0.0000000000000173
 40
1.0
100
AcDbArc
 50
90.0
 51
180.0
  0
LINE
  5
1B59D
330
18
100
AcDbEntity
  8
01
100
AcDbLine
 10
2694.465470412287
 20
-363.8949477594812
 30
0.0000000000000173
 11
2691.465470412288
 21
-363.8949477594812
 31
0.0000000000000173
  0
LINE
  5
1B59E
330
18
100
AcDbEntity
  8
01
100
AcDbLine
 10
2702.215470412278
 20
-378.3949707036878
 30
0.0000000000000173
 11
2696.465470412287
 21
-378.3949707036878
 31
0.0000000000000173
  0
ARC
  5
1B59F
330
18
100
AcDbEntity
  8
01
100
AcDbCircle
 10
2696.465470412287
 20
-377.3949707036878
 30
0.0000000000000173
 40
1.0
100
AcDbArc
 50
180.0
 51
270.0
  0
ARC
  5
1B5A0
330
18
100
AcDbEntity
  8
01
100
AcDbCircle
 10
2689.465470412285
 20
-377.3949707036896
 30
0.0000000000000173
 40
1.0
100
AcDbArc
 50
270.0
 51
0.0
  0
LINE
  5
1B5A1
330
18
100
AcDbEntity
  8
01
100
AcDbLine
 10
2683.215470412279
 20
-378.8949707036883
 30
0.0000000000562748
 11
2683.215470412279
 21
-379.5949673704891
 31
0.0000000000562526
  0
ARC
  5
1B5A2
330
18
100
AcDbEntity
  8
01
100
AcDbCircle
 10
2683.715470412279
 20
-378.8949707036883
 30
0.0000000000562748
 40
0.5
100
AcDbArc
 50
90.0
 51
180.0
  0
LINE
  5
1B5A3
330
18
100
AcDbEntity
  8
01
100
AcDbLine
 10
2702.715470412279
 20
-378.8949707036883
 30
0.0000000000562748
 11
2702.715470412279
 21
-379.5949673704891
 31
0.0000000000562526
  0
ARC
  5
1B5A4
330
18
100
AcDbEntity
  8
01
100
AcDbCircle
 10
2702.215470412278
 20
-378.8949707036883
 30
0.0000000000562748
 40
0.5
100
AcDbArc
 50
0.0
 51
90.0
  0
LINE
  5
1B5A6
330
18
100
AcDbEntity
  8
01
100
AcDbLine
 10
2712.465458058865
 20
-432.1949673704925
 30
0.0
 11
2673.465458058865
 21
-432.1949673704872
 31
0.0
  0
LINE
  5
1B5A7
330
18
100
AcDbEntity
  8
01
100
AcDbLine
 10
2672.965458058866
 20
-425.8949673704868
 30
0.0
 11
2712.965458058866
 21
-425.8949673704923
 31
0.0
  0
LINE
  5
1B5A8
330
18
100
AcDbEntity
  8
01
100
AcDbLine
 10
2672.965458058866
 20
-425.8949673704868
 30
0.0
 11
2672.965458058865
 21
-431.694967370487
 31
0.0
  0
ARC
  5
1B5A9
330
18
100
AcDbEntity
  8
01
100
AcDbCircle
 10
2673.465458058865
 20
-431.6949673704868
 30
0.0
 40
0.5
100
AcDbArc
 50
179.9999999999739
 51
270.0
  0
LINE
  5
1B5AA
330
18
100
AcDbEntity
  8
01
100
AcDbLine
 10
2712.965458058866
 20
-425.8949673704923
 30
0.0
 11
2712.965458058865
 21
-431.6949673704925
 31
0.0
  0
ARC
  5
1B5AB
330
18
100
AcDbEntity
  8
01
100
AcDbCircle
 10
2712.465458058865
 20
-431.6949673704925
 30
0.0
 40
0.5
100
AcDbArc
 50
270.0
 51
0.0
  0
ARC
  5
1B5AC
330
18
100
AcDbEntity
  8
01
100
AcDbCircle
 10
2692.96544851672
 20
-428.0449727483648
 30
-0.0000000000001137
 40
6.0
100
AcDbArc
 50
234.3146660000064
 51
256.8165180000061
  0
LINE
  5
1B5AD
330
18
100
AcDbEntity
  8
01
100
AcDbLine
 10
2689.46544851672
 20
-432.918372748365
 30
-0.0000000000001137
 11
2689.46544851672
 21
-432.1949673704895
 31
-0.0000000000001137
  0
LINE
  5
1B5AE
330
18
100
AcDbEntity
  8
01
100
AcDbLine
 10
2696.46544851672
 20
-432.918372748365
 30
-0.0000000000001137
 11
2696.46544851672
 21
-432.1949673704904
 31
-0.0000000000001137
  0
LINE
  5
1B5AF
330
18
100
AcDbEntity
  8
01
100
AcDbLine
 10
2693.96544851672
 20
-433.5955212077673
 30
-0.0000000000001137
 11
2693.96544851672
 21
-432.19496737049
 31
-0.0000000000001137
  0
ARC
  5
1B5B0
330
18
100
AcDbEntity
  8
01
100
AcDbCircle
 10
2691.665445516721
 20
-433.5947427483649
 30
-0.0000000000001137
 40
0.30000001
100
AcDbArc
 50
256.8165179999368
 51
0.0
  0
ARC
  5
1B5B1
330
18
100
AcDbEntity
  8
01
100
AcDbCircle
 10
2694.265447516721
 20
-433.5947427483649
 30
-0.0000000000001137
 40
0.30000001
100
AcDbArc
 50
179.999996999972
 51
283.1834799999916
  0
LINE
  5
1B5B2
330
18
100
AcDbEntity
  8
01
100
AcDbLine
 10
2691.96544851672
 20
-433.5947427483649
 30
-0.0000000000001137
 11
2691.96544851672
 21
-432.1949673704897
 31
-0.0000000000001137
  0
ARC
  5
1B5B3
330
18
100
AcDbEntity
  8
01
100
AcDbCircle
 10
2692.96544851672
 20
-428.0449727483648
 30
-0.0000000000001137
 40
6.0
100
AcDbArc
 50
283.1834825033611
 51
305.6853300000033
  0
LINE
  5
1B5B4
330
18
100
AcDbEntity
  8
1CENTER
100
AcDbLine
 10
2352.965570530815
 20
-631.8949673694605
 30
0.0
 11
2352.965570530815
 21
-619.8949673694605
 31
0.0
  0
LINE
  5
1B5B5
330
18
100
AcDbEntity
  8
1CENTER
100
AcDbLine
 10
2346.965570530815
 20
-625.8949673694605
 30
0.0
 11
2358.965570530815
 21
-625.8949673694605
 31
0.0
  0
LINE
  5
1B5B6
330
18
100
AcDbEntity
  8
01
100
AcDbLine
 10
2372.465570530813
 20
-600.3949673694605
 30
0.0
 11
2333.465570530813
 21
-600.3949673694607
 31
0.0
  0
ARC
  5
1B5B7
330
18
100
AcDbEntity
  8
01
100
AcDbCircle
 10
2333.465570530813
 20
-600.8949673694607
 30
0.0
 40
0.5
100
AcDbArc
 50
90.0
 51
180.0
  0
LINE
  5
1B5B8
330
18
100
AcDbEntity
  8
01
100
AcDbLine
 10
2372.465570530813
 20
-640.3949673694605
 30
0.0
 11
2333.465570530813
 21
-640.3949673694609
 31
0.0
  0
ARC
  5
1B5B9
330
18
100
AcDbEntity
  8
01
100
AcDbCircle
 10
2372.465570530813
 20
-639.8949673694605
 30
0.0
 40
0.5
100
AcDbArc
 50
270.0
 51
0.0
  0
LINE
  5
1B5BA
330
18
100
AcDbEntity
  8
01
100
AcDbLine
 10
2372.965570530813
 20
-639.8949673694605
 30
0.0
 11
2372.965570530813
 21
-600.8949673694605
 31
0.0
  0
ARC
  5
1B5BB
330
18
100
AcDbEntity
  8
01
100
AcDbCircle
 10
2372.465570530813
 20
-600.8949673694605
 30
0.0
 40
0.5
100
AcDbArc
 50
0.0
 51
90.0
  0
LINE
  5
1B5BC
330
18
100
AcDbEntity
  8
01
100
AcDbLine
 10
2332.965570530813
 20
-639.8949673694609
 30
0.0
 11
2332.965570530813
 21
-600.8949673694607
 31
0.0
  0
ARC
  5
1B5BD
330
18
100
AcDbEntity
  8
01
100
AcDbCircle
 10
2333.465570530813
 20
-639.8949673694609
 30
0.0
 40
0.5
100
AcDbArc
 50
180.0
 51
270.0
  0
ARC
  5
1B5BE
330
18
100
AcDbEntity
  8
01
100
AcDbCircle
 10
2354.965570530815
 20
-616.8637714353662
 30
0.0
 40
0.5000000000000013
100
AcDbArc
 50
0.0
 51
77.51311018581228
  0
ARC
  5
1B5BF
330
18
100
AcDbEntity
  8
01
100
AcDbCircle
 10
2350.965570530815
 20
-634.9261633035547
 30
0.0
 40
0.5000000000000029
100
AcDbArc
 50
180.0
 51
257.513110185866
  0
ARC
  5
1B5C0
330
18
100
AcDbEntity
  8
01
100
AcDbCircle
 10
2354.965570530815
 20
-634.9261633035547
 30
0.0
 40
0.5000000000000013
100
AcDbArc
 50
282.4868898141877
 51
0.0
  0
ARC
  5
1B5C1
330
18
100
AcDbEntity
  8
01
100
AcDbCircle
 10
2352.965570530815
 20
-625.8949673694605
 30
0.0
 40
9.749999999999995
100
AcDbArc
 50
77.5131101858446
 51
102.4868898141526
  0
ARC
  5
1B5C2
330
18
100
AcDbEntity
  8
01
100
AcDbCircle
 10
2350.965570530815
 20
-616.8637714353662
 30
0.0
 40
0.5000000000000029
100
AcDbArc
 50
102.486889814134
 51
180.0
  0
ARC
  5
1B5C3
330
18
100
AcDbEntity
  8
01
100
AcDbCircle
 10
2352.965570530815
 20
-625.8949673694605
 30
0.0
 40
9.75
100
AcDbArc
 50
257.5131101858473
 51
282.4868898141554
  0
LINE
  5
1B5C4
330
18
100
AcDbEntity
  8
01
100
AcDbLine
 10
2355.465570530815
 20
-616.8637714353662
 30
0.0
 11
2355.465570530815
 21
-634.9261633035547
 31
0.0
  0
LINE
  5
1B5C5
330
18
100
AcDbEntity
  8
01
100
AcDbLine
 10
2350.465570530815
 20
-634.9261633035547
 30
0.0
 11
2350.465570530815
 21
-616.8637714353662
 31
0.0
  0
SPLINE
  5
1B5C6
330
18
100
AcDbEntity
  8
01
100
AcDbSpline
210
0.0
220
0.0
230
1.0
 70
     8
 71
     3
 72
    18
 73
    14
 74
     0
 42
0.0000000001
 43
0.0000000001
 40
0.0
 40
0.0
 40
0.0
 40
0.0
 40
0.2500000000000002
 40
0.2500000000000002
 40
0.375
 40
0.375
 40
0.4999999999999998
 40
0.4999999999999998
 40
0.6249999999999996
 40
0.6249999999999996
 40
0.7499999999999993
 40
0.7499999999999993
 40
1.0
 40
1.0
 40
1.0
 40
1.0
 10
2356.654759720004
 20
-634.9200647720578
 30
0.0
 10
2356.461498662728
 20
-634.9990640970944
 30
0.0
 10
2356.269177051001
 20
-635.0703316316641
 30
0.0
 10
2355.989851592541
 20
-635.1645887428375
 30
0.0
 10
2355.900358450033
 20
-635.1932219680253
 30
0.0
 10
2355.729081242241
 20
-635.2455570438259
 30
0.0
 10
2355.646431829071
 20
-635.2694892087467
 30
0.0
 10
2355.49495868963
 20
-635.3114886250934
 30
0.0
 10
2355.426287118674
 20
-635.3295504926526
 30
0.0
 10
2355.303919144414
 20
-635.3606216308134
 30
0.0
 10
2355.250078907798
 20
-635.3736531634203
 30
0.0
 10
2355.120724620567
 20
-635.4042082681807
 30
0.0
 10
2355.073678638923
 20
-635.414336056749
 30
0.0
 10
2355.073678638923
 20
-635.414336056749
 30
0.0
  0
SPLINE
  5
1B5C7
330
18
100
AcDbEntity
  8
01
100
AcDbSpline
210
0.0
220
0.0
230
1.0
 70
     8
 71
     3
 72
    18
 73
    14
 74
     0
 42
0.0000000001
 43
0.0000000001
 40
0.0
 40
0.0
 40
0.0
 40
0.0
 40
0.2500000000000002
 40
0.2500000000000002
 40
0.3750000000000002
 40
0.3750000000000002
 40
0.5000000000000002
 40
0.5000000000000002
 40
0.6250000000000002
 40
0.6250000000000002
 40
0.7500000000000001
 40
0.7500000000000001
 40
1.0
 40
1.0
 40
1.0
 40
1.0
 10
2349.276381341626
 20
-616.8698699668631
 30
0.0
 10
2349.469642398903
 20
-616.7908706418265
 30
0.0
 10
2349.66196401063
 20
-616.7196031072571
 30
0.0
 10
2349.941289469089
 20
-616.6253459960834
 30
0.0
 10
2350.030782611598
 20
-616.5967127708956
 30
0.0
 10
2350.202059819389
 20
-616.544377695095
 30
0.0
 10
2350.284709232559
 20
-616.5204455301742
 30
0.0
 10
2350.436182372
 20
-616.4784461138278
 30
0.0
 10
2350.504853942956
 20
-616.4603842462683
 30
0.0
 10
2350.627221917217
 20
-616.4293131081075
 30
0.0
 10
2350.681062153833
 20
-616.4162815755006
 30
0.0
 10
2350.810416441064
 20
-616.3857264707402
 30
0.0
 10
2350.857462422707
 20
-616.3755986821719
 30
0.0
 10
2350.857462422707
 20
-616.3755986821719
 30
0.0
  0
SPLINE
  5
1B5C8
330
18
100
AcDbEntity
  8
01
100
AcDbSpline
210
0.0
220
0.0
230
1.0
 70
     8
 71
     3
 72
    16
 73
    12
 74
     0
 42
0.0000000001
 43
0.0000000001
 40
0.0
 40
0.0
 40
0.0
 40
0.0
 40
0.1249999999999998
 40
0.1249999999999998
 40
0.2499999999999997
 40
0.2499999999999997
 40
0.4999999999999998
 40
0.4999999999999998
 40
0.7499999999999999
 40
0.7499999999999999
 40
1.0
 40
1.0
 40
1.0
 40
1.0
 10
2350.857462422707
 20
-635.414336056749
 30
0.0
 10
2350.857462422707
 20
-635.414336056749
 30
0.0
 10
2350.84604690058
 20
-635.411828100758
 30
0.0
 10
2350.801613844239
 20
-635.4018233195978
 30
0.0
 10
2350.767918243686
 20
-635.3941666545483
 30
0.0
 10
2350.638570922225
 20
-635.3636221500157
 30
0.0
 10
2350.512115041918
 20
-635.3325219962386
 30
0.0
 10
2350.211168840922
 20
-635.2491189878671
 30
0.0
 10
2350.034375406155
 20
-635.1959700583444
 30
0.0
 10
2349.664679134152
 20
-635.0712777317409
 30
0.0
 10
2349.469607975917
 20
-634.9990500260102
 30
0.0
 10
2349.276381341626
 20
-634.9200647720578
 30
0.0
  0
SPLINE
  5
1B5C9
330
18
100
AcDbEntity
  8
01
100
AcDbSpline
210
0.0
220
0.0
230
1.0
 70
     8
 71
     3
 72
    16
 73
    12
 74
     0
 42
0.0000000001
 43
0.0000000001
 40
0.0
 40
0.0
 40
0.0
 40
0.0
 40
0.1249999999999997
 40
0.1249999999999997
 40
0.2499999999999993
 40
0.2499999999999993
 40
0.4999999999999996
 40
0.4999999999999996
 40
0.7499999999999998
 40
0.7499999999999998
 40
1.0
 40
1.0
 40
1.0
 40
1.0
 10
2355.073678638923
 20
-616.3755986821719
 30
0.0
 10
2355.073678638923
 20
-616.3755986821719
 30
0.0
 10
2355.08509416105
 20
-616.3781066381631
 30
0.0
 10
2355.129527217391
 20
-616.3881114193233
 30
0.0
 10
2355.163222817944
 20
-616.3957680843729
 30
0.0
 10
2355.292570139406
 20
-616.4263125889055
 30
0.0
 10
2355.419026019713
 20
-616.4574127426823
 30
0.0
 10
2355.719972220709
 20
-616.5408157510539
 30
0.0
 10
2355.896765655476
 20
-616.5939646805765
 30
0.0
 10
2356.266461927479
 20
-616.71865700718
 30
0.0
 10
2356.461533085714
 20
-616.7908847129107
 30
0.0
 10
2356.654759720004
 20
-616.8698699668631
 30
0.0
  0
ARC
  5
1B5CA
330
18
100
AcDbEntity
  8
01
100
AcDbCircle
 10
2352.965570530815
 20
-625.8949673694605
 30
0.0
 40
9.750000000000005
100
AcDbArc
 50
112.2332717982941
 51
247.7667282017062
  0
ARC
  5
1B5CB
330
18
100
AcDbEntity
  8
01
100
AcDbCircle
 10
2352.965570530815
 20
-625.8949673694605
 30
0.0
 40
9.750000000000009
100
AcDbArc
 50
292.2332717982968
 51
67.76672820170319
  0
CIRCLE
  5
1B5CC
330
18
100
AcDbEntity
  8
01
100
AcDbCircle
 10
2352.965570530815
 20
-625.8949673694605
 30
0.0
 40
10.3
  0
LINE
  5
1B5CD
330
18
100
AcDbEntity
  8
01
100
AcDbLine
 10
2549.265574530821
 20
-639.8949625055455
 30
0.0
 11
2549.265574530821
 21
-600.894962505546
 31
0.0
  0
LINE
  5
1B5CE
330
18
100
AcDbEntity
  8
01
100
AcDbLine
 10
2542.965574530821
 20
-600.3949625055455
 30
0.0
 11
2542.965574530817
 21
-640.3949625055458
 31
0.0
  0
LINE
  5
1B5CF
330
18
100
AcDbEntity
  8
01
100
AcDbLine
 10
2542.965574530817
 20
-640.3949625055458
 30
0.0
 11
2548.765574530821
 21
-640.3949625055455
 31
0.0
  0
ARC
  5
1B5D0
330
18
100
AcDbEntity
  8
01
100
AcDbCircle
 10
2548.765574530821
 20
-639.8949625055455
 30
0.0
 40
0.5
100
AcDbArc
 50
270.0
 51
0.0
  0
LINE
  5
1B5D1
330
18
100
AcDbEntity
  8
01
100
AcDbLine
 10
2542.965574530821
 20
-600.3949625055455
 30
0.0
 11
2548.765574530821
 21
-600.394962505546
 31
0.0
  0
ARC
  5
1B5D2
330
18
100
AcDbEntity
  8
01
100
AcDbCircle
 10
2548.765574530821
 20
-600.894962505546
 30
0.0
 40
0.5
100
AcDbArc
 50
0.0
 51
90.0
  0
LINE
  5
1B5D3
330
18
100
AcDbEntity
  8
01
100
AcDbLine
 10
2496.665574530821
 20
-639.8949673697354
 30
0.0
 11
2496.665574530821
 21
-600.8949673697358
 31
0.0
  0
LINE
  5
1B5D4
330
18
100
AcDbEntity
  8
01
100
AcDbLine
 10
2502.965574530821
 20
-600.3949673697354
 30
0.0
 11
2502.965574530816
 21
-640.3949673697356
 31
0.0
  0
LINE
  5
1B5D5
330
18
100
AcDbEntity
  8
01
100
AcDbLine
 10
2502.965574530816
 20
-640.3949673697356
 30
0.0
 11
2497.165574530821
 21
-640.3949673697354
 31
0.0
  0
ARC
  5
1B5D6
330
18
100
AcDbEntity
  8
01
100
AcDbCircle
 10
2497.165574530821
 20
-639.8949673697354
 30
0.0
 40
0.5
100
AcDbArc
 50
180.0
 51
270.0
  0
LINE
  5
1B5D7
330
18
100
AcDbEntity
  8
01
100
AcDbLine
 10
2502.965574530821
 20
-600.3949673697354
 30
0.0
 11
2497.165574530821
 21
-600.3949673697358
 31
0.0
  0
ARC
  5
1B5D8
330
18
100
AcDbEntity
  8
01
100
AcDbCircle
 10
2497.165574530821
 20
-600.8949673697358
 30
0.0
 40
0.5
100
AcDbArc
 50
90.0
 51
180.0
  0
SPLINE
  5
1B5D9
330
18
100
AcDbEntity
  8
01
100
AcDbSpline
210
0.0
220
0.0
230
1.0
 70
    24
 71
     1
 72
     4
 73
     2
 74
     0
 42
0.0000000001
 43
0.0000000001
 40
0.1160848018737504
 40
0.1160848018737504
 40
1.0
 40
1.0
 10
2496.665574530821
 20
-635.6449673697426
 30
0.0
 10
2481.965549719809
 20
-635.6449673697426
 30
0.0
  0
SPLINE
  5
1B5DA
330
18
100
AcDbEntity
  8
01
100
AcDbSpline
210
0.0
220
0.0
230
1.0
 70
    24
 71
     1
 72
     4
 73
     2
 74
     0
 42
0.0000000001
 43
0.0000000001
 40
0.0
 40
0.0
 40
0.8839151981262495
 40
0.8839151981262495
 10
2481.965549719809
 20
-616.1449673697426
 30
0.0
 10
2496.665574530821
 20
-616.1449673697426
 30
0.0
  0
ARC
  5
1B5DB
330
18
100
AcDbEntity
  8
01
100
AcDbCircle
 10
2481.965549719809
 20
-634.6449673697426
 30
0.0
 40
1.0
100
AcDbArc
 50
180.0
 51
270.0
  0
ARC
  5
1B5DC
330
18
100
AcDbEntity
  8
01
100
AcDbCircle
 10
2481.965549719809
 20
-617.1449673697426
 30
0.0
 40
1.0
100
AcDbArc
 50
90.0
 51
180.0
  0
LINE
  5
1B5DD
330
18
100
AcDbEntity
  8
01
100
AcDbLine
 10
2495.465549719809
 20
-617.3326954749708
 30
0.0
 11
2495.465549719809
 21
-634.4572392645144
 31
0.0
  0
SPLINE
  5
1B5DE
330
18
100
AcDbEntity
  8
01
100
AcDbSpline
210
0.0
220
0.0
230
1.0
 70
     8
 71
     3
 72
    14
 73
    10
 74
     0
 42
0.0000000001
 43
0.0000000001
 40
0.0
 40
0.0
 40
0.0
 40
0.0
 40
0.25
 40
0.25
 40
0.5
 40
0.5
 40
0.75
 40
0.75
 40
1.0
 40
1.0
 40
1.0
 40
1.0
 10
2494.465549719809
 20
-616.8637714356483
 30
0.0
 10
2494.605517397562
 20
-616.8637714356483
 30
0.0
 10
2494.743938671707
 20
-616.8734073909551
 30
0.0
 10
2494.993989011662
 20
-616.9124882998968
 30
0.0
 10
2495.106306574491
 20
-616.9422944347706
 30
0.0
 10
2495.287353945578
 20
-617.0232141715545
 30
0.0
 10
2495.355154581882
 20
-617.073603707746
 30
0.0
 10
2495.444773498425
 20
-617.1929732967609
 30
0.0
 10
2495.465549719809
 20
-617.2597727474723
 30
0.0
 10
2495.465549719809
 20
-617.3326954749708
 30
0.0
  0
SPLINE
  5
1B5DF
330
18
100
AcDbEntity
  8
01
100
AcDbSpline
210
0.0
220
0.0
230
1.0
 70
     8
 71
     3
 72
    14
 73
    10
 74
     0
 42
0.0000000001
 43
0.0000000001
 40
0.0
 40
0.0
 40
0.0
 40
0.0
 40
0.25
 40
0.25
 40
0.5
 40
0.5
 40
0.75
 40
0.75
 40
1.0
 40
1.0
 40
1.0
 40
1.0
 10
2495.465549719809
 20
-634.4572392645144
 30
0.0
 10
2495.465549719809
 20
-634.5301559516489
 30
0.0
 10
2495.444189312548
 20
-634.5979406475097
 30
0.0
 10
2495.355050120872
 20
-634.7162675214735
 30
0.0
 10
2495.286117490718
 20
-634.7673803762415
 30
0.0
 10
2495.106070050351
 20
-634.8476379683954
 30
0.0
 10
2494.993364376856
 20
-634.8776007881019
 30
0.0
 10
2494.742793763237
 20
-634.916649163636
 30
0.0
 10
2494.605407613918
 20
-634.9261633038369
 30
0.0
 10
2494.465549719809
 20
-634.9261633038369
 30
0.0
  0
LINE
  5
1B5E0
330
18
100
AcDbEntity
  8
01
100
AcDbLine
 10
2494.465549719809
 20
-634.9261633038369
 30
0.0
 11
2481.965549719809
 21
-634.9261633038369
 31
0.0
  0
LINE
  5
1B5E1
330
18
100
AcDbEntity
  8
01
100
AcDbLine
 10
2481.965549719809
 20
-616.8637714356483
 30
0.0
 11
2494.465549719809
 21
-616.8637714356483
 31
0.0
  0
SPLINE
  5
1B5E2
330
18
100
AcDbEntity
  8
01
100
AcDbSpline
210
0.0
220
0.0
230
1.0
 70
     8
 71
     3
 72
    14
 73
    10
 74
     0
 42
0.0000000001
 43
0.0000000001
 40
0.0
 40
0.0
 40
0.0
 40
0.0
 40
0.2500000000000001
 40
0.2500000000000001
 40
0.5000000000000002
 40
0.5000000000000002
 40
0.7500000000000003
 40
0.7500000000000003
 40
1.0
 40
1.0
 40
1.0
 40
1.0
 10
2481.965549719809
 20
-616.8637714356483
 30
0.0
 10
2481.828340804881
 20
-616.8637714356483
 30
0.0
 10
2481.693337259369
 20
-616.8751462457436
 30
0.0
 10
2481.446000800716
 20
-616.9181011130639
 30
0.0
 10
2481.335499371351
 20
-616.9493454401685
 30
0.0
 10
2481.153305697823
 20
-617.0265309575594
 30
0.0
 10
2481.084312595438
 20
-617.0708715728191
 30
0.0
 10
2480.989545056952
 20
-617.1688532241973
 30
0.0
 10
2480.965549719809
 20
-617.2213466472141
 30
0.0
 10
2480.965549719809
 20
-617.2744975449592
 30
0.0
  0
SPLINE
  5
1B5E3
330
18
100
AcDbEntity
  8
01
100
AcDbSpline
210
0.0
220
0.0
230
1.0
 70
     8
 71
     3
 72
    14
 73
    10
 74
     0
 42
0.0000000001
 43
0.0000000001
 40
0.0
 40
0.0
 40
0.0
 40
0.0
 40
0.2500000000000001
 40
0.2500000000000001
 40
0.5000000000000002
 40
0.5000000000000002
 40
0.7500000000000003
 40
0.7500000000000003
 40
1.0
 40
1.0
 40
1.0
 40
1.0
 10
2481.965549719809
 20
-634.9261633038369
 30
0.0
 10
2481.828340804881
 20
-634.9261633038369
 30
0.0
 10
2481.693337259369
 20
-634.9147884937416
 30
0.0
 10
2481.446000800716
 20
-634.8718336264213
 30
0.0
 10
2481.335499371351
 20
-634.8405892993168
 30
0.0
 10
2481.153305697823
 20
-634.7634037819256
 30
0.0
 10
2481.084312595438
 20
-634.7190631666662
 30
0.0
 10
2480.989545056952
 20
-634.6210815152878
 30
0.0
 10
2480.965549719809
 20
-634.5685880922712
 30
0.0
 10
2480.965549719809
 20
-634.515437194526
 30
0.0
  0
LINE
  5
1B5E4
330
18
100
AcDbEntity
  8
01
100
AcDbLine
 10
2480.965549719809
 20
-617.2744975449592
 30
0.0
 11
2480.965549719809
 21
-634.515437194526
 31
0.0
  0
LINE
  5
1B5E5
330
18
100
AcDbEntity
  8
01
100
AcDbLine
 10
2480.965549719809
 20
-634.515437194526
 30
0.0
 11
2480.965549719809
 21
-634.6449673697426
 31
0.0
  0
LINE
  5
1B5E7
330
18
100
AcDbEntity
  8
01
100
AcDbLine
 10
2550.007558219781
 20
-629.3949660487971
 30
0.0000000000562539
 11
2549.26557453082
 21
-629.3949660487971
 31
0.0000000000562539
  0
ARC
  5
1B5E8
330
18
100
AcDbEntity
  8
01
100
AcDbCircle
 10
2545.134158219781
 20
-625.8949660487971
 30
0.0000000000562539
 40
6.0
100
AcDbArc
 50
324.3146700000025
 51
35.68533471265159
  0
LINE
  5
1B6CD
330
18
100
AcDbEntity
  8
01
100
AcDbLine
 10
2550.007555392186
 20
-622.3949660487971
 30
0.0000000000562539
 11
2549.265574530821
 21
-622.3949660487971
 31
0.0
  0
LINE
  5
1B87C
330
18
100
AcDbEntity
  8
01
100
AcDbLine
 10
2542.965574530816
 20
-600.3949673694605
 30
0.0
 11
2542.965574530816
 21
-568.5949673694605
 31
0.0
1001
ACAD
1000
DSTYLE
1002
{
1070
    40
1040
1.3
1070
    45
1040
0.5
1070
   271
1070
     1
1070
   341
1005
0
1002
}
  0
LINE
  5
1B87D
330
18
100
AcDbEntity
  8
01
100
AcDbLine
 10
2551.134158219781
 20
-625.8949672487392
 30
0.0
 11
2551.134158219781
 21
-568.5949673694605
 31
0.0
1001
ACAD
1000
DSTYLE
1002
{
1070
    40
1040
1.3
1070
    45
1040
0.5
1070
   271
1070
     1
1070
   341
1005
0
1002
}
  0
LINE
  5
1B87E
330
18
100
AcDbEntity
  8
01
100
AcDbLine
 10
2545.565574530816
 20
-569.8949673694605
 30
0.0
 11
2548.534158219781
 21
-569.8949673694605
 31
0.0
1001
ACAD
1000
DSTYLE
1002
{
1070
    40
1040
1.3
1070
    45
1040
0.5
1070
   271
1070
     1
1070
   341
1005
0
1002
}
  0
LINE
  5
1B882
330
18
100
AcDbEntity
  8
01
100
AcDbLine
 10
2672.965465868613
 20
-600.8949673694605
 30
0.0
 11
2672.965465868613
 21
-591.5949673694605
 31
0.0
1001
ACAD
1000
DSTYLE
1002
{
1070
     3
1000
□<>
1070
    40
1040
1.3
1070
    45
1040
0.5
1070
   271
1070
     1
1070
   272
1070
     2
1002
}
  0
LINE
  5
1B883
330
18
100
AcDbEntity
  8
01
100
AcDbLine
 10
2712.965465868613
 20
-600.8949673694609
 30
0.0
 11
2712.965465868613
 21
-591.5949673694605
 31
0.0
1001
ACAD
1000
DSTYLE
1002
{
1070
     3
1000
□<>
1070
    40
1040
1.3
1070
    45
1040
0.5
1070
   271
1070
     1
1070
   272
1070
     2
1002
}
  0
LINE
  5
1B884
330
18
100
AcDbEntity
  8
01
100
AcDbLine
 10
2675.565465868613
 20
-592.8949673694605
 30
0.0
 11
2710.365465868613
 21
-592.8949673694605
 31
0.0
1001
ACAD
1000
DSTYLE
1002
{
1070
     3
1000
□<>
1070
    40
1040
1.3
1070
    45
1040
0.5
1070
   271
1070
     1
1070
   272
1070
     2
1002
}
  0
LINE
  5
1B888
330
18
100
AcDbEntity
  8
01
100
AcDbLine
 10
2332.9655858859
 20
-600.8949673694605
 30
0.0
 11
2332.9655858859
 21
-591.5949673694605
 31
0.0
1001
ACAD
1000
DSTYLE
1002
{
1070
     3
1000
□<>
1070
    40
1040
1.3
1070
    45
1040
0.5
1070
   271
1070
     1
1070
   272
1070
     2
1002
}
  0
LINE
  5
1B889
330
18
100
AcDbEntity
  8
01
100
AcDbLine
 10
2372.9655858859
 20
-600.8949673694609
 30
0.0
 11
2372.9655858859
 21
-591.5949673694605
 31
0.0
1001
ACAD
1000
DSTYLE
1002
{
1070
     3
1000
□<>
1070
    40
1040
1.3
1070
    45
1040
0.5
1070
   271
1070
     1
1070
   272
1070
     2
1002
}
  0
LINE
  5
1B88A
330
18
100
AcDbEntity
  8
01
100
AcDbLine
 10
2335.5655858859
 20
-592.8949673694605
 30
0.0
 11
2370.3655858859
 21
-592.8949673694605
 31
0.0
1001
ACAD
1000
DSTYLE
1002
{
1070
     3
1000
□<>
1070
    40
1040
1.3
1070
    45
1040
0.5
1070
   271
1070
     1
1070
   272
1070
     2
1002
}
  0
TEXT
  5
1B88E
330
18
100
AcDbEntity
  8
01
  6
CONTINUOUS
100
AcDbText
 10
2631.420285950755
 20
-463.3116340371562
 30
0.0
 40
4.55
  1
材質：アルミ
100
AcDbText
  0
TEXT
  5
1B88F
330
18
100
AcDbEntity
  8
01
  6
CONTINUOUS
100
AcDbText
 10
2613.978619284088
 20
-470.8949673704896
 30
0.0
 40
4.55
  1
仕上げ：各種仕上げ
100
AcDbText
  0
LINE
  5
1B890
330
18
100
AcDbEntity
  8
01
100
AcDbLine
 10
2709.36634237313
 20
-396.3949673704896
 30
0.0
 11
2734.126733132844
 21
-396.3949673704896
 31
0.0
1001
ACAD
1000
DSTYLE
1002
{
1070
    40
1040
1.3
1070
    45
1040
0.5
1070
    79
1070
     2
1070
   179
1070
     2
1070
   272
1070
     2
1070
   341
1005
0
1002
}
  0
LINE
  5
1B891
330
18
100
AcDbEntity
  8
01
100
AcDbLine
 10
2710.96634237313
 20
-415.1949673704897
 30
0.0
 11
2734.126733132844
 21
-415.1949673704897
 31
0.0
1001
ACAD
1000
DSTYLE
1002
{
1070
    40
1040
1.3
1070
    45
1040
0.5
1070
    79
1070
     2
1070
   179
1070
     2
1070
   272
1070
     2
1070
   341
1005
0
1002
}
  0
LINE
  5
1B892
330
18
100
AcDbEntity
  8
01
100
AcDbLine
 10
2732.826733132843
 20
-398.9949673704896
 30
0.0
 11
2732.826733132843
 21
-412.5949673704897
 31
0.0
1001
ACAD
1000
DSTYLE
1002
{
1070
    40
1040
1.3
1070
    45
1040
0.5
1070
    79
1070
     2
1070
   179
1070
     2
1070
   272
1070
     2
1070
   341
1005
0
1002
}
  0
LINE
  5
1B896
330
18
100
AcDbEntity
  8
01
100
AcDbLine
 10
2529.465574530816
 20
-597.8949673694609
 30
0.0
 11
2578.769165567372
 21
-597.8949673694609
 31
0.0
1001
ACAD
1000
DSTYLE
1002
{
1070
    40
1040
1.3
1070
    45
1040
0.5
1002
}
  0
LINE
  5
1B897
330
18
100
AcDbEntity
  8
01
100
AcDbLine
 10
2529.465574530816
 20
-711.8949673694609
 30
0.0
 11
2578.769165567372
 21
-711.8949673694609
 31
0.0
1001
ACAD
1000
DSTYLE
1002
{
1070
    40
1040
1.3
1070
    45
1040
0.5
1002
}
  0
LINE
  5
1B898
330
18
100
AcDbEntity
  8
01
100
AcDbLine
 10
2577.469165567371
 20
-600.4949673694609
 30
0.0
 11
2577.469165567371
 21
-709.2949673694609
 31
0.0
1001
ACAD
1000
DSTYLE
1002
{
1070
    40
1040
1.3
1070
    45
1040
0.5
1002
}
  0
LINE
  5
1B89C
330
18
100
AcDbEntity
  8
01
100
AcDbLine
 10
2529.465574530816
 20
-589.8949673694609
 30
0.0
 11
2594.265574530817
 21
-589.8949673694609
 31
0.0
1001
ACAD
1000
DSTYLE
1002
{
1070
    40
1040
1.3
1070
    45
1040
0.5
1002
}
  0
LINE
  5
1B89D
330
18
100
AcDbEntity
  8
01
100
AcDbLine
 10
2529.465574530816
 20
-719.8949673694609
 30
0.0
 11
2594.265574530817
 21
-719.8949673694609
 31
0.0
1001
ACAD
1000
DSTYLE
1002
{
1070
    40
1040
1.3
1070
    45
1040
0.5
1002
}
  0
LINE
  5
1B89E
330
18
100
AcDbEntity
  8
01
100
AcDbLine
 10
2592.965574530816
 20
-592.4949673694609
 30
0.0
 11
2592.965574530816
 21
-717.2949673694609
 31
0.0
1001
ACAD
1000
DSTYLE
1002
{
1070
    40
1040
1.3
1070
    45
1040
0.5
1002
}
  0
LINE
  5
1B8A2
330
18
100
AcDbEntity
  8
01
100
AcDbLine
 10
2510.465574530816
 20
-595.8949673694609
 30
0.0
 11
2510.465574530816
 21
-545.173475284773
 31
0.0
1001
ACAD
1000
DSTYLE
1002
{
1070
    40
1040
1.3
1070
    45
1040
0.5
1002
}
  0
LINE
  5
1B8A3
330
18
100
AcDbEntity
  8
01
100
AcDbLine
 10
2535.465574530816
 20
-595.8949673694609
 30
0.0
 11
2535.465574530816
 21
-545.173475284773
 31
0.0
1001
ACAD
1000
DSTYLE
1002
{
1070
    40
1040
1.3
1070
    45
1040
0.5
1002
}
  0
LINE
  5
1B8A4
330
18
100
AcDbEntity
  8
01
100
AcDbLine
 10
2513.065574530816
 20
-546.4734752847729
 30
0.0
 11
2532.865574530817
 21
-546.4734752847729
 31
0.0
1001
ACAD
1000
DSTYLE
1002
{
1070
    40
1040
1.3
1070
    45
1040
0.5
1002
}
  0
LINE
  5
1B8A8
330
18
100
AcDbEntity
  8
01
100
AcDbLine
 10
2630.96545819107
 20
-647.8949680675918
 30
0.0
 11
2630.96545819107
 21
-545.173475284773
 31
0.0
1001
ACAD
1000
DSTYLE
1002
{
1070
    40
1040
1.3
1070
    45
1040
0.5
1002
}
  0
LINE
  5
1B8A9
330
18
100
AcDbEntity
  8
01
100
AcDbLine
 10
2641.96545819107
 20
-589.8949673694609
 30
0.0
 11
2641.96545819107
 21
-545.173475284773
 31
0.0
1001
ACAD
1000
DSTYLE
1002
{
1070
    40
1040
1.3
1070
    45
1040
0.5
1002
}
  0
LINE
  5
1B8AA
330
18
100
AcDbEntity
  8
01
100
AcDbLine
 10
2633.56545819107
 20
-546.4734752847729
 30
0.0
 11
2639.36545819107
 21
-546.4734752847729
 31
0.0
1001
ACAD
1000
DSTYLE
1002
{
1070
    40
1040
1.3
1070
    45
1040
0.5
1002
}
  0
LINE
  5
1B8AE
330
18
100
AcDbEntity
  8
01
100
AcDbLine
 10
2710.96545819107
 20
-617.3949673694609
 30
0.0
 11
2739.26545819107
 21
-617.3949673694609
 31
0.0
1001
ACAD
1000
DSTYLE
1002
{
1070
    40
1040
1.3
1070
    45
1040
0.5
1002
}
  0
LINE
  5
1B8AF
330
18
100
AcDbEntity
  8
01
100
AcDbLine
 10
2710.96545819107
 20
-691.8949673694609
 30
0.0
 11
2739.26545819107
 21
-691.8949673694609
 31
0.0
1001
ACAD
1000
DSTYLE
1002
{
1070
    40
1040
1.3
1070
    45
1040
0.5
1002
}
  0
LINE
  5
1B8B0
330
18
100
AcDbEntity
  8
01
100
AcDbLine
 10
2737.96545819107
 20
-619.9949673694609
 30
0.0
 11
2737.96545819107
 21
-689.2949673694609
 31
0.0
1001
ACAD
1000
DSTYLE
1002
{
1070
    40
1040
1.3
1070
    45
1040
0.5
1002
}
  0
LINE
  5
1B8B4
330
18
100
AcDbEntity
  8
01
100
AcDbLine
 10
2710.96545819107
 20
-617.3949673694609
 30
0.0
 11
2710.96545819107
 21
-535.0936078167248
 31
0.0
1001
ACAD
1000
DSTYLE
1002
{
1070
    40
1040
1.3
1070
    45
1040
0.5
1002
}
  0
LINE
  5
1B8B5
330
18
100
AcDbEntity
  8
01
100
AcDbLine
 10
2641.96545819107
 20
-589.8949673694609
 30
0.0
 11
2641.96545819107
 21
-535.0936078167248
 31
0.0
1001
ACAD
1000
DSTYLE
1002
{
1070
    40
1040
1.3
1070
    45
1040
0.5
1002
}
  0
LINE
  5
1B8B6
330
18
100
AcDbEntity
  8
01
100
AcDbLine
 10
2708.36545819107
 20
-536.3936078167247
 30
0.0
 11
2644.56545819107
 21
-536.3936078167247
 31
0.0
1001
ACAD
1000
DSTYLE
1002
{
1070
    40
1040
1.3
1070
    45
1040
0.5
1002
}
  0
LINE
  5
1B8BA
330
18
100
AcDbEntity
  8
01
100
AcDbLine
 10
2641.96545819107
 20
-589.8949673694609
 30
0.0
 11
2641.96545819107
 21
-545.173475284773
 31
0.0
1001
ACAD
1000
DSTYLE
1002
{
1070
    40
1040
1.3
1070
    45
1040
0.5
1002
}
  0
LINE
  5
1B8BB
330
18
100
AcDbEntity
  8
01
100
AcDbLine
 10
2692.96545819107
 20
-645.8949673694614
 30
0.0
 11
2692.96545819107
 21
-545.173475284773
 31
0.0
1001
ACAD
1000
DSTYLE
1002
{
1070
    40
1040
1.3
1070
    45
1040
0.5
1002
}
  0
LINE
  5
1B8BC
330
18
100
AcDbEntity
  8
01
100
AcDbLine
 10
2644.56545819107
 20
-546.4734752847729
 30
0.0
 11
2690.36545819107
 21
-546.4734752847729
 31
0.0
1001
ACAD
1000
DSTYLE
1002
{
1070
    40
1040
1.3
1070
    45
1040
0.5
1002
}
  0
LINE
  5
1B8C0
330
18
100
AcDbEntity
  8
01
100
AcDbLine
 10
2489.764612636493
 20
-675.1449673694609
 30
0.0
 11
2488.465574530816
 21
-674.3949673694609
 31
0.0
  0
LINE
  5
1B8C1
330
18
100
AcDbEntity
  8
01
100
AcDbLine
 10
2488.465574530816
 20
-674.3949673694609
 30
0.0
 11
2487.166536425139
 21
-675.1449673694609
 31
0.0
  0
LINE
  5
1B8C2
330
18
100
AcDbEntity
  8
01
100
AcDbLine
 10
2487.166536425139
 20
-675.1449673694609
 30
0.0
 11
2487.166536425139
 21
-676.6449673694609
 31
0.0
  0
LINE
  5
1B8C3
330
18
100
AcDbEntity
  8
01
100
AcDbLine
 10
2487.166536425139
 20
-676.6449673694609
 30
0.0
 11
2488.465574530816
 21
-677.3949673694609
 31
0.0
  0
LINE
  5
1B8C4
330
18
100
AcDbEntity
  8
01
100
AcDbLine
 10
2488.465574530816
 20
-677.3949673694609
 30
0.0
 11
2489.764612636493
 21
-676.6449673694609
 31
0.0
  0
LINE
  5
1B8C5
330
18
100
AcDbEntity
  8
01
100
AcDbLine
 10
2489.764612636493
 20
-676.6449673694609
 30
0.0
 11
2489.764612636493
 21
-675.1449673694609
 31
0.0
  0
CIRCLE
  5
1B8C6
330
18
100
AcDbEntity
  8
01
100
AcDbCircle
 10
2557.46545819107
 20
-675.8936490563577
 30
0.0
 40
3.0
  0
LINE
  5
1B8C7
330
18
100
AcDbEntity
  8
01
100
AcDbLine
 10
2666.965458191074
 20
-649.3936490563595
 30
0.0
 11
2656.66545819107
 21
-649.3936490563595
 31
0.0
1001
ACAD
1000
DSTYLE
1002
{
1070
     3
1000
□<>
1070
    40
1040
1.3
1070
    45
1040
0.5
1002
}
  0
LINE
  5
1B8C8
330
18
100
AcDbEntity
  8
01
100
AcDbLine
 10
2666.965458191074
 20
-702.3936490563595
 30
0.0
 11
2656.66545819107
 21
-702.3936490563595
 31
0.0
1001
ACAD
1000
DSTYLE
1002
{
1070
     3
1000
□<>
1070
    40
1040
1.3
1070
    45
1040
0.5
1002
}
  0
LINE
  5
1B8C9
330
18
100
AcDbEntity
  8
01
100
AcDbLine
 10
2657.96545819107
 20
-651.9936490563596
 30
0.0
 11
2657.96545819107
 21
-699.7936490563595
 31
0.0
1001
ACAD
1000
DSTYLE
1002
{
1070
     3
1000
□<>
1070
    40
1040
1.3
1070
    45
1040
0.5
1002
}
  0
LINE
  5
1B8CD
330
18
100
AcDbEntity
  8
01
100
AcDbLine
 10
2811.518116936401
 20
-680.3508847122295
 30
0.0
 11
2811.514758818278
 21
-680.3530881345804
 31
0.0
  0
LINE
  5
1B8CE
330
18
100
AcDbEntity
  8
01
100
AcDbLine
 10
2811.514758818278
 20
-680.3530881345804
 30
0.0
 11
2811.513993808577
 21
-680.3494503997675
 31
0.0
  0
LINE
  5
1B8CF
330
18
100
AcDbEntity
  8
01
100
AcDbLine
 10
2234.413032125231
 20
-680.3508847122295
 30
0.0
 11
2234.416390243355
 21
-680.3530881345804
 31
0.0
  0
LINE
  5
1B8D0
330
18
100
AcDbEntity
  8
01
100
AcDbLine
 10
2234.416390243355
 20
-680.3530881345804
 30
0.0
 11
2234.417155253056
 21
-680.3494503997675
 31
0.0
  0
LINE
  5
1B8D1
330
18
100
AcDbEntity
  8
01
100
AcDbLine
 10
2332.9655858859
 20
-600.8949673694605
 30
0.0
 11
2332.9655858859
 21
-591.5949673694605
 31
0.0
1001
ACAD
1000
DSTYLE
1002
{
1070
     3
1000
□<>
1070
    40
1040
1.3
1070
    45
1040
0.5
1070
   271
1070
     1
1070
   272
1070
     2
1002
}
  0
LINE
  5
1B8D2
330
18
100
AcDbEntity
  8
01
100
AcDbLine
 10
2372.9655858859
 20
-600.8949673694609
 30
0.0
 11
2372.9655858859
 21
-591.5949673694605
 31
0.0
1001
ACAD
1000
DSTYLE
1002
{
1070
     3
1000
□<>
1070
    40
1040
1.3
1070
    45
1040
0.5
1070
   271
1070
     1
1070
   272
1070
     2
1002
}
  0
LINE
  5
1B8D3
330
18
100
AcDbEntity
  8
01
100
AcDbLine
 10
2335.5655858859
 20
-592.8949673694605
 30
0.0
 11
2370.3655858859
 21
-592.8949673694605
 31
0.0
1001
ACAD
1000
DSTYLE
1002
{
1070
     3
1000
□<>
1070
    40
1040
1.3
1070
    45
1040
0.5
1070
   271
1070
     1
1070
   272
1070
     2
1002
}
  0
LINE
  5
1B8D7
330
18
100
AcDbEntity
  8
01
100
AcDbLine
 10
2502.965574530821
 20
-600.3949673697354
 30
0.0
 11
2502.965574530821
 21
-568.5949673697354
 31
0.0
1001
ACAD
1000
DSTYLE
1002
{
1070
    40
1040
1.3
1070
    45
1040
0.5
1070
   341
1005
0
1002
}
  0
LINE
  5
1B8D8
330
18
100
AcDbEntity
  8
01
100
AcDbLine
 10
2480.965549719809
 20
-617.2744975449592
 30
0.0
 11
2480.965549719809
 21
-568.5949673697354
 31
0.0
1001
ACAD
1000
DSTYLE
1002
{
1070
    40
1040
1.3
1070
    45
1040
0.5
1070
   341
1005
0
1002
}
  0
LINE
  5
1B8D9
330
18
100
AcDbEntity
  8
01
100
AcDbLine
 10
2500.365574530821
 20
-569.8949673697354
 30
0.0
 11
2483.565549719809
 21
-569.8949673697354
 31
0.0
1001
ACAD
1000
DSTYLE
1002
{
1070
    40
1040
1.3
1070
    45
1040
0.5
1070
   341
1005
0
1002
}
  0
LINE
  5
1B8DD
330
18
100
AcDbEntity
  8
01
  6
BYBLOCK
100
AcDbLine
 10
2545.565574530816
 20
-570.5916352634605
 30
0.0
 11
2542.965574530816
 21
-569.8949673694605
 31
0.0
  0
LINE
  5
1B8DE
330
18
100
AcDbEntity
  8
01
  6
BYBLOCK
100
AcDbLine
 10
2542.965574530816
 20
-569.8949673694605
 30
0.0
 11
2545.565574530816
 21
-569.1982994754604
 31
0.0
  0
LINE
  5
1B8DF
330
18
100
AcDbEntity
  8
01
  6
BYBLOCK
100
AcDbLine
 10
2542.965574530816
 20
-569.8949673694605
 30
0.0
 11
2545.565574530816
 21
-569.8949673694605
 31
0.0
  0
LINE
  5
1B8E0
330
18
100
AcDbEntity
  8
01
  6
BYBLOCK
100
AcDbLine
 10
2548.534158219781
 20
-569.1982994754604
 30
0.0
 11
2551.134158219781
 21
-569.8949673694605
 31
0.0
  0
LINE
  5
1B8E1
330
18
100
AcDbEntity
  8
01
  6
BYBLOCK
100
AcDbLine
 10
2551.134158219781
 20
-569.8949673694605
 30
0.0
 11
2548.534158219781
 21
-570.5916352634605
 31
0.0
  0
LINE
  5
1B8E2
330
18
100
AcDbEntity
  8
01
  6
BYBLOCK
100
AcDbLine
 10
2551.134158219781
 20
-569.8949673694605
 30
0.0
 11
2548.534158219781
 21
-569.8949673694605
 31
0.0
  0
TEXT
  5
1B8E3
330
18
100
AcDbEntity
  8
01
  6
CONTINUOUS
100
AcDbText
 10
2545.533199708632
 20
-568.9849673694605
 30
0.0
 40
4.55
  1
8
100
AcDbText
1001
ACAD
1000
DSTYLE
1002
{
1070
    40
1040
1.3
1070
    45
1040
0.5
1070
   271
1070
     1
1070
   341
1005
0
1002
}
  0
LINE
  5
1B8E4
330
18
100
AcDbEntity
  8
01
  6
BYBLOCK
100
AcDbLine
 10
2675.565465868613
 20
-593.5916352634605
 30
0.0
 11
2672.965465868613
 21
-592.8949673694605
 31
0.0
  0
LINE
  5
1B8E5
330
18
100
AcDbEntity
  8
01
  6
BYBLOCK
100
AcDbLine
 10
2672.965465868613
 20
-592.8949673694605
 30
0.0
 11
2675.565465868613
 21
-592.1982994754604
 31
0.0
  0
LINE
  5
1B8E6
330
18
100
AcDbEntity
  8
01
  6
BYBLOCK
100
AcDbLine
 10
2672.965465868613
 20
-592.8949673694605
 30
0.0
 11
2675.565465868613
 21
-592.8949673694605
 31
0.0
  0
LINE
  5
1B8E7
330
18
100
AcDbEntity
  8
01
  6
BYBLOCK
100
AcDbLine
 10
2710.365465868613
 20
-592.1982994754604
 30
0.0
 11
2712.965465868613
 21
-592.8949673694605
 31
0.0
  0
LINE
  5
1B8E8
330
18
100
AcDbEntity
  8
01
  6
BYBLOCK
100
AcDbLine
 10
2712.965465868613
 20
-592.8949673694605
 30
0.0
 11
2710.365465868613
 21
-593.5916352634605
 31
0.0
  0
LINE
  5
1B8E9
330
18
100
AcDbEntity
  8
01
  6
BYBLOCK
100
AcDbLine
 10
2712.965465868613
 20
-592.8949673694605
 30
0.0
 11
2710.365465868613
 21
-592.8949673694605
 31
0.0
  0
TEXT
  5
1B8EA
330
18
100
AcDbEntity
  8
01
  6
CONTINUOUS
100
AcDbText
 10
2676.063623568031
 20
-591.9849673694605
 30
0.0
 40
4.55
  1
□40
100
AcDbText
1001
ACAD
1000
DSTYLE
1002
{
1070
     3
1000
□<>
1070
    40
1040
1.3
1070
    45
1040
0.5
1070
   271
1070
     1
1070
   272
1070
     2
1002
}
  0
LINE
  5
1B8EB
330
18
100
AcDbEntity
  8
01
  6
BYBLOCK
100
AcDbLine
 10
2335.5655858859
 20
-593.5916352634605
 30
0.0
 11
2332.9655858859
 21
-592.8949673694605
 31
0.0
  0
LINE
  5
1B8EC
330
18
100
AcDbEntity
  8
01
  6
BYBLOCK
100
AcDbLine
 10
2332.9655858859
 20
-592.8949673694605
 30
0.0
 11
2335.5655858859
 21
-592.1982994754604
 31
0.0
  0
LINE
  5
1B8ED
330
18
100
AcDbEntity
  8
01
  6
BYBLOCK
100
AcDbLine
 10
2332.9655858859
 20
-592.8949673694605
 30
0.0
 11
2335.5655858859
 21
-592.8949673694605
 31
0.0
  0
LINE
  5
1B8EE
330
18
100
AcDbEntity
  8
01
  6
BYBLOCK
100
AcDbLine
 10
2370.3655858859
 20
-592.1982994754604
 30
0.0
 11
2372.9655858859
 21
-592.8949673694605
 31
0.0
  0
LINE
  5
1B8EF
330
18
100
AcDbEntity
  8
01
  6
BYBLOCK
100
AcDbLine
 10
2372.9655858859
 20
-592.8949673694605
 30
0.0
 11
2370.3655858859
 21
-593.5916352634605
 31
0.0
  0
LINE
  5
1B8F0
330
18
100
AcDbEntity
  8
01
  6
BYBLOCK
100
AcDbLine
 10
2372.9655858859
 20
-592.8949673694605
 30
0.0
 11
2370.3655858859
 21
-592.8949673694605
 31
0.0
  0
TEXT
  5
1B8F1
330
18
100
AcDbEntity
  8
01
  6
CONTINUOUS
100
AcDbText
 10
2346.576627552566
 20
-591.9849673694605
 30
0.0
 40
4.55
  1
□40
100
AcDbText
1001
ACAD
1000
DSTYLE
1002
{
1070
     3
1000
□<>
1070
    40
1040
1.3
1070
    45
1040
0.5
1070
   271
1070
     1
1070
   272
1070
     2
1002
}
  0
LINE
  5
1B8F2
330
18
100
AcDbEntity
  8
01
  6
BYBLOCK
100
AcDbLine
 10
2732.130065238844
 20
-398.9949673704896
 30
0.0
 11
2732.826733132843
 21
-396.3949673704896
 31
0.0
  0
LINE
  5
1B8F3
330
18
100
AcDbEntity
  8
01
  6
BYBLOCK
100
AcDbLine
 10
2732.826733132843
 20
-396.3949673704896
 30
0.0
 11
2733.523401026843
 21
-398.9949673704896
 31
0.0
  0
LINE
  5
1B8F4
330
18
100
AcDbEntity
  8
01
  6
BYBLOCK
100
AcDbLine
 10
2732.826733132843
 20
-396.3949673704896
 30
0.0
 11
2732.826733132843
 21
-398.9949673704896
 31
0.0
  0
LINE
  5
1B8F5
330
18
100
AcDbEntity
  8
01
  6
BYBLOCK
100
AcDbLine
 10
2733.523401026843
 20
-412.5949673704897
 30
0.0
 11
2732.826733132843
 21
-415.1949673704897
 31
0.0
  0
LINE
  5
1B8F6
330
18
100
AcDbEntity
  8
01
  6
BYBLOCK
100
AcDbLine
 10
2732.826733132843
 20
-415.1949673704897
 30
0.0
 11
2732.130065238844
 21
-412.5949673704897
 31
0.0
  0
LINE
  5
1B8F7
330
18
100
AcDbEntity
  8
01
  6
BYBLOCK
100
AcDbLine
 10
2732.826733132843
 20
-415.1949673704897
 30
0.0
 11
2732.826733132843
 21
-412.5949673704897
 31
0.0
  0
TEXT
  5
1B8F8
330
18
100
AcDbEntity
  8
01
  6
CONTINUOUS
100
AcDbText
 10
2731.916733132844
 20
-408.8293539445635
 30
0.0
 40
4.55
  1
19
 50
90.0
100
AcDbText
1001
ACAD
1000
DSTYLE
1002
{
1070
    40
1040
1.3
1070
    45
1040
0.5
1070
    79
1070
     2
1070
   179
1070
     2
1070
   272
1070
     2
1070
   341
1005
0
1002
}
  0
LINE
  5
1B8F9
330
18
100
AcDbEntity
  8
01
  6
BYBLOCK
100
AcDbLine
 10
2576.772497673372
 20
-600.4949673694609
 30
0.0
 11
2577.469165567371
 21
-597.8949673694609
 31
0.0
  0
LINE
  5
1B8FA
330
18
100
AcDbEntity
  8
01
  6
BYBLOCK
100
AcDbLine
 10
2577.469165567371
 20
-597.8949673694609
 30
0.0
 11
2578.165833461371
 21
-600.4949673694609
 31
0.0
  0
LINE
  5
1B8FB
330
18
100
AcDbEntity
  8
01
  6
BYBLOCK
100
AcDbLine
 10
2577.469165567371
 20
-597.8949673694609
 30
0.0
 11
2577.469165567371
 21
-600.4949673694609
 31
0.0
  0
LINE
  5
1B8FC
330
18
100
AcDbEntity
  8
01
  6
BYBLOCK
100
AcDbLine
 10
2578.165833461371
 20
-709.2949673694609
 30
0.0
 11
2577.469165567371
 21
-711.8949673694609
 31
0.0
  0
LINE
  5
1B8FD
330
18
100
AcDbEntity
  8
01
  6
BYBLOCK
100
AcDbLine
 10
2577.469165567371
 20
-711.8949673694609
 30
0.0
 11
2576.772497673372
 21
-709.2949673694609
 31
0.0
  0
LINE
  5
1B8FE
330
18
100
AcDbEntity
  8
01
  6
BYBLOCK
100
AcDbLine
 10
2577.469165567371
 20
-711.8949673694609
 30
0.0
 11
2577.469165567371
 21
-709.2949673694609
 31
0.0
  0
TEXT
  5
1B8FF
330
18
100
AcDbEntity
  8
01
  6
CONTINUOUS
100
AcDbText
 10
2576.559165567372
 20
-630.3119450215399
 30
0.0
 40
4.55
  1
114
 50
90.0
100
AcDbText
1001
ACAD
1000
DSTYLE
1002
{
1070
    40
1040
1.3
1070
    45
1040
0.5
1002
}
  0
LINE
  5
1B900
330
18
100
AcDbEntity
  8
01
  6
BYBLOCK
100
AcDbLine
 10
2592.268906636817
 20
-592.4949673694609
 30
0.0
 11
2592.965574530816
 21
-589.8949673694609
 31
0.0
  0
LINE
  5
1B901
330
18
100
AcDbEntity
  8
01
  6
BYBLOCK
100
AcDbLine
 10
2592.965574530816
 20
-589.8949673694609
 30
0.0
 11
2593.662242424816
 21
-592.4949673694609
 31
0.0
  0
LINE
  5
1B902
330
18
100
AcDbEntity
  8
01
  6
BYBLOCK
100
AcDbLine
 10
2592.965574530816
 20
-589.8949673694609
 30
0.0
 11
2592.965574530816
 21
-592.4949673694609
 31
0.0
  0
LINE
  5
1B903
330
18
100
AcDbEntity
  8
01
  6
BYBLOCK
100
AcDbLine
 10
2593.662242424816
 20
-717.2949673694609
 30
0.0
 11
2592.965574530816
 21
-719.8949673694609
 31
0.0
  0
LINE
  5
1B904
330
18
100
AcDbEntity
  8
01
  6
BYBLOCK
100
AcDbLine
 10
2592.965574530816
 20
-719.8949673694609
 30
0.0
 11
2592.268906636817
 21
-717.2949673694609
 31
0.0
  0
LINE
  5
1B905
330
18
100
AcDbEntity
  8
01
  6
BYBLOCK
100
AcDbLine
 10
2592.965574530816
 20
-719.8949673694609
 30
0.0
 11
2592.965574530816
 21
-717.2949673694609
 31
0.0
  0
TEXT
  5
1B906
330
18
100
AcDbEntity
  8
01
  6
CONTINUOUS
100
AcDbText
 10
2592.055574530817
 20
-631.0965090243476
 30
0.0
 40
4.55
  1
130
 50
90.0
100
AcDbText
1001
ACAD
1000
DSTYLE
1002
{
1070
    40
1040
1.3
1070
    45
1040
0.5
1002
}
  0
LINE
  5
1B907
330
18
100
AcDbEntity
  8
01
  6
BYBLOCK
100
AcDbLine
 10
2513.065574530816
 20
-547.170143178773
 30
0.0
 11
2510.465574530816
 21
-546.4734752847729
 31
0.0
  0
LINE
  5
1B908
330
18
100
AcDbEntity
  8
01
  6
BYBLOCK
100
AcDbLine
 10
2510.465574530816
 20
-546.4734752847729
 30
0.0
 11
2513.065574530816
 21
-545.7768073907729
 31
0.0
  0
LINE
  5
1B909
330
18
100
AcDbEntity
  8
01
  6
BYBLOCK
100
AcDbLine
 10
2510.465574530816
 20
-546.4734752847729
 30
0.0
 11
2513.065574530816
 21
-546.4734752847729
 31
0.0
  0
LINE
  5
1B90A
330
18
100
AcDbEntity
  8
01
  6
BYBLOCK
100
AcDbLine
 10
2532.865574530817
 20
-545.7768073907729
 30
0.0
 11
2535.465574530816
 21
-546.4734752847729
 31
0.0
  0
LINE
  5
1B90B
330
18
100
AcDbEntity
  8
01
  6
BYBLOCK
100
AcDbLine
 10
2535.465574530816
 20
-546.4734752847729
 30
0.0
 11
2532.865574530817
 21
-547.170143178773
 31
0.0
  0
LINE
  5
1B90C
330
18
100
AcDbEntity
  8
01
  6
BYBLOCK
100
AcDbLine
 10
2535.465574530816
 20
-546.4734752847729
 30
0.0
 11
2532.865574530817
 21
-546.4734752847729
 31
0.0
  0
TEXT
  5
1B90D
330
18
100
AcDbEntity
  8
01
  6
CONTINUOUS
100
AcDbText
 10
2519.17390786415
 20
-545.563475284773
 30
0.0
 40
4.55
  1
25
100
AcDbText
1001
ACAD
1000
DSTYLE
1002
{
1070
    40
1040
1.3
1070
    45
1040
0.5
1002
}
  0
LINE
  5
1B90E
330
18
100
AcDbEntity
  8
01
  6
BYBLOCK
100
AcDbLine
 10
2633.56545819107
 20
-547.170143178773
 30
0.0
 11
2630.96545819107
 21
-546.4734752847729
 31
0.0
  0
LINE
  5
1B90F
330
18
100
AcDbEntity
  8
01
  6
BYBLOCK
100
AcDbLine
 10
2630.96545819107
 20
-546.4734752847729
 30
0.0
 11
2633.56545819107
 21
-545.7768073907729
 31
0.0
  0
LINE
  5
1B910
330
18
100
AcDbEntity
  8
01
  6
BYBLOCK
100
AcDbLine
 10
2630.96545819107
 20
-546.4734752847729
 30
0.0
 11
2633.56545819107
 21
-546.4734752847729
 31
0.0
  0
LINE
  5
1B911
330
18
100
AcDbEntity
  8
01
  6
BYBLOCK
100
AcDbLine
 10
2639.36545819107
 20
-545.7768073907729
 30
0.0
 11
2641.96545819107
 21
-546.4734752847729
 31
0.0
  0
LINE
  5
1B912
330
18
100
AcDbEntity
  8
01
  6
BYBLOCK
100
AcDbLine
 10
2641.96545819107
 20
-546.4734752847729
 30
0.0
 11
2639.36545819107
 21
-547.170143178773
 31
0.0
  0
LINE
  5
1B913
330
18
100
AcDbEntity
  8
01
  6
BYBLOCK
100
AcDbLine
 10
2641.96545819107
 20
-546.4734752847729
 30
0.0
 11
2639.36545819107
 21
-546.4734752847729
 31
0.0
  0
TEXT
  5
1B914
330
18
100
AcDbEntity
  8
01
  6
CONTINUOUS
100
AcDbText
 10
2634.19045819107
 20
-545.563475284773
 30
0.0
 40
4.55
  1
11
100
AcDbText
1001
ACAD
1000
DSTYLE
1002
{
1070
    40
1040
1.3
1070
    45
1040
0.5
1002
}
  0
LINE
  5
1B915
330
18
100
AcDbEntity
  8
01
  6
BYBLOCK
100
AcDbLine
 10
2737.26879029707
 20
-619.9949673694609
 30
0.0
 11
2737.96545819107
 21
-617.3949673694609
 31
0.0
  0
LINE
  5
1B916
330
18
100
AcDbEntity
  8
01
  6
BYBLOCK
100
AcDbLine
 10
2737.96545819107
 20
-617.3949673694609
 30
0.0
 11
2738.66212608507
 21
-619.9949673694609
 31
0.0
  0
LINE
  5
1B917
330
18
100
AcDbEntity
  8
01
  6
BYBLOCK
100
AcDbLine
 10
2737.96545819107
 20
-617.3949673694609
 30
0.0
 11
2737.96545819107
 21
-619.9949673694609
 31
0.0
  0
LINE
  5
1B918
330
18
100
AcDbEntity
  8
01
  6
BYBLOCK
100
AcDbLine
 10
2738.66212608507
 20
-689.2949673694609
 30
0.0
 11
2737.96545819107
 21
-691.8949673694609
 31
0.0
  0
LINE
  5
1B919
330
18
100
AcDbEntity
  8
01
  6
BYBLOCK
100
AcDbLine
 10
2737.96545819107
 20
-691.8949673694609
 30
0.0
 11
2737.26879029707
 21
-689.2949673694609
 31
0.0
  0
LINE
  5
1B91A
330
18
100
AcDbEntity
  8
01
  6
BYBLOCK
100
AcDbLine
 10
2737.96545819107
 20
-691.8949673694609
 30
0.0
 11
2737.96545819107
 21
-689.2949673694609
 31
0.0
  0
TEXT
  5
1B91B
330
18
100
AcDbEntity
  8
01
  6
CONTINUOUS
100
AcDbText
 10
2737.05545819107
 20
-639.9569566167752
 30
0.0
 40
4.55
  1
74.5
 50
90.0
100
AcDbText
1001
ACAD
1000
DSTYLE
1002
{
1070
    40
1040
1.3
1070
    45
1040
0.5
1002
}
  0
LINE
  5
1B91C
330
18
100
AcDbEntity
  8
01
  6
BYBLOCK
100
AcDbLine
 10
2708.36545819107
 20
-535.6969399227247
 30
0.0
 11
2710.96545819107
 21
-536.3936078167247
 31
0.0
  0
LINE
  5
1B91D
330
18
100
AcDbEntity
  8
01
  6
BYBLOCK
100
AcDbLine
 10
2710.96545819107
 20
-536.3936078167247
 30
0.0
 11
2708.36545819107
 21
-537.0902757107248
 31
0.0
  0
LINE
  5
1B91E
330
18
100
AcDbEntity
  8
01
  6
BYBLOCK
100
AcDbLine
 10
2710.96545819107
 20
-536.3936078167247
 30
0.0
 11
2708.36545819107
 21
-536.3936078167247
 31
0.0
  0
LINE
  5
1B91F
330
18
100
AcDbEntity
  8
01
  6
BYBLOCK
100
AcDbLine
 10
2644.56545819107
 20
-537.0902757107248
 30
0.0
 11
2641.96545819107
 21
-536.3936078167247
 31
0.0
  0
LINE
  5
1B920
330
18
100
AcDbEntity
  8
01
  6
BYBLOCK
100
AcDbLine
 10
2641.96545819107
 20
-536.3936078167247
 30
0.0
 11
2644.56545819107
 21
-535.6969399227247
 31
0.0
  0
LINE
  5
1B921
330
18
100
AcDbEntity
  8
01
  6
BYBLOCK
100
AcDbLine
 10
2641.96545819107
 20
-536.3936078167247
 30
0.0
 11
2644.56545819107
 21
-536.3936078167247
 31
0.0
  0
TEXT
  5
1B922
330
18
100
AcDbEntity
  8
01
  6
CONTINUOUS
100
AcDbText
 10
2672.656939672551
 20
-535.4836078167248
 30
0.0
 40
4.55
  1
69
100
AcDbText
1001
ACAD
1000
DSTYLE
1002
{
1070
    40
1040
1.3
1070
    45
1040
0.5
1002
}
  0
LINE
  5
1B923
330
18
100
AcDbEntity
  8
01
  6
BYBLOCK
100
AcDbLine
 10
2644.56545819107
 20
-547.170143178773
 30
0.0
 11
2641.96545819107
 21
-546.4734752847729
 31
0.0
  0
LINE
  5
1B924
330
18
100
AcDbEntity
  8
01
  6
BYBLOCK
100
AcDbLine
 10
2641.96545819107
 20
-546.4734752847729
 30
0.0
 11
2644.56545819107
 21
-545.7768073907729
 31
0.0
  0
LINE
  5
1B925
330
18
100
AcDbEntity
  8
01
  6
BYBLOCK
100
AcDbLine
 10
2641.96545819107
 20
-546.4734752847729
 30
0.0
 11
2644.56545819107
 21
-546.4734752847729
 31
0.0
  0
LINE
  5
1B926
330
18
100
AcDbEntity
  8
01
  6
BYBLOCK
100
AcDbLine
 10
2690.36545819107
 20
-545.7768073907729
 30
0.0
 11
2692.96545819107
 21
-546.4734752847729
 31
0.0
  0
LINE
  5
1B927
330
18
100
AcDbEntity
  8
01
  6
BYBLOCK
100
AcDbLine
 10
2692.96545819107
 20
-546.4734752847729
 30
0.0
 11
2690.36545819107
 21
-547.170143178773
 31
0.0
  0
LINE
  5
1B928
330
18
100
AcDbEntity
  8
01
  6
BYBLOCK
100
AcDbLine
 10
2692.96545819107
 20
-546.4734752847729
 30
0.0
 11
2690.36545819107
 21
-546.4734752847729
 31
0.0
  0
TEXT
  5
1B929
330
18
100
AcDbEntity
  8
01
  6
CONTINUOUS
100
AcDbText
 10
2664.416326246625
 20
-545.563475284773
 30
0.0
 40
4.55
  1
51
100
AcDbText
1001
ACAD
1000
DSTYLE
1002
{
1070
    40
1040
1.3
1070
    45
1040
0.5
1002
}
  0
LINE
  5
1B92A
330
18
100
AcDbEntity
  8
01
  6
BYBLOCK
100
AcDbLine
 10
2657.26879029707
 20
-651.9936490563596
 30
0.0
 11
2657.96545819107
 21
-649.3936490563595
 31
0.0
  0
LINE
  5
1B92B
330
18
100
AcDbEntity
  8
01
  6
BYBLOCK
100
AcDbLine
 10
2657.96545819107
 20
-649.3936490563595
 30
0.0
 11
2658.66212608507
 21
-651.9936490563596
 31
0.0
  0
LINE
  5
1B92C
330
18
100
AcDbEntity
  8
01
  6
BYBLOCK
100
AcDbLine
 10
2657.96545819107
 20
-649.3936490563595
 30
0.0
 11
2657.96545819107
 21
-651.9936490563596
 31
0.0
  0
LINE
  5
1B92D
330
18
100
AcDbEntity
  8
01
  6
BYBLOCK
100
AcDbLine
 10
2658.66212608507
 20
-699.7936490563595
 30
0.0
 11
2657.96545819107
 21
-702.3936490563595
 31
0.0
  0
LINE
  5
1B92E
330
18
100
AcDbEntity
  8
01
  6
BYBLOCK
100
AcDbLine
 10
2657.96545819107
 20
-702.3936490563595
 30
0.0
 11
2657.26879029707
 21
-699.7936490563595
 31
0.0
  0
LINE
  5
1B92F
330
18
100
AcDbEntity
  8
01
  6
BYBLOCK
100
AcDbLine
 10
2657.96545819107
 20
-702.3936490563595
 30
0.0
 11
2657.96545819107
 21
-699.7936490563595
 31
0.0
  0
TEXT
  5
1B930
330
18
100
AcDbEntity
  8
01
  6
CONTINUOUS
100
AcDbText
 10
2657.05545819107
 20
-683.9225269629569
 30
0.0
 40
4.55
  1
□53
 50
90.0
100
AcDbText
1001
ACAD
1000
DSTYLE
1002
{
1070
     3
1000
□<>
1070
    40
1040
1.3
1070
    45
1040
0.5
1002
}
  0
LINE
  5
1B931
330
18
100
AcDbEntity
  8
01
  6
BYBLOCK
100
AcDbLine
 10
2335.5655858859
 20
-593.5916352634605
 30
0.0
 11
2332.9655858859
 21
-592.8949673694605
 31
0.0
  0
LINE
  5
1B932
330
18
100
AcDbEntity
  8
01
  6
BYBLOCK
100
AcDbLine
 10
2332.9655858859
 20
-592.8949673694605
 30
0.0
 11
2335.5655858859
 21
-592.1982994754604
 31
0.0
  0
LINE
  5
1B933
330
18
100
AcDbEntity
  8
01
  6
BYBLOCK
100
AcDbLine
 10
2332.9655858859
 20
-592.8949673694605
 30
0.0
 11
2335.5655858859
 21
-592.8949673694605
 31
0.0
  0
LINE
  5
1B934
330
18
100
AcDbEntity
  8
01
  6
BYBLOCK
100
AcDbLine
 10
2370.3655858859
 20
-592.1982994754604
 30
0.0
 11
2372.9655858859
 21
-592.8949673694605
 31
0.0
  0
LINE
  5
1B935
330
18
100
AcDbEntity
  8
01
  6
BYBLOCK
100
AcDbLine
 10
2372.9655858859
 20
-592.8949673694605
 30
0.0
 11
2370.3655858859
 21
-593.5916352634605
 31
0.0
  0
LINE
  5
1B936
330
18
100
AcDbEntity
  8
01
  6
BYBLOCK
100
AcDbLine
 10
2372.9655858859
 20
-592.8949673694605
 30
0.0
 11
2370.3655858859
 21
-592.8949673694605
 31
0.0
  0
TEXT
  5
1B937
330
18
100
AcDbEntity
  8
01
  6
CONTINUOUS
100
AcDbText
 10
2346.576627552566
 20
-591.9849673694605
 30
0.0
 40
4.55
  1
□40
100
AcDbText
1001
ACAD
1000
DSTYLE
1002
{
1070
     3
1000
□<>
1070
    40
1040
1.3
1070
    45
1040
0.5
1070
   271
1070
     1
1070
   272
1070
     2
1002
}
  0
LINE
  5
1B938
330
18
100
AcDbEntity
  8
01
  6
BYBLOCK
100
AcDbLine
 10
2500.365574530821
 20
-569.1982994757353
 30
0.0
 11
2502.965574530821
 21
-569.8949673697354
 31
0.0
  0
LINE
  5
1B939
330
18
100
AcDbEntity
  8
01
  6
BYBLOCK
100
AcDbLine
 10
2502.965574530821
 20
-569.8949673697354
 30
0.0
 11
2500.365574530821
 21
-570.5916352637354
 31
0.0
  0
LINE
  5
1B93A
330
18
100
AcDbEntity
  8
01
  6
BYBLOCK
100
AcDbLine
 10
2502.965574530821
 20
-569.8949673697354
 30
0.0
 11
2500.365574530821
 21
-569.8949673697354
 31
0.0
  0
LINE
  5
1B93B
330
18
100
AcDbEntity
  8
01
  6
BYBLOCK
100
AcDbLine
 10
2483.565549719809
 20
-570.5916352637354
 30
0.0
 11
2480.965549719809
 21
-569.8949673697354
 31
0.0
  0
LINE
  5
1B93C
330
18
100
AcDbEntity
  8
01
  6
BYBLOCK
100
AcDbLine
 10
2480.965549719809
 20
-569.8949673697354
 30
0.0
 11
2483.565549719809
 21
-569.1982994757353
 31
0.0
  0
LINE
  5
1B93D
330
18
100
AcDbEntity
  8
01
  6
BYBLOCK
100
AcDbLine
 10
2480.965549719809
 20
-569.8949673697354
 30
0.0
 11
2483.565549719809
 21
-569.8949673697354
 31
0.0
  0
TEXT
  5
1B93E
330
18
100
AcDbEntity
  8
01
  6
CONTINUOUS
100
AcDbText
 10
2488.173895458648
 20
-568.9849673697354
 30
0.0
 40
4.55
  1
22
100
AcDbText
1001
ACAD
1000
DSTYLE
1002
{
1070
    40
1040
1.3
1070
    45
1040
0.5
1070
   341
1005
0
1002
}
  0
LINE
  5
1B93F
330
18
100
AcDbEntity
  8
1DIM
100
AcDbLine
 10
2322.965578530814
 20
-675.8949673694607
 30
0.0
 11
2307.971726128526
 21
-675.8949673694607
 31
0.0
1001
ACAD
1000
DSTYLE
1002
{
1070
    40
1040
1.3
1070
    45
1040
0.5
1070
   341
1005
0
1002
}
  0
LINE
  5
1B940
330
18
100
AcDbEntity
  8
1DIM
100
AcDbLine
 10
2330.465570530815
 20
-620.3949673694605
 30
0.0
 11
2307.971726128526
 21
-620.3949673694605
 31
0.0
1001
ACAD
1000
DSTYLE
1002
{
1070
    40
1040
1.3
1070
    45
1040
0.5
1070
   341
1005
0
1002
}
  0
LINE
  5
1B941
330
18
100
AcDbEntity
  8
1DIM
100
AcDbLine
 10
2309.271726128526
 20
-673.2949673694607
 30
0.0
 11
2309.271726128526
 21
-622.9949673694605
 31
0.0
1001
ACAD
1000
DSTYLE
1002
{
1070
    40
1040
1.3
1070
    45
1040
0.5
1070
   341
1005
0
1002
}
  0
SOLID
  5
1B945
330
18
100
AcDbEntity
  8
1DIM
100
AcDbTrace
 10
2690.335307545816
 20
-451.9457244244048
 30
0.0
 11
2692.706059431131
 21
-450.7936335963644
 31
0.0
 12
2690.837107375738
 22
-452.652341747856
 32
0.0
 13
2690.837107375738
 23
-452.652341747856
 33
0.0
1001
ACAD
1000
DSTYLE
1002
{
1070
    40
1040
1.3
1070
    45
1040
0.5
1002
}
  0
LINE
  5
1B946
330
18
100
AcDbEntity
  8
1DIM
100
AcDbLine
 10
2690.586207460777
 20
-452.2990330861304
 30
0.0
 11
2663.118619284088
 21
-471.8049673704896
 31
0.0
1001
ACAD
1000
DSTYLE
1002
{
1070
    40
1040
1.3
1070
    45
1040
0.5
1002
}
  0
LINE
  5
1B947
330
18
100
AcDbEntity
  8
1DIM
100
AcDbLine
 10
2692.965574530813
 20
-447.3949673704896
 30
0.0
 11
2692.965574530813
 21
-512.1949673704895
 31
0.0
1001
ACAD
1000
DSTYLE
1002
{
1070
    40
1040
1.3
1070
    45
1040
0.5
1002
}
  0
LINE
  5
1B948
330
18
100
AcDbEntity
  8
1DIM
100
AcDbLine
 10
2812.965555211073
 20
-478.4636328255218
 30
0.0
 11
2812.965555211073
 21
-512.1949673704895
 31
0.0
1001
ACAD
1000
DSTYLE
1002
{
1070
    40
1040
1.3
1070
    45
1040
0.5
1002
}
  0
LINE
  5
1B949
330
18
100
AcDbEntity
  8
1DIM
100
AcDbLine
 10
2695.565574530813
 20
-510.8949673704896
 30
0.0
 11
2810.365555211074
 21
-510.8949673704896
 31
0.0
1001
ACAD
1000
DSTYLE
1002
{
1070
    40
1040
1.3
1070
    45
1040
0.5
1002
}
  0
LINE
  5
1B94D
330
18
100
AcDbEntity
  8
1DIM
100
AcDbLine
 10
2680.04944065463
 20
-483.7950891803674
 30
0.0
 11
2680.04944065463
 21
-522.1949673704895
 31
0.0
1001
ACAD
1000
DSTYLE
1002
{
1070
    40
1040
1.3
1070
    45
1040
0.5
1002
}
  0
LINE
  5
1B94E
330
18
100
AcDbEntity
  8
1DIM
100
AcDbLine
 10
2812.965555211073
 20
-478.4636328255218
 30
0.0
 11
2812.965555211073
 21
-522.1949673704895
 31
0.0
1001
ACAD
1000
DSTYLE
1002
{
1070
    40
1040
1.3
1070
    45
1040
0.5
1002
}
  0
LINE
  5
1B94F
330
18
100
AcDbEntity
  8
1DIM
100
AcDbLine
 10
2682.64944065463
 20
-520.8949673704896
 30
0.0
 11
2810.365555211074
 21
-520.8949673704896
 31
0.0
1001
ACAD
1000
DSTYLE
1002
{
1070
    40
1040
1.3
1070
    45
1040
0.5
1002
}
  0
LINE
  5
1B953
330
18
100
AcDbEntity
  8
1DIM
100
AcDbLine
 10
2811.465555211073
 20
-461.8949673701544
 30
0.0
 11
2849.265574530813
 21
-461.8949673701544
 31
0.0
1001
ACAD
1000
DSTYLE
1002
{
1070
    40
1040
1.3
1070
    45
1040
0.5
1002
}
  0
LINE
  5
1B954
330
18
100
AcDbEntity
  8
1DIM
100
AcDbLine
 10
2795.720722528161
 20
-425.8949673704896
 30
0.0
 11
2849.265574530813
 21
-425.8949673704896
 31
0.0
1001
ACAD
1000
DSTYLE
1002
{
1070
    40
1040
1.3
1070
    45
1040
0.5
1002
}
  0
LINE
  5
1B955
330
18
100
AcDbEntity
  8
1DIM
100
AcDbLine
 10
2847.965574530813
 20
-459.2949673701544
 30
0.0
 11
2847.965574530813
 21
-428.4949673704896
 31
0.0
1001
ACAD
1000
DSTYLE
1002
{
1070
    40
1040
1.3
1070
    45
1040
0.5
1002
}
  0
LINE
  5
1B959
330
18
100
AcDbEntity
  8
1DIM
100
AcDbLine
 10
2682.04944065463
 20
-485.7950891803674
 30
0.0
 11
2859.265574530813
 21
-485.7950891803675
 31
0.0
1001
ACAD
1000
DSTYLE
1002
{
1070
    40
1040
1.3
1070
    45
1040
0.5
1002
}
  0
LINE
  5
1B95A
330
18
100
AcDbEntity
  8
1DIM
100
AcDbLine
 10
2795.720722528161
 20
-425.8949673704896
 30
0.0
 11
2859.265574530813
 21
-425.8949673704896
 31
0.0
1001
ACAD
1000
DSTYLE
1002
{
1070
    40
1040
1.3
1070
    45
1040
0.5
1002
}
  0
LINE
  5
1B95B
330
18
100
AcDbEntity
  8
1DIM
100
AcDbLine
 10
2857.965574530813
 20
-483.1950891803675
 30
0.0
 11
2857.965574530813
 21
-428.4949673704896
 31
0.0
1001
ACAD
1000
DSTYLE
1002
{
1070
    40
1040
1.3
1070
    45
1040
0.5
1002
}
  0
LINE
  5
1B95F
330
18
100
AcDbEntity
  8
1DIM
100
AcDbLine
 10
2811.777260120368
 20
-680.327367104611
 30
0.0
 11
2849.26545819107
 21
-680.3273671046111
 31
0.0
1001
ACAD
1000
DSTYLE
1002
{
1070
    40
1040
1.3
1070
    45
1040
0.5
1002
}
  0
LINE
  5
1B960
330
18
100
AcDbEntity
  8
1DIM
100
AcDbLine
 10
2811.51811674502
 20
-671.4272657020177
 30
0.0
 11
2849.26545819107
 21
-671.4272657020178
 31
0.0
1001
ACAD
1000
DSTYLE
1002
{
1070
    40
1040
1.3
1070
    45
1040
0.5
1002
}
  0
LINE
  5
1B961
330
18
100
AcDbEntity
  8
1DIM
100
AcDbLine
 10
2847.96545819107
 20
-677.7273671046111
 30
0.0
 11
2847.96545819107
 21
-674.0272657020179
 31
0.0
1001
ACAD
1000
DSTYLE
1002
{
1070
    40
1040
1.3
1070
    45
1040
0.5
1002
}
  0
LINE
  5
1B965
330
18
100
AcDbEntity
  8
0
  6
BYBLOCK
100
AcDbLine
 10
2309.968394022526
 20
-673.2949673694607
 30
0.0
 11
2309.271726128526
 21
-675.8949673694607
 31
0.0
  0
LINE
  5
1B966
330
18
100
AcDbEntity
  8
0
  6
BYBLOCK
100
AcDbLine
 10
2309.271726128526
 20
-675.8949673694607
 30
0.0
 11
2308.575058234526
 21
-673.2949673694607
 31
0.0
  0
LINE
  5
1B967
330
18
100
AcDbEntity
  8
0
  6
BYBLOCK
100
AcDbLine
 10
2309.271726128526
 20
-675.8949673694607
 30
0.0
 11
2309.271726128526
 21
-673.2949673694607
 31
0.0
  0
LINE
  5
1B968
330
18
100
AcDbEntity
  8
0
  6
BYBLOCK
100
AcDbLine
 10
2308.575058234526
 20
-622.9949673694605
 30
0.0
 11
2309.271726128526
 21
-620.3949673694605
 31
0.0
  0
LINE
  5
1B969
330
18
100
AcDbEntity
  8
0
  6
BYBLOCK
100
AcDbLine
 10
2309.271726128526
 20
-620.3949673694605
 30
0.0
 11
2309.968394022526
 21
-622.9949673694605
 31
0.0
  0
LINE
  5
1B96A
330
18
100
AcDbEntity
  8
0
  6
BYBLOCK
100
AcDbLine
 10
2309.271726128526
 20
-620.3949673694605
 30
0.0
 11
2309.271726128526
 21
-622.9949673694605
 31
0.0
  0
TEXT
  5
1B96B
330
18
100
AcDbEntity
  8
1DIM
  6
CONTINUOUS
100
AcDbText
 10
2308.361726128526
 20
-655.0015645916824
 30
0.0
 40
4.55
  1
55.5
 50
90.0
100
AcDbText
1001
ACAD
1000
DSTYLE
1002
{
1070
    40
1040
1.3
1070
    45
1040
0.5
1070
   341
1005
0
1002
}
  0
LINE
  5
1B96C
330
18
100
AcDbEntity
  8
0
  6
BYBLOCK
100
AcDbLine
 10
2695.565574530813
 20
-511.5916352644895
 30
0.0
 11
2692.965574530813
 21
-510.8949673704896
 31
0.0
  0
LINE
  5
1B96D
330
18
100
AcDbEntity
  8
0
  6
BYBLOCK
100
AcDbLine
 10
2692.965574530813
 20
-510.8949673704896
 30
0.0
 11
2695.565574530813
 21
-510.1982994764896
 31
0.0
  0
LINE
  5
1B96E
330
18
100
AcDbEntity
  8
0
  6
BYBLOCK
100
AcDbLine
 10
2692.965574530813
 20
-510.8949673704896
 30
0.0
 11
2695.565574530813
 21
-510.8949673704896
 31
0.0
  0
LINE
  5
1B96F
330
18
100
AcDbEntity
  8
0
  6
BYBLOCK
100
AcDbLine
 10
2810.365555211074
 20
-510.1982994764896
 30
0.0
 11
2812.965555211073
 21
-510.8949673704896
 31
0.0
  0
LINE
  5
1B970
330
18
100
AcDbEntity
  8
0
  6
BYBLOCK
100
AcDbLine
 10
2812.965555211073
 20
-510.8949673704896
 30
0.0
 11
2810.365555211074
 21
-511.5916352644895
 31
0.0
  0
LINE
  5
1B971
330
18
100
AcDbEntity
  8
0
  6
BYBLOCK
100
AcDbLine
 10
2812.965555211073
 20
-510.8949673704896
 30
0.0
 11
2810.365555211074
 21
-510.8949673704896
 31
0.0
  0
TEXT
  5
1B972
330
18
100
AcDbEntity
  8
1DIM
  6
CONTINUOUS
100
AcDbText
 10
2747.94160653761
 20
-509.9849673704896
 30
0.0
 40
4.55
  1
120
100
AcDbText
1001
ACAD
1000
DSTYLE
1002
{
1070
    40
1040
1.3
1070
    45
1040
0.5
1002
}
  0
LINE
  5
1B973
330
18
100
AcDbEntity
  8
0
  6
BYBLOCK
100
AcDbLine
 10
2682.64944065463
 20
-521.5916352644896
 30
0.0
 11
2680.04944065463
 21
-520.8949673704896
 31
0.0
  0
LINE
  5
1B974
330
18
100
AcDbEntity
  8
0
  6
BYBLOCK
100
AcDbLine
 10
2680.04944065463
 20
-520.8949673704896
 30
0.0
 11
2682.64944065463
 21
-520.1982994764895
 31
0.0
  0
LINE
  5
1B975
330
18
100
AcDbEntity
  8
0
  6
BYBLOCK
100
AcDbLine
 10
2680.04944065463
 20
-520.8949673704896
 30
0.0
 11
2682.64944065463
 21
-520.8949673704896
 31
0.0
  0
LINE
  5
1B976
330
18
100
AcDbEntity
  8
0
  6
BYBLOCK
100
AcDbLine
 10
2810.365555211074
 20
-520.1982994764895
 30
0.0
 11
2812.965555211073
 21
-520.8949673704896
 31
0.0
  0
LINE
  5
1B977
330
18
100
AcDbEntity
  8
0
  6
BYBLOCK
100
AcDbLine
 10
2812.965555211073
 20
-520.8949673704896
 30
0.0
 11
2810.365555211074
 21
-521.5916352644896
 31
0.0
  0
LINE
  5
1B978
330
18
100
AcDbEntity
  8
0
  6
BYBLOCK
100
AcDbLine
 10
2812.965555211073
 20
-520.8949673704896
 30
0.0
 11
2810.365555211074
 21
-520.8949673704896
 31
0.0
  0
TEXT
  5
1B979
330
18
100
AcDbEntity
  8
1DIM
  6
CONTINUOUS
100
AcDbText
 10
2741.199164599519
 20
-519.9849673704896
 30
0.0
 40
4.55
  1
133
100
AcDbText
1001
ACAD
1000
DSTYLE
1002
{
1070
    40
1040
1.3
1070
    45
1040
0.5
1002
}
  0
LINE
  5
1B97A
330
18
100
AcDbEntity
  8
0
  6
BYBLOCK
100
AcDbLine
 10
2848.662242424813
 20
-459.2949673701544
 30
0.0
 11
2847.965574530813
 21
-461.8949673701544
 31
0.0
  0
LINE
  5
1B97B
330
18
100
AcDbEntity
  8
0
  6
BYBLOCK
100
AcDbLine
 10
2847.965574530813
 20
-461.8949673701544
 30
0.0
 11
2847.268906636813
 21
-459.2949673701544
 31
0.0
  0
LINE
  5
1B97C
330
18
100
AcDbEntity
  8
0
  6
BYBLOCK
100
AcDbLine
 10
2847.965574530813
 20
-461.8949673701544
 30
0.0
 11
2847.965574530813
 21
-459.2949673701544
 31
0.0
  0
LINE
  5
1B97D
330
18
100
AcDbEntity
  8
0
  6
BYBLOCK
100
AcDbLine
 10
2847.268906636813
 20
-428.4949673704896
 30
0.0
 11
2847.965574530813
 21
-425.8949673704896
 31
0.0
  0
LINE
  5
1B97E
330
18
100
AcDbEntity
  8
0
  6
BYBLOCK
100
AcDbLine
 10
2847.965574530813
 20
-425.8949673704896
 30
0.0
 11
2848.662242424813
 21
-428.4949673704896
 31
0.0
  0
LINE
  5
1B97F
330
18
100
AcDbEntity
  8
0
  6
BYBLOCK
100
AcDbLine
 10
2847.965574530813
 20
-425.8949673704896
 30
0.0
 11
2847.965574530813
 21
-428.4949673704896
 31
0.0
  0
TEXT
  5
1B980
330
18
100
AcDbEntity
  8
1DIM
  6
CONTINUOUS
100
AcDbText
 10
2847.055574530813
 20
-447.6866340369879
 30
0.0
 40
4.55
  1
36
 50
90.0
100
AcDbText
1001
ACAD
1000
DSTYLE
1002
{
1070
    40
1040
1.3
1070
    45
1040
0.5
1002
}
  0
LINE
  5
1B981
330
18
100
AcDbEntity
  8
0
  6
BYBLOCK
100
AcDbLine
 10
2858.662242424813
 20
-483.1950891803675
 30
0.0
 11
2857.965574530813
 21
-485.7950891803675
 31
0.0
  0
LINE
  5
1B982
330
18
100
AcDbEntity
  8
0
  6
BYBLOCK
100
AcDbLine
 10
2857.965574530813
 20
-485.7950891803675
 30
0.0
 11
2857.268906636813
 21
-483.1950891803675
 31
0.0
  0
LINE
  5
1B983
330
18
100
AcDbEntity
  8
0
  6
BYBLOCK
100
AcDbLine
 10
2857.965574530813
 20
-485.7950891803675
 30
0.0
 11
2857.965574530813
 21
-483.1950891803675
 31
0.0
  0
LINE
  5
1B984
330
18
100
AcDbEntity
  8
0
  6
BYBLOCK
100
AcDbLine
 10
2857.268906636813
 20
-428.4949673704896
 30
0.0
 11
2857.965574530813
 21
-425.8949673704896
 31
0.0
  0
LINE
  5
1B985
330
18
100
AcDbEntity
  8
0
  6
BYBLOCK
100
AcDbLine
 10
2857.965574530813
 20
-425.8949673704896
 30
0.0
 11
2858.662242424813
 21
-428.4949673704896
 31
0.0
  0
LINE
  5
1B986
330
18
100
AcDbEntity
  8
0
  6
BYBLOCK
100
AcDbLine
 10
2857.965574530813
 20
-425.8949673704896
 30
0.0
 11
2857.965574530813
 21
-428.4949673704896
 31
0.0
  0
TEXT
  5
1B987
330
18
100
AcDbEntity
  8
1DIM
  6
CONTINUOUS
100
AcDbText
 10
2857.055574530813
 20
-459.3681185532055
 30
0.0
 40
4.55
  1
60
 50
90.0
100
AcDbText
1001
ACAD
1000
DSTYLE
1002
{
1070
    40
1040
1.3
1070
    45
1040
0.5
1002
}
  0
LINE
  5
1B988
330
18
100
AcDbEntity
  8
0
  6
BYBLOCK
100
AcDbLine
 10
2848.66212608507
 20
-677.7273671046111
 30
0.0
 11
2847.96545819107
 21
-680.3273671046111
 31
0.0
  0
LINE
  5
1B989
330
18
100
AcDbEntity
  8
0
  6
BYBLOCK
100
AcDbLine
 10
2847.96545819107
 20
-680.3273671046111
 30
0.0
 11
2847.26879029707
 21
-677.7273671046111
 31
0.0
  0
LINE
  5
1B98A
330
18
100
AcDbEntity
  8
0
  6
BYBLOCK
100
AcDbLine
 10
2847.96545819107
 20
-680.3273671046111
 30
0.0
 11
2847.96545819107
 21
-677.7273671046111
 31
0.0
  0
LINE
  5
1B98B
330
18
100
AcDbEntity
  8
0
  6
BYBLOCK
100
AcDbLine
 10
2847.26879029707
 20
-674.0272657020179
 30
0.0
 11
2847.96545819107
 21
-671.4272657020178
 31
0.0
  0
LINE
  5
1B98C
330
18
100
AcDbEntity
  8
0
  6
BYBLOCK
100
AcDbLine
 10
2847.96545819107
 20
-671.4272657020178
 30
0.0
 11
2848.66212608507
 21
-674.0272657020179
 31
0.0
  0
LINE
  5
1B98D
330
18
100
AcDbEntity
  8
0
  6
BYBLOCK
100
AcDbLine
 10
2847.96545819107
 20
-671.4272657020178
 30
0.0
 11
2847.96545819107
 21
-674.0272657020179
 31
0.0
  0
TEXT
  5
1B98E
330
18
100
AcDbEntity
  8
1DIM
  6
CONTINUOUS
100
AcDbText
 10
2847.05545819107
 20
-677.3960895514624
 30
0.0
 40
4.55
  1
9
 50
90.0
100
AcDbText
1001
ACAD
1000
DSTYLE
1002
{
1070
    40
1040
1.3
1070
    45
1040
0.5
1002
}
  0
VIEWPORT
  5
57
330
15
100
AcDbEntity
 67
     1
  8
0
100
AcDbViewport
 68
     1
 10
0.0
 20
0.0
 30
0.0
 40
535.5106132075472
 41
297.0
 68
     1
 69
     1
1001
ACAD
1000
MVIEW
1002
{
1070
    16
1010
0.0
1020
0.0
1030
0.0
1010
0.0
1020
0.0
1030
1.0
1040
0.0
1040
297.0
1040
1.837278951023421
1040
12.2936613235962
1040
50.0
1040
0.0
1040
0.0
1070
    16
1070
   100
1070
     0
1070
     1
1070
     0
1070
     0
1070
     0
1070
     0
1040
0.0
1040
0.0
1040
0.0
1040
10.0
1040
10.0
1040
10.0
1040
10.0
1070
     0
1002
{
1002
}
1002
}
  0
ENDSEC
  0
SECTION
  2
OBJECTS
  0
DICTIONARY
  5
C
330
0
100
AcDbDictionary
  3
ACAD_COLOR
350
18D
  3
ACAD_GROUP
350
D
  3
ACAD_LAYOUT
350
18E
  3
ACAD_MATERIAL
350
18C
  3
ACAD_MLEADERSTYLE
350
D9E7
  3
ACAD_MLINESTYLE
350
1B
  3
ACAD_PLOTSETTINGS
350
18F
  3
ACAD_SCALELIST
350
D9C5
  3
ACAD_VISUALSTYLE
350
D9B4
  3
ACDBHEADERROUNDTRIPXREC
350
1B98F
  3
ACDBVARIABLEDICTIONARY
350
37
  3
AEC_PROPERTY_SET_DEFS
350
1AA3C
  3
CONTENTDICTIONARY
350
D8
  3
DRAWINGVARIABLESDICT
350
20
  3
DWGPROPS
350
1B992
1001
ACAD
1000
TREAT_AS_HARD
1070
     0
  0
DICTIONARY
  5
E6A6
330
2
100
AcDbDictionary
  3
ACAD_LAYERSTATES
360
E6A7
1001
ACAD
1000
TREAT_AS_HARD
1070
     1
  0
DICTIONARY
  5
DA05
330
E
100
AcDbDictionary
  3
ADSK_XREC_LAYER_RECONCILED
360
DA06
1001
ACAD
1000
TREAT_AS_HARD
1070
     1
  0
DICTIONARY
  5
DA07
330
29
100
AcDbDictionary
  3
ADSK_XREC_LAYER_RECONCILED
360
DA08
1001
ACAD
1000
TREAT_AS_HARD
1070
     1
  0
DICTIONARY
  5
DA09
330
31
100
AcDbDictionary
  3
ADSK_XREC_LAYER_RECONCILED
360
DA0A
1001
ACAD
1000
TREAT_AS_HARD
1070
     1
  0
DICTIONARY
  5
DA0F
330
243
100
AcDbDictionary
  3
ADSK_XREC_LAYER_RECONCILED
360
DA10
1001
ACAD
1000
TREAT_AS_HARD
1070
     1
  0
DICTIONARY
  5
DA15
330
24E
100
AcDbDictionary
  3
ADSK_XREC_LAYER_RECONCILED
360
DA16
1001
ACAD
1000
TREAT_AS_HARD
1070
     1
  0
DICTIONARY
  5
DA23
330
2C05
100
AcDbDictionary
  3
ADSK_XREC_LAYER_RECONCILED
360
DA24
1001
ACAD
1000
TREAT_AS_HARD
1070
     1
  0
DICTIONARY
  5
88F
330
18
100
AcDbDictionary
  3
ACAD_SORTENTS
360
890
1001
ACAD
1000
TREAT_AS_HARD
1070
     1
  0
DICTIONARY
  5
18D
102
{ACAD_REACTORS
330
C
102
}
330
C
100
AcDbDictionary
1001
ACAD
1000
TREAT_AS_HARD
1070
     0
  0
DICTIONARY
  5
D
102
{ACAD_REACTORS
330
C
102
}
330
C
100
AcDbDictionary
1001
ACAD
1000
TREAT_AS_HARD
1070
     0
  0
DICTIONARY
  5
18E
102
{ACAD_REACTORS
330
C
102
}
330
C
100
AcDbDictionary
1001
ACAD
1000
TREAT_AS_HARD
1070
     0
  0
DICTIONARY
  5
18C
102
{ACAD_REACTORS
330
C
102
}
330
C
100
AcDbDictionary
  3
BYBLOCK
350
D9A4
  3
BYLAYER
350
D99C
  3
GLOBAL
350
D9AC
1001
ACAD
1000
TREAT_AS_HARD
1070
     0
  0
DICTIONARY
  5
D9E7
102
{ACAD_REACTORS
330
C
102
}
330
C
100
AcDbDictionary
  3
STANDARD
350
D9E8
1001
ACAD
1000
TREAT_AS_HARD
1070
     0
  0
DICTIONARY
  5
1B
102
{ACAD_REACTORS
330
C
102
}
330
C
100
AcDbDictionary
  3
STANDARD
350
1C
1001
ACAD
1000
TREAT_AS_HARD
1070
     0
  0
DICTIONARY
  5
18F
102
{ACAD_REACTORS
330
C
102
}
330
C
100
AcDbDictionary
1001
ACAD
1000
TREAT_AS_HARD
1070
     0
  0
DICTIONARY
  5
D9C5
102
{ACAD_REACTORS
330
C
102
}
330
C
100
AcDbDictionary
  3
A0
350
D9C6
  3
A1
350
D9C7
  3
A2
350
D9C8
  3
A3
350
D9C9
  3
A4
350
D9CA
  3
A5
350
D9CB
  3
A6
350
D9CC
  3
A7
350
D9CD
  3
A8
350
D9CE
  3
A9
350
D9CF
  3
B0
350
D9D0
  3
B1
350
D9D1
  3
B2
350
D9D2
  3
B3
350
D9D3
  3
B4
350
D9D4
  3
B5
350
D9D5
  3
B6
350
D9D6
  3
B7
350
D9D7
  3
B8
350
D9D8
  3
B9
350
D9D9
  3
C0
350
D9DA
  3
C1
350
D9DB
  3
C2
350
D9DC
  3
C3
350
D9DD
  3
C4
350
D9DE
  3
C5
350
D9DF
  3
C6
350
D9E0
  3
C7
350
D9E1
  3
C8
350
D9E2
  3
C9
350
D9E3
  3
D0
350
D9E4
  3
D1
350
D9E5
  3
D2
350
D9E6
1001
ACAD
1000
TREAT_AS_HARD
1070
     0
  0
DICTIONARY
  5
D9B4
102
{ACAD_REACTORS
330
C
102
}
330
C
100
AcDbDictionary
  3
2DWIREFRAME
350
D9BA
  3
3D_HIDDEN
350
D9BC
  3
3DWIREFRAME
350
D9BB
  3
BASIC
350
D9B9
  3
BRIGHTEN
350
D9C0
  3
COLORCHANGE
350
D9C4
  3
CONCEPTUAL
350
D9BD
  3
DIM
350
D9BF
  3
EDGECOLOROFF
350
19C2F
  3
FACEPATTERN
350
D9C3
  3
FLAT
350
D9B5
  3
FLATWITHEDGES
350
D9B6
  3
GOURAUD
350
D9B7
  3
GOURAUDWITHEDGES
350
D9B8
  3
HIDDEN
350
19C7E
  3
JITTEROFF
350
19C2D
  3
LINEPATTERN
350
D9C2
  3
MODELING
350
19C84
  3
OVERHANGOFF
350
19C2E
  3
REALISTIC
350
D9BE
  3
SHADED
350
19C83
  3
SHADED_WITH_EDGES
350
19C82
  3
SHADES_OF_GRAY
350
19C7F
  3
SKETCHY
350
19C80
  3
THICKEN
350
D9C1
  3
WIREFRAME
350
19C7D
  3
X-RAY
350
19C81
1001
ACAD
1000
TREAT_AS_HARD
1070
     0
  0
DICTIONARY
  5
1B98F
102
{ACAD_REACTORS
330
C
102
}
330
C
100
AcDbDictionary
  3
COLORDICT
350
1B990
  3
MATERIALDICT
350
1B991
1001
ACAD
1000
TREAT_AS_HARD
1070
     0
  0
DICTIONARY
  5
37
102
{ACAD_REACTORS
330
C
102
}
330
C
100
AcDbDictionary
  3
CANNOSCALE
350
1AE56
  3
CMLEADERSTYLE
350
DA6A
  3
CTABLESTYLE
350
29E
  3
DIMADEC
350
38
  3
DIMASSOC
350
1CE
  3
HIDETEXT
350
704E
  3
INDEXCTL
350
DA6D
  3
INTERSECTIONCOLOR
350
7052
  3
INTERSECTIONDISPLAY
350
7051
  3
MSLTSCALE
350
1A60C
  3
OBSCOLOR
350
704F
  3
OBSLTYPE
350
7050
  3
PROJECTNAME
350
1CF
  3
SORTENTS
350
DA6C
  3
XCLIPFRAME
350
1AE33
1001
ACAD
1000
TREAT_AS_HARD
1070
     0
  0
DICTIONARY
  5
1AA3C
102
{ACAD_REACTORS
330
C
102
}
330
C
100
AcDbDictionary
1001
ACAD
1000
TREAT_AS_HARD
1070
     0
  0
DICTIONARY
  5
D8
102
{ACAD_REACTORS
330
C
102
}
330
C
100
AcDbDictionary
1001
ACAD
1000
TREAT_AS_HARD
1070
     0
  0
DICTIONARY
  5
20
102
{ACAD_REACTORS
330
C
102
}
330
C
100
AcDbDictionary
1001
DRAWINGVARIABLESXDATA
1000
POLARANG
1000
0.261799387799149410000000
1000
POLARMODE
1000
1
1000
POLARSTYLE
1000
1
1001
ACAD
1000
TREAT_AS_HARD
1070
     0
  0
XRECORD
  5
1B992
102
{ACAD_REACTORS
330
C
102
}
330
C
100
AcDbXrecord
  1
DWGPROPS COOKIE
  2

  3

  4

  6

  7

  8
3684
  9

300
=
301
=
302
=
303
=
304
=
305
=
306
=
307
=
308
=
309
=
 40
0.0
 41
2451318.246352917
 42
2458449.089838276
  1

 90
        0
  0
DICTIONARY
  5
E6A7
102
{ACAD_REACTORS
330
E6A6
102
}
330
E6A6
100
AcDbDictionary
1001
ACAD
1000
TREAT_AS_HARD
1070
     0
  0
ACAD_PROXY_OBJECT
  5
DA06
102
{ACAD_REACTORS
330
DA05
102
}
330
DA05
100
AcDbZombieObject
 90
      499
 91
      516
 93
       34
310
40C8804040
  0
ACAD_PROXY_OBJECT
  5
DA08
102
{ACAD_REACTORS
330
DA07
102
}
330
DA07
100
AcDbZombieObject
 90
      499
 91
      516
 93
       34
310
40C8804040
  0
ACAD_PROXY_OBJECT
  5
DA0A
102
{ACAD_REACTORS
330
DA09
102
}
330
DA09
100
AcDbZombieObject
 90
      499
 91
      516
 93
       34
310
40C8804040
  0
ACAD_PROXY_OBJECT
  5
DA10
102
{ACAD_REACTORS
330
DA0F
102
}
330
DA0F
100
AcDbZombieObject
 90
      499
 91
      516
 93
       34
310
40C8804040
  0
ACAD_PROXY_OBJECT
  5
DA16
102
{ACAD_REACTORS
330
DA15
102
}
330
DA15
100
AcDbZombieObject
 90
      499
 91
      516
 93
       34
310
40C8804040
  0
ACAD_PROXY_OBJECT
  5
DA24
102
{ACAD_REACTORS
330
DA23
102
}
330
DA23
100
AcDbZombieObject
 90
      499
 91
      516
 93
       34
310
40C8804040
  0
SORTENTSTABLE
  5
890
102
{ACAD_REACTORS
330
88F
102
}
330
88F
100
AcDbSortentsTable
330
18
331
0
  5
5BFF
331
1AA49
  5
1AA56
331
1AA4A
  5
1AA57
331
1AA4B
  5
1AA58
331
1AA4C
  5
1AA59
331
1AA4D
  5
1AA5A
331
1AA4E
  5
1AA5B
331
1AA4F
  5
1AA5C
331
1AA50
  5
1AA5F
331
1AA51
  5
1AA70
331
1AA52
  5
1AA71
331
1AA53
  5
1AA73
331
1AA54
  5
1AA82
331
1AA55
  5
1AA90
331
1AA56
  5
1AAA3
331
1AA57
  5
1AAB9
331
1AA58
  5
1AABE
331
1AA59
  5
1AAD2
331
1AA5A
  5
1AAD3
331
1AA5B
  5
1AAD4
331
1AA5C
  5
1AAD8
331
0
  5
1AAF0
331
1AA70
  5
1AAFF
331
1AA71
  5
1AB00
331
1AA73
  5
1AB01
331
1AA82
  5
1AB06
331
1AA90
  5
1AB07
331
1AAA3
  5
1AB08
331
1AAB9
  5
1AB09
331
1AABE
  5
1AB0A
331
1AACD
  5
1AB0B
331
0
  5
1AAFA
331
1AAD0
  5
1AB13
331
1AAD2
  5
1AB1F
331
1AAD3
  5
1AB20
331
1AAD4
  5
1AB21
331
1AAD5
  5
1AB22
331
1AAD6
  5
1AB23
331
1AAD7
  5
1AB24
331
1AAD8
  5
1AB25
331
1AAD9
  5
1AB26
331
1AADA
  5
1AB2A
331
1AADB
  5
1AB2B
331
1AADC
  5
1AB2C
331
1AADD
  5
1AB30
331
1AADE
  5
1AB31
331
1AADF
  5
1AB32
331
1AAE0
  5
1AB36
331
1AAE1
  5
1AB37
331
1AAE2
  5
1AB38
331
1AAE3
  5
1AB3C
331
1AAE4
  5
1AB3D
331
1AAE5
  5
1AB3E
331
1AAE6
  5
1AB3F
331
1AAE7
  5
1AB40
331
1AAE8
  5
1AB41
331
1AAE9
  5
1AB42
331
1AAEA
  5
1AB43
331
1AAEB
  5
1AB44
331
1AAEC
  5
1AB45
331
1AAED
  5
1AB46
331
1AAEE
  5
1AB47
331
1AAEF
  5
1AB4B
331
1AAF0
  5
1AB4C
331
1AAF1
  5
1AB4D
331
1AAF2
  5
1AB51
331
1AAF3
  5
1AB52
331
1AAF4
  5
1AB53
331
1AAF5
  5
1AB57
331
1AAF6
  5
1AB58
331
1AAF7
  5
1AB59
331
1AAF8
  5
1AB5A
331
1AAF9
  5
1AB5B
331
1AAFA
  5
1AB5C
331
1AAFB
  5
1AB5D
331
1AAFC
  5
1AB5E
331
1AAFD
  5
1AB5F
331
1AAFE
  5
1AB60
331
1AAFF
  5
1AB61
331
1AB00
  5
1AB62
331
1AB01
  5
1AB63
331
1AB06
  5
1AB8C
331
1AB07
  5
1AB8D
331
1AB08
  5
1AB8E
331
1AB09
  5
1AB8F
331
1AB0A
  5
1AB90
331
1AB0B
  5
1AB91
331
1AB0C
  5
1AB92
331
1AB0D
  5
1AB93
331
1AB0E
  5
1AB94
331
1AB12
  5
1ABB5
331
1AB13
  5
1ABB6
331
1AB14
  5
1ABB7
331
1AB15
  5
1ABB8
331
1AB16
  5
1ABB9
331
1AB17
  5
1ABBA
331
1AB18
  5
1ABBB
331
1AB1A
  5
1ABC2
331
1AB1B
  5
1ABC3
331
1AB1C
  5
1ABC4
331
1AB1D
  5
1ABC5
331
1AB1E
  5
1ABC6
331
1AB1F
  5
1ABC7
331
1AB20
  5
1ABC8
331
1AB21
  5
1ABC9
331
1AB22
  5
1ABCA
331
1AB23
  5
1ABCB
331
1AB24
  5
1ABCC
331
1AB25
  5
1ABCD
331
1AB26
  5
1ABCE
331
1AB27
  5
1ABCF
331
1AB28
  5
1ABD0
331
1AB29
  5
1ABD1
331
1AB2A
  5
1ABD2
331
1AB2B
  5
1ABD3
331
1AB2C
  5
1ABD4
331
1AB2D
  5
1ABD5
331
1AB2E
  5
1ABD6
331
1AB2F
  5
1ABD7
331
1AB30
  5
1ABD8
331
1AB31
  5
1ABD9
331
1AB32
  5
1ABDA
331
1AB33
  5
1ABDB
331
1AB34
  5
1ABDC
331
1AB35
  5
1ABDD
331
1AB36
  5
1ABDE
331
1AB37
  5
1ABDF
331
1AB38
  5
1ABE0
331
1AB39
  5
1ABE1
331
1AB3A
  5
1ABE2
331
1AB3B
  5
1ABE3
331
1AB3C
  5
1ABE4
331
1AB3D
  5
1ABE5
331
1AB3E
  5
1ABE6
331
1AB3F
  5
1ABE7
331
1AB40
  5
1ABE8
331
1AB41
  5
1ABE9
331
1AB42
  5
1ABEA
331
1AB43
  5
1ABEB
331
1AB44
  5
1ABEC
331
1AB45
  5
1ABED
331
1AB46
  5
1ABEE
331
1AB47
  5
1ABEF
331
1AB48
  5
1ABF0
331
1AB49
  5
1ABF1
331
1AB4A
  5
1ABF5
331
1AB4B
  5
1ABF6
331
1AB4C
  5
1ABF7
331
1AB4D
  5
1ABF8
331
1AB4E
  5
1ABF9
331
1AB4F
  5
1ABFA
331
1AB50
  5
1ABFB
331
1AB51
  5
1ABFC
331
1AB52
  5
1ABFD
331
1AB53
  5
1ABFE
331
1AB54
  5
1ABFF
331
1AB55
  5
1AC00
331
1AB56
  5
1AC01
331
1AB57
  5
1AC02
331
1AB58
  5
1AC03
331
1AB59
  5
1AC04
331
1AB5A
  5
1AC05
331
1AB5B
  5
1AC06
331
1AB5C
  5
1AC07
331
1AB5D
  5
1AC08
331
1AB5E
  5
1AC09
331
1AB5F
  5
1AC0A
331
1AB60
  5
1AC0B
331
1AB61
  5
1AC0C
331
1AB62
  5
1AC0E
331
1AB63
  5
1AC0F
331
1AB64
  5
1AC10
331
1AB65
  5
1AC11
331
1AB66
  5
1AC12
331
1AB67
  5
1AC13
331
1AB68
  5
1AC14
331
1AB69
  5
1AC15
331
1AB6A
  5
1AC16
331
1AB6B
  5
1AC17
331
1AB6C
  5
1AC18
331
1AB6D
  5
1AC19
331
1AB6E
  5
1AC1A
331
1AB6F
  5
1AC1B
331
1AB70
  5
1AC1C
331
1AB71
  5
1AC1D
331
1AB72
  5
1AC1E
331
1AB73
  5
1AC1F
331
1AB74
  5
1AC20
331
1AB75
  5
1AC21
331
1AB76
  5
1AC22
331
1AB77
  5
1AC23
331
1AB78
  5
1AC24
331
1AB79
  5
1AC25
331
1AB7A
  5
1AC26
331
1AB7B
  5
1AC27
331
1AB7C
  5
1AC28
331
1AB7D
  5
1AC29
331
1AB7E
  5
1AC2A
331
1AB7F
  5
1AC2B
331
1AB80
  5
1AC2C
331
1AB81
  5
1AC2D
331
1AB82
  5
1AC2E
331
1AB83
  5
1AC2F
331
1AB84
  5
1AC30
331
1AB85
  5
1AC31
331
1AB86
  5
1AC32
331
1AB87
  5
1AC33
331
1AB88
  5
1AC34
331
1AB89
  5
1AC35
331
1AB8A
  5
1AC36
331
1AB8B
  5
1AC37
331
1AB8C
  5
1AC3F
331
1AB8D
  5
1AC40
331
1AB8E
  5
1AC41
331
1AB8F
  5
1AC42
331
1AB90
  5
1AC43
331
1AB91
  5
1AC44
331
1AB92
  5
1AC45
331
1AB93
  5
1AC46
331
1AB94
  5
1AC47
331
1AB96
  5
1AC49
331
1AB97
  5
1AC4D
331
1AB98
  5
1AC4E
331
1AB99
  5
1AC4F
331
1AB9A
  5
1AC53
331
0
  5
1AC38
331
0
  5
1AC3B
331
0
  5
1AC3C
331
0
  5
1AC3D
331
0
  5
1AC3E
331
1ABA0
  5
1AEF6
331
1ABA1
  5
1AEF7
331
1ABA2
  5
1AEF8
331
1ABA4
  5
1AF03
331
1ABA5
  5
1B394
331
1ABA6
  5
1B396
331
1ABA7
  5
1B3A6
331
1ABA8
  5
1B3A7
331
1ABA9
  5
1B3A8
331
1ABAA
  5
1B3A9
331
1ABAB
  5
1B3AA
331
1ABAC
  5
1B3AB
331
1ABAD
  5
1B3AC
331
1ABAE
  5
1B3AD
331
1ABAF
  5
1B3B4
331
1ABB0
  5
1B450
331
1ABB1
  5
1B451
331
1ABB2
  5
1B58C
331
1ABB3
  5
1B58E
331
1ABB4
  5
1B592
331
1ABB5
  5
1B593
331
1ABB6
  5
1B594
331
1ABB7
  5
1B595
331
1ABB8
  5
1B596
331
1ABB9
  5
1B597
331
1ABBA
  5
1B598
331
1ABBB
  5
1B599
331
1ABBC
  5
1B59A
331
1ABBD
  5
1B59B
331
1ABBE
  5
1B59C
331
1ABBF
  5
1B59D
331
1ABC0
  5
1B59E
331
1ABC1
  5
1B59F
331
1ABC2
  5
1B5A0
331
1ABC3
  5
1B5A1
331
1ABC4
  5
1B5A2
331
1ABC5
  5
1B5A3
331
1ABC6
  5
1B5A4
331
1ABC7
  5
1B5A6
331
1ABC8
  5
1B5A7
331
1ABC9
  5
1B5A8
331
1ABCA
  5
1B5A9
331
1ABCB
  5
1B5AA
331
1ABCC
  5
1B5AB
331
1ABCD
  5
1B5AC
331
1ABCE
  5
1B5AD
331
1ABCF
  5
1B5AE
331
1ABD0
  5
1B5AF
331
1ABD1
  5
1B5B0
331
1ABD2
  5
1B5B1
331
1ABD3
  5
1B5B2
331
1ABD4
  5
1B5B3
331
1ABD5
  5
1B5B4
331
1ABD6
  5
1B5B5
331
1ABD7
  5
1B5B6
331
1ABD8
  5
1B5B7
331
1ABD9
  5
1B5B8
331
1ABDA
  5
1B5B9
331
1ABDB
  5
1B5BA
331
1ABDC
  5
1B5BB
331
1ABDD
  5
1B5BC
331
1ABDE
  5
1B5BD
331
1ABDF
  5
1B5BE
331
1ABE0
  5
1B5BF
331
1ABE1
  5
1B5C0
331
1ABE2
  5
1B5C1
331
1ABE3
  5
1B5C2
331
1ABE4
  5
1B5C3
331
1ABE5
  5
1B5C4
331
1ABE6
  5
1B5C5
331
1ABE7
  5
1B5C6
331
1ABE8
  5
1B5C7
331
1ABE9
  5
1B5C8
331
1ABEA
  5
1B5C9
331
1ABEB
  5
1B5CA
331
1ABEC
  5
1B5CB
331
1ABED
  5
1B5CC
331
1ABEE
  5
1B5CD
331
1ABEF
  5
1B5CE
331
1ABF0
  5
1B5CF
331
1ABF1
  5
1B5D0
331
1ABF2
  5
1B5D1
331
1ABF3
  5
1B5D2
331
1ABF4
  5
1B5D3
331
1ABF5
  5
1B5D4
331
1ABF6
  5
1B5D5
331
1ABF7
  5
1B5D6
331
1ABF8
  5
1B5D7
331
1ABF9
  5
1B5D8
331
1ABFA
  5
1B5D9
331
1ABFB
  5
1B5DA
331
1ABFC
  5
1B5DB
331
1ABFD
  5
1B5DC
331
1ABFE
  5
1B5DD
331
1ABFF
  5
1B5DE
331
1AC00
  5
1B5DF
331
1AC01
  5
1B5E0
331
1AC02
  5
1B5E1
331
1AC03
  5
1B5E2
331
1AC04
  5
1B5E3
331
1AC05
  5
1B5E4
331
1AC06
  5
1B5E5
331
1AC07
  5
1B87C
331
1AC08
  5
1B87D
331
1AC09
  5
1B87E
331
1AC0A
  5
1B87F
331
1AC0B
  5
1B880
331
1AC0C
  5
1B881
331
1AC0E
  5
1B887
331
1AC0F
  5
1B888
331
1AC10
  5
1B889
331
1AC11
  5
1B88A
331
1AC12
  5
1B88B
331
1AC13
  5
1B88C
331
1AC14
  5
1B88D
331
1AC15
  5
1B88E
331
1AC16
  5
1B88F
331
1AC17
  5
1B890
331
1AC18
  5
1B891
331
1AC19
  5
1B892
331
1AC1A
  5
1B893
331
1AC1B
  5
1B894
331
1AC1C
  5
1B895
331
1AC1D
  5
1B896
331
1AC1E
  5
1B897
331
1AC1F
  5
1B898
331
1AC20
  5
1B899
331
1AC21
  5
1B89A
331
1AC22
  5
1B89B
331
1AC23
  5
1B89C
331
1AC24
  5
1B89D
331
1AC25
  5
1B89E
331
1AC26
  5
1B89F
331
1AC27
  5
1B8A0
331
1AC28
  5
1B8A1
331
1AC29
  5
1B8A2
331
1AC2A
  5
1B8A3
331
1AC2B
  5
1B8A4
331
1AC2C
  5
1B8A5
331
1AC2D
  5
1B8A6
331
1AC2E
  5
1B8A7
331
1AC2F
  5
1B8A8
331
1AC30
  5
1B8A9
331
1AC31
  5
1B8AA
331
1AC32
  5
1B8AB
331
1AC33
  5
1B8AC
331
1AC34
  5
1B8AD
331
1AC35
  5
1B8AE
331
1AC36
  5
1B8AF
331
1AC37
  5
1B8B0
331
1AC38
  5
1B8B1
331
1AC3B
  5
1B8B2
331
1AC3C
  5
1B8B3
331
1AC3D
  5
1B8B4
331
1AC3E
  5
1B8B5
331
1AC3F
  5
1B8B6
331
1AC40
  5
1B8B7
331
1AC41
  5
1B8B8
331
1AC42
  5
1B8B9
331
1AC43
  5
1B8BA
331
1AC44
  5
1B8BB
331
1AC45
  5
1B8BC
331
1AC46
  5
1B8BD
331
1AC47
  5
1B8BE
331
1AC48
  5
1B8BF
331
1AC49
  5
1B8C0
331
1AC4A
  5
1B8C1
331
1AC4B
  5
1B8C2
331
1AC4C
  5
1B8C3
331
1AC4D
  5
1B8C4
331
1AC4E
  5
1B8C5
331
1AC4F
  5
1B8C6
331
1AC50
  5
1B8C7
331
1AC51
  5
1B8C8
331
1AC52
  5
1B8C9
331
1AC53
  5
1B8CA
331
1AC54
  5
1B8CB
331
1AC55
  5
1B8CC
331
1AC56
  5
1B8CD
331
1AC57
  5
1B8CE
331
1AC58
  5
1B8CF
331
1AC59
  5
1B8D0
331
1AC5A
  5
1B8D1
331
1AC5B
  5
1B8D2
331
1AC5C
  5
1B8D3
331
1AC5D
  5
1B8D4
331
1AC5E
  5
1B8D5
331
1AC5F
  5
1B8D6
331
1AC60
  5
1B8D7
331
1AC61
  5
1B8D8
331
1AC62
  5
1B8D9
331
1AC63
  5
1B8DA
331
1AC64
  5
1B8DB
331
1AC65
  5
1B8DC
331
1AC66
  5
1B8DD
331
1AC67
  5
1B8DE
331
1AC68
  5
1B8DF
331
1AC69
  5
1B8E0
331
1AC6A
  5
1B8E1
331
1AC6B
  5
1B8E2
331
1AC6C
  5
1B8E3
331
1AC6D
  5
1B8E4
331
1AC6E
  5
1B8E5
331
1AC6F
  5
1B8E6
331
1AC70
  5
1B8E7
331
1AC71
  5
1B8E8
331
1AC72
  5
1B8E9
331
1AC73
  5
1B8EA
331
1AC74
  5
1B8EB
331
1AC75
  5
1B8EC
331
1AC76
  5
1B8ED
331
1AC77
  5
1B8EE
331
1AC78
  5
1B8EF
331
1AC79
  5
1B8F0
331
1AC7A
  5
1B8F1
331
1AC7C
  5
1B8F4
331
1AC7D
  5
1B8F5
331
1AC7E
  5
1B8F6
331
1AC7F
  5
1B8F7
331
1AC80
  5
1B8F8
331
1AC81
  5
1B8F9
331
1AC82
  5
1B8FA
331
1AC83
  5
1B8FB
331
1AC84
  5
1B8FC
331
1AC85
  5
1B8FD
331
1AC86
  5
1B8FE
331
1AC87
  5
1B8FF
331
1AC88
  5
1B900
331
1AC89
  5
1B901
331
1AC8A
  5
1B902
331
1AEF1
  5
1B903
331
1AEF2
  5
1B904
331
1AEF3
  5
1B905
331
1AEF4
  5
1B906
331
1AEF5
  5
1B907
331
1AEF6
  5
1B908
331
1AEF7
  5
1B909
331
1AEF8
  5
1B90A
331
1AEF9
  5
1B90B
331
1AEFA
  5
1B90C
331
1AEFB
  5
1B90D
331
1AEFC
  5
1B90E
331
1AEFD
  5
1B90F
331
1AEFE
  5
1B910
331
1AEFF
  5
1B911
331
1AF00
  5
1B912
331
1AF01
  5
1B913
331
1AF02
  5
1B914
331
1AF03
  5
1B915
331
1B394
  5
1B916
331
1B396
  5
1B917
331
1B3A6
  5
1B918
331
1B3A7
  5
1B919
331
1B3A8
  5
1B91A
331
1B3A9
  5
1B91B
331
1B3AA
  5
1B91C
331
1B3AB
  5
1B91D
331
1B3AC
  5
1B91E
331
1B3AD
  5
1B91F
331
1B3B4
  5
1B92A
331
1B450
  5
1B92B
331
1B451
  5
1B92C
331
1B58C
  5
1B92D
331
1B58E
  5
1B92E
331
1B592
  5
1B939
331
1B593
  5
1B93A
331
1B594
  5
1B93B
331
1B595
  5
1B93C
331
1B596
  5
1B93D
331
1B597
  5
1B93E
331
1B598
  5
1B93F
331
1B599
  5
1B940
331
1B59A
  5
1B941
331
1B59B
  5
1B942
331
1B59C
  5
1B943
331
1B59D
  5
1B944
331
1B59E
  5
1B945
331
1B59F
  5
1B946
331
1B5A0
  5
1B947
331
1B5A1
  5
1B948
331
1B5A2
  5
1B949
331
1B5A3
  5
1B94A
331
1B5A4
  5
1B94B
331
1B5A6
  5
1B94C
331
1B5A7
  5
1B94D
331
1B5A8
  5
1B94E
331
1B5A9
  5
1B94F
331
1B5AA
  5
1B950
331
1B5AB
  5
1B951
331
1B5AC
  5
1B952
331
1B5AD
  5
1B953
331
1B5AE
  5
1B954
331
1B5AF
  5
1B955
331
1B5B0
  5
1B956
331
1B5B1
  5
1B957
331
1B5B2
  5
1B958
331
1B5B3
  5
1B959
331
1B5B4
  5
1B95A
331
1B5B5
  5
1B95B
331
1B5B6
  5
1B95C
331
1B5B7
  5
1B95D
331
1B5B8
  5
1B95E
331
1B5B9
  5
1B95F
331
1B5BA
  5
1B960
331
1B5BB
  5
1B961
331
1B5BC
  5
1B962
331
1B5BD
  5
1B963
331
1B5BE
  5
1B964
331
1B5BF
  5
1B965
331
1B5C0
  5
1B966
331
1B5C1
  5
1B967
331
1B5C2
  5
1B968
331
1B5C3
  5
1B969
331
1B5C4
  5
1B96A
331
1B5C5
  5
1B96B
331
1B5C6
  5
1B96C
331
1B5C7
  5
1B96D
331
1B5C8
  5
1B96E
331
1B5C9
  5
1B96F
331
1B5CA
  5
1B970
331
1B5CB
  5
1B971
331
1B5CC
  5
1B972
331
1B5CD
  5
1B973
331
1B5CE
  5
1B974
331
1B5CF
  5
1B975
331
1B5D0
  5
1B976
331
1B5D1
  5
1B977
331
1B5D2
  5
1B978
331
1B5D3
  5
1B979
331
1B5D4
  5
1B97A
331
1B5D5
  5
1B97B
331
1B5D6
  5
1B97C
331
1B5D7
  5
1B97D
331
1B5D8
  5
1B97E
331
1B5D9
  5
1B97F
331
1B5DA
  5
1B980
331
1B5DB
  5
1B981
331
1B5DC
  5
1B982
331
1B5DD
  5
1B983
331
1B5DE
  5
1B984
331
1B5DF
  5
1B985
331
1B5E0
  5
1B986
331
1B5E1
  5
1B987
331
1B5E2
  5
1B988
331
1B5E3
  5
1B989
331
1B5E4
  5
1B98A
331
1B5E5
  5
1B98B
331
1B5E7
  5
1B98C
331
1B5E8
  5
1B98D
331
1B6CD
  5
1B98E
331
1B87C
  5
1AA49
331
1B87D
  5
1AA4A
331
1B87E
  5
1AA4B
331
0
  5
1AA4C
331
0
  5
1AA4D
331
0
  5
1AA4E
331
1B882
  5
1AAD9
331
1B883
  5
1AADA
331
1B884
  5
1AADB
331
0
  5
1AACD
331
0
  5
1AACE
331
0
  5
1AAD0
331
1B888
  5
1AAE3
331
1B889
  5
1AAE4
331
1B88A
  5
1AAE5
331
0
  5
1AAD5
331
0
  5
1AAD6
331
0
  5
1AAD7
331
1B88E
  5
1AB0E
331
1B88F
  5
1AB12
331
1B890
  5
1AB14
331
1B891
  5
1AB15
331
1B892
  5
1AB16
331
0
  5
1AAE9
331
0
  5
1AAEA
331
0
  5
1AAEB
331
1B896
  5
1AB64
331
1B897
  5
1AB65
331
1B898
  5
1AB66
331
0
  5
1AB27
331
0
  5
1AB28
331
0
  5
1AB29
331
1B89C
  5
1AB6E
331
1B89D
  5
1AB6F
331
1B89E
  5
1AB70
331
0
  5
1AB2D
331
0
  5
1AB2E
331
0
  5
1AB2F
331
1B8A2
  5
1AB78
331
1B8A3
  5
1AB79
331
1B8A4
  5
1AB7A
331
0
  5
1AB33
331
0
  5
1AB34
331
0
  5
1AB35
331
1B8A8
  5
1AB82
331
1B8A9
  5
1AB83
331
1B8AA
  5
1AB84
331
0
  5
1AB39
331
0
  5
1AB3A
331
0
  5
1AB3B
331
1B8AE
  5
1AB96
331
1B8AF
  5
1AB97
331
1B8B0
  5
1AB98
331
0
  5
1AB48
331
0
  5
1AB49
331
0
  5
1AB4A
331
1B8B4
  5
1ABA0
331
1B8B5
  5
1ABA1
331
1B8B6
  5
1ABA2
331
0
  5
1AB4E
331
0
  5
1AB4F
331
0
  5
1AB50
331
1B8BA
  5
1ABAB
331
1B8BB
  5
1ABAC
331
1B8BC
  5
1ABAD
331
0
  5
1AB54
331
0
  5
1AB55
331
0
  5
1AB56
331
1B8C0
  5
1ABBC
331
1B8C1
  5
1ABBD
331
1B8C2
  5
1ABBE
331
1B8C3
  5
1ABBF
331
1B8C4
  5
1ABC0
331
1B8C5
  5
1ABC1
331
1B8C6
  5
1AC48
331
1B8C7
  5
1AEF9
331
1B8C8
  5
1AEFA
331
1B8C9
  5
1AEFB
331
0
  5
1ABF2
331
0
  5
1ABF3
331
0
  5
1ABF4
331
1B8CD
  5
1B882
331
1B8CE
  5
1B883
331
1B8CF
  5
1B8F2
331
1B8D0
  5
1B8F3
331
1B8D1
  5
1B920
331
1B8D2
  5
1B921
331
1B8D3
  5
1B922
331
0
  5
1B5E7
331
0
  5
1B5E8
331
0
  5
1B6CD
331
1B8D7
  5
1B92F
331
1B8D8
  5
1B930
331
1B8D9
  5
1B931
331
0
  5
1B884
331
0
  5
1B885
331
0
  5
1B886
331
1B8DD
  5
1AA4F
331
1B8DE
  5
1AA50
331
1B8DF
  5
1AA51
331
1B8E0
  5
1AA52
331
1B8E1
  5
1AA53
331
1B8E2
  5
1AA54
331
1B8E3
  5
1AA55
331
1B8E4
  5
1AADC
331
1B8E5
  5
1AADD
331
1B8E6
  5
1AADE
331
1B8E7
  5
1AADF
331
1B8E8
  5
1AAE0
331
1B8E9
  5
1AAE1
331
1B8EA
  5
1AAE2
331
1B8EB
  5
1AAE6
331
1B8EC
  5
1AAE7
331
1B8ED
  5
1AAE8
331
1B8EE
  5
1AAEC
331
1B8EF
  5
1AAED
331
1B8F0
  5
1AAEE
331
1B8F1
  5
1AAEF
331
1B8F2
  5
1AB17
331
1B8F3
  5
1AB18
331
1B8F4
  5
1AB1A
331
1B8F5
  5
1AB1B
331
1B8F6
  5
1AB1C
331
1B8F7
  5
1AB1D
331
1B8F8
  5
1AB1E
331
1B8F9
  5
1AB67
331
1B8FA
  5
1AB68
331
1B8FB
  5
1AB69
331
1B8FC
  5
1AB6A
331
1B8FD
  5
1AB6B
331
1B8FE
  5
1AB6C
331
1B8FF
  5
1AB6D
331
1B900
  5
1AB71
331
1B901
  5
1AB72
331
1B902
  5
1AB73
331
1B903
  5
1AB74
331
1B904
  5
1AB75
331
1B905
  5
1AB76
331
1B906
  5
1AB77
331
1B907
  5
1AB7B
331
1B908
  5
1AB7C
331
1B909
  5
1AB7D
331
1B90A
  5
1AB7E
331
1B90B
  5
1AB7F
331
1B90C
  5
1AB80
331
1B90D
  5
1AB81
331
1B90E
  5
1AB85
331
1B90F
  5
1AB86
331
1B910
  5
1AB87
331
1B911
  5
1AB88
331
1B912
  5
1AB89
331
1B913
  5
1AB8A
331
1B914
  5
1AB8B
331
1B915
  5
1AB99
331
1B916
  5
1AB9A
331
1B917
  5
1AB9B
331
1B918
  5
1AB9C
331
1B919
  5
1AB9D
331
1B91A
  5
1AB9E
331
1B91B
  5
1AB9F
331
1B91C
  5
1ABA4
331
1B91D
  5
1ABA5
331
1B91E
  5
1ABA6
331
1B91F
  5
1ABA7
331
1B920
  5
1ABA8
331
1B921
  5
1ABA9
331
1B922
  5
1ABAA
331
1B923
  5
1ABAE
331
1B924
  5
1ABAF
331
1B925
  5
1ABB0
331
1B926
  5
1ABB1
331
1B927
  5
1ABB2
331
1B928
  5
1ABB3
331
1B929
  5
1ABB4
331
1B92A
  5
1AEFC
331
1B92B
  5
1AEFD
331
1B92C
  5
1AEFE
331
1B92D
  5
1AEFF
331
1B92E
  5
1AF00
331
1B92F
  5
1AF01
331
1B930
  5
1AF02
331
1B931
  5
1B923
331
1B932
  5
1B924
331
1B933
  5
1B925
331
1B934
  5
1B926
331
1B935
  5
1B927
331
1B936
  5
1B928
331
1B937
  5
1B929
331
1B938
  5
1B932
331
1B939
  5
1B933
331
1B93A
  5
1B934
331
1B93B
  5
1B935
331
1B93C
  5
1B936
331
1B93D
  5
1B937
331
1B93E
  5
1B938
331
1B93F
  5
1AAF1
331
1B940
  5
1AAF2
331
1B941
  5
1AAF3
331
0
  5
1AAF4
331
0
  5
1AAF5
331
0
  5
1AAF6
331
1B945
  5
1AB0C
331
1B946
  5
1AB0D
331
1B947
  5
1AC54
331
1B948
  5
1AC55
331
1B949
  5
1AC59
331
0
  5
1AC4A
331
0
  5
1AC4B
331
0
  5
1AC4C
331
1B94D
  5
1AC67
331
1B94E
  5
1AC68
331
1B94F
  5
1AC69
331
0
  5
1AC50
331
0
  5
1AC51
331
0
  5
1AC52
331
1B953
  5
1AC71
331
1B954
  5
1AC72
331
1B955
  5
1AC73
331
0
  5
1AC56
331
0
  5
1AC57
331
0
  5
1AC58
331
1B959
  5
1AC7C
331
1B95A
  5
1AC7D
331
1B95B
  5
1AC7E
331
0
  5
1AC5C
331
0
  5
1AC5D
331
0
  5
1AC5E
331
1B95F
  5
1AC86
331
1B960
  5
1AC87
331
1B961
  5
1AC88
331
0
  5
1AC62
331
0
  5
1AC63
331
0
  5
1AC64
331
1B965
  5
1AAF7
331
1B966
  5
1AAF8
331
1B967
  5
1AAF9
331
1B968
  5
1AAFB
331
1B969
  5
1AAFC
331
1B96A
  5
1AAFD
331
1B96B
  5
1AAFE
331
1B96C
  5
1AC5A
331
1B96D
  5
1AC5B
331
1B96E
  5
1AC5F
331
1B96F
  5
1AC60
331
1B970
  5
1AC61
331
1B971
  5
1AC65
331
1B972
  5
1AC66
331
1B973
  5
1AC6A
331
1B974
  5
1AC6B
331
1B975
  5
1AC6C
331
1B976
  5
1AC6D
331
1B977
  5
1AC6E
331
1B978
  5
1AC6F
331
1B979
  5
1AC70
331
1B97A
  5
1AC74
331
1B97B
  5
1AC75
331
1B97C
  5
1AC76
331
1B97D
  5
1AC77
331
1B97E
  5
1AC78
331
1B97F
  5
1AC79
331
1B980
  5
1AC7A
331
1B981
  5
1AC7F
331
1B982
  5
1AC80
331
1B983
  5
1AC81
331
1B984
  5
1AC82
331
1B985
  5
1AC83
331
1B986
  5
1AC84
331
1B987
  5
1AC85
331
1B988
  5
1AC89
331
1B989
  5
1AC8A
331
1B98A
  5
1AEF1
331
1B98B
  5
1AEF2
331
1B98C
  5
1AEF3
331
1B98D
  5
1AEF4
331
1B98E
  5
1AEF5
  0
MATERIAL
  5
D9A4
102
{ACAD_REACTORS
330
18C
102
}
102
{ACAD_XDICTIONARY
360
1BB2D
102
}
330
18C
100
AcDbMaterial
  1
BYBLOCK
 72
     0
 73
     2
 43
0.0208333333333333
 43
0.0
 43
0.0
 43
0.0
 43
0.0
 43
0.0208333333333333
 43
0.0
 43
0.0
 43
0.0
 43
0.0
 43
1.0
 43
0.0
 43
0.0
 43
0.0
 43
0.0
 43
1.0
 77
     0
 78
     2
 47
0.0208333333333333
 47
0.0
 47
0.0
 47
0.0
 47
0.0
 47
0.0208333333333333
 47
0.0
 47
0.0
 47
0.0
 47
0.0
 47
1.0
 47
0.0
 47
0.0
 47
0.0
 47
0.0
 47
1.0
171
     0
172
     2
 49
0.0208333333333333
 49
0.0
 49
0.0
 49
0.0
 49
0.0
 49
0.0208333333333333
 49
0.0
 49
0.0
 49
0.0
 49
0.0
 49
1.0
 49
0.0
 49
0.0
 49
0.0
 49
0.0
 49
1.0
175
     0
176
     2
142
0.0208333333333333
142
0.0
142
0.0
142
0.0
142
0.0
142
0.0208333333333333
142
0.0
142
0.0
142
0.0
142
0.0
142
1.0
142
0.0
142
0.0
142
0.0
142
0.0
142
1.0
179
     0
270
     2
144
0.0208333333333333
144
0.0
144
0.0
144
0.0
144
0.0
144
0.0208333333333333
144
0.0
144
0.0
144
0.0
144
0.0
144
1.0
144
0.0
144
0.0
144
0.0
144
0.0
144
1.0
274
     2
147
0.0208333333333333
147
0.0
147
0.0
147
0.0
147
0.0
147
0.0208333333333333
147
0.0
147
0.0
147
0.0
147
0.0
147
1.0
147
0.0
147
0.0
147
0.0
147
0.0
147
1.0
  0
MATERIAL
  5
D99C
102
{ACAD_REACTORS
330
18C
102
}
102
{ACAD_XDICTIONARY
360
1BB2F
102
}
330
18C
100
AcDbMaterial
  1
BYLAYER
 72
     0
 73
     2
 43
0.0208333333333333
 43
0.0
 43
0.0
 43
0.0
 43
0.0
 43
0.0208333333333333
 43
0.0
 43
0.0
 43
0.0
 43
0.0
 43
1.0
 43
0.0
 43
0.0
 43
0.0
 43
0.0
 43
1.0
 77
     0
 78
     2
 47
0.0208333333333333
 47
0.0
 47
0.0
 47
0.0
 47
0.0
 47
0.0208333333333333
 47
0.0
 47
0.0
 47
0.0
 47
0.0
 47
1.0
 47
0.0
 47
0.0
 47
0.0
 47
0.0
 47
1.0
171
     0
172
     2
 49
0.0208333333333333
 49
0.0
 49
0.0
 49
0.0
 49
0.0
 49
0.0208333333333333
 49
0.0
 49
0.0
 49
0.0
 49
0.0
 49
1.0
 49
0.0
 49
0.0
 49
0.0
 49
0.0
 49
1.0
175
     0
176
     2
142
0.0208333333333333
142
0.0
142
0.0
142
0.0
142
0.0
142
0.0208333333333333
142
0.0
142
0.0
142
0.0
142
0.0
142
1.0
142
0.0
142
0.0
142
0.0
142
0.0
142
1.0
179
     0
270
     2
144
0.0208333333333333
144
0.0
144
0.0
144
0.0
144
0.0
144
0.0208333333333333
144
0.0
144
0.0
144
0.0
144
0.0
144
1.0
144
0.0
144
0.0
144
0.0
144
0.0
144
1.0
274
     2
147
0.0208333333333333
147
0.0
147
0.0
147
0.0
147
0.0
147
0.0208333333333333
147
0.0
147
0.0
147
0.0
147
0.0
147
1.0
147
0.0
147
0.0
147
0.0
147
0.0
147
1.0
  0
MATERIAL
  5
D9AC
102
{ACAD_REACTORS
330
18C
102
}
102
{ACAD_XDICTIONARY
360
1BB31
102
}
330
18C
100
AcDbMaterial
  1
GLOBAL
 72
     0
 73
     2
 43
0.0208333333333333
 43
0.0
 43
0.0
 43
0.0
 43
0.0
 43
0.0208333333333333
 43
0.0
 43
0.0
 43
0.0
 43
0.0
 43
1.0
 43
0.0
 43
0.0
 43
0.0
 43
0.0
 43
1.0
 77
     0
 78
     2
 47
0.0208333333333333
 47
0.0
 47
0.0
 47
0.0
 47
0.0
 47
0.0208333333333333
 47
0.0
 47
0.0
 47
0.0
 47
0.0
 47
1.0
 47
0.0
 47
0.0
 47
0.0
 47
0.0
 47
1.0
171
     0
172
     2
 49
0.0208333333333333
 49
0.0
 49
0.0
 49
0.0
 49
0.0
 49
0.0208333333333333
 49
0.0
 49
0.0
 49
0.0
 49
0.0
 49
1.0
 49
0.0
 49
0.0
 49
0.0
 49
0.0
 49
1.0
175
     0
176
     2
142
0.0208333333333333
142
0.0
142
0.0
142
0.0
142
0.0
142
0.0208333333333333
142
0.0
142
0.0
142
0.0
142
0.0
142
1.0
142
0.0
142
0.0
142
0.0
142
0.0
142
1.0
179
     0
270
     2
144
0.0208333333333333
144
0.0
144
0.0
144
0.0
144
0.0
144
0.0208333333333333
144
0.0
144
0.0
144
0.0
144
0.0
144
1.0
144
0.0
144
0.0
144
0.0
144
0.0
144
1.0
274
     2
147
0.0208333333333333
147
0.0
147
0.0
147
0.0
147
0.0
147
0.0208333333333333
147
0.0
147
0.0
147
0.0
147
0.0
147
1.0
147
0.0
147
0.0
147
0.0
147
0.0
147
1.0
  0
ACAD_PROXY_OBJECT
  5
D9E8
102
{ACAD_REACTORS
330
D9E7
102
}
330
D9E7
100
AcDbZombieObject
 90
      499
 91
      511
 93
      610
310
40901902A4063FBFFFFFE000000000000002040AD7A3703D0AD73F4214DD185B99185C990000000000000104090141901A00000000000004100000000000000041025764000000000000300FC0
340
12
340
0
340
F
340
0
 94
        0
1001
ACAD_MLEADERVER
1070
     2
  0
MLINESTYLE
  5
1C
102
{ACAD_REACTORS
330
1B
102
}
330
1B
100
AcDbMlineStyle
  2
STANDARD
 70
     0
  3

 62
   256
 51
90.0
 52
90.0
 71
     2
 49
0.5
 62
   256
  6
BYLAYER
 49
-0.5
 62
   256
  6
BYLAYER
  0
ACAD_PROXY_OBJECT
  5
D9C6
102
{ACAD_REACTORS
330
D9C5
102
}
330
D9C5
100
AcDbZombieObject
 90
      499
 91
      510
 93
       41
310
903313A31580
  0
ACAD_PROXY_OBJECT
  5
D9C7
102
{ACAD_REACTORS
330
D9C5
102
}
330
D9C5
100
AcDbZombieObject
 90
      499
 91
      510
 93
      105
310
903313A324000000000000004000
  0
ACAD_PROXY_OBJECT
  5
D9C8
102
{ACAD_REACTORS
330
D9C5
102
}
330
D9C5
100
AcDbZombieObject
 90
      499
 91
      510
 93
      105
310
903313A344000000000000104000
  0
ACAD_PROXY_OBJECT
  5
D9C9
102
{ACAD_REACTORS
330
D9C5
102
}
330
D9C5
100
AcDbZombieObject
 90
      499
 91
      510
 93
      105
310
903313A354000000000000144000
  0
ACAD_PROXY_OBJECT
  5
D9CA
102
{ACAD_REACTORS
330
D9C5
102
}
330
D9C5
100
AcDbZombieObject
 90
      499
 91
      510
 93
      105
310
903313A384000000000000204000
  0
ACAD_PROXY_OBJECT
  5
D9CB
102
{ACAD_REACTORS
330
D9C5
102
}
330
D9C5
100
AcDbZombieObject
 90
      499
 91
      510
 93
      113
310
904313A31304000000000000244000
  0
ACAD_PROXY_OBJECT
  5
D9CC
102
{ACAD_REACTORS
330
D9C5
102
}
330
D9C5
100
AcDbZombieObject
 90
      499
 91
      510
 93
      113
310
904313A31364000000000000304000
  0
ACAD_PROXY_OBJECT
  5
D9CD
102
{ACAD_REACTORS
330
D9C5
102
}
330
D9C5
100
AcDbZombieObject
 90
      499
 91
      510
 93
      113
310
904313A32304000000000000344000
  0
ACAD_PROXY_OBJECT
  5
D9CE
102
{ACAD_REACTORS
330
D9C5
102
}
330
D9C5
100
AcDbZombieObject
 90
      499
 91
      510
 93
      113
310
904313A333040000000000003E4000
  0
ACAD_PROXY_OBJECT
  5
D9CF
102
{ACAD_REACTORS
330
D9C5
102
}
330
D9C5
100
AcDbZombieObject
 90
      499
 91
      510
 93
      113
310
904313A34304000000000000444000
  0
ACAD_PROXY_OBJECT
  5
D9D0
102
{ACAD_REACTORS
330
D9C5
102
}
330
D9C5
100
AcDbZombieObject
 90
      499
 91
      510
 93
      113
310
904313A35304000000000000494000
  0
ACAD_PROXY_OBJECT
  5
D9D1
102
{ACAD_REACTORS
330
D9C5
102
}
330
D9C5
100
AcDbZombieObject
 90
      499
 91
      510
 93
      121
310
905313A3130304000000000000594000
  0
ACAD_PROXY_OBJECT
  5
D9D2
102
{ACAD_REACTORS
330
D9C5
102
}
330
D9C5
100
AcDbZombieObject
 90
      499
 91
      510
 93
      105
310
903323A310000000000000010100
  0
ACAD_PROXY_OBJECT
  5
D9D3
102
{ACAD_REACTORS
330
D9C5
102
}
330
D9C5
100
AcDbZombieObject
 90
      499
 91
      510
 93
      105
310
903343A310000000000000410100
  0
ACAD_PROXY_OBJECT
  5
D9D4
102
{ACAD_REACTORS
330
D9C5
102
}
330
D9C5
100
AcDbZombieObject
 90
      499
 91
      510
 93
      105
310
903383A310000000000000810100
  0
ACAD_PROXY_OBJECT
  5
D9D5
102
{ACAD_REACTORS
330
D9C5
102
}
330
D9C5
100
AcDbZombieObject
 90
      499
 91
      510
 93
      113
310
90431303A310000000000000910100
  0
ACAD_PROXY_OBJECT
  5
D9D6
102
{ACAD_REACTORS
330
D9C5
102
}
330
D9C5
100
AcDbZombieObject
 90
      499
 91
      510
 93
      121
310
9053130303A310000000000001650100
  0
ACAD_PROXY_OBJECT
  5
D9D7
102
{ACAD_REACTORS
330
D9C5
102
}
330
D9C5
100
AcDbZombieObject
 90
      499
 91
      510
 93
      257
310
90E312F31323822203D2031272D3022000000000000200FC000000000000284000
  0
ACAD_PROXY_OBJECT
  5
D9D8
102
{ACAD_REACTORS
330
D9C5
102
}
330
D9C5
100
AcDbZombieObject
 90
      499
 91
      510
 93
      249
310
90D312F363422203D2031272D3022000000000000240FC000000000000284000
  0
ACAD_PROXY_OBJECT
  5
D9D9
102
{ACAD_REACTORS
330
D9C5
102
}
330
D9C5
100
AcDbZombieObject
 90
      499
 91
      510
 93
      249
310
90D312F333222203D2031272D3022000000000000280FC000000000000284000
  0
ACAD_PROXY_OBJECT
  5
D9DA
102
{ACAD_REACTORS
330
D9C5
102
}
330
D9C5
100
AcDbZombieObject
 90
      499
 91
      510
 93
      249
310
90D312F313622203D2031272D30220000000000002C0FC000000000000284000
  0
ACAD_PROXY_OBJECT
  5
D9DB
102
{ACAD_REACTORS
330
D9C5
102
}
330
D9C5
100
AcDbZombieObject
 90
      499
 91
      510
 93
      249
310
90D332F333222203D2031272D30220000000000002E0FC000000000000284000
  0
ACAD_PROXY_OBJECT
  5
D9DC
102
{ACAD_REACTORS
330
D9C5
102
}
330
D9C5
100
AcDbZombieObject
 90
      499
 91
      510
 93
      241
310
90C312F3822203D2031272D3022000000000000300FC000000000000284000
  0
ACAD_PROXY_OBJECT
  5
D9DD
102
{ACAD_REACTORS
330
D9C5
102
}
330
D9C5
100
AcDbZombieObject
 90
      499
 91
      510
 93
      249
310
90D332F313622203D2031272D3022000000000000320FC000000000000284000
  0
ACAD_PROXY_OBJECT
  5
D9DE
102
{ACAD_REACTORS
330
D9C5
102
}
330
D9C5
100
AcDbZombieObject
 90
      499
 91
      510
 93
      241
310
90C312F3422203D2031272D3022000000000000340FC000000000000284000
  0
ACAD_PROXY_OBJECT
  5
D9DF
102
{ACAD_REACTORS
330
D9C5
102
}
330
D9C5
100
AcDbZombieObject
 90
      499
 91
      510
 93
      241
310
90C332F3822203D2031272D3022000000000000360FC000000000000284000
  0
ACAD_PROXY_OBJECT
  5
D9E0
102
{ACAD_REACTORS
330
D9C5
102
}
330
D9C5
100
AcDbZombieObject
 90
      499
 91
      510
 93
      241
310
90C312F3222203D2031272D3022000000000000380FC000000000000284000
  0
ACAD_PROXY_OBJECT
  5
D9E1
102
{ACAD_REACTORS
330
D9C5
102
}
330
D9C5
100
AcDbZombieObject
 90
      499
 91
      510
 93
      241
310
90C332F3422203D2031272D30220000000000003A0FC000000000000284000
  0
ACAD_PROXY_OBJECT
  5
D9E2
102
{ACAD_REACTORS
330
D9C5
102
}
330
D9C5
100
AcDbZombieObject
 90
      499
 91
      510
 93
      161
310
90A3122203D2031272D30224000000000000284000
  0
ACAD_PROXY_OBJECT
  5
D9E3
102
{ACAD_REACTORS
330
D9C5
102
}
330
D9C5
100
AcDbZombieObject
 90
      499
 91
      510
 93
      257
310
90E312D312F3222203D2031272D30220000000000003E0FC000000000000284000
  0
ACAD_PROXY_OBJECT
  5
D9E4
102
{ACAD_REACTORS
330
D9C5
102
}
330
D9C5
100
AcDbZombieObject
 90
      499
 91
      510
 93
      225
310
90A3322203D2031272D302200000000000002100000000000000284000
  0
ACAD_PROXY_OBJECT
  5
D9E5
102
{ACAD_REACTORS
330
D9C5
102
}
330
D9C5
100
AcDbZombieObject
 90
      499
 91
      510
 93
      225
310
90A3622203D2031272D302200000000000006100000000000000284000
  0
ACAD_PROXY_OBJECT
  5
D9E6
102
{ACAD_REACTORS
330
D9C5
102
}
330
D9C5
100
AcDbZombieObject
 90
      499
 91
      510
 93
      249
310
90D31272D3022203D2031272D30220000000000000A100000000000000284000
  0
ACAD_PROXY_OBJECT
  5
D9BA
102
{ACAD_REACTORS
330
D9B4
102
}
330
D9B4
100
AcDbZombieObject
 90
      499
 91
      509
 93
      436
310
42CC9915DA5C99599C985B595049028333333333333E3BF0000000000000FB0107901411070040501600405405064090741402480A0340
1001
ACAD
1000
AcDbSavedByObjectVersion
1070
     0
  0
ACAD_PROXY_OBJECT
  5
D9BC
102
{ACAD_REACTORS
330
D9B4
102
}
330
D9B4
100
AcDbZombieObject
 90
      499
 91
      509
 93
      500
310
424CD108121A5919195B90640502408333333333333E3BF0000000000000FB01079024090700405020000000000001110200405405064090740C02480A0340
1001
ACAD
1000
AcDbSavedByObjectVersion
1070
     0
  0
ACAD_PROXY_OBJECT
  5
D9BB
102
{ACAD_REACTORS
330
D9B4
102
}
330
D9B4
100
AcDbZombieObject
 90
      499
 91
      509
 93
      436
310
42CCD915DA5C99599C985B595059028333333333333E3BF0000000000000FB0107901411070040501600405405064090741402480A0340
1001
ACAD
1000
AcDbSavedByObjectVersion
1070
     0
  0
ACAD_PROXY_OBJECT
  5
D9B9
102
{ACAD_REACTORS
330
D9B4
102
}
330
D9B4
100
AcDbZombieObject
 90
      499
 91
      509
 93
      388
310
4150985CDA58D07406404333333333333E3BF0000000000000FB0107A41107004050150841D405064090741402480A0350
1001
ACAD
1000
AcDbSavedByObjectVersion
1070
     0
  0
ACAD_PROXY_OBJECT
  5
D9C0
102
{ACAD_REACTORS
330
D9B4
102
}
330
D9B4
100
AcDbZombieObject
 90
      499
 91
      509
 93
      428
310
42109C9A59DA1D195B90C409028333333333333E3BF0000000000000FB010790141107004050150841D405064090741402480A029950
1001
ACAD
1000
AcDbSavedByObjectVersion
1070
     0
  0
ACAD_PROXY_OBJECT
  5
D9C4
102
{ACAD_REACTORS
330
D9B4
102
}
330
D9B4
100
AcDbZombieObject
 90
      499
 91
      509
 93
      452
310
42D0DBDB1BDC90DA185B99D95104090240C333333333333E3BF0000000000000FB0108901411070040501508421405064090741402480A0350
1001
ACAD
1000
AcDbSavedByObjectVersion
1070
     0
  0
ACAD_PROXY_OBJECT
  5
D9BD
102
{ACAD_REACTORS
330
D9B4
102
}
330
D9B4
100
AcDbZombieObject
 90
      499
 91
      509
 93
      500
310
4290DBDB98D95C1D1D585B10940D028333333333333E3BF0000000000000FB0107902409070040501000000000000111010841D405064090740C02480A0340
1001
ACAD
1000
AcDbSavedByObjectVersion
1070
     0
  0
ACAD_PROXY_OBJECT
  5
D9BF
102
{ACAD_REACTORS
330
D9B4
102
}
330
D9B4
100
AcDbZombieObject
 90
      499
 91
      509
 93
      412
310
40D11A5B50B409028333333333333E3BF0000000000000FB010790141107004050150841D405064090741402480A02677FFFFFD0
1001
ACAD
1000
AcDbSavedByObjectVersion
1070
     0
  0
ACAD_PROXY_OBJECT
  5
19C2F
102
{ACAD_REACTORS
330
D9B4
102
}
330
D9B4
100
AcDbZombieObject
 90
      499
 91
      509
 93
      452
310
43115919D950DBDB1BDC93D999916409028333333333333E3BF0000000000000FB010790141107004050150841D405064090741402480A0350
1001
ACAD
1000
AcDbSavedByObjectVersion
1070
     0
  0
ACAD_PROXY_OBJECT
  5
D9C3
102
{ACAD_REACTORS
330
D9B4
102
}
330
D9B4
100
AcDbZombieObject
 90
      499
 91
      509
 93
      444
310
42D19858D95C185D1D195C9B90F409028333333333333E3BF0000000000000FB010790141107004050150841D405064090741402480A0350
1001
ACAD
1000
AcDbSavedByObjectVersion
1070
     0
  0
ACAD_PROXY_OBJECT
  5
D9B5
102
{ACAD_REACTORS
330
D9B4
102
}
330
D9B4
100
AcDbZombieObject
 90
      499
 91
      509
 93
      388
310
41119B185D240901404333333333333E3BF0000000000000F9010740A41107004050150841D405064090741402480A1B50
1001
ACAD
1000
AcDbSavedByObjectVersion
1070
     0
  0
ACAD_PROXY_OBJECT
  5
D9B6
102
{ACAD_REACTORS
330
D9B4
102
}
330
D9B4
100
AcDbZombieObject
 90
      499
 91
      509
 93
      476
310
43519B185D15DA5D1A115919D95CD0140901404333333333333E3BF0000000000000F9010740901411070040501600405405064090741402480A1B50
1001
ACAD
1000
AcDbSavedByObjectVersion
1070
     0
  0
ACAD_PROXY_OBJECT
  5
D9B7
102
{ACAD_REACTORS
330
D9B4
102
}
330
D9B4
100
AcDbZombieObject
 90
      499
 91
      509
 93
      412
310
41D1DBDD5C985D5910240902404333333333333E3BF0000000000000F9010740A411070040501641D405064090741402480A1B50
1001
ACAD
1000
AcDbSavedByObjectVersion
1070
     0
  0
ACAD_PROXY_OBJECT
  5
D9B8
102
{ACAD_REACTORS
330
D9B4
102
}
330
D9B4
100
AcDbZombieObject
 90
      499
 91
      509
 93
      500
310
4411DBDD5C985D5915DA5D1A115919D95CD0340902404333333333333E3BF0000000000000F9010740901411070040501600405405064090741402480A1B50
1001
ACAD
1000
AcDbSavedByObjectVersion
1070
     0
  0
ACAD_PROXY_OBJECT
  5
19C7E
102
{ACAD_REACTORS
330
D9B4
102
}
330
D9B4
100
AcDbZombieObject
 90
      499
 91
      509
 93
      476
310
41921A5919195B90640502408333333333333E3BF0000000000000FB01079024090700405020000000000001110200405405064090740C02480A0340
1001
ACAD
1000
AcDbSavedByObjectVersion
1070
     0
  0
ACAD_PROXY_OBJECT
  5
19C2D
102
{ACAD_REACTORS
330
D9B4
102
}
330
D9B4
100
AcDbZombieObject
 90
      499
 91
      509
 93
      428
310
42529A5D1D195C93D999914409028333333333333E3BF0000000000000FB010790141107004050150A41D405064090741402480A0350
1001
ACAD
1000
AcDbSavedByObjectVersion
1070
     0
  0
ACAD_PROXY_OBJECT
  5
D9C2
102
{ACAD_REACTORS
330
D9B4
102
}
330
D9B4
100
AcDbZombieObject
 90
      499
 91
      509
 93
      444
310
42D31A5B995C185D1D195C9B90E409028333333333333E3BF0000000000000FB010790141107004050750841D405064090741402483A0350
1001
ACAD
1000
AcDbSavedByObjectVersion
1070
     0
  0
ACAD_PROXY_OBJECT
  5
19C84
102
{ACAD_REACTORS
330
D9B4
102
}
330
D9B4
100
AcDbZombieObject
 90
      499
 91
      509
 93
      484
310
42135BD9195B1A5B99D0A409028333333333333E3BF0000000000000F901074090290700405010000000000201990108421405064090741402480A1B40
1001
ACAD
1000
AcDbSavedByObjectVersion
1070
     0
  0
ACAD_PROXY_OBJECT
  5
19C2E
102
{ACAD_REACTORS
330
D9B4
102
}
330
D9B4
100
AcDbZombieObject
 90
      499
 91
      509
 93
      444
310
42D3DD995C9A185B99D3D999915409028333333333333E3BF0000000000000FB010790141107004050150941D405064090741402480A0350
1001
ACAD
1000
AcDbSavedByObjectVersion
1070
     0
  0
ACAD_PROXY_OBJECT
  5
D9BE
102
{ACAD_REACTORS
330
D9B4
102
}
330
D9B4
100
AcDbZombieObject
 90
      499
 91
      509
 93
      420
310
425499585B1A5CDD1A58D08409028333333333333E3BF0000000000000FB01079019070040501508421405064090741402480A1B40
1001
ACAD
1000
AcDbSavedByObjectVersion
1070
     0
  0
ACAD_PROXY_OBJECT
  5
19C83
102
{ACAD_REACTORS
330
D9B4
102
}
330
D9B4
100
AcDbZombieObject
 90
      499
 91
      509
 93
      420
310
4194DA1859195911B40902404333333333333E3BF0000000000000F9010740A41107004050150800405405064090840C02480A0B40
1001
ACAD
1000
AcDbSavedByObjectVersion
1070
     0
  0
ACAD_PROXY_OBJECT
  5
19C82
102
{ACAD_REACTORS
330
D9B4
102
}
330
D9B4
100
AcDbZombieObject
 90
      499
 91
      509
 93
      516
310
4454DA18591959081DDA5D1A08195919D95CD1A40902404333333333333E3BF0000000000000F901074090142907004050250800405405064090740C02480A0B40
1001
ACAD
1000
AcDbSavedByObjectVersion
1070
     0
  0
ACAD_PROXY_OBJECT
  5
19C7F
102
{ACAD_REACTORS
330
D9B4
102
}
330
D9B4
100
AcDbZombieObject
 90
      499
 91
      509
 93
      532
310
4394DA1859195CC81BD98811DC985E5174090240C333333333333E3BF0000000000000FB01079024090741D01000000000000111010841D405064090740C02480A0340
1001
ACAD
1000
AcDbSavedByObjectVersion
1070
     0
  0
ACAD_PROXY_OBJECT
  5
19C80
102
{ACAD_REACTORS
330
D9B4
102
}
330
D9B4
100
AcDbZombieObject
 90
      499
 91
      509
 93
      476
310
41D4DAD95D18DA1E51840502408333333333333E3BF0000000000000FB01079024090741D01000000000000111010B41D405064090741802480A0340
1001
ACAD
1000
AcDbSavedByObjectVersion
1070
     0
  0
ACAD_PROXY_OBJECT
  5
D9C1
102
{ACAD_REACTORS
330
D9B4
102
}
330
D9B4
100
AcDbZombieObject
 90
      499
 91
      509
 93
      412
310
41D51A1A58DAD95B90D409028333333333333E3BF0000000000000FB010790141107004050150C41D405064090741402480A0350
1001
ACAD
1000
AcDbSavedByObjectVersion
1070
     0
  0
ACAD_PROXY_OBJECT
  5
19C7D
102
{ACAD_REACTORS
330
D9B4
102
}
330
D9B4
100
AcDbZombieObject
 90
      499
 91
      509
 93
      420
310
4255DA5C99599C985B595059028333333333333E3BF0000000000000FB0107901411070040501600405405064090740C02480A0340
1001
ACAD
1000
AcDbSavedByObjectVersion
1070
     0
  0
ACAD_PROXY_OBJECT
  5
19C81
102
{ACAD_REACTORS
330
D9B4
102
}
330
D9B4
100
AcDbZombieObject
 90
      499
 91
      509
 93
      404
310
41560B54985E51940902404000000000000E03F0000000000000FB010740501907004050150841D405064090740C02480A1B40
1001
ACAD
1000
AcDbSavedByObjectVersion
1070
     0
  0
XRECORD
  5
1B990
102
{ACAD_REACTORS
330
1B98F
102
}
330
1B98F
100
AcDbXrecord
340
18D
  0
XRECORD
  5
1B991
102
{ACAD_REACTORS
330
1B98F
102
}
330
1B98F
100
AcDbXrecord
340
18C
  0
DICTIONARYVAR
  5
1AE56
102
{ACAD_REACTORS
330
37
102
}
330
37
100
DictionaryVariables
280
     0
  1
1:1
  0
DICTIONARYVAR
  5
DA6A
102
{ACAD_REACTORS
330
37
102
}
330
37
100
DictionaryVariables
280
     0
  1
Standard
  0
DICTIONARYVAR
  5
29E
102
{ACAD_REACTORS
330
37
102
}
330
37
100
DictionaryVariables
280
     0
  1
Standard
  0
DICTIONARYVAR
  5
38
102
{ACAD_REACTORS
330
37
102
}
330
37
100
DictionaryVariables
280
     0
  1
-1
  0
DICTIONARYVAR
  5
1CE
102
{ACAD_REACTORS
330
37
102
}
330
37
100
DictionaryVariables
280
     0
  1
2
  0
DICTIONARYVAR
  5
704E
102
{ACAD_REACTORS
330
37
102
}
330
37
100
DictionaryVariables
280
     0
  1
1
  0
DICTIONARYVAR
  5
DA6D
102
{ACAD_REACTORS
330
37
102
}
330
37
100
DictionaryVariables
280
     0
  1
0
  0
DICTIONARYVAR
  5
7052
102
{ACAD_REACTORS
330
37
102
}
330
37
100
DictionaryVariables
280
     0
  1
8
  0
DICTIONARYVAR
  5
7051
102
{ACAD_REACTORS
330
37
102
}
330
37
100
DictionaryVariables
280
     0
  1
1
  0
DICTIONARYVAR
  5
1A60C
102
{ACAD_REACTORS
330
37
102
}
330
37
100
DictionaryVariables
280
     0
  1
0
  0
DICTIONARYVAR
  5
704F
102
{ACAD_REACTORS
330
37
102
}
330
37
100
DictionaryVariables
280
     0
  1
8
  0
DICTIONARYVAR
  5
7050
102
{ACAD_REACTORS
330
37
102
}
330
37
100
DictionaryVariables
280
     0
  1
2
  0
DICTIONARYVAR
  5
1CF
102
{ACAD_REACTORS
330
37
102
}
330
37
100
DictionaryVariables
280
     0
  1

  0
DICTIONARYVAR
  5
DA6C
102
{ACAD_REACTORS
330
37
102
}
330
37
100
DictionaryVariables
280
     0
  1
127
  0
DICTIONARYVAR
  5
1AE33
102
{ACAD_REACTORS
330
37
102
}
330
37
100
DictionaryVariables
280
     0
  1
2
  0
DICTIONARY
  5
1BB2D
330
D9A4
100
AcDbDictionary
  3
ACAD_XREC_ROUNDTRIP
360
1BB2E
1001
ACAD
1000
TREAT_AS_HARD
1070
     1
  0
DICTIONARY
  5
1BB2F
330
D99C
100
AcDbDictionary
  3
ACAD_XREC_ROUNDTRIP
360
1BB30
1001
ACAD
1000
TREAT_AS_HARD
1070
     1
  0
DICTIONARY
  5
1BB31
330
D9AC
100
AcDbDictionary
  3
ACAD_XREC_ROUNDTRIP
360
1BB32
1001
ACAD
1000
TREAT_AS_HARD
1070
     1
  0
XRECORD
  5
1BB2E
102
{ACAD_REACTORS
330
1BB2D
102
}
330
1BB2D
100
AcDbXrecord
102
MATERIAL
148
0.0
149
0.0
149
0.0
 93
        0
 94
      127
282
     0
 72
     0
 77
     0
171
     0
175
     0
179
     0
273
     0
  0
XRECORD
  5
1BB30
102
{ACAD_REACTORS
330
1BB2F
102
}
330
1BB2F
100
AcDbXrecord
102
MATERIAL
148
0.0
149
0.0
149
0.0
 93
        0
 94
      127
282
     0
 72
     0
 77
     0
171
     0
175
     0
179
     0
273
     0
  0
XRECORD
  5
1BB32
102
{ACAD_REACTORS
330
1BB31
102
}
330
1BB31
100
AcDbXrecord
102
MATERIAL
148
0.0
149
0.0
149
0.0
 93
        0
 94
      127
282
     0
 72
     0
 77
     0
171
     0
175
     0
179
     0
273
     0
  0
ENDSEC
  0
EOF
