  0
SECTION
  2
HEADER
  9
$ACADVER
  1
AC1012
  9
$DWGCODEPAGE
  3
ansi_932
  9
$INSBASE
 10
0.0
 20
0.0
 30
0.0
  9
$EXTMIN
 10
4870.528255426399
 20
-417.6516801252556
 30
0.0
  9
$EXTMAX
 10
5486.828363766145
 20
7.349405706581877
 30
0.0000000003382273
  9
$LIMMIN
 10
0.0
 20
0.0
  9
$LIMMAX
 10
420.0
 20
297.0
  9
$ORTHOMODE
 70
     0
  9
$REGENMODE
 70
     1
  9
$FILLMODE
 70
     1
  9
$QTEXTMODE
 70
     0
  9
$MIRRTEXT
 70
     0
  9
$DRAGMODE
 70
     2
  9
$LTSCALE
 40
0.5
  9
$OSMODE
 70
 14463
  9
$ATTMODE
 70
     1
  9
$TEXTSIZE
 40
4.0
  9
$TRACEWID
 40
1.0
  9
$TEXTSTYLE
  7
STANDARD
  9
$CLAYER
  8
1TEXT
  9
$CELTYPE
  6
BYLAYER
  9
$CECOLOR
 62
   256
  9
$CELTSCALE
 40
1.0
  9
$DELOBJ
 70
     1
  9
$DISPSILH
 70
     0
  9
$DIMSCALE
 40
1.0
  9
$DIMASZ
 40
2.0
  9
$DIMEXO
 40
0.0
  9
$DIMDLI
 40
7.0
  9
$DIMRND
 40
0.0
  9
$DIMDLE
 40
0.0
  9
$DIMEXE
 40
1.0
  9
$DIMTP
 40
0.0
  9
$DIMTM
 40
0.0
  9
$DIMTXT
 40
3.5
  9
$DIMCEN
 40
0.0
  9
$DIMTSZ
 40
0.0
  9
$DIMTOL
 70
     0
  9
$DIMLIM
 70
     0
  9
$DIMTIH
 70
     0
  9
$DIMTOH
 70
     0
  9
$DIMSE1
 70
     0
  9
$DIMSE2
 70
     0
  9
$DIMTAD
 70
     1
  9
$DIMZIN
 70
     8
  9
$DIMBLK
  1

  9
$DIMASO
 70
     1
  9
$DIMSHO
 70
     1
  9
$DIMPOST
  1
 
  9
$DIMAPOST
  1

  9
$DIMALT
 70
     0
  9
$DIMALTD
 70
     2
  9
$DIMALTF
 40
25.4
  9
$DIMLFAC
 40
1.0
  9
$DIMTOFL
 70
     1
  9
$DIMTVP
 40
0.0
  9
$DIMTIX
 70
     0
  9
$DIMSOXD
 70
     0
  9
$DIMSAH
 70
     1
  9
$DIMBLK1
  1
OPEN30
  9
$DIMBLK2
  1
OPEN30
  9
$DIMSTYLE
  2
NEWX10
  9
$DIMCLRD
 70
   256
  9
$DIMCLRE
 70
   256
  9
$DIMCLRT
 70
   201
  9
$DIMTFAC
 40
0.7
  9
$DIMGAP
 40
0.7
  9
$DIMJUST
 70
     0
  9
$DIMSD1
 70
     0
  9
$DIMSD2
 70
     0
  9
$DIMTOLJ
 70
     1
  9
$DIMTZIN
 70
     8
  9
$DIMALTZ
 70
     0
  9
$DIMALTTZ
 70
     0
  9
$DIMFIT
 70
     2
  9
$DIMUPT
 70
     0
  9
$DIMUNIT
 70
     2
  9
$DIMDEC
 70
     2
  9
$DIMTDEC
 70
     4
  9
$DIMALTU
 70
     2
  9
$DIMALTTD
 70
     2
  9
$DIMTXSTY
  7
STANDARD
  9
$DIMAUNIT
 70
     0
  9
$LUNITS
 70
     2
  9
$LUPREC
 70
     4
  9
$SKETCHINC
 40
1.0
  9
$FILLETRAD
 40
0.0
  9
$AUNITS
 70
     0
  9
$AUPREC
 70
     2
  9
$MENU
  1
acad
  9
$ELEVATION
 40
0.0
  9
$PELEVATION
 40
0.0
  9
$THICKNESS
 40
0.0
  9
$LIMCHECK
 70
     0
  9
$CHAMFERA
 40
10.0
  9
$CHAMFERB
 40
10.0
  9
$CHAMFERC
 40
20.0
  9
$CHAMFERD
 40
0.0
  9
$SKPOLY
 70
     0
  9
$TDCREATE
 40
2451318.621352917
  9
$TDUPDATE
 40
2458165.364239039
  9
$TDINDWG
 40
1.5057726389
  9
$TDUSRTIMER
 40
1.5057726389
  9
$USRTIMER
 70
     1
  9
$ANGBASE
 50
0.0
  9
$ANGDIR
 70
     0
  9
$PDMODE
 70
     0
  9
$PDSIZE
 40
0.0
  9
$PLINEWID
 40
0.0
  9
$COORDS
 70
     2
  9
$SPLFRAME
 70
     0
  9
$SPLINETYPE
 70
     6
  9
$SPLINESEGS
 70
     8
  9
$ATTDIA
 70
     0
  9
$ATTREQ
 70
     1
  9
$HANDLING
 70
     1
  9
$HANDSEED
  5
C2C0
  9
$SURFTAB1
 70
     6
  9
$SURFTAB2
 70
     6
  9
$SURFTYPE
 70
     6
  9
$SURFU
 70
     6
  9
$SURFV
 70
     6
  9
$UCSNAME
  2

  9
$UCSORG
 10
0.0
 20
0.0
 30
0.0
  9
$UCSXDIR
 10
1.0
 20
0.0
 30
0.0
  9
$UCSYDIR
 10
0.0
 20
1.0
 30
0.0
  9
$PUCSNAME
  2

  9
$PUCSORG
 10
0.0
 20
0.0
 30
0.0
  9
$PUCSXDIR
 10
1.0
 20
0.0
 30
0.0
  9
$PUCSYDIR
 10
0.0
 20
1.0
 30
0.0
  9
$USERI1
 70
     0
  9
$USERI2
 70
     0
  9
$USERI3
 70
     0
  9
$USERI4
 70
     0
  9
$USERI5
 70
     0
  9
$USERR1
 40
0.0
  9
$USERR2
 40
0.0
  9
$USERR3
 40
0.0
  9
$USERR4
 40
0.0
  9
$USERR5
 40
0.0
  9
$WORLDVIEW
 70
     1
  9
$SHADEDGE
 70
     3
  9
$SHADEDIF
 70
    70
  9
$TILEMODE
 70
     1
  9
$MAXACTVP
 70
    48
  9
$PINSBASE
 10
0.0
 20
0.0
 30
0.0
  9
$PLIMCHECK
 70
     0
  9
$PEXTMIN
 10
1.000000000000000E+20
 20
1.000000000000000E+20
 30
1.000000000000000E+20
  9
$PEXTMAX
 10
-1.000000000000000E+20
 20
-1.000000000000000E+20
 30
-1.000000000000000E+20
  9
$PLIMMIN
 10
0.0
 20
0.0
  9
$PLIMMAX
 10
420.0
 20
297.0
  9
$UNITMODE
 70
     0
  9
$VISRETAIN
 70
     1
  9
$PLINEGEN
 70
     0
  9
$PSLTSCALE
 70
     1
  9
$TREEDEPTH
 70
  3020
  9
$PICKSTYLE
 70
     1
  9
$CMLSTYLE
  2
STANDARD
  9
$CMLJUST
 70
     0
  9
$CMLSCALE
 40
20.0
  9
$SAVEIMAGES
 70
     1
  0
ENDSEC
  0
SECTION
  2
CLASSES
  0
CLASS
  1
DICTIONARYVAR
  2
AcDbDictionaryVar
  3
ObjectDBX Classes
 90
        0
280
     0
281
     0
  0
CLASS
  1
IDBUFFER
  2
AcDbIdBuffer
  3
ObjectDBX Classes
 90
    32768
280
     0
281
     0
  0
CLASS
  1
LWPOLYLINE
  2
AcDbPolyline
  3
ObjectDBX Classes
 90
    32768
280
     0
281
     1
  0
CLASS
  1
ACDBDICTIONARYWDFLT
  2
AcDbDictionaryWithDefault
  3
ObjectDBX Classes
 90
    32768
280
     0
281
     0
  0
CLASS
  1
ACDBPLACEHOLDER
  2
AcDbPlaceHolder
  3
ObjectDBX Classes
 90
        0
280
     0
281
     0
  0
CLASS
  1
LAYOUT
  2
AcDbLayout
  3
ObjectDBX Classes
 90
        0
280
     0
281
     0
  0
CLASS
  1
TABLESTYLE
  2
AcDbTableStyle
  3
ObjectDBX Classes
 90
     4095
280
     0
281
     0
  0
CLASS
  1
SORTENTSTABLE
  2
AcDbSortentsTable
  3
ObjectDBX Classes
 90
    32768
280
     0
281
     0
  0
CLASS
  1
MATERIAL
  2
AcDbMaterial
  3
ObjectDBX Classes
 90
     1153
280
     0
281
     0
  0
CLASS
  1
VISUALSTYLE
  2
AcDbVisualStyle
  3
ObjectDBX Classes
 90
     4095
280
     0
281
     0
  0
CLASS
  1
SCALE
  2
AcDbScale
  3
ObjectDBX Classes
 90
     1153
280
     0
281
     0
  0
CLASS
  1
MLEADERSTYLE
  2
AcDbMLeaderStyle
  3
ACDB_MLEADERSTYLE_CLASS
 90
     4095
280
     0
281
     0
  0
CLASS
  1
CELLSTYLEMAP
  2
AcDbCellStyleMap
  3
ObjectDBX Classes
 90
     1152
280
     0
281
     0
  0
CLASS
  1
SUN
  2
AcDbSun
  3
SCENEOE
 90
     1153
280
     0
281
     0
  0
CLASS
  1
XRECORD
  2
AcDbXrecord
  3
ObjectDBX Classes
 90
    32768
280
     0
281
     0
  0
CLASS
  1
HATCH
  2
AcDbHatch
  3
ObjectDBX Classes
 90
    32768
280
     0
281
     1
  0
ENDSEC
  0
SECTION
  2
TABLES
  0
TABLE
  2
VPORT
  5
8
330
0
100
AcDbSymbolTable
 70
     1
  0
VPORT
  5
952D
330
8
100
AcDbSymbolTableRecord
100
AcDbViewportTableRecord
  2
*ACTIVE
 70
     0
 10
0.0
 20
0.0
 11
1.0
 21
1.0
 12
5178.678309596273
 22
-205.1511372093368
 13
0.0
 23
0.0
 14
10.0
 24
10.0
 15
10.0
 25
10.0
 16
0.0
 26
0.0
 36
1.0
 17
0.0
 27
0.0
 37
0.0
 40
456.3169553141834
 41
1.871481028151775
 42
50.0
 43
0.0
 44
0.0
 50
0.0
 51
0.0
 71
    16
 72
   100
 73
     1
 74
     1
 75
     0
 76
     0
 77
     0
 78
     0
1001
ACAD_NAV_VCDISPLAY
1070
     3
  0
ENDTAB
  0
TABLE
  2
LTYPE
  5
5
330
0
100
AcDbSymbolTable
 70
     3
  0
LTYPE
  5
12
330
5
100
AcDbSymbolTableRecord
100
AcDbLinetypeTableRecord
  2
BYBLOCK
 70
     0
  3

 72
    65
 73
     0
 40
0.0
  0
LTYPE
  5
13
330
5
100
AcDbSymbolTableRecord
100
AcDbLinetypeTableRecord
  2
BYLAYER
 70
     0
  3

 72
    65
 73
     0
 40
0.0
  0
LTYPE
  5
14
330
5
100
AcDbSymbolTableRecord
100
AcDbLinetypeTableRecord
  2
CONTINUOUS
 70
     0
  3
Solid line
 72
    65
 73
     0
 40
0.0
  0
LTYPE
  5
2C03
330
5
100
AcDbSymbolTableRecord
100
AcDbLinetypeTableRecord
  2
HIDDEN
 70
     0
  3
Hidden __ __ __ __ __ __ __ __ __ __ __ __ __ _
 72
    65
 73
     2
 40
9.524999999999999
 49
6.35
 74
     0
 49
-3.175
 74
     0
  0
LTYPE
  5
9837
330
5
100
AcDbSymbolTableRecord
100
AcDbLinetypeTableRecord
  2
CENTER2
 70
     0
  3
Center (.5x) ___ _ ___ _ ___ _ ___ _ ___ _ ___
 72
    65
 73
     4
 40
28.575
 49
19.05
 74
     0
 49
-3.175
 74
     0
 49
3.175
 74
     0
 49
-3.175
 74
     0
  0
ENDTAB
  0
TABLE
  2
LAYER
  5
2
102
{ACAD_XDICTIONARY
360
96D9
102
}
330
0
100
AcDbSymbolTable
 70
     6
  0
LAYER
  5
E
102
{ACAD_XDICTIONARY
360
9593
102
}
330
2
100
AcDbSymbolTableRecord
100
AcDbLayerTableRecord
  2
0
 70
     0
 62
     7
  6
CONTINUOUS
  0
LAYER
  5
29
102
{ACAD_XDICTIONARY
360
9595
102
}
330
2
100
AcDbSymbolTableRecord
100
AcDbLayerTableRecord
  2
1CENTER
 70
     0
 62
     7
  6
CENTER2
  0
LAYER
  5
31
102
{ACAD_XDICTIONARY
360
9597
102
}
330
2
100
AcDbSymbolTableRecord
100
AcDbLayerTableRecord
  2
1TEXT
 70
     0
 62
     7
  6
CONTINUOUS
  0
LAYER
  5
243
102
{ACAD_XDICTIONARY
360
959D
102
}
330
2
100
AcDbSymbolTableRecord
100
AcDbLayerTableRecord
  2
01
 70
     0
 62
     1
  6
CONTINUOUS
  0
LAYER
  5
24E
102
{ACAD_XDICTIONARY
360
95A3
102
}
330
2
100
AcDbSymbolTableRecord
100
AcDbLayerTableRecord
  2
1DIM
 70
     0
 62
     7
  6
CONTINUOUS
  0
LAYER
  5
2C05
102
{ACAD_XDICTIONARY
360
95AF
102
}
330
2
100
AcDbSymbolTableRecord
100
AcDbLayerTableRecord
  2
1HIDDEN
 70
     0
 62
     7
  6
HIDDEN
  0
ENDTAB
  0
TABLE
  2
STYLE
  5
3
330
0
100
AcDbSymbolTable
 70
     1
  0
STYLE
  5
F
330
3
100
AcDbSymbolTableRecord
100
AcDbTextStyleTableRecord
  2
STANDARD
 70
     0
 40
0.0
 41
1.0
 50
0.0
 71
     0
 42
4.0
  3
txt.shx
  4
extfont.shx
  0
ENDTAB
  0
TABLE
  2
VIEW
  5
6
330
0
100
AcDbSymbolTable
 70
     0
  0
ENDTAB
  0
TABLE
  2
UCS
  5
7
330
0
100
AcDbSymbolTable
 70
     0
  0
ENDTAB
  0
TABLE
  2
APPID
  5
9
330
0
100
AcDbSymbolTable
 70
    16
  0
APPID
  5
10
330
9
100
AcDbSymbolTableRecord
100
AcDbRegAppTableRecord
  2
ACAD
 70
     0
  0
APPID
  5
21
330
9
100
AcDbSymbolTableRecord
100
AcDbRegAppTableRecord
  2
DRAWINGVARIABLESXDATA
 70
     0
  0
APPID
  5
64
330
9
100
AcDbSymbolTableRecord
100
AcDbRegAppTableRecord
  2
CONTENTTABDATA
 70
     0
  0
APPID
  5
65
330
9
100
AcDbSymbolTableRecord
100
AcDbRegAppTableRecord
  2
CONTENTCURRENTTAB
 70
     0
  0
APPID
  5
66
330
9
100
AcDbSymbolTableRecord
100
AcDbRegAppTableRecord
  2
CONTENTBLOCKDESCRIPTION
 70
     0
  0
APPID
  5
67
330
9
100
AcDbSymbolTableRecord
100
AcDbRegAppTableRecord
  2
CONTENTBLOCKICON
 70
     0
  0
APPID
  5
68
330
9
100
AcDbSymbolTableRecord
100
AcDbRegAppTableRecord
  2
CONTENTLONGBLOCKNAME
 70
     0
  0
APPID
  5
2AE
330
9
100
AcDbSymbolTableRecord
100
AcDbRegAppTableRecord
  2
ACAD_PSEXT
 70
     0
  0
APPID
  5
9585
330
9
100
AcDbSymbolTableRecord
100
AcDbRegAppTableRecord
  2
ACAD_MLEADERVER
 70
     0
  0
APPID
  5
A2E3
330
9
100
AcDbSymbolTableRecord
100
AcDbRegAppTableRecord
  2
ACADANNOTATIVE
 70
     0
  0
APPID
  5
A2E4
330
9
100
AcDbSymbolTableRecord
100
AcDbRegAppTableRecord
  2
ACDBBLOCKREPETAG
 70
     0
  0
APPID
  5
AEB1
330
9
100
AcDbSymbolTableRecord
100
AcDbRegAppTableRecord
  2
ACAD_NAV_VCDISPLAY
 70
     0
  0
APPID
  5
AEFE
330
9
100
AcDbSymbolTableRecord
100
AcDbRegAppTableRecord
  2
ACAECLAYERSTANDARD
 70
     0
  0
APPID
  5
B052
330
9
100
AcDbSymbolTableRecord
100
AcDbRegAppTableRecord
  2
ACAD_DSTYLE_DIMJAG
 70
     0
  0
APPID
  5
B053
330
9
100
AcDbSymbolTableRecord
100
AcDbRegAppTableRecord
  2
ACAD_DSTYLE_DIMTALN
 70
     0
  0
APPID
  5
B1D6
330
9
100
AcDbSymbolTableRecord
100
AcDbRegAppTableRecord
  2
ACAD_EXEMPT_FROM_CAD_STAND
 70
     0
  0
ENDTAB
  0
TABLE
  2
DIMSTYLE
  5
A
330
0
100
AcDbSymbolTable
 70
     1
  0
DIMSTYLE
105
48
330
A
100
AcDbSymbolTableRecord
100
AcDbDimStyleTableRecord
  2
NEWX10
 70
     0
  3
 
  4

  5

  6
OPEN30
  7
OPEN30
 40
1.0
 41
2.0
 42
0.0
 43
7.0
 44
1.0
 45
0.0
 46
0.0
 47
0.0
 48
0.0
140
3.5
141
0.0
142
0.0
143
25.4
144
1.0
145
0.0
146
0.7
147
0.7
 71
     0
 72
     0
 73
     0
 74
     0
 75
     0
 76
     0
 77
     1
 78
     8
170
     0
171
     2
172
     1
173
     1
174
     0
175
     0
176
   256
177
   256
178
   201
179
     2
270
     2
271
     2
272
     4
273
     2
274
     2
340
F
275
     0
280
     0
281
     0
282
     0
283
     1
284
     8
285
     0
286
     0
287
     2
288
     0
  0
ENDTAB
  0
TABLE
  2
BLOCK_RECORD
  5
1
330
0
100
AcDbSymbolTable
 70
     8
  0
BLOCK_RECORD
  5
18
102
{ACAD_XDICTIONARY
360
88F
102
}
330
1
100
AcDbSymbolTableRecord
100
AcDbBlockTableRecord
  2
*MODEL_SPACE
  0
BLOCK_RECORD
  5
15
330
1
100
AcDbSymbolTableRecord
100
AcDbBlockTableRecord
  2
*PAPER_SPACE
  0
BLOCK_RECORD
  5
42
330
1
100
AcDbSymbolTableRecord
100
AcDbBlockTableRecord
  2
_OPEN30
  0
BLOCK_RECORD
  5
A333
330
1
100
AcDbSymbolTableRecord
100
AcDbBlockTableRecord
  2
A3WAKUKAWAJUN2017_HYOUDAI_
  0
BLOCK_RECORD
  5
C120
330
1
100
AcDbSymbolTableRecord
100
AcDbBlockTableRecord
  2
*X36
  0
BLOCK_RECORD
  5
C16E
330
1
100
AcDbSymbolTableRecord
100
AcDbBlockTableRecord
  2
*X37
  0
BLOCK_RECORD
  5
C1C0
330
1
100
AcDbSymbolTableRecord
100
AcDbBlockTableRecord
  2
*X38
  0
BLOCK_RECORD
  5
C211
330
1
100
AcDbSymbolTableRecord
100
AcDbBlockTableRecord
  2
*X39
  0
BLOCK_RECORD
  5
C24E
330
1
100
AcDbSymbolTableRecord
100
AcDbBlockTableRecord
  2
*X40
  0
BLOCK_RECORD
  5
C28E
330
1
100
AcDbSymbolTableRecord
100
AcDbBlockTableRecord
  2
*X41
  0
ENDTAB
  0
ENDSEC
  0
SECTION
  2
BLOCKS
  0
BLOCK
  5
19
330
18
100
AcDbEntity
  8
0
100
AcDbBlockBegin
  2
*MODEL_SPACE
 70
     0
 10
0.0
 20
0.0
 30
0.0
  3
*MODEL_SPACE
  1

  0
ENDBLK
  5
1A
330
18
100
AcDbEntity
  8
0
100
AcDbBlockEnd
  0
BLOCK
  5
16
330
15
100
AcDbEntity
 67
     1
  8
0
100
AcDbBlockBegin
  2
*PAPER_SPACE
 70
     0
 10
0.0
 20
0.0
 30
0.0
  3
*PAPER_SPACE
  1

  0
ENDBLK
  5
17
330
15
100
AcDbEntity
 67
     1
  8
0
100
AcDbBlockEnd
  0
BLOCK
  5
43
330
42
100
AcDbEntity
  8
0
100
AcDbBlockBegin
  2
_OPEN30
 70
     0
 10
0.0
 20
0.0
 30
0.0
  3
_OPEN30
  1

  0
LINE
  5
44
330
42
100
AcDbEntity
  8
0
  6
BYBLOCK
 62
     0
100
AcDbLine
 10
-1.0
 20
0.26794919
 30
0.0
 11
0.0
 21
0.0
 31
0.0
  0
LINE
  5
45
330
42
100
AcDbEntity
  8
0
  6
BYBLOCK
 62
     0
100
AcDbLine
 10
0.0
 20
0.0
 30
0.0
 11
-1.0
 21
-0.26794919
 31
0.0
  0
LINE
  5
46
330
42
100
AcDbEntity
  8
0
  6
BYBLOCK
 62
     0
100
AcDbLine
 10
0.0
 20
0.0
 30
0.0
 11
-1.0
 21
0.0
 31
0.0
  0
ENDBLK
  5
47
330
42
100
AcDbEntity
  8
0
100
AcDbBlockEnd
  0
BLOCK
  5
AA56
330
A333
100
AcDbEntity
  8
0
100
AcDbBlockBegin
  2
A3WAKUKAWAJUN2017_HYOUDAI_
 70
     0
 10
0.0
 20
0.0
 30
0.0
  3
A3WAKUKAWAJUN2017_HYOUDAI_
  1

  0
LINE
  5
A335
330
A333
100
AcDbEntity
  8
0
100
AcDbLine
 10
13.26299999998673
 20
-0.0001000000000317
 30
0.0
 11
9.236999999990758
 21
8.999899999990987
 31
0.0
1001
ACAD
1000
ASC_BOUNDS
1002
{
1070
    19
1005
A376
1002
}
  0
LINE
  5
A336
330
A333
100
AcDbEntity
  8
0
100
AcDbLine
 10
5.657999999994331
 20
0.9999999999989768
 30
0.0
 11
9.236999999990758
 21
8.999999999991019
 31
0.0
1001
ACAD
1000
ASC_BOUNDS
1002
{
1070
    19
1005
A376
1002
}
  0
LINE
  5
A337
330
A333
100
AcDbEntity
  8
0
100
AcDbLine
 10
18.59199999998134
 20
-0.2368999999997641
 30
0.0
 11
16.46099999998353
 21
5.432899999994561
 31
0.0
1001
ACAD
1000
ASC_BOUNDS
1002
{
1070
    19
1005
A377
1002
}
  0
LINE
  5
A338
330
A333
100
AcDbEntity
  8
0
100
AcDbLine
 10
18.59199999998134
 20
-0.2368999999997641
 30
0.0
 11
22.38199999997767
 21
8.763099999991255
 31
0.0
1001
ACAD
1000
ASC_BOUNDS
1002
{
1070
    19
1005
A377
1002
}
  0
LINE
  5
A339
330
A333
100
AcDbEntity
  8
0
100
AcDbLine
 10
14.32899999998563
 20
-0.2368999999997641
 30
0.0
 11
16.46099999998353
 21
5.432899999994561
 31
0.0
1001
ACAD
1000
ASC_BOUNDS
1002
{
1070
    19
1005
A377
1002
}
  0
LINE
  5
A33A
330
A333
100
AcDbEntity
  8
0
100
AcDbLine
 10
14.32899999998563
 20
-0.2368999999997641
 30
0.0
 11
10.53899999998941
 21
8.763099999991255
 31
0.0
1001
ACAD
1000
ASC_BOUNDS
1002
{
1070
    19
1005
A377
1002
}
  0
LINE
  5
A33B
330
A333
100
AcDbEntity
  8
0
100
AcDbLine
 10
19.53899999998043
 20
-0.0001000000000317
 30
0.0
 11
23.56599999997638
 21
8.999899999990987
 31
0.0
1001
ACAD
1000
ASC_BOUNDS
1002
{
1070
    19
1005
A378
1002
}
  0
LINE
  5
A33C
330
A333
100
AcDbEntity
  8
0
100
AcDbLine
 10
26.97358892824991
 20
1.383099999991202
 30
0.0
 11
23.56599999997638
 21
8.999899999990987
 31
0.0
1001
ACAD
1000
ASC_BOUNDS
1002
{
1070
    19
1005
A378
1002
}
  0
LINE
  5
A33D
330
A333
100
AcDbEntity
  8
0
100
AcDbLine
 10
5.657999999994331
 20
0.9999999999989768
 30
0.0
 11
3.181999999996833
 21
4.668599999995308
 31
0.0
1001
ACAD
1000
ASC_BOUNDS
1002
{
1070
    19
1005
A376
1002
}
  0
LINE
  5
A33E
330
A333
100
AcDbEntity
  8
0
100
AcDbLine
 10
4.617999999995391
 20
-0.0001000000000317
 30
0.0
 11
1.420999999998571
 21
4.736799999995242
 31
0.0
1001
ACAD
1000
ASC_BOUNDS
1002
{
1070
    19
1005
A376
1002
}
  0
LINE
  5
A33F
330
A333
100
AcDbEntity
  8
0
100
AcDbLine
 10
1.420999999998571
 20
8.763099999991255
 30
0.0
 11
1.420999999998571
 21
0.0
 31
0.0
1001
ACAD
1000
ASC_BOUNDS
1002
{
1070
    19
1005
A37B
1002
}
  0
LINE
  5
A340
330
A333
100
AcDbEntity
  8
0
100
AcDbLine
 10
0.0
 20
8.763099999991255
 30
0.0
 11
0.0
 21
0.0
 31
0.0
1001
ACAD
1000
ASC_BOUNDS
1002
{
1070
    19
1005
A37B
1002
}
  0
LINE
  5
A341
330
A333
100
AcDbEntity
  8
0
100
AcDbLine
 10
6.766999999993232
 20
-0.0001000000000317
 30
0.0
 11
7.826999999992154
 21
2.368399999997621
 31
0.0
1001
ACAD
1000
ASC_BOUNDS
1002
{
1070
    19
1005
A376
1002
}
  0
LINE
  5
A342
330
A333
100
AcDbEntity
  8
0
100
AcDbLine
 10
0.0
 20
0.0
 30
0.0
 11
1.420999999998571
 21
0.0
 31
0.0
1001
ACAD
1000
ASC_BOUNDS
1002
{
1070
    19
1005
A37B
1002
}
  0
LINE
  5
A343
330
A333
100
AcDbEntity
  8
0
100
AcDbLine
 10
4.617999999995391
 20
0.0
 30
0.0
 11
6.766999999993232
 21
0.0
 31
0.0
1001
ACAD
1000
ASC_BOUNDS
1002
{
1070
    19
1005
A376
1002
}
  0
LINE
  5
A344
330
A333
100
AcDbEntity
  8
0
100
AcDbLine
 10
11.70599999998831
 20
-0.0001000000000317
 30
0.0
 11
10.64699999998936
 21
2.368399999997621
 31
0.0
1001
ACAD
1000
ASC_BOUNDS
1002
{
1070
    19
1005
A376
1002
}
  0
LINE
  5
A345
330
A333
100
AcDbEntity
  8
0
100
AcDbLine
 10
7.826999999992154
 20
2.368399999997621
 30
0.0
 11
10.64699999998936
 21
2.368399999997621
 31
0.0
1001
ACAD
1000
ASC_BOUNDS
1002
{
1070
    19
1005
A376
1002
}
  0
LINE
  5
A346
330
A333
100
AcDbEntity
  8
0
100
AcDbLine
 10
11.70599999998831
 20
0.0
 30
0.0
 11
13.26299999998673
 21
0.0
 31
0.0
1001
ACAD
1000
ASC_BOUNDS
1002
{
1070
    19
1005
A376
1002
}
  0
LINE
  5
A347
330
A333
100
AcDbEntity
  8
0
100
AcDbLine
 10
22.15599999997789
 20
2.368399999997621
 30
0.0
 11
24.97599999997499
 21
2.368399999997621
 31
0.0
1001
ACAD
1000
ASC_BOUNDS
1002
{
1070
    19
1005
A378
1002
}
  0
LINE
  5
A348
330
A333
100
AcDbEntity
  8
0
100
AcDbLine
 10
19.53899999998043
 20
0.0
 30
0.0
 11
21.09599999997886
 21
0.0
 31
0.0
1001
ACAD
1000
ASC_BOUNDS
1002
{
1070
    19
1005
A378
1002
}
  0
LINE
  5
A349
330
A333
100
AcDbEntity
  8
0
100
AcDbLine
 10
21.09599999997886
 20
-0.0001000000000317
 30
0.0
 11
22.15599999997789
 21
2.368399999997621
 31
0.0
1001
ACAD
1000
ASC_BOUNDS
1002
{
1070
    19
1005
A378
1002
}
  0
LINE
  5
A34A
330
A333
100
AcDbEntity
  8
0
100
AcDbLine
 10
26.02015566812236
 20
0.0330999999912365
 30
0.0
 11
24.97599999997499
 21
2.368399999997621
 31
0.0
1001
ACAD
1000
ASC_BOUNDS
1002
{
1070
    19
1005
A378
1002
}
  0
LINE
  5
A34B
330
A333
100
AcDbEntity
  8
0
100
AcDbLine
 10
14.32399999998563
 20
3.315799999996671
 30
0.0
 11
16.46099999998353
 21
8.999899999990987
 31
0.0
1001
ACAD
1000
ASC_BOUNDS
1002
{
1070
    19
1005
A377
1002
}
  0
LINE
  5
A34C
330
A333
100
AcDbEntity
  8
0
100
AcDbLine
 10
6.432999999993513
 20
8.763099999991255
 30
0.0
 11
3.181999999996833
 21
4.668599999995308
 31
0.0
1001
ACAD
1000
ASC_BOUNDS
1002
{
1070
    19
1005
A376
1002
}
  0
LINE
  5
A34D
330
A333
100
AcDbEntity
  8
0
100
AcDbLine
 10
4.617999999995391
 20
8.763099999991255
 30
0.0
 11
1.420999999998571
 21
4.736799999995242
 31
0.0
1001
ACAD
1000
ASC_BOUNDS
1002
{
1070
    19
1005
A376
1002
}
  0
LINE
  5
A34E
330
A333
100
AcDbEntity
  8
0
100
AcDbLine
 10
0.0
 20
8.763099999991255
 30
0.0
 11
1.420999999998571
 21
8.763099999991255
 31
0.0
1001
ACAD
1000
ASC_BOUNDS
1002
{
1070
    19
1005
A37B
1002
}
  0
LINE
  5
A34F
330
A333
100
AcDbEntity
  8
0
100
AcDbLine
 10
4.617999999995391
 20
8.763099999991255
 30
0.0
 11
6.432999999993513
 21
8.763099999991255
 31
0.0
1001
ACAD
1000
ASC_BOUNDS
1002
{
1070
    19
1005
A376
1002
}
  0
LINE
  5
A350
330
A333
100
AcDbEntity
  8
0
100
AcDbLine
 10
14.32399999998563
 20
3.315799999996671
 30
0.0
 11
12.02999999998792
 21
8.763099999991255
 31
0.0
1001
ACAD
1000
ASC_BOUNDS
1002
{
1070
    19
1005
A377
1002
}
  0
LINE
  5
A351
330
A333
100
AcDbEntity
  8
0
100
AcDbLine
 10
10.06399999998996
 20
3.670999999996297
 30
0.0
 11
9.236999999990758
 21
5.5200999999945
 31
0.0
1001
ACAD
1000
ASC_BOUNDS
1002
{
1070
    19
1005
A376
1002
}
  0
LINE
  5
A352
330
A333
100
AcDbEntity
  8
0
100
AcDbLine
 10
8.409999999991555
 20
3.670999999996297
 30
0.0
 11
9.236999999990758
 21
5.5200999999945
 31
0.0
1001
ACAD
1000
ASC_BOUNDS
1002
{
1070
    19
1005
A376
1002
}
  0
LINE
  5
A353
330
A333
100
AcDbEntity
  8
0
100
AcDbLine
 10
8.409999999991555
 20
3.670999999996297
 30
0.0
 11
10.06399999998996
 21
3.670999999996297
 31
0.0
1001
ACAD
1000
ASC_BOUNDS
1002
{
1070
    19
1005
A376
1002
}
  0
LINE
  5
A354
330
A333
100
AcDbEntity
  8
0
100
AcDbLine
 10
10.53899999998941
 20
8.763099999991255
 30
0.0
 11
12.02999999998792
 21
8.763099999991255
 31
0.0
1001
ACAD
1000
ASC_BOUNDS
1002
{
1070
    19
1005
A377
1002
}
  0
LINE
  5
A355
330
A333
100
AcDbEntity
  8
0
100
AcDbLine
 10
22.7389999999773
 20
3.670999999996297
 30
0.0
 11
23.56599999997638
 21
5.5200999999945
 31
0.0
1001
ACAD
1000
ASC_BOUNDS
1002
{
1070
    19
1005
A378
1002
}
  0
LINE
  5
A356
330
A333
100
AcDbEntity
  8
0
100
AcDbLine
 10
22.7389999999773
 20
3.670999999996297
 30
0.0
 11
24.39299999997559
 21
3.670999999996297
 31
0.0
1001
ACAD
1000
ASC_BOUNDS
1002
{
1070
    19
1005
A378
1002
}
  0
LINE
  5
A357
330
A333
100
AcDbEntity
  8
0
100
AcDbLine
 10
18.59799999998143
 20
3.315799999996671
 30
0.0
 11
20.89099999997916
 21
8.763099999991255
 31
0.0
1001
ACAD
1000
ASC_BOUNDS
1002
{
1070
    19
1005
A377
1002
}
  0
LINE
  5
A358
330
A333
100
AcDbEntity
  8
0
100
AcDbLine
 10
18.59799999998143
 20
3.315799999996671
 30
0.0
 11
16.46099999998353
 21
8.999899999990987
 31
0.0
1001
ACAD
1000
ASC_BOUNDS
1002
{
1070
    19
1005
A377
1002
}
  0
LINE
  5
A359
330
A333
100
AcDbEntity
  8
0
100
AcDbLine
 10
20.89099999997916
 20
8.763099999991255
 30
0.0
 11
22.38199999997767
 21
8.763099999991255
 31
0.0
1001
ACAD
1000
ASC_BOUNDS
1002
{
1070
    19
1005
A377
1002
}
  0
LINE
  5
A35A
330
A333
100
AcDbEntity
  8
0
100
AcDbLine
 10
24.39299999997559
 20
3.670999999996297
 30
0.0
 11
23.56599999997638
 21
5.5200999999945
 31
0.0
1001
ACAD
1000
ASC_BOUNDS
1002
{
1070
    19
1005
A378
1002
}
  0
LINE
  5
A35B
330
A333
100
AcDbEntity
  8
0
100
AcDbLine
 10
44.99999999995498
 20
-0.2368999999997641
 30
0.0
 11
40.02599999995994
 21
5.341799999994635
 31
0.0
1001
ACAD
1000
ASC_BOUNDS
1002
{
1070
    19
1005
A37A
1002
}
  0
LINE
  5
A35C
330
A333
100
AcDbEntity
  8
0
100
AcDbLine
 10
40.02599999995994
 20
5.341799999994635
 30
0.0
 11
40.02599999995994
 21
0.0
 31
0.0
1001
ACAD
1000
ASC_BOUNDS
1002
{
1070
    19
1005
A37A
1002
}
  0
LINE
  5
A35D
330
A333
100
AcDbEntity
  8
0
100
AcDbLine
 10
38.60499999996136
 20
8.999999999991019
 30
0.0
 11
38.60499999996136
 21
0.0
 31
0.0
1001
ACAD
1000
ASC_BOUNDS
1002
{
1070
    19
1005
A37A
1002
}
  0
LINE
  5
A35E
330
A333
100
AcDbEntity
  8
0
100
AcDbLine
 10
44.99999999995498
 20
8.763099999991255
 30
0.0
 11
44.99999999995498
 21
-0.2368999999997641
 31
0.0
1001
ACAD
1000
ASC_BOUNDS
1002
{
1070
    19
1005
A37A
1002
}
  0
LINE
  5
A35F
330
A333
100
AcDbEntity
  8
0
100
AcDbLine
 10
38.60499999996136
 20
0.0
 30
0.0
 11
40.02599999995994
 21
0.0
 31
0.0
1001
ACAD
1000
ASC_BOUNDS
1002
{
1070
    19
1005
A37A
1002
}
  0
LINE
  5
A360
330
A333
100
AcDbEntity
  8
0
100
AcDbLine
 10
43.57899999995641
 20
3.421199999996588
 30
0.0
 11
38.60499999996136
 21
8.999899999990987
 31
0.0
1001
ACAD
1000
ASC_BOUNDS
1002
{
1070
    19
1005
A37A
1002
}
  0
LINE
  5
A361
330
A333
100
AcDbEntity
  8
0
100
AcDbLine
 10
43.57899999995641
 20
8.763099999991255
 30
0.0
 11
43.57899999995641
 21
3.421199999996588
 31
0.0
1001
ACAD
1000
ASC_BOUNDS
1002
{
1070
    19
1005
A37A
1002
}
  0
LINE
  5
A362
330
A333
100
AcDbEntity
  8
0
100
AcDbLine
 10
43.57899999995641
 20
8.763099999991255
 30
0.0
 11
44.99999999995498
 21
8.763099999991255
 31
0.0
1001
ACAD
1000
ASC_BOUNDS
1002
{
1070
    19
1005
A37A
1002
}
  0
LINE
  5
A363
330
A333
100
AcDbEntity
  8
0
100
AcDbLine
 10
37.67199999996831
 20
8.763099999991255
 30
0.0
 11
36.23199999996837
 21
8.763099999991255
 31
0.0
  0
LINE
  5
A364
330
A333
100
AcDbEntity
  8
0
100
AcDbLine
 10
31.64199999996833
 20
8.763099999991255
 30
0.0
 11
31.64199999996833
 21
2.481619422925121
 31
0.0
  0
LINE
  5
A365
330
A333
100
AcDbEntity
  8
0
100
AcDbLine
 10
37.67199999996831
 20
8.763099999991255
 30
0.0
 11
37.67199999996831
 21
2.481619422925121
 31
0.0
  0
LINE
  5
A366
330
A333
100
AcDbEntity
  8
0
100
AcDbLine
 10
36.23199999996837
 20
8.763099999991255
 30
0.0
 11
36.23199999996837
 21
2.481619422925064
 31
0.0
  0
LINE
  5
A367
330
A333
100
AcDbEntity
  8
0
100
AcDbLine
 10
33.08199999996839
 20
8.763099999991255
 30
0.0
 11
33.08199999996839
 21
2.481619422925121
 31
0.0
  0
ARC
  5
A368
330
A333
100
AcDbEntity
  8
0
100
AcDbCircle
 10
34.65699999996832
 20
3.183099999991214
 30
0.0
 40
3.420000000000007
100
AcDbArc
 50
240.0000000000255
 51
299.9999999999766
  0
ARC
  5
A369
330
A333
100
AcDbEntity
  8
0
100
AcDbCircle
 10
34.65699999996832
 20
3.183099999991214
 30
0.0
 40
1.97999999999999
100
AcDbArc
 50
240.000000000026
 51
299.9999999999703
  0
LINE
  5
A36A
330
A333
100
AcDbEntity
  8
0
100
AcDbLine
 10
33.08199999996828
 20
8.763099999991255
 30
0.0
 11
31.64199999996833
 21
8.763099999991255
 31
0.0
  0
ARC
  5
A36B
330
A333
100
AcDbEntity
  8
0
100
AcDbCircle
 10
35.06199999996829
 20
2.481619422925064
 30
0.0
 40
1.17
100
AcDbArc
 50
299.9999999999699
 51
0.0
  0
ARC
  5
A36C
330
A333
100
AcDbEntity
  8
0
100
AcDbCircle
 10
34.25199999996835
 20
2.481619422925121
 30
0.0
 40
1.17
100
AcDbArc
 50
180.0
 51
240.0000000000238
  0
ARC
  5
A36D
330
A333
100
AcDbEntity
  8
0
100
AcDbCircle
 10
35.06199999996841
 20
2.481619422925121
 30
0.0
 40
2.61
100
AcDbArc
 50
299.9999999999756
 51
0.0
  0
ARC
  5
A36E
330
A333
100
AcDbEntity
  8
0
100
AcDbCircle
 10
34.25199999996835
 20
2.481619422925121
 30
0.0
 40
2.61
100
AcDbArc
 50
180.0
 51
240.0000000000244
  0
LINE
  5
A36F
330
A333
100
AcDbEntity
  8
0
100
AcDbLine
 10
29.30199999996933
 20
8.763099999991255
 30
0.0
 11
30.74199999996927
 21
8.763099999991255
 31
0.0
1001
ACAD
1000
ASC_BOUNDS
1002
{
1070
    19
1005
A378
1002
}
  0
LINE
  5
A370
330
A333
100
AcDbEntity
  8
0
100
AcDbLine
 10
30.74199999996927
 20
8.763099999991255
 30
0.0
 11
30.74199999996927
 21
2.373099999991211
 31
0.0
1001
ACAD
1000
ASC_BOUNDS
1002
{
1070
    19
1005
A378
1002
}
  0
LINE
  5
A371
330
A333
100
AcDbEntity
  8
0
100
AcDbLine
 10
26.02015566812236
 20
0.0330999999912365
 30
0.0
 11
28.40199999996923
 21
0.0330999999912365
 31
0.0
1001
ACAD
1000
ASC_BOUNDS
1002
{
1070
    19
1005
A378
1002
}
  0
LINE
  5
A372
330
A333
100
AcDbEntity
  8
0
100
AcDbLine
 10
29.30199999996933
 20
8.763099999991255
 30
0.0
 11
29.30199999996933
 21
2.283099999991236
 31
0.0
1001
ACAD
1000
ASC_BOUNDS
1002
{
1070
    19
1005
A378
1002
}
  0
LINE
  5
A373
330
A333
100
AcDbEntity
  8
0
100
AcDbLine
 10
26.97358892824991
 20
1.383099999991202
 30
0.0
 11
28.40199999996923
 21
1.383099999991202
 31
0.0
1001
ACAD
1000
ASC_BOUNDS
1002
{
1070
    19
1005
A378
1002
}
  0
ARC
  5
A374
330
A333
100
AcDbEntity
  8
0
100
AcDbCircle
 10
28.40199999996923
 20
2.283099999991236
 30
0.0
 40
0.9
100
AcDbArc
 50
270.0
 51
0.0
1001
ACAD
1000
ASC_BOUNDS
1002
{
1070
    19
1005
A378
1002
}
  0
ARC
  5
A375
330
A333
100
AcDbEntity
  8
0
100
AcDbCircle
 10
28.40199999996923
 20
2.373099999991211
 30
0.0
 40
2.34
100
AcDbArc
 50
270.0
 51
0.0
1001
ACAD
1000
ASC_BOUNDS
1002
{
1070
    19
1005
A378
1002
}
  0
INSERT
  5
A376
330
A333
100
AcDbEntity
  8
0
100
AcDbBlockReference
  2
*X36
 10
0.0
 20
0.0
 30
0.0
1001
ACAD
1000
HATCH
1002
{
1070
    19
1000
ANSI37
1040
0.15
1040
0.0
1000
ASC_BOUNDS
1070
     2
1070
     2
1070
    12
1005
A335
1005
A336
1005
A33D
1005
A34C
1005
A34F
1005
A34D
1005
A33E
1005
A343
1005
A341
1005
A345
1005
A344
1005
A346
1070
     2
1070
     3
1005
A351
1005
A353
1005
A352
1000
ASC_SEEDPOINT
1011
3.614004224891801
1021
2.996669441146025
1031
0.0
1000
R14_HATCH_DATA
1000
A376
1011
1.0
1021
0.0
1031
0.0
1011
0.0
1021
1.0
1031
0.0
1011
0.0
1021
0.0
1031
1.0
1040
0.0
1010
0.0
1020
0.0
1030
1.0
1000
ANSI37
1070
     0
1070
     1
1071
        2
1071
        7
1070
     0
1070
     1
1071
       17
1040
13.26299999998673
1040
-0.0001000000000317
1040
9.236999999990758
1040
8.999899999990987
1040
9.236999999990758
1040
8.999999999991019
1040
5.657999999994331
1040
0.9999999999989768
1040
3.181999999996833
1040
4.668599999995308
1040
6.432999999993513
1040
8.763099999991255
1040
4.617999999995391
1040
8.763099999991255
1040
1.420999999998571
1040
4.736799999995242
1040
4.617999999995391
1040
-0.0001000000000317
1040
4.617999999995391
1040
0.0
1040
6.766999999993232
1040
0.0
1040
6.766999999993232
1040
-0.0001000000000317
1040
7.826999999992154
1040
2.368399999997621
1040
10.64699999998936
1040
2.368399999997621
1040
11.70599999998831
1040
-0.0001000000000317
1040
11.70599999998831
1040
0.0
1040
13.26299999998673
1040
0.0
1071
       12
1005
A335
1005
A336
1005
A33D
1005
A34C
1005
A34F
1005
A34D
1005
A33E
1005
A343
1005
A341
1005
A345
1005
A344
1005
A346
1071
       22
1070
     0
1070
     1
1071
        3
1040
9.236999999990758
1040
5.5200999999945
1040
10.06399999998996
1040
3.670999999996297
1040
8.409999999991555
1040
3.670999999996297
1071
        3
1005
A351
1005
A353
1005
A352
1070
     0
1070
     1
1040
0.0
1040
0.15
1070
     0
1070
     2
1040
0.7853981633974483
1040
49.29960901727088
1040
-10.17736998311392
1040
-0.3367596045400932
1040
0.3367596045400932
1070
     0
1040
2.356194490192345
1040
49.29960901727088
1040
-10.17736998311392
1040
-0.3367596045400932
1040
-0.3367596045400932
1070
     0
1040
0.0110235143455945
1071
        2
1040
3.614004224891801
1040
2.996669441146025
1040
0.0
1040
3.614004224891801
1040
2.996669441146025
1040
0.0
1002
}
  0
INSERT
  5
A377
330
A333
100
AcDbEntity
  8
0
100
AcDbBlockReference
  2
*X37
 10
0.0
 20
0.0
 30
0.0
1001
ACAD
1000
HATCH
1002
{
1070
    19
1000
ANSI37
1040
0.15
1040
0.0
1000
ASC_BOUNDS
1070
     1
1070
     2
1070
    10
1005
A337
1005
A338
1005
A359
1005
A357
1005
A358
1005
A34B
1005
A350
1005
A354
1005
A33A
1005
A339
1000
ASC_SEEDPOINT
1011
14.73245321214324
1021
2.798246178283421
1031
0.0
1000
R14_HATCH_DATA
1000
A377
1011
1.0
1021
0.0
1031
0.0
1011
0.0
1021
1.0
1031
0.0
1011
0.0
1021
0.0
1031
1.0
1040
0.0
1010
0.0
1020
0.0
1030
1.0
1000
ANSI37
1070
     0
1070
     1
1071
        1
1071
        7
1070
     0
1070
     1
1071
       10
1040
16.46099999998353
1040
5.432899999994561
1040
18.59199999998134
1040
-0.2368999999997641
1040
22.38199999997767
1040
8.763099999991255
1040
20.89099999997916
1040
8.763099999991255
1040
18.59799999998143
1040
3.315799999996671
1040
16.46099999998353
1040
8.999899999990987
1040
14.32399999998563
1040
3.315799999996671
1040
12.02999999998792
1040
8.763099999991255
1040
10.53899999998941
1040
8.763099999991255
1040
14.32899999998563
1040
-0.2368999999997641
1071
       10
1005
A337
1005
A338
1005
A359
1005
A357
1005
A358
1005
A34B
1005
A350
1005
A354
1005
A33A
1005
A339
1070
     0
1070
     1
1040
0.0
1040
0.15
1070
     0
1070
     2
1040
0.7853981633974483
1040
49.29960901727088
1040
-10.17736998311392
1040
-0.3367596045400932
1040
0.3367596045400932
1070
     0
1040
2.356194490192345
1040
49.29960901727088
1040
-10.17736998311392
1040
-0.3367596045400932
1040
-0.3367596045400932
1070
     0
1040
0.0110235143455945
1071
        1
1040
14.73245321214324
1040
2.798246178283421
1040
0.0
1002
}
  0
INSERT
  5
A378
330
A333
100
AcDbEntity
  8
0
100
AcDbBlockReference
  2
*X38
 10
0.0
 20
0.0
 30
0.0
1001
ACAD
1000
HATCH
1002
{
1070
    19
1000
ANSI37
1040
0.15
1040
0.0
1000
ASC_BOUNDS
1070
     2
1070
     2
1070
    13
1005
A33B
1005
A348
1005
A349
1005
A347
1005
A34A
1005
A371
1005
A375
1005
A370
1005
A36F
1005
A372
1005
A374
1005
A373
1005
A33C
1070
     2
1070
     3
1005
A355
1005
A35A
1005
A356
1000
ASC_SEEDPOINT
1011
21.97929957367762
1021
3.294304244259308
1031
0.0
1000
R14_HATCH_DATA
1000
A378
1011
1.0
1021
0.0
1031
0.0
1011
0.0
1021
1.0
1031
0.0
1011
0.0
1021
0.0
1031
1.0
1040
0.0
1010
0.0
1020
0.0
1030
1.0
1000
ANSI37
1070
     0
1070
     1
1071
        2
1071
        7
1070
     1
1070
     1
1071
       15
1040
23.56599999997638
1040
8.999899999990987
1040
0.0
1040
19.53899999998043
1040
-0.0001000000000317
1040
0.0
1040
19.53899999998043
1040
0.0
1040
0.0
1040
21.09599999997886
1040
0.0
1040
0.0
1040
21.09599999997886
1040
-0.0001000000000317
1040
0.0
1040
22.15599999997789
1040
2.368399999997621
1040
0.0
1040
24.97599999997499
1040
2.368399999997621
1040
0.0
1040
26.02015566812236
1040
0.0330999999912365
1040
0.0
1040
28.40199999996923
1040
0.0330999999912365
1040
0.414213562373095
1040
30.74199999996923
1040
2.373099999991211
1040
0.0
1040
30.74199999996927
1040
8.763099999991255
1040
0.0
1040
29.30199999996933
1040
8.763099999991255
1040
0.0
1040
29.30199999996933
1040
2.283099999991236
1040
-0.414213562373095
1040
28.40199999996923
1040
1.383099999991237
1040
0.0
1040
26.97358892824991
1040
1.383099999991202
1040
0.0
1071
       13
1005
A33B
1005
A348
1005
A349
1005
A347
1005
A34A
1005
A371
1005
A375
1005
A370
1005
A36F
1005
A372
1005
A374
1005
A373
1005
A33C
1071
       22
1070
     0
1070
     1
1071
        3
1040
22.7389999999773
1040
3.670999999996297
1040
23.56599999997638
1040
5.5200999999945
1040
24.39299999997559
1040
3.670999999996297
1071
        3
1005
A355
1005
A35A
1005
A356
1070
     0
1070
     1
1040
0.0
1040
0.15
1070
     0
1070
     2
1040
0.7853981633974483
1040
49.29960901727088
1040
-10.17736998311392
1040
-0.3367596045400932
1040
0.3367596045400932
1070
     0
1040
2.356194490192345
1040
49.29960901727088
1040
-10.17736998311392
1040
-0.3367596045400932
1040
-0.3367596045400932
1070
     0
1040
0.0110235143455945
1071
        2
1040
21.97929957367762
1040
3.294304244259308
1040
0.0
1040
21.97929957367762
1040
3.294304244259308
1040
0.0
1002
}
  0
INSERT
  5
A379
330
A333
100
AcDbEntity
  8
0
100
AcDbBlockReference
  2
*X39
 10
0.0
 20
0.0
 30
0.0
1001
ACAD
1000
HATCH
1002
{
1070
    19
1000
ANSI37
1040
0.15
1040
0.0
1000
R14_HATCH_DATA
1000
A379
1011
1.0
1021
0.0
1031
0.0
1011
0.0
1021
1.0
1031
0.0
1011
0.0
1021
0.0
1031
1.0
1040
0.0
1010
0.0
1020
0.0
1030
1.0
1000
ANSI37
1070
     0
1070
     1
1071
        1
1071
        7
1070
     1
1070
     1
1071
       12
1040
31.64199999996833
1040
2.481619422925121
1040
0.2679491924310942
1040
32.94699999997067
1040
0.2212931190493919
1040
0.2679491924301353
1040
36.36699999995983
1040
0.2212931190459813
1040
0.2679491924321411
1040
37.67199999996831
1040
2.481619422928361
1040
0.0
1040
37.67199999996831
1040
8.763099999991255
1040
0.0
1040
36.23199999996837
1040
8.763099999991255
1040
0.0
1040
36.23199999996837
1040
2.481619422925064
1040
-0.2679491924310291
1040
35.64699999996708
1040
1.468369700498386
1040
-0.267949192430519
1040
33.66699999997093
1040
1.468369700497703
1040
-0.267949192431809
1040
33.08199999996839
1040
2.481619422926997
1040
0.0
1040
33.08199999996839
1040
8.763099999991255
1040
0.0
1040
31.64199999996833
1040
8.763099999991255
1040
0.0
1071
        0
1070
     0
1070
     1
1040
0.0
1040
0.15
1070
     0
1070
     2
1040
0.7853981633974483
1040
49.29960901727088
1040
-10.17736998311392
1040
-0.3367596045400932
1040
0.3367596045400932
1070
     0
1040
2.356194490192345
1040
49.29960901727088
1040
-10.17736998311392
1040
-0.3367596045400932
1040
-0.3367596045400932
1070
     0
1040
0.0110235143455945
1071
        1
1040
32.30357378967278
1040
3.988785755459219
1040
0.0
1002
}
  0
INSERT
  5
A37A
330
A333
100
AcDbEntity
  8
0
100
AcDbBlockReference
  2
*X40
 10
0.0
 20
0.0
 30
0.0
1001
ACAD
1000
HATCH
1002
{
1070
    19
1000
ANSI37
1040
0.15
1040
0.0
1000
ASC_BOUNDS
1070
     1
1070
     2
1070
     8
1005
A35B
1005
A35E
1005
A362
1005
A361
1005
A360
1005
A35D
1005
A35F
1005
A35C
1000
ASC_SEEDPOINT
1011
39.74896370716704
1021
4.484843821435049
1031
0.0
1000
R14_HATCH_DATA
1000
A37A
1011
1.0
1021
0.0
1031
0.0
1011
0.0
1021
1.0
1031
0.0
1011
0.0
1021
0.0
1031
1.0
1040
0.0
1010
0.0
1020
0.0
1030
1.0
1000
ANSI37
1070
     0
1070
     1
1071
        1
1071
        7
1070
     0
1070
     1
1071
        9
1040
40.02599999995994
1040
5.341799999994635
1040
44.99999999995498
1040
-0.2368999999997641
1040
44.99999999995498
1040
8.763099999991255
1040
43.57899999995641
1040
8.763099999991255
1040
43.57899999995641
1040
3.421199999996588
1040
38.60499999996136
1040
8.999899999990987
1040
38.60499999996136
1040
8.999999999991019
1040
38.60499999996136
1040
0.0
1040
40.02599999995994
1040
0.0
1071
        8
1005
A35B
1005
A35E
1005
A362
1005
A361
1005
A360
1005
A35D
1005
A35F
1005
A35C
1070
     0
1070
     1
1040
0.0
1040
0.15
1070
     0
1070
     2
1040
0.7853981633974483
1040
49.29960901727088
1040
-10.17736998311392
1040
-0.3367596045400932
1040
0.3367596045400932
1070
     0
1040
2.356194490192345
1040
49.29960901727088
1040
-10.17736998311392
1040
-0.3367596045400932
1040
-0.3367596045400932
1070
     0
1040
0.0110235143455945
1071
        1
1040
39.74896370716704
1040
4.484843821435049
1040
0.0
1002
}
  0
INSERT
  5
A37B
330
A333
100
AcDbEntity
  8
0
100
AcDbBlockReference
  2
*X41
 10
0.0
 20
0.0
 30
0.0
1001
ACAD
1000
HATCH
1002
{
1070
    19
1000
ANSI37
1040
0.15
1040
0.0
1000
ASC_BOUNDS
1070
     1
1070
     2
1070
     4
1005
A33F
1005
A34E
1005
A340
1005
A342
1000
ASC_SEEDPOINT
1011
1.079051535452663
1021
4.148538732891836
1031
0.0
1000
R14_HATCH_DATA
1000
A37B
1011
1.0
1021
0.0
1031
0.0
1011
0.0
1021
1.0
1031
0.0
1011
0.0
1021
0.0
1031
1.0
1040
0.0
1010
0.0
1020
0.0
1030
1.0
1000
ANSI37
1070
     0
1070
     1
1071
        1
1071
        7
1070
     0
1070
     1
1071
        4
1040
1.420999999998571
1040
0.0
1040
1.420999999998571
1040
8.763099999991255
1040
0.0
1040
8.763099999991255
1040
0.0
1040
0.0
1071
        4
1005
A33F
1005
A34E
1005
A340
1005
A342
1070
     0
1070
     1
1040
0.0
1040
0.15
1070
     0
1070
     2
1040
0.7853981633974483
1040
49.29960901727088
1040
-10.17736998311392
1040
-0.3367596045400932
1040
0.3367596045400932
1070
     0
1040
2.356194490192345
1040
49.29960901727088
1040
-10.17736998311392
1040
-0.3367596045400932
1040
-0.3367596045400932
1070
     0
1040
0.0053004257112761
1071
        1
1040
1.079051535452663
1040
4.148538732891836
1040
0.0
1002
}
  0
ENDBLK
  5
AA57
330
A333
100
AcDbEntity
  8
0
100
AcDbBlockEnd
  0
BLOCK
  5
C2AE
330
C120
100
AcDbEntity
  8
0
100
AcDbBlockBegin
  2
*X36
 70
     1
 10
0.0
 20
0.0
 30
0.0
  3
*X36
  1

  0
LINE
  5
C121
330
C120
100
AcDbEntity
  8
0
  6
CONTINUOUS
100
AcDbLine
 10
3.418023043697893
 20
7.251849696850613
 30
0.0
 11
4.929273346838536
 21
8.763099999991255
 31
0.0
  0
LINE
  5
C122
330
C120
100
AcDbEntity
  8
0
  6
CONTINUOUS
100
AcDbLine
 10
1.483656411257782
 20
4.643963855330318
 30
0.0
 11
5.60279255591872
 21
8.763099999991255
 31
0.0
  0
LINE
  5
C123
330
C120
100
AcDbEntity
  8
0
  6
CONTINUOUS
100
AcDbLine
 10
1.755053947328235
 20
4.241842182320584
 30
0.0
 11
6.276311764998907
 21
8.763099999991255
 31
0.0
  0
LINE
  5
C124
330
C120
100
AcDbEntity
  8
0
  6
CONTINUOUS
100
AcDbLine
 10
2.026451483398688
 20
3.839720509310849
 30
0.0
 11
4.441040904851878
 21
6.254309930764039
 31
0.0
  0
LINE
  5
C125
330
C120
100
AcDbEntity
  8
0
  6
CONTINUOUS
100
AcDbLine
 10
2.297849019469139
 20
3.437598836301114
 30
0.0
 11
3.321765168359338
 21
4.461514985191313
 31
0.0
  0
LINE
  5
C126
330
C120
100
AcDbEntity
  8
0
  6
CONTINUOUS
100
AcDbLine
 10
2.569246555539591
 20
3.03547716329138
 30
0.0
 11
3.593163397972743
 21
4.059394005724531
 31
0.0
  0
LINE
  5
C127
330
C120
100
AcDbEntity
  8
0
  6
CONTINUOUS
100
AcDbLine
 10
2.840644091610043
 20
2.633355490281646
 30
0.0
 11
3.864561627586149
 21
3.657273026257751
 31
0.0
  0
LINE
  5
C128
330
C120
100
AcDbEntity
  8
0
  6
CONTINUOUS
100
AcDbLine
 10
3.112041627680496
 20
2.231233817271911
 30
0.0
 11
4.135959857199554
 21
3.25515204679097
 31
0.0
  0
LINE
  5
C129
330
C120
100
AcDbEntity
  8
0
  6
CONTINUOUS
100
AcDbLine
 10
3.383439163750948
 20
1.829112144262177
 30
0.0
 11
4.40735808681296
 21
2.853031067324189
 31
0.0
  0
LINE
  5
C12A
330
C120
100
AcDbEntity
  8
0
  6
CONTINUOUS
100
AcDbLine
 10
3.654836699821399
 20
1.426990471252442
 30
0.0
 11
4.678756316426365
 21
2.450910087857407
 31
0.0
  0
LINE
  5
C12B
330
C120
100
AcDbEntity
  8
0
  6
CONTINUOUS
100
AcDbLine
 10
3.926234235891853
 20
1.024868798242709
 30
0.0
 11
4.95015454603977
 21
2.048789108390626
 31
0.0
  0
LINE
  5
C12C
330
C120
100
AcDbEntity
  8
0
  6
CONTINUOUS
100
AcDbLine
 10
4.197631771962304
 20
0.6227471252329737
 30
0.0
 11
5.221552775653176
 21
1.646668128923846
 31
0.0
  0
LINE
  5
C12D
330
C120
100
AcDbEntity
  8
0
  6
CONTINUOUS
100
AcDbLine
 10
8.715877546767851
 20
7.835069736359266
 30
0.0
 11
9.435953450375058
 21
8.555145639966472
 31
0.0
  0
LINE
  5
C12E
330
C120
100
AcDbEntity
  8
0
  6
CONTINUOUS
100
AcDbLine
 10
8.170620868422267
 20
6.616293848933497
 30
0.0
 11
9.644120833743461
 21
8.08979381425469
 31
0.0
  0
LINE
  5
C12F
330
C120
100
AcDbEntity
  8
0
  6
CONTINUOUS
100
AcDbLine
 10
7.625364190076684
 20
5.397517961507727
 30
0.0
 11
9.852288217111864
 21
7.624441988542907
 31
0.0
  0
LINE
  5
C130
330
C120
100
AcDbEntity
  8
0
  6
CONTINUOUS
100
AcDbLine
 10
7.080107511731101
 20
4.178742074081957
 30
0.0
 11
10.06045560048027
 21
7.159090162831124
 31
0.0
  0
LINE
  5
C131
330
C120
100
AcDbEntity
  8
0
  6
CONTINUOUS
100
AcDbLine
 10
6.534850833385518
 20
2.959966186656187
 30
0.0
 11
10.26862298384867
 21
6.693738337119342
 31
0.0
  0
LINE
  5
C132
330
C120
100
AcDbEntity
  8
0
  6
CONTINUOUS
100
AcDbLine
 10
4.469029308032756
 20
0.2206254522232385
 30
0.0
 11
5.492951005266582
 21
1.244547149457064
 31
0.0
  0
LINE
  5
C133
330
C120
100
AcDbEntity
  8
0
  6
CONTINUOUS
100
AcDbLine
 10
5.989594155039935
 20
1.741190299230417
 30
0.0
 11
8.806950407233131
 21
4.558546551423613
 31
0.0
  0
LINE
  5
C134
330
C120
100
AcDbEntity
  8
0
  6
CONTINUOUS
100
AcDbLine
 10
9.401251593263643
 20
5.152847737454126
 30
0.0
 11
10.47679036721708
 21
6.228386511407559
 31
0.0
  0
LINE
  5
C135
330
C120
100
AcDbEntity
  8
0
  6
CONTINUOUS
100
AcDbLine
 10
4.921837203428691
 20
-0.0000858614610131
 30
0.0
 11
8.592923064886001
 21
3.670999999996297
 31
0.0
  0
LINE
  5
C136
330
C120
100
AcDbEntity
  8
0
  6
CONTINUOUS
100
AcDbLine
 10
9.609390446785305
 20
4.6874673818956
 30
0.0
 11
10.68495775058548
 21
5.763034685695775
 31
0.0
  0
LINE
  5
C137
330
C120
100
AcDbEntity
  8
0
  6
CONTINUOUS
100
AcDbLine
 10
5.595387755019432
 20
-0.0000545189504582
 30
0.0
 11
7.716137258923768
 21
2.120694984953879
 31
0.0
  0
LINE
  5
C138
330
C120
100
AcDbEntity
  8
0
  6
CONTINUOUS
100
AcDbLine
 10
6.268938306610172
 20
-0.000023176439905
 30
0.0
 11
7.170485805526503
 21
0.9015243224764267
 31
0.0
  0
LINE
  5
C139
330
C120
100
AcDbEntity
  8
0
  6
CONTINUOUS
100
AcDbLine
 10
7.963842273967511
 20
2.368399999997621
 30
0.0
 11
9.266442273966188
 21
3.670999999996297
 31
0.0
  0
LINE
  5
C13A
330
C120
100
AcDbEntity
  8
0
  6
CONTINUOUS
100
AcDbLine
 10
8.637361483047696
 20
2.368399999997621
 30
0.0
 11
9.939961483046375
 21
3.670999999996297
 31
0.0
  0
LINE
  5
C13B
330
C120
100
AcDbEntity
  8
0
  6
CONTINUOUS
100
AcDbLine
 10
9.817529300306965
 20
4.222087026337075
 30
0.0
 11
10.89312513395388
 21
5.297682859983993
 31
0.0
  0
LINE
  5
C13C
330
C120
100
AcDbEntity
  8
0
  6
CONTINUOUS
100
AcDbLine
 10
10.02566815382863
 20
3.756706670778549
 30
0.0
 11
11.10129251732229
 21
4.832331034272211
 31
0.0
  0
LINE
  5
C13D
330
C120
100
AcDbEntity
  8
0
  6
CONTINUOUS
100
AcDbLine
 10
9.310880692127883
 20
2.368399999997621
 30
0.0
 11
11.30945990069069
 21
4.366979208560428
 31
0.0
  0
LINE
  5
C13E
330
C120
100
AcDbEntity
  8
0
  6
CONTINUOUS
100
AcDbLine
 10
9.98439990120807
 20
2.36839999999762
 30
0.0
 11
11.5176272840591
 21
3.901627382848645
 31
0.0
  0
LINE
  5
C13F
330
C120
100
AcDbEntity
  8
0
  6
CONTINUOUS
100
AcDbLine
 10
10.65037369446246
 20
2.36085458417182
 30
0.0
 11
11.7257946674275
 21
3.436275557136862
 31
0.0
  0
LINE
  5
C140
330
C120
100
AcDbEntity
  8
0
  6
CONTINUOUS
100
AcDbLine
 10
10.85847197087848
 20
1.895433651507656
 30
0.0
 11
11.9339620507959
 21
2.97092373142508
 31
0.0
  0
LINE
  5
C141
330
C120
100
AcDbEntity
  8
0
  6
CONTINUOUS
100
AcDbLine
 10
11.0665702472945
 20
1.430012718843491
 30
0.0
 11
12.14212943416431
 21
2.505571905713296
 31
0.0
  0
LINE
  5
C142
330
C120
100
AcDbEntity
  8
0
  6
CONTINUOUS
100
AcDbLine
 10
11.27466852371052
 20
0.9645917861793256
 30
0.0
 11
12.35029681753271
 21
2.040220080001513
 31
0.0
  0
LINE
  5
C143
330
C120
100
AcDbEntity
  8
0
  6
CONTINUOUS
100
AcDbLine
 10
11.48276680012654
 20
0.4991708535151611
 30
0.0
 11
12.55846420090111
 21
1.57486825428973
 31
0.0
  0
LINE
  5
C144
330
C120
100
AcDbEntity
  8
0
  6
CONTINUOUS
100
AcDbLine
 10
11.69086507654257
 20
0.0337499208509957
 30
0.0
 11
12.76663158426952
 21
1.109516428577947
 31
0.0
  0
LINE
  5
C145
330
C120
100
AcDbEntity
  8
0
  6
CONTINUOUS
100
AcDbLine
 10
12.33057447873954
 20
-0.0000598860322123
 30
0.0
 11
12.97479896763792
 21
0.6441646028661663
 31
0.0
  0
LINE
  5
C146
330
C120
100
AcDbEntity
  8
0
  6
CONTINUOUS
100
AcDbLine
 10
13.00413694809395
 20
-0.0000166257579952
 30
0.0
 11
13.18296635100632
 21
0.1788127771543824
 31
0.0
  0
LINE
  5
C147
330
C120
100
AcDbEntity
  8
0
  6
CONTINUOUS
100
AcDbLine
 10
4.772852165289667
 20
-0.000092794222212
 30
0.0
 11
4.296495091028902
 21
0.4762642800385528
 31
0.0
  0
LINE
  5
C148
330
C120
100
AcDbEntity
  8
0
  6
CONTINUOUS
100
AcDbLine
 10
5.446340034776103
 20
-0.0000614546284616
 30
0.0
 11
2.898195908335625
 21
2.548082671812017
 31
0.0
  0
LINE
  5
C149
330
C120
100
AcDbEntity
  8
0
  6
CONTINUOUS
100
AcDbLine
 10
6.119827904262539
 20
-0.0000301150347113
 30
0.0
 11
1.499896725642348
 21
4.61990106358548
 31
0.0
  0
LINE
  5
C14A
330
C120
100
AcDbEntity
  8
0
  6
CONTINUOUS
100
AcDbLine
 10
6.775136745476159
 20
0.0181802528318542
 30
0.0
 11
5.699826040202669
 21
1.093490958105344
 31
0.0
  0
LINE
  5
C14B
330
C120
100
AcDbEntity
  8
0
  6
CONTINUOUS
100
AcDbLine
 10
6.983376846288489
 20
0.4834593610997118
 30
0.0
 11
5.908008617934405
 21
1.558827589453796
 31
0.0
  0
LINE
  5
C14C
330
C120
100
AcDbEntity
  8
0
  6
CONTINUOUS
100
AcDbLine
 10
5.377063484962296
 20
1.416253513345719
 30
0.0
 11
1.702276957014131
 21
5.091040041293883
 31
0.0
  0
LINE
  5
C14D
330
C120
100
AcDbEntity
  8
0
  6
CONTINUOUS
100
AcDbLine
 10
3.978745891735324
 20
3.488090315652877
 30
0.0
 11
2.000373521109399
 21
5.466462686278803
 31
0.0
  0
LINE
  5
C14E
330
C120
100
AcDbEntity
  8
0
  6
CONTINUOUS
100
AcDbLine
 10
7.191616947100819
 20
0.948738469367568
 30
0.0
 11
6.11619119566614
 21
2.024164220802247
 31
0.0
  0
LINE
  5
C14F
330
C120
100
AcDbEntity
  8
0
  6
CONTINUOUS
100
AcDbLine
 10
7.399857047913149
 20
1.414017577635424
 30
0.0
 11
6.324373773397875
 21
2.489500852150698
 31
0.0
  0
LINE
  5
C150
330
C120
100
AcDbEntity
  8
0
  6
CONTINUOUS
100
AcDbLine
 10
7.608097148725479
 20
1.879296685903281
 30
0.0
 11
6.53255635112961
 21
2.95483748349915
 31
0.0
  0
LINE
  5
C151
330
C120
100
AcDbEntity
  8
0
  6
CONTINUOUS
100
AcDbLine
 10
7.816337249537808
 20
2.344575794171138
 30
0.0
 11
6.740738928861345
 21
3.420174114847601
 31
0.0
  0
LINE
  5
C152
330
C120
100
AcDbEntity
  8
0
  6
CONTINUOUS
100
AcDbLine
 10
3.310241080789734
 20
4.830114335678653
 30
0.0
 11
2.298470085204666
 21
5.84188533126372
 31
0.0
  0
LINE
  5
C153
330
C120
100
AcDbEntity
  8
0
  6
CONTINUOUS
100
AcDbLine
 10
3.60832983563551
 20
5.205544789913063
 30
0.0
 11
2.596566649299935
 21
6.217307976248638
 31
0.0
  0
LINE
  5
C154
330
C120
100
AcDbEntity
  8
0
  6
CONTINUOUS
100
AcDbLine
 10
3.906418590481286
 20
5.580975244147473
 30
0.0
 11
2.894663213395203
 21
6.592730621233557
 31
0.0
  0
LINE
  5
C155
330
C120
100
AcDbEntity
  8
0
  6
CONTINUOUS
100
AcDbLine
 10
4.204507345327062
 20
5.956405698381884
 30
0.0
 11
3.192759777490472
 21
6.968153266218474
 31
0.0
  0
LINE
  5
C156
330
C120
100
AcDbEntity
  8
0
  6
CONTINUOUS
100
AcDbLine
 10
8.466032252791512
 20
2.368399999997621
 30
0.0
 11
6.948921506593081
 21
3.885510746196053
 31
0.0
  0
LINE
  5
C157
330
C120
100
AcDbEntity
  8
0
  6
CONTINUOUS
100
AcDbLine
 10
9.139551461871699
 20
2.36839999999762
 30
0.0
 11
7.157104084324816
 21
4.350847377544504
 31
0.0
  0
LINE
  5
C158
330
C120
100
AcDbEntity
  8
0
  6
CONTINUOUS
100
AcDbLine
 10
4.502596100172839
 20
6.331836152616295
 30
0.0
 11
3.49085634158574
 21
7.343575911203393
 31
0.0
  0
LINE
  5
C159
330
C120
100
AcDbEntity
  8
0
  6
CONTINUOUS
100
AcDbLine
 10
4.800684855018615
 20
6.707266606850705
 30
0.0
 11
3.788952905681008
 21
7.718998556188312
 31
0.0
  0
LINE
  5
C15A
330
C120
100
AcDbEntity
  8
0
  6
CONTINUOUS
100
AcDbLine
 10
12.18154012887317
 20
-0.0000694579236642
 30
0.0
 11
11.32140332908496
 21
0.8600673418645499
 31
0.0
  0
LINE
  5
C15B
330
C120
100
AcDbEntity
  8
0
  6
CONTINUOUS
100
AcDbLine
 10
12.85501608323566
 20
-0.0000262032059659
 30
0.0
 11
10.77672456435345
 21
2.078265315676246
 31
0.0
  0
LINE
  5
C15C
330
C120
100
AcDbEntity
  8
0
  6
CONTINUOUS
100
AcDbLine
 10
9.813070670951886
 20
2.36839999999762
 30
0.0
 11
8.51047067095321
 21
3.670999999996297
 31
0.0
  0
LINE
  5
C15D
330
C120
100
AcDbEntity
  8
0
  6
CONTINUOUS
100
AcDbLine
 10
10.48658988003207
 20
2.36839999999762
 30
0.0
 11
9.183989880033396
 21
3.670999999996297
 31
0.0
  0
LINE
  5
C15E
330
C120
100
AcDbEntity
  8
0
  6
CONTINUOUS
100
AcDbLine
 10
8.441048632286794
 20
3.740422038662712
 30
0.0
 11
7.365286662056551
 21
4.816184008892956
 31
0.0
  0
LINE
  5
C15F
330
C120
100
AcDbEntity
  8
0
  6
CONTINUOUS
100
AcDbLine
 10
8.649187485808454
 20
4.205802394221237
 30
0.0
 11
7.573469239788285
 21
5.281520640241407
 31
0.0
  0
LINE
  5
C160
330
C120
100
AcDbEntity
  8
0
  6
CONTINUOUS
100
AcDbLine
 10
5.098773609864391
 20
7.082697061085115
 30
0.0
 11
4.087049469776277
 21
8.09442120117323
 31
0.0
  0
LINE
  5
C161
330
C120
100
AcDbEntity
  8
0
  6
CONTINUOUS
100
AcDbLine
 10
5.396862364710167
 20
7.458127515319526
 30
0.0
 11
4.385146033871544
 21
8.469843846158149
 31
0.0
  0
LINE
  5
C162
330
C120
100
AcDbEntity
  8
0
  6
CONTINUOUS
100
AcDbLine
 10
13.04801363231285
 20
0.4804954567970334
 30
0.0
 11
9.85750908911358
 21
3.670999999996297
 31
0.0
  0
LINE
  5
C163
330
C120
100
AcDbEntity
  8
0
  6
CONTINUOUS
100
AcDbLine
 10
8.857326339330116
 20
4.671182749779763
 30
0.0
 11
7.781651817520021
 21
5.746857271589858
 31
0.0
  0
LINE
  5
C164
330
C120
100
AcDbEntity
  8
0
  6
CONTINUOUS
100
AcDbLine
 10
5.694951119555943
 20
7.833557969553937
 30
0.0
 11
4.765409089118624
 21
8.763099999991255
 31
0.0
  0
LINE
  5
C165
330
C120
100
AcDbEntity
  8
0
  6
CONTINUOUS
100
AcDbLine
 10
12.50286117236978
 20
1.699167125820288
 30
0.0
 11
9.68611877250287
 21
4.515909525687196
 31
0.0
  0
LINE
  5
C166
330
C120
100
AcDbEntity
  8
0
  6
CONTINUOUS
100
AcDbLine
 10
9.065465192851777
 20
5.136563105338288
 30
0.0
 11
7.989834395251757
 21
6.21219390293831
 31
0.0
  0
LINE
  5
C167
330
C120
100
AcDbEntity
  8
0
  6
CONTINUOUS
100
AcDbLine
 10
5.993039874401719
 20
8.208988423788346
 30
0.0
 11
5.43892829819881
 21
8.763099999991255
 31
0.0
  0
LINE
  5
C168
330
C120
100
AcDbEntity
  8
0
  6
CONTINUOUS
100
AcDbLine
 10
11.95770871242671
 20
2.917838794843543
 30
0.0
 11
8.19801697298349
 21
6.677530534286761
 31
0.0
  0
LINE
  5
C169
330
C120
100
AcDbEntity
  8
0
  6
CONTINUOUS
100
AcDbLine
 10
6.291128629247495
 20
8.584418878022756
 30
0.0
 11
6.112447507278997
 21
8.763099999991255
 31
0.0
  0
LINE
  5
C16A
330
C120
100
AcDbEntity
  8
0
  6
CONTINUOUS
100
AcDbLine
 10
11.41255625248364
 20
4.136510463866797
 30
0.0
 11
8.406199550715227
 21
7.142867165635211
 31
0.0
  0
LINE
  5
C16B
330
C120
100
AcDbEntity
  8
0
  6
CONTINUOUS
100
AcDbLine
 10
10.86740379254057
 20
5.355182132890051
 30
0.0
 11
8.614382128446962
 21
7.608203796983664
 31
0.0
  0
LINE
  5
C16C
330
C120
100
AcDbEntity
  8
0
  6
CONTINUOUS
100
AcDbLine
 10
10.3222513325975
 20
6.573853801913305
 30
0.0
 11
8.822564706178696
 21
8.073540428332114
 31
0.0
  0
LINE
  5
C16D
330
C120
100
AcDbEntity
  8
0
  6
CONTINUOUS
100
AcDbLine
 10
9.777098872654436
 20
7.792525470936562
 30
0.0
 11
9.030747283910433
 21
8.538877059680566
 31
0.0
  0
ENDBLK
  5
C2AF
330
C120
100
AcDbEntity
  8
0
100
AcDbBlockEnd
  0
BLOCK
  5
C2B0
330
C16E
100
AcDbEntity
  8
0
100
AcDbBlockBegin
  2
*X37
 70
     1
 10
0.0
 20
0.0
 30
0.0
  3
*X37
  1

  0
LINE
  5
C16F
330
C16E
100
AcDbEntity
  8
0
  6
CONTINUOUS
100
AcDbLine
 10
10.67292308101235
 20
8.445076852443387
 30
0.0
 11
10.99094622856022
 21
8.763099999991255
 31
0.0
  0
LINE
  5
C170
330
C16E
100
AcDbEntity
  8
0
  6
CONTINUOUS
100
AcDbLine
 10
10.87250383178748
 20
7.971138394138331
 30
0.0
 11
11.6644654376404
 21
8.763099999991255
 31
0.0
  0
LINE
  5
C171
330
C16E
100
AcDbEntity
  8
0
  6
CONTINUOUS
100
AcDbLine
 10
11.07208458256261
 20
7.497199935833273
 30
0.0
 11
12.12126590876355
 21
8.546381262034211
 31
0.0
  0
LINE
  5
C172
330
C16E
100
AcDbEntity
  8
0
  6
CONTINUOUS
100
AcDbLine
 10
11.27166533333774
 20
7.023261477528216
 30
0.0
 11
12.32085164573666
 21
8.072447789927136
 31
0.0
  0
LINE
  5
C173
330
C16E
100
AcDbEntity
  8
0
  6
CONTINUOUS
100
AcDbLine
 10
11.47124608411287
 20
6.549323019223158
 30
0.0
 11
12.52043738270977
 21
7.59851431782006
 31
0.0
  0
LINE
  5
C174
330
C16E
100
AcDbEntity
  8
0
  6
CONTINUOUS
100
AcDbLine
 10
11.670826834888
 20
6.075384560918101
 30
0.0
 11
12.72002311968288
 21
7.124580845712984
 31
0.0
  0
LINE
  5
C175
330
C16E
100
AcDbEntity
  8
0
  6
CONTINUOUS
100
AcDbLine
 10
11.87040758566313
 20
5.601446102613043
 30
0.0
 11
12.91960885665599
 21
6.650647373605907
 31
0.0
  0
LINE
  5
C176
330
C16E
100
AcDbEntity
  8
0
  6
CONTINUOUS
100
AcDbLine
 10
12.06998833643825
 20
5.127507644307986
 30
0.0
 11
13.1191945936291
 21
6.176713901498832
 31
0.0
  0
LINE
  5
C177
330
C16E
100
AcDbEntity
  8
0
  6
CONTINUOUS
100
AcDbLine
 10
12.26956908721338
 20
4.65356918600293
 30
0.0
 11
13.31878033060221
 21
5.702780429391757
 31
0.0
  0
LINE
  5
C178
330
C16E
100
AcDbEntity
  8
0
  6
CONTINUOUS
100
AcDbLine
 10
12.46914983798851
 20
4.179630727697873
 30
0.0
 11
13.51836606757532
 21
5.228846957284683
 31
0.0
  0
LINE
  5
C179
330
C16E
100
AcDbEntity
  8
0
  6
CONTINUOUS
100
AcDbLine
 10
12.66873058876364
 20
3.705692269392816
 30
0.0
 11
13.71795180454843
 21
4.754913485177607
 31
0.0
  0
LINE
  5
C17A
330
C16E
100
AcDbEntity
  8
0
  6
CONTINUOUS
100
AcDbLine
 10
12.86831133953877
 20
3.231753811087759
 30
0.0
 11
13.91753754152154
 21
4.280980013070531
 31
0.0
  0
LINE
  5
C17B
330
C16E
100
AcDbEntity
  8
0
  6
CONTINUOUS
100
AcDbLine
 10
13.0678920903139
 20
2.757815352782702
 30
0.0
 11
14.11712327849465
 21
3.807046540963456
 31
0.0
  0
LINE
  5
C17C
330
C16E
100
AcDbEntity
  8
0
  6
CONTINUOUS
100
AcDbLine
 10
13.26747284108903
 20
2.283876894477644
 30
0.0
 11
14.31670901546777
 21
3.333113068856379
 31
0.0
  0
LINE
  5
C17D
330
C16E
100
AcDbEntity
  8
0
  6
CONTINUOUS
100
AcDbLine
 10
16.36767838827179
 20
8.751678487061342
 30
0.0
 11
16.50332410898388
 21
8.887324207773432
 31
0.0
  0
LINE
  5
C17E
330
C16E
100
AcDbEntity
  8
0
  6
CONTINUOUS
100
AcDbLine
 10
15.96190732182191
 20
7.67238821153127
 30
0.0
 11
16.68735328004734
 21
8.397834169756699
 31
0.0
  0
LINE
  5
C17F
330
C16E
100
AcDbEntity
  8
0
  6
CONTINUOUS
100
AcDbLine
 10
15.55613625537202
 20
6.593097936001196
 30
0.0
 11
16.87138245111079
 21
7.908344131739965
 31
0.0
  0
LINE
  5
C180
330
C16E
100
AcDbEntity
  8
0
  6
CONTINUOUS
100
AcDbLine
 10
15.15036518892213
 20
5.513807660471122
 30
0.0
 11
17.05541162217424
 21
7.418854093723231
 31
0.0
  0
LINE
  5
C181
330
C16E
100
AcDbEntity
  8
0
  6
CONTINUOUS
100
AcDbLine
 10
14.74459412247225
 20
4.434517384941048
 30
0.0
 11
17.2394407932377
 21
6.929364055706499
 31
0.0
  0
LINE
  5
C182
330
C16E
100
AcDbEntity
  8
0
  6
CONTINUOUS
100
AcDbLine
 10
14.33882305602236
 20
3.355227109410975
 30
0.0
 11
17.42346996430115
 21
6.439874017689766
 31
0.0
  0
LINE
  5
C183
330
C16E
100
AcDbEntity
  8
0
  6
CONTINUOUS
100
AcDbLine
 10
13.46705359186416
 20
1.809938436172586
 30
0.0
 11
16.0819338255367
 21
4.424818669845129
 31
0.0
  0
LINE
  5
C184
330
C16E
100
AcDbEntity
  8
0
  6
CONTINUOUS
100
AcDbLine
 10
16.63283254238972
 20
4.975717386698149
 30
0.0
 11
17.60749913536461
 21
5.950383979673033
 31
0.0
  0
LINE
  5
C185
330
C16E
100
AcDbEntity
  8
0
  6
CONTINUOUS
100
AcDbLine
 10
13.66663434263929
 20
1.335999977867529
 30
0.0
 11
15.67604797733754
 21
3.345413612565779
 31
0.0
  0
LINE
  5
C186
330
C16E
100
AcDbEntity
  8
0
  6
CONTINUOUS
100
AcDbLine
 10
13.86621509341442
 20
0.8620615195624723
 30
0.0
 11
15.27016212913838
 21
2.26600855528643
 31
0.0
  0
LINE
  5
C187
330
C16E
100
AcDbEntity
  8
0
  6
CONTINUOUS
100
AcDbLine
 10
16.81682257348267
 20
4.486188208710908
 30
0.0
 11
17.79152830642806
 21
5.460893941656299
 31
0.0
  0
LINE
  5
C188
330
C16E
100
AcDbEntity
  8
0
  6
CONTINUOUS
100
AcDbLine
 10
17.00081260457561
 20
3.996659030723667
 30
0.0
 11
17.97555747749151
 21
4.971403903639565
 31
0.0
  0
LINE
  5
C189
330
C16E
100
AcDbEntity
  8
0
  6
CONTINUOUS
100
AcDbLine
 10
20.74362343514722
 20
8.412989070375462
 30
0.0
 11
21.09373436476302
 21
8.763099999991256
 31
0.0
  0
LINE
  5
C18A
330
C16E
100
AcDbEntity
  8
0
  6
CONTINUOUS
100
AcDbLine
 10
20.25401257174777
 20
7.249858997895826
 30
0.0
 11
21.7672535738432
 21
8.763099999991255
 31
0.0
  0
LINE
  5
C18B
330
C16E
100
AcDbEntity
  8
0
  6
CONTINUOUS
100
AcDbLine
 10
14.06579584418955
 20
0.3881230612574149
 30
0.0
 11
14.86427628093921
 21
1.186603498007082
 31
0.0
  0
LINE
  5
C18C
330
C16E
100
AcDbEntity
  8
0
  6
CONTINUOUS
100
AcDbLine
 10
14.26537659496467
 20
-0.0858153970476412
 30
0.0
 11
14.45839043274005
 21
0.1071984407277329
 31
0.0
  0
LINE
  5
C18D
330
C16E
100
AcDbEntity
  8
0
  6
CONTINUOUS
100
AcDbLine
 10
17.18480263566856
 20
3.507129852736426
 30
0.0
 11
18.15958664855496
 21
4.481913865622833
 31
0.0
  0
LINE
  5
C18E
330
C16E
100
AcDbEntity
  8
0
  6
CONTINUOUS
100
AcDbLine
 10
17.3687926667615
 20
3.017600674749186
 30
0.0
 11
18.34361581961842
 21
3.9924238276061
 31
0.0
  0
LINE
  5
C18F
330
C16E
100
AcDbEntity
  8
0
  6
CONTINUOUS
100
AcDbLine
 10
19.76440170834832
 20
6.086728925416191
 30
0.0
 11
22.33924590259489
 21
8.661573119662755
 31
0.0
  0
LINE
  5
C190
330
C16E
100
AcDbEntity
  8
0
  6
CONTINUOUS
100
AcDbLine
 10
19.27479084494887
 20
4.923598852936555
 30
0.0
 11
21.84929622842713
 21
7.498104236414807
 31
0.0
  0
LINE
  5
C191
330
C16E
100
AcDbEntity
  8
0
  6
CONTINUOUS
100
AcDbLine
 10
17.55278269785445
 20
2.528071496761945
 30
0.0
 11
18.52764499068187
 21
3.502933789589366
 31
0.0
  0
LINE
  5
C192
330
C16E
100
AcDbEntity
  8
0
  6
CONTINUOUS
100
AcDbLine
 10
18.78517998154942
 20
3.760468780456919
 30
0.0
 11
21.35934655425936
 21
6.33463535316686
 31
0.0
  0
LINE
  5
C193
330
C16E
100
AcDbEntity
  8
0
  6
CONTINUOUS
100
AcDbLine
 10
17.73677272894739
 20
2.038542318774704
 30
0.0
 11
20.8693968800916
 21
5.171166469918914
 31
0.0
  0
LINE
  5
C194
330
C16E
100
AcDbEntity
  8
0
  6
CONTINUOUS
100
AcDbLine
 10
17.92076276004034
 20
1.549013140787464
 30
0.0
 11
20.37944720592384
 21
4.007697586670968
 31
0.0
  0
LINE
  5
C195
330
C16E
100
AcDbEntity
  8
0
  6
CONTINUOUS
100
AcDbLine
 10
18.10475279113329
 20
1.059483962800223
 30
0.0
 11
19.88949753175608
 21
2.84422870342302
 31
0.0
  0
LINE
  5
C196
330
C16E
100
AcDbEntity
  8
0
  6
CONTINUOUS
100
AcDbLine
 10
18.28874282222623
 20
0.5699547848129822
 30
0.0
 11
19.39954785758832
 21
1.680759820175074
 31
0.0
  0
LINE
  5
C197
330
C16E
100
AcDbEntity
  8
0
  6
CONTINUOUS
100
AcDbLine
 10
18.47273285331918
 20
0.0804256068257416
 30
0.0
 11
18.90959818342056
 21
0.517290936927127
 31
0.0
  0
LINE
  5
C198
330
C16E
100
AcDbEntity
  8
0
  6
CONTINUOUS
100
AcDbLine
 10
14.3590401358224
 20
-0.1570118376323384
 30
0.0
 11
14.24903296539946
 21
-0.0470046672093929
 31
0.0
  0
LINE
  5
C199
330
C16E
100
AcDbEntity
  8
0
  6
CONTINUOUS
100
AcDbLine
 10
14.54309291258661
 20
0.332454594683643
 30
0.0
 11
13.75908329123172
 21
1.116464216038529
 31
0.0
  0
LINE
  5
C19A
330
C16E
100
AcDbEntity
  8
0
  6
CONTINUOUS
100
AcDbLine
 10
14.72714568935081
 20
0.8219210269996244
 30
0.0
 11
13.26913361706399
 21
2.27993309928645
 31
0.0
  0
LINE
  5
C19B
330
C16E
100
AcDbEntity
  8
0
  6
CONTINUOUS
100
AcDbLine
 10
14.91119846611502
 20
1.311387459315606
 30
0.0
 11
12.77918394289625
 21
3.443401982534371
 31
0.0
  0
LINE
  5
C19C
330
C16E
100
AcDbEntity
  8
0
  6
CONTINUOUS
100
AcDbLine
 10
15.09525124287922
 20
1.800853891631587
 30
0.0
 11
12.28923426872852
 21
4.606870865782293
 31
0.0
  0
LINE
  5
C19D
330
C16E
100
AcDbEntity
  8
0
  6
CONTINUOUS
100
AcDbLine
 10
15.27930401964343
 20
2.290320323947569
 30
0.0
 11
11.79928459456078
 21
5.770339749030213
 31
0.0
  0
LINE
  5
C19E
330
C16E
100
AcDbEntity
  8
0
  6
CONTINUOUS
100
AcDbLine
 10
15.46335679640763
 20
2.77978675626355
 30
0.0
 11
14.48885470994921
 21
3.754288842721972
 31
0.0
  0
LINE
  5
C19F
330
C16E
100
AcDbEntity
  8
0
  6
CONTINUOUS
100
AcDbLine
 10
13.88507249233704
 20
4.358071060334137
 30
0.0
 11
11.30933492039305
 21
6.933808632278135
 31
0.0
  0
LINE
  5
C1A0
330
C16E
100
AcDbEntity
  8
0
  6
CONTINUOUS
100
AcDbLine
 10
18.75840522805855
 20
0.1582575336928151
 30
0.0
 11
18.25383727664818
 21
0.6628254851031863
 31
0.0
  0
LINE
  5
C1A1
330
C16E
100
AcDbEntity
  8
0
  6
CONTINUOUS
100
AcDbLine
 10
15.64740957317184
 20
3.269253188579531
 30
0.0
 11
14.67288388101266
 21
4.243778880738705
 31
0.0
  0
LINE
  5
C1A2
330
C16E
100
AcDbEntity
  8
0
  6
CONTINUOUS
100
AcDbLine
 10
13.39509276772158
 20
5.521569994029786
 30
0.0
 11
10.81938524622531
 21
8.097277515526056
 31
0.0
  0
LINE
  5
C1A3
330
C16E
100
AcDbEntity
  8
0
  6
CONTINUOUS
100
AcDbLine
 10
18.95798597883369
 20
0.6321959919978686
 30
0.0
 11
17.84825644852853
 21
1.741925522303024
 31
0.0
  0
LINE
  5
C1A4
330
C16E
100
AcDbEntity
  8
0
  6
CONTINUOUS
100
AcDbLine
 10
19.15756672960882
 20
1.106134450302922
 30
0.0
 11
17.44267562040888
 21
2.821025559502861
 31
0.0
  0
LINE
  5
C1A5
330
C16E
100
AcDbEntity
  8
0
  6
CONTINUOUS
100
AcDbLine
 10
15.83146234993604
 20
3.758719620895513
 30
0.0
 11
14.85691305207612
 21
4.733268918755439
 31
0.0
  0
LINE
  5
C1A6
330
C16E
100
AcDbEntity
  8
0
  6
CONTINUOUS
100
AcDbLine
 10
16.01551512670025
 20
4.248186053211494
 30
0.0
 11
15.04094222313957
 21
5.222758956772172
 31
0.0
  0
LINE
  5
C1A7
330
C16E
100
AcDbEntity
  8
0
  6
CONTINUOUS
100
AcDbLine
 10
12.90511304310612
 20
6.685068927725435
 30
0.0
 11
10.8270819708403
 21
8.763099999991255
 31
0.0
  0
LINE
  5
C1A8
330
C16E
100
AcDbEntity
  8
0
  6
CONTINUOUS
100
AcDbLine
 10
12.41513331849066
 20
7.848567861421083
 30
0.0
 11
11.50060117992049
 21
8.763099999991255
 31
0.0
  0
LINE
  5
C1A9
330
C16E
100
AcDbEntity
  8
0
  6
CONTINUOUS
100
AcDbLine
 10
19.35714748038395
 20
1.580072908607975
 30
0.0
 11
17.03709479228923
 21
3.900125596702697
 31
0.0
  0
LINE
  5
C1AA
330
C16E
100
AcDbEntity
  8
0
  6
CONTINUOUS
100
AcDbLine
 10
19.55672823115909
 20
2.054011366913028
 30
0.0
 11
16.63151396416958
 21
4.979225633902534
 31
0.0
  0
LINE
  5
C1AB
330
C16E
100
AcDbEntity
  8
0
  6
CONTINUOUS
100
AcDbLine
 10
16.19956790346445
 20
4.737652485527476
 30
0.0
 11
15.22497139420302
 21
5.712248994788904
 31
0.0
  0
LINE
  5
C1AC
330
C16E
100
AcDbEntity
  8
0
  6
CONTINUOUS
100
AcDbLine
 10
16.38362068022866
 20
5.227118917843457
 30
0.0
 11
15.40900056526648
 21
6.201739032805637
 31
0.0
  0
LINE
  5
C1AD
330
C16E
100
AcDbEntity
  8
0
  6
CONTINUOUS
100
AcDbLine
 10
19.75630898193422
 20
2.527949825218081
 30
0.0
 11
18.70774536448286
 21
3.576513442669441
 31
0.0
  0
LINE
  5
C1AE
330
C16E
100
AcDbEntity
  8
0
  6
CONTINUOUS
100
AcDbLine
 10
19.95588973270936
 20
3.001888283523134
 30
0.0
 11
18.90726987211446
 21
4.050508144118028
 31
0.0
  0
LINE
  5
C1AF
330
C16E
100
AcDbEntity
  8
0
  6
CONTINUOUS
100
AcDbLine
 10
20.15547048348449
 20
3.475826741828186
 30
0.0
 11
19.10679437974606
 21
4.524502845566614
 31
0.0
  0
LINE
  5
C1B0
330
C16E
100
AcDbEntity
  8
0
  6
CONTINUOUS
100
AcDbLine
 10
20.35505123425962
 20
3.94976520013324
 30
0.0
 11
19.30631888737766
 21
4.998497547015201
 31
0.0
  0
LINE
  5
C1B1
330
C16E
100
AcDbEntity
  8
0
  6
CONTINUOUS
100
AcDbLine
 10
20.55463198503475
 20
4.423703658438292
 30
0.0
 11
19.50584339500926
 21
5.472492248463787
 31
0.0
  0
LINE
  5
C1B2
330
C16E
100
AcDbEntity
  8
0
  6
CONTINUOUS
100
AcDbLine
 10
18.37481191085755
 20
3.909446896294752
 30
0.0
 11
15.59302973632993
 21
6.691229070822371
 31
0.0
  0
LINE
  5
C1B3
330
C16E
100
AcDbEntity
  8
0
  6
CONTINUOUS
100
AcDbLine
 10
17.96904084440766
 20
4.988737171824825
 30
0.0
 11
15.77705890739338
 21
7.180719108839104
 31
0.0
  0
LINE
  5
C1B4
330
C16E
100
AcDbEntity
  8
0
  6
CONTINUOUS
100
AcDbLine
 10
17.56326977795777
 20
6.068027447354899
 30
0.0
 11
15.96108807845684
 21
7.670209146855838
 31
0.0
  0
LINE
  5
C1B5
330
C16E
100
AcDbEntity
  8
0
  6
CONTINUOUS
100
AcDbLine
 10
17.15749871150789
 20
7.147317722884972
 30
0.0
 11
16.14511724952029
 21
8.15969918487257
 31
0.0
  0
LINE
  5
C1B6
330
C16E
100
AcDbEntity
  8
0
  6
CONTINUOUS
100
AcDbLine
 10
16.751727645058
 20
8.226607998415046
 30
0.0
 11
16.32914642058374
 21
8.649189222889303
 31
0.0
  0
LINE
  5
C1B7
330
C16E
100
AcDbEntity
  8
0
  6
CONTINUOUS
100
AcDbLine
 10
20.75421273580989
 20
4.897642116743345
 30
0.0
 11
19.70536790264086
 21
5.946486949912374
 31
0.0
  0
LINE
  5
C1B8
330
C16E
100
AcDbEntity
  8
0
  6
CONTINUOUS
100
AcDbLine
 10
20.95379348658502
 20
5.371580575048398
 30
0.0
 11
19.90489241027246
 21
6.42048165136096
 31
0.0
  0
LINE
  5
C1B9
330
C16E
100
AcDbEntity
  8
0
  6
CONTINUOUS
100
AcDbLine
 10
21.15337423736015
 20
5.845519033353452
 30
0.0
 11
20.10441691790406
 21
6.894476352809547
 31
0.0
  0
LINE
  5
C1BA
330
C16E
100
AcDbEntity
  8
0
  6
CONTINUOUS
100
AcDbLine
 10
21.35295498813529
 20
6.319457491658505
 30
0.0
 11
20.30394142553566
 21
7.368471054258134
 31
0.0
  0
LINE
  5
C1BB
330
C16E
100
AcDbEntity
  8
0
  6
CONTINUOUS
100
AcDbLine
 10
21.55253573891042
 20
6.793395949963558
 30
0.0
 11
20.50346593316726
 21
7.842465755706721
 31
0.0
  0
LINE
  5
C1BC
330
C16E
100
AcDbEntity
  8
0
  6
CONTINUOUS
100
AcDbLine
 10
21.75211648968556
 20
7.267334408268612
 30
0.0
 11
20.70299044079886
 21
8.316460457155308
 31
0.0
  0
LINE
  5
C1BD
330
C16E
100
AcDbEntity
  8
0
  6
CONTINUOUS
100
AcDbLine
 10
21.95169724046069
 20
7.741272866573663
 30
0.0
 11
20.9298701070431
 21
8.763099999991256
 31
0.0
  0
LINE
  5
C1BE
330
C16E
100
AcDbEntity
  8
0
  6
CONTINUOUS
100
AcDbLine
 10
22.15127799123582
 20
8.215211324878716
 30
0.0
 11
21.60338931612328
 21
8.763099999991256
 31
0.0
  0
LINE
  5
C1BF
330
C16E
100
AcDbEntity
  8
0
  6
CONTINUOUS
100
AcDbLine
 10
22.35085874201096
 20
8.689149783183769
 30
0.0
 11
22.27690852520347
 21
8.763099999991255
 31
0.0
  0
ENDBLK
  5
C2B1
330
C16E
100
AcDbEntity
  8
0
100
AcDbBlockEnd
  0
BLOCK
  5
C2B2
330
C1C0
100
AcDbEntity
  8
0
100
AcDbBlockBegin
  2
*X38
 70
     1
 10
0.0
 20
0.0
 30
0.0
  3
*X38
  1

  0
LINE
  5
C1C1
330
C1C0
100
AcDbEntity
  8
0
  6
CONTINUOUS
100
AcDbLine
 10
23.19462913593892
 20
8.169917934846424
 30
0.0
 11
23.70775465517246
 21
8.683043454079957
 31
0.0
  0
LINE
  5
C1C2
330
C1C0
100
AcDbEntity
  8
0
  6
CONTINUOUS
100
AcDbLine
 10
22.64923161835078
 20
6.951001208178088
 30
0.0
 11
23.9159364069932
 21
8.217705996820516
 31
0.0
  0
LINE
  5
C1C3
330
C1C0
100
AcDbEntity
  8
0
  6
CONTINUOUS
100
AcDbLine
 10
22.10383410076263
 20
5.732084481509751
 30
0.0
 11
24.12411815881395
 21
7.752368539561078
 31
0.0
  0
LINE
  5
C1C4
330
C1C0
100
AcDbEntity
  8
0
  6
CONTINUOUS
100
AcDbLine
 10
21.55843658317447
 20
4.513167754841414
 30
0.0
 11
24.3322999106347
 21
7.287031082301639
 31
0.0
  0
LINE
  5
C1C5
330
C1C0
100
AcDbEntity
  8
0
  6
CONTINUOUS
100
AcDbLine
 10
21.01303906558632
 20
3.294251028173077
 30
0.0
 11
24.54048166245544
 21
6.821693625042199
 31
0.0
  0
LINE
  5
C1C6
330
C1C0
100
AcDbEntity
  8
0
  6
CONTINUOUS
100
AcDbLine
 10
20.46764154799817
 20
2.075334301504738
 30
0.0
 11
23.28571549467848
 21
4.89340824818505
 31
0.0
  0
LINE
  5
C1C7
330
C1C0
100
AcDbEntity
  8
0
  6
CONTINUOUS
100
AcDbLine
 10
19.92224403041002
 20
0.8564175748364002
 30
0.0
 11
22.74075865492779
 21
3.674932199354171
 31
0.0
  0
LINE
  5
C1C8
330
C1C0
100
AcDbEntity
  8
0
  6
CONTINUOUS
100
AcDbLine
 10
23.67305085490148
 20
5.280743608408048
 30
0.0
 11
24.74866341427619
 21
6.356356167782759
 31
0.0
  0
LINE
  5
C1C9
330
C1C0
100
AcDbEntity
  8
0
  6
CONTINUOUS
100
AcDbLine
 10
23.88118970842314
 20
4.815363252849522
 30
0.0
 11
24.95684516609694
 21
5.89101871052332
 31
0.0
  0
LINE
  5
C1CA
330
C1C0
100
AcDbEntity
  8
0
  6
CONTINUOUS
100
AcDbLine
 10
19.73925852647308
 20
-0.0000871381807288
 30
0.0
 11
23.4103456646501
 21
3.670999999996297
 31
0.0
  0
LINE
  5
C1CB
330
C1C0
100
AcDbEntity
  8
0
  6
CONTINUOUS
100
AcDbLine
 10
24.0893285619448
 20
4.349982897290997
 30
0.0
 11
25.16502691791769
 21
5.42568125326388
 31
0.0
  0
LINE
  5
C1CC
330
C1C0
100
AcDbEntity
  8
0
  6
CONTINUOUS
100
AcDbLine
 10
20.41282099582748
 20
-0.0000438779065108
 30
0.0
 11
21.64944178675636
 21
1.236576913022366
 31
0.0
  0
LINE
  5
C1CD
330
C1C0
100
AcDbEntity
  8
0
  6
CONTINUOUS
100
AcDbLine
 10
22.78126487373161
 20
2.36839999999762
 30
0.0
 11
24.08386487373029
 21
3.670999999996297
 31
0.0
  0
LINE
  5
C1CE
330
C1C0
100
AcDbEntity
  8
0
  6
CONTINUOUS
100
AcDbLine
 10
24.29746741546646
 20
3.884602541732471
 30
0.0
 11
25.37320866973843
 21
4.960343796004441
 31
0.0
  0
LINE
  5
C1CF
330
C1C0
100
AcDbEntity
  8
0
  6
CONTINUOUS
100
AcDbLine
 10
21.08638346518189
 20
-0.0000006176322938
 30
0.0
 11
21.10379033335899
 21
0.0174062505448083
 31
0.0
  0
LINE
  5
C1D0
330
C1C0
100
AcDbEntity
  8
0
  6
CONTINUOUS
100
AcDbLine
 10
23.4547840828118
 20
2.36839999999762
 30
0.0
 11
25.58139042155918
 21
4.495006338745002
 31
0.0
  0
LINE
  5
C1D1
330
C1C0
100
AcDbEntity
  8
0
  6
CONTINUOUS
100
AcDbLine
 10
29.30199999996933
 20
8.215615917155148
 30
0.0
 11
29.84948408280543
 21
8.763099999991255
 31
0.0
  0
LINE
  5
C1D2
330
C1C0
100
AcDbEntity
  8
0
  6
CONTINUOUS
100
AcDbLine
 10
24.12830329189199
 20
2.36839999999762
 30
0.0
 11
25.78957217337993
 21
4.029668881485562
 31
0.0
  0
LINE
  5
C1D3
330
C1C0
100
AcDbEntity
  8
0
  6
CONTINUOUS
100
AcDbLine
 10
29.30199999996933
 20
7.54209670807496
 30
0.0
 11
30.52300329188562
 21
8.763099999991255
 31
0.0
  0
LINE
  5
C1D4
330
C1C0
100
AcDbEntity
  8
0
  6
CONTINUOUS
100
AcDbLine
 10
24.80182250097217
 20
2.36839999999762
 30
0.0
 11
25.99775392520067
 21
3.564331424226122
 31
0.0
  0
LINE
  5
C1D5
330
C1C0
100
AcDbEntity
  8
0
  6
CONTINUOUS
100
AcDbLine
 10
29.30199999996933
 20
6.868577498994774
 30
0.0
 11
30.74199999996926
 21
8.308577498994712
 31
0.0
  0
LINE
  5
C1D6
330
C1C0
100
AcDbEntity
  8
0
  6
CONTINUOUS
100
AcDbLine
 10
25.13028238392013
 20
2.023340673865392
 30
0.0
 11
26.20593567702142
 21
3.098993966966683
 31
0.0
  0
LINE
  5
C1D7
330
C1C0
100
AcDbEntity
  8
0
  6
CONTINUOUS
100
AcDbLine
 10
25.33838066033617
 20
1.557919741201244
 30
0.0
 11
26.41411742884217
 21
2.633656509707244
 31
0.0
  0
LINE
  5
C1D8
330
C1C0
100
AcDbEntity
  8
0
  6
CONTINUOUS
100
AcDbLine
 10
25.54647893675221
 20
1.092498808537098
 30
0.0
 11
26.62229918066291
 21
2.168319052447804
 31
0.0
  0
LINE
  5
C1D9
330
C1C0
100
AcDbEntity
  8
0
  6
CONTINUOUS
100
AcDbLine
 10
25.75457721316825
 20
0.62707787587295
 30
0.0
 11
26.83048093248366
 21
1.702981595188365
 31
0.0
  0
LINE
  5
C1DA
330
C1C0
100
AcDbEntity
  8
0
  6
CONTINUOUS
100
AcDbLine
 10
29.30199999996933
 20
6.195058289914587
 30
0.0
 11
30.74199999996926
 21
7.635058289914522
 31
0.0
  0
LINE
  5
C1DB
330
C1C0
100
AcDbEntity
  8
0
  6
CONTINUOUS
100
AcDbLine
 10
29.30199999996933
 20
5.521539080834401
 30
0.0
 11
30.74199999996926
 21
6.961539080834331
 31
0.0
  0
LINE
  5
C1DC
330
C1C0
100
AcDbEntity
  8
0
  6
CONTINUOUS
100
AcDbLine
 10
29.30199999996933
 20
4.848019871754214
 30
0.0
 11
30.74199999996925
 21
6.288019871754143
 31
0.0
  0
LINE
  5
C1DD
330
C1C0
100
AcDbEntity
  8
0
  6
CONTINUOUS
100
AcDbLine
 10
29.30199999996933
 20
4.174500662674028
 30
0.0
 11
30.74199999996925
 21
5.614500662673953
 31
0.0
  0
LINE
  5
C1DE
330
C1C0
100
AcDbEntity
  8
0
  6
CONTINUOUS
100
AcDbLine
 10
25.96267548958429
 20
0.1616569432088024
 30
0.0
 11
27.18411854636669
 21
1.383099999991207
 31
0.0
  0
LINE
  5
C1DF
330
C1C0
100
AcDbEntity
  8
0
  6
CONTINUOUS
100
AcDbLine
 10
29.30199999996933
 20
3.500981453593841
 30
0.0
 11
30.74199999996925
 21
4.940981453593762
 31
0.0
  0
LINE
  5
C1E0
330
C1C0
100
AcDbEntity
  8
0
  6
CONTINUOUS
100
AcDbLine
 10
26.50763775544691
 20
0.0330999999912356
 30
0.0
 11
27.85763775544689
 21
1.383099999991223
 31
0.0
  0
LINE
  5
C1E1
330
C1C0
100
AcDbEntity
  8
0
  6
CONTINUOUS
100
AcDbLine
 10
29.30199999996933
 20
2.827462244513656
 30
0.0
 11
30.74199999996925
 21
4.267462244513574
 31
0.0
  0
LINE
  5
C1E2
330
C1C0
100
AcDbEntity
  8
0
  6
CONTINUOUS
100
AcDbLine
 10
27.18115696452709
 20
0.0330999999912356
 30
0.0
 11
28.55073879889363
 21
1.402681834357775
 31
0.0
  0
LINE
  5
C1E3
330
C1C0
100
AcDbEntity
  8
0
  6
CONTINUOUS
100
AcDbLine
 10
29.28241816560272
 20
2.134361201066866
 30
0.0
 11
30.74199999996924
 21
3.593943035433383
 31
0.0
  0
LINE
  5
C1E4
330
C1C0
100
AcDbEntity
  8
0
  6
CONTINUOUS
100
AcDbLine
 10
27.85467617360728
 20
0.0330999999912356
 30
0.0
 11
30.74199999996924
 21
2.920423826353195
 31
0.0
  0
LINE
  5
C1E5
330
C1C0
100
AcDbEntity
  8
0
  6
CONTINUOUS
100
AcDbLine
 10
28.53897559587887
 20
0.0438802131826428
 30
0.0
 11
30.73121978677781
 21
2.236124404081585
 31
0.0
  0
LINE
  5
C1E6
330
C1C0
100
AcDbEntity
  8
0
  6
CONTINUOUS
100
AcDbLine
 10
29.45140055588722
 20
0.2827859641107988
 30
0.0
 11
30.49231403584965
 21
1.323699444073236
 31
0.0
  0
LINE
  5
C1E7
330
C1C0
100
AcDbEntity
  8
0
  6
CONTINUOUS
100
AcDbLine
 10
19.59027867740337
 20
-0.0000967065718083
 30
0.0
 11
19.55485265190471
 21
0.035329318926844
 31
0.0
  0
LINE
  5
C1E8
330
C1C0
100
AcDbEntity
  8
0
  6
CONTINUOUS
100
AcDbLine
 10
20.26375463176586
 20
-0.0000534518541091
 30
0.0
 11
19.76305575737534
 21
0.5006454225364014
 31
0.0
  0
LINE
  5
C1E9
330
C1C0
100
AcDbEntity
  8
0
  6
CONTINUOUS
100
AcDbLine
 10
20.93723058612834
 20
-0.0000101971364099
 30
0.0
 11
19.97125886284597
 21
0.965961526145958
 31
0.0
  0
LINE
  5
C1EA
330
C1C0
100
AcDbEntity
  8
0
  6
CONTINUOUS
100
AcDbLine
 10
21.25514828313686
 20
0.355591314935257
 30
0.0
 11
20.1794619683166
 21
1.431277629755512
 31
0.0
  0
LINE
  5
C1EB
330
C1C0
100
AcDbEntity
  8
0
  6
CONTINUOUS
100
AcDbLine
 10
21.46338838394921
 20
0.8208704232030986
 30
0.0
 11
20.38766507378723
 21
1.896593733365069
 31
0.0
  0
LINE
  5
C1EC
330
C1C0
100
AcDbEntity
  8
0
  6
CONTINUOUS
100
AcDbLine
 10
21.67162848476155
 20
1.28614953147094
 30
0.0
 11
20.59586817925786
 21
2.361909836974626
 31
0.0
  0
LINE
  5
C1ED
330
C1C0
100
AcDbEntity
  8
0
  6
CONTINUOUS
100
AcDbLine
 10
21.8798685855739
 20
1.751428639738782
 30
0.0
 11
20.80407128472849
 21
2.827225940584183
 31
0.0
  0
LINE
  5
C1EE
330
C1C0
100
AcDbEntity
  8
0
  6
CONTINUOUS
100
AcDbLine
 10
22.08810868638624
 20
2.216707748006623
 30
0.0
 11
21.01227439019912
 21
3.292542044193739
 31
0.0
  0
LINE
  5
C1EF
330
C1C0
100
AcDbEntity
  8
0
  6
CONTINUOUS
100
AcDbLine
 10
22.60993564347543
 20
2.36839999999762
 30
0.0
 11
21.22047749566975
 21
3.757858147803296
 31
0.0
  0
LINE
  5
C1F0
330
C1C0
100
AcDbEntity
  8
0
  6
CONTINUOUS
100
AcDbLine
 10
23.28345485255561
 20
2.36839999999762
 30
0.0
 11
21.42868060114038
 21
4.223174251412853
 31
0.0
  0
LINE
  5
C1F1
330
C1C0
100
AcDbEntity
  8
0
  6
CONTINUOUS
100
AcDbLine
 10
26.29227406164219
 20
0.0330999999912356
 30
0.0
 11
25.80009199592872
 21
0.5252820657046957
 31
0.0
  0
LINE
  5
C1F2
330
C1C0
100
AcDbEntity
  8
0
  6
CONTINUOUS
100
AcDbLine
 10
23.9569740616358
 20
2.36839999999762
 30
0.0
 11
21.63688370661101
 21
4.688490355022409
 31
0.0
  0
LINE
  5
C1F3
330
C1C0
100
AcDbEntity
  8
0
  6
CONTINUOUS
100
AcDbLine
 10
26.96579327072237
 20
0.0330999999912356
 30
0.0
 11
25.2554132311971
 21
1.743480039516508
 31
0.0
  0
LINE
  5
C1F4
330
C1C0
100
AcDbEntity
  8
0
  6
CONTINUOUS
100
AcDbLine
 10
24.63049327071599
 20
2.36839999999762
 30
0.0
 11
23.32789327071731
 21
3.670999999996297
 31
0.0
  0
LINE
  5
C1F5
330
C1C0
100
AcDbEntity
  8
0
  6
CONTINUOUS
100
AcDbLine
 10
22.92098674744635
 20
4.077906523267254
 30
0.0
 11
21.84508681208164
 21
5.153806458631966
 31
0.0
  0
LINE
  5
C1F6
330
C1C0
100
AcDbEntity
  8
0
  6
CONTINUOUS
100
AcDbLine
 10
27.63931247980256
 20
0.0330999999912356
 30
0.0
 11
24.0014124797975
 21
3.670999999996297
 31
0.0
  0
LINE
  5
C1F7
330
C1C0
100
AcDbEntity
  8
0
  6
CONTINUOUS
100
AcDbLine
 10
23.129125600968
 20
4.5432868788258
 30
0.0
 11
22.05328991755227
 21
5.619122562241522
 31
0.0
  0
LINE
  5
C1F8
330
C1C0
100
AcDbEntity
  8
0
  6
CONTINUOUS
100
AcDbLine
 10
28.31283168888275
 20
0.0330999999912356
 30
0.0
 11
24.16488385994816
 21
4.181047828925828
 31
0.0
  0
LINE
  5
C1F9
330
C1C0
100
AcDbEntity
  8
0
  6
CONTINUOUS
100
AcDbLine
 10
23.33726445448964
 20
5.008667234384345
 30
0.0
 11
22.2614930230229
 21
6.084438665851079
 31
0.0
  0
LINE
  5
C1FA
330
C1C0
100
AcDbEntity
  8
0
  6
CONTINUOUS
100
AcDbLine
 10
28.92085740005492
 20
0.0985934978992438
 30
0.0
 11
27.63635089796295
 21
1.383099999991217
 31
0.0
  0
LINE
  5
C1FB
330
C1C0
100
AcDbEntity
  8
0
  6
CONTINUOUS
100
AcDbLine
 10
26.43704649509776
 20
2.582404402856405
 30
0.0
 11
23.61992702019732
 21
5.399523877756844
 31
0.0
  0
LINE
  5
C1FC
330
C1C0
100
AcDbEntity
  8
0
  6
CONTINUOUS
100
AcDbLine
 10
23.54540330801128
 20
5.47404758994289
 30
0.0
 11
22.46969612849353
 21
6.549754769460635
 31
0.0
  0
LINE
  5
C1FD
330
C1C0
100
AcDbEntity
  8
0
  6
CONTINUOUS
100
AcDbLine
 10
29.42225615078443
 20
0.2707139562499279
 30
0.0
 11
28.30987010704312
 21
1.383099999991234
 31
0.0
  0
LINE
  5
C1FE
330
C1C0
100
AcDbEntity
  8
0
  6
CONTINUOUS
100
AcDbLine
 10
25.89179548232307
 20
3.801174624711282
 30
0.0
 11
22.67789923396416
 21
7.015070873070191
 31
0.0
  0
LINE
  5
C1FF
330
C1C0
100
AcDbEntity
  8
0
  6
CONTINUOUS
100
AcDbLine
 10
29.83624534690007
 20
0.5302439692144705
 30
0.0
 11
28.85811781497101
 21
1.508371501143527
 31
0.0
  0
LINE
  5
C200
330
C1C0
100
AcDbEntity
  8
0
  6
CONTINUOUS
100
AcDbLine
 10
25.34654446954838
 20
5.01994484656616
 30
0.0
 11
22.88610233943479
 21
7.480386976679748
 31
0.0
  0
LINE
  5
C201
330
C1C0
100
AcDbEntity
  8
0
  6
CONTINUOUS
100
AcDbLine
 10
30.17865975401872
 20
0.8613487711760022
 30
0.0
 11
29.18888744090175
 21
1.851121084292977
 31
0.0
  0
LINE
  5
C202
330
C1C0
100
AcDbEntity
  8
0
  6
CONTINUOUS
100
AcDbLine
 10
24.80129345677369
 20
6.238715068421037
 30
0.0
 11
23.09430544490542
 21
7.945703080289305
 31
0.0
  0
LINE
  5
C203
330
C1C0
100
AcDbEntity
  8
0
  6
CONTINUOUS
100
AcDbLine
 10
30.45496647202376
 20
1.258561262251155
 30
0.0
 11
29.30199999996933
 21
2.411527734305588
 31
0.0
  0
LINE
  5
C204
330
C1C0
100
AcDbEntity
  8
0
  6
CONTINUOUS
100
AcDbLine
 10
24.256042443999
 20
7.457485290275915
 30
0.0
 11
23.30250855037605
 21
8.411019183898862
 31
0.0
  0
LINE
  5
C205
330
C1C0
100
AcDbEntity
  8
0
  6
CONTINUOUS
100
AcDbLine
 10
30.64868582078271
 20
1.738361122572387
 30
0.0
 11
29.30199999996933
 21
3.085046943385775
 31
0.0
  0
LINE
  5
C206
330
C1C0
100
AcDbEntity
  8
0
  6
CONTINUOUS
100
AcDbLine
 10
23.71079143122431
 20
8.676255512130794
 30
0.0
 11
23.51071165584668
 21
8.876335287508416
 31
0.0
  0
LINE
  5
C207
330
C1C0
100
AcDbEntity
  8
0
  6
CONTINUOUS
100
AcDbLine
 10
30.73802122914428
 20
2.322544923291007
 30
0.0
 11
29.30199999996933
 21
3.758566152465961
 31
0.0
  0
LINE
  5
C208
330
C1C0
100
AcDbEntity
  8
0
  6
CONTINUOUS
100
AcDbLine
 10
30.74199999996924
 20
2.992085361546236
 30
0.0
 11
29.30199999996933
 21
4.432085361546148
 31
0.0
  0
LINE
  5
C209
330
C1C0
100
AcDbEntity
  8
0
  6
CONTINUOUS
100
AcDbLine
 10
30.74199999996924
 20
3.665604570626419
 30
0.0
 11
29.30199999996933
 21
5.105604570626333
 31
0.0
  0
LINE
  5
C20A
330
C1C0
100
AcDbEntity
  8
0
  6
CONTINUOUS
100
AcDbLine
 10
30.74199999996925
 20
4.339123779706602
 30
0.0
 11
29.30199999996933
 21
5.77912377970652
 31
0.0
  0
LINE
  5
C20B
330
C1C0
100
AcDbEntity
  8
0
  6
CONTINUOUS
100
AcDbLine
 10
30.74199999996925
 20
5.012642988786785
 30
0.0
 11
29.30199999996933
 21
6.452642988786707
 31
0.0
  0
LINE
  5
C20C
330
C1C0
100
AcDbEntity
  8
0
  6
CONTINUOUS
100
AcDbLine
 10
30.74199999996925
 20
5.68616219786697
 30
0.0
 11
29.30199999996933
 21
7.126162197866894
 31
0.0
  0
LINE
  5
C20D
330
C1C0
100
AcDbEntity
  8
0
  6
CONTINUOUS
100
AcDbLine
 10
30.74199999996925
 20
6.359681406947153
 30
0.0
 11
29.30199999996933
 21
7.799681406947081
 31
0.0
  0
LINE
  5
C20E
330
C1C0
100
AcDbEntity
  8
0
  6
CONTINUOUS
100
AcDbLine
 10
30.74199999996926
 20
7.033200616027337
 30
0.0
 11
29.30199999996933
 21
8.473200616027269
 31
0.0
  0
LINE
  5
C20F
330
C1C0
100
AcDbEntity
  8
0
  6
CONTINUOUS
100
AcDbLine
 10
30.74199999996926
 20
7.706719825107518
 30
0.0
 11
29.68561982508552
 21
8.763099999991255
 31
0.0
  0
LINE
  5
C210
330
C1C0
100
AcDbEntity
  8
0
  6
CONTINUOUS
100
AcDbLine
 10
30.74199999996926
 20
8.380239034187703
 30
0.0
 11
30.35913903416571
 21
8.763099999991255
 31
0.0
  0
ENDBLK
  5
C2B3
330
C1C0
100
AcDbEntity
  8
0
100
AcDbBlockEnd
  0
BLOCK
  5
C2B4
330
C211
100
AcDbEntity
  8
0
100
AcDbBlockBegin
  2
*X39
 70
     1
 10
0.0
 20
0.0
 30
0.0
  3
*X39
  1

  0
LINE
  5
C212
330
C211
100
AcDbEntity
  8
0
  6
CONTINUOUS
100
AcDbLine
 10
31.64199999996833
 20
8.535058289913598
 30
0.0
 11
31.87004171004599
 21
8.763099999991255
 31
0.0
  0
LINE
  5
C213
330
C211
100
AcDbEntity
  8
0
  6
CONTINUOUS
100
AcDbLine
 10
31.64199999996833
 20
7.861539080833412
 30
0.0
 11
32.54356091912618
 21
8.763099999991255
 31
0.0
  0
LINE
  5
C214
330
C211
100
AcDbEntity
  8
0
  6
CONTINUOUS
100
AcDbLine
 10
31.64199999996833
 20
7.188019871753226
 30
0.0
 11
33.08199999996839
 21
8.628019871753281
 31
0.0
  0
LINE
  5
C215
330
C211
100
AcDbEntity
  8
0
  6
CONTINUOUS
100
AcDbLine
 10
31.64199999996833
 20
6.51450066267304
 30
0.0
 11
33.08199999996839
 21
7.954500662673095
 31
0.0
  0
LINE
  5
C216
330
C211
100
AcDbEntity
  8
0
  6
CONTINUOUS
100
AcDbLine
 10
31.64199999996833
 20
5.840981453592853
 30
0.0
 11
33.08199999996839
 21
7.280981453592908
 31
0.0
  0
LINE
  5
C217
330
C211
100
AcDbEntity
  8
0
  6
CONTINUOUS
100
AcDbLine
 10
31.64199999996833
 20
5.167462244512667
 30
0.0
 11
33.08199999996839
 21
6.607462244512721
 31
0.0
  0
LINE
  5
C218
330
C211
100
AcDbEntity
  8
0
  6
CONTINUOUS
100
AcDbLine
 10
31.64199999996833
 20
4.493943035432481
 30
0.0
 11
33.08199999996839
 21
5.933943035432535
 31
0.0
  0
LINE
  5
C219
330
C211
100
AcDbEntity
  8
0
  6
CONTINUOUS
100
AcDbLine
 10
31.64199999996833
 20
3.820423826352293
 30
0.0
 11
33.08199999996839
 21
5.260423826352348
 31
0.0
  0
LINE
  5
C21A
330
C211
100
AcDbEntity
  8
0
  6
CONTINUOUS
100
AcDbLine
 10
31.64199999996833
 20
3.146904617272106
 30
0.0
 11
33.08199999996839
 21
4.586904617272161
 31
0.0
  0
LINE
  5
C21B
330
C211
100
AcDbEntity
  8
0
  6
CONTINUOUS
100
AcDbLine
 10
36.23199999996837
 20
8.410423826352325
 30
0.0
 11
36.5846761736073
 21
8.763099999991255
 31
0.0
  0
LINE
  5
C21C
330
C211
100
AcDbEntity
  8
0
  6
CONTINUOUS
100
AcDbLine
 10
36.23199999996837
 20
7.73690461727214
 30
0.0
 11
37.25819538268748
 21
8.763099999991255
 31
0.0
  0
LINE
  5
C21D
330
C211
100
AcDbEntity
  8
0
  6
CONTINUOUS
100
AcDbLine
 10
31.64257403601376
 20
2.473959444237348
 30
0.0
 11
33.08199999996839
 21
3.913385408191974
 31
0.0
  0
LINE
  5
C21E
330
C211
100
AcDbEntity
  8
0
  6
CONTINUOUS
100
AcDbLine
 10
36.23199999996837
 20
7.063385408191953
 30
0.0
 11
37.67199999996831
 21
8.503385408191894
 31
0.0
  0
LINE
  5
C21F
330
C211
100
AcDbEntity
  8
0
  6
CONTINUOUS
100
AcDbLine
 10
31.72013636841932
 20
1.87800256756272
 30
0.0
 11
33.08199999996839
 21
3.239866199111788
 31
0.0
  0
LINE
  5
C220
330
C211
100
AcDbEntity
  8
0
  6
CONTINUOUS
100
AcDbLine
 10
36.23199999996837
 20
6.389866199111767
 30
0.0
 11
37.67199999996831
 21
7.829866199111708
 31
0.0
  0
LINE
  5
C221
330
C211
100
AcDbEntity
  8
0
  6
CONTINUOUS
100
AcDbLine
 10
31.89042734314753
 20
1.374774333210744
 30
0.0
 11
33.08199999996839
 21
2.566346990031601
 31
0.0
  0
LINE
  5
C222
330
C211
100
AcDbEntity
  8
0
  6
CONTINUOUS
100
AcDbLine
 10
36.23199999996837
 20
5.71634699003158
 30
0.0
 11
37.67199999996831
 21
7.156346990031521
 31
0.0
  0
LINE
  5
C223
330
C211
100
AcDbEntity
  8
0
  6
CONTINUOUS
100
AcDbLine
 10
32.14210568064475
 20
0.952933461627778
 30
0.0
 11
33.18745552475986
 21
1.998283305742888
 31
0.0
  0
LINE
  5
C224
330
C211
100
AcDbEntity
  8
0
  6
CONTINUOUS
100
AcDbLine
 10
36.23199999996837
 20
5.042827780951393
 30
0.0
 11
37.67199999996831
 21
6.482827780951334
 31
0.0
  0
LINE
  5
C225
330
C211
100
AcDbEntity
  8
0
  6
CONTINUOUS
100
AcDbLine
 10
32.45820639400955
 20
0.5955149659123915
 30
0.0
 11
33.47242681921943
 21
1.60973539112227
 31
0.0
  0
LINE
  5
C226
330
C211
100
AcDbEntity
  8
0
  6
CONTINUOUS
100
AcDbLine
 10
36.23199999996837
 20
4.369308571871207
 30
0.0
 11
37.67199999996831
 21
5.809308571871147
 31
0.0
  0
LINE
  5
C227
330
C211
100
AcDbEntity
  8
0
  6
CONTINUOUS
100
AcDbLine
 10
32.83432456621412
 20
0.2981139290367771
 30
0.0
 11
33.89722476612215
 21
1.361014128944803
 31
0.0
  0
LINE
  5
C228
330
C211
100
AcDbEntity
  8
0
  6
CONTINUOUS
100
AcDbLine
 10
36.23199999996837
 20
3.69578936279102
 30
0.0
 11
37.67199999996831
 21
5.135789362790962
 31
0.0
  0
LINE
  5
C229
330
C211
100
AcDbEntity
  8
0
  6
CONTINUOUS
100
AcDbLine
 10
33.2711633111245
 20
0.0614334648669672
 30
0.0
 11
34.43247338014423
 21
1.222743533886696
 31
0.0
  0
LINE
  5
C22A
330
C211
100
AcDbEntity
  8
0
  6
CONTINUOUS
100
AcDbLine
 10
36.23199999996837
 20
3.022270153710834
 30
0.0
 11
37.67199999996831
 21
4.462270153710775
 31
0.0
  0
LINE
  5
C22B
330
C211
100
AcDbEntity
  8
0
  6
CONTINUOUS
100
AcDbLine
 10
33.76515245874577
 20
-0.1180965965919523
 30
0.0
 11
35.1587445516215
 21
1.27549549628378
 31
0.0
  0
LINE
  5
C22C
330
C211
100
AcDbEntity
  8
0
  6
CONTINUOUS
100
AcDbLine
 10
36.21639478609585
 20
2.333145730758136
 30
0.0
 11
37.67199999996831
 21
3.788750944630588
 31
0.0
  0
LINE
  5
C22D
330
C211
100
AcDbEntity
  8
0
  6
CONTINUOUS
100
AcDbLine
 10
34.34060583368432
 20
-0.2161624307335863
 30
0.0
 11
37.67199999996831
 21
3.115231735550401
 31
0.0
  0
LINE
  5
C22E
330
C211
100
AcDbEntity
  8
0
  6
CONTINUOUS
100
AcDbLine
 10
35.01698193613905
 20
-0.2133055373590427
 30
0.0
 11
37.66876712070525
 21
2.438479647207154
 31
0.0
  0
LINE
  5
C22F
330
C211
100
AcDbEntity
  8
0
  6
CONTINUOUS
100
AcDbLine
 10
35.90743367693304
 20
0.0036269943547609
 30
0.0
 11
37.51723902192366
 21
1.613432339345381
 31
0.0
  0
LINE
  5
C230
330
C211
100
AcDbEntity
  8
0
  6
CONTINUOUS
100
AcDbLine
 10
32.55309425579761
 20
0.5074718966376706
 30
0.0
 11
32.27784730925847
 21
0.7827188431768102
 31
0.0
  0
LINE
  5
C231
330
C211
100
AcDbEntity
  8
0
  6
CONTINUOUS
100
AcDbLine
 10
33.87496468909684
 20
-0.1408793275813673
 30
0.0
 11
31.67993083278052
 21
2.054154528734943
 31
0.0
  0
LINE
  5
C232
330
C211
100
AcDbEntity
  8
0
  6
CONTINUOUS
100
AcDbLine
 10
34.64362813207632
 20
-0.2360235614806649
 30
0.0
 11
31.64199999996833
 21
2.765604570627322
 31
0.0
  0
LINE
  5
C233
330
C211
100
AcDbEntity
  8
0
  6
CONTINUOUS
100
AcDbLine
 10
35.25801106796118
 20
-0.1768872882853429
 30
0.0
 11
31.64199999996833
 21
3.439123779707508
 31
0.0
  0
LINE
  5
C234
330
C211
100
AcDbEntity
  8
0
  6
CONTINUOUS
100
AcDbLine
 10
35.79065650332146
 20
-0.0360135145654361
 30
0.0
 11
34.54143210838231
 21
1.213210880373721
 31
0.0
  0
LINE
  5
C235
330
C211
100
AcDbEntity
  8
0
  6
CONTINUOUS
100
AcDbLine
 10
33.08199999996839
 20
2.67264298878764
 30
0.0
 11
31.64199999996833
 21
4.112642988787695
 31
0.0
  0
LINE
  5
C236
330
C211
100
AcDbEntity
  8
0
  6
CONTINUOUS
100
AcDbLine
 10
36.25975597779143
 20
0.1684062200447833
 30
0.0
 11
35.15395110240023
 21
1.274211095435983
 31
0.0
  0
LINE
  5
C237
330
C211
100
AcDbEntity
  8
0
  6
CONTINUOUS
100
AcDbLine
 10
33.08199999996839
 20
3.346162197867826
 30
0.0
 11
31.64199999996833
 21
4.786162197867881
 31
0.0
  0
LINE
  5
C238
330
C211
100
AcDbEntity
  8
0
  6
CONTINUOUS
100
AcDbLine
 10
36.67226329638774
 20
0.4294181105286579
 30
0.0
 11
35.63766478748767
 21
1.464016619428737
 31
0.0
  0
LINE
  5
C239
330
C211
100
AcDbEntity
  8
0
  6
CONTINUOUS
100
AcDbLine
 10
33.08199999996839
 20
4.019681406948012
 30
0.0
 11
31.64199999996833
 21
5.459681406948068
 31
0.0
  0
LINE
  5
C23A
330
C211
100
AcDbEntity
  8
0
  6
CONTINUOUS
100
AcDbLine
 10
37.01677749710036
 20
0.7584231188962329
 30
0.0
 11
35.99563422741351
 21
1.779566388583076
 31
0.0
  0
LINE
  5
C23B
330
C211
100
AcDbEntity
  8
0
  6
CONTINUOUS
100
AcDbLine
 10
33.08199999996839
 20
4.693200616028199
 30
0.0
 11
31.64199999996833
 21
6.133200616028255
 31
0.0
  0
LINE
  5
C23C
330
C211
100
AcDbEntity
  8
0
  6
CONTINUOUS
100
AcDbLine
 10
37.29859977568887
 20
1.1501200493879
 30
0.0
 11
36.20680593341555
 21
2.241913891661226
 31
0.0
  0
LINE
  5
C23D
330
C211
100
AcDbEntity
  8
0
  6
CONTINUOUS
100
AcDbLine
 10
33.08199999996839
 20
5.366719825108386
 30
0.0
 11
31.64199999996833
 21
6.80671982510844
 31
0.0
  0
LINE
  5
C23E
330
C211
100
AcDbEntity
  8
0
  6
CONTINUOUS
100
AcDbLine
 10
37.5148623517228
 20
1.607376682434161
 30
0.0
 11
36.23199999996837
 21
2.890239034188594
 31
0.0
  0
LINE
  5
C23F
330
C211
100
AcDbEntity
  8
0
  6
CONTINUOUS
100
AcDbLine
 10
33.08199999996839
 20
6.040239034188573
 30
0.0
 11
31.64199999996833
 21
7.480239034188627
 31
0.0
  0
LINE
  5
C240
330
C211
100
AcDbEntity
  8
0
  6
CONTINUOUS
100
AcDbLine
 10
37.64705163358367
 20
2.148706609653477
 30
0.0
 11
36.23199999996837
 21
3.56375824326878
 31
0.0
  0
LINE
  5
C241
330
C211
100
AcDbEntity
  8
0
  6
CONTINUOUS
100
AcDbLine
 10
33.08199999996839
 20
6.713758243268758
 30
0.0
 11
31.64199999996833
 21
8.153758243268815
 31
0.0
  0
LINE
  5
C242
330
C211
100
AcDbEntity
  8
0
  6
CONTINUOUS
100
AcDbLine
 10
37.67199999996831
 20
2.797277452349026
 30
0.0
 11
36.23199999996837
 21
4.237277452348967
 31
0.0
  0
LINE
  5
C243
330
C211
100
AcDbEntity
  8
0
  6
CONTINUOUS
100
AcDbLine
 10
37.67199999996831
 20
3.470796661429213
 30
0.0
 11
36.23199999996837
 21
4.910796661429154
 31
0.0
  0
LINE
  5
C244
330
C211
100
AcDbEntity
  8
0
  6
CONTINUOUS
100
AcDbLine
 10
37.67199999996831
 20
4.144315870509399
 30
0.0
 11
36.23199999996837
 21
5.58431587050934
 31
0.0
  0
LINE
  5
C245
330
C211
100
AcDbEntity
  8
0
  6
CONTINUOUS
100
AcDbLine
 10
33.08199999996839
 20
7.387277452348945
 30
0.0
 11
31.70617745232608
 21
8.763099999991255
 31
0.0
  0
LINE
  5
C246
330
C211
100
AcDbEntity
  8
0
  6
CONTINUOUS
100
AcDbLine
 10
33.08199999996839
 20
8.060796661429132
 30
0.0
 11
32.37969666140626
 21
8.763099999991255
 31
0.0
  0
LINE
  5
C247
330
C211
100
AcDbEntity
  8
0
  6
CONTINUOUS
100
AcDbLine
 10
33.08199999996839
 20
8.734315870509318
 30
0.0
 11
33.05321587048645
 21
8.763099999991255
 31
0.0
  0
LINE
  5
C248
330
C211
100
AcDbEntity
  8
0
  6
CONTINUOUS
100
AcDbLine
 10
37.67199999996831
 20
4.817835079589585
 30
0.0
 11
36.23199999996837
 21
6.257835079589526
 31
0.0
  0
LINE
  5
C249
330
C211
100
AcDbEntity
  8
0
  6
CONTINUOUS
100
AcDbLine
 10
37.67199999996831
 20
5.491354288669771
 30
0.0
 11
36.23199999996837
 21
6.931354288669713
 31
0.0
  0
LINE
  5
C24A
330
C211
100
AcDbEntity
  8
0
  6
CONTINUOUS
100
AcDbLine
 10
37.67199999996831
 20
6.164873497749958
 30
0.0
 11
36.23199999996837
 21
7.6048734977499
 31
0.0
  0
LINE
  5
C24B
330
C211
100
AcDbEntity
  8
0
  6
CONTINUOUS
100
AcDbLine
 10
37.67199999996831
 20
6.838392706830144
 30
0.0
 11
36.23199999996837
 21
8.278392706830086
 31
0.0
  0
LINE
  5
C24C
330
C211
100
AcDbEntity
  8
0
  6
CONTINUOUS
100
AcDbLine
 10
37.67199999996831
 20
7.511911915910332
 30
0.0
 11
36.42081191588738
 21
8.763099999991255
 31
0.0
  0
LINE
  5
C24D
330
C211
100
AcDbEntity
  8
0
  6
CONTINUOUS
100
AcDbLine
 10
37.67199999996831
 20
8.185431124990519
 30
0.0
 11
37.09433112496757
 21
8.763099999991255
 31
0.0
  0
ENDBLK
  5
C2B5
330
C211
100
AcDbEntity
  8
0
100
AcDbBlockEnd
  0
BLOCK
  5
C2B6
330
C24E
100
AcDbEntity
  8
0
100
AcDbBlockBegin
  2
*X40
 70
     1
 10
0.0
 20
0.0
 30
0.0
  3
*X40
  1

  0
LINE
  5
C24F
330
C24E
100
AcDbEntity
  8
0
  6
CONTINUOUS
100
AcDbLine
 10
38.60499999996136
 20
8.762866199104765
 30
0.0
 11
38.71672554182345
 21
8.874591740966855
 31
0.0
  0
LINE
  5
C250
330
C24E
100
AcDbEntity
  8
0
  6
CONTINUOUS
100
AcDbLine
 10
38.60499999996136
 20
8.089346990024577
 30
0.0
 11
39.03418785440363
 21
8.518534844466847
 31
0.0
  0
LINE
  5
C251
330
C24E
100
AcDbEntity
  8
0
  6
CONTINUOUS
100
AcDbLine
 10
38.60499999996136
 20
7.41582778094439
 30
0.0
 11
39.35165016698382
 21
8.16247794796684
 31
0.0
  0
LINE
  5
C252
330
C24E
100
AcDbEntity
  8
0
  6
CONTINUOUS
100
AcDbLine
 10
38.60499999996136
 20
6.742308571864204
 30
0.0
 11
39.66911247956399
 21
7.806421051466834
 31
0.0
  0
LINE
  5
C253
330
C24E
100
AcDbEntity
  8
0
  6
CONTINUOUS
100
AcDbLine
 10
38.60499999996136
 20
6.068789362784018
 30
0.0
 11
39.98657479214418
 21
7.450364154966827
 31
0.0
  0
LINE
  5
C254
330
C24E
100
AcDbEntity
  8
0
  6
CONTINUOUS
100
AcDbLine
 10
38.60499999996136
 20
5.395270153703832
 30
0.0
 11
40.30403710472435
 21
7.09430725846682
 31
0.0
  0
LINE
  5
C255
330
C24E
100
AcDbEntity
  8
0
  6
CONTINUOUS
100
AcDbLine
 10
38.60499999996136
 20
4.721750944623645
 30
0.0
 11
40.62149941730453
 21
6.738250361966813
 31
0.0
  0
LINE
  5
C256
330
C24E
100
AcDbEntity
  8
0
  6
CONTINUOUS
100
AcDbLine
 10
38.60499999996136
 20
4.048231735543458
 30
0.0
 11
40.93896172988471
 21
6.382193465466806
 31
0.0
  0
LINE
  5
C257
330
C24E
100
AcDbEntity
  8
0
  6
CONTINUOUS
100
AcDbLine
 10
38.60499999996136
 20
3.374712526463272
 30
0.0
 11
40.02599999995994
 21
4.795712526461843
 31
0.0
  0
LINE
  5
C258
330
C24E
100
AcDbEntity
  8
0
  6
CONTINUOUS
100
AcDbLine
 10
38.60499999996136
 20
2.701193317383085
 30
0.0
 11
40.02599999995994
 21
4.122193317381657
 31
0.0
  0
LINE
  5
C259
330
C24E
100
AcDbEntity
  8
0
  6
CONTINUOUS
100
AcDbLine
 10
40.28339754687704
 20
5.053110073378947
 30
0.0
 11
41.25642404246489
 21
6.026136568966799
 31
0.0
  0
LINE
  5
C25A
330
C24E
100
AcDbEntity
  8
0
  6
CONTINUOUS
100
AcDbLine
 10
40.60085985945722
 20
4.697053176878939
 30
0.0
 11
41.57388635504507
 21
5.670079672466793
 31
0.0
  0
LINE
  5
C25B
330
C24E
100
AcDbEntity
  8
0
  6
CONTINUOUS
100
AcDbLine
 10
43.57899999995641
 20
8.348712526458318
 30
0.0
 11
43.99338747348935
 21
8.763099999991255
 31
0.0
  0
LINE
  5
C25C
330
C24E
100
AcDbEntity
  8
0
  6
CONTINUOUS
100
AcDbLine
 10
43.57899999995641
 20
7.675193317378131
 30
0.0
 11
44.66690668256953
 21
8.763099999991255
 31
0.0
  0
LINE
  5
C25D
330
C24E
100
AcDbEntity
  8
0
  6
CONTINUOUS
100
AcDbLine
 10
38.60499999996136
 20
2.027674108302898
 30
0.0
 11
40.02599999995994
 21
3.44867410830147
 31
0.0
  0
LINE
  5
C25E
330
C24E
100
AcDbEntity
  8
0
  6
CONTINUOUS
100
AcDbLine
 10
38.60499999996136
 20
1.354154899222712
 30
0.0
 11
40.02599999995994
 21
2.775154899221284
 31
0.0
  0
LINE
  5
C25F
330
C24E
100
AcDbEntity
  8
0
  6
CONTINUOUS
100
AcDbLine
 10
38.60499999996136
 20
0.6806356901425255
 30
0.0
 11
40.02599999995994
 21
2.101635690141098
 31
0.0
  0
LINE
  5
C260
330
C24E
100
AcDbEntity
  8
0
  6
CONTINUOUS
100
AcDbLine
 10
38.60499999996136
 20
0.0071164810623383
 30
0.0
 11
40.02599999995994
 21
1.428116481060911
 31
0.0
  0
LINE
  5
C261
330
C24E
100
AcDbEntity
  8
0
  6
CONTINUOUS
100
AcDbLine
 10
40.9183221720374
 20
4.340996280378933
 30
0.0
 11
41.89134866762525
 21
5.314022775966786
 31
0.0
  0
LINE
  5
C262
330
C24E
100
AcDbEntity
  8
0
  6
CONTINUOUS
100
AcDbLine
 10
41.23578448461758
 20
3.984939383878926
 30
0.0
 11
42.20881098020543
 21
4.957965879466778
 31
0.0
  0
LINE
  5
C263
330
C24E
100
AcDbEntity
  8
0
  6
CONTINUOUS
100
AcDbLine
 10
41.55324679719776
 20
3.628882487378919
 30
0.0
 11
42.52627329278561
 21
4.601908982966772
 31
0.0
  0
LINE
  5
C264
330
C24E
100
AcDbEntity
  8
0
  6
CONTINUOUS
100
AcDbLine
 10
41.87070910977793
 20
3.272825590878912
 30
0.0
 11
42.84373560536579
 21
4.245852086466765
 31
0.0
  0
LINE
  5
C265
330
C24E
100
AcDbEntity
  8
0
  6
CONTINUOUS
100
AcDbLine
 10
43.57899999995641
 20
7.001674108297943
 30
0.0
 11
44.99999999995498
 21
8.422674108296516
 31
0.0
  0
LINE
  5
C266
330
C24E
100
AcDbEntity
  8
0
  6
CONTINUOUS
100
AcDbLine
 10
43.57899999995641
 20
6.328154899217758
 30
0.0
 11
44.99999999995498
 21
7.749154899216329
 31
0.0
  0
LINE
  5
C267
330
C24E
100
AcDbEntity
  8
0
  6
CONTINUOUS
100
AcDbLine
 10
43.57899999995641
 20
5.654635690137571
 30
0.0
 11
44.99999999995498
 21
7.075635690136142
 31
0.0
  0
LINE
  5
C268
330
C24E
100
AcDbEntity
  8
0
  6
CONTINUOUS
100
AcDbLine
 10
43.57899999995641
 20
4.981116481057384
 30
0.0
 11
44.99999999995498
 21
6.402116481055955
 31
0.0
  0
LINE
  5
C269
330
C24E
100
AcDbEntity
  8
0
  6
CONTINUOUS
100
AcDbLine
 10
39.27140272797921
 20
-0.0000000000000009
 30
0.0
 11
40.02599999995994
 21
0.7545972719807246
 31
0.0
  0
LINE
  5
C26A
330
C24E
100
AcDbEntity
  8
0
  6
CONTINUOUS
100
AcDbLine
 10
39.9449219370594
 20
-0.0000000000000009
 30
0.0
 11
40.02599999995994
 21
0.0810780629005379
 31
0.0
  0
LINE
  5
C26B
330
C24E
100
AcDbEntity
  8
0
  6
CONTINUOUS
100
AcDbLine
 10
42.18817142235812
 20
2.916768694378905
 30
0.0
 11
43.16119791794597
 21
3.889795189966758
 31
0.0
  0
LINE
  5
C26C
330
C24E
100
AcDbEntity
  8
0
  6
CONTINUOUS
100
AcDbLine
 10
42.50563373493829
 20
2.560711797878898
 30
0.0
 11
43.47866023052615
 21
3.533738293466751
 31
0.0
  0
LINE
  5
C26D
330
C24E
100
AcDbEntity
  8
0
  6
CONTINUOUS
100
AcDbLine
 10
43.57899999995641
 20
4.307597271977198
 30
0.0
 11
44.99999999995498
 21
5.728597271975769
 31
0.0
  0
LINE
  5
C26E
330
C24E
100
AcDbEntity
  8
0
  6
CONTINUOUS
100
AcDbLine
 10
43.57899999995641
 20
3.634078062897011
 30
0.0
 11
44.99999999995498
 21
5.055078062895582
 31
0.0
  0
LINE
  5
C26F
330
C24E
100
AcDbEntity
  8
0
  6
CONTINUOUS
100
AcDbLine
 10
42.82309604751848
 20
2.204654901378891
 30
0.0
 11
44.99999999995498
 21
4.381558853815395
 31
0.0
  0
LINE
  5
C270
330
C24E
100
AcDbEntity
  8
0
  6
CONTINUOUS
100
AcDbLine
 10
43.14055836009865
 20
1.848598004878885
 30
0.0
 11
44.99999999995498
 21
3.70803964473521
 31
0.0
  0
LINE
  5
C271
330
C24E
100
AcDbEntity
  8
0
  6
CONTINUOUS
100
AcDbLine
 10
43.45802067267883
 20
1.492541108378878
 30
0.0
 11
44.99999999995498
 21
3.034520435655023
 31
0.0
  0
LINE
  5
C272
330
C24E
100
AcDbEntity
  8
0
  6
CONTINUOUS
100
AcDbLine
 10
43.77548298525902
 20
1.136484211878871
 30
0.0
 11
44.99999999995498
 21
2.361001226574837
 31
0.0
  0
LINE
  5
C273
330
C24E
100
AcDbEntity
  8
0
  6
CONTINUOUS
100
AcDbLine
 10
44.09294529783919
 20
0.7804273153788639
 30
0.0
 11
44.99999999995498
 21
1.687482017494649
 31
0.0
  0
LINE
  5
C274
330
C24E
100
AcDbEntity
  8
0
  6
CONTINUOUS
100
AcDbLine
 10
44.41040761041938
 20
0.4243704188788566
 30
0.0
 11
44.99999999995498
 21
1.013962808414463
 31
0.0
  0
LINE
  5
C275
330
C24E
100
AcDbEntity
  8
0
  6
CONTINUOUS
100
AcDbLine
 10
44.72786992299955
 20
0.0683135223788494
 30
0.0
 11
44.99999999995498
 21
0.340443599334276
 31
0.0
  0
LINE
  5
C276
330
C24E
100
AcDbEntity
  8
0
  6
CONTINUOUS
100
AcDbLine
 10
39.12223903415696
 20
-0.0000000000000009
 30
0.0
 11
38.60499999996136
 21
0.5172390341955961
 31
0.0
  0
LINE
  5
C277
330
C24E
100
AcDbEntity
  8
0
  6
CONTINUOUS
100
AcDbLine
 10
39.79575824323715
 20
-0.0000000000000009
 30
0.0
 11
38.60499999996136
 21
1.190758243275783
 31
0.0
  0
LINE
  5
C278
330
C24E
100
AcDbEntity
  8
0
  6
CONTINUOUS
100
AcDbLine
 10
40.02599999995994
 20
0.443277452357397
 30
0.0
 11
38.60499999996136
 21
1.864277452355969
 31
0.0
  0
LINE
  5
C279
330
C24E
100
AcDbEntity
  8
0
  6
CONTINUOUS
100
AcDbLine
 10
40.02599999995994
 20
1.116796661437583
 30
0.0
 11
38.60499999996136
 21
2.537796661436155
 31
0.0
  0
LINE
  5
C27A
330
C24E
100
AcDbEntity
  8
0
  6
CONTINUOUS
100
AcDbLine
 10
40.02599999995994
 20
1.79031587051777
 30
0.0
 11
38.60499999996136
 21
3.211315870516341
 31
0.0
  0
LINE
  5
C27B
330
C24E
100
AcDbEntity
  8
0
  6
CONTINUOUS
100
AcDbLine
 10
40.02599999995994
 20
2.463835079597956
 30
0.0
 11
38.60499999996136
 21
3.884835079596527
 31
0.0
  0
LINE
  5
C27C
330
C24E
100
AcDbEntity
  8
0
  6
CONTINUOUS
100
AcDbLine
 10
40.02599999995994
 20
3.137354288678143
 30
0.0
 11
38.60499999996136
 21
4.558354288676714
 31
0.0
  0
LINE
  5
C27D
330
C24E
100
AcDbEntity
  8
0
  6
CONTINUOUS
100
AcDbLine
 10
40.02599999995994
 20
3.810873497758329
 30
0.0
 11
38.60499999996136
 21
5.2318734977569
 31
0.0
  0
LINE
  5
C27E
330
C24E
100
AcDbEntity
  8
0
  6
CONTINUOUS
100
AcDbLine
 10
40.02599999995994
 20
4.484392706838515
 30
0.0
 11
38.60499999996136
 21
5.905392706837086
 31
0.0
  0
LINE
  5
C27F
330
C24E
100
AcDbEntity
  8
0
  6
CONTINUOUS
100
AcDbLine
 10
44.99999999995498
 20
0.183911915923658
 30
0.0
 11
41.53858364506288
 21
3.64532827081576
 31
0.0
  0
LINE
  5
C280
330
C24E
100
AcDbEntity
  8
0
  6
CONTINUOUS
100
AcDbLine
 10
40.02599999995994
 20
5.157911915918703
 30
0.0
 11
38.60499999996136
 21
6.578911915917274
 31
0.0
  0
LINE
  5
C281
330
C24E
100
AcDbEntity
  8
0
  6
CONTINUOUS
100
AcDbLine
 10
44.99999999995498
 20
0.8574311250038447
 30
0.0
 11
38.60499999996136
 21
7.25243112499746
 31
0.0
  0
LINE
  5
C282
330
C24E
100
AcDbEntity
  8
0
  6
CONTINUOUS
100
AcDbLine
 10
44.99999999995498
 20
1.530950334084031
 30
0.0
 11
38.60499999996136
 21
7.925950334077647
 31
0.0
  0
LINE
  5
C283
330
C24E
100
AcDbEntity
  8
0
  6
CONTINUOUS
100
AcDbLine
 10
44.99999999995498
 20
2.204469543164218
 30
0.0
 11
43.57899999995641
 21
3.625469543162789
 31
0.0
  0
LINE
  5
C284
330
C24E
100
AcDbEntity
  8
0
  6
CONTINUOUS
100
AcDbLine
 10
41.89876730984767
 20
5.305702233271528
 30
0.0
 11
38.60499999996136
 21
8.599469543157834
 31
0.0
  0
LINE
  5
C285
330
C24E
100
AcDbEntity
  8
0
  6
CONTINUOUS
100
AcDbLine
 10
44.99999999995498
 20
2.877988752244405
 30
0.0
 11
43.57899999995641
 21
4.298988752242975
 31
0.0
  0
LINE
  5
C286
330
C24E
100
AcDbEntity
  8
0
  6
CONTINUOUS
100
AcDbLine
 10
44.99999999995498
 20
3.551507961324591
 30
0.0
 11
43.57899999995641
 21
4.972507961323163
 31
0.0
  0
LINE
  5
C287
330
C24E
100
AcDbEntity
  8
0
  6
CONTINUOUS
100
AcDbLine
 10
44.99999999995498
 20
4.225027170404777
 30
0.0
 11
43.57899999995641
 21
5.646027170403348
 31
0.0
  0
LINE
  5
C288
330
C24E
100
AcDbEntity
  8
0
  6
CONTINUOUS
100
AcDbLine
 10
44.99999999995498
 20
4.898546379484964
 30
0.0
 11
43.57899999995641
 21
6.319546379483535
 31
0.0
  0
LINE
  5
C289
330
C24E
100
AcDbEntity
  8
0
  6
CONTINUOUS
100
AcDbLine
 10
44.99999999995498
 20
5.572065588565151
 30
0.0
 11
43.57899999995641
 21
6.993065588563722
 31
0.0
  0
LINE
  5
C28A
330
C24E
100
AcDbEntity
  8
0
  6
CONTINUOUS
100
AcDbLine
 10
44.99999999995498
 20
6.245584797645336
 30
0.0
 11
43.57899999995641
 21
7.666584797643908
 31
0.0
  0
LINE
  5
C28B
330
C24E
100
AcDbEntity
  8
0
  6
CONTINUOUS
100
AcDbLine
 10
44.99999999995498
 20
6.919104006725522
 30
0.0
 11
43.57899999995641
 21
8.340104006724093
 31
0.0
  0
LINE
  5
C28C
330
C24E
100
AcDbEntity
  8
0
  6
CONTINUOUS
100
AcDbLine
 10
44.99999999995498
 20
7.592623215805709
 30
0.0
 11
43.82952321576943
 21
8.763099999991255
 31
0.0
  0
LINE
  5
C28D
330
C24E
100
AcDbEntity
  8
0
  6
CONTINUOUS
100
AcDbLine
 10
44.99999999995498
 20
8.266142424885896
 30
0.0
 11
44.50304242484962
 21
8.763099999991255
 31
0.0
  0
ENDBLK
  5
C2B7
330
C24E
100
AcDbEntity
  8
0
100
AcDbBlockEnd
  0
BLOCK
  5
C2B8
330
C28E
100
AcDbEntity
  8
0
100
AcDbBlockBegin
  2
*X41
 70
     1
 10
0.0
 20
0.0
 30
0.0
  3
*X41
  1

  0
LINE
  5
C28F
330
C28E
100
AcDbEntity
  8
0
  6
CONTINUOUS
100
AcDbLine
 10
0.0
 20
8.548461116714023
 30
0.0
 11
0.2146388832772324
 21
8.763099999991255
 31
0.0
  0
LINE
  5
C290
330
C28E
100
AcDbEntity
  8
0
  6
CONTINUOUS
100
AcDbLine
 10
-0.0000000000000002
 20
7.874941907633837
 30
0.0
 11
0.8881580923574184
 21
8.763099999991255
 31
0.0
  0
LINE
  5
C291
330
C28E
100
AcDbEntity
  8
0
  6
CONTINUOUS
100
AcDbLine
 10
0.0
 20
7.20142269855365
 30
0.0
 11
1.420999999998572
 21
8.622422698552223
 31
0.0
  0
LINE
  5
C292
330
C28E
100
AcDbEntity
  8
0
  6
CONTINUOUS
100
AcDbLine
 10
-0.0000000000000001
 20
6.527903489473465
 30
0.0
 11
1.420999999998571
 21
7.948903489472036
 31
0.0
  0
LINE
  5
C293
330
C28E
100
AcDbEntity
  8
0
  6
CONTINUOUS
100
AcDbLine
 10
-0.0000000000000002
 20
5.854384280393278
 30
0.0
 11
1.420999999998571
 21
7.275384280391849
 31
0.0
  0
LINE
  5
C294
330
C28E
100
AcDbEntity
  8
0
  6
CONTINUOUS
100
AcDbLine
 10
-0.0000000000000002
 20
5.180865071313091
 30
0.0
 11
1.420999999998571
 21
6.601865071311663
 31
0.0
  0
LINE
  5
C295
330
C28E
100
AcDbEntity
  8
0
  6
CONTINUOUS
100
AcDbLine
 10
0.0
 20
4.507345862232905
 30
0.0
 11
1.420999999998571
 21
5.928345862231477
 31
0.0
  0
LINE
  5
C296
330
C28E
100
AcDbEntity
  8
0
  6
CONTINUOUS
100
AcDbLine
 10
-0.0000000000000003
 20
3.833826653152718
 30
0.0
 11
1.420999999998571
 21
5.25482665315129
 31
0.0
  0
LINE
  5
C297
330
C28E
100
AcDbEntity
  8
0
  6
CONTINUOUS
100
AcDbLine
 10
-0.0000000000000002
 20
3.160307444072532
 30
0.0
 11
1.420999999998571
 21
4.581307444071103
 31
0.0
  0
LINE
  5
C298
330
C28E
100
AcDbEntity
  8
0
  6
CONTINUOUS
100
AcDbLine
 10
-0.0000000000000001
 20
2.486788234992345
 30
0.0
 11
1.420999999998571
 21
3.907788234990917
 31
0.0
  0
LINE
  5
C299
330
C28E
100
AcDbEntity
  8
0
  6
CONTINUOUS
100
AcDbLine
 10
-0.0000000000000006
 20
1.813269025912159
 30
0.0
 11
1.420999999998571
 21
3.234269025910731
 31
0.0
  0
LINE
  5
C29A
330
C28E
100
AcDbEntity
  8
0
  6
CONTINUOUS
100
AcDbLine
 10
0.0
 20
1.139749816831973
 30
0.0
 11
1.420999999998571
 21
2.560749816830544
 31
0.0
  0
LINE
  5
C29B
330
C28E
100
AcDbEntity
  8
0
  6
CONTINUOUS
100
AcDbLine
 10
0.0000000000000002
 20
0.466230607751787
 30
0.0
 11
1.420999999998571
 21
1.887230607750358
 31
0.0
  0
LINE
  5
C29C
330
C28E
100
AcDbEntity
  8
0
  6
CONTINUOUS
100
AcDbLine
 10
0.2072886013284003
 20
-0.0000000000000009
 30
0.0
 11
1.420999999998571
 21
1.213711398670171
 31
0.0
  0
LINE
  5
C29D
330
C28E
100
AcDbEntity
  8
0
  6
CONTINUOUS
100
AcDbLine
 10
0.8808078104085864
 20
-0.0000000000000009
 30
0.0
 11
1.420999999998571
 21
0.5401921895899839
 31
0.0
  0
LINE
  5
C29E
330
C28E
100
AcDbEntity
  8
0
  6
CONTINUOUS
100
AcDbLine
 10
0.0581249075061505
 20
-0.0000000000000009
 30
0.0
 11
-0.0000000000000002
 21
0.0581249075061496
 31
0.0
  0
LINE
  5
C29F
330
C28E
100
AcDbEntity
  8
0
  6
CONTINUOUS
100
AcDbLine
 10
0.7316441165863372
 20
-0.0000000000000009
 30
0.0
 11
-0.0000000000000002
 21
0.7316441165863363
 31
0.0
  0
LINE
  5
C2A0
330
C28E
100
AcDbEntity
  8
0
  6
CONTINUOUS
100
AcDbLine
 10
1.405163325666523
 20
-0.0000000000000009
 30
0.0
 11
-0.0000000000000002
 21
1.405163325666523
 31
0.0
  0
LINE
  5
C2A1
330
C28E
100
AcDbEntity
  8
0
  6
CONTINUOUS
100
AcDbLine
 10
1.420999999998572
 20
0.6576825347481381
 30
0.0
 11
-0.0000000000000001
 21
2.07868253474671
 31
0.0
  0
LINE
  5
C2A2
330
C28E
100
AcDbEntity
  8
0
  6
CONTINUOUS
100
AcDbLine
 10
1.420999999998571
 20
1.331201743828324
 30
0.0
 11
-0.0000000000000001
 21
2.752201743826896
 31
0.0
  0
LINE
  5
C2A3
330
C28E
100
AcDbEntity
  8
0
  6
CONTINUOUS
100
AcDbLine
 10
1.420999999998571
 20
2.004720952908511
 30
0.0
 11
-0.0000000000000002
 21
3.425720952907082
 31
0.0
  0
LINE
  5
C2A4
330
C28E
100
AcDbEntity
  8
0
  6
CONTINUOUS
100
AcDbLine
 10
1.420999999998571
 20
2.678240161988697
 30
0.0
 11
-0.0000000000000001
 21
4.099240161987269
 31
0.0
  0
LINE
  5
C2A5
330
C28E
100
AcDbEntity
  8
0
  6
CONTINUOUS
100
AcDbLine
 10
1.420999999998572
 20
3.351759371068884
 30
0.0
 11
0.0
 21
4.772759371067455
 31
0.0
  0
LINE
  5
C2A6
330
C28E
100
AcDbEntity
  8
0
  6
CONTINUOUS
100
AcDbLine
 10
1.420999999998571
 20
4.02527858014907
 30
0.0
 11
-0.0000000000000003
 21
5.446278580147642
 31
0.0
  0
LINE
  5
C2A7
330
C28E
100
AcDbEntity
  8
0
  6
CONTINUOUS
100
AcDbLine
 10
1.420999999998571
 20
4.698797789229257
 30
0.0
 11
0.0
 21
6.119797789227828
 31
0.0
  0
LINE
  5
C2A8
330
C28E
100
AcDbEntity
  8
0
  6
CONTINUOUS
100
AcDbLine
 10
1.420999999998571
 20
5.372316998309444
 30
0.0
 11
-0.0000000000000001
 21
6.793316998308015
 31
0.0
  0
LINE
  5
C2A9
330
C28E
100
AcDbEntity
  8
0
  6
CONTINUOUS
100
AcDbLine
 10
1.420999999998572
 20
6.045836207389629
 30
0.0
 11
-0.0000000000000004
 21
7.466836207388202
 31
0.0
  0
LINE
  5
C2AA
330
C28E
100
AcDbEntity
  8
0
  6
CONTINUOUS
100
AcDbLine
 10
1.420999999998571
 20
6.719355416469816
 30
0.0
 11
0.0
 21
8.140355416468388
 31
0.0
  0
LINE
  5
C2AB
330
C28E
100
AcDbEntity
  8
0
  6
CONTINUOUS
100
AcDbLine
 10
1.420999999998571
 20
7.392874625550003
 30
0.0
 11
0.0507746255573185
 21
8.763099999991255
 31
0.0
  0
LINE
  5
C2AC
330
C28E
100
AcDbEntity
  8
0
  6
CONTINUOUS
100
AcDbLine
 10
1.420999999998571
 20
8.06639383463019
 30
0.0
 11
0.7242938346375052
 21
8.763099999991255
 31
0.0
  0
LINE
  5
C2AD
330
C28E
100
AcDbEntity
  8
0
  6
CONTINUOUS
100
AcDbLine
 10
1.420999999998571
 20
8.739913043710375
 30
0.0
 11
1.397813043717691
 21
8.763099999991255
 31
0.0
  0
ENDBLK
  5
C2B9
330
C28E
100
AcDbEntity
  8
0
100
AcDbBlockEnd
  0
ENDSEC
  0
SECTION
  2
ENTITIES
  0
LINE
  5
AF4F
330
18
100
AcDbEntity
  8
01
100
AcDbLine
 10
5311.528363766143
 20
-106.1516801262837
 30
0.0000000001127424
 11
5359.528363766143
 21
-106.1516801262837
 31
0.0000000001127424
  0
LINE
  5
AF50
330
18
100
AcDbEntity
  8
01
100
AcDbLine
 10
5310.528363766143
 20
-97.65168012628374
 30
0.0000000001127424
 11
5310.528363766143
 21
-105.1516801262837
 31
0.0000000001127424
  0
ARC
  5
AF51
330
18
100
AcDbEntity
  8
01
100
AcDbCircle
 10
5311.528363766143
 20
-105.1516801262837
 30
0.0000000001127424
 40
1.0
100
AcDbArc
 50
180.0
 51
270.0
  0
LINE
  5
AF52
330
18
100
AcDbEntity
  8
01
100
AcDbLine
 10
5360.528363766143
 20
-97.65168012628374
 30
0.0000000001127424
 11
5360.528363766143
 21
-105.1516801262837
 31
0.0000000001127424
  0
ARC
  5
AF53
330
18
100
AcDbEntity
  8
01
100
AcDbCircle
 10
5359.528363766143
 20
-105.1516801262837
 30
0.0000000001127424
 40
1.0
100
AcDbArc
 50
270.0
 51
0.0
  0
ARC
  5
AF54
330
18
100
AcDbEntity
  8
01
100
AcDbCircle
 10
5335.5282474264
 20
-347.6503618121524
 30
0.0000000001127424
 40
25.0
100
AcDbArc
 50
23.20677939222967
 51
336.7932206058991
  0
LINE
  5
AF56
330
18
100
AcDbEntity
  8
01
100
AcDbLine
 10
5185.5282474264
 20
-322.6503618121524
 30
0.0000000001127424
 11
5185.5282474264
 21
-372.6503618121524
 31
0.0000000001127424
  0
LINE
  5
AF57
330
18
100
AcDbEntity
  8
01
100
AcDbLine
 10
5194.0282474264
 20
-371.6503618121524
 30
0.0000000001127424
 11
5194.0282474264
 21
-323.6503618121524
 31
0.0000000001127424
  0
LINE
  5
AF58
330
18
100
AcDbEntity
  8
01
100
AcDbLine
 10
5185.5282474264
 20
-372.6503618121524
 30
0.0000000001127424
 11
5193.0282474264
 21
-372.6503618121524
 31
0.0000000001127424
  0
ARC
  5
AF59
330
18
100
AcDbEntity
  8
01
100
AcDbCircle
 10
5193.0282474264
 20
-371.6503618121524
 30
0.0000000001127424
 40
1.0
100
AcDbArc
 50
270.0
 51
0.0
  0
LINE
  5
AF5A
330
18
100
AcDbEntity
  8
01
100
AcDbLine
 10
5185.5282474264
 20
-322.6503618121524
 30
0.0000000001127424
 11
5193.0282474264
 21
-322.6503618121524
 31
0.0000000001127424
  0
ARC
  5
AF5B
330
18
100
AcDbEntity
  8
01
100
AcDbCircle
 10
5193.0282474264
 20
-323.6503618121524
 30
0.0000000001127424
 40
1.0
100
AcDbArc
 50
0.0
 51
90.0
  0
LINE
  5
AF70
330
18
100
AcDbEntity
  8
01
100
AcDbLine
 10
5183.39996204397
 20
-347.6503618121524
 30
0.0000000001127424
 11
5206.0282474264
 21
-347.6503618121524
 31
0.0000000001127424
  0
LINE
  5
AF72
330
18
100
AcDbEntity
  8
01
  6
BYBLOCK
100
AcDbLine
 10
5284.52913160846
 20
-97.65168012628374
 30
0.0000000001127424
 11
5438.283511763491
 21
-97.65168012628374
 31
0.0000000001127424
  0
LINE
  5
AF78
330
18
100
AcDbEntity
  8
01
100
AcDbLine
 10
5335.528363766143
 20
-92.65168012628374
 30
0.0000000001127424
 11
5335.528363766143
 21
-119.1516801262837
 31
0.0000000001127424
  0
LINE
  5
AF88
330
18
100
AcDbEntity
  8
01
100
AcDbLine
 10
5185.5282474264
 20
-227.6503618121524
 30
0.0000000001127424
 11
5185.5282474264
 21
-417.6503618121524
 31
0.0000000001127424
  0
LINE
  5
AF89
330
18
100
AcDbEntity
  8
1CENTER
100
AcDbLine
 10
5200.2282474264
 20
-362.6503618121524
 30
0.0000000001127424
 11
5200.2282474264
 21
-354.6503618121524
 31
0.0000000001127424
  0
LINE
  5
AF90
330
18
100
AcDbEntity
  8
01
100
AcDbLine
 10
5305.5282474264
 20
-347.6503618121524
 30
0.0000000001127424
 11
5365.5282474264
 21
-347.6503618121524
 31
0.0000000001127424
  0
LINE
  5
AF91
330
18
100
AcDbEntity
  8
01
100
AcDbLine
 10
5335.5282474264
 20
-317.6503618121524
 30
0.0000000001127424
 11
5335.5282474264
 21
-377.6503618121524
 31
0.0000000001127424
  0
LINE
  5
B3B4
330
18
100
AcDbEntity
  8
01
100
AcDbLine
 10
5279.5282474264
 20
-269.6516801252551
 30
0.0000000001127424
 11
5293.5282474264
 21
-269.6516801252551
 31
0.0000000001127424
  0
LINE
  5
B3B5
330
18
100
AcDbEntity
  8
01
100
AcDbLine
 10
5284.52913160846
 20
-57.65168012628374
 30
0.0000000001127424
 11
5438.283511763493
 21
-57.65168012628374
 31
0.0000000001127424
  0
LINE
  5
B3B6
330
18
100
AcDbEntity
  8
01
  6
BYBLOCK
100
AcDbLine
 10
5284.52913160846
 20
-57.65168012628374
 30
0.0000000001127424
 11
5284.52913160846
 21
-97.65168012628374
 31
0.0000000001127424
  0
LINE
  5
B3BA
330
18
100
AcDbEntity
  8
01
100
AcDbLine
 10
5335.528247426399
 20
-62.65168012731237
 30
0.0000000001127424
 11
5335.528247426399
 21
-31.73359993806343
 31
0.0000000001127424
  0
LINE
  5
B3BE
330
18
100
AcDbEntity
  8
01
100
AcDbLine
 10
5310.5282474264
 20
-57.65168012628283
 30
0.0000000001127424
 11
5360.5282474264
 21
-57.6516801262851
 31
0.0000000001127424
  0
LINE
  5
B3BF
330
18
100
AcDbEntity
  8
01
100
AcDbLine
 10
5311.028247426397
 20
-49.15168012628283
 30
0.0000000001127424
 11
5333.028363832242
 21
-49.15168012628446
 31
0.0000000001127424
  0
LINE
  5
B3C0
330
18
100
AcDbEntity
  8
01
100
AcDbLine
 10
5360.5282474264
 20
-57.6516801262851
 30
0.0000000001127424
 11
5360.5282474264
 21
-49.65168012628646
 31
0.0000000001127424
  0
ARC
  5
B3C1
330
18
100
AcDbEntity
  8
01
100
AcDbCircle
 10
5360.0282474264
 20
-49.65168012628646
 30
0.0000000001127424
 40
0.5
100
AcDbArc
 50
0.0
 51
90.0
  0
LINE
  5
B3C2
330
18
100
AcDbEntity
  8
01
100
AcDbLine
 10
5310.5282474264
 20
-57.65168012628283
 30
0.0000000001127424
 11
5310.528247426397
 21
-49.65168012628328
 31
0.0000000001127424
  0
ARC
  5
B3C3
330
18
100
AcDbEntity
  8
01
100
AcDbCircle
 10
5311.028247426397
 20
-49.65168012628283
 30
0.0000000001127424
 40
0.5
100
AcDbArc
 50
90.0
 51
180.0
  0
LINE
  5
B3C5
330
18
100
AcDbEntity
  8
01
  6
BYBLOCK
100
AcDbLine
 10
5286.0282474264
 20
-261.751680125255
 30
0.0000000001127424
 11
5286.0282474264
 21
-391.551680125255
 31
0.0000000001127424
  0
LINE
  5
B3C6
330
18
100
AcDbEntity
  8
01
  6
BYBLOCK
100
AcDbLine
 10
5286.0282474264
 20
-390.6516801252551
 30
0.0000000001127424
 11
5288.5282474264
 21
-390.6516801252551
 31
0.0000000001127424
  0
LINE
  5
B3C7
330
18
100
AcDbEntity
  8
01
  6
BYBLOCK
100
AcDbLine
 10
5288.5282474264
 20
-390.6516801252551
 30
0.0000000001127424
 11
5288.5282474264
 21
-374.1487364001027
 31
0.0000000001127424
  0
LINE
  5
B3C8
330
18
100
AcDbEntity
  8
01
  6
BYBLOCK
100
AcDbLine
 10
5284.5282474264
 20
-261.751680125255
 30
0.0000000001127424
 11
5284.5282474264
 21
-391.551680125255
 31
0.0000000001127424
  0
LINE
  5
B3C9
330
18
100
AcDbEntity
  8
01
  6
BYBLOCK
100
AcDbLine
 10
5284.5282474264
 20
-391.551680125255
 30
0.0000000001127424
 11
5286.0282474264
 21
-391.551680125255
 31
0.0000000001127424
  0
LINE
  5
B3CA
330
18
100
AcDbEntity
  8
01
  6
BYBLOCK
100
AcDbLine
 10
5286.0282474264
 20
-262.6516801252551
 30
0.0000000001127424
 11
5288.5282474264
 21
-262.6516801252551
 31
0.0000000001127424
  0
LINE
  5
B3CB
330
18
100
AcDbEntity
  8
01
  6
BYBLOCK
100
AcDbLine
 10
5284.5282474264
 20
-261.751680125255
 30
0.0000000001127424
 11
5286.0282474264
 21
-261.751680125255
 31
0.0000000001127424
  0
LINE
  5
B3CC
330
18
100
AcDbEntity
  8
01
  6
BYBLOCK
100
AcDbLine
 10
5286.0282474264
 20
-286.6516801252551
 30
0.0000000001127424
 11
5287.2282474264
 21
-286.6516801252551
 31
0.0000000001127424
  0
LINE
  5
B3CD
330
18
100
AcDbEntity
  8
01
  6
BYBLOCK
100
AcDbLine
 10
5287.2282474264
 20
-280.9516801252548
 30
0.0000000001127424
 11
5287.2282474264
 21
-372.3516801252549
 31
0.0000000001127424
  0
LINE
  5
B3CE
330
18
100
AcDbEntity
  8
01
  6
BYBLOCK
100
AcDbLine
 10
5287.328247426401
 20
-390.6516801252551
 30
0.0000000001127424
 11
5287.328247426401
 21
-374.051680125255
 31
0.0000000001127424
  0
LINE
  5
B3CF
330
18
100
AcDbEntity
  8
01
  6
BYBLOCK
100
AcDbLine
 10
5287.328247426401
 20
-374.051680125255
 30
0.0000000001127424
 11
5286.379719288976
 21
-373.1031519878311
 31
0.0000000001127424
  0
LINE
  5
B3D0
330
18
100
AcDbEntity
  8
01
  6
BYBLOCK
100
AcDbLine
 10
5288.176775563824
 20
-373.3002082626788
 30
0.0000000001127424
 11
5287.2282474264
 21
-372.3516801252549
 31
0.0000000001127424
  0
ARC
  5
B3D1
330
18
100
AcDbEntity
  8
01
  6
BYBLOCK
100
AcDbCircle
 10
5287.328247426401
 20
-374.1487364001027
 30
0.0000000001127424
 40
1.2
100
AcDbArc
 50
0.0
 51
45.00000000006218
  0
ARC
  5
B3D2
330
18
100
AcDbEntity
  8
01
  6
BYBLOCK
100
AcDbCircle
 10
5287.2282474264
 20
-372.2546238504071
 30
0.0000000001127424
 40
1.2
100
AcDbArc
 50
180.0
 51
225.0000000000622
  0
LINE
  5
B3D3
330
18
100
AcDbEntity
  8
01
  6
BYBLOCK
100
AcDbLine
 10
5288.5282474264
 20
-262.6516801252551
 30
0.0000000001127424
 11
5288.5282474264
 21
-279.1546238504072
 31
0.0000000001127424
  0
LINE
  5
B3D4
330
18
100
AcDbEntity
  8
01
  6
BYBLOCK
100
AcDbLine
 10
5287.328247426401
 20
-262.6516801252551
 30
0.0000000001127424
 11
5287.328247426401
 21
-279.251680125255
 31
0.0000000001127424
  0
LINE
  5
B3D5
330
18
100
AcDbEntity
  8
01
  6
BYBLOCK
100
AcDbLine
 10
5287.328247426401
 20
-279.251680125255
 30
0.0000000001127424
 11
5286.379719288976
 21
-280.2002082626789
 31
0.0000000001127424
  0
LINE
  5
B3D6
330
18
100
AcDbEntity
  8
01
  6
BYBLOCK
100
AcDbLine
 10
5288.176775563824
 20
-280.0031519878312
 30
0.0000000001127424
 11
5287.2282474264
 21
-280.9516801252551
 31
0.0000000001127424
  0
ARC
  5
B3D7
330
18
100
AcDbEntity
  8
01
  6
BYBLOCK
100
AcDbCircle
 10
5287.328247426401
 20
-279.1546238504072
 30
0.0000000001127424
 40
1.2
100
AcDbArc
 50
314.9999999999378
 51
0.0
  0
ARC
  5
B3D8
330
18
100
AcDbEntity
  8
01
  6
BYBLOCK
100
AcDbCircle
 10
5287.2282474264
 20
-281.0487364001028
 30
0.0000000001127424
 40
1.2
100
AcDbArc
 50
134.9999999999378
 51
180.0
  0
CIRCLE
  5
B3D9
330
18
100
AcDbEntity
  8
1HIDDEN
100
AcDbCircle
 10
5335.5282474264
 20
-297.6516801252551
 30
0.0000000001127424
 40
4.75
  0
LINE
  5
B3DA
330
18
100
AcDbEntity
  8
01
  6
BYBLOCK
100
AcDbLine
 10
5287.2282474264
 20
-363.6516801252553
 30
0.0000000001127424
 11
5316.318874714101
 21
-363.6516801252551
 31
0.0000000001127424
  0
ARC
  5
B3DB
330
18
100
AcDbEntity
  8
01
  6
BYBLOCK
100
AcDbCircle
 10
5287.629131608461
 20
-74.09042958328382
 30
0.0000000001127424
 40
1.6
100
AcDbArc
 50
115.9444797720223
 51
180.0
  0
ARC
  5
B3DC
330
18
100
AcDbEntity
  8
01
  6
BYBLOCK
100
AcDbCircle
 10
5287.629131608461
 20
-81.21293066928365
 30
0.0000000001127424
 40
1.6
100
AcDbArc
 50
180.0
 51
244.0555202279777
  0
ARC
  5
B3DD
330
18
100
AcDbEntity
  8
01
  6
BYBLOCK
100
AcDbCircle
 10
5286.92913160846
 20
-82.49042958328369
 30
0.0000000001127424
 40
1.6
100
AcDbArc
 50
0.0
 51
64.05552022797765
  0
ARC
  5
B3DE
330
18
100
AcDbEntity
  8
01
  6
BYBLOCK
100
AcDbCircle
 10
5286.92913160846
 20
-72.81293066928379
 30
0.0000000001127424
 40
1.6
100
AcDbArc
 50
295.9444797720223
 51
0.0
  0
LINE
  5
B3DF
330
18
100
AcDbEntity
  8
01
  6
BYBLOCK
100
AcDbLine
 10
5288.52913160846
 20
-72.81293066928379
 30
0.0000000001127424
 11
5288.52913160846
 21
-65.45168012628369
 31
0.0000000001127424
  0
LINE
  5
B3E0
330
18
100
AcDbEntity
  8
01
  6
BYBLOCK
100
AcDbLine
 10
5287.629131608461
 20
-81.05168012628383
 30
0.0000000001127424
 11
5287.629131608461
 21
-74.25168012628365
 31
0.0000000001127424
  0
LINE
  5
B3E1
330
18
100
AcDbEntity
  8
01
  6
BYBLOCK
100
AcDbLine
 10
5288.52913160846
 20
-89.65168012628374
 30
0.0000000001127424
 11
5288.52913160846
 21
-82.49042958328369
 31
0.0000000001127424
  0
LINE
  5
B3E2
330
18
100
AcDbEntity
  8
01
  6
BYBLOCK
100
AcDbLine
 10
5286.92913160846
 20
-72.65168012628374
 30
0.0000000001127424
 11
5286.929131608461
 21
-65.45168012628369
 31
0.0000000001127424
  0
LINE
  5
B3E3
330
18
100
AcDbEntity
  8
01
  6
BYBLOCK
100
AcDbLine
 10
5286.92913160846
 20
-82.65168012628374
 30
0.0000000001127424
 11
5286.92913160846
 21
-89.75168012628365
 31
0.0000000001127424
  0
ARC
  5
B3E4
330
18
100
AcDbEntity
  8
01
  6
BYBLOCK
100
AcDbCircle
 10
5351.92913160846
 20
-69.75168012628365
 30
0.0000000001127424
 40
1.6
100
AcDbArc
 50
0.0
 51
90.0
  0
LINE
  5
B3E5
330
18
100
AcDbEntity
  8
01
  6
BYBLOCK
100
AcDbLine
 10
5286.02913160846
 20
-65.25168012628365
 30
0.0000000001127424
 11
5286.02913160846
 21
-90.0516801262836
 31
0.0000000001127424
  0
LINE
  5
B3E6
330
18
100
AcDbEntity
  8
01
  6
BYBLOCK
100
AcDbLine
 10
5351.92913160846
 20
-68.15168012628374
 30
0.0000000001127424
 11
5288.52913160846
 21
-68.15168012628374
 31
0.0000000001127424
  0
LINE
  5
B3E7
330
18
100
AcDbEntity
  8
01
  6
BYBLOCK
100
AcDbLine
 10
5351.92913160846
 20
-85.35168012628378
 30
0.0000000001127424
 11
5351.92913160846
 21
-68.15168012628374
 31
0.0000000001127424
  0
LINE
  5
B3E8
330
18
100
AcDbEntity
  8
01
  6
BYBLOCK
100
AcDbLine
 10
5353.52913160846
 20
-86.95168012628369
 30
0.0000000001127424
 11
5353.52913160846
 21
-69.75168012628365
 31
0.0000000001127424
  0
LINE
  5
B3E9
330
18
100
AcDbEntity
  8
01
  6
BYBLOCK
100
AcDbLine
 10
5286.02913160846
 20
-65.45168012628369
 30
0.0000000001127424
 11
5288.52913160846
 21
-65.45168012628369
 31
0.0000000001127424
  0
LINE
  5
B3EA
330
18
100
AcDbEntity
  8
01
  6
BYBLOCK
100
AcDbLine
 10
5288.52913160846
 20
-89.65168012628374
 30
0.0000000001127424
 11
5286.92913160846
 21
-89.65168012628374
 31
0.0000000001127424
  0
LINE
  5
B3EB
330
18
100
AcDbEntity
  8
01
  6
BYBLOCK
100
AcDbLine
 10
5286.92913160846
 20
-89.75168012628365
 30
0.0000000001127424
 11
5286.02913160846
 21
-89.75168012628365
 31
0.0000000001127424
  0
ARC
  5
B3EC
330
18
100
AcDbEntity
  8
01
  6
BYBLOCK
100
AcDbCircle
 10
5283.229726535859
 20
-83.3516801262831
 30
0.0000000001127424
 40
0.3000000000000051
100
AcDbArc
 50
232.8678058729399
 51
270.0
  0
LINE
  5
B3ED
330
18
100
AcDbEntity
  8
01
  6
BYBLOCK
100
AcDbLine
 10
5284.02913160846
 20
-83.65168012628305
 30
0.0000000001127424
 11
5283.229726535859
 21
-83.65168012628305
 31
0.0000000001127424
  0
LINE
  5
B3EE
330
18
100
AcDbEntity
  8
01
  6
BYBLOCK
100
AcDbLine
 10
5273.629131608461
 20
-73.9786912600789
 30
0.0000000001127424
 11
5273.629131608461
 21
-74.14931331562798
 31
0.0000000001127424
  0
ARC
  5
B3EF
330
18
100
AcDbEntity
  8
01
  6
BYBLOCK
100
AcDbCircle
 10
5273.92913160846
 20
-74.14931331562798
 30
0.0000000001127424
 40
0.3
100
AcDbArc
 50
180.0
 51
217.7405295629601
  0
ARC
  5
B3F0
330
18
100
AcDbEntity
  8
01
  6
BYBLOCK
100
AcDbCircle
 10
5313.231432207745
 20
-43.72861037168718
 30
0.0000000001127424
 40
50.00000000000002
100
AcDbArc
 50
217.7405295629745
 51
232.867805873005
  0
LINE
  5
B3F1
330
18
100
AcDbEntity
  8
01
  6
BYBLOCK
100
AcDbLine
 10
5273.42913160846
 20
-72.85168012628355
 30
0.0000000001127424
 11
5273.42913160846
 21
-72.15168012628374
 31
0.0000000001127424
  0
ARC
  5
B3F2
330
18
100
AcDbEntity
  8
01
  6
BYBLOCK
100
AcDbCircle
 10
5273.92913160846
 20
-72.15168012628374
 30
0.0000000001127424
 40
0.5000000000000142
100
AcDbArc
 50
90.0
 51
180.0
  0
LINE
  5
B3F3
330
18
100
AcDbEntity
  8
01
  6
BYBLOCK
100
AcDbLine
 10
5284.02913160846
 20
-71.65168012628374
 30
0.0000000001127424
 11
5273.92913160846
 21
-71.65168012628374
 31
0.0000000001127424
  0
LINE
  5
B3F4
330
18
100
AcDbEntity
  8
01
  6
BYBLOCK
100
AcDbLine
 10
5273.42913160846
 20
-73.23035978272401
 30
0.0000000001127424
 11
5273.42913160846
 21
-72.85168012628355
 31
0.0000000001127424
  0
SPLINE
  5
B3F5
330
18
100
AcDbEntity
  8
01
  6
BYBLOCK
100
AcDbSpline
210
0.0
220
0.0
230
1.0
 70
     8
 71
     3
 72
     8
 73
     4
 74
     0
 42
0.0000000001
 43
0.0000000001
 40
0.0
 40
0.0
 40
0.0
 40
0.0
 40
1.0
 40
1.0
 40
1.0
 40
1.0
 10
5273.454864149725
 20
-73.5070102121731
 30
0.0000000001127424
 10
5273.437396263614
 20
-73.41392401629264
 30
0.0000000001127424
 10
5273.42913160846
 20
-73.32065800540113
 30
0.0000000001127424
 10
5273.42913160846
 20
-73.23035978272355
 30
0.0000000001127424
  0
ARC
  5
B3F6
330
18
100
AcDbEntity
  8
01
  6
BYBLOCK
100
AcDbCircle
 10
5274.92913160846
 20
-73.23035978272401
 30
0.0000000001127424
 40
1.499999999999998
100
AcDbArc
 50
190.628112987605
 51
225.0000000000599
  0
LINE
  5
B3F7
330
18
100
AcDbEntity
  8
01
  6
BYBLOCK
100
AcDbLine
 10
5284.52913160846
 20
-70.8016801262836
 30
0.0000000001127424
 11
5284.02913160846
 21
-70.8016801262836
 31
0.0000000001127424
  0
LINE
  5
B3F8
330
18
100
AcDbEntity
  8
01
  6
BYBLOCK
100
AcDbLine
 10
5284.02913160846
 20
-84.50168012628365
 30
0.0000000001127424
 11
5284.52913160846
 21
-84.50168012628365
 31
0.0000000001127424
  0
LINE
  5
B3F9
330
18
100
AcDbEntity
  8
01
  6
BYBLOCK
100
AcDbLine
 10
5284.02913160846
 20
-84.50168012628365
 30
0.0000000001127424
 11
5284.02913160846
 21
-70.8016801262836
 31
0.0000000001127424
  0
LINE
  5
B3FA
330
18
100
AcDbEntity
  8
01
  6
BYBLOCK
100
AcDbLine
 10
5284.52913160846
 20
-65.25168012628365
 30
0.0000000001127424
 11
5286.02913160846
 21
-65.25168012628365
 31
0.0000000001127424
  0
LINE
  5
B3FB
330
18
100
AcDbEntity
  8
01
  6
BYBLOCK
100
AcDbLine
 10
5284.52913160846
 20
-90.0516801262836
 30
0.0000000001127424
 11
5286.02913160846
 21
-90.0516801262836
 31
0.0000000001127424
  0
LINE
  5
B3FC
330
18
100
AcDbEntity
  8
01
  6
BYBLOCK
100
AcDbLine
 10
5284.52913160846
 20
-90.0516801262836
 30
0.0000000001127424
 11
5284.52913160846
 21
-65.25168012628365
 31
0.0000000001127424
  0
LINE
  5
B3FD
330
18
100
AcDbEntity
  8
01
  6
BYBLOCK
100
AcDbLine
 10
5353.52913160846
 20
-85.35168012628378
 30
0.0000000001127424
 11
5288.52913160846
 21
-85.35168012628378
 31
0.0000000001127424
  0
LINE
  5
B3FE
330
18
100
AcDbEntity
  8
01
  6
BYBLOCK
100
AcDbLine
 10
5353.52913160846
 20
-86.95168012628369
 30
0.0000000001127424
 11
5303.129131608461
 21
-86.95168012628369
 31
0.0000000001127424
  0
LINE
  5
B3FF
330
18
100
AcDbEntity
  8
01
  6
BYBLOCK
100
AcDbLine
 10
5305.966389908664
 20
-86.95168012628369
 30
0.0000000001127424
 11
5288.52913160846
 21
-86.95168012628369
 31
0.0000000001127424
  0
LINE
  5
B400
330
18
100
AcDbEntity
  8
01
  6
BYBLOCK
100
AcDbLine
 10
5283.082684999054
 20
-83.50523351687707
 30
0.0000000001127424
 11
5273.86847143668
 21
-74.29101995450401
 31
0.0000000001127424
  0
ARC
  5
B401
330
18
100
AcDbEntity
  8
01
  6
BYBLOCK
100
AcDbCircle
 10
5283.436238389647
 20
-83.15168012628374
 30
0.0000000001127424
 40
0.5
100
AcDbArc
 50
224.9999999999908
 51
270.0
  0
LINE
  5
B402
330
18
100
AcDbEntity
  8
01
  6
BYBLOCK
100
AcDbLine
 10
5284.02913160846
 20
-83.65168012628374
 30
0.0000000001127424
 11
5283.436238389647
 21
-83.65168012628374
 31
0.0000000001127424
  0
LINE
  5
B408
330
18
100
AcDbEntity
  8
01
  6
BYBLOCK
100
AcDbLine
 10
5273.5282474264
 20
-316.620009858239
 30
0.0000000001127424
 11
5273.5282474264
 21
-334.6833503922448
 31
0.0000000001127424
  0
LINE
  5
B409
330
18
100
AcDbEntity
  8
01
  6
BYBLOCK
100
AcDbLine
 10
5277.821140645214
 20
-315.6516801252419
 30
0.0000000001127424
 11
5284.5282474264
 21
-315.6516801252419
 31
0.0000000001127424
  0
LINE
  5
B40A
330
18
100
AcDbEntity
  8
01
  6
BYBLOCK
100
AcDbLine
 10
5277.821140645214
 20
-335.6516801252419
 30
0.0000000001127424
 11
5284.5282474264
 21
-335.6516801252419
 31
0.0000000001127424
  0
LINE
  5
B40B
330
18
100
AcDbEntity
  8
01
  6
BYBLOCK
100
AcDbLine
 10
5283.321140645215
 20
-320.4016801252419
 30
0.0000000001127424
 11
5283.321140645214
 21
-330.9016801252419
 31
0.0000000001127424
  0
ARC
  5
B40C
330
18
100
AcDbEntity
  8
01
  6
BYBLOCK
100
AcDbCircle
 10
5277.821140645214
 20
-325.6516801252419
 30
0.0000000001127424
 40
10.00000000000009
100
AcDbArc
 50
53.13010235413041
 51
115.4224671781412
  0
ARC
  5
B40D
330
18
100
AcDbEntity
  8
01
  6
BYBLOCK
100
AcDbCircle
 10
5277.821140645214
 20
-325.6516801252417
 30
0.0000000001127424
 40
10.00000000000009
100
AcDbArc
 50
244.5775328218584
 51
306.8698976458686
  0
LINE
  5
B40E
330
18
100
AcDbEntity
  8
01
  6
BYBLOCK
100
AcDbLine
 10
5283.821140645215
 20
-317.6516801252419
 30
0.0000000001127424
 11
5283.821140645215
 21
-333.6516801252419
 31
0.0000000001127424
  0
LINE
  5
B40F
330
18
100
AcDbEntity
  8
01
  6
BYBLOCK
100
AcDbLine
 10
5273.5282474264
 20
-320.4016801252419
 30
0.0000000001127424
 11
5283.321140645215
 21
-320.4016801252419
 31
0.0000000001127424
  0
LINE
  5
B410
330
18
100
AcDbEntity
  8
01
  6
BYBLOCK
100
AcDbLine
 10
5273.5282474264
 20
-330.9016801252419
 30
0.0000000001127424
 11
5283.321140645215
 21
-330.9016801252419
 31
0.0000000001127424
  0
LINE
  5
B411
330
18
100
AcDbEntity
  8
01
  6
BYBLOCK
100
AcDbLine
 10
5159.128363766145
 20
-261.7516801252557
 30
0.0000000001127424
 11
5171.928363766145
 21
-261.7516801252557
 31
0.0000000001127424
  0
LINE
  5
B412
330
18
100
AcDbEntity
  8
01
  6
BYBLOCK
100
AcDbLine
 10
5159.128363766145
 20
-391.5516801252556
 30
0.0000000001127424
 11
5171.928363766145
 21
-391.5516801252556
 31
0.0000000001127424
  0
LINE
  5
B413
330
18
100
AcDbEntity
  8
01
  6
BYBLOCK
100
AcDbLine
 10
5153.128363766145
 20
-267.7516801252557
 30
0.0000000001127424
 11
5153.128363766145
 21
-385.5516801252556
 31
0.0000000001127424
  0
LINE
  5
B414
330
18
100
AcDbEntity
  8
01
  6
BYBLOCK
100
AcDbLine
 10
5177.928363766145
 20
-267.7516801252557
 30
0.0000000001127424
 11
5177.928363766145
 21
-385.5516801252556
 31
0.0000000001127424
  0
ARC
  5
B415
330
18
100
AcDbEntity
  8
01
  6
BYBLOCK
100
AcDbCircle
 10
5159.128363766145
 20
-385.5516801252556
 30
0.0000000001127424
 40
6.0
100
AcDbArc
 50
180.0
 51
270.0
  0
ARC
  5
B416
330
18
100
AcDbEntity
  8
01
  6
BYBLOCK
100
AcDbCircle
 10
5171.928363766145
 20
-385.5516801252556
 30
0.0000000001127424
 40
6.0
100
AcDbArc
 50
270.0
 51
0.0
  0
ARC
  5
B417
330
18
100
AcDbEntity
  8
01
  6
BYBLOCK
100
AcDbCircle
 10
5159.128363766145
 20
-267.7516801252557
 30
0.0000000001127424
 40
6.0
100
AcDbArc
 50
90.0
 51
180.0
  0
ARC
  5
B418
330
18
100
AcDbEntity
  8
01
  6
BYBLOCK
100
AcDbCircle
 10
5171.928363766145
 20
-267.7516801252557
 30
0.0000000001127424
 40
6.0
100
AcDbArc
 50
0.0
 51
90.0
  0
CIRCLE
  5
B419
330
18
100
AcDbEntity
  8
01
  6
BYBLOCK
100
AcDbCircle
 10
5165.528363766145
 20
-383.6516801252556
 30
0.0000000001127424
 40
2.75
  0
CIRCLE
  5
B41A
330
18
100
AcDbEntity
  8
01
  6
BYBLOCK
100
AcDbCircle
 10
5165.528363766145
 20
-383.6516801252556
 30
0.0000000001127424
 40
4.25
  0
CIRCLE
  5
B41B
330
18
100
AcDbEntity
  8
01
  6
BYBLOCK
100
AcDbCircle
 10
5165.528363766145
 20
-269.6516801252558
 30
0.0000000001127424
 40
2.75
  0
CIRCLE
  5
B41C
330
18
100
AcDbEntity
  8
01
  6
BYBLOCK
100
AcDbCircle
 10
5165.528363766145
 20
-269.6516801252558
 30
0.0000000001127424
 40
4.25
  0
LINE
  5
B41D
330
18
100
AcDbEntity
  8
1CENTER
100
AcDbLine
 10
5171.403389174051
 20
-383.6516801252558
 30
0.0000000001127424
 11
5159.653338358239
 21
-383.6516801252558
 31
0.0000000001127424
  0
LINE
  5
B41E
330
18
100
AcDbEntity
  8
1CENTER
100
AcDbLine
 10
5165.528363766145
 20
-377.7766547173494
 30
0.0000000001127424
 11
5165.528363766145
 21
-389.5267055331619
 31
0.0000000001127424
  0
LINE
  5
B41F
330
18
100
AcDbEntity
  8
1CENTER
100
AcDbLine
 10
5171.403389174051
 20
-269.6516801252558
 30
0.0000000001127424
 11
5159.653338358239
 21
-269.6516801252558
 31
0.0000000001127424
  0
LINE
  5
B420
330
18
100
AcDbEntity
  8
1CENTER
100
AcDbLine
 10
5165.528363766145
 20
-263.7766547173494
 30
0.0000000001127424
 11
5165.528363766145
 21
-275.5267055331619
 31
0.0000000001127424
  0
ARC
  5
B421
330
18
100
AcDbEntity
  8
01
  6
BYBLOCK
100
AcDbCircle
 10
5165.528363766145
 20
-325.6516801252556
 30
0.0000000001127424
 40
10.15
100
AcDbArc
 50
231.9925780701383
 51
308.0074219298617
  0
LINE
  5
B422
330
18
100
AcDbEntity
  8
01
  6
BYBLOCK
100
AcDbLine
 10
5159.278363766145
 20
-317.6541805160027
 30
0.0000000001127424
 11
5159.278363766145
 21
-333.6491797345084
 31
0.0000000001127424
  0
LINE
  5
B423
330
18
100
AcDbEntity
  8
01
  6
BYBLOCK
100
AcDbLine
 10
5171.778363766145
 20
-317.6541805160027
 30
0.0000000001127424
 11
5171.778363766145
 21
-333.6491797345084
 31
0.0000000001127424
  0
ARC
  5
B424
330
18
100
AcDbEntity
  8
01
  6
BYBLOCK
100
AcDbCircle
 10
5165.528363766145
 20
-325.6516801252556
 30
0.0000000001127424
 40
10.15
100
AcDbArc
 50
51.99257807013829
 51
128.0074219298617
  0
LINE
  5
B425
330
18
100
AcDbEntity
  8
01
  6
BYBLOCK
100
AcDbLine
 10
5161.028363766145
 20
-320.4016801252556
 30
0.0000000001127424
 11
5161.028363766145
 21
-330.9016801252556
 31
0.0000000001127424
  0
LINE
  5
B426
330
18
100
AcDbEntity
  8
01
  6
BYBLOCK
100
AcDbLine
 10
5171.028363766145
 20
-320.4016801252556
 30
0.0000000001127424
 11
5171.028363766145
 21
-330.9016801252556
 31
0.0000000001127424
  0
LINE
  5
B427
330
18
100
AcDbEntity
  8
01
  6
BYBLOCK
100
AcDbLine
 10
5161.528363766145
 20
-316.3230950235372
 30
0.0000000001127424
 11
5161.528363766145
 21
-320.4016801252558
 31
0.0000000001127424
  0
LINE
  5
B428
330
18
100
AcDbEntity
  8
01
  6
BYBLOCK
100
AcDbLine
 10
5160.028363766145
 20
-320.4016801252558
 30
0.0000000001127424
 11
5160.028363766145
 21
-330.9016801252556
 31
0.0000000001127424
  0
LINE
  5
B429
330
18
100
AcDbEntity
  8
01
  6
BYBLOCK
100
AcDbLine
 10
5161.528363766145
 20
-330.9016801252556
 30
0.0000000001127424
 11
5161.528363766145
 21
-334.9802652269739
 31
0.0000000001127424
  0
LINE
  5
B42A
330
18
100
AcDbEntity
  8
01
  6
BYBLOCK
100
AcDbLine
 10
5160.028363766145
 20
-320.4016801252556
 30
0.0000000001127424
 11
5171.028363766145
 21
-320.4016801252556
 31
0.0000000001127424
  0
LINE
  5
B42B
330
18
100
AcDbEntity
  8
01
  6
BYBLOCK
100
AcDbLine
 10
5160.028363766145
 20
-330.9016801252556
 30
0.0000000001127424
 11
5171.028363766145
 21
-330.9016801252556
 31
0.0000000001127424
  0
LINE
  5
B42D
330
18
100
AcDbEntity
  8
01
100
AcDbLine
 10
5145.528480105888
 20
-227.6516801252553
 30
0.0000000001127424
 11
5145.528480105888
 21
-417.6516801252556
 31
0.0000000001127424
  0
LINE
  5
B432
330
18
100
AcDbEntity
  8
01
100
AcDbLine
 10
5145.528480105888
 20
-322.6516801252556
 30
0.0000000001127424
 11
5145.528480105888
 21
-372.6516801252556
 31
0.0000000001127424
  0
LINE
  5
B433
330
18
100
AcDbEntity
  8
01
100
AcDbLine
 10
5137.028480105888
 20
-371.6516801252556
 30
0.0000000001127424
 11
5137.028480105888
 21
-323.6516801252556
 31
0.0000000001127424
  0
LINE
  5
B434
330
18
100
AcDbEntity
  8
01
100
AcDbLine
 10
5145.528480105888
 20
-372.6516801252556
 30
0.0000000001127424
 11
5138.028480105888
 21
-372.6516801252556
 31
0.0000000001127424
  0
ARC
  5
B435
330
18
100
AcDbEntity
  8
01
100
AcDbCircle
 10
5138.028480105888
 20
-371.6516801252556
 30
0.0000000001127424
 40
1.0
100
AcDbArc
 50
180.0
 51
270.0
  0
LINE
  5
B436
330
18
100
AcDbEntity
  8
01
100
AcDbLine
 10
5145.528480105888
 20
-322.6516801252556
 30
0.0000000001127424
 11
5138.028480105888
 21
-322.6516801252556
 31
0.0000000001127424
  0
ARC
  5
B437
330
18
100
AcDbEntity
  8
01
100
AcDbCircle
 10
5138.028480105888
 20
-323.6516801252556
 30
0.0000000001127424
 40
1.0
100
AcDbArc
 50
90.0
 51
180.0
  0
LINE
  5
B438
330
18
100
AcDbEntity
  8
01
100
AcDbLine
 10
5147.65676548832
 20
-347.6516801252556
 30
0.0000000001127424
 11
5125.028480105888
 21
-347.6516801252556
 31
0.0000000001127424
  0
LINE
  5
B43E
330
18
100
AcDbEntity
  8
01
100
AcDbLine
 10
5279.528247426688
 20
-383.6516801249663
 30
0.0000000001127424
 11
5293.528247426688
 21
-383.6516801249663
 31
0.0000000001127424
  0
LINE
  5
B43F
330
18
100
AcDbEntity
  8
01
100
AcDbLine
 10
5346.840135693941
 20
-297.6516801252551
 30
0.0000000001127424
 11
5324.216359158858
 21
-297.6516801252551
 31
0.0000000001127424
  0
LINE
  5
B440
330
18
100
AcDbEntity
  8
01
100
AcDbLine
 10
5335.5282474264
 20
-286.3397918577134
 30
0.0000000001127424
 11
5335.5282474264
 21
-308.9635683927968
 31
0.0000000001127424
  0
LINE
  5
B441
330
18
100
AcDbEntity
  8
01
  6
BYBLOCK
100
AcDbLine
 10
5057.528480105892
 20
-316.620009858239
 30
0.0000000001127424
 11
5057.528480105892
 21
-334.6833503922448
 31
0.0000000001127424
  0
LINE
  5
B442
330
18
100
AcDbEntity
  8
01
  6
BYBLOCK
100
AcDbLine
 10
5053.235586887078
 20
-315.6516801252419
 30
0.0000000001127424
 11
5046.528480105892
 21
-315.6516801252419
 31
0.0000000001127424
  0
LINE
  5
B443
330
18
100
AcDbEntity
  8
01
  6
BYBLOCK
100
AcDbLine
 10
5053.235586887078
 20
-335.6516801252419
 30
0.0000000001127424
 11
5046.528480105892
 21
-335.6516801252419
 31
0.0000000001127424
  0
ARC
  5
B444
330
18
100
AcDbEntity
  8
01
  6
BYBLOCK
100
AcDbCircle
 10
5053.235586887078
 20
-325.6516801252419
 30
0.0000000001127424
 40
10.00000000000009
100
AcDbArc
 50
64.5775328218588
 51
90.0
  0
LINE
  5
B445
330
18
100
AcDbEntity
  8
01
  6
CONTINUOUS
100
AcDbLine
 10
5057.028480105892
 20
-333.9664743180726
 30
0.0000000001127424
 11
5046.528480105892
 21
-333.9664743180726
 31
0.0000000001127424
  0
ARC
  5
B446
330
18
100
AcDbEntity
  8
01
  6
CONTINUOUS
100
AcDbCircle
 10
5057.067060352805
 20
-333.5043350872659
 30
0.0000000001127424
 40
0.4637468103423796
100
AcDbArc
 50
265.2279066161985
 51
354.2577450626174
  0
LINE
  5
B447
330
18
100
AcDbEntity
  8
01
  6
CONTINUOUS
100
AcDbLine
 10
5057.528480105892
 20
-318.1683653516939
 30
0.0000000001127424
 11
5057.528480105892
 21
-333.1349948987897
 31
0.0000000001127424
  0
ARC
  5
B448
330
18
100
AcDbEntity
  8
01
  6
CONTINUOUS
100
AcDbCircle
 10
5057.067060352805
 20
-317.7990251632175
 30
0.0000000001127424
 40
0.4637468103423387
100
AcDbArc
 50
5.742254937382608
 51
94.77209338380148
  0
ARC
  5
B449
330
18
100
AcDbEntity
  8
01
  6
BYBLOCK
100
AcDbCircle
 10
5053.235586887078
 20
-325.6516801252417
 30
0.0000000001127424
 40
10.00000000000009
100
AcDbArc
 50
270.0
 51
295.4224671781416
  0
LINE
  5
B44A
330
18
100
AcDbEntity
  8
01
  6
CONTINUOUS
100
AcDbLine
 10
5046.528480105892
 20
-317.3368859324107
 30
0.0000000001127424
 11
5057.028480105892
 21
-317.3368859324107
 31
0.0000000001127424
  0
LINE
  5
B44B
330
18
100
AcDbEntity
  8
01
100
AcDbLine
 10
5353.5282474264
 20
-330.3023285523579
 30
0.0000000001127424
 11
5353.5282474264
 21
-362.4516801252551
 31
0.0000000001127424
  0
ARC
  5
B44C
330
18
100
AcDbEntity
  8
01
100
AcDbCircle
 10
5352.5282474264
 20
-362.6516801252551
 30
0.0000000001127424
 40
1.0
100
AcDbArc
 50
270.0
 51
0.0
  0
LINE
  5
B44D
330
18
100
AcDbEntity
  8
01
100
AcDbLine
 10
5316.318874714102
 20
-363.6516801252551
 30
0.0000000001127424
 11
5352.5282474264
 21
-363.6516801252549
 31
0.0000000001127424
  0
LINE
  5
B44F
330
18
100
AcDbEntity
  8
01
100
AcDbLine
 10
5025.528480105892
 20
-347.6516801252551
 30
0.0000000001127424
 11
4965.528480105892
 21
-347.6516801252551
 31
0.0000000001127424
  0
LINE
  5
B450
330
18
100
AcDbEntity
  8
01
100
AcDbLine
 10
4995.528480105892
 20
-317.6516801252551
 30
0.0000000001127424
 11
4995.528480105892
 21
-377.6516801252551
 31
0.0000000001127424
  0
LINE
  5
B452
330
18
100
AcDbEntity
  8
01
  6
BYBLOCK
100
AcDbLine
 10
5353.5282474264
 20
-300.8695611576768
 30
0.0000000001128561
 11
5353.5282474264
 21
-330.3023285523579
 31
0.0000000001127424
  0
LINE
  5
B453
330
18
100
AcDbEntity
  8
01
  6
BYBLOCK
100
AcDbLine
 10
5287.2282474264
 20
-289.6516801252551
 30
0.0000000001127424
 11
5315.685144348417
 21
-289.6516801252551
 31
0.0000000001128561
  0
ARC
  5
B454
330
18
100
AcDbEntity
  8
1HIDDEN
100
AcDbCircle
 10
5352.5282474264
 20
-290.6516801252551
 30
0.0000000001127424
 40
1.0
100
AcDbArc
 50
0.0
 51
90.0
  0
LINE
  5
B455
330
18
100
AcDbEntity
  8
1HIDDEN
100
AcDbLine
 10
5315.685144348417
 20
-289.6516801252551
 30
0.0000000001128561
 11
5352.5282474264
 21
-289.6516801252551
 31
0.0000000001127424
  0
LINE
  5
B456
330
18
100
AcDbEntity
  8
1HIDDEN
100
AcDbLine
 10
5353.5282474264
 20
-290.6516801252551
 30
0.0000000001127424
 11
5353.5282474264
 21
-300.8695611576768
 31
0.0000000001128561
  0
LINE
  5
B457
330
18
100
AcDbEntity
  8
01
100
AcDbLine
 10
5051.528480105892
 20
-269.6516801252551
 30
0.0000000001127424
 11
5037.528480105892
 21
-269.6516801252551
 31
0.0000000001127424
  0
LINE
  5
B458
330
18
100
AcDbEntity
  8
01
  6
BYBLOCK
100
AcDbLine
 10
5045.028480105892
 20
-261.751680125255
 30
0.0000000001127424
 11
5045.028480105892
 21
-391.551680125255
 31
0.0000000001127424
  0
LINE
  5
B459
330
18
100
AcDbEntity
  8
01
  6
BYBLOCK
100
AcDbLine
 10
5045.028480105892
 20
-390.6516801252551
 30
0.0000000001127424
 11
5042.528480105892
 21
-390.6516801252551
 31
0.0000000001127424
  0
LINE
  5
B45A
330
18
100
AcDbEntity
  8
01
  6
BYBLOCK
100
AcDbLine
 10
5042.528480105892
 20
-390.6516801252551
 30
0.0000000001127424
 11
5042.528480105892
 21
-374.1487364001027
 31
0.0000000001127424
  0
LINE
  5
B45B
330
18
100
AcDbEntity
  8
01
  6
BYBLOCK
100
AcDbLine
 10
5046.528480105892
 20
-261.751680125255
 30
0.0000000001127424
 11
5046.528480105892
 21
-391.551680125255
 31
0.0000000001127424
  0
LINE
  5
B45C
330
18
100
AcDbEntity
  8
01
  6
BYBLOCK
100
AcDbLine
 10
5046.528480105892
 20
-391.551680125255
 30
0.0000000001127424
 11
5045.028480105892
 21
-391.551680125255
 31
0.0000000001127424
  0
LINE
  5
B45D
330
18
100
AcDbEntity
  8
01
  6
BYBLOCK
100
AcDbLine
 10
5045.028480105892
 20
-262.6516801252551
 30
0.0000000001127424
 11
5042.528480105892
 21
-262.6516801252551
 31
0.0000000001127424
  0
LINE
  5
B45E
330
18
100
AcDbEntity
  8
01
  6
BYBLOCK
100
AcDbLine
 10
5046.528480105892
 20
-261.751680125255
 30
0.0000000001127424
 11
5045.028480105892
 21
-261.751680125255
 31
0.0000000001127424
  0
LINE
  5
B45F
330
18
100
AcDbEntity
  8
01
  6
BYBLOCK
100
AcDbLine
 10
5045.028480105892
 20
-286.6516801252551
 30
0.0000000001127424
 11
5043.828480105892
 21
-286.6516801252551
 31
0.0000000001127424
  0
LINE
  5
B460
330
18
100
AcDbEntity
  8
01
  6
BYBLOCK
100
AcDbLine
 10
5043.828480105892
 20
-280.9516801252548
 30
0.0000000001127424
 11
5043.828480105892
 21
-372.3516801252549
 31
0.0000000001127424
  0
LINE
  5
B461
330
18
100
AcDbEntity
  8
01
  6
BYBLOCK
100
AcDbLine
 10
5043.728480105891
 20
-390.6516801252551
 30
0.0000000001127424
 11
5043.728480105891
 21
-374.051680125255
 31
0.0000000001127424
  0
LINE
  5
B462
330
18
100
AcDbEntity
  8
01
  6
BYBLOCK
100
AcDbLine
 10
5043.728480105891
 20
-374.051680125255
 30
0.0000000001127424
 11
5044.677008243316
 21
-373.1031519878311
 31
0.0000000001127424
  0
LINE
  5
B463
330
18
100
AcDbEntity
  8
01
  6
BYBLOCK
100
AcDbLine
 10
5042.879951968468
 20
-373.3002082626788
 30
0.0000000001127424
 11
5043.828480105892
 21
-372.3516801252549
 31
0.0000000001127424
  0
ARC
  5
B464
330
18
100
AcDbEntity
  8
01
  6
BYBLOCK
100
AcDbCircle
 10
5043.728480105891
 20
-374.1487364001027
 30
0.0000000001127424
 40
1.2
100
AcDbArc
 50
134.9999999999378
 51
180.0
  0
ARC
  5
B465
330
18
100
AcDbEntity
  8
01
  6
BYBLOCK
100
AcDbCircle
 10
5043.828480105892
 20
-372.2546238504071
 30
0.0000000001127424
 40
1.2
100
AcDbArc
 50
314.9999999999378
 51
0.0
  0
LINE
  5
B466
330
18
100
AcDbEntity
  8
01
  6
BYBLOCK
100
AcDbLine
 10
5042.528480105892
 20
-262.6516801252551
 30
0.0000000001127424
 11
5042.528480105892
 21
-279.1546238504072
 31
0.0000000001127424
  0
LINE
  5
B467
330
18
100
AcDbEntity
  8
01
  6
BYBLOCK
100
AcDbLine
 10
5043.728480105891
 20
-262.6516801252551
 30
0.0000000001127424
 11
5043.728480105891
 21
-279.251680125255
 31
0.0000000001127424
  0
LINE
  5
B468
330
18
100
AcDbEntity
  8
01
  6
BYBLOCK
100
AcDbLine
 10
5043.728480105891
 20
-279.251680125255
 30
0.0000000001127424
 11
5044.677008243316
 21
-280.2002082626789
 31
0.0000000001127424
  0
LINE
  5
B469
330
18
100
AcDbEntity
  8
01
  6
BYBLOCK
100
AcDbLine
 10
5042.879951968468
 20
-280.0031519878312
 30
0.0000000001127424
 11
5043.828480105892
 21
-280.9516801252551
 31
0.0000000001127424
  0
ARC
  5
B46A
330
18
100
AcDbEntity
  8
01
  6
BYBLOCK
100
AcDbCircle
 10
5043.728480105891
 20
-279.1546238504072
 30
0.0000000001127424
 40
1.2
100
AcDbArc
 50
180.0
 51
225.0000000000622
  0
ARC
  5
B46B
330
18
100
AcDbEntity
  8
01
  6
BYBLOCK
100
AcDbCircle
 10
5043.828480105892
 20
-281.0487364001028
 30
0.0000000001127424
 40
1.2
100
AcDbArc
 50
0.0
 51
45.00000000006218
  0
LINE
  5
B46D
330
18
100
AcDbEntity
  8
01
  6
BYBLOCK
100
AcDbLine
 10
5043.828480105892
 20
-363.6516801252553
 30
0.0000000001127424
 11
5014.737852818191
 21
-363.6516801252551
 31
0.0000000001127424
  0
LINE
  5
B472
330
18
100
AcDbEntity
  8
01
  6
BYBLOCK
100
AcDbLine
 10
5053.235586887078
 20
-315.6516801252419
 30
0.0000000001127424
 11
5046.528480105892
 21
-315.6516801252419
 31
0.0000000001127424
  0
LINE
  5
B473
330
18
100
AcDbEntity
  8
01
  6
BYBLOCK
100
AcDbLine
 10
5053.235586887078
 20
-335.6516801252419
 30
0.0000000001127424
 11
5046.528480105892
 21
-335.6516801252419
 31
0.0000000001127424
  0
LINE
  5
B474
330
18
100
AcDbEntity
  8
01
100
AcDbLine
 10
5051.528480105604
 20
-383.6516801249663
 30
0.0000000001127424
 11
5037.528480105604
 21
-383.6516801249663
 31
0.0000000001127424
  0
LINE
  5
B475
330
18
100
AcDbEntity
  8
01
  6
BYBLOCK
100
AcDbLine
 10
4977.528480105892
 20
-300.8695611576768
 30
0.0000000001128561
 11
4977.528480105892
 21
-330.3023285523579
 31
0.0000000001127424
  0
LINE
  5
B476
330
18
100
AcDbEntity
  8
01
  6
BYBLOCK
100
AcDbLine
 10
5043.828480105892
 20
-289.6516801252551
 30
0.0000000001127424
 11
5015.371583183874
 21
-289.6516801252551
 31
0.0000000001128561
  0
TEXT
  5
B480
330
18
100
AcDbEntity
  8
1TEXT
100
AcDbText
 10
4977.528379766145
 20
-66.1516801252551
 30
0.0000000001127424
 40
20.0
  1
3-H3C-X-LJ
100
AcDbText
  0
LINE
  5
B5DB
330
18
100
AcDbEntity
  8
1CENTER
100
AcDbLine
 10
5130.82848010589
 20
-362.6503618121524
 30
0.0000000001127424
 11
5130.82848010589
 21
-354.6503618121524
 31
0.0000000001127424
  0
ARC
  5
B61D
330
18
100
AcDbEntity
  8
01
100
AcDbCircle
 10
4995.52848010589
 20
-347.6503618121524
 30
0.0000000001127424
 40
25.0
100
AcDbArc
 50
203.2067794349469
 51
156.7932205669244
  0
LINE
  5
B76E
330
18
100
AcDbEntity
  8
01
100
AcDbLine
 10
4982.528359766146
 20
-297.6516801252549
 30
0.0000000001127424
 11
5008.528359766146
 21
-297.6516801252549
 31
0.0000000001127424
  0
LINE
  5
B76F
330
18
100
AcDbEntity
  8
01
100
AcDbLine
 10
5018.028359766146
 20
-292.1516801252549
 30
0.0000000001127424
 11
4973.028359766146
 21
-292.1516801252549
 31
0.0000000001127424
  0
LINE
  5
B770
330
18
100
AcDbEntity
  8
01
100
AcDbLine
 10
4995.528359766146
 20
-269.6516801252549
 30
0.0000000001127424
 11
4995.528359766146
 21
-314.6516801252549
 31
0.0000000001127424
  0
LINE
  5
B771
330
18
100
AcDbEntity
  8
01
100
AcDbLine
 10
5313.028255426403
 20
-292.1516801252549
 30
0.0000000001127424
 11
5358.028255426403
 21
-292.1516801252549
 31
0.0000000001127424
  0
LINE
  5
B772
330
18
100
AcDbEntity
  8
01
100
AcDbLine
 10
5335.528255426403
 20
-269.6516801252549
 30
0.0000000001127424
 11
5335.528255426403
 21
-314.6516801252549
 31
0.0000000001127424
  0
LINE
  5
B775
330
18
100
AcDbEntity
  8
01
100
AcDbLine
 10
5145.528363766147
 20
-272.1516801252567
 30
0.0000000001127424
 11
5145.528363766143
 21
-312.1516801252571
 31
0.0000000001127424
  0
LINE
  5
B776
330
18
100
AcDbEntity
  8
01
100
AcDbLine
 10
5145.528363766147
 20
-312.1516801252571
 30
0.0000000001127424
 11
5139.728363766148
 21
-312.1516801252567
 31
0.0000000001127424
  0
ARC
  5
B777
330
18
100
AcDbEntity
  8
01
100
AcDbCircle
 10
5139.728363766148
 20
-311.6516801252567
 30
0.0000000001127424
 40
0.5
100
AcDbArc
 50
180.0
 51
270.0
  0
LINE
  5
B778
330
18
100
AcDbEntity
  8
01
100
AcDbLine
 10
5145.528363766147
 20
-272.1516801252567
 30
0.0000000001127424
 11
5139.728363766148
 21
-272.1516801252576
 31
0.0000000001127424
  0
ARC
  5
B779
330
18
100
AcDbEntity
  8
01
100
AcDbCircle
 10
5139.728363766148
 20
-272.6516801252576
 30
0.0000000001127424
 40
0.5
100
AcDbArc
 50
90.0
 51
180.0
  0
LINE
  5
B77A
330
18
100
AcDbEntity
  8
01
100
AcDbLine
 10
5144.028363766147
 20
-312.151680125264
 30
0.0000000001127424
 11
5145.528363766147
 21
-312.151680125264
 31
0.0000000001127424
  0
LINE
  5
B77C
330
18
100
AcDbEntity
  8
01
100
AcDbLine
 10
5335.5282474264
 20
-92.65168012525464
 30
0.0000000001127424
 11
5335.5282474264
 21
-119.1516801252546
 31
0.0000000001127424
  0
LINE
  5
B77D
330
18
100
AcDbEntity
  8
01
100
AcDbLine
 10
5335.5282474264
 20
-62.65168012731192
 30
0.0000000001127424
 11
5335.5282474264
 21
-33.36040703567141
 31
0.0000000001127424
  0
LINE
  5
B791
330
18
100
AcDbEntity
  8
01
100
AcDbLine
 10
5315.528363377583
 20
-97.65168012628351
 30
0.0000000001127424
 11
5355.528363377583
 21
-97.65168012628283
 31
0.0000000001127424
  0
LINE
  5
B792
330
18
100
AcDbEntity
  8
01
100
AcDbLine
 10
5355.028363377583
 20
-103.9516801262832
 30
0.0000000001127424
 11
5316.028363377583
 21
-103.9516801262837
 31
0.0000000001127424
  0
CIRCLE
  5
B793
330
18
100
AcDbEntity
  8
01
100
AcDbCircle
 10
5335.528276187822
 20
-292.1517038859431
 30
0.0000000001128561
 40
19.99999999999963
  0
LINE
  5
B794
330
18
100
AcDbEntity
  8
01
100
AcDbLine
 10
5315.528363377583
 20
-97.65168012628351
 30
0.0000000001127424
 11
5315.528363377583
 21
-103.4516801262837
 31
0.0000000001127424
  0
ARC
  5
B795
330
18
100
AcDbEntity
  8
01
100
AcDbCircle
 10
5316.028363377583
 20
-103.4516801262832
 30
0.0000000001127424
 40
0.5
100
AcDbArc
 50
180.0
 51
270.0
  0
CIRCLE
  5
B796
330
18
100
AcDbEntity
  8
01
100
AcDbCircle
 10
5335.52827651028
 20
-297.651703681815
 30
0.0000000001128561
 40
3.75
  0
CIRCLE
  5
B797
330
18
100
AcDbEntity
  8
01
100
AcDbCircle
 10
5335.52827651028
 20
-297.6517038859429
 30
0.0000000001128561
 40
3.5000005
  0
LINE
  5
B798
330
18
100
AcDbEntity
  8
01
100
AcDbLine
 10
5334.52827651028
 20
-301.0058066859428
 30
0.0000000001128561
 11
5334.52827651028
 21
-294.2975998859429
 31
0.0000000001128561
  0
LINE
  5
B799
330
18
100
AcDbEntity
  8
01
100
AcDbLine
 10
5336.52827651028
 20
-301.0058066859428
 30
0.0000000001128561
 11
5336.52827651028
 21
-294.2975998859429
 31
0.0000000001128561
  0
ARC
  5
B79A
330
18
100
AcDbEntity
  8
01
100
AcDbCircle
 10
5335.528353835438
 20
-99.80168550415851
 30
0.0000000001126288
 40
6.0
100
AcDbArc
 50
234.3146660000218
 51
256.8165180000151
  0
LINE
  5
B79B
330
18
100
AcDbEntity
  8
01
100
AcDbLine
 10
5332.028353835438
 20
-104.6750855041587
 30
0.0000000001126288
 11
5332.028353835437
 21
-103.9516801262835
 31
0.0000000001126288
  0
LINE
  5
B79C
330
18
100
AcDbEntity
  8
01
100
AcDbLine
 10
5339.028353835438
 20
-104.6750855041587
 30
0.0000000001126288
 11
5339.028353835438
 21
-103.9516801262835
 31
0.0000000001126288
  0
LINE
  5
B79D
330
18
100
AcDbEntity
  8
01
100
AcDbLine
 10
5336.528353835438
 20
-105.352233963561
 30
0.0000000001126288
 11
5336.528353835438
 21
-103.9516801262835
 31
0.0000000001126288
  0
ARC
  5
B79E
330
18
100
AcDbEntity
  8
01
100
AcDbCircle
 10
5334.228350835438
 20
-105.3514555041586
 30
0.0000000001126288
 40
0.30000001
100
AcDbArc
 50
256.8165180001221
 51
0.0
  0
ARC
  5
B79F
330
18
100
AcDbEntity
  8
01
100
AcDbCircle
 10
5336.828352835438
 20
-105.3514555041586
 30
0.0000000001126288
 40
0.30000001
100
AcDbArc
 50
179.9999969999697
 51
283.1834799999675
  0
LINE
  5
B7A0
330
18
100
AcDbEntity
  8
01
100
AcDbLine
 10
5334.528353835438
 20
-105.3514555041586
 30
0.0000000001126288
 11
5334.528353835438
 21
-103.9516801262835
 31
0.0000000001126288
  0
ARC
  5
B7A1
330
18
100
AcDbEntity
  8
01
100
AcDbCircle
 10
5335.528353835438
 20
-99.80168550415851
 30
0.0000000001126288
 40
6.0
100
AcDbArc
 50
283.1834825033476
 51
305.6853299999982
  0
LINE
  5
B7A2
330
18
100
AcDbEntity
  8
01
100
AcDbLine
 10
5355.528363377583
 20
-97.65168012628283
 30
0.0000000001127424
 11
5355.528363377583
 21
-103.4516801262832
 31
0.0000000001127424
  0
ARC
  5
B7A3
330
18
100
AcDbEntity
  8
01
100
AcDbCircle
 10
5355.028363377583
 20
-103.4516801262832
 30
0.0000000001127424
 40
0.5
100
AcDbArc
 50
270.0
 51
0.0
  0
LINE
  5
B7A4
330
18
100
AcDbEntity
  8
01
100
AcDbLine
 10
5185.528363766147
 20
-272.1516801252549
 30
0.0000000001127427
 11
5185.528363766142
 21
-312.1516801252549
 31
0.0000000001127427
  0
LINE
  5
B7A6
330
18
100
AcDbEntity
  8
01
100
AcDbLine
 10
4982.528359766146
 20
-297.6516801252549
 30
0.0000000001127424
 11
5008.528359766146
 21
-297.6516801252549
 31
0.0000000001127424
  0
LINE
  5
B7A7
330
18
100
AcDbEntity
  8
01
100
AcDbLine
 10
5018.028359766146
 20
-292.1516801252549
 30
0.0000000001127424
 11
4973.028359766146
 21
-292.1516801252549
 31
0.0000000001127424
  0
LINE
  5
B7A8
330
18
100
AcDbEntity
  8
01
100
AcDbLine
 10
4995.528359766146
 20
-269.6516801252549
 30
0.0000000001127424
 11
4995.528359766146
 21
-314.6516801252549
 31
0.0000000001127424
  0
LINE
  5
B7AA
330
18
100
AcDbEntity
  8
01
100
AcDbLine
 10
5335.5282474264
 20
-62.65168012731237
 30
0.0000000001127424
 11
5335.5282474264
 21
-33.02335612445449
 31
0.0000000001127424
  0
LINE
  5
B7AD
330
18
100
AcDbEntity
  8
01
100
AcDbLine
 10
5139.228363766148
 20
-311.6516801252549
 30
0.0000000001127427
 11
5139.228363766148
 21
-272.6516801252553
 31
0.0000000001127427
  0
CIRCLE
  5
B7AE
330
18
100
AcDbEntity
  8
01
100
AcDbCircle
 10
4995.528359766144
 20
-292.1516801252549
 30
0.0000000001127424
 40
20.00000000000007
  0
ARC
  5
B7AF
330
18
100
AcDbEntity
  8
01
100
AcDbCircle
 10
4997.528359766146
 20
-288.6204841911608
 30
0.0000000001127424
 40
0.5000000000000013
100
AcDbArc
 50
0.0
 51
77.51311018581177
  0
ARC
  5
B7B0
330
18
100
AcDbEntity
  8
01
100
AcDbCircle
 10
4993.528359766146
 20
-306.6828760593492
 30
0.0000000001127424
 40
0.5000000000000029
100
AcDbArc
 50
180.0
 51
257.5131101858117
  0
ARC
  5
B7B1
330
18
100
AcDbEntity
  8
01
100
AcDbCircle
 10
4997.528359766146
 20
-306.6828760593492
 30
0.0000000001127424
 40
0.5000000000000013
100
AcDbArc
 50
282.4868898141883
 51
0.0
  0
ARC
  5
B7B2
330
18
100
AcDbEntity
  8
01
100
AcDbCircle
 10
4995.528359766146
 20
-297.6516801252549
 30
0.0000000001127424
 40
9.749999999999995
100
AcDbArc
 50
77.51311018586514
 51
102.4868898141349
  0
ARC
  5
B7B3
330
18
100
AcDbEntity
  8
01
100
AcDbCircle
 10
4993.528359766146
 20
-288.6204841911608
 30
0.0000000001127424
 40
0.5000000000000029
100
AcDbArc
 50
102.4868898141882
 51
180.0
  0
ARC
  5
B7B4
330
18
100
AcDbEntity
  8
01
100
AcDbCircle
 10
4995.528359766146
 20
-297.6516801252549
 30
0.0000000001127424
 40
9.75
100
AcDbArc
 50
257.5131101858652
 51
282.4868898141348
  0
LINE
  5
B7B5
330
18
100
AcDbEntity
  8
01
100
AcDbLine
 10
4998.028359766146
 20
-288.6204841911608
 30
0.0000000001127424
 11
4998.028359766146
 21
-306.6828760593492
 31
0.0000000001127424
  0
LINE
  5
B7B6
330
18
100
AcDbEntity
  8
01
100
AcDbLine
 10
4993.028359766146
 20
-306.6828760593492
 30
0.0000000001127424
 11
4993.028359766146
 21
-288.6204841911608
 31
0.0000000001127424
  0
SPLINE
  5
B7B7
330
18
100
AcDbEntity
  8
01
100
AcDbSpline
210
0.0
220
0.0
230
1.0
 70
     8
 71
     3
 72
    18
 73
    14
 74
     0
 42
0.0000000001
 43
0.0000000001
 40
0.0
 40
0.0
 40
0.0
 40
0.0
 40
0.2500000000000002
 40
0.2500000000000002
 40
0.375
 40
0.375
 40
0.4999999999999998
 40
0.4999999999999998
 40
0.6249999999999996
 40
0.6249999999999996
 40
0.7499999999999993
 40
0.7499999999999993
 40
1.0
 40
1.0
 40
1.0
 40
1.0
 10
4999.217548955335
 20
-306.6767775278522
 30
0.0000000001127424
 10
4999.024287898059
 20
-306.7557768528889
 30
0.0000000001127424
 10
4998.83196628633
 20
-306.8270443874585
 30
0.0000000001127424
 10
4998.552640827871
 20
-306.9213014986321
 30
0.0000000001127424
 10
4998.463147685363
 20
-306.9499347238198
 30
0.0000000001127424
 10
4998.291870477571
 20
-307.0022697996205
 30
0.0000000001127424
 10
4998.209221064401
 20
-307.0262019645411
 30
0.0000000001127424
 10
4998.05774792496
 20
-307.0682013808878
 30
0.0000000001127424
 10
4997.989076354004
 20
-307.0862632484473
 30
0.0000000001127424
 10
4997.866708379745
 20
-307.1173343866078
 30
0.0000000001127424
 10
4997.812868143128
 20
-307.1303659192147
 30
0.0000000001127424
 10
4997.683513855897
 20
-307.1609210239753
 30
0.0000000001127424
 10
4997.636467874254
 20
-307.1710488125434
 30
0.0000000001127424
 10
4997.636467874254
 20
-307.1710488125434
 30
0.0000000001127424
  0
SPLINE
  5
B7B8
330
18
100
AcDbEntity
  8
01
100
AcDbSpline
210
0.0
220
0.0
230
1.0
 70
     8
 71
     3
 72
    18
 73
    14
 74
     0
 42
0.0000000001
 43
0.0000000001
 40
0.0
 40
0.0
 40
0.0
 40
0.0
 40
0.2500000000000002
 40
0.2500000000000002
 40
0.3750000000000002
 40
0.3750000000000002
 40
0.5000000000000002
 40
0.5000000000000002
 40
0.6250000000000002
 40
0.6250000000000002
 40
0.7500000000000001
 40
0.7500000000000001
 40
1.0
 40
1.0
 40
1.0
 40
1.0
 10
4991.839170576956
 20
-288.6265827226575
 30
0.0000000001127424
 10
4992.032431634232
 20
-288.5475833976209
 30
0.0000000001127424
 10
4992.224753245961
 20
-288.4763158630515
 30
0.0000000001127424
 10
4992.50407870442
 20
-288.3820587518778
 30
0.0000000001127424
 10
4992.593571846928
 20
-288.35342552669
 30
0.0000000001127424
 10
4992.76484905472
 20
-288.3010904508894
 30
0.0000000001127424
 10
4992.84749846789
 20
-288.2771582859687
 30
0.0000000001127424
 10
4992.998971607331
 20
-288.2351588696222
 30
0.0000000001127424
 10
4993.067643178287
 20
-288.2170970020627
 30
0.0000000001127424
 10
4993.190011152547
 20
-288.1860258639019
 30
0.0000000001127424
 10
4993.243851389163
 20
-288.1729943312951
 30
0.0000000001127424
 10
4993.373205676394
 20
-288.1424392265346
 30
0.0000000001127424
 10
4993.420251658037
 20
-288.1323114379666
 30
0.0000000001127424
 10
4993.420251658037
 20
-288.1323114379666
 30
0.0000000001127424
  0
SPLINE
  5
B7B9
330
18
100
AcDbEntity
  8
01
100
AcDbSpline
210
0.0
220
0.0
230
1.0
 70
     8
 71
     3
 72
    16
 73
    12
 74
     0
 42
0.0000000001
 43
0.0000000001
 40
0.0
 40
0.0
 40
0.0
 40
0.0
 40
0.1249999999999998
 40
0.1249999999999998
 40
0.2499999999999997
 40
0.2499999999999997
 40
0.4999999999999998
 40
0.4999999999999998
 40
0.7499999999999999
 40
0.7499999999999999
 40
1.0
 40
1.0
 40
1.0
 40
1.0
 10
4993.420251658037
 20
-307.1710488125434
 30
0.0000000001127424
 10
4993.420251658037
 20
-307.1710488125434
 30
0.0000000001127424
 10
4993.408836135911
 20
-307.1685408565525
 30
0.0000000001127424
 10
4993.364403079569
 20
-307.1585360753922
 30
0.0000000001127424
 10
4993.330707479016
 20
-307.1508794103427
 30
0.0000000001127424
 10
4993.201360157555
 20
-307.1203349058101
 30
0.0000000001127424
 10
4993.074904277248
 20
-307.089234752033
 30
0.0000000001127424
 10
4992.773958076252
 20
-307.0058317436615
 30
0.0000000001127424
 10
4992.597164641486
 20
-306.9526828141388
 30
0.0000000001127424
 10
4992.227468369481
 20
-306.8279904875353
 30
0.0000000001127424
 10
4992.032397211247
 20
-306.7557627818046
 30
0.0000000001127424
 10
4991.839170576956
 20
-306.6767775278522
 30
0.0000000001127424
  0
SPLINE
  5
B7BA
330
18
100
AcDbEntity
  8
01
100
AcDbSpline
210
0.0
220
0.0
230
1.0
 70
     8
 71
     3
 72
    16
 73
    12
 74
     0
 42
0.0000000001
 43
0.0000000001
 40
0.0
 40
0.0
 40
0.0
 40
0.0
 40
0.1249999999999997
 40
0.1249999999999997
 40
0.2499999999999993
 40
0.2499999999999993
 40
0.4999999999999996
 40
0.4999999999999996
 40
0.7499999999999998
 40
0.7499999999999998
 40
1.0
 40
1.0
 40
1.0
 40
1.0
 10
4997.636467874254
 20
-288.1323114379666
 30
0.0000000001127424
 10
4997.636467874254
 20
-288.1323114379666
 30
0.0000000001127424
 10
4997.64788339638
 20
-288.1348193939575
 30
0.0000000001127424
 10
4997.692316452722
 20
-288.1448241751177
 30
0.0000000001127424
 10
4997.726012053275
 20
-288.1524808401673
 30
0.0000000001127424
 10
4997.855359374737
 20
-288.1830253446999
 30
0.0000000001127424
 10
4997.981815255043
 20
-288.2141254984767
 30
0.0000000001127424
 10
4998.282761456039
 20
-288.2975285068483
 30
0.0000000001127424
 10
4998.459554890806
 20
-288.3506774363709
 30
0.0000000001127424
 10
4998.82925116281
 20
-288.4753697629744
 30
0.0000000001127424
 10
4999.024322321044
 20
-288.5475974687051
 30
0.0000000001127424
 10
4999.217548955335
 20
-288.6265827226575
 30
0.0000000001127424
  0
ARC
  5
B7BB
330
18
100
AcDbEntity
  8
01
100
AcDbCircle
 10
4995.528359766146
 20
-297.6516801252549
 30
0.0000000001127424
 40
9.750000000000005
100
AcDbArc
 50
112.2332717982968
 51
247.7667282017032
  0
ARC
  5
B7BC
330
18
100
AcDbEntity
  8
01
100
AcDbCircle
 10
4995.528359766146
 20
-297.6516801252549
 30
0.0000000001127424
 40
9.750000000000009
100
AcDbArc
 50
292.2332717982968
 51
67.76672820170324
  0
CIRCLE
  5
B7BD
330
18
100
AcDbEntity
  8
01
100
AcDbCircle
 10
4995.528359766146
 20
-297.6516801252549
 30
0.0000000001127424
 40
10.3
  0
SPLINE
  5
B7BE
330
18
100
AcDbEntity
  8
01
100
AcDbSpline
210
0.0
220
0.0
230
1.0
 70
    24
 71
     1
 72
     4
 73
     2
 74
     0
 42
0.0000000001
 43
0.0000000001
 40
0.1160848018737504
 40
0.1160848018737504
 40
1.0
 40
1.0
 10
5139.228363766148
 20
-307.4016801252621
 30
0.0000000001127427
 10
5124.528338955135
 20
-307.4016801252621
 30
0.0000000001127427
  0
SPLINE
  5
B7BF
330
18
100
AcDbEntity
  8
01
100
AcDbSpline
210
0.0
220
0.0
230
1.0
 70
    24
 71
     1
 72
     4
 73
     2
 74
     0
 42
0.0000000001
 43
0.0000000001
 40
0.0
 40
0.0
 40
0.8839151981262495
 40
0.8839151981262495
 10
5124.528338955135
 20
-287.9016801252621
 30
0.0000000001127427
 10
5139.228363766147
 20
-287.9016801252621
 30
0.0000000001127427
  0
ARC
  5
B7C0
330
18
100
AcDbEntity
  8
01
100
AcDbCircle
 10
5124.528338955135
 20
-306.4016801252621
 30
0.0000000001127427
 40
1.0
100
AcDbArc
 50
180.0
 51
270.0
  0
ARC
  5
B7C1
330
18
100
AcDbEntity
  8
01
100
AcDbCircle
 10
5124.528338955135
 20
-288.9016801252621
 30
0.0000000001127427
 40
1.0
100
AcDbArc
 50
90.0
 51
180.0
  0
LINE
  5
B7C2
330
18
100
AcDbEntity
  8
01
100
AcDbLine
 10
5138.028338955135
 20
-289.0894082304903
 30
0.0000000001127427
 11
5138.028338955135
 21
-306.213952020034
 31
0.0000000001127427
  0
SPLINE
  5
B7C3
330
18
100
AcDbEntity
  8
01
100
AcDbSpline
210
0.0
220
0.0
230
1.0
 70
     8
 71
     3
 72
    14
 73
    10
 74
     0
 42
0.0000000001
 43
0.0000000001
 40
0.0
 40
0.0
 40
0.0
 40
0.0
 40
0.25
 40
0.25
 40
0.5
 40
0.5
 40
0.75
 40
0.75
 40
1.0
 40
1.0
 40
1.0
 40
1.0
 10
5137.028338955135
 20
-288.6204841911681
 30
0.0000000001127427
 10
5137.168306632888
 20
-288.6204841911681
 30
0.0000000001127427
 10
5137.306727907033
 20
-288.6301201464748
 30
0.0000000001127427
 10
5137.556778246988
 20
-288.6692010554164
 30
0.0000000001127427
 10
5137.669095809817
 20
-288.6990071902901
 30
0.0000000001127427
 10
5137.850143180904
 20
-288.779926927074
 30
0.0000000001127427
 10
5137.917943817208
 20
-288.8303164632657
 30
0.0000000001127427
 10
5138.007562733751
 20
-288.9496860522804
 30
0.0000000001127427
 10
5138.028338955135
 20
-289.0164855029918
 30
0.0000000001127427
 10
5138.028338955135
 20
-289.0894082304903
 30
0.0000000001127427
  0
SPLINE
  5
B7C4
330
18
100
AcDbEntity
  8
01
100
AcDbSpline
210
0.0
220
0.0
230
1.0
 70
     8
 71
     3
 72
    14
 73
    10
 74
     0
 42
0.0000000001
 43
0.0000000001
 40
0.0
 40
0.0
 40
0.0
 40
0.0
 40
0.25
 40
0.25
 40
0.5
 40
0.5
 40
0.75
 40
0.75
 40
1.0
 40
1.0
 40
1.0
 40
1.0
 10
5138.028338955135
 20
-306.213952020034
 30
0.0000000001127427
 10
5138.028338955135
 20
-306.2868687071684
 30
0.0000000001127427
 10
5138.006978547874
 20
-306.3546534030293
 30
0.0000000001127427
 10
5137.917839356198
 20
-306.472980276993
 30
0.0000000001127427
 10
5137.848906726043
 20
-306.5240931317612
 30
0.0000000001127427
 10
5137.668859285677
 20
-306.6043507239149
 30
0.0000000001127427
 10
5137.556153612182
 20
-306.6343135436214
 30
0.0000000001127427
 10
5137.305582998562
 20
-306.6733619191555
 30
0.0000000001127427
 10
5137.168196849245
 20
-306.6828760593564
 30
0.0000000001127427
 10
5137.028338955135
 20
-306.6828760593564
 30
0.0000000001127427
  0
LINE
  5
B7C5
330
18
100
AcDbEntity
  8
01
100
AcDbLine
 10
5137.028338955135
 20
-306.6828760593564
 30
0.0000000001127427
 11
5124.528338955135
 21
-306.6828760593564
 31
0.0000000001127427
  0
LINE
  5
B7C6
330
18
100
AcDbEntity
  8
01
100
AcDbLine
 10
5124.528338955135
 20
-288.6204841911681
 30
0.0000000001127427
 11
5137.028338955135
 21
-288.6204841911681
 31
0.0000000001127427
  0
SPLINE
  5
B7C7
330
18
100
AcDbEntity
  8
01
100
AcDbSpline
210
0.0
220
0.0
230
1.0
 70
     8
 71
     3
 72
    14
 73
    10
 74
     0
 42
0.0000000001
 43
0.0000000001
 40
0.0
 40
0.0
 40
0.0
 40
0.0
 40
0.2500000000000001
 40
0.2500000000000001
 40
0.5000000000000002
 40
0.5000000000000002
 40
0.7500000000000003
 40
0.7500000000000003
 40
1.0
 40
1.0
 40
1.0
 40
1.0
 10
5124.528338955135
 20
-288.6204841911681
 30
0.0000000001127427
 10
5124.391130040207
 20
-288.6204841911681
 30
0.0000000001127427
 10
5124.256126494695
 20
-288.6318590012631
 30
0.0000000001127427
 10
5124.008790036042
 20
-288.6748138685834
 30
0.0000000001127427
 10
5123.898288606677
 20
-288.706058195688
 30
0.0000000001127427
 10
5123.716094933149
 20
-288.7832437130792
 30
0.0000000001127427
 10
5123.647101830764
 20
-288.8275843283386
 30
0.0000000001127427
 10
5123.552334292278
 20
-288.9255659797168
 30
0.0000000001127427
 10
5123.528338955135
 20
-288.9780594027336
 30
0.0000000001127427
 10
5123.528338955135
 20
-289.031210300479
 30
0.0000000001127427
  0
SPLINE
  5
B7C8
330
18
100
AcDbEntity
  8
01
100
AcDbSpline
210
0.0
220
0.0
230
1.0
 70
     8
 71
     3
 72
    14
 73
    10
 74
     0
 42
0.0000000001
 43
0.0000000001
 40
0.0
 40
0.0
 40
0.0
 40
0.0
 40
0.2500000000000001
 40
0.2500000000000001
 40
0.5000000000000002
 40
0.5000000000000002
 40
0.7500000000000003
 40
0.7500000000000003
 40
1.0
 40
1.0
 40
1.0
 40
1.0
 10
5124.528338955135
 20
-306.6828760593564
 30
0.0000000001127427
 10
5124.391130040207
 20
-306.6828760593564
 30
0.0000000001127427
 10
5124.256126494695
 20
-306.6715012492612
 30
0.0000000001127427
 10
5124.008790036042
 20
-306.6285463819409
 30
0.0000000001127427
 10
5123.898288606677
 20
-306.5973020548363
 30
0.0000000001127427
 10
5123.716094933149
 20
-306.5201165374451
 30
0.0000000001127427
 10
5123.647101830764
 20
-306.4757759221857
 30
0.0000000001127427
 10
5123.552334292278
 20
-306.3777942708075
 30
0.0000000001127427
 10
5123.528338955135
 20
-306.3253008477909
 30
0.0000000001127427
 10
5123.528338955135
 20
-306.2721499500456
 30
0.0000000001127427
  0
LINE
  5
B7C9
330
18
100
AcDbEntity
  8
01
100
AcDbLine
 10
5123.528338955135
 20
-289.031210300479
 30
0.0000000001127427
 11
5123.528338955135
 21
-306.2721499500456
 31
0.0000000001127427
  0
LINE
  5
B7CA
330
18
100
AcDbEntity
  8
01
100
AcDbLine
 10
5123.528338955135
 20
-306.2721499500456
 30
0.0000000001127427
 11
5123.528338955135
 21
-306.4016801252621
 31
0.0000000001127427
  0
LINE
  5
B7CB
330
18
100
AcDbEntity
  8
01
100
AcDbLine
 10
5316.028363509789
 20
-51.35168012628355
 30
0.0000000001127424
 11
5355.028363509789
 21
-51.35168012628333
 31
0.0000000001127424
  0
LINE
  5
B7CC
330
18
100
AcDbEntity
  8
01
100
AcDbLine
 10
5355.528363509789
 20
-57.65168012628351
 30
0.0000000001127424
 11
5315.528363509789
 21
-57.65168012628396
 31
0.0000000001127424
  0
LINE
  5
B7CD
330
18
100
AcDbEntity
  8
01
100
AcDbLine
 10
5355.528363509789
 20
-57.65168012628351
 30
0.0000000001127424
 11
5355.528363509789
 21
-51.85168012628333
 31
0.0000000001127424
  0
ARC
  5
B7CE
330
18
100
AcDbEntity
  8
01
100
AcDbCircle
 10
5355.028363509789
 20
-51.85168012628355
 30
0.0000000001127424
 40
0.5
100
AcDbArc
 50
0.0
 51
90.0
  0
LINE
  5
B7CF
330
18
100
AcDbEntity
  8
01
100
AcDbLine
 10
5315.528363509789
 20
-57.65168012628396
 30
0.0000000001127424
 11
5315.528363509789
 21
-51.85168012628355
 31
0.0000000001127424
  0
ARC
  5
B7D0
330
18
100
AcDbEntity
  8
01
100
AcDbCircle
 10
5316.028363509789
 20
-51.85168012628355
 30
0.0000000001127424
 40
0.5
100
AcDbArc
 50
90.0
 51
180.0
  0
LINE
  5
B7D1
330
18
100
AcDbEntity
  8
01
100
AcDbLine
 10
5332.028375731003
 20
-50.15168345948382
 30
0.0000000000565071
 11
5326.278375730997
 21
-50.15168345948268
 31
0.0000000000565071
  0
LINE
  5
B7D2
330
18
100
AcDbEntity
  8
01
100
AcDbLine
 10
5333.028375731004
 20
-36.65166051527717
 30
0.0000000000565071
 11
5333.028375731003
 21
-49.15168345948382
 31
0.0000000000565071
  0
LINE
  5
B7D3
330
18
100
AcDbEntity
  8
01
100
AcDbLine
 10
5338.028375731004
 20
-36.65166051527899
 30
0.0000000000565071
 11
5338.028375731004
 21
-49.151683459482
 31
0.0000000000565071
  0
ARC
  5
B7D4
330
18
100
AcDbEntity
  8
01
100
AcDbCircle
 10
5337.028375731005
 20
-36.65166051527717
 30
0.0000000000565071
 40
1.0
100
AcDbArc
 50
0.0000000000521102
 51
90.0
  0
ARC
  5
B7D5
330
18
100
AcDbEntity
  8
01
100
AcDbCircle
 10
5334.028375731005
 20
-36.65166051527717
 30
0.0000000000565071
 40
1.0
100
AcDbArc
 50
90.0
 51
180.0
  0
LINE
  5
B7D6
330
18
100
AcDbEntity
  8
01
100
AcDbLine
 10
5337.028375731004
 20
-35.65166051527535
 30
0.0000000000565071
 11
5334.028375731005
 21
-35.65166051527535
 31
0.0000000000565071
  0
LINE
  5
B7D7
330
18
100
AcDbEntity
  8
01
100
AcDbLine
 10
5344.778375730996
 20
-50.151683459482
 30
0.0000000000565071
 11
5339.028375731004
 21
-50.151683459482
 31
0.0000000000565071
  0
ARC
  5
B7D8
330
18
100
AcDbEntity
  8
01
100
AcDbCircle
 10
5339.028375731005
 20
-49.151683459482
 30
0.0000000000565071
 40
1.0
100
AcDbArc
 50
180.0
 51
270.0
  0
ARC
  5
B7D9
330
18
100
AcDbEntity
  8
01
100
AcDbCircle
 10
5332.028375731004
 20
-49.15168345948382
 30
0.0000000000565071
 40
1.0
100
AcDbArc
 50
270.0
 51
0.0
  0
LINE
  5
B7DA
330
18
100
AcDbEntity
  8
01
100
AcDbLine
 10
5325.778375730996
 20
-50.65168345948246
 30
0.0000000001127646
 11
5325.778375730996
 21
-51.35168012628333
 31
0.0000000001127424
  0
ARC
  5
B7DB
330
18
100
AcDbEntity
  8
01
100
AcDbCircle
 10
5326.278375730997
 20
-50.65168345948246
 30
0.0000000001127646
 40
0.5
100
AcDbArc
 50
90.0
 51
180.0
  0
LINE
  5
B7DC
330
18
100
AcDbEntity
  8
01
100
AcDbLine
 10
5345.278375730996
 20
-50.65168345948246
 30
0.0000000001127646
 11
5345.278375730996
 21
-51.35168012628333
 31
0.0000000001127424
  0
ARC
  5
B7DD
330
18
100
AcDbEntity
  8
01
100
AcDbCircle
 10
5344.778375730996
 20
-50.65168345948246
 30
0.0000000001127646
 40
0.5
100
AcDbArc
 50
0.0
 51
90.0
  0
LINE
  5
B7DF
330
18
100
AcDbEntity
  8
01
100
AcDbLine
 10
5191.828363766147
 20
-311.6516752610651
 30
0.0000000000564849
 11
5191.828363766147
 21
-272.6516752610655
 31
0.0000000000564849
  0
LINE
  5
B7E0
330
18
100
AcDbEntity
  8
01
100
AcDbLine
 10
5185.528363766142
 20
-312.1516752610653
 30
0.0000000000564849
 11
5191.328363766147
 21
-312.1516752610651
 31
0.0000000000564849
  0
ARC
  5
B7E1
330
18
100
AcDbEntity
  8
01
100
AcDbCircle
 10
5191.328363766147
 20
-311.6516752610651
 30
0.0000000000564849
 40
0.5
100
AcDbArc
 50
270.0
 51
0.0
  0
LINE
  5
B7E2
330
18
100
AcDbEntity
  8
01
100
AcDbLine
 10
5185.528363766147
 20
-272.1516752610651
 30
0.0000000000564849
 11
5191.328363766147
 21
-272.1516752610655
 31
0.0000000000564849
  0
ARC
  5
B7E3
330
18
100
AcDbEntity
  8
01
100
AcDbCircle
 10
5191.328363766147
 20
-272.6516752610655
 30
0.0000000000564849
 40
0.5
100
AcDbArc
 50
0.0
 51
90.0
  0
LINE
  5
B7E4
330
18
100
AcDbEntity
  8
01
100
AcDbLine
 10
5192.570347455107
 20
-294.1516788043166
 30
0.0000000001127388
 11
5191.828363766146
 21
-294.1516788043168
 31
0.0000000001127388
  0
LINE
  5
B7E5
330
18
100
AcDbEntity
  8
01
100
AcDbLine
 10
5192.570347455107
 20
-301.1516788043166
 30
0.0000000001127388
 11
5191.828363766146
 21
-301.1516788043166
 31
0.0000000001127388
  0
ARC
  5
B7E6
330
18
100
AcDbEntity
  8
01
100
AcDbCircle
 10
5187.696947455107
 20
-297.6516788043166
 30
0.0000000001127388
 40
6.0
100
AcDbArc
 50
324.3146699999823
 51
35.68533471264649
  0
CIRCLE
  5
B916
330
18
100
AcDbEntity
  8
01
100
AcDbCircle
 10
5335.528255426403
 20
-290.2516899211273
 30
0.0000000001127424
 40
2.5
  0
LINE
  5
B99E
330
18
100
AcDbEntity
  8
01
100
AcDbLine
 10
5338.028363832242
 20
-49.15168012628483
 30
0.0000000001127424
 11
5360.0282474264
 21
-49.15168012628646
 31
0.0000000001127424
  0
LINE
  5
BA66
330
18
100
AcDbEntity
  8
1DIM
100
AcDbLine
 10
4977.528379766145
 20
-117.1516801252551
 30
0.0000000001127424
 11
5082.528379766145
 21
-117.1516801252551
 31
0.0000000001127424
  0
TEXT
  5
BA67
330
18
100
AcDbEntity
  8
1TEXT
100
AcDbText
 10
4981.308379766145
 20
-114.6180505426114
 30
0.0000000001127424
 40
6.0
  1
ブラストシルバー
 41
0.8
 72
     1
 11
5003.628379766144
 21
-114.6180505426114
 31
0.0000000001127424
100
AcDbText
  0
TEXT
  5
BA68
330
18
100
AcDbEntity
  8
1TEXT
100
AcDbText
 10
4989.728379766145
 20
-104.4016801252551
 30
0.0000000001127424
 40
6.0
  1
表面処理
 72
     1
 11
5003.628379766144
 21
-104.4016801252551
 31
0.0000000001127424
100
AcDbText
  0
LINE
  5
BA69
330
18
100
AcDbEntity
  8
1DIM
100
AcDbLine
 10
4977.528379766145
 20
-96.1516801252551
 30
0.0000000001127424
 11
5082.528379766145
 21
-96.1516801252551
 31
0.0000000001127424
  0
LINE
  5
BA6A
330
18
100
AcDbEntity
  8
1DIM
100
AcDbLine
 10
4977.528379766145
 20
-106.6516801252551
 30
0.0000000001127424
 11
5082.528379766145
 21
-106.6516801252551
 31
0.0000000001127424
  0
LINE
  5
BA6B
330
18
100
AcDbEntity
  8
1DIM
100
AcDbLine
 10
5030.028379766145
 20
-96.1516801252551
 30
0.0000000001127424
 11
5030.028379766145
 21
-127.6516801252551
 31
0.0000000001127424
  0
TEXT
  5
BA6C
330
18
100
AcDbEntity
  8
1TEXT
100
AcDbText
 10
5045.828379766144
 20
-104.4016801252551
 30
0.0000000001127424
 40
6.0
  1
コード
 72
     1
 11
5056.128379766144
 21
-104.4016801252551
 31
0.0000000001127424
100
AcDbText
  0
LINE
  5
BA6D
330
18
100
AcDbEntity
  8
1DIM
100
AcDbLine
 10
4977.528379766145
 20
-127.6516801252551
 30
0.0000000001127424
 11
5082.528379766145
 21
-127.6516801252551
 31
0.0000000001127424
  0
TEXT
  5
BA6E
330
18
100
AcDbEntity
  8
1TEXT
100
AcDbText
 10
4981.308379766145
 20
-125.1180505426114
 30
0.0000000001127424
 40
6.0
  1
ブラストブラック
 41
0.8
 72
     1
 11
5003.628379766144
 21
-125.1180505426114
 31
0.0000000001127424
100
AcDbText
  0
LINE
  5
BA6F
330
18
100
AcDbEntity
  8
1DIM
100
AcDbLine
 10
4977.528379766145
 20
-127.6516801252551
 30
0.0000000001127424
 11
4977.528379766145
 21
-96.1516801252551
 31
0.0000000001127424
  0
LINE
  5
BA70
330
18
100
AcDbEntity
  8
1DIM
100
AcDbLine
 10
5082.528379766145
 20
-127.6516801252551
 30
0.0000000001127424
 11
5082.528379766145
 21
-96.1516801252551
 31
0.0000000001127424
  0
TEXT
  5
BA71
330
18
100
AcDbEntity
  8
1TEXT
100
AcDbText
 10
5035.828379766145
 20
-115.2232156007292
 30
0.0000000001127424
 40
6.0
  1
3-H3C-S-LJ
 41
0.7
 72
     1
 11
5056.128379766145
 21
-115.2232156007292
 31
0.0000000001127424
100
AcDbText
  0
TEXT
  5
BA72
330
18
100
AcDbEntity
  8
1TEXT
100
AcDbText
 10
5035.828379766145
 20
-125.7232156007292
 30
0.0000000001127424
 40
6.0
  1
3-H3C-K-LJ
 41
0.7
 72
     1
 11
5056.128379766145
 21
-125.7232156007292
 31
0.0000000001127424
100
AcDbText
  0
LINE
  5
BC29
330
18
100
AcDbEntity
  8
01
100
AcDbLine
 10
5338.175750595747
 20
-337.7976131855352
 30
0.0000000001127424
 11
5445.528241992331
 21
-337.80543947176
 31
0.0000000001127424
  0
LINE
  5
BC2A
330
18
100
AcDbEntity
  8
01
100
AcDbLine
 10
5335.672024625779
 20
-337.7440865708553
 30
0.0000000001127424
 11
5336.5282474264
 21
-337.7976131359072
 31
0.0000000001127424
  0
LINE
  5
BC2B
330
18
100
AcDbEntity
  8
01
100
AcDbLine
 10
5335.247680848856
 20
-337.8098069880451
 30
0.0000000001127424
 11
5335.24769658274
 21
-337.8098007068969
 31
0.0000000001127424
  0
LINE
  5
BC2C
330
18
100
AcDbEntity
  8
01
100
AcDbLine
 10
5334.77880586319
 20
-338.0004167919368
 30
0.0000000001127424
 11
5335.233035282405
 21
-337.8157607894517
 31
0.0000000001127424
  0
ARC
  5
BC2D
330
18
100
AcDbEntity
  8
01
100
AcDbCircle
 10
5335.609631663196
 20
-338.7421382319534
 30
0.0000000001127424
 40
1.0
100
AcDbArc
 50
86.42282308643489
 51
112.1230133312047
  0
LINE
  5
BC2E
330
18
100
AcDbEntity
  8
01
100
AcDbLine
 10
5445.528241989259
 20
-357.4952841523876
 30
0.0000000001127424
 11
5338.175763861975
 21
-357.5031104387648
 31
0.0000000001127424
  0
LINE
  5
BC2F
330
18
100
AcDbEntity
  8
01
100
AcDbLine
 10
5335.247680848855
 20
-357.4909166362598
 30
0.0000000001127424
 11
5334.778805861151
 21
-357.3003068315383
 31
0.0000000001127424
  0
LINE
  5
BC30
330
18
100
AcDbEntity
  8
01
100
AcDbLine
 10
5445.900310641697
 20
-337.8772323530278
 30
0.0000000001127424
 11
5445.908988655894
 21
-337.8807580415031
 31
0.0000000001127424
  0
LINE
  5
BC31
330
18
100
AcDbEntity
  8
01
100
AcDbLine
 10
5445.528247889149
 20
-337.8054394712907
 30
0.0000000001127424
 11
5445.866119105628
 21
-337.8642474764123
 31
0.0000000001127424
  0
LINE
  5
BC32
330
18
100
AcDbEntity
  8
01
100
AcDbLine
 10
5445.887713144037
 20
-357.4284420505245
 30
0.0000000001127424
 11
5445.528247889149
 21
-357.4952841367298
 31
0.0000000001127424
  0
LINE
  5
BC33
330
18
100
AcDbEntity
  8
01
100
AcDbLine
 10
5336.528247426402
 20
-357.5031104884155
 30
0.0000000001127424
 11
5335.764363330341
 21
-357.5508645212798
 31
0.0000000001127424
  0
LINE
  5
BC34
330
18
100
AcDbEntity
  8
01
100
AcDbLine
 10
5335.673724996549
 20
-357.5606354410328
 30
0.0000000001127424
 11
5335.248649159043
 21
-357.4913026226212
 31
0.0000000001127424
  0
LINE
  5
BC35
330
18
100
AcDbEntity
  8
01
100
AcDbLine
 10
5321.167842233041
 20
-351.6606364137727
 30
0.0000000001127424
 11
5321.53508530516
 21
-351.6553453582136
 31
0.0000000001127424
  0
LINE
  5
BC36
330
18
100
AcDbEntity
  8
01
100
AcDbLine
 10
5321.167842233032
 20
-343.6400872103594
 30
0.0000000001127424
 11
5321.535085297957
 21
-343.6453782660905
 31
0.0000000001127424
  0
LINE
  5
BC37
330
18
100
AcDbEntity
  8
01
100
AcDbLine
 10
5334.778803868646
 20
-338.0004118972287
 30
0.0000000001127424
 11
5321.167842233032
 21
-343.6400872103594
 31
0.0000000001127424
  0
LINE
  5
BC38
330
18
100
AcDbEntity
  8
01
100
AcDbLine
 10
5334.778805863635
 20
-357.3003068325573
 30
0.0000000001127424
 11
5321.167842233041
 21
-351.6606364137727
 31
0.0000000001127424
  0
LINE
  5
BC39
330
18
100
AcDbEntity
  8
01
100
AcDbLine
 10
5335.130751721616
 20
-336.8226099508919
 30
0.0000000001127424
 11
5321.130672355312
 21
-342.8893110096241
 31
0.0000000001127424
  0
ARC
  5
BC3A
330
18
100
AcDbEntity
  8
01
100
AcDbCircle
 10
5335.528247426431
 20
-337.7398862034719
 30
0.0000000001127424
 40
0.9996992342170329
100
AcDbArc
 50
66.57067262532857
 51
113.4291833852169
  0
LINE
  5
BC3B
330
18
100
AcDbEntity
  8
01
100
AcDbLine
 10
5338.176045054795
 20
-337.7977407844563
 30
0.0000000001127424
 11
5335.925745436445
 21
-336.8226109498377
 31
0.0000000001127424
  0
LINE
  5
BC3C
330
18
100
AcDbEntity
  8
01
100
AcDbLine
 10
5338.176058325093
 20
-357.5029828388318
 30
0.0000000001127424
 11
5335.925745439479
 21
-358.4781126815132
 31
0.0000000001127424
  0
LINE
  5
BC3D
330
18
100
AcDbEntity
  8
01
100
AcDbLine
 10
5335.130751721616
 20
-358.478113673419
 30
0.0000000001127424
 11
5321.130672355311
 21
-352.4114126146809
 31
0.0000000001127424
  0
ARC
  5
BC3E
330
18
100
AcDbEntity
  8
01
100
AcDbCircle
 10
5321.528351708213
 20
-343.8069491230357
 30
0.0000000001127424
 40
1.000104282017655
100
AcDbArc
 50
113.4305941643219
 51
180.0011608084764
  0
LINE
  5
BC3F
330
18
100
AcDbEntity
  8
01
100
AcDbLine
 10
5320.5282474264
 20
-343.8069693850783
 30
0.0000000001127424
 11
5320.5282474264
 21
-344.5236865098585
 31
0.0000000001127424
  0
ARC
  5
BC40
330
18
100
AcDbEntity
  8
01
100
AcDbCircle
 10
5321.509537206198
 20
-344.5599652518557
 30
0.0000000001127424
 40
0.981290510456941
100
AcDbArc
 50
110.3778575640183
 51
179.9300808097113
  0
LINE
  5
BC41
330
18
100
AcDbEntity
  8
01
100
AcDbLine
 10
5321.535085297957
 20
-343.6453782660905
 30
0.0000000001127424
 11
5459.52824762263
 21
-343.6453782660909
 31
0.0000000001127424
  0
LINE
  5
BC42
330
18
100
AcDbEntity
  8
01
100
AcDbLine
 10
5445.908988661065
 20
-337.8807580289453
 30
0.0000000001127424
 11
5459.908992310112
 21
-343.6453782660905
 31
0.0000000001127424
  0
ARC
  5
BC43
330
18
100
AcDbEntity
  8
01
100
AcDbCircle
 10
5459.5282474264
 20
-344.5700583910669
 30
0.0000000001127424
 40
0.9999999999999338
100
AcDbArc
 50
0.0
 51
67.62016990094347
  0
ARC
  5
BC44
330
18
100
AcDbEntity
  8
01
100
AcDbCircle
 10
5321.528351708214
 20
-351.4937745012684
 30
0.0000000001127424
 40
1.000104282018862
100
AcDbArc
 50
179.9988391915757
 51
246.5694058356213
  0
LINE
  5
BC45
330
18
100
AcDbEntity
  8
01
100
AcDbLine
 10
5320.5282474264
 20
-351.4937542392271
 30
0.0000000001127424
 11
5320.5282474264
 21
-350.7770371446344
 31
0.0000000001127424
  0
ARC
  5
BC46
330
18
100
AcDbEntity
  8
01
100
AcDbCircle
 10
5321.509537206086
 20
-350.7407583722928
 30
0.0000000001127424
 40
0.9812905103997694
100
AcDbArc
 50
180.0699218311317
 51
249.6221424422634
  0
LINE
  5
BC47
330
18
100
AcDbEntity
  8
01
100
AcDbLine
 10
5321.53508530516
 20
-351.6553453582136
 30
0.0000000001127424
 11
5459.528247621934
 21
-351.6553453582154
 31
0.0000000001127424
  0
ARC
  5
BC48
330
18
100
AcDbEntity
  8
01
100
AcDbCircle
 10
5459.528247426402
 20
-350.730665233238
 30
0.0000000001127424
 40
0.9999999999985999
100
AcDbArc
 50
292.3798300990566
 51
0.0000000000521102
  0
LINE
  5
BC49
330
18
100
AcDbEntity
  8
01
100
AcDbLine
 10
5445.908988661065
 20
-357.4199655953583
 30
0.0000000001127424
 11
5459.908992310113
 21
-351.6553453582131
 31
0.0000000001127424
  0
ARC
  5
BC4A
330
18
100
AcDbEntity
  8
01
100
AcDbCircle
 10
5335.528247436072
 20
-357.5608373744952
 30
0.0000000001127424
 40
0.9996992805729803
100
AcDbArc
 50
246.5708171639681
 51
293.4293258116228
  0
LINE
  5
BC4B
330
18
100
AcDbEntity
  8
01
100
AcDbLine
 10
5335.673725451901
 20
-357.5606354157638
 30
0.0000000001127424
 11
5335.764448662741
 21
-357.5514359292719
 31
0.0000000001127424
  0
LINE
  5
BC4C
330
18
100
AcDbEntity
  8
01
100
AcDbLine
 10
5320.5282474264
 20
-350.7419559057397
 30
0.0000000001127424
 11
5320.5282474264
 21
-344.5587677636375
 31
0.0000000001127424
  0
LINE
  5
BC4D
330
18
100
AcDbEntity
  8
01
100
AcDbLine
 10
5460.5282474264
 20
-344.5700583910674
 30
0.0000000001127424
 11
5460.5282474264
 21
-350.7306652332371
 31
0.0000000001127424
  0
ARC
  5
BC4E
330
18
100
AcDbEntity
  8
01
100
AcDbCircle
 10
5458.556467540256
 20
-134.6222592921175
 30
0.0000000001127424
 40
1.971511162003165
100
AcDbArc
 50
0.4269422437928106
 51
89.57012747548636
  0
LINE
  5
BC4F
330
18
100
AcDbEntity
  8
01
100
AcDbLine
 10
5460.508374321988
 20
-134.3626416504783
 30
0.0000000001127424
 11
5460.514469031385
 21
-134.4102896308889
 31
0.0000000001127424
  0
ARC
  5
BC50
330
18
100
AcDbEntity
  8
01
100
AcDbCircle
 10
5458.555789803814
 20
-160.6777873575878
 30
0.0000000001127424
 40
1.972343314243076
100
AcDbArc
 50
270.1112511074134
 51
359.8887339797374
  0
ARC
  5
BC51
330
18
100
AcDbEntity
  8
01
100
AcDbCircle
 10
5322.501402008133
 20
-160.6773296954041
 30
0.0000000001127424
 40
1.972803857174158
100
AcDbArc
 50
180.1318350548995
 51
269.881495952432
  0
LINE
  5
BC52
330
18
100
AcDbEntity
  8
01
100
AcDbLine
 10
5350.528363766145
 20
-106.6503618131808
 30
0.0000000001127424
 11
5320.528363766145
 21
-106.6503618131808
 31
0.0000000001127424
  0
LINE
  5
BC53
330
18
100
AcDbEntity
  8
01
100
AcDbLine
 10
5320.528363766145
 20
-106.6503618131808
 30
0.0000000001127424
 11
5320.528363766145
 21
-160.6503618131808
 31
0.0000000001127424
  0
LINE
  5
BC54
330
18
100
AcDbEntity
  8
01
100
AcDbLine
 10
5360.528368068054
 20
-132.6504045343416
 30
0.0000000001127424
 11
5458.571259040372
 21
-132.6508036184012
 31
0.0000000001127424
  0
ARC
  5
BC55
330
18
100
AcDbEntity
  8
01
100
AcDbCircle
 10
5360.528363766145
 20
-122.6504045343425
 30
0.0000000001127424
 40
10.0
100
AcDbArc
 50
180.0
 51
270.0000246481283
  0
LINE
  5
BC56
330
18
100
AcDbEntity
  8
01
100
AcDbLine
 10
5322.497321688825
 20
-162.6501293329437
 30
0.0000000001127424
 11
5458.559619496715
 21
-162.650126953776
 31
0.0000000001127424
  0
LINE
  5
BC57
330
18
100
AcDbEntity
  8
01
100
AcDbLine
 10
5460.528363766145
 20
-134.6503624281525
 30
0.0000000001127424
 11
5460.528129399006
 21
-160.6816175638458
 31
0.0000000001127424
  0
LINE
  5
BC58
330
18
100
AcDbEntity
  8
01
100
AcDbLine
 10
5460.527843122963
 20
-134.6054800077175
 30
0.0000000001127424
 11
5460.528111155242
 21
-134.6191052526167
 31
0.0000000001127424
  0
LINE
  5
BC59
330
18
100
AcDbEntity
  8
01
100
AcDbLine
 10
5460.508563825382
 20
-134.373108969817
 30
0.0000000001127424
 11
5460.51508693385
 21
-134.4233549971407
 31
0.0000000001127424
  0
LINE
  5
BC5A
330
18
100
AcDbEntity
  8
01
100
AcDbLine
 10
5249.908996310111
 20
-351.6553454359437
 30
0.0000000001127424
 11
5235.945858998427
 21
-357.4101685938858
 31
0.0000000001127424
  0
ARC
  5
BC5B
330
18
100
AcDbEntity
  8
01
100
AcDbCircle
 10
5235.56480937904
 20
-356.4856140051443
 30
0.0000000001127424
 40
1.0
100
AcDbArc
 50
271.4999999999897
 51
292.3987136596493
  0
LINE
  5
BC5C
330
18
100
AcDbEntity
  8
01
100
AcDbLine
 10
5242.910245732931
 20
-354.5371403428107
 30
0.0000000001127424
 11
5242.888333811676
 21
-354.5461963421167
 31
0.0000000001127424
  0
LINE
  5
BC5D
330
18
100
AcDbEntity
  8
01
100
AcDbLine
 10
5194.528251426399
 20
-336.7401868915258
 30
0.0000000001127424
 11
5194.528251426399
 21
-358.5605367327789
 31
0.0000000001127424
  0
ARC
  5
BC5E
330
18
100
AcDbEntity
  8
01
100
AcDbCircle
 10
5249.528251426399
 20
-350.7306653109672
 30
0.0000000001127424
 40
0.9999999999998993
100
AcDbArc
 50
292.3798300990566
 51
0.0
  0
ARC
  5
BC5F
330
18
100
AcDbEntity
  8
01
100
AcDbCircle
 10
5249.528251426393
 20
-344.5700584687993
 30
0.0000000001127424
 40
1.000000000005966
100
AcDbArc
 50
0.0000000001042204
 51
67.6201699006617
  0
LINE
  5
BC60
330
18
100
AcDbEntity
  8
01
100
AcDbLine
 10
5250.528251426399
 20
-344.5700584687975
 30
0.0000000001127424
 11
5250.528251426399
 21
-350.7306653109663
 31
0.0000000001127424
  0
LINE
  5
BC61
330
18
100
AcDbEntity
  8
01
100
AcDbLine
 10
5445.114150203772
 20
-147.6503618131808
 30
0.0000000001127424
 11
5336.528363766145
 21
-147.6503618131808
 31
0.0000000001127424
  0
ARC
  5
BC62
330
18
100
AcDbEntity
  8
01
100
AcDbCircle
 10
5336.528363766145
 20
-146.6503618131808
 30
0.0000000001127424
 40
1.0
100
AcDbArc
 50
180.0
 51
270.0
  0
LINE
  5
BC63
330
18
100
AcDbEntity
  8
01
100
AcDbLine
 10
5459.718738525895
 20
-161.8407341738046
 30
0.0000000001127424
 11
5445.821256984958
 21
-147.9432550319946
 31
0.0000000001127424
  0
LINE
  5
BC64
330
18
100
AcDbEntity
  8
01
100
AcDbLine
 10
5445.821256984958
 20
-147.3574685943675
 30
0.0000000001127424
 11
5459.718740604681
 21
-133.4599849746449
 31
0.0000000001127424
  0
LINE
  5
BC65
330
18
100
AcDbEntity
  8
01
100
AcDbLine
 10
5338.175763861975
 20
-357.5031104387648
 30
0.0000000001127424
 11
5336.528247426402
 21
-357.5031104884155
 31
0.0000000001127424
  0
LINE
  5
BC66
330
18
100
AcDbEntity
  8
01
100
AcDbLine
 10
5338.176045054795
 20
-337.7977407844563
 30
0.0000000001127424
 11
5336.5282474264
 21
-337.7976131359072
 31
0.0000000001127424
  0
LINE
  5
BC67
330
18
100
AcDbEntity
  8
01
100
AcDbLine
 10
5249.908996310111
 20
-343.6453781883602
 30
0.0000000001127424
 11
5235.945858998427
 21
-337.890555030418
 31
0.0000000001127424
  0
ARC
  5
BC68
330
18
100
AcDbEntity
  8
01
100
AcDbCircle
 10
5235.56480937904
 20
-338.8151096191596
 30
0.0000000001127424
 40
1.0
100
AcDbArc
 50
67.60128634035071
 51
88.5000000000103
  0
LINE
  5
BC69
330
18
100
AcDbEntity
  8
01
100
AcDbLine
 10
5235.590986327347
 20
-337.8154522941841
 30
0.0000000001127424
 11
5194.528251429975
 21
-336.7401867387453
 31
0.0000000001127424
  0
LINE
  5
BC6A
330
18
100
AcDbEntity
  8
01
100
AcDbLine
 10
5194.528251426399
 20
-352.1517085073629
 30
0.0000000001127424
 11
5249.638363334361
 21
-351.4123013563858
 31
0.0000000001127424
  0
LINE
  5
BC6B
330
18
100
AcDbEntity
  8
01
100
AcDbLine
 10
5194.528251426399
 20
-343.1503618121524
 30
0.0000000001127424
 11
5249.537398306004
 21
-343.8870914578615
 31
0.0000000001127424
  0
LINE
  5
BC6C
330
18
100
AcDbEntity
  8
01
100
AcDbLine
 10
5350.528363766145
 20
-106.6503618131808
 30
0.0000000001127424
 11
5350.528363766145
 21
-122.6504045343425
 31
0.0000000001127424
  0
LINE
  5
BC6D
330
18
100
AcDbEntity
  8
01
100
AcDbLine
 10
5335.528363766145
 20
-146.6503618131808
 30
0.0000000001127424
 11
5335.528363766145
 21
-106.6503618131808
 31
0.0000000001127424
  0
LINE
  5
BC6E
330
18
100
AcDbEntity
  8
01
100
AcDbLine
 10
5321.106581317539
 20
-162.0724749566478
 30
0.0000000001127424
 11
5335.821264566292
 21
-147.3574761756188
 31
0.0000000001127424
  0
ARC
  5
BC6F
330
18
100
AcDbEntity
  8
01
100
AcDbCircle
 10
5335.526796067495
 20
-357.4984817327999
 30
0.0000000001127424
 40
0.9964908443884815
100
AcDbArc
 50
270.1174857674442
 51
293.5300073527688
  0
ARC
  5
BC70
330
18
100
AcDbEntity
  8
01
100
AcDbCircle
 10
5335.526948591406
 20
-357.4983896410585
 30
0.0000000001127424
 40
0.9965826348847355
100
AcDbArc
 50
246.6160552239446
 51
270.1087059861845
  0
ARC
  5
BC72
330
18
100
AcDbEntity
  8
01
100
AcDbCircle
 10
5335.523979746034
 20
-357.3557078146017
 30
0.0000000001127424
 40
1.003653990277705
100
AcDbArc
 50
247.061809378403
 51
293.3829008827217
  0
LINE
  5
BC76
330
18
100
AcDbEntity
  8
01
100
AcDbLine
 10
5194.528251441341
 20
-358.5605322699321
 30
0.0000000001127424
 11
5197.235514643319
 21
-358.4949707186306
 31
0.0000000001127424
  0
LINE
  5
BC77
330
18
100
AcDbEntity
  8
01
100
AcDbLine
 10
5202.835510663354
 20
-358.3593603016498
 30
0.0000000001127424
 11
5203.128250636384
 21
-358.3522714189494
 31
0.0000000001127424
  0
LINE
  5
BC78
330
18
100
AcDbEntity
  8
01
100
AcDbLine
 10
5203.12824821525
 20
-358.3522714775791
 30
0.0000000001127424
 11
5235.590986327347
 21
-357.4852713301198
 31
0.0000000001127424
  0
ARC
  5
BC7B
330
18
100
AcDbEntity
  8
01
100
AcDbCircle
 10
5458.556467540256
 20
-20.67846433424432
 30
0.0000000001127424
 40
1.971511162003165
100
AcDbArc
 50
270.4298725245137
 51
359.5730577562072
  0
LINE
  5
BC7C
330
18
100
AcDbEntity
  8
01
100
AcDbLine
 10
5460.508374321988
 20
-20.93808197588345
 30
0.0000000001127424
 11
5460.514469031385
 21
-20.89043399547285
 31
0.0000000001127424
  0
ARC
  5
BC7D
330
18
100
AcDbEntity
  8
01
100
AcDbCircle
 10
5458.555789803814
 20
5.377063731225974
 30
0.0000000001127424
 40
1.972343314243076
100
AcDbArc
 50
0.1112660202626239
 51
89.88874889258662
  0
ARC
  5
BC7E
330
18
100
AcDbEntity
  8
01
100
AcDbCircle
 10
5322.501402008133
 20
5.376606069042339
 30
0.0000000001127424
 40
1.972803857174158
100
AcDbArc
 50
90.11850404756802
 51
179.8681649451005
  0
LINE
  5
BC7F
330
18
100
AcDbEntity
  8
01
100
AcDbLine
 10
5350.528363766145
 20
-48.65036181318095
 30
0.0000000001127424
 11
5338.028375731004
 21
-48.65036181318094
 31
0.0000000001127424
  0
LINE
  5
BC80
330
18
100
AcDbEntity
  8
01
100
AcDbLine
 10
5320.528363766145
 20
-48.65036181318095
 30
0.0000000001127424
 11
5320.528363766145
 21
5.34963818681905
 31
0.0000000001127424
  0
LINE
  5
BC81
330
18
100
AcDbEntity
  8
01
100
AcDbLine
 10
5360.528368068054
 20
-22.6503190920202
 30
0.0000000001127424
 11
5458.571259040372
 21
-22.64992000796059
 31
0.0000000001127424
  0
ARC
  5
BC82
330
18
100
AcDbEntity
  8
01
100
AcDbCircle
 10
5360.528363766145
 20
-32.65031909201929
 30
0.0000000001127424
 40
10.0
100
AcDbArc
 50
89.99997535187165
 51
180.0
  0
LINE
  5
BC83
330
18
100
AcDbEntity
  8
01
100
AcDbLine
 10
5322.497321688825
 20
7.349405706581877
 30
0.0000000001127424
 11
5458.559619496715
 21
7.349403327414223
 31
0.0000000001127424
  0
LINE
  5
BC84
330
18
100
AcDbEntity
  8
01
100
AcDbLine
 10
5460.528363766145
 20
-20.65036119820928
 30
0.0000000001127424
 11
5460.528129399006
 21
5.380893937484018
 31
0.0000000001127424
  0
LINE
  5
BC85
330
18
100
AcDbEntity
  8
01
100
AcDbLine
 10
5460.527843122963
 20
-20.69524361864427
 30
0.0000000001127424
 11
5460.528111155242
 21
-20.68161837374504
 31
0.0000000001127424
  0
LINE
  5
BC86
330
18
100
AcDbEntity
  8
01
100
AcDbLine
 10
5460.508563825382
 20
-20.92761465654479
 30
0.0000000001127424
 11
5460.51508693385
 21
-20.87736862922105
 31
0.0000000001127424
  0
LINE
  5
BC87
330
18
100
AcDbEntity
  8
01
100
AcDbLine
 10
5445.114150203772
 20
-7.65036181318095
 30
0.0000000001127424
 11
5336.528363766145
 21
-7.65036181318095
 31
0.0000000001127424
  0
ARC
  5
BC88
330
18
100
AcDbEntity
  8
01
100
AcDbCircle
 10
5336.528363766145
 20
-8.65036181318095
 30
0.0000000001127424
 40
1.0
100
AcDbArc
 50
90.0
 51
180.0
  0
LINE
  5
BC89
330
18
100
AcDbEntity
  8
01
100
AcDbLine
 10
5459.718738525895
 20
6.540010547442819
 30
0.0000000001127424
 11
5445.821256984958
 21
-7.357468594367162
 31
0.0000000001127424
  0
LINE
  5
BC8A
330
18
100
AcDbEntity
  8
01
100
AcDbLine
 10
5445.821256984958
 20
-7.943255031994283
 30
0.0000000001127424
 11
5459.718740604681
 21
-21.84073865171689
 31
0.0000000001127424
  0
LINE
  5
BC8B
330
18
100
AcDbEntity
  8
01
100
AcDbLine
 10
5350.528363766145
 20
-48.65036181318095
 30
0.0000000001127424
 11
5350.528363766145
 21
-32.65031909201929
 31
0.0000000001127424
  0
LINE
  5
BC8C
330
18
100
AcDbEntity
  8
01
100
AcDbLine
 10
5335.528363766145
 20
-8.65036181318095
 30
0.0000000001127424
 11
5335.528363766145
 21
-35.65166051527535
 31
0.0000000001127424
  0
LINE
  5
BC8D
330
18
100
AcDbEntity
  8
01
100
AcDbLine
 10
5321.106581317539
 20
6.771751330286008
 30
0.0000000001127424
 11
5335.821264566292
 21
-7.943247450742945
 31
0.0000000001127424
  0
LINE
  5
BC8E
330
18
100
AcDbEntity
  8
01
100
AcDbLine
 10
4992.880752257053
 20
-337.7976131855352
 30
0.0000000001127424
 11
4885.528260860469
 21
-337.80543947176
 31
0.0000000001127424
  0
LINE
  5
BC8F
330
18
100
AcDbEntity
  8
01
100
AcDbLine
 10
4995.384478227021
 20
-337.7440865708553
 30
0.0000000001127424
 11
4994.528255426399
 21
-337.7976131359072
 31
0.0000000001127424
  0
LINE
  5
BC90
330
18
100
AcDbEntity
  8
01
100
AcDbLine
 10
4995.808822003944
 20
-337.8098069880451
 30
0.0000000001127424
 11
4995.80880627006
 21
-337.8098007068969
 31
0.0000000001127424
  0
LINE
  5
BC91
330
18
100
AcDbEntity
  8
01
100
AcDbLine
 10
4996.277696989609
 20
-338.0004167919368
 30
0.0000000001127424
 11
4995.823467570395
 21
-337.8157607894517
 31
0.0000000001127424
  0
ARC
  5
BC92
330
18
100
AcDbEntity
  8
01
100
AcDbCircle
 10
4995.446871189604
 20
-338.7421382319534
 30
0.0000000001127424
 40
1.0
100
AcDbArc
 50
67.87698666879525
 51
93.57717691356511
  0
LINE
  5
BC93
330
18
100
AcDbEntity
  8
01
100
AcDbLine
 10
4885.528260863541
 20
-357.4952841523876
 30
0.0000000001127424
 11
4992.880738990825
 21
-357.5031104387648
 31
0.0000000001127424
  0
LINE
  5
BC94
330
18
100
AcDbEntity
  8
01
100
AcDbLine
 10
4995.808822003944
 20
-357.4909166362598
 30
0.0000000001127424
 11
4996.277696991649
 21
-357.3003068315383
 31
0.0000000001127424
  0
LINE
  5
BC95
330
18
100
AcDbEntity
  8
01
100
AcDbLine
 10
4885.156192211103
 20
-337.8772323530278
 30
0.0000000001127424
 11
4885.147514196906
 21
-337.8807580415031
 31
0.0000000001127424
  0
LINE
  5
BC96
330
18
100
AcDbEntity
  8
01
100
AcDbLine
 10
4885.528254963651
 20
-337.8054394712907
 30
0.0000000001127424
 11
4885.190383747172
 21
-337.8642474764123
 31
0.0000000001127424
  0
LINE
  5
BC97
330
18
100
AcDbEntity
  8
01
100
AcDbLine
 10
4885.168789708763
 20
-357.4284420505245
 30
0.0000000001127424
 11
4885.528254963651
 21
-357.4952841367298
 31
0.0000000001127424
  0
LINE
  5
BC98
330
18
100
AcDbEntity
  8
01
100
AcDbLine
 10
4994.528255426398
 20
-357.5031104884155
 30
0.0000000001127424
 11
4995.292139522458
 21
-357.5508645212798
 31
0.0000000001127424
  0
LINE
  5
BC99
330
18
100
AcDbEntity
  8
01
100
AcDbLine
 10
4995.382777856251
 20
-357.5606354410328
 30
0.0000000001127424
 11
4995.807853693757
 21
-357.4913026226212
 31
0.0000000001127424
  0
LINE
  5
BC9A
330
18
100
AcDbEntity
  8
01
100
AcDbLine
 10
5009.888660619758
 20
-351.6606364137727
 30
0.0000000001127424
 11
5009.52141754764
 21
-351.6553453582136
 31
0.0000000001127424
  0
LINE
  5
BC9B
330
18
100
AcDbEntity
  8
01
100
AcDbLine
 10
5009.888660619768
 20
-343.6400872103594
 30
0.0000000001127424
 11
5009.521417554843
 21
-343.6453782660905
 31
0.0000000001127424
  0
LINE
  5
BC9C
330
18
100
AcDbEntity
  8
01
100
AcDbLine
 10
4996.277698984154
 20
-338.0004118972287
 30
0.0000000001127424
 11
5009.888660619768
 21
-343.6400872103594
 31
0.0000000001127424
  0
LINE
  5
BC9D
330
18
100
AcDbEntity
  8
01
100
AcDbLine
 10
4996.277696989165
 20
-357.3003068325573
 30
0.0000000001127424
 11
5009.888660619758
 21
-351.6606364137727
 31
0.0000000001127424
  0
LINE
  5
BC9E
330
18
100
AcDbEntity
  8
01
100
AcDbLine
 10
4995.925751131184
 20
-336.8226099508919
 30
0.0000000001127424
 11
5009.925830497488
 21
-342.8893110096241
 31
0.0000000001127424
  0
ARC
  5
BC9F
330
18
100
AcDbEntity
  8
01
100
AcDbCircle
 10
4995.528255426369
 20
-337.7398862034719
 30
0.0000000001127424
 40
0.9996992342170329
100
AcDbArc
 50
66.57081661478308
 51
113.4293273746714
  0
LINE
  5
BCA0
330
18
100
AcDbEntity
  8
01
100
AcDbLine
 10
4992.880457798004
 20
-337.7977407844563
 30
0.0000000001127424
 11
4995.130757416355
 21
-336.8226109498377
 31
0.0000000001127424
  0
LINE
  5
BCA1
330
18
100
AcDbEntity
  8
01
100
AcDbLine
 10
4992.880444527707
 20
-357.5029828388318
 30
0.0000000001127424
 11
4995.130757413321
 21
-358.4781126815132
 31
0.0000000001127424
  0
LINE
  5
BCA2
330
18
100
AcDbEntity
  8
01
100
AcDbLine
 10
4995.925751131184
 20
-358.478113673419
 30
0.0000000001127424
 11
5009.925830497489
 21
-352.4114126146809
 31
0.0000000001127424
  0
ARC
  5
BCA3
330
18
100
AcDbEntity
  8
01
100
AcDbCircle
 10
5009.528151144586
 20
-343.8069491230357
 30
0.0000000001127424
 40
1.000104282017655
100
AcDbArc
 50
359.9988391915235
 51
66.56940583567814
  0
LINE
  5
BCA4
330
18
100
AcDbEntity
  8
01
100
AcDbLine
 10
5010.528255426399
 20
-343.8069693850783
 30
0.0000000001127424
 11
5010.528255426399
 21
-344.5236865098585
 31
0.0000000001127424
  0
ARC
  5
BCA5
330
18
100
AcDbEntity
  8
01
100
AcDbCircle
 10
5009.546965646602
 20
-344.5599652518557
 30
0.0000000001127424
 40
0.981290510456941
100
AcDbArc
 50
0.0699191902886285
 51
69.62214243598176
  0
LINE
  5
BCA6
330
18
100
AcDbEntity
  8
01
100
AcDbLine
 10
5009.521417554843
 20
-343.6453782660905
 30
0.0000000001127424
 11
4871.52825523017
 21
-343.6453782660909
 31
0.0000000001127424
  0
LINE
  5
BCA7
330
18
100
AcDbEntity
  8
01
100
AcDbLine
 10
4885.147514191735
 20
-337.8807580289453
 30
0.0000000001127424
 11
4871.147510542688
 21
-343.6453782660905
 31
0.0000000001127424
  0
ARC
  5
BCA8
330
18
100
AcDbEntity
  8
01
100
AcDbCircle
 10
4871.528255426399
 20
-344.5700583910669
 30
0.0000000001127424
 40
0.9999999999999338
100
AcDbArc
 50
112.3798300990565
 51
180.0
  0
ARC
  5
BCA9
330
18
100
AcDbEntity
  8
01
100
AcDbCircle
 10
5009.528151144586
 20
-351.4937745012684
 30
0.0000000001127424
 40
1.000104282018862
100
AcDbArc
 50
293.4305941643787
 51
0.001160808424315
  0
LINE
  5
BCAA
330
18
100
AcDbEntity
  8
01
100
AcDbLine
 10
5010.528255426399
 20
-351.4937542392271
 30
0.0000000001127424
 11
5010.528255426399
 21
-350.7770371446344
 31
0.0000000001127424
  0
ARC
  5
BCAB
330
18
100
AcDbEntity
  8
01
100
AcDbCircle
 10
5009.546965646714
 20
-350.7407583722928
 30
0.0000000001127424
 40
0.9812905103997694
100
AcDbArc
 50
290.3778575577366
 51
359.9300781688682
  0
LINE
  5
BCAC
330
18
100
AcDbEntity
  8
01
100
AcDbLine
 10
5009.52141754764
 20
-351.6553453582136
 30
0.0000000001127424
 11
4871.528255230865
 21
-351.6553453582154
 31
0.0000000001127424
  0
ARC
  5
BCAD
330
18
100
AcDbEntity
  8
01
100
AcDbCircle
 10
4871.528255426398
 20
-350.730665233238
 30
0.0000000001127424
 40
0.9999999999985999
100
AcDbArc
 50
179.9999999999479
 51
247.6201699009435
  0
LINE
  5
BCAE
330
18
100
AcDbEntity
  8
01
100
AcDbLine
 10
4885.147514191735
 20
-357.4199655953583
 30
0.0000000001127424
 11
4871.147510542687
 21
-351.6553453582131
 31
0.0000000001127424
  0
ARC
  5
BCAF
330
18
100
AcDbEntity
  8
01
100
AcDbCircle
 10
4995.528255416728
 20
-357.5608373744952
 30
0.0000000001127424
 40
0.9996992805729803
100
AcDbArc
 50
246.5706741883772
 51
293.4291828360319
  0
LINE
  5
BCB0
330
18
100
AcDbEntity
  8
01
100
AcDbLine
 10
4995.382777400899
 20
-357.5606354157638
 30
0.0000000001127424
 11
4995.292054190058
 21
-357.5514359292719
 31
0.0000000001127424
  0
LINE
  5
BCB1
330
18
100
AcDbEntity
  8
01
100
AcDbLine
 10
5010.528255426399
 20
-350.7419559057397
 30
0.0000000001127424
 11
5010.528255426399
 21
-344.5587677636375
 31
0.0000000001127424
  0
LINE
  5
BCB2
330
18
100
AcDbEntity
  8
01
100
AcDbLine
 10
4870.528255426399
 20
-344.5700583910674
 30
0.0000000001127424
 11
4870.528255426399
 21
-350.7306652332371
 31
0.0000000001127424
  0
LINE
  5
BCB3
330
18
100
AcDbEntity
  8
01
100
AcDbLine
 10
5081.147506542688
 20
-351.6553454359437
 30
0.0000000001127424
 11
5095.110643854372
 21
-357.4101685938858
 31
0.0000000001127424
  0
ARC
  5
BCB4
330
18
100
AcDbEntity
  8
01
100
AcDbCircle
 10
5095.491693473759
 20
-356.4856140051443
 30
0.0000000001127424
 40
1.0
100
AcDbArc
 50
247.6012863403507
 51
268.5000000000103
  0
LINE
  5
BCB5
330
18
100
AcDbEntity
  8
01
100
AcDbLine
 10
5088.146257119868
 20
-354.5371403428107
 30
0.0000000001127424
 11
5088.168169041123
 21
-354.5461963421167
 31
0.0000000001127424
  0
LINE
  5
BCB6
330
18
100
AcDbEntity
  8
01
100
AcDbLine
 10
5136.5282514264
 20
-336.7401868915258
 30
0.0000000001127424
 11
5136.5282514264
 21
-358.5605367327789
 31
0.0000000001127424
  0
ARC
  5
BCB7
330
18
100
AcDbEntity
  8
01
100
AcDbCircle
 10
5081.5282514264
 20
-350.7306653109672
 30
0.0000000001127424
 40
0.9999999999998993
100
AcDbArc
 50
180.0
 51
247.6201699009435
  0
ARC
  5
BCB8
330
18
100
AcDbEntity
  8
01
100
AcDbCircle
 10
5081.528251426406
 20
-344.5700584687993
 30
0.0000000001127424
 40
1.000000000005966
100
AcDbArc
 50
112.3798300993383
 51
179.9999999998958
  0
LINE
  5
BCB9
330
18
100
AcDbEntity
  8
01
100
AcDbLine
 10
5080.5282514264
 20
-344.5700584687975
 30
0.0000000001127424
 11
5080.5282514264
 21
-350.7306653109663
 31
0.0000000001127424
  0
LINE
  5
BCBA
330
18
100
AcDbEntity
  8
01
100
AcDbLine
 10
4992.880738990825
 20
-357.5031104387648
 30
0.0000000001127424
 11
4994.528255426398
 21
-357.5031104884155
 31
0.0000000001127424
  0
LINE
  5
BCBB
330
18
100
AcDbEntity
  8
01
100
AcDbLine
 10
4992.880457798004
 20
-337.7977407844563
 30
0.0000000001127424
 11
4994.528255426399
 21
-337.7976131359072
 31
0.0000000001127424
  0
LINE
  5
BCBC
330
18
100
AcDbEntity
  8
01
100
AcDbLine
 10
5081.147506542688
 20
-343.6453781883602
 30
0.0000000001127424
 11
5095.110643854372
 21
-337.890555030418
 31
0.0000000001127424
  0
ARC
  5
BCBD
330
18
100
AcDbEntity
  8
01
100
AcDbCircle
 10
5095.491693473759
 20
-338.8151096191596
 30
0.0000000001127424
 40
1.0
100
AcDbArc
 50
91.49999999998968
 51
112.3987136596493
  0
LINE
  5
BCBE
330
18
100
AcDbEntity
  8
01
100
AcDbLine
 10
5095.465516525452
 20
-337.8154522941841
 30
0.0000000001127424
 11
5136.528251422824
 21
-336.7401867387453
 31
0.0000000001127424
  0
LINE
  5
BCBF
330
18
100
AcDbEntity
  8
01
100
AcDbLine
 10
5136.5282514264
 20
-352.1517085073629
 30
0.0000000001127424
 11
5081.418139518438
 21
-351.4123013563858
 31
0.0000000001127424
  0
LINE
  5
BCC0
330
18
100
AcDbEntity
  8
01
100
AcDbLine
 10
5136.5282514264
 20
-343.1503618121524
 30
0.0000000001127424
 11
5081.519104546795
 21
-343.8870914578615
 31
0.0000000001127424
  0
ARC
  5
BCC1
330
18
100
AcDbEntity
  8
01
100
AcDbCircle
 10
4995.529706785305
 20
-357.4984817327999
 30
0.0000000001127424
 40
0.9964908443884815
100
AcDbArc
 50
246.4699926472311
 51
269.8825142325559
  0
ARC
  5
BCC2
330
18
100
AcDbEntity
  8
01
100
AcDbCircle
 10
4995.529554261394
 20
-357.4983896410585
 30
0.0000000001127424
 40
0.9965826348847355
100
AcDbArc
 50
269.8912940138155
 51
293.3839447760554
  0
ARC
  5
BCC4
330
18
100
AcDbEntity
  8
01
100
AcDbCircle
 10
4995.532523106766
 20
-357.3557078146017
 30
0.0000000001127424
 40
1.003653990277705
100
AcDbArc
 50
246.6170991172783
 51
292.938190621597
  0
LINE
  5
BCC8
330
18
100
AcDbEntity
  8
01
100
AcDbLine
 10
5136.528251411458
 20
-358.5605322699321
 30
0.0000000001127424
 11
5133.82098820948
 21
-358.4949707186306
 31
0.0000000001127424
  0
LINE
  5
BCC9
330
18
100
AcDbEntity
  8
01
100
AcDbLine
 10
5128.220992189445
 20
-358.3593603016498
 30
0.0000000001127424
 11
5127.928252216415
 21
-358.3522714189494
 31
0.0000000001127424
  0
LINE
  5
BCCA
330
18
100
AcDbEntity
  8
01
100
AcDbLine
 10
5127.928254637549
 20
-358.3522714775791
 30
0.0000000001127424
 11
5095.465516525452
 21
-357.4852713301198
 31
0.0000000001127424
  0
LINE
  5
BD63
330
18
100
AcDbEntity
  8
01
100
AcDbLine
 10
5333.028375731004
 20
-48.65036181318094
 30
0.0000000001127424
 11
5320.528363766145
 21
-48.65036181318095
 31
0.0000000001127424
  0
LINE
  5
BF97
330
18
100
AcDbEntity
  8
01
100
AcDbLine
 10
5335.5282474264
 20
-322.6503618121524
 30
0.0000000002254849
 11
5299.2282474264
 21
-322.6503618121524
 31
0.0000000002254849
1001
ACAD
1000
DSTYLE
1002
{
1070
     3
1000
φ<>
1070
    40
1040
1.3
1070
    45
1040
0.5
1002
}
  0
LINE
  5
BF98
330
18
100
AcDbEntity
  8
01
100
AcDbLine
 10
5335.5282474264
 20
-372.6503618121515
 30
0.0000000002254849
 11
5299.2282474264
 21
-372.6503618121515
 31
0.0000000002254849
1001
ACAD
1000
DSTYLE
1002
{
1070
     3
1000
φ<>
1070
    40
1040
1.3
1070
    45
1040
0.5
1002
}
  0
LINE
  5
BF99
330
18
100
AcDbEntity
  8
01
100
AcDbLine
 10
5300.5282474264
 20
-325.2503618121524
 30
0.0000000002254849
 11
5300.5282474264
 21
-370.0503618121514
 31
0.0000000002254849
1001
ACAD
1000
DSTYLE
1002
{
1070
     3
1000
φ<>
1070
    40
1040
1.3
1070
    45
1040
0.5
1002
}
  0
TEXT
  5
BF9D
330
18
100
AcDbEntity
  8
01
  6
CONTINUOUS
100
AcDbText
 10
5273.983075186085
 20
-135.0683467929504
 30
0.0000000001127424
 40
4.55
  1
材質：アルミ
100
AcDbText
  0
TEXT
  5
BF9E
330
18
100
AcDbEntity
  8
01
  6
CONTINUOUS
100
AcDbText
 10
5256.541408519419
 20
-142.6516801262838
 30
0.0000000001127424
 40
4.55
  1
仕上げ：各種仕上げ
100
AcDbText
  0
LINE
  5
BF9F
330
18
100
AcDbEntity
  8
01
100
AcDbLine
 10
5273.5282474264
 20
-319.6516808233864
 30
0.0000000002254849
 11
5273.5282474264
 21
-216.9301880405671
 31
0.0000000002254849
1001
ACAD
1000
DSTYLE
1002
{
1070
    40
1040
1.3
1070
    45
1040
0.5
1002
}
  0
LINE
  5
BFA0
330
18
100
AcDbEntity
  8
01
100
AcDbLine
 10
5284.5282474264
 20
-261.7803627740975
 30
0.0000000002254849
 11
5284.5282474264
 21
-216.9301880405671
 31
0.0000000002254849
1001
ACAD
1000
DSTYLE
1002
{
1070
    40
1040
1.3
1070
    45
1040
0.5
1002
}
  0
LINE
  5
BFA1
330
18
100
AcDbEntity
  8
01
100
AcDbLine
 10
5276.128247426401
 20
-218.2301880405671
 30
0.0000000002254849
 11
5281.9282474264
 21
-218.2301880405671
 31
0.0000000002254849
1001
ACAD
1000
DSTYLE
1002
{
1070
    40
1040
1.3
1070
    45
1040
0.5
1002
}
  0
LINE
  5
BFA5
330
18
100
AcDbEntity
  8
01
100
AcDbLine
 10
5353.5282474264
 20
-289.6516801252551
 30
0.0000000002254849
 11
5381.828247426401
 21
-289.6516801252551
 31
0.0000000002254849
1001
ACAD
1000
DSTYLE
1002
{
1070
    40
1040
1.3
1070
    45
1040
0.5
1002
}
  0
LINE
  5
BFA6
330
18
100
AcDbEntity
  8
01
100
AcDbLine
 10
5353.5282474264
 20
-363.6516801252556
 30
0.0000000002254849
 11
5381.828247426401
 21
-363.6516801252556
 31
0.0000000002254849
1001
ACAD
1000
DSTYLE
1002
{
1070
    40
1040
1.3
1070
    45
1040
0.5
1002
}
  0
LINE
  5
BFA7
330
18
100
AcDbEntity
  8
01
100
AcDbLine
 10
5380.5282474264
 20
-292.2516801252551
 30
0.0000000002254849
 11
5380.5282474264
 21
-361.0516801252555
 31
0.0000000002254849
1001
ACAD
1000
DSTYLE
1002
{
1070
    40
1040
1.3
1070
    45
1040
0.5
1002
}
  0
LINE
  5
BFAB
330
18
100
AcDbEntity
  8
01
100
AcDbLine
 10
5353.5282474264
 20
-289.6516801252551
 30
0.0000000002254849
 11
5353.5282474264
 21
-206.8503205725189
 31
0.0000000002254849
1001
ACAD
1000
DSTYLE
1002
{
1070
    40
1040
1.3
1070
    45
1040
0.5
1002
}
  0
LINE
  5
BFAC
330
18
100
AcDbEntity
  8
01
100
AcDbLine
 10
5284.5282474264
 20
-261.7803627740975
 30
0.0000000002254849
 11
5284.5282474264
 21
-206.8503205725189
 31
0.0000000002254849
1001
ACAD
1000
DSTYLE
1002
{
1070
    40
1040
1.3
1070
    45
1040
0.5
1002
}
  0
LINE
  5
BFAD
330
18
100
AcDbEntity
  8
01
100
AcDbLine
 10
5350.9282474264
 20
-208.1503205725189
 30
0.0000000002254849
 11
5287.128247426401
 21
-208.1503205725189
 31
0.0000000002254849
1001
ACAD
1000
DSTYLE
1002
{
1070
    40
1040
1.3
1070
    45
1040
0.5
1002
}
  0
LINE
  5
BFB1
330
18
100
AcDbEntity
  8
01
100
AcDbLine
 10
5284.5282474264
 20
-261.7803627740975
 30
0.0000000002254849
 11
5284.5282474264
 21
-216.9301880405671
 31
0.0000000002254849
1001
ACAD
1000
DSTYLE
1002
{
1070
    40
1040
1.3
1070
    45
1040
0.5
1002
}
  0
LINE
  5
BFB2
330
18
100
AcDbEntity
  8
01
100
AcDbLine
 10
5335.5282474264
 20
-297.6516801252551
 30
0.0000000002254849
 11
5335.5282474264
 21
-216.9301880405671
 31
0.0000000002254849
1001
ACAD
1000
DSTYLE
1002
{
1070
    40
1040
1.3
1070
    45
1040
0.5
1002
}
  0
LINE
  5
BFB3
330
18
100
AcDbEntity
  8
01
100
AcDbLine
 10
5287.128247426401
 20
-218.2301880405671
 30
0.0000000002254849
 11
5332.9282474264
 21
-218.2301880405671
 31
0.0000000002254849
1001
ACAD
1000
DSTYLE
1002
{
1070
    40
1040
1.3
1070
    45
1040
0.5
1002
}
  0
LINE
  5
BFB7
330
18
100
AcDbEntity
  8
01
100
AcDbLine
 10
5153.028363766145
 20
-267.6516801252556
 30
0.0000000002254849
 11
5153.028363766145
 21
-216.9301880405673
 31
0.0000000002254849
1001
ACAD
1000
DSTYLE
1002
{
1070
    40
1040
1.3
1070
    45
1040
0.5
1002
}
  0
LINE
  5
BFB8
330
18
100
AcDbEntity
  8
01
100
AcDbLine
 10
5178.028363766145
 20
-267.6516801252556
 30
0.0000000002254849
 11
5178.028363766145
 21
-216.9301880405673
 31
0.0000000002254849
1001
ACAD
1000
DSTYLE
1002
{
1070
    40
1040
1.3
1070
    45
1040
0.5
1002
}
  0
LINE
  5
BFB9
330
18
100
AcDbEntity
  8
01
100
AcDbLine
 10
5155.628363766145
 20
-218.2301880405673
 30
0.0000000002254849
 11
5175.428363766145
 21
-218.2301880405673
 31
0.0000000002254849
1001
ACAD
1000
DSTYLE
1002
{
1070
    40
1040
1.3
1070
    45
1040
0.5
1002
}
  0
LINE
  5
BFBD
330
18
100
AcDbEntity
  8
01
100
AcDbLine
 10
5171.330303369381
 20
-269.6512349808393
 30
0.0000000003382273
 11
5251.616434537589
 21
-269.6512349808393
 31
0.0000000003382273
1001
ACAD
1000
DSTYLE
1002
{
1070
    40
1040
1.3
1070
    45
1040
0.5
1002
}
  0
LINE
  5
BFBE
330
18
100
AcDbEntity
  8
01
100
AcDbLine
 10
5171.330303369381
 20
-383.6512349808393
 30
0.0000000003382273
 11
5251.616434537589
 21
-383.6512349808393
 31
0.0000000003382273
1001
ACAD
1000
DSTYLE
1002
{
1070
    40
1040
1.3
1070
    45
1040
0.5
1002
}
  0
LINE
  5
BFBF
330
18
100
AcDbEntity
  8
01
100
AcDbLine
 10
5250.316434537589
 20
-272.2512349808393
 30
0.0000000003382273
 11
5250.316434537589
 21
-381.0512349808393
 31
0.0000000003382273
1001
ACAD
1000
DSTYLE
1002
{
1070
    40
1040
1.3
1070
    45
1040
0.5
1002
}
  0
LINE
  5
BFC3
330
18
100
AcDbEntity
  8
01
100
AcDbLine
 10
5171.928363766145
 20
-261.7516801252557
 30
0.0000000003382273
 11
5260.980768703814
 21
-261.7516801252557
 31
0.0000000003382273
1001
ACAD
1000
DSTYLE
1002
{
1070
    40
1040
1.3
1070
    45
1040
0.5
1002
}
  0
LINE
  5
BFC4
330
18
100
AcDbEntity
  8
01
100
AcDbLine
 10
5171.855277961475
 20
-391.5512349808391
 30
0.0000000003382273
 11
5260.980768703814
 21
-391.5512349808392
 31
0.0000000003382273
1001
ACAD
1000
DSTYLE
1002
{
1070
    40
1040
1.3
1070
    45
1040
0.5
1002
}
  0
LINE
  5
BFC5
330
18
100
AcDbEntity
  8
01
100
AcDbLine
 10
5259.680768703814
 20
-264.3516801252558
 30
0.0000000003382273
 11
5259.680768703814
 21
-388.9512349808392
 31
0.0000000003382273
1001
ACAD
1000
DSTYLE
1002
{
1070
    40
1040
1.3
1070
    45
1040
0.5
1002
}
  0
LINE
  5
BFC9
330
18
100
AcDbEntity
  8
01
100
AcDbLine
 10
4975.528359766142
 20
-292.1516801252549
 30
0.0000000002254849
 11
4975.528359766142
 21
-263.3516801252549
 31
0.0000000002254849
1001
ACAD
1000
DSTYLE
1002
{
1070
     3
1000
φ<>
1070
    40
1040
1.3
1070
    45
1040
0.5
1070
   271
1070
     4
1070
   272
1070
     2
1002
}
  0
LINE
  5
BFCA
330
18
100
AcDbEntity
  8
01
100
AcDbLine
 10
5015.528359766142
 20
-292.1516801252549
 30
0.0000000002254849
 11
5015.528359766142
 21
-263.3516801252549
 31
0.0000000002254849
1001
ACAD
1000
DSTYLE
1002
{
1070
     3
1000
φ<>
1070
    40
1040
1.3
1070
    45
1040
0.5
1070
   271
1070
     4
1070
   272
1070
     2
1002
}
  0
LINE
  5
BFCB
330
18
100
AcDbEntity
  8
01
100
AcDbLine
 10
4978.128359766142
 20
-264.6516801252549
 30
0.0000000002254849
 11
5012.928359766142
 21
-264.6516801252549
 31
0.0000000002254849
1001
ACAD
1000
DSTYLE
1002
{
1070
     3
1000
φ<>
1070
    40
1040
1.3
1070
    45
1040
0.5
1070
   271
1070
     4
1070
   272
1070
     2
1002
}
  0
LINE
  5
BFCF
330
18
100
AcDbEntity
  8
01
100
AcDbLine
 10
5145.528363766147
 20
-272.1516801252549
 30
0.0000000002254849
 11
5145.528363766147
 21
-240.3516801252549
 31
0.0000000002254849
1001
ACAD
1000
DSTYLE
1002
{
1070
    40
1040
1.3
1070
    45
1040
0.5
1070
   341
1005
0
1002
}
  0
LINE
  5
BFD0
330
18
100
AcDbEntity
  8
01
100
AcDbLine
 10
5123.527978200427
 20
-287.6516851252538
 30
0.0000000002254849
 11
5123.527978200427
 21
-240.3516801252549
 31
0.0000000002254849
1001
ACAD
1000
DSTYLE
1002
{
1070
    40
1040
1.3
1070
    45
1040
0.5
1070
   341
1005
0
1002
}
  0
LINE
  5
BFD1
330
18
100
AcDbEntity
  8
01
100
AcDbLine
 10
5142.928363766147
 20
-241.6516801252549
 30
0.0000000002254849
 11
5126.127978200428
 21
-241.6516801252549
 31
0.0000000002254849
1001
ACAD
1000
DSTYLE
1002
{
1070
    40
1040
1.3
1070
    45
1040
0.5
1070
   341
1005
0
1002
}
  0
LINE
  5
BFD5
330
18
100
AcDbEntity
  8
01
100
AcDbLine
 10
5315.528247103941
 20
-292.1516801252549
 30
0.0000000002254849
 11
5315.528247103941
 21
-263.3516801252549
 31
0.0000000002254849
1001
ACAD
1000
DSTYLE
1002
{
1070
     3
1000
φ<>
1070
    40
1040
1.3
1070
    45
1040
0.5
1070
   271
1070
     4
1070
   272
1070
     2
1002
}
  0
LINE
  5
BFD6
330
18
100
AcDbEntity
  8
01
100
AcDbLine
 10
5355.528247103941
 20
-292.1516801252549
 30
0.0000000002254849
 11
5355.528247103941
 21
-263.3516801252549
 31
0.0000000002254849
1001
ACAD
1000
DSTYLE
1002
{
1070
     3
1000
φ<>
1070
    40
1040
1.3
1070
    45
1040
0.5
1070
   271
1070
     4
1070
   272
1070
     2
1002
}
  0
LINE
  5
BFD7
330
18
100
AcDbEntity
  8
01
100
AcDbLine
 10
5318.128247103941
 20
-264.6516801252549
 30
0.0000000002254849
 11
5352.928247103941
 21
-264.6516801252549
 31
0.0000000002254849
1001
ACAD
1000
DSTYLE
1002
{
1070
     3
1000
φ<>
1070
    40
1040
1.3
1070
    45
1040
0.5
1070
   271
1070
     4
1070
   272
1070
     2
1002
}
  0
LINE
  5
BFDB
330
18
100
AcDbEntity
  8
01
100
AcDbLine
 10
4975.528359766142
 20
-292.1516801252549
 30
0.0000000002254849
 11
4975.528359766142
 21
-263.3516801252549
 31
0.0000000002254849
1001
ACAD
1000
DSTYLE
1002
{
1070
     3
1000
φ<>
1070
    40
1040
1.3
1070
    45
1040
0.5
1070
   271
1070
     4
1070
   272
1070
     2
1002
}
  0
LINE
  5
BFDC
330
18
100
AcDbEntity
  8
01
100
AcDbLine
 10
5015.528359766142
 20
-292.1516801252549
 30
0.0000000002254849
 11
5015.528359766142
 21
-263.3516801252549
 31
0.0000000002254849
1001
ACAD
1000
DSTYLE
1002
{
1070
     3
1000
φ<>
1070
    40
1040
1.3
1070
    45
1040
0.5
1070
   271
1070
     4
1070
   272
1070
     2
1002
}
  0
LINE
  5
BFDD
330
18
100
AcDbEntity
  8
01
100
AcDbLine
 10
4978.128359766142
 20
-264.6516801252549
 30
0.0000000002254849
 11
5012.928359766142
 21
-264.6516801252549
 31
0.0000000002254849
1001
ACAD
1000
DSTYLE
1002
{
1070
     3
1000
φ<>
1070
    40
1040
1.3
1070
    45
1040
0.5
1070
   271
1070
     4
1070
   272
1070
     2
1002
}
  0
LINE
  5
BFE1
330
18
100
AcDbEntity
  8
01
100
AcDbLine
 10
5145.528363766147
 20
-272.1516801252549
 30
0.0000000002254849
 11
5145.528363766147
 21
-240.3516801252549
 31
0.0000000002254849
1001
ACAD
1000
DSTYLE
1002
{
1070
    40
1040
1.3
1070
    45
1040
0.5
1070
   341
1005
0
1002
}
  0
LINE
  5
BFE2
330
18
100
AcDbEntity
  8
01
100
AcDbLine
 10
5123.528338955135
 20
-289.031210300479
 30
0.0000000002254849
 11
5123.528338955135
 21
-240.3516801252549
 31
0.0000000002254849
1001
ACAD
1000
DSTYLE
1002
{
1070
    40
1040
1.3
1070
    45
1040
0.5
1070
   341
1005
0
1002
}
  0
LINE
  5
BFE3
330
18
100
AcDbEntity
  8
01
100
AcDbLine
 10
5142.928363766147
 20
-241.6516801252549
 30
0.0000000002254849
 11
5126.128338955135
 21
-241.6516801252549
 31
0.0000000002254849
1001
ACAD
1000
DSTYLE
1002
{
1070
    40
1040
1.3
1070
    45
1040
0.5
1070
   341
1005
0
1002
}
  0
LINE
  5
BFE7
330
18
100
AcDbEntity
  8
01
100
AcDbLine
 10
5185.528363766146
 20
-272.1516801252549
 30
0.0000000000564849
 11
5185.528363766146
 21
-240.3516801252549
 31
0.0000000000564849
1001
ACAD
1000
DSTYLE
1002
{
1070
    40
1040
1.3
1070
    45
1040
0.5
1070
   271
1070
     1
1070
   341
1005
0
1002
}
  0
LINE
  5
BFE8
330
18
100
AcDbEntity
  8
01
100
AcDbLine
 10
5193.696947455107
 20
-297.6516785575627
 30
0.0000000000564849
 11
5193.696947455107
 21
-240.3516801252549
 31
0.0000000000564849
1001
ACAD
1000
DSTYLE
1002
{
1070
    40
1040
1.3
1070
    45
1040
0.5
1070
   271
1070
     1
1070
   341
1005
0
1002
}
  0
LINE
  5
BFE9
330
18
100
AcDbEntity
  8
01
100
AcDbLine
 10
5188.128363766146
 20
-241.6516801252549
 30
0.0000000000564849
 11
5191.096947455107
 21
-241.6516801252549
 31
0.0000000000564849
1001
ACAD
1000
DSTYLE
1002
{
1070
    40
1040
1.3
1070
    45
1040
0.5
1070
   271
1070
     1
1070
   341
1005
0
1002
}
  0
LINE
  5
BFED
330
18
100
AcDbEntity
  8
01
100
AcDbLine
 10
5335.131518910775
 20
-358.4131639587121
 30
0.0000000001127424
 11
5334.581782887826
 21
-358.1737840758996
 31
0.0000000001127424
  0
LINE
  5
BFEE
330
18
100
AcDbEntity
  8
01
100
AcDbLine
 10
5334.581782887826
 20
-358.1737840758996
 30
0.0000000001127424
 11
5334.061542104135
 21
-357.9446733581261
 31
0.0000000001127424
  0
LINE
  5
BFEF
330
18
100
AcDbEntity
  8
01
100
AcDbLine
 10
5334.061542104135
 20
-357.9446733581261
 30
0.0000000001127424
 11
5333.59067876185
 21
-357.7346284972863
 31
0.0000000001127424
  0
LINE
  5
BFF0
330
18
100
AcDbEntity
  8
01
100
AcDbLine
 10
5333.59067876185
 20
-357.7346284972863
 30
0.0000000001127424
 11
5333.190021108041
 21
-357.5528734313683
 31
0.0000000001127424
  0
LINE
  5
BFF1
330
18
100
AcDbEntity
  8
01
100
AcDbLine
 10
5333.190021108041
 20
-357.5528734313683
 30
0.0000000001127424
 11
5332.880771230111
 21
-357.4088533508019
 31
0.0000000001127424
  0
LINE
  5
BFF2
330
18
100
AcDbEntity
  8
01
100
AcDbLine
 10
5332.880771230111
 20
-357.4088533508019
 30
0.0000000001127424
 11
5332.682582448373
 21
-357.3113878356652
 31
0.0000000001127424
  0
LINE
  5
BFF3
330
18
100
AcDbEntity
  8
01
100
AcDbLine
 10
5332.682582448373
 20
-357.3113878356652
 30
0.0000000001127424
 11
5332.610263417611
 21
-357.26728230588
 31
0.0000000001127424
  0
LINE
  5
BFF4
330
18
100
AcDbEntity
  8
01
100
AcDbLine
 10
5332.610263417611
 20
-357.26728230588
 30
0.0000000001127424
 11
5332.67018468226
 21
-357.2797945129113
 31
0.0000000001127424
  0
LINE
  5
BFF5
330
18
100
AcDbEntity
  8
01
100
AcDbLine
 10
5332.67018468226
 20
-357.2797945129113
 30
0.0000000001127424
 11
5332.858348439584
 21
-357.3477266418175
 31
0.0000000001127424
  0
LINE
  5
BFF6
330
18
100
AcDbEntity
  8
01
100
AcDbLine
 10
5332.858348439584
 20
-357.3477266418175
 30
0.0000000001127424
 11
5333.161319325814
 21
-357.4657991515832
 31
0.0000000001127424
  0
LINE
  5
BFF7
330
18
100
AcDbEntity
  8
01
100
AcDbLine
 10
5333.161319325814
 20
-357.4657991515832
 30
0.0000000001127424
 11
5333.559482167611
 21
-357.6260011779503
 31
0.0000000001127424
  0
LINE
  5
BFF8
330
18
100
AcDbEntity
  8
01
100
AcDbLine
 10
5333.559482167611
 20
-357.6260011779503
 30
0.0000000001127424
 11
5334.030665944467
 21
-357.8191774474816
 31
0.0000000001127424
  0
LINE
  5
BFF9
330
18
100
AcDbEntity
  8
01
100
AcDbLine
 10
5334.030665944467
 20
-357.8191774474816
 30
0.0000000001127424
 11
5334.5526614889
 21
-358.0360963927941
 31
0.0000000001127424
  0
LINE
  5
BFFA
330
18
100
AcDbEntity
  8
01
100
AcDbLine
 10
5334.5526614889
 20
-358.0360963927941
 30
0.0000000001127424
 11
5335.132976125131
 21
-358.2800691711144
 31
0.0000000001127424
  0
LINE
  5
BFFB
330
18
100
AcDbEntity
  8
01
100
AcDbLine
 10
5202.835510035932
 20
-358.3593601165448
 30
0.0000000001127424
 11
5202.770690699995
 21
-358.353812473837
 31
0.0000000001127424
  0
LINE
  5
BFFC
330
18
100
AcDbEntity
  8
01
100
AcDbLine
 10
5202.770690699995
 20
-358.353812473837
 30
0.0000000001127424
 11
5202.708297511518
 21
-358.3344267783796
 31
0.0000000001127424
  0
LINE
  5
BFFD
330
18
100
AcDbEntity
  8
01
100
AcDbLine
 10
5202.708297511518
 20
-358.3344267783796
 30
0.0000000001127424
 11
5202.651702662885
 21
-358.3020137725507
 31
0.0000000001127424
  0
LINE
  5
BFFE
330
18
100
AcDbEntity
  8
01
100
AcDbLine
 10
5202.651702662885
 20
-358.3020137725507
 30
0.0000000001127424
 11
5202.603484889448
 21
-358.2581238327657
 31
0.0000000001127424
  0
LINE
  5
BFFF
330
18
100
AcDbEntity
  8
01
100
AcDbLine
 10
5202.603484889448
 20
-358.2581238327657
 30
0.0000000001127424
 11
5202.565871974409
 21
-358.2049193559324
 31
0.0000000001127424
  0
LINE
  5
C000
330
18
100
AcDbEntity
  8
01
100
AcDbLine
 10
5202.565871974409
 20
-358.2049193559324
 30
0.0000000001127424
 11
5202.541488429487
 21
-358.1476316629087
 31
0.0000000001127424
  0
LINE
  5
C001
330
18
100
AcDbEntity
  8
01
100
AcDbLine
 10
5202.541488429487
 20
-358.1476316629087
 30
0.0000000001127424
 11
5202.536803981245
 21
-358.131042796198
 31
0.0000000001127424
  0
LINE
  5
C002
330
18
100
AcDbEntity
  8
01
100
AcDbLine
 10
5202.536803981245
 20
-358.131042796198
 30
0.0000000001127424
 11
5202.533492824018
 21
-358.118171471182
 31
0.0000000001127424
  0
LINE
  5
C003
330
18
100
AcDbEntity
  8
01
100
AcDbLine
 10
5202.533492824018
 20
-358.118171471182
 30
0.0000000001127424
 11
5202.528823634565
 21
-358.0994551358854
 31
0.0000000001127424
  0
LINE
  5
C004
330
18
100
AcDbEntity
  8
01
100
AcDbLine
 10
5202.528823634565
 20
-358.0994551358854
 30
0.0000000001127424
 11
5202.522430201948
 21
-358.0729078827535
 31
0.0000000001127424
  0
LINE
  5
C005
330
18
100
AcDbEntity
  8
01
100
AcDbLine
 10
5197.534423610151
 20
-358.2050743876134
 30
0.0000000001127424
 11
5197.608459254682
 21
-358.0576942144071
 31
0.0000000001127424
  0
LINE
  5
C006
330
18
100
AcDbEntity
  8
01
100
AcDbLine
 10
5197.608459254682
 20
-358.0576942144071
 30
0.0000000001127424
 11
5197.802032252729
 21
-357.8720600186025
 31
0.0000000001127424
  0
LINE
  5
C007
330
18
100
AcDbEntity
  8
01
100
AcDbLine
 10
5197.802032252729
 20
-357.8720600186025
 30
0.0000000001127424
 11
5198.124618312299
 21
-357.6818912206327
 31
0.0000000001127424
  0
LINE
  5
C008
330
18
100
AcDbEntity
  8
01
100
AcDbLine
 10
5198.124618312299
 20
-357.6818912206327
 30
0.0000000001127424
 11
5198.562804957807
 21
-357.5136601058875
 31
0.0000000001127424
  0
LINE
  5
C009
330
18
100
AcDbEntity
  8
01
100
AcDbLine
 10
5198.562804957807
 20
-357.5136601058875
 30
0.0000000001127424
 11
5199.093581935346
 21
-357.3848246364032
 31
0.0000000001127424
  0
LINE
  5
C00A
330
18
100
AcDbEntity
  8
01
100
AcDbLine
 10
5199.093581935346
 20
-357.3848246364032
 30
0.0000000001127424
 11
5199.68710305351
 21
-357.3080893391852
 31
0.0000000001127424
  0
LINE
  5
C00B
330
18
100
AcDbEntity
  8
01
100
AcDbLine
 10
5199.68710305351
 20
-357.3080893391852
 30
0.0000000001127424
 11
5200.305297633588
 21
-357.2908323246629
 31
0.0000000001127424
  0
LINE
  5
C00C
330
18
100
AcDbEntity
  8
01
100
AcDbLine
 10
5200.305297633588
 20
-357.2908323246629
 30
0.0000000001127424
 11
5200.906326075971
 21
-357.334517664287
 31
0.0000000001127424
  0
LINE
  5
C00D
330
18
100
AcDbEntity
  8
01
100
AcDbLine
 10
5200.906326075971
 20
-357.334517664287
 30
0.0000000001127424
 11
5201.44996621269
 21
-357.4342000363504
 31
0.0000000001127424
  0
LINE
  5
C00E
330
18
100
AcDbEntity
  8
01
100
AcDbLine
 10
5201.44996621269
 20
-357.4342000363504
 30
0.0000000001127424
 11
5201.902709742963
 21
-357.5788700161611
 31
0.0000000001127424
  0
LINE
  5
C00F
330
18
100
AcDbEntity
  8
01
100
AcDbLine
 10
5201.902709742963
 20
-357.5788700161611
 30
0.0000000001127424
 11
5202.238647242963
 21
-357.7515647290384
 31
0.0000000001127424
  0
LINE
  5
C010
330
18
100
AcDbEntity
  8
01
100
AcDbLine
 10
5202.238647242963
 20
-357.7515647290384
 30
0.0000000001127424
 11
5202.441467067182
 21
-357.9253277359639
 31
0.0000000001127424
  0
LINE
  5
C011
330
18
100
AcDbEntity
  8
01
100
AcDbLine
 10
5202.441467067182
 20
-357.9253277359639
 30
0.0000000001127424
 11
5202.522445460737
 21
-358.0729373870527
 31
0.0000000001127424
  0
LINE
  5
C012
330
18
100
AcDbEntity
  8
01
100
AcDbLine
 10
5197.53443886894
 20
-358.2050527511274
 30
0.0000000001127424
 11
5197.528472682417
 21
-358.2304566083585
 31
0.0000000001127424
  0
LINE
  5
C013
330
18
100
AcDbEntity
  8
01
100
AcDbLine
 10
5197.528472682417
 20
-358.2304566083585
 30
0.0000000001127424
 11
5197.523956080854
 21
-358.2491520224248
 31
0.0000000001127424
  0
LINE
  5
C014
330
18
100
AcDbEntity
  8
01
100
AcDbLine
 10
5197.523956080854
 20
-358.2491520224248
 30
0.0000000001127424
 11
5197.520675441206
 21
-358.262440460745
 31
0.0000000001127424
  0
LINE
  5
C015
330
18
100
AcDbEntity
  8
01
100
AcDbLine
 10
5197.520675441206
 20
-358.262440460745
 30
0.0000000001127424
 11
5197.518676539838
 21
-358.2703171549474
 31
0.0000000001127424
  0
LINE
  5
C016
330
18
100
AcDbEntity
  8
01
100
AcDbLine
 10
5197.518676539838
 20
-358.2703171549474
 30
0.0000000001127424
 11
5197.499618312299
 21
-358.3229808984433
 31
0.0000000001127424
  0
LINE
  5
C017
330
18
100
AcDbEntity
  8
01
100
AcDbLine
 10
5197.499618312299
 20
-358.3229808984433
 30
0.0000000001127424
 11
5197.465179225385
 21
-358.3790884195005
 31
0.0000000001127424
  0
LINE
  5
C018
330
18
100
AcDbEntity
  8
01
100
AcDbLine
 10
5197.465179225385
 20
-358.3790884195005
 30
0.0000000001127424
 11
5197.419341823042
 21
-358.4263385711347
 31
0.0000000001127424
  0
LINE
  5
C019
330
18
100
AcDbEntity
  8
01
100
AcDbLine
 10
5197.419341823042
 20
-358.4263385711347
 30
0.0000000001127424
 11
5197.364257594526
 21
-358.4624470649396
 31
0.0000000001127424
  0
LINE
  5
C01A
330
18
100
AcDbEntity
  8
01
100
AcDbLine
 10
5197.364257594526
 20
-358.4624470649396
 30
0.0000000001127424
 11
5197.302459498823
 21
-358.485642212454
 31
0.0000000001127424
  0
LINE
  5
C01B
330
18
100
AcDbEntity
  8
01
100
AcDbLine
 10
5197.302459498823
 20
-358.485642212454
 30
0.0000000001127424
 11
5197.235519191206
 21
-358.4949706969892
 31
0.0000000001127424
  0
LINE
  5
C01C
330
18
100
AcDbEntity
  8
01
100
AcDbLine
 10
5335.924975942025
 20
-358.4131639587121
 30
0.0000000001127424
 11
5336.474711964975
 21
-358.1737840758996
 31
0.0000000001127424
  0
LINE
  5
C01D
330
18
100
AcDbEntity
  8
01
100
AcDbLine
 10
5336.474711964975
 20
-358.1737840758996
 30
0.0000000001127424
 11
5336.994952748666
 21
-357.9446733581261
 31
0.0000000001127424
  0
LINE
  5
C01E
330
18
100
AcDbEntity
  8
01
100
AcDbLine
 10
5336.994952748666
 20
-357.9446733581261
 30
0.0000000001127424
 11
5337.465816090951
 21
-357.7346284972863
 31
0.0000000001127424
  0
LINE
  5
C01F
330
18
100
AcDbEntity
  8
01
100
AcDbLine
 10
5337.465816090951
 20
-357.7346284972863
 30
0.0000000001127424
 11
5337.86647374476
 21
-357.5528734313683
 31
0.0000000001127424
  0
LINE
  5
C020
330
18
100
AcDbEntity
  8
01
100
AcDbLine
 10
5337.86647374476
 20
-357.5528734313683
 30
0.0000000001127424
 11
5337.973328271162
 21
-357.5031104448657
 31
0.0000000001127424
  0
LINE
  5
C021
330
18
100
AcDbEntity
  8
01
100
AcDbLine
 10
5337.802442788507
 20
-357.5031104500157
 30
0.0000000001127424
 11
5337.497012685189
 21
-357.6260011779503
 31
0.0000000001127424
  0
LINE
  5
C022
330
18
100
AcDbEntity
  8
01
100
AcDbLine
 10
5337.497012685189
 20
-357.6260011779503
 30
0.0000000001127424
 11
5337.025828908334
 21
-357.8191774474816
 31
0.0000000001127424
  0
LINE
  5
C023
330
18
100
AcDbEntity
  8
01
100
AcDbLine
 10
5337.025828908334
 20
-357.8191774474816
 30
0.0000000001127424
 11
5336.5038333639
 21
-358.0360963927941
 31
0.0000000001127424
  0
LINE
  5
C024
330
18
100
AcDbEntity
  8
01
100
AcDbLine
 10
5336.5038333639
 20
-358.0360963927941
 30
0.0000000001127424
 11
5335.92351872767
 21
-358.2800691711144
 31
0.0000000001127424
  0
LINE
  5
C025
330
18
100
AcDbEntity
  8
01
100
AcDbLine
 10
4995.924983942024
 20
-358.4131639587121
 30
0.0000000001127424
 11
4996.474719964974
 21
-358.1737840758996
 31
0.0000000001127424
  0
LINE
  5
C026
330
18
100
AcDbEntity
  8
01
100
AcDbLine
 10
4996.474719964974
 20
-358.1737840758996
 30
0.0000000001127424
 11
4996.994960748665
 21
-357.9446733581261
 31
0.0000000001127424
  0
LINE
  5
C027
330
18
100
AcDbEntity
  8
01
100
AcDbLine
 10
4996.994960748665
 20
-357.9446733581261
 30
0.0000000001127424
 11
4997.46582409095
 21
-357.7346284972863
 31
0.0000000001127424
  0
LINE
  5
C028
330
18
100
AcDbEntity
  8
01
100
AcDbLine
 10
4997.46582409095
 20
-357.7346284972863
 30
0.0000000001127424
 11
4997.866481744759
 21
-357.5528734313683
 31
0.0000000001127424
  0
LINE
  5
C029
330
18
100
AcDbEntity
  8
01
100
AcDbLine
 10
4997.866481744759
 20
-357.5528734313683
 30
0.0000000001127424
 11
4998.175731622689
 21
-357.4088533508019
 31
0.0000000001127424
  0
LINE
  5
C02A
330
18
100
AcDbEntity
  8
01
100
AcDbLine
 10
4998.175731622689
 20
-357.4088533508019
 30
0.0000000001127424
 11
4998.373920404427
 21
-357.3113878356652
 31
0.0000000001127424
  0
LINE
  5
C02B
330
18
100
AcDbEntity
  8
01
100
AcDbLine
 10
4998.373920404427
 20
-357.3113878356652
 30
0.0000000001127424
 11
4998.446239435189
 21
-357.26728230588
 31
0.0000000001127424
  0
LINE
  5
C02C
330
18
100
AcDbEntity
  8
01
100
AcDbLine
 10
4998.446239435189
 20
-357.26728230588
 30
0.0000000001127424
 11
4998.38631817054
 21
-357.2797945129113
 31
0.0000000001127424
  0
LINE
  5
C02D
330
18
100
AcDbEntity
  8
01
100
AcDbLine
 10
4998.38631817054
 20
-357.2797945129113
 30
0.0000000001127424
 11
4998.198154413216
 21
-357.3477266418175
 31
0.0000000001127424
  0
LINE
  5
C02E
330
18
100
AcDbEntity
  8
01
100
AcDbLine
 10
4998.198154413216
 20
-357.3477266418175
 30
0.0000000001127424
 11
4997.895183526985
 21
-357.4657991515832
 31
0.0000000001127424
  0
LINE
  5
C02F
330
18
100
AcDbEntity
  8
01
100
AcDbLine
 10
4997.895183526985
 20
-357.4657991515832
 30
0.0000000001127424
 11
4997.497020685189
 21
-357.6260011779503
 31
0.0000000001127424
  0
LINE
  5
C030
330
18
100
AcDbEntity
  8
01
100
AcDbLine
 10
4997.497020685189
 20
-357.6260011779503
 30
0.0000000001127424
 11
4997.025836908333
 21
-357.8191774474816
 31
0.0000000001127424
  0
LINE
  5
C031
330
18
100
AcDbEntity
  8
01
100
AcDbLine
 10
4997.025836908333
 20
-357.8191774474816
 30
0.0000000001127424
 11
4996.503841363899
 21
-358.0360963927941
 31
0.0000000001127424
  0
LINE
  5
C032
330
18
100
AcDbEntity
  8
01
100
AcDbLine
 10
4996.503841363899
 20
-358.0360963927941
 30
0.0000000001127424
 11
4995.923526727669
 21
-358.2800691711144
 31
0.0000000001127424
  0
LINE
  5
C033
330
18
100
AcDbEntity
  8
01
100
AcDbLine
 10
5128.220992816867
 20
-358.3593601165448
 30
0.0000000001127424
 11
5128.285812152804
 21
-358.353812473837
 31
0.0000000001127424
  0
LINE
  5
C034
330
18
100
AcDbEntity
  8
01
100
AcDbLine
 10
5128.285812152804
 20
-358.353812473837
 30
0.0000000001127424
 11
5128.348205341281
 21
-358.3344267783796
 31
0.0000000001127424
  0
LINE
  5
C035
330
18
100
AcDbEntity
  8
01
100
AcDbLine
 10
5128.348205341281
 20
-358.3344267783796
 30
0.0000000001127424
 11
5128.404800189914
 21
-358.3020137725507
 31
0.0000000001127424
  0
LINE
  5
C036
330
18
100
AcDbEntity
  8
01
100
AcDbLine
 10
5128.404800189914
 20
-358.3020137725507
 30
0.0000000001127424
 11
5128.453017963351
 21
-358.2581238327657
 31
0.0000000001127424
  0
LINE
  5
C037
330
18
100
AcDbEntity
  8
01
100
AcDbLine
 10
5128.453017963351
 20
-358.2581238327657
 30
0.0000000001127424
 11
5128.49063087839
 21
-358.2049193559324
 31
0.0000000001127424
  0
LINE
  5
C038
330
18
100
AcDbEntity
  8
01
100
AcDbLine
 10
5128.49063087839
 20
-358.2049193559324
 30
0.0000000001127424
 11
5128.515014423312
 21
-358.1476316629087
 31
0.0000000001127424
  0
LINE
  5
C039
330
18
100
AcDbEntity
  8
01
100
AcDbLine
 10
5128.515014423312
 20
-358.1476316629087
 30
0.0000000001127424
 11
5128.519698871554
 21
-358.131042796198
 31
0.0000000001127424
  0
LINE
  5
C03A
330
18
100
AcDbEntity
  8
01
100
AcDbLine
 10
5128.519698871554
 20
-358.131042796198
 30
0.0000000001127424
 11
5128.523010028781
 21
-358.118171471182
 31
0.0000000001127424
  0
LINE
  5
C03B
330
18
100
AcDbEntity
  8
01
100
AcDbLine
 10
5128.523010028781
 20
-358.118171471182
 30
0.0000000001127424
 11
5128.527679218234
 21
-358.0994551358854
 31
0.0000000001127424
  0
LINE
  5
C03C
330
18
100
AcDbEntity
  8
01
100
AcDbLine
 10
5128.527679218234
 20
-358.0994551358854
 30
0.0000000001127424
 11
5128.534072650851
 21
-358.0729078827535
 31
0.0000000001127424
  0
LINE
  5
C03D
330
18
100
AcDbEntity
  8
01
100
AcDbLine
 10
5133.522079242648
 20
-358.2050743876134
 30
0.0000000001127424
 11
5133.448043598117
 21
-358.0576942144071
 31
0.0000000001127424
  0
LINE
  5
C03E
330
18
100
AcDbEntity
  8
01
100
AcDbLine
 10
5133.448043598117
 20
-358.0576942144071
 30
0.0000000001127424
 11
5133.25447060007
 21
-357.8720600186025
 31
0.0000000001127424
  0
LINE
  5
C03F
330
18
100
AcDbEntity
  8
01
100
AcDbLine
 10
5133.25447060007
 20
-357.8720600186025
 30
0.0000000001127424
 11
5132.9318845405
 21
-357.6818912206327
 31
0.0000000001127424
  0
LINE
  5
C040
330
18
100
AcDbEntity
  8
01
100
AcDbLine
 10
5132.9318845405
 20
-357.6818912206327
 30
0.0000000001127424
 11
5132.493697894992
 21
-357.5136601058875
 31
0.0000000001127424
  0
LINE
  5
C041
330
18
100
AcDbEntity
  8
01
100
AcDbLine
 10
5132.493697894992
 20
-357.5136601058875
 30
0.0000000001127424
 11
5131.962920917453
 21
-357.3848246364032
 31
0.0000000001127424
  0
LINE
  5
C042
330
18
100
AcDbEntity
  8
01
100
AcDbLine
 10
5131.962920917453
 20
-357.3848246364032
 30
0.0000000001127424
 11
5131.369399799289
 21
-357.3080893391852
 31
0.0000000001127424
  0
LINE
  5
C043
330
18
100
AcDbEntity
  8
01
100
AcDbLine
 10
5131.369399799289
 20
-357.3080893391852
 30
0.0000000001127424
 11
5130.751205219211
 21
-357.2908323246629
 31
0.0000000001127424
  0
LINE
  5
C044
330
18
100
AcDbEntity
  8
01
100
AcDbLine
 10
5130.751205219211
 20
-357.2908323246629
 30
0.0000000001127424
 11
5130.150176776828
 21
-357.334517664287
 31
0.0000000001127424
  0
LINE
  5
C045
330
18
100
AcDbEntity
  8
01
100
AcDbLine
 10
5130.150176776828
 20
-357.334517664287
 30
0.0000000001127424
 11
5129.606536640109
 21
-357.4342000363504
 31
0.0000000001127424
  0
LINE
  5
C046
330
18
100
AcDbEntity
  8
01
100
AcDbLine
 10
5129.606536640109
 20
-357.4342000363504
 30
0.0000000001127424
 11
5129.153793109836
 21
-357.5788700161611
 31
0.0000000001127424
  0
LINE
  5
C047
330
18
100
AcDbEntity
  8
01
100
AcDbLine
 10
5129.153793109836
 20
-357.5788700161611
 30
0.0000000001127424
 11
5128.817855609836
 21
-357.7515647290384
 31
0.0000000001127424
  0
LINE
  5
C048
330
18
100
AcDbEntity
  8
01
100
AcDbLine
 10
5128.817855609836
 20
-357.7515647290384
 30
0.0000000001127424
 11
5128.615035785617
 21
-357.9253277359639
 31
0.0000000001127424
  0
LINE
  5
C049
330
18
100
AcDbEntity
  8
01
100
AcDbLine
 10
5128.615035785617
 20
-357.9253277359639
 30
0.0000000001127424
 11
5128.534057392062
 21
-358.0729373870527
 31
0.0000000001127424
  0
LINE
  5
C04A
330
18
100
AcDbEntity
  8
01
100
AcDbLine
 10
5133.522063983859
 20
-358.2050527511274
 30
0.0000000001127424
 11
5133.528030170382
 21
-358.2304566083585
 31
0.0000000001127424
  0
LINE
  5
C04B
330
18
100
AcDbEntity
  8
01
100
AcDbLine
 10
5133.528030170382
 20
-358.2304566083585
 30
0.0000000001127424
 11
5133.532546771945
 21
-358.2491520224248
 31
0.0000000001127424
  0
LINE
  5
C04C
330
18
100
AcDbEntity
  8
01
100
AcDbLine
 10
5133.532546771945
 20
-358.2491520224248
 30
0.0000000001127424
 11
5133.535827411593
 21
-358.262440460745
 31
0.0000000001127424
  0
LINE
  5
C04D
330
18
100
AcDbEntity
  8
01
100
AcDbLine
 10
5133.535827411593
 20
-358.262440460745
 30
0.0000000001127424
 11
5133.537826312961
 21
-358.2703171549474
 31
0.0000000001127424
  0
LINE
  5
C04E
330
18
100
AcDbEntity
  8
01
100
AcDbLine
 10
5133.537826312961
 20
-358.2703171549474
 30
0.0000000001127424
 11
5133.5568845405
 21
-358.3229808984433
 31
0.0000000001127424
  0
LINE
  5
C04F
330
18
100
AcDbEntity
  8
01
100
AcDbLine
 10
5133.5568845405
 20
-358.3229808984433
 30
0.0000000001127424
 11
5133.591323627414
 21
-358.3790884195005
 31
0.0000000001127424
  0
LINE
  5
C050
330
18
100
AcDbEntity
  8
01
100
AcDbLine
 10
5133.591323627414
 20
-358.3790884195005
 30
0.0000000001127424
 11
5133.637161029757
 21
-358.4263385711347
 31
0.0000000001127424
  0
LINE
  5
C051
330
18
100
AcDbEntity
  8
01
100
AcDbLine
 10
5133.637161029757
 20
-358.4263385711347
 30
0.0000000001127424
 11
5133.692245258273
 21
-358.4624470649396
 31
0.0000000001127424
  0
LINE
  5
C052
330
18
100
AcDbEntity
  8
01
100
AcDbLine
 10
5133.692245258273
 20
-358.4624470649396
 30
0.0000000001127424
 11
5133.754043353976
 21
-358.485642212454
 31
0.0000000001127424
  0
LINE
  5
C053
330
18
100
AcDbEntity
  8
01
100
AcDbLine
 10
5133.754043353976
 20
-358.485642212454
 30
0.0000000001127424
 11
5133.820983661593
 21
-358.4949706969892
 31
0.0000000001127424
  0
LINE
  5
C054
330
18
100
AcDbEntity
  8
01
100
AcDbLine
 10
4995.131526910774
 20
-358.4131639587121
 30
0.0000000001127424
 11
4994.581790887825
 21
-358.1737840758996
 31
0.0000000001127424
  0
LINE
  5
C055
330
18
100
AcDbEntity
  8
01
100
AcDbLine
 10
4994.581790887825
 20
-358.1737840758996
 30
0.0000000001127424
 11
4994.061550104134
 21
-357.9446733581261
 31
0.0000000001127424
  0
LINE
  5
C056
330
18
100
AcDbEntity
  8
01
100
AcDbLine
 10
4994.061550104134
 20
-357.9446733581261
 30
0.0000000001127424
 11
4993.590686761849
 21
-357.7346284972863
 31
0.0000000001127424
  0
LINE
  5
C057
330
18
100
AcDbEntity
  8
01
100
AcDbLine
 10
4993.590686761849
 20
-357.7346284972863
 30
0.0000000001127424
 11
4993.19002910804
 21
-357.5528734313683
 31
0.0000000001127424
  0
LINE
  5
C058
330
18
100
AcDbEntity
  8
01
100
AcDbLine
 10
4993.19002910804
 20
-357.5528734313683
 30
0.0000000001127424
 11
4993.083174581638
 21
-357.5031104448657
 31
0.0000000001127424
  0
LINE
  5
C059
330
18
100
AcDbEntity
  8
01
100
AcDbLine
 10
4993.254060064293
 20
-357.5031104500157
 30
0.0000000001127424
 11
4993.55949016761
 21
-357.6260011779503
 31
0.0000000001127424
  0
LINE
  5
C05A
330
18
100
AcDbEntity
  8
01
100
AcDbLine
 10
4993.55949016761
 20
-357.6260011779503
 30
0.0000000001127424
 11
4994.030673944466
 21
-357.8191774474816
 31
0.0000000001127424
  0
LINE
  5
C05B
330
18
100
AcDbEntity
  8
01
100
AcDbLine
 10
4994.030673944466
 20
-357.8191774474816
 30
0.0000000001127424
 11
4994.552669488899
 21
-358.0360963927941
 31
0.0000000001127424
  0
LINE
  5
C05C
330
18
100
AcDbEntity
  8
01
100
AcDbLine
 10
4994.552669488899
 20
-358.0360963927941
 30
0.0000000001127424
 11
4995.13298412513
 21
-358.2800691711144
 31
0.0000000001127424
  0
LINE
  5
C05D
330
18
100
AcDbEntity
  8
01
  6
BYBLOCK
100
AcDbLine
 10
5299.831579532401
 20
-325.2503618121524
 30
0.0000000002254849
 11
5300.5282474264
 21
-322.6503618121524
 31
0.0000000002254849
  0
LINE
  5
C05E
330
18
100
AcDbEntity
  8
01
  6
BYBLOCK
100
AcDbLine
 10
5300.5282474264
 20
-322.6503618121524
 30
0.0000000002254849
 11
5301.2249153204
 21
-325.2503618121524
 31
0.0000000002254849
  0
LINE
  5
C05F
330
18
100
AcDbEntity
  8
01
  6
BYBLOCK
100
AcDbLine
 10
5300.5282474264
 20
-322.6503618121524
 30
0.0000000002254849
 11
5300.5282474264
 21
-325.2503618121524
 31
0.0000000002254849
  0
LINE
  5
C060
330
18
100
AcDbEntity
  8
01
  6
BYBLOCK
100
AcDbLine
 10
5301.2249153204
 20
-370.0503618121514
 30
0.0000000002254849
 11
5300.5282474264
 21
-372.6503618121515
 31
0.0000000002254849
  0
LINE
  5
C061
330
18
100
AcDbEntity
  8
01
  6
BYBLOCK
100
AcDbLine
 10
5300.5282474264
 20
-372.6503618121515
 30
0.0000000002254849
 11
5299.831579532401
 21
-370.0503618121514
 31
0.0000000002254849
  0
LINE
  5
C062
330
18
100
AcDbEntity
  8
01
  6
BYBLOCK
100
AcDbLine
 10
5300.5282474264
 20
-372.6503618121515
 30
0.0000000002254849
 11
5300.5282474264
 21
-370.0503618121514
 31
0.0000000002254849
  0
TEXT
  5
C063
330
18
100
AcDbEntity
  8
01
  6
CONTINUOUS
100
AcDbText
 10
5299.618247426401
 20
-355.8498647187516
 30
0.0000000002254849
 40
4.55
  1
φ50
 50
90.0
100
AcDbText
1001
ACAD
1000
DSTYLE
1002
{
1070
     3
1000
φ<>
1070
    40
1040
1.3
1070
    45
1040
0.5
1002
}
  0
LINE
  5
C064
330
18
100
AcDbEntity
  8
01
  6
BYBLOCK
100
AcDbLine
 10
5276.128247426401
 20
-218.9268559345671
 30
0.0000000002254849
 11
5273.5282474264
 21
-218.2301880405671
 31
0.0000000002254849
  0
LINE
  5
C065
330
18
100
AcDbEntity
  8
01
  6
BYBLOCK
100
AcDbLine
 10
5273.5282474264
 20
-218.2301880405671
 30
0.0000000002254849
 11
5276.128247426401
 21
-217.5335201465671
 31
0.0000000002254849
  0
LINE
  5
C066
330
18
100
AcDbEntity
  8
01
  6
BYBLOCK
100
AcDbLine
 10
5273.5282474264
 20
-218.2301880405671
 30
0.0000000002254849
 11
5276.128247426401
 21
-218.2301880405671
 31
0.0000000002254849
  0
LINE
  5
C067
330
18
100
AcDbEntity
  8
01
  6
BYBLOCK
100
AcDbLine
 10
5281.9282474264
 20
-217.5335201465671
 30
0.0000000002254849
 11
5284.5282474264
 21
-218.2301880405671
 31
0.0000000002254849
  0
LINE
  5
C068
330
18
100
AcDbEntity
  8
01
  6
BYBLOCK
100
AcDbLine
 10
5284.5282474264
 20
-218.2301880405671
 30
0.0000000002254849
 11
5281.9282474264
 21
-218.9268559345671
 31
0.0000000002254849
  0
LINE
  5
C069
330
18
100
AcDbEntity
  8
01
  6
BYBLOCK
100
AcDbLine
 10
5284.5282474264
 20
-218.2301880405671
 30
0.0000000002254849
 11
5281.9282474264
 21
-218.2301880405671
 31
0.0000000002254849
  0
TEXT
  5
C06A
330
18
100
AcDbEntity
  8
01
  6
CONTINUOUS
100
AcDbText
 10
5276.753247426401
 20
-217.3201880405671
 30
0.0000000002254849
 40
4.55
  1
11
100
AcDbText
1001
ACAD
1000
DSTYLE
1002
{
1070
    40
1040
1.3
1070
    45
1040
0.5
1002
}
  0
LINE
  5
C06B
330
18
100
AcDbEntity
  8
01
  6
BYBLOCK
100
AcDbLine
 10
5379.831579532401
 20
-292.2516801252551
 30
0.0000000002254849
 11
5380.5282474264
 21
-289.6516801252551
 31
0.0000000002254849
  0
LINE
  5
C06C
330
18
100
AcDbEntity
  8
01
  6
BYBLOCK
100
AcDbLine
 10
5380.5282474264
 20
-289.6516801252551
 30
0.0000000002254849
 11
5381.2249153204
 21
-292.2516801252551
 31
0.0000000002254849
  0
LINE
  5
C06D
330
18
100
AcDbEntity
  8
01
  6
BYBLOCK
100
AcDbLine
 10
5380.5282474264
 20
-289.6516801252551
 30
0.0000000002254849
 11
5380.5282474264
 21
-292.2516801252551
 31
0.0000000002254849
  0
LINE
  5
C06E
330
18
100
AcDbEntity
  8
01
  6
BYBLOCK
100
AcDbLine
 10
5381.2249153204
 20
-361.0516801252555
 30
0.0000000002254849
 11
5380.5282474264
 21
-363.6516801252556
 31
0.0000000002254849
  0
LINE
  5
C06F
330
18
100
AcDbEntity
  8
01
  6
BYBLOCK
100
AcDbLine
 10
5380.5282474264
 20
-363.6516801252556
 30
0.0000000002254849
 11
5379.831579532401
 21
-361.0516801252555
 31
0.0000000002254849
  0
LINE
  5
C070
330
18
100
AcDbEntity
  8
01
  6
BYBLOCK
100
AcDbLine
 10
5380.5282474264
 20
-363.6516801252556
 30
0.0000000002254849
 11
5380.5282474264
 21
-361.0516801252555
 31
0.0000000002254849
  0
TEXT
  5
C071
330
18
100
AcDbEntity
  8
01
  6
CONTINUOUS
100
AcDbText
 10
5379.618247426401
 20
-308.6803360392369
 30
0.0000000002254849
 40
4.55
  1
74
 50
90.0
100
AcDbText
1001
ACAD
1000
DSTYLE
1002
{
1070
    40
1040
1.3
1070
    45
1040
0.5
1002
}
  0
LINE
  5
C072
330
18
100
AcDbEntity
  8
01
  6
BYBLOCK
100
AcDbLine
 10
5350.9282474264
 20
-207.4536526785189
 30
0.0000000002254849
 11
5353.5282474264
 21
-208.1503205725189
 31
0.0000000002254849
  0
LINE
  5
C073
330
18
100
AcDbEntity
  8
01
  6
BYBLOCK
100
AcDbLine
 10
5353.5282474264
 20
-208.1503205725189
 30
0.0000000002254849
 11
5350.9282474264
 21
-208.8469884665189
 31
0.0000000002254849
  0
LINE
  5
C074
330
18
100
AcDbEntity
  8
01
  6
BYBLOCK
100
AcDbLine
 10
5353.5282474264
 20
-208.1503205725189
 30
0.0000000002254849
 11
5350.9282474264
 21
-208.1503205725189
 31
0.0000000002254849
  0
LINE
  5
C075
330
18
100
AcDbEntity
  8
01
  6
BYBLOCK
100
AcDbLine
 10
5287.128247426401
 20
-208.8469884665189
 30
0.0000000002254849
 11
5284.5282474264
 21
-208.1503205725189
 31
0.0000000002254849
  0
LINE
  5
C076
330
18
100
AcDbEntity
  8
01
  6
BYBLOCK
100
AcDbLine
 10
5284.5282474264
 20
-208.1503205725189
 30
0.0000000002254849
 11
5287.128247426401
 21
-207.4536526785189
 31
0.0000000002254849
  0
LINE
  5
C077
330
18
100
AcDbEntity
  8
01
  6
BYBLOCK
100
AcDbLine
 10
5284.5282474264
 20
-208.1503205725189
 30
0.0000000002254849
 11
5287.128247426401
 21
-208.1503205725189
 31
0.0000000002254849
  0
TEXT
  5
C078
330
18
100
AcDbEntity
  8
01
  6
CONTINUOUS
100
AcDbText
 10
5315.219728907882
 20
-207.2403205725189
 30
0.0000000002254849
 40
4.55
  1
69
100
AcDbText
1001
ACAD
1000
DSTYLE
1002
{
1070
    40
1040
1.3
1070
    45
1040
0.5
1002
}
  0
LINE
  5
C079
330
18
100
AcDbEntity
  8
01
  6
BYBLOCK
100
AcDbLine
 10
5287.128247426401
 20
-218.9268559345671
 30
0.0000000002254849
 11
5284.5282474264
 21
-218.2301880405671
 31
0.0000000002254849
  0
LINE
  5
C07A
330
18
100
AcDbEntity
  8
01
  6
BYBLOCK
100
AcDbLine
 10
5284.5282474264
 20
-218.2301880405671
 30
0.0000000002254849
 11
5287.128247426401
 21
-217.5335201465671
 31
0.0000000002254849
  0
LINE
  5
C07B
330
18
100
AcDbEntity
  8
01
  6
BYBLOCK
100
AcDbLine
 10
5284.5282474264
 20
-218.2301880405671
 30
0.0000000002254849
 11
5287.128247426401
 21
-218.2301880405671
 31
0.0000000002254849
  0
LINE
  5
C07C
330
18
100
AcDbEntity
  8
01
  6
BYBLOCK
100
AcDbLine
 10
5332.9282474264
 20
-217.5335201465671
 30
0.0000000002254849
 11
5335.5282474264
 21
-218.2301880405671
 31
0.0000000002254849
  0
LINE
  5
C07D
330
18
100
AcDbEntity
  8
01
  6
BYBLOCK
100
AcDbLine
 10
5335.5282474264
 20
-218.2301880405671
 30
0.0000000002254849
 11
5332.9282474264
 21
-218.9268559345671
 31
0.0000000002254849
  0
LINE
  5
C07E
330
18
100
AcDbEntity
  8
01
  6
BYBLOCK
100
AcDbLine
 10
5335.5282474264
 20
-218.2301880405671
 30
0.0000000002254849
 11
5332.9282474264
 21
-218.2301880405671
 31
0.0000000002254849
  0
TEXT
  5
C07F
330
18
100
AcDbEntity
  8
01
  6
CONTINUOUS
100
AcDbText
 10
5306.979115481956
 20
-217.3201880405671
 30
0.0000000002254849
 40
4.55
  1
51
100
AcDbText
1001
ACAD
1000
DSTYLE
1002
{
1070
    40
1040
1.3
1070
    45
1040
0.5
1002
}
  0
LINE
  5
C080
330
18
100
AcDbEntity
  8
01
  6
BYBLOCK
100
AcDbLine
 10
5155.628363766145
 20
-218.9268559345673
 30
0.0000000002254849
 11
5153.028363766145
 21
-218.2301880405673
 31
0.0000000002254849
  0
LINE
  5
C081
330
18
100
AcDbEntity
  8
01
  6
BYBLOCK
100
AcDbLine
 10
5153.028363766145
 20
-218.2301880405673
 30
0.0000000002254849
 11
5155.628363766145
 21
-217.5335201465673
 31
0.0000000002254849
  0
LINE
  5
C082
330
18
100
AcDbEntity
  8
01
  6
BYBLOCK
100
AcDbLine
 10
5153.028363766145
 20
-218.2301880405673
 30
0.0000000002254849
 11
5155.628363766145
 21
-218.2301880405673
 31
0.0000000002254849
  0
LINE
  5
C083
330
18
100
AcDbEntity
  8
01
  6
BYBLOCK
100
AcDbLine
 10
5175.428363766145
 20
-217.5335201465673
 30
0.0000000002254849
 11
5178.028363766145
 21
-218.2301880405673
 31
0.0000000002254849
  0
LINE
  5
C084
330
18
100
AcDbEntity
  8
01
  6
BYBLOCK
100
AcDbLine
 10
5178.028363766145
 20
-218.2301880405673
 30
0.0000000002254849
 11
5175.428363766145
 21
-218.9268559345673
 31
0.0000000002254849
  0
LINE
  5
C085
330
18
100
AcDbEntity
  8
01
  6
BYBLOCK
100
AcDbLine
 10
5178.028363766145
 20
-218.2301880405673
 30
0.0000000002254849
 11
5175.428363766145
 21
-218.2301880405673
 31
0.0000000002254849
  0
TEXT
  5
C086
330
18
100
AcDbEntity
  8
01
  6
CONTINUOUS
100
AcDbText
 10
5161.736697099478
 20
-217.3201880405673
 30
0.0000000002254849
 40
4.55
  1
25
100
AcDbText
1001
ACAD
1000
DSTYLE
1002
{
1070
    40
1040
1.3
1070
    45
1040
0.5
1002
}
  0
LINE
  5
C087
330
18
100
AcDbEntity
  8
01
  6
BYBLOCK
100
AcDbLine
 10
5249.619766643589
 20
-272.2512349808393
 30
0.0000000003382273
 11
5250.316434537589
 21
-269.6512349808393
 31
0.0000000003382273
  0
LINE
  5
C088
330
18
100
AcDbEntity
  8
01
  6
BYBLOCK
100
AcDbLine
 10
5250.316434537589
 20
-269.6512349808393
 30
0.0000000003382273
 11
5251.013102431589
 21
-272.2512349808393
 31
0.0000000003382273
  0
LINE
  5
C089
330
18
100
AcDbEntity
  8
01
  6
BYBLOCK
100
AcDbLine
 10
5250.316434537589
 20
-269.6512349808393
 30
0.0000000003382273
 11
5250.316434537589
 21
-272.2512349808393
 31
0.0000000003382273
  0
LINE
  5
C08A
330
18
100
AcDbEntity
  8
01
  6
BYBLOCK
100
AcDbLine
 10
5251.013102431589
 20
-381.0512349808393
 30
0.0000000003382273
 11
5250.316434537589
 21
-383.6512349808393
 31
0.0000000003382273
  0
LINE
  5
C08B
330
18
100
AcDbEntity
  8
01
  6
BYBLOCK
100
AcDbLine
 10
5250.316434537589
 20
-383.6512349808393
 30
0.0000000003382273
 11
5249.619766643589
 21
-381.0512349808393
 31
0.0000000003382273
  0
LINE
  5
C08C
330
18
100
AcDbEntity
  8
01
  6
BYBLOCK
100
AcDbLine
 10
5250.316434537589
 20
-383.6512349808393
 30
0.0000000003382273
 11
5250.316434537589
 21
-381.0512349808393
 31
0.0000000003382273
  0
TEXT
  5
C08D
330
18
100
AcDbEntity
  8
01
  6
CONTINUOUS
100
AcDbText
 10
5249.406434537588
 20
-302.0682126329175
 30
0.0000000003382273
 40
4.55
  1
114
 50
90.0
100
AcDbText
1001
ACAD
1000
DSTYLE
1002
{
1070
    40
1040
1.3
1070
    45
1040
0.5
1002
}
  0
LINE
  5
C08E
330
18
100
AcDbEntity
  8
01
  6
BYBLOCK
100
AcDbLine
 10
5258.984100809814
 20
-264.3516801252558
 30
0.0000000003382273
 11
5259.680768703814
 21
-261.7516801252557
 31
0.0000000003382273
  0
LINE
  5
C08F
330
18
100
AcDbEntity
  8
01
  6
BYBLOCK
100
AcDbLine
 10
5259.680768703814
 20
-261.7516801252557
 30
0.0000000003382273
 11
5260.377436597813
 21
-264.3516801252558
 31
0.0000000003382273
  0
LINE
  5
C090
330
18
100
AcDbEntity
  8
01
  6
BYBLOCK
100
AcDbLine
 10
5259.680768703814
 20
-261.7516801252557
 30
0.0000000003382273
 11
5259.680768703814
 21
-264.3516801252558
 31
0.0000000003382273
  0
LINE
  5
C091
330
18
100
AcDbEntity
  8
01
  6
BYBLOCK
100
AcDbLine
 10
5260.377436597813
 20
-388.9512349808392
 30
0.0000000003382273
 11
5259.680768703814
 21
-391.5512349808392
 31
0.0000000003382273
  0
LINE
  5
C092
330
18
100
AcDbEntity
  8
01
  6
BYBLOCK
100
AcDbLine
 10
5259.680768703814
 20
-391.5512349808392
 30
0.0000000003382273
 11
5258.984100809814
 21
-388.9512349808392
 31
0.0000000003382273
  0
LINE
  5
C093
330
18
100
AcDbEntity
  8
01
  6
BYBLOCK
100
AcDbLine
 10
5259.680768703814
 20
-391.5512349808392
 30
0.0000000003382273
 11
5259.680768703814
 21
-388.9512349808392
 31
0.0000000003382273
  0
TEXT
  5
C094
330
18
100
AcDbEntity
  8
01
  6
CONTINUOUS
100
AcDbText
 10
5258.770768703814
 20
-302.8527766357256
 30
0.0000000003382273
 40
4.55
  1
130
 50
90.0
100
AcDbText
1001
ACAD
1000
DSTYLE
1002
{
1070
    40
1040
1.3
1070
    45
1040
0.5
1002
}
  0
LINE
  5
C095
330
18
100
AcDbEntity
  8
01
  6
BYBLOCK
100
AcDbLine
 10
4978.128359766142
 20
-265.3483480192548
 30
0.0000000002254849
 11
4975.528359766142
 21
-264.6516801252549
 31
0.0000000002254849
  0
LINE
  5
C096
330
18
100
AcDbEntity
  8
01
  6
BYBLOCK
100
AcDbLine
 10
4975.528359766142
 20
-264.6516801252549
 30
0.0000000002254849
 11
4978.128359766142
 21
-263.9550122312549
 31
0.0000000002254849
  0
LINE
  5
C097
330
18
100
AcDbEntity
  8
01
  6
BYBLOCK
100
AcDbLine
 10
4975.528359766142
 20
-264.6516801252549
 30
0.0000000002254849
 11
4978.128359766142
 21
-264.6516801252549
 31
0.0000000002254849
  0
LINE
  5
C098
330
18
100
AcDbEntity
  8
01
  6
BYBLOCK
100
AcDbLine
 10
5012.928359766142
 20
-263.9550122312549
 30
0.0000000002254849
 11
5015.528359766142
 21
-264.6516801252549
 31
0.0000000002254849
  0
LINE
  5
C099
330
18
100
AcDbEntity
  8
01
  6
BYBLOCK
100
AcDbLine
 10
5015.528359766142
 20
-264.6516801252549
 30
0.0000000002254849
 11
5012.928359766142
 21
-265.3483480192548
 31
0.0000000002254849
  0
LINE
  5
C09A
330
18
100
AcDbEntity
  8
01
  6
BYBLOCK
100
AcDbLine
 10
5015.528359766142
 20
-264.6516801252549
 30
0.0000000002254849
 11
5012.928359766142
 21
-264.6516801252549
 31
0.0000000002254849
  0
TEXT
  5
C09B
330
18
100
AcDbEntity
  8
01
  6
CONTINUOUS
100
AcDbText
 10
4988.684401432809
 20
-263.7416801252549
 30
0.0000000002254849
 40
4.55
  1
φ40
100
AcDbText
1001
ACAD
1000
DSTYLE
1002
{
1070
     3
1000
φ<>
1070
    40
1040
1.3
1070
    45
1040
0.5
1070
   271
1070
     4
1070
   272
1070
     2
1002
}
  0
LINE
  5
C09C
330
18
100
AcDbEntity
  8
01
  6
BYBLOCK
100
AcDbLine
 10
5142.928363766147
 20
-240.9550122312549
 30
0.0000000002254849
 11
5145.528363766147
 21
-241.6516801252549
 31
0.0000000002254849
  0
LINE
  5
C09D
330
18
100
AcDbEntity
  8
01
  6
BYBLOCK
100
AcDbLine
 10
5145.528363766147
 20
-241.6516801252549
 30
0.0000000002254849
 11
5142.928363766147
 21
-242.3483480192549
 31
0.0000000002254849
  0
LINE
  5
C09E
330
18
100
AcDbEntity
  8
01
  6
BYBLOCK
100
AcDbLine
 10
5145.528363766147
 20
-241.6516801252549
 30
0.0000000002254849
 11
5142.928363766147
 21
-241.6516801252549
 31
0.0000000002254849
  0
LINE
  5
C09F
330
18
100
AcDbEntity
  8
01
  6
BYBLOCK
100
AcDbLine
 10
5126.127978200428
 20
-242.3483480192549
 30
0.0000000002254849
 11
5123.527978200427
 21
-241.6516801252549
 31
0.0000000002254849
  0
LINE
  5
C0A0
330
18
100
AcDbEntity
  8
01
  6
BYBLOCK
100
AcDbLine
 10
5123.527978200427
 20
-241.6516801252549
 30
0.0000000002254849
 11
5126.127978200428
 21
-240.9550122312549
 31
0.0000000002254849
  0
LINE
  5
C0A1
330
18
100
AcDbEntity
  8
01
  6
BYBLOCK
100
AcDbLine
 10
5123.527978200427
 20
-241.6516801252549
 30
0.0000000002254849
 11
5126.127978200428
 21
-241.6516801252549
 31
0.0000000002254849
  0
TEXT
  5
C0A2
330
18
100
AcDbEntity
  8
01
  6
CONTINUOUS
100
AcDbText
 10
5130.73650431662
 20
-240.7416801252549
 30
0.0000000002254849
 40
4.55
  1
22
100
AcDbText
1001
ACAD
1000
DSTYLE
1002
{
1070
    40
1040
1.3
1070
    45
1040
0.5
1070
   341
1005
0
1002
}
  0
LINE
  5
C0A3
330
18
100
AcDbEntity
  8
01
  6
BYBLOCK
100
AcDbLine
 10
5318.128247103941
 20
-265.3483480192548
 30
0.0000000002254849
 11
5315.528247103941
 21
-264.6516801252549
 31
0.0000000002254849
  0
LINE
  5
C0A4
330
18
100
AcDbEntity
  8
01
  6
BYBLOCK
100
AcDbLine
 10
5315.528247103941
 20
-264.6516801252549
 30
0.0000000002254849
 11
5318.128247103941
 21
-263.9550122312549
 31
0.0000000002254849
  0
LINE
  5
C0A5
330
18
100
AcDbEntity
  8
01
  6
BYBLOCK
100
AcDbLine
 10
5315.528247103941
 20
-264.6516801252549
 30
0.0000000002254849
 11
5318.128247103941
 21
-264.6516801252549
 31
0.0000000002254849
  0
LINE
  5
C0A6
330
18
100
AcDbEntity
  8
01
  6
BYBLOCK
100
AcDbLine
 10
5352.928247103941
 20
-263.9550122312549
 30
0.0000000002254849
 11
5355.528247103941
 21
-264.6516801252549
 31
0.0000000002254849
  0
LINE
  5
C0A7
330
18
100
AcDbEntity
  8
01
  6
BYBLOCK
100
AcDbLine
 10
5355.528247103941
 20
-264.6516801252549
 30
0.0000000002254849
 11
5352.928247103941
 21
-265.3483480192548
 31
0.0000000002254849
  0
LINE
  5
C0A8
330
18
100
AcDbEntity
  8
01
  6
BYBLOCK
100
AcDbLine
 10
5355.528247103941
 20
-264.6516801252549
 30
0.0000000002254849
 11
5352.928247103941
 21
-264.6516801252549
 31
0.0000000002254849
  0
TEXT
  5
C0A9
330
18
100
AcDbEntity
  8
01
  6
CONTINUOUS
100
AcDbText
 10
5328.684288770608
 20
-263.7416801252549
 30
0.0000000002254849
 40
4.55
  1
φ40
100
AcDbText
1001
ACAD
1000
DSTYLE
1002
{
1070
     3
1000
φ<>
1070
    40
1040
1.3
1070
    45
1040
0.5
1070
   271
1070
     4
1070
   272
1070
     2
1002
}
  0
LINE
  5
C0AA
330
18
100
AcDbEntity
  8
01
  6
BYBLOCK
100
AcDbLine
 10
4978.128359766142
 20
-265.3483480192548
 30
0.0000000002254849
 11
4975.528359766142
 21
-264.6516801252549
 31
0.0000000002254849
  0
LINE
  5
C0AB
330
18
100
AcDbEntity
  8
01
  6
BYBLOCK
100
AcDbLine
 10
4975.528359766142
 20
-264.6516801252549
 30
0.0000000002254849
 11
4978.128359766142
 21
-263.9550122312549
 31
0.0000000002254849
  0
LINE
  5
C0AC
330
18
100
AcDbEntity
  8
01
  6
BYBLOCK
100
AcDbLine
 10
4975.528359766142
 20
-264.6516801252549
 30
0.0000000002254849
 11
4978.128359766142
 21
-264.6516801252549
 31
0.0000000002254849
  0
LINE
  5
C0AD
330
18
100
AcDbEntity
  8
01
  6
BYBLOCK
100
AcDbLine
 10
5012.928359766142
 20
-263.9550122312549
 30
0.0000000002254849
 11
5015.528359766142
 21
-264.6516801252549
 31
0.0000000002254849
  0
LINE
  5
C0AE
330
18
100
AcDbEntity
  8
01
  6
BYBLOCK
100
AcDbLine
 10
5015.528359766142
 20
-264.6516801252549
 30
0.0000000002254849
 11
5012.928359766142
 21
-265.3483480192548
 31
0.0000000002254849
  0
LINE
  5
C0AF
330
18
100
AcDbEntity
  8
01
  6
BYBLOCK
100
AcDbLine
 10
5015.528359766142
 20
-264.6516801252549
 30
0.0000000002254849
 11
5012.928359766142
 21
-264.6516801252549
 31
0.0000000002254849
  0
TEXT
  5
C0B0
330
18
100
AcDbEntity
  8
01
  6
CONTINUOUS
100
AcDbText
 10
4988.684401432809
 20
-263.7416801252549
 30
0.0000000002254849
 40
4.55
  1
φ40
100
AcDbText
1001
ACAD
1000
DSTYLE
1002
{
1070
     3
1000
φ<>
1070
    40
1040
1.3
1070
    45
1040
0.5
1070
   271
1070
     4
1070
   272
1070
     2
1002
}
  0
LINE
  5
C0B1
330
18
100
AcDbEntity
  8
01
  6
BYBLOCK
100
AcDbLine
 10
5142.928363766147
 20
-240.9550122312549
 30
0.0000000002254849
 11
5145.528363766147
 21
-241.6516801252549
 31
0.0000000002254849
  0
LINE
  5
C0B2
330
18
100
AcDbEntity
  8
01
  6
BYBLOCK
100
AcDbLine
 10
5145.528363766147
 20
-241.6516801252549
 30
0.0000000002254849
 11
5142.928363766147
 21
-242.3483480192549
 31
0.0000000002254849
  0
LINE
  5
C0B3
330
18
100
AcDbEntity
  8
01
  6
BYBLOCK
100
AcDbLine
 10
5145.528363766147
 20
-241.6516801252549
 30
0.0000000002254849
 11
5142.928363766147
 21
-241.6516801252549
 31
0.0000000002254849
  0
LINE
  5
C0B4
330
18
100
AcDbEntity
  8
01
  6
BYBLOCK
100
AcDbLine
 10
5126.128338955135
 20
-242.3483480192549
 30
0.0000000002254849
 11
5123.528338955135
 21
-241.6516801252549
 31
0.0000000002254849
  0
LINE
  5
C0B5
330
18
100
AcDbEntity
  8
01
  6
BYBLOCK
100
AcDbLine
 10
5123.528338955135
 20
-241.6516801252549
 30
0.0000000002254849
 11
5126.128338955135
 21
-240.9550122312549
 31
0.0000000002254849
  0
LINE
  5
C0B6
330
18
100
AcDbEntity
  8
01
  6
BYBLOCK
100
AcDbLine
 10
5123.528338955135
 20
-241.6516801252549
 30
0.0000000002254849
 11
5126.128338955135
 21
-241.6516801252549
 31
0.0000000002254849
  0
TEXT
  5
C0B7
330
18
100
AcDbEntity
  8
01
  6
CONTINUOUS
100
AcDbText
 10
5130.736684693974
 20
-240.7416801252549
 30
0.0000000002254849
 40
4.55
  1
22
100
AcDbText
1001
ACAD
1000
DSTYLE
1002
{
1070
    40
1040
1.3
1070
    45
1040
0.5
1070
   341
1005
0
1002
}
  0
LINE
  5
C0B8
330
18
100
AcDbEntity
  8
01
  6
BYBLOCK
100
AcDbLine
 10
5188.128363766146
 20
-242.3483480192549
 30
0.0000000000564849
 11
5185.528363766146
 21
-241.6516801252549
 31
0.0000000000564849
  0
LINE
  5
C0B9
330
18
100
AcDbEntity
  8
01
  6
BYBLOCK
100
AcDbLine
 10
5185.528363766146
 20
-241.6516801252549
 30
0.0000000000564849
 11
5188.128363766146
 21
-240.9550122312549
 31
0.0000000000564849
  0
LINE
  5
C0BA
330
18
100
AcDbEntity
  8
01
  6
BYBLOCK
100
AcDbLine
 10
5185.528363766146
 20
-241.6516801252549
 30
0.0000000000564849
 11
5188.128363766146
 21
-241.6516801252549
 31
0.0000000000564849
  0
LINE
  5
C0BB
330
18
100
AcDbEntity
  8
01
  6
BYBLOCK
100
AcDbLine
 10
5191.096947455107
 20
-240.9550122312549
 30
0.0000000000564849
 11
5193.696947455107
 21
-241.6516801252549
 31
0.0000000000564849
  0
LINE
  5
C0BC
330
18
100
AcDbEntity
  8
01
  6
BYBLOCK
100
AcDbLine
 10
5193.696947455107
 20
-241.6516801252549
 30
0.0000000000564849
 11
5191.096947455107
 21
-242.3483480192549
 31
0.0000000000564849
  0
LINE
  5
C0BD
330
18
100
AcDbEntity
  8
01
  6
BYBLOCK
100
AcDbLine
 10
5193.696947455107
 20
-241.6516801252549
 30
0.0000000000564849
 11
5191.096947455107
 21
-241.6516801252549
 31
0.0000000000564849
  0
TEXT
  5
C0BE
330
18
100
AcDbEntity
  8
01
  6
CONTINUOUS
100
AcDbText
 10
5188.09598894396
 20
-240.7416801252549
 30
0.0000000000564849
 40
4.55
  1
8
100
AcDbText
1001
ACAD
1000
DSTYLE
1002
{
1070
    40
1040
1.3
1070
    45
1040
0.5
1070
   271
1070
     1
1070
   341
1005
0
1002
}
  0
SOLID
  5
C0BF
330
18
100
AcDbEntity
  8
1DIM
100
AcDbTrace
 10
5332.898096781147
 20
-123.7024371801989
 30
0.0000000001127424
 11
5335.268848666461
 21
-122.5503463521586
 31
0.0000000001127424
 12
5333.399896611068
 22
-124.4090545036502
 32
0.0000000001127424
 13
5333.399896611068
 23
-124.4090545036502
 33
0.0000000001127424
1001
ACAD
1000
DSTYLE
1002
{
1070
    40
1040
1.3
1070
    45
1040
0.5
1002
}
  0
LINE
  5
C0C0
330
18
100
AcDbEntity
  8
1DIM
100
AcDbLine
 10
5333.148996696107
 20
-124.0557458419245
 30
0.0000000001127424
 11
5305.681408519418
 21
-143.5616801262837
 31
0.0000000001127424
1001
ACAD
1000
DSTYLE
1002
{
1070
    40
1040
1.3
1070
    45
1040
0.5
1002
}
  0
LINE
  5
C0C1
330
18
100
AcDbEntity
  8
1DIM
100
AcDbLine
 10
5351.92913160846
 20
-68.15168012628374
 30
0.0000000002254849
 11
5372.489522368173
 21
-68.15168012628374
 31
0.0000000002254849
1001
ACAD
1000
DSTYLE
1002
{
1070
    45
1040
0.5
1070
    40
1040
1.3
1002
}
  0
LINE
  5
C0C2
330
18
100
AcDbEntity
  8
1DIM
100
AcDbLine
 10
5353.52913160846
 20
-86.95168012628369
 30
0.0000000002254849
 11
5372.489522368173
 21
-86.95168012628369
 31
0.0000000002254849
1001
ACAD
1000
DSTYLE
1002
{
1070
    45
1040
0.5
1070
    40
1040
1.3
1002
}
  0
LINE
  5
C0C3
330
18
100
AcDbEntity
  8
1DIM
100
AcDbLine
 10
5371.189522368173
 20
-70.75168012628373
 30
0.0000000002254849
 11
5371.189522368173
 21
-84.3516801262837
 31
0.0000000002254849
1001
ACAD
1000
DSTYLE
1002
{
1070
    45
1040
0.5
1070
    40
1040
1.3
1002
}
  0
LINE
  5
C0C7
330
18
100
AcDbEntity
  8
1DIM
100
AcDbLine
 10
5445.528241992331
 20
-337.8054394717602
 30
0.0000000002254849
 11
5476.828247426401
 21
-337.8054394717602
 31
0.0000000002254849
1001
ACAD
1000
DSTYLE
1002
{
1070
    40
1040
1.3
1070
   271
1070
     0
1002
}
  0
LINE
  5
C0C8
330
18
100
AcDbEntity
  8
1DIM
100
AcDbLine
 10
5445.528241992331
 20
-357.495285233235
 30
0.0000000002254849
 11
5476.828247426401
 21
-357.495285233235
 31
0.0000000002254849
1001
ACAD
1000
DSTYLE
1002
{
1070
    40
1040
1.3
1070
   271
1070
     0
1002
}
  0
LINE
  5
C0C9
330
18
100
AcDbEntity
  8
1DIM
100
AcDbLine
 10
5475.5282474264
 20
-340.4054394717602
 30
0.0000000002254849
 11
5475.5282474264
 21
-354.895285233235
 31
0.0000000002254849
1001
ACAD
1000
DSTYLE
1002
{
1070
    40
1040
1.3
1070
   271
1070
     0
1002
}
  0
LINE
  5
C0CD
330
18
100
AcDbEntity
  8
1DIM
100
AcDbLine
 10
5320.528363766145
 20
-160.6503618131808
 30
0.0000000002254849
 11
5320.528363766145
 21
-188.9501281650534
 31
0.0000000002254849
1001
ACAD
1000
DSTYLE
1002
{
1070
    40
1040
1.3
1002
}
  0
LINE
  5
C0CE
330
18
100
AcDbEntity
  8
1DIM
100
AcDbLine
 10
5460.528363766145
 20
-162.6503618131807
 30
0.0000000002254849
 11
5460.528363766145
 21
-188.9501281650534
 31
0.0000000002254849
1001
ACAD
1000
DSTYLE
1002
{
1070
    40
1040
1.3
1002
}
  0
LINE
  5
C0CF
330
18
100
AcDbEntity
  8
1DIM
100
AcDbLine
 10
5323.128363766145
 20
-187.6501281650534
 30
0.0000000002254849
 11
5457.928363766145
 21
-187.6501281650534
 31
0.0000000002254849
1001
ACAD
1000
DSTYLE
1002
{
1070
    40
1040
1.3
1002
}
  0
LINE
  5
C0D3
330
18
100
AcDbEntity
  8
1DIM
100
AcDbLine
 10
5335.528363766145
 20
-146.6503618131805
 30
0.0000000002254849
 11
5335.528363766145
 21
-178.9501281650534
 31
0.0000000002254849
1001
ACAD
1000
DSTYLE
1002
{
1070
    40
1040
1.3
1002
}
  0
LINE
  5
C0D4
330
18
100
AcDbEntity
  8
1DIM
100
AcDbLine
 10
5460.528129399006
 20
-160.6816175638459
 30
0.0000000002254849
 11
5460.528129399006
 21
-178.9501281650534
 31
0.0000000002254849
1001
ACAD
1000
DSTYLE
1002
{
1070
    40
1040
1.3
1002
}
  0
LINE
  5
C0D5
330
18
100
AcDbEntity
  8
1DIM
100
AcDbLine
 10
5338.128363766145
 20
-177.6501281650534
 30
0.0000000002254849
 11
5457.928129399005
 21
-177.6501281650534
 31
0.0000000002254849
1001
ACAD
1000
DSTYLE
1002
{
1070
    40
1040
1.3
1002
}
  0
LINE
  5
C0D9
330
18
100
AcDbEntity
  8
1DIM
100
AcDbLine
 10
5458.571259040372
 20
-132.6508036184012
 30
0.0000000002254849
 11
5476.828363766145
 21
-132.6508036184012
 31
0.0000000002254849
1001
ACAD
1000
DSTYLE
1002
{
1070
    40
1040
1.3
1070
   271
1070
     0
1002
}
  0
LINE
  5
C0DA
330
18
100
AcDbEntity
  8
1DIM
100
AcDbLine
 10
5438.283511763492
 20
-97.65036181318095
 30
0.0000000002254849
 11
5476.828363766145
 21
-97.65036181318096
 31
0.0000000002254849
1001
ACAD
1000
DSTYLE
1002
{
1070
    40
1040
1.3
1070
   271
1070
     0
1002
}
  0
LINE
  5
C0DB
330
18
100
AcDbEntity
  8
1DIM
100
AcDbLine
 10
5475.528363766145
 20
-130.0508036184012
 30
0.0000000002254849
 11
5475.528363766145
 21
-100.250361813181
 31
0.0000000002254849
1001
ACAD
1000
DSTYLE
1002
{
1070
    40
1040
1.3
1070
   271
1070
     0
1002
}
  0
LINE
  5
C0DF
330
18
100
AcDbEntity
  8
1DIM
100
AcDbLine
 10
5458.571259040372
 20
-162.6501281650535
 30
0.0000000002254849
 11
5486.828363766145
 21
-162.6501281650535
 31
0.0000000002254849
1001
ACAD
1000
DSTYLE
1002
{
1070
    40
1040
1.3
1070
   271
1070
     0
1002
}
  0
LINE
  5
C0E0
330
18
100
AcDbEntity
  8
1DIM
100
AcDbLine
 10
5438.283511763492
 20
-97.65036181318095
 30
0.0000000002254849
 11
5486.828363766145
 21
-97.65036181318096
 31
0.0000000002254849
1001
ACAD
1000
DSTYLE
1002
{
1070
    40
1040
1.3
1070
   271
1070
     0
1002
}
  0
LINE
  5
C0E1
330
18
100
AcDbEntity
  8
1DIM
100
AcDbLine
 10
5485.528363766145
 20
-160.0501281650535
 30
0.0000000002254849
 11
5485.528363766145
 21
-100.250361813181
 31
0.0000000002254849
1001
ACAD
1000
DSTYLE
1002
{
1070
    40
1040
1.3
1070
   271
1070
     0
1002
}
  0
LINE
  5
C0E5
330
18
100
AcDbEntity
  8
1DIM
100
AcDbLine
 10
4965.528480105892
 20
-347.6516801252551
 30
0.0
 11
4959.080133899486
 21
-347.6516801252551
 31
0.0
1001
ACAD
1000
DSTYLE
1002
{
1070
    40
1040
1.3
1002
}
  0
LINE
  5
C0E6
330
18
100
AcDbEntity
  8
1DIM
100
AcDbLine
 10
4973.028359766146
 20
-292.1516801252549
 30
0.0
 11
4959.080133899486
 21
-292.1516801252549
 31
0.0
1001
ACAD
1000
DSTYLE
1002
{
1070
    40
1040
1.3
1002
}
  0
LINE
  5
C0E7
330
18
100
AcDbEntity
  8
1DIM
100
AcDbLine
 10
4960.380133899486
 20
-345.0516801252551
 30
0.0
 11
4960.380133899486
 21
-294.7516801252549
 31
0.0
1001
ACAD
1000
DSTYLE
1002
{
1070
    40
1040
1.3
1002
}
  0
LINE
  5
C0EB
330
18
100
AcDbEntity
  8
0
  6
BYBLOCK
100
AcDbLine
 10
5370.492854474173
 20
-70.75168012628373
 30
0.0000000002254849
 11
5371.189522368173
 21
-68.15168012628374
 31
0.0000000002254849
  0
LINE
  5
C0EC
330
18
100
AcDbEntity
  8
0
  6
BYBLOCK
100
AcDbLine
 10
5371.189522368173
 20
-68.15168012628374
 30
0.0000000002254849
 11
5371.886190262173
 21
-70.75168012628373
 31
0.0000000002254849
  0
LINE
  5
C0ED
330
18
100
AcDbEntity
  8
0
  6
BYBLOCK
100
AcDbLine
 10
5371.189522368173
 20
-68.15168012628374
 30
0.0000000002254849
 11
5371.189522368173
 21
-70.75168012628373
 31
0.0000000002254849
  0
LINE
  5
C0EE
330
18
100
AcDbEntity
  8
0
  6
BYBLOCK
100
AcDbLine
 10
5371.886190262173
 20
-84.3516801262837
 30
0.0000000002254849
 11
5371.189522368173
 21
-86.95168012628369
 31
0.0000000002254849
  0
LINE
  5
C0EF
330
18
100
AcDbEntity
  8
0
  6
BYBLOCK
100
AcDbLine
 10
5371.189522368173
 20
-86.95168012628369
 30
0.0000000002254849
 11
5370.492854474173
 21
-84.3516801262837
 31
0.0000000002254849
  0
LINE
  5
C0F0
330
18
100
AcDbEntity
  8
0
  6
BYBLOCK
100
AcDbLine
 10
5371.189522368173
 20
-86.95168012628369
 30
0.0000000002254849
 11
5371.189522368173
 21
-84.3516801262837
 31
0.0000000002254849
  0
TEXT
  5
C0F1
330
18
100
AcDbEntity
  8
1DIM
  6
CONTINUOUS
100
AcDbText
 10
5370.279522368173
 20
-80.58606670035806
 30
0.0000000002254849
 40
4.55
  1
19
 50
90.0
100
AcDbText
1001
ACAD
1000
DSTYLE
1002
{
1070
    45
1040
0.5
1070
    40
1040
1.3
1002
}
  0
LINE
  5
C0F2
330
18
100
AcDbEntity
  8
0
  6
BYBLOCK
100
AcDbLine
 10
5474.831579532401
 20
-340.4054394717602
 30
0.0000000002254849
 11
5475.5282474264
 21
-337.8054394717602
 31
0.0000000002254849
  0
LINE
  5
C0F3
330
18
100
AcDbEntity
  8
0
  6
BYBLOCK
100
AcDbLine
 10
5475.5282474264
 20
-337.8054394717602
 30
0.0000000002254849
 11
5476.2249153204
 21
-340.4054394717602
 31
0.0000000002254849
  0
LINE
  5
C0F4
330
18
100
AcDbEntity
  8
0
  6
BYBLOCK
100
AcDbLine
 10
5475.5282474264
 20
-337.8054394717602
 30
0.0000000002254849
 11
5475.5282474264
 21
-340.4054394717602
 31
0.0000000002254849
  0
LINE
  5
C0F5
330
18
100
AcDbEntity
  8
0
  6
BYBLOCK
100
AcDbLine
 10
5476.2249153204
 20
-354.895285233235
 30
0.0000000002254849
 11
5475.5282474264
 21
-357.495285233235
 31
0.0000000002254849
  0
LINE
  5
C0F6
330
18
100
AcDbEntity
  8
0
  6
BYBLOCK
100
AcDbLine
 10
5475.5282474264
 20
-357.495285233235
 30
0.0000000002254849
 11
5474.831579532401
 21
-354.895285233235
 31
0.0000000002254849
  0
LINE
  5
C0F7
330
18
100
AcDbEntity
  8
0
  6
BYBLOCK
100
AcDbLine
 10
5475.5282474264
 20
-357.495285233235
 30
0.0000000002254849
 11
5475.5282474264
 21
-354.895285233235
 31
0.0000000002254849
  0
TEXT
  5
C0F8
330
18
100
AcDbEntity
  8
1DIM
  6
CONTINUOUS
100
AcDbText
 10
5474.618247426401
 20
-351.1576540191636
 30
0.0000000002254849
 40
4.55
  1
20
 50
90.0
100
AcDbText
1001
ACAD
1000
DSTYLE
1002
{
1070
    40
1040
1.3
1070
   271
1070
     0
1002
}
  0
LINE
  5
C0F9
330
18
100
AcDbEntity
  8
0
  6
BYBLOCK
100
AcDbLine
 10
5323.128363766145
 20
-188.3467960590534
 30
0.0000000002254849
 11
5320.528363766145
 21
-187.6501281650534
 31
0.0000000002254849
  0
LINE
  5
C0FA
330
18
100
AcDbEntity
  8
0
  6
BYBLOCK
100
AcDbLine
 10
5320.528363766145
 20
-187.6501281650534
 30
0.0000000002254849
 11
5323.128363766145
 21
-186.9534602710534
 31
0.0000000002254849
  0
LINE
  5
C0FB
330
18
100
AcDbEntity
  8
0
  6
BYBLOCK
100
AcDbLine
 10
5320.528363766145
 20
-187.6501281650534
 30
0.0000000002254849
 11
5323.128363766145
 21
-187.6501281650534
 31
0.0000000002254849
  0
LINE
  5
C0FC
330
18
100
AcDbEntity
  8
0
  6
BYBLOCK
100
AcDbLine
 10
5457.928363766145
 20
-186.9534602710534
 30
0.0000000002254849
 11
5460.528363766145
 21
-187.6501281650534
 31
0.0000000002254849
  0
LINE
  5
C0FD
330
18
100
AcDbEntity
  8
0
  6
BYBLOCK
100
AcDbLine
 10
5460.528363766145
 20
-187.6501281650534
 30
0.0000000002254849
 11
5457.928363766145
 21
-188.3467960590534
 31
0.0000000002254849
  0
LINE
  5
C0FE
330
18
100
AcDbEntity
  8
0
  6
BYBLOCK
100
AcDbLine
 10
5460.528363766145
 20
-187.6501281650534
 30
0.0000000002254849
 11
5457.928363766145
 21
-187.6501281650534
 31
0.0000000002254849
  0
TEXT
  5
C0FF
330
18
100
AcDbEntity
  8
1DIM
  6
CONTINUOUS
100
AcDbText
 10
5385.504405432812
 20
-186.7401281650534
 30
0.0000000002254849
 40
4.55
  1
140
100
AcDbText
1001
ACAD
1000
DSTYLE
1002
{
1070
    40
1040
1.3
1002
}
  0
LINE
  5
C100
330
18
100
AcDbEntity
  8
0
  6
BYBLOCK
100
AcDbLine
 10
5338.128363766145
 20
-178.3467960590534
 30
0.0000000002254849
 11
5335.528363766145
 21
-177.6501281650534
 31
0.0000000002254849
  0
LINE
  5
C101
330
18
100
AcDbEntity
  8
0
  6
BYBLOCK
100
AcDbLine
 10
5335.528363766145
 20
-177.6501281650534
 30
0.0000000002254849
 11
5338.128363766145
 21
-176.9534602710534
 31
0.0000000002254849
  0
LINE
  5
C102
330
18
100
AcDbEntity
  8
0
  6
BYBLOCK
100
AcDbLine
 10
5335.528363766145
 20
-177.6501281650534
 30
0.0000000002254849
 11
5338.128363766145
 21
-177.6501281650534
 31
0.0000000002254849
  0
LINE
  5
C103
330
18
100
AcDbEntity
  8
0
  6
BYBLOCK
100
AcDbLine
 10
5457.928129399005
 20
-176.9534602710534
 30
0.0000000002254849
 11
5460.528129399006
 21
-177.6501281650534
 31
0.0000000002254849
  0
LINE
  5
C104
330
18
100
AcDbEntity
  8
0
  6
BYBLOCK
100
AcDbLine
 10
5460.528129399006
 20
-177.6501281650534
 30
0.0000000002254849
 11
5457.928129399005
 21
-178.3467960590534
 31
0.0000000002254849
  0
LINE
  5
C105
330
18
100
AcDbEntity
  8
0
  6
BYBLOCK
100
AcDbLine
 10
5460.528129399006
 20
-177.6501281650534
 30
0.0000000002254849
 11
5457.928129399005
 21
-177.6501281650534
 31
0.0000000002254849
  0
TEXT
  5
C106
330
18
100
AcDbEntity
  8
1DIM
  6
CONTINUOUS
100
AcDbText
 10
5392.719913249241
 20
-176.7401281650534
 30
0.0000000002254849
 40
4.55
  1
125
100
AcDbText
1001
ACAD
1000
DSTYLE
1002
{
1070
    40
1040
1.3
1002
}
  0
LINE
  5
C107
330
18
100
AcDbEntity
  8
0
  6
BYBLOCK
100
AcDbLine
 10
5476.225031660145
 20
-130.0508036184012
 30
0.0000000002254849
 11
5475.528363766145
 21
-132.6508036184012
 31
0.0000000002254849
  0
LINE
  5
C108
330
18
100
AcDbEntity
  8
0
  6
BYBLOCK
100
AcDbLine
 10
5475.528363766145
 20
-132.6508036184012
 30
0.0000000002254849
 11
5474.831695872145
 21
-130.0508036184012
 31
0.0000000002254849
  0
LINE
  5
C109
330
18
100
AcDbEntity
  8
0
  6
BYBLOCK
100
AcDbLine
 10
5475.528363766145
 20
-132.6508036184012
 30
0.0000000002254849
 11
5475.528363766145
 21
-130.0508036184012
 31
0.0000000002254849
  0
LINE
  5
C10A
330
18
100
AcDbEntity
  8
0
  6
BYBLOCK
100
AcDbLine
 10
5474.831695872145
 20
-100.250361813181
 30
0.0000000002254849
 11
5475.528363766145
 21
-97.65036181318096
 31
0.0000000002254849
  0
LINE
  5
C10B
330
18
100
AcDbEntity
  8
0
  6
BYBLOCK
100
AcDbLine
 10
5475.528363766145
 20
-97.65036181318096
 30
0.0000000002254849
 11
5476.225031660145
 21
-100.250361813181
 31
0.0000000002254849
  0
LINE
  5
C10C
330
18
100
AcDbEntity
  8
0
  6
BYBLOCK
100
AcDbLine
 10
5475.528363766145
 20
-97.65036181318096
 30
0.0000000002254849
 11
5475.528363766145
 21
-100.250361813181
 31
0.0000000002254849
  0
TEXT
  5
C10D
330
18
100
AcDbEntity
  8
1DIM
  6
CONTINUOUS
100
AcDbText
 10
5474.618363766144
 20
-118.9422493824568
 30
0.0000000002254849
 40
4.55
  1
35
 50
90.0
100
AcDbText
1001
ACAD
1000
DSTYLE
1002
{
1070
    40
1040
1.3
1070
   271
1070
     0
1002
}
  0
LINE
  5
C10E
330
18
100
AcDbEntity
  8
0
  6
BYBLOCK
100
AcDbLine
 10
5486.225031660145
 20
-160.0501281650535
 30
0.0000000002254849
 11
5485.528363766145
 21
-162.6501281650535
 31
0.0000000002254849
  0
LINE
  5
C10F
330
18
100
AcDbEntity
  8
0
  6
BYBLOCK
100
AcDbLine
 10
5485.528363766145
 20
-162.6501281650535
 30
0.0000000002254849
 11
5484.831695872145
 21
-160.0501281650535
 31
0.0000000002254849
  0
LINE
  5
C110
330
18
100
AcDbEntity
  8
0
  6
BYBLOCK
100
AcDbLine
 10
5485.528363766145
 20
-162.6501281650535
 30
0.0000000002254849
 11
5485.528363766145
 21
-160.0501281650535
 31
0.0000000002254849
  0
LINE
  5
C111
330
18
100
AcDbEntity
  8
0
  6
BYBLOCK
100
AcDbLine
 10
5484.831695872145
 20
-100.250361813181
 30
0.0000000002254849
 11
5485.528363766145
 21
-97.65036181318096
 31
0.0000000002254849
  0
LINE
  5
C112
330
18
100
AcDbEntity
  8
0
  6
BYBLOCK
100
AcDbLine
 10
5485.528363766145
 20
-97.65036181318096
 30
0.0000000002254849
 11
5486.225031660145
 21
-100.250361813181
 31
0.0000000002254849
  0
LINE
  5
C113
330
18
100
AcDbEntity
  8
0
  6
BYBLOCK
100
AcDbLine
 10
5485.528363766145
 20
-97.65036181318096
 30
0.0000000002254849
 11
5485.528363766145
 21
-100.250361813181
 31
0.0000000002254849
  0
TEXT
  5
C114
330
18
100
AcDbEntity
  8
1DIM
  6
CONTINUOUS
100
AcDbText
 10
5484.618363766144
 20
-133.9577102668945
 30
0.0000000002254849
 40
4.55
  1
65
 50
90.0
100
AcDbText
1001
ACAD
1000
DSTYLE
1002
{
1070
    40
1040
1.3
1070
   271
1070
     0
1002
}
  0
LINE
  5
C115
330
18
100
AcDbEntity
  8
0
  6
BYBLOCK
100
AcDbLine
 10
4961.076801793486
 20
-345.0516801252551
 30
0.0
 11
4960.380133899486
 21
-347.6516801252551
 31
0.0
  0
LINE
  5
C116
330
18
100
AcDbEntity
  8
0
  6
BYBLOCK
100
AcDbLine
 10
4960.380133899486
 20
-347.6516801252551
 30
0.0
 11
4959.683466005486
 21
-345.0516801252551
 31
0.0
  0
LINE
  5
C117
330
18
100
AcDbEntity
  8
0
  6
BYBLOCK
100
AcDbLine
 10
4960.380133899486
 20
-347.6516801252551
 30
0.0
 11
4960.380133899486
 21
-345.0516801252551
 31
0.0
  0
LINE
  5
C118
330
18
100
AcDbEntity
  8
0
  6
BYBLOCK
100
AcDbLine
 10
4959.683466005486
 20
-294.7516801252549
 30
0.0
 11
4960.380133899486
 21
-292.1516801252549
 31
0.0
  0
LINE
  5
C119
330
18
100
AcDbEntity
  8
0
  6
BYBLOCK
100
AcDbLine
 10
4960.380133899486
 20
-292.1516801252549
 30
0.0
 11
4961.076801793486
 21
-294.7516801252549
 31
0.0
  0
LINE
  5
C11A
330
18
100
AcDbEntity
  8
0
  6
BYBLOCK
100
AcDbLine
 10
4960.380133899486
 20
-292.1516801252549
 30
0.0
 11
4960.380133899486
 21
-294.7516801252549
 31
0.0
  0
TEXT
  5
C11B
330
18
100
AcDbEntity
  8
1DIM
  6
CONTINUOUS
100
AcDbText
 10
4959.470133899486
 20
-326.7582773474769
 30
0.0
 40
4.55
  1
55.5
 50
90.0
100
AcDbText
1001
ACAD
1000
DSTYLE
1002
{
1070
    40
1040
1.3
1002
}
  0
VIEWPORT
  5
57
330
15
100
AcDbEntity
 67
     1
  8
0
100
AcDbViewport
 68
     1
 10
0.0
 20
0.0
 30
0.0
 40
555.8298653610772
 41
297.0
 68
     1
 69
     1
1001
ACAD
1000
MVIEW
1002
{
1070
    16
1010
0.0
1020
0.0
1030
0.0
1010
0.0
1020
0.0
1030
1.0
1040
0.0
1040
297.0
1040
5.728000000000009
1040
25.33899999999998
1040
50.0
1040
0.0
1040
0.0
1070
    16
1070
   100
1070
     0
1070
     1
1070
     0
1070
     0
1070
     0
1070
     0
1040
0.0
1040
0.0
1040
0.0
1040
10.0
1040
10.0
1040
10.0
1040
10.0
1070
     0
1002
{
1002
}
1002
}
  0
ENDSEC
  0
SECTION
  2
OBJECTS
  0
DICTIONARY
  5
C
330
0
100
AcDbDictionary
  3
ACAD_CIP_PREVIOUS_PRODUCT_INFO
350
AEA8
  3
ACAD_COLOR
350
18D
  3
ACAD_GROUP
350
D
  3
ACAD_LAYOUT
350
18E
  3
ACAD_MATERIAL
350
18C
  3
ACAD_MLEADERSTYLE
350
9583
  3
ACAD_MLINESTYLE
350
1B
  3
ACAD_PLOTSETTINGS
350
18F
  3
ACAD_SCALELIST
350
9561
  3
ACAD_VISUALSTYLE
350
9550
  3
ACDBHEADERROUNDTRIPXREC
350
C11C
  3
ACDBVARIABLEDICTIONARY
350
37
  3
AEC_PROPERTY_SET_DEFS
350
AF4D
  3
CONTENTDICTIONARY
350
D8
  3
DRAWINGVARIABLESDICT
350
20
  3
DWGPROPS
350
C11F
1001
ACAD
1000
TREAT_AS_HARD
1070
     0
  0
DICTIONARY
  5
96D9
330
2
100
AcDbDictionary
  3
ACAD_LAYERSTATES
360
96DA
1001
ACAD
1000
TREAT_AS_HARD
1070
     1
  0
DICTIONARY
  5
9593
330
E
100
AcDbDictionary
  3
ADSK_XREC_LAYER_RECONCILED
360
9594
1001
ACAD
1000
TREAT_AS_HARD
1070
     1
  0
DICTIONARY
  5
9595
330
29
100
AcDbDictionary
  3
ADSK_XREC_LAYER_RECONCILED
360
9596
1001
ACAD
1000
TREAT_AS_HARD
1070
     1
  0
DICTIONARY
  5
9597
330
31
100
AcDbDictionary
  3
ADSK_XREC_LAYER_RECONCILED
360
9598
1001
ACAD
1000
TREAT_AS_HARD
1070
     1
  0
DICTIONARY
  5
959D
330
243
100
AcDbDictionary
  3
ADSK_XREC_LAYER_RECONCILED
360
959E
1001
ACAD
1000
TREAT_AS_HARD
1070
     1
  0
DICTIONARY
  5
95A3
330
24E
100
AcDbDictionary
  3
ADSK_XREC_LAYER_RECONCILED
360
95A4
1001
ACAD
1000
TREAT_AS_HARD
1070
     1
  0
DICTIONARY
  5
95AF
330
2C05
100
AcDbDictionary
  3
ADSK_XREC_LAYER_RECONCILED
360
95B0
1001
ACAD
1000
TREAT_AS_HARD
1070
     1
  0
DICTIONARY
  5
88F
330
18
100
AcDbDictionary
  3
ACAD_SORTENTS
360
890
1001
ACAD
1000
TREAT_AS_HARD
1070
     1
  0
XRECORD
  5
AEA8
102
{ACAD_REACTORS
330
C
102
}
330
C
100
AcDbXrecord
300
ACDLT
300
2012
300
ACDLT_F_S
  0
DICTIONARY
  5
18D
102
{ACAD_REACTORS
330
C
102
}
330
C
100
AcDbDictionary
1001
ACAD
1000
TREAT_AS_HARD
1070
     0
  0
DICTIONARY
  5
D
102
{ACAD_REACTORS
330
C
102
}
330
C
100
AcDbDictionary
1001
ACAD
1000
TREAT_AS_HARD
1070
     0
  0
DICTIONARY
  5
18E
102
{ACAD_REACTORS
330
C
102
}
330
C
100
AcDbDictionary
1001
ACAD
1000
TREAT_AS_HARD
1070
     0
  0
DICTIONARY
  5
18C
102
{ACAD_REACTORS
330
C
102
}
330
C
100
AcDbDictionary
  3
BYBLOCK
350
9540
  3
BYLAYER
350
9538
  3
GLOBAL
350
9548
1001
ACAD
1000
TREAT_AS_HARD
1070
     0
  0
DICTIONARY
  5
9583
102
{ACAD_REACTORS
330
C
102
}
330
C
100
AcDbDictionary
  3
STANDARD
350
9584
1001
ACAD
1000
TREAT_AS_HARD
1070
     0
  0
DICTIONARY
  5
1B
102
{ACAD_REACTORS
330
C
102
}
330
C
100
AcDbDictionary
  3
STANDARD
350
1C
1001
ACAD
1000
TREAT_AS_HARD
1070
     0
  0
DICTIONARY
  5
18F
102
{ACAD_REACTORS
330
C
102
}
330
C
100
AcDbDictionary
1001
ACAD
1000
TREAT_AS_HARD
1070
     0
  0
DICTIONARY
  5
9561
102
{ACAD_REACTORS
330
C
102
}
330
C
100
AcDbDictionary
  3
A0
350
9562
  3
A1
350
9563
  3
A2
350
9564
  3
A3
350
9565
  3
A4
350
9566
  3
A5
350
9567
  3
A6
350
9568
  3
A7
350
9569
  3
A8
350
956A
  3
A9
350
956B
  3
B0
350
956C
  3
B1
350
956D
  3
B2
350
956E
  3
B3
350
956F
  3
B4
350
9570
  3
B5
350
9571
  3
B6
350
9572
  3
B7
350
9573
  3
B8
350
9574
  3
B9
350
9575
  3
C0
350
9576
  3
C1
350
9577
  3
C2
350
9578
  3
C3
350
9579
  3
C4
350
957A
  3
C5
350
957B
  3
C6
350
957C
  3
C7
350
957D
  3
C8
350
957E
  3
C9
350
957F
  3
D0
350
9580
  3
D1
350
9581
  3
D2
350
9582
1001
ACAD
1000
TREAT_AS_HARD
1070
     0
  0
DICTIONARY
  5
9550
102
{ACAD_REACTORS
330
C
102
}
330
C
100
AcDbDictionary
  3
2DWIREFRAME
350
9556
  3
3D_HIDDEN
350
9558
  3
3DWIREFRAME
350
9557
  3
BASIC
350
9555
  3
BRIGHTEN
350
955C
  3
COLORCHANGE
350
9560
  3
CONCEPTUAL
350
9559
  3
DIM
350
955B
  3
EDGECOLOROFF
350
A211
  3
FACEPATTERN
350
955F
  3
FLAT
350
9551
  3
FLATWITHEDGES
350
9552
  3
GOURAUD
350
9553
  3
GOURAUDWITHEDGES
350
9554
  3
HIDDEN
350
A260
  3
JITTEROFF
350
A20F
  3
LINEPATTERN
350
955E
  3
MODELING
350
A266
  3
OVERHANGOFF
350
A210
  3
REALISTIC
350
955A
  3
SHADED
350
A265
  3
SHADED_WITH_EDGES
350
A264
  3
SHADES_OF_GRAY
350
A261
  3
SKETCHY
350
A262
  3
THICKEN
350
955D
  3
WIREFRAME
350
A25F
  3
X-RAY
350
A263
1001
ACAD
1000
TREAT_AS_HARD
1070
     0
  0
DICTIONARY
  5
C11C
102
{ACAD_REACTORS
330
C
102
}
330
C
100
AcDbDictionary
  3
COLORDICT
350
C11D
  3
MATERIALDICT
350
C11E
1001
ACAD
1000
TREAT_AS_HARD
1070
     0
  0
DICTIONARY
  5
37
102
{ACAD_REACTORS
330
C
102
}
330
C
100
AcDbDictionary
  3
CANNOSCALE
350
AAE0
  3
CMLEADERSTYLE
350
9627
  3
CTABLESTYLE
350
29E
  3
DIMADEC
350
38
  3
DIMASSOC
350
1CE
  3
HIDETEXT
350
704E
  3
INDEXCTL
350
962A
  3
INTERSECTIONCOLOR
350
7052
  3
INTERSECTIONDISPLAY
350
7051
  3
MSLTSCALE
350
AB30
  3
OBSCOLOR
350
704F
  3
OBSLTYPE
350
7050
  3
PROJECTNAME
350
1CF
  3
SORTENTS
350
9629
  3
XCLIPFRAME
350
BEF6
1001
ACAD
1000
TREAT_AS_HARD
1070
     0
  0
DICTIONARY
  5
AF4D
102
{ACAD_REACTORS
330
C
102
}
330
C
100
AcDbDictionary
1001
ACAD
1000
TREAT_AS_HARD
1070
     0
  0
DICTIONARY
  5
D8
102
{ACAD_REACTORS
330
C
102
}
330
C
100
AcDbDictionary
1001
ACAD
1000
TREAT_AS_HARD
1070
     0
  0
DICTIONARY
  5
20
102
{ACAD_REACTORS
330
C
102
}
330
C
100
AcDbDictionary
1001
DRAWINGVARIABLESXDATA
1000
POLARANG
1000
0.261799387799149410000000
1000
POLARMODE
1000
1
1000
POLARSTYLE
1000
1
1001
ACAD
1000
TREAT_AS_HARD
1070
     0
  0
XRECORD
  5
C11F
102
{ACAD_REACTORS
330
C
102
}
330
C
100
AcDbXrecord
  1
DWGPROPS COOKIE
  2

  3

  4

  6

  7

  8
3684
  9

300
=
301
=
302
=
303
=
304
=
305
=
306
=
307
=
308
=
309
=
 40
0.0
 41
2451318.246352917
 42
2458164.989239039
  1

 90
        0
  0
DICTIONARY
  5
96DA
102
{ACAD_REACTORS
330
96D9
102
}
330
96D9
100
AcDbDictionary
1001
ACAD
1000
TREAT_AS_HARD
1070
     0
  0
ACAD_PROXY_OBJECT
  5
9594
102
{ACAD_REACTORS
330
9593
102
}
330
9593
100
AcDbZombieObject
 90
      499
 91
      514
 93
       34
310
40C8804040
  0
ACAD_PROXY_OBJECT
  5
9596
102
{ACAD_REACTORS
330
9595
102
}
330
9595
100
AcDbZombieObject
 90
      499
 91
      514
 93
       34
310
40C8804040
  0
ACAD_PROXY_OBJECT
  5
9598
102
{ACAD_REACTORS
330
9597
102
}
330
9597
100
AcDbZombieObject
 90
      499
 91
      514
 93
       34
310
40C8804040
  0
ACAD_PROXY_OBJECT
  5
959E
102
{ACAD_REACTORS
330
959D
102
}
330
959D
100
AcDbZombieObject
 90
      499
 91
      514
 93
       34
310
40C8804040
  0
ACAD_PROXY_OBJECT
  5
95A4
102
{ACAD_REACTORS
330
95A3
102
}
330
95A3
100
AcDbZombieObject
 90
      499
 91
      514
 93
       34
310
40C8804040
  0
ACAD_PROXY_OBJECT
  5
95B0
102
{ACAD_REACTORS
330
95AF
102
}
330
95AF
100
AcDbZombieObject
 90
      499
 91
      514
 93
       34
310
40C8804040
  0
SORTENTSTABLE
  5
890
102
{ACAD_REACTORS
330
88F
102
}
330
88F
100
AcDbSortentsTable
330
18
331
AF56
  5
B3A9
331
AF57
  5
B3B4
331
AF58
  5
B3B5
331
AF59
  5
B3B6
331
AF5A
  5
B3BA
331
AF5B
  5
B3BE
331
AF70
  5
B3BF
331
AF72
  5
B3C0
331
AF78
  5
B3C1
331
AF88
  5
B3C2
331
AF89
  5
B3C3
331
AF90
  5
B3C5
331
AF91
  5
B3C9
331
0
  5
B3CC
331
B3B4
  5
B3E2
331
B3B5
  5
B3E3
331
B3B6
  5
B3E4
331
B3BA
  5
B403
331
B3BE
  5
B408
331
B3BF
  5
B409
331
B3C0
  5
B40B
331
B3C1
  5
B40C
331
B3C2
  5
B40D
331
B3C3
  5
B40E
331
B3C5
  5
B40F
331
B3C6
  5
B410
331
B3C7
  5
B411
331
B3C8
  5
B412
331
B3C9
  5
B413
331
B3CA
  5
B414
331
B3CB
  5
B415
331
B3CC
  5
B416
331
B3CD
  5
B417
331
B3CE
  5
B418
331
B3CF
  5
B419
331
B3D0
  5
B41A
331
B3D1
  5
B41B
331
B3D2
  5
B41C
331
B3D3
  5
B41D
331
B3D4
  5
B41E
331
B3D5
  5
B41F
331
B3D6
  5
B420
331
B3D7
  5
B421
331
B3D8
  5
B422
331
B3D9
  5
B423
331
B3DA
  5
B424
331
B3DB
  5
B425
331
B3DC
  5
B426
331
B3DD
  5
B427
331
B3DE
  5
B428
331
B3DF
  5
B429
331
B3E0
  5
B42A
331
B3E1
  5
B42B
331
B3E2
  5
B42C
331
B3E3
  5
B432
331
B3E4
  5
B433
331
B3E5
  5
B434
331
B3E6
  5
B435
331
B3E7
  5
B436
331
B3E8
  5
B437
331
B3E9
  5
B438
331
B3EA
  5
B43E
331
B3EB
  5
B43F
331
B3EC
  5
B440
331
B3ED
  5
B441
331
B3EE
  5
B442
331
B3EF
  5
B443
331
B3F0
  5
B444
331
B3F1
  5
B445
331
B3F2
  5
B446
331
B3F3
  5
B447
331
B3F4
  5
B448
331
B3F5
  5
B449
331
B3F6
  5
B44A
331
B3F7
  5
B44B
331
B3F8
  5
B44C
331
B3F9
  5
B44D
331
B3FA
  5
B44F
331
B3FB
  5
B450
331
B3FC
  5
B452
331
B3FD
  5
B453
331
B3FE
  5
B454
331
B3FF
  5
B455
331
B400
  5
B456
331
B401
  5
B458
331
B402
  5
B459
331
0
  5
B457
331
B408
  5
B46A
331
B409
  5
B46B
331
B40A
  5
B46D
331
B40B
  5
B472
331
B40C
  5
B473
331
B40D
  5
B474
331
B40E
  5
B475
331
B40F
  5
B476
331
B410
  5
B47E
331
B411
  5
B481
331
B412
  5
B5DC
331
B413
  5
B61E
331
B414
  5
B771
331
B415
  5
B772
331
B416
  5
B773
331
B417
  5
B774
331
B418
  5
B775
331
B419
  5
B778
331
B41A
  5
B779
331
B41B
  5
B77A
331
B41C
  5
B77B
331
B41D
  5
B77C
331
B41E
  5
B77D
331
B41F
  5
B77F
331
B420
  5
B78E
331
B421
  5
B794
331
B422
  5
B795
331
B423
  5
B796
331
B424
  5
B797
331
B425
  5
B798
331
B426
  5
B799
331
B427
  5
B79A
331
B428
  5
B79B
331
B429
  5
B79C
331
B42A
  5
B79D
331
B42B
  5
B79E
331
0
  5
B42D
331
B42D
  5
B7AA
331
B432
  5
B7AB
331
B433
  5
B7AE
331
B434
  5
B7B0
331
B435
  5
B7B4
331
B436
  5
B7B5
331
B437
  5
B7B6
331
B438
  5
B7BA
331
B43E
  5
B7BB
331
B43F
  5
B7BC
331
B440
  5
B7BD
331
B441
  5
B7BE
331
B442
  5
B7BF
331
B443
  5
B7C3
331
B444
  5
B7C4
331
B445
  5
B7C5
331
B446
  5
B7C6
331
B447
  5
B7C7
331
B448
  5
B7C8
331
B449
  5
B7C9
331
B44A
  5
B7CA
331
B44B
  5
B7CB
331
B44C
  5
B7CC
331
B44D
  5
B7CD
331
B44F
  5
B7CE
331
B450
  5
B7CF
331
B452
  5
B7D0
331
B453
  5
B7D4
331
B454
  5
B7D5
331
B455
  5
B7D6
331
B456
  5
B7D7
331
B457
  5
B7D8
331
B458
  5
B7DC
331
B459
  5
B7DD
331
B45A
  5
B7DE
331
B45B
  5
B7DF
331
B45C
  5
B7E0
331
B45D
  5
B7E2
331
B45E
  5
B7E3
331
B45F
  5
B7E4
331
B460
  5
B7E5
331
B461
  5
B7E6
331
B462
  5
B7E7
331
B463
  5
B7E8
331
B464
  5
B916
331
B465
  5
B99E
331
B466
  5
BA66
331
B467
  5
BA67
331
B468
  5
BA68
331
B469
  5
BA69
331
B46A
  5
BA6A
331
B46B
  5
BA6B
331
B46D
  5
BA6C
331
B472
  5
BA6D
331
B473
  5
BA6E
331
B474
  5
BA72
331
B475
  5
BC24
331
B476
  5
BC25
331
0
  5
B47F
331
0
  5
B480
331
B480
  5
BC3D
331
B5DB
  5
BC3E
331
B61D
  5
BC3F
331
0
  5
B770
331
B76E
  5
BC4A
331
B76F
  5
BC4B
331
B770
  5
BC4C
331
B771
  5
BC4D
331
B772
  5
BC4E
331
B775
  5
BC4F
331
B776
  5
BC50
331
B777
  5
BC51
331
B778
  5
BC52
331
B779
  5
BC53
331
B77A
  5
BC54
331
0
  5
B77E
331
B77C
  5
BC5F
331
B77D
  5
BC60
331
0
  5
B790
331
B791
  5
BC6E
331
B792
  5
BC6F
331
B793
  5
BC70
331
B794
  5
BC72
331
B795
  5
BC76
331
B796
  5
BC77
331
B797
  5
BC78
331
B798
  5
BC7B
331
B799
  5
BC7C
331
B79A
  5
BC7D
331
B79B
  5
BC7E
331
B79C
  5
BC7F
331
B79D
  5
BC80
331
B79E
  5
BC81
331
B79F
  5
BC82
331
B7A0
  5
BC83
331
B7A1
  5
BC84
331
B7A2
  5
BC85
331
B7A3
  5
BC86
331
B7A4
  5
BC87
331
0
  5
B7A8
331
B7A6
  5
BC92
331
B7A7
  5
BC93
331
B7A8
  5
BC94
331
0
  5
B7AC
331
B7AA
  5
BC9F
331
B7AD
  5
BCA0
331
B7AE
  5
BCA1
331
B7AF
  5
BCA2
331
B7B0
  5
BCA3
331
B7B1
  5
BCA4
331
B7B2
  5
BCA5
331
B7B3
  5
BCA6
331
B7B4
  5
BCA7
331
B7B5
  5
BCA8
331
B7B6
  5
BCA9
331
B7B7
  5
BCAA
331
B7B8
  5
BCAB
331
B7B9
  5
BCAC
331
B7BA
  5
BCAD
331
B7BB
  5
BCAE
331
B7BC
  5
BCAF
331
B7BD
  5
BCB0
331
B7BE
  5
BCB1
331
B7BF
  5
BCB2
331
B7C0
  5
BCB3
331
B7C1
  5
BCB4
331
B7C2
  5
BCB5
331
B7C3
  5
BCB6
331
B7C4
  5
BCB7
331
B7C5
  5
BCB8
331
B7C6
  5
BCB9
331
B7C7
  5
BCBA
331
B7C8
  5
BCBB
331
B7C9
  5
BCBC
331
B7CA
  5
BCBD
331
B7CB
  5
BCBE
331
B7CC
  5
BCBF
331
B7CD
  5
BCC0
331
B7CE
  5
BCC1
331
B7CF
  5
BCC2
331
B7D0
  5
BCC3
331
B7D1
  5
BCC5
331
B7D2
  5
BCC9
331
B7D3
  5
BCCA
331
B7D4
  5
BCCB
331
B7D5
  5
BEBB
331
B7D6
  5
BF97
331
B7D7
  5
BF98
331
B7D8
  5
BF99
331
B7D9
  5
BF9A
331
B7DA
  5
BF9B
331
B7DB
  5
BF9C
331
B7DC
  5
BF9D
331
B7DD
  5
BF9E
331
0
  5
B7E1
331
B7DF
  5
BFA9
331
B7E0
  5
BFAA
331
B7E1
  5
BFAB
331
B7E2
  5
BFAC
331
B7E3
  5
BFAD
331
B7E4
  5
BFAE
331
B7E5
  5
BFAF
331
B7E6
  5
BFB5
331
B916
  5
BFB6
331
B99E
  5
B40A
331
BA66
  5
BFB7
331
BA67
  5
BFB8
331
BA68
  5
BFB9
331
BA69
  5
BFBA
331
BA6A
  5
BFBB
331
BA6B
  5
BFBC
331
BA6C
  5
BFBD
331
BA6D
  5
BFBE
331
BA6E
  5
BFBF
331
BA6F
  5
BFC3
331
BA70
  5
BFC4
331
BA71
  5
BFC5
331
BA72
  5
BFC9
331
0
  5
BFB0
331
0
  5
BFB1
331
0
  5
BFB2
331
0
  5
BFB3
331
0
  5
BFB4
331
BC29
  5
C005
331
BC2A
  5
C006
331
BC2B
  5
C007
331
BC2C
  5
C008
331
BC2D
  5
C009
331
BC2E
  5
C00A
331
BC2F
  5
C00B
331
BC30
  5
C00C
331
BC31
  5
C00D
331
BC32
  5
C00E
331
BC33
  5
C00F
331
BC34
  5
C010
331
BC35
  5
C011
331
BC36
  5
C012
331
BC37
  5
C013
331
BC38
  5
C014
331
BC39
  5
C015
331
BC3A
  5
C016
331
BC3B
  5
C017
331
BC3C
  5
C018
331
BC3D
  5
C019
331
BC3E
  5
C01A
331
BC3F
  5
C01B
331
BC40
  5
C01C
331
BC41
  5
C01D
331
BC42
  5
C01E
331
BC43
  5
C01F
331
BC44
  5
C020
331
BC45
  5
C021
331
BC46
  5
C022
331
BC47
  5
C023
331
BC48
  5
C024
331
BC49
  5
C025
331
BC4A
  5
C026
331
BC4B
  5
C027
331
BC4C
  5
C028
331
BC4D
  5
C029
331
BC4E
  5
C02A
331
BC4F
  5
C02B
331
BC50
  5
C02C
331
BC51
  5
C02D
331
BC52
  5
C02E
331
BC53
  5
C02F
331
BC54
  5
C030
331
BC55
  5
C031
331
BC56
  5
C032
331
BC57
  5
C033
331
BC58
  5
C034
331
BC59
  5
C035
331
BC5A
  5
C036
331
BC5B
  5
C037
331
BC5C
  5
C038
331
BC5D
  5
C039
331
BC5E
  5
C03A
331
BC5F
  5
C03B
331
BC60
  5
C03C
331
BC61
  5
C03D
331
BC62
  5
C03E
331
BC63
  5
C03F
331
BC64
  5
C040
331
BC65
  5
C041
331
BC66
  5
C042
331
BC67
  5
C043
331
BC68
  5
C044
331
BC69
  5
C045
331
BC6A
  5
C046
331
BC6B
  5
C047
331
BC6C
  5
C048
331
BC6D
  5
C049
331
BC6E
  5
C04A
331
BC6F
  5
C04B
331
BC70
  5
C04C
331
BC72
  5
C05B
331
BC76
  5
C07D
331
BC77
  5
C07E
331
BC78
  5
C07F
331
BC7B
  5
C089
331
BC7C
  5
C08A
331
BC7D
  5
C08B
331
BC7E
  5
C08C
331
BC7F
  5
C08D
331
BC80
  5
C08F
331
BC81
  5
C090
331
BC82
  5
C091
331
BC83
  5
C092
331
BC84
  5
C093
331
BC85
  5
C094
331
BC86
  5
C095
331
BC87
  5
C096
331
BC88
  5
C097
331
BC89
  5
C098
331
BC8A
  5
C099
331
BC8B
  5
C09A
331
BC8C
  5
C09B
331
BC8D
  5
C09C
331
BC8E
  5
C09D
331
BC8F
  5
C09E
331
BC90
  5
C09F
331
BC91
  5
C0A0
331
BC92
  5
C0A1
331
BC93
  5
C0A2
331
BC94
  5
C0A3
331
BC95
  5
C0A4
331
BC96
  5
C0A5
331
BC97
  5
C0A6
331
BC98
  5
C0A7
331
BC99
  5
C0A8
331
BC9A
  5
C0A9
331
BC9B
  5
C0AA
331
BC9C
  5
C0AB
331
BC9D
  5
C0AC
331
BC9E
  5
C0AD
331
BC9F
  5
C0AE
331
BCA0
  5
C0AF
331
BCA1
  5
C0B0
331
BCA2
  5
C0B1
331
BCA3
  5
C0B2
331
BCA4
  5
C0B3
331
BCA5
  5
C0B4
331
BCA6
  5
C0B5
331
BCA7
  5
C0B6
331
BCA8
  5
C0B7
331
BCA9
  5
C0B8
331
BCAA
  5
C0B9
331
BCAB
  5
C0BA
331
BCAC
  5
C0BB
331
BCAD
  5
C0BC
331
BCAE
  5
C0BD
331
BCAF
  5
C0BF
331
BCB0
  5
C0C0
331
BCB1
  5
C0C1
331
BCB2
  5
C0C2
331
BCB3
  5
C0C3
331
BCB4
  5
C0C4
331
BCB5
  5
C0C5
331
BCB6
  5
C0C6
331
BCB7
  5
C0C7
331
BCB8
  5
C0C8
331
BCB9
  5
C0C9
331
BCBA
  5
C0CA
331
BCBB
  5
C0CB
331
BCBC
  5
C0CC
331
BCBD
  5
C0CD
331
BCBE
  5
C0CE
331
BCBF
  5
C0CF
331
BCC0
  5
C0D0
331
BCC1
  5
C0D1
331
BCC2
  5
C0D2
331
0
  5
BCC4
331
BCC4
  5
C0E1
331
0
  5
BCC6
331
0
  5
BCC7
331
0
  5
BCC8
331
BCC8
  5
C106
331
BCC9
  5
C107
331
BCCA
  5
C108
331
0
  5
BCCC
331
0
  5
BD63
331
BD63
  5
C08E
331
0
  5
C0BE
331
BF97
  5
AF56
331
BF98
  5
AF57
331
BF99
  5
AF58
331
0
  5
AF59
331
0
  5
AF5A
331
0
  5
AF5B
331
BF9D
  5
B3CA
331
BF9E
  5
B3CB
331
BF9F
  5
B3D2
331
BFA0
  5
B3D3
331
BFA1
  5
B3D4
331
0
  5
B3C6
331
0
  5
B3C7
331
0
  5
B3C8
331
BFA5
  5
B3E5
331
BFA6
  5
B3E6
331
BFA7
  5
B3E7
331
0
  5
B3CF
331
0
  5
B3D0
331
0
  5
B3D1
331
BFAB
  5
B3EF
331
BFAC
  5
B3F0
331
BFAD
  5
B3F1
331
0
  5
B3D5
331
0
  5
B3D6
331
0
  5
B3D7
331
BFB1
  5
B3F9
331
BFB2
  5
B3FA
331
BFB3
  5
B3FB
331
0
  5
B3DB
331
0
  5
B3DC
331
0
  5
B3DD
331
BFB7
  5
B79F
331
BFB8
  5
B7A0
331
BFB9
  5
B7A1
331
0
  5
B45C
331
0
  5
B45D
331
0
  5
B45E
331
BFBD
  5
BC26
331
BFBE
  5
BC27
331
BFBF
  5
BC28
331
0
  5
B7B1
331
0
  5
B7B2
331
0
  5
B7B3
331
BFC3
  5
BC33
331
BFC4
  5
BC34
331
BFC5
  5
BC35
331
0
  5
B7B7
331
0
  5
B7B8
331
0
  5
B7B9
331
BFC9
  5
BC40
331
BFCA
  5
BC41
331
BFCB
  5
BC42
331
0
  5
B7C0
331
0
  5
B7C1
331
0
  5
B7C2
331
BFCF
  5
BC55
331
BFD0
  5
BC56
331
BFD1
  5
BC57
331
0
  5
B7D1
331
0
  5
B7D2
331
0
  5
B7D3
331
BFD5
  5
BC64
331
BFD6
  5
BC65
331
BFD7
  5
BC66
331
0
  5
B7D9
331
0
  5
B7DA
331
0
  5
B7DB
331
BFDB
  5
BC88
331
BFDC
  5
BC89
331
BFDD
  5
BC8A
331
0
  5
BA6F
331
0
  5
BA70
331
0
  5
BA71
331
BFE1
  5
BC95
331
BFE2
  5
BC96
331
BFE3
  5
BC97
331
0
  5
BC29
331
0
  5
BC2A
331
0
  5
BC2B
331
BFE7
  5
BF9F
331
BFE8
  5
BFA0
331
BFE9
  5
BFA1
331
0
  5
BC61
331
0
  5
BC62
331
0
  5
BC63
331
BFED
  5
C04D
331
BFEE
  5
C04E
331
BFEF
  5
C04F
331
BFF0
  5
C050
331
BFF1
  5
C051
331
BFF2
  5
C052
331
BFF3
  5
C053
331
BFF4
  5
C054
331
BFF5
  5
C055
331
BFF6
  5
C056
331
BFF7
  5
C057
331
BFF8
  5
C058
331
BFF9
  5
C059
331
BFFA
  5
C05A
331
BFFB
  5
C05C
331
BFFC
  5
C05D
331
BFFD
  5
C05E
331
BFFE
  5
C05F
331
BFFF
  5
C060
331
C000
  5
C061
331
C001
  5
C062
331
C002
  5
C063
331
C003
  5
C064
331
C004
  5
C065
331
C005
  5
C066
331
C006
  5
C067
331
C007
  5
C068
331
C008
  5
C069
331
C009
  5
C06A
331
C00A
  5
C06B
331
C00B
  5
C06C
331
C00C
  5
C06D
331
C00D
  5
C06E
331
C00E
  5
C06F
331
C00F
  5
C070
331
C010
  5
C071
331
C011
  5
C072
331
C012
  5
C073
331
C013
  5
C074
331
C014
  5
C075
331
C015
  5
C076
331
C016
  5
C077
331
C017
  5
C078
331
C018
  5
C079
331
C019
  5
C07A
331
C01A
  5
C07B
331
C01B
  5
C07C
331
C01C
  5
C080
331
C01D
  5
C081
331
C01E
  5
C082
331
C01F
  5
C083
331
C020
  5
C084
331
C021
  5
C085
331
C022
  5
C086
331
C023
  5
C087
331
C024
  5
C088
331
C025
  5
C0D3
331
C026
  5
C0D4
331
C027
  5
C0D5
331
C028
  5
C0D6
331
C029
  5
C0D7
331
C02A
  5
C0D8
331
C02B
  5
C0D9
331
C02C
  5
C0DA
331
C02D
  5
C0DB
331
C02E
  5
C0DC
331
C02F
  5
C0DD
331
C030
  5
C0DE
331
C031
  5
C0DF
331
C032
  5
C0E0
331
C033
  5
C0E2
331
C034
  5
C0E3
331
C035
  5
C0E4
331
C036
  5
C0E5
331
C037
  5
C0E6
331
C038
  5
C0E7
331
C039
  5
C0EB
331
C03A
  5
C0EC
331
C03B
  5
C0ED
331
C03C
  5
C0EE
331
C03D
  5
C0EF
331
C03E
  5
C0F0
331
C03F
  5
C0F1
331
C040
  5
C0F2
331
C041
  5
C0F3
331
C042
  5
C0F4
331
C043
  5
C0F5
331
C044
  5
C0F6
331
C045
  5
C0F7
331
C046
  5
C0F8
331
C047
  5
C0F9
331
C048
  5
C0FA
331
C049
  5
C0FB
331
C04A
  5
C0FC
331
C04B
  5
C0FD
331
C04C
  5
C0FE
331
C04D
  5
C0FF
331
C04E
  5
C100
331
C04F
  5
C101
331
C050
  5
C102
331
C051
  5
C103
331
C052
  5
C104
331
C053
  5
C105
331
C054
  5
C109
331
C055
  5
C10A
331
C056
  5
C10B
331
C057
  5
C10C
331
C058
  5
C10D
331
C059
  5
C10E
331
C05A
  5
C10F
331
C05B
  5
C110
331
C05C
  5
C111
331
C05D
  5
AF70
331
C05E
  5
AF72
331
C05F
  5
AF78
331
C060
  5
AF88
331
C061
  5
AF89
331
C062
  5
AF90
331
C063
  5
AF91
331
C064
  5
B3D8
331
C065
  5
B3D9
331
C066
  5
B3DA
331
C067
  5
B3DE
331
C068
  5
B3DF
331
C069
  5
B3E0
331
C06A
  5
B3E1
331
C06B
  5
B3E8
331
C06C
  5
B3E9
331
C06D
  5
B3EA
331
C06E
  5
B3EB
331
C06F
  5
B3EC
331
C070
  5
B3ED
331
C071
  5
B3EE
331
C072
  5
B3F2
331
C073
  5
B3F3
331
C074
  5
B3F4
331
C075
  5
B3F5
331
C076
  5
B3F6
331
C077
  5
B3F7
331
C078
  5
B3F8
331
C079
  5
B3FC
331
C07A
  5
B3FD
331
C07B
  5
B3FE
331
C07C
  5
B3FF
331
C07D
  5
B400
331
C07E
  5
B401
331
C07F
  5
B402
331
C080
  5
B7A2
331
C081
  5
B7A3
331
C082
  5
B7A4
331
C083
  5
B7A5
331
C084
  5
B7A6
331
C085
  5
B7A7
331
C086
  5
B7A9
331
C087
  5
BC2C
331
C088
  5
BC2D
331
C089
  5
BC2E
331
C08A
  5
BC2F
331
C08B
  5
BC30
331
C08C
  5
BC31
331
C08D
  5
BC32
331
C08E
  5
BC36
331
C08F
  5
BC37
331
C090
  5
BC38
331
C091
  5
BC39
331
C092
  5
BC3A
331
C093
  5
BC3B
331
C094
  5
BC3C
331
C095
  5
BC43
331
C096
  5
BC44
331
C097
  5
BC45
331
C098
  5
BC46
331
C099
  5
BC47
331
C09A
  5
BC48
331
C09B
  5
BC49
331
C09C
  5
BC58
331
C09D
  5
BC59
331
C09E
  5
BC5A
331
C09F
  5
BC5B
331
C0A0
  5
BC5C
331
C0A1
  5
BC5D
331
C0A2
  5
BC5E
331
C0A3
  5
BC67
331
C0A4
  5
BC68
331
C0A5
  5
BC69
331
C0A6
  5
BC6A
331
C0A7
  5
BC6B
331
C0A8
  5
BC6C
331
C0A9
  5
BC6D
331
C0AA
  5
BC8B
331
C0AB
  5
BC8C
331
C0AC
  5
BC8D
331
C0AD
  5
BC8E
331
C0AE
  5
BC8F
331
C0AF
  5
BC90
331
C0B0
  5
BC91
331
C0B1
  5
BC98
331
C0B2
  5
BC99
331
C0B3
  5
BC9A
331
C0B4
  5
BC9B
331
C0B5
  5
BC9C
331
C0B6
  5
BC9D
331
C0B7
  5
BC9E
331
C0B8
  5
BFA2
331
C0B9
  5
BFA3
331
C0BA
  5
BFA4
331
C0BB
  5
BFA5
331
C0BC
  5
BFA6
331
C0BD
  5
BFA7
331
C0BE
  5
BFA8
331
C0BF
  5
B3CD
331
C0C0
  5
B3CE
331
C0C1
  5
B45A
331
C0C2
  5
B45B
331
C0C3
  5
B45F
331
0
  5
B460
331
0
  5
B461
331
0
  5
B462
331
C0C7
  5
BFCA
331
C0C8
  5
BFCB
331
C0C9
  5
BFCF
331
0
  5
BFC0
331
0
  5
BFC1
331
0
  5
BFC2
331
C0CD
  5
BFDD
331
C0CE
  5
BFDE
331
C0CF
  5
BFDF
331
0
  5
BFC6
331
0
  5
BFC7
331
0
  5
BFC8
331
C0D3
  5
BFE7
331
C0D4
  5
BFE8
331
C0D5
  5
BFE9
331
0
  5
BFCC
331
0
  5
BFCD
331
0
  5
BFCE
331
C0D9
  5
BFF1
331
C0DA
  5
BFF2
331
C0DB
  5
BFF3
331
0
  5
BFD2
331
0
  5
BFD3
331
0
  5
BFD4
331
C0DF
  5
BFFB
331
C0E0
  5
BFFC
331
C0E1
  5
BFFD
331
0
  5
BFD8
331
0
  5
BFD9
331
0
  5
BFDA
331
C0E5
  5
C112
331
C0E6
  5
C113
331
C0E7
  5
C114
331
C0EB
  5
B463
331
C0EC
  5
B464
331
C0ED
  5
B465
331
C0EE
  5
B466
331
C0EF
  5
B467
331
C0F0
  5
B468
331
C0F1
  5
B469
331
C0F2
  5
BFD0
331
C0F3
  5
BFD1
331
C0F4
  5
BFD5
331
C0F5
  5
BFD6
331
C0F6
  5
BFD7
331
C0F7
  5
BFDB
331
C0F8
  5
BFDC
331
C0F9
  5
BFE0
331
C0FA
  5
BFE1
331
C0FB
  5
BFE2
331
C0FC
  5
BFE3
331
C0FD
  5
BFE4
331
C0FE
  5
BFE5
331
C0FF
  5
BFE6
331
C100
  5
BFEA
331
C101
  5
BFEB
331
C102
  5
BFEC
331
C103
  5
BFED
331
C104
  5
BFEE
331
C105
  5
BFEF
331
C106
  5
BFF0
331
C107
  5
BFF4
331
C108
  5
BFF5
331
C109
  5
BFF6
331
C10A
  5
BFF7
331
C10B
  5
BFF8
331
C10C
  5
BFF9
331
C10D
  5
BFFA
331
C10E
  5
BFFE
331
C10F
  5
BFFF
331
C110
  5
C000
331
C111
  5
C001
331
C112
  5
C002
331
C113
  5
C003
331
C114
  5
C004
  0
MATERIAL
  5
9540
102
{ACAD_REACTORS
330
18C
102
}
102
{ACAD_XDICTIONARY
360
C2BA
102
}
330
18C
100
AcDbMaterial
  1
BYBLOCK
 72
     0
 73
     2
 43
0.0208333333333333
 43
0.0
 43
0.0
 43
0.0
 43
0.0
 43
0.0208333333333333
 43
0.0
 43
0.0
 43
0.0
 43
0.0
 43
1.0
 43
0.0
 43
0.0
 43
0.0
 43
0.0
 43
1.0
 77
     0
 78
     2
 47
0.0208333333333333
 47
0.0
 47
0.0
 47
0.0
 47
0.0
 47
0.0208333333333333
 47
0.0
 47
0.0
 47
0.0
 47
0.0
 47
1.0
 47
0.0
 47
0.0
 47
0.0
 47
0.0
 47
1.0
171
     0
172
     2
 49
0.0208333333333333
 49
0.0
 49
0.0
 49
0.0
 49
0.0
 49
0.0208333333333333
 49
0.0
 49
0.0
 49
0.0
 49
0.0
 49
1.0
 49
0.0
 49
0.0
 49
0.0
 49
0.0
 49
1.0
175
     0
176
     2
142
0.0208333333333333
142
0.0
142
0.0
142
0.0
142
0.0
142
0.0208333333333333
142
0.0
142
0.0
142
0.0
142
0.0
142
1.0
142
0.0
142
0.0
142
0.0
142
0.0
142
1.0
179
     0
270
     2
144
0.0208333333333333
144
0.0
144
0.0
144
0.0
144
0.0
144
0.0208333333333333
144
0.0
144
0.0
144
0.0
144
0.0
144
1.0
144
0.0
144
0.0
144
0.0
144
0.0
144
1.0
274
     2
147
0.0208333333333333
147
0.0
147
0.0
147
0.0
147
0.0
147
0.0208333333333333
147
0.0
147
0.0
147
0.0
147
0.0
147
1.0
147
0.0
147
0.0
147
0.0
147
0.0
147
1.0
  0
MATERIAL
  5
9538
102
{ACAD_REACTORS
330
18C
102
}
102
{ACAD_XDICTIONARY
360
C2BC
102
}
330
18C
100
AcDbMaterial
  1
BYLAYER
 72
     0
 73
     2
 43
0.0208333333333333
 43
0.0
 43
0.0
 43
0.0
 43
0.0
 43
0.0208333333333333
 43
0.0
 43
0.0
 43
0.0
 43
0.0
 43
1.0
 43
0.0
 43
0.0
 43
0.0
 43
0.0
 43
1.0
 77
     0
 78
     2
 47
0.0208333333333333
 47
0.0
 47
0.0
 47
0.0
 47
0.0
 47
0.0208333333333333
 47
0.0
 47
0.0
 47
0.0
 47
0.0
 47
1.0
 47
0.0
 47
0.0
 47
0.0
 47
0.0
 47
1.0
171
     0
172
     2
 49
0.0208333333333333
 49
0.0
 49
0.0
 49
0.0
 49
0.0
 49
0.0208333333333333
 49
0.0
 49
0.0
 49
0.0
 49
0.0
 49
1.0
 49
0.0
 49
0.0
 49
0.0
 49
0.0
 49
1.0
175
     0
176
     2
142
0.0208333333333333
142
0.0
142
0.0
142
0.0
142
0.0
142
0.0208333333333333
142
0.0
142
0.0
142
0.0
142
0.0
142
1.0
142
0.0
142
0.0
142
0.0
142
0.0
142
1.0
179
     0
270
     2
144
0.0208333333333333
144
0.0
144
0.0
144
0.0
144
0.0
144
0.0208333333333333
144
0.0
144
0.0
144
0.0
144
0.0
144
1.0
144
0.0
144
0.0
144
0.0
144
0.0
144
1.0
274
     2
147
0.0208333333333333
147
0.0
147
0.0
147
0.0
147
0.0
147
0.0208333333333333
147
0.0
147
0.0
147
0.0
147
0.0
147
1.0
147
0.0
147
0.0
147
0.0
147
0.0
147
1.0
  0
MATERIAL
  5
9548
102
{ACAD_REACTORS
330
18C
102
}
102
{ACAD_XDICTIONARY
360
C2BE
102
}
330
18C
100
AcDbMaterial
  1
GLOBAL
 72
     0
 73
     2
 43
0.0208333333333333
 43
0.0
 43
0.0
 43
0.0
 43
0.0
 43
0.0208333333333333
 43
0.0
 43
0.0
 43
0.0
 43
0.0
 43
1.0
 43
0.0
 43
0.0
 43
0.0
 43
0.0
 43
1.0
 77
     0
 78
     2
 47
0.0208333333333333
 47
0.0
 47
0.0
 47
0.0
 47
0.0
 47
0.0208333333333333
 47
0.0
 47
0.0
 47
0.0
 47
0.0
 47
1.0
 47
0.0
 47
0.0
 47
0.0
 47
0.0
 47
1.0
171
     0
172
     2
 49
0.0208333333333333
 49
0.0
 49
0.0
 49
0.0
 49
0.0
 49
0.0208333333333333
 49
0.0
 49
0.0
 49
0.0
 49
0.0
 49
1.0
 49
0.0
 49
0.0
 49
0.0
 49
0.0
 49
1.0
175
     0
176
     2
142
0.0208333333333333
142
0.0
142
0.0
142
0.0
142
0.0
142
0.0208333333333333
142
0.0
142
0.0
142
0.0
142
0.0
142
1.0
142
0.0
142
0.0
142
0.0
142
0.0
142
1.0
179
     0
270
     2
144
0.0208333333333333
144
0.0
144
0.0
144
0.0
144
0.0
144
0.0208333333333333
144
0.0
144
0.0
144
0.0
144
0.0
144
1.0
144
0.0
144
0.0
144
0.0
144
0.0
144
1.0
274
     2
147
0.0208333333333333
147
0.0
147
0.0
147
0.0
147
0.0
147
0.0208333333333333
147
0.0
147
0.0
147
0.0
147
0.0
147
1.0
147
0.0
147
0.0
147
0.0
147
0.0
147
1.0
  0
ACAD_PROXY_OBJECT
  5
9584
102
{ACAD_REACTORS
330
9583
102
}
330
9583
100
AcDbZombieObject
 90
      499
 91
      511
 93
      610
310
40901902A4063FBFFFFFE000000000000002040AD7A3703D0AD73F4214DD185B99185C990000000000000104090141901A00000000000004100000000000000041025764000000000000300FC0
340
12
340
0
340
F
340
0
 94
        0
1001
ACAD_MLEADERVER
1070
     2
  0
MLINESTYLE
  5
1C
102
{ACAD_REACTORS
330
1B
102
}
330
1B
100
AcDbMlineStyle
  2
STANDARD
 70
     0
  3

 62
   256
 51
90.0
 52
90.0
 71
     2
 49
0.5
 62
   256
  6
BYLAYER
 49
-0.5
 62
   256
  6
BYLAYER
  0
ACAD_PROXY_OBJECT
  5
9562
102
{ACAD_REACTORS
330
9561
102
}
330
9561
100
AcDbZombieObject
 90
      499
 91
      510
 93
       41
310
903313A31580
  0
ACAD_PROXY_OBJECT
  5
9563
102
{ACAD_REACTORS
330
9561
102
}
330
9561
100
AcDbZombieObject
 90
      499
 91
      510
 93
      105
310
903313A324000000000000004000
  0
ACAD_PROXY_OBJECT
  5
9564
102
{ACAD_REACTORS
330
9561
102
}
330
9561
100
AcDbZombieObject
 90
      499
 91
      510
 93
      105
310
903313A344000000000000104000
  0
ACAD_PROXY_OBJECT
  5
9565
102
{ACAD_REACTORS
330
9561
102
}
330
9561
100
AcDbZombieObject
 90
      499
 91
      510
 93
      105
310
903313A354000000000000144000
  0
ACAD_PROXY_OBJECT
  5
9566
102
{ACAD_REACTORS
330
9561
102
}
330
9561
100
AcDbZombieObject
 90
      499
 91
      510
 93
      105
310
903313A384000000000000204000
  0
ACAD_PROXY_OBJECT
  5
9567
102
{ACAD_REACTORS
330
9561
102
}
330
9561
100
AcDbZombieObject
 90
      499
 91
      510
 93
      113
310
904313A31304000000000000244000
  0
ACAD_PROXY_OBJECT
  5
9568
102
{ACAD_REACTORS
330
9561
102
}
330
9561
100
AcDbZombieObject
 90
      499
 91
      510
 93
      113
310
904313A31364000000000000304000
  0
ACAD_PROXY_OBJECT
  5
9569
102
{ACAD_REACTORS
330
9561
102
}
330
9561
100
AcDbZombieObject
 90
      499
 91
      510
 93
      113
310
904313A32304000000000000344000
  0
ACAD_PROXY_OBJECT
  5
956A
102
{ACAD_REACTORS
330
9561
102
}
330
9561
100
AcDbZombieObject
 90
      499
 91
      510
 93
      113
310
904313A333040000000000003E4000
  0
ACAD_PROXY_OBJECT
  5
956B
102
{ACAD_REACTORS
330
9561
102
}
330
9561
100
AcDbZombieObject
 90
      499
 91
      510
 93
      113
310
904313A34304000000000000444000
  0
ACAD_PROXY_OBJECT
  5
956C
102
{ACAD_REACTORS
330
9561
102
}
330
9561
100
AcDbZombieObject
 90
      499
 91
      510
 93
      113
310
904313A35304000000000000494000
  0
ACAD_PROXY_OBJECT
  5
956D
102
{ACAD_REACTORS
330
9561
102
}
330
9561
100
AcDbZombieObject
 90
      499
 91
      510
 93
      121
310
905313A3130304000000000000594000
  0
ACAD_PROXY_OBJECT
  5
956E
102
{ACAD_REACTORS
330
9561
102
}
330
9561
100
AcDbZombieObject
 90
      499
 91
      510
 93
      105
310
903323A310000000000000010100
  0
ACAD_PROXY_OBJECT
  5
956F
102
{ACAD_REACTORS
330
9561
102
}
330
9561
100
AcDbZombieObject
 90
      499
 91
      510
 93
      105
310
903343A310000000000000410100
  0
ACAD_PROXY_OBJECT
  5
9570
102
{ACAD_REACTORS
330
9561
102
}
330
9561
100
AcDbZombieObject
 90
      499
 91
      510
 93
      105
310
903383A310000000000000810100
  0
ACAD_PROXY_OBJECT
  5
9571
102
{ACAD_REACTORS
330
9561
102
}
330
9561
100
AcDbZombieObject
 90
      499
 91
      510
 93
      113
310
90431303A310000000000000910100
  0
ACAD_PROXY_OBJECT
  5
9572
102
{ACAD_REACTORS
330
9561
102
}
330
9561
100
AcDbZombieObject
 90
      499
 91
      510
 93
      121
310
9053130303A310000000000001650100
  0
ACAD_PROXY_OBJECT
  5
9573
102
{ACAD_REACTORS
330
9561
102
}
330
9561
100
AcDbZombieObject
 90
      499
 91
      510
 93
      257
310
90E312F31323822203D2031272D3022000000000000200FC000000000000284000
  0
ACAD_PROXY_OBJECT
  5
9574
102
{ACAD_REACTORS
330
9561
102
}
330
9561
100
AcDbZombieObject
 90
      499
 91
      510
 93
      249
310
90D312F363422203D2031272D3022000000000000240FC000000000000284000
  0
ACAD_PROXY_OBJECT
  5
9575
102
{ACAD_REACTORS
330
9561
102
}
330
9561
100
AcDbZombieObject
 90
      499
 91
      510
 93
      249
310
90D312F333222203D2031272D3022000000000000280FC000000000000284000
  0
ACAD_PROXY_OBJECT
  5
9576
102
{ACAD_REACTORS
330
9561
102
}
330
9561
100
AcDbZombieObject
 90
      499
 91
      510
 93
      249
310
90D312F313622203D2031272D30220000000000002C0FC000000000000284000
  0
ACAD_PROXY_OBJECT
  5
9577
102
{ACAD_REACTORS
330
9561
102
}
330
9561
100
AcDbZombieObject
 90
      499
 91
      510
 93
      249
310
90D332F333222203D2031272D30220000000000002E0FC000000000000284000
  0
ACAD_PROXY_OBJECT
  5
9578
102
{ACAD_REACTORS
330
9561
102
}
330
9561
100
AcDbZombieObject
 90
      499
 91
      510
 93
      241
310
90C312F3822203D2031272D3022000000000000300FC000000000000284000
  0
ACAD_PROXY_OBJECT
  5
9579
102
{ACAD_REACTORS
330
9561
102
}
330
9561
100
AcDbZombieObject
 90
      499
 91
      510
 93
      249
310
90D332F313622203D2031272D3022000000000000320FC000000000000284000
  0
ACAD_PROXY_OBJECT
  5
957A
102
{ACAD_REACTORS
330
9561
102
}
330
9561
100
AcDbZombieObject
 90
      499
 91
      510
 93
      241
310
90C312F3422203D2031272D3022000000000000340FC000000000000284000
  0
ACAD_PROXY_OBJECT
  5
957B
102
{ACAD_REACTORS
330
9561
102
}
330
9561
100
AcDbZombieObject
 90
      499
 91
      510
 93
      241
310
90C332F3822203D2031272D3022000000000000360FC000000000000284000
  0
ACAD_PROXY_OBJECT
  5
957C
102
{ACAD_REACTORS
330
9561
102
}
330
9561
100
AcDbZombieObject
 90
      499
 91
      510
 93
      241
310
90C312F3222203D2031272D3022000000000000380FC000000000000284000
  0
ACAD_PROXY_OBJECT
  5
957D
102
{ACAD_REACTORS
330
9561
102
}
330
9561
100
AcDbZombieObject
 90
      499
 91
      510
 93
      241
310
90C332F3422203D2031272D30220000000000003A0FC000000000000284000
  0
ACAD_PROXY_OBJECT
  5
957E
102
{ACAD_REACTORS
330
9561
102
}
330
9561
100
AcDbZombieObject
 90
      499
 91
      510
 93
      161
310
90A3122203D2031272D30224000000000000284000
  0
ACAD_PROXY_OBJECT
  5
957F
102
{ACAD_REACTORS
330
9561
102
}
330
9561
100
AcDbZombieObject
 90
      499
 91
      510
 93
      257
310
90E312D312F3222203D2031272D30220000000000003E0FC000000000000284000
  0
ACAD_PROXY_OBJECT
  5
9580
102
{ACAD_REACTORS
330
9561
102
}
330
9561
100
AcDbZombieObject
 90
      499
 91
      510
 93
      225
310
90A3322203D2031272D302200000000000002100000000000000284000
  0
ACAD_PROXY_OBJECT
  5
9581
102
{ACAD_REACTORS
330
9561
102
}
330
9561
100
AcDbZombieObject
 90
      499
 91
      510
 93
      225
310
90A3622203D2031272D302200000000000006100000000000000284000
  0
ACAD_PROXY_OBJECT
  5
9582
102
{ACAD_REACTORS
330
9561
102
}
330
9561
100
AcDbZombieObject
 90
      499
 91
      510
 93
      249
310
90D31272D3022203D2031272D30220000000000000A100000000000000284000
  0
ACAD_PROXY_OBJECT
  5
9556
102
{ACAD_REACTORS
330
9550
102
}
330
9550
100
AcDbZombieObject
 90
      499
 91
      509
 93
      436
310
42CC9915DA5C99599C985B595049028333333333333E3BF0000000000000FB0107901411070040501600405405064090741402480A0340
1001
ACAD
1000
AcDbSavedByObjectVersion
1070
     0
  0
ACAD_PROXY_OBJECT
  5
9558
102
{ACAD_REACTORS
330
9550
102
}
330
9550
100
AcDbZombieObject
 90
      499
 91
      509
 93
      500
310
424CD108121A5919195B90640502408333333333333E3BF0000000000000FB01079024090700405020000000000001110200405405064090740C02480A0340
1001
ACAD
1000
AcDbSavedByObjectVersion
1070
     0
  0
ACAD_PROXY_OBJECT
  5
9557
102
{ACAD_REACTORS
330
9550
102
}
330
9550
100
AcDbZombieObject
 90
      499
 91
      509
 93
      436
310
42CCD915DA5C99599C985B595059028333333333333E3BF0000000000000FB0107901411070040501600405405064090741402480A0340
1001
ACAD
1000
AcDbSavedByObjectVersion
1070
     0
  0
ACAD_PROXY_OBJECT
  5
9555
102
{ACAD_REACTORS
330
9550
102
}
330
9550
100
AcDbZombieObject
 90
      499
 91
      509
 93
      388
310
4150985CDA58D07406404333333333333E3BF0000000000000FB0107A41107004050150841D405064090741402480A0350
1001
ACAD
1000
AcDbSavedByObjectVersion
1070
     0
  0
ACAD_PROXY_OBJECT
  5
955C
102
{ACAD_REACTORS
330
9550
102
}
330
9550
100
AcDbZombieObject
 90
      499
 91
      509
 93
      428
310
42109C9A59DA1D195B90C409028333333333333E3BF0000000000000FB010790141107004050150841D405064090741402480A029950
1001
ACAD
1000
AcDbSavedByObjectVersion
1070
     0
  0
ACAD_PROXY_OBJECT
  5
9560
102
{ACAD_REACTORS
330
9550
102
}
330
9550
100
AcDbZombieObject
 90
      499
 91
      509
 93
      452
310
42D0DBDB1BDC90DA185B99D95104090240C333333333333E3BF0000000000000FB0108901411070040501508421405064090741402480A0350
1001
ACAD
1000
AcDbSavedByObjectVersion
1070
     0
  0
ACAD_PROXY_OBJECT
  5
9559
102
{ACAD_REACTORS
330
9550
102
}
330
9550
100
AcDbZombieObject
 90
      499
 91
      509
 93
      500
310
4290DBDB98D95C1D1D585B10940D028333333333333E3BF0000000000000FB0107902409070040501000000000000111010841D405064090740C02480A0340
1001
ACAD
1000
AcDbSavedByObjectVersion
1070
     0
  0
ACAD_PROXY_OBJECT
  5
955B
102
{ACAD_REACTORS
330
9550
102
}
330
9550
100
AcDbZombieObject
 90
      499
 91
      509
 93
      412
310
40D11A5B50B409028333333333333E3BF0000000000000FB010790141107004050150841D405064090741402480A02677FFFFFD0
1001
ACAD
1000
AcDbSavedByObjectVersion
1070
     0
  0
ACAD_PROXY_OBJECT
  5
A211
102
{ACAD_REACTORS
330
9550
102
}
330
9550
100
AcDbZombieObject
 90
      499
 91
      509
 93
      452
310
43115919D950DBDB1BDC93D999916409028333333333333E3BF0000000000000FB010790141107004050150841D405064090741402480A0350
1001
ACAD
1000
AcDbSavedByObjectVersion
1070
     0
  0
ACAD_PROXY_OBJECT
  5
955F
102
{ACAD_REACTORS
330
9550
102
}
330
9550
100
AcDbZombieObject
 90
      499
 91
      509
 93
      444
310
42D19858D95C185D1D195C9B90F409028333333333333E3BF0000000000000FB010790141107004050150841D405064090741402480A0350
1001
ACAD
1000
AcDbSavedByObjectVersion
1070
     0
  0
ACAD_PROXY_OBJECT
  5
9551
102
{ACAD_REACTORS
330
9550
102
}
330
9550
100
AcDbZombieObject
 90
      499
 91
      509
 93
      388
310
41119B185D240901404333333333333E3BF0000000000000F9010740A41107004050150841D405064090741402480A1B50
1001
ACAD
1000
AcDbSavedByObjectVersion
1070
     0
  0
ACAD_PROXY_OBJECT
  5
9552
102
{ACAD_REACTORS
330
9550
102
}
330
9550
100
AcDbZombieObject
 90
      499
 91
      509
 93
      476
310
43519B185D15DA5D1A115919D95CD0140901404333333333333E3BF0000000000000F9010740901411070040501600405405064090741402480A1B50
1001
ACAD
1000
AcDbSavedByObjectVersion
1070
     0
  0
ACAD_PROXY_OBJECT
  5
9553
102
{ACAD_REACTORS
330
9550
102
}
330
9550
100
AcDbZombieObject
 90
      499
 91
      509
 93
      412
310
41D1DBDD5C985D5910240902404333333333333E3BF0000000000000F9010740A411070040501641D405064090741402480A1B50
1001
ACAD
1000
AcDbSavedByObjectVersion
1070
     0
  0
ACAD_PROXY_OBJECT
  5
9554
102
{ACAD_REACTORS
330
9550
102
}
330
9550
100
AcDbZombieObject
 90
      499
 91
      509
 93
      500
310
4411DBDD5C985D5915DA5D1A115919D95CD0340902404333333333333E3BF0000000000000F9010740901411070040501600405405064090741402480A1B50
1001
ACAD
1000
AcDbSavedByObjectVersion
1070
     0
  0
ACAD_PROXY_OBJECT
  5
A260
102
{ACAD_REACTORS
330
9550
102
}
330
9550
100
AcDbZombieObject
 90
      499
 91
      509
 93
      476
310
41921A5919195B90640502408333333333333E3BF0000000000000FB01079024090700405020000000000001110200405405064090740C02480A0340
1001
ACAD
1000
AcDbSavedByObjectVersion
1070
     0
  0
ACAD_PROXY_OBJECT
  5
A20F
102
{ACAD_REACTORS
330
9550
102
}
330
9550
100
AcDbZombieObject
 90
      499
 91
      509
 93
      428
310
42529A5D1D195C93D999914409028333333333333E3BF0000000000000FB010790141107004050150A41D405064090741402480A0350
1001
ACAD
1000
AcDbSavedByObjectVersion
1070
     0
  0
ACAD_PROXY_OBJECT
  5
955E
102
{ACAD_REACTORS
330
9550
102
}
330
9550
100
AcDbZombieObject
 90
      499
 91
      509
 93
      444
310
42D31A5B995C185D1D195C9B90E409028333333333333E3BF0000000000000FB010790141107004050750841D405064090741402483A0350
1001
ACAD
1000
AcDbSavedByObjectVersion
1070
     0
  0
ACAD_PROXY_OBJECT
  5
A266
102
{ACAD_REACTORS
330
9550
102
}
330
9550
100
AcDbZombieObject
 90
      499
 91
      509
 93
      484
310
42135BD9195B1A5B99D0A409028333333333333E3BF0000000000000F901074090290700405010000000000201990108421405064090741402480A1B40
1001
ACAD
1000
AcDbSavedByObjectVersion
1070
     0
  0
ACAD_PROXY_OBJECT
  5
A210
102
{ACAD_REACTORS
330
9550
102
}
330
9550
100
AcDbZombieObject
 90
      499
 91
      509
 93
      444
310
42D3DD995C9A185B99D3D999915409028333333333333E3BF0000000000000FB010790141107004050150941D405064090741402480A0350
1001
ACAD
1000
AcDbSavedByObjectVersion
1070
     0
  0
ACAD_PROXY_OBJECT
  5
955A
102
{ACAD_REACTORS
330
9550
102
}
330
9550
100
AcDbZombieObject
 90
      499
 91
      509
 93
      420
310
425499585B1A5CDD1A58D08409028333333333333E3BF0000000000000FB01079019070040501508421405064090741402480A1B40
1001
ACAD
1000
AcDbSavedByObjectVersion
1070
     0
  0
ACAD_PROXY_OBJECT
  5
A265
102
{ACAD_REACTORS
330
9550
102
}
330
9550
100
AcDbZombieObject
 90
      499
 91
      509
 93
      420
310
4194DA1859195911B40902404333333333333E3BF0000000000000F9010740A41107004050150800405405064090840C02480A0B40
1001
ACAD
1000
AcDbSavedByObjectVersion
1070
     0
  0
ACAD_PROXY_OBJECT
  5
A264
102
{ACAD_REACTORS
330
9550
102
}
330
9550
100
AcDbZombieObject
 90
      499
 91
      509
 93
      516
310
4454DA18591959081DDA5D1A08195919D95CD1A40902404333333333333E3BF0000000000000F901074090142907004050250800405405064090740C02480A0B40
1001
ACAD
1000
AcDbSavedByObjectVersion
1070
     0
  0
ACAD_PROXY_OBJECT
  5
A261
102
{ACAD_REACTORS
330
9550
102
}
330
9550
100
AcDbZombieObject
 90
      499
 91
      509
 93
      532
310
4394DA1859195CC81BD98811DC985E5174090240C333333333333E3BF0000000000000FB01079024090741D01000000000000111010841D405064090740C02480A0340
1001
ACAD
1000
AcDbSavedByObjectVersion
1070
     0
  0
ACAD_PROXY_OBJECT
  5
A262
102
{ACAD_REACTORS
330
9550
102
}
330
9550
100
AcDbZombieObject
 90
      499
 91
      509
 93
      476
310
41D4DAD95D18DA1E51840502408333333333333E3BF0000000000000FB01079024090741D01000000000000111010B41D405064090741802480A0340
1001
ACAD
1000
AcDbSavedByObjectVersion
1070
     0
  0
ACAD_PROXY_OBJECT
  5
955D
102
{ACAD_REACTORS
330
9550
102
}
330
9550
100
AcDbZombieObject
 90
      499
 91
      509
 93
      412
310
41D51A1A58DAD95B90D409028333333333333E3BF0000000000000FB010790141107004050150C41D405064090741402480A0350
1001
ACAD
1000
AcDbSavedByObjectVersion
1070
     0
  0
ACAD_PROXY_OBJECT
  5
A25F
102
{ACAD_REACTORS
330
9550
102
}
330
9550
100
AcDbZombieObject
 90
      499
 91
      509
 93
      420
310
4255DA5C99599C985B595059028333333333333E3BF0000000000000FB0107901411070040501600405405064090740C02480A0340
1001
ACAD
1000
AcDbSavedByObjectVersion
1070
     0
  0
ACAD_PROXY_OBJECT
  5
A263
102
{ACAD_REACTORS
330
9550
102
}
330
9550
100
AcDbZombieObject
 90
      499
 91
      509
 93
      404
310
41560B54985E51940902404000000000000E03F0000000000000FB010740501907004050150841D405064090740C02480A1B40
1001
ACAD
1000
AcDbSavedByObjectVersion
1070
     0
  0
XRECORD
  5
C11D
102
{ACAD_REACTORS
330
C11C
102
}
330
C11C
100
AcDbXrecord
340
18D
  0
XRECORD
  5
C11E
102
{ACAD_REACTORS
330
C11C
102
}
330
C11C
100
AcDbXrecord
340
18C
  0
DICTIONARYVAR
  5
AAE0
102
{ACAD_REACTORS
330
37
102
}
330
37
100
DictionaryVariables
280
     0
  1
1:1
  0
DICTIONARYVAR
  5
9627
102
{ACAD_REACTORS
330
37
102
}
330
37
100
DictionaryVariables
280
     0
  1
Standard
  0
DICTIONARYVAR
  5
29E
102
{ACAD_REACTORS
330
37
102
}
330
37
100
DictionaryVariables
280
     0
  1
Standard
  0
DICTIONARYVAR
  5
38
102
{ACAD_REACTORS
330
37
102
}
330
37
100
DictionaryVariables
280
     0
  1
-1
  0
DICTIONARYVAR
  5
1CE
102
{ACAD_REACTORS
330
37
102
}
330
37
100
DictionaryVariables
280
     0
  1
2
  0
DICTIONARYVAR
  5
704E
102
{ACAD_REACTORS
330
37
102
}
330
37
100
DictionaryVariables
280
     0
  1
1
  0
DICTIONARYVAR
  5
962A
102
{ACAD_REACTORS
330
37
102
}
330
37
100
DictionaryVariables
280
     0
  1
0
  0
DICTIONARYVAR
  5
7052
102
{ACAD_REACTORS
330
37
102
}
330
37
100
DictionaryVariables
280
     0
  1
8
  0
DICTIONARYVAR
  5
7051
102
{ACAD_REACTORS
330
37
102
}
330
37
100
DictionaryVariables
280
     0
  1
1
  0
DICTIONARYVAR
  5
AB30
102
{ACAD_REACTORS
330
37
102
}
330
37
100
DictionaryVariables
280
     0
  1
0
  0
DICTIONARYVAR
  5
704F
102
{ACAD_REACTORS
330
37
102
}
330
37
100
DictionaryVariables
280
     0
  1
8
  0
DICTIONARYVAR
  5
7050
102
{ACAD_REACTORS
330
37
102
}
330
37
100
DictionaryVariables
280
     0
  1
2
  0
DICTIONARYVAR
  5
1CF
102
{ACAD_REACTORS
330
37
102
}
330
37
100
DictionaryVariables
280
     0
  1

  0
DICTIONARYVAR
  5
9629
102
{ACAD_REACTORS
330
37
102
}
330
37
100
DictionaryVariables
280
     0
  1
127
  0
DICTIONARYVAR
  5
BEF6
102
{ACAD_REACTORS
330
37
102
}
330
37
100
DictionaryVariables
280
     0
  1
2
  0
DICTIONARY
  5
C2BA
330
9540
100
AcDbDictionary
  3
ACAD_XREC_ROUNDTRIP
360
C2BB
1001
ACAD
1000
TREAT_AS_HARD
1070
     1
  0
DICTIONARY
  5
C2BC
330
9538
100
AcDbDictionary
  3
ACAD_XREC_ROUNDTRIP
360
C2BD
1001
ACAD
1000
TREAT_AS_HARD
1070
     1
  0
DICTIONARY
  5
C2BE
330
9548
100
AcDbDictionary
  3
ACAD_XREC_ROUNDTRIP
360
C2BF
1001
ACAD
1000
TREAT_AS_HARD
1070
     1
  0
XRECORD
  5
C2BB
102
{ACAD_REACTORS
330
C2BA
102
}
330
C2BA
100
AcDbXrecord
102
MATERIAL
148
0.0
149
0.0
149
0.0
 93
        0
 94
      127
282
     0
 72
     0
 77
     0
171
     0
175
     0
179
     0
273
     0
  0
XRECORD
  5
C2BD
102
{ACAD_REACTORS
330
C2BC
102
}
330
C2BC
100
AcDbXrecord
102
MATERIAL
148
0.0
149
0.0
149
0.0
 93
        0
 94
      127
282
     0
 72
     0
 77
     0
171
     0
175
     0
179
     0
273
     0
  0
XRECORD
  5
C2BF
102
{ACAD_REACTORS
330
C2BE
102
}
330
C2BE
100
AcDbXrecord
102
MATERIAL
148
0.0
149
0.0
149
0.0
 93
        0
 94
      127
282
     0
 72
     0
 77
     0
171
     0
175
     0
179
     0
273
     0
  0
ENDSEC
  0
EOF
