  0
SECTION
  2
HEADER
  9
$ACADVER
  1
AC1009
  9
$INSBASE
 10
0.0
 20
0.0
 30
0.0
  9
$EXTMIN
 10
6486.40557373514
 20
789.32930145677926
 30
-0.0000000001125151
  9
$EXTMAX
 10
7099.705682074883
 20
1246.12930145365
 30
0.0000000000795227
  9
$LIMMIN
 10
0.0
 20
0.0
  9
$LIMMAX
 10
420.0
 20
297.0
  9
$ORTHOMODE
 70
     0
  9
$REGENMODE
 70
     1
  9
$FILLMODE
 70
     1
  9
$QTEXTMODE
 70
     0
  9
$MIRRTEXT
 70
     0
  9
$DRAGMODE
 70
     2
  9
$LTSCALE
 40
0.5
  9
$OSMODE
 70
  2175
  9
$ATTMODE
 70
     1
  9
$TEXTSIZE
 40
4.0
  9
$TRACEWID
 40
1.0
  9
$TEXTSTYLE
  7
STANDARD
  9
$CLAYER
  8
1TEXT
  9
$CELTYPE
  6
BYLAYER
  9
$CECOLOR
 62
   256
  9
$DIMSCALE
 40
1.0
  9
$DIMASZ
 40
2.0
  9
$DIMEXO
 40
0.0
  9
$DIMDLI
 40
7.0
  9
$DIMRND
 40
0.0
  9
$DIMDLE
 40
0.0
  9
$DIMEXE
 40
1.0
  9
$DIMTP
 40
0.0
  9
$DIMTM
 40
0.0
  9
$DIMTXT
 40
3.5
  9
$DIMCEN
 40
0.0
  9
$DIMTSZ
 40
0.0
  9
$DIMTOL
 70
     0
  9
$DIMLIM
 70
     0
  9
$DIMTIH
 70
     0
  9
$DIMTOH
 70
     0
  9
$DIMSE1
 70
     0
  9
$DIMSE2
 70
     0
  9
$DIMTAD
 70
     1
  9
$DIMZIN
 70
     8
  9
$DIMBLK
  1

  9
$DIMASO
 70
     1
  9
$DIMSHO
 70
     1
  9
$DIMPOST
  1
 
  9
$DIMAPOST
  1

  9
$DIMALT
 70
     0
  9
$DIMALTD
 70
     2
  9
$DIMALTF
 40
25.399999999999999
  9
$DIMLFAC
 40
1.0
  9
$DIMTOFL
 70
     1
  9
$DIMTVP
 40
0.0
  9
$DIMTIX
 70
     0
  9
$DIMSOXD
 70
     0
  9
$DIMSAH
 70
     1
  9
$DIMBLK1
  1
OPEN30
  9
$DIMBLK2
  1
OPEN30
  9
$DIMSTYLE
  2
NEWX10
  9
$DIMCLRD
 70
   256
  9
$DIMCLRE
 70
   256
  9
$DIMCLRT
 70
   201
  9
$DIMTFAC
 40
0.7
  9
$DIMGAP
 40
0.7
  9
$LUNITS
 70
     2
  9
$LUPREC
 70
     4
  9
$SKETCHINC
 40
1.0
  9
$FILLETRAD
 40
0.0
  9
$AUNITS
 70
     0
  9
$AUPREC
 70
     2
  9
$MENU
  1
acad
  9
$ELEVATION
 40
0.0
  9
$PELEVATION
 40
0.0
  9
$THICKNESS
 40
0.0
  9
$LIMCHECK
 70
     0
  9
$BLIPMODE
 70
     0
  9
$CHAMFERA
 40
10.0
  9
$CHAMFERB
 40
10.0
  9
$SKPOLY
 70
     0
  9
$TDCREATE
 40
2451318.621352917
  9
$TDUPDATE
 40
2456339.796341863
  9
$TDINDWG
 40
1.0879252777999999
  9
$TDUSRTIMER
 40
1.0879252777999999
  9
$USRTIMER
 70
     1
  9
$ANGBASE
 50
0.0
  9
$ANGDIR
 70
     0
  9
$PDMODE
 70
     0
  9
$PDSIZE
 40
0.0
  9
$PLINEWID
 40
0.0
  9
$COORDS
 70
     0
  9
$SPLFRAME
 70
     0
  9
$SPLINETYPE
 70
     6
  9
$SPLINESEGS
 70
     8
  9
$ATTDIA
 70
     0
  9
$ATTREQ
 70
     1
  9
$HANDLING
 70
     1
  9
$HANDSEED
  5
1C970
  9
$SURFTAB1
 70
     6
  9
$SURFTAB2
 70
     6
  9
$SURFTYPE
 70
     6
  9
$SURFU
 70
     6
  9
$SURFV
 70
     6
  9
$UCSNAME
  2

  9
$UCSORG
 10
0.0
 20
0.0
 30
0.0
  9
$UCSXDIR
 10
1.0
 20
0.0
 30
0.0
  9
$UCSYDIR
 10
0.0
 20
1.0
 30
0.0
  9
$PUCSNAME
  2

  9
$PUCSORG
 10
0.0
 20
0.0
 30
0.0
  9
$PUCSXDIR
 10
1.0
 20
0.0
 30
0.0
  9
$PUCSYDIR
 10
0.0
 20
1.0
 30
0.0
  9
$USERI1
 70
     0
  9
$USERI2
 70
     0
  9
$USERI3
 70
     0
  9
$USERI4
 70
     0
  9
$USERI5
 70
     0
  9
$USERR1
 40
0.0
  9
$USERR2
 40
0.0
  9
$USERR3
 40
0.0
  9
$USERR4
 40
0.0
  9
$USERR5
 40
0.0
  9
$WORLDVIEW
 70
     1
  9
$SHADEDGE
 70
     3
  9
$SHADEDIF
 70
    70
  9
$TILEMODE
 70
     1
  9
$MAXACTVP
 70
    48
  9
$PLIMCHECK
 70
     0
  9
$PEXTMIN
 10
1.0000000000000000E+020
 20
1.0000000000000000E+020
 30
1.0000000000000000E+020
  9
$PEXTMAX
 10
-1.0000000000000000E+020
 20
-1.0000000000000000E+020
 30
-1.0000000000000000E+020
  9
$PLIMMIN
 10
0.0
 20
0.0
  9
$PLIMMAX
 10
420.0
 20
297.0
  9
$UNITMODE
 70
     0
  9
$VISRETAIN
 70
     1
  9
$PLINEGEN
 70
     0
  9
$PSLTSCALE
 70
     1
  0
ENDSEC
  0
SECTION
  2
TABLES
  0
TABLE
  2
VPORT
 70
     1
  0
VPORT
  2
*ACTIVE
 70
     0
 10
0.0
 20
0.0
 11
1.0
 21
1.0
 12
6793.0556279050143
 22
1017.7293014602139
 13
0.0
 23
0.0
 14
10.0
 24
10.0
 15
10.0
 25
10.0
 16
0.0
 26
0.0
 36
1.0
 17
0.0
 27
0.0
 37
0.0
 40
484.64824330683018
 41
1.492734478203434
 42
50.0
 43
0.0
 44
0.0
 50
0.0
 51
0.0
 71
     0
 72
  1000
 73
     1
 74
     1
 75
     0
 76
     0
 77
     0
 78
     0
  0
ENDTAB
  0
TABLE
  2
LTYPE
 70
    13
  0
LTYPE
  2
CONTINUOUS
 70
     0
  3
Solid line
 72
    65
 73
     0
 40
0.0
  0
LTYPE
  2
XREF1|CENTER2
 70
    48
  3
Center (.5x) ___ _ ___ _ ___ _ ___ _ ___ _ ___
 72
    65
 73
     4
 40
28.574999999999999
 49
19.050000000000001
 49
-3.1749999999999989
 49
3.1749999999999989
 49
-3.1749999999999989
  0
LTYPE
  2
A3WAKUDAKE|CENTER2
 70
    48
  3
Center (.5x) ___ _ ___ _ ___ _ ___ _ ___ _ ___
 72
    65
 73
     4
 40
28.574999999999999
 49
19.050000000000001
 49
-3.1749999999999989
 49
3.1749999999999989
 49
-3.1749999999999989
  0
ENDTAB
  0
TABLE
  2
LAYER
 70
    45
  0
LAYER
  2
0
 70
     0
 62
     7
  6
CONTINUOUS
  0
LAYER
  2
1TEXT
 70
     0
 62
     7
  6
CONTINUOUS
  0
LAYER
  2
01
 70
     0
 62
     1
  6
CONTINUOUS
  0
LAYER
  2
A3WAKUDAKE|THICK
 70
    48
 62
     7
  6
CONTINUOUS
  0
LAYER
  2
A3WAKUDAKE|POINT
 70
    48
 62
     7
  6
CONTINUOUS
  0
LAYER
  2
A3WAKUDAKE|1CENTER
 70
    48
 62
     7
  6
A3WAKUDAKE|CENTER2
  0
LAYER
  2
A3WAKUDAKE|0-6
 70
    48
 62
     7
  6
CONTINUOUS
  0
LAYER
  2
A3WAKUDAKE|1DIM
 70
    48
 62
     7
  6
CONTINUOUS
  0
LAYER
  2
XREF1|1CENTER
 70
    48
 62
     7
  6
XREF1|CENTER2
  0
ENDTAB
  0
TABLE
  2
STYLE
 70
    20
  0
STYLE
  2
STANDARD
 70
     0
 40
0.0
 41
1.0
 50
0.0
 71
     0
 42
4.0
  3
romans.shx
  4
extfont2.shx
  0
ENDTAB
  0
TABLE
  2
VIEW
 70
     5
  0
ENDTAB
  0
TABLE
  2
UCS
 70
     0
  0
ENDTAB
  0
TABLE
  2
APPID
 70
    11
  0
APPID
  2
ACAD
 70
     0
  0
APPID
  2
DRAWINGVARIABLESXDATA
 70
     0
  0
APPID
  2
CONTENTTABDATA
 70
     0
  0
APPID
  2
CONTENTCURRENTTAB
 70
     0
  0
APPID
  2
CONTENTBLOCKDESCRIPTION
 70
     0
  0
APPID
  2
CONTENTBLOCKICON
 70
     0
  0
APPID
  2
CONTENTLONGBLOCKNAME
 70
     0
  0
APPID
  2
ACAD_PSEXT
 70
     0
  0
APPID
  2
ACAD_MLEADERVER
 70
     0
  0
APPID
  2
ACAD_EXEMPT_FROM_CAD_STANDARDS
 70
     0
  0
APPID
  2
ACAECLAYERSTANDARD
 70
     0
  0
ENDTAB
  0
TABLE
  2
DIMSTYLE
 70
     7
  0
DIMSTYLE
  2
NEWX10
 70
     0
  3
 
  4

  5

  6
OPEN30
  7
OPEN30
 40
1.0
 41
2.0
 42
0.0
 43
7.0
 44
1.0
 45
0.0
 46
0.0
 47
0.0
 48
0.0
140
3.5
141
0.0
142
0.0
143
25.399999999999999
144
1.0
145
0.0
146
0.7
147
0.7
 71
     0
 72
     0
 73
     0
 74
     0
 75
     0
 76
     0
 77
     1
 78
     8
170
     0
171
     2
172
     1
173
     1
174
     0
175
     0
176
   256
177
   256
178
   201
  0
ENDTAB
  0
ENDSEC
  0
SECTION
  2
BLOCKS
  0
BLOCK
  8
0
  2
$MODEL_SPACE
 70
     0
 10
0.0
 20
0.0
 30
0.0
  3
$MODEL_SPACE
  1

  0
ENDBLK
  5
1A
  8
0
  0
BLOCK
 67
     1
  8
0
  2
$PAPER_SPACE
 70
     0
 10
0.0
 20
0.0
 30
0.0
  3
$PAPER_SPACE
  1

  0
ENDBLK
  5
17
 67
     1
  8
0
  0
BLOCK
  8
0
  2
_OPEN30
 70
     0
 10
0.0
 20
0.0
 30
0.0
  3
_OPEN30
  1

  0
LINE
  5
44
  8
0
  6
BYBLOCK
 62
     0
 10
-1.0
 20
0.26794919
 30
0.0
 11
0.0
 21
0.0
 31
0.0
  0
LINE
  5
45
  8
0
  6
BYBLOCK
 62
     0
 10
0.0
 20
0.0
 30
0.0
 11
-1.0
 21
-0.26794919
 31
0.0
  0
LINE
  5
46
  8
0
  6
BYBLOCK
 62
     0
 10
0.0
 20
0.0
 30
0.0
 11
-1.0
 21
0.0
 31
0.0
  0
ENDBLK
  5
47
  8
0
  0
BLOCK
  8
0
  2
XREF1
 70
    36
 10
0.0
 20
0.0
 30
0.0
  3
XREF1
  1
D:\ACLT\FORMAT\KAWAJUN(9)図面用.dwg
  0
ENDBLK
  5
5D
  8
0
  0
BLOCK
  8
0
  2
A3WAKUDAKE
 70
    36
 10
0.0
 20
0.0
 30
0.0
  3
A3WAKUDAKE
  1
D:\ACLT\FORMAT\A3WAKUdake.dwg
  0
ENDBLK
  5
6A0
  8
0
  0
ENDSEC
  0
SECTION
  2
ENTITIES
  0
TEXT
  5
1744A
  8
01
 10
6593.4055857351404
 20
1150.6293014567721
 30
0.0
 40
20.0
  1
3-K9T-X-LM-2
  0
TEXT
  5
1744B
  8
01
 10
6614.7225609797779
 20
1126.278342836255
 30
0.0
 40
6.0
  1
材質：真鍮
 72
     1
 11
6631.9225609797777
 21
1126.278342836255
 31
0.0
  0
LINE
  5
1745D
  8
01
 10
6897.4064499172
 20
1187.1293014567791
 30
0.0
 11
6897.4064499172
 21
1147.1293014567791
 31
0.0
  0
LINE
  5
17475
  8
01
 10
6948.4056820748838
 20
1217.1293014567791
 30
0.0
 11
6948.4056820748838
 21
1182.12930145678
 31
0.0
  0
LINE
  5
17478
  8
01
 10
6897.4064499172
 20
1147.1293014567791
 30
0.0
 11
7051.160830072231
 21
1147.1293014567791
 31
0.0
  0
LINE
  5
17479
  8
01
 10
6897.4064499172
 20
1187.1293014567791
 30
0.0
 11
7051.160830072231
 21
1187.1293014567791
 31
0.0
  0
LINE
  5
1747B
  8
01
  6
BYBLOCK
 10
6900.6055657351399
 20
991.54078998135742
 30
0.0
 11
6900.6055657351399
 21
829.71781293220022
 31
0.0
  0
LINE
  5
1747C
  8
01
  6
BYBLOCK
 10
6901.1055657351399
 20
1007.629301456779
 30
0.0
 11
6901.1055657351399
 21
992.62930145677933
 31
0.0
  0
ARC
  5
1747D
  8
01
  6
BYBLOCK
 10
6899.90556573514
 20
992.62930145677933
 30
0.0
 40
1.1999999999999991
 50
324.73561031722039
 51
0.0
  0
LINE
  5
1747E
  8
01
  6
BYBLOCK
 10
6899.40556573514
 20
1007.629301456779
 30
0.0
 11
6899.40556573514
 21
922.12930145677933
 31
0.0
  0
ARC
  5
1747F
  8
01
  6
BYBLOCK
 10
6900.6055657351399
 20
991.54078998135742
 30
0.0
 40
1.1999999999999991
 50
144.73561031728551
 51
180.0
  0
LINE
  5
17480
  8
01
  6
BYBLOCK
 10
6899.90556573514
 20
1007.629301456779
 30
0.0
 11
6899.90556573514
 21
992.62930145677933
 31
0.0
  0
LINE
  5
17481
  8
01
  6
BYBLOCK
 10
6900.7319164706678
 20
844.62930145677933
 30
0.0
 11
6973.90556573514
 21
844.62930145677933
 31
0.0
  0
LINE
  5
17482
  8
01
  6
BYBLOCK
 10
6900.7319164706678
 20
976.62930145677933
 30
0.0
 11
6921.905565735141
 21
976.62930145677933
 31
0.0
  0
LINE
  5
17483
  8
01
  6
BYBLOCK
 10
6887.0319164706671
 20
899.62930145677933
 30
0.0
 11
6897.531916470668
 21
899.62930145677933
 31
0.0
  0
ARC
  5
17484
  8
01
  6
BYBLOCK
 10
6887.0319164706671
 20
900.62930145677933
 30
0.0
 40
1.0
 50
180.0
 51
270.0
  0
LINE
  5
17485
  8
01
  6
BYBLOCK
 10
6887.0319164706671
 20
921.62930145677944
 30
0.0
 11
6897.531916470668
 21
921.62930145677944
 31
0.0
  0
ARC
  5
17486
  8
01
  6
BYBLOCK
 10
6887.0319164706671
 20
920.62930145677922
 30
0.0
 40
1.0
 50
90.0
 51
180.0
  0
LINE
  5
17487
  8
01
  6
BYBLOCK
 10
6899.40556573514
 20
813.62930145677944
 30
0.0
 11
6901.1055657351399
 21
813.62930145677944
 31
0.0
  0
LINE
  5
17488
  8
01
  6
BYBLOCK
 10
6899.40556573514
 20
1007.629301456779
 30
0.0
 11
6901.1055657351399
 21
1007.629301456779
 31
0.0
  0
LINE
  5
17489
  8
01
  6
BYBLOCK
 10
6899.6257698380277
 20
992.23361030438457
 30
0.0
 11
6899.90556573514
 21
992.62930145677933
 31
0.0
  0
LINE
  5
1748A
  8
01
  6
BYBLOCK
 10
6900.6055657351399
 20
991.54078998135742
 30
0.0
 11
6900.8853616322522
 21
991.93648113375116
 31
0.0
  0
LINE
  5
1748B
  8
01
  6
BYBLOCK
 10
6901.1055657351399
 20
813.62930145677944
 30
0.0
 11
6901.1055657351399
 21
828.62930145677922
 31
0.0
  0
ARC
  5
1748C
  8
01
  6
BYBLOCK
 10
6899.90556573514
 20
828.62930145677922
 30
0.0
 40
1.1999999999999991
 50
0.0
 51
35.264389682779537
  0
ARC
  5
1748D
  8
01
  6
BYBLOCK
 10
6900.6055657351399
 20
829.71781293220022
 30
0.0
 40
1.1999999999999991
 50
180.0
 51
234.3146652873597
  0
LINE
  5
1748E
  8
01
  6
BYBLOCK
 10
6899.90556573514
 20
813.62930145677944
 30
0.0
 11
6899.90556573514
 21
828.7431334977183
 31
0.0
  0
LINE
  5
1748F
  8
01
  6
BYBLOCK
 10
6900.6055657351399
 20
829.71781293220022
 30
0.0
 11
6900.8853616322522
 21
829.32212177980659
 31
0.0
  0
LINE
  5
17490
  8
01
  6
BYBLOCK
 10
6886.0319164706671
 20
920.62930145677922
 30
0.0
 11
6886.0319164706671
 21
900.62930145677933
 31
0.0
  0
LINE
  5
17491
  8
01
  6
BYBLOCK
 10
6897.40556573514
 20
812.62930145677922
 30
0.0
 11
6897.40556573514
 21
1008.629301456779
 31
0.0
  0
LINE
  5
17492
  8
01
  6
BYBLOCK
 10
6899.40556573514
 20
812.62930145677922
 30
0.0
 11
6899.40556573514
 21
1008.629301456779
 31
0.0
  0
LINE
  5
17493
  8
01
  6
BYBLOCK
 10
6973.9055657351382
 20
886.62930145677922
 30
0.0
 11
6973.90556573514
 21
929.1293014567774
 31
0.0
  0
LINE
  5
17494
  8
01
  6
BYBLOCK
 10
6899.40556573514
 20
1008.629301456779
 30
0.0
 11
6897.40556573514
 21
1008.629301456779
 31
0.0
  0
LINE
  5
17495
  8
01
  6
BYBLOCK
 10
6899.40556573514
 20
812.62930145677922
 30
0.0
 11
6897.40556573514
 21
812.62930145677922
 31
0.0
  0
LINE
  5
17496
  8
01
 10
6907.9315120485317
 20
997.62930145677944
 30
0.0
 11
6894.0790563637474
 21
997.62930145677944
 31
0.0
  0
LINE
  5
17497
  8
01
 10
6894.6346642826684
 20
823.62930145677933
 30
0.0
 11
6903.6346642826666
 21
823.62930145677933
 31
0.0
  0
LINE
  5
17499
  8
01
 10
6948.40556573514
 20
985.62930145677933
 30
0.0
 11
6948.40556573514
 21
925.62930145677933
 31
0.0
  0
LINE
  5
1749A
  8
01
  6
BYBLOCK
 10
6770.9055697351396
 20
999.62930145677933
 30
0.0
 11
6770.9055697351396
 21
821.62930145677831
 31
0.0
  0
LINE
  5
1749B
  8
01
  6
BYBLOCK
 10
6788.9055697351387
 20
999.62930145677933
 30
0.0
 11
6788.9055697351387
 21
821.62930145677831
 31
0.0
  0
ARC
  5
1749C
  8
01
  6
BYBLOCK
 10
6779.9055697351387
 20
999.62930145677933
 30
0.0
 40
8.9999999999997051
 50
0.0
 51
180.0
  0
ARC
  5
1749D
  8
01
  6
BYBLOCK
 10
6779.9055697351387
 20
821.62930145677831
 30
0.0
 40
8.9999999999997051
 50
180.0
 51
0.0
  0
LINE
  5
1749E
  8
01
  6
BYBLOCK
 10
6785.2555697351409
 20
899.52930145677897
 30
0.0
 11
6774.555569735141
 21
899.52930145677897
 31
0.0
  0
LINE
  5
1749F
  8
01
  6
BYBLOCK
 10
6785.255569735139
 20
921.72930145677878
 30
0.0
 11
6774.555569735141
 21
921.72930145677878
 31
0.0
  0
LINE
  5
174A0
  8
01
  6
BYBLOCK
 10
6785.255569735139
 20
921.72930145677878
 30
0.0
 11
6785.2555697351409
 21
899.52930145677897
 31
0.0
  0
LINE
  5
174A1
  8
01
  6
BYBLOCK
 10
6774.555569735141
 20
921.72930145677878
 30
0.0
 11
6774.555569735141
 21
899.52930145677897
 31
0.0
  0
CIRCLE
  5
174A2
  8
01
  6
BYBLOCK
 10
6779.9055697351387
 20
823.62930145677933
 30
0.0
 40
4.25
  0
CIRCLE
  5
174A3
  8
01
  6
BYBLOCK
 10
6779.9055697351387
 20
823.62930145677933
 30
0.0
 40
2.7499999999996021
  0
CIRCLE
  5
174A4
  8
01
  6
BYBLOCK
 10
6779.9055697351387
 20
997.62930145677944
 30
0.0
 40
4.25
  0
CIRCLE
  5
174A5
  8
01
  6
BYBLOCK
 10
6779.9055697351387
 20
997.62930145677944
 30
0.0
 40
2.7499999999996021
  0
LINE
  5
174A6
  8
01
 10
6772.7795422731124
 20
997.62930145677944
 30
0.0
 11
6787.1915095247168
 21
997.62930145677944
 31
0.0
  0
LINE
  5
174A7
  8
01
 10
6773.1463320682788
 20
823.62930145677853
 30
0.0
 11
6787.3106999903803
 21
823.62930145677853
 31
0.0
  0
LINE
  5
174A8
  8
01
  6
BYBLOCK
 10
6659.2055737351393
 20
991.54078998135742
 30
0.0
 11
6659.2055737351393
 21
829.71781293220022
 31
0.0
  0
LINE
  5
174A9
  8
01
  6
BYBLOCK
 10
6658.7055737351393
 20
1007.629301456779
 30
0.0
 11
6658.7055737351393
 21
992.62930145677933
 31
0.0
  0
ARC
  5
174AA
  8
01
  6
BYBLOCK
 10
6659.9055737351391
 20
992.62930145677933
 30
0.0
 40
1.1999999999999991
 50
180.0
 51
215.26438968277949
  0
LINE
  5
174AB
  8
01
  6
BYBLOCK
 10
6660.4055737351391
 20
1007.629301456779
 30
0.0
 11
6660.4055737351391
 21
922.12930145677933
 31
0.0
  0
ARC
  5
174AC
  8
01
  6
BYBLOCK
 10
6659.2055737351393
 20
991.54078998135742
 30
0.0
 40
1.1999999999999991
 50
0.0
 51
35.26438968271443
  0
LINE
  5
174AD
  8
01
  6
BYBLOCK
 10
6659.9055737351391
 20
1007.629301456779
 30
0.0
 11
6659.9055737351391
 21
992.62930145677933
 31
0.0
  0
LINE
  5
174AE
  8
01
  6
BYBLOCK
 10
6659.0792229996114
 20
844.62930145677933
 30
0.0
 11
6585.9055737351391
 21
844.62930145677933
 31
0.0
  0
LINE
  5
174AF
  8
01
  6
BYBLOCK
 10
6659.0792229996114
 20
976.62930145677933
 30
0.0
 11
6637.9055737351382
 21
976.62930145677933
 31
0.0
  0
LINE
  5
174B0
  8
01
  6
BYBLOCK
 10
6672.7792229996121
 20
899.62930145677933
 30
0.0
 11
6662.2792229996121
 21
899.62930145677933
 31
0.0
  0
ARC
  5
174B1
  8
01
  6
BYBLOCK
 10
6672.7792229996121
 20
900.62930145677933
 30
0.0
 40
1.0
 50
270.0
 51
0.0
  0
LINE
  5
174B2
  8
01
  6
BYBLOCK
 10
6672.7792229996121
 20
921.62930145677944
 30
0.0
 11
6662.2792229996121
 21
921.62930145677944
 31
0.0
  0
ARC
  5
174B3
  8
01
  6
BYBLOCK
 10
6672.7792229996121
 20
920.62930145677922
 30
0.0
 40
1.0
 50
0.0
 51
90.0
  0
LINE
  5
174B4
  8
01
  6
BYBLOCK
 10
6660.4055737351391
 20
813.62930145677944
 30
0.0
 11
6658.7055737351393
 21
813.62930145677944
 31
0.0
  0
LINE
  5
174B5
  8
01
  6
BYBLOCK
 10
6660.4055737351391
 20
1007.629301456779
 30
0.0
 11
6658.7055737351393
 21
1007.629301456779
 31
0.0
  0
LINE
  5
174B6
  8
01
  6
BYBLOCK
 10
6660.1853696322523
 20
992.23361030438457
 30
0.0
 11
6659.9055737351391
 21
992.62930145677933
 31
0.0
  0
LINE
  5
174B7
  8
01
  6
BYBLOCK
 10
6659.2055737351393
 20
991.54078998135742
 30
0.0
 11
6658.9257778380252
 21
991.93648113375116
 31
0.0
  0
LINE
  5
174B8
  8
01
  6
BYBLOCK
 10
6658.7055737351393
 20
813.62930145677944
 30
0.0
 11
6658.7055737351393
 21
828.62930145677922
 31
0.0
  0
ARC
  5
174B9
  8
01
  6
BYBLOCK
 10
6659.9055737351391
 20
828.62930145677922
 30
0.0
 40
1.1999999999999991
 50
144.73561031722039
 51
180.0
  0
ARC
  5
174BA
  8
01
  6
BYBLOCK
 10
6659.2055737351393
 20
829.71781293220022
 30
0.0
 40
1.1999999999999991
 50
305.68533471264021
 51
0.0
  0
LINE
  5
174BB
  8
01
  6
BYBLOCK
 10
6659.9055737351391
 20
813.62930145677944
 30
0.0
 11
6659.9055737351391
 21
828.7431334977183
 31
0.0
  0
LINE
  5
174BC
  8
01
  6
BYBLOCK
 10
6659.2055737351393
 20
829.71781293220022
 30
0.0
 11
6658.9257778380252
 21
829.32212177980659
 31
0.0
  0
LINE
  5
174BD
  8
01
  6
BYBLOCK
 10
6673.7792229996121
 20
920.62930145677922
 30
0.0
 11
6673.7792229996121
 21
900.62930145677933
 31
0.0
  0
LINE
  5
174BE
  8
01
  6
BYBLOCK
 10
6662.4055737351391
 20
812.62930145677922
 30
0.0
 11
6662.4055737351391
 21
1008.629301456779
 31
0.0
  0
LINE
  5
174BF
  8
01
  6
BYBLOCK
 10
6660.4055737351391
 20
812.62930145677922
 30
0.0
 11
6660.4055737351391
 21
1008.629301456779
 31
0.0
  0
LINE
  5
174C0
  8
01
  6
BYBLOCK
 10
6585.9055737351373
 20
886.62930145678115
 30
0.0
 11
6585.9055737351373
 21
929.1293014567774
 31
0.0
  0
LINE
  5
174C1
  8
01
  6
BYBLOCK
 10
6660.4055737351391
 20
1008.629301456779
 30
0.0
 11
6662.4055737351391
 21
1008.629301456779
 31
0.0
  0
LINE
  5
174C2
  8
01
  6
BYBLOCK
 10
6660.4055737351391
 20
812.62930145677922
 30
0.0
 11
6662.4055737351391
 21
812.62930145677922
 31
0.0
  0
LINE
  5
174C3
  8
01
 10
6651.8796274217484
 20
997.62930145677944
 30
0.0
 11
6665.7320831065326
 21
997.62930145677944
 31
0.0
  0
LINE
  5
174C4
  8
01
 10
6665.1764751876108
 20
823.62930145677933
 30
0.0
 11
6656.1764751876108
 21
823.62930145677933
 31
0.0
  0
LINE
  5
174C5
  8
01
 10
6641.4055737351391
 20
955.62930145677944
 30
0.0
 11
6581.4055737351391
 21
955.62930145677944
 31
0.0
  0
LINE
  5
174C6
  8
01
 10
6611.4055737351391
 20
985.62930145677933
 30
0.0
 11
6611.4055737351391
 21
925.62930145677933
 31
0.0
  0
LINE
  5
174CB
  8
01
 10
6799.9055697351387
 20
1014.363311542552
 30
0.0
 11
6799.9055697351387
 21
803.33587453172674
 31
0.0
  0
LINE
  5
174CC
  8
01
 10
6759.9055697351396
 20
1014.363311542552
 30
0.0
 11
6759.9055697351396
 21
803.33587453172674
 31
0.0
  0
LINE
  5
174D0
  8
01
 10
6901.1064499171989
 20
1174.229301456779
 30
0.0
 11
6973.9064499172
 21
1174.229301456779
 31
0.0
  0
LINE
  5
174D1
  8
01
 10
6899.4064499172
 20
1175.2293014567799
 30
0.0
 11
6900.6064499172007
 21
1175.2293014567799
 31
0.0
  0
LINE
  5
174D2
  8
01
 10
6901.1064499171989
 20
1160.0293014567801
 30
0.0
 11
6973.9064499172
 21
1160.0293014567801
 31
0.0
  0
LINE
  5
174D3
  8
01
 10
6899.4064499172
 20
1159.0293014567801
 30
0.0
 11
6901.1064499171989
 21
1159.0293014567801
 31
0.0
  0
LINE
  5
174D4
  8
01
 10
6900.6064499172007
 20
1164.0263577316259
 30
0.0
 11
6900.6064499172007
 21
1170.2322451819321
 31
0.0
  0
LINE
  5
174D5
  8
01
 10
6899.4064499172
 20
1159.0293014567801
 30
0.0
 11
6899.4064499172
 21
1175.2293014567799
 31
0.0
  0
ARC
  5
174D6
  8
01
 10
6900.6064499171998
 20
1172.2322451819321
 30
0.0
 40
1.1999999999999991
 50
135.0000000000046
 51
180.0
  0
ARC
  5
174D7
  8
01
 10
6900.6064499171998
 20
1170.2322451819321
 30
0.0
 40
1.1999999999999991
 50
135.0000000000046
 51
180.0
  0
ARC
  5
174D8
  8
01
 10
6900.6064499171998
 20
1162.0263577316271
 30
0.0
 40
1.1999999999999991
 50
180.0
 51
224.99999999999531
  0
LINE
  5
174D9
  8
01
 10
6899.9064499172
 20
1159.0293014567801
 30
0.0
 11
6899.9064499172
 21
1163.0293014567801
 31
0.0
  0
LINE
  5
174DA
  8
01
 10
6901.1064499171989
 20
1159.0293014567801
 30
0.0
 11
6901.1064499171989
 21
1163.0293014567801
 31
0.0
  0
ARC
  5
174DB
  8
01
 10
6899.9064499172
 20
1163.0293014567801
 30
0.0
 40
1.1999999999999991
 50
0.0
 51
44.999999999995332
  0
LINE
  5
174DC
  8
01
 10
6899.9064499172
 20
1161.0293014567801
 30
0.0
 11
6899.7579217797766
 21
1161.1778295942031
 31
0.0
  0
LINE
  5
174DD
  8
01
 10
6899.9064499172
 20
1175.2293014567799
 30
0.0
 11
6899.9064499172
 21
1171.229301456779
 31
0.0
  0
LINE
  5
174DE
  8
01
 10
6901.1064499171989
 20
1175.2293014567799
 30
0.0
 11
6901.1064499171989
 21
1171.229301456779
 31
0.0
  0
ARC
  5
174DF
  8
01
 10
6899.9064499172
 20
1171.229301456779
 30
0.0
 40
1.1999999999999991
 50
315.0000000000046
 51
0.0
  0
LINE
  5
174E0
  8
01
 10
6901.1064499171989
 20
1175.2293014567799
 30
0.0
 11
6899.9064499172
 21
1175.2293014567799
 31
0.0
  0
LINE
  5
174E1
  8
01
 10
6899.9064499172
 20
1173.2293014567799
 30
0.0
 11
6899.7579217797766
 21
1173.0807733193551
 31
0.0
  0
LINE
  5
174E2
  8
01
 10
6899.9064499172
 20
1163.0293014567801
 30
0.0
 11
6899.7579217797766
 21
1163.1778295942031
 31
0.0
  0
ARC
  5
174E3
  8
01
 10
6900.6064499171998
 20
1164.0263577316271
 30
0.0
 40
1.1999999999999991
 50
180.0
 51
224.99999999999531
  0
LINE
  5
174E4
  8
01
 10
6900.7549780546242
 20
1163.8778295942029
 30
0.0
 11
6900.6064499171998
 21
1164.0263577316271
 31
0.0
  0
LINE
  5
174E5
  8
01
 10
6899.9064499172
 20
1171.229301456779
 30
0.0
 11
6899.7579217797766
 21
1171.0807733193551
 31
0.0
  0
LINE
  5
174E6
  8
01
 10
6900.7549780546242
 20
1170.3807733193551
 30
0.0
 11
6900.6064499171998
 21
1170.2322451819321
 31
0.0
  0
LINE
  5
174E7
  8
01
 10
6973.9064499172
 20
1160.0293014567801
 30
0.0
 11
6973.9064499172
 21
1174.229301456779
 31
0.0
  0
LINE
  5
174E8
  8
01
 10
6899.4064499172
 20
1176.1293014567791
 30
0.0
 11
6899.4064499172
 21
1158.1293014567791
 31
0.0
  0
LINE
  5
174E9
  8
01
 10
6897.4064499172
 20
1176.1293014567791
 30
0.0
 11
6897.4064499172
 21
1158.1293014567791
 31
0.0
  0
LINE
  5
174EA
  8
01
 10
6899.4064499172
 20
1176.1293014567791
 30
0.0
 11
6897.4064499172
 21
1176.1293014567791
 31
0.0
  0
LINE
  5
174EB
  8
01
 10
6899.4064499172
 20
1158.1293014567791
 30
0.0
 11
6897.4064499172
 21
1158.1293014567791
 31
0.0
  0
LINE
  5
174EC
  8
01
 10
6897.4064499172
 20
1161.7793014567801
 30
0.0
 11
6886.0328006527279
 21
1161.7793014567801
 31
0.0
  0
LINE
  5
174ED
  8
01
 10
6897.4064499172
 20
1172.4793014567799
 30
0.0
 11
6896.5328006527279
 21
1172.4793014567799
 31
0.0
  0
LINE
  5
174EE
  8
01
 10
6886.0328006527279
 20
1161.7793014567801
 30
0.0
 11
6886.0328006527279
 21
1163.7793014567801
 31
0.0
  0
LINE
  5
174EF
  8
01
 10
6886.0328006527279
 20
1163.7793014567801
 30
0.0
 11
6896.5328006527279
 21
1172.4793014567799
 31
0.0
  0
LINE
  5
17534
  8
01
 10
6948.40556573514
 20
859.62930145677933
 30
0.0
 11
6948.40556573514
 21
871.62930145677944
 31
0.0
  0
LINE
  5
17535
  8
01
 10
6942.40556573514
 20
865.62930145677933
 30
0.0
 11
6954.40556573514
 21
865.62930145677933
 31
0.0
  0
LINE
  5
17536
  8
01
 10
6952.7930487122958
 20
866.62930145677933
 30
0.0
 11
6944.0180827579852
 21
866.62930145677933
 31
0.0
  0
LINE
  5
17537
  8
01
 10
6952.7930487122958
 20
864.62930145677944
 30
0.0
 11
6944.0180827579852
 21
864.62930145677944
 31
0.0
  0
CIRCLE
  5
17538
  8
01
 10
6948.40556573514
 20
865.62930145677933
 30
-0.0000000000562575
 40
4.5000007638701609
  0
CIRCLE
  5
1753A
  8
01
 10
6948.40556573514
 20
876.62930133546638
 30
0.0000000000562575
 40
2.500000593395725
  0
LINE
  5
17A3C
  8
01
 10
6948.4056820748838
 20
1150.4293014567791
 30
0.0
 11
6948.4056820748856
 21
1119.233588997954
 31
0.0
  0
LINE
  5
17F75
  8
01
 10
6593.4055857351404
 20
1089.1293014567721
 30
0.0
 11
6703.4055857351386
 21
1089.1293014567721
 31
0.0
  0
TEXT
  5
17F76
  8
01
 10
6605.9055857351377
 20
1112.3793014567721
 30
0.0
 40
6.0
  1
表面処理
 72
     1
 11
6619.505585735139
 21
1112.3793014567721
 31
0.0
  0
TEXT
  5
17F77
  8
01
 10
6605.9055857351377
 20
1102.126368467485
 30
0.0
 40
6.0
  1
クローム
 72
     1
 11
6619.505585735139
 21
1102.126368467485
 31
0.0
  0
LINE
  5
17F78
  8
01
 10
6593.4055857351404
 20
1120.6293014567721
 30
0.0
 11
6703.4055857351386
 21
1120.6293014567721
 31
0.0
  0
LINE
  5
17F79
  8
01
 10
6593.4055857351404
 20
1110.1293014567721
 30
0.0
 11
6703.4055857351386
 21
1110.1293014567721
 31
0.0
  0
LINE
  5
17F7A
  8
01
 10
6593.4055857351404
 20
1099.6293014567721
 30
0.0
 11
6703.4055857351386
 21
1099.6293014567721
 31
0.0
  0
LINE
  5
17F7B
  8
01
 10
6593.4055857351404
 20
1099.6293014567721
 30
0.0
 11
6703.4055857351386
 21
1099.6293014567721
 31
0.0
  0
LINE
  5
17F7C
  8
01
 10
6645.9055857351404
 20
1120.6293014567721
 30
0.0
 11
6645.9055857351404
 21
1068.1293014567721
 31
0.0
  0
TEXT
  5
17F7D
  8
01
 10
6648.2055857351397
 20
1101.557765981298
 30
0.0
 40
6.0
  1
3-K9T-C-LM-2
 41
0.7
 72
     1
 11
6674.5055857351399
 21
1101.557765981298
 31
0.0
  0
TEXT
  5
17F7E
  8
01
 10
6664.505585735139
 20
1112.3793014567721
 30
0.0
 40
6.0
  1
コード
 72
     1
 11
6674.505585735139
 21
1112.3793014567721
 31
0.0
  0
LINE
  5
17F7F
  8
01
 10
6593.4055857351404
 20
1078.6293014567721
 30
0.0
 11
6703.4055857351386
 21
1078.6293014567721
 31
0.0
  0
TEXT
  5
17F80
  8
01
 10
6595.1055857351394
 20
1081.162931039416
 30
0.0
 40
6.0
  1
パールブラック
 72
     1
 11
6619.505585735139
 21
1081.162931039416
 31
0.0
  0
LINE
  5
17F81
  8
01
 10
6593.4055857351414
 20
1068.1293014567721
 30
0.0
 11
6593.4055857351404
 21
1120.6293014567721
 31
0.0
  0
LINE
  5
17F82
  8
01
 10
6703.4055857351404
 20
1068.1293014567721
 30
0.0
 11
6703.4055857351386
 21
1120.6293014567721
 31
0.0
  0
TEXT
  5
17F83
  8
01
 10
6648.0413000208537
 20
1080.557765981298
 30
0.0
 40
6.0
  1
3-K9T-GQ-LM-2
 41
0.65
 72
     1
 11
6674.5055857351399
 21
1080.557765981298
 31
0.0
  0
TEXT
  5
17F84
  8
01
 10
6595.1055857351394
 20
1091.6629310394151
 30
0.0
 40
6.0
  1
サテンニッケル
 72
     1
 11
6619.505585735139
 21
1091.6629310394151
 31
0.0
  0
TEXT
  5
17F85
  8
01
 10
6648.1055857351412
 20
1091.057765981298
 30
0.0
 40
6.0
  1
3-K9T-N-LM-2
 41
0.7
 72
     1
 11
6674.5055857351399
 21
1091.057765981298
 31
0.0
  0
LINE
  5
17F86
  8
01
 10
6593.4055857351404
 20
1068.1293014567721
 30
0.0
 11
6703.4055857351386
 21
1068.1293014567721
 31
0.0
  0
TEXT
  5
17F88
  8
01
 10
6648.5984428779966
 20
1070.057765981298
 30
0.0
 40
6.0
  1
3-K9T-JC-LM-2
 41
0.65
 72
     1
 11
6674.5055857351399
 21
1070.057765981298
 31
0.0
  0
LINE
  5
1A00B
  8
01
 10
6918.0882399364527
 20
955.62930145677944
 30
0.0
 11
6972.3000495969827
 21
955.62930145677944
 31
0.0
  0
LINE
  5
1B125
  8
01
 10
6973.9055657351373
 20
976.62930145677944
 30
0.0
 11
6921.9055657351428
 21
976.62930145677944
 31
0.0
  0
TEXT
  5
1B5B9
  8
01
 10
6594.2170183892467
 20
1070.321678799706
 30
0.0
 40
6.0
  1
サテンクローム+クローム
 41
0.6
 72
     1
 11
6619.7255898178182
 21
1070.321678799706
 31
0.0
  0
POINT
  5
1BB3B
  8
01
 10
6948.3732181601108
 20
1083.1293014567821
 30
0.0
 50
360.0
  0
LINE
  5
1BB3E
  8
01
 10
7073.4056820748838
 20
1111.129301463066
 30
-0.0000000000000568
 11
7073.4056820748838
 21
1089.1293014599089
 31
-0.0000000000000568
  0
LINE
  5
1BB3F
  8
01
 10
6937.4056820748847
 20
1138.1293014567791
 30
0.0
 11
6937.4056820748829
 21
1089.1293014599109
 31
0.0
  0
ARC
  5
1BB40
  8
01
 10
6938.4056820748838
 20
1089.1293014599109
 30
-0.0000000000000568
 40
1.0
 50
180.0
 51
270.0
  0
LINE
  5
1BB41
  8
01
 10
6959.4056820748838
 20
1138.1293014567791
 30
0.0
 11
6959.4056820748856
 21
1114.1293014630651
 31
0.0000000000000044
  0
LINE
  5
1BB42
  8
01
 10
6937.4056820748847
 20
1138.1293014567791
 30
0.0
 11
6959.4056820748838
 21
1138.1293014567791
 31
0.0
  0
LINE
  5
1BB43
  8
01
 10
6938.4056820748838
 20
1088.12930145991
 30
-0.0000000000000568
 11
7072.4056820748838
 21
1088.1293014599089
 31
-0.0000000000000568
  0
ARC
  5
1BB44
  8
01
 10
7072.4056820748838
 20
1089.1293014599089
 30
-0.0000000000000568
 40
1.0
 50
270.0
 51
0.0
  0
LINE
  5
1BB45
  8
01
 10
7072.4056820748838
 20
1112.129301463066
 30
-0.0000000000000568
 11
6961.4056820748838
 21
1112.129301463066
 31
-0.0000000000000558
  0
ARC
  5
1BB46
  8
01
 10
7072.4056820748838
 20
1111.129301463066
 30
-0.000000000000042
 40
1.0
 50
0.0
 51
90.0
  0
ARC
  5
1BB47
  8
01
 10
6961.4056820748838
 20
1114.1293014630651
 30
0.0000000000136305
 40
2.0
 50
180.0
 51
270.0
  0
LINE
  5
1BB48
  8
01
 10
6957.4056820748847
 20
1138.1293014567791
 30
0.0
 11
6957.4056820748838
 21
1113.39181323048
 31
0.0000000000000275
  0
LINE
  5
1BB49
  8
01
 10
7073.4056820748838
 20
1091.6293014599089
 30
0.0
 11
6960.6849786428138
 21
1109.606310199986
 31
0.0000000000000303
  0
ARC
  5
1BB4A
  8
01
 10
6961.4056820748838
 20
1113.541920515177
 30
-0.000000000006261
 40
4.0
 50
180.0
 51
260.9386214172348
  0
LINE
  5
1BB52
  8
01
 10
7073.4056820748838
 20
1223.1293014504929
 30
-0.0000000000000568
 11
7073.4056820748838
 21
1245.1293014536509
 31
-0.0000000000000568
  0
LINE
  5
1BB53
  8
01
 10
6937.4056820748847
 20
1196.12930145678
 30
0.0
 11
6937.4056820748829
 21
1245.1293014536491
 31
0.0
  0
ARC
  5
1BB54
  8
01
 10
6938.4056820748838
 20
1245.1293014536491
 30
-0.0000000000000568
 40
1.0
 50
90.0
 51
180.0
  0
LINE
  5
1BB55
  8
01
 10
6959.4056820748838
 20
1196.12930145678
 30
0.0
 11
6959.4056820748856
 21
1220.1293014504949
 31
0.0000000000000044
  0
LINE
  5
1BB56
  8
01
 10
6937.4056820748847
 20
1196.12930145678
 30
0.0
 11
6959.4056820748838
 21
1196.12930145678
 31
0.0
  0
LINE
  5
1BB57
  8
01
 10
6938.4056820748838
 20
1246.1293014536491
 30
-0.0000000000000568
 11
7072.4056820748838
 21
1246.12930145365
 31
-0.0000000000000568
  0
ARC
  5
1BB58
  8
01
 10
7072.4056820748838
 20
1245.1293014536509
 30
-0.0000000000000568
 40
1.0
 50
0.0
 51
90.0
  0
LINE
  5
1BB59
  8
01
 10
7072.4056820748838
 20
1222.1293014504929
 30
-0.0000000000000568
 11
6961.4056820748838
 21
1222.1293014504929
 31
-0.0000000000000558
  0
ARC
  5
1BB5A
  8
01
 10
7072.4056820748838
 20
1223.1293014504929
 30
-0.000000000000042
 40
1.0
 50
270.0
 51
0.0
  0
ARC
  5
1BB5B
  8
01
 10
6961.4056820748838
 20
1220.1293014504949
 30
0.0000000000136305
 40
2.0
 50
90.0
 51
180.0
  0
LINE
  5
1BB5C
  8
01
 10
6957.4056820748847
 20
1196.12930145678
 30
0.0
 11
6957.4056820748838
 21
1220.86678968308
 31
0.0000000000000275
  0
LINE
  5
1BB5D
  8
01
 10
7073.4056820748838
 20
1242.62930145365
 30
0.0
 11
6960.6849786428138
 21
1224.6522927135729
 31
0.0000000000000303
  0
ARC
  5
1BB5E
  8
01
 10
6961.4056820748838
 20
1220.716682398383
 30
-0.000000000006261
 40
4.0
 50
99.061378582765144
 51
180.0
  0
LINE
  5
1BBB3
  8
01
 10
6973.9055657351373
 20
976.62930145677944
 30
0.0
 11
6973.9055657351437
 21
929.12930145677751
 31
0.0
  0
LINE
  5
1BBB4
  8
01
 10
6957.40556573514
 20
966.62930145677933
 30
0.0
 11
6938.40556573514
 21
966.62930145677933
 31
0.0
  0
LINE
  5
1BBB5
  8
01
 10
7072.40556573514
 20
951.6293014567791
 30
0.0
 11
6938.40556573514
 21
951.6293014567791
 31
0.0
  0
ARC
  5
1BBB6
  8
01
 10
6938.40556573514
 20
952.62930145677933
 30
0.0
 40
1.0
 50
180.0
 51
270.0
  0
LINE
  5
1BBB7
  8
01
 10
7072.40556573514
 20
960.62930145677933
 30
0.0
 11
6938.40556573514
 21
960.62930145677933
 31
0.0
  0
LINE
  5
1BBB8
  8
01
 10
6957.40556573514
 20
944.62930145677933
 30
0.0
 11
6938.40556573514
 21
944.62930145677933
 31
0.0
  0
ARC
  5
1BBB9
  8
01
 10
6957.40556573514
 20
946.62930145677922
 30
0.0
 40
2.0
 50
270.0
 51
0.0
  0
LINE
  5
1BBBA
  8
01
 10
6937.4055657351391
 20
965.62930145677933
 30
0.0
 11
6937.4055657351391
 21
945.62930145677922
 31
0.0
  0
ARC
  5
1BBBB
  8
01
 10
6938.40556573514
 20
959.62930145677933
 30
0.0
 40
1.0
 50
90.0
 51
180.0
  0
ARC
  5
1BBBC
  8
01
 10
6938.40556573514
 20
965.62930145677933
 30
0.0
 40
1.0
 50
90.0
 51
180.0
  0
ARC
  5
1BBBD
  8
01
 10
6938.40556573514
 20
945.62930145677922
 30
0.0
 40
1.0
 50
180.0
 51
270.0
  0
LINE
  5
1BBBE
  8
01
 10
6959.4055657351391
 20
964.21508789440588
 30
0.0
 11
6959.4055657351391
 21
963.46688766403588
 31
0.0
  0
LINE
  5
1BBBF
  8
01
 10
6957.40556573514
 20
966.62930145677933
 30
0.0
 11
6959.1126725163258
 21
964.92219467559266
 31
0.0
  0
LINE
  5
1BBC0
  8
01
 10
7073.4055657351391
 20
949.57941858901575
 30
0.0
 11
7073.4055657351391
 21
960.07028351243594
 31
0.0
  0
ARC
  5
1BBC1
  8
01
 10
7072.40556573514
 20
952.62930145677933
 30
0.0
 40
1.0
 50
270.0
 51
0.0
  0
ARC
  5
1BBC2
  8
01
 10
7072.40556573514
 20
949.57941858901575
 30
0.0000000000112557
 40
1.0
 50
270.0
 51
0.0
  0
ARC
  5
1BBC3
  8
01
 10
7072.40556573514
 20
959.62930145677933
 30
0.0
 40
1.0
 50
0.0
 51
90.0
  0
LINE
  5
1BBC4
  8
01
 10
6959.4055657351391
 20
948.07023914621516
 30
0.0
 11
6959.4055657351391
 21
946.62930145677922
 31
0.0
  0
LINE
  5
1BBC5
  8
01
 10
6957.40556573514
 20
948.07023914621516
 30
0.0
 11
6957.40556573514
 21
944.62930145677933
 31
0.0
  0
POLYLINE
  5
1BBC6
  8
01
 10
6959.4055657351391
 20
948.57941858901575
 30
0.0000000000082766
 66
     1
 70
     8
  0
VERTEX
  8
01
  5
1C560
 10
6959.41
 20
948.579
 30
8.27660e-012
  70
    32
  0
VERTEX
  8
01
  5
1C561
 10
6959.38
 20
948.579
 30
8.27660e-012
  70
    32
  0
VERTEX
  8
01
  5
1C562
 10
6959.36
 20
948.579
 30
8.27660e-012
  70
    32
  0
VERTEX
  8
01
  5
1C563
 10
6959.33
 20
948.579
 30
8.27660e-012
  70
    32
  0
VERTEX
  8
01
  5
1C564
 10
6959.31
 20
948.579
 30
8.27660e-012
  70
    32
  0
VERTEX
  8
01
  5
1C565
 10
6959.28
 20
948.578
 30
8.27660e-012
  70
    32
  0
VERTEX
  8
01
  5
1C566
 10
6959.26
 20
948.578
 30
8.27660e-012
  70
    32
  0
VERTEX
  8
01
  5
1C567
 10
6959.23
 20
948.578
 30
8.27660e-012
  70
    32
  0
VERTEX
  8
01
  5
1C568
 10
6959.21
 20
948.577
 30
8.27660e-012
  70
    32
  0
VERTEX
  8
01
  5
1C569
 10
6959.19
 20
948.576
 30
8.27660e-012
  70
    32
  0
VERTEX
  8
01
  5
1C56A
 10
6959.16
 20
948.576
 30
8.27660e-012
  70
    32
  0
VERTEX
  8
01
  5
1C56B
 10
6959.14
 20
948.575
 30
8.27660e-012
  70
    32
  0
VERTEX
  8
01
  5
1C56C
 10
6959.11
 20
948.574
 30
8.27660e-012
  70
    32
  0
VERTEX
  8
01
  5
1C56D
 10
6959.09
 20
948.573
 30
8.27660e-012
  70
    32
  0
VERTEX
  8
01
  5
1C56E
 10
6959.06
 20
948.572
 30
8.27660e-012
  70
    32
  0
VERTEX
  8
01
  5
1C56F
 10
6959.04
 20
948.571
 30
8.27660e-012
  70
    32
  0
VERTEX
  8
01
  5
1C570
 10
6959.02
 20
948.570
 30
8.27660e-012
  70
    32
  0
VERTEX
  8
01
  5
1C571
 10
6958.99
 20
948.569
 30
8.27660e-012
  70
    32
  0
VERTEX
  8
01
  5
1C572
 10
6958.97
 20
948.567
 30
8.27660e-012
  70
    32
  0
VERTEX
  8
01
  5
1C573
 10
6958.94
 20
948.566
 30
8.27660e-012
  70
    32
  0
VERTEX
  8
01
  5
1C574
 10
6958.92
 20
948.564
 30
8.27660e-012
  70
    32
  0
VERTEX
  8
01
  5
1C575
 10
6958.90
 20
948.563
 30
8.27660e-012
  70
    32
  0
VERTEX
  8
01
  5
1C576
 10
6958.87
 20
948.561
 30
8.27660e-012
  70
    32
  0
VERTEX
  8
01
  5
1C577
 10
6958.85
 20
948.560
 30
8.27660e-012
  70
    32
  0
VERTEX
  8
01
  5
1C578
 10
6958.82
 20
948.558
 30
8.27660e-012
  70
    32
  0
VERTEX
  8
01
  5
1C579
 10
6958.80
 20
948.556
 30
8.27660e-012
  70
    32
  0
VERTEX
  8
01
  5
1C57A
 10
6958.78
 20
948.554
 30
8.27660e-012
  70
    32
  0
VERTEX
  8
01
  5
1C57B
 10
6958.75
 20
948.552
 30
8.27660e-012
  70
    32
  0
VERTEX
  8
01
  5
1C57C
 10
6958.73
 20
948.550
 30
8.27660e-012
  70
    32
  0
VERTEX
  8
01
  5
1C57D
 10
6958.71
 20
948.548
 30
8.27660e-012
  70
    32
  0
VERTEX
  8
01
  5
1C57E
 10
6958.69
 20
948.546
 30
8.27660e-012
  70
    32
  0
VERTEX
  8
01
  5
1C57F
 10
6958.66
 20
948.544
 30
8.27660e-012
  70
    32
  0
VERTEX
  8
01
  5
1C580
 10
6958.64
 20
948.541
 30
8.27660e-012
  70
    32
  0
VERTEX
  8
01
  5
1C581
 10
6958.62
 20
948.539
 30
8.27660e-012
  70
    32
  0
VERTEX
  8
01
  5
1C582
 10
6958.60
 20
948.537
 30
8.27660e-012
  70
    32
  0
VERTEX
  8
01
  5
1C583
 10
6958.57
 20
948.534
 30
8.27660e-012
  70
    32
  0
VERTEX
  8
01
  5
1C584
 10
6958.55
 20
948.531
 30
8.27660e-012
  70
    32
  0
VERTEX
  8
01
  5
1C585
 10
6958.53
 20
948.529
 30
8.27660e-012
  70
    32
  0
VERTEX
  8
01
  5
1C586
 10
6958.51
 20
948.526
 30
8.27660e-012
  70
    32
  0
VERTEX
  8
01
  5
1C587
 10
6958.48
 20
948.523
 30
8.27660e-012
  70
    32
  0
VERTEX
  8
01
  5
1C588
 10
6958.46
 20
948.520
 30
8.27660e-012
  70
    32
  0
VERTEX
  8
01
  5
1C589
 10
6958.44
 20
948.517
 30
8.27660e-012
  70
    32
  0
VERTEX
  8
01
  5
1C58A
 10
6958.42
 20
948.514
 30
8.27660e-012
  70
    32
  0
VERTEX
  8
01
  5
1C58B
 10
6958.40
 20
948.511
 30
8.27660e-012
  70
    32
  0
VERTEX
  8
01
  5
1C58C
 10
6958.38
 20
948.508
 30
8.27660e-012
  70
    32
  0
VERTEX
  8
01
  5
1C58D
 10
6958.36
 20
948.505
 30
8.27660e-012
  70
    32
  0
VERTEX
  8
01
  5
1C58E
 10
6958.34
 20
948.502
 30
8.27660e-012
  70
    32
  0
VERTEX
  8
01
  5
1C58F
 10
6958.31
 20
948.499
 30
8.27660e-012
  70
    32
  0
VERTEX
  8
01
  5
1C590
 10
6958.29
 20
948.495
 30
8.27660e-012
  70
    32
  0
VERTEX
  8
01
  5
1C591
 10
6958.27
 20
948.492
 30
8.27660e-012
  70
    32
  0
VERTEX
  8
01
  5
1C592
 10
6958.25
 20
948.488
 30
8.27660e-012
  70
    32
  0
VERTEX
  8
01
  5
1C593
 10
6958.23
 20
948.485
 30
8.27660e-012
  70
    32
  0
VERTEX
  8
01
  5
1C594
 10
6958.21
 20
948.481
 30
8.27660e-012
  70
    32
  0
VERTEX
  8
01
  5
1C595
 10
6958.19
 20
948.477
 30
8.27660e-012
  70
    32
  0
VERTEX
  8
01
  5
1C596
 10
6958.18
 20
948.474
 30
8.27660e-012
  70
    32
  0
VERTEX
  8
01
  5
1C597
 10
6958.16
 20
948.470
 30
8.27660e-012
  70
    32
  0
VERTEX
  8
01
  5
1C598
 10
6958.14
 20
948.466
 30
8.27660e-012
  70
    32
  0
VERTEX
  8
01
  5
1C599
 10
6958.12
 20
948.462
 30
8.27660e-012
  70
    32
  0
VERTEX
  8
01
  5
1C59A
 10
6958.10
 20
948.458
 30
8.27660e-012
  70
    32
  0
VERTEX
  8
01
  5
1C59B
 10
6958.08
 20
948.454
 30
8.27660e-012
  70
    32
  0
VERTEX
  8
01
  5
1C59C
 10
6958.06
 20
948.450
 30
8.27660e-012
  70
    32
  0
VERTEX
  8
01
  5
1C59D
 10
6958.04
 20
948.446
 30
8.27660e-012
  70
    32
  0
VERTEX
  8
01
  5
1C59E
 10
6958.03
 20
948.442
 30
8.27660e-012
  70
    32
  0
VERTEX
  8
01
  5
1C59F
 10
6958.01
 20
948.437
 30
8.27660e-012
  70
    32
  0
VERTEX
  8
01
  5
1C5A0
 10
6957.99
 20
948.433
 30
8.27660e-012
  70
    32
  0
VERTEX
  8
01
  5
1C5A1
 10
6957.97
 20
948.429
 30
8.27660e-012
  70
    32
  0
VERTEX
  8
01
  5
1C5A2
 10
6957.96
 20
948.424
 30
8.27660e-012
  70
    32
  0
VERTEX
  8
01
  5
1C5A3
 10
6957.94
 20
948.420
 30
8.27660e-012
  70
    32
  0
VERTEX
  8
01
  5
1C5A4
 10
6957.92
 20
948.415
 30
8.27660e-012
  70
    32
  0
VERTEX
  8
01
  5
1C5A5
 10
6957.91
 20
948.411
 30
8.27660e-012
  70
    32
  0
VERTEX
  8
01
  5
1C5A6
 10
6957.89
 20
948.406
 30
8.27660e-012
  70
    32
  0
VERTEX
  8
01
  5
1C5A7
 10
6957.88
 20
948.401
 30
8.27660e-012
  70
    32
  0
VERTEX
  8
01
  5
1C5A8
 10
6957.86
 20
948.397
 30
8.27660e-012
  70
    32
  0
VERTEX
  8
01
  5
1C5A9
 10
6957.84
 20
948.392
 30
8.27660e-012
  70
    32
  0
VERTEX
  8
01
  5
1C5AA
 10
6957.83
 20
948.387
 30
8.27660e-012
  70
    32
  0
VERTEX
  8
01
  5
1C5AB
 10
6957.81
 20
948.382
 30
8.27660e-012
  70
    32
  0
VERTEX
  8
01
  5
1C5AC
 10
6957.80
 20
948.377
 30
8.27660e-012
  70
    32
  0
VERTEX
  8
01
  5
1C5AD
 10
6957.78
 20
948.372
 30
8.27660e-012
  70
    32
  0
VERTEX
  8
01
  5
1C5AE
 10
6957.77
 20
948.367
 30
8.27660e-012
  70
    32
  0
VERTEX
  8
01
  5
1C5AF
 10
6957.76
 20
948.362
 30
8.27660e-012
  70
    32
  0
VERTEX
  8
01
  5
1C5B0
 10
6957.74
 20
948.357
 30
8.27660e-012
  70
    32
  0
VERTEX
  8
01
  5
1C5B1
 10
6957.73
 20
948.352
 30
8.27660e-012
  70
    32
  0
VERTEX
  8
01
  5
1C5B2
 10
6957.72
 20
948.347
 30
8.27660e-012
  70
    32
  0
VERTEX
  8
01
  5
1C5B3
 10
6957.70
 20
948.342
 30
8.27660e-012
  70
    32
  0
VERTEX
  8
01
  5
1C5B4
 10
6957.69
 20
948.336
 30
8.27660e-012
  70
    32
  0
VERTEX
  8
01
  5
1C5B5
 10
6957.68
 20
948.331
 30
8.27660e-012
  70
    32
  0
VERTEX
  8
01
  5
1C5B6
 10
6957.67
 20
948.326
 30
8.27660e-012
  70
    32
  0
VERTEX
  8
01
  5
1C5B7
 10
6957.65
 20
948.321
 30
8.27660e-012
  70
    32
  0
VERTEX
  8
01
  5
1C5B8
 10
6957.64
 20
948.315
 30
8.27660e-012
  70
    32
  0
VERTEX
  8
01
  5
1C5B9
 10
6957.63
 20
948.310
 30
8.27660e-012
  70
    32
  0
VERTEX
  8
01
  5
1C5BA
 10
6957.62
 20
948.304
 30
8.27660e-012
  70
    32
  0
VERTEX
  8
01
  5
1C5BB
 10
6957.61
 20
948.299
 30
8.27660e-012
  70
    32
  0
VERTEX
  8
01
  5
1C5BC
 10
6957.60
 20
948.293
 30
8.27660e-012
  70
    32
  0
VERTEX
  8
01
  5
1C5BD
 10
6957.59
 20
948.288
 30
8.27660e-012
  70
    32
  0
VERTEX
  8
01
  5
1C5BE
 10
6957.58
 20
948.282
 30
8.27660e-012
  70
    32
  0
VERTEX
  8
01
  5
1C5BF
 10
6957.57
 20
948.276
 30
8.27660e-012
  70
    32
  0
VERTEX
  8
01
  5
1C5C0
 10
6957.56
 20
948.271
 30
8.27660e-012
  70
    32
  0
VERTEX
  8
01
  5
1C5C1
 10
6957.55
 20
948.265
 30
8.27660e-012
  70
    32
  0
VERTEX
  8
01
  5
1C5C2
 10
6957.54
 20
948.259
 30
8.27660e-012
  70
    32
  0
VERTEX
  8
01
  5
1C5C3
 10
6957.53
 20
948.254
 30
8.27660e-012
  70
    32
  0
VERTEX
  8
01
  5
1C5C4
 10
6957.52
 20
948.248
 30
8.27660e-012
  70
    32
  0
VERTEX
  8
01
  5
1C5C5
 10
6957.51
 20
948.242
 30
8.27660e-012
  70
    32
  0
VERTEX
  8
01
  5
1C5C6
 10
6957.51
 20
948.236
 30
8.27660e-012
  70
    32
  0
VERTEX
  8
01
  5
1C5C7
 10
6957.50
 20
948.230
 30
8.27660e-012
  70
    32
  0
VERTEX
  8
01
  5
1C5C8
 10
6957.49
 20
948.225
 30
8.27660e-012
  70
    32
  0
VERTEX
  8
01
  5
1C5C9
 10
6957.48
 20
948.219
 30
8.27660e-012
  70
    32
  0
VERTEX
  8
01
  5
1C5CA
 10
6957.48
 20
948.213
 30
8.27660e-012
  70
    32
  0
VERTEX
  8
01
  5
1C5CB
 10
6957.47
 20
948.207
 30
8.27660e-012
  70
    32
  0
VERTEX
  8
01
  5
1C5CC
 10
6957.47
 20
948.201
 30
8.27660e-012
  70
    32
  0
VERTEX
  8
01
  5
1C5CD
 10
6957.46
 20
948.195
 30
8.27660e-012
  70
    32
  0
VERTEX
  8
01
  5
1C5CE
 10
6957.45
 20
948.189
 30
8.27660e-012
  70
    32
  0
VERTEX
  8
01
  5
1C5CF
 10
6957.45
 20
948.183
 30
8.27660e-012
  70
    32
  0
VERTEX
  8
01
  5
1C5D0
 10
6957.44
 20
948.177
 30
8.27660e-012
  70
    32
  0
VERTEX
  8
01
  5
1C5D1
 10
6957.44
 20
948.171
 30
8.27660e-012
  70
    32
  0
VERTEX
  8
01
  5
1C5D2
 10
6957.44
 20
948.165
 30
8.27660e-012
  70
    32
  0
VERTEX
  8
01
  5
1C5D3
 10
6957.43
 20
948.159
 30
8.27660e-012
  70
    32
  0
VERTEX
  8
01
  5
1C5D4
 10
6957.43
 20
948.153
 30
8.27660e-012
  70
    32
  0
VERTEX
  8
01
  5
1C5D5
 10
6957.42
 20
948.147
 30
8.27660e-012
  70
    32
  0
VERTEX
  8
01
  5
1C5D6
 10
6957.42
 20
948.141
 30
8.27660e-012
  70
    32
  0
VERTEX
  8
01
  5
1C5D7
 10
6957.42
 20
948.135
 30
8.27660e-012
  70
    32
  0
VERTEX
  8
01
  5
1C5D8
 10
6957.42
 20
948.128
 30
8.27660e-012
  70
    32
  0
VERTEX
  8
01
  5
1C5D9
 10
6957.41
 20
948.122
 30
8.27660e-012
  70
    32
  0
VERTEX
  8
01
  5
1C5DA
 10
6957.41
 20
948.116
 30
8.27660e-012
  70
    32
  0
VERTEX
  8
01
  5
1C5DB
 10
6957.41
 20
948.110
 30
8.27660e-012
  70
    32
  0
VERTEX
  8
01
  5
1C5DC
 10
6957.41
 20
948.104
 30
8.27660e-012
  70
    32
  0
VERTEX
  8
01
  5
1C5DD
 10
6957.41
 20
948.098
 30
8.27660e-012
  70
    32
  0
VERTEX
  8
01
  5
1C5DE
 10
6957.41
 20
948.092
 30
8.27660e-012
  70
    32
  0
VERTEX
  8
01
  5
1C5DF
 10
6957.41
 20
948.086
 30
8.27660e-012
  70
    32
  0
VERTEX
  8
01
  5
1C5E0
 10
6957.41
 20
948.079
 30
8.27660e-012
  70
    32
  0
SEQEND
  8
01
  5
1C5E1
  0
POLYLINE
  5
1BBC7
  8
01
 10
6961.4055657351382
 20
948.57941858901575
 30
0.0000000000041383
 66
     1
 70
     8
  0
VERTEX
  8
01
  5
1C5E2
 10
6961.41
 20
948.579
 30
4.13830e-012
  70
    32
  0
VERTEX
  8
01
  5
1C5E3
 10
6961.38
 20
948.579
 30
4.13830e-012
  70
    32
  0
VERTEX
  8
01
  5
1C5E4
 10
6961.36
 20
948.579
 30
4.13830e-012
  70
    32
  0
VERTEX
  8
01
  5
1C5E5
 10
6961.33
 20
948.579
 30
4.13830e-012
  70
    32
  0
VERTEX
  8
01
  5
1C5E6
 10
6961.31
 20
948.579
 30
4.13830e-012
  70
    32
  0
VERTEX
  8
01
  5
1C5E7
 10
6961.28
 20
948.578
 30
4.13830e-012
  70
    32
  0
VERTEX
  8
01
  5
1C5E8
 10
6961.26
 20
948.578
 30
4.13830e-012
  70
    32
  0
VERTEX
  8
01
  5
1C5E9
 10
6961.23
 20
948.578
 30
4.13830e-012
  70
    32
  0
VERTEX
  8
01
  5
1C5EA
 10
6961.21
 20
948.577
 30
4.13830e-012
  70
    32
  0
VERTEX
  8
01
  5
1C5EB
 10
6961.19
 20
948.576
 30
4.13830e-012
  70
    32
  0
VERTEX
  8
01
  5
1C5EC
 10
6961.16
 20
948.576
 30
4.13830e-012
  70
    32
  0
VERTEX
  8
01
  5
1C5ED
 10
6961.14
 20
948.575
 30
4.13830e-012
  70
    32
  0
VERTEX
  8
01
  5
1C5EE
 10
6961.11
 20
948.574
 30
4.13830e-012
  70
    32
  0
VERTEX
  8
01
  5
1C5EF
 10
6961.09
 20
948.573
 30
4.13830e-012
  70
    32
  0
VERTEX
  8
01
  5
1C5F0
 10
6961.06
 20
948.572
 30
4.13830e-012
  70
    32
  0
VERTEX
  8
01
  5
1C5F1
 10
6961.04
 20
948.571
 30
4.13830e-012
  70
    32
  0
VERTEX
  8
01
  5
1C5F2
 10
6961.02
 20
948.570
 30
4.13830e-012
  70
    32
  0
VERTEX
  8
01
  5
1C5F3
 10
6960.99
 20
948.569
 30
4.13830e-012
  70
    32
  0
VERTEX
  8
01
  5
1C5F4
 10
6960.97
 20
948.567
 30
4.13830e-012
  70
    32
  0
VERTEX
  8
01
  5
1C5F5
 10
6960.94
 20
948.566
 30
4.13830e-012
  70
    32
  0
VERTEX
  8
01
  5
1C5F6
 10
6960.92
 20
948.564
 30
4.13830e-012
  70
    32
  0
VERTEX
  8
01
  5
1C5F7
 10
6960.90
 20
948.563
 30
4.13830e-012
  70
    32
  0
VERTEX
  8
01
  5
1C5F8
 10
6960.87
 20
948.561
 30
4.13830e-012
  70
    32
  0
VERTEX
  8
01
  5
1C5F9
 10
6960.85
 20
948.560
 30
4.13830e-012
  70
    32
  0
VERTEX
  8
01
  5
1C5FA
 10
6960.82
 20
948.558
 30
4.13830e-012
  70
    32
  0
VERTEX
  8
01
  5
1C5FB
 10
6960.80
 20
948.556
 30
4.13830e-012
  70
    32
  0
VERTEX
  8
01
  5
1C5FC
 10
6960.78
 20
948.554
 30
4.13830e-012
  70
    32
  0
VERTEX
  8
01
  5
1C5FD
 10
6960.75
 20
948.552
 30
4.13830e-012
  70
    32
  0
VERTEX
  8
01
  5
1C5FE
 10
6960.73
 20
948.550
 30
4.13830e-012
  70
    32
  0
VERTEX
  8
01
  5
1C5FF
 10
6960.71
 20
948.548
 30
4.13830e-012
  70
    32
  0
VERTEX
  8
01
  5
1C600
 10
6960.69
 20
948.546
 30
4.13830e-012
  70
    32
  0
VERTEX
  8
01
  5
1C601
 10
6960.66
 20
948.544
 30
4.13830e-012
  70
    32
  0
VERTEX
  8
01
  5
1C602
 10
6960.64
 20
948.541
 30
4.13830e-012
  70
    32
  0
VERTEX
  8
01
  5
1C603
 10
6960.62
 20
948.539
 30
4.13830e-012
  70
    32
  0
VERTEX
  8
01
  5
1C604
 10
6960.60
 20
948.537
 30
4.13830e-012
  70
    32
  0
VERTEX
  8
01
  5
1C605
 10
6960.57
 20
948.534
 30
4.13830e-012
  70
    32
  0
VERTEX
  8
01
  5
1C606
 10
6960.55
 20
948.531
 30
4.13830e-012
  70
    32
  0
VERTEX
  8
01
  5
1C607
 10
6960.53
 20
948.529
 30
4.13830e-012
  70
    32
  0
VERTEX
  8
01
  5
1C608
 10
6960.51
 20
948.526
 30
4.13830e-012
  70
    32
  0
VERTEX
  8
01
  5
1C609
 10
6960.48
 20
948.523
 30
4.13830e-012
  70
    32
  0
VERTEX
  8
01
  5
1C60A
 10
6960.46
 20
948.520
 30
4.13830e-012
  70
    32
  0
VERTEX
  8
01
  5
1C60B
 10
6960.44
 20
948.517
 30
4.13830e-012
  70
    32
  0
VERTEX
  8
01
  5
1C60C
 10
6960.42
 20
948.514
 30
4.13830e-012
  70
    32
  0
VERTEX
  8
01
  5
1C60D
 10
6960.40
 20
948.511
 30
4.13830e-012
  70
    32
  0
VERTEX
  8
01
  5
1C60E
 10
6960.38
 20
948.508
 30
4.13830e-012
  70
    32
  0
VERTEX
  8
01
  5
1C60F
 10
6960.36
 20
948.505
 30
4.13830e-012
  70
    32
  0
VERTEX
  8
01
  5
1C610
 10
6960.34
 20
948.502
 30
4.13830e-012
  70
    32
  0
VERTEX
  8
01
  5
1C611
 10
6960.31
 20
948.499
 30
4.13830e-012
  70
    32
  0
VERTEX
  8
01
  5
1C612
 10
6960.29
 20
948.495
 30
4.13830e-012
  70
    32
  0
VERTEX
  8
01
  5
1C613
 10
6960.27
 20
948.492
 30
4.13830e-012
  70
    32
  0
VERTEX
  8
01
  5
1C614
 10
6960.25
 20
948.488
 30
4.13830e-012
  70
    32
  0
VERTEX
  8
01
  5
1C615
 10
6960.23
 20
948.485
 30
4.13830e-012
  70
    32
  0
VERTEX
  8
01
  5
1C616
 10
6960.21
 20
948.481
 30
4.13830e-012
  70
    32
  0
VERTEX
  8
01
  5
1C617
 10
6960.19
 20
948.477
 30
4.13830e-012
  70
    32
  0
VERTEX
  8
01
  5
1C618
 10
6960.18
 20
948.474
 30
4.13830e-012
  70
    32
  0
VERTEX
  8
01
  5
1C619
 10
6960.16
 20
948.470
 30
4.13830e-012
  70
    32
  0
VERTEX
  8
01
  5
1C61A
 10
6960.14
 20
948.466
 30
4.13830e-012
  70
    32
  0
VERTEX
  8
01
  5
1C61B
 10
6960.12
 20
948.462
 30
4.13830e-012
  70
    32
  0
VERTEX
  8
01
  5
1C61C
 10
6960.10
 20
948.458
 30
4.13830e-012
  70
    32
  0
VERTEX
  8
01
  5
1C61D
 10
6960.08
 20
948.454
 30
4.13830e-012
  70
    32
  0
VERTEX
  8
01
  5
1C61E
 10
6960.06
 20
948.450
 30
4.13830e-012
  70
    32
  0
VERTEX
  8
01
  5
1C61F
 10
6960.04
 20
948.446
 30
4.13830e-012
  70
    32
  0
VERTEX
  8
01
  5
1C620
 10
6960.03
 20
948.442
 30
4.13830e-012
  70
    32
  0
VERTEX
  8
01
  5
1C621
 10
6960.01
 20
948.437
 30
4.13830e-012
  70
    32
  0
VERTEX
  8
01
  5
1C622
 10
6959.99
 20
948.433
 30
4.13830e-012
  70
    32
  0
VERTEX
  8
01
  5
1C623
 10
6959.97
 20
948.429
 30
4.13830e-012
  70
    32
  0
VERTEX
  8
01
  5
1C624
 10
6959.96
 20
948.424
 30
4.13830e-012
  70
    32
  0
VERTEX
  8
01
  5
1C625
 10
6959.94
 20
948.420
 30
4.13830e-012
  70
    32
  0
VERTEX
  8
01
  5
1C626
 10
6959.92
 20
948.415
 30
4.13830e-012
  70
    32
  0
VERTEX
  8
01
  5
1C627
 10
6959.91
 20
948.411
 30
4.13830e-012
  70
    32
  0
VERTEX
  8
01
  5
1C628
 10
6959.89
 20
948.406
 30
4.13830e-012
  70
    32
  0
VERTEX
  8
01
  5
1C629
 10
6959.88
 20
948.401
 30
4.13830e-012
  70
    32
  0
VERTEX
  8
01
  5
1C62A
 10
6959.86
 20
948.397
 30
4.13830e-012
  70
    32
  0
VERTEX
  8
01
  5
1C62B
 10
6959.84
 20
948.392
 30
4.13830e-012
  70
    32
  0
VERTEX
  8
01
  5
1C62C
 10
6959.83
 20
948.387
 30
4.13830e-012
  70
    32
  0
VERTEX
  8
01
  5
1C62D
 10
6959.81
 20
948.382
 30
4.13830e-012
  70
    32
  0
VERTEX
  8
01
  5
1C62E
 10
6959.80
 20
948.377
 30
4.13830e-012
  70
    32
  0
VERTEX
  8
01
  5
1C62F
 10
6959.78
 20
948.372
 30
4.13830e-012
  70
    32
  0
VERTEX
  8
01
  5
1C630
 10
6959.77
 20
948.367
 30
4.13830e-012
  70
    32
  0
VERTEX
  8
01
  5
1C631
 10
6959.76
 20
948.362
 30
4.13830e-012
  70
    32
  0
VERTEX
  8
01
  5
1C632
 10
6959.74
 20
948.357
 30
4.13830e-012
  70
    32
  0
VERTEX
  8
01
  5
1C633
 10
6959.73
 20
948.352
 30
4.13830e-012
  70
    32
  0
VERTEX
  8
01
  5
1C634
 10
6959.72
 20
948.347
 30
4.13830e-012
  70
    32
  0
VERTEX
  8
01
  5
1C635
 10
6959.70
 20
948.342
 30
4.13830e-012
  70
    32
  0
VERTEX
  8
01
  5
1C636
 10
6959.69
 20
948.336
 30
4.13830e-012
  70
    32
  0
VERTEX
  8
01
  5
1C637
 10
6959.68
 20
948.331
 30
4.13830e-012
  70
    32
  0
VERTEX
  8
01
  5
1C638
 10
6959.67
 20
948.326
 30
4.13830e-012
  70
    32
  0
VERTEX
  8
01
  5
1C639
 10
6959.65
 20
948.321
 30
4.13830e-012
  70
    32
  0
VERTEX
  8
01
  5
1C63A
 10
6959.64
 20
948.315
 30
4.13830e-012
  70
    32
  0
VERTEX
  8
01
  5
1C63B
 10
6959.63
 20
948.310
 30
4.13830e-012
  70
    32
  0
VERTEX
  8
01
  5
1C63C
 10
6959.62
 20
948.304
 30
4.13830e-012
  70
    32
  0
VERTEX
  8
01
  5
1C63D
 10
6959.61
 20
948.299
 30
4.13830e-012
  70
    32
  0
VERTEX
  8
01
  5
1C63E
 10
6959.60
 20
948.293
 30
4.13830e-012
  70
    32
  0
VERTEX
  8
01
  5
1C63F
 10
6959.59
 20
948.288
 30
4.13830e-012
  70
    32
  0
VERTEX
  8
01
  5
1C640
 10
6959.58
 20
948.282
 30
4.13830e-012
  70
    32
  0
VERTEX
  8
01
  5
1C641
 10
6959.57
 20
948.276
 30
4.13830e-012
  70
    32
  0
VERTEX
  8
01
  5
1C642
 10
6959.56
 20
948.271
 30
4.13830e-012
  70
    32
  0
VERTEX
  8
01
  5
1C643
 10
6959.55
 20
948.265
 30
4.13830e-012
  70
    32
  0
VERTEX
  8
01
  5
1C644
 10
6959.54
 20
948.259
 30
4.13830e-012
  70
    32
  0
VERTEX
  8
01
  5
1C645
 10
6959.53
 20
948.254
 30
4.13830e-012
  70
    32
  0
VERTEX
  8
01
  5
1C646
 10
6959.52
 20
948.248
 30
4.13830e-012
  70
    32
  0
VERTEX
  8
01
  5
1C647
 10
6959.51
 20
948.242
 30
4.13830e-012
  70
    32
  0
VERTEX
  8
01
  5
1C648
 10
6959.51
 20
948.236
 30
4.13830e-012
  70
    32
  0
VERTEX
  8
01
  5
1C649
 10
6959.50
 20
948.230
 30
4.13830e-012
  70
    32
  0
VERTEX
  8
01
  5
1C64A
 10
6959.49
 20
948.225
 30
4.13830e-012
  70
    32
  0
VERTEX
  8
01
  5
1C64B
 10
6959.48
 20
948.219
 30
4.13830e-012
  70
    32
  0
VERTEX
  8
01
  5
1C64C
 10
6959.48
 20
948.213
 30
4.13830e-012
  70
    32
  0
VERTEX
  8
01
  5
1C64D
 10
6959.47
 20
948.207
 30
4.13830e-012
  70
    32
  0
VERTEX
  8
01
  5
1C64E
 10
6959.47
 20
948.201
 30
4.13830e-012
  70
    32
  0
VERTEX
  8
01
  5
1C64F
 10
6959.46
 20
948.195
 30
4.13830e-012
  70
    32
  0
VERTEX
  8
01
  5
1C650
 10
6959.45
 20
948.189
 30
4.13830e-012
  70
    32
  0
VERTEX
  8
01
  5
1C651
 10
6959.45
 20
948.183
 30
4.13830e-012
  70
    32
  0
VERTEX
  8
01
  5
1C652
 10
6959.44
 20
948.177
 30
4.13830e-012
  70
    32
  0
VERTEX
  8
01
  5
1C653
 10
6959.44
 20
948.171
 30
4.13830e-012
  70
    32
  0
VERTEX
  8
01
  5
1C654
 10
6959.44
 20
948.165
 30
4.13830e-012
  70
    32
  0
VERTEX
  8
01
  5
1C655
 10
6959.43
 20
948.159
 30
4.13830e-012
  70
    32
  0
VERTEX
  8
01
  5
1C656
 10
6959.43
 20
948.153
 30
4.13830e-012
  70
    32
  0
VERTEX
  8
01
  5
1C657
 10
6959.42
 20
948.147
 30
4.13830e-012
  70
    32
  0
VERTEX
  8
01
  5
1C658
 10
6959.42
 20
948.141
 30
4.13830e-012
  70
    32
  0
VERTEX
  8
01
  5
1C659
 10
6959.42
 20
948.135
 30
4.13830e-012
  70
    32
  0
VERTEX
  8
01
  5
1C65A
 10
6959.42
 20
948.128
 30
4.13830e-012
  70
    32
  0
VERTEX
  8
01
  5
1C65B
 10
6959.41
 20
948.122
 30
4.13830e-012
  70
    32
  0
VERTEX
  8
01
  5
1C65C
 10
6959.41
 20
948.116
 30
4.13830e-012
  70
    32
  0
VERTEX
  8
01
  5
1C65D
 10
6959.41
 20
948.110
 30
4.13830e-012
  70
    32
  0
VERTEX
  8
01
  5
1C65E
 10
6959.41
 20
948.104
 30
4.13830e-012
  70
    32
  0
VERTEX
  8
01
  5
1C65F
 10
6959.41
 20
948.098
 30
4.13830e-012
  70
    32
  0
VERTEX
  8
01
  5
1C660
 10
6959.41
 20
948.092
 30
4.13830e-012
  70
    32
  0
VERTEX
  8
01
  5
1C661
 10
6959.41
 20
948.086
 30
4.13830e-012
  70
    32
  0
VERTEX
  8
01
  5
1C662
 10
6959.41
 20
948.079
 30
4.13830e-012
  70
    32
  0
SEQEND
  8
01
  5
1C663
  0
LINE
  5
1BBC8
  8
01
 10
7072.40556573514
 20
951.62930145678285
 30
0.0
 11
6938.40556573514
 21
951.62930145678285
 31
0.0
  0
LINE
  5
1BBC9
  8
01
 10
6959.4055657351391
 20
948.57941858901563
 30
0.0000000000041383
 11
7072.40556573514
 21
948.57941858901563
 31
0.0000000000041436
  0
LINE
  5
1BBCA
  8
01
 10
6957.40556573514
 20
966.62930145677933
 30
0.0
 11
6957.40556573514
 21
963.96688766403599
 31
0.0
  0
LINE
  5
1BBCB
  8
01
 10
6959.4055657351391
 20
963.46688766403588
 30
0.0
 11
7072.4267678645883
 21
961.07005872202376
 31
0.0
  0
ARC
  5
1BBCC
  8
01
 10
7072.40556573514
 20
960.07028351243594
 30
0.0
 40
1.0
 50
0.0
 51
88.785116433218676
  0
LINE
  5
1BBCD
  8
01
 10
6959.4055657351391
 20
964.21508789440588
 30
0.0
 11
6959.4055657351391
 21
963.46688766403588
 31
0.0
  0
ARC
  5
1BBCE
  8
01
 10
6958.40556573514
 20
964.21508789440588
 30
0.0
 40
1.0
 50
0.0
 51
44.9999999999905
  0
POLYLINE
  5
1BBCF
  8
01
 10
6957.4055657351391
 20
963.96688766403599
 30
0.0
 66
     1
 70
     8
  0
VERTEX
  8
01
  5
1C664
 10
6957.41
 20
963.967
 30
0.000000
  70
    32
  0
VERTEX
  8
01
  5
1C665
 10
6957.41
 20
963.961
 30
0.000000
  70
    32
  0
VERTEX
  8
01
  5
1C666
 10
6957.41
 20
963.955
 30
0.000000
  70
    32
  0
VERTEX
  8
01
  5
1C667
 10
6957.41
 20
963.948
 30
0.000000
  70
    32
  0
VERTEX
  8
01
  5
1C668
 10
6957.41
 20
963.942
 30
0.000000
  70
    32
  0
VERTEX
  8
01
  5
1C669
 10
6957.41
 20
963.936
 30
0.000000
  70
    32
  0
VERTEX
  8
01
  5
1C66A
 10
6957.41
 20
963.930
 30
0.000000
  70
    32
  0
VERTEX
  8
01
  5
1C66B
 10
6957.41
 20
963.924
 30
0.000000
  70
    32
  0
VERTEX
  8
01
  5
1C66C
 10
6957.42
 20
963.918
 30
0.000000
  70
    32
  0
VERTEX
  8
01
  5
1C66D
 10
6957.42
 20
963.912
 30
0.000000
  70
    32
  0
VERTEX
  8
01
  5
1C66E
 10
6957.42
 20
963.906
 30
0.000000
  70
    32
  0
VERTEX
  8
01
  5
1C66F
 10
6957.42
 20
963.900
 30
0.000000
  70
    32
  0
VERTEX
  8
01
  5
1C670
 10
6957.43
 20
963.894
 30
0.000000
  70
    32
  0
VERTEX
  8
01
  5
1C671
 10
6957.43
 20
963.887
 30
0.000000
  70
    32
  0
VERTEX
  8
01
  5
1C672
 10
6957.44
 20
963.881
 30
0.000000
  70
    32
  0
VERTEX
  8
01
  5
1C673
 10
6957.44
 20
963.875
 30
0.000000
  70
    32
  0
VERTEX
  8
01
  5
1C674
 10
6957.44
 20
963.869
 30
0.000000
  70
    32
  0
VERTEX
  8
01
  5
1C675
 10
6957.45
 20
963.863
 30
0.000000
  70
    32
  0
VERTEX
  8
01
  5
1C676
 10
6957.45
 20
963.857
 30
0.000000
  70
    32
  0
VERTEX
  8
01
  5
1C677
 10
6957.46
 20
963.851
 30
0.000000
  70
    32
  0
VERTEX
  8
01
  5
1C678
 10
6957.47
 20
963.845
 30
0.000000
  70
    32
  0
VERTEX
  8
01
  5
1C679
 10
6957.47
 20
963.839
 30
0.000000
  70
    32
  0
VERTEX
  8
01
  5
1C67A
 10
6957.48
 20
963.834
 30
0.000000
  70
    32
  0
VERTEX
  8
01
  5
1C67B
 10
6957.48
 20
963.828
 30
0.000000
  70
    32
  0
VERTEX
  8
01
  5
1C67C
 10
6957.49
 20
963.822
 30
0.000000
  70
    32
  0
VERTEX
  8
01
  5
1C67D
 10
6957.50
 20
963.816
 30
0.000000
  70
    32
  0
VERTEX
  8
01
  5
1C67E
 10
6957.51
 20
963.810
 30
0.000000
  70
    32
  0
VERTEX
  8
01
  5
1C67F
 10
6957.51
 20
963.804
 30
0.000000
  70
    32
  0
VERTEX
  8
01
  5
1C680
 10
6957.52
 20
963.798
 30
0.000000
  70
    32
  0
VERTEX
  8
01
  5
1C681
 10
6957.53
 20
963.793
 30
0.000000
  70
    32
  0
VERTEX
  8
01
  5
1C682
 10
6957.54
 20
963.787
 30
0.000000
  70
    32
  0
VERTEX
  8
01
  5
1C683
 10
6957.55
 20
963.781
 30
0.000000
  70
    32
  0
VERTEX
  8
01
  5
1C684
 10
6957.56
 20
963.776
 30
0.000000
  70
    32
  0
VERTEX
  8
01
  5
1C685
 10
6957.57
 20
963.770
 30
0.000000
  70
    32
  0
VERTEX
  8
01
  5
1C686
 10
6957.58
 20
963.764
 30
0.000000
  70
    32
  0
VERTEX
  8
01
  5
1C687
 10
6957.59
 20
963.759
 30
0.000000
  70
    32
  0
VERTEX
  8
01
  5
1C688
 10
6957.60
 20
963.753
 30
0.000000
  70
    32
  0
VERTEX
  8
01
  5
1C689
 10
6957.61
 20
963.748
 30
0.000000
  70
    32
  0
VERTEX
  8
01
  5
1C68A
 10
6957.62
 20
963.742
 30
0.000000
  70
    32
  0
VERTEX
  8
01
  5
1C68B
 10
6957.63
 20
963.737
 30
0.000000
  70
    32
  0
VERTEX
  8
01
  5
1C68C
 10
6957.64
 20
963.731
 30
0.000000
  70
    32
  0
VERTEX
  8
01
  5
1C68D
 10
6957.65
 20
963.726
 30
0.000000
  70
    32
  0
VERTEX
  8
01
  5
1C68E
 10
6957.67
 20
963.720
 30
0.000000
  70
    32
  0
VERTEX
  8
01
  5
1C68F
 10
6957.68
 20
963.715
 30
0.000000
  70
    32
  0
VERTEX
  8
01
  5
1C690
 10
6957.69
 20
963.710
 30
0.000000
  70
    32
  0
VERTEX
  8
01
  5
1C691
 10
6957.70
 20
963.705
 30
0.000000
  70
    32
  0
VERTEX
  8
01
  5
1C692
 10
6957.72
 20
963.699
 30
0.000000
  70
    32
  0
VERTEX
  8
01
  5
1C693
 10
6957.73
 20
963.694
 30
0.000000
  70
    32
  0
VERTEX
  8
01
  5
1C694
 10
6957.74
 20
963.689
 30
0.000000
  70
    32
  0
VERTEX
  8
01
  5
1C695
 10
6957.76
 20
963.684
 30
0.000000
  70
    32
  0
VERTEX
  8
01
  5
1C696
 10
6957.77
 20
963.679
 30
0.000000
  70
    32
  0
VERTEX
  8
01
  5
1C697
 10
6957.78
 20
963.674
 30
0.000000
  70
    32
  0
VERTEX
  8
01
  5
1C698
 10
6957.80
 20
963.669
 30
0.000000
  70
    32
  0
VERTEX
  8
01
  5
1C699
 10
6957.81
 20
963.664
 30
0.000000
  70
    32
  0
VERTEX
  8
01
  5
1C69A
 10
6957.83
 20
963.659
 30
0.000000
  70
    32
  0
VERTEX
  8
01
  5
1C69B
 10
6957.84
 20
963.654
 30
0.000000
  70
    32
  0
VERTEX
  8
01
  5
1C69C
 10
6957.86
 20
963.650
 30
0.000000
  70
    32
  0
VERTEX
  8
01
  5
1C69D
 10
6957.88
 20
963.645
 30
0.000000
  70
    32
  0
VERTEX
  8
01
  5
1C69E
 10
6957.89
 20
963.640
 30
0.000000
  70
    32
  0
VERTEX
  8
01
  5
1C69F
 10
6957.91
 20
963.636
 30
0.000000
  70
    32
  0
VERTEX
  8
01
  5
1C6A0
 10
6957.92
 20
963.631
 30
0.000000
  70
    32
  0
VERTEX
  8
01
  5
1C6A1
 10
6957.94
 20
963.627
 30
0.000000
  70
    32
  0
VERTEX
  8
01
  5
1C6A2
 10
6957.96
 20
963.622
 30
0.000000
  70
    32
  0
VERTEX
  8
01
  5
1C6A3
 10
6957.97
 20
963.618
 30
0.000000
  70
    32
  0
VERTEX
  8
01
  5
1C6A4
 10
6957.99
 20
963.613
 30
0.000000
  70
    32
  0
VERTEX
  8
01
  5
1C6A5
 10
6958.01
 20
963.609
 30
0.000000
  70
    32
  0
VERTEX
  8
01
  5
1C6A6
 10
6958.03
 20
963.605
 30
0.000000
  70
    32
  0
VERTEX
  8
01
  5
1C6A7
 10
6958.04
 20
963.601
 30
0.000000
  70
    32
  0
VERTEX
  8
01
  5
1C6A8
 10
6958.06
 20
963.596
 30
0.000000
  70
    32
  0
VERTEX
  8
01
  5
1C6A9
 10
6958.08
 20
963.592
 30
0.000000
  70
    32
  0
VERTEX
  8
01
  5
1C6AA
 10
6958.10
 20
963.588
 30
0.000000
  70
    32
  0
VERTEX
  8
01
  5
1C6AB
 10
6958.12
 20
963.584
 30
0.000000
  70
    32
  0
VERTEX
  8
01
  5
1C6AC
 10
6958.14
 20
963.580
 30
0.000000
  70
    32
  0
VERTEX
  8
01
  5
1C6AD
 10
6958.16
 20
963.577
 30
0.000000
  70
    32
  0
VERTEX
  8
01
  5
1C6AE
 10
6958.18
 20
963.573
 30
0.000000
  70
    32
  0
VERTEX
  8
01
  5
1C6AF
 10
6958.19
 20
963.569
 30
0.000000
  70
    32
  0
VERTEX
  8
01
  5
1C6B0
 10
6958.21
 20
963.565
 30
0.000000
  70
    32
  0
VERTEX
  8
01
  5
1C6B1
 10
6958.23
 20
963.562
 30
0.000000
  70
    32
  0
VERTEX
  8
01
  5
1C6B2
 10
6958.25
 20
963.558
 30
0.000000
  70
    32
  0
VERTEX
  8
01
  5
1C6B3
 10
6958.27
 20
963.555
 30
0.000000
  70
    32
  0
VERTEX
  8
01
  5
1C6B4
 10
6958.29
 20
963.551
 30
0.000000
  70
    32
  0
VERTEX
  8
01
  5
1C6B5
 10
6958.31
 20
963.548
 30
0.000000
  70
    32
  0
VERTEX
  8
01
  5
1C6B6
 10
6958.34
 20
963.544
 30
0.000000
  70
    32
  0
VERTEX
  8
01
  5
1C6B7
 10
6958.36
 20
963.541
 30
0.000000
  70
    32
  0
VERTEX
  8
01
  5
1C6B8
 10
6958.38
 20
963.538
 30
0.000000
  70
    32
  0
VERTEX
  8
01
  5
1C6B9
 10
6958.40
 20
963.535
 30
0.000000
  70
    32
  0
VERTEX
  8
01
  5
1C6BA
 10
6958.42
 20
963.532
 30
0.000000
  70
    32
  0
VERTEX
  8
01
  5
1C6BB
 10
6958.44
 20
963.529
 30
0.000000
  70
    32
  0
VERTEX
  8
01
  5
1C6BC
 10
6958.46
 20
963.526
 30
0.000000
  70
    32
  0
VERTEX
  8
01
  5
1C6BD
 10
6958.48
 20
963.523
 30
0.000000
  70
    32
  0
VERTEX
  8
01
  5
1C6BE
 10
6958.51
 20
963.520
 30
0.000000
  70
    32
  0
VERTEX
  8
01
  5
1C6BF
 10
6958.53
 20
963.518
 30
0.000000
  70
    32
  0
VERTEX
  8
01
  5
1C6C0
 10
6958.55
 20
963.515
 30
0.000000
  70
    32
  0
VERTEX
  8
01
  5
1C6C1
 10
6958.57
 20
963.512
 30
0.000000
  70
    32
  0
VERTEX
  8
01
  5
1C6C2
 10
6958.60
 20
963.510
 30
0.000000
  70
    32
  0
VERTEX
  8
01
  5
1C6C3
 10
6958.62
 20
963.507
 30
0.000000
  70
    32
  0
VERTEX
  8
01
  5
1C6C4
 10
6958.64
 20
963.505
 30
0.000000
  70
    32
  0
VERTEX
  8
01
  5
1C6C5
 10
6958.66
 20
963.503
 30
0.000000
  70
    32
  0
VERTEX
  8
01
  5
1C6C6
 10
6958.69
 20
963.500
 30
0.000000
  70
    32
  0
VERTEX
  8
01
  5
1C6C7
 10
6958.71
 20
963.498
 30
0.000000
  70
    32
  0
VERTEX
  8
01
  5
1C6C8
 10
6958.73
 20
963.496
 30
0.000000
  70
    32
  0
VERTEX
  8
01
  5
1C6C9
 10
6958.75
 20
963.494
 30
0.000000
  70
    32
  0
VERTEX
  8
01
  5
1C6CA
 10
6958.78
 20
963.492
 30
0.000000
  70
    32
  0
VERTEX
  8
01
  5
1C6CB
 10
6958.80
 20
963.490
 30
0.000000
  70
    32
  0
VERTEX
  8
01
  5
1C6CC
 10
6958.82
 20
963.488
 30
0.000000
  70
    32
  0
VERTEX
  8
01
  5
1C6CD
 10
6958.85
 20
963.487
 30
0.000000
  70
    32
  0
VERTEX
  8
01
  5
1C6CE
 10
6958.87
 20
963.485
 30
0.000000
  70
    32
  0
VERTEX
  8
01
  5
1C6CF
 10
6958.90
 20
963.483
 30
0.000000
  70
    32
  0
VERTEX
  8
01
  5
1C6D0
 10
6958.92
 20
963.482
 30
0.000000
  70
    32
  0
VERTEX
  8
01
  5
1C6D1
 10
6958.94
 20
963.480
 30
0.000000
  70
    32
  0
VERTEX
  8
01
  5
1C6D2
 10
6958.97
 20
963.479
 30
0.000000
  70
    32
  0
VERTEX
  8
01
  5
1C6D3
 10
6958.99
 20
963.478
 30
0.000000
  70
    32
  0
VERTEX
  8
01
  5
1C6D4
 10
6959.02
 20
963.476
 30
0.000000
  70
    32
  0
VERTEX
  8
01
  5
1C6D5
 10
6959.04
 20
963.475
 30
0.000000
  70
    32
  0
VERTEX
  8
01
  5
1C6D6
 10
6959.06
 20
963.474
 30
0.000000
  70
    32
  0
VERTEX
  8
01
  5
1C6D7
 10
6959.09
 20
963.473
 30
0.000000
  70
    32
  0
VERTEX
  8
01
  5
1C6D8
 10
6959.11
 20
963.472
 30
0.000000
  70
    32
  0
VERTEX
  8
01
  5
1C6D9
 10
6959.14
 20
963.471
 30
0.000000
  70
    32
  0
VERTEX
  8
01
  5
1C6DA
 10
6959.16
 20
963.471
 30
0.000000
  70
    32
  0
VERTEX
  8
01
  5
1C6DB
 10
6959.19
 20
963.470
 30
0.000000
  70
    32
  0
VERTEX
  8
01
  5
1C6DC
 10
6959.21
 20
963.469
 30
0.000000
  70
    32
  0
VERTEX
  8
01
  5
1C6DD
 10
6959.23
 20
963.469
 30
0.000000
  70
    32
  0
VERTEX
  8
01
  5
1C6DE
 10
6959.26
 20
963.468
 30
0.000000
  70
    32
  0
VERTEX
  8
01
  5
1C6DF
 10
6959.28
 20
963.468
 30
0.000000
  70
    32
  0
VERTEX
  8
01
  5
1C6E0
 10
6959.31
 20
963.467
 30
0.000000
  70
    32
  0
VERTEX
  8
01
  5
1C6E1
 10
6959.33
 20
963.467
 30
0.000000
  70
    32
  0
VERTEX
  8
01
  5
1C6E2
 10
6959.36
 20
963.467
 30
0.000000
  70
    32
  0
VERTEX
  8
01
  5
1C6E3
 10
6959.38
 20
963.467
 30
0.000000
  70
    32
  0
VERTEX
  8
01
  5
1C6E4
 10
6959.41
 20
963.467
 30
0.000000
  70
    32
  0
SEQEND
  8
01
  5
1C6E5
  0
POLYLINE
  5
1BBD0
  8
01
 10
6945.1555657351391
 20
945.39930145681035
 30
0.0
 66
     1
 70
     8
  0
VERTEX
  8
01
  5
1C6E6
 10
6945.16
 20
945.399
 30
0.000000
  70
    32
  0
VERTEX
  8
01
  5
1C6E7
 10
6945.16
 20
945.377
 30
0.000000
  70
    32
  0
VERTEX
  8
01
  5
1C6E8
 10
6945.17
 20
945.355
 30
0.000000
  70
    32
  0
VERTEX
  8
01
  5
1C6E9
 10
6945.19
 20
945.333
 30
0.000000
  70
    32
  0
VERTEX
  8
01
  5
1C6EA
 10
6945.22
 20
945.312
 30
0.000000
  70
    32
  0
VERTEX
  8
01
  5
1C6EB
 10
6945.25
 20
945.290
 30
0.000000
  70
    32
  0
VERTEX
  8
01
  5
1C6EC
 10
6945.30
 20
945.269
 30
0.000000
  70
    32
  0
VERTEX
  8
01
  5
1C6ED
 10
6945.35
 20
945.248
 30
0.000000
  70
    32
  0
VERTEX
  8
01
  5
1C6EE
 10
6945.40
 20
945.227
 30
0.000000
  70
    32
  0
VERTEX
  8
01
  5
1C6EF
 10
6945.47
 20
945.207
 30
0.000000
  70
    32
  0
VERTEX
  8
01
  5
1C6F0
 10
6945.54
 20
945.187
 30
0.000000
  70
    32
  0
VERTEX
  8
01
  5
1C6F1
 10
6945.62
 20
945.168
 30
0.000000
  70
    32
  0
VERTEX
  8
01
  5
1C6F2
 10
6945.70
 20
945.149
 30
0.000000
  70
    32
  0
VERTEX
  8
01
  5
1C6F3
 10
6945.80
 20
945.131
 30
0.000000
  70
    32
  0
VERTEX
  8
01
  5
1C6F4
 10
6945.89
 20
945.114
 30
0.000000
  70
    32
  0
VERTEX
  8
01
  5
1C6F5
 10
6946.00
 20
945.097
 30
0.000000
  70
    32
  0
VERTEX
  8
01
  5
1C6F6
 10
6946.11
 20
945.081
 30
0.000000
  70
    32
  0
VERTEX
  8
01
  5
1C6F7
 10
6946.22
 20
945.066
 30
0.000000
  70
    32
  0
VERTEX
  8
01
  5
1C6F8
 10
6946.34
 20
945.051
 30
0.000000
  70
    32
  0
VERTEX
  8
01
  5
1C6F9
 10
6946.47
 20
945.038
 30
0.000000
  70
    32
  0
VERTEX
  8
01
  5
1C6FA
 10
6946.60
 20
945.025
 30
0.000000
  70
    32
  0
VERTEX
  8
01
  5
1C6FB
 10
6946.73
 20
945.013
 30
0.000000
  70
    32
  0
VERTEX
  8
01
  5
1C6FC
 10
6946.87
 20
945.002
 30
0.000000
  70
    32
  0
VERTEX
  8
01
  5
1C6FD
 10
6947.02
 20
944.993
 30
0.000000
  70
    32
  0
VERTEX
  8
01
  5
1C6FE
 10
6947.16
 20
944.984
 30
0.000000
  70
    32
  0
VERTEX
  8
01
  5
1C6FF
 10
6947.31
 20
944.976
 30
0.000000
  70
    32
  0
VERTEX
  8
01
  5
1C700
 10
6947.46
 20
944.969
 30
0.000000
  70
    32
  0
VERTEX
  8
01
  5
1C701
 10
6947.62
 20
944.963
 30
0.000000
  70
    32
  0
VERTEX
  8
01
  5
1C702
 10
6947.77
 20
944.958
 30
0.000000
  70
    32
  0
VERTEX
  8
01
  5
1C703
 10
6947.93
 20
944.954
 30
0.000000
  70
    32
  0
VERTEX
  8
01
  5
1C704
 10
6948.09
 20
944.951
 30
0.000000
  70
    32
  0
VERTEX
  8
01
  5
1C705
 10
6948.25
 20
944.950
 30
0.000000
  70
    32
  0
VERTEX
  8
01
  5
1C706
 10
6948.41
 20
944.949
 30
0.000000
  70
    32
  0
VERTEX
  8
01
  5
1C707
 10
6948.57
 20
944.950
 30
0.000000
  70
    32
  0
VERTEX
  8
01
  5
1C708
 10
6948.72
 20
944.951
 30
0.000000
  70
    32
  0
VERTEX
  8
01
  5
1C709
 10
6948.88
 20
944.954
 30
0.000000
  70
    32
  0
VERTEX
  8
01
  5
1C70A
 10
6949.04
 20
944.958
 30
0.000000
  70
    32
  0
VERTEX
  8
01
  5
1C70B
 10
6949.20
 20
944.963
 30
0.000000
  70
    32
  0
VERTEX
  8
01
  5
1C70C
 10
6949.35
 20
944.969
 30
0.000000
  70
    32
  0
VERTEX
  8
01
  5
1C70D
 10
6949.50
 20
944.976
 30
0.000000
  70
    32
  0
VERTEX
  8
01
  5
1C70E
 10
6949.65
 20
944.984
 30
0.000000
  70
    32
  0
VERTEX
  8
01
  5
1C70F
 10
6949.80
 20
944.993
 30
0.000000
  70
    32
  0
VERTEX
  8
01
  5
1C710
 10
6949.94
 20
945.002
 30
0.000000
  70
    32
  0
VERTEX
  8
01
  5
1C711
 10
6950.08
 20
945.013
 30
0.000000
  70
    32
  0
VERTEX
  8
01
  5
1C712
 10
6950.21
 20
945.025
 30
0.000000
  70
    32
  0
VERTEX
  8
01
  5
1C713
 10
6950.34
 20
945.038
 30
0.000000
  70
    32
  0
VERTEX
  8
01
  5
1C714
 10
6950.47
 20
945.051
 30
0.000000
  70
    32
  0
VERTEX
  8
01
  5
1C715
 10
6950.59
 20
945.066
 30
0.000000
  70
    32
  0
VERTEX
  8
01
  5
1C716
 10
6950.70
 20
945.081
 30
0.000000
  70
    32
  0
VERTEX
  8
01
  5
1C717
 10
6950.81
 20
945.097
 30
0.000000
  70
    32
  0
VERTEX
  8
01
  5
1C718
 10
6950.92
 20
945.114
 30
0.000000
  70
    32
  0
VERTEX
  8
01
  5
1C719
 10
6951.02
 20
945.131
 30
0.000000
  70
    32
  0
VERTEX
  8
01
  5
1C71A
 10
6951.11
 20
945.149
 30
0.000000
  70
    32
  0
VERTEX
  8
01
  5
1C71B
 10
6951.19
 20
945.168
 30
0.000000
  70
    32
  0
VERTEX
  8
01
  5
1C71C
 10
6951.27
 20
945.187
 30
0.000000
  70
    32
  0
VERTEX
  8
01
  5
1C71D
 10
6951.34
 20
945.207
 30
0.000000
  70
    32
  0
VERTEX
  8
01
  5
1C71E
 10
6951.41
 20
945.227
 30
0.000000
  70
    32
  0
VERTEX
  8
01
  5
1C71F
 10
6951.47
 20
945.248
 30
0.000000
  70
    32
  0
VERTEX
  8
01
  5
1C720
 10
6951.52
 20
945.269
 30
0.000000
  70
    32
  0
VERTEX
  8
01
  5
1C721
 10
6951.56
 20
945.290
 30
0.000000
  70
    32
  0
VERTEX
  8
01
  5
1C722
 10
6951.59
 20
945.312
 30
0.000000
  70
    32
  0
VERTEX
  8
01
  5
1C723
 10
6951.62
 20
945.333
 30
0.000000
  70
    32
  0
VERTEX
  8
01
  5
1C724
 10
6951.64
 20
945.355
 30
0.000000
  70
    32
  0
VERTEX
  8
01
  5
1C725
 10
6951.65
 20
945.377
 30
0.000000
  70
    32
  0
VERTEX
  8
01
  5
1C726
 10
6951.66
 20
945.399
 30
0.000000
  70
    32
  0
VERTEX
  8
01
  5
1C727
 10
6951.65
 20
945.421
 30
0.000000
  70
    32
  0
VERTEX
  8
01
  5
1C728
 10
6951.64
 20
945.443
 30
0.000000
  70
    32
  0
VERTEX
  8
01
  5
1C729
 10
6951.62
 20
945.465
 30
0.000000
  70
    32
  0
VERTEX
  8
01
  5
1C72A
 10
6951.59
 20
945.487
 30
0.000000
  70
    32
  0
VERTEX
  8
01
  5
1C72B
 10
6951.56
 20
945.509
 30
0.000000
  70
    32
  0
VERTEX
  8
01
  5
1C72C
 10
6951.52
 20
945.530
 30
0.000000
  70
    32
  0
VERTEX
  8
01
  5
1C72D
 10
6951.47
 20
945.551
 30
0.000000
  70
    32
  0
VERTEX
  8
01
  5
1C72E
 10
6951.41
 20
945.572
 30
0.000000
  70
    32
  0
VERTEX
  8
01
  5
1C72F
 10
6951.34
 20
945.592
 30
0.000000
  70
    32
  0
VERTEX
  8
01
  5
1C730
 10
6951.27
 20
945.611
 30
0.000000
  70
    32
  0
VERTEX
  8
01
  5
1C731
 10
6951.19
 20
945.631
 30
0.000000
  70
    32
  0
VERTEX
  8
01
  5
1C732
 10
6951.11
 20
945.649
 30
0.000000
  70
    32
  0
VERTEX
  8
01
  5
1C733
 10
6951.02
 20
945.667
 30
0.000000
  70
    32
  0
VERTEX
  8
01
  5
1C734
 10
6950.92
 20
945.685
 30
0.000000
  70
    32
  0
VERTEX
  8
01
  5
1C735
 10
6950.81
 20
945.702
 30
0.000000
  70
    32
  0
VERTEX
  8
01
  5
1C736
 10
6950.70
 20
945.717
 30
0.000000
  70
    32
  0
VERTEX
  8
01
  5
1C737
 10
6950.59
 20
945.733
 30
0.000000
  70
    32
  0
VERTEX
  8
01
  5
1C738
 10
6950.47
 20
945.747
 30
0.000000
  70
    32
  0
VERTEX
  8
01
  5
1C739
 10
6950.34
 20
945.761
 30
0.000000
  70
    32
  0
VERTEX
  8
01
  5
1C73A
 10
6950.21
 20
945.773
 30
0.000000
  70
    32
  0
VERTEX
  8
01
  5
1C73B
 10
6950.08
 20
945.785
 30
0.000000
  70
    32
  0
VERTEX
  8
01
  5
1C73C
 10
6949.94
 20
945.796
 30
0.000000
  70
    32
  0
VERTEX
  8
01
  5
1C73D
 10
6949.80
 20
945.806
 30
0.000000
  70
    32
  0
VERTEX
  8
01
  5
1C73E
 10
6949.65
 20
945.815
 30
0.000000
  70
    32
  0
VERTEX
  8
01
  5
1C73F
 10
6949.50
 20
945.823
 30
0.000000
  70
    32
  0
VERTEX
  8
01
  5
1C740
 10
6949.35
 20
945.830
 30
0.000000
  70
    32
  0
VERTEX
  8
01
  5
1C741
 10
6949.20
 20
945.836
 30
0.000000
  70
    32
  0
VERTEX
  8
01
  5
1C742
 10
6949.04
 20
945.841
 30
0.000000
  70
    32
  0
VERTEX
  8
01
  5
1C743
 10
6948.88
 20
945.844
 30
0.000000
  70
    32
  0
VERTEX
  8
01
  5
1C744
 10
6948.72
 20
945.847
 30
0.000000
  70
    32
  0
VERTEX
  8
01
  5
1C745
 10
6948.57
 20
945.849
 30
0.000000
  70
    32
  0
VERTEX
  8
01
  5
1C746
 10
6948.41
 20
945.849
 30
0.000000
  70
    32
  0
VERTEX
  8
01
  5
1C747
 10
6948.25
 20
945.849
 30
0.000000
  70
    32
  0
VERTEX
  8
01
  5
1C748
 10
6948.09
 20
945.847
 30
0.000000
  70
    32
  0
VERTEX
  8
01
  5
1C749
 10
6947.93
 20
945.844
 30
0.000000
  70
    32
  0
VERTEX
  8
01
  5
1C74A
 10
6947.77
 20
945.841
 30
0.000000
  70
    32
  0
VERTEX
  8
01
  5
1C74B
 10
6947.62
 20
945.836
 30
0.000000
  70
    32
  0
VERTEX
  8
01
  5
1C74C
 10
6947.46
 20
945.830
 30
0.000000
  70
    32
  0
VERTEX
  8
01
  5
1C74D
 10
6947.31
 20
945.823
 30
0.000000
  70
    32
  0
VERTEX
  8
01
  5
1C74E
 10
6947.16
 20
945.815
 30
0.000000
  70
    32
  0
VERTEX
  8
01
  5
1C74F
 10
6947.02
 20
945.806
 30
0.000000
  70
    32
  0
VERTEX
  8
01
  5
1C750
 10
6946.87
 20
945.796
 30
0.000000
  70
    32
  0
VERTEX
  8
01
  5
1C751
 10
6946.73
 20
945.785
 30
0.000000
  70
    32
  0
VERTEX
  8
01
  5
1C752
 10
6946.60
 20
945.773
 30
0.000000
  70
    32
  0
VERTEX
  8
01
  5
1C753
 10
6946.47
 20
945.761
 30
0.000000
  70
    32
  0
VERTEX
  8
01
  5
1C754
 10
6946.34
 20
945.747
 30
0.000000
  70
    32
  0
VERTEX
  8
01
  5
1C755
 10
6946.22
 20
945.733
 30
0.000000
  70
    32
  0
VERTEX
  8
01
  5
1C756
 10
6946.11
 20
945.717
 30
0.000000
  70
    32
  0
VERTEX
  8
01
  5
1C757
 10
6946.00
 20
945.702
 30
0.000000
  70
    32
  0
VERTEX
  8
01
  5
1C758
 10
6945.89
 20
945.685
 30
0.000000
  70
    32
  0
VERTEX
  8
01
  5
1C759
 10
6945.80
 20
945.667
 30
0.000000
  70
    32
  0
VERTEX
  8
01
  5
1C75A
 10
6945.70
 20
945.649
 30
0.000000
  70
    32
  0
VERTEX
  8
01
  5
1C75B
 10
6945.62
 20
945.631
 30
0.000000
  70
    32
  0
VERTEX
  8
01
  5
1C75C
 10
6945.54
 20
945.611
 30
0.000000
  70
    32
  0
VERTEX
  8
01
  5
1C75D
 10
6945.47
 20
945.592
 30
0.000000
  70
    32
  0
VERTEX
  8
01
  5
1C75E
 10
6945.40
 20
945.572
 30
0.000000
  70
    32
  0
VERTEX
  8
01
  5
1C75F
 10
6945.35
 20
945.551
 30
0.000000
  70
    32
  0
VERTEX
  8
01
  5
1C760
 10
6945.30
 20
945.530
 30
0.000000
  70
    32
  0
VERTEX
  8
01
  5
1C761
 10
6945.25
 20
945.509
 30
0.000000
  70
    32
  0
VERTEX
  8
01
  5
1C762
 10
6945.22
 20
945.487
 30
0.000000
  70
    32
  0
VERTEX
  8
01
  5
1C763
 10
6945.19
 20
945.465
 30
0.000000
  70
    32
  0
VERTEX
  8
01
  5
1C764
 10
6945.17
 20
945.443
 30
0.000000
  70
    32
  0
VERTEX
  8
01
  5
1C765
 10
6945.16
 20
945.421
 30
0.000000
  70
    32
  0
VERTEX
  8
01
  5
1C766
 10
6945.16
 20
945.399
 30
0.000000
  70
    32
  0
SEQEND
  8
01
  5
1C767
  0
LINE
  5
1BBD3
  8
01
 10
6602.40557373514
 20
966.62930145677933
 30
0.0
 11
6621.40557373514
 21
966.62930145677933
 31
0.0
  0
LINE
  5
1BBD4
  8
01
 10
6487.40557373514
 20
951.6293014567791
 30
0.0
 11
6621.40557373514
 21
951.6293014567791
 31
0.0
  0
ARC
  5
1BBD5
  8
01
 10
6621.40557373514
 20
952.62930145677933
 30
0.0
 40
1.0
 50
270.0
 51
0.0
  0
LINE
  5
1BBD6
  8
01
 10
6487.40557373514
 20
960.62930145677933
 30
0.0
 11
6621.40557373514
 21
960.62930145677933
 31
0.0
  0
LINE
  5
1BBD7
  8
01
 10
6602.40557373514
 20
944.62930145677933
 30
0.0
 11
6621.40557373514
 21
944.62930145677933
 31
0.0
  0
ARC
  5
1BBD8
  8
01
 10
6602.40557373514
 20
946.62930145677922
 30
0.0
 40
2.0
 50
180.0
 51
270.0
  0
LINE
  5
1BBD9
  8
01
 10
6622.40557373514
 20
965.62930145677933
 30
0.0
 11
6622.40557373514
 21
945.62930145677922
 31
0.0
  0
ARC
  5
1BBDA
  8
01
 10
6621.40557373514
 20
959.62930145677933
 30
0.0
 40
1.0
 50
0.0
 51
90.0
  0
ARC
  5
1BBDB
  8
01
 10
6621.40557373514
 20
965.62930145677933
 30
0.0
 40
1.0
 50
0.0
 51
90.0
  0
ARC
  5
1BBDC
  8
01
 10
6621.40557373514
 20
945.62930145677922
 30
0.0
 40
1.0
 50
270.0
 51
0.0
  0
LINE
  5
1BBDD
  8
01
 10
6600.4055737351409
 20
964.21508789440588
 30
0.0
 11
6600.4055737351409
 21
963.46688766403588
 31
0.0
  0
LINE
  5
1BBDE
  8
01
 10
6602.40557373514
 20
966.62930145677933
 30
0.0
 11
6600.6984669539543
 21
964.92219467559266
 31
0.0
  0
LINE
  5
1BBDF
  8
01
 10
6486.40557373514
 20
949.57941858901575
 30
0.0
 11
6486.40557373514
 21
960.07028351243594
 31
0.0
  0
ARC
  5
1BBE0
  8
01
 10
6487.40557373514
 20
952.62930145677933
 30
0.0
 40
1.0
 50
180.0
 51
270.0
  0
ARC
  5
1BBE1
  8
01
 10
6487.40557373514
 20
949.57941858901575
 30
0.0000000000112557
 40
1.0
 50
180.0
 51
270.0
  0
ARC
  5
1BBE2
  8
01
 10
6487.40557373514
 20
959.62930145677933
 30
0.0
 40
1.0
 50
90.0
 51
180.0
  0
LINE
  5
1BBE3
  8
01
 10
6600.4055737351409
 20
948.07023914621516
 30
0.0
 11
6600.4055737351409
 21
946.62930145677922
 31
0.0
  0
LINE
  5
1BBE4
  8
01
 10
6602.40557373514
 20
948.07023914621516
 30
0.0
 11
6602.40557373514
 21
944.62930145677933
 31
0.0
  0
POLYLINE
  5
1BBE5
  8
01
 10
6600.4055737351409
 20
948.57941858901575
 30
0.0000000000082766
 66
     1
 70
     8
  0
VERTEX
  8
01
  5
1C768
 10
6600.41
 20
948.579
 30
8.27660e-012
  70
    32
  0
VERTEX
  8
01
  5
1C769
 10
6600.43
 20
948.579
 30
8.27660e-012
  70
    32
  0
VERTEX
  8
01
  5
1C76A
 10
6600.45
 20
948.579
 30
8.27660e-012
  70
    32
  0
VERTEX
  8
01
  5
1C76B
 10
6600.48
 20
948.579
 30
8.27660e-012
  70
    32
  0
VERTEX
  8
01
  5
1C76C
 10
6600.50
 20
948.579
 30
8.27660e-012
  70
    32
  0
VERTEX
  8
01
  5
1C76D
 10
6600.53
 20
948.578
 30
8.27660e-012
  70
    32
  0
VERTEX
  8
01
  5
1C76E
 10
6600.55
 20
948.578
 30
8.27660e-012
  70
    32
  0
VERTEX
  8
01
  5
1C76F
 10
6600.58
 20
948.578
 30
8.27660e-012
  70
    32
  0
VERTEX
  8
01
  5
1C770
 10
6600.60
 20
948.577
 30
8.27660e-012
  70
    32
  0
VERTEX
  8
01
  5
1C771
 10
6600.63
 20
948.576
 30
8.27660e-012
  70
    32
  0
VERTEX
  8
01
  5
1C772
 10
6600.65
 20
948.576
 30
8.27660e-012
  70
    32
  0
VERTEX
  8
01
  5
1C773
 10
6600.67
 20
948.575
 30
8.27660e-012
  70
    32
  0
VERTEX
  8
01
  5
1C774
 10
6600.70
 20
948.574
 30
8.27660e-012
  70
    32
  0
VERTEX
  8
01
  5
1C775
 10
6600.72
 20
948.573
 30
8.27660e-012
  70
    32
  0
VERTEX
  8
01
  5
1C776
 10
6600.75
 20
948.572
 30
8.27660e-012
  70
    32
  0
VERTEX
  8
01
  5
1C777
 10
6600.77
 20
948.571
 30
8.27660e-012
  70
    32
  0
VERTEX
  8
01
  5
1C778
 10
6600.80
 20
948.570
 30
8.27660e-012
  70
    32
  0
VERTEX
  8
01
  5
1C779
 10
6600.82
 20
948.569
 30
8.27660e-012
  70
    32
  0
VERTEX
  8
01
  5
1C77A
 10
6600.84
 20
948.567
 30
8.27660e-012
  70
    32
  0
VERTEX
  8
01
  5
1C77B
 10
6600.87
 20
948.566
 30
8.27660e-012
  70
    32
  0
VERTEX
  8
01
  5
1C77C
 10
6600.89
 20
948.564
 30
8.27660e-012
  70
    32
  0
VERTEX
  8
01
  5
1C77D
 10
6600.92
 20
948.563
 30
8.27660e-012
  70
    32
  0
VERTEX
  8
01
  5
1C77E
 10
6600.94
 20
948.561
 30
8.27660e-012
  70
    32
  0
VERTEX
  8
01
  5
1C77F
 10
6600.96
 20
948.560
 30
8.27660e-012
  70
    32
  0
VERTEX
  8
01
  5
1C780
 10
6600.99
 20
948.558
 30
8.27660e-012
  70
    32
  0
VERTEX
  8
01
  5
1C781
 10
6601.01
 20
948.556
 30
8.27660e-012
  70
    32
  0
VERTEX
  8
01
  5
1C782
 10
6601.03
 20
948.554
 30
8.27660e-012
  70
    32
  0
VERTEX
  8
01
  5
1C783
 10
6601.06
 20
948.552
 30
8.27660e-012
  70
    32
  0
VERTEX
  8
01
  5
1C784
 10
6601.08
 20
948.550
 30
8.27660e-012
  70
    32
  0
VERTEX
  8
01
  5
1C785
 10
6601.10
 20
948.548
 30
8.27660e-012
  70
    32
  0
VERTEX
  8
01
  5
1C786
 10
6601.13
 20
948.546
 30
8.27660e-012
  70
    32
  0
VERTEX
  8
01
  5
1C787
 10
6601.15
 20
948.544
 30
8.27660e-012
  70
    32
  0
VERTEX
  8
01
  5
1C788
 10
6601.17
 20
948.541
 30
8.27660e-012
  70
    32
  0
VERTEX
  8
01
  5
1C789
 10
6601.19
 20
948.539
 30
8.27660e-012
  70
    32
  0
VERTEX
  8
01
  5
1C78A
 10
6601.22
 20
948.537
 30
8.27660e-012
  70
    32
  0
VERTEX
  8
01
  5
1C78B
 10
6601.24
 20
948.534
 30
8.27660e-012
  70
    32
  0
VERTEX
  8
01
  5
1C78C
 10
6601.26
 20
948.531
 30
8.27660e-012
  70
    32
  0
VERTEX
  8
01
  5
1C78D
 10
6601.28
 20
948.529
 30
8.27660e-012
  70
    32
  0
VERTEX
  8
01
  5
1C78E
 10
6601.30
 20
948.526
 30
8.27660e-012
  70
    32
  0
VERTEX
  8
01
  5
1C78F
 10
6601.33
 20
948.523
 30
8.27660e-012
  70
    32
  0
VERTEX
  8
01
  5
1C790
 10
6601.35
 20
948.520
 30
8.27660e-012
  70
    32
  0
VERTEX
  8
01
  5
1C791
 10
6601.37
 20
948.517
 30
8.27660e-012
  70
    32
  0
VERTEX
  8
01
  5
1C792
 10
6601.39
 20
948.514
 30
8.27660e-012
  70
    32
  0
VERTEX
  8
01
  5
1C793
 10
6601.41
 20
948.511
 30
8.27660e-012
  70
    32
  0
VERTEX
  8
01
  5
1C794
 10
6601.43
 20
948.508
 30
8.27660e-012
  70
    32
  0
VERTEX
  8
01
  5
1C795
 10
6601.45
 20
948.505
 30
8.27660e-012
  70
    32
  0
VERTEX
  8
01
  5
1C796
 10
6601.48
 20
948.502
 30
8.27660e-012
  70
    32
  0
VERTEX
  8
01
  5
1C797
 10
6601.50
 20
948.499
 30
8.27660e-012
  70
    32
  0
VERTEX
  8
01
  5
1C798
 10
6601.52
 20
948.495
 30
8.27660e-012
  70
    32
  0
VERTEX
  8
01
  5
1C799
 10
6601.54
 20
948.492
 30
8.27660e-012
  70
    32
  0
VERTEX
  8
01
  5
1C79A
 10
6601.56
 20
948.488
 30
8.27660e-012
  70
    32
  0
VERTEX
  8
01
  5
1C79B
 10
6601.58
 20
948.485
 30
8.27660e-012
  70
    32
  0
VERTEX
  8
01
  5
1C79C
 10
6601.60
 20
948.481
 30
8.27660e-012
  70
    32
  0
VERTEX
  8
01
  5
1C79D
 10
6601.62
 20
948.477
 30
8.27660e-012
  70
    32
  0
VERTEX
  8
01
  5
1C79E
 10
6601.64
 20
948.474
 30
8.27660e-012
  70
    32
  0
VERTEX
  8
01
  5
1C79F
 10
6601.66
 20
948.470
 30
8.27660e-012
  70
    32
  0
VERTEX
  8
01
  5
1C7A0
 10
6601.67
 20
948.466
 30
8.27660e-012
  70
    32
  0
VERTEX
  8
01
  5
1C7A1
 10
6601.69
 20
948.462
 30
8.27660e-012
  70
    32
  0
VERTEX
  8
01
  5
1C7A2
 10
6601.71
 20
948.458
 30
8.27660e-012
  70
    32
  0
VERTEX
  8
01
  5
1C7A3
 10
6601.73
 20
948.454
 30
8.27660e-012
  70
    32
  0
VERTEX
  8
01
  5
1C7A4
 10
6601.75
 20
948.450
 30
8.27660e-012
  70
    32
  0
VERTEX
  8
01
  5
1C7A5
 10
6601.77
 20
948.446
 30
8.27660e-012
  70
    32
  0
VERTEX
  8
01
  5
1C7A6
 10
6601.78
 20
948.442
 30
8.27660e-012
  70
    32
  0
VERTEX
  8
01
  5
1C7A7
 10
6601.80
 20
948.437
 30
8.27660e-012
  70
    32
  0
VERTEX
  8
01
  5
1C7A8
 10
6601.82
 20
948.433
 30
8.27660e-012
  70
    32
  0
VERTEX
  8
01
  5
1C7A9
 10
6601.84
 20
948.429
 30
8.27660e-012
  70
    32
  0
VERTEX
  8
01
  5
1C7AA
 10
6601.85
 20
948.424
 30
8.27660e-012
  70
    32
  0
VERTEX
  8
01
  5
1C7AB
 10
6601.87
 20
948.420
 30
8.27660e-012
  70
    32
  0
VERTEX
  8
01
  5
1C7AC
 10
6601.89
 20
948.415
 30
8.27660e-012
  70
    32
  0
VERTEX
  8
01
  5
1C7AD
 10
6601.90
 20
948.411
 30
8.27660e-012
  70
    32
  0
VERTEX
  8
01
  5
1C7AE
 10
6601.92
 20
948.406
 30
8.27660e-012
  70
    32
  0
VERTEX
  8
01
  5
1C7AF
 10
6601.94
 20
948.401
 30
8.27660e-012
  70
    32
  0
VERTEX
  8
01
  5
1C7B0
 10
6601.95
 20
948.397
 30
8.27660e-012
  70
    32
  0
VERTEX
  8
01
  5
1C7B1
 10
6601.97
 20
948.392
 30
8.27660e-012
  70
    32
  0
VERTEX
  8
01
  5
1C7B2
 10
6601.98
 20
948.387
 30
8.27660e-012
  70
    32
  0
VERTEX
  8
01
  5
1C7B3
 10
6602.00
 20
948.382
 30
8.27660e-012
  70
    32
  0
VERTEX
  8
01
  5
1C7B4
 10
6602.01
 20
948.377
 30
8.27660e-012
  70
    32
  0
VERTEX
  8
01
  5
1C7B5
 10
6602.03
 20
948.372
 30
8.27660e-012
  70
    32
  0
VERTEX
  8
01
  5
1C7B6
 10
6602.04
 20
948.367
 30
8.27660e-012
  70
    32
  0
VERTEX
  8
01
  5
1C7B7
 10
6602.05
 20
948.362
 30
8.27660e-012
  70
    32
  0
VERTEX
  8
01
  5
1C7B8
 10
6602.07
 20
948.357
 30
8.27660e-012
  70
    32
  0
VERTEX
  8
01
  5
1C7B9
 10
6602.08
 20
948.352
 30
8.27660e-012
  70
    32
  0
VERTEX
  8
01
  5
1C7BA
 10
6602.10
 20
948.347
 30
8.27660e-012
  70
    32
  0
VERTEX
  8
01
  5
1C7BB
 10
6602.11
 20
948.342
 30
8.27660e-012
  70
    32
  0
VERTEX
  8
01
  5
1C7BC
 10
6602.12
 20
948.336
 30
8.27660e-012
  70
    32
  0
VERTEX
  8
01
  5
1C7BD
 10
6602.13
 20
948.331
 30
8.27660e-012
  70
    32
  0
VERTEX
  8
01
  5
1C7BE
 10
6602.15
 20
948.326
 30
8.27660e-012
  70
    32
  0
VERTEX
  8
01
  5
1C7BF
 10
6602.16
 20
948.321
 30
8.27660e-012
  70
    32
  0
VERTEX
  8
01
  5
1C7C0
 10
6602.17
 20
948.315
 30
8.27660e-012
  70
    32
  0
VERTEX
  8
01
  5
1C7C1
 10
6602.18
 20
948.310
 30
8.27660e-012
  70
    32
  0
VERTEX
  8
01
  5
1C7C2
 10
6602.19
 20
948.304
 30
8.27660e-012
  70
    32
  0
VERTEX
  8
01
  5
1C7C3
 10
6602.20
 20
948.299
 30
8.27660e-012
  70
    32
  0
VERTEX
  8
01
  5
1C7C4
 10
6602.21
 20
948.293
 30
8.27660e-012
  70
    32
  0
VERTEX
  8
01
  5
1C7C5
 10
6602.22
 20
948.288
 30
8.27660e-012
  70
    32
  0
VERTEX
  8
01
  5
1C7C6
 10
6602.23
 20
948.282
 30
8.27660e-012
  70
    32
  0
VERTEX
  8
01
  5
1C7C7
 10
6602.24
 20
948.276
 30
8.27660e-012
  70
    32
  0
VERTEX
  8
01
  5
1C7C8
 10
6602.25
 20
948.271
 30
8.27660e-012
  70
    32
  0
VERTEX
  8
01
  5
1C7C9
 10
6602.26
 20
948.265
 30
8.27660e-012
  70
    32
  0
VERTEX
  8
01
  5
1C7CA
 10
6602.27
 20
948.259
 30
8.27660e-012
  70
    32
  0
VERTEX
  8
01
  5
1C7CB
 10
6602.28
 20
948.254
 30
8.27660e-012
  70
    32
  0
VERTEX
  8
01
  5
1C7CC
 10
6602.29
 20
948.248
 30
8.27660e-012
  70
    32
  0
VERTEX
  8
01
  5
1C7CD
 10
6602.30
 20
948.242
 30
8.27660e-012
  70
    32
  0
VERTEX
  8
01
  5
1C7CE
 10
6602.30
 20
948.236
 30
8.27660e-012
  70
    32
  0
VERTEX
  8
01
  5
1C7CF
 10
6602.31
 20
948.230
 30
8.27660e-012
  70
    32
  0
VERTEX
  8
01
  5
1C7D0
 10
6602.32
 20
948.225
 30
8.27660e-012
  70
    32
  0
VERTEX
  8
01
  5
1C7D1
 10
6602.33
 20
948.219
 30
8.27660e-012
  70
    32
  0
VERTEX
  8
01
  5
1C7D2
 10
6602.33
 20
948.213
 30
8.27660e-012
  70
    32
  0
VERTEX
  8
01
  5
1C7D3
 10
6602.34
 20
948.207
 30
8.27660e-012
  70
    32
  0
VERTEX
  8
01
  5
1C7D4
 10
6602.35
 20
948.201
 30
8.27660e-012
  70
    32
  0
VERTEX
  8
01
  5
1C7D5
 10
6602.35
 20
948.195
 30
8.27660e-012
  70
    32
  0
VERTEX
  8
01
  5
1C7D6
 10
6602.36
 20
948.189
 30
8.27660e-012
  70
    32
  0
VERTEX
  8
01
  5
1C7D7
 10
6602.36
 20
948.183
 30
8.27660e-012
  70
    32
  0
VERTEX
  8
01
  5
1C7D8
 10
6602.37
 20
948.177
 30
8.27660e-012
  70
    32
  0
VERTEX
  8
01
  5
1C7D9
 10
6602.37
 20
948.171
 30
8.27660e-012
  70
    32
  0
VERTEX
  8
01
  5
1C7DA
 10
6602.38
 20
948.165
 30
8.27660e-012
  70
    32
  0
VERTEX
  8
01
  5
1C7DB
 10
6602.38
 20
948.159
 30
8.27660e-012
  70
    32
  0
VERTEX
  8
01
  5
1C7DC
 10
6602.38
 20
948.153
 30
8.27660e-012
  70
    32
  0
VERTEX
  8
01
  5
1C7DD
 10
6602.39
 20
948.147
 30
8.27660e-012
  70
    32
  0
VERTEX
  8
01
  5
1C7DE
 10
6602.39
 20
948.141
 30
8.27660e-012
  70
    32
  0
VERTEX
  8
01
  5
1C7DF
 10
6602.39
 20
948.135
 30
8.27660e-012
  70
    32
  0
VERTEX
  8
01
  5
1C7E0
 10
6602.40
 20
948.128
 30
8.27660e-012
  70
    32
  0
VERTEX
  8
01
  5
1C7E1
 10
6602.40
 20
948.122
 30
8.27660e-012
  70
    32
  0
VERTEX
  8
01
  5
1C7E2
 10
6602.40
 20
948.116
 30
8.27660e-012
  70
    32
  0
VERTEX
  8
01
  5
1C7E3
 10
6602.40
 20
948.110
 30
8.27660e-012
  70
    32
  0
VERTEX
  8
01
  5
1C7E4
 10
6602.40
 20
948.104
 30
8.27660e-012
  70
    32
  0
VERTEX
  8
01
  5
1C7E5
 10
6602.40
 20
948.098
 30
8.27660e-012
  70
    32
  0
VERTEX
  8
01
  5
1C7E6
 10
6602.40
 20
948.092
 30
8.27660e-012
  70
    32
  0
VERTEX
  8
01
  5
1C7E7
 10
6602.41
 20
948.086
 30
8.27660e-012
  70
    32
  0
VERTEX
  8
01
  5
1C7E8
 10
6602.41
 20
948.079
 30
8.27660e-012
  70
    32
  0
SEQEND
  8
01
  5
1C7E9
  0
POLYLINE
  5
1BBE6
  8
01
 10
6598.4055737351391
 20
948.57941858901575
 30
0.0000000000041383
 66
     1
 70
     8
  0
VERTEX
  8
01
  5
1C7EA
 10
6598.41
 20
948.579
 30
4.13830e-012
  70
    32
  0
VERTEX
  8
01
  5
1C7EB
 10
6598.43
 20
948.579
 30
4.13830e-012
  70
    32
  0
VERTEX
  8
01
  5
1C7EC
 10
6598.45
 20
948.579
 30
4.13830e-012
  70
    32
  0
VERTEX
  8
01
  5
1C7ED
 10
6598.48
 20
948.579
 30
4.13830e-012
  70
    32
  0
VERTEX
  8
01
  5
1C7EE
 10
6598.50
 20
948.579
 30
4.13830e-012
  70
    32
  0
VERTEX
  8
01
  5
1C7EF
 10
6598.53
 20
948.578
 30
4.13830e-012
  70
    32
  0
VERTEX
  8
01
  5
1C7F0
 10
6598.55
 20
948.578
 30
4.13830e-012
  70
    32
  0
VERTEX
  8
01
  5
1C7F1
 10
6598.58
 20
948.578
 30
4.13830e-012
  70
    32
  0
VERTEX
  8
01
  5
1C7F2
 10
6598.60
 20
948.577
 30
4.13830e-012
  70
    32
  0
VERTEX
  8
01
  5
1C7F3
 10
6598.63
 20
948.576
 30
4.13830e-012
  70
    32
  0
VERTEX
  8
01
  5
1C7F4
 10
6598.65
 20
948.576
 30
4.13830e-012
  70
    32
  0
VERTEX
  8
01
  5
1C7F5
 10
6598.67
 20
948.575
 30
4.13830e-012
  70
    32
  0
VERTEX
  8
01
  5
1C7F6
 10
6598.70
 20
948.574
 30
4.13830e-012
  70
    32
  0
VERTEX
  8
01
  5
1C7F7
 10
6598.72
 20
948.573
 30
4.13830e-012
  70
    32
  0
VERTEX
  8
01
  5
1C7F8
 10
6598.75
 20
948.572
 30
4.13830e-012
  70
    32
  0
VERTEX
  8
01
  5
1C7F9
 10
6598.77
 20
948.571
 30
4.13830e-012
  70
    32
  0
VERTEX
  8
01
  5
1C7FA
 10
6598.80
 20
948.570
 30
4.13830e-012
  70
    32
  0
VERTEX
  8
01
  5
1C7FB
 10
6598.82
 20
948.569
 30
4.13830e-012
  70
    32
  0
VERTEX
  8
01
  5
1C7FC
 10
6598.84
 20
948.567
 30
4.13830e-012
  70
    32
  0
VERTEX
  8
01
  5
1C7FD
 10
6598.87
 20
948.566
 30
4.13830e-012
  70
    32
  0
VERTEX
  8
01
  5
1C7FE
 10
6598.89
 20
948.564
 30
4.13830e-012
  70
    32
  0
VERTEX
  8
01
  5
1C7FF
 10
6598.92
 20
948.563
 30
4.13830e-012
  70
    32
  0
VERTEX
  8
01
  5
1C800
 10
6598.94
 20
948.561
 30
4.13830e-012
  70
    32
  0
VERTEX
  8
01
  5
1C801
 10
6598.96
 20
948.560
 30
4.13830e-012
  70
    32
  0
VERTEX
  8
01
  5
1C802
 10
6598.99
 20
948.558
 30
4.13830e-012
  70
    32
  0
VERTEX
  8
01
  5
1C803
 10
6599.01
 20
948.556
 30
4.13830e-012
  70
    32
  0
VERTEX
  8
01
  5
1C804
 10
6599.03
 20
948.554
 30
4.13830e-012
  70
    32
  0
VERTEX
  8
01
  5
1C805
 10
6599.06
 20
948.552
 30
4.13830e-012
  70
    32
  0
VERTEX
  8
01
  5
1C806
 10
6599.08
 20
948.550
 30
4.13830e-012
  70
    32
  0
VERTEX
  8
01
  5
1C807
 10
6599.10
 20
948.548
 30
4.13830e-012
  70
    32
  0
VERTEX
  8
01
  5
1C808
 10
6599.13
 20
948.546
 30
4.13830e-012
  70
    32
  0
VERTEX
  8
01
  5
1C809
 10
6599.15
 20
948.544
 30
4.13830e-012
  70
    32
  0
VERTEX
  8
01
  5
1C80A
 10
6599.17
 20
948.541
 30
4.13830e-012
  70
    32
  0
VERTEX
  8
01
  5
1C80B
 10
6599.19
 20
948.539
 30
4.13830e-012
  70
    32
  0
VERTEX
  8
01
  5
1C80C
 10
6599.22
 20
948.537
 30
4.13830e-012
  70
    32
  0
VERTEX
  8
01
  5
1C80D
 10
6599.24
 20
948.534
 30
4.13830e-012
  70
    32
  0
VERTEX
  8
01
  5
1C80E
 10
6599.26
 20
948.531
 30
4.13830e-012
  70
    32
  0
VERTEX
  8
01
  5
1C80F
 10
6599.28
 20
948.529
 30
4.13830e-012
  70
    32
  0
VERTEX
  8
01
  5
1C810
 10
6599.30
 20
948.526
 30
4.13830e-012
  70
    32
  0
VERTEX
  8
01
  5
1C811
 10
6599.33
 20
948.523
 30
4.13830e-012
  70
    32
  0
VERTEX
  8
01
  5
1C812
 10
6599.35
 20
948.520
 30
4.13830e-012
  70
    32
  0
VERTEX
  8
01
  5
1C813
 10
6599.37
 20
948.517
 30
4.13830e-012
  70
    32
  0
VERTEX
  8
01
  5
1C814
 10
6599.39
 20
948.514
 30
4.13830e-012
  70
    32
  0
VERTEX
  8
01
  5
1C815
 10
6599.41
 20
948.511
 30
4.13830e-012
  70
    32
  0
VERTEX
  8
01
  5
1C816
 10
6599.43
 20
948.508
 30
4.13830e-012
  70
    32
  0
VERTEX
  8
01
  5
1C817
 10
6599.45
 20
948.505
 30
4.13830e-012
  70
    32
  0
VERTEX
  8
01
  5
1C818
 10
6599.48
 20
948.502
 30
4.13830e-012
  70
    32
  0
VERTEX
  8
01
  5
1C819
 10
6599.50
 20
948.499
 30
4.13830e-012
  70
    32
  0
VERTEX
  8
01
  5
1C81A
 10
6599.52
 20
948.495
 30
4.13830e-012
  70
    32
  0
VERTEX
  8
01
  5
1C81B
 10
6599.54
 20
948.492
 30
4.13830e-012
  70
    32
  0
VERTEX
  8
01
  5
1C81C
 10
6599.56
 20
948.488
 30
4.13830e-012
  70
    32
  0
VERTEX
  8
01
  5
1C81D
 10
6599.58
 20
948.485
 30
4.13830e-012
  70
    32
  0
VERTEX
  8
01
  5
1C81E
 10
6599.60
 20
948.481
 30
4.13830e-012
  70
    32
  0
VERTEX
  8
01
  5
1C81F
 10
6599.62
 20
948.477
 30
4.13830e-012
  70
    32
  0
VERTEX
  8
01
  5
1C820
 10
6599.64
 20
948.474
 30
4.13830e-012
  70
    32
  0
VERTEX
  8
01
  5
1C821
 10
6599.66
 20
948.470
 30
4.13830e-012
  70
    32
  0
VERTEX
  8
01
  5
1C822
 10
6599.67
 20
948.466
 30
4.13830e-012
  70
    32
  0
VERTEX
  8
01
  5
1C823
 10
6599.69
 20
948.462
 30
4.13830e-012
  70
    32
  0
VERTEX
  8
01
  5
1C824
 10
6599.71
 20
948.458
 30
4.13830e-012
  70
    32
  0
VERTEX
  8
01
  5
1C825
 10
6599.73
 20
948.454
 30
4.13830e-012
  70
    32
  0
VERTEX
  8
01
  5
1C826
 10
6599.75
 20
948.450
 30
4.13830e-012
  70
    32
  0
VERTEX
  8
01
  5
1C827
 10
6599.77
 20
948.446
 30
4.13830e-012
  70
    32
  0
VERTEX
  8
01
  5
1C828
 10
6599.78
 20
948.442
 30
4.13830e-012
  70
    32
  0
VERTEX
  8
01
  5
1C829
 10
6599.80
 20
948.437
 30
4.13830e-012
  70
    32
  0
VERTEX
  8
01
  5
1C82A
 10
6599.82
 20
948.433
 30
4.13830e-012
  70
    32
  0
VERTEX
  8
01
  5
1C82B
 10
6599.84
 20
948.429
 30
4.13830e-012
  70
    32
  0
VERTEX
  8
01
  5
1C82C
 10
6599.85
 20
948.424
 30
4.13830e-012
  70
    32
  0
VERTEX
  8
01
  5
1C82D
 10
6599.87
 20
948.420
 30
4.13830e-012
  70
    32
  0
VERTEX
  8
01
  5
1C82E
 10
6599.89
 20
948.415
 30
4.13830e-012
  70
    32
  0
VERTEX
  8
01
  5
1C82F
 10
6599.90
 20
948.411
 30
4.13830e-012
  70
    32
  0
VERTEX
  8
01
  5
1C830
 10
6599.92
 20
948.406
 30
4.13830e-012
  70
    32
  0
VERTEX
  8
01
  5
1C831
 10
6599.94
 20
948.401
 30
4.13830e-012
  70
    32
  0
VERTEX
  8
01
  5
1C832
 10
6599.95
 20
948.397
 30
4.13830e-012
  70
    32
  0
VERTEX
  8
01
  5
1C833
 10
6599.97
 20
948.392
 30
4.13830e-012
  70
    32
  0
VERTEX
  8
01
  5
1C834
 10
6599.98
 20
948.387
 30
4.13830e-012
  70
    32
  0
VERTEX
  8
01
  5
1C835
 10
6600.00
 20
948.382
 30
4.13830e-012
  70
    32
  0
VERTEX
  8
01
  5
1C836
 10
6600.01
 20
948.377
 30
4.13830e-012
  70
    32
  0
VERTEX
  8
01
  5
1C837
 10
6600.03
 20
948.372
 30
4.13830e-012
  70
    32
  0
VERTEX
  8
01
  5
1C838
 10
6600.04
 20
948.367
 30
4.13830e-012
  70
    32
  0
VERTEX
  8
01
  5
1C839
 10
6600.05
 20
948.362
 30
4.13830e-012
  70
    32
  0
VERTEX
  8
01
  5
1C83A
 10
6600.07
 20
948.357
 30
4.13830e-012
  70
    32
  0
VERTEX
  8
01
  5
1C83B
 10
6600.08
 20
948.352
 30
4.13830e-012
  70
    32
  0
VERTEX
  8
01
  5
1C83C
 10
6600.10
 20
948.347
 30
4.13830e-012
  70
    32
  0
VERTEX
  8
01
  5
1C83D
 10
6600.11
 20
948.342
 30
4.13830e-012
  70
    32
  0
VERTEX
  8
01
  5
1C83E
 10
6600.12
 20
948.336
 30
4.13830e-012
  70
    32
  0
VERTEX
  8
01
  5
1C83F
 10
6600.13
 20
948.331
 30
4.13830e-012
  70
    32
  0
VERTEX
  8
01
  5
1C840
 10
6600.15
 20
948.326
 30
4.13830e-012
  70
    32
  0
VERTEX
  8
01
  5
1C841
 10
6600.16
 20
948.321
 30
4.13830e-012
  70
    32
  0
VERTEX
  8
01
  5
1C842
 10
6600.17
 20
948.315
 30
4.13830e-012
  70
    32
  0
VERTEX
  8
01
  5
1C843
 10
6600.18
 20
948.310
 30
4.13830e-012
  70
    32
  0
VERTEX
  8
01
  5
1C844
 10
6600.19
 20
948.304
 30
4.13830e-012
  70
    32
  0
VERTEX
  8
01
  5
1C845
 10
6600.20
 20
948.299
 30
4.13830e-012
  70
    32
  0
VERTEX
  8
01
  5
1C846
 10
6600.21
 20
948.293
 30
4.13830e-012
  70
    32
  0
VERTEX
  8
01
  5
1C847
 10
6600.22
 20
948.288
 30
4.13830e-012
  70
    32
  0
VERTEX
  8
01
  5
1C848
 10
6600.23
 20
948.282
 30
4.13830e-012
  70
    32
  0
VERTEX
  8
01
  5
1C849
 10
6600.24
 20
948.276
 30
4.13830e-012
  70
    32
  0
VERTEX
  8
01
  5
1C84A
 10
6600.25
 20
948.271
 30
4.13830e-012
  70
    32
  0
VERTEX
  8
01
  5
1C84B
 10
6600.26
 20
948.265
 30
4.13830e-012
  70
    32
  0
VERTEX
  8
01
  5
1C84C
 10
6600.27
 20
948.259
 30
4.13830e-012
  70
    32
  0
VERTEX
  8
01
  5
1C84D
 10
6600.28
 20
948.254
 30
4.13830e-012
  70
    32
  0
VERTEX
  8
01
  5
1C84E
 10
6600.29
 20
948.248
 30
4.13830e-012
  70
    32
  0
VERTEX
  8
01
  5
1C84F
 10
6600.30
 20
948.242
 30
4.13830e-012
  70
    32
  0
VERTEX
  8
01
  5
1C850
 10
6600.30
 20
948.236
 30
4.13830e-012
  70
    32
  0
VERTEX
  8
01
  5
1C851
 10
6600.31
 20
948.230
 30
4.13830e-012
  70
    32
  0
VERTEX
  8
01
  5
1C852
 10
6600.32
 20
948.225
 30
4.13830e-012
  70
    32
  0
VERTEX
  8
01
  5
1C853
 10
6600.33
 20
948.219
 30
4.13830e-012
  70
    32
  0
VERTEX
  8
01
  5
1C854
 10
6600.33
 20
948.213
 30
4.13830e-012
  70
    32
  0
VERTEX
  8
01
  5
1C855
 10
6600.34
 20
948.207
 30
4.13830e-012
  70
    32
  0
VERTEX
  8
01
  5
1C856
 10
6600.35
 20
948.201
 30
4.13830e-012
  70
    32
  0
VERTEX
  8
01
  5
1C857
 10
6600.35
 20
948.195
 30
4.13830e-012
  70
    32
  0
VERTEX
  8
01
  5
1C858
 10
6600.36
 20
948.189
 30
4.13830e-012
  70
    32
  0
VERTEX
  8
01
  5
1C859
 10
6600.36
 20
948.183
 30
4.13830e-012
  70
    32
  0
VERTEX
  8
01
  5
1C85A
 10
6600.37
 20
948.177
 30
4.13830e-012
  70
    32
  0
VERTEX
  8
01
  5
1C85B
 10
6600.37
 20
948.171
 30
4.13830e-012
  70
    32
  0
VERTEX
  8
01
  5
1C85C
 10
6600.38
 20
948.165
 30
4.13830e-012
  70
    32
  0
VERTEX
  8
01
  5
1C85D
 10
6600.38
 20
948.159
 30
4.13830e-012
  70
    32
  0
VERTEX
  8
01
  5
1C85E
 10
6600.38
 20
948.153
 30
4.13830e-012
  70
    32
  0
VERTEX
  8
01
  5
1C85F
 10
6600.39
 20
948.147
 30
4.13830e-012
  70
    32
  0
VERTEX
  8
01
  5
1C860
 10
6600.39
 20
948.141
 30
4.13830e-012
  70
    32
  0
VERTEX
  8
01
  5
1C861
 10
6600.39
 20
948.135
 30
4.13830e-012
  70
    32
  0
VERTEX
  8
01
  5
1C862
 10
6600.40
 20
948.128
 30
4.13830e-012
  70
    32
  0
VERTEX
  8
01
  5
1C863
 10
6600.40
 20
948.122
 30
4.13830e-012
  70
    32
  0
VERTEX
  8
01
  5
1C864
 10
6600.40
 20
948.116
 30
4.13830e-012
  70
    32
  0
VERTEX
  8
01
  5
1C865
 10
6600.40
 20
948.110
 30
4.13830e-012
  70
    32
  0
VERTEX
  8
01
  5
1C866
 10
6600.40
 20
948.104
 30
4.13830e-012
  70
    32
  0
VERTEX
  8
01
  5
1C867
 10
6600.40
 20
948.098
 30
4.13830e-012
  70
    32
  0
VERTEX
  8
01
  5
1C868
 10
6600.40
 20
948.092
 30
4.13830e-012
  70
    32
  0
VERTEX
  8
01
  5
1C869
 10
6600.41
 20
948.086
 30
4.13830e-012
  70
    32
  0
VERTEX
  8
01
  5
1C86A
 10
6600.41
 20
948.079
 30
4.13830e-012
  70
    32
  0
SEQEND
  8
01
  5
1C86B
  0
LINE
  5
1BBE7
  8
01
 10
6487.40557373514
 20
951.62930145678285
 30
0.0
 11
6621.40557373514
 21
951.62930145678285
 31
0.0
  0
LINE
  5
1BBE8
  8
01
 10
6600.4055737351409
 20
948.57941858901563
 30
0.0000000000041383
 11
6487.40557373514
 21
948.57941858901563
 31
0.0000000000041436
  0
LINE
  5
1BBE9
  8
01
 10
6602.40557373514
 20
966.62930145677933
 30
0.0
 11
6602.40557373514
 21
963.96688766403599
 31
0.0
  0
LINE
  5
1BBEA
  8
01
 10
6600.4055737351409
 20
963.46688766403588
 30
0.0
 11
6487.3843716056917
 21
961.07005872202376
 31
0.0
  0
ARC
  5
1BBEB
  8
01
 10
6487.40557373514
 20
960.07028351243594
 30
0.0
 40
1.0
 50
91.21488356683345
 51
180.0
  0
LINE
  5
1BBEC
  8
01
 10
6600.4055737351409
 20
964.21508789440588
 30
0.0
 11
6600.4055737351409
 21
963.46688766403588
 31
0.0
  0
ARC
  5
1BBED
  8
01
 10
6601.40557373514
 20
964.21508789440588
 30
0.0
 40
1.0
 50
135.00000000000949
 51
180.0
  0
POLYLINE
  5
1BBEE
  8
01
 10
6602.4055737351409
 20
963.96688766403599
 30
0.0
 66
     1
 70
     8
  0
VERTEX
  8
01
  5
1C86C
 10
6602.41
 20
963.967
 30
0.000000
  70
    32
  0
VERTEX
  8
01
  5
1C86D
 10
6602.41
 20
963.961
 30
0.000000
  70
    32
  0
VERTEX
  8
01
  5
1C86E
 10
6602.40
 20
963.955
 30
0.000000
  70
    32
  0
VERTEX
  8
01
  5
1C86F
 10
6602.40
 20
963.948
 30
0.000000
  70
    32
  0
VERTEX
  8
01
  5
1C870
 10
6602.40
 20
963.942
 30
0.000000
  70
    32
  0
VERTEX
  8
01
  5
1C871
 10
6602.40
 20
963.936
 30
0.000000
  70
    32
  0
VERTEX
  8
01
  5
1C872
 10
6602.40
 20
963.930
 30
0.000000
  70
    32
  0
VERTEX
  8
01
  5
1C873
 10
6602.40
 20
963.924
 30
0.000000
  70
    32
  0
VERTEX
  8
01
  5
1C874
 10
6602.40
 20
963.918
 30
0.000000
  70
    32
  0
VERTEX
  8
01
  5
1C875
 10
6602.39
 20
963.912
 30
0.000000
  70
    32
  0
VERTEX
  8
01
  5
1C876
 10
6602.39
 20
963.906
 30
0.000000
  70
    32
  0
VERTEX
  8
01
  5
1C877
 10
6602.39
 20
963.900
 30
0.000000
  70
    32
  0
VERTEX
  8
01
  5
1C878
 10
6602.38
 20
963.894
 30
0.000000
  70
    32
  0
VERTEX
  8
01
  5
1C879
 10
6602.38
 20
963.887
 30
0.000000
  70
    32
  0
VERTEX
  8
01
  5
1C87A
 10
6602.38
 20
963.881
 30
0.000000
  70
    32
  0
VERTEX
  8
01
  5
1C87B
 10
6602.37
 20
963.875
 30
0.000000
  70
    32
  0
VERTEX
  8
01
  5
1C87C
 10
6602.37
 20
963.869
 30
0.000000
  70
    32
  0
VERTEX
  8
01
  5
1C87D
 10
6602.36
 20
963.863
 30
0.000000
  70
    32
  0
VERTEX
  8
01
  5
1C87E
 10
6602.36
 20
963.857
 30
0.000000
  70
    32
  0
VERTEX
  8
01
  5
1C87F
 10
6602.35
 20
963.851
 30
0.000000
  70
    32
  0
VERTEX
  8
01
  5
1C880
 10
6602.35
 20
963.845
 30
0.000000
  70
    32
  0
VERTEX
  8
01
  5
1C881
 10
6602.34
 20
963.839
 30
0.000000
  70
    32
  0
VERTEX
  8
01
  5
1C882
 10
6602.33
 20
963.834
 30
0.000000
  70
    32
  0
VERTEX
  8
01
  5
1C883
 10
6602.33
 20
963.828
 30
0.000000
  70
    32
  0
VERTEX
  8
01
  5
1C884
 10
6602.32
 20
963.822
 30
0.000000
  70
    32
  0
VERTEX
  8
01
  5
1C885
 10
6602.31
 20
963.816
 30
0.000000
  70
    32
  0
VERTEX
  8
01
  5
1C886
 10
6602.30
 20
963.810
 30
0.000000
  70
    32
  0
VERTEX
  8
01
  5
1C887
 10
6602.30
 20
963.804
 30
0.000000
  70
    32
  0
VERTEX
  8
01
  5
1C888
 10
6602.29
 20
963.798
 30
0.000000
  70
    32
  0
VERTEX
  8
01
  5
1C889
 10
6602.28
 20
963.793
 30
0.000000
  70
    32
  0
VERTEX
  8
01
  5
1C88A
 10
6602.27
 20
963.787
 30
0.000000
  70
    32
  0
VERTEX
  8
01
  5
1C88B
 10
6602.26
 20
963.781
 30
0.000000
  70
    32
  0
VERTEX
  8
01
  5
1C88C
 10
6602.25
 20
963.776
 30
0.000000
  70
    32
  0
VERTEX
  8
01
  5
1C88D
 10
6602.24
 20
963.770
 30
0.000000
  70
    32
  0
VERTEX
  8
01
  5
1C88E
 10
6602.23
 20
963.764
 30
0.000000
  70
    32
  0
VERTEX
  8
01
  5
1C88F
 10
6602.22
 20
963.759
 30
0.000000
  70
    32
  0
VERTEX
  8
01
  5
1C890
 10
6602.21
 20
963.753
 30
0.000000
  70
    32
  0
VERTEX
  8
01
  5
1C891
 10
6602.20
 20
963.748
 30
0.000000
  70
    32
  0
VERTEX
  8
01
  5
1C892
 10
6602.19
 20
963.742
 30
0.000000
  70
    32
  0
VERTEX
  8
01
  5
1C893
 10
6602.18
 20
963.737
 30
0.000000
  70
    32
  0
VERTEX
  8
01
  5
1C894
 10
6602.17
 20
963.731
 30
0.000000
  70
    32
  0
VERTEX
  8
01
  5
1C895
 10
6602.16
 20
963.726
 30
0.000000
  70
    32
  0
VERTEX
  8
01
  5
1C896
 10
6602.15
 20
963.720
 30
0.000000
  70
    32
  0
VERTEX
  8
01
  5
1C897
 10
6602.13
 20
963.715
 30
0.000000
  70
    32
  0
VERTEX
  8
01
  5
1C898
 10
6602.12
 20
963.710
 30
0.000000
  70
    32
  0
VERTEX
  8
01
  5
1C899
 10
6602.11
 20
963.705
 30
0.000000
  70
    32
  0
VERTEX
  8
01
  5
1C89A
 10
6602.10
 20
963.699
 30
0.000000
  70
    32
  0
VERTEX
  8
01
  5
1C89B
 10
6602.08
 20
963.694
 30
0.000000
  70
    32
  0
VERTEX
  8
01
  5
1C89C
 10
6602.07
 20
963.689
 30
0.000000
  70
    32
  0
VERTEX
  8
01
  5
1C89D
 10
6602.05
 20
963.684
 30
0.000000
  70
    32
  0
VERTEX
  8
01
  5
1C89E
 10
6602.04
 20
963.679
 30
0.000000
  70
    32
  0
VERTEX
  8
01
  5
1C89F
 10
6602.03
 20
963.674
 30
0.000000
  70
    32
  0
VERTEX
  8
01
  5
1C8A0
 10
6602.01
 20
963.669
 30
0.000000
  70
    32
  0
VERTEX
  8
01
  5
1C8A1
 10
6602.00
 20
963.664
 30
0.000000
  70
    32
  0
VERTEX
  8
01
  5
1C8A2
 10
6601.98
 20
963.659
 30
0.000000
  70
    32
  0
VERTEX
  8
01
  5
1C8A3
 10
6601.97
 20
963.654
 30
0.000000
  70
    32
  0
VERTEX
  8
01
  5
1C8A4
 10
6601.95
 20
963.650
 30
0.000000
  70
    32
  0
VERTEX
  8
01
  5
1C8A5
 10
6601.94
 20
963.645
 30
0.000000
  70
    32
  0
VERTEX
  8
01
  5
1C8A6
 10
6601.92
 20
963.640
 30
0.000000
  70
    32
  0
VERTEX
  8
01
  5
1C8A7
 10
6601.90
 20
963.636
 30
0.000000
  70
    32
  0
VERTEX
  8
01
  5
1C8A8
 10
6601.89
 20
963.631
 30
0.000000
  70
    32
  0
VERTEX
  8
01
  5
1C8A9
 10
6601.87
 20
963.627
 30
0.000000
  70
    32
  0
VERTEX
  8
01
  5
1C8AA
 10
6601.85
 20
963.622
 30
0.000000
  70
    32
  0
VERTEX
  8
01
  5
1C8AB
 10
6601.84
 20
963.618
 30
0.000000
  70
    32
  0
VERTEX
  8
01
  5
1C8AC
 10
6601.82
 20
963.613
 30
0.000000
  70
    32
  0
VERTEX
  8
01
  5
1C8AD
 10
6601.80
 20
963.609
 30
0.000000
  70
    32
  0
VERTEX
  8
01
  5
1C8AE
 10
6601.78
 20
963.605
 30
0.000000
  70
    32
  0
VERTEX
  8
01
  5
1C8AF
 10
6601.77
 20
963.601
 30
0.000000
  70
    32
  0
VERTEX
  8
01
  5
1C8B0
 10
6601.75
 20
963.596
 30
0.000000
  70
    32
  0
VERTEX
  8
01
  5
1C8B1
 10
6601.73
 20
963.592
 30
0.000000
  70
    32
  0
VERTEX
  8
01
  5
1C8B2
 10
6601.71
 20
963.588
 30
0.000000
  70
    32
  0
VERTEX
  8
01
  5
1C8B3
 10
6601.69
 20
963.584
 30
0.000000
  70
    32
  0
VERTEX
  8
01
  5
1C8B4
 10
6601.67
 20
963.580
 30
0.000000
  70
    32
  0
VERTEX
  8
01
  5
1C8B5
 10
6601.66
 20
963.577
 30
0.000000
  70
    32
  0
VERTEX
  8
01
  5
1C8B6
 10
6601.64
 20
963.573
 30
0.000000
  70
    32
  0
VERTEX
  8
01
  5
1C8B7
 10
6601.62
 20
963.569
 30
0.000000
  70
    32
  0
VERTEX
  8
01
  5
1C8B8
 10
6601.60
 20
963.565
 30
0.000000
  70
    32
  0
VERTEX
  8
01
  5
1C8B9
 10
6601.58
 20
963.562
 30
0.000000
  70
    32
  0
VERTEX
  8
01
  5
1C8BA
 10
6601.56
 20
963.558
 30
0.000000
  70
    32
  0
VERTEX
  8
01
  5
1C8BB
 10
6601.54
 20
963.555
 30
0.000000
  70
    32
  0
VERTEX
  8
01
  5
1C8BC
 10
6601.52
 20
963.551
 30
0.000000
  70
    32
  0
VERTEX
  8
01
  5
1C8BD
 10
6601.50
 20
963.548
 30
0.000000
  70
    32
  0
VERTEX
  8
01
  5
1C8BE
 10
6601.48
 20
963.544
 30
0.000000
  70
    32
  0
VERTEX
  8
01
  5
1C8BF
 10
6601.45
 20
963.541
 30
0.000000
  70
    32
  0
VERTEX
  8
01
  5
1C8C0
 10
6601.43
 20
963.538
 30
0.000000
  70
    32
  0
VERTEX
  8
01
  5
1C8C1
 10
6601.41
 20
963.535
 30
0.000000
  70
    32
  0
VERTEX
  8
01
  5
1C8C2
 10
6601.39
 20
963.532
 30
0.000000
  70
    32
  0
VERTEX
  8
01
  5
1C8C3
 10
6601.37
 20
963.529
 30
0.000000
  70
    32
  0
VERTEX
  8
01
  5
1C8C4
 10
6601.35
 20
963.526
 30
0.000000
  70
    32
  0
VERTEX
  8
01
  5
1C8C5
 10
6601.33
 20
963.523
 30
0.000000
  70
    32
  0
VERTEX
  8
01
  5
1C8C6
 10
6601.30
 20
963.520
 30
0.000000
  70
    32
  0
VERTEX
  8
01
  5
1C8C7
 10
6601.28
 20
963.518
 30
0.000000
  70
    32
  0
VERTEX
  8
01
  5
1C8C8
 10
6601.26
 20
963.515
 30
0.000000
  70
    32
  0
VERTEX
  8
01
  5
1C8C9
 10
6601.24
 20
963.512
 30
0.000000
  70
    32
  0
VERTEX
  8
01
  5
1C8CA
 10
6601.22
 20
963.510
 30
0.000000
  70
    32
  0
VERTEX
  8
01
  5
1C8CB
 10
6601.19
 20
963.507
 30
0.000000
  70
    32
  0
VERTEX
  8
01
  5
1C8CC
 10
6601.17
 20
963.505
 30
0.000000
  70
    32
  0
VERTEX
  8
01
  5
1C8CD
 10
6601.15
 20
963.503
 30
0.000000
  70
    32
  0
VERTEX
  8
01
  5
1C8CE
 10
6601.13
 20
963.500
 30
0.000000
  70
    32
  0
VERTEX
  8
01
  5
1C8CF
 10
6601.10
 20
963.498
 30
0.000000
  70
    32
  0
VERTEX
  8
01
  5
1C8D0
 10
6601.08
 20
963.496
 30
0.000000
  70
    32
  0
VERTEX
  8
01
  5
1C8D1
 10
6601.06
 20
963.494
 30
0.000000
  70
    32
  0
VERTEX
  8
01
  5
1C8D2
 10
6601.03
 20
963.492
 30
0.000000
  70
    32
  0
VERTEX
  8
01
  5
1C8D3
 10
6601.01
 20
963.490
 30
0.000000
  70
    32
  0
VERTEX
  8
01
  5
1C8D4
 10
6600.99
 20
963.488
 30
0.000000
  70
    32
  0
VERTEX
  8
01
  5
1C8D5
 10
6600.96
 20
963.487
 30
0.000000
  70
    32
  0
VERTEX
  8
01
  5
1C8D6
 10
6600.94
 20
963.485
 30
0.000000
  70
    32
  0
VERTEX
  8
01
  5
1C8D7
 10
6600.92
 20
963.483
 30
0.000000
  70
    32
  0
VERTEX
  8
01
  5
1C8D8
 10
6600.89
 20
963.482
 30
0.000000
  70
    32
  0
VERTEX
  8
01
  5
1C8D9
 10
6600.87
 20
963.480
 30
0.000000
  70
    32
  0
VERTEX
  8
01
  5
1C8DA
 10
6600.84
 20
963.479
 30
0.000000
  70
    32
  0
VERTEX
  8
01
  5
1C8DB
 10
6600.82
 20
963.478
 30
0.000000
  70
    32
  0
VERTEX
  8
01
  5
1C8DC
 10
6600.80
 20
963.476
 30
0.000000
  70
    32
  0
VERTEX
  8
01
  5
1C8DD
 10
6600.77
 20
963.475
 30
0.000000
  70
    32
  0
VERTEX
  8
01
  5
1C8DE
 10
6600.75
 20
963.474
 30
0.000000
  70
    32
  0
VERTEX
  8
01
  5
1C8DF
 10
6600.72
 20
963.473
 30
0.000000
  70
    32
  0
VERTEX
  8
01
  5
1C8E0
 10
6600.70
 20
963.472
 30
0.000000
  70
    32
  0
VERTEX
  8
01
  5
1C8E1
 10
6600.67
 20
963.471
 30
0.000000
  70
    32
  0
VERTEX
  8
01
  5
1C8E2
 10
6600.65
 20
963.471
 30
0.000000
  70
    32
  0
VERTEX
  8
01
  5
1C8E3
 10
6600.63
 20
963.470
 30
0.000000
  70
    32
  0
VERTEX
  8
01
  5
1C8E4
 10
6600.60
 20
963.469
 30
0.000000
  70
    32
  0
VERTEX
  8
01
  5
1C8E5
 10
6600.58
 20
963.469
 30
0.000000
  70
    32
  0
VERTEX
  8
01
  5
1C8E6
 10
6600.55
 20
963.468
 30
0.000000
  70
    32
  0
VERTEX
  8
01
  5
1C8E7
 10
6600.53
 20
963.468
 30
0.000000
  70
    32
  0
VERTEX
  8
01
  5
1C8E8
 10
6600.50
 20
963.467
 30
0.000000
  70
    32
  0
VERTEX
  8
01
  5
1C8E9
 10
6600.48
 20
963.467
 30
0.000000
  70
    32
  0
VERTEX
  8
01
  5
1C8EA
 10
6600.45
 20
963.467
 30
0.000000
  70
    32
  0
VERTEX
  8
01
  5
1C8EB
 10
6600.43
 20
963.467
 30
0.000000
  70
    32
  0
VERTEX
  8
01
  5
1C8EC
 10
6600.41
 20
963.467
 30
0.000000
  70
    32
  0
SEQEND
  8
01
  5
1C8ED
  0
POLYLINE
  5
1BBEF
  8
01
 10
6614.65557373514
 20
945.39930145681035
 30
0.0
 66
     1
 70
     8
  0
VERTEX
  8
01
  5
1C8EE
 10
6614.66
 20
945.399
 30
0.000000
  70
    32
  0
VERTEX
  8
01
  5
1C8EF
 10
6614.65
 20
945.377
 30
0.000000
  70
    32
  0
VERTEX
  8
01
  5
1C8F0
 10
6614.64
 20
945.355
 30
0.000000
  70
    32
  0
VERTEX
  8
01
  5
1C8F1
 10
6614.62
 20
945.333
 30
0.000000
  70
    32
  0
VERTEX
  8
01
  5
1C8F2
 10
6614.59
 20
945.312
 30
0.000000
  70
    32
  0
VERTEX
  8
01
  5
1C8F3
 10
6614.56
 20
945.290
 30
0.000000
  70
    32
  0
VERTEX
  8
01
  5
1C8F4
 10
6614.52
 20
945.269
 30
0.000000
  70
    32
  0
VERTEX
  8
01
  5
1C8F5
 10
6614.47
 20
945.248
 30
0.000000
  70
    32
  0
VERTEX
  8
01
  5
1C8F6
 10
6614.41
 20
945.227
 30
0.000000
  70
    32
  0
VERTEX
  8
01
  5
1C8F7
 10
6614.34
 20
945.207
 30
0.000000
  70
    32
  0
VERTEX
  8
01
  5
1C8F8
 10
6614.27
 20
945.187
 30
0.000000
  70
    32
  0
VERTEX
  8
01
  5
1C8F9
 10
6614.19
 20
945.168
 30
0.000000
  70
    32
  0
VERTEX
  8
01
  5
1C8FA
 10
6614.11
 20
945.149
 30
0.000000
  70
    32
  0
VERTEX
  8
01
  5
1C8FB
 10
6614.02
 20
945.131
 30
0.000000
  70
    32
  0
VERTEX
  8
01
  5
1C8FC
 10
6613.92
 20
945.114
 30
0.000000
  70
    32
  0
VERTEX
  8
01
  5
1C8FD
 10
6613.81
 20
945.097
 30
0.000000
  70
    32
  0
VERTEX
  8
01
  5
1C8FE
 10
6613.70
 20
945.081
 30
0.000000
  70
    32
  0
VERTEX
  8
01
  5
1C8FF
 10
6613.59
 20
945.066
 30
0.000000
  70
    32
  0
VERTEX
  8
01
  5
1C900
 10
6613.47
 20
945.051
 30
0.000000
  70
    32
  0
VERTEX
  8
01
  5
1C901
 10
6613.34
 20
945.038
 30
0.000000
  70
    32
  0
VERTEX
  8
01
  5
1C902
 10
6613.21
 20
945.025
 30
0.000000
  70
    32
  0
VERTEX
  8
01
  5
1C903
 10
6613.08
 20
945.013
 30
0.000000
  70
    32
  0
VERTEX
  8
01
  5
1C904
 10
6612.94
 20
945.002
 30
0.000000
  70
    32
  0
VERTEX
  8
01
  5
1C905
 10
6612.80
 20
944.993
 30
0.000000
  70
    32
  0
VERTEX
  8
01
  5
1C906
 10
6612.65
 20
944.984
 30
0.000000
  70
    32
  0
VERTEX
  8
01
  5
1C907
 10
6612.50
 20
944.976
 30
0.000000
  70
    32
  0
VERTEX
  8
01
  5
1C908
 10
6612.35
 20
944.969
 30
0.000000
  70
    32
  0
VERTEX
  8
01
  5
1C909
 10
6612.20
 20
944.963
 30
0.000000
  70
    32
  0
VERTEX
  8
01
  5
1C90A
 10
6612.04
 20
944.958
 30
0.000000
  70
    32
  0
VERTEX
  8
01
  5
1C90B
 10
6611.88
 20
944.954
 30
0.000000
  70
    32
  0
VERTEX
  8
01
  5
1C90C
 10
6611.72
 20
944.951
 30
0.000000
  70
    32
  0
VERTEX
  8
01
  5
1C90D
 10
6611.57
 20
944.950
 30
0.000000
  70
    32
  0
VERTEX
  8
01
  5
1C90E
 10
6611.41
 20
944.949
 30
0.000000
  70
    32
  0
VERTEX
  8
01
  5
1C90F
 10
6611.25
 20
944.950
 30
0.000000
  70
    32
  0
VERTEX
  8
01
  5
1C910
 10
6611.09
 20
944.951
 30
0.000000
  70
    32
  0
VERTEX
  8
01
  5
1C911
 10
6610.93
 20
944.954
 30
0.000000
  70
    32
  0
VERTEX
  8
01
  5
1C912
 10
6610.77
 20
944.958
 30
0.000000
  70
    32
  0
VERTEX
  8
01
  5
1C913
 10
6610.62
 20
944.963
 30
0.000000
  70
    32
  0
VERTEX
  8
01
  5
1C914
 10
6610.46
 20
944.969
 30
0.000000
  70
    32
  0
VERTEX
  8
01
  5
1C915
 10
6610.31
 20
944.976
 30
0.000000
  70
    32
  0
VERTEX
  8
01
  5
1C916
 10
6610.16
 20
944.984
 30
0.000000
  70
    32
  0
VERTEX
  8
01
  5
1C917
 10
6610.02
 20
944.993
 30
0.000000
  70
    32
  0
VERTEX
  8
01
  5
1C918
 10
6609.87
 20
945.002
 30
0.000000
  70
    32
  0
VERTEX
  8
01
  5
1C919
 10
6609.73
 20
945.013
 30
0.000000
  70
    32
  0
VERTEX
  8
01
  5
1C91A
 10
6609.60
 20
945.025
 30
0.000000
  70
    32
  0
VERTEX
  8
01
  5
1C91B
 10
6609.47
 20
945.038
 30
0.000000
  70
    32
  0
VERTEX
  8
01
  5
1C91C
 10
6609.34
 20
945.051
 30
0.000000
  70
    32
  0
VERTEX
  8
01
  5
1C91D
 10
6609.22
 20
945.066
 30
0.000000
  70
    32
  0
VERTEX
  8
01
  5
1C91E
 10
6609.11
 20
945.081
 30
0.000000
  70
    32
  0
VERTEX
  8
01
  5
1C91F
 10
6609.00
 20
945.097
 30
0.000000
  70
    32
  0
VERTEX
  8
01
  5
1C920
 10
6608.89
 20
945.114
 30
0.000000
  70
    32
  0
VERTEX
  8
01
  5
1C921
 10
6608.80
 20
945.131
 30
0.000000
  70
    32
  0
VERTEX
  8
01
  5
1C922
 10
6608.70
 20
945.149
 30
0.000000
  70
    32
  0
VERTEX
  8
01
  5
1C923
 10
6608.62
 20
945.168
 30
0.000000
  70
    32
  0
VERTEX
  8
01
  5
1C924
 10
6608.54
 20
945.187
 30
0.000000
  70
    32
  0
VERTEX
  8
01
  5
1C925
 10
6608.47
 20
945.207
 30
0.000000
  70
    32
  0
VERTEX
  8
01
  5
1C926
 10
6608.40
 20
945.227
 30
0.000000
  70
    32
  0
VERTEX
  8
01
  5
1C927
 10
6608.35
 20
945.248
 30
0.000000
  70
    32
  0
VERTEX
  8
01
  5
1C928
 10
6608.30
 20
945.269
 30
0.000000
  70
    32
  0
VERTEX
  8
01
  5
1C929
 10
6608.25
 20
945.290
 30
0.000000
  70
    32
  0
VERTEX
  8
01
  5
1C92A
 10
6608.22
 20
945.312
 30
0.000000
  70
    32
  0
VERTEX
  8
01
  5
1C92B
 10
6608.19
 20
945.333
 30
0.000000
  70
    32
  0
VERTEX
  8
01
  5
1C92C
 10
6608.17
 20
945.355
 30
0.000000
  70
    32
  0
VERTEX
  8
01
  5
1C92D
 10
6608.16
 20
945.377
 30
0.000000
  70
    32
  0
VERTEX
  8
01
  5
1C92E
 10
6608.16
 20
945.399
 30
0.000000
  70
    32
  0
VERTEX
  8
01
  5
1C92F
 10
6608.16
 20
945.421
 30
0.000000
  70
    32
  0
VERTEX
  8
01
  5
1C930
 10
6608.17
 20
945.443
 30
0.000000
  70
    32
  0
VERTEX
  8
01
  5
1C931
 10
6608.19
 20
945.465
 30
0.000000
  70
    32
  0
VERTEX
  8
01
  5
1C932
 10
6608.22
 20
945.487
 30
0.000000
  70
    32
  0
VERTEX
  8
01
  5
1C933
 10
6608.25
 20
945.509
 30
0.000000
  70
    32
  0
VERTEX
  8
01
  5
1C934
 10
6608.30
 20
945.530
 30
0.000000
  70
    32
  0
VERTEX
  8
01
  5
1C935
 10
6608.35
 20
945.551
 30
0.000000
  70
    32
  0
VERTEX
  8
01
  5
1C936
 10
6608.40
 20
945.572
 30
0.000000
  70
    32
  0
VERTEX
  8
01
  5
1C937
 10
6608.47
 20
945.592
 30
0.000000
  70
    32
  0
VERTEX
  8
01
  5
1C938
 10
6608.54
 20
945.611
 30
0.000000
  70
    32
  0
VERTEX
  8
01
  5
1C939
 10
6608.62
 20
945.631
 30
0.000000
  70
    32
  0
VERTEX
  8
01
  5
1C93A
 10
6608.70
 20
945.649
 30
0.000000
  70
    32
  0
VERTEX
  8
01
  5
1C93B
 10
6608.80
 20
945.667
 30
0.000000
  70
    32
  0
VERTEX
  8
01
  5
1C93C
 10
6608.89
 20
945.685
 30
0.000000
  70
    32
  0
VERTEX
  8
01
  5
1C93D
 10
6609.00
 20
945.702
 30
0.000000
  70
    32
  0
VERTEX
  8
01
  5
1C93E
 10
6609.11
 20
945.717
 30
0.000000
  70
    32
  0
VERTEX
  8
01
  5
1C93F
 10
6609.22
 20
945.733
 30
0.000000
  70
    32
  0
VERTEX
  8
01
  5
1C940
 10
6609.34
 20
945.747
 30
0.000000
  70
    32
  0
VERTEX
  8
01
  5
1C941
 10
6609.47
 20
945.761
 30
0.000000
  70
    32
  0
VERTEX
  8
01
  5
1C942
 10
6609.60
 20
945.773
 30
0.000000
  70
    32
  0
VERTEX
  8
01
  5
1C943
 10
6609.73
 20
945.785
 30
0.000000
  70
    32
  0
VERTEX
  8
01
  5
1C944
 10
6609.87
 20
945.796
 30
0.000000
  70
    32
  0
VERTEX
  8
01
  5
1C945
 10
6610.02
 20
945.806
 30
0.000000
  70
    32
  0
VERTEX
  8
01
  5
1C946
 10
6610.16
 20
945.815
 30
0.000000
  70
    32
  0
VERTEX
  8
01
  5
1C947
 10
6610.31
 20
945.823
 30
0.000000
  70
    32
  0
VERTEX
  8
01
  5
1C948
 10
6610.46
 20
945.830
 30
0.000000
  70
    32
  0
VERTEX
  8
01
  5
1C949
 10
6610.62
 20
945.836
 30
0.000000
  70
    32
  0
VERTEX
  8
01
  5
1C94A
 10
6610.77
 20
945.841
 30
0.000000
  70
    32
  0
VERTEX
  8
01
  5
1C94B
 10
6610.93
 20
945.844
 30
0.000000
  70
    32
  0
VERTEX
  8
01
  5
1C94C
 10
6611.09
 20
945.847
 30
0.000000
  70
    32
  0
VERTEX
  8
01
  5
1C94D
 10
6611.25
 20
945.849
 30
0.000000
  70
    32
  0
VERTEX
  8
01
  5
1C94E
 10
6611.41
 20
945.849
 30
0.000000
  70
    32
  0
VERTEX
  8
01
  5
1C94F
 10
6611.57
 20
945.849
 30
0.000000
  70
    32
  0
VERTEX
  8
01
  5
1C950
 10
6611.72
 20
945.847
 30
0.000000
  70
    32
  0
VERTEX
  8
01
  5
1C951
 10
6611.88
 20
945.844
 30
0.000000
  70
    32
  0
VERTEX
  8
01
  5
1C952
 10
6612.04
 20
945.841
 30
0.000000
  70
    32
  0
VERTEX
  8
01
  5
1C953
 10
6612.20
 20
945.836
 30
0.000000
  70
    32
  0
VERTEX
  8
01
  5
1C954
 10
6612.35
 20
945.830
 30
0.000000
  70
    32
  0
VERTEX
  8
01
  5
1C955
 10
6612.50
 20
945.823
 30
0.000000
  70
    32
  0
VERTEX
  8
01
  5
1C956
 10
6612.65
 20
945.815
 30
0.000000
  70
    32
  0
VERTEX
  8
01
  5
1C957
 10
6612.80
 20
945.806
 30
0.000000
  70
    32
  0
VERTEX
  8
01
  5
1C958
 10
6612.94
 20
945.796
 30
0.000000
  70
    32
  0
VERTEX
  8
01
  5
1C959
 10
6613.08
 20
945.785
 30
0.000000
  70
    32
  0
VERTEX
  8
01
  5
1C95A
 10
6613.21
 20
945.773
 30
0.000000
  70
    32
  0
VERTEX
  8
01
  5
1C95B
 10
6613.34
 20
945.761
 30
0.000000
  70
    32
  0
VERTEX
  8
01
  5
1C95C
 10
6613.47
 20
945.747
 30
0.000000
  70
    32
  0
VERTEX
  8
01
  5
1C95D
 10
6613.59
 20
945.733
 30
0.000000
  70
    32
  0
VERTEX
  8
01
  5
1C95E
 10
6613.70
 20
945.717
 30
0.000000
  70
    32
  0
VERTEX
  8
01
  5
1C95F
 10
6613.81
 20
945.702
 30
0.000000
  70
    32
  0
VERTEX
  8
01
  5
1C960
 10
6613.92
 20
945.685
 30
0.000000
  70
    32
  0
VERTEX
  8
01
  5
1C961
 10
6614.02
 20
945.667
 30
0.000000
  70
    32
  0
VERTEX
  8
01
  5
1C962
 10
6614.11
 20
945.649
 30
0.000000
  70
    32
  0
VERTEX
  8
01
  5
1C963
 10
6614.19
 20
945.631
 30
0.000000
  70
    32
  0
VERTEX
  8
01
  5
1C964
 10
6614.27
 20
945.611
 30
0.000000
  70
    32
  0
VERTEX
  8
01
  5
1C965
 10
6614.34
 20
945.592
 30
0.000000
  70
    32
  0
VERTEX
  8
01
  5
1C966
 10
6614.41
 20
945.572
 30
0.000000
  70
    32
  0
VERTEX
  8
01
  5
1C967
 10
6614.47
 20
945.551
 30
0.000000
  70
    32
  0
VERTEX
  8
01
  5
1C968
 10
6614.52
 20
945.530
 30
0.000000
  70
    32
  0
VERTEX
  8
01
  5
1C969
 10
6614.56
 20
945.509
 30
0.000000
  70
    32
  0
VERTEX
  8
01
  5
1C96A
 10
6614.59
 20
945.487
 30
0.000000
  70
    32
  0
VERTEX
  8
01
  5
1C96B
 10
6614.62
 20
945.465
 30
0.000000
  70
    32
  0
VERTEX
  8
01
  5
1C96C
 10
6614.64
 20
945.443
 30
0.000000
  70
    32
  0
VERTEX
  8
01
  5
1C96D
 10
6614.65
 20
945.421
 30
0.000000
  70
    32
  0
VERTEX
  8
01
  5
1C96E
 10
6614.66
 20
945.399
 30
0.000000
  70
    32
  0
SEQEND
  8
01
  5
1C96F
  0
LINE
  5
1BD6B
  8
01
 10
6729.9055697351387
 20
955.62930145677944
 30
0.0
 11
6764.9055697351396
 21
955.62930145677944
 31
0.0
  0
LINE
  5
1BD6C
  8
01
 10
6794.9055697351387
 20
955.62930145677944
 30
0.0
 11
6829.9055697351387
 21
955.62930145677944
 31
0.0
  0
LINE
  5
1BD6D
  8
01
 10
6797.7772843527082
 20
955.62930145677944
 30
0.0
 11
6820.4055697351396
 21
955.62930145677944
 31
0.0
  0
LINE
  5
1BD6E
  8
01
 10
6808.90556973198
 20
944.62930145803705
 30
0.0
 11
6858.044217571729
 21
951.50871215582356
 31
-0.0000000000000559
  0
ARC
  5
1BD6F
  8
01
 10
6857.9055697271906
 20
952.49905390249762
 30
0.000000000003587
 40
1.0
 50
277.96961039455022
 51
0.0
  0
LINE
  5
1BD70
  8
01
 10
6858.0247149478228
 20
960.73500403157345
 30
0.0
 11
6808.9055697334861
 21
966.62930145803716
 31
0.0
  0
LINE
  5
1BD71
  8
01
 10
6858.9055697271897
 20
959.742127193089
 30
0.0
 11
6858.9055697271906
 21
952.49905390249762
 31
0.0000000000000061
  0
ARC
  5
1BD72
  8
01
 10
6857.9055697271906
 20
959.742127193089
 30
0.0
 40
1.0
 50
0.0
 51
83.157226586523876
  0
LINE
  5
1BD73
  8
01
 10
6808.905569736793
 20
944.62930145803602
 30
0.0
 11
6808.9055697334861
 21
966.62930145803716
 31
0.0
  0
LINE
  5
1BD74
  8
01
 10
6814.4055697351387
 20
939.23604421960783
 30
0.0
 11
6814.4055697351387
 21
951.23604421960783
 31
0.0
  0
LINE
  5
1BD75
  8
01
 10
6750.9055697382992
 20
944.62930145803705
 30
0.0
 11
6701.7669218985493
 21
951.50871215582356
 31
-0.0000000000000559
  0
ARC
  5
1BD76
  8
01
 10
6701.9055697430867
 20
952.49905390249762
 30
0.000000000003587
 40
1.0
 50
180.0
 51
262.03038960544973
  0
LINE
  5
1BD77
  8
01
 10
6701.7864245224564
 20
960.73500403157345
 30
0.0
 11
6750.905569736793
 21
966.62930145803716
 31
0.0
  0
LINE
  5
1BD78
  8
01
 10
6700.9055697430877
 20
959.742127193089
 30
0.0
 11
6700.9055697430877
 21
952.49905390249762
 31
0.0000000000000061
  0
ARC
  5
1BD79
  8
01
 10
6701.9055697430886
 20
959.742127193089
 30
0.0
 40
1.0
 50
96.842773413476095
 51
180.0
  0
LINE
  5
1BD7A
  8
01
 10
6750.9055697334861
 20
944.62930145803602
 30
0.0
 11
6750.905569736793
 21
966.62930145803716
 31
0.0
  0
LINE
  5
1BD7B
  8
01
 10
6745.4055697351387
 20
939.23604421960783
 30
0.0
 11
6745.4055697351387
 21
951.23604421960783
 31
0.0
  0
LINE
  5
1BF9C
  8
01
 10
6779.9055697351387
 20
1004.835285082581
 30
0.0
 11
6779.9055697351387
 21
990.42331783097711
 31
0.0
  0
LINE
  5
1BF9D
  8
01
 10
6779.9055697351387
 20
830.83528508258155
 30
0.0
 11
6779.9055697351387
 21
816.42331783097711
 31
0.0
  0
LINE
  5
1C198
  8
01
 10
6750.1463194031112
 20
865.62930145678126
 30
0.0
 11
6762.1463194031112
 21
865.62930145678126
 31
0.0
  0
LINE
  5
1C199
  8
01
 10
6797.3552984327589
 20
865.62930145678126
 30
-0.0000000001125151
 11
6809.3552984327589
 21
865.62930145678126
 31
-0.0000000001125151
  0
LINE
  5
1C19A
  8
01
 10
6799.9055570107212
 20
886.77927477280934
 30
0.0
 11
6799.9055904596007
 21
844.47927473501329
 31
0.0
  0
LINE
  5
1C19B
  8
01
 10
6799.9055570107212
 20
886.77927477280934
 30
0.0
 11
6807.9143803492352
 21
886.63794893122622
 31
0.0
  0
ARC
  5
1C19C
  8
01
 10
6807.9055585887227
 20
886.13802676074215
 30
0.0
 40
0.5
 50
0.0000453068554882
 51
88.989048254533827
  0
LINE
  5
1C19D
  8
01
 10
6808.4055585887209
 20
886.1380271561186
 30
0.0
 11
6808.4055910234547
 21
845.12053539914029
 31
0.0
  0
LINE
  5
1C19E
  8
01
 10
6807.9144135745973
 20
844.6206132426089
 30
0.0
 11
6799.9055904596007
 21
844.47927473501329
 31
0.0
  0
ARC
  5
1C19F
  8
01
 10
6807.9055910234538
 20
845.12053539914029
 30
0.0
 40
0.5
 50
271.01104235916142
 51
0.0000453068554882
  0
LINE
  5
1C1A0
  8
01
 10
6809.0056267242799
 20
866.62930157043627
 30
0.0000000000562575
 11
6809.0056266259289
 21
868.87928846841385
 31
0.0000000000562575
  0
LINE
  5
1C1A1
  8
01
 10
6809.0056268117014
 20
864.62930157043616
 30
0.0000000000562575
 11
6809.0056269100533
 21
862.37928846841555
 31
0.0000000000562575
  0
LINE
  5
1C1A2
  8
01
 10
6809.0056267242799
 20
866.62930157043627
 30
0.0000000000562575
 11
6808.4055740153171
 21
866.62930154420735
 31
0.0000000000562575
  0
LINE
  5
1C1A3
  8
01
 10
6809.0056268117014
 20
864.62930157043616
 30
0.0000000000562575
 11
6808.4055755968247
 21
864.62930154420735
 31
0.0000000000562575
  0
ARC
  5
1C1A4
  8
01
 10
6808.0055361951181
 20
862.37930095518027
 30
0.000000023298918
 40
1.0
210
0.0000000000027512
220
0.0000000000052287
230
1.0
 50
293.5807982271221
 51
359.99928456082131
  0
ARC
  5
1C1A5
  8
01
 10
6808.0056112339826
 20
868.8793009551822
 30
0.0000007427249079
 40
1.0
210
0.0000000001084106
220
0.0000000000052273
230
1.0
 50
359.99928456082131
 51
66.424304750198559
  0
LINE
  5
1C1A8
  8
01
 10
6759.9055904595589
 20
886.77927477280934
 30
0.0
 11
6759.9055570106793
 21
844.47927473501329
 31
0.0
  0
LINE
  5
1C1A9
  8
01
 10
6759.9055904595589
 20
886.77927477280934
 30
0.0
 11
6751.8967671210448
 21
886.63794893122508
 31
0.0
  0
ARC
  5
1C1AA
  8
01
 10
6751.9055888815574
 20
886.13802676074135
 30
0.0
 40
0.5
 50
91.010951745466173
 51
179.9999546931445
  0
LINE
  5
1C1AB
  8
01
 10
6751.4055888815556
 20
886.1380271561186
 30
0.0
 11
6751.4055564468254
 21
845.12053579451663
 31
0.0
  0
LINE
  5
1C1AC
  8
01
 10
6751.8967338956827
 20
844.62061324260799
 30
0.0
 11
6759.9055570106793
 21
844.47927473501329
 31
0.0
  0
ARC
  5
1C1AD
  8
01
 10
6751.9055564468263
 20
845.12053539914029
 30
0.0
 40
0.5
 50
179.9999546931445
 51
268.98895764083858
  0
LINE
  5
1C1AE
  8
01
 10
6750.4055765898538
 20
878.12905762614025
 30
0.0000000000562575
 11
6750.4055765898538
 21
853.12905762614025
 31
0.0000000000562575
  0
LINE
  5
1C1AF
  8
01
 10
6736.4055769723291
 20
878.12905762614025
 30
0.0000000000562575
 11
6736.4055769723291
 21
853.12905762614025
 31
0.0000000000562575
  0
LINE
  5
1C1B0
  8
01
 10
6736.9055769723291
 20
878.62905762614025
 30
0.0000000000562575
 11
6751.4055829438103
 21
878.62905762614025
 31
0.0000000000562575
  0
ARC
  5
1C1B1
  8
01
 10
6736.9055769723291
 20
878.12905762614025
 30
0.0000000000562575
 40
0.5
 50
90.0
 51
180.0
  0
LINE
  5
1C1B2
  8
01
 10
6736.9055769723291
 20
852.62905762614025
 30
0.0000000000562575
 11
6751.405562384215
 21
852.62905762614025
 31
0.0000000000562575
  0
ARC
  5
1C1B3
  8
01
 10
6736.9055769723291
 20
853.12905762614025
 30
0.0000000000562575
 40
0.5
 50
180.0
 51
270.0
  0
ARC
  5
1C1B4
  8
01
 10
6750.905576589852
 20
878.12905762614025
 30
0.0000000000562575
 40
0.5
 50
90.0
 51
180.0
  0
ARC
  5
1C1B5
  8
01
 10
6750.9055765898538
 20
853.12905762614025
 30
0.0000000000562575
 40
0.5
 50
180.0
 51
270.0
  0
LINE
  5
1C1B6
  8
01
 10
6611.4055737351391
 20
859.62930145678115
 30
0.0
 11
6611.4055737351391
 21
871.62930145678115
 31
0.0
  0
LINE
  5
1C1B7
  8
01
 10
6605.4055737351391
 20
865.62930145678126
 30
0.0
 11
6617.40557373514
 21
865.62930145678126
 31
0.0
  0
LINE
  5
1C1B8
  8
01
 10
6960.9054382442428
 20
1196.6292872511401
 30
0.0
 11
6959.4056820748856
 21
1196.629287251141
 31
0.0
  0
LINE
  5
1C1B9
  8
01
 10
6937.4056820748829
 20
1196.6292872511419
 30
0.0
 11
6935.9054382442419
 21
1196.6292872511419
 31
0.0
  0
LINE
  5
1C1BA
  8
01
 10
6961.4054382442409
 20
1196.1292872511419
 30
0.0
 11
6961.4054382442409
 21
1195.6292808971839
 31
0.0
  0
LINE
  5
1C1BB
  8
01
 10
6935.4054382442419
 20
1196.1292872511419
 30
0.0
 11
6935.4054382442419
 21
1195.62930145678
 31
0.0
  0
ARC
  5
1C1BC
  8
01
 10
6960.9054382442428
 20
1196.1292872511419
 30
0.0
 40
0.5
 50
0.0
 51
90.0
  0
ARC
  5
1C1BD
  8
01
 10
6935.9054382442419
 20
1196.1292872511419
 30
0.0
 40
0.5
 50
90.0
 51
180.0
  0
LINE
  5
1C1C7
  8
01
 10
6584.9055737351391
 20
886.12930145678126
 30
0.0
 11
6584.9055737351409
 21
845.12930145678126
 31
0.0
  0
LINE
  5
1C1C8
  8
01
 10
6637.9055737351391
 20
845.12930145678126
 30
0.0
 11
6637.9055737351391
 21
886.12930145678217
 31
0.0
  0
ARC
  5
1C1C9
  8
01
 10
6637.40557373514
 20
845.12930145678126
 30
0.0
 40
0.5
 50
270.0
 51
0.0
  0
ARC
  5
1C1CA
  8
01
 10
6637.40557373514
 20
886.12930145678217
 30
0.0
 40
0.5
 50
0.0
 51
90.0
  0
LINE
  5
1C1CB
  8
01
 10
6637.40557373514
 20
844.62930145678115
 30
0.0
 11
6585.40557373514
 21
844.62930145678115
 31
0.0
  0
ARC
  5
1C1CC
  8
01
 10
6585.40557373514
 20
845.12930145678126
 30
0.0
 40
0.5
 50
180.0
 51
270.0
  0
LINE
  5
1C1CD
  8
01
 10
6637.40557373514
 20
886.62930145678206
 30
0.0
 11
6585.4055737351391
 21
886.62930145678115
 31
0.0
  0
ARC
  5
1C1CE
  8
01
 10
6585.4055737351391
 20
886.12930145678126
 30
0.0
 40
0.5
 50
90.0
 51
180.0
  0
CIRCLE
  5
1C1CF
  8
01
 10
6611.4055737351391
 20
865.62930145678126
 30
0.0
 40
13.50000000000227
  0
ARC
  5
1C1D0
  8
01
 10
6611.4055737351391
 20
865.62930145678126
 30
0.0
 40
13.00000000000227
 50
257.76041684387508
 51
282.23958315612492
  0
LINE
  5
1C1D1
  8
01
 10
6614.5555737351397
 20
853.41343063231704
 30
0.0
 11
6614.5555737351397
 21
877.84517228124639
 31
0.0
  0
LINE
  5
1C1D2
  8
01
 10
6608.2555737351386
 20
853.41343063231704
 30
0.0
 11
6608.2555737351386
 21
877.84517228124548
 31
0.0
  0
ARC
  5
1C1D3
  8
01
 10
6608.7555737351377
 20
853.41343063231704
 30
0.0
 40
0.5
 50
180.0
 51
257.76041684387508
  0
ARC
  5
1C1D4
  8
01
 10
6614.0555737351388
 20
853.41343063231704
 30
0.0
 40
0.5
 50
282.23958315612492
 51
0.0
  0
ARC
  5
1C1D5
  8
01
 10
6608.7555737351377
 20
877.84517228124548
 30
0.0
 40
0.5
 50
102.23958315612489
 51
180.0
  0
ARC
  5
1C1D6
  8
01
 10
6614.0555737351388
 20
877.84517228124548
 30
0.0
 40
0.5
 50
0.0000000000521102
 51
77.760416843875063
  0
ARC
  5
1C1D7
  8
01
 10
6611.4055737351391
 20
865.62930145678126
 30
0.0
 40
13.00000000000227
 50
77.760416843875063
 51
102.23958315612489
  0
LINE
  5
1C1EE
  8
01
 10
6921.9056820748856
 20
1147.1293014567791
 30
0.0
 11
6974.9056820748829
 21
1147.1293014567791
 31
0.0
  0
LINE
  5
1C1EF
  8
01
 10
6922.4056820748847
 20
1138.6293014567791
 30
0.0
 11
6974.405682074882
 21
1138.6293014567791
 31
0.0
  0
LINE
  5
1C1F0
  8
01
 10
6974.9056820748829
 20
1147.1293014567791
 30
0.0
 11
6974.9056820748829
 21
1139.1293014567791
 31
0.0
  0
LINE
  5
1C1F1
  8
01
 10
6921.9056820748856
 20
1147.1293014567791
 30
0.0
 11
6921.9056820748856
 21
1139.1293014567791
 31
0.0
  0
ARC
  5
1C1F2
  8
01
 10
6922.4056820748847
 20
1139.1293014567791
 30
0.0
 40
0.5
 50
180.0
 51
270.0
  0
ARC
  5
1C1F3
  8
01
 10
6974.405682074882
 20
1139.1293014567791
 30
0.0
 40
0.5
 50
270.0
 51
0.0
  0
LINE
  5
1C1F4
  8
01
 10
6799.9055697351387
 20
929.12930145678217
 30
0.0
 11
6799.9055697351387
 21
982.12930145677933
 31
0.0
  0
LINE
  5
1C1F5
  8
01
 10
6808.4055697351396
 20
929.62930145678206
 30
0.0
 11
6808.4055697351396
 21
981.62930145677944
 31
0.0
  0
LINE
  5
1C1F6
  8
01
 10
6799.9055697351387
 20
982.12930145677933
 30
0.0
 11
6807.9055697351387
 21
982.12930145677933
 31
0.0
  0
LINE
  5
1C1F7
  8
01
 10
6799.9055697351387
 20
929.12930145678217
 30
0.0
 11
6807.9055697351387
 21
929.12930145678217
 31
0.0
  0
ARC
  5
1C1F8
  8
01
 10
6807.9055697351387
 20
929.62930145678206
 30
0.0
 40
0.5
 50
270.0
 51
0.0
  0
ARC
  5
1C1F9
  8
01
 10
6807.9055697351387
 20
981.62930145677944
 30
0.0
 40
0.5
 50
0.0
 51
90.0
  0
LINE
  5
1C266
  8
01
 10
6637.4055737351382
 20
982.12930145677728
 30
0.0
 11
6585.4055737351409
 21
982.12930145677728
 31
0.0
  0
LINE
  5
1C267
  8
01
 10
6585.4055737351409
 20
929.12930145677751
 30
0.0
 11
6637.40557373514
 21
929.12930145677751
 31
0.0
  0
LINE
  5
1C268
  8
01
 10
6584.9055737351409
 20
981.6293014567774
 30
0.0
 11
6584.9055737351428
 21
963.13818076744292
 31
0.0
  0
ARC
  5
1C269
  8
01
 10
6585.4055737351409
 20
929.6293014567774
 30
0.0
 40
0.5
 50
180.0
 51
270.0
  0
ARC
  5
1C26A
  8
01
 10
6585.4055737351409
 20
981.6293014567774
 30
0.0
 40
0.5
 50
90.0
 51
180.0
  0
LINE
  5
1C26B
  8
01
 10
6637.9055737351382
 20
981.6293014567774
 30
0.0
 11
6637.9055737351391
 21
929.6293014567774
 31
0.0
  0
ARC
  5
1C26C
  8
01
 10
6637.40557373514
 20
929.6293014567774
 30
0.0
 40
0.5
 50
270.0
 51
0.0
  0
ARC
  5
1C26D
  8
01
 10
6637.4055737351382
 20
981.6293014567774
 30
0.0
 40
0.5
 50
0.0
 51
90.0
  0
LINE
  5
1C26E
  8
01
 10
6759.9055697351396
 20
929.12930145678217
 30
0.0
 11
6759.9055697351396
 21
982.12930145677933
 31
0.0
  0
LINE
  5
1C26F
  8
01
 10
6751.4055697351396
 20
929.62930145678206
 30
0.0
 11
6751.4055697351396
 21
981.62930145677944
 31
0.0
  0
LINE
  5
1C270
  8
01
 10
6759.9055697351396
 20
982.12930145677933
 30
0.0
 11
6751.9055697351387
 21
982.12930145677933
 31
0.0
  0
LINE
  5
1C271
  8
01
 10
6759.9055697351396
 20
929.12930145678217
 30
0.0
 11
6751.9055697351387
 21
929.12930145678217
 31
0.0
  0
ARC
  5
1C272
  8
01
 10
6751.9055697351387
 20
929.62930145678206
 30
0.0
 40
0.5
 50
180.0
 51
270.0
  0
ARC
  5
1C273
  8
01
 10
6751.9055697351387
 20
981.62930145677944
 30
0.0
 40
0.5
 50
90.0
 51
180.0
  0
LINE
  5
1C275
  8
01
 10
6948.40556573514
 20
859.62930145677933
 30
-0.0000000000562575
 11
6948.40556573514
 21
871.62930145677944
 31
-0.0000000000562575
  0
LINE
  5
1C276
  8
01
 10
6942.40556573514
 20
865.62930145677933
 30
-0.0000000000562575
 11
6954.40556573514
 21
865.62930145677933
 31
-0.0000000000562575
  0
LINE
  5
1C277
  8
01
 10
6921.905565735141
 20
886.12930145677933
 30
-0.0000000000562575
 11
6921.905565735141
 21
845.12930145677933
 31
-0.0000000000562575
  0
LINE
  5
1C278
  8
01
 10
6974.905565735141
 20
845.12930145677933
 30
-0.0000000000562575
 11
6974.905565735141
 21
886.12930145677933
 31
-0.0000000000562575
  0
ARC
  5
1C279
  8
01
 10
6974.4055657351391
 20
845.12930145677933
 30
-0.0000000000562575
 40
0.5
 50
270.0
 51
0.0
  0
ARC
  5
1C27A
  8
01
 10
6974.4055657351391
 20
886.12930145677933
 30
-0.0000000000562575
 40
0.5
 50
0.0
 51
90.0
  0
LINE
  5
1C27B
  8
01
 10
6974.4055657351391
 20
844.62930145677933
 30
-0.0000000000562575
 11
6922.405565735141
 21
844.62930145677933
 31
-0.0000000000562575
  0
ARC
  5
1C27C
  8
01
 10
6922.405565735141
 20
845.12930145677933
 30
-0.0000000000562575
 40
0.5
 50
180.0
 51
270.0
  0
LINE
  5
1C27D
  8
01
 10
6974.4055657351391
 20
886.62930145677922
 30
-0.0000000000562575
 11
6922.4055657351391
 21
886.62930145677922
 31
-0.0000000000562575
  0
ARC
  5
1C27E
  8
01
 10
6922.4055657351391
 20
886.12930145677933
 30
-0.0000000000562575
 40
0.5
 50
90.0
 51
180.0
  0
LINE
  5
1C27F
  8
01
 10
6952.7930487122958
 20
864.62930145677944
 30
-0.0000000000562575
 11
6944.0180827579852
 21
864.62930145677944
 31
-0.0000000000562575
  0
CIRCLE
  5
1C280
  8
01
 10
6948.40556573514
 20
865.62930145677933
 30
-0.0000000001125151
 40
4.5000007638701609
  0
LINE
  5
1C283
  8
01
 10
6952.7930487122958
 20
866.62930145677933
 30
-0.0000000000562575
 11
6944.0180827579852
 21
866.62930145677933
 31
-0.0000000000562575
  0
LINE
  5
1C285
  8
01
 10
6974.4055657351391
 20
982.12930145677728
 30
0.0
 11
6922.405565735141
 21
982.12930145677728
 31
0.0
  0
LINE
  5
1C286
  8
01
 10
6922.405565735141
 20
929.12930145677751
 30
0.0
 11
6974.4055657351391
 21
929.12930145677751
 31
0.0
  0
LINE
  5
1C287
  8
01
 10
6921.9055657351419
 20
981.6293014567774
 30
0.0
 11
6921.9055657351419
 21
929.6293014567774
 31
0.0
  0
ARC
  5
1C288
  8
01
 10
6922.405565735141
 20
929.6293014567774
 30
0.0
 40
0.5
 50
180.0
 51
270.0
  0
ARC
  5
1C289
  8
01
 10
6922.405565735141
 20
981.6293014567774
 30
0.0
 40
0.5
 50
90.0
 51
180.0
  0
LINE
  5
1C28A
  8
01
 10
6974.9055657351391
 20
981.6293014567774
 30
0.0
 11
6974.9055657351391
 21
963.13818076744292
 31
0.0
  0
ARC
  5
1C28B
  8
01
 10
6974.4055657351391
 20
929.6293014567774
 30
0.0
 40
0.5
 50
270.0
 51
0.0
  0
ARC
  5
1C28C
  8
01
 10
6974.4055657351391
 20
981.6293014567774
 30
0.0
 40
0.5
 50
0.0
 51
90.0
  0
CIRCLE
  5
1C28D
  8
01
 10
6948.40556573514
 20
876.62930133546638
 30
0.0000000000562575
 40
2.500000593395725
  0
LINE
  5
1C2CD
  8
01
 10
6921.9056820748856
 20
1187.12930145678
 30
0.0
 11
6974.9056820748829
 21
1187.12930145678
 31
0.0
  0
LINE
  5
1C2CE
  8
01
 10
6922.4056820748847
 20
1195.62930145678
 30
0.0
 11
6974.405682074882
 21
1195.62930145678
 31
0.0
  0
LINE
  5
1C2CF
  8
01
 10
6974.9056820748829
 20
1187.12930145678
 30
0.0
 11
6974.9056820748829
 21
1195.12930145678
 31
0.0
  0
LINE
  5
1C2D0
  8
01
 10
6921.9056820748856
 20
1187.12930145678
 30
0.0
 11
6921.9056820748856
 21
1195.12930145678
 31
0.0
  0
ARC
  5
1C2D1
  8
01
 10
6922.4056820748847
 20
1195.12930145678
 30
0.0
 40
0.5
 50
90.000000000000028
 51
180.0
  0
ARC
  5
1C2D2
  8
01
 10
6974.405682074882
 20
1195.12930145678
 30
0.0
 40
0.5
 50
0.0
 51
90.000000000000028
  0
LINE
  5
1C2D5
  8
01
 10
6584.9055737351409
 20
948.57941858901575
 30
0.0
 11
6584.9055737351409
 21
929.6293014567774
 31
0.0
  0
LINE
  5
1C2D6
  8
01
 10
6974.9055657351391
 20
948.57941858901575
 30
0.0
 11
6974.905565735141
 21
929.6293014567774
 31
0.0
  0
LINE
  5
1C2D7
  8
01
 10
6973.9055657351382
 20
886.62930145677922
 30
0.0
 11
6973.90556573514
 21
844.62930145677933
 31
0.0
  0
LINE
  5
1C422
  8
01
 10
6922.405565735141
 20
982.12930145677728
 30
0.0
 11
6912.1055657351399
 21
982.12930145677728
 31
0.0
  0
LINE
  5
1C423
  8
01
 10
6922.405565735141
 20
929.12930145677751
 30
0.0
 11
6912.1055657351399
 21
929.12930145677751
 31
0.0
  0
LINE
  5
1C424
  8
01
 10
6913.4055657351391
 20
979.52930145677726
 30
0.0
 11
6913.4055657351391
 21
931.72930145677753
 31
0.0
  0
LINE
  5
1C428
  8
01
 10
6974.4055657351391
 20
886.62930145677922
 30
-0.0000000000562575
 11
6988.7055657351411
 21
886.62930145677922
 31
-0.0000000000562575
  0
LINE
  5
1C429
  8
01
 10
6973.90556573514
 20
844.62930145677933
 30
-0.0000000000562575
 11
6988.7055657351411
 21
844.62930145677933
 31
-0.0000000000562575
  0
LINE
  5
1C42A
  8
01
 10
6987.405565735141
 20
884.02930145677931
 30
-0.0000000000562575
 11
6987.405565735141
 21
847.22930145677924
 31
-0.0000000000562575
  0
LINE
  5
1C42E
  8
01
 10
6921.905565735141
 20
886.12930145677933
 30
-0.0000000000562575
 11
6921.905565735141
 21
901.42930145677917
 31
-0.0000000000562575
  0
LINE
  5
1C42F
  8
01
 10
6974.905565735141
 20
886.12930145677933
 30
-0.0000000000562575
 11
6974.905565735141
 21
901.42930145677917
 31
-0.0000000000562575
  0
LINE
  5
1C430
  8
01
 10
6924.5055657351404
 20
900.12930145677922
 30
-0.0000000000562575
 11
6972.3055657351397
 21
900.12930145677922
 31
-0.0000000000562575
  0
LINE
  5
1C434
  8
01
 10
6937.4056820748829
 20
1089.1293014599109
 30
0.0
 11
6937.4056820748829
 21
1061.8293014599101
 31
0.0
  0
LINE
  5
1C435
  8
01
 10
7073.4056820748829
 20
1088.12930145991
 30
0.0
 11
7073.4056820748829
 21
1061.8293014599101
 31
0.0
  0
LINE
  5
1C436
  8
01
 10
6940.0056820748841
 20
1063.1293014599109
 30
0.0
 11
7070.8056820748834
 21
1063.1293014599109
 31
0.0
  0
LINE
  5
1C43A
  8
01
 10
6948.4056820748838
 20
1125.6293014567791
 30
0.0
 11
6948.4056820748838
 21
1071.829301459911
 31
0.0
  0
LINE
  5
1C43B
  8
01
 10
7073.4056820748829
 20
1088.12930145991
 30
0.0
 11
7073.4056820748829
 21
1071.829301459911
 31
0.0
  0
LINE
  5
1C43C
  8
01
 10
6951.005682074885
 20
1073.1293014599109
 30
0.0
 11
7070.8056820748834
 21
1073.1293014599109
 31
0.0
  0
LINE
  5
1C440
  8
01
 10
7051.160830072231
 20
1147.1293014567791
 30
0.0
 11
7099.705682074883
 21
1147.1293014567791
 31
0.0
  0
LINE
  5
1C441
  8
01
 10
7073.4056820748829
 20
1088.12930145991
 30
0.0
 11
7099.705682074883
 21
1088.12930145991
 31
0.0
  0
LINE
  5
1C442
  8
01
 10
7098.4056820748829
 20
1144.529301456779
 30
0.0
 11
7098.4056820748829
 21
1090.7293014599099
 31
0.0
  0
LINE
  5
1C446
  8
01
 10
7051.160830072231
 20
1147.1293014567791
 30
0.0
 11
7089.705682074884
 21
1147.1293014567791
 31
0.0
  0
LINE
  5
1C447
  8
01
 10
7072.4056820748838
 20
1112.129301463066
 30
0.0
 11
7089.705682074884
 21
1112.129301463066
 31
0.0
  0
LINE
  5
1C448
  8
01
 10
7088.4056820748838
 20
1144.529301456779
 30
0.0
 11
7088.4056820748838
 21
1114.7293014630659
 31
0.0
  0
LINE
  5
1C44C
  8
01
 10
6581.4055737351391
 20
955.62930145677944
 30
0.0
 11
6571.105573735138
 21
955.62930145677944
 31
0.0
  0
LINE
  5
1C44D
  8
01
 10
6605.4055737351391
 20
865.62930145677933
 30
0.0
 11
6571.105573735138
 21
865.62930145677933
 31
0.0
  0
LINE
  5
1C44E
  8
01
 10
6572.4055737351391
 20
953.02930145677919
 30
0.0
 11
6572.4055737351391
 21
868.22930145677935
 31
0.0
  0
LINE
  5
1C452
  8
01
 10
6799.9055697351387
 20
803.33587453172674
 30
0.0
 11
6799.9055697351387
 21
789.32930145677926
 31
0.0
  0
LINE
  5
1C453
  8
01
 10
6809.0056229100528
 20
862.37928846841373
 30
0.0
 11
6809.0056229100528
 21
789.32930145677926
 31
0.0
  0
LINE
  5
1C454
  8
01
 10
6802.5055697351399
 20
790.62930145677933
 30
0.0
 11
6806.4056229100534
 21
790.62930145677933
 31
0.0
  0
LINE
  5
1C458
  8
01
 10
6759.9055697351396
 20
803.33587453172674
 30
0.0000000000562575
 11
6759.9055697351396
 21
789.32930145677926
 31
0.0000000000562575
  0
LINE
  5
1C459
  8
01
 10
6736.4055729723286
 20
853.12905762613832
 30
0.0000000000562575
 11
6736.4055729723286
 21
789.32930145677926
 31
0.0000000000562575
  0
LINE
  5
1C45A
  8
01
 10
6757.3055697351392
 20
790.62930145677933
 30
0.0000000000562575
 11
6739.0055729723299
 21
790.62930145677933
 31
0.0000000000562575
  0
LINE
  5
1C45E
  8
01
 10
6973.9064499172
 20
1174.229301456779
 30
0.0
 11
6989.3021640315837
 21
1174.229301456779
 31
0.0
  0
LINE
  5
1C45F
  8
01
 10
6973.9064499172
 20
1160.0293014567801
 30
0.0
 11
6989.3021640315837
 21
1160.0293014567801
 31
0.0
  0
LINE
  5
1C460
  8
01
 10
6988.0021640315827
 20
1171.62930145678
 30
0.0
 11
6988.0021640315827
 21
1162.62930145678
 31
0.0
  0
LINE
  5
1C461
  8
01
 10
6988.0021640315827
 20
1160.0293014567801
 30
0.0
 11
6988.0021640315827
 21
1129.8109953802059
 31
0.0
  0
LINE
  5
1C465
  8
01
 10
6779.9055697351387
 20
1008.629301456779
 30
0.0
 11
6841.2055697351407
 21
1008.629301456779
 31
0.0
  0
LINE
  5
1C466
  8
01
 10
6779.9055697351387
 20
812.62930145677831
 30
0.0
 11
6841.2055697351407
 21
812.62930145677831
 31
0.0
  0
LINE
  5
1C467
  8
01
 10
6839.9055697351396
 20
1006.029301456779
 30
0.0
 11
6839.9055697351396
 21
815.22930145677844
 31
0.0
  0
LINE
  5
1C46B
  8
01
 10
6786.4055697351414
 20
997.62930145677944
 30
0.0
 11
6825.7091607716966
 21
997.62930145677944
 31
0.0
  0
LINE
  5
1C46C
  8
01
 10
6787.3106999903803
 20
823.62930145677853
 30
0.0
 11
6825.7091607716966
 21
823.62930145677853
 31
0.0
  0
LINE
  5
1C46D
  8
01
 10
6824.4091607716973
 20
995.02930145677919
 30
0.0
 11
6824.4091607716973
 21
826.22930145677844
 31
0.0
  0
LINE
  5
1C471
  8
01
 10
6770.9055697351396
 20
999.62930145677933
 30
0.0
 11
6770.9055697351396
 21
1025.9293014567791
 31
0.0
  0
LINE
  5
1C472
  8
01
 10
6788.9055697351387
 20
999.62930145677933
 30
0.0
 11
6788.9055697351387
 21
1025.9293014567791
 31
0.0
  0
LINE
  5
1C473
  8
01
 10
6773.5055697351399
 20
1024.6293014567791
 30
0.0
 11
6786.3055697351401
 21
1024.6293014567791
 31
0.0
  0
LINE
  5
1C477
  8
01
 10
6897.40556573514
 20
1008.629301456779
 30
0.0
 11
6897.40556573514
 21
1025.9293014567791
 31
0.0
  0
LINE
  5
1C478
  8
01
 10
6948.40556573514
 20
985.62930145677933
 30
0.0
 11
6948.40556573514
 21
1025.9293014567791
 31
0.0
  0
LINE
  5
1C479
  8
01
 10
6900.0055657351413
 20
1024.6293014567791
 30
0.0
 11
6945.8055657351388
 21
1024.6293014567791
 31
0.0
  0
LINE
  5
1C47D
  8
01
 10
6973.90556573514
 20
976.62930145677933
 30
0.0
 11
6973.90556573514
 21
1035.9293014567791
 31
0.0
  0
LINE
  5
1C47E
  8
01
 10
6897.40556573514
 20
1008.629301456779
 30
0.0
 11
6897.40556573514
 21
1035.9293014567791
 31
0.0
  0
LINE
  5
1C47F
  8
01
 10
6971.3055657351397
 20
1034.6293014567791
 30
0.0
 11
6900.0055657351413
 21
1034.6293014567791
 31
0.0
  0
LINE
  5
1C483
  8
01
 10
6886.0319164706671
 20
920.62930145677922
 30
0.0
 11
6886.0319164706671
 21
1025.9293014567791
 31
0.0
  0
LINE
  5
1C484
  8
01
 10
6897.40556573514
 20
1008.629301456779
 30
0.0
 11
6897.40556573514
 21
1025.9293014567791
 31
0.0
  0
LINE
  5
1C485
  8
01
 10
6894.8055657351397
 20
1024.6293014567791
 30
0.0
 11
6888.6319164706683
 21
1024.6293014567791
 31
0.0
  0
LINE
  5
1C486
  8
01
 10
6886.0319164706671
 20
1024.6293014567791
 30
0.0
 11
6876.195249804
 21
1024.6293014567791
 31
0.0
  0
LINE
  5
1C48A
  8
01
 10
6973.90556573514
 20
976.62930145677933
 30
0.0
 11
7002.2055657351402
 21
976.62930145677933
 31
0.0
  0
LINE
  5
1C48B
  8
01
 10
6973.90556573514
 20
844.62930145677933
 30
0.0
 11
7002.2055657351402
 21
844.62930145677933
 31
0.0
  0
LINE
  5
1C48C
  8
01
 10
7000.90556573514
 20
974.02930145677931
 30
0.0
 11
7000.90556573514
 21
847.22930145677924
 31
0.0
  0
TEXT
  5
1C490
  8
01
 10
6999.9955657351402
 20
903.80430145678042
 30
0.0
 40
4.5499999999999989
  1
132
 50
90.0
  0
LINE
  5
1C491
  8
01
  6
BYBLOCK
 10
7001.6022336291398
 20
847.22930145677924
 30
0.0
 11
7000.90556573514
 21
844.62930145677933
 31
0.0
  0
LINE
  5
1C492
  8
01
  6
BYBLOCK
 10
7000.90556573514
 20
844.62930145677933
 30
0.0
 11
7000.2088978411402
 21
847.22930145677924
 31
0.0
  0
LINE
  5
1C493
  8
01
  6
BYBLOCK
 10
7000.90556573514
 20
844.62930145677933
 30
0.0
 11
7000.90556573514
 21
847.22930145677924
 31
0.0
  0
LINE
  5
1C494
  8
01
  6
BYBLOCK
 10
7000.2088978411402
 20
974.02930145677931
 30
0.0
 11
7000.90556573514
 21
976.62930145677933
 31
0.0
  0
LINE
  5
1C495
  8
01
  6
BYBLOCK
 10
7000.90556573514
 20
976.62930145677933
 30
0.0
 11
7001.6022336291398
 21
974.02930145677931
 31
0.0
  0
LINE
  5
1C496
  8
01
  6
BYBLOCK
 10
7000.90556573514
 20
976.62930145677933
 30
0.0
 11
7000.90556573514
 21
974.02930145677931
 31
0.0
  0
TEXT
  5
1C497
  8
01
 10
6875.8052498039997
 20
1025.539301456779
 30
0.0
 40
4.5499999999999989
  1
11
  0
LINE
  5
1C498
  8
01
  6
BYBLOCK
 10
6888.6319164706683
 20
1023.932633562779
 30
0.0
 11
6886.0319164706671
 21
1024.6293014567791
 31
0.0
  0
LINE
  5
1C499
  8
01
  6
BYBLOCK
 10
6886.0319164706671
 20
1024.6293014567791
 30
0.0
 11
6888.6319164706683
 21
1025.3259693507789
 31
0.0
  0
LINE
  5
1C49A
  8
01
  6
BYBLOCK
 10
6886.0319164706671
 20
1024.6293014567791
 30
0.0
 11
6888.6319164706683
 21
1024.6293014567791
 31
0.0
  0
LINE
  5
1C49B
  8
01
  6
BYBLOCK
 10
6894.8055657351397
 20
1025.3259693507789
 30
0.0
 11
6897.40556573514
 21
1024.6293014567791
 31
0.0
  0
LINE
  5
1C49C
  8
01
  6
BYBLOCK
 10
6897.40556573514
 20
1024.6293014567791
 30
0.0
 11
6894.8055657351397
 21
1023.932633562779
 31
0.0
  0
LINE
  5
1C49D
  8
01
  6
BYBLOCK
 10
6897.40556573514
 20
1024.6293014567791
 30
0.0
 11
6894.8055657351397
 21
1024.6293014567791
 31
0.0
  0
TEXT
  5
1C49E
  8
01
 10
6928.072232401807
 20
1035.539301456779
 30
0.0
 40
4.5499999999999989
  1
76.5
  0
LINE
  5
1C49F
  8
01
  6
BYBLOCK
 10
6900.0055657351413
 20
1033.9326335627791
 30
0.0
 11
6897.40556573514
 21
1034.6293014567791
 31
0.0
  0
LINE
  5
1C4A0
  8
01
  6
BYBLOCK
 10
6897.40556573514
 20
1034.6293014567791
 30
0.0
 11
6900.0055657351413
 21
1035.3259693507789
 31
0.0
  0
LINE
  5
1C4A1
  8
01
  6
BYBLOCK
 10
6897.40556573514
 20
1034.6293014567791
 30
0.0
 11
6900.0055657351413
 21
1034.6293014567791
 31
0.0
  0
LINE
  5
1C4A2
  8
01
  6
BYBLOCK
 10
6971.3055657351397
 20
1035.3259693507789
 30
0.0
 11
6973.90556573514
 21
1034.6293014567791
 31
0.0
  0
LINE
  5
1C4A3
  8
01
  6
BYBLOCK
 10
6973.90556573514
 20
1034.6293014567791
 30
0.0
 11
6971.3055657351397
 21
1033.9326335627791
 31
0.0
  0
LINE
  5
1C4A4
  8
01
  6
BYBLOCK
 10
6973.90556573514
 20
1034.6293014567791
 30
0.0
 11
6971.3055657351397
 21
1034.6293014567791
 31
0.0
  0
TEXT
  5
1C4A5
  8
01
 10
6919.2222324018057
 20
1025.539301456779
 30
0.0
 40
4.5499999999999989
  1
51
  0
LINE
  5
1C4A6
  8
01
  6
BYBLOCK
 10
6945.8055657351388
 20
1025.3259693507789
 30
0.0
 11
6948.40556573514
 21
1024.6293014567791
 31
0.0
  0
LINE
  5
1C4A7
  8
01
  6
BYBLOCK
 10
6948.40556573514
 20
1024.6293014567791
 30
0.0
 11
6945.8055657351388
 21
1023.932633562779
 31
0.0
  0
LINE
  5
1C4A8
  8
01
  6
BYBLOCK
 10
6948.40556573514
 20
1024.6293014567791
 30
0.0
 11
6945.8055657351388
 21
1024.6293014567791
 31
0.0
  0
LINE
  5
1C4A9
  8
01
  6
BYBLOCK
 10
6900.0055657351413
 20
1023.932633562779
 30
0.0
 11
6897.40556573514
 21
1024.6293014567791
 31
0.0
  0
LINE
  5
1C4AA
  8
01
  6
BYBLOCK
 10
6897.40556573514
 20
1024.6293014567791
 30
0.0
 11
6900.0055657351413
 21
1025.3259693507789
 31
0.0
  0
LINE
  5
1C4AB
  8
01
  6
BYBLOCK
 10
6897.40556573514
 20
1024.6293014567791
 30
0.0
 11
6900.0055657351413
 21
1024.6293014567791
 31
0.0
  0
TEXT
  5
1C4AC
  8
01
 10
6775.2472364018058
 20
1025.539301456779
 30
0.0
 40
4.5499999999999989
  1
18
  0
LINE
  5
1C4AD
  8
01
  6
BYBLOCK
 10
6786.3055697351401
 20
1025.3259693507789
 30
0.0
 11
6788.9055697351387
 21
1024.6293014567791
 31
0.0
  0
LINE
  5
1C4AE
  8
01
  6
BYBLOCK
 10
6788.9055697351387
 20
1024.6293014567791
 30
0.0
 11
6786.3055697351401
 21
1023.932633562779
 31
0.0
  0
LINE
  5
1C4AF
  8
01
  6
BYBLOCK
 10
6788.9055697351387
 20
1024.6293014567791
 30
0.0
 11
6786.3055697351401
 21
1024.6293014567791
 31
0.0
  0
LINE
  5
1C4B0
  8
01
  6
BYBLOCK
 10
6773.5055697351399
 20
1023.932633562779
 30
0.0
 11
6770.9055697351396
 21
1024.6293014567791
 31
0.0
  0
LINE
  5
1C4B1
  8
01
  6
BYBLOCK
 10
6770.9055697351396
 20
1024.6293014567791
 30
0.0
 11
6773.5055697351399
 21
1025.3259693507789
 31
0.0
  0
LINE
  5
1C4B2
  8
01
  6
BYBLOCK
 10
6770.9055697351396
 20
1024.6293014567791
 30
0.0
 11
6773.5055697351399
 21
1024.6293014567791
 31
0.0
  0
TEXT
  5
1C4B3
  8
01
 10
6823.4991607716956
 20
905.49969483438542
 30
0.0
 40
4.5499999999999989
  1
174
 50
90.0
  0
LINE
  5
1C4B4
  8
01
  6
BYBLOCK
 10
6825.1058286656953
 20
826.22930145677844
 30
0.0
 11
6824.4091607716973
 21
823.62930145677853
 31
0.0
  0
LINE
  5
1C4B5
  8
01
  6
BYBLOCK
 10
6824.4091607716973
 20
823.62930145677853
 30
0.0
 11
6823.7124928776957
 21
826.22930145677844
 31
0.0
  0
LINE
  5
1C4B6
  8
01
  6
BYBLOCK
 10
6824.4091607716973
 20
823.62930145677853
 30
0.0
 11
6824.4091607716973
 21
826.22930145677844
 31
0.0
  0
LINE
  5
1C4B7
  8
01
  6
BYBLOCK
 10
6823.7124928776957
 20
995.02930145677919
 30
0.0
 11
6824.4091607716973
 21
997.62930145677944
 31
0.0
  0
LINE
  5
1C4B8
  8
01
  6
BYBLOCK
 10
6824.4091607716973
 20
997.62930145677944
 30
0.0
 11
6825.1058286656953
 21
995.02930145677919
 31
0.0
  0
LINE
  5
1C4B9
  8
01
  6
BYBLOCK
 10
6824.4091607716973
 20
997.62930145677944
 30
0.0
 11
6824.4091607716973
 21
995.02930145677919
 31
0.0
  0
TEXT
  5
1C4BA
  8
01
 10
6838.9955697351388
 20
904.65729593430308
 30
0.0
 40
4.5499999999999989
  1
196
 50
90.0
  0
LINE
  5
1C4BB
  8
01
  6
BYBLOCK
 10
6840.6022376291394
 20
815.22930145677844
 30
0.0
 11
6839.9055697351396
 21
812.62930145677831
 31
0.0
  0
LINE
  5
1C4BC
  8
01
  6
BYBLOCK
 10
6839.9055697351396
 20
812.62930145677831
 30
0.0
 11
6839.2089018411389
 21
815.22930145677844
 31
0.0
  0
LINE
  5
1C4BD
  8
01
  6
BYBLOCK
 10
6839.9055697351396
 20
812.62930145677831
 30
0.0
 11
6839.9055697351396
 21
815.22930145677844
 31
0.0
  0
LINE
  5
1C4BE
  8
01
  6
BYBLOCK
 10
6839.2089018411389
 20
1006.029301456779
 30
0.0
 11
6839.9055697351396
 21
1008.629301456779
 31
0.0
  0
LINE
  5
1C4BF
  8
01
  6
BYBLOCK
 10
6839.9055697351396
 20
1008.629301456779
 30
0.0
 11
6840.6022376291394
 21
1006.029301456779
 31
0.0
  0
LINE
  5
1C4C0
  8
01
  6
BYBLOCK
 10
6839.9055697351396
 20
1008.629301456779
 30
0.0
 11
6839.9055697351396
 21
1006.029301456779
 31
0.0
  0
TEXT
  5
1C4C1
  8
01
 10
6987.0921640315837
 20
1129.4209953802069
 30
0.0
 40
4.5499999999999989
  1
14.2
 50
90.0
  0
LINE
  5
1C4C2
  8
01
  6
BYBLOCK
 10
6988.6988319255834
 20
1162.62930145678
 30
0.0
 11
6988.0021640315827
 21
1160.0293014567801
 31
0.0
  0
LINE
  5
1C4C3
  8
01
  6
BYBLOCK
 10
6988.0021640315827
 20
1160.0293014567801
 30
0.0
 11
6987.3054961375838
 21
1162.62930145678
 31
0.0
  0
LINE
  5
1C4C4
  8
01
  6
BYBLOCK
 10
6988.0021640315827
 20
1160.0293014567801
 30
0.0
 11
6988.0021640315827
 21
1162.62930145678
 31
0.0
  0
LINE
  5
1C4C5
  8
01
  6
BYBLOCK
 10
6987.3054961375838
 20
1171.62930145678
 30
0.0
 11
6988.0021640315827
 21
1174.229301456779
 31
0.0
  0
LINE
  5
1C4C6
  8
01
  6
BYBLOCK
 10
6988.0021640315827
 20
1174.229301456779
 30
0.0
 11
6988.6988319255834
 21
1171.62930145678
 31
0.0
  0
LINE
  5
1C4C7
  8
01
  6
BYBLOCK
 10
6988.0021640315827
 20
1174.229301456779
 30
0.0
 11
6988.0021640315827
 21
1171.62930145678
 31
0.0
  0
TEXT
  5
1C4C8
  8
01
 10
6740.5722380204006
 20
791.5393014567793
 30
0.0000000000562575
 40
4.5499999999999989
  1
23.5
  0
LINE
  5
1C4C9
  8
01
  6
BYBLOCK
 10
6739.0055729723299
 20
789.9326335627793
 30
0.0000000000562575
 11
6736.4055729723286
 21
790.62930145677933
 31
0.0000000000562575
  0
LINE
  5
1C4CA
  8
01
  6
BYBLOCK
 10
6736.4055729723286
 20
790.62930145677933
 30
0.0000000000562575
 11
6739.0055729723299
 21
791.32596935077925
 31
0.0000000000562575
  0
LINE
  5
1C4CB
  8
01
  6
BYBLOCK
 10
6736.4055729723286
 20
790.62930145677933
 30
0.0000000000562575
 11
6739.0055729723299
 21
790.62930145677933
 31
0.0000000000562575
  0
LINE
  5
1C4CC
  8
01
  6
BYBLOCK
 10
6757.3055697351392
 20
791.32596935077925
 30
0.0000000000562575
 11
6759.9055697351396
 21
790.62930145677933
 31
0.0000000000562575
  0
LINE
  5
1C4CD
  8
01
  6
BYBLOCK
 10
6759.9055697351396
 20
790.62930145677933
 30
0.0000000000562575
 11
6757.3055697351392
 21
789.9326335627793
 31
0.0000000000562575
  0
LINE
  5
1C4CE
  8
01
  6
BYBLOCK
 10
6759.9055697351396
 20
790.62930145677933
 30
0.0000000000562575
 11
6757.3055697351392
 21
790.62930145677933
 31
0.0000000000562575
  0
TEXT
  5
1C4CF
  8
01
 10
6802.3972629892633
 20
791.5393014567793
 30
0.0
 40
4.5499999999999989
  1
9
  0
LINE
  5
1C4D0
  8
01
  6
BYBLOCK
 10
6806.4056229100534
 20
791.32596935077925
 30
0.0
 11
6809.0056229100528
 21
790.62930145677933
 31
0.0
  0
LINE
  5
1C4D1
  8
01
  6
BYBLOCK
 10
6809.0056229100528
 20
790.62930145677933
 30
0.0
 11
6806.4056229100534
 21
789.9326335627793
 31
0.0
  0
LINE
  5
1C4D2
  8
01
  6
BYBLOCK
 10
6809.0056229100528
 20
790.62930145677933
 30
0.0
 11
6806.4056229100534
 21
790.62930145677933
 31
0.0
  0
LINE
  5
1C4D3
  8
01
  6
BYBLOCK
 10
6802.5055697351399
 20
789.9326335627793
 30
0.0
 11
6799.9055697351387
 21
790.62930145677933
 31
0.0
  0
LINE
  5
1C4D4
  8
01
  6
BYBLOCK
 10
6799.9055697351387
 20
790.62930145677933
 30
0.0
 11
6802.5055697351399
 21
791.32596935077925
 31
0.0
  0
LINE
  5
1C4D5
  8
01
  6
BYBLOCK
 10
6799.9055697351387
 20
790.62930145677933
 30
0.0
 11
6802.5055697351399
 21
790.62930145677933
 31
0.0
  0
TEXT
  5
1C4D6
  8
01
 10
6571.4955737351393
 20
906.29596812344698
 30
0.0
 40
4.5499999999999989
  1
90
 50
90.0
  0
LINE
  5
1C4D7
  8
01
  6
BYBLOCK
 10
6573.1022416291398
 20
868.22930145677935
 30
0.0
 11
6572.4055737351391
 21
865.62930145677933
 31
0.0
  0
LINE
  5
1C4D8
  8
01
  6
BYBLOCK
 10
6572.4055737351391
 20
865.62930145677933
 30
0.0
 11
6571.7089058411393
 21
868.22930145677935
 31
0.0
  0
LINE
  5
1C4D9
  8
01
  6
BYBLOCK
 10
6572.4055737351391
 20
865.62930145677933
 30
0.0
 11
6572.4055737351391
 21
868.22930145677935
 31
0.0
  0
LINE
  5
1C4DA
  8
01
  6
BYBLOCK
 10
6571.7089058411393
 20
953.02930145677919
 30
0.0
 11
6572.4055737351391
 21
955.62930145677944
 31
0.0
  0
LINE
  5
1C4DB
  8
01
  6
BYBLOCK
 10
6572.4055737351391
 20
955.62930145677944
 30
0.0
 11
6573.1022416291398
 21
953.02930145677919
 31
0.0
  0
LINE
  5
1C4DC
  8
01
  6
BYBLOCK
 10
6572.4055737351391
 20
955.62930145677944
 30
0.0
 11
6572.4055737351391
 21
953.02930145677919
 31
0.0
  0
TEXT
  5
1C4DD
  8
01
 10
7087.4956820748839
 20
1125.29596812659
 30
0.0
 40
4.5499999999999989
  1
35
 50
90.0
  0
LINE
  5
1C4DE
  8
01
  6
BYBLOCK
 10
7089.1023499688836
 20
1114.7293014630659
 30
0.0
 11
7088.4056820748838
 21
1112.129301463066
 31
0.0
  0
LINE
  5
1C4DF
  8
01
  6
BYBLOCK
 10
7088.4056820748838
 20
1112.129301463066
 30
0.0
 11
7087.709014180884
 21
1114.7293014630659
 31
0.0
  0
LINE
  5
1C4E0
  8
01
  6
BYBLOCK
 10
7088.4056820748838
 20
1112.129301463066
 30
0.0
 11
7088.4056820748838
 21
1114.7293014630659
 31
0.0
  0
LINE
  5
1C4E1
  8
01
  6
BYBLOCK
 10
7087.709014180884
 20
1144.529301456779
 30
0.0
 11
7088.4056820748838
 21
1147.1293014567791
 31
0.0
  0
LINE
  5
1C4E2
  8
01
  6
BYBLOCK
 10
7088.4056820748838
 20
1147.1293014567791
 30
0.0
 11
7089.1023499688836
 21
1144.529301456779
 31
0.0
  0
LINE
  5
1C4E3
  8
01
  6
BYBLOCK
 10
7088.4056820748838
 20
1147.1293014567791
 30
0.0
 11
7088.4056820748838
 21
1144.529301456779
 31
0.0
  0
TEXT
  5
1C4E4
  8
01
 10
7097.4956820748839
 20
1113.404301458346
 30
0.0
 40
4.5499999999999989
  1
59
 50
90.0
  0
LINE
  5
1C4E5
  8
01
  6
BYBLOCK
 10
7099.1023499688836
 20
1090.7293014599099
 30
0.0
 11
7098.4056820748829
 21
1088.12930145991
 31
0.0
  0
LINE
  5
1C4E6
  8
01
  6
BYBLOCK
 10
7098.4056820748829
 20
1088.12930145991
 30
0.0
 11
7097.709014180884
 21
1090.7293014599099
 31
0.0
  0
LINE
  5
1C4E7
  8
01
  6
BYBLOCK
 10
7098.4056820748829
 20
1088.12930145991
 30
0.0
 11
7098.4056820748829
 21
1090.7293014599099
 31
0.0
  0
LINE
  5
1C4E8
  8
01
  6
BYBLOCK
 10
7097.709014180884
 20
1144.529301456779
 30
0.0
 11
7098.4056820748829
 21
1147.1293014567791
 31
0.0
  0
LINE
  5
1C4E9
  8
01
  6
BYBLOCK
 10
7098.4056820748829
 20
1147.1293014567791
 30
0.0
 11
7099.1023499688836
 21
1144.529301456779
 31
0.0
  0
LINE
  5
1C4EA
  8
01
  6
BYBLOCK
 10
7098.4056820748829
 20
1147.1293014567791
 30
0.0
 11
7098.4056820748829
 21
1144.529301456779
 31
0.0
  0
TEXT
  5
1C4EB
  8
01
 10
7004.0806820748849
 20
1074.039301459911
 30
0.0
 40
4.5499999999999989
  1
125
  0
LINE
  5
1C4EC
  8
01
  6
BYBLOCK
 10
7070.8056820748834
 20
1073.825969353911
 30
0.0
 11
7073.4056820748829
 21
1073.1293014599109
 31
0.0
  0
LINE
  5
1C4ED
  8
01
  6
BYBLOCK
 10
7073.4056820748829
 20
1073.1293014599109
 30
0.0
 11
7070.8056820748834
 21
1072.43263356591
 31
0.0
  0
LINE
  5
1C4EE
  8
01
  6
BYBLOCK
 10
7073.4056820748829
 20
1073.1293014599109
 30
0.0
 11
7070.8056820748834
 21
1073.1293014599109
 31
0.0
  0
LINE
  5
1C4EF
  8
01
  6
BYBLOCK
 10
6951.005682074885
 20
1072.43263356591
 30
0.0
 11
6948.4056820748838
 21
1073.1293014599109
 31
0.0
  0
LINE
  5
1C4F0
  8
01
  6
BYBLOCK
 10
6948.4056820748838
 20
1073.1293014599109
 30
0.0
 11
6951.005682074885
 21
1073.825969353911
 31
0.0
  0
LINE
  5
1C4F1
  8
01
  6
BYBLOCK
 10
6948.4056820748838
 20
1073.1293014599109
 30
0.0
 11
6951.005682074885
 21
1073.1293014599109
 31
0.0
  0
TEXT
  5
1C4F2
  8
01
 10
6998.580682074884
 20
1064.039301459911
 30
0.0
 40
4.5499999999999989
  1
136
  0
LINE
  5
1C4F3
  8
01
  6
BYBLOCK
 10
7070.8056820748834
 20
1063.825969353911
 30
0.0
 11
7073.4056820748829
 21
1063.1293014599109
 31
0.0
  0
LINE
  5
1C4F4
  8
01
  6
BYBLOCK
 10
7073.4056820748829
 20
1063.1293014599109
 30
0.0
 11
7070.8056820748834
 21
1062.4326335659109
 31
0.0
  0
LINE
  5
1C4F5
  8
01
  6
BYBLOCK
 10
7073.4056820748829
 20
1063.1293014599109
 30
0.0
 11
7070.8056820748834
 21
1063.1293014599109
 31
0.0
  0
LINE
  5
1C4F6
  8
01
  6
BYBLOCK
 10
6940.0056820748841
 20
1062.4326335659109
 30
0.0
 11
6937.4056820748829
 21
1063.1293014599109
 31
0.0
  0
LINE
  5
1C4F7
  8
01
  6
BYBLOCK
 10
6937.4056820748829
 20
1063.1293014599109
 30
0.0
 11
6940.0056820748841
 21
1063.825969353911
 31
0.0
  0
LINE
  5
1C4F8
  8
01
  6
BYBLOCK
 10
6937.4056820748829
 20
1063.1293014599109
 30
0.0
 11
6940.0056820748841
 21
1063.1293014599109
 31
0.0
  0
TEXT
  5
1C4F9
  8
01
 10
6944.072232401807
 20
901.03930145677919
 30
-0.0000000000562575
 40
4.5499999999999989
  1
53
  0
LINE
  5
1C4FA
  8
01
  6
BYBLOCK
 10
6972.3055657351397
 20
900.82596935077936
 30
-0.0000000000562575
 11
6974.905565735141
 21
900.12930145677922
 31
-0.0000000000562575
  0
LINE
  5
1C4FB
  8
01
  6
BYBLOCK
 10
6974.905565735141
 20
900.12930145677922
 30
-0.0000000000562575
 11
6972.3055657351397
 21
899.4326335627793
 31
-0.0000000000562575
  0
LINE
  5
1C4FC
  8
01
  6
BYBLOCK
 10
6974.905565735141
 20
900.12930145677922
 30
-0.0000000000562575
 11
6972.3055657351397
 21
900.12930145677922
 31
-0.0000000000562575
  0
LINE
  5
1C4FD
  8
01
  6
BYBLOCK
 10
6924.5055657351404
 20
899.4326335627793
 30
-0.0000000000562575
 11
6921.905565735141
 21
900.12930145677922
 31
-0.0000000000562575
  0
LINE
  5
1C4FE
  8
01
  6
BYBLOCK
 10
6921.905565735141
 20
900.12930145677922
 30
-0.0000000000562575
 11
6924.5055657351404
 21
900.82596935077936
 31
-0.0000000000562575
  0
LINE
  5
1C4FF
  8
01
  6
BYBLOCK
 10
6921.905565735141
 20
900.12930145677922
 30
-0.0000000000562575
 11
6924.5055657351404
 21
900.12930145677922
 31
-0.0000000000562575
  0
TEXT
  5
1C500
  8
01
 10
6986.4955657351402
 20
861.2959681234471
 30
-0.0000000000562575
 40
4.5499999999999989
  1
42
 50
90.0
  0
LINE
  5
1C501
  8
01
  6
BYBLOCK
 10
6988.1022336291389
 20
847.22930145677924
 30
-0.0000000000562575
 11
6987.405565735141
 21
844.62930145677933
 31
-0.0000000000562575
  0
LINE
  5
1C502
  8
01
  6
BYBLOCK
 10
6987.405565735141
 20
844.62930145677933
 30
-0.0000000000562575
 11
6986.7088978411402
 21
847.22930145677924
 31
-0.0000000000562575
  0
LINE
  5
1C503
  8
01
  6
BYBLOCK
 10
6987.405565735141
 20
844.62930145677933
 30
-0.0000000000562575
 11
6987.405565735141
 21
847.22930145677924
 31
-0.0000000000562575
  0
LINE
  5
1C504
  8
01
  6
BYBLOCK
 10
6986.7088978411402
 20
884.02930145677931
 30
-0.0000000000562575
 11
6987.405565735141
 21
886.62930145677922
 31
-0.0000000000562575
  0
LINE
  5
1C505
  8
01
  6
BYBLOCK
 10
6987.405565735141
 20
886.62930145677922
 30
-0.0000000000562575
 11
6988.1022336291389
 21
884.02930145677931
 31
-0.0000000000562575
  0
LINE
  5
1C506
  8
01
  6
BYBLOCK
 10
6987.405565735141
 20
886.62930145677922
 30
-0.0000000000562575
 11
6987.405565735141
 21
884.02930145677931
 31
-0.0000000000562575
  0
TEXT
  5
1C507
  8
01
 10
6912.4955657351411
 20
947.24788882795804
 30
0.0
 40
4.5499999999999989
  1
□53
 50
90.0
  0
LINE
  5
1C508
  8
01
  6
BYBLOCK
 10
6914.1022336291398
 20
931.72930145677753
 30
0.0
 11
6913.4055657351391
 21
929.12930145677751
 31
0.0
  0
LINE
  5
1C509
  8
01
  6
BYBLOCK
 10
6913.4055657351391
 20
929.12930145677751
 30
0.0
 11
6912.7088978411412
 21
931.72930145677753
 31
0.0
  0
LINE
  5
1C50A
  8
01
  6
BYBLOCK
 10
6913.4055657351391
 20
929.12930145677751
 30
0.0
 11
6913.4055657351391
 21
931.72930145677753
 31
0.0
  0
LINE
  5
1C50B
  8
01
  6
BYBLOCK
 10
6912.7088978411412
 20
979.52930145677726
 30
0.0
 11
6913.4055657351391
 21
982.12930145677728
 31
0.0
  0
LINE
  5
1C50C
  8
01
  6
BYBLOCK
 10
6913.4055657351391
 20
982.12930145677728
 30
0.0
 11
6914.1022336291398
 21
979.52930145677726
 31
0.0
  0
LINE
  5
1C50D
  8
01
  6
BYBLOCK
 10
6913.4055657351391
 20
982.12930145677728
 30
0.0
 11
6913.4055657351391
 21
979.52930145677726
 31
0.0
  0
VIEWPORT
  5
57
 67
     1
  8
0
 10
-12.71820606546885
 20
16.863518317872231
 30
0.0
 40
442.61128087661967
 41
296.51038904743461
 68
     1
 69
     1
1001
ACAD
1000
MVIEW
1002
{
1070
    16
1010
0.0
1020
0.0
1030
0.0
1010
0.0
1020
0.0
1030
1.0
1040
0.0
1040
296.51038904743461
1040
-12.71820606546885
1040
16.863518317872231
1040
50.0
1040
0.0
1040
0.0
1070
     0
1070
   100
1070
     1
1070
     1
1070
     0
1070
     0
1070
     0
1070
     0
1040
0.0
1040
0.0
1040
0.0
1040
10.0
1040
10.0
1040
10.0
1040
10.0
1070
     0
1002
{
1002
}
1002
}
  0
ENDSEC
  0
EOF
