  0
SECTION
  2
HEADER
  9
$ACADVER
  1
AC1009
  9
$INSBASE
 10
0.0
 20
0.0
 30
0.0
  9
$EXTMIN
 10
544.18767216632432
 20
-2286.5728886528409
 30
-0.0000000000001137
  9
$EXTMAX
 10
1150.487781506069
 20
-1877.2369486538689
 30
0.0000000000562575
  9
$LIMMIN
 10
0.0
 20
0.0
  9
$LIMMAX
 10
420.0
 20
297.0
  9
$ORTHOMODE
 70
     0
  9
$REGENMODE
 70
     1
  9
$FILLMODE
 70
     1
  9
$QTEXTMODE
 70
     0
  9
$MIRRTEXT
 70
     0
  9
$DRAGMODE
 70
     2
  9
$LTSCALE
 40
0.5
  9
$OSMODE
 70
  2175
  9
$ATTMODE
 70
     1
  9
$TEXTSIZE
 40
4.0
  9
$TRACEWID
 40
1.0
  9
$TEXTSTYLE
  7
STANDARD
  9
$CLAYER
  8
1TEXT
  9
$CELTYPE
  6
BYLAYER
  9
$CECOLOR
 62
   256
  9
$DIMSCALE
 40
1.0
  9
$DIMASZ
 40
2.0
  9
$DIMEXO
 40
0.0
  9
$DIMDLI
 40
7.0
  9
$DIMRND
 40
0.0
  9
$DIMDLE
 40
0.0
  9
$DIMEXE
 40
1.0
  9
$DIMTP
 40
0.0
  9
$DIMTM
 40
0.0
  9
$DIMTXT
 40
3.5
  9
$DIMCEN
 40
0.0
  9
$DIMTSZ
 40
0.0
  9
$DIMTOL
 70
     0
  9
$DIMLIM
 70
     0
  9
$DIMTIH
 70
     0
  9
$DIMTOH
 70
     0
  9
$DIMSE1
 70
     0
  9
$DIMSE2
 70
     0
  9
$DIMTAD
 70
     1
  9
$DIMZIN
 70
     8
  9
$DIMBLK
  1

  9
$DIMASO
 70
     1
  9
$DIMSHO
 70
     1
  9
$DIMPOST
  1
 
  9
$DIMAPOST
  1

  9
$DIMALT
 70
     0
  9
$DIMALTD
 70
     2
  9
$DIMALTF
 40
25.399999999999999
  9
$DIMLFAC
 40
1.0
  9
$DIMTOFL
 70
     1
  9
$DIMTVP
 40
0.0
  9
$DIMTIX
 70
     0
  9
$DIMSOXD
 70
     0
  9
$DIMSAH
 70
     1
  9
$DIMBLK1
  1
OPEN30
  9
$DIMBLK2
  1
OPEN30
  9
$DIMSTYLE
  2
NEWX10
  9
$DIMCLRD
 70
   256
  9
$DIMCLRE
 70
   256
  9
$DIMCLRT
 70
   201
  9
$DIMTFAC
 40
0.7
  9
$DIMGAP
 40
0.7
  9
$LUNITS
 70
     2
  9
$LUPREC
 70
     4
  9
$SKETCHINC
 40
1.0
  9
$FILLETRAD
 40
0.0
  9
$AUNITS
 70
     0
  9
$AUPREC
 70
     2
  9
$MENU
  1
acad
  9
$ELEVATION
 40
0.0
  9
$PELEVATION
 40
0.0
  9
$THICKNESS
 40
0.0
  9
$LIMCHECK
 70
     0
  9
$BLIPMODE
 70
     0
  9
$CHAMFERA
 40
10.0
  9
$CHAMFERB
 40
10.0
  9
$SKPOLY
 70
     0
  9
$TDCREATE
 40
2451318.621352917
  9
$TDUPDATE
 40
2456016.8215521881
  9
$TDINDWG
 40
0.4628827546
  9
$TDUSRTIMER
 40
0.4628827546
  9
$USRTIMER
 70
     1
  9
$ANGBASE
 50
0.0
  9
$ANGDIR
 70
     0
  9
$PDMODE
 70
     0
  9
$PDSIZE
 40
0.0
  9
$PLINEWID
 40
0.0
  9
$COORDS
 70
     2
  9
$SPLFRAME
 70
     0
  9
$SPLINETYPE
 70
     6
  9
$SPLINESEGS
 70
     8
  9
$ATTDIA
 70
     0
  9
$ATTREQ
 70
     1
  9
$HANDLING
 70
     1
  9
$HANDSEED
  5
E6EB
  9
$SURFTAB1
 70
     6
  9
$SURFTAB2
 70
     6
  9
$SURFTYPE
 70
     6
  9
$SURFU
 70
     6
  9
$SURFV
 70
     6
  9
$UCSNAME
  2

  9
$UCSORG
 10
0.0
 20
0.0
 30
0.0
  9
$UCSXDIR
 10
1.0
 20
0.0
 30
0.0
  9
$UCSYDIR
 10
0.0
 20
1.0
 30
0.0
  9
$PUCSNAME
  2

  9
$PUCSORG
 10
0.0
 20
0.0
 30
0.0
  9
$PUCSXDIR
 10
1.0
 20
0.0
 30
0.0
  9
$PUCSYDIR
 10
0.0
 20
1.0
 30
0.0
  9
$USERI1
 70
     0
  9
$USERI2
 70
     0
  9
$USERI3
 70
     0
  9
$USERI4
 70
     0
  9
$USERI5
 70
     0
  9
$USERR1
 40
0.0
  9
$USERR2
 40
0.0
  9
$USERR3
 40
0.0
  9
$USERR4
 40
0.0
  9
$USERR5
 40
0.0
  9
$WORLDVIEW
 70
     1
  9
$SHADEDGE
 70
     3
  9
$SHADEDIF
 70
    70
  9
$TILEMODE
 70
     1
  9
$MAXACTVP
 70
    48
  9
$PLIMCHECK
 70
     0
  9
$PEXTMIN
 10
1.0000000000000000E+020
 20
1.0000000000000000E+020
 30
1.0000000000000000E+020
  9
$PEXTMAX
 10
-1.0000000000000000E+020
 20
-1.0000000000000000E+020
 30
-1.0000000000000000E+020
  9
$PLIMMIN
 10
0.0
 20
0.0
  9
$PLIMMAX
 10
420.0
 20
297.0
  9
$UNITMODE
 70
     0
  9
$VISRETAIN
 70
     1
  9
$PLINEGEN
 70
     0
  9
$PSLTSCALE
 70
     1
  0
ENDSEC
  0
SECTION
  2
TABLES
  0
TABLE
  2
VPORT
 70
     1
  0
VPORT
  2
*ACTIVE
 70
     0
 10
0.0
 20
0.0
 11
1.0
 21
1.0
 12
847.34717459175488
 22
-2081.853431834305
 13
0.0
 23
0.0
 14
10.0
 24
10.0
 15
10.0
 25
10.0
 16
0.0
 26
0.0
 36
1.0
 17
0.0
 27
0.0
 37
0.0
 40
434.67393264975181
 41
1.5395095367847409
 42
50.0
 43
0.0
 44
0.0
 50
0.0
 51
0.0
 71
     0
 72
   100
 73
     1
 74
     1
 75
     0
 76
     0
 77
     0
 78
     0
  0
ENDTAB
  0
TABLE
  2
LTYPE
 70
    12
  0
LTYPE
  2
CONTINUOUS
 70
     0
  3
Solid line
 72
    65
 73
     0
 40
0.0
  0
LTYPE
  2
XREF1|CENTER2
 70
    48
  3
Center (.5x) ___ _ ___ _ ___ _ ___ _ ___ _ ___
 72
    65
 73
     4
 40
28.574999999999999
 49
19.050000000000001
 49
-3.1749999999999989
 49
3.1749999999999989
 49
-3.1749999999999989
  0
LTYPE
  2
A3WAKUDAKE|CENTER2
 70
    48
  3
Center (.5x) ___ _ ___ _ ___ _ ___ _ ___ _ ___
 72
    65
 73
     4
 40
28.574999999999999
 49
19.050000000000001
 49
-3.1749999999999989
 49
3.1749999999999989
 49
-3.1749999999999989
  0
ENDTAB
  0
TABLE
  2
LAYER
 70
    36
  0
LAYER
  2
0
 70
     0
 62
     7
  6
CONTINUOUS
  0
LAYER
  2
1TEXT
 70
     0
 62
     7
  6
CONTINUOUS
  0
LAYER
  2
01
 70
     0
 62
     1
  6
CONTINUOUS
  0
LAYER
  2
A3WAKUDAKE|THICK
 70
    48
 62
     7
  6
CONTINUOUS
  0
LAYER
  2
A3WAKUDAKE|POINT
 70
    48
 62
     7
  6
CONTINUOUS
  0
LAYER
  2
A3WAKUDAKE|1CENTER
 70
    48
 62
     7
  6
A3WAKUDAKE|CENTER2
  0
LAYER
  2
A3WAKUDAKE|0-6
 70
    48
 62
     7
  6
CONTINUOUS
  0
LAYER
  2
A3WAKUDAKE|1DIM
 70
    48
 62
     7
  6
CONTINUOUS
  0
LAYER
  2
XREF1|1CENTER
 70
    48
 62
     7
  6
XREF1|CENTER2
  0
ENDTAB
  0
TABLE
  2
STYLE
 70
     4
  0
STYLE
  2
STANDARD
 70
     0
 40
0.0
 41
1.0
 50
0.0
 71
     0
 42
4.0
  3
romans.shx
  4
extfont2.shx
  0
ENDTAB
  0
TABLE
  2
VIEW
 70
     5
  0
ENDTAB
  0
TABLE
  2
UCS
 70
     0
  0
ENDTAB
  0
TABLE
  2
APPID
 70
     9
  0
APPID
  2
ACAD
 70
     0
  0
APPID
  2
DRAWINGVARIABLESXDATA
 70
     0
  0
APPID
  2
CONTENTTABDATA
 70
     0
  0
APPID
  2
CONTENTCURRENTTAB
 70
     0
  0
APPID
  2
CONTENTBLOCKDESCRIPTION
 70
     0
  0
APPID
  2
CONTENTBLOCKICON
 70
     0
  0
APPID
  2
CONTENTLONGBLOCKNAME
 70
     0
  0
APPID
  2
ACAD_PSEXT
 70
     0
  0
APPID
  2
ACAD_MLEADERVER
 70
     0
  0
ENDTAB
  0
TABLE
  2
DIMSTYLE
 70
     5
  0
DIMSTYLE
  2
NEWX10
 70
     0
  3
 
  4

  5

  6
OPEN30
  7
OPEN30
 40
1.0
 41
2.0
 42
0.0
 43
7.0
 44
1.0
 45
0.0
 46
0.0
 47
0.0
 48
0.0
140
3.5
141
0.0
142
0.0
143
25.399999999999999
144
1.0
145
0.0
146
0.7
147
0.7
 71
     0
 72
     0
 73
     0
 74
     0
 75
     0
 76
     0
 77
     1
 78
     8
170
     0
171
     2
172
     1
173
     1
174
     0
175
     0
176
   256
177
   256
178
   201
  0
ENDTAB
  0
ENDSEC
  0
SECTION
  2
BLOCKS
  0
BLOCK
  8
0
  2
$MODEL_SPACE
 70
     0
 10
0.0
 20
0.0
 30
0.0
  3
$MODEL_SPACE
  1

  0
ENDBLK
  5
1A
  8
0
  0
BLOCK
 67
     1
  8
0
  2
$PAPER_SPACE
 70
     0
 10
0.0
 20
0.0
 30
0.0
  3
$PAPER_SPACE
  1

  0
ENDBLK
  5
17
 67
     1
  8
0
  0
BLOCK
  8
0
  2
_OPEN30
 70
     0
 10
0.0
 20
0.0
 30
0.0
  3
_OPEN30
  1

  0
LINE
  5
44
  8
0
  6
BYBLOCK
 62
     0
 10
-1.0
 20
0.26794919
 30
0.0
 11
0.0
 21
0.0
 31
0.0
  0
LINE
  5
45
  8
0
  6
BYBLOCK
 62
     0
 10
0.0
 20
0.0
 30
0.0
 11
-1.0
 21
-0.26794919
 31
0.0
  0
LINE
  5
46
  8
0
  6
BYBLOCK
 62
     0
 10
0.0
 20
0.0
 30
0.0
 11
-1.0
 21
0.0
 31
0.0
  0
ENDBLK
  5
47
  8
0
  0
BLOCK
  8
0
  2
XREF1
 70
    36
 10
0.0
 20
0.0
 30
0.0
  3
XREF1
  1
D:\ACLT\FORMAT\KAWAJUN(9)図面用.dwg
  0
ENDBLK
  5
5D
  8
0
  0
BLOCK
  8
0
  2
A3WAKUDAKE
 70
    36
 10
0.0
 20
0.0
 30
0.0
  3
A3WAKUDAKE
  1
D:\ACLT\FORMAT\A3WAKUdake.dwg
  0
ENDBLK
  5
6A0
  8
0
  0
BLOCK
  8
0
  2
*U27
 70
     1
 10
0.0
 20
0.0
 30
0.0
  3
*U27
  1

  0
TEXT
  5
E5DA
  8
1TEXT
 62
   201
 10
1043.3489401080969
 20
-1964.070281987202
 30
0.0
 40
3.5
  1
20.5
 50
90.0
  0
ENDBLK
  5
E5DC
  8
0
  0
BLOCK
  8
0
  2
*U28
 70
     1
 10
0.0
 20
0.0
 30
0.0
  3
*U28
  1

  0
TEXT
  5
E5DE
  8
1TEXT
 62
   201
 10
3363.5793699269252
 20
-397.31741493210552
 30
0.0
 40
4.5499999999999989
  1
20.5
 50
90.0
  0
ENDBLK
  5
E5E0
  8
0
  0
ENDSEC
  0
SECTION
  2
ENTITIES
  0
LINE
  5
2872
  8
01
 10
854.18766916632421
 20
-2139.2395686528398
 30
0.0
 11
854.18766916632421
 21
-2286.5728886528409
 31
0.0
  0
LINE
  5
2873
  8
01
 10
814.18766916632421
 20
-2139.2395686528398
 30
0.0
 11
814.18766916632421
 21
-2286.5728886528409
 31
0.0
  0
LINE
  5
2874
  8
01
 10
712.78767516632468
 20
-2145.736948652841
 30
0.0
 11
712.78767516632468
 21
-2168.8369186528398
 31
0.0
  0
LINE
  5
2875
  8
01
 10
711.1876691663241
 20
-2145.736948652841
 30
0.0
 11
711.1876691663241
 21
-2168.736948652841
 31
0.0
  0
LINE
  5
2876
  8
01
 10
713.58767816632508
 20
-2145.736948652841
 30
0.0
 11
713.58767816632508
 21
-2275.7369486528401
 31
0.0
  0
LINE
  5
2877
  8
01
 10
715.1876691663241
 20
-2145.736948652841
 30
0.0
 11
715.1876691663241
 21
-2275.7369486528401
 31
0.0
  0
LINE
  5
2879
  8
01
 10
712.18766916632421
 20
-2247.736948652841
 30
0.0
 11
683.39704587862229
 21
-2247.736948652841
 31
0.0
  0
LINE
  5
287A
  8
01
 10
646.18768516632406
 20
-2184.485626146818
 30
0.0
 11
646.18768516632406
 21
-2214.3875846299188
 31
0.0
  0
LINE
  5
287B
  8
01
 10
721.18766916632228
 20
-2199.736948652841
 30
0.0
 11
715.1876691663241
 21
-2199.736948652841
 31
0.0
  0
LINE
  5
287C
  8
01
 10
726.18766916632421
 20
-2204.736948652841
 30
0.0
 11
716.18766916632421
 21
-2204.736948652841
 31
0.0
  0
POLYLINE
  5
287D
  8
01
 10
726.18766916632421
 20
-2203.3053686528401
 30
0.0
 66
     1
 70
     8
  0
VERTEX
  8
01
  5
E5E7
 10
726.188
 20
-2203.31
 30
0.000000
  70
    32
  0
VERTEX
  8
01
  5
E5E8
 10
726.186
 20
-2203.22
 30
0.000000
  70
    32
  0
VERTEX
  8
01
  5
E5E9
 10
726.182
 20
-2203.13
 30
0.000000
  70
    32
  0
VERTEX
  8
01
  5
E5EA
 10
726.174
 20
-2203.04
 30
0.000000
  70
    32
  0
VERTEX
  8
01
  5
E5EB
 10
726.164
 20
-2202.96
 30
0.000000
  70
    32
  0
VERTEX
  8
01
  5
E5EC
 10
726.150
 20
-2202.87
 30
0.000000
  70
    32
  0
VERTEX
  8
01
  5
E5ED
 10
726.134
 20
-2202.78
 30
0.000000
  70
    32
  0
VERTEX
  8
01
  5
E5EE
 10
726.114
 20
-2202.70
 30
0.000000
  70
    32
  0
VERTEX
  8
01
  5
E5EF
 10
726.092
 20
-2202.61
 30
0.000000
  70
    32
  0
VERTEX
  8
01
  5
E5F0
 10
726.066
 20
-2202.52
 30
0.000000
  70
    32
  0
VERTEX
  8
01
  5
E5F1
 10
726.038
 20
-2202.44
 30
0.000000
  70
    32
  0
VERTEX
  8
01
  5
E5F2
 10
726.007
 20
-2202.35
 30
0.000000
  70
    32
  0
VERTEX
  8
01
  5
E5F3
 10
725.972
 20
-2202.27
 30
0.000000
  70
    32
  0
VERTEX
  8
01
  5
E5F4
 10
725.935
 20
-2202.19
 30
0.000000
  70
    32
  0
VERTEX
  8
01
  5
E5F5
 10
725.895
 20
-2202.10
 30
0.000000
  70
    32
  0
VERTEX
  8
01
  5
E5F6
 10
725.853
 20
-2202.02
 30
0.000000
  70
    32
  0
VERTEX
  8
01
  5
E5F7
 10
725.807
 20
-2201.94
 30
0.000000
  70
    32
  0
VERTEX
  8
01
  5
E5F8
 10
725.759
 20
-2201.86
 30
0.000000
  70
    32
  0
VERTEX
  8
01
  5
E5F9
 10
725.708
 20
-2201.78
 30
0.000000
  70
    32
  0
VERTEX
  8
01
  5
E5FA
 10
725.654
 20
-2201.70
 30
0.000000
  70
    32
  0
VERTEX
  8
01
  5
E5FB
 10
725.597
 20
-2201.62
 30
0.000000
  70
    32
  0
VERTEX
  8
01
  5
E5FC
 10
725.538
 20
-2201.55
 30
0.000000
  70
    32
  0
VERTEX
  8
01
  5
E5FD
 10
725.476
 20
-2201.47
 30
0.000000
  70
    32
  0
VERTEX
  8
01
  5
E5FE
 10
725.412
 20
-2201.40
 30
0.000000
  70
    32
  0
VERTEX
  8
01
  5
E5FF
 10
725.345
 20
-2201.32
 30
0.000000
  70
    32
  0
VERTEX
  8
01
  5
E600
 10
725.276
 20
-2201.25
 30
0.000000
  70
    32
  0
VERTEX
  8
01
  5
E601
 10
725.204
 20
-2201.18
 30
0.000000
  70
    32
  0
VERTEX
  8
01
  5
E602
 10
725.129
 20
-2201.11
 30
0.000000
  70
    32
  0
VERTEX
  8
01
  5
E603
 10
725.053
 20
-2201.04
 30
0.000000
  70
    32
  0
VERTEX
  8
01
  5
E604
 10
724.974
 20
-2200.97
 30
0.000000
  70
    32
  0
VERTEX
  8
01
  5
E605
 10
724.892
 20
-2200.91
 30
0.000000
  70
    32
  0
VERTEX
  8
01
  5
E606
 10
724.809
 20
-2200.84
 30
0.000000
  70
    32
  0
VERTEX
  8
01
  5
E607
 10
724.723
 20
-2200.78
 30
0.000000
  70
    32
  0
VERTEX
  8
01
  5
E608
 10
724.635
 20
-2200.72
 30
0.000000
  70
    32
  0
VERTEX
  8
01
  5
E609
 10
724.545
 20
-2200.66
 30
0.000000
  70
    32
  0
VERTEX
  8
01
  5
E60A
 10
724.454
 20
-2200.60
 30
0.000000
  70
    32
  0
VERTEX
  8
01
  5
E60B
 10
724.360
 20
-2200.55
 30
0.000000
  70
    32
  0
VERTEX
  8
01
  5
E60C
 10
724.264
 20
-2200.49
 30
0.000000
  70
    32
  0
VERTEX
  8
01
  5
E60D
 10
724.166
 20
-2200.44
 30
0.000000
  70
    32
  0
VERTEX
  8
01
  5
E60E
 10
724.067
 20
-2200.39
 30
0.000000
  70
    32
  0
VERTEX
  8
01
  5
E60F
 10
723.966
 20
-2200.34
 30
0.000000
  70
    32
  0
VERTEX
  8
01
  5
E610
 10
723.863
 20
-2200.29
 30
0.000000
  70
    32
  0
VERTEX
  8
01
  5
E611
 10
723.758
 20
-2200.24
 30
0.000000
  70
    32
  0
VERTEX
  8
01
  5
E612
 10
723.652
 20
-2200.20
 30
0.000000
  70
    32
  0
VERTEX
  8
01
  5
E613
 10
723.545
 20
-2200.16
 30
0.000000
  70
    32
  0
VERTEX
  8
01
  5
E614
 10
723.436
 20
-2200.12
 30
0.000000
  70
    32
  0
VERTEX
  8
01
  5
E615
 10
723.325
 20
-2200.08
 30
0.000000
  70
    32
  0
VERTEX
  8
01
  5
E616
 10
723.214
 20
-2200.04
 30
0.000000
  70
    32
  0
VERTEX
  8
01
  5
E617
 10
723.101
 20
-2200.01
 30
0.000000
  70
    32
  0
VERTEX
  8
01
  5
E618
 10
722.987
 20
-2199.98
 30
0.000000
  70
    32
  0
VERTEX
  8
01
  5
E619
 10
722.872
 20
-2199.95
 30
0.000000
  70
    32
  0
VERTEX
  8
01
  5
E61A
 10
722.756
 20
-2199.92
 30
0.000000
  70
    32
  0
VERTEX
  8
01
  5
E61B
 10
722.639
 20
-2199.89
 30
0.000000
  70
    32
  0
VERTEX
  8
01
  5
E61C
 10
722.521
 20
-2199.87
 30
0.000000
  70
    32
  0
VERTEX
  8
01
  5
E61D
 10
722.403
 20
-2199.84
 30
0.000000
  70
    32
  0
VERTEX
  8
01
  5
E61E
 10
722.283
 20
-2199.82
 30
0.000000
  70
    32
  0
VERTEX
  8
01
  5
E61F
 10
722.163
 20
-2199.81
 30
0.000000
  70
    32
  0
VERTEX
  8
01
  5
E620
 10
722.042
 20
-2199.79
 30
0.000000
  70
    32
  0
VERTEX
  8
01
  5
E621
 10
721.921
 20
-2199.78
 30
0.000000
  70
    32
  0
VERTEX
  8
01
  5
E622
 10
721.800
 20
-2199.76
 30
0.000000
  70
    32
  0
VERTEX
  8
01
  5
E623
 10
721.678
 20
-2199.75
 30
0.000000
  70
    32
  0
VERTEX
  8
01
  5
E624
 10
721.555
 20
-2199.75
 30
0.000000
  70
    32
  0
VERTEX
  8
01
  5
E625
 10
721.433
 20
-2199.74
 30
0.000000
  70
    32
  0
VERTEX
  8
01
  5
E626
 10
721.310
 20
-2199.74
 30
0.000000
  70
    32
  0
VERTEX
  8
01
  5
E627
 10
721.188
 20
-2199.74
 30
0.000000
  70
    32
  0
VERTEX
  8
01
  5
E628
 10
721.065
 20
-2199.74
 30
0.000000
  70
    32
  0
VERTEX
  8
01
  5
E629
 10
720.942
 20
-2199.74
 30
0.000000
  70
    32
  0
VERTEX
  8
01
  5
E62A
 10
720.820
 20
-2199.75
 30
0.000000
  70
    32
  0
VERTEX
  8
01
  5
E62B
 10
720.698
 20
-2199.75
 30
0.000000
  70
    32
  0
VERTEX
  8
01
  5
E62C
 10
720.576
 20
-2199.76
 30
0.000000
  70
    32
  0
VERTEX
  8
01
  5
E62D
 10
720.454
 20
-2199.78
 30
0.000000
  70
    32
  0
VERTEX
  8
01
  5
E62E
 10
720.333
 20
-2199.79
 30
0.000000
  70
    32
  0
VERTEX
  8
01
  5
E62F
 10
720.212
 20
-2199.81
 30
0.000000
  70
    32
  0
VERTEX
  8
01
  5
E630
 10
720.092
 20
-2199.82
 30
0.000000
  70
    32
  0
VERTEX
  8
01
  5
E631
 10
719.973
 20
-2199.84
 30
0.000000
  70
    32
  0
VERTEX
  8
01
  5
E632
 10
719.854
 20
-2199.87
 30
0.000000
  70
    32
  0
VERTEX
  8
01
  5
E633
 10
719.736
 20
-2199.89
 30
0.000000
  70
    32
  0
VERTEX
  8
01
  5
E634
 10
719.619
 20
-2199.92
 30
0.000000
  70
    32
  0
VERTEX
  8
01
  5
E635
 10
719.503
 20
-2199.95
 30
0.000000
  70
    32
  0
VERTEX
  8
01
  5
E636
 10
719.388
 20
-2199.98
 30
0.000000
  70
    32
  0
VERTEX
  8
01
  5
E637
 10
719.274
 20
-2200.01
 30
0.000000
  70
    32
  0
VERTEX
  8
01
  5
E638
 10
719.161
 20
-2200.04
 30
0.000000
  70
    32
  0
VERTEX
  8
01
  5
E639
 10
719.050
 20
-2200.08
 30
0.000000
  70
    32
  0
VERTEX
  8
01
  5
E63A
 10
718.940
 20
-2200.12
 30
0.000000
  70
    32
  0
VERTEX
  8
01
  5
E63B
 10
718.831
 20
-2200.16
 30
0.000000
  70
    32
  0
VERTEX
  8
01
  5
E63C
 10
718.723
 20
-2200.20
 30
0.000000
  70
    32
  0
VERTEX
  8
01
  5
E63D
 10
718.617
 20
-2200.24
 30
0.000000
  70
    32
  0
VERTEX
  8
01
  5
E63E
 10
718.513
 20
-2200.29
 30
0.000000
  70
    32
  0
VERTEX
  8
01
  5
E63F
 10
718.410
 20
-2200.34
 30
0.000000
  70
    32
  0
VERTEX
  8
01
  5
E640
 10
718.309
 20
-2200.39
 30
0.000000
  70
    32
  0
VERTEX
  8
01
  5
E641
 10
718.209
 20
-2200.44
 30
0.000000
  70
    32
  0
VERTEX
  8
01
  5
E642
 10
718.112
 20
-2200.49
 30
0.000000
  70
    32
  0
VERTEX
  8
01
  5
E643
 10
718.016
 20
-2200.55
 30
0.000000
  70
    32
  0
VERTEX
  8
01
  5
E644
 10
717.922
 20
-2200.60
 30
0.000000
  70
    32
  0
VERTEX
  8
01
  5
E645
 10
717.830
 20
-2200.66
 30
0.000000
  70
    32
  0
VERTEX
  8
01
  5
E646
 10
717.740
 20
-2200.72
 30
0.000000
  70
    32
  0
VERTEX
  8
01
  5
E647
 10
717.652
 20
-2200.78
 30
0.000000
  70
    32
  0
VERTEX
  8
01
  5
E648
 10
717.566
 20
-2200.84
 30
0.000000
  70
    32
  0
VERTEX
  8
01
  5
E649
 10
717.483
 20
-2200.91
 30
0.000000
  70
    32
  0
VERTEX
  8
01
  5
E64A
 10
717.402
 20
-2200.97
 30
0.000000
  70
    32
  0
VERTEX
  8
01
  5
E64B
 10
717.323
 20
-2201.04
 30
0.000000
  70
    32
  0
VERTEX
  8
01
  5
E64C
 10
717.246
 20
-2201.11
 30
0.000000
  70
    32
  0
VERTEX
  8
01
  5
E64D
 10
717.172
 20
-2201.18
 30
0.000000
  70
    32
  0
VERTEX
  8
01
  5
E64E
 10
717.100
 20
-2201.25
 30
0.000000
  70
    32
  0
VERTEX
  8
01
  5
E64F
 10
717.030
 20
-2201.32
 30
0.000000
  70
    32
  0
VERTEX
  8
01
  5
E650
 10
716.963
 20
-2201.40
 30
0.000000
  70
    32
  0
VERTEX
  8
01
  5
E651
 10
716.899
 20
-2201.47
 30
0.000000
  70
    32
  0
VERTEX
  8
01
  5
E652
 10
716.837
 20
-2201.55
 30
0.000000
  70
    32
  0
VERTEX
  8
01
  5
E653
 10
716.778
 20
-2201.62
 30
0.000000
  70
    32
  0
VERTEX
  8
01
  5
E654
 10
716.722
 20
-2201.70
 30
0.000000
  70
    32
  0
VERTEX
  8
01
  5
E655
 10
716.668
 20
-2201.78
 30
0.000000
  70
    32
  0
VERTEX
  8
01
  5
E656
 10
716.617
 20
-2201.86
 30
0.000000
  70
    32
  0
VERTEX
  8
01
  5
E657
 10
716.568
 20
-2201.94
 30
0.000000
  70
    32
  0
VERTEX
  8
01
  5
E658
 10
716.523
 20
-2202.02
 30
0.000000
  70
    32
  0
VERTEX
  8
01
  5
E659
 10
716.480
 20
-2202.10
 30
0.000000
  70
    32
  0
VERTEX
  8
01
  5
E65A
 10
716.440
 20
-2202.19
 30
0.000000
  70
    32
  0
VERTEX
  8
01
  5
E65B
 10
716.403
 20
-2202.27
 30
0.000000
  70
    32
  0
VERTEX
  8
01
  5
E65C
 10
716.369
 20
-2202.35
 30
0.000000
  70
    32
  0
VERTEX
  8
01
  5
E65D
 10
716.338
 20
-2202.44
 30
0.000000
  70
    32
  0
VERTEX
  8
01
  5
E65E
 10
716.309
 20
-2202.52
 30
0.000000
  70
    32
  0
VERTEX
  8
01
  5
E65F
 10
716.284
 20
-2202.61
 30
0.000000
  70
    32
  0
VERTEX
  8
01
  5
E660
 10
716.261
 20
-2202.70
 30
0.000000
  70
    32
  0
VERTEX
  8
01
  5
E661
 10
716.242
 20
-2202.78
 30
0.000000
  70
    32
  0
VERTEX
  8
01
  5
E662
 10
716.225
 20
-2202.87
 30
0.000000
  70
    32
  0
VERTEX
  8
01
  5
E663
 10
716.212
 20
-2202.96
 30
0.000000
  70
    32
  0
VERTEX
  8
01
  5
E664
 10
716.201
 20
-2203.04
 30
0.000000
  70
    32
  0
VERTEX
  8
01
  5
E665
 10
716.194
 20
-2203.13
 30
0.000000
  70
    32
  0
VERTEX
  8
01
  5
E666
 10
716.189
 20
-2203.22
 30
0.000000
  70
    32
  0
VERTEX
  8
01
  5
E667
 10
716.188
 20
-2203.31
 30
0.000000
  70
    32
  0
SEQEND
  8
01
  5
E668
  0
LINE
  5
287E
  8
01
 10
721.18766916632421
 20
-2219.7369486528401
 30
0.0
 11
715.1876691663241
 21
-2219.7369486528401
 31
0.0
  0
LINE
  5
287F
  8
01
 10
726.18766916632421
 20
-2214.7369486528401
 30
0.0
 11
716.18766916632421
 21
-2214.7369486528401
 31
0.0
  0
POLYLINE
  5
2880
  8
01
 10
726.18766916632421
 20
-2216.16852865284
 30
0.0
 66
     1
 70
     8
  0
VERTEX
  8
01
  5
E669
 10
726.188
 20
-2216.17
 30
0.000000
  70
    32
  0
VERTEX
  8
01
  5
E66A
 10
726.186
 20
-2216.26
 30
0.000000
  70
    32
  0
VERTEX
  8
01
  5
E66B
 10
726.182
 20
-2216.34
 30
0.000000
  70
    32
  0
VERTEX
  8
01
  5
E66C
 10
726.174
 20
-2216.43
 30
0.000000
  70
    32
  0
VERTEX
  8
01
  5
E66D
 10
726.164
 20
-2216.52
 30
0.000000
  70
    32
  0
VERTEX
  8
01
  5
E66E
 10
726.150
 20
-2216.61
 30
0.000000
  70
    32
  0
VERTEX
  8
01
  5
E66F
 10
726.134
 20
-2216.69
 30
0.000000
  70
    32
  0
VERTEX
  8
01
  5
E670
 10
726.114
 20
-2216.78
 30
0.000000
  70
    32
  0
VERTEX
  8
01
  5
E671
 10
726.092
 20
-2216.86
 30
0.000000
  70
    32
  0
VERTEX
  8
01
  5
E672
 10
726.066
 20
-2216.95
 30
0.000000
  70
    32
  0
VERTEX
  8
01
  5
E673
 10
726.038
 20
-2217.04
 30
0.000000
  70
    32
  0
VERTEX
  8
01
  5
E674
 10
726.007
 20
-2217.12
 30
0.000000
  70
    32
  0
VERTEX
  8
01
  5
E675
 10
725.972
 20
-2217.20
 30
0.000000
  70
    32
  0
VERTEX
  8
01
  5
E676
 10
725.935
 20
-2217.29
 30
0.000000
  70
    32
  0
VERTEX
  8
01
  5
E677
 10
725.895
 20
-2217.37
 30
0.000000
  70
    32
  0
VERTEX
  8
01
  5
E678
 10
725.853
 20
-2217.45
 30
0.000000
  70
    32
  0
VERTEX
  8
01
  5
E679
 10
725.807
 20
-2217.53
 30
0.000000
  70
    32
  0
VERTEX
  8
01
  5
E67A
 10
725.759
 20
-2217.61
 30
0.000000
  70
    32
  0
VERTEX
  8
01
  5
E67B
 10
725.708
 20
-2217.69
 30
0.000000
  70
    32
  0
VERTEX
  8
01
  5
E67C
 10
725.654
 20
-2217.77
 30
0.000000
  70
    32
  0
VERTEX
  8
01
  5
E67D
 10
725.597
 20
-2217.85
 30
0.000000
  70
    32
  0
VERTEX
  8
01
  5
E67E
 10
725.538
 20
-2217.93
 30
0.000000
  70
    32
  0
VERTEX
  8
01
  5
E67F
 10
725.476
 20
-2218.00
 30
0.000000
  70
    32
  0
VERTEX
  8
01
  5
E680
 10
725.412
 20
-2218.08
 30
0.000000
  70
    32
  0
VERTEX
  8
01
  5
E681
 10
725.345
 20
-2218.15
 30
0.000000
  70
    32
  0
VERTEX
  8
01
  5
E682
 10
725.276
 20
-2218.22
 30
0.000000
  70
    32
  0
VERTEX
  8
01
  5
E683
 10
725.204
 20
-2218.29
 30
0.000000
  70
    32
  0
VERTEX
  8
01
  5
E684
 10
725.129
 20
-2218.36
 30
0.000000
  70
    32
  0
VERTEX
  8
01
  5
E685
 10
725.053
 20
-2218.43
 30
0.000000
  70
    32
  0
VERTEX
  8
01
  5
E686
 10
724.974
 20
-2218.50
 30
0.000000
  70
    32
  0
VERTEX
  8
01
  5
E687
 10
724.892
 20
-2218.56
 30
0.000000
  70
    32
  0
VERTEX
  8
01
  5
E688
 10
724.809
 20
-2218.63
 30
0.000000
  70
    32
  0
VERTEX
  8
01
  5
E689
 10
724.723
 20
-2218.69
 30
0.000000
  70
    32
  0
VERTEX
  8
01
  5
E68A
 10
724.635
 20
-2218.75
 30
0.000000
  70
    32
  0
VERTEX
  8
01
  5
E68B
 10
724.545
 20
-2218.81
 30
0.000000
  70
    32
  0
VERTEX
  8
01
  5
E68C
 10
724.454
 20
-2218.87
 30
0.000000
  70
    32
  0
VERTEX
  8
01
  5
E68D
 10
724.360
 20
-2218.93
 30
0.000000
  70
    32
  0
VERTEX
  8
01
  5
E68E
 10
724.264
 20
-2218.98
 30
0.000000
  70
    32
  0
VERTEX
  8
01
  5
E68F
 10
724.166
 20
-2219.03
 30
0.000000
  70
    32
  0
VERTEX
  8
01
  5
E690
 10
724.067
 20
-2219.09
 30
0.000000
  70
    32
  0
VERTEX
  8
01
  5
E691
 10
723.966
 20
-2219.14
 30
0.000000
  70
    32
  0
VERTEX
  8
01
  5
E692
 10
723.863
 20
-2219.18
 30
0.000000
  70
    32
  0
VERTEX
  8
01
  5
E693
 10
723.758
 20
-2219.23
 30
0.000000
  70
    32
  0
VERTEX
  8
01
  5
E694
 10
723.652
 20
-2219.27
 30
0.000000
  70
    32
  0
VERTEX
  8
01
  5
E695
 10
723.545
 20
-2219.32
 30
0.000000
  70
    32
  0
VERTEX
  8
01
  5
E696
 10
723.436
 20
-2219.36
 30
0.000000
  70
    32
  0
VERTEX
  8
01
  5
E697
 10
723.325
 20
-2219.39
 30
0.000000
  70
    32
  0
VERTEX
  8
01
  5
E698
 10
723.214
 20
-2219.43
 30
0.000000
  70
    32
  0
VERTEX
  8
01
  5
E699
 10
723.101
 20
-2219.47
 30
0.000000
  70
    32
  0
VERTEX
  8
01
  5
E69A
 10
722.987
 20
-2219.50
 30
0.000000
  70
    32
  0
VERTEX
  8
01
  5
E69B
 10
722.872
 20
-2219.53
 30
0.000000
  70
    32
  0
VERTEX
  8
01
  5
E69C
 10
722.756
 20
-2219.56
 30
0.000000
  70
    32
  0
VERTEX
  8
01
  5
E69D
 10
722.639
 20
-2219.58
 30
0.000000
  70
    32
  0
VERTEX
  8
01
  5
E69E
 10
722.521
 20
-2219.61
 30
0.000000
  70
    32
  0
VERTEX
  8
01
  5
E69F
 10
722.403
 20
-2219.63
 30
0.000000
  70
    32
  0
VERTEX
  8
01
  5
E6A0
 10
722.283
 20
-2219.65
 30
0.000000
  70
    32
  0
VERTEX
  8
01
  5
E6A1
 10
722.163
 20
-2219.67
 30
0.000000
  70
    32
  0
VERTEX
  8
01
  5
E6A2
 10
722.042
 20
-2219.68
 30
0.000000
  70
    32
  0
VERTEX
  8
01
  5
E6A3
 10
721.921
 20
-2219.70
 30
0.000000
  70
    32
  0
VERTEX
  8
01
  5
E6A4
 10
721.800
 20
-2219.71
 30
0.000000
  70
    32
  0
VERTEX
  8
01
  5
E6A5
 10
721.678
 20
-2219.72
 30
0.000000
  70
    32
  0
VERTEX
  8
01
  5
E6A6
 10
721.555
 20
-2219.73
 30
0.000000
  70
    32
  0
VERTEX
  8
01
  5
E6A7
 10
721.433
 20
-2219.73
 30
0.000000
  70
    32
  0
VERTEX
  8
01
  5
E6A8
 10
721.310
 20
-2219.74
 30
0.000000
  70
    32
  0
VERTEX
  8
01
  5
E6A9
 10
721.188
 20
-2219.74
 30
0.000000
  70
    32
  0
VERTEX
  8
01
  5
E6AA
 10
721.065
 20
-2219.74
 30
0.000000
  70
    32
  0
VERTEX
  8
01
  5
E6AB
 10
720.942
 20
-2219.73
 30
0.000000
  70
    32
  0
VERTEX
  8
01
  5
E6AC
 10
720.820
 20
-2219.73
 30
0.000000
  70
    32
  0
VERTEX
  8
01
  5
E6AD
 10
720.698
 20
-2219.72
 30
0.000000
  70
    32
  0
VERTEX
  8
01
  5
E6AE
 10
720.576
 20
-2219.71
 30
0.000000
  70
    32
  0
VERTEX
  8
01
  5
E6AF
 10
720.454
 20
-2219.70
 30
0.000000
  70
    32
  0
VERTEX
  8
01
  5
E6B0
 10
720.333
 20
-2219.68
 30
0.000000
  70
    32
  0
VERTEX
  8
01
  5
E6B1
 10
720.212
 20
-2219.67
 30
0.000000
  70
    32
  0
VERTEX
  8
01
  5
E6B2
 10
720.092
 20
-2219.65
 30
0.000000
  70
    32
  0
VERTEX
  8
01
  5
E6B3
 10
719.973
 20
-2219.63
 30
0.000000
  70
    32
  0
VERTEX
  8
01
  5
E6B4
 10
719.854
 20
-2219.61
 30
0.000000
  70
    32
  0
VERTEX
  8
01
  5
E6B5
 10
719.736
 20
-2219.58
 30
0.000000
  70
    32
  0
VERTEX
  8
01
  5
E6B6
 10
719.619
 20
-2219.56
 30
0.000000
  70
    32
  0
VERTEX
  8
01
  5
E6B7
 10
719.503
 20
-2219.53
 30
0.000000
  70
    32
  0
VERTEX
  8
01
  5
E6B8
 10
719.388
 20
-2219.50
 30
0.000000
  70
    32
  0
VERTEX
  8
01
  5
E6B9
 10
719.274
 20
-2219.47
 30
0.000000
  70
    32
  0
VERTEX
  8
01
  5
E6BA
 10
719.161
 20
-2219.43
 30
0.000000
  70
    32
  0
VERTEX
  8
01
  5
E6BB
 10
719.050
 20
-2219.39
 30
0.000000
  70
    32
  0
VERTEX
  8
01
  5
E6BC
 10
718.940
 20
-2219.36
 30
0.000000
  70
    32
  0
VERTEX
  8
01
  5
E6BD
 10
718.831
 20
-2219.32
 30
0.000000
  70
    32
  0
VERTEX
  8
01
  5
E6BE
 10
718.723
 20
-2219.27
 30
0.000000
  70
    32
  0
VERTEX
  8
01
  5
E6BF
 10
718.617
 20
-2219.23
 30
0.000000
  70
    32
  0
VERTEX
  8
01
  5
E6C0
 10
718.513
 20
-2219.18
 30
0.000000
  70
    32
  0
VERTEX
  8
01
  5
E6C1
 10
718.410
 20
-2219.14
 30
0.000000
  70
    32
  0
VERTEX
  8
01
  5
E6C2
 10
718.309
 20
-2219.09
 30
0.000000
  70
    32
  0
VERTEX
  8
01
  5
E6C3
 10
718.209
 20
-2219.03
 30
0.000000
  70
    32
  0
VERTEX
  8
01
  5
E6C4
 10
718.112
 20
-2218.98
 30
0.000000
  70
    32
  0
VERTEX
  8
01
  5
E6C5
 10
718.016
 20
-2218.93
 30
0.000000
  70
    32
  0
VERTEX
  8
01
  5
E6C6
 10
717.922
 20
-2218.87
 30
0.000000
  70
    32
  0
VERTEX
  8
01
  5
E6C7
 10
717.830
 20
-2218.81
 30
0.000000
  70
    32
  0
VERTEX
  8
01
  5
E6C8
 10
717.740
 20
-2218.75
 30
0.000000
  70
    32
  0
VERTEX
  8
01
  5
E6C9
 10
717.652
 20
-2218.69
 30
0.000000
  70
    32
  0
VERTEX
  8
01
  5
E6CA
 10
717.566
 20
-2218.63
 30
0.000000
  70
    32
  0
VERTEX
  8
01
  5
E6CB
 10
717.483
 20
-2218.56
 30
0.000000
  70
    32
  0
VERTEX
  8
01
  5
E6CC
 10
717.402
 20
-2218.50
 30
0.000000
  70
    32
  0
VERTEX
  8
01
  5
E6CD
 10
717.323
 20
-2218.43
 30
0.000000
  70
    32
  0
VERTEX
  8
01
  5
E6CE
 10
717.246
 20
-2218.36
 30
0.000000
  70
    32
  0
VERTEX
  8
01
  5
E6CF
 10
717.172
 20
-2218.29
 30
0.000000
  70
    32
  0
VERTEX
  8
01
  5
E6D0
 10
717.100
 20
-2218.22
 30
0.000000
  70
    32
  0
VERTEX
  8
01
  5
E6D1
 10
717.030
 20
-2218.15
 30
0.000000
  70
    32
  0
VERTEX
  8
01
  5
E6D2
 10
716.963
 20
-2218.08
 30
0.000000
  70
    32
  0
VERTEX
  8
01
  5
E6D3
 10
716.899
 20
-2218.00
 30
0.000000
  70
    32
  0
VERTEX
  8
01
  5
E6D4
 10
716.837
 20
-2217.93
 30
0.000000
  70
    32
  0
VERTEX
  8
01
  5
E6D5
 10
716.778
 20
-2217.85
 30
0.000000
  70
    32
  0
VERTEX
  8
01
  5
E6D6
 10
716.722
 20
-2217.77
 30
0.000000
  70
    32
  0
VERTEX
  8
01
  5
E6D7
 10
716.668
 20
-2217.69
 30
0.000000
  70
    32
  0
VERTEX
  8
01
  5
E6D8
 10
716.617
 20
-2217.61
 30
0.000000
  70
    32
  0
VERTEX
  8
01
  5
E6D9
 10
716.568
 20
-2217.53
 30
0.000000
  70
    32
  0
VERTEX
  8
01
  5
E6DA
 10
716.523
 20
-2217.45
 30
0.000000
  70
    32
  0
VERTEX
  8
01
  5
E6DB
 10
716.480
 20
-2217.37
 30
0.000000
  70
    32
  0
VERTEX
  8
01
  5
E6DC
 10
716.440
 20
-2217.29
 30
0.000000
  70
    32
  0
VERTEX
  8
01
  5
E6DD
 10
716.403
 20
-2217.20
 30
0.000000
  70
    32
  0
VERTEX
  8
01
  5
E6DE
 10
716.369
 20
-2217.12
 30
0.000000
  70
    32
  0
VERTEX
  8
01
  5
E6DF
 10
716.338
 20
-2217.04
 30
0.000000
  70
    32
  0
VERTEX
  8
01
  5
E6E0
 10
716.309
 20
-2216.95
 30
0.000000
  70
    32
  0
VERTEX
  8
01
  5
E6E1
 10
716.284
 20
-2216.86
 30
0.000000
  70
    32
  0
VERTEX
  8
01
  5
E6E2
 10
716.261
 20
-2216.78
 30
0.000000
  70
    32
  0
VERTEX
  8
01
  5
E6E3
 10
716.242
 20
-2216.69
 30
0.000000
  70
    32
  0
VERTEX
  8
01
  5
E6E4
 10
716.225
 20
-2216.61
 30
0.000000
  70
    32
  0
VERTEX
  8
01
  5
E6E5
 10
716.212
 20
-2216.52
 30
0.000000
  70
    32
  0
VERTEX
  8
01
  5
E6E6
 10
716.201
 20
-2216.43
 30
0.000000
  70
    32
  0
VERTEX
  8
01
  5
E6E7
 10
716.194
 20
-2216.34
 30
0.000000
  70
    32
  0
VERTEX
  8
01
  5
E6E8
 10
716.189
 20
-2216.26
 30
0.000000
  70
    32
  0
VERTEX
  8
01
  5
E6E9
 10
716.188
 20
-2216.17
 30
0.000000
  70
    32
  0
SEQEND
  8
01
  5
E6EA
  0
LINE
  5
2881
  8
01
 10
726.18766916632421
 20
-2203.3053686528401
 30
0.0
 11
726.18766916632421
 21
-2216.1685286528409
 31
0.0
  0
LINE
  5
2882
  8
01
 10
716.18766916632421
 20
-2203.3053686528401
 30
0.0
 11
716.18766916632421
 21
-2216.1685286528382
 31
0.0
  0
LINE
  5
2883
  8
01
 10
712.18765416632459
 20
-2169.736948652841
 30
0.0
 11
711.18765416632459
 21
-2168.736948652841
 31
0.0
  0
LINE
  5
2884
  8
01
 10
713.58767116632453
 20
-2169.636968652841
 30
0.0
 11
712.78769016632441
 21
-2168.8369886528399
 31
0.0
  0
LINE
  5
2885
  8
01
 10
713.58767116632453
 20
-2251.8369586528402
 30
0.0
 11
712.78766816632424
 21
-2252.6369386528409
 31
0.0
  0
LINE
  5
2886
  8
01
 10
712.18761616632435
 20
-2251.7369786528402
 30
0.0
 11
711.18763116632397
 21
-2252.7369786528402
 31
0.0
  0
LINE
  5
2887
  8
01
 10
715.1876691663241
 20
-2275.7369486528401
 30
0.0
 11
711.1876691663241
 21
-2275.7369486528401
 31
0.0
  0
LINE
  5
2888
  8
01
 10
712.78767516632468
 20
-2275.7369486528401
 30
0.0
 11
712.78767516632468
 21
-2252.6369386528409
 31
0.0
  0
LINE
  5
2889
  8
01
 10
711.1876691663241
 20
-2275.7369486528401
 30
0.0
 11
711.1876691663241
 21
-2252.736948652841
 31
0.0
  0
LINE
  5
288A
  8
01
 10
712.18766916632421
 20
-2169.736948652841
 30
0.0
 11
712.18766916632421
 21
-2251.7369486528401
 31
0.0
  0
LINE
  5
288B
  8
01
 10
715.1876691663241
 20
-2145.736948652841
 30
0.0
 11
711.1876691663241
 21
-2145.736948652841
 31
0.0
  0
LINE
  5
288E
  8
01
 10
821.6876691663241
 20
-2151.736948652841
 30
0.0
 11
821.6876691663241
 21
-2269.736948652841
 31
0.0
  0
LINE
  5
288F
  8
01
 10
846.6876691663241
 20
-2151.736948652841
 30
0.0
 11
846.6876691663241
 21
-2269.736948652841
 31
0.0
  0
ARC
  5
2890
  8
01
 10
840.68766916632421
 20
-2269.736948652841
 30
0.0
 40
6.0
 50
270.0
 51
0.0
  0
ARC
  5
2891
  8
01
 10
827.6876691663241
 20
-2269.736948652841
 30
0.0
 40
6.0
 50
180.0
 51
270.0
  0
LINE
  5
2892
  8
01
 10
841.9376691663241
 20
-2203.3053686528401
 30
0.0
 11
841.9376691663241
 21
-2216.16852865284
 31
0.0
  0
LINE
  5
2893
  8
01
 10
840.93766916632421
 20
-2204.736948652841
 30
0.0
 11
840.93766916632421
 21
-2214.7369486528401
 31
0.0
  0
LINE
  5
2894
  8
01
 10
827.43766916632421
 20
-2204.736948652841
 30
0.0
 11
827.43766916632421
 21
-2214.7369486528401
 31
0.0
  0
LINE
  5
2895
  8
01
 10
826.43766916632421
 20
-2203.3053686528401
 30
0.0
 11
826.43766916632421
 21
-2216.16852865284
 31
0.0
  0
ARC
  5
2896
  8
01
 10
834.1876691663241
 20
-2209.53693865284
 30
0.0
 40
10.199999999999999
 50
220.5530799999753
 51
319.44692000002459
  0
LINE
  5
2897
  8
01
 10
827.43766916632421
 20
-2214.7369486528401
 30
0.0
 11
840.93766916632421
 21
-2214.7369486528401
 31
0.0
  0
LINE
  5
2898
  8
01
 10
827.43766916632421
 20
-2204.736948652841
 30
0.0
 11
840.93766916632421
 21
-2204.736948652841
 31
0.0
  0
ARC
  5
2899
  8
01
 10
834.1876691663241
 20
-2209.9369586528401
 30
0.0
 40
10.199999999999999
 50
40.553083999977588
 51
139.44692000002459
  0
CIRCLE
  5
289A
  8
01
 10
834.1876691663241
 20
-2267.7369486528401
 30
0.0
 40
4.5
  0
CIRCLE
  5
289B
  8
01
 10
834.1876691663241
 20
-2267.7369486528401
 30
0.0
 40
2.75
  0
LINE
  5
289C
  8
01
 10
827.6876691663241
 20
-2275.7369486528401
 30
0.0
 11
840.68766916632421
 21
-2275.7369486528401
 31
0.0
  0
ARC
  5
289D
  8
01
 10
840.68766916632421
 20
-2151.736948652841
 30
0.0
 40
6.0
 50
0.0
 51
90.0
  0
ARC
  5
289F
  8
01
 10
827.6876691663241
 20
-2151.736948652841
 30
0.0
 40
6.0
 50
90.0
 51
180.0
  0
LINE
  5
28A0
  8
01
 10
827.6876691663241
 20
-2145.736948652841
 30
0.0
 11
840.68766916632421
 21
-2145.736948652841
 31
0.0
  0
CIRCLE
  5
28A1
  8
01
 10
834.1876691663241
 20
-2153.736948652841
 30
0.0
 40
4.5
  0
CIRCLE
  5
28A2
  8
01
 10
834.1876691663241
 20
-2153.736948652841
 30
0.0
 40
2.75
  0
TEXT
  5
28A3
  8
01
 10
649.18768516632406
 20
-1946.7369486528401
 30
0.0
 40
20.0
  1
3-KAC-X-LW
  0
LINE
  5
28A8
  8
01
 10
955.58767516632406
 20
-2145.736948652841
 30
0.0
 11
955.58767516632406
 21
-2168.8369186528398
 31
0.0
  0
LINE
  5
28A9
  8
01
 10
957.18766516632468
 20
-2145.736948652841
 30
0.0
 11
957.18766516632468
 21
-2168.736948652841
 31
0.0
  0
LINE
  5
28AA
  8
01
 10
954.78767516632468
 20
-2145.736948652841
 30
0.0
 11
954.78767516632468
 21
-2275.7369486528401
 31
0.0
  0
LINE
  5
28AB
  8
01
 10
953.18766516632456
 20
-2145.736948652841
 30
0.0
 11
953.18766516632456
 21
-2275.7369486528401
 31
0.0
  0
LINE
  5
28AD
  8
01
 10
956.18766516632468
 20
-2247.736948652841
 30
0.0
 11
984.97829245402625
 21
-2247.736948652841
 31
0.0
  0
LINE
  5
28AE
  8
01
 10
956.18767516632454
 20
-2169.736948652841
 30
0.0
 11
957.18767516632454
 21
-2168.736948652841
 31
0.0
  0
LINE
  5
28AF
  8
01
 10
954.78766516632504
 20
-2169.636968652841
 30
0.0
 11
955.58767516632406
 21
-2168.8369186528398
 31
0.0
  0
LINE
  5
28B0
  8
01
 10
946.18766516632456
 20
-2199.736948652841
 30
0.0
 11
953.18766516632456
 21
-2199.736948652841
 31
0.0
  0
LINE
  5
28B1
  8
01
 10
946.18766516632456
 20
-2219.7369486528401
 30
0.0
 11
953.18766516632456
 21
-2219.7369486528401
 31
0.0
  0
LINE
  5
28B2
  8
01
 10
942.26976516632431
 20
-2216.543218652841
 30
0.0
 11
953.18766516632456
 21
-2216.543218652841
 31
0.0
  0
LINE
  5
28B3
  8
01
 10
942.26976516632431
 20
-2202.9306686528398
 30
0.0
 11
953.18766516632456
 21
-2202.9306686528398
 31
0.0
  0
LINE
  5
28B4
  8
01
 10
942.18766516632468
 20
-2203.7369486528401
 30
0.0
 11
942.18766516632468
 21
-2215.736948652841
 31
0.0
  0
ARC
  5
28B5
  8
01
 10
946.18766516632456
 20
-2215.736948652841
 30
0.0
 40
4.0
 50
179.999989999999
 51
270.0
  0
ARC
  5
28B6
  8
01
 10
946.18766516632456
 20
-2203.7369486528401
 30
0.0
 40
4.0
 50
90.000002999984659
 51
180.00001000000091
  0
LINE
  5
28B7
  8
01
 10
954.78766516632504
 20
-2251.8369586528402
 30
0.0
 11
955.58767516632406
 21
-2252.6369386528409
 31
0.0
  0
LINE
  5
28B8
  8
01
 10
956.18771516632512
 20
-2251.7369786528402
 30
0.0
 11
957.18769516632403
 21
-2252.736948652841
 31
0.0
  0
LINE
  5
28B9
  8
01
 10
948.18766516632468
 20
-2267.7369486528401
 30
0.0
 11
962.18766516632456
 21
-2267.7369486528401
 31
0.0
  0
LINE
  5
28BA
  8
01
 10
953.18766516632456
 20
-2275.7369486528401
 30
0.0
 11
957.18766516632468
 21
-2275.7369486528401
 31
0.0
  0
LINE
  5
28BB
  8
01
 10
955.58767516632406
 20
-2275.7369486528401
 30
0.0
 11
955.58767516632406
 21
-2252.6369386528409
 31
0.0
  0
LINE
  5
28BC
  8
01
 10
957.18766516632468
 20
-2275.7369486528401
 30
0.0
 11
957.18766516632468
 21
-2252.736948652841
 31
0.0
  0
LINE
  5
28BD
  8
01
 10
956.18766516632468
 20
-2169.736948652841
 30
0.0
 11
956.18766516632468
 21
-2251.7369486528401
 31
0.0
  0
LINE
  5
28BE
  8
01
 10
1022.187665166325
 20
-2184.954745874109
 30
0.0
 11
1022.187665166325
 21
-2214.3875970799431
 31
0.0
  0
LINE
  5
28C0
  8
01
 10
953.18766516632456
 20
-2145.736948652841
 30
0.0
 11
957.18766516632468
 21
-2145.736948652841
 31
0.0
  0
LINE
  5
28C1
  8
01
 10
948.18766516632468
 20
-2153.736948652841
 30
0.0
 11
962.18766516632456
 21
-2153.736948652841
 31
0.0
  0
LINE
  5
28CB
  8
01
 10
957.18854934838453
 20
-1952.2369486538689
 30
0.0
 11
1023.188549348384
 21
-1952.2369486538689
 31
0.0
  0
LINE
  5
28CC
  8
01
 10
957.18854934838453
 20
-1953.836918653868
 30
0.0
 11
1023.188549348384
 21
-1953.836918653868
 31
0.0
  0
LINE
  5
28CD
  8
01
 10
954.78855934838475
 20
-1971.2369486538689
 30
0.0
 11
1023.188549348384
 21
-1971.2369486538689
 31
0.0
  0
LINE
  5
28CE
  8
01
 10
956.38853934838562
 20
-1956.7369486538689
 30
0.0
 11
957.18854934838453
 21
-1955.9369286538681
 31
0.0
  0
LINE
  5
28CF
  8
01
 10
957.18854934838453
 20
-1951.2369486538689
 30
0.0
 11
957.18854934838453
 21
-1955.9369286538681
 31
0.0
  0
LINE
  5
28D0
  8
01
 10
954.78855934838475
 20
-1956.736918653869
 30
0.0
 11
955.5885493483861
 21
-1955.936958653868
 31
0.0
  0
LINE
  5
28D1
  8
01
 10
942.18854934838475
 20
-1969.4869486538689
 30
0.0
 11
953.18854934838464
 21
-1969.4869486538689
 31
0.0
  0
LINE
  5
28D2
  8
01
 10
942.18854934838475
 20
-1969.4869486538689
 30
0.0
 11
942.18854934838475
 21
-1967.4869486538689
 31
0.0
  0
LINE
  5
28D3
  8
01
 10
953.18854934838464
 20
-1949.2369486538689
 30
0.0
 11
954.78855934838475
 21
-1949.2369486538689
 31
0.0
  0
LINE
  5
28D4
  8
01
 10
954.78855934838475
 20
-1949.2369486538689
 30
0.0
 11
954.78855934838475
 21
-1956.7369486538689
 31
0.0
  0
LINE
  5
28D5
  8
01
 10
955.58855934838596
 20
-1951.2369486538689
 30
0.0
 11
955.58855934838596
 21
-1955.9369286538681
 31
0.0
  0
LINE
  5
28D6
  8
01
 10
954.78855934838475
 20
-1951.2369486538689
 30
0.0
 11
957.18854934838453
 21
-1951.2369486538689
 31
0.0
  0
LINE
  5
28D7
  8
01
 10
957.18854934838453
 20
-1967.5369386538689
 30
0.0
 11
957.18854934838453
 21
-1971.2369486538689
 31
0.0
  0
LINE
  5
28D8
  8
01
 10
956.38855934838512
 20
-1966.736918653869
 30
0.0
 11
957.18854934838453
 21
-1967.5369386538689
 31
0.0
  0
LINE
  5
28D9
  8
01
 10
957.18854934838453
 20
-1969.636938653869
 30
0.0
 11
961.78855934838475
 21
-1969.636938653869
 31
0.0
  0
LINE
  5
28DA
  8
01
 10
954.788549348385
 20
-1966.736918653869
 30
0.0
 11
955.58855934838596
 21
-1967.5369386538689
 31
0.0
  0
LINE
  5
28DB
  8
01
 10
954.78855934838475
 20
-1966.7369486538689
 30
0.0
 11
954.78855934838475
 21
-1974.2369486538689
 31
0.0
  0
LINE
  5
28DC
  8
01
 10
953.18854934838464
 20
-1974.2369486538689
 30
0.0
 11
954.78855934838475
 21
-1974.2369486538689
 31
0.0
  0
LINE
  5
28DD
  8
01
 10
955.58855934838596
 20
-1967.5369386538689
 30
0.0
 11
955.58855934838596
 21
-1971.2369486538689
 31
0.0
  0
LINE
  5
28DE
  8
01
 10
953.18854934838464
 20
-1941.7369486538689
 30
0.0
 11
953.18854934838464
 21
-1981.7369486538689
 31
0.0
  0
LINE
  5
28DF
  8
01
 10
961.78855934838475
 20
-1953.836918653868
 30
0.0
 11
961.78855934838475
 21
-1971.2369486538689
 31
0.0
  0
LINE
  5
28E0
  8
01
 10
956.38854934838525
 20
-1956.7369486538689
 30
0.0
 11
956.38854934838525
 21
-1966.7369486538689
 31
0.0
  0
LINE
  5
28E1
  8
01
 10
954.78855934838475
 20
-1956.7369486538689
 30
0.0
 11
954.78855934838475
 21
-1966.7369486538689
 31
0.0
  0
ARC
  5
28E2
  8
01
 10
985.8580493483845
 20
-1991.8380286538679
 30
0.0
 40
50.0
 50
130.7976899999974
 51
150.85500000002
  0
LINE
  5
28E3
  8
01
 10
985.54989789461649
 20
-1996.236979653868
 30
0.0
 11
1001.172534506068
 21
-1996.236979653868
 31
0.0
  0
LINE
  5
28E4
  8
01
 10
1021.588549348386
 20
-1953.836918653868
 30
0.0
 11
1021.588549348386
 21
-1971.2369486538689
 31
0.0
  0
LINE
  5
28E5
  8
01
 10
1023.188549348384
 20
-1952.2369486538689
 30
0.0
 11
1023.188549348384
 21
-1971.2369486538689
 31
0.0
  0
LINE
  5
28E6
  8
01
 10
985.54989789461649
 20
-1927.2369176538709
 30
0.0
 11
1001.172534506068
 21
-1927.2369176538709
 31
0.0
  0
LINE
  5
28E9
  8
01
 10
720.18767316632375
 20
-2267.7369486528401
 30
0.0
 11
706.18767316632375
 21
-2267.7369486528401
 31
0.0
  0
LINE
  5
28EA
  8
01
 10
720.18767316632375
 20
-2153.736948652841
 30
0.0
 11
706.18767316632375
 21
-2153.736948652841
 31
0.0
  0
LINE
  5
28EB
  8
01
 10
840.68766916632421
 20
-2153.736948652841
 30
0.0
 11
827.6876691663241
 21
-2153.736948652841
 31
0.0
  0
LINE
  5
28EC
  8
01
 10
834.1876691663241
 20
-2147.236948652841
 30
0.0
 11
834.1876691663241
 21
-2160.2369486528401
 31
0.0
  0
LINE
  5
28ED
  8
01
 10
840.68766916632421
 20
-2267.7369486528401
 30
0.0
 11
827.6876691663241
 21
-2267.7369486528401
 31
0.0
  0
LINE
  5
28EE
  8
01
 10
834.1876691663241
 20
-2261.2369486528401
 30
0.0
 11
834.1876691663241
 21
-2274.236948652841
 31
0.0
  0
LINE
  5
28EF
  8
01
 10
694.18767316632375
 20
-2231.736948652841
 30
0.0
 11
634.18767316632375
 21
-2231.736948652841
 31
0.0
  0
LINE
  5
28F0
  8
01
 10
664.18767316632375
 20
-2201.736948652841
 30
0.0
 11
664.18767316632375
 21
-2261.736948652841
 31
0.0
  0
LINE
  5
28F1
  8
01
 10
974.18766516632468
 20
-2231.736948652841
 30
0.0
 11
1034.187665166324
 21
-2231.736948652841
 31
0.0
  0
LINE
  5
28F2
  8
01
 10
1004.187665166324
 20
-2201.736948652841
 30
0.0
 11
1004.187665166324
 21
-2261.736948652841
 31
0.0
  0
POINT
  5
28F7
  8
01
 10
868.68766916632421
 20
-2231.736948652841
 30
0.0
  0
LINE
  5
28F8
  8
01
 10
868.28766915632423
 20
-2233.4869486528401
 30
0.0
 11
868.28766915632423
 21
-2232.6369486328408
 31
0.0
  0
LINE
  5
28F9
  8
01
 10
869.08766917632408
 20
-2233.4869486528401
 30
0.0
 11
869.08766917632408
 21
-2232.6369486328408
 31
0.0
  0
LINE
  5
28FA
  8
01
 10
867.78766918632425
 20
-2232.136948662841
 30
0.0
 11
866.9376691663241
 21
-2232.136948662841
 31
0.0
  0
LINE
  5
28FB
  8
01
 10
867.78766918632425
 20
-2231.336948642841
 30
0.0
 11
866.9376691663241
 21
-2231.336948642841
 31
0.0
  0
LINE
  5
28FC
  8
01
 10
866.9376691663241
 20
-2232.136948662841
 30
0.0
 11
866.9376691663241
 21
-2231.336948642841
 31
0.0
  0
LINE
  5
28FD
  8
01
 10
869.08766917632408
 20
-2233.4869486528401
 30
0.0
 11
868.28766915632423
 21
-2233.4869486528401
 31
0.0
  0
LINE
  5
28FE
  8
01
 10
869.08766917632408
 20
-2229.9869486528401
 30
0.0
 11
869.08766917632408
 21
-2230.8369486728411
 31
0.0
  0
LINE
  5
28FF
  8
01
 10
868.28766915632423
 20
-2229.9869486528401
 30
0.0
 11
868.28766915632423
 21
-2230.8369486728411
 31
0.0
  0
LINE
  5
2900
  8
01
 10
869.58766914632395
 20
-2231.336948642841
 30
0.0
 11
870.43766916632421
 21
-2231.336948642841
 31
0.0
  0
LINE
  5
2901
  8
01
 10
869.58766914632395
 20
-2232.136948662841
 30
0.0
 11
870.43766916632421
 21
-2232.136948662841
 31
0.0
  0
LINE
  5
2902
  8
01
 10
870.43766916632421
 20
-2231.336948642841
 30
0.0
 11
870.43766916632421
 21
-2232.136948662841
 31
0.0
  0
LINE
  5
2903
  8
01
 10
868.28766915632423
 20
-2229.9869486528401
 30
0.0
 11
869.08766917632408
 21
-2229.9869486528401
 31
0.0
  0
CIRCLE
  5
2904
  8
01
 10
868.68766916632421
 20
-2231.736948652841
 30
0.0
 40
2.5
  0
ARC
  5
2905
  8
01
 10
869.58766914632395
 20
-2230.8369486728411
 30
0.0
 40
0.5
 50
179.9999899999998
 51
270.0
  0
ARC
  5
2906
  8
01
 10
869.58766914632395
 20
-2232.6369486328408
 30
0.0
 40
0.5
 50
90.000003000000945
 51
180.0000100000002
  0
ARC
  5
2907
  8
01
 10
867.78766918632425
 20
-2232.6369486328408
 30
0.0
 40
0.5
 50
0.0
 51
90.000003000000945
  0
ARC
  5
2908
  8
01
 10
867.78766918632425
 20
-2230.8369486728411
 30
0.0
 40
0.5
 50
270.0
 51
0.0
  0
POINT
  5
290A
  8
01
 10
799.68766916632421
 20
-2231.736948652841
 30
0.0
 50
180.0
  0
CIRCLE
  5
290B
  8
01
 10
799.68766916632421
 20
-2231.736948652841
 30
0.0
 40
2.5
  0
LINE
  5
2937
  8
01
 10
651.18766516632331
 20
-2181.736948652841
 30
0.0
 11
677.18766516632331
 21
-2181.736948652841
 31
0.0
  0
LINE
  5
2938
  8
01
 10
686.68766516632331
 20
-2176.236948652841
 30
0.0
 11
641.6876651663232
 21
-2176.236948652841
 31
0.0
  0
LINE
  5
2939
  8
01
 10
664.18766516632331
 20
-2153.736948652841
 30
0.0
 11
664.18766516632331
 21
-2198.7369486528401
 31
0.0
  0
LINE
  5
293A
  8
01
 10
1017.187673166325
 20
-2181.736948652841
 30
0.0
 11
991.18767316632545
 21
-2181.736948652841
 31
0.0
  0
LINE
  5
293B
  8
01
 10
981.68767316632545
 20
-2176.236948652841
 30
0.0
 11
1026.6876731663251
 21
-2176.236948652841
 31
0.0
  0
LINE
  5
293C
  8
01
 10
1004.187673166325
 20
-2153.736948652841
 30
0.0
 11
1004.187673166325
 21
-2198.7369486528401
 31
0.0
  0
LINE
  5
597F
  8
01
 10
1004.187781506069
 20
-1911.7369486538689
 30
0.0
 11
1004.187781506069
 21
-1946.7369486538689
 31
0.0
  0
LINE
  5
5980
  8
01
 10
1004.187781506069
 20
-1976.7369486538689
 30
0.0
 11
1004.187781506069
 21
-2011.7369486538689
 31
0.0
  0
LINE
  5
5981
  8
01
 10
784.18766916632421
 20
-2231.736948652841
 30
0.0
 11
819.18766916632421
 21
-2231.736948652841
 31
0.0
  0
LINE
  5
5982
  8
01
 10
849.1876691663241
 20
-2231.736948652841
 30
0.0
 11
884.18766916632433
 21
-2231.736948652841
 31
0.0
  0
LINE
  5
A5DA
  8
01
 10
953.18854934838464
 20
-1981.7369486538689
 30
0.0
 11
1106.9429295034161
 21
-1981.7369486538689
 31
0.0
  0
LINE
  5
A5DB
  8
01
 10
953.18854934838464
 20
-1941.7369486538689
 30
0.0
 11
1106.9429295034161
 21
-1941.7369486538689
 31
0.0
  0
LINE
  5
C626
  8
01
 10
649.18768516632497
 20
-1987.2369486528401
 30
0.0
 11
806.68768516632497
 21
-1987.236948652841
 31
0.0
  0
TEXT
  5
C627
  8
01
 10
650.88768516632535
 20
-1984.9869486528401
 30
0.0
 40
6.0
  1
表面処理：脚部
 72
     1
 11
675.28768516632545
 21
-1984.9869486528401
 31
0.0
  0
LINE
  5
C628
  8
01
 10
649.18768516632497
 20
-1976.7369486528401
 30
0.0
 11
806.68768516632497
 21
-1976.7369486528401
 31
0.0
  0
TEXT
  5
C629
  8
01
 10
770.28768516632545
 20
-1984.9869486528401
 30
0.0
 40
6.0
  1
コード
 72
     1
 11
780.28768516632545
 21
-1984.9869486528401
 31
0.0
  0
TEXT
  5
C62A
  8
01
 10
703.38768516632535
 20
-1984.9869486528401
 30
0.0
 40
6.0
  1
表面処理：握り
 72
     1
 11
727.78768516632545
 21
-1984.9869486528401
 31
0.0
  0
TEXT
  5
C62B
  8
01
 10
714.18768516632633
 20
-1995.8084841283139
 30
0.0
 40
6.0
  1
クローム
 72
     1
 11
727.78768516632636
 21
-1995.8084841283139
 31
0.0
  0
LINE
  5
C62C
  8
01
 10
701.68768516632497
 20
-1976.7369486528401
 30
0.0
 11
701.68768516632474
 21
-2008.236948652841
 31
0.0
  0
LINE
  5
C62D
  8
01
 10
754.18768516632406
 20
-1976.7369486528401
 30
0.0
 11
754.18768516632645
 21
-2008.236948652841
 31
0.0
  0
LINE
  5
C62E
  8
01
 10
806.68768516632497
 20
-1976.7369486528401
 30
0.0
 11
806.68768516632474
 21
-2008.236948652841
 31
0.0
  0
LINE
  5
C62F
  8
01
 10
649.18768516632394
 20
-2008.2369486528401
 30
0.0
 11
649.18768516632406
 21
-1976.7369486528401
 31
0.0
  0
LINE
  5
C632
  8
01
 10
649.18768516632406
 20
-2008.2369486528401
 30
0.0
 11
806.68768516632497
 21
-2008.236948652841
 31
0.0
  0
TEXT
  5
C633
  8
01
 10
758.18768516632531
 20
-1995.8084841283151
 30
0.0
 40
6.0
  1
3-KAC-C-LW
 41
0.7
 72
     1
 11
780.28768516632545
 21
-1995.8084841283151
 31
0.0
  0
TEXT
  5
C634
  8
01
 10
755.98768516632538
 20
-2006.3084841283151
 30
0.0
 40
6.0
  1
3-KAC-CN-LW
 41
0.7
 72
     1
 11
780.28768516632545
 21
-2006.3084841283151
 31
0.0
  0
TEXT
  5
C635
  8
01
 10
703.38768516632365
 20
-2005.7033190701959
 30
0.0
 40
6.0
  1
サテンニッケル
 72
     1
 11
727.78768516632363
 21
-2005.7033190701959
 31
0.0
  0
LINE
  5
CB71
  8
01
 10
814.18766916632421
 20
-2206.7369486528401
 30
0.0
 11
814.18766916632421
 21
-2256.736948652841
 31
0.0
  0
LINE
  5
CB72
  8
01
 10
805.68766916632433
 20
-2255.7369486528401
 30
0.0
 11
805.68766916632433
 21
-2207.7369486528401
 31
0.0
  0
LINE
  5
CB73
  8
01
 10
814.18766916632421
 20
-2256.736948652841
 30
0.0
 11
806.68766916632421
 21
-2256.736948652841
 31
0.0
  0
ARC
  5
CB74
  8
01
 10
806.68766916632421
 20
-2255.7369486528401
 30
0.0
 40
1.0
 50
180.0
 51
270.0
  0
LINE
  5
CB75
  8
01
 10
814.18766916632421
 20
-2206.7369486528401
 30
0.0
 11
806.68766916632421
 21
-2206.7369486528401
 31
0.0
  0
ARC
  5
CB76
  8
01
 10
806.68766916632421
 20
-2207.7369486528401
 30
0.0
 40
1.0
 50
89.999999999999986
 51
180.0
  0
LINE
  5
D62A
  8
01
 10
984.97829245402602
 20
-2247.736948652841
 30
0.0
 11
1022.187665166325
 21
-2247.736948652841
 31
0.0
  0
LINE
  5
D62B
  8
01
 10
1022.187665166325
 20
-2214.3875970799431
 30
0.0
 11
1022.187665166325
 21
-2247.736948652841
 31
0.0
  0
ARC
  5
D631
  8
01
 10
1004.187665166324
 20
-2231.736948652841
 30
0.0
 40
25.0
 50
11.53695973454157
 51
168.4630402654584
  0
ARC
  5
D632
  8
01
 10
1004.187665166324
 20
-2231.736948652841
 30
0.0
 40
25.0
 50
191.53695416750779
 51
348.46304583249213
  0
LINE
  5
D634
  8
01
 10
854.18766916632421
 20
-2206.7369486528401
 30
0.0
 11
854.18766916632421
 21
-2256.736948652841
 31
0.0
  0
LINE
  5
D635
  8
01
 10
862.6876691663241
 20
-2255.7369486528401
 30
0.0
 11
862.6876691663241
 21
-2207.7369486528401
 31
0.0
  0
LINE
  5
D636
  8
01
 10
854.18766916632421
 20
-2256.736948652841
 30
0.0
 11
861.6876691663241
 21
-2256.736948652841
 31
0.0
  0
ARC
  5
D637
  8
01
 10
861.6876691663241
 20
-2255.7369486528401
 30
0.0
 40
1.0
 50
270.0
 51
0.0
  0
LINE
  5
D638
  8
01
 10
854.18766916632421
 20
-2206.7369486528401
 30
0.0
 11
861.6876691663241
 21
-2206.7369486528401
 31
0.0
  0
ARC
  5
D639
  8
01
 10
861.6876691663241
 20
-2207.7369486528401
 30
0.0
 40
1.0
 50
0.0
 51
90.0
  0
POINT
  5
D63C
  8
01
 10
863.18766916632421
 20
-2231.736948652841
 30
0.0
  0
POINT
  5
D63D
  8
01
 10
863.18766916632421
 20
-2231.736948652841
 30
0.0
  0
POINT
  5
D63E
  8
01
 10
863.18766916632421
 20
-2231.736948652841
 30
0.0
  0
LINE
  5
D63F
  8
01
 10
979.18778150606931
 20
-2046.2369486538689
 30
0.0
 11
1123.1877815060691
 21
-2046.2369486538689
 31
0.0
  0
LINE
  5
D640
  8
01
 10
1016.187781506069
 20
-2024.2369486538689
 30
0.0
 11
1123.1877815060691
 21
-2024.2369486538689
 31
0.0
  0
LINE
  5
D641
  8
01
 10
979.18778150606931
 20
-2024.2369486538689
 30
0.0
 11
992.1877815060692
 21
-2024.2369486538689
 31
0.0
  0
LINE
  5
D642
  8
01
 10
978.18778150606943
 20
-2045.2369486538689
 30
0.0
 11
978.18778150606943
 21
-2025.2369486538689
 31
0.0
  0
ARC
  5
D643
  8
01
 10
979.18778150606931
 20
-2045.2369486538689
 30
0.0
 40
1.0
 50
180.0
 51
270.0
  0
ARC
  5
D644
  8
01
 10
979.18778150606931
 20
-2025.2369486538689
 30
0.0
 40
1.0
 50
90.0
 51
180.0
  0
LINE
  5
D645
  8
01
 10
992.1877815060692
 20
-2039.7963356538689
 30
0.0
 11
992.1877815060692
 21
-1990.7369486538689
 31
0.0
  0
LINE
  5
D646
  8
01
 10
1016.187781506069
 20
-2039.7963356538689
 30
0.0
 11
1016.187781506069
 21
-1990.7369486538689
 31
0.0
  0
LINE
  5
D647
  8
01
 10
1015.187781506069
 20
-2040.7963356538689
 30
0.0
 11
993.1877815060692
 21
-2040.7963356538689
 31
0.0
  0
ARC
  5
D648
  8
01
 10
993.1877815060692
 20
-2039.7963356538689
 30
0.0
 40
1.0
 50
180.0
 51
270.0
  0
ARC
  5
D649
  8
01
 10
1015.187781506069
 20
-2039.7963356538689
 30
0.0
 40
1.0
 50
270.0
 51
0.0
  0
LINE
  5
D64A
  8
01
 10
1016.187781506069
 20
-1990.7369486538689
 30
0.0
 11
992.1877815060692
 21
-1990.7369486538689
 31
0.0
  0
LINE
  5
D64B
  8
01
 10
1124.1877815060691
 20
-2045.2369486538689
 30
0.0
 11
1124.1877815060691
 21
-2025.2369486538689
 31
0.0
  0
ARC
  5
D64C
  8
01
 10
1123.1877815060691
 20
-2045.2369486538689
 30
0.0
 40
1.0
 50
270.0
 51
0.0
  0
ARC
  5
D64D
  8
01
 10
1123.1877815060691
 20
-2025.2369486538689
 30
0.0
 40
1.0
 50
0.0
 51
90.0
  0
LINE
  5
D64E
  8
01
 10
979.28899816632429
 20
-2226.736948352841
 30
0.0
 11
1123.086331166325
 21
-2226.736948352841
 31
0.0
  0
LINE
  5
D64F
  8
01
 10
979.28899816632429
 20
-2236.7369465728411
 30
0.0
 11
1123.086331166325
 21
-2236.7369465728411
 31
0.0
  0
ARC
  5
D650
  8
01
 10
1058.1876656663251
 20
-2231.736948652841
 30
0.0
 40
80.0
 50
177.09770999997869
 51
182.90229000002131
  0
ARC
  5
D651
  8
01
 10
979.28899816632429
 20
-2235.7369465528409
 30
0.0
 40
1.0
 50
182.90229000002131
 51
270.0
  0
ARC
  5
D652
  8
01
 10
979.28899816632429
 20
-2227.736948652841
 30
0.0
 40
1.0
 50
90.0
 51
177.09772999999561
  0
LINE
  5
D653
  8
01
 10
993.4307521663244
 20
-2243.7369334528398
 30
0.0
 11
1014.944573166325
 21
-2243.7369334528398
 31
0.0
  0
LINE
  5
D654
  8
01
 10
992.18766516632468
 20
-2236.930933462841
 30
0.0
 11
1016.187665166325
 21
-2236.930933462841
 31
0.0
  0
ARC
  5
D655
  8
01
 10
997.18766516632468
 20
-2235.9309334528411
 30
0.0
 40
1.0
 50
233.70828000004011
 51
270.0
  0
ARC
  5
D656
  8
01
 10
1242.187664166325
 20
-2231.736948652841
 30
0.0
 40
250.0
 50
181.1459900000043
 51
182.53195999998391
  0
ARC
  5
D657
  8
01
 10
993.4307521663244
 20
-2242.7369334528412
 30
0.0
 40
1.0
 50
182.53195999998391
 51
270.0
  0
ARC
  5
D658
  8
01
 10
1011.187665166324
 20
-2235.9309334528411
 30
0.0
 40
1.0
 50
270.0
 51
306.29171000001321
  0
ARC
  5
D659
  8
01
 10
766.18766416632525
 20
-2231.736948652841
 30
0.0
 40
250.0
 50
357.46804000001612
 51
358.8540099999957
  0
ARC
  5
D65A
  8
01
 10
1014.944573166325
 20
-2242.7369334528412
 30
0.0
 40
1.0
 50
270.0
 51
357.46804000001612
  0
LINE
  5
D65B
  8
01
 10
993.4307521663244
 20
-2219.736948352841
 30
0.0
 11
1014.944573166325
 21
-2219.736948352841
 31
0.0
  0
LINE
  5
D65C
  8
01
 10
992.18766516632468
 20
-2226.5429483528401
 30
0.0
 11
1016.187665166325
 21
-2226.5429483528401
 31
0.0
  0
ARC
  5
D65D
  8
01
 10
1242.187664166325
 20
-2231.736948652841
 30
0.0
 40
250.0
 50
177.468040000016
 51
178.8540099999957
  0
ARC
  5
D65E
  8
01
 10
997.18766516632468
 20
-2227.5429484528408
 30
0.0
 40
1.0
 50
90.0
 51
126.2930499999655
  0
ARC
  5
D65F
  8
01
 10
993.4307521663244
 20
-2220.736948352841
 30
0.0
 40
1.0
 50
90.0
 51
177.4680700000207
  0
ARC
  5
D660
  8
01
 10
766.18766416632525
 20
-2231.736948652841
 30
0.0
 40
250.0
 50
1.145991999977229
 51
2.531962700000558
  0
ARC
  5
D661
  8
01
 10
1011.187665166324
 20
-2227.5429484528408
 30
0.0
 40
1.0
 50
53.706952000007071
 51
90.0
  0
ARC
  5
D662
  8
01
 10
1014.944573166325
 20
-2220.736948352841
 30
0.0
 40
1.0
 50
2.5319289999982049
 51
90.0
  0
ARC
  5
D663
  8
01
 10
1044.1876661663241
 20
-2231.736948652841
 30
0.0
 40
80.0
 50
357.09770999997858
 51
2.9022935999826749
  0
ARC
  5
D664
  8
01
 10
1123.086331166325
 20
-2235.7369465528409
 30
0.0
 40
1.0
 50
270.0
 51
357.09770999997858
  0
ARC
  5
D665
  8
01
 10
1123.086331166325
 20
-2227.736948652841
 30
0.0
 40
1.0
 50
2.9022656000111282
 51
90.0
  0
LINE
  5
D666
  8
01
 10
912.19634916632401
 20
-2219.736948352841
 30
0.0
 11
863.18766916632421
 21
-2219.736948352841
 31
0.0
  0
LINE
  5
D667
  8
01
 10
912.19634916632401
 20
-2243.7369334528398
 30
0.0
 11
863.18766916632421
 21
-2243.7369334528398
 31
0.0
  0
LINE
  5
D668
  8
01
 10
863.18766916632421
 20
-2243.7369334528398
 30
0.0
 11
863.18766916632421
 21
-2219.736948352841
 31
0.0
  0
LINE
  5
D669
  8
01
 10
889.91334355132085
 20
-2226.7960653508731
 30
0.0
 11
917.56814355132099
 21
-2226.5547253508739
 31
0.0
  0
ARC
  5
D66A
  8
01
 10
917.57686355132091
 20
-2227.5546870508738
 30
0.0
 40
1.0
 50
3.0346829000177751
 51
90.500085999987206
  0
ARC
  5
D66B
  8
01
 10
838.68763355132103
 20
-2231.7369456508741
 30
0.0
 40
80.0
 50
356.96533999998258
 51
3.0346557000021042
  0
ARC
  5
D66C
  8
01
 10
917.57686355132091
 20
-2235.9192043508742
 30
0.0
 40
1.0
 50
269.49990999998511
 51
356.96533999998258
  0
ARC
  5
D66D
  8
01
 10
889.9220735513212
 20
-2227.7960276508738
 30
0.0
 40
1.0
 50
90.500085999987206
 51
179.49996999998339
  0
LINE
  5
D66E
  8
01
 10
888.92212355132085
 20
-2227.7873034508739
 30
0.0
 11
888.88765355132125
 21
-2231.736944750874
 31
0.0
  0
LINE
  5
D66F
  8
01
 10
888.92210355132045
 20
-2235.686591450873
 30
0.0
 11
888.88763355132085
 21
-2231.736950950874
 31
0.0
  0
ARC
  5
D670
  8
01
 10
889.9220735513212
 20
-2235.6778713508738
 30
0.0
 40
1.0
 50
180.50000000001751
 51
269.49990999998511
  0
LINE
  5
D671
  8
01
 10
889.91124798489591
 20
-2236.6778127527132
 30
0.0
 11
917.56813355132033
 21
-2236.9191706808738
 31
0.0
  0
LINE
  5
D672
  8
01
 10
913.2470491663239
 20
-2236.9314480628409
 30
0.0
 11
913.19630916632434
 21
-2242.7456800528412
 31
0.0
  0
ARC
  5
D673
  8
01
 10
912.19634916632401
 20
-2242.7369334528412
 30
0.0
 40
1.0
 50
270.0
 51
359.49999999998238
  0
LINE
  5
D674
  8
01
 10
913.24705916632456
 20
-2226.5424343528398
 30
0.0
 11
913.19630916632434
 21
-2220.7282163528412
 31
0.0
  0
ARC
  5
D675
  8
01
 10
912.19634916632401
 20
-2220.736948352841
 30
0.0
 40
1.0
 50
0.4999762299792074
 51
90.0
  0
LINE
  5
D676
  8
01
 10
889.9133591663234
 20
-2236.7278180328408
 30
0.0
 11
901.18766916632433
 21
-2236.8262074065028
 31
0.0
  0
LINE
  5
D677
  8
01
 10
898.1876491663246
 20
-2236.8000267328412
 30
0.0
 11
889.68432916632389
 21
-2236.725819222841
 31
0.0
  0
LINE
  5
D678
  8
01
 10
888.68766916632433
 20
-2227.7480723528411
 30
0.0
 11
888.68766916632433
 21
-2235.7258247528412
 31
0.0
  0
ARC
  5
D679
  8
01
 10
889.68766916632421
 20
-2235.7258247528412
 30
0.0
 40
1.0
 50
180.00001000000091
 51
269.49990999998511
  0
ARC
  5
D67A
  8
01
 10
889.68766916632421
 20
-2227.7480723528411
 30
0.0
 40
1.0
 50
90.500085999987206
 51
180.0
  0
LINE
  5
D67B
  8
01
 10
913.24705916632456
 20
-2226.5424343528398
 30
0.0
 11
889.67893916632454
 21
-2226.7481093528399
 31
0.0
  0
LINE
  5
D67C
  8
01
 10
913.2470491663239
 20
-2236.9314480628409
 30
0.0
 11
901.18766916632433
 21
-2236.826207433026
 31
0.0
  0
ARC
  5
D68C
  8
01
 10
664.18767316632375
 20
-2231.736948652841
 30
0.0
 40
25.0
 50
11.53695973454157
 51
168.46304026545829
  0
ARC
  5
D68D
  8
01
 10
664.18767316632375
 20
-2231.736948652841
 30
0.0
 40
25.0
 50
191.53695416750779
 51
348.46304583249213
  0
LINE
  5
D697
  8
01
 10
689.08634016632413
 20
-2226.736948352841
 30
0.0
 11
545.2890071663237
 21
-2226.736948352841
 31
0.0
  0
LINE
  5
D698
  8
01
 10
689.08634016632413
 20
-2236.7369465728411
 30
0.0
 11
545.2890071663237
 21
-2236.7369465728411
 31
0.0
  0
ARC
  5
D699
  8
01
 10
610.18767266632358
 20
-2231.736948652841
 30
0.0
 40
80.0
 50
357.09770999997858
 51
2.902290000021297
  0
ARC
  5
D69A
  8
01
 10
689.08634016632413
 20
-2235.7369465528409
 30
0.0
 40
1.0
 50
270.0
 51
357.09770999997858
  0
ARC
  5
D69B
  8
01
 10
689.08634016632413
 20
-2227.736948652841
 30
0.0
 40
1.0
 50
2.9022700000043482
 51
89.999999999999986
  0
LINE
  5
D69C
  8
01
 10
674.94458616632392
 20
-2243.7369334528398
 30
0.0
 11
653.43076516632345
 21
-2243.7369334528398
 31
0.0
  0
LINE
  5
D69D
  8
01
 10
676.18767316632375
 20
-2236.930933462841
 30
0.0
 11
652.18767316632375
 21
-2236.930933462841
 31
0.0
  0
ARC
  5
D69E
  8
01
 10
671.18767316632375
 20
-2235.9309334528411
 30
0.0
 40
1.0
 50
270.0
 51
306.29171999995992
  0
ARC
  5
D69F
  8
01
 10
426.18767416632318
 20
-2231.736948652841
 30
0.0
 40
250.0
 50
357.46804000001612
 51
358.8540099999957
  0
ARC
  5
D6A0
  8
01
 10
674.94458616632392
 20
-2242.7369334528412
 30
0.0
 40
1.0
 50
270.0
 51
357.46804000001612
  0
ARC
  5
D6A1
  8
01
 10
657.18767316632375
 20
-2235.9309334528411
 30
0.0
 40
1.0
 50
233.70828999998679
 51
270.0
  0
ARC
  5
D6A2
  8
01
 10
902.18767416632306
 20
-2231.736948652841
 30
0.0
 40
250.0
 50
181.14599000000419
 51
182.53195999998391
  0
ARC
  5
D6A3
  8
01
 10
653.43076516632345
 20
-2242.7369334528412
 30
0.0
 40
1.0
 50
182.53195999998391
 51
270.0
  0
LINE
  5
D6A4
  8
01
 10
674.94458616632392
 20
-2219.736948352841
 30
0.0
 11
653.43076516632345
 21
-2219.736948352841
 31
0.0
  0
LINE
  5
D6A5
  8
01
 10
676.18767316632375
 20
-2226.5429483528401
 30
0.0
 11
652.18767316632375
 21
-2226.5429483528401
 31
0.0
  0
ARC
  5
D6A6
  8
01
 10
426.18767416632318
 20
-2231.736948652841
 30
0.0
 40
250.0
 50
1.1459900000042811
 51
2.5319599999839091
  0
ARC
  5
D6A7
  8
01
 10
671.18767316632375
 20
-2227.5429484528408
 30
0.0
 40
1.0
 50
53.706950000034453
 51
89.999999999999986
  0
ARC
  5
D6A8
  8
01
 10
674.94458616632392
 20
-2220.736948352841
 30
0.0
 40
1.0
 50
2.53192999997921
 51
89.999999999999986
  0
ARC
  5
D6A9
  8
01
 10
902.18767416632306
 20
-2231.736948652841
 30
0.0
 40
250.0
 50
177.46803729999939
 51
178.8540080000227
  0
ARC
  5
D6AA
  8
01
 10
657.18767316632375
 20
-2227.5429484528408
 30
0.0
 40
1.0
 50
89.999999999999986
 51
126.29304799999289
  0
ARC
  5
D6AB
  8
01
 10
653.43076516632345
 20
-2220.736948352841
 30
0.0
 40
1.0
 50
89.999999999999986
 51
177.46807100000169
  0
ARC
  5
D6AC
  8
01
 10
624.18767216632432
 20
-2231.736948652841
 30
0.0
 40
80.0
 50
177.09770640001719
 51
182.90229000002131
  0
ARC
  5
D6AD
  8
01
 10
545.2890071663237
 20
-2235.7369465528409
 30
0.0
 40
1.0
 50
182.90229000002131
 51
270.0
  0
ARC
  5
D6AE
  8
01
 10
545.2890071663237
 20
-2227.736948652841
 30
0.0
 40
1.0
 50
89.999999999999986
 51
177.09773439998881
  0
LINE
  5
D6AF
  8
01
 10
756.17898916632419
 20
-2219.736948352841
 30
0.0
 11
805.18766916632421
 21
-2219.736948352841
 31
0.0
  0
LINE
  5
D6B0
  8
01
 10
756.17898916632419
 20
-2243.7369334528398
 30
0.0
 11
805.18766916632421
 21
-2243.7369334528398
 31
0.0
  0
LINE
  5
D6B1
  8
01
 10
805.18766916632421
 20
-2243.7369334528398
 30
0.0
 11
805.18766916632421
 21
-2219.736948352841
 31
0.0
  0
LINE
  5
D6B2
  8
01
 10
778.46199478132758
 20
-2226.7960653508731
 30
0.0
 11
750.80719478132733
 21
-2226.5547253508739
 31
0.0
  0
ARC
  5
D6B3
  8
01
 10
750.7984747813274
 20
-2227.5546870508738
 30
0.0
 40
1.0
 50
89.499914000012765
 51
176.9653170999822
  0
ARC
  5
D6B4
  8
01
 10
829.68770478132728
 20
-2231.7369456508741
 30
0.0
 40
80.0
 50
176.96534429999781
 51
183.03466000001731
  0
ARC
  5
D6B5
  8
01
 10
750.7984747813274
 20
-2235.9192043508742
 30
0.0
 40
1.0
 50
183.03466000001731
 51
270.50009000001501
  0
ARC
  5
D6B6
  8
01
 10
778.45326478132711
 20
-2227.7960276508738
 30
0.0
 40
1.0
 50
0.5000300000165553
 51
89.499914000012765
  0
LINE
  5
D6B7
  8
01
 10
779.45321478132735
 20
-2227.7873034508739
 30
0.0
 11
779.48768478132695
 21
-2231.736944750874
 31
0.0
  0
LINE
  5
D6B8
  8
01
 10
779.45323478132775
 20
-2235.686591450873
 30
0.0
 11
779.48770478132735
 21
-2231.736950950874
 31
0.0
  0
ARC
  5
D6B9
  8
01
 10
778.45326478132711
 20
-2235.6778713508738
 30
0.0
 40
1.0
 50
270.50009000001501
 51
359.49999999998238
  0
LINE
  5
D6BA
  8
01
 10
778.46409034775252
 20
-2236.6778127527132
 30
0.0
 11
750.80720478132787
 21
-2236.9191706808738
 31
0.0
  0
LINE
  5
D6BB
  8
01
 10
755.12828916632452
 20
-2236.9314480628409
 30
0.0
 11
755.1790291663242
 21
-2242.7456800528412
 31
0.0
  0
ARC
  5
D6BC
  8
01
 10
756.17898916632419
 20
-2242.7369334528412
 30
0.0
 40
1.0
 50
180.50000000001751
 51
270.0
  0
LINE
  5
D6BD
  8
01
 10
755.12827916632375
 20
-2226.5424343528398
 30
0.0
 11
755.1790291663242
 21
-2220.7282163528412
 31
0.0
  0
ARC
  5
D6BE
  8
01
 10
756.17898916632419
 20
-2220.736948352841
 30
0.0
 40
1.0
 50
89.999999999999986
 51
179.5000237700207
  0
LINE
  5
D6BF
  8
01
 10
778.4619791663248
 20
-2236.7278180328408
 30
0.0
 11
767.18766916632421
 21
-2236.8262074065028
 31
0.0
  0
LINE
  5
D6C0
  8
01
 10
770.18768916632359
 20
-2236.8000267328412
 30
0.0
 11
778.69100916632442
 21
-2236.725819222841
 31
0.0
  0
LINE
  5
D6C1
  8
01
 10
779.68766916632421
 20
-2227.7480723528411
 30
0.0
 11
779.68766916632421
 21
-2235.7258247528412
 31
0.0
  0
ARC
  5
D6C2
  8
01
 10
778.68766916632421
 20
-2235.7258247528412
 30
0.0
 40
1.0
 50
270.50009000001501
 51
359.999989999999
  0
ARC
  5
D6C3
  8
01
 10
778.68766916632421
 20
-2227.7480723528411
 30
0.0
 40
1.0
 50
0.0
 51
89.499914000012765
  0
LINE
  5
D6C4
  8
01
 10
755.12827916632375
 20
-2226.5424343528398
 30
0.0
 11
778.69639916632366
 21
-2226.7481093528399
 31
0.0
  0
LINE
  5
D6C5
  8
01
 10
755.12828916632452
 20
-2236.9314480628409
 30
0.0
 11
767.18766916632421
 21
-2236.826207433026
 31
0.0
  0
LINE
  5
D8F9
  8
01
 10
979.18778157217128
 20
-1877.2369486538689
 30
0.0
 11
1123.1877815721709
 21
-1877.2369486538689
 31
0.0
  0
LINE
  5
D8FA
  8
01
 10
1016.187781572171
 20
-1899.2369486538689
 30
0.0
 11
1123.1877815721709
 21
-1899.2369486538689
 31
0.0
  0
LINE
  5
D8FB
  8
01
 10
979.18778157217128
 20
-1899.2369486538689
 30
0.0
 11
992.18778157217139
 21
-1899.2369486538689
 31
0.0
  0
LINE
  5
D8FC
  8
01
 10
978.18778157217128
 20
-1878.2369486538689
 30
0.0
 11
978.18778157217128
 21
-1898.2369486538689
 31
0.0
  0
ARC
  5
D8FD
  8
01
 10
979.18778157217128
 20
-1878.2369486538689
 30
0.0
 40
1.0
 50
90.000000000000028
 51
180.0
  0
ARC
  5
D8FE
  8
01
 10
979.18778157217128
 20
-1898.2369486538689
 30
0.0
 40
1.0
 50
180.0
 51
270.0
  0
LINE
  5
D8FF
  8
01
 10
992.18778157217139
 20
-1883.677561653868
 30
0.0
 11
992.18778157217139
 21
-1932.7369486538689
 31
0.0
  0
LINE
  5
D900
  8
01
 10
1016.187781572171
 20
-1883.677561653868
 30
0.0
 11
1016.187781572171
 21
-1932.7369486538689
 31
0.0
  0
LINE
  5
D901
  8
01
 10
1015.187781572171
 20
-1882.6775616538689
 30
0.0
 11
993.18778157217139
 21
-1882.6775616538689
 31
0.0
  0
ARC
  5
D902
  8
01
 10
993.18778157217139
 20
-1883.677561653868
 30
0.0
 40
1.0
 50
90.000000000000028
 51
180.0
  0
ARC
  5
D903
  8
01
 10
1015.187781572171
 20
-1883.677561653868
 30
0.0
 40
1.0
 50
0.0
 51
90.000000000000028
  0
LINE
  5
D904
  8
01
 10
1124.1877815721709
 20
-1878.2369486538689
 30
0.0
 11
1124.1877815721709
 21
-1898.2369486538689
 31
0.0
  0
ARC
  5
D905
  8
01
 10
1123.1877815721709
 20
-1878.2369486538689
 30
0.0
 40
1.0
 50
0.0
 51
90.000000000000028
  0
ARC
  5
D906
  8
01
 10
1123.1877815721709
 20
-1898.2369486538689
 30
0.0
 40
1.0
 50
270.0
 51
0.0
  0
TEXT
  5
D95A
  8
01
 10
661.68768516632485
 20
-2001.0584841283139
 30
0.0
 40
6.0
  1
クローム
 72
     1
 11
675.28768516632488
 21
-2001.0584841283139
 31
0.0
  0
LINE
  5
D95F
  8
01
 10
701.68768516632474
 20
-1997.7369486528401
 30
0.0
 11
806.68768516632497
 21
-1997.736948652841
 31
0.0
  0
CIRCLE
  5
E0EC
  8
01
 10
664.18767316632534
 20
-2181.7369486528401
 30
0.0
 40
11.30000000000109
  0
LINE
  5
E0ED
  8
01
 10
666.68767316632534
 20
-2171.4291896820391
 30
0.0
 11
666.68767316632534
 21
-2192.044707623641
 31
0.0
  0
LINE
  5
E0EE
  8
01
 10
661.68767316632534
 20
-2171.4291896820391
 30
0.0
 11
661.68767316632534
 21
-2192.044707623641
 31
0.0
  0
ARC
  5
E0EF
  8
01
 10
662.18767316632534
 20
-2171.4291896820391
 30
0.0
 40
0.5
 50
100.98058072142879
 51
180.0
  0
ARC
  5
E0F0
  8
01
 10
666.18767316632534
 20
-2171.4291896820391
 30
0.0
 40
0.5
 50
0.0
 51
79.019419278571149
  0
ARC
  5
E0F1
  8
01
 10
662.18767316632534
 20
-2192.044707623641
 30
0.0
 40
0.5
 50
180.0
 51
259.01941927857121
  0
ARC
  5
E0F2
  8
01
 10
666.18767316632534
 20
-2192.044707623641
 30
0.0
 40
0.5
 50
280.98058072142891
 51
0.0
  0
CIRCLE
  5
E0F3
  8
01
 10
664.18767316632307
 20
-2176.2369486528401
 30
0.0
 40
20.000000000000071
  0
CIRCLE
  5
E0F4
  8
01
 10
664.18767316632477
 20
-2181.7369486528401
 30
0.0
 40
11.0
  0
LINE
  5
E0F5
  8
01
 10
860.48766916632621
 20
-2195.736948652825
 30
0.0000000000562575
 11
860.48766916632621
 21
-2156.736948652826
 31
0.0000000000562575
  0
LINE
  5
E0F6
  8
01
 10
854.18766916632603
 20
-2156.236948652825
 30
0.0000000000562575
 11
854.18766916632148
 21
-2196.2369486528328
 31
0.0000000000562575
  0
LINE
  5
E0F7
  8
01
 10
854.18766916632603
 20
-2196.236948652825
 30
0.0000000000562575
 11
859.9876691663261
 21
-2196.236948652825
 31
0.0000000000562575
  0
ARC
  5
E0F8
  8
01
 10
859.9876691663261
 20
-2195.736948652825
 30
0.0000000000562575
 40
0.5
 50
270.0
 51
0.0
  0
LINE
  5
E0F9
  8
01
 10
854.18766916632603
 20
-2156.236948652825
 30
0.0000000000562575
 11
859.9876691663261
 21
-2156.236948652825
 31
0.0000000000562575
  0
ARC
  5
E0FA
  8
01
 10
859.9876691663261
 20
-2156.736948652826
 30
0.0000000000562575
 40
0.5
 50
0.0
 51
90.0
  0
LINE
  5
E0FB
  8
01
 10
861.21106916632698
 20
-2178.236947331894
 30
-0.0000000000001137
 11
860.48766916632621
 21
-2178.236947331894
 31
-0.0000000000001137
  0
LINE
  5
E0FC
  8
01
 10
861.21106916632698
 20
-2185.236947331894
 30
-0.0000000000001137
 11
860.48766916632621
 21
-2185.236947331894
 31
-0.0000000000001137
  0
LINE
  5
E0FD
  8
01
 10
807.88766916632619
 20
-2195.7369486528319
 30
0.0
 11
807.88766916632619
 21
-2156.7369486528328
 31
0.0
  0
LINE
  5
E0FE
  8
01
 10
814.18766916632683
 20
-2156.2369486528319
 30
0.0
 11
814.18766916632148
 21
-2196.2369486528328
 31
0.0
  0
LINE
  5
E0FF
  8
01
 10
814.18766916632683
 20
-2196.2369486528328
 30
0.0
 11
808.38766916632585
 21
-2196.2369486528328
 31
0.0
  0
ARC
  5
E100
  8
01
 10
808.38766916632585
 20
-2195.7369486528319
 30
0.0
 40
0.5
 50
180.0
 51
270.0
  0
LINE
  5
E101
  8
01
 10
814.18766916632683
 20
-2156.2369486528319
 30
0.0
 11
808.38766916632585
 21
-2156.2369486528328
 31
0.0
  0
ARC
  5
E102
  8
01
 10
808.38766916632585
 20
-2156.7369486528328
 30
0.0
 40
0.5
 50
90.0
 51
180.0
  0
LINE
  5
E103
  8
01
 10
793.18728360060447
 20
-2192.7369536528322
 30
0.0
 11
807.88766916632619
 21
-2192.7369536528322
 31
0.0
  0
LINE
  5
E104
  8
01
 10
806.68730654481612
 20
-2171.2369536528322
 30
0.0
 11
806.68730654481169
 21
-2192.2369536528322
 31
0.0
  0
LINE
  5
E105
  8
01
 10
793.18728360060686
 20
-2170.7369536528322
 30
0.0
 11
807.88766916632619
 21
-2170.7369536528322
 31
0.0
  0
ARC
  5
E106
  8
01
 10
793.18728360060686
 20
-2171.7369536528308
 30
0.0
 40
1.0
 50
90.0
 51
180.0
  0
LINE
  5
E107
  8
01
 10
792.18728360060459
 20
-2171.7369536528308
 30
0.0
 11
792.18728360060459
 21
-2191.7369536528299
 31
0.0
  0
ARC
  5
E108
  8
01
 10
793.18728360060447
 20
-2191.7369536528299
 30
0.0
 40
1.0
 50
180.0
 51
270.0
  0
ARC
  5
E109
  8
01
 10
807.18730654481158
 20
-2171.2369536528322
 30
0.0
 40
0.5
 50
90.0
 51
179.99999999997391
  0
ARC
  5
E10A
  8
01
 10
807.18730654481158
 20
-2192.2369536528322
 30
0.0
 40
0.5
 50
179.99999999997391
 51
270.0
  0
LINE
  5
E10B
  8
01
 10
855.68766916632512
 20
-2196.2369486528328
 30
0.0000000000562575
 11
854.18766916632512
 21
-2196.2369486528328
 31
0.0000000000562575
  0
LINE
  5
E10C
  8
01
 10
812.68766916632785
 20
-2196.2369486528391
 30
0.0
 11
814.18766916632785
 21
-2196.2369486528391
 31
0.0
  0
ARC
  5
E10D
  8
01
 10
855.42603425408686
 20
-2181.7369473637168
 30
-0.0000000000001137
 40
6.7614049222401134
 50
328.82566316459219
 51
31.174340835420569
  0
CIRCLE
  5
E10E
  8
01
 10
1004.187665166324
 20
-2174.3369584486959
 30
0.0
 40
2.5
  0
CIRCLE
  5
E10F
  8
01
 10
1004.187665166324
 20
-2181.7369484486958
 30
0.0
 40
3.75
  0
CIRCLE
  5
E110
  8
01
 10
1004.187665166324
 20
-2181.7369486528241
 30
0.0
 40
3.5000004999999992
  0
LINE
  5
E111
  8
01
 10
1005.187665166324
 20
-2185.0910514528241
 30
0.0
 11
1005.187665166324
 21
-2178.382844652825
 31
0.0
  0
LINE
  5
E112
  8
01
 10
1003.187665166324
 20
-2185.0910514528241
 30
0.0
 11
1003.187665166324
 21
-2178.382844652825
 31
0.0
  0
CIRCLE
  5
E113
  8
01
 10
1004.187664843865
 20
-2176.236948652825
 30
0.0
 40
19.99999999999962
  0
LINE
  5
E114
  8
01
 10
979.18778150606931
 20
-1981.7369486538689
 30
0.0
 11
979.18778150606931
 21
-1989.7369486538689
 31
0.0
  0
LINE
  5
E115
  8
01
 10
1029.1877815060691
 20
-1981.7369486538689
 30
0.0
 11
1029.1877815060691
 21
-1989.7369486538689
 31
0.0
  0
LINE
  5
E116
  8
01
 10
984.1877811836107
 20
-1981.7369486538689
 30
0.0
 11
984.1877811836107
 21
-1987.536948653868
 31
0.0
  0
LINE
  5
E117
  8
01
 10
1024.1877811836091
 20
-1981.7369486538689
 30
0.0
 11
1024.1877811836091
 21
-1987.536948653868
 31
0.0
  0
LINE
  5
E118
  8
01
 10
979.18778150606931
 20
-1981.7369486538689
 30
0.0
 11
1029.1877815060691
 21
-1981.7369486538689
 31
0.0
  0
LINE
  5
E119
  8
01
 10
984.68778118361058
 20
-1988.0369486538691
 30
0.0
 11
1023.68778118361
 21
-1988.0369486538691
 31
0.0
  0
LINE
  5
E11A
  8
01
 10
979.6877815060692
 20
-1990.2369486538689
 30
0.0
 11
1028.6877815060691
 21
-1990.2369486538689
 31
0.0
  0
ARC
  5
E11B
  8
01
 10
984.68778118361058
 20
-1987.536948653868
 30
0.0
 40
0.5
 50
180.0
 51
270.0
  0
ARC
  5
E11C
  8
01
 10
1023.68778118361
 20
-1987.536948653868
 30
0.0
 40
0.5
 50
270.0
 51
0.0
  0
ARC
  5
E11D
  8
01
 10
979.6877815060692
 20
-1989.7369486538689
 30
0.0
 40
0.5
 50
179.99999999997391
 51
270.0
  0
ARC
  5
E11E
  8
01
 10
1028.6877815060691
 20
-1989.7369486538689
 30
0.0
 40
0.5
 50
270.0
 51
0.0
  0
LINE
  5
E11F
  8
01
 10
1005.187782827007
 20
-1989.4367186538691
 30
-0.0000000000001137
 11
1005.187782827007
 21
-1988.0369486538691
 31
-0.0000000000001137
  0
ARC
  5
E120
  8
01
 10
1002.887783827007
 20
-1989.4367186538691
 30
-0.0000000000001137
 40
0.30000001
 50
256.8165200000056
 51
0.0000029999846689
  0
ARC
  5
E121
  8
01
 10
1004.187782827006
 20
-1983.886948653869
 30
-0.0000000000001137
 40
6.0
 50
283.18348199998479
 51
305.68533400000791
  0
ARC
  5
E122
  8
01
 10
1005.487785827007
 20
-1989.4367186538691
 30
-0.0000000000001137
 40
0.30000001
 50
180.0
 51
283.18348199998479
  0
LINE
  5
E123
  8
01
 10
1007.687782827006
 20
-1988.760348653869
 30
-0.0000000000001137
 11
1007.687782827006
 21
-1988.0369486538691
 31
-0.0000000000001137
  0
LINE
  5
E124
  8
01
 10
1000.687782827006
 20
-1988.760348653869
 30
-0.0000000000001137
 11
1000.687782827006
 21
-1988.0369486538691
 31
-0.0000000000001137
  0
ARC
  5
E125
  8
01
 10
1004.187782827006
 20
-1983.886948653869
 30
-0.0000000000001137
 40
6.0
 50
234.3146700000031
 51
256.81651749662558
  0
LINE
  5
E126
  8
01
 10
1003.187782827007
 20
-1989.437497113272
 30
-0.0000000000001137
 11
1003.187782827007
 21
-1988.0369486538691
 31
-0.0000000000001137
  0
LINE
  5
E127
  8
01
 10
979.18778150606931
 20
-1941.7369486538689
 30
0.0
 11
979.18778150606931
 21
-1933.7369486538689
 31
0.0
  0
LINE
  5
E128
  8
01
 10
1029.1877815060691
 20
-1941.7369486538689
 30
0.0
 11
1029.1877815060691
 21
-1933.7369486538689
 31
0.0
  0
LINE
  5
E129
  8
01
 10
984.1877811836107
 20
-1941.7369486538689
 30
0.0
 11
984.1877811836107
 21
-1935.936948653869
 31
0.0
  0
LINE
  5
E12A
  8
01
 10
1024.1877811836091
 20
-1941.7369486538689
 30
0.0
 11
1024.1877811836091
 21
-1935.936948653869
 31
0.0
  0
LINE
  5
E12B
  8
01
 10
979.18778150606931
 20
-1941.7369486538689
 30
0.0
 11
1029.1877815060691
 21
-1941.7369486538689
 31
0.0
  0
LINE
  5
E12C
  8
01
 10
984.68778118361058
 20
-1935.436948653869
 30
0.0
 11
1023.68778118361
 21
-1935.436948653869
 31
0.0
  0
LINE
  5
E12D
  8
01
 10
979.6877815060692
 20
-1933.2369486538689
 30
0.0
 11
1001.687781506062
 21
-1933.2369486538689
 31
0.0
  0
LINE
  5
E12E
  8
01
 10
1006.687781506064
 20
-1933.2369486538689
 30
0.0
 11
1028.6877815060691
 21
-1933.2369486538689
 31
0.0
  0
ARC
  5
E12F
  8
01
 10
984.68778118361058
 20
-1935.936948653869
 30
0.0
 40
0.5
 50
90.0
 51
180.0
  0
ARC
  5
E130
  8
01
 10
1023.68778118361
 20
-1935.936948653869
 30
0.0
 40
0.5
 50
0.0
 51
90.0
  0
ARC
  5
E131
  8
01
 10
979.6877815060692
 20
-1933.7369486538689
 30
0.0
 40
0.5
 50
90.0
 51
180.0
  0
ARC
  5
E132
  8
01
 10
1028.6877815060691
 20
-1933.7369486538689
 30
0.0
 40
0.5
 50
0.0
 51
90.0
  0
ARC
  5
E133
  8
01
 10
1007.687781506062
 20
-1933.2369715980769
 30
0.0
 40
1.0
 50
180.0
 51
270.0
  0
LINE
  5
E134
  8
01
 10
1007.687781506064
 20
-1934.2369715980781
 30
0.0
 11
1014.687786506061
 21
-1934.236971598076
 31
0.0
  0
ARC
  5
E135
  8
01
 10
1014.687786506061
 20
-1934.7369715980749
 30
0.0
 40
0.5
 50
0.0
 51
90.0
  0
ARC
  5
E136
  8
01
 10
1000.68778150606
 20
-1933.2369715980749
 30
0.0
 40
1.0
 50
270.0
 51
0.0
  0
ARC
  5
E137
  8
01
 10
993.68778650606191
 20
-1934.7369715980749
 30
0.0
 40
0.5
 50
90.0
 51
180.0
  0
LINE
  5
E138
  8
01
 10
1001.687781506062
 20
-1920.736948653873
 30
0.0
 11
1001.687781506062
 21
-1933.2369715980749
 31
0.0
  0
ARC
  5
E139
  8
01
 10
1002.68778150606
 20
-1920.736948653871
 30
0.0
 40
1.0
 50
90.0
 51
179.9999999999479
  0
LINE
  5
E13A
  8
01
 10
1002.687781506062
 20
-1919.7369486538689
 30
0.0
 11
1005.68778150606
 21
-1919.7369486538689
 31
0.0
  0
ARC
  5
E13B
  8
01
 10
1005.68778150606
 20
-1920.736948653871
 30
0.0
 40
1.0
 50
0.0
 51
90.0
  0
LINE
  5
E13C
  8
01
 10
1006.687781506062
 20
-1920.736948653871
 30
0.0
 11
1006.687781506064
 21
-1933.2369715980769
 31
0.0
  0
LINE
  5
E13D
  8
01
 10
993.68778650606191
 20
-1934.236971598076
 30
0.0
 11
1000.687781506062
 21
-1934.236971598076
 31
0.0
  0
LINE
  5
E13E
  8
01
 10
993.1877865060618
 20
-1934.7369715980749
 30
0.0
 11
993.1877865060618
 21
-1935.436948653869
 31
0.0
  0
LINE
  5
E13F
  8
01
 10
1015.187786506061
 20
-1934.7369715980749
 30
0.0
 11
1015.187786506061
 21
-1935.436948653869
 31
0.0
  0
LINE
  5
E140
  8
01
 10
814.18766916632148
 20
-2206.7369486528401
 30
0.0
 11
814.1876691663233
 21
-2256.736948652841
 31
0.0
  0
LINE
  5
E141
  8
01
 10
805.68766916632137
 20
-2207.2369486528378
 30
0.0
 11
805.68766916632512
 21
-2256.236948652841
 31
0.0
  0
LINE
  5
E142
  8
01
 10
814.1876691663233
 20
-2256.736948652841
 30
0.0
 11
806.18766916632501
 21
-2256.736948652841
 31
0.0
  0
ARC
  5
E143
  8
01
 10
806.18766916632501
 20
-2256.236948652841
 30
0.0
 40
0.5
 50
180.0
 51
270.0
  0
LINE
  5
E144
  8
01
 10
814.18766916632148
 20
-2206.7369486528401
 30
0.0
 11
806.18766916632183
 21
-2206.7369486528378
 31
0.0
  0
ARC
  5
E145
  8
01
 10
806.18766916632148
 20
-2207.2369486528378
 30
0.0
 40
0.5
 50
89.999999999973952
 51
180.0
  0
LINE
  5
E146
  8
01
 10
854.18766916632512
 20
-2206.7369486528401
 30
0.0
 11
854.1876691663233
 21
-2256.736948652841
 31
0.0
  0
LINE
  5
E147
  8
01
 10
862.68766916632524
 20
-2207.2369486528378
 30
0.0
 11
862.68766916632137
 21
-2256.236948652841
 31
0.0
  0
LINE
  5
E148
  8
01
 10
854.1876691663233
 20
-2256.736948652841
 30
0.0
 11
862.18766916632148
 21
-2256.736948652841
 31
0.0
  0
ARC
  5
E149
  8
01
 10
862.18766916632148
 20
-2256.236948652841
 30
0.0
 40
0.5
 50
270.0
 51
0.0
  0
LINE
  5
E14A
  8
01
 10
854.18766916632512
 20
-2206.7369486528401
 30
0.0
 11
862.18766916632512
 21
-2206.7369486528378
 31
0.0
  0
ARC
  5
E14B
  8
01
 10
862.18766916632512
 20
-2207.2369486528378
 30
0.0
 40
0.5
 50
0.0
 51
90.000000000026048
  0
LINE
  5
E14C
  8
01
 10
992.18778157217139
 20
-1932.7369486538689
 30
0.0
 11
1001.687781506062
 21
-1932.7369486538689
 31
0.0
  0
LINE
  5
E14D
  8
01
 10
1006.687781506064
 20
-1932.7369486538689
 30
0.0
 11
1016.187781572171
 21
-1932.7369486538689
 31
0.0
  0
LINE
  5
E2F5
  8
01
 10
1022.187665166325
 20
-2173.2369486528401
 30
0.0
 11
1022.187665166325
 21
-2184.9547458741258
 31
0.0
  0
LINE
  5
E2F6
  8
01
 10
1001.187665166324
 20
-2173.2369486528401
 30
0.0
 11
1007.187665166324
 21
-2173.2369486528401
 31
0.0
  0
LINE
  5
E2F7
  8
01
 10
1014.187665166325
 20
-2173.2369486528401
 30
0.0
 11
1022.187665166325
 21
-2173.2369486528401
 31
0.0
  0
LINE
  5
E2F8
  8
01
 10
1001.187665166324
 20
-2174.2369486528401
 30
0.0
 11
1001.187665166324
 21
-2173.2369486528401
 31
0.0
  0
LINE
  5
E2F9
  8
01
 10
1007.187665166324
 20
-2174.236948652841
 30
0.0
 11
1007.187665166324
 21
-2173.2369486528401
 31
0.0
  0
ARC
  5
E2FA
  8
01
 10
997.68766516632445
 20
-2174.236948652841
 30
0.0
 40
3.5
 50
179.99999999997391
 51
0.0
  0
ARC
  5
E2FB
  8
01
 10
1010.687665166325
 20
-2174.236948652841
 30
0.0
 40
3.5
 50
180.0
 51
0.0
  0
CIRCLE
  5
E2FC
  8
01
 10
1004.187665166036
 20
-2181.7369486531302
 30
0.0
 40
6.0
  0
LINE
  5
E2FD
  8
01
 10
994.18766516632445
 20
-2173.2369486528401
 30
0.0
 11
984.41394491058077
 21
-2173.2369486528401
 31
0.0
  0
LINE
  5
E2FE
  8
01
  6
BYBLOCK
 10
984.41394491058077
 20
-2173.2369486528401
 30
0.0
 11
956.18766516632468
 21
-2173.2369486528401
 31
0.0
  0
LINE
  5
E2FF
  8
01
 10
994.18766516632434
 20
-2174.2369486528401
 30
0.0
 11
994.18766516632445
 21
-2173.2369486528401
 31
0.0
  0
LINE
  5
E300
  8
01
 10
1014.187665166325
 20
-2174.236948652841
 30
0.0
 11
1014.187665166325
 21
-2173.2369486528401
 31
0.0
  0
LINE
  5
E301
  8
01
  6
BYBLOCK
 10
683.96138509960645
 20
-2173.2369486528401
 30
0.0
 11
712.18767316632375
 21
-2173.2369486528401
 31
0.0
  0
LINE
  5
E302
  8
01
  6
BYBLOCK
 10
1010.188549348096
 20
-1951.4869486538689
 30
0.0
 11
998.18854934809588
 21
-1951.4869486538689
 31
0.0
  0
LINE
  5
E303
  8
01
  6
BYBLOCK
 10
998.18854934809588
 20
-1971.9869486538689
 30
0.0
 11
1010.188549348096
 21
-1971.9869486538689
 31
0.0
  0
LINE
  5
E304
  8
01
  6
BYBLOCK
 10
998.18854934809588
 20
-1971.9869486538689
 30
0.0
 11
998.18854934809588
 21
-1971.2369486538689
 31
0.0
  0
LINE
  5
E305
  8
01
  6
BYBLOCK
 10
998.18854934809588
 20
-1952.2369486538689
 30
0.0
 11
998.18854934809588
 21
-1951.4869486538689
 31
0.0
  0
LINE
  5
E306
  8
01
  6
BYBLOCK
 10
1010.188549348096
 20
-1971.9869486538689
 30
0.0
 11
1010.188549348096
 21
-1971.2369486538689
 31
0.0
  0
LINE
  5
E307
  8
01
  6
BYBLOCK
 10
1010.188549348096
 20
-1952.2369486538689
 30
0.0
 11
1010.188549348096
 21
-1951.4869486538689
 31
0.0
  0
TEXT
  5
E473
  8
01
 10
1053.059884411525
 20
-2002.6761341230369
 30
0.0
 40
4.5499999999999989
  1
材質：亜鉛ダイキャスト
  0
TEXT
  5
E474
  8
01
 10
1053.059884411525
 20
-2010.25946745637
 30
0.0
 40
4.5499999999999989
  1
仕上げ：各種メッキ
  0
SOLID
  5
E475
  8
01
 10
1038.262824668238
 20
-2025.066875833719
 30
0.0
 11
1036.245656835405
 21
-2026.7635819697259
 31
0.0
 12
1037.603505498028
 22
-2024.5043730844759
 32
0.0
 13
1037.603505498028
 23
-2024.5043730844759
 33
0.0
1001
ACAD
1000
DSTYLE
1002
{
1070
    40
1040
1.3
1002
}
  0
LINE
  5
E477
  8
01
 10
1010.188549348096
 20
-1951.4869486538689
 30
0.0
 11
1045.3489401080969
 21
-1951.4869486538689
 31
0.0
  0
LINE
  5
E478
  8
01
 10
1010.188549348096
 20
-1971.9869486538689
 30
0.0
 11
1045.3489401080969
 21
-1971.9869486538689
 31
0.0
  0
LINE
  5
E479
  8
01
 10
1044.0489401080979
 20
-1954.0869486538691
 30
0.0
 11
1044.0489401080979
 21
-1969.386948653869
 31
0.0
  0
TEXT
  5
E47D
  8
01
 10
914.58415959267461
 20
-2012.153615320535
 30
0.0
 40
4.5499999999999989
  1
材質：亜鉛ダイキャスト
  0
TEXT
  5
E47E
  8
01
 10
930.96415959267472
 20
-2019.7369486538689
 30
0.0
 40
4.5499999999999989
  1
仕上げ：クローム
  0
SOLID
  5
E47F
  8
01
 10
1001.610520805609
 20
-2000.890936793779
 30
0.0
 11
1003.928266406385
 21
-1999.635614879744
 31
0.0
 12
1002.142935783176
 22
-2001.57478283111
 32
0.0
 13
1002.142935783176
 23
-2001.57478283111
 33
0.0
1001
ACAD
1000
DSTYLE
1002
{
1070
    40
1040
1.3
1002
}
  0
LINE
  5
E481
  8
01
 10
1022.187665166325
 20
-2173.2369486528401
 30
0.0
 11
1050.4876651663251
 21
-2173.236948652841
 31
0.0
  0
LINE
  5
E482
  8
01
 10
1022.187665166325
 20
-2247.736948652841
 30
0.0
 11
1050.4876651663251
 21
-2247.736948652841
 31
0.0
  0
LINE
  5
E483
  8
01
 10
1049.1876651663249
 20
-2175.8369486528409
 30
0.0
 11
1049.1876651663249
 21
-2245.1369486528411
 31
0.0
  0
LINE
  5
E487
  8
01
 10
1123.086331166325
 20
-2226.736948352841
 30
0.0
 11
1140.4876651663239
 21
-2226.736948352841
 31
0.0
  0
LINE
  5
E488
  8
01
 10
1123.086331166325
 20
-2236.7369465728411
 30
0.0
 11
1140.4876651663239
 21
-2236.7369465728411
 31
0.0
  0
LINE
  5
E489
  8
01
 10
1139.1876651663249
 20
-2229.3369483528409
 30
0.0
 11
1139.1876651663249
 21
-2234.1369465728412
 31
0.0
  0
LINE
  5
E48D
  8
01
 10
1106.9429295034161
 20
-1981.7369486538689
 30
0.0
 11
1150.487781506069
 21
-1981.7369486538689
 31
0.0
  0
LINE
  5
E48E
  8
01
 10
1123.1877815060691
 20
-2046.2369486538689
 30
0.0
 11
1150.487781506069
 21
-2046.2369486538689
 31
0.0
  0
LINE
  5
E48F
  8
01
 10
1149.1877815060691
 20
-1984.3369486538691
 30
0.0
 11
1149.1877815060691
 21
-2043.636948653869
 31
0.0
  0
LINE
  5
E493
  8
01
 10
1106.9429295034161
 20
-1981.7369486538689
 30
0.0
 11
1140.487781506069
 21
-1981.7369486538689
 31
0.0
  0
LINE
  5
E494
  8
01
 10
1123.1877815060691
 20
-2024.2369486538689
 30
0.0
 11
1140.487781506069
 21
-2024.2369486538689
 31
0.0
  0
LINE
  5
E495
  8
01
 10
1139.1877815060691
 20
-1984.3369486538691
 30
0.0
 11
1139.1877815060691
 21
-2021.636948653869
 31
0.0
  0
LINE
  5
E499
  8
01
 10
978.18778150606943
 20
-2045.2369486538689
 30
0.0
 11
978.18778150606943
 21
-2072.5369486538689
 31
0.0
  0
LINE
  5
E49A
  8
01
 10
1124.1877815060691
 20
-2045.2369486538689
 30
0.0
 11
1124.1877815060691
 21
-2072.5369486538689
 31
0.0
  0
LINE
  5
E49B
  8
01
 10
980.78778150606945
 20
-2071.2369486538691
 30
0.0
 11
1121.5877815060689
 21
-2071.2369486538691
 31
0.0
  0
LINE
  5
E49F
  8
01
 10
1004.187781506069
 20
-2011.7369486538689
 30
0.0
 11
1004.187781506069
 21
-2062.5369486538689
 31
0.0
  0
LINE
  5
E4A0
  8
01
 10
1124.1877815060691
 20
-2045.2369486538689
 30
0.0
 11
1124.1877815060691
 21
-2062.5369486538689
 31
0.0
  0
LINE
  5
E4A1
  8
01
 10
1006.787781506069
 20
-2061.2369486538691
 30
0.0
 11
1121.5877815060689
 21
-2061.2369486538691
 31
0.0
  0
LINE
  5
E4A5
  8
01
 10
1004.187665166324
 20
-2206.7369486528401
 30
0.0
 11
967.88766516632427
 21
-2206.7369486528401
 31
0.0
  0
LINE
  5
E4A6
  8
01
 10
1004.187665166324
 20
-2256.7369486528391
 30
0.0
 11
967.88766516632427
 21
-2256.7369486528391
 31
0.0
  0
LINE
  5
E4A7
  8
01
 10
969.18766516632434
 20
-2209.3369486528409
 30
0.0
 11
969.18766516632434
 21
-2254.1369486528401
 31
0.0
  0
LINE
  5
E4AB
  8
01
 10
840.68766916632421
 20
-2145.736948652841
 30
0.0
 11
895.48766916632394
 21
-2145.736948652841
 31
0.0
  0
LINE
  5
E4AC
  8
01
 10
840.68766916632421
 20
-2275.7369486528401
 30
0.0
 11
895.48766916632394
 21
-2275.7369486528401
 31
0.0
  0
LINE
  5
E4AD
  8
01
 10
894.18766916632387
 20
-2148.33694865284
 30
0.0
 11
894.18766916632387
 21
-2273.1369486528411
 31
0.0
  0
LINE
  5
E4B1
  8
01
 10
840.68766916632421
 20
-2153.736948652841
 30
0.0
 11
879.99126020288065
 21
-2153.736948652841
 31
0.0
  0
LINE
  5
E4B2
  8
01
 10
840.68766916632421
 20
-2267.7369486528401
 30
0.0
 11
879.99126020288065
 21
-2267.7369486528401
 31
0.0
  0
LINE
  5
E4B3
  8
01
 10
878.69126020288058
 20
-2156.3369486528409
 30
0.0
 11
878.69126020288058
 21
-2265.1369486528411
 31
0.0
  0
LINE
  5
E4B7
  8
01
 10
634.18767316632375
 20
-2231.736948652841
 30
0.0
 11
619.88768516632422
 21
-2231.736948652841
 31
0.0
  0
LINE
  5
E4B8
  8
01
 10
641.68766516632309
 20
-2176.236948652841
 30
0.0
 11
619.88768516632422
 21
-2176.236948652841
 31
0.0
  0
LINE
  5
E4B9
  8
01
 10
621.18768516632406
 20
-2229.1369486528411
 30
0.0
 11
621.18768516632406
 21
-2178.8369486528409
 31
0.0
  0
LINE
  5
E4BD
  8
01
 10
634.18767316632375
 20
-2231.736948652841
 30
0.0
 11
629.88768516632422
 21
-2231.736948652841
 31
0.0
  0
LINE
  5
E4BE
  8
01
 10
651.18766516632297
 20
-2181.736948652841
 30
0.0
 11
629.88768516632422
 21
-2181.736948652841
 31
0.0
  0
LINE
  5
E4BF
  8
01
 10
631.18768516632406
 20
-2229.1369486528411
 30
0.0
 11
631.18768516632406
 21
-2184.3369486528409
 31
0.0
  0
LINE
  5
E4C3
  8
01
 10
644.18767316632295
 20
-2176.2369486528401
 30
0.0
 11
644.18767316632295
 21
-2147.4369486528399
 31
0.0
  0
LINE
  5
E4C4
  8
01
 10
684.18767316632318
 20
-2176.236948652841
 30
0.0
 11
684.18767316632318
 21
-2147.4369486528399
 31
0.0
  0
LINE
  5
E4C5
  8
01
 10
646.78767316632286
 20
-2148.736948652841
 30
0.0
 11
681.58767316632316
 21
-2148.736948652841
 31
0.0
  0
LINE
  5
E4C9
  8
01
 10
984.18766484386538
 20
-2176.236948652841
 30
0.0
 11
984.18766484386538
 21
-2147.4369486528399
 31
0.0
  0
LINE
  5
E4CA
  8
01
 10
1024.187664843864
 20
-2176.236948652841
 30
0.0
 11
1024.187664843864
 21
-2147.4369486528399
 31
0.0
  0
LINE
  5
E4CB
  8
01
 10
986.7876648438654
 20
-2148.736948652841
 30
0.0
 11
1021.587664843864
 21
-2148.736948652841
 31
0.0
  0
LINE
  5
E4CF
  8
01
 10
792.18728360060459
 20
-2171.7369536528308
 30
0.0
 11
792.18728360060459
 21
-2124.4369486528399
 31
0.0
  0
LINE
  5
E4D0
  8
01
 10
814.18766916632421
 20
-2139.2395686528412
 30
0.0
 11
814.18766916632421
 21
-2124.4369486528399
 31
0.0
  0
LINE
  5
E4D1
  8
01
 10
794.7872836006045
 20
-2125.736948652841
 30
0.0
 11
811.58766916632419
 21
-2125.736948652841
 31
0.0
  0
LINE
  5
E4D5
  8
01
 10
854.18766916632421
 20
-2139.2395686528398
 30
0.0
 11
854.18766916632421
 21
-2124.4369486528399
 31
0.0
  0
LINE
  5
E4D6
  8
01
 10
862.18743917632696
 20
-2181.7369471276979
 30
0.0
 11
862.18743917632696
 21
-2124.4369486528399
 31
0.0
  0
LINE
  5
E4D7
  8
01
 10
856.78766916632424
 20
-2125.736948652841
 30
0.0
 11
859.58743917632705
 21
-2125.736948652841
 31
0.0
  0
LINE
  5
E4DB
  8
01
 10
800.9867072720009
 20
-2230.986948652841
 30
0.0
 11
799.68766916632421
 21
-2230.236948652841
 31
0.0
  0
LINE
  5
E4DC
  8
01
 10
799.68766916632421
 20
-2230.236948652841
 30
0.0
 11
798.38863106064764
 21
-2230.986948652841
 31
0.0
  0
LINE
  5
E4DD
  8
01
 10
798.38863106064764
 20
-2230.986948652841
 30
0.0
 11
798.38863106064764
 21
-2232.486948652841
 31
0.0
  0
LINE
  5
E4DE
  8
01
 10
798.38863106064764
 20
-2232.486948652841
 30
0.0
 11
799.68766916632421
 21
-2233.236948652841
 31
0.0
  0
LINE
  5
E4DF
  8
01
 10
799.68766916632421
 20
-2233.236948652841
 30
0.0
 11
800.9867072720009
 21
-2232.486948652841
 31
0.0
  0
LINE
  5
E4E0
  8
01
 10
800.9867072720009
 20
-2232.486948652841
 30
0.0
 11
800.9867072720009
 21
-2230.986948652841
 31
0.0
  0
CIRCLE
  5
E4E1
  8
01
 10
799.68766916632421
 20
-2231.736948652841
 30
0.0
 40
3.0
  0
CIRCLE
  5
E4E2
  8
01
 10
868.68766916632421
 20
-2231.736948652841
 30
0.0
 40
3.0
  0
LINE
  5
E4E3
  8
01
 10
953.18766516632456
 20
-2145.736948652841
 30
0.0
 11
953.18766516632456
 21
-2124.4369486528399
 31
0.0
  0
LINE
  5
E4E4
  8
01
 10
1004.187673166325
 20
-2153.736948652841
 30
0.0
 11
1004.187673166325
 21
-2124.4369486528399
 31
0.0
  0
LINE
  5
E4E5
  8
01
 10
955.78766516632481
 20
-2125.736948652841
 30
0.0
 11
1001.587673166325
 21
-2125.736948652841
 31
0.0
  0
LINE
  5
E4E9
  8
01
 10
1022.187665166325
 20
-2173.736948652841
 30
0.0
 11
1022.187665166325
 21
-2114.4369486528408
 31
0.0
  0
LINE
  5
E4EA
  8
01
 10
953.18766516632456
 20
-2145.736948652841
 30
0.0
 11
953.18766516632456
 21
-2114.4369486528408
 31
0.0
  0
LINE
  5
E4EB
  8
01
 10
1019.587665166324
 20
-2115.736948652841
 30
0.0
 11
955.78766516632481
 21
-2115.736948652841
 31
0.0
  0
LINE
  5
E4EF
  8
01
 10
942.18766516632468
 20
-2203.7369493509718
 30
0.0
 11
942.18766516632468
 21
-2124.4369486528399
 31
0.0
  0
LINE
  5
E4F0
  8
01
 10
953.18766516632456
 20
-2145.736948652841
 30
0.0
 11
953.18766516632456
 21
-2124.4369486528399
 31
0.0
  0
LINE
  5
E4F1
  8
01
 10
944.78766516632459
 20
-2125.736948652841
 30
0.0
 11
950.58766516632465
 21
-2125.736948652841
 31
0.0
  0
LINE
  5
E4F5
  8
01
 10
821.6876691663241
 20
-2151.736948652841
 30
0.0
 11
821.6876691663241
 21
-2124.4369486528399
 31
0.0
  0
LINE
  5
E4F6
  8
01
 10
846.6876691663241
 20
-2151.736948652841
 30
0.0
 11
846.6876691663241
 21
-2124.4369486528399
 31
0.0
  0
LINE
  5
E4F7
  8
01
 10
824.28766916632424
 20
-2125.736948652841
 30
0.0
 11
844.08766916632408
 21
-2125.736948652841
 31
0.0
  0
TEXT
  5
E4FB
  8
01
 10
829.85433583299096
 20
-2124.8269486528411
 30
0.0
 40
4.5499999999999989
  1
25
  0
LINE
  5
E4FC
  8
01
  6
BYBLOCK
 10
844.08766916632408
 20
-2125.0402807588412
 30
0.0
 11
846.6876691663241
 21
-2125.736948652841
 31
0.0
  0
LINE
  5
E4FD
  8
01
  6
BYBLOCK
 10
846.6876691663241
 20
-2125.736948652841
 30
0.0
 11
844.08766916632408
 21
-2126.4336165468399
 31
0.0
  0
LINE
  5
E4FE
  8
01
  6
BYBLOCK
 10
846.6876691663241
 20
-2125.736948652841
 30
0.0
 11
844.08766916632408
 21
-2125.736948652841
 31
0.0
  0
LINE
  5
E4FF
  8
01
  6
BYBLOCK
 10
824.28766916632424
 20
-2126.4336165468399
 30
0.0
 11
821.6876691663241
 21
-2125.736948652841
 31
0.0
  0
LINE
  5
E500
  8
01
  6
BYBLOCK
 10
821.6876691663241
 20
-2125.736948652841
 30
0.0
 11
824.28766916632424
 21
-2125.0402807588412
 31
0.0
  0
LINE
  5
E501
  8
01
  6
BYBLOCK
 10
821.6876691663241
 20
-2125.736948652841
 30
0.0
 11
824.28766916632424
 21
-2125.736948652841
 31
0.0
  0
TEXT
  5
E502
  8
01
 10
943.67933183299135
 20
-2124.8269486528411
 30
0.0
 40
4.5499999999999989
  1
11
  0
LINE
  5
E503
  8
01
  6
BYBLOCK
 10
950.58766516632465
 20
-2125.0402807588412
 30
0.0
 11
953.18766516632456
 21
-2125.736948652841
 31
0.0
  0
LINE
  5
E504
  8
01
  6
BYBLOCK
 10
953.18766516632456
 20
-2125.736948652841
 30
0.0
 11
950.58766516632465
 21
-2126.4336165468399
 31
0.0
  0
LINE
  5
E505
  8
01
  6
BYBLOCK
 10
953.18766516632456
 20
-2125.736948652841
 30
0.0
 11
950.58766516632465
 21
-2125.736948652841
 31
0.0
  0
LINE
  5
E506
  8
01
  6
BYBLOCK
 10
944.78766516632459
 20
-2126.4336165468399
 30
0.0
 11
942.18766516632468
 21
-2125.736948652841
 31
0.0
  0
LINE
  5
E507
  8
01
  6
BYBLOCK
 10
942.18766516632468
 20
-2125.736948652841
 30
0.0
 11
944.78766516632459
 21
-2125.0402807588412
 31
0.0
  0
LINE
  5
E508
  8
01
  6
BYBLOCK
 10
942.18766516632468
 20
-2125.736948652841
 30
0.0
 11
944.78766516632459
 21
-2125.736948652841
 31
0.0
  0
TEXT
  5
E509
  8
01
 10
983.35433183299142
 20
-2114.8269486528411
 30
0.0
 40
4.5499999999999989
  1
69
  0
LINE
  5
E50A
  8
01
  6
BYBLOCK
 10
955.78766516632481
 20
-2116.4336165468399
 30
0.0
 11
953.18766516632456
 21
-2115.736948652841
 31
0.0
  0
LINE
  5
E50B
  8
01
  6
BYBLOCK
 10
953.18766516632456
 20
-2115.736948652841
 30
0.0
 11
955.78766516632481
 21
-2115.0402807588412
 31
0.0
  0
LINE
  5
E50C
  8
01
  6
BYBLOCK
 10
953.18766516632456
 20
-2115.736948652841
 30
0.0
 11
955.78766516632481
 21
-2115.736948652841
 31
0.0
  0
LINE
  5
E50D
  8
01
  6
BYBLOCK
 10
1019.587665166324
 20
-2115.0402807588412
 30
0.0
 11
1022.187665166325
 21
-2115.736948652841
 31
0.0
  0
LINE
  5
E50E
  8
01
  6
BYBLOCK
 10
1022.187665166325
 20
-2115.736948652841
 30
0.0
 11
1019.587665166324
 21
-2116.4336165468399
 31
0.0
  0
LINE
  5
E50F
  8
01
  6
BYBLOCK
 10
1022.187665166325
 20
-2115.736948652841
 30
0.0
 11
1019.587665166324
 21
-2115.736948652841
 31
0.0
  0
TEXT
  5
E510
  8
01
 10
975.00433583299184
 20
-2124.8269486528411
 30
0.0
 40
4.5499999999999989
  1
51
  0
LINE
  5
E511
  8
01
  6
BYBLOCK
 10
1001.587673166325
 20
-2125.0402807588412
 30
0.0
 11
1004.187673166325
 21
-2125.736948652841
 31
0.0
  0
LINE
  5
E512
  8
01
  6
BYBLOCK
 10
1004.187673166325
 20
-2125.736948652841
 30
0.0
 11
1001.587673166325
 21
-2126.4336165468399
 31
0.0
  0
LINE
  5
E513
  8
01
  6
BYBLOCK
 10
1004.187673166325
 20
-2125.736948652841
 30
0.0
 11
1001.587673166325
 21
-2125.736948652841
 31
0.0
  0
LINE
  5
E514
  8
01
  6
BYBLOCK
 10
955.78766516632481
 20
-2126.4336165468399
 30
0.0
 11
953.18766516632456
 21
-2125.736948652841
 31
0.0
  0
LINE
  5
E515
  8
01
  6
BYBLOCK
 10
953.18766516632456
 20
-2125.736948652841
 30
0.0
 11
955.78766516632481
 21
-2125.0402807588412
 31
0.0
  0
LINE
  5
E516
  8
01
  6
BYBLOCK
 10
953.18766516632456
 20
-2125.736948652841
 30
0.0
 11
955.78766516632481
 21
-2125.736948652841
 31
0.0
  0
TEXT
  5
E517
  8
01
 10
856.02088750465907
 20
-2124.8269486528411
 30
0.0
 40
4.5499999999999989
  1
8
  0
LINE
  5
E518
  8
01
  6
BYBLOCK
 10
859.58743917632705
 20
-2125.0402807588412
 30
0.0
 11
862.18743917632696
 21
-2125.736948652841
 31
0.0
  0
LINE
  5
E519
  8
01
  6
BYBLOCK
 10
862.18743917632696
 20
-2125.736948652841
 30
0.0
 11
859.58743917632705
 21
-2126.4336165468399
 31
0.0
  0
LINE
  5
E51A
  8
01
  6
BYBLOCK
 10
862.18743917632696
 20
-2125.736948652841
 30
0.0
 11
859.58743917632705
 21
-2125.736948652841
 31
0.0
  0
LINE
  5
E51B
  8
01
  6
BYBLOCK
 10
856.78766916632424
 20
-2126.4336165468399
 30
0.0
 11
854.18766916632421
 21
-2125.736948652841
 31
0.0
  0
LINE
  5
E51C
  8
01
  6
BYBLOCK
 10
854.18766916632421
 20
-2125.736948652841
 30
0.0
 11
856.78766916632424
 21
-2125.0402807588412
 31
0.0
  0
LINE
  5
E51D
  8
01
  6
BYBLOCK
 10
854.18766916632421
 20
-2125.736948652841
 30
0.0
 11
856.78766916632424
 21
-2125.736948652841
 31
0.0
  0
TEXT
  5
E51E
  8
01
 10
798.85414305013114
 20
-2124.8269486528411
 30
0.0
 40
4.5499999999999989
  1
22
  0
LINE
  5
E51F
  8
01
  6
BYBLOCK
 10
811.58766916632419
 20
-2125.0402807588412
 30
0.0
 11
814.18766916632421
 21
-2125.736948652841
 31
0.0
  0
LINE
  5
E520
  8
01
  6
BYBLOCK
 10
814.18766916632421
 20
-2125.736948652841
 30
0.0
 11
811.58766916632419
 21
-2126.4336165468399
 31
0.0
  0
LINE
  5
E521
  8
01
  6
BYBLOCK
 10
814.18766916632421
 20
-2125.736948652841
 30
0.0
 11
811.58766916632419
 21
-2125.736948652841
 31
0.0
  0
LINE
  5
E522
  8
01
  6
BYBLOCK
 10
794.7872836006045
 20
-2126.4336165468399
 30
0.0
 11
792.18728360060459
 21
-2125.736948652841
 31
0.0
  0
LINE
  5
E523
  8
01
  6
BYBLOCK
 10
792.18728360060459
 20
-2125.736948652841
 30
0.0
 11
794.7872836006045
 21
-2125.0402807588412
 31
0.0
  0
LINE
  5
E524
  8
01
  6
BYBLOCK
 10
792.18728360060459
 20
-2125.736948652841
 30
0.0
 11
794.7872836006045
 21
-2125.736948652841
 31
0.0
  0
TEXT
  5
E525
  8
01
 10
996.99433151053177
 20
-2147.8269486528411
 30
0.0
 40
4.5499999999999989
  1
\U+03C640
  0
LINE
  5
E526
  8
01
  6
BYBLOCK
 10
1021.587664843864
 20
-2148.0402807588412
 30
0.0
 11
1024.187664843864
 21
-2148.736948652841
 31
0.0
  0
LINE
  5
E527
  8
01
  6
BYBLOCK
 10
1024.187664843864
 20
-2148.736948652841
 30
0.0
 11
1021.587664843864
 21
-2149.4336165468399
 31
0.0
  0
LINE
  5
E528
  8
01
  6
BYBLOCK
 10
1024.187664843864
 20
-2148.736948652841
 30
0.0
 11
1021.587664843864
 21
-2148.736948652841
 31
0.0
  0
LINE
  5
E529
  8
01
  6
BYBLOCK
 10
986.7876648438654
 20
-2149.4336165468399
 30
0.0
 11
984.18766484386538
 21
-2148.736948652841
 31
0.0
  0
LINE
  5
E52A
  8
01
  6
BYBLOCK
 10
984.18766484386538
 20
-2148.736948652841
 30
0.0
 11
986.7876648438654
 21
-2148.0402807588412
 31
0.0
  0
LINE
  5
E52B
  8
01
  6
BYBLOCK
 10
984.18766484386538
 20
-2148.736948652841
 30
0.0
 11
986.7876648438654
 21
-2148.736948652841
 31
0.0
  0
TEXT
  5
E52C
  8
01
 10
656.99433983298979
 20
-2147.8269486528411
 30
0.0
 40
4.5499999999999989
  1
\U+03C640
  0
LINE
  5
E52D
  8
01
  6
BYBLOCK
 10
681.58767316632316
 20
-2148.0402807588412
 30
0.0
 11
684.18767316632318
 21
-2148.736948652841
 31
0.0
  0
LINE
  5
E52E
  8
01
  6
BYBLOCK
 10
684.18767316632318
 20
-2148.736948652841
 30
0.0
 11
681.58767316632316
 21
-2149.4336165468399
 31
0.0
  0
LINE
  5
E52F
  8
01
  6
BYBLOCK
 10
684.18767316632318
 20
-2148.736948652841
 30
0.0
 11
681.58767316632316
 21
-2148.736948652841
 31
0.0
  0
LINE
  5
E530
  8
01
  6
BYBLOCK
 10
646.78767316632286
 20
-2149.4336165468399
 30
0.0
 11
644.18767316632295
 21
-2148.736948652841
 31
0.0
  0
LINE
  5
E531
  8
01
  6
BYBLOCK
 10
644.18767316632295
 20
-2148.736948652841
 30
0.0
 11
646.78767316632286
 21
-2148.0402807588412
 31
0.0
  0
LINE
  5
E532
  8
01
  6
BYBLOCK
 10
644.18767316632295
 20
-2148.736948652841
 30
0.0
 11
646.78767316632286
 21
-2148.736948652841
 31
0.0
  0
TEXT
  5
E533
  8
01
 10
630.27768516632455
 20
-2211.070281986174
 30
0.0
 40
4.5499999999999989
  1
50
 50
90.0
  0
LINE
  5
E534
  8
01
  6
BYBLOCK
 10
630.49101727232414
 20
-2184.3369486528409
 30
0.0
 11
631.18768516632406
 21
-2181.736948652841
 31
0.0
  0
LINE
  5
E535
  8
01
  6
BYBLOCK
 10
631.18768516632406
 20
-2181.736948652841
 30
0.0
 11
631.8843530603242
 21
-2184.3369486528409
 31
0.0
  0
LINE
  5
E536
  8
01
  6
BYBLOCK
 10
631.18768516632406
 20
-2181.736948652841
 30
0.0
 11
631.18768516632406
 21
-2184.3369486528409
 31
0.0
  0
LINE
  5
E537
  8
01
  6
BYBLOCK
 10
631.8843530603242
 20
-2229.1369486528411
 30
0.0
 11
631.18768516632406
 21
-2231.736948652841
 31
0.0
  0
LINE
  5
E538
  8
01
  6
BYBLOCK
 10
631.18768516632406
 20
-2231.736948652841
 30
0.0
 11
630.49101727232414
 21
-2229.1369486528411
 31
0.0
  0
LINE
  5
E539
  8
01
  6
BYBLOCK
 10
631.18768516632406
 20
-2231.736948652841
 30
0.0
 11
631.18768516632406
 21
-2229.1369486528411
 31
0.0
  0
TEXT
  5
E53A
  8
01
 10
620.27768516632455
 20
-2211.570281986174
 30
0.0
 40
4.5499999999999989
  1
55.5
 50
90.0
  0
LINE
  5
E53B
  8
01
  6
BYBLOCK
 10
620.49101727232414
 20
-2178.8369486528409
 30
0.0
 11
621.18768516632406
 21
-2176.236948652841
 31
0.0
  0
LINE
  5
E53C
  8
01
  6
BYBLOCK
 10
621.18768516632406
 20
-2176.236948652841
 30
0.0
 11
621.88435306032409
 21
-2178.8369486528409
 31
0.0
  0
LINE
  5
E53D
  8
01
  6
BYBLOCK
 10
621.18768516632406
 20
-2176.236948652841
 30
0.0
 11
621.18768516632406
 21
-2178.8369486528409
 31
0.0
  0
LINE
  5
E53E
  8
01
  6
BYBLOCK
 10
621.88435306032409
 20
-2229.1369486528411
 30
0.0
 11
621.18768516632406
 21
-2231.736948652841
 31
0.0
  0
LINE
  5
E53F
  8
01
  6
BYBLOCK
 10
621.18768516632406
 20
-2231.736948652841
 30
0.0
 11
620.49101727232414
 21
-2229.1369486528411
 31
0.0
  0
LINE
  5
E540
  8
01
  6
BYBLOCK
 10
621.18768516632406
 20
-2231.736948652841
 30
0.0
 11
621.18768516632406
 21
-2229.1369486528411
 31
0.0
  0
TEXT
  5
E541
  8
01
 10
877.78126020288107
 20
-2199.856561305859
 30
0.0
 40
4.5499999999999989
  1
114
 50
90.0
  0
LINE
  5
E542
  8
01
  6
BYBLOCK
 10
879.38792809688073
 20
-2265.1369486528411
 30
0.0
 11
878.69126020288058
 21
-2267.7369486528401
 31
0.0
  0
LINE
  5
E543
  8
01
  6
BYBLOCK
 10
878.69126020288058
 20
-2267.7369486528401
 30
0.0
 11
877.99459230888056
 21
-2265.1369486528411
 31
0.0
  0
LINE
  5
E544
  8
01
  6
BYBLOCK
 10
878.69126020288058
 20
-2267.7369486528401
 30
0.0
 11
878.69126020288058
 21
-2265.1369486528411
 31
0.0
  0
LINE
  5
E545
  8
01
  6
BYBLOCK
 10
877.99459230888056
 20
-2156.3369486528409
 30
0.0
 11
878.69126020288058
 21
-2153.736948652841
 31
0.0
  0
LINE
  5
E546
  8
01
  6
BYBLOCK
 10
878.69126020288058
 20
-2153.736948652841
 30
0.0
 11
879.38792809688073
 21
-2156.3369486528409
 31
0.0
  0
LINE
  5
E547
  8
01
  6
BYBLOCK
 10
878.69126020288058
 20
-2153.736948652841
 30
0.0
 11
878.69126020288058
 21
-2156.3369486528409
 31
0.0
  0
TEXT
  5
E548
  8
01
 10
893.27766916632424
 20
-2199.7482279725259
 30
0.0
 40
4.5499999999999989
  1
130
 50
90.0
  0
LINE
  5
E549
  8
01
  6
BYBLOCK
 10
894.88433706032379
 20
-2273.1369486528411
 30
0.0
 11
894.18766916632387
 21
-2275.7369486528401
 31
0.0
  0
LINE
  5
E54A
  8
01
  6
BYBLOCK
 10
894.18766916632387
 20
-2275.7369486528401
 30
0.0
 11
893.49100127232373
 21
-2273.1369486528411
 31
0.0
  0
LINE
  5
E54B
  8
01
  6
BYBLOCK
 10
894.18766916632387
 20
-2275.7369486528401
 30
0.0
 11
894.18766916632387
 21
-2273.1369486528411
 31
0.0
  0
LINE
  5
E54C
  8
01
  6
BYBLOCK
 10
893.49100127232373
 20
-2148.33694865284
 30
0.0
 11
894.18766916632387
 21
-2145.736948652841
 31
0.0
  0
LINE
  5
E54D
  8
01
  6
BYBLOCK
 10
894.18766916632387
 20
-2145.736948652841
 30
0.0
 11
894.88433706032379
 21
-2148.33694865284
 31
0.0
  0
LINE
  5
E54E
  8
01
  6
BYBLOCK
 10
894.18766916632387
 20
-2145.736948652841
 30
0.0
 11
894.18766916632387
 21
-2148.33694865284
 31
0.0
  0
TEXT
  5
E54F
  8
01
 10
968.2776651663246
 20
-2240.2700279483279
 30
0.0
 40
4.5499999999999989
  1
\U+03C650
 50
90.0
  0
LINE
  5
E550
  8
01
  6
BYBLOCK
 10
969.88433306032437
 20
-2254.1369486528401
 30
0.0
 11
969.18766516632434
 21
-2256.7369486528391
 31
0.0
  0
LINE
  5
E551
  8
01
  6
BYBLOCK
 10
969.18766516632434
 20
-2256.7369486528391
 30
0.0
 11
968.49099727232431
 21
-2254.1369486528401
 31
0.0
  0
LINE
  5
E552
  8
01
  6
BYBLOCK
 10
969.18766516632434
 20
-2256.7369486528391
 30
0.0
 11
969.18766516632434
 21
-2254.1369486528401
 31
0.0
  0
LINE
  5
E553
  8
01
  6
BYBLOCK
 10
968.49099727232431
 20
-2209.3369486528409
 30
0.0
 11
969.18766516632434
 21
-2206.7369486528401
 31
0.0
  0
LINE
  5
E554
  8
01
  6
BYBLOCK
 10
969.18766516632434
 20
-2206.7369486528401
 30
0.0
 11
969.88433306032437
 21
-2209.3369486528409
 31
0.0
  0
LINE
  5
E555
  8
01
  6
BYBLOCK
 10
969.18766516632434
 20
-2206.7369486528401
 30
0.0
 11
969.18766516632434
 21
-2209.3369486528409
 31
0.0
  0
TEXT
  5
E556
  8
01
 10
1057.362781506069
 20
-2060.3269486538702
 30
0.0
 40
4.5499999999999989
  1
120
  0
LINE
  5
E557
  8
01
  6
BYBLOCK
 10
1121.5877815060689
 20
-2060.5402807598698
 30
0.0
 11
1124.1877815060691
 21
-2061.2369486538691
 31
0.0
  0
LINE
  5
E558
  8
01
  6
BYBLOCK
 10
1124.1877815060691
 20
-2061.2369486538691
 30
0.0
 11
1121.5877815060689
 21
-2061.933616547869
 31
0.0
  0
LINE
  5
E559
  8
01
  6
BYBLOCK
 10
1124.1877815060691
 20
-2061.2369486538691
 30
0.0
 11
1121.5877815060689
 21
-2061.2369486538691
 31
0.0
  0
LINE
  5
E55A
  8
01
  6
BYBLOCK
 10
1006.787781506069
 20
-2061.933616547869
 30
0.0
 11
1004.187781506069
 21
-2061.2369486538691
 31
0.0
  0
LINE
  5
E55B
  8
01
  6
BYBLOCK
 10
1004.187781506069
 20
-2061.2369486538691
 30
0.0
 11
1006.787781506069
 21
-2060.5402807598698
 31
0.0
  0
LINE
  5
E55C
  8
01
  6
BYBLOCK
 10
1004.187781506069
 20
-2061.2369486538691
 30
0.0
 11
1006.787781506069
 21
-2061.2369486538691
 31
0.0
  0
TEXT
  5
E55D
  8
01
 10
1044.362781506069
 20
-2070.3269486538688
 30
0.0
 40
4.5499999999999989
  1
146
  0
LINE
  5
E55E
  8
01
  6
BYBLOCK
 10
1121.5877815060689
 20
-2070.5402807598689
 30
0.0
 11
1124.1877815060691
 21
-2071.2369486538691
 31
0.0
  0
LINE
  5
E55F
  8
01
  6
BYBLOCK
 10
1124.1877815060691
 20
-2071.2369486538691
 30
0.0
 11
1121.5877815060689
 21
-2071.933616547869
 31
0.0
  0
LINE
  5
E560
  8
01
  6
BYBLOCK
 10
1124.1877815060691
 20
-2071.2369486538691
 30
0.0
 11
1121.5877815060689
 21
-2071.2369486538691
 31
0.0
  0
LINE
  5
E561
  8
01
  6
BYBLOCK
 10
980.78778150606945
 20
-2071.933616547869
 30
0.0
 11
978.18778150606943
 21
-2071.2369486538691
 31
0.0
  0
LINE
  5
E562
  8
01
  6
BYBLOCK
 10
978.18778150606943
 20
-2071.2369486538691
 30
0.0
 11
980.78778150606945
 21
-2070.5402807598689
 31
0.0
  0
LINE
  5
E563
  8
01
  6
BYBLOCK
 10
978.18778150606943
 20
-2071.2369486538691
 30
0.0
 11
980.78778150606945
 21
-2071.2369486538691
 31
0.0
  0
TEXT
  5
E564
  8
01
 10
1138.277781506069
 20
-2010.570281987202
 30
0.0
 40
4.5499999999999989
  1
42.5
 50
90.0
  0
LINE
  5
E565
  8
01
  6
BYBLOCK
 10
1139.8844494000689
 20
-2021.636948653869
 30
0.0
 11
1139.1877815060691
 21
-2024.2369486538689
 31
0.0
  0
LINE
  5
E566
  8
01
  6
BYBLOCK
 10
1139.1877815060691
 20
-2024.2369486538689
 30
0.0
 11
1138.4911136120691
 21
-2021.636948653869
 31
0.0
  0
LINE
  5
E567
  8
01
  6
BYBLOCK
 10
1139.1877815060691
 20
-2024.2369486538689
 30
0.0
 11
1139.1877815060691
 21
-2021.636948653869
 31
0.0
  0
LINE
  5
E568
  8
01
  6
BYBLOCK
 10
1138.4911136120691
 20
-1984.3369486538691
 30
0.0
 11
1139.1877815060691
 21
-1981.7369486538689
 31
0.0
  0
LINE
  5
E569
  8
01
  6
BYBLOCK
 10
1139.1877815060691
 20
-1981.7369486538689
 30
0.0
 11
1139.8844494000689
 21
-1984.3369486538691
 31
0.0
  0
LINE
  5
E56A
  8
01
  6
BYBLOCK
 10
1139.1877815060691
 20
-1981.7369486538689
 30
0.0
 11
1139.1877815060691
 21
-1984.3369486538691
 31
0.0
  0
TEXT
  5
E56B
  8
01
 10
1148.277781506069
 20
-2021.6786153205351
 30
0.0
 40
4.5499999999999989
  1
64.5
 50
90.0
  0
LINE
  5
E56C
  8
01
  6
BYBLOCK
 10
1149.8844494000689
 20
-2043.636948653869
 30
0.0
 11
1149.1877815060691
 21
-2046.2369486538689
 31
0.0
  0
LINE
  5
E56D
  8
01
  6
BYBLOCK
 10
1149.1877815060691
 20
-2046.2369486538689
 30
0.0
 11
1148.4911136120691
 21
-2043.636948653869
 31
0.0
  0
LINE
  5
E56E
  8
01
  6
BYBLOCK
 10
1149.1877815060691
 20
-2046.2369486538689
 30
0.0
 11
1149.1877815060691
 21
-2043.636948653869
 31
0.0
  0
LINE
  5
E56F
  8
01
  6
BYBLOCK
 10
1148.4911136120691
 20
-1984.3369486538691
 30
0.0
 11
1149.1877815060691
 21
-1981.7369486538689
 31
0.0
  0
LINE
  5
E570
  8
01
  6
BYBLOCK
 10
1149.1877815060691
 20
-1981.7369486538689
 30
0.0
 11
1149.8844494000689
 21
-1984.3369486538691
 31
0.0
  0
LINE
  5
E571
  8
01
  6
BYBLOCK
 10
1149.1877815060691
 20
-1981.7369486538689
 30
0.0
 11
1149.1877815060691
 21
-1984.3369486538691
 31
0.0
  0
TEXT
  5
E572
  8
01
 10
1138.2776651663251
 20
-2236.3952807961741
 30
0.0
 40
4.5499999999999989
  1
10
 50
90.0
  0
LINE
  5
E573
  8
01
  6
BYBLOCK
 10
1139.884333060324
 20
-2234.1369465728412
 30
0.0
 11
1139.1876651663249
 21
-2236.7369465728411
 31
0.0
  0
LINE
  5
E574
  8
01
  6
BYBLOCK
 10
1139.1876651663249
 20
-2236.7369465728411
 30
0.0
 11
1138.490997272324
 21
-2234.1369465728412
 31
0.0
  0
LINE
  5
E575
  8
01
  6
BYBLOCK
 10
1139.1876651663249
 20
-2236.7369465728411
 30
0.0
 11
1139.1876651663249
 21
-2234.1369465728412
 31
0.0
  0
LINE
  5
E576
  8
01
  6
BYBLOCK
 10
1138.490997272324
 20
-2229.3369483528409
 30
0.0
 11
1139.1876651663249
 21
-2226.736948352841
 31
0.0
  0
LINE
  5
E577
  8
01
  6
BYBLOCK
 10
1139.1876651663249
 20
-2226.736948352841
 30
0.0
 11
1139.884333060324
 21
-2229.3369483528409
 31
0.0
  0
LINE
  5
E578
  8
01
  6
BYBLOCK
 10
1139.1876651663249
 20
-2226.736948352841
 30
0.0
 11
1139.1876651663249
 21
-2229.3369483528409
 31
0.0
  0
TEXT
  5
E579
  8
01
 10
1048.2776651663251
 20
-2218.070281986174
 30
0.0
 40
4.5499999999999989
  1
74.5
 50
90.0
  0
LINE
  5
E57A
  8
01
  6
BYBLOCK
 10
1049.884333060324
 20
-2245.1369486528411
 30
0.0
 11
1049.1876651663249
 21
-2247.736948652841
 31
0.0
  0
LINE
  5
E57B
  8
01
  6
BYBLOCK
 10
1049.1876651663249
 20
-2247.736948652841
 30
0.0
 11
1048.490997272324
 21
-2245.1369486528411
 31
0.0
  0
LINE
  5
E57C
  8
01
  6
BYBLOCK
 10
1049.1876651663249
 20
-2247.736948652841
 30
0.0
 11
1049.1876651663249
 21
-2245.1369486528411
 31
0.0
  0
LINE
  5
E57D
  8
01
  6
BYBLOCK
 10
1048.490997272324
 20
-2175.8369486528409
 30
0.0
 11
1049.1876651663249
 21
-2173.236948652841
 31
0.0
  0
LINE
  5
E57E
  8
01
  6
BYBLOCK
 10
1049.1876651663249
 20
-2173.236948652841
 30
0.0
 11
1049.884333060324
 21
-2175.8369486528409
 31
0.0
  0
LINE
  5
E57F
  8
01
  6
BYBLOCK
 10
1049.1876651663249
 20
-2173.236948652841
 30
0.0
 11
1049.1876651663249
 21
-2175.8369486528409
 31
0.0
  0
LINE
  5
E580
  8
01
 10
1001.876728294392
 20
-2001.232859812445
 30
0.0
 11
976.94082625934129
 21
-2020.646948653869
 31
0.0
1001
ACAD
1000
DSTYLE
1002
{
1070
    40
1040
1.3
1002
}
  0
LINE
  5
E581
  8
01
 10
976.94082625934129
 20
-2020.646948653869
 30
0.0
 11
973.43082625934142
 21
-2020.646948653869
 31
0.0
1001
ACAD
1000
DSTYLE
1002
{
1070
    40
1040
1.3
1002
}
  0
TEXT
  5
E582
  8
01
 10
1043.1389401080969
 20
-1969.320281987202
 30
0.0
 40
4.5499999999999989
  1
20.5
 50
90.0
  0
LINE
  5
E583
  8
01
  6
BYBLOCK
 10
1044.7456080020979
 20
-1969.386948653869
 30
0.0
 11
1044.0489401080979
 21
-1971.9869486538689
 31
0.0
  0
LINE
  5
E584
  8
01
  6
BYBLOCK
 10
1044.0489401080979
 20
-1971.9869486538689
 30
0.0
 11
1043.352272214097
 21
-1969.386948653869
 31
0.0
  0
LINE
  5
E585
  8
01
  6
BYBLOCK
 10
1044.0489401080979
 20
-1971.9869486538689
 30
0.0
 11
1044.0489401080979
 21
-1969.386948653869
 31
0.0
  0
LINE
  5
E586
  8
01
  6
BYBLOCK
 10
1043.352272214097
 20
-1954.0869486538691
 30
0.0
 11
1044.0489401080979
 21
-1951.4869486538689
 31
0.0
  0
LINE
  5
E587
  8
01
  6
BYBLOCK
 10
1044.0489401080979
 20
-1951.4869486538689
 30
0.0
 11
1044.7456080020979
 21
-1954.0869486538691
 31
0.0
  0
LINE
  5
E588
  8
01
  6
BYBLOCK
 10
1044.0489401080979
 20
-1951.4869486538689
 30
0.0
 11
1044.0489401080979
 21
-1954.0869486538691
 31
0.0
  0
LINE
  5
E589
  8
01
 10
1037.933165083133
 20
-2024.785624459098
 30
0.0
 11
1049.5498844115259
 21
-2011.169467456371
 31
0.0
1001
ACAD
1000
DSTYLE
1002
{
1070
    40
1040
1.3
1002
}
  0
LINE
  5
E58A
  8
01
 10
1049.5498844115259
 20
-2011.169467456371
 30
0.0
 11
1053.059884411525
 21
-2011.169467456371
 31
0.0
1001
ACAD
1000
DSTYLE
1002
{
1070
    40
1040
1.3
1002
}
  0
VIEWPORT
  5
57
 67
     1
  8
0
 10
10.29867712960651
 20
17.565658765306811
 30
0.0
 40
436.65580340370229
 41
283.63306167992698
 68
     1
 69
     1
1001
ACAD
1000
MVIEW
1002
{
1070
    16
1010
0.0
1020
0.0
1030
0.0
1010
0.0
1020
0.0
1030
1.0
1040
0.0
1040
283.63306167992698
1040
10.29867712960651
1040
17.565658765306811
1040
50.0
1040
0.0
1040
0.0
1070
     0
1070
   100
1070
     1
1070
     1
1070
     0
1070
     0
1070
     0
1070
     0
1040
0.0
1040
0.0
1040
0.0
1040
10.0
1040
10.0
1040
10.0
1040
10.0
1070
     0
1002
{
1002
}
1002
}
  0
ENDSEC
  0
EOF
