  0
SECTION
  2
HEADER
  9
$ACADVER
  1
AC1009
  9
$INSBASE
 10
0.0
 20
0.0
 30
0.0
  9
$EXTMIN
 10
549.18767316632284
 20
-2286.5728886528409
 30
-0.0000000000001137
  9
$EXTMAX
 10
1145.4877815060711
 20
-1879.7369486538689
 30
0.0000000000562575
  9
$LIMMIN
 10
0.0
 20
0.0
  9
$LIMMAX
 10
420.0
 20
297.0
  9
$ORTHOMODE
 70
     0
  9
$REGENMODE
 70
     1
  9
$FILLMODE
 70
     1
  9
$QTEXTMODE
 70
     0
  9
$MIRRTEXT
 70
     0
  9
$DRAGMODE
 70
     2
  9
$LTSCALE
 40
0.5
  9
$OSMODE
 70
  2175
  9
$ATTMODE
 70
     1
  9
$TEXTSIZE
 40
4.0
  9
$TRACEWID
 40
1.0
  9
$TEXTSTYLE
  7
STANDARD
  9
$CLAYER
  8
1TEXT
  9
$CELTYPE
  6
BYLAYER
  9
$CECOLOR
 62
   256
  9
$DIMSCALE
 40
1.0
  9
$DIMASZ
 40
2.0
  9
$DIMEXO
 40
0.0
  9
$DIMDLI
 40
7.0
  9
$DIMRND
 40
0.0
  9
$DIMDLE
 40
0.0
  9
$DIMEXE
 40
1.0
  9
$DIMTP
 40
0.0
  9
$DIMTM
 40
0.0
  9
$DIMTXT
 40
3.5
  9
$DIMCEN
 40
0.0
  9
$DIMTSZ
 40
0.0
  9
$DIMTOL
 70
     0
  9
$DIMLIM
 70
     0
  9
$DIMTIH
 70
     0
  9
$DIMTOH
 70
     0
  9
$DIMSE1
 70
     0
  9
$DIMSE2
 70
     0
  9
$DIMTAD
 70
     1
  9
$DIMZIN
 70
     8
  9
$DIMBLK
  1

  9
$DIMASO
 70
     1
  9
$DIMSHO
 70
     1
  9
$DIMPOST
  1
 
  9
$DIMAPOST
  1

  9
$DIMALT
 70
     0
  9
$DIMALTD
 70
     2
  9
$DIMALTF
 40
25.399999999999999
  9
$DIMLFAC
 40
1.0
  9
$DIMTOFL
 70
     1
  9
$DIMTVP
 40
0.0
  9
$DIMTIX
 70
     0
  9
$DIMSOXD
 70
     0
  9
$DIMSAH
 70
     1
  9
$DIMBLK1
  1
OPEN30
  9
$DIMBLK2
  1
OPEN30
  9
$DIMSTYLE
  2
NEWX10
  9
$DIMCLRD
 70
   256
  9
$DIMCLRE
 70
   256
  9
$DIMCLRT
 70
   201
  9
$DIMTFAC
 40
0.7
  9
$DIMGAP
 40
0.7
  9
$LUNITS
 70
     2
  9
$LUPREC
 70
     4
  9
$SKETCHINC
 40
1.0
  9
$FILLETRAD
 40
0.0
  9
$AUNITS
 70
     0
  9
$AUPREC
 70
     2
  9
$MENU
  1
acad
  9
$ELEVATION
 40
0.0
  9
$PELEVATION
 40
0.0
  9
$THICKNESS
 40
0.0
  9
$LIMCHECK
 70
     0
  9
$BLIPMODE
 70
     0
  9
$CHAMFERA
 40
10.0
  9
$CHAMFERB
 40
10.0
  9
$SKPOLY
 70
     0
  9
$TDCREATE
 40
2451318.621352917
  9
$TDUPDATE
 40
2456016.8213368058
  9
$TDINDWG
 40
0.4884912384
  9
$TDUSRTIMER
 40
0.4884912384
  9
$USRTIMER
 70
     1
  9
$ANGBASE
 50
0.0
  9
$ANGDIR
 70
     0
  9
$PDMODE
 70
     0
  9
$PDSIZE
 40
0.0
  9
$PLINEWID
 40
0.0
  9
$COORDS
 70
     2
  9
$SPLFRAME
 70
     0
  9
$SPLINETYPE
 70
     6
  9
$SPLINESEGS
 70
     8
  9
$ATTDIA
 70
     0
  9
$ATTREQ
 70
     1
  9
$HANDLING
 70
     1
  9
$HANDSEED
  5
FF38
  9
$SURFTAB1
 70
     6
  9
$SURFTAB2
 70
     6
  9
$SURFTYPE
 70
     6
  9
$SURFU
 70
     6
  9
$SURFV
 70
     6
  9
$UCSNAME
  2

  9
$UCSORG
 10
0.0
 20
0.0
 30
0.0
  9
$UCSXDIR
 10
1.0
 20
0.0
 30
0.0
  9
$UCSYDIR
 10
0.0
 20
1.0
 30
0.0
  9
$PUCSNAME
  2

  9
$PUCSORG
 10
0.0
 20
0.0
 30
0.0
  9
$PUCSXDIR
 10
1.0
 20
0.0
 30
0.0
  9
$PUCSYDIR
 10
0.0
 20
1.0
 30
0.0
  9
$USERI1
 70
     0
  9
$USERI2
 70
     0
  9
$USERI3
 70
     0
  9
$USERI4
 70
     0
  9
$USERI5
 70
     0
  9
$USERR1
 40
0.0
  9
$USERR2
 40
0.0
  9
$USERR3
 40
0.0
  9
$USERR4
 40
0.0
  9
$USERR5
 40
0.0
  9
$WORLDVIEW
 70
     1
  9
$SHADEDGE
 70
     3
  9
$SHADEDIF
 70
    70
  9
$TILEMODE
 70
     1
  9
$MAXACTVP
 70
    48
  9
$PLIMCHECK
 70
     0
  9
$PEXTMIN
 10
1.0000000000000000E+020
 20
1.0000000000000000E+020
 30
1.0000000000000000E+020
  9
$PEXTMAX
 10
-1.0000000000000000E+020
 20
-1.0000000000000000E+020
 30
-1.0000000000000000E+020
  9
$PLIMMIN
 10
0.0
 20
0.0
  9
$PLIMMAX
 10
420.0
 20
297.0
  9
$UNITMODE
 70
     0
  9
$VISRETAIN
 70
     1
  9
$PLINEGEN
 70
     0
  9
$PSLTSCALE
 70
     1
  0
ENDSEC
  0
SECTION
  2
TABLES
  0
TABLE
  2
VPORT
 70
     1
  0
VPORT
  2
*ACTIVE
 70
     0
 10
0.0
 20
0.0
 11
1.0
 21
1.0
 12
847.33515728131886
 22
-2083.1346531322019
 13
0.0
 23
0.0
 14
10.0
 24
10.0
 15
10.0
 25
10.0
 16
0.0
 26
0.0
 36
1.0
 17
0.0
 27
0.0
 37
0.0
 40
431.95460581339881
 41
1.5395095367847409
 42
50.0
 43
0.0
 44
0.0
 50
0.0
 51
0.0
 71
     0
 72
   100
 73
     1
 74
     1
 75
     0
 76
     0
 77
     0
 78
     0
  0
ENDTAB
  0
TABLE
  2
LTYPE
 70
    12
  0
LTYPE
  2
CONTINUOUS
 70
     0
  3
Solid line
 72
    65
 73
     0
 40
0.0
  0
LTYPE
  2
XREF1|CENTER2
 70
    48
  3
Center (.5x) ___ _ ___ _ ___ _ ___ _ ___ _ ___
 72
    65
 73
     4
 40
28.574999999999999
 49
19.050000000000001
 49
-3.1749999999999989
 49
3.1749999999999989
 49
-3.1749999999999989
  0
LTYPE
  2
A3WAKUDAKE|CENTER2
 70
    48
  3
Center (.5x) ___ _ ___ _ ___ _ ___ _ ___ _ ___
 72
    65
 73
     4
 40
28.574999999999999
 49
19.050000000000001
 49
-3.1749999999999989
 49
3.1749999999999989
 49
-3.1749999999999989
  0
ENDTAB
  0
TABLE
  2
LAYER
 70
    37
  0
LAYER
  2
0
 70
     0
 62
     7
  6
CONTINUOUS
  0
LAYER
  2
1TEXT
 70
     0
 62
     7
  6
CONTINUOUS
  0
LAYER
  2
01
 70
     0
 62
     1
  6
CONTINUOUS
  0
LAYER
  2
A3WAKUDAKE|THICK
 70
    48
 62
     7
  6
CONTINUOUS
  0
LAYER
  2
A3WAKUDAKE|POINT
 70
    48
 62
     7
  6
CONTINUOUS
  0
LAYER
  2
A3WAKUDAKE|1CENTER
 70
    48
 62
     7
  6
A3WAKUDAKE|CENTER2
  0
LAYER
  2
A3WAKUDAKE|0-6
 70
    48
 62
     7
  6
CONTINUOUS
  0
LAYER
  2
A3WAKUDAKE|1DIM
 70
    48
 62
     7
  6
CONTINUOUS
  0
LAYER
  2
XREF1|1CENTER
 70
    48
 62
     7
  6
XREF1|CENTER2
  0
ENDTAB
  0
TABLE
  2
STYLE
 70
     4
  0
STYLE
  2
STANDARD
 70
     0
 40
0.0
 41
1.0
 50
0.0
 71
     0
 42
4.0
  3
romans.shx
  4
extfont2.shx
  0
ENDTAB
  0
TABLE
  2
VIEW
 70
     5
  0
ENDTAB
  0
TABLE
  2
UCS
 70
     0
  0
ENDTAB
  0
TABLE
  2
APPID
 70
     9
  0
APPID
  2
ACAD
 70
     0
  0
APPID
  2
DRAWINGVARIABLESXDATA
 70
     0
  0
APPID
  2
CONTENTTABDATA
 70
     0
  0
APPID
  2
CONTENTCURRENTTAB
 70
     0
  0
APPID
  2
CONTENTBLOCKDESCRIPTION
 70
     0
  0
APPID
  2
CONTENTBLOCKICON
 70
     0
  0
APPID
  2
CONTENTLONGBLOCKNAME
 70
     0
  0
APPID
  2
ACAD_PSEXT
 70
     0
  0
APPID
  2
ACAD_MLEADERVER
 70
     0
  0
ENDTAB
  0
TABLE
  2
DIMSTYLE
 70
     5
  0
DIMSTYLE
  2
NEWX10
 70
     0
  3
 
  4

  5

  6
OPEN30
  7
OPEN30
 40
1.0
 41
2.0
 42
0.0
 43
7.0
 44
1.0
 45
0.0
 46
0.0
 47
0.0
 48
0.0
140
3.5
141
0.0
142
0.0
143
25.399999999999999
144
1.0
145
0.0
146
0.7
147
0.7
 71
     0
 72
     0
 73
     0
 74
     0
 75
     0
 76
     0
 77
     1
 78
     8
170
     0
171
     2
172
     1
173
     1
174
     0
175
     0
176
   256
177
   256
178
   201
  0
ENDTAB
  0
ENDSEC
  0
SECTION
  2
BLOCKS
  0
BLOCK
  8
0
  2
$MODEL_SPACE
 70
     0
 10
0.0
 20
0.0
 30
0.0
  3
$MODEL_SPACE
  1

  0
ENDBLK
  5
1A
  8
0
  0
BLOCK
 67
     1
  8
0
  2
$PAPER_SPACE
 70
     0
 10
0.0
 20
0.0
 30
0.0
  3
$PAPER_SPACE
  1

  0
ENDBLK
  5
17
 67
     1
  8
0
  0
BLOCK
  8
0
  2
_OPEN30
 70
     0
 10
0.0
 20
0.0
 30
0.0
  3
_OPEN30
  1

  0
LINE
  5
44
  8
0
  6
BYBLOCK
 62
     0
 10
-1.0
 20
0.26794919
 30
0.0
 11
0.0
 21
0.0
 31
0.0
  0
LINE
  5
45
  8
0
  6
BYBLOCK
 62
     0
 10
0.0
 20
0.0
 30
0.0
 11
-1.0
 21
-0.26794919
 31
0.0
  0
LINE
  5
46
  8
0
  6
BYBLOCK
 62
     0
 10
0.0
 20
0.0
 30
0.0
 11
-1.0
 21
0.0
 31
0.0
  0
ENDBLK
  5
47
  8
0
  0
BLOCK
  8
0
  2
XREF1
 70
    36
 10
0.0
 20
0.0
 30
0.0
  3
XREF1
  1
D:\ACLT\FORMAT\KAWAJUN(9)図面用.dwg
  0
ENDBLK
  5
5D
  8
0
  0
BLOCK
  8
0
  2
A3WAKUDAKE
 70
    36
 10
0.0
 20
0.0
 30
0.0
  3
A3WAKUDAKE
  1
D:\ACLT\FORMAT\A3WAKUdake.dwg
  0
ENDBLK
  5
6A0
  8
0
  0
BLOCK
  8
0
  2
*U27
 70
     1
 10
0.0
 20
0.0
 30
0.0
  3
*U27
  1

  0
TEXT
  5
FE27
  8
1TEXT
 62
   201
 10
1043.3489401080969
 20
-1964.070281987202
 30
0.0
 40
3.5
  1
20.5
 50
90.0
  0
ENDBLK
  5
FE29
  8
0
  0
BLOCK
  8
0
  2
*U28
 70
     1
 10
0.0
 20
0.0
 30
0.0
  3
*U28
  1

  0
TEXT
  5
FE2B
  8
1TEXT
 62
   201
 10
5506.9158361993859
 20
-1203.61055353047
 30
0.0
 40
4.5499999999999989
  1
20.5
 50
90.0
  0
ENDBLK
  5
FE2D
  8
0
  0
ENDSEC
  0
SECTION
  2
ENTITIES
  0
LINE
  5
2872
  8
01
 10
854.18766916632421
 20
-2139.2395686528398
 30
0.0
 11
854.18766916632421
 21
-2286.5728886528409
 31
0.0
  0
LINE
  5
2873
  8
01
 10
814.18766916632421
 20
-2139.2395686528398
 30
0.0
 11
814.18766916632421
 21
-2286.5728886528409
 31
0.0
  0
LINE
  5
2874
  8
01
 10
712.78767516632468
 20
-2145.736948652841
 30
0.0
 11
712.78767516632468
 21
-2168.8369186528398
 31
0.0
  0
LINE
  5
2875
  8
01
 10
711.1876691663241
 20
-2145.736948652841
 30
0.0
 11
711.1876691663241
 21
-2168.736948652841
 31
0.0
  0
LINE
  5
2876
  8
01
 10
713.58767816632508
 20
-2145.736948652841
 30
0.0
 11
713.58767816632508
 21
-2275.7369486528401
 31
0.0
  0
LINE
  5
2877
  8
01
 10
715.1876691663241
 20
-2145.736948652841
 30
0.0
 11
715.1876691663241
 21
-2275.7369486528401
 31
0.0
  0
LINE
  5
2879
  8
01
 10
712.18766916632421
 20
-2247.736948652841
 30
0.0
 11
683.39704587862229
 21
-2247.736948652841
 31
0.0
  0
LINE
  5
287A
  8
01
 10
646.18768516632406
 20
-2184.485626146818
 30
0.0
 11
646.18768516632406
 21
-2214.3875846299188
 31
0.0
  0
LINE
  5
287B
  8
01
 10
721.18766916632228
 20
-2199.736948652841
 30
0.0
 11
715.1876691663241
 21
-2199.736948652841
 31
0.0
  0
LINE
  5
287C
  8
01
 10
726.18766916632421
 20
-2204.736948652841
 30
0.0
 11
716.18766916632421
 21
-2204.736948652841
 31
0.0
  0
POLYLINE
  5
287D
  8
01
 10
726.18766916632421
 20
-2203.3053686528401
 30
0.0
 66
     1
 70
     8
  0
VERTEX
  8
01
  5
FE34
 10
726.188
 20
-2203.31
 30
0.000000
  70
    32
  0
VERTEX
  8
01
  5
FE35
 10
726.186
 20
-2203.22
 30
0.000000
  70
    32
  0
VERTEX
  8
01
  5
FE36
 10
726.182
 20
-2203.13
 30
0.000000
  70
    32
  0
VERTEX
  8
01
  5
FE37
 10
726.174
 20
-2203.04
 30
0.000000
  70
    32
  0
VERTEX
  8
01
  5
FE38
 10
726.164
 20
-2202.96
 30
0.000000
  70
    32
  0
VERTEX
  8
01
  5
FE39
 10
726.150
 20
-2202.87
 30
0.000000
  70
    32
  0
VERTEX
  8
01
  5
FE3A
 10
726.134
 20
-2202.78
 30
0.000000
  70
    32
  0
VERTEX
  8
01
  5
FE3B
 10
726.114
 20
-2202.70
 30
0.000000
  70
    32
  0
VERTEX
  8
01
  5
FE3C
 10
726.092
 20
-2202.61
 30
0.000000
  70
    32
  0
VERTEX
  8
01
  5
FE3D
 10
726.066
 20
-2202.52
 30
0.000000
  70
    32
  0
VERTEX
  8
01
  5
FE3E
 10
726.038
 20
-2202.44
 30
0.000000
  70
    32
  0
VERTEX
  8
01
  5
FE3F
 10
726.007
 20
-2202.35
 30
0.000000
  70
    32
  0
VERTEX
  8
01
  5
FE40
 10
725.972
 20
-2202.27
 30
0.000000
  70
    32
  0
VERTEX
  8
01
  5
FE41
 10
725.935
 20
-2202.19
 30
0.000000
  70
    32
  0
VERTEX
  8
01
  5
FE42
 10
725.895
 20
-2202.10
 30
0.000000
  70
    32
  0
VERTEX
  8
01
  5
FE43
 10
725.853
 20
-2202.02
 30
0.000000
  70
    32
  0
VERTEX
  8
01
  5
FE44
 10
725.807
 20
-2201.94
 30
0.000000
  70
    32
  0
VERTEX
  8
01
  5
FE45
 10
725.759
 20
-2201.86
 30
0.000000
  70
    32
  0
VERTEX
  8
01
  5
FE46
 10
725.708
 20
-2201.78
 30
0.000000
  70
    32
  0
VERTEX
  8
01
  5
FE47
 10
725.654
 20
-2201.70
 30
0.000000
  70
    32
  0
VERTEX
  8
01
  5
FE48
 10
725.597
 20
-2201.62
 30
0.000000
  70
    32
  0
VERTEX
  8
01
  5
FE49
 10
725.538
 20
-2201.55
 30
0.000000
  70
    32
  0
VERTEX
  8
01
  5
FE4A
 10
725.476
 20
-2201.47
 30
0.000000
  70
    32
  0
VERTEX
  8
01
  5
FE4B
 10
725.412
 20
-2201.40
 30
0.000000
  70
    32
  0
VERTEX
  8
01
  5
FE4C
 10
725.345
 20
-2201.32
 30
0.000000
  70
    32
  0
VERTEX
  8
01
  5
FE4D
 10
725.276
 20
-2201.25
 30
0.000000
  70
    32
  0
VERTEX
  8
01
  5
FE4E
 10
725.204
 20
-2201.18
 30
0.000000
  70
    32
  0
VERTEX
  8
01
  5
FE4F
 10
725.129
 20
-2201.11
 30
0.000000
  70
    32
  0
VERTEX
  8
01
  5
FE50
 10
725.053
 20
-2201.04
 30
0.000000
  70
    32
  0
VERTEX
  8
01
  5
FE51
 10
724.974
 20
-2200.97
 30
0.000000
  70
    32
  0
VERTEX
  8
01
  5
FE52
 10
724.892
 20
-2200.91
 30
0.000000
  70
    32
  0
VERTEX
  8
01
  5
FE53
 10
724.809
 20
-2200.84
 30
0.000000
  70
    32
  0
VERTEX
  8
01
  5
FE54
 10
724.723
 20
-2200.78
 30
0.000000
  70
    32
  0
VERTEX
  8
01
  5
FE55
 10
724.635
 20
-2200.72
 30
0.000000
  70
    32
  0
VERTEX
  8
01
  5
FE56
 10
724.545
 20
-2200.66
 30
0.000000
  70
    32
  0
VERTEX
  8
01
  5
FE57
 10
724.454
 20
-2200.60
 30
0.000000
  70
    32
  0
VERTEX
  8
01
  5
FE58
 10
724.360
 20
-2200.55
 30
0.000000
  70
    32
  0
VERTEX
  8
01
  5
FE59
 10
724.264
 20
-2200.49
 30
0.000000
  70
    32
  0
VERTEX
  8
01
  5
FE5A
 10
724.166
 20
-2200.44
 30
0.000000
  70
    32
  0
VERTEX
  8
01
  5
FE5B
 10
724.067
 20
-2200.39
 30
0.000000
  70
    32
  0
VERTEX
  8
01
  5
FE5C
 10
723.966
 20
-2200.34
 30
0.000000
  70
    32
  0
VERTEX
  8
01
  5
FE5D
 10
723.863
 20
-2200.29
 30
0.000000
  70
    32
  0
VERTEX
  8
01
  5
FE5E
 10
723.758
 20
-2200.24
 30
0.000000
  70
    32
  0
VERTEX
  8
01
  5
FE5F
 10
723.652
 20
-2200.20
 30
0.000000
  70
    32
  0
VERTEX
  8
01
  5
FE60
 10
723.545
 20
-2200.16
 30
0.000000
  70
    32
  0
VERTEX
  8
01
  5
FE61
 10
723.436
 20
-2200.12
 30
0.000000
  70
    32
  0
VERTEX
  8
01
  5
FE62
 10
723.325
 20
-2200.08
 30
0.000000
  70
    32
  0
VERTEX
  8
01
  5
FE63
 10
723.214
 20
-2200.04
 30
0.000000
  70
    32
  0
VERTEX
  8
01
  5
FE64
 10
723.101
 20
-2200.01
 30
0.000000
  70
    32
  0
VERTEX
  8
01
  5
FE65
 10
722.987
 20
-2199.98
 30
0.000000
  70
    32
  0
VERTEX
  8
01
  5
FE66
 10
722.872
 20
-2199.95
 30
0.000000
  70
    32
  0
VERTEX
  8
01
  5
FE67
 10
722.756
 20
-2199.92
 30
0.000000
  70
    32
  0
VERTEX
  8
01
  5
FE68
 10
722.639
 20
-2199.89
 30
0.000000
  70
    32
  0
VERTEX
  8
01
  5
FE69
 10
722.521
 20
-2199.87
 30
0.000000
  70
    32
  0
VERTEX
  8
01
  5
FE6A
 10
722.403
 20
-2199.84
 30
0.000000
  70
    32
  0
VERTEX
  8
01
  5
FE6B
 10
722.283
 20
-2199.82
 30
0.000000
  70
    32
  0
VERTEX
  8
01
  5
FE6C
 10
722.163
 20
-2199.81
 30
0.000000
  70
    32
  0
VERTEX
  8
01
  5
FE6D
 10
722.042
 20
-2199.79
 30
0.000000
  70
    32
  0
VERTEX
  8
01
  5
FE6E
 10
721.921
 20
-2199.78
 30
0.000000
  70
    32
  0
VERTEX
  8
01
  5
FE6F
 10
721.800
 20
-2199.76
 30
0.000000
  70
    32
  0
VERTEX
  8
01
  5
FE70
 10
721.678
 20
-2199.75
 30
0.000000
  70
    32
  0
VERTEX
  8
01
  5
FE71
 10
721.555
 20
-2199.75
 30
0.000000
  70
    32
  0
VERTEX
  8
01
  5
FE72
 10
721.433
 20
-2199.74
 30
0.000000
  70
    32
  0
VERTEX
  8
01
  5
FE73
 10
721.310
 20
-2199.74
 30
0.000000
  70
    32
  0
VERTEX
  8
01
  5
FE74
 10
721.188
 20
-2199.74
 30
0.000000
  70
    32
  0
VERTEX
  8
01
  5
FE75
 10
721.065
 20
-2199.74
 30
0.000000
  70
    32
  0
VERTEX
  8
01
  5
FE76
 10
720.942
 20
-2199.74
 30
0.000000
  70
    32
  0
VERTEX
  8
01
  5
FE77
 10
720.820
 20
-2199.75
 30
0.000000
  70
    32
  0
VERTEX
  8
01
  5
FE78
 10
720.698
 20
-2199.75
 30
0.000000
  70
    32
  0
VERTEX
  8
01
  5
FE79
 10
720.576
 20
-2199.76
 30
0.000000
  70
    32
  0
VERTEX
  8
01
  5
FE7A
 10
720.454
 20
-2199.78
 30
0.000000
  70
    32
  0
VERTEX
  8
01
  5
FE7B
 10
720.333
 20
-2199.79
 30
0.000000
  70
    32
  0
VERTEX
  8
01
  5
FE7C
 10
720.212
 20
-2199.81
 30
0.000000
  70
    32
  0
VERTEX
  8
01
  5
FE7D
 10
720.092
 20
-2199.82
 30
0.000000
  70
    32
  0
VERTEX
  8
01
  5
FE7E
 10
719.973
 20
-2199.84
 30
0.000000
  70
    32
  0
VERTEX
  8
01
  5
FE7F
 10
719.854
 20
-2199.87
 30
0.000000
  70
    32
  0
VERTEX
  8
01
  5
FE80
 10
719.736
 20
-2199.89
 30
0.000000
  70
    32
  0
VERTEX
  8
01
  5
FE81
 10
719.619
 20
-2199.92
 30
0.000000
  70
    32
  0
VERTEX
  8
01
  5
FE82
 10
719.503
 20
-2199.95
 30
0.000000
  70
    32
  0
VERTEX
  8
01
  5
FE83
 10
719.388
 20
-2199.98
 30
0.000000
  70
    32
  0
VERTEX
  8
01
  5
FE84
 10
719.274
 20
-2200.01
 30
0.000000
  70
    32
  0
VERTEX
  8
01
  5
FE85
 10
719.161
 20
-2200.04
 30
0.000000
  70
    32
  0
VERTEX
  8
01
  5
FE86
 10
719.050
 20
-2200.08
 30
0.000000
  70
    32
  0
VERTEX
  8
01
  5
FE87
 10
718.940
 20
-2200.12
 30
0.000000
  70
    32
  0
VERTEX
  8
01
  5
FE88
 10
718.831
 20
-2200.16
 30
0.000000
  70
    32
  0
VERTEX
  8
01
  5
FE89
 10
718.723
 20
-2200.20
 30
0.000000
  70
    32
  0
VERTEX
  8
01
  5
FE8A
 10
718.617
 20
-2200.24
 30
0.000000
  70
    32
  0
VERTEX
  8
01
  5
FE8B
 10
718.513
 20
-2200.29
 30
0.000000
  70
    32
  0
VERTEX
  8
01
  5
FE8C
 10
718.410
 20
-2200.34
 30
0.000000
  70
    32
  0
VERTEX
  8
01
  5
FE8D
 10
718.309
 20
-2200.39
 30
0.000000
  70
    32
  0
VERTEX
  8
01
  5
FE8E
 10
718.209
 20
-2200.44
 30
0.000000
  70
    32
  0
VERTEX
  8
01
  5
FE8F
 10
718.112
 20
-2200.49
 30
0.000000
  70
    32
  0
VERTEX
  8
01
  5
FE90
 10
718.016
 20
-2200.55
 30
0.000000
  70
    32
  0
VERTEX
  8
01
  5
FE91
 10
717.922
 20
-2200.60
 30
0.000000
  70
    32
  0
VERTEX
  8
01
  5
FE92
 10
717.830
 20
-2200.66
 30
0.000000
  70
    32
  0
VERTEX
  8
01
  5
FE93
 10
717.740
 20
-2200.72
 30
0.000000
  70
    32
  0
VERTEX
  8
01
  5
FE94
 10
717.652
 20
-2200.78
 30
0.000000
  70
    32
  0
VERTEX
  8
01
  5
FE95
 10
717.566
 20
-2200.84
 30
0.000000
  70
    32
  0
VERTEX
  8
01
  5
FE96
 10
717.483
 20
-2200.91
 30
0.000000
  70
    32
  0
VERTEX
  8
01
  5
FE97
 10
717.402
 20
-2200.97
 30
0.000000
  70
    32
  0
VERTEX
  8
01
  5
FE98
 10
717.323
 20
-2201.04
 30
0.000000
  70
    32
  0
VERTEX
  8
01
  5
FE99
 10
717.246
 20
-2201.11
 30
0.000000
  70
    32
  0
VERTEX
  8
01
  5
FE9A
 10
717.172
 20
-2201.18
 30
0.000000
  70
    32
  0
VERTEX
  8
01
  5
FE9B
 10
717.100
 20
-2201.25
 30
0.000000
  70
    32
  0
VERTEX
  8
01
  5
FE9C
 10
717.030
 20
-2201.32
 30
0.000000
  70
    32
  0
VERTEX
  8
01
  5
FE9D
 10
716.963
 20
-2201.40
 30
0.000000
  70
    32
  0
VERTEX
  8
01
  5
FE9E
 10
716.899
 20
-2201.47
 30
0.000000
  70
    32
  0
VERTEX
  8
01
  5
FE9F
 10
716.837
 20
-2201.55
 30
0.000000
  70
    32
  0
VERTEX
  8
01
  5
FEA0
 10
716.778
 20
-2201.62
 30
0.000000
  70
    32
  0
VERTEX
  8
01
  5
FEA1
 10
716.722
 20
-2201.70
 30
0.000000
  70
    32
  0
VERTEX
  8
01
  5
FEA2
 10
716.668
 20
-2201.78
 30
0.000000
  70
    32
  0
VERTEX
  8
01
  5
FEA3
 10
716.617
 20
-2201.86
 30
0.000000
  70
    32
  0
VERTEX
  8
01
  5
FEA4
 10
716.568
 20
-2201.94
 30
0.000000
  70
    32
  0
VERTEX
  8
01
  5
FEA5
 10
716.523
 20
-2202.02
 30
0.000000
  70
    32
  0
VERTEX
  8
01
  5
FEA6
 10
716.480
 20
-2202.10
 30
0.000000
  70
    32
  0
VERTEX
  8
01
  5
FEA7
 10
716.440
 20
-2202.19
 30
0.000000
  70
    32
  0
VERTEX
  8
01
  5
FEA8
 10
716.403
 20
-2202.27
 30
0.000000
  70
    32
  0
VERTEX
  8
01
  5
FEA9
 10
716.369
 20
-2202.35
 30
0.000000
  70
    32
  0
VERTEX
  8
01
  5
FEAA
 10
716.338
 20
-2202.44
 30
0.000000
  70
    32
  0
VERTEX
  8
01
  5
FEAB
 10
716.309
 20
-2202.52
 30
0.000000
  70
    32
  0
VERTEX
  8
01
  5
FEAC
 10
716.284
 20
-2202.61
 30
0.000000
  70
    32
  0
VERTEX
  8
01
  5
FEAD
 10
716.261
 20
-2202.70
 30
0.000000
  70
    32
  0
VERTEX
  8
01
  5
FEAE
 10
716.242
 20
-2202.78
 30
0.000000
  70
    32
  0
VERTEX
  8
01
  5
FEAF
 10
716.225
 20
-2202.87
 30
0.000000
  70
    32
  0
VERTEX
  8
01
  5
FEB0
 10
716.212
 20
-2202.96
 30
0.000000
  70
    32
  0
VERTEX
  8
01
  5
FEB1
 10
716.201
 20
-2203.04
 30
0.000000
  70
    32
  0
VERTEX
  8
01
  5
FEB2
 10
716.194
 20
-2203.13
 30
0.000000
  70
    32
  0
VERTEX
  8
01
  5
FEB3
 10
716.189
 20
-2203.22
 30
0.000000
  70
    32
  0
VERTEX
  8
01
  5
FEB4
 10
716.188
 20
-2203.31
 30
0.000000
  70
    32
  0
SEQEND
  8
01
  5
FEB5
  0
LINE
  5
287E
  8
01
 10
721.18766916632421
 20
-2219.7369486528401
 30
0.0
 11
715.1876691663241
 21
-2219.7369486528401
 31
0.0
  0
LINE
  5
287F
  8
01
 10
726.18766916632421
 20
-2214.7369486528401
 30
0.0
 11
716.18766916632421
 21
-2214.7369486528401
 31
0.0
  0
POLYLINE
  5
2880
  8
01
 10
726.18766916632421
 20
-2216.16852865284
 30
0.0
 66
     1
 70
     8
  0
VERTEX
  8
01
  5
FEB6
 10
726.188
 20
-2216.17
 30
0.000000
  70
    32
  0
VERTEX
  8
01
  5
FEB7
 10
726.186
 20
-2216.26
 30
0.000000
  70
    32
  0
VERTEX
  8
01
  5
FEB8
 10
726.182
 20
-2216.34
 30
0.000000
  70
    32
  0
VERTEX
  8
01
  5
FEB9
 10
726.174
 20
-2216.43
 30
0.000000
  70
    32
  0
VERTEX
  8
01
  5
FEBA
 10
726.164
 20
-2216.52
 30
0.000000
  70
    32
  0
VERTEX
  8
01
  5
FEBB
 10
726.150
 20
-2216.61
 30
0.000000
  70
    32
  0
VERTEX
  8
01
  5
FEBC
 10
726.134
 20
-2216.69
 30
0.000000
  70
    32
  0
VERTEX
  8
01
  5
FEBD
 10
726.114
 20
-2216.78
 30
0.000000
  70
    32
  0
VERTEX
  8
01
  5
FEBE
 10
726.092
 20
-2216.86
 30
0.000000
  70
    32
  0
VERTEX
  8
01
  5
FEBF
 10
726.066
 20
-2216.95
 30
0.000000
  70
    32
  0
VERTEX
  8
01
  5
FEC0
 10
726.038
 20
-2217.04
 30
0.000000
  70
    32
  0
VERTEX
  8
01
  5
FEC1
 10
726.007
 20
-2217.12
 30
0.000000
  70
    32
  0
VERTEX
  8
01
  5
FEC2
 10
725.972
 20
-2217.20
 30
0.000000
  70
    32
  0
VERTEX
  8
01
  5
FEC3
 10
725.935
 20
-2217.29
 30
0.000000
  70
    32
  0
VERTEX
  8
01
  5
FEC4
 10
725.895
 20
-2217.37
 30
0.000000
  70
    32
  0
VERTEX
  8
01
  5
FEC5
 10
725.853
 20
-2217.45
 30
0.000000
  70
    32
  0
VERTEX
  8
01
  5
FEC6
 10
725.807
 20
-2217.53
 30
0.000000
  70
    32
  0
VERTEX
  8
01
  5
FEC7
 10
725.759
 20
-2217.61
 30
0.000000
  70
    32
  0
VERTEX
  8
01
  5
FEC8
 10
725.708
 20
-2217.69
 30
0.000000
  70
    32
  0
VERTEX
  8
01
  5
FEC9
 10
725.654
 20
-2217.77
 30
0.000000
  70
    32
  0
VERTEX
  8
01
  5
FECA
 10
725.597
 20
-2217.85
 30
0.000000
  70
    32
  0
VERTEX
  8
01
  5
FECB
 10
725.538
 20
-2217.93
 30
0.000000
  70
    32
  0
VERTEX
  8
01
  5
FECC
 10
725.476
 20
-2218.00
 30
0.000000
  70
    32
  0
VERTEX
  8
01
  5
FECD
 10
725.412
 20
-2218.08
 30
0.000000
  70
    32
  0
VERTEX
  8
01
  5
FECE
 10
725.345
 20
-2218.15
 30
0.000000
  70
    32
  0
VERTEX
  8
01
  5
FECF
 10
725.276
 20
-2218.22
 30
0.000000
  70
    32
  0
VERTEX
  8
01
  5
FED0
 10
725.204
 20
-2218.29
 30
0.000000
  70
    32
  0
VERTEX
  8
01
  5
FED1
 10
725.129
 20
-2218.36
 30
0.000000
  70
    32
  0
VERTEX
  8
01
  5
FED2
 10
725.053
 20
-2218.43
 30
0.000000
  70
    32
  0
VERTEX
  8
01
  5
FED3
 10
724.974
 20
-2218.50
 30
0.000000
  70
    32
  0
VERTEX
  8
01
  5
FED4
 10
724.892
 20
-2218.56
 30
0.000000
  70
    32
  0
VERTEX
  8
01
  5
FED5
 10
724.809
 20
-2218.63
 30
0.000000
  70
    32
  0
VERTEX
  8
01
  5
FED6
 10
724.723
 20
-2218.69
 30
0.000000
  70
    32
  0
VERTEX
  8
01
  5
FED7
 10
724.635
 20
-2218.75
 30
0.000000
  70
    32
  0
VERTEX
  8
01
  5
FED8
 10
724.545
 20
-2218.81
 30
0.000000
  70
    32
  0
VERTEX
  8
01
  5
FED9
 10
724.454
 20
-2218.87
 30
0.000000
  70
    32
  0
VERTEX
  8
01
  5
FEDA
 10
724.360
 20
-2218.93
 30
0.000000
  70
    32
  0
VERTEX
  8
01
  5
FEDB
 10
724.264
 20
-2218.98
 30
0.000000
  70
    32
  0
VERTEX
  8
01
  5
FEDC
 10
724.166
 20
-2219.03
 30
0.000000
  70
    32
  0
VERTEX
  8
01
  5
FEDD
 10
724.067
 20
-2219.09
 30
0.000000
  70
    32
  0
VERTEX
  8
01
  5
FEDE
 10
723.966
 20
-2219.14
 30
0.000000
  70
    32
  0
VERTEX
  8
01
  5
FEDF
 10
723.863
 20
-2219.18
 30
0.000000
  70
    32
  0
VERTEX
  8
01
  5
FEE0
 10
723.758
 20
-2219.23
 30
0.000000
  70
    32
  0
VERTEX
  8
01
  5
FEE1
 10
723.652
 20
-2219.27
 30
0.000000
  70
    32
  0
VERTEX
  8
01
  5
FEE2
 10
723.545
 20
-2219.32
 30
0.000000
  70
    32
  0
VERTEX
  8
01
  5
FEE3
 10
723.436
 20
-2219.36
 30
0.000000
  70
    32
  0
VERTEX
  8
01
  5
FEE4
 10
723.325
 20
-2219.39
 30
0.000000
  70
    32
  0
VERTEX
  8
01
  5
FEE5
 10
723.214
 20
-2219.43
 30
0.000000
  70
    32
  0
VERTEX
  8
01
  5
FEE6
 10
723.101
 20
-2219.47
 30
0.000000
  70
    32
  0
VERTEX
  8
01
  5
FEE7
 10
722.987
 20
-2219.50
 30
0.000000
  70
    32
  0
VERTEX
  8
01
  5
FEE8
 10
722.872
 20
-2219.53
 30
0.000000
  70
    32
  0
VERTEX
  8
01
  5
FEE9
 10
722.756
 20
-2219.56
 30
0.000000
  70
    32
  0
VERTEX
  8
01
  5
FEEA
 10
722.639
 20
-2219.58
 30
0.000000
  70
    32
  0
VERTEX
  8
01
  5
FEEB
 10
722.521
 20
-2219.61
 30
0.000000
  70
    32
  0
VERTEX
  8
01
  5
FEEC
 10
722.403
 20
-2219.63
 30
0.000000
  70
    32
  0
VERTEX
  8
01
  5
FEED
 10
722.283
 20
-2219.65
 30
0.000000
  70
    32
  0
VERTEX
  8
01
  5
FEEE
 10
722.163
 20
-2219.67
 30
0.000000
  70
    32
  0
VERTEX
  8
01
  5
FEEF
 10
722.042
 20
-2219.68
 30
0.000000
  70
    32
  0
VERTEX
  8
01
  5
FEF0
 10
721.921
 20
-2219.70
 30
0.000000
  70
    32
  0
VERTEX
  8
01
  5
FEF1
 10
721.800
 20
-2219.71
 30
0.000000
  70
    32
  0
VERTEX
  8
01
  5
FEF2
 10
721.678
 20
-2219.72
 30
0.000000
  70
    32
  0
VERTEX
  8
01
  5
FEF3
 10
721.555
 20
-2219.73
 30
0.000000
  70
    32
  0
VERTEX
  8
01
  5
FEF4
 10
721.433
 20
-2219.73
 30
0.000000
  70
    32
  0
VERTEX
  8
01
  5
FEF5
 10
721.310
 20
-2219.74
 30
0.000000
  70
    32
  0
VERTEX
  8
01
  5
FEF6
 10
721.188
 20
-2219.74
 30
0.000000
  70
    32
  0
VERTEX
  8
01
  5
FEF7
 10
721.065
 20
-2219.74
 30
0.000000
  70
    32
  0
VERTEX
  8
01
  5
FEF8
 10
720.942
 20
-2219.73
 30
0.000000
  70
    32
  0
VERTEX
  8
01
  5
FEF9
 10
720.820
 20
-2219.73
 30
0.000000
  70
    32
  0
VERTEX
  8
01
  5
FEFA
 10
720.698
 20
-2219.72
 30
0.000000
  70
    32
  0
VERTEX
  8
01
  5
FEFB
 10
720.576
 20
-2219.71
 30
0.000000
  70
    32
  0
VERTEX
  8
01
  5
FEFC
 10
720.454
 20
-2219.70
 30
0.000000
  70
    32
  0
VERTEX
  8
01
  5
FEFD
 10
720.333
 20
-2219.68
 30
0.000000
  70
    32
  0
VERTEX
  8
01
  5
FEFE
 10
720.212
 20
-2219.67
 30
0.000000
  70
    32
  0
VERTEX
  8
01
  5
FEFF
 10
720.092
 20
-2219.65
 30
0.000000
  70
    32
  0
VERTEX
  8
01
  5
FF00
 10
719.973
 20
-2219.63
 30
0.000000
  70
    32
  0
VERTEX
  8
01
  5
FF01
 10
719.854
 20
-2219.61
 30
0.000000
  70
    32
  0
VERTEX
  8
01
  5
FF02
 10
719.736
 20
-2219.58
 30
0.000000
  70
    32
  0
VERTEX
  8
01
  5
FF03
 10
719.619
 20
-2219.56
 30
0.000000
  70
    32
  0
VERTEX
  8
01
  5
FF04
 10
719.503
 20
-2219.53
 30
0.000000
  70
    32
  0
VERTEX
  8
01
  5
FF05
 10
719.388
 20
-2219.50
 30
0.000000
  70
    32
  0
VERTEX
  8
01
  5
FF06
 10
719.274
 20
-2219.47
 30
0.000000
  70
    32
  0
VERTEX
  8
01
  5
FF07
 10
719.161
 20
-2219.43
 30
0.000000
  70
    32
  0
VERTEX
  8
01
  5
FF08
 10
719.050
 20
-2219.39
 30
0.000000
  70
    32
  0
VERTEX
  8
01
  5
FF09
 10
718.940
 20
-2219.36
 30
0.000000
  70
    32
  0
VERTEX
  8
01
  5
FF0A
 10
718.831
 20
-2219.32
 30
0.000000
  70
    32
  0
VERTEX
  8
01
  5
FF0B
 10
718.723
 20
-2219.27
 30
0.000000
  70
    32
  0
VERTEX
  8
01
  5
FF0C
 10
718.617
 20
-2219.23
 30
0.000000
  70
    32
  0
VERTEX
  8
01
  5
FF0D
 10
718.513
 20
-2219.18
 30
0.000000
  70
    32
  0
VERTEX
  8
01
  5
FF0E
 10
718.410
 20
-2219.14
 30
0.000000
  70
    32
  0
VERTEX
  8
01
  5
FF0F
 10
718.309
 20
-2219.09
 30
0.000000
  70
    32
  0
VERTEX
  8
01
  5
FF10
 10
718.209
 20
-2219.03
 30
0.000000
  70
    32
  0
VERTEX
  8
01
  5
FF11
 10
718.112
 20
-2218.98
 30
0.000000
  70
    32
  0
VERTEX
  8
01
  5
FF12
 10
718.016
 20
-2218.93
 30
0.000000
  70
    32
  0
VERTEX
  8
01
  5
FF13
 10
717.922
 20
-2218.87
 30
0.000000
  70
    32
  0
VERTEX
  8
01
  5
FF14
 10
717.830
 20
-2218.81
 30
0.000000
  70
    32
  0
VERTEX
  8
01
  5
FF15
 10
717.740
 20
-2218.75
 30
0.000000
  70
    32
  0
VERTEX
  8
01
  5
FF16
 10
717.652
 20
-2218.69
 30
0.000000
  70
    32
  0
VERTEX
  8
01
  5
FF17
 10
717.566
 20
-2218.63
 30
0.000000
  70
    32
  0
VERTEX
  8
01
  5
FF18
 10
717.483
 20
-2218.56
 30
0.000000
  70
    32
  0
VERTEX
  8
01
  5
FF19
 10
717.402
 20
-2218.50
 30
0.000000
  70
    32
  0
VERTEX
  8
01
  5
FF1A
 10
717.323
 20
-2218.43
 30
0.000000
  70
    32
  0
VERTEX
  8
01
  5
FF1B
 10
717.246
 20
-2218.36
 30
0.000000
  70
    32
  0
VERTEX
  8
01
  5
FF1C
 10
717.172
 20
-2218.29
 30
0.000000
  70
    32
  0
VERTEX
  8
01
  5
FF1D
 10
717.100
 20
-2218.22
 30
0.000000
  70
    32
  0
VERTEX
  8
01
  5
FF1E
 10
717.030
 20
-2218.15
 30
0.000000
  70
    32
  0
VERTEX
  8
01
  5
FF1F
 10
716.963
 20
-2218.08
 30
0.000000
  70
    32
  0
VERTEX
  8
01
  5
FF20
 10
716.899
 20
-2218.00
 30
0.000000
  70
    32
  0
VERTEX
  8
01
  5
FF21
 10
716.837
 20
-2217.93
 30
0.000000
  70
    32
  0
VERTEX
  8
01
  5
FF22
 10
716.778
 20
-2217.85
 30
0.000000
  70
    32
  0
VERTEX
  8
01
  5
FF23
 10
716.722
 20
-2217.77
 30
0.000000
  70
    32
  0
VERTEX
  8
01
  5
FF24
 10
716.668
 20
-2217.69
 30
0.000000
  70
    32
  0
VERTEX
  8
01
  5
FF25
 10
716.617
 20
-2217.61
 30
0.000000
  70
    32
  0
VERTEX
  8
01
  5
FF26
 10
716.568
 20
-2217.53
 30
0.000000
  70
    32
  0
VERTEX
  8
01
  5
FF27
 10
716.523
 20
-2217.45
 30
0.000000
  70
    32
  0
VERTEX
  8
01
  5
FF28
 10
716.480
 20
-2217.37
 30
0.000000
  70
    32
  0
VERTEX
  8
01
  5
FF29
 10
716.440
 20
-2217.29
 30
0.000000
  70
    32
  0
VERTEX
  8
01
  5
FF2A
 10
716.403
 20
-2217.20
 30
0.000000
  70
    32
  0
VERTEX
  8
01
  5
FF2B
 10
716.369
 20
-2217.12
 30
0.000000
  70
    32
  0
VERTEX
  8
01
  5
FF2C
 10
716.338
 20
-2217.04
 30
0.000000
  70
    32
  0
VERTEX
  8
01
  5
FF2D
 10
716.309
 20
-2216.95
 30
0.000000
  70
    32
  0
VERTEX
  8
01
  5
FF2E
 10
716.284
 20
-2216.86
 30
0.000000
  70
    32
  0
VERTEX
  8
01
  5
FF2F
 10
716.261
 20
-2216.78
 30
0.000000
  70
    32
  0
VERTEX
  8
01
  5
FF30
 10
716.242
 20
-2216.69
 30
0.000000
  70
    32
  0
VERTEX
  8
01
  5
FF31
 10
716.225
 20
-2216.61
 30
0.000000
  70
    32
  0
VERTEX
  8
01
  5
FF32
 10
716.212
 20
-2216.52
 30
0.000000
  70
    32
  0
VERTEX
  8
01
  5
FF33
 10
716.201
 20
-2216.43
 30
0.000000
  70
    32
  0
VERTEX
  8
01
  5
FF34
 10
716.194
 20
-2216.34
 30
0.000000
  70
    32
  0
VERTEX
  8
01
  5
FF35
 10
716.189
 20
-2216.26
 30
0.000000
  70
    32
  0
VERTEX
  8
01
  5
FF36
 10
716.188
 20
-2216.17
 30
0.000000
  70
    32
  0
SEQEND
  8
01
  5
FF37
  0
LINE
  5
2881
  8
01
 10
726.18766916632421
 20
-2203.3053686528401
 30
0.0
 11
726.18766916632421
 21
-2216.1685286528409
 31
0.0
  0
LINE
  5
2882
  8
01
 10
716.18766916632421
 20
-2203.3053686528401
 30
0.0
 11
716.18766916632421
 21
-2216.1685286528382
 31
0.0
  0
LINE
  5
2883
  8
01
 10
712.18765416632459
 20
-2169.736948652841
 30
0.0
 11
711.18765416632459
 21
-2168.736948652841
 31
0.0
  0
LINE
  5
2884
  8
01
 10
713.58767116632453
 20
-2169.636968652841
 30
0.0
 11
712.78769016632441
 21
-2168.8369886528399
 31
0.0
  0
LINE
  5
2885
  8
01
 10
713.58767116632453
 20
-2251.8369586528402
 30
0.0
 11
712.78766816632424
 21
-2252.6369386528409
 31
0.0
  0
LINE
  5
2886
  8
01
 10
712.18761616632435
 20
-2251.7369786528402
 30
0.0
 11
711.18763116632397
 21
-2252.7369786528402
 31
0.0
  0
LINE
  5
2887
  8
01
 10
715.1876691663241
 20
-2275.7369486528401
 30
0.0
 11
711.1876691663241
 21
-2275.7369486528401
 31
0.0
  0
LINE
  5
2888
  8
01
 10
712.78767516632468
 20
-2275.7369486528401
 30
0.0
 11
712.78767516632468
 21
-2252.6369386528409
 31
0.0
  0
LINE
  5
2889
  8
01
 10
711.1876691663241
 20
-2275.7369486528401
 30
0.0
 11
711.1876691663241
 21
-2252.736948652841
 31
0.0
  0
LINE
  5
288A
  8
01
 10
712.18766916632421
 20
-2169.736948652841
 30
0.0
 11
712.18766916632421
 21
-2251.7369486528401
 31
0.0
  0
LINE
  5
288B
  8
01
 10
715.1876691663241
 20
-2145.736948652841
 30
0.0
 11
711.1876691663241
 21
-2145.736948652841
 31
0.0
  0
LINE
  5
288E
  8
01
 10
821.6876691663241
 20
-2151.736948652841
 30
0.0
 11
821.6876691663241
 21
-2269.736948652841
 31
0.0
  0
LINE
  5
288F
  8
01
 10
846.6876691663241
 20
-2151.736948652841
 30
0.0
 11
846.6876691663241
 21
-2269.736948652841
 31
0.0
  0
ARC
  5
2890
  8
01
 10
840.68766916632421
 20
-2269.736948652841
 30
0.0
 40
6.0
 50
270.0
 51
0.0
  0
ARC
  5
2891
  8
01
 10
827.6876691663241
 20
-2269.736948652841
 30
0.0
 40
6.0
 50
180.0
 51
270.0
  0
LINE
  5
2892
  8
01
 10
841.9376691663241
 20
-2203.3053686528401
 30
0.0
 11
841.9376691663241
 21
-2216.16852865284
 31
0.0
  0
LINE
  5
2893
  8
01
 10
840.93766916632421
 20
-2204.736948652841
 30
0.0
 11
840.93766916632421
 21
-2214.7369486528401
 31
0.0
  0
LINE
  5
2894
  8
01
 10
827.43766916632421
 20
-2204.736948652841
 30
0.0
 11
827.43766916632421
 21
-2214.7369486528401
 31
0.0
  0
LINE
  5
2895
  8
01
 10
826.43766916632421
 20
-2203.3053686528401
 30
0.0
 11
826.43766916632421
 21
-2216.16852865284
 31
0.0
  0
ARC
  5
2896
  8
01
 10
834.1876691663241
 20
-2209.53693865284
 30
0.0
 40
10.199999999999999
 50
220.5530799999753
 51
319.44692000002459
  0
LINE
  5
2897
  8
01
 10
827.43766916632421
 20
-2214.7369486528401
 30
0.0
 11
840.93766916632421
 21
-2214.7369486528401
 31
0.0
  0
LINE
  5
2898
  8
01
 10
827.43766916632421
 20
-2204.736948652841
 30
0.0
 11
840.93766916632421
 21
-2204.736948652841
 31
0.0
  0
ARC
  5
2899
  8
01
 10
834.1876691663241
 20
-2209.9369586528401
 30
0.0
 40
10.199999999999999
 50
40.553083999977588
 51
139.44692000002459
  0
CIRCLE
  5
289A
  8
01
 10
834.1876691663241
 20
-2267.7369486528401
 30
0.0
 40
4.5
  0
CIRCLE
  5
289B
  8
01
 10
834.1876691663241
 20
-2267.7369486528401
 30
0.0
 40
2.75
  0
LINE
  5
289C
  8
01
 10
827.6876691663241
 20
-2275.7369486528401
 30
0.0
 11
840.68766916632421
 21
-2275.7369486528401
 31
0.0
  0
ARC
  5
289D
  8
01
 10
840.68766916632421
 20
-2151.736948652841
 30
0.0
 40
6.0
 50
0.0
 51
90.0
  0
ARC
  5
289F
  8
01
 10
827.6876691663241
 20
-2151.736948652841
 30
0.0
 40
6.0
 50
90.0
 51
180.0
  0
LINE
  5
28A0
  8
01
 10
827.6876691663241
 20
-2145.736948652841
 30
0.0
 11
840.68766916632421
 21
-2145.736948652841
 31
0.0
  0
CIRCLE
  5
28A1
  8
01
 10
834.1876691663241
 20
-2153.736948652841
 30
0.0
 40
4.5
  0
CIRCLE
  5
28A2
  8
01
 10
834.1876691663241
 20
-2153.736948652841
 30
0.0
 40
2.75
  0
TEXT
  5
28A3
  8
01
 10
649.18768516632406
 20
-1946.7369486528401
 30
0.0
 40
20.0
  1
3-KKC-X-LW
  0
LINE
  5
28A8
  8
01
 10
955.58767516632406
 20
-2145.736948652841
 30
0.0
 11
955.58767516632406
 21
-2168.8369186528398
 31
0.0
  0
LINE
  5
28A9
  8
01
 10
957.18766516632468
 20
-2145.736948652841
 30
0.0
 11
957.18766516632468
 21
-2168.736948652841
 31
0.0
  0
LINE
  5
28AA
  8
01
 10
954.78767516632468
 20
-2145.736948652841
 30
0.0
 11
954.78767516632468
 21
-2275.7369486528401
 31
0.0
  0
LINE
  5
28AB
  8
01
 10
953.18766516632456
 20
-2145.736948652841
 30
0.0
 11
953.18766516632456
 21
-2275.7369486528401
 31
0.0
  0
LINE
  5
28AD
  8
01
 10
956.18766516632468
 20
-2247.736948652841
 30
0.0
 11
984.97829245402625
 21
-2247.736948652841
 31
0.0
  0
LINE
  5
28AE
  8
01
 10
956.18767516632454
 20
-2169.736948652841
 30
0.0
 11
957.18767516632454
 21
-2168.736948652841
 31
0.0
  0
LINE
  5
28AF
  8
01
 10
954.78766516632504
 20
-2169.636968652841
 30
0.0
 11
955.58767516632406
 21
-2168.8369186528398
 31
0.0
  0
LINE
  5
28B0
  8
01
 10
946.18766516632456
 20
-2199.736948652841
 30
0.0
 11
953.18766516632456
 21
-2199.736948652841
 31
0.0
  0
LINE
  5
28B1
  8
01
 10
946.18766516632456
 20
-2219.7369486528401
 30
0.0
 11
953.18766516632456
 21
-2219.7369486528401
 31
0.0
  0
LINE
  5
28B2
  8
01
 10
942.26976516632431
 20
-2216.543218652841
 30
0.0
 11
953.18766516632456
 21
-2216.543218652841
 31
0.0
  0
LINE
  5
28B3
  8
01
 10
942.26976516632431
 20
-2202.9306686528398
 30
0.0
 11
953.18766516632456
 21
-2202.9306686528398
 31
0.0
  0
LINE
  5
28B4
  8
01
 10
942.18766516632468
 20
-2203.7369486528401
 30
0.0
 11
942.18766516632468
 21
-2215.736948652841
 31
0.0
  0
ARC
  5
28B5
  8
01
 10
946.18766516632456
 20
-2215.736948652841
 30
0.0
 40
4.0
 50
179.999989999999
 51
270.0
  0
ARC
  5
28B6
  8
01
 10
946.18766516632456
 20
-2203.7369486528401
 30
0.0
 40
4.0
 50
90.000002999984659
 51
180.00001000000091
  0
LINE
  5
28B7
  8
01
 10
954.78766516632504
 20
-2251.8369586528402
 30
0.0
 11
955.58767516632406
 21
-2252.6369386528409
 31
0.0
  0
LINE
  5
28B8
  8
01
 10
956.18771516632512
 20
-2251.7369786528402
 30
0.0
 11
957.18769516632403
 21
-2252.736948652841
 31
0.0
  0
LINE
  5
28B9
  8
01
 10
948.18766516632468
 20
-2267.7369486528401
 30
0.0
 11
962.18766516632456
 21
-2267.7369486528401
 31
0.0
  0
LINE
  5
28BA
  8
01
 10
953.18766516632456
 20
-2275.7369486528401
 30
0.0
 11
957.18766516632468
 21
-2275.7369486528401
 31
0.0
  0
LINE
  5
28BB
  8
01
 10
955.58767516632406
 20
-2275.7369486528401
 30
0.0
 11
955.58767516632406
 21
-2252.6369386528409
 31
0.0
  0
LINE
  5
28BC
  8
01
 10
957.18766516632468
 20
-2275.7369486528401
 30
0.0
 11
957.18766516632468
 21
-2252.736948652841
 31
0.0
  0
LINE
  5
28BD
  8
01
 10
956.18766516632468
 20
-2169.736948652841
 30
0.0
 11
956.18766516632468
 21
-2251.7369486528401
 31
0.0
  0
LINE
  5
28BE
  8
01
 10
1022.187665166325
 20
-2184.4855825033642
 30
0.0
 11
1022.187665166325
 21
-2214.3875970799431
 31
0.0
  0
LINE
  5
28C0
  8
01
 10
953.18766516632456
 20
-2145.736948652841
 30
0.0
 11
957.18766516632468
 21
-2145.736948652841
 31
0.0
  0
LINE
  5
28C1
  8
01
 10
948.18766516632468
 20
-2153.736948652841
 30
0.0
 11
962.18766516632456
 21
-2153.736948652841
 31
0.0
  0
LINE
  5
28CB
  8
01
 10
957.18854934838453
 20
-1952.2369486538689
 30
0.0
 11
1023.188549348384
 21
-1952.2369486538689
 31
0.0
  0
LINE
  5
28CC
  8
01
 10
957.18854934838453
 20
-1953.836918653868
 30
0.0
 11
1023.188549348384
 21
-1953.836918653868
 31
0.0
  0
LINE
  5
28CD
  8
01
 10
954.78855934838475
 20
-1971.2369486538689
 30
0.0
 11
1023.188549348384
 21
-1971.2369486538689
 31
0.0
  0
LINE
  5
28CE
  8
01
 10
956.38853934838562
 20
-1956.7369486538689
 30
0.0
 11
957.18854934838453
 21
-1955.9369286538681
 31
0.0
  0
LINE
  5
28CF
  8
01
 10
957.18854934838453
 20
-1951.2369486538689
 30
0.0
 11
957.18854934838453
 21
-1955.9369286538681
 31
0.0
  0
LINE
  5
28D0
  8
01
 10
954.78855934838475
 20
-1956.736918653869
 30
0.0
 11
955.5885493483861
 21
-1955.936958653868
 31
0.0
  0
LINE
  5
28D1
  8
01
 10
942.18854934838475
 20
-1969.4869486538689
 30
0.0
 11
953.18854934838464
 21
-1969.4869486538689
 31
0.0
  0
LINE
  5
28D2
  8
01
 10
942.18854934838475
 20
-1969.4869486538689
 30
0.0
 11
942.18854934838475
 21
-1967.4869486538689
 31
0.0
  0
LINE
  5
28D3
  8
01
 10
953.18854934838464
 20
-1949.2369486538689
 30
0.0
 11
954.78855934838475
 21
-1949.2369486538689
 31
0.0
  0
LINE
  5
28D4
  8
01
 10
954.78855934838475
 20
-1949.2369486538689
 30
0.0
 11
954.78855934838475
 21
-1956.7369486538689
 31
0.0
  0
LINE
  5
28D5
  8
01
 10
955.58855934838596
 20
-1951.2369486538689
 30
0.0
 11
955.58855934838596
 21
-1955.9369286538681
 31
0.0
  0
LINE
  5
28D6
  8
01
 10
954.78855934838475
 20
-1951.2369486538689
 30
0.0
 11
957.18854934838453
 21
-1951.2369486538689
 31
0.0
  0
LINE
  5
28D7
  8
01
 10
957.18854934838453
 20
-1967.5369386538689
 30
0.0
 11
957.18854934838453
 21
-1971.2369486538689
 31
0.0
  0
LINE
  5
28D8
  8
01
 10
956.38855934838512
 20
-1966.736918653869
 30
0.0
 11
957.18854934838453
 21
-1967.5369386538689
 31
0.0
  0
LINE
  5
28D9
  8
01
 10
957.18854934838453
 20
-1969.636938653869
 30
0.0
 11
961.78855934838475
 21
-1969.636938653869
 31
0.0
  0
LINE
  5
28DA
  8
01
 10
954.788549348385
 20
-1966.736918653869
 30
0.0
 11
955.58855934838596
 21
-1967.5369386538689
 31
0.0
  0
LINE
  5
28DB
  8
01
 10
954.78855934838475
 20
-1966.7369486538689
 30
0.0
 11
954.78855934838475
 21
-1974.2369486538689
 31
0.0
  0
LINE
  5
28DC
  8
01
 10
953.18854934838464
 20
-1974.2369486538689
 30
0.0
 11
954.78855934838475
 21
-1974.2369486538689
 31
0.0
  0
LINE
  5
28DD
  8
01
 10
955.58855934838596
 20
-1967.5369386538689
 30
0.0
 11
955.58855934838596
 21
-1971.2369486538689
 31
0.0
  0
LINE
  5
28DE
  8
01
 10
953.18854934838464
 20
-1941.7369486538689
 30
0.0
 11
953.18854934838464
 21
-1981.7369486538689
 31
0.0
  0
LINE
  5
28DF
  8
01
 10
961.78855934838475
 20
-1953.836918653868
 30
0.0
 11
961.78855934838475
 21
-1971.2369486538689
 31
0.0
  0
LINE
  5
28E0
  8
01
 10
956.38854934838525
 20
-1956.7369486538689
 30
0.0
 11
956.38854934838525
 21
-1966.7369486538689
 31
0.0
  0
LINE
  5
28E1
  8
01
 10
954.78855934838475
 20
-1956.7369486538689
 30
0.0
 11
954.78855934838475
 21
-1966.7369486538689
 31
0.0
  0
ARC
  5
28E2
  8
01
 10
985.8580493483845
 20
-1991.8380286538679
 30
0.0
 40
50.0
 50
130.7976899999974
 51
150.85500000002
  0
LINE
  5
28E3
  8
01
 10
985.54989789461649
 20
-1996.236979653868
 30
0.0
 11
1001.172534506068
 21
-1996.236979653868
 31
0.0
  0
LINE
  5
28E4
  8
01
 10
1021.588549348386
 20
-1953.836918653868
 30
0.0
 11
1021.588549348386
 21
-1971.2369486538689
 31
0.0
  0
LINE
  5
28E5
  8
01
 10
1023.188549348384
 20
-1952.2369486538689
 30
0.0
 11
1023.188549348384
 21
-1971.2369486538689
 31
0.0
  0
LINE
  5
28E6
  8
01
 10
985.54989789461649
 20
-1927.2369176538709
 30
0.0
 11
1001.172534506068
 21
-1927.2369176538709
 31
0.0
  0
LINE
  5
28E9
  8
01
 10
720.18767316632375
 20
-2267.7369486528401
 30
0.0
 11
706.18767316632375
 21
-2267.7369486528401
 31
0.0
  0
LINE
  5
28EA
  8
01
 10
720.18767316632375
 20
-2153.736948652841
 30
0.0
 11
706.18767316632375
 21
-2153.736948652841
 31
0.0
  0
LINE
  5
28EB
  8
01
 10
840.68766916632421
 20
-2153.736948652841
 30
0.0
 11
827.6876691663241
 21
-2153.736948652841
 31
0.0
  0
LINE
  5
28EC
  8
01
 10
834.1876691663241
 20
-2147.236948652841
 30
0.0
 11
834.1876691663241
 21
-2160.2369486528401
 31
0.0
  0
LINE
  5
28ED
  8
01
 10
840.68766916632421
 20
-2267.7369486528401
 30
0.0
 11
827.6876691663241
 21
-2267.7369486528401
 31
0.0
  0
LINE
  5
28EE
  8
01
 10
834.1876691663241
 20
-2261.2369486528401
 30
0.0
 11
834.1876691663241
 21
-2274.236948652841
 31
0.0
  0
LINE
  5
28EF
  8
01
 10
694.18767316632375
 20
-2231.736948652841
 30
0.0
 11
634.18767316632375
 21
-2231.736948652841
 31
0.0
  0
LINE
  5
28F0
  8
01
 10
664.18767316632375
 20
-2201.736948652841
 30
0.0
 11
664.18767316632375
 21
-2261.736948652841
 31
0.0
  0
LINE
  5
28F1
  8
01
 10
974.18766516632468
 20
-2231.736948652841
 30
0.0
 11
1034.187665166324
 21
-2231.736948652841
 31
0.0
  0
LINE
  5
28F2
  8
01
 10
1004.187665166324
 20
-2201.736948652841
 30
0.0
 11
1004.187665166324
 21
-2261.736948652841
 31
0.0
  0
POINT
  5
28F7
  8
01
 10
868.68766916632421
 20
-2231.736948652841
 30
0.0
  0
LINE
  5
28F8
  8
01
 10
868.28766915632423
 20
-2233.4869486528401
 30
0.0
 11
868.28766915632423
 21
-2232.6369486328408
 31
0.0
  0
LINE
  5
28F9
  8
01
 10
869.08766917632408
 20
-2233.4869486528401
 30
0.0
 11
869.08766917632408
 21
-2232.6369486328408
 31
0.0
  0
LINE
  5
28FA
  8
01
 10
867.78766918632425
 20
-2232.136948662841
 30
0.0
 11
866.9376691663241
 21
-2232.136948662841
 31
0.0
  0
LINE
  5
28FB
  8
01
 10
867.78766918632425
 20
-2231.336948642841
 30
0.0
 11
866.9376691663241
 21
-2231.336948642841
 31
0.0
  0
LINE
  5
28FC
  8
01
 10
866.9376691663241
 20
-2232.136948662841
 30
0.0
 11
866.9376691663241
 21
-2231.336948642841
 31
0.0
  0
LINE
  5
28FD
  8
01
 10
869.08766917632408
 20
-2233.4869486528401
 30
0.0
 11
868.28766915632423
 21
-2233.4869486528401
 31
0.0
  0
LINE
  5
28FE
  8
01
 10
869.08766917632408
 20
-2229.9869486528401
 30
0.0
 11
869.08766917632408
 21
-2230.8369486728411
 31
0.0
  0
LINE
  5
28FF
  8
01
 10
868.28766915632423
 20
-2229.9869486528401
 30
0.0
 11
868.28766915632423
 21
-2230.8369486728411
 31
0.0
  0
LINE
  5
2900
  8
01
 10
869.58766914632395
 20
-2231.336948642841
 30
0.0
 11
870.43766916632421
 21
-2231.336948642841
 31
0.0
  0
LINE
  5
2901
  8
01
 10
869.58766914632395
 20
-2232.136948662841
 30
0.0
 11
870.43766916632421
 21
-2232.136948662841
 31
0.0
  0
LINE
  5
2902
  8
01
 10
870.43766916632421
 20
-2231.336948642841
 30
0.0
 11
870.43766916632421
 21
-2232.136948662841
 31
0.0
  0
LINE
  5
2903
  8
01
 10
868.28766915632423
 20
-2229.9869486528401
 30
0.0
 11
869.08766917632408
 21
-2229.9869486528401
 31
0.0
  0
CIRCLE
  5
2904
  8
01
 10
868.68766916632421
 20
-2231.736948652841
 30
0.0
 40
2.5
  0
ARC
  5
2905
  8
01
 10
869.58766914632395
 20
-2230.8369486728411
 30
0.0
 40
0.5
 50
179.9999899999998
 51
270.0
  0
ARC
  5
2906
  8
01
 10
869.58766914632395
 20
-2232.6369486328408
 30
0.0
 40
0.5
 50
90.000003000000945
 51
180.0000100000002
  0
ARC
  5
2907
  8
01
 10
867.78766918632425
 20
-2232.6369486328408
 30
0.0
 40
0.5
 50
0.0
 51
90.000003000000945
  0
ARC
  5
2908
  8
01
 10
867.78766918632425
 20
-2230.8369486728411
 30
0.0
 40
0.5
 50
270.0
 51
0.0
  0
POINT
  5
290A
  8
01
 10
799.68766916632421
 20
-2231.736948652841
 30
0.0
 50
180.0
  0
CIRCLE
  5
290B
  8
01
 10
799.68766916632421
 20
-2231.736948652841
 30
0.0
 40
2.5
  0
LINE
  5
2937
  8
01
 10
651.18766516632331
 20
-2181.736948652841
 30
0.0
 11
677.18766516632331
 21
-2181.736948652841
 31
0.0
  0
LINE
  5
2938
  8
01
 10
686.68766516632331
 20
-2176.236948652841
 30
0.0
 11
641.6876651663232
 21
-2176.236948652841
 31
0.0
  0
LINE
  5
2939
  8
01
 10
664.18766516632331
 20
-2153.736948652841
 30
0.0
 11
664.18766516632331
 21
-2198.7369486528401
 31
0.0
  0
LINE
  5
293A
  8
01
 10
1017.187673166325
 20
-2181.736948652841
 30
0.0
 11
991.18767316632545
 21
-2181.736948652841
 31
0.0
  0
LINE
  5
293B
  8
01
 10
981.68767316632545
 20
-2176.236948652841
 30
0.0
 11
1026.6876731663251
 21
-2176.236948652841
 31
0.0
  0
LINE
  5
293C
  8
01
 10
1004.187673166325
 20
-2153.736948652841
 30
0.0
 11
1004.187673166325
 21
-2198.7369486528401
 31
0.0
  0
LINE
  5
597F
  8
01
 10
1004.187781506069
 20
-1911.7369486538689
 30
0.0
 11
1004.187781506069
 21
-1946.7369486538689
 31
0.0
  0
LINE
  5
5980
  8
01
 10
1004.187781506069
 20
-1976.7369486538689
 30
0.0
 11
1004.187781506069
 21
-2011.7369486538689
 31
0.0
  0
LINE
  5
5981
  8
01
 10
784.18766916632421
 20
-2231.736948652841
 30
0.0
 11
819.18766916632421
 21
-2231.736948652841
 31
0.0
  0
LINE
  5
5982
  8
01
 10
849.1876691663241
 20
-2231.736948652841
 30
0.0
 11
884.18766916632433
 21
-2231.736948652841
 31
0.0
  0
LINE
  5
A5DA
  8
01
 10
953.18854934838464
 20
-1981.7369486538689
 30
0.0
 11
1106.9429295034161
 21
-1981.7369486538689
 31
0.0
  0
LINE
  5
A5DB
  8
01
 10
953.18854934838464
 20
-1941.7369486538689
 30
0.0
 11
1106.9429295034161
 21
-1941.7369486538689
 31
0.0
  0
LINE
  5
C684
  8
01
 10
649.18768516632394
 20
-1987.236948652841
 30
0.0
 11
754.18768516632406
 21
-1987.236948652841
 31
0.0
  0
LINE
  5
C686
  8
01
 10
649.18768516632406
 20
-1976.7369486528401
 30
0.0
 11
754.18768516632406
 21
-1976.7369486528401
 31
0.0
  0
TEXT
  5
C687
  8
01
 10
717.78768516632454
 20
-1984.9869486528401
 30
0.0
 40
6.0
  1
コード
 72
     1
 11
727.78768516632454
 21
-1984.9869486528401
 31
0.0
  0
LINE
  5
C689
  8
01
 10
649.1876851663236
 20
-2018.7369486528401
 30
0.0
 11
754.18768516632406
 21
-2018.7369486528401
 31
0.0
  0
TEXT
  5
C68A
  8
01
 10
661.68768516632542
 20
-1995.8084841283139
 30
0.0
 40
6.0
  1
クローム
 72
     1
 11
675.28768516632545
 21
-1995.8084841283139
 31
0.0
  0
LINE
  5
C68B
  8
01
 10
649.18768516632406
 20
-1976.7369486528401
 30
0.0
 11
649.18768516632372
 21
-2018.7369486528401
 31
0.0
  0
LINE
  5
C68C
  8
01
 10
701.68768516632326
 20
-1976.7369486528401
 30
0.0
 11
701.68768516632633
 21
-2018.7369486528401
 31
0.0
  0
LINE
  5
C68D
  8
01
 10
754.18768516632406
 20
-1976.7369486528401
 30
0.0
 11
754.1876851663236
 21
-2018.7369486528401
 31
0.0
  0
LINE
  5
C690
  8
01
 10
649.18768516632394
 20
-1997.7369486528401
 30
0.0
 11
754.18768516632406
 21
-1997.736948652841
 31
0.0
  0
LINE
  5
C691
  8
01
 10
649.18768516632383
 20
-2008.2369486528401
 30
0.0
 11
754.18768516632406
 21
-2008.236948652841
 31
0.0
  0
TEXT
  5
C692
  8
01
 10
705.38768516632445
 20
-1995.8084841283151
 30
0.0
 40
6.0
  1
3-KKC-C-LW
 41
0.7
 72
     1
 11
727.78768516632454
 21
-1995.8084841283151
 31
0.0
  0
TEXT
  5
C693
  8
01
 10
705.38768516632445
 20
-2006.3084841283151
 30
0.0
 40
6.0
  1
3-KKC-B-LW
 41
0.7
 72
     1
 11
727.78768516632454
 21
-2006.3084841283151
 31
0.0
  0
TEXT
  5
C694
  8
01
 10
705.28768516632454
 20
-2016.8084841283151
 30
0.0
 40
6.0
  1
3-KKC-N-LW
 41
0.7
 72
     1
 11
727.78768516632454
 21
-2016.8084841283151
 31
0.0
  0
TEXT
  5
C695
  8
01
 10
650.88768516632274
 20
-2005.7033190701959
 30
0.0
 40
6.0
  1
パールクローム
 72
     1
 11
675.28768516632272
 21
-2005.7033190701959
 31
0.0
  0
TEXT
  5
C696
  8
01
 10
650.88768516632274
 20
-2016.2033190701959
 30
0.0
 40
6.0
  1
サテンニッケル
 72
     1
 11
675.28768516632272
 21
-2016.2033190701959
 31
0.0
  0
TEXT
  5
C6B1
  8
01
 10
661.6876851663236
 20
-1984.9869486528401
 30
0.0
 40
6.0
  1
表面処理
 72
     1
 11
675.28768516632363
 21
-1984.9869486528401
 31
0.0
  0
LINE
  5
D62A
  8
01
 10
984.97829245402602
 20
-2247.736948652841
 30
0.0
 11
1022.187665166325
 21
-2247.736948652841
 31
0.0
  0
LINE
  5
D62B
  8
01
 10
1022.187665166324
 20
-2214.3875970799431
 30
0.0
 11
1022.187665166325
 21
-2247.736948652841
 31
0.0
  0
ARC
  5
ECB1
  8
01
 10
1004.187665166324
 20
-2231.736948652841
 30
0.0
 40
25.0
 50
28.685402014113279
 51
352.03294349330417
  0
POINT
  5
ECBA
  8
01
 10
863.18766916632421
 20
-2231.736948652841
 30
0.0
  0
POINT
  5
ECBB
  8
01
 10
863.18766916632421
 20
-2231.736948652841
 30
0.0
  0
POINT
  5
ECBC
  8
01
 10
863.18766916632421
 20
-2231.736948652841
 30
0.0
  0
LINE
  5
ECBD
  8
01
 10
992.68778150606931
 20
-1990.7369486538689
 30
0.0
 11
1015.687781506069
 21
-1990.7369486538689
 31
0.0
  0
LINE
  5
ECBE
  8
01
 10
863.18766916632603
 20
-2243.7369486528319
 30
0.0
 11
863.18766916632603
 21
-2219.7369486528401
 31
0.0
  0
LINE
  5
ECBF
  8
01
 10
1019.187781506071
 20
-2020.7369486538689
 30
0.0
 11
1117.6877815060709
 21
-2020.7369486538689
 31
0.0
  0
ARC
  5
ECC0
  8
01
 10
1117.6877815060709
 20
-2022.2369486538701
 30
0.0
 40
1.5
 50
0.0
 51
90.0
  0
LINE
  5
ECC1
  8
01
 10
1119.1877815060709
 20
-2042.2369486538701
 30
0.0
 11
1119.1877815060709
 21
-2022.2369486538701
 31
0.0
  0
LINE
  5
ECC2
  8
01
 10
994.1877815060692
 20
-2043.7369486538701
 30
0.0
 11
1117.6877815060709
 21
-2043.7369486538701
 31
0.0
  0
ARC
  5
ECC3
  8
01
 10
1117.6877815060709
 20
-2042.2369486538701
 30
0.0
 40
1.5
 50
270.0
 51
0.0
  0
ARC
  5
ECC4
  8
01
 10
994.1877815060692
 20
-2042.2369486538701
 30
0.0
 40
1.5
 50
180.0
 51
270.0
  0
LINE
  5
ECC5
  8
01
 10
992.68778150606931
 20
-2042.2369486538701
 30
0.0
 11
992.68778150606931
 21
-1990.7369486538689
 31
0.0
  0
ARC
  5
ECC6
  8
01
 10
1019.187781506071
 20
-2017.2369486538701
 30
0.0
 40
3.5
 50
180.0
 51
270.0
  0
LINE
  5
ECC7
  8
01
 10
1015.687781506071
 20
-2017.2369486538701
 30
0.0
 11
1015.687781506069
 21
-1990.7369486538689
 31
0.0
  0
LINE
  5
ECC8
  8
01
 10
914.67452174706023
 20
-2219.7369486528419
 30
0.0
 11
863.18766916632603
 21
-2219.7369486528401
 31
0.0
  0
ARC
  5
ECC9
  8
01
 10
863.18766916632967
 20
-2127.109928381597
 30
0.0
 40
116.6270202712432
 50
270.0
 51
293.24286954582902
  0
ARC
  5
ECCA
  8
01
 10
1019.030279689061
 20
-2237.771538042542
 30
0.0
 40
3.5000000000009091
 50
90.0
 51
180.0
  0
LINE
  5
ECCB
  8
01
 10
992.70086970099555
 20
-2221.2500384560881
 30
0.0
 11
992.88413392459961
 21
-2242.2500384560881
 31
0.0
  0
ARC
  5
ECCC
  8
01
 10
1019.0218546783
 20
-2238.7020411816789
 30
0.0
 40
3.5000000000009091
 50
90.0
 51
178.59366045518789
  0
LINE
  5
ECCD
  8
01
 10
1015.522908947105
 20
-2238.6161414135931
 30
0.0
 11
1015.4911964080489
 21
-2242.2500384560881
 31
0.0
  0
ARC
  5
ECCE
  8
01
 10
994.38407680919545
 20
-2242.2369486528391
 30
0.0
 40
1.5
 50
180.50000000001751
 51
270.0
  0
ARC
  5
ECCF
  8
01
 10
1013.99125352345
 20
-2242.2369486528391
 30
0.0
 40
1.5
 50
270.00000000010419
 51
359.49999999993031
  0
LINE
  5
ECD0
  8
01
 10
1015.53027968906
 20
-2237.7715380422628
 30
0.0
 11
1015.522908947101
 21
-2238.6161414137518
 31
0.0
  0
LINE
  5
ECD1
  8
01
 10
1013.991253523453
 20
-2243.736948652841
 30
0.0
 11
994.38407680919624
 21
-2243.736948652841
 31
0.0
  0
LINE
  5
ECD2
  8
01
 10
1117.6876651663249
 20
-2235.202041181677
 30
0.0
 11
1019.0218546783
 21
-2235.202041181677
 31
0.0
  0
LINE
  5
ECD3
  8
01
 10
994.20081258559128
 20
-2219.7369486528401
 30
0.0
 11
1117.6876651663249
 21
-2219.7369486528401
 31
0.0
  0
ARC
  5
ECD4
  8
01
 10
994.20081258559128
 20
-2221.2369486528401
 30
0.0
 40
1.5
 50
90.0
 51
180.50000000001751
  0
ARC
  5
ECD5
  8
01
 10
914.67452174706023
 20
-2221.236948652841
 30
0.0
 40
1.5
 50
359.49999999998238
 51
90.0
  0
LINE
  5
ECD6
  8
01
 10
916.17446463165697
 20
-2221.250038456089
 30
0.0
 11
916.15276169516301
 21
-2223.7369486528419
 31
0.0
  0
ARC
  5
ECD7
  8
01
 10
904.68766916632615
 20
-2223.7369486528401
 30
0.0
 40
11.465092528836969
 50
293.24286954582902
 51
0.0000000002084408
  0
ARC
  5
ECD8
  8
01
 10
1117.6876651663249
 20
-2233.7020411816789
 30
0.0
 40
1.5
 50
269.99999999994787
 51
0.0
  0
LINE
  5
ECD9
  8
01
 10
1119.187665166324
 20
-2221.2369486528401
 30
0.0
 11
1119.187665166324
 21
-2233.7020411816779
 31
0.0
  0
ARC
  5
ECDA
  8
01
 10
1117.6876651663249
 20
-2221.2369486528401
 30
0.0
 40
1.5
 50
0.0
 51
90.0
  0
LINE
  5
ECF0
  8
01
 10
992.68778150606931
 20
-1932.736948653868
 30
0.0
 11
1000.883911434306
 21
-1932.7369486538689
 31
0.0
  0
LINE
  5
ECF1
  8
01
 10
1019.187781506071
 20
-1902.7369486538689
 30
0.0
 11
1117.6877815060709
 21
-1902.7369486538689
 31
0.0
  0
ARC
  5
ECF2
  8
01
 10
1117.6877815060709
 20
-1901.2369486538689
 30
0.0
 40
1.5
 50
270.0
 51
0.0
  0
LINE
  5
ECF3
  8
01
 10
1119.1877815060709
 20
-1881.2369486538689
 30
0.0
 11
1119.1877815060709
 21
-1901.2369486538689
 31
0.0
  0
LINE
  5
ECF4
  8
01
 10
994.1877815060692
 20
-1879.7369486538689
 30
0.0
 11
1117.6877815060709
 21
-1879.7369486538689
 31
0.0
  0
ARC
  5
ECF5
  8
01
 10
1117.6877815060709
 20
-1881.2369486538689
 30
0.0
 40
1.5
 50
0.0
 51
90.000000000000028
  0
ARC
  5
ECF6
  8
01
 10
994.1877815060692
 20
-1881.2369486538689
 30
0.0
 40
1.5
 50
90.000000000000028
 51
180.0
  0
LINE
  5
ECF7
  8
01
 10
992.68778150606931
 20
-1881.2369486538689
 30
0.0
 11
992.68778150606931
 21
-1932.736948653868
 31
0.0
  0
ARC
  5
ECF8
  8
01
 10
1019.187781506071
 20
-1906.2369486538689
 30
0.0
 40
3.5
 50
90.000000000000028
 51
180.0
  0
LINE
  5
ECF9
  8
01
 10
1015.687781506071
 20
-1906.2369486538689
 30
0.0
 11
1015.687781506069
 21
-1932.7369486538701
 31
0.0
  0
ARC
  5
ECFA
  8
01
 10
664.18767316632375
 20
-2231.736948652841
 30
0.0
 40
25.0
 50
187.96705650669571
 51
151.31459798588671
  0
POINT
  5
ED01
  8
01
 10
805.18766916632421
 20
-2231.736948652841
 30
0.0
  0
POINT
  5
ED02
  8
01
 10
805.18766916632421
 20
-2231.736948652841
 30
0.0
  0
POINT
  5
ED03
  8
01
 10
805.18766916632421
 20
-2231.736948652841
 30
0.0
  0
LINE
  5
ED04
  8
01
 10
805.18766916632217
 20
-2243.7369486528319
 30
0.0
 11
805.18766916632239
 21
-2219.7369486528401
 31
0.0
  0
LINE
  5
ED05
  8
01
 10
753.70081658558809
 20
-2219.7369486528419
 30
0.0
 11
805.18766916632239
 21
-2219.7369486528401
 31
0.0
  0
ARC
  5
ED06
  8
01
 10
805.18766916631876
 20
-2127.109928381597
 30
0.0
 40
116.6270202712432
 50
246.75713045417089
 51
270.0
  0
ARC
  5
ED07
  8
01
 10
649.34505864358687
 20
-2237.771538042542
 30
0.0
 40
3.5000000000009091
 50
0.0
 51
89.999999999999986
  0
LINE
  5
ED08
  8
01
 10
675.67446863165287
 20
-2221.2500384560881
 30
0.0
 11
675.49120440804882
 21
-2242.2500384560881
 31
0.0
  0
ARC
  5
ED09
  8
01
 10
649.35348365434811
 20
-2238.7020411816789
 30
0.0
 40
3.5000000000009091
 50
1.4063395448120399
 51
89.999999999999986
  0
LINE
  5
ED0A
  8
01
 10
652.85242938554302
 20
-2238.6161414135931
 30
0.0
 11
652.88414192459868
 21
-2242.2500384560881
 31
0.0
  0
ARC
  5
ED0B
  8
01
 10
673.99126152345298
 20
-2242.2369486528391
 30
0.0
 40
1.5
 50
270.0
 51
359.49999999998238
  0
ARC
  5
ED0C
  8
01
 10
654.38408480919804
 20
-2242.2369486528391
 30
0.0
 40
1.5
 50
180.5000000000696
 51
269.99999999989581
  0
LINE
  5
ED0D
  8
01
 10
652.84505864358778
 20
-2237.7715380422628
 30
0.0
 11
652.85242938554745
 21
-2238.6161414137518
 31
0.0
  0
LINE
  5
ED0E
  8
01
 10
654.38408480919543
 20
-2243.736948652841
 30
0.0
 11
673.99126152345195
 21
-2243.736948652841
 31
0.0
  0
LINE
  5
ED0F
  8
01
 10
550.68767316632375
 20
-2235.202041181677
 30
0.0
 11
649.35348365434811
 21
-2235.202041181677
 31
0.0
  0
LINE
  5
ED10
  8
01
 10
674.17452574705703
 20
-2219.7369486528401
 30
0.0
 11
550.68767316632375
 21
-2219.7369486528401
 31
0.0
  0
ARC
  5
ED11
  8
01
 10
674.17452574705703
 20
-2221.2369486528401
 30
0.0
 40
1.5
 50
359.49999999998238
 51
89.999999999999986
  0
ARC
  5
ED12
  8
01
 10
753.70081658558809
 20
-2221.236948652841
 30
0.0
 40
1.5
 50
89.999999999999986
 51
180.50000000001751
  0
LINE
  5
ED13
  8
01
 10
752.20087370099134
 20
-2221.250038456089
 30
0.0
 11
752.2225766374853
 21
-2223.7369486528419
 31
0.0
  0
ARC
  5
ED14
  8
01
 10
763.68766916632217
 20
-2223.7369486528401
 30
0.0
 40
11.465092528836969
 50
179.9999999997915
 51
246.75713045417089
  0
ARC
  5
ED15
  8
01
 10
550.68767316632284
 20
-2233.7020411816789
 30
0.0
 40
1.5
 50
180.0
 51
270.00000000005213
  0
LINE
  5
ED16
  8
01
 10
549.18767316632375
 20
-2221.2369486528401
 30
0.0
 11
549.18767316632375
 21
-2233.7020411816779
 31
0.0
  0
ARC
  5
ED17
  8
01
 10
550.68767316632375
 20
-2221.2369486528401
 30
0.0
 40
1.5
 50
89.999999999999986
 51
180.0
  0
LINE
  5
F1DD
  8
01
 10
1007.4916215778291
 20
-1932.7369486538689
 30
0.0
 11
1015.687781506069
 21
-1932.7369486538701
 31
0.0
  0
LINE
  5
F944
  8
01
 10
814.18766916632148
 20
-2206.7369486528401
 30
0.0
 11
814.1876691663233
 21
-2256.736948652841
 31
0.0
  0
LINE
  5
F945
  8
01
 10
805.68766916632137
 20
-2207.2369486528378
 30
0.0
 11
805.68766916632512
 21
-2256.236948652841
 31
0.0
  0
LINE
  5
F946
  8
01
 10
814.1876691663233
 20
-2256.736948652841
 30
0.0
 11
806.18766916632501
 21
-2256.736948652841
 31
0.0
  0
ARC
  5
F947
  8
01
 10
806.18766916632501
 20
-2256.236948652841
 30
0.0
 40
0.5
 50
180.0
 51
270.0
  0
LINE
  5
F948
  8
01
 10
814.18766916632148
 20
-2206.7369486528401
 30
0.0
 11
806.18766916632183
 21
-2206.7369486528378
 31
0.0
  0
ARC
  5
F949
  8
01
 10
806.18766916632148
 20
-2207.2369486528378
 30
0.0
 40
0.5
 50
89.999999999973952
 51
180.0
  0
LINE
  5
F94A
  8
01
 10
854.18766916632512
 20
-2206.7369486528401
 30
0.0
 11
854.1876691663233
 21
-2256.736948652841
 31
0.0
  0
LINE
  5
F94B
  8
01
 10
862.68766916632524
 20
-2207.2369486528378
 30
0.0
 11
862.68766916632137
 21
-2256.236948652841
 31
0.0
  0
LINE
  5
F94C
  8
01
 10
854.1876691663233
 20
-2256.736948652841
 30
0.0
 11
862.18766916632148
 21
-2256.736948652841
 31
0.0
  0
ARC
  5
F94D
  8
01
 10
862.18766916632148
 20
-2256.236948652841
 30
0.0
 40
0.5
 50
270.0
 51
0.0
  0
LINE
  5
F94E
  8
01
 10
854.18766916632512
 20
-2206.7369486528401
 30
0.0
 11
862.18766916632512
 21
-2206.7369486528378
 31
0.0
  0
ARC
  5
F94F
  8
01
 10
862.18766916632512
 20
-2207.2369486528378
 30
0.0
 40
0.5
 50
0.0
 51
90.000000000026048
  0
LINE
  5
F950
  8
01
 10
860.48766916632621
 20
-2195.736948652825
 30
0.0000000000562575
 11
860.48766916632621
 21
-2156.736948652826
 31
0.0000000000562575
  0
LINE
  5
F951
  8
01
 10
854.18766916632603
 20
-2156.236948652825
 30
0.0000000000562575
 11
854.18766916632148
 21
-2196.2369486528328
 31
0.0000000000562575
  0
LINE
  5
F952
  8
01
 10
854.18766916632603
 20
-2196.236948652825
 30
0.0000000000562575
 11
859.9876691663261
 21
-2196.236948652825
 31
0.0000000000562575
  0
ARC
  5
F953
  8
01
 10
859.9876691663261
 20
-2195.736948652825
 30
0.0000000000562575
 40
0.5
 50
270.0
 51
0.0
  0
LINE
  5
F954
  8
01
 10
854.18766916632603
 20
-2156.236948652825
 30
0.0000000000562575
 11
859.9876691663261
 21
-2156.236948652825
 31
0.0000000000562575
  0
ARC
  5
F955
  8
01
 10
859.9876691663261
 20
-2156.736948652826
 30
0.0000000000562575
 40
0.5
 50
0.0
 51
90.0
  0
LINE
  5
F956
  8
01
 10
861.21106916632698
 20
-2178.236947331894
 30
-0.0000000000001137
 11
860.48766916632621
 21
-2178.236947331894
 31
-0.0000000000001137
  0
LINE
  5
F957
  8
01
 10
861.21106916632698
 20
-2185.236947331894
 30
-0.0000000000001137
 11
860.48766916632621
 21
-2185.236947331894
 31
-0.0000000000001137
  0
LINE
  5
F958
  8
01
 10
807.88766916632619
 20
-2195.7369486528319
 30
0.0
 11
807.88766916632619
 21
-2156.7369486528328
 31
0.0
  0
LINE
  5
F959
  8
01
 10
814.18766916632683
 20
-2156.2369486528319
 30
0.0
 11
814.18766916632148
 21
-2196.2369486528328
 31
0.0
  0
LINE
  5
F95A
  8
01
 10
814.18766916632683
 20
-2196.2369486528328
 30
0.0
 11
808.38766916632585
 21
-2196.2369486528328
 31
0.0
  0
ARC
  5
F95B
  8
01
 10
808.38766916632585
 20
-2195.7369486528319
 30
0.0
 40
0.5
 50
180.0
 51
270.0
  0
LINE
  5
F95C
  8
01
 10
814.18766916632683
 20
-2156.2369486528319
 30
0.0
 11
808.38766916632585
 21
-2156.2369486528328
 31
0.0
  0
ARC
  5
F95D
  8
01
 10
808.38766916632585
 20
-2156.7369486528328
 30
0.0
 40
0.5
 50
90.0
 51
180.0
  0
LINE
  5
F95E
  8
01
 10
793.18728360060447
 20
-2192.7369536528322
 30
0.0
 11
807.88766916632619
 21
-2192.7369536528322
 31
0.0
  0
LINE
  5
F95F
  8
01
 10
806.68730654481612
 20
-2171.2369536528322
 30
0.0
 11
806.68730654481169
 21
-2192.2369536528322
 31
0.0
  0
LINE
  5
F960
  8
01
 10
793.18728360060686
 20
-2170.7369536528322
 30
0.0
 11
807.88766916632619
 21
-2170.7369536528322
 31
0.0
  0
ARC
  5
F961
  8
01
 10
793.18728360060686
 20
-2171.7369536528308
 30
0.0
 40
1.0
 50
90.0
 51
180.0
  0
LINE
  5
F962
  8
01
 10
792.18728360060459
 20
-2171.7369536528308
 30
0.0
 11
792.18728360060459
 21
-2191.7369536528299
 31
0.0
  0
ARC
  5
F963
  8
01
 10
793.18728360060447
 20
-2191.7369536528299
 30
0.0
 40
1.0
 50
180.0
 51
270.0
  0
ARC
  5
F964
  8
01
 10
807.18730654481158
 20
-2171.2369536528322
 30
0.0
 40
0.5
 50
90.0
 51
179.99999999997391
  0
ARC
  5
F965
  8
01
 10
807.18730654481158
 20
-2192.2369536528322
 30
0.0
 40
0.5
 50
179.99999999997391
 51
270.0
  0
LINE
  5
F966
  8
01
 10
855.68766916632512
 20
-2196.2369486528328
 30
0.0000000000562575
 11
854.18766916632512
 21
-2196.2369486528328
 31
0.0000000000562575
  0
LINE
  5
F967
  8
01
 10
812.68766916632785
 20
-2196.2369486528391
 30
0.0
 11
814.18766916632785
 21
-2196.2369486528391
 31
0.0
  0
ARC
  5
F968
  8
01
 10
855.42603425408686
 20
-2181.7369473637168
 30
-0.0000000000001137
 40
6.7614049222401134
 50
328.82566316459219
 51
31.174340835420569
  0
CIRCLE
  5
F969
  8
01
 10
1004.187665166324
 20
-2181.9641173682371
 30
0.0
 40
3.75
  0
CIRCLE
  5
F96A
  8
01
 10
1004.187665166324
 20
-2181.9641175723641
 30
0.0
 40
3.5000004999999992
  0
LINE
  5
F96B
  8
01
 10
1005.187665166324
 20
-2185.3182203723641
 30
0.0
 11
1005.187665166324
 21
-2178.610013572365
 31
0.0
  0
LINE
  5
F96C
  8
01
 10
1003.187665166324
 20
-2185.3182203723641
 30
0.0
 11
1003.187665166324
 21
-2178.610013572365
 31
0.0
  0
CIRCLE
  5
F96D
  8
01
 10
1004.187664843865
 20
-2176.464117572365
 30
0.0
 40
19.99999999999962
  0
CIRCLE
  5
F96E
  8
01
 10
1004.187665166324
 20
-2174.3369584486959
 30
0.0
 40
2.5
  0
CIRCLE
  5
F96F
  8
01
 10
664.18767316632409
 20
-2181.736948652841
 30
0.0
 40
11.30000000000109
  0
LINE
  5
F970
  8
01
 10
666.6876731663242
 20
-2171.42918968204
 30
0.0
 11
666.6876731663242
 21
-2192.0447076236419
 31
0.0
  0
LINE
  5
F971
  8
01
 10
661.6876731663242
 20
-2171.42918968204
 30
0.0
 11
661.6876731663242
 21
-2192.0447076236419
 31
0.0
  0
ARC
  5
F972
  8
01
 10
662.1876731663242
 20
-2171.42918968204
 30
0.0
 40
0.5
 50
100.98058072142879
 51
180.0
  0
ARC
  5
F973
  8
01
 10
666.1876731663242
 20
-2171.42918968204
 30
0.0
 40
0.5
 50
0.0
 51
79.019419278571149
  0
ARC
  5
F974
  8
01
 10
662.1876731663242
 20
-2192.0447076236419
 30
0.0
 40
0.5
 50
180.0
 51
259.01941927857121
  0
ARC
  5
F975
  8
01
 10
666.1876731663242
 20
-2192.0447076236419
 30
0.0
 40
0.5
 50
280.98058072142891
 51
0.0
  0
CIRCLE
  5
F976
  8
01
 10
664.18767316632193
 20
-2176.236948652841
 30
0.0
 40
20.000000000000071
  0
CIRCLE
  5
F977
  8
01
 10
664.18767316632375
 20
-2181.736948652841
 30
0.0
 40
11.0
  0
LINE
  5
F978
  8
01
 10
979.18778157217128
 20
-1981.7369486538689
 30
0.0
 11
979.18778157217128
 21
-1989.7369486538689
 31
0.0
  0
LINE
  5
F979
  8
01
 10
1029.1877815721709
 20
-1981.7369486538689
 30
0.0
 11
1029.1877815721709
 21
-1989.7369486538689
 31
0.0
  0
LINE
  5
F97A
  8
01
 10
984.18778124971266
 20
-1981.7369486538689
 30
0.0
 11
984.18778124971266
 21
-1987.536948653868
 31
0.0
  0
LINE
  5
F97B
  8
01
 10
1024.1877812497121
 20
-1981.7369486538689
 30
0.0
 11
1024.1877812497121
 21
-1987.536948653868
 31
0.0
  0
LINE
  5
F97C
  8
01
 10
979.18778157217128
 20
-1981.7369486538689
 30
0.0
 11
1029.1877815721709
 21
-1981.7369486538689
 31
0.0
  0
LINE
  5
F97D
  8
01
 10
984.68778124971277
 20
-1988.0369486538691
 30
0.0
 11
1023.687781249712
 21
-1988.0369486538691
 31
0.0
  0
LINE
  5
F97E
  8
01
 10
979.68778157217139
 20
-1990.2369486538689
 30
0.0
 11
1028.6877815721709
 21
-1990.2369486538689
 31
0.0
  0
ARC
  5
F97F
  8
01
 10
984.68778124971277
 20
-1987.536948653868
 30
0.0
 40
0.5
 50
180.0
 51
270.0
  0
ARC
  5
F980
  8
01
 10
1023.687781249712
 20
-1987.536948653868
 30
0.0
 40
0.5
 50
270.0
 51
0.0
  0
ARC
  5
F981
  8
01
 10
979.68778157217139
 20
-1989.7369486538689
 30
0.0
 40
0.5
 50
179.99999999997391
 51
270.0
  0
ARC
  5
F982
  8
01
 10
1028.6877815721709
 20
-1989.7369486538689
 30
0.0
 40
0.5
 50
270.0
 51
0.0
  0
LINE
  5
F983
  8
01
 10
1005.187782893109
 20
-1989.4367186538691
 30
-0.0000000000001137
 11
1005.187782893109
 21
-1988.0369486538691
 31
-0.0000000000001137
  0
ARC
  5
F984
  8
01
 10
1002.887783893109
 20
-1989.4367186538691
 30
-0.0000000000001137
 40
0.30000001
 50
256.8165200000056
 51
0.0000029999846689
  0
ARC
  5
F985
  8
01
 10
1004.187782893109
 20
-1983.886948653869
 30
-0.0000000000001137
 40
6.0
 50
283.18348199998479
 51
305.68533400000791
  0
ARC
  5
F986
  8
01
 10
1005.487785893109
 20
-1989.4367186538691
 30
-0.0000000000001137
 40
0.30000001
 50
180.0
 51
283.18348199998479
  0
LINE
  5
F987
  8
01
 10
1007.687782893109
 20
-1988.760348653869
 30
-0.0000000000001137
 11
1007.687782893109
 21
-1988.0369486538691
 31
-0.0000000000001137
  0
LINE
  5
F988
  8
01
 10
1000.687782893109
 20
-1988.760348653869
 30
-0.0000000000001137
 11
1000.687782893109
 21
-1988.0369486538691
 31
-0.0000000000001137
  0
ARC
  5
F989
  8
01
 10
1004.187782893109
 20
-1983.886948653869
 30
-0.0000000000001137
 40
6.0
 50
234.3146700000031
 51
256.81651749662558
  0
LINE
  5
F98A
  8
01
 10
1003.187782893109
 20
-1989.437497113272
 30
-0.0000000000001137
 11
1003.187782893109
 21
-1988.0369486538691
 31
-0.0000000000001137
  0
LINE
  5
F98B
  8
01
 10
979.18778157217128
 20
-1941.7369486538689
 30
0.0
 11
979.18778157217128
 21
-1933.7369486538689
 31
0.0
  0
LINE
  5
F98C
  8
01
 10
1029.1877815721709
 20
-1941.7369486538689
 30
0.0
 11
1029.1877815721709
 21
-1933.7369486538689
 31
0.0
  0
LINE
  5
F98D
  8
01
 10
984.18778124971266
 20
-1941.7369486538689
 30
0.0
 11
984.18778124971266
 21
-1935.936948653869
 31
0.0
  0
LINE
  5
F98E
  8
01
 10
1024.1877812497121
 20
-1941.7369486538689
 30
0.0
 11
1024.1877812497121
 21
-1935.936948653869
 31
0.0
  0
LINE
  5
F98F
  8
01
 10
979.18778157217128
 20
-1941.7369486538689
 30
0.0
 11
1029.1877815721709
 21
-1941.7369486538689
 31
0.0
  0
LINE
  5
F990
  8
01
 10
984.68778124971277
 20
-1935.436948653869
 30
0.0
 11
1023.687781249712
 21
-1935.436948653869
 31
0.0
  0
LINE
  5
F991
  8
01
 10
979.68778157217139
 20
-1933.2369486538689
 30
0.0
 11
1001.687781572164
 21
-1933.2369486538689
 31
0.0
  0
LINE
  5
F992
  8
01
 10
1006.687781572166
 20
-1933.2369486538689
 30
0.0
 11
1028.6877815721709
 21
-1933.2369486538689
 31
0.0
  0
ARC
  5
F993
  8
01
 10
984.68778124971277
 20
-1935.936948653869
 30
0.0
 40
0.5
 50
90.0
 51
180.0
  0
ARC
  5
F994
  8
01
 10
1023.687781249712
 20
-1935.936948653869
 30
0.0
 40
0.5
 50
0.0
 51
90.0
  0
ARC
  5
F995
  8
01
 10
979.68778157217139
 20
-1933.7369486538689
 30
0.0
 40
0.5
 50
90.0
 51
180.0
  0
ARC
  5
F996
  8
01
 10
1028.6877815721709
 20
-1933.7369486538689
 30
0.0
 40
0.5
 50
0.0
 51
90.0
  0
ARC
  5
F997
  8
01
 10
1007.687781572164
 20
-1933.2369715980769
 30
0.0
 40
1.0
 50
180.0
 51
270.0
  0
LINE
  5
F998
  8
01
 10
1007.687781572166
 20
-1934.2369715980781
 30
0.0
 11
1014.687786572163
 21
-1934.236971598076
 31
0.0
  0
ARC
  5
F999
  8
01
 10
1014.687786572163
 20
-1934.7369715980749
 30
0.0
 40
0.5
 50
0.0
 51
90.0
  0
ARC
  5
F99A
  8
01
 10
1000.687781572162
 20
-1933.2369715980749
 30
0.0
 40
1.0
 50
270.0
 51
0.0
  0
ARC
  5
F99B
  8
01
 10
993.68778657216387
 20
-1934.7369715980749
 30
0.0
 40
0.5
 50
90.0
 51
180.0
  0
LINE
  5
F99C
  8
01
 10
1001.687781572164
 20
-1920.736948653873
 30
0.0
 11
1001.687781572164
 21
-1933.2369715980749
 31
0.0
  0
ARC
  5
F99D
  8
01
 10
1002.687781572162
 20
-1920.736948653871
 30
0.0
 40
1.0
 50
90.0
 51
179.9999999999479
  0
LINE
  5
F99E
  8
01
 10
1002.687781572164
 20
-1919.7369486538689
 30
0.0
 11
1005.687781572162
 21
-1919.7369486538689
 31
0.0
  0
ARC
  5
F99F
  8
01
 10
1005.687781572162
 20
-1920.736948653871
 30
0.0
 40
1.0
 50
0.0
 51
90.0
  0
LINE
  5
F9A0
  8
01
 10
1006.687781572164
 20
-1920.736948653871
 30
0.0
 11
1006.687781572166
 21
-1933.2369715980769
 31
0.0
  0
LINE
  5
F9A1
  8
01
 10
993.68778657216387
 20
-1934.236971598076
 30
0.0
 11
1000.687781572164
 21
-1934.236971598076
 31
0.0
  0
LINE
  5
F9A2
  8
01
 10
993.18778657216399
 20
-1934.7369715980749
 30
0.0
 11
993.18778657216399
 21
-1935.436948653869
 31
0.0
  0
LINE
  5
F9A3
  8
01
 10
1015.187786572163
 20
-1934.7369715980749
 30
0.0
 11
1015.187786572163
 21
-1935.436948653869
 31
0.0
  0
LINE
  5
FB27
  8
01
 10
1022.187665166325
 20
-2173.2369486528401
 30
0.0
 11
1022.187665166325
 21
-2184.9547458741258
 31
0.0
  0
LINE
  5
FB28
  8
01
 10
1001.187665166324
 20
-2173.2369486528401
 30
0.0
 11
1007.187665166324
 21
-2173.2369486528401
 31
0.0
  0
LINE
  5
FB29
  8
01
 10
1014.187665166325
 20
-2173.2369486528401
 30
0.0
 11
1022.187665166325
 21
-2173.2369486528401
 31
0.0
  0
LINE
  5
FB2A
  8
01
 10
1001.187665166324
 20
-2174.2369486528401
 30
0.0
 11
1001.187665166324
 21
-2173.2369486528401
 31
0.0
  0
LINE
  5
FB2B
  8
01
 10
1007.187665166324
 20
-2174.236948652841
 30
0.0
 11
1007.187665166324
 21
-2173.2369486528401
 31
0.0
  0
ARC
  5
FB2C
  8
01
 10
997.68766516632445
 20
-2174.236948652841
 30
0.0
 40
3.5
 50
179.99999999997391
 51
0.0
  0
ARC
  5
FB2D
  8
01
 10
1010.687665166325
 20
-2174.236948652841
 30
0.0
 40
3.5
 50
180.0
 51
0.0
  0
CIRCLE
  5
FB2E
  8
01
 10
1004.187665166036
 20
-2181.7369486531302
 30
0.0
 40
6.0
  0
LINE
  5
FB2F
  8
01
 10
994.18766516632445
 20
-2173.2369486528401
 30
0.0
 11
984.41394491058077
 21
-2173.2369486528401
 31
0.0
  0
LINE
  5
FB30
  8
01
  6
BYBLOCK
 10
984.41394491058077
 20
-2173.2369486528401
 30
0.0
 11
956.18766516632468
 21
-2173.2369486528401
 31
0.0
  0
LINE
  5
FB31
  8
01
 10
994.18766516632434
 20
-2174.2369486528401
 30
0.0
 11
994.18766516632445
 21
-2173.2369486528401
 31
0.0
  0
LINE
  5
FB32
  8
01
 10
1014.187665166325
 20
-2174.236948652841
 30
0.0
 11
1014.187665166325
 21
-2173.2369486528401
 31
0.0
  0
LINE
  5
FB33
  8
01
  6
BYBLOCK
 10
683.96138509960645
 20
-2173.2369486528401
 30
0.0
 11
712.18767316632375
 21
-2173.2369486528401
 31
0.0
  0
LINE
  5
FB34
  8
01
  6
BYBLOCK
 10
1010.188549348096
 20
-1951.4869486538689
 30
0.0
 11
998.18854934809588
 21
-1951.4869486538689
 31
0.0
  0
LINE
  5
FB35
  8
01
  6
BYBLOCK
 10
998.18854934809588
 20
-1971.9869486538689
 30
0.0
 11
1010.188549348096
 21
-1971.9869486538689
 31
0.0
  0
LINE
  5
FB36
  8
01
  6
BYBLOCK
 10
998.18854934809588
 20
-1971.9869486538689
 30
0.0
 11
998.18854934809588
 21
-1971.2369486538689
 31
0.0
  0
LINE
  5
FB37
  8
01
  6
BYBLOCK
 10
998.18854934809588
 20
-1952.2369486538689
 30
0.0
 11
998.18854934809588
 21
-1951.4869486538689
 31
0.0
  0
LINE
  5
FB38
  8
01
  6
BYBLOCK
 10
1010.188549348096
 20
-1971.9869486538689
 30
0.0
 11
1010.188549348096
 21
-1971.2369486538689
 31
0.0
  0
LINE
  5
FB39
  8
01
  6
BYBLOCK
 10
1010.188549348096
 20
-1952.2369486538689
 30
0.0
 11
1010.188549348096
 21
-1951.4869486538689
 31
0.0
  0
LINE
  5
FCC6
  8
01
 10
1010.188549348096
 20
-1951.4869486538689
 30
0.0
 11
1045.3489401080969
 21
-1951.4869486538689
 31
0.0
  0
LINE
  5
FCC7
  8
01
 10
1010.188549348096
 20
-1971.9869486538689
 30
0.0
 11
1045.3489401080969
 21
-1971.9869486538689
 31
0.0
  0
LINE
  5
FCC8
  8
01
 10
1044.0489401080979
 20
-1954.0869486538691
 30
0.0
 11
1044.0489401080979
 21
-1969.386948653869
 31
0.0
  0
TEXT
  5
FCCC
  8
01
 10
914.58415959267461
 20
-2012.1536153205359
 30
0.0
 40
4.5499999999999989
  1
材質：亜鉛ダイキャスト
  0
TEXT
  5
FCCD
  8
01
 10
925.50415959267457
 20
-2019.7369486538689
 30
0.0
 40
4.5499999999999989
  1
仕上げ：各種メッキ
  0
SOLID
  5
FCCE
  8
01
 10
1001.610520805609
 20
-2000.890936793779
 30
0.0
 11
1003.928266406385
 21
-1999.635614879744
 31
0.0
 12
1002.142935783176
 22
-2001.574782831111
 32
0.0
 13
1002.142935783176
 23
-2001.574782831111
 33
0.0
1001
ACAD
1000
DSTYLE
1002
{
1070
    40
1040
1.3
1002
}
  0
LINE
  5
FCD0
  8
01
 10
1022.187665166325
 20
-2173.2369486528401
 30
0.0
 11
1050.4876651663251
 21
-2173.236948652841
 31
0.0
  0
LINE
  5
FCD1
  8
01
 10
1022.187665166325
 20
-2247.736948652841
 30
0.0
 11
1050.4876651663251
 21
-2247.736948652841
 31
0.0
  0
LINE
  5
FCD2
  8
01
 10
1049.1876651663249
 20
-2175.8369486528409
 30
0.0
 11
1049.1876651663249
 21
-2245.1369486528411
 31
0.0
  0
LINE
  5
FCD6
  8
01
 10
1117.6876651663249
 20
-2219.7369486528401
 30
0.0
 11
1135.487665166326
 21
-2219.7369486528401
 31
0.0
  0
LINE
  5
FCD7
  8
01
 10
1117.6876651663231
 20
-2235.2020411816789
 30
0.0
 11
1135.487665166326
 21
-2235.2020411816789
 31
0.0
  0
LINE
  5
FCD8
  8
01
 10
1134.187665166326
 20
-2222.3369486528409
 30
0.0
 11
1134.187665166326
 21
-2232.602041181678
 31
0.0
  0
LINE
  5
FCDC
  8
01
 10
1106.9429295034161
 20
-1981.7369486538689
 30
0.0
 11
1145.4877815060711
 21
-1981.7369486538689
 31
0.0
  0
LINE
  5
FCDD
  8
01
 10
1117.6877815060709
 20
-2043.7369486538701
 30
0.0
 11
1145.4877815060711
 21
-2043.7369486538701
 31
0.0
  0
LINE
  5
FCDE
  8
01
 10
1144.1877815060709
 20
-1984.3369486538691
 30
0.0
 11
1144.1877815060709
 21
-2041.136948653869
 31
0.0
  0
LINE
  5
FCE2
  8
01
 10
1106.9429295034161
 20
-1981.7369486538689
 30
0.0
 11
1135.4877815060711
 21
-1981.7369486538689
 31
0.0
  0
LINE
  5
FCE3
  8
01
 10
1117.6877815060709
 20
-2020.7369486538689
 30
0.0
 11
1135.4877815060711
 21
-2020.7369486538689
 31
0.0
  0
LINE
  5
FCE4
  8
01
 10
1134.1877815060709
 20
-1984.3369486538691
 30
0.0
 11
1134.1877815060709
 21
-2018.1369486538699
 31
0.0
  0
LINE
  5
FCE8
  8
01
 10
992.68778150606931
 20
-2042.2369486538701
 30
0.0
 11
992.68778150606931
 21
-2070.0369486538698
 31
0.0
  0
LINE
  5
FCE9
  8
01
 10
1119.1877815060709
 20
-2042.2369486538701
 30
0.0
 11
1119.1877815060709
 21
-2070.0369486538698
 31
0.0
  0
LINE
  5
FCEA
  8
01
 10
995.28778150606934
 20
-2068.7369486538701
 30
0.0
 11
1116.587781506071
 21
-2068.7369486538701
 31
0.0
  0
LINE
  5
FCEE
  8
01
 10
1004.187781506069
 20
-2011.7369486538689
 30
0.0
 11
1004.187781506069
 21
-2060.0369486538698
 31
0.0
  0
LINE
  5
FCEF
  8
01
 10
1119.1877815060709
 20
-2042.2369486538701
 30
0.0
 11
1119.1877815060709
 21
-2060.0369486538698
 31
0.0
  0
LINE
  5
FCF0
  8
01
 10
1006.787781506069
 20
-2058.7369486538701
 30
0.0
 11
1116.587781506071
 21
-2058.7369486538701
 31
0.0
  0
LINE
  5
FCF4
  8
01
 10
1004.187665166324
 20
-2206.7369486528401
 30
0.0
 11
967.88766516632427
 21
-2206.7369486528401
 31
0.0
  0
LINE
  5
FCF5
  8
01
 10
1004.187665166324
 20
-2256.7369486528391
 30
0.0
 11
967.88766516632427
 21
-2256.7369486528391
 31
0.0
  0
LINE
  5
FCF6
  8
01
 10
969.18766516632434
 20
-2209.3369486528409
 30
0.0
 11
969.18766516632434
 21
-2254.1369486528401
 31
0.0
  0
LINE
  5
FCFA
  8
01
 10
840.68766916632421
 20
-2145.736948652841
 30
0.0
 11
895.48766916632394
 21
-2145.736948652841
 31
0.0
  0
LINE
  5
FCFB
  8
01
 10
840.68766916632421
 20
-2275.7369486528401
 30
0.0
 11
895.48766916632394
 21
-2275.7369486528401
 31
0.0
  0
LINE
  5
FCFC
  8
01
 10
894.18766916632387
 20
-2148.33694865284
 30
0.0
 11
894.18766916632387
 21
-2273.1369486528411
 31
0.0
  0
LINE
  5
FD00
  8
01
 10
840.68766916632421
 20
-2153.736948652841
 30
0.0
 11
879.99126020288065
 21
-2153.736948652841
 31
0.0
  0
LINE
  5
FD01
  8
01
 10
840.68766916632421
 20
-2267.7369486528401
 30
0.0
 11
879.99126020288065
 21
-2267.7369486528401
 31
0.0
  0
LINE
  5
FD02
  8
01
 10
878.69126020288058
 20
-2156.3369486528409
 30
0.0
 11
878.69126020288058
 21
-2265.1369486528411
 31
0.0
  0
LINE
  5
FD06
  8
01
 10
634.18767316632375
 20
-2231.736948652841
 30
0.0
 11
619.88768516632422
 21
-2231.736948652841
 31
0.0
  0
LINE
  5
FD07
  8
01
 10
641.68766516632309
 20
-2176.236948652841
 30
0.0
 11
619.88768516632422
 21
-2176.236948652841
 31
0.0
  0
LINE
  5
FD08
  8
01
 10
621.18768516632406
 20
-2229.1369486528411
 30
0.0
 11
621.18768516632406
 21
-2178.8369486528409
 31
0.0
  0
LINE
  5
FD0C
  8
01
 10
634.18767316632375
 20
-2231.736948652841
 30
0.0
 11
629.88768516632422
 21
-2231.736948652841
 31
0.0
  0
LINE
  5
FD0D
  8
01
 10
651.18766516632297
 20
-2181.736948652841
 30
0.0
 11
629.88768516632422
 21
-2181.736948652841
 31
0.0
  0
LINE
  5
FD0E
  8
01
 10
631.18768516632406
 20
-2229.1369486528411
 30
0.0
 11
631.18768516632406
 21
-2184.3369486528409
 31
0.0
  0
LINE
  5
FD12
  8
01
 10
644.3876661663229
 20
-2176.236948652841
 30
0.0
 11
644.3876661663229
 21
-2147.4369486528399
 31
0.0
  0
LINE
  5
FD13
  8
01
 10
683.98766416632293
 20
-2176.236948652841
 30
0.0
 11
683.98766416632293
 21
-2147.4369486528399
 31
0.0
  0
LINE
  5
FD14
  8
01
 10
646.98766616632292
 20
-2148.736948652841
 30
0.0
 11
681.38766416632279
 21
-2148.736948652841
 31
0.0
  0
LINE
  5
FD18
  8
01
 10
984.38766616632461
 20
-2176.236948652841
 30
0.0
 11
984.38766616632461
 21
-2147.4369486528399
 31
0.0
  0
LINE
  5
FD19
  8
01
 10
1023.987664166324
 20
-2176.236948652841
 30
0.0
 11
1023.987664166324
 21
-2147.4369486528399
 31
0.0
  0
LINE
  5
FD1A
  8
01
 10
986.98766616632463
 20
-2148.736948652841
 30
0.0
 11
1021.387664166324
 21
-2148.736948652841
 31
0.0
  0
LINE
  5
FD1E
  8
01
 10
792.18728360060459
 20
-2171.7369536528308
 30
0.0
 11
792.18728360060459
 21
-2124.4369486528399
 31
0.0
  0
LINE
  5
FD1F
  8
01
 10
814.18766916632421
 20
-2139.2395686528412
 30
0.0
 11
814.18766916632421
 21
-2124.4369486528399
 31
0.0
  0
LINE
  5
FD20
  8
01
 10
794.7872836006045
 20
-2125.736948652841
 30
0.0
 11
811.58766916632419
 21
-2125.736948652841
 31
0.0
  0
LINE
  5
FD24
  8
01
 10
854.18766916632421
 20
-2139.2395686528398
 30
0.0
 11
854.18766916632421
 21
-2124.4369486528399
 31
0.0
  0
LINE
  5
FD25
  8
01
 10
862.18743917632696
 20
-2181.7369471276979
 30
0.0
 11
862.18743917632696
 21
-2124.4369486528399
 31
0.0
  0
LINE
  5
FD26
  8
01
 10
856.78766916632424
 20
-2125.736948652841
 30
0.0
 11
859.58743917632705
 21
-2125.736948652841
 31
0.0
  0
LINE
  5
FD2A
  8
01
 10
800.9867072720009
 20
-2230.986948652841
 30
0.0
 11
799.68766916632421
 21
-2230.236948652841
 31
0.0
  0
LINE
  5
FD2B
  8
01
 10
799.68766916632421
 20
-2230.236948652841
 30
0.0
 11
798.38863106064764
 21
-2230.986948652841
 31
0.0
  0
LINE
  5
FD2C
  8
01
 10
798.38863106064764
 20
-2230.986948652841
 30
0.0
 11
798.38863106064764
 21
-2232.486948652841
 31
0.0
  0
LINE
  5
FD2D
  8
01
 10
798.38863106064764
 20
-2232.486948652841
 30
0.0
 11
799.68766916632421
 21
-2233.236948652841
 31
0.0
  0
LINE
  5
FD2E
  8
01
 10
799.68766916632421
 20
-2233.236948652841
 30
0.0
 11
800.9867072720009
 21
-2232.486948652841
 31
0.0
  0
LINE
  5
FD2F
  8
01
 10
800.9867072720009
 20
-2232.486948652841
 30
0.0
 11
800.9867072720009
 21
-2230.986948652841
 31
0.0
  0
CIRCLE
  5
FD30
  8
01
 10
799.68766916632421
 20
-2231.736948652841
 30
0.0
 40
3.0
  0
CIRCLE
  5
FD31
  8
01
 10
868.68766916632421
 20
-2231.736948652841
 30
0.0
 40
3.0
  0
LINE
  5
FD32
  8
01
 10
953.18766516632456
 20
-2145.736948652841
 30
0.0
 11
953.18766516632456
 21
-2124.4369486528399
 31
0.0
  0
LINE
  5
FD33
  8
01
 10
1004.187673166325
 20
-2153.736948652841
 30
0.0
 11
1004.187673166325
 21
-2124.4369486528399
 31
0.0
  0
LINE
  5
FD34
  8
01
 10
955.78766516632481
 20
-2125.736948652841
 30
0.0
 11
1001.587673166325
 21
-2125.736948652841
 31
0.0
  0
LINE
  5
FD38
  8
01
 10
1022.187665166325
 20
-2173.736948652841
 30
0.0
 11
1022.187665166325
 21
-2114.4369486528408
 31
0.0
  0
LINE
  5
FD39
  8
01
 10
953.18766516632456
 20
-2145.736948652841
 30
0.0
 11
953.18766516632456
 21
-2114.4369486528408
 31
0.0
  0
LINE
  5
FD3A
  8
01
 10
1019.587665166324
 20
-2115.736948652841
 30
0.0
 11
955.78766516632481
 21
-2115.736948652841
 31
0.0
  0
LINE
  5
FD3E
  8
01
 10
942.18766516632468
 20
-2203.7369493509718
 30
0.0
 11
942.18766516632468
 21
-2124.4369486528399
 31
0.0
  0
LINE
  5
FD3F
  8
01
 10
953.18766516632456
 20
-2145.736948652841
 30
0.0
 11
953.18766516632456
 21
-2124.4369486528399
 31
0.0
  0
LINE
  5
FD40
  8
01
 10
944.78766516632459
 20
-2125.736948652841
 30
0.0
 11
950.58766516632465
 21
-2125.736948652841
 31
0.0
  0
LINE
  5
FD44
  8
01
 10
821.6876691663241
 20
-2151.736948652841
 30
0.0
 11
821.6876691663241
 21
-2124.4369486528399
 31
0.0
  0
LINE
  5
FD45
  8
01
 10
846.6876691663241
 20
-2151.736948652841
 30
0.0
 11
846.6876691663241
 21
-2124.4369486528399
 31
0.0
  0
LINE
  5
FD46
  8
01
 10
824.28766916632424
 20
-2125.736948652841
 30
0.0
 11
844.08766916632408
 21
-2125.736948652841
 31
0.0
  0
TEXT
  5
FD4A
  8
01
 10
829.85433583299096
 20
-2124.8269486528411
 30
0.0
 40
4.5499999999999989
  1
25
  0
LINE
  5
FD4B
  8
01
  6
BYBLOCK
 10
844.08766916632408
 20
-2125.0402807588412
 30
0.0
 11
846.6876691663241
 21
-2125.736948652841
 31
0.0
  0
LINE
  5
FD4C
  8
01
  6
BYBLOCK
 10
846.6876691663241
 20
-2125.736948652841
 30
0.0
 11
844.08766916632408
 21
-2126.4336165468399
 31
0.0
  0
LINE
  5
FD4D
  8
01
  6
BYBLOCK
 10
846.6876691663241
 20
-2125.736948652841
 30
0.0
 11
844.08766916632408
 21
-2125.736948652841
 31
0.0
  0
LINE
  5
FD4E
  8
01
  6
BYBLOCK
 10
824.28766916632424
 20
-2126.4336165468399
 30
0.0
 11
821.6876691663241
 21
-2125.736948652841
 31
0.0
  0
LINE
  5
FD4F
  8
01
  6
BYBLOCK
 10
821.6876691663241
 20
-2125.736948652841
 30
0.0
 11
824.28766916632424
 21
-2125.0402807588412
 31
0.0
  0
LINE
  5
FD50
  8
01
  6
BYBLOCK
 10
821.6876691663241
 20
-2125.736948652841
 30
0.0
 11
824.28766916632424
 21
-2125.736948652841
 31
0.0
  0
TEXT
  5
FD51
  8
01
 10
943.67933183299135
 20
-2124.8269486528411
 30
0.0
 40
4.5499999999999989
  1
11
  0
LINE
  5
FD52
  8
01
  6
BYBLOCK
 10
950.58766516632465
 20
-2125.0402807588412
 30
0.0
 11
953.18766516632456
 21
-2125.736948652841
 31
0.0
  0
LINE
  5
FD53
  8
01
  6
BYBLOCK
 10
953.18766516632456
 20
-2125.736948652841
 30
0.0
 11
950.58766516632465
 21
-2126.4336165468399
 31
0.0
  0
LINE
  5
FD54
  8
01
  6
BYBLOCK
 10
953.18766516632456
 20
-2125.736948652841
 30
0.0
 11
950.58766516632465
 21
-2125.736948652841
 31
0.0
  0
LINE
  5
FD55
  8
01
  6
BYBLOCK
 10
944.78766516632459
 20
-2126.4336165468399
 30
0.0
 11
942.18766516632468
 21
-2125.736948652841
 31
0.0
  0
LINE
  5
FD56
  8
01
  6
BYBLOCK
 10
942.18766516632468
 20
-2125.736948652841
 30
0.0
 11
944.78766516632459
 21
-2125.0402807588412
 31
0.0
  0
LINE
  5
FD57
  8
01
  6
BYBLOCK
 10
942.18766516632468
 20
-2125.736948652841
 30
0.0
 11
944.78766516632459
 21
-2125.736948652841
 31
0.0
  0
TEXT
  5
FD58
  8
01
 10
983.35433183299142
 20
-2114.8269486528411
 30
0.0
 40
4.5499999999999989
  1
69
  0
LINE
  5
FD59
  8
01
  6
BYBLOCK
 10
955.78766516632481
 20
-2116.4336165468399
 30
0.0
 11
953.18766516632456
 21
-2115.736948652841
 31
0.0
  0
LINE
  5
FD5A
  8
01
  6
BYBLOCK
 10
953.18766516632456
 20
-2115.736948652841
 30
0.0
 11
955.78766516632481
 21
-2115.0402807588412
 31
0.0
  0
LINE
  5
FD5B
  8
01
  6
BYBLOCK
 10
953.18766516632456
 20
-2115.736948652841
 30
0.0
 11
955.78766516632481
 21
-2115.736948652841
 31
0.0
  0
LINE
  5
FD5C
  8
01
  6
BYBLOCK
 10
1019.587665166324
 20
-2115.0402807588412
 30
0.0
 11
1022.187665166325
 21
-2115.736948652841
 31
0.0
  0
LINE
  5
FD5D
  8
01
  6
BYBLOCK
 10
1022.187665166325
 20
-2115.736948652841
 30
0.0
 11
1019.587665166324
 21
-2116.4336165468399
 31
0.0
  0
LINE
  5
FD5E
  8
01
  6
BYBLOCK
 10
1022.187665166325
 20
-2115.736948652841
 30
0.0
 11
1019.587665166324
 21
-2115.736948652841
 31
0.0
  0
TEXT
  5
FD5F
  8
01
 10
975.00433583299184
 20
-2124.8269486528411
 30
0.0
 40
4.5499999999999989
  1
51
  0
LINE
  5
FD60
  8
01
  6
BYBLOCK
 10
1001.587673166325
 20
-2125.0402807588412
 30
0.0
 11
1004.187673166325
 21
-2125.736948652841
 31
0.0
  0
LINE
  5
FD61
  8
01
  6
BYBLOCK
 10
1004.187673166325
 20
-2125.736948652841
 30
0.0
 11
1001.587673166325
 21
-2126.4336165468399
 31
0.0
  0
LINE
  5
FD62
  8
01
  6
BYBLOCK
 10
1004.187673166325
 20
-2125.736948652841
 30
0.0
 11
1001.587673166325
 21
-2125.736948652841
 31
0.0
  0
LINE
  5
FD63
  8
01
  6
BYBLOCK
 10
955.78766516632481
 20
-2126.4336165468399
 30
0.0
 11
953.18766516632456
 21
-2125.736948652841
 31
0.0
  0
LINE
  5
FD64
  8
01
  6
BYBLOCK
 10
953.18766516632456
 20
-2125.736948652841
 30
0.0
 11
955.78766516632481
 21
-2125.0402807588412
 31
0.0
  0
LINE
  5
FD65
  8
01
  6
BYBLOCK
 10
953.18766516632456
 20
-2125.736948652841
 30
0.0
 11
955.78766516632481
 21
-2125.736948652841
 31
0.0
  0
TEXT
  5
FD66
  8
01
 10
856.02088750465907
 20
-2124.8269486528411
 30
0.0
 40
4.5499999999999989
  1
8
  0
LINE
  5
FD67
  8
01
  6
BYBLOCK
 10
859.58743917632705
 20
-2125.0402807588412
 30
0.0
 11
862.18743917632696
 21
-2125.736948652841
 31
0.0
  0
LINE
  5
FD68
  8
01
  6
BYBLOCK
 10
862.18743917632696
 20
-2125.736948652841
 30
0.0
 11
859.58743917632705
 21
-2126.4336165468399
 31
0.0
  0
LINE
  5
FD69
  8
01
  6
BYBLOCK
 10
862.18743917632696
 20
-2125.736948652841
 30
0.0
 11
859.58743917632705
 21
-2125.736948652841
 31
0.0
  0
LINE
  5
FD6A
  8
01
  6
BYBLOCK
 10
856.78766916632424
 20
-2126.4336165468399
 30
0.0
 11
854.18766916632421
 21
-2125.736948652841
 31
0.0
  0
LINE
  5
FD6B
  8
01
  6
BYBLOCK
 10
854.18766916632421
 20
-2125.736948652841
 30
0.0
 11
856.78766916632424
 21
-2125.0402807588412
 31
0.0
  0
LINE
  5
FD6C
  8
01
  6
BYBLOCK
 10
854.18766916632421
 20
-2125.736948652841
 30
0.0
 11
856.78766916632424
 21
-2125.736948652841
 31
0.0
  0
TEXT
  5
FD6D
  8
01
 10
798.85414305013114
 20
-2124.8269486528411
 30
0.0
 40
4.5499999999999989
  1
22
  0
LINE
  5
FD6E
  8
01
  6
BYBLOCK
 10
811.58766916632419
 20
-2125.0402807588412
 30
0.0
 11
814.18766916632421
 21
-2125.736948652841
 31
0.0
  0
LINE
  5
FD6F
  8
01
  6
BYBLOCK
 10
814.18766916632421
 20
-2125.736948652841
 30
0.0
 11
811.58766916632419
 21
-2126.4336165468399
 31
0.0
  0
LINE
  5
FD70
  8
01
  6
BYBLOCK
 10
814.18766916632421
 20
-2125.736948652841
 30
0.0
 11
811.58766916632419
 21
-2125.736948652841
 31
0.0
  0
LINE
  5
FD71
  8
01
  6
BYBLOCK
 10
794.7872836006045
 20
-2126.4336165468399
 30
0.0
 11
792.18728360060459
 21
-2125.736948652841
 31
0.0
  0
LINE
  5
FD72
  8
01
  6
BYBLOCK
 10
792.18728360060459
 20
-2125.736948652841
 30
0.0
 11
794.7872836006045
 21
-2125.0402807588412
 31
0.0
  0
LINE
  5
FD73
  8
01
  6
BYBLOCK
 10
792.18728360060459
 20
-2125.736948652841
 30
0.0
 11
794.7872836006045
 21
-2125.736948652841
 31
0.0
  0
TEXT
  5
FD74
  8
01
 10
996.99433183299141
 20
-2147.8269486528411
 30
0.0
 40
4.5499999999999989
  1
\U+03C640
  0
LINE
  5
FD75
  8
01
  6
BYBLOCK
 10
1021.387664166324
 20
-2148.0402807588412
 30
0.0
 11
1023.987664166324
 21
-2148.736948652841
 31
0.0
  0
LINE
  5
FD76
  8
01
  6
BYBLOCK
 10
1023.987664166324
 20
-2148.736948652841
 30
0.0
 11
1021.387664166324
 21
-2149.4336165468399
 31
0.0
  0
LINE
  5
FD77
  8
01
  6
BYBLOCK
 10
1023.987664166324
 20
-2148.736948652841
 30
0.0
 11
1021.387664166324
 21
-2148.736948652841
 31
0.0
  0
LINE
  5
FD78
  8
01
  6
BYBLOCK
 10
986.98766616632463
 20
-2149.4336165468399
 30
0.0
 11
984.38766616632461
 21
-2148.736948652841
 31
0.0
  0
LINE
  5
FD79
  8
01
  6
BYBLOCK
 10
984.38766616632461
 20
-2148.736948652841
 30
0.0
 11
986.98766616632463
 21
-2148.0402807588412
 31
0.0
  0
LINE
  5
FD7A
  8
01
  6
BYBLOCK
 10
984.38766616632461
 20
-2148.736948652841
 30
0.0
 11
986.98766616632463
 21
-2148.736948652841
 31
0.0
  0
TEXT
  5
FD7B
  8
01
 10
656.99433183298959
 20
-2147.8269486528411
 30
0.0
 40
4.5499999999999989
  1
\U+03C640
  0
LINE
  5
FD7C
  8
01
  6
BYBLOCK
 10
681.38766416632279
 20
-2148.0402807588412
 30
0.0
 11
683.98766416632293
 21
-2148.736948652841
 31
0.0
  0
LINE
  5
FD7D
  8
01
  6
BYBLOCK
 10
683.98766416632293
 20
-2148.736948652841
 30
0.0
 11
681.38766416632279
 21
-2149.4336165468399
 31
0.0
  0
LINE
  5
FD7E
  8
01
  6
BYBLOCK
 10
683.98766416632293
 20
-2148.736948652841
 30
0.0
 11
681.38766416632279
 21
-2148.736948652841
 31
0.0
  0
LINE
  5
FD7F
  8
01
  6
BYBLOCK
 10
646.98766616632292
 20
-2149.4336165468399
 30
0.0
 11
644.3876661663229
 21
-2148.736948652841
 31
0.0
  0
LINE
  5
FD80
  8
01
  6
BYBLOCK
 10
644.3876661663229
 20
-2148.736948652841
 30
0.0
 11
646.98766616632292
 21
-2148.0402807588412
 31
0.0
  0
LINE
  5
FD81
  8
01
  6
BYBLOCK
 10
644.3876661663229
 20
-2148.736948652841
 30
0.0
 11
646.98766616632292
 21
-2148.736948652841
 31
0.0
  0
TEXT
  5
FD82
  8
01
 10
630.27768516632455
 20
-2211.070281986174
 30
0.0
 40
4.5499999999999989
  1
50
 50
90.0
  0
LINE
  5
FD83
  8
01
  6
BYBLOCK
 10
630.49101727232414
 20
-2184.3369486528409
 30
0.0
 11
631.18768516632406
 21
-2181.736948652841
 31
0.0
  0
LINE
  5
FD84
  8
01
  6
BYBLOCK
 10
631.18768516632406
 20
-2181.736948652841
 30
0.0
 11
631.8843530603242
 21
-2184.3369486528409
 31
0.0
  0
LINE
  5
FD85
  8
01
  6
BYBLOCK
 10
631.18768516632406
 20
-2181.736948652841
 30
0.0
 11
631.18768516632406
 21
-2184.3369486528409
 31
0.0
  0
LINE
  5
FD86
  8
01
  6
BYBLOCK
 10
631.8843530603242
 20
-2229.1369486528411
 30
0.0
 11
631.18768516632406
 21
-2231.736948652841
 31
0.0
  0
LINE
  5
FD87
  8
01
  6
BYBLOCK
 10
631.18768516632406
 20
-2231.736948652841
 30
0.0
 11
630.49101727232414
 21
-2229.1369486528411
 31
0.0
  0
LINE
  5
FD88
  8
01
  6
BYBLOCK
 10
631.18768516632406
 20
-2231.736948652841
 30
0.0
 11
631.18768516632406
 21
-2229.1369486528411
 31
0.0
  0
TEXT
  5
FD89
  8
01
 10
620.27768516632455
 20
-2211.570281986174
 30
0.0
 40
4.5499999999999989
  1
55.5
 50
90.0
  0
LINE
  5
FD8A
  8
01
  6
BYBLOCK
 10
620.49101727232414
 20
-2178.8369486528409
 30
0.0
 11
621.18768516632406
 21
-2176.236948652841
 31
0.0
  0
LINE
  5
FD8B
  8
01
  6
BYBLOCK
 10
621.18768516632406
 20
-2176.236948652841
 30
0.0
 11
621.88435306032409
 21
-2178.8369486528409
 31
0.0
  0
LINE
  5
FD8C
  8
01
  6
BYBLOCK
 10
621.18768516632406
 20
-2176.236948652841
 30
0.0
 11
621.18768516632406
 21
-2178.8369486528409
 31
0.0
  0
LINE
  5
FD8D
  8
01
  6
BYBLOCK
 10
621.88435306032409
 20
-2229.1369486528411
 30
0.0
 11
621.18768516632406
 21
-2231.736948652841
 31
0.0
  0
LINE
  5
FD8E
  8
01
  6
BYBLOCK
 10
621.18768516632406
 20
-2231.736948652841
 30
0.0
 11
620.49101727232414
 21
-2229.1369486528411
 31
0.0
  0
LINE
  5
FD8F
  8
01
  6
BYBLOCK
 10
621.18768516632406
 20
-2231.736948652841
 30
0.0
 11
621.18768516632406
 21
-2229.1369486528411
 31
0.0
  0
TEXT
  5
FD90
  8
01
 10
877.78126020288107
 20
-2199.856561305859
 30
0.0
 40
4.5499999999999989
  1
114
 50
90.0
  0
LINE
  5
FD91
  8
01
  6
BYBLOCK
 10
879.38792809688073
 20
-2265.1369486528411
 30
0.0
 11
878.69126020288058
 21
-2267.7369486528401
 31
0.0
  0
LINE
  5
FD92
  8
01
  6
BYBLOCK
 10
878.69126020288058
 20
-2267.7369486528401
 30
0.0
 11
877.99459230888056
 21
-2265.1369486528411
 31
0.0
  0
LINE
  5
FD93
  8
01
  6
BYBLOCK
 10
878.69126020288058
 20
-2267.7369486528401
 30
0.0
 11
878.69126020288058
 21
-2265.1369486528411
 31
0.0
  0
LINE
  5
FD94
  8
01
  6
BYBLOCK
 10
877.99459230888056
 20
-2156.3369486528409
 30
0.0
 11
878.69126020288058
 21
-2153.736948652841
 31
0.0
  0
LINE
  5
FD95
  8
01
  6
BYBLOCK
 10
878.69126020288058
 20
-2153.736948652841
 30
0.0
 11
879.38792809688073
 21
-2156.3369486528409
 31
0.0
  0
LINE
  5
FD96
  8
01
  6
BYBLOCK
 10
878.69126020288058
 20
-2153.736948652841
 30
0.0
 11
878.69126020288058
 21
-2156.3369486528409
 31
0.0
  0
TEXT
  5
FD97
  8
01
 10
893.27766916632424
 20
-2199.7482279725259
 30
0.0
 40
4.5499999999999989
  1
130
 50
90.0
  0
LINE
  5
FD98
  8
01
  6
BYBLOCK
 10
894.88433706032379
 20
-2273.1369486528411
 30
0.0
 11
894.18766916632387
 21
-2275.7369486528401
 31
0.0
  0
LINE
  5
FD99
  8
01
  6
BYBLOCK
 10
894.18766916632387
 20
-2275.7369486528401
 30
0.0
 11
893.49100127232373
 21
-2273.1369486528411
 31
0.0
  0
LINE
  5
FD9A
  8
01
  6
BYBLOCK
 10
894.18766916632387
 20
-2275.7369486528401
 30
0.0
 11
894.18766916632387
 21
-2273.1369486528411
 31
0.0
  0
LINE
  5
FD9B
  8
01
  6
BYBLOCK
 10
893.49100127232373
 20
-2148.33694865284
 30
0.0
 11
894.18766916632387
 21
-2145.736948652841
 31
0.0
  0
LINE
  5
FD9C
  8
01
  6
BYBLOCK
 10
894.18766916632387
 20
-2145.736948652841
 30
0.0
 11
894.88433706032379
 21
-2148.33694865284
 31
0.0
  0
LINE
  5
FD9D
  8
01
  6
BYBLOCK
 10
894.18766916632387
 20
-2145.736948652841
 30
0.0
 11
894.18766916632387
 21
-2148.33694865284
 31
0.0
  0
TEXT
  5
FD9E
  8
01
 10
968.2776651663246
 20
-2240.2700279483279
 30
0.0
 40
4.5499999999999989
  1
\U+03C650
 50
90.0
  0
LINE
  5
FD9F
  8
01
  6
BYBLOCK
 10
969.88433306032437
 20
-2254.1369486528401
 30
0.0
 11
969.18766516632434
 21
-2256.7369486528391
 31
0.0
  0
LINE
  5
FDA0
  8
01
  6
BYBLOCK
 10
969.18766516632434
 20
-2256.7369486528391
 30
0.0
 11
968.49099727232431
 21
-2254.1369486528401
 31
0.0
  0
LINE
  5
FDA1
  8
01
  6
BYBLOCK
 10
969.18766516632434
 20
-2256.7369486528391
 30
0.0
 11
969.18766516632434
 21
-2254.1369486528401
 31
0.0
  0
LINE
  5
FDA2
  8
01
  6
BYBLOCK
 10
968.49099727232431
 20
-2209.3369486528409
 30
0.0
 11
969.18766516632434
 21
-2206.7369486528401
 31
0.0
  0
LINE
  5
FDA3
  8
01
  6
BYBLOCK
 10
969.18766516632434
 20
-2206.7369486528401
 30
0.0
 11
969.88433306032437
 21
-2209.3369486528409
 31
0.0
  0
LINE
  5
FDA4
  8
01
  6
BYBLOCK
 10
969.18766516632434
 20
-2206.7369486528401
 30
0.0
 11
969.18766516632434
 21
-2209.3369486528409
 31
0.0
  0
TEXT
  5
FDA5
  8
01
 10
1054.86278150607
 20
-2057.8269486538702
 30
0.0
 40
4.5499999999999989
  1
115
  0
LINE
  5
FDA6
  8
01
  6
BYBLOCK
 10
1116.587781506071
 20
-2058.0402807598698
 30
0.0
 11
1119.1877815060709
 21
-2058.7369486538701
 31
0.0
  0
LINE
  5
FDA7
  8
01
  6
BYBLOCK
 10
1119.1877815060709
 20
-2058.7369486538701
 30
0.0
 11
1116.587781506071
 21
-2059.433616547869
 31
0.0
  0
LINE
  5
FDA8
  8
01
  6
BYBLOCK
 10
1119.1877815060709
 20
-2058.7369486538701
 30
0.0
 11
1116.587781506071
 21
-2058.7369486538701
 31
0.0
  0
LINE
  5
FDA9
  8
01
  6
BYBLOCK
 10
1006.787781506069
 20
-2059.433616547869
 30
0.0
 11
1004.187781506069
 21
-2058.7369486538701
 31
0.0
  0
LINE
  5
FDAA
  8
01
  6
BYBLOCK
 10
1004.187781506069
 20
-2058.7369486538701
 30
0.0
 11
1006.787781506069
 21
-2058.0402807598698
 31
0.0
  0
LINE
  5
FDAB
  8
01
  6
BYBLOCK
 10
1004.187781506069
 20
-2058.7369486538701
 30
0.0
 11
1006.787781506069
 21
-2058.7369486538701
 31
0.0
  0
TEXT
  5
FDAC
  8
01
 10
1045.86278150607
 20
-2067.8269486538702
 30
0.0
 40
4.5499999999999989
  1
126.5
  0
LINE
  5
FDAD
  8
01
  6
BYBLOCK
 10
1116.587781506071
 20
-2068.0402807598698
 30
0.0
 11
1119.1877815060709
 21
-2068.7369486538701
 31
0.0
  0
LINE
  5
FDAE
  8
01
  6
BYBLOCK
 10
1119.1877815060709
 20
-2068.7369486538701
 30
0.0
 11
1116.587781506071
 21
-2069.4336165478699
 31
0.0
  0
LINE
  5
FDAF
  8
01
  6
BYBLOCK
 10
1119.1877815060709
 20
-2068.7369486538701
 30
0.0
 11
1116.587781506071
 21
-2068.7369486538701
 31
0.0
  0
LINE
  5
FDB0
  8
01
  6
BYBLOCK
 10
995.28778150606934
 20
-2069.4336165478699
 30
0.0
 11
992.68778150606931
 21
-2068.7369486538701
 31
0.0
  0
LINE
  5
FDB1
  8
01
  6
BYBLOCK
 10
992.68778150606931
 20
-2068.7369486538701
 30
0.0
 11
995.28778150606934
 21
-2068.0402807598698
 31
0.0
  0
LINE
  5
FDB2
  8
01
  6
BYBLOCK
 10
992.68778150606931
 20
-2068.7369486538701
 30
0.0
 11
995.28778150606934
 21
-2068.7369486538701
 31
0.0
  0
TEXT
  5
FDB3
  8
01
 10
1133.2777815060711
 20
-2005.46194865387
 30
0.0
 40
4.5499999999999989
  1
39
 50
90.0
  0
LINE
  5
FDB4
  8
01
  6
BYBLOCK
 10
1134.8844494000709
 20
-2018.1369486538699
 30
0.0
 11
1134.1877815060709
 21
-2020.7369486538689
 31
0.0
  0
LINE
  5
FDB5
  8
01
  6
BYBLOCK
 10
1134.1877815060709
 20
-2020.7369486538689
 30
0.0
 11
1133.4911136120711
 21
-2018.1369486538699
 31
0.0
  0
LINE
  5
FDB6
  8
01
  6
BYBLOCK
 10
1134.1877815060709
 20
-2020.7369486538689
 30
0.0
 11
1134.1877815060709
 21
-2018.1369486538699
 31
0.0
  0
LINE
  5
FDB7
  8
01
  6
BYBLOCK
 10
1133.4911136120711
 20
-1984.3369486538691
 30
0.0
 11
1134.1877815060709
 21
-1981.7369486538689
 31
0.0
  0
LINE
  5
FDB8
  8
01
  6
BYBLOCK
 10
1134.1877815060709
 20
-1981.7369486538689
 30
0.0
 11
1134.8844494000709
 21
-1984.3369486538691
 31
0.0
  0
LINE
  5
FDB9
  8
01
  6
BYBLOCK
 10
1134.1877815060709
 20
-1981.7369486538689
 30
0.0
 11
1134.1877815060709
 21
-1984.3369486538691
 31
0.0
  0
TEXT
  5
FDBA
  8
01
 10
1143.2777815060711
 20
-2017.178615320536
 30
0.0
 40
4.5499999999999989
  1
62
 50
90.0
  0
LINE
  5
FDBB
  8
01
  6
BYBLOCK
 10
1144.8844494000709
 20
-2041.136948653869
 30
0.0
 11
1144.1877815060709
 21
-2043.7369486538701
 31
0.0
  0
LINE
  5
FDBC
  8
01
  6
BYBLOCK
 10
1144.1877815060709
 20
-2043.7369486538701
 30
0.0
 11
1143.4911136120711
 21
-2041.136948653869
 31
0.0
  0
LINE
  5
FDBD
  8
01
  6
BYBLOCK
 10
1144.1877815060709
 20
-2043.7369486538701
 30
0.0
 11
1144.1877815060709
 21
-2041.136948653869
 31
0.0
  0
LINE
  5
FDBE
  8
01
  6
BYBLOCK
 10
1143.4911136120711
 20
-1984.3369486538691
 30
0.0
 11
1144.1877815060709
 21
-1981.7369486538689
 31
0.0
  0
LINE
  5
FDBF
  8
01
  6
BYBLOCK
 10
1144.1877815060709
 20
-1981.7369486538689
 30
0.0
 11
1144.8844494000709
 21
-1984.3369486538691
 31
0.0
  0
LINE
  5
FDC0
  8
01
  6
BYBLOCK
 10
1144.1877815060709
 20
-1981.7369486538689
 30
0.0
 11
1144.1877815060709
 21
-1984.3369486538691
 31
0.0
  0
TEXT
  5
FDC1
  8
01
 10
1133.277665166326
 20
-2235.3778282505932
 30
0.0
 40
4.5499999999999989
  1
15.5
 50
90.0
  0
LINE
  5
FDC2
  8
01
  6
BYBLOCK
 10
1134.8843330603261
 20
-2232.602041181678
 30
0.0
 11
1134.187665166326
 21
-2235.2020411816789
 31
0.0
  0
LINE
  5
FDC3
  8
01
  6
BYBLOCK
 10
1134.187665166326
 20
-2235.2020411816789
 30
0.0
 11
1133.490997272326
 21
-2232.602041181678
 31
0.0
  0
LINE
  5
FDC4
  8
01
  6
BYBLOCK
 10
1134.187665166326
 20
-2235.2020411816789
 30
0.0
 11
1134.187665166326
 21
-2232.602041181678
 31
0.0
  0
LINE
  5
FDC5
  8
01
  6
BYBLOCK
 10
1133.490997272326
 20
-2222.3369486528409
 30
0.0
 11
1134.187665166326
 21
-2219.7369486528401
 31
0.0
  0
LINE
  5
FDC6
  8
01
  6
BYBLOCK
 10
1134.187665166326
 20
-2219.7369486528401
 30
0.0
 11
1134.8843330603261
 21
-2222.3369486528409
 31
0.0
  0
LINE
  5
FDC7
  8
01
  6
BYBLOCK
 10
1134.187665166326
 20
-2219.7369486528401
 30
0.0
 11
1134.187665166326
 21
-2222.3369486528409
 31
0.0
  0
TEXT
  5
FDC8
  8
01
 10
1048.2776651663251
 20
-2218.070281986174
 30
0.0
 40
4.5499999999999989
  1
74.5
 50
90.0
  0
LINE
  5
FDC9
  8
01
  6
BYBLOCK
 10
1049.884333060324
 20
-2245.1369486528411
 30
0.0
 11
1049.1876651663249
 21
-2247.736948652841
 31
0.0
  0
LINE
  5
FDCA
  8
01
  6
BYBLOCK
 10
1049.1876651663249
 20
-2247.736948652841
 30
0.0
 11
1048.490997272324
 21
-2245.1369486528411
 31
0.0
  0
LINE
  5
FDCB
  8
01
  6
BYBLOCK
 10
1049.1876651663249
 20
-2247.736948652841
 30
0.0
 11
1049.1876651663249
 21
-2245.1369486528411
 31
0.0
  0
LINE
  5
FDCC
  8
01
  6
BYBLOCK
 10
1048.490997272324
 20
-2175.8369486528409
 30
0.0
 11
1049.1876651663249
 21
-2173.236948652841
 31
0.0
  0
LINE
  5
FDCD
  8
01
  6
BYBLOCK
 10
1049.1876651663249
 20
-2173.236948652841
 30
0.0
 11
1049.884333060324
 21
-2175.8369486528409
 31
0.0
  0
LINE
  5
FDCE
  8
01
  6
BYBLOCK
 10
1049.1876651663249
 20
-2173.236948652841
 30
0.0
 11
1049.1876651663249
 21
-2175.8369486528409
 31
0.0
  0
LINE
  5
FDCF
  8
01
 10
1001.876728294392
 20
-2001.232859812445
 30
0.0
 11
976.94082625934129
 21
-2020.646948653869
 31
0.0
1001
ACAD
1000
DSTYLE
1002
{
1070
    40
1040
1.3
1002
}
  0
LINE
  5
FDD0
  8
01
 10
976.94082625934129
 20
-2020.646948653869
 30
0.0
 11
973.43082625934142
 21
-2020.646948653869
 31
0.0
1001
ACAD
1000
DSTYLE
1002
{
1070
    40
1040
1.3
1002
}
  0
TEXT
  5
FDD1
  8
01
 10
1043.1389401080969
 20
-1969.320281987202
 30
0.0
 40
4.5499999999999989
  1
20.5
 50
90.0
  0
LINE
  5
FDD2
  8
01
  6
BYBLOCK
 10
1044.7456080020979
 20
-1969.386948653869
 30
0.0
 11
1044.0489401080979
 21
-1971.9869486538689
 31
0.0
  0
LINE
  5
FDD3
  8
01
  6
BYBLOCK
 10
1044.0489401080979
 20
-1971.9869486538689
 30
0.0
 11
1043.352272214097
 21
-1969.386948653869
 31
0.0
  0
LINE
  5
FDD4
  8
01
  6
BYBLOCK
 10
1044.0489401080979
 20
-1971.9869486538689
 30
0.0
 11
1044.0489401080979
 21
-1969.386948653869
 31
0.0
  0
LINE
  5
FDD5
  8
01
  6
BYBLOCK
 10
1043.352272214097
 20
-1954.0869486538691
 30
0.0
 11
1044.0489401080979
 21
-1951.4869486538689
 31
0.0
  0
LINE
  5
FDD6
  8
01
  6
BYBLOCK
 10
1044.0489401080979
 20
-1951.4869486538689
 30
0.0
 11
1044.7456080020979
 21
-1954.0869486538691
 31
0.0
  0
LINE
  5
FDD7
  8
01
  6
BYBLOCK
 10
1044.0489401080979
 20
-1951.4869486538689
 30
0.0
 11
1044.0489401080979
 21
-1954.0869486538691
 31
0.0
  0
VIEWPORT
  5
57
 67
     1
  8
0
 10
10.300854394508089
 20
17.565658765306811
 30
0.0
 40
436.84021006502348
 41
283.7528444139179
 68
     1
 69
     1
1001
ACAD
1000
MVIEW
1002
{
1070
    16
1010
0.0
1020
0.0
1030
0.0
1010
0.0
1020
0.0
1030
1.0
1040
0.0
1040
283.7528444139179
1040
10.300854394508089
1040
17.565658765306811
1040
50.0
1040
0.0
1040
0.0
1070
     0
1070
   100
1070
     1
1070
     1
1070
     0
1070
     0
1070
     0
1070
     0
1040
0.0
1040
0.0
1040
0.0
1040
10.0
1040
10.0
1040
10.0
1040
10.0
1070
     0
1002
{
1002
}
1002
}
  0
ENDSEC
  0
EOF
