  0
SECTION
  2
HEADER
  9
$ACADVER
  1
AC1009
  9
$INSBASE
 10
0.0
 20
0.0
 30
0.0
  9
$EXTMIN
 10
306.60733158419862
 20
-1106.1296521422721
 30
0.0
  9
$EXTMAX
 10
680.89340579871373
 20
-849.64708623620675
 30
0.0
  9
$LIMMIN
 10
0.0
 20
0.0
  9
$LIMMAX
 10
420.0
 20
297.0
  9
$ORTHOMODE
 70
     0
  9
$REGENMODE
 70
     1
  9
$FILLMODE
 70
     1
  9
$QTEXTMODE
 70
     0
  9
$MIRRTEXT
 70
     1
  9
$DRAGMODE
 70
     2
  9
$LTSCALE
 40
0.5
  9
$OSMODE
 70
  2175
  9
$ATTMODE
 70
     1
  9
$TEXTSIZE
 40
4.0
  9
$TRACEWID
 40
1.0
  9
$TEXTSTYLE
  7
STANDARD
  9
$CLAYER
  8
1TEXT
  9
$CELTYPE
  6
BYLAYER
  9
$CECOLOR
 62
   256
  9
$DIMSCALE
 40
1.0
  9
$DIMASZ
 40
2.0
  9
$DIMEXO
 40
0.0
  9
$DIMDLI
 40
7.0
  9
$DIMRND
 40
0.0
  9
$DIMDLE
 40
0.0
  9
$DIMEXE
 40
1.0
  9
$DIMTP
 40
0.0
  9
$DIMTM
 40
0.0
  9
$DIMTXT
 40
3.5
  9
$DIMCEN
 40
0.0
  9
$DIMTSZ
 40
0.0
  9
$DIMTOL
 70
     0
  9
$DIMLIM
 70
     0
  9
$DIMTIH
 70
     0
  9
$DIMTOH
 70
     0
  9
$DIMSE1
 70
     0
  9
$DIMSE2
 70
     0
  9
$DIMTAD
 70
     1
  9
$DIMZIN
 70
     8
  9
$DIMBLK
  1

  9
$DIMASO
 70
     1
  9
$DIMSHO
 70
     1
  9
$DIMPOST
  1
 
  9
$DIMAPOST
  1

  9
$DIMALT
 70
     0
  9
$DIMALTD
 70
     2
  9
$DIMALTF
 40
25.399999999999999
  9
$DIMLFAC
 40
1.0
  9
$DIMTOFL
 70
     1
  9
$DIMTVP
 40
0.0
  9
$DIMTIX
 70
     0
  9
$DIMSOXD
 70
     0
  9
$DIMSAH
 70
     1
  9
$DIMBLK1
  1
OPEN30
  9
$DIMBLK2
  1
OPEN30
  9
$DIMSTYLE
  2
NEWX10
  9
$DIMCLRD
 70
   256
  9
$DIMCLRE
 70
   256
  9
$DIMCLRT
 70
   201
  9
$DIMTFAC
 40
0.7
  9
$DIMGAP
 40
0.7
  9
$LUNITS
 70
     2
  9
$LUPREC
 70
     4
  9
$SKETCHINC
 40
1.0
  9
$FILLETRAD
 40
0.0
  9
$AUNITS
 70
     0
  9
$AUPREC
 70
     2
  9
$MENU
  1
acad
  9
$ELEVATION
 40
0.0
  9
$PELEVATION
 40
0.0
  9
$THICKNESS
 40
0.0
  9
$LIMCHECK
 70
     0
  9
$BLIPMODE
 70
     0
  9
$CHAMFERA
 40
10.0
  9
$CHAMFERB
 40
10.0
  9
$SKPOLY
 70
     0
  9
$TDCREATE
 40
2451027.6274212962
  9
$TDUPDATE
 40
2455631.439256181
  9
$TDINDWG
 40
1.4422448379999999
  9
$TDUSRTIMER
 40
1.4422448379999999
  9
$USRTIMER
 70
     1
  9
$ANGBASE
 50
0.0
  9
$ANGDIR
 70
     0
  9
$PDMODE
 70
     0
  9
$PDSIZE
 40
0.0
  9
$PLINEWID
 40
0.0
  9
$COORDS
 70
     2
  9
$SPLFRAME
 70
     0
  9
$SPLINETYPE
 70
     6
  9
$SPLINESEGS
 70
     8
  9
$ATTDIA
 70
     0
  9
$ATTREQ
 70
     1
  9
$HANDLING
 70
     1
  9
$HANDSEED
  5
B691
  9
$SURFTAB1
 70
     6
  9
$SURFTAB2
 70
     6
  9
$SURFTYPE
 70
     6
  9
$SURFU
 70
     6
  9
$SURFV
 70
     6
  9
$UCSNAME
  2

  9
$UCSORG
 10
0.0
 20
0.0
 30
0.0
  9
$UCSXDIR
 10
1.0
 20
0.0
 30
0.0
  9
$UCSYDIR
 10
0.0
 20
1.0
 30
0.0
  9
$PUCSNAME
  2

  9
$PUCSORG
 10
0.0
 20
0.0
 30
0.0
  9
$PUCSXDIR
 10
1.0
 20
0.0
 30
0.0
  9
$PUCSYDIR
 10
0.0
 20
1.0
 30
0.0
  9
$USERI1
 70
     0
  9
$USERI2
 70
     0
  9
$USERI3
 70
     0
  9
$USERI4
 70
     0
  9
$USERI5
 70
     0
  9
$USERR1
 40
0.0
  9
$USERR2
 40
0.0
  9
$USERR3
 40
0.0
  9
$USERR4
 40
0.0
  9
$USERR5
 40
6.0
  9
$WORLDVIEW
 70
     1
  9
$SHADEDGE
 70
     3
  9
$SHADEDIF
 70
    70
  9
$TILEMODE
 70
     1
  9
$MAXACTVP
 70
    48
  9
$PLIMCHECK
 70
     0
  9
$PEXTMIN
 10
1.0000000000000000E+020
 20
1.0000000000000000E+020
 30
1.0000000000000000E+020
  9
$PEXTMAX
 10
-1.0000000000000000E+020
 20
-1.0000000000000000E+020
 30
-1.0000000000000000E+020
  9
$PLIMMIN
 10
0.0
 20
0.0
  9
$PLIMMAX
 10
420.0
 20
297.0
  9
$UNITMODE
 70
     0
  9
$VISRETAIN
 70
     1
  9
$PLINEGEN
 70
     0
  9
$PSLTSCALE
 70
     1
  0
ENDSEC
  0
SECTION
  2
TABLES
  0
TABLE
  2
VPORT
 70
     1
  0
VPORT
  2
*ACTIVE
 70
     0
 10
0.0
 20
0.0
 11
1.0
 21
1.0
 12
493.74538329107821
 22
-977.87268877070642
 13
0.0
 23
0.0
 14
10.0
 24
10.0
 15
10.0
 25
10.0
 16
0.0
 26
0.0
 36
1.0
 17
0.0
 27
0.0
 37
0.0
 40
280.48682853808458
 41
1.4123581336696089
 42
50.0
 43
0.0
 44
0.0
 50
0.0
 51
0.0
 71
     0
 72
   100
 73
     1
 74
     1
 75
     0
 76
     0
 77
     0
 78
     0
  0
ENDTAB
  0
TABLE
  2
LTYPE
 70
    15
  0
LTYPE
  2
CONTINUOUS
 70
     0
  3
Solid line
 72
    65
 73
     0
 40
0.0
  0
LTYPE
  2
CENTER2
 70
     0
  3
Center (.5x) ___ _ ___ _ ___ _ ___ _ ___ _ ___
 72
    65
 73
     4
 40
28.574999999999999
 49
19.050000000000001
 49
-3.1749999999999989
 49
3.1749999999999989
 49
-3.1749999999999989
  0
LTYPE
  2
HIDDEN
 70
     0
  3
Hidden __ __ __ __ __ __ __ __ __ __ __ __ __ _
 72
    65
 73
     2
 40
9.5249999999999986
 49
6.3499999999999988
 49
-3.1749999999999989
  0
LTYPE
  2
PHANTOM2
 70
     0
  3
Phantom (.5x) ___ _ _ ___ _ _ ___ _ _ ___ _ _
 72
    65
 73
     6
 40
31.75
 49
15.875
 49
-3.1749999999999989
 49
3.1749999999999989
 49
-3.1749999999999989
 49
3.1749999999999989
 49
-3.1749999999999989
  0
LTYPE
  2
A3WAKUDAKE|CENTER2
 70
    48
  3
Center (.5x) ___ _ ___ _ ___ _ ___ _ ___ _ ___
 72
    65
 73
     4
 40
28.574999999999999
 49
19.050000000000001
 49
-3.1749999999999989
 49
3.1749999999999989
 49
-3.1749999999999989
  0
LTYPE
  2
XREF1|CENTER2
 70
    48
  3
Center (.5x) ___ _ ___ _ ___ _ ___ _ ___ _ ___
 72
    65
 73
     4
 40
28.574999999999999
 49
19.050000000000001
 49
-3.1749999999999989
 49
3.1749999999999989
 49
-3.1749999999999989
  0
ENDTAB
  0
TABLE
  2
LAYER
 70
    45
  0
LAYER
  2
0
 70
     0
 62
     7
  6
CONTINUOUS
  0
LAYER
  2
1CENTER
 70
     0
 62
     7
  6
CENTER2
  0
LAYER
  2
1DIM
 70
     0
 62
     7
  6
CONTINUOUS
  0
LAYER
  2
1TEXT
 70
     0
 62
     7
  6
CONTINUOUS
  0
LAYER
  2
1HIDDEN
 70
     0
 62
     7
  6
HIDDEN
  0
LAYER
  2
1PHANTOM
 70
     0
 62
     7
  6
PHANTOM2
  0
LAYER
  2
01
 70
     0
 62
     1
  6
CONTINUOUS
  0
LAYER
  2
1HATCH
 70
     0
 62
     7
  6
CONTINUOUS
  0
LAYER
  2
A3WAKUDAKE|THICK
 70
    48
 62
     7
  6
CONTINUOUS
  0
LAYER
  2
A3WAKUDAKE|POINT
 70
    48
 62
     7
  6
CONTINUOUS
  0
LAYER
  2
A3WAKUDAKE|1CENTER
 70
    48
 62
     7
  6
A3WAKUDAKE|CENTER2
  0
LAYER
  2
A3WAKUDAKE|0-6
 70
    48
 62
     7
  6
CONTINUOUS
  0
LAYER
  2
A3WAKUDAKE|1DIM
 70
    48
 62
     7
  6
CONTINUOUS
  0
LAYER
  2
XREF1|1CENTER
 70
    48
 62
     7
  6
XREF1|CENTER2
  0
ENDTAB
  0
TABLE
  2
STYLE
 70
    21
  0
STYLE
  2
STANDARD
 70
     0
 40
0.0
 41
1.0
 50
0.0
 71
     0
 42
4.0
  3
txt.shx
  4
extfont.shx
  0
ENDTAB
  0
TABLE
  2
VIEW
 70
     0
  0
ENDTAB
  0
TABLE
  2
UCS
 70
     0
  0
ENDTAB
  0
TABLE
  2
APPID
 70
    10
  0
APPID
  2
ACAD
 70
     0
  0
APPID
  2
CONTENTTABDATA
 70
     0
  0
APPID
  2
CONTENTCURRENTTAB
 70
     0
  0
APPID
  2
CONTENTBLOCKICON
 70
     0
  0
APPID
  2
CONTENTBLOCKDESCRIPTION
 70
     0
  0
APPID
  2
DRAWINGVARIABLESXDATA
 70
     0
  0
APPID
  2
CONTENTLONGBLOCKNAME
 70
     0
  0
APPID
  2
ACAD_PSEXT
 70
     0
  0
APPID
  2
ACAD_MLEADERVER
 70
     0
  0
APPID
  2
ACAD_DSTYLE_DIMRADIAL_EXTENSION
 70
     0
  0
ENDTAB
  0
TABLE
  2
DIMSTYLE
 70
     7
  0
DIMSTYLE
  2
NEWX10
 70
     0
  3
 
  4

  5

  6
OPEN30
  7
OPEN30
 40
1.0
 41
2.0
 42
0.0
 43
7.0
 44
1.0
 45
0.0
 46
0.0
 47
0.0
 48
0.0
140
3.5
141
0.0
142
0.0
143
25.399999999999999
144
1.0
145
0.0
146
0.7
147
0.7
 71
     0
 72
     0
 73
     0
 74
     0
 75
     0
 76
     0
 77
     1
 78
     8
170
     0
171
     2
172
     1
173
     1
174
     0
175
     0
176
   256
177
   256
178
   201
  0
ENDTAB
  0
ENDSEC
  0
SECTION
  2
BLOCKS
  0
BLOCK
  8
0
  2
$MODEL_SPACE
 70
     0
 10
0.0
 20
0.0
 30
0.0
  3
$MODEL_SPACE
  1

  0
ENDBLK
  5
1A
  8
0
  0
BLOCK
 67
     1
  8
0
  2
$PAPER_SPACE
 70
     0
 10
0.0
 20
0.0
 30
0.0
  3
$PAPER_SPACE
  1

  0
ENDBLK
  5
17
 67
     1
  8
0
  0
BLOCK
  8
0
  2
_OPEN30
 70
     0
 10
0.0
 20
0.0
 30
0.0
  3
_OPEN30
  1

  0
LINE
  5
2F1
  8
0
  6
BYBLOCK
 62
     0
 10
-1.0
 20
0.26794919
 30
0.0
 11
0.0
 21
0.0
 31
0.0
  0
LINE
  5
2F2
  8
0
  6
BYBLOCK
 62
     0
 10
0.0
 20
0.0
 30
0.0
 11
-1.0
 21
-0.26794919
 31
0.0
  0
LINE
  5
2F3
  8
0
  6
BYBLOCK
 62
     0
 10
0.0
 20
0.0
 30
0.0
 11
-1.0
 21
0.0
 31
0.0
  0
ENDBLK
  5
2F4
  8
0
  0
BLOCK
  8
0
  2
A3WAKUDAKE
 70
    36
 10
0.0
 20
0.0
 30
0.0
  3
A3WAKUDAKE
  1
D:\ACLT\FORMAT\A3WAKUdake.dwg
  0
ENDBLK
  5
7417
  8
0
  0
BLOCK
  8
0
  2
XREF1
 70
    36
 10
0.0
 20
0.0
 30
0.0
  3
XREF1
  1
D:\ACLT\FORMAT\KAWAJUN(9)図面用.dwg
  0
ENDBLK
  5
741A
  8
0
  0
BLOCK
  8
0
  2
*U56
 70
     1
 10
0.0
 20
0.0
 30
0.0
  3
*U56
  1

  0
LINE
  5
B43C
  8
0
 10
-0.0000093071795959
 20
-4.0
 30
0.0
 11
0.0000093071795959
 21
4.0
 31
0.0
  0
LINE
  5
B43D
  8
0
 10
-0.2999906928214955
 20
4.0
 30
0.0
 11
0.0000093071795959
 21
4.0
 31
0.0
  0
LINE
  5
B43E
  8
0
 10
-0.3000093071805736
 20
-4.0
 30
0.0
 11
-0.0000093071795959
 21
-4.0
 31
0.0
  0
LINE
  5
B43F
  8
0
 10
-0.2999906928214955
 20
4.0
 30
0.0
 11
-2.8000197779268201
 21
1.5
 31
0.0
  0
LINE
  5
B440
  8
0
 10
-0.3000093071805736
 20
-4.0
 30
0.0
 11
-2.799991856279632
 21
-1.5
 31
0.0
  0
LINE
  5
B441
  8
0
 10
-14.69999650980861
 20
1.5
 30
0.0
 11
-2.8000197779268201
 21
1.5
 31
0.0
  0
LINE
  5
B442
  8
0
 10
-14.700003490193289
 20
-1.5
 30
0.0
 11
-2.799991856279632
 21
-1.5
 31
0.0
  0
LINE
  5
B443
  8
0
 10
-20.000000000054168
 20
0.0
 30
0.0
 11
-14.69999650980861
 21
1.5
 31
0.0
  0
LINE
  5
B444
  8
0
 10
-20.000000000054168
 20
0.0
 30
0.0
 11
-14.700003490193289
 21
-1.5
 31
0.0
  0
ENDBLK
  5
B446
  8
0
  0
BLOCK
  8
0
  2
*U57
 70
     1
 10
0.0
 20
0.0
 30
0.0
  3
*U57
  1

  0
LINE
  5
B448
  8
0
 10
-14.650000000000031
 20
-2.0
 30
0.0
 11
-1.3000001740740139
 21
-2.0
 31
0.0
  0
LINE
  5
B449
  8
0
 10
-1.3000001740740139
 20
-2.0
 30
0.0
 11
-0.3000001000000054
 21
-3.0
 31
0.0
  0
LINE
  5
B44A
  8
0
 10
-15.000000000000011
 20
-1.6499999999998629
 30
0.0
 11
-14.650000000000031
 21
-2.0
 31
0.0
  0
LINE
  5
B44B
  8
0
 10
-0.3000001000000054
 20
-3.0
 30
0.0
 11
0.0
 21
-3.0
 31
0.0
  0
LINE
  5
B44C
  8
0
 10
-15.000000000000011
 20
1.649999999999977
 30
0.0
 11
-15.000000000000011
 21
-1.6499999999998629
 31
0.0
  0
LINE
  5
B44D
  8
0
 10
0.0
 20
3.0
 30
0.0
 11
0.0
 21
-3.0
 31
0.0
  0
LINE
  5
B44E
  8
0
 10
-14.650000000000031
 20
2.0
 30
0.0
 11
-15.000000000000011
 21
1.649999999999977
 31
0.0
  0
LINE
  5
B44F
  8
0
 10
-0.3000000100000193
 20
3.0
 30
0.0
 11
0.0
 21
3.0
 31
0.0
  0
LINE
  5
B450
  8
0
 10
-14.650000000000031
 20
2.0
 30
0.0
 11
-1.3000001740740139
 21
2.0
 31
0.0
  0
LINE
  5
B451
  8
0
 10
-1.3000001740740139
 20
2.0
 30
0.0
 11
-0.3000000100000193
 21
3.0
 31
0.0
  0
ENDBLK
  5
B453
  8
0
  0
BLOCK
  8
0
  2
*U58
 70
     1
 10
0.0
 20
0.0
 30
0.0
  3
*U58
  1

  0
TEXT
  5
B455
  8
1DIM
 62
   201
 10
585.45867664311334
 20
-950.12637206311558
 30
0.0
 40
3.5
  1
123
 50
90.0
  0
ENDBLK
  5
B457
  8
0
  0
BLOCK
  8
0
  2
*U59
 70
     1
 10
0.0
 20
0.0
 30
0.0
  3
*U59
  1

  0
TEXT
  5
B459
  8
1DIM
 62
   201
 10
556.96143112080233
 20
-867.54134172978252
 30
0.0
 40
3.5
  1
16
  0
ENDBLK
  5
B45B
  8
0
  0
BLOCK
  8
0
  2
*U60
 70
     1
 10
0.0
 20
0.0
 30
0.0
  3
*U60
  1

  0
TEXT
  5
B45D
  8
1DIM
 62
   201
 10
580.33582355339468
 20
-873.57308721179209
 30
0.0
 40
3.5
  1
R6
 50
40.135693142128751
  0
ENDBLK
  5
B45F
  8
0
  0
BLOCK
  8
0
  2
*U61
 70
     1
 10
0.0
 20
0.0
 30
0.0
  3
*U61
  1

  0
TEXT
  5
B461
  8
1DIM
 62
   201
 10
487.19477395413531
 20
-867.54134172978252
 30
0.0
 40
3.5
  1
57.7
  0
ENDBLK
  5
B463
  8
0
  0
BLOCK
  8
0
  2
*U62
 70
     1
 10
0.0
 20
0.0
 30
0.0
  3
*U62
  1

  0
TEXT
  5
B465
  8
1DIM
 62
   201
 10
499.37811328746852
 20
-873.58948653671268
 30
0.0
 40
3.5
  1
38
  0
ENDBLK
  5
B467
  8
0
  0
BLOCK
  8
0
  2
*U63
 70
     1
 10
0.0
 20
0.0
 30
0.0
  3
*U63
  1

  0
TEXT
  5
B469
  8
1DIM
 62
   201
 10
444.77452668605258
 20
-948.37637206311581
 30
0.0
 40
3.5
  1
81
 50
90.0
  0
ENDBLK
  5
B46B
  8
0
  0
BLOCK
  8
0
  2
*U64
 70
     1
 10
0.0
 20
0.0
 30
0.0
  3
*U64
  1

  0
TEXT
  5
B46D
  8
1DIM
 62
   201
 10
506.7280857874685
 20
-1020.085994733334
 30
0.0
 40
3.5
  1
2.7
  0
ENDBLK
  5
B46F
  8
0
  0
BLOCK
  8
0
  2
*U65
 70
     1
 10
0.0
 20
0.0
 30
0.0
  3
*U65
  1

  0
TEXT
  5
B471
  8
1DIM
 62
   201
 10
576.99476445413575
 20
-853.14708623620697
 30
0.0
 40
3.5
  1
対応扉厚：28～42
  0
ENDBLK
  5
B473
  8
0
  0
BLOCK
  8
0
  2
*U66
 70
     1
 10
0.0
 20
0.0
 30
0.0
  3
*U66
  1

  0
TEXT
  5
B475
  8
1DIM
 62
   201
 10
444.77452668605258
 20
-897.52638106311565
 30
0.0
 40
3.5
  1
21
 50
90.0
  0
ENDBLK
  5
B477
  8
0
  0
BLOCK
  8
0
  2
*U67
 70
     1
 10
0.0
 20
0.0
 30
0.0
  3
*U67
  1

  0
TEXT
  5
B479
  8
1DIM
 62
   201
 10
444.77452668605258
 20
-999.22637056311578
 30
0.0
 40
3.5
  1
21
 50
90.0
  0
ENDBLK
  5
B47B
  8
0
  0
BLOCK
  8
0
  2
*U68
 70
     1
 10
0.0
 20
0.0
 30
0.0
  3
*U68
  1

  0
TEXT
  5
B47D
  8
1DIM
 62
   201
 10
382.44008975858583
 20
-880.84303872978205
 30
0.0
 40
3.5
  1
11.5
 50
90.0
  0
ENDBLK
  5
B47F
  8
0
  0
BLOCK
  8
0
  2
*U69
 70
     1
 10
0.0
 20
0.0
 30
0.0
  3
*U69
  1

  0
TEXT
  5
B481
  8
1DIM
 62
   201
 10
382.44008975858583
 20
-966.34303872978205
 30
0.0
 40
3.5
  1
取付けねじピッチ100
 50
90.0
  0
ENDBLK
  5
B483
  8
0
  0
BLOCK
  8
0
  2
*U70
 70
     1
 10
0.0
 20
0.0
 30
0.0
  3
*U70
  1

  0
TEXT
  5
B485
  8
1DIM
 62
   201
 10
415.74488325657859
 20
-915.80970539644875
 30
0.0
 40
3.5
  1
上下調整範囲
 50
90.0
  0
TEXT
  5
B486
  8
1DIM
 62
   201
 10
421.5782165899119
 20
-916.62637206311547
 30
0.0
 40
3.5
  1
34.5~42.5
 50
90.0
  0
ENDBLK
  5
B488
  8
0
  0
BLOCK
  8
0
  2
*U71
 70
     1
 10
0.0
 20
0.0
 30
0.0
  3
*U71
  1

  0
TEXT
  5
B48A
  8
1DIM
 62
   201
 10
421.57821658991202
 20
-943.45970539644884
 30
0.0
 40
3.5
  1
31.5
 50
90.0
  0
ENDBLK
  5
B48C
  8
0
  0
BLOCK
  8
0
  2
*U72
 70
     1
 10
0.0
 20
0.0
 30
0.0
  3
*U72
  1

  0
TEXT
  5
B48E
  8
1DIM
 62
   201
 10
412.02460078051598
 20
-880.0919288292456
 30
0.0
 40
3.5
  1
R6
 50
43.605068500903919
  0
ENDBLK
  5
B490
  8
0
  0
BLOCK
  8
0
  2
*U73
 70
     1
 10
0.0
 20
0.0
 30
0.0
  3
*U73
  1

  0
TEXT
  5
B492
  8
1DIM
 62
   201
 10
398.90008955686159
 20
-931.88424274286979
 30
0.0
 40
3.5
  1
9
  0
ENDBLK
  5
B494
  8
0
  0
BLOCK
  8
0
  2
*U74
 70
     1
 10
0.0
 20
0.0
 30
0.0
  3
*U74
  1

  0
TEXT
  5
B496
  8
1DIM
 62
   201
 10
358.33427968889401
 20
-1021.25182368424
 30
0.0
 40
3.5
  1
14.5
  0
ENDBLK
  5
B498
  8
0
  0
BLOCK
  8
0
  2
*U75
 70
     1
 10
0.0
 20
0.0
 30
0.0
  3
*U75
  1

  0
TEXT
  5
B49A
  8
1DIM
 62
   201
 10
355.88427968889408
 20
-1013.412699531562
 30
0.0
 40
3.5
  1
2.5
  0
ENDBLK
  5
B49C
  8
0
  0
BLOCK
  8
0
  2
*U76
 70
     1
 10
0.0
 20
0.0
 30
0.0
  3
*U76
  1

  0
TEXT
  5
B49E
  8
1DIM
 62
   201
 10
332.16135594553822
 20
-962.15970539644854
 30
0.0
 40
3.5
  1
切欠き必要寸法75
 50
90.0
  0
ENDBLK
  5
B4A0
  8
0
  0
BLOCK
  8
0
  2
*U77
 70
     1
 10
0.0
 20
0.0
 30
0.0
  3
*U77
  1

  0
TEXT
  5
B4A2
  8
1DIM
 62
   201
 10
339.34223265142867
 20
-947.4597053964485
 30
0.0
 40
3.5
  1
67
 50
90.0
  0
ENDBLK
  5
B4A4
  8
0
  0
BLOCK
  8
0
  2
*U78
 70
     1
 10
0.0
 20
0.0
 30
0.0
  3
*U78
  1

  0
TEXT
  5
B4A6
  8
1DIM
 62
   201
 10
339.34223265142867
 20
-902.67637206311497
 30
0.0
 40
3.5
  1
4 可動シロ
 50
90.0
  0
ENDBLK
  5
B4A8
  8
0
  0
BLOCK
  8
0
  2
*U79
 70
     1
 10
0.0
 20
0.0
 30
0.0
  3
*U79
  1

  0
TEXT
  5
B4AA
  8
1DIM
 62
   201
 10
339.34223265142867
 20
-1007.409705396449
 30
0.0
 40
3.5
  1
4 可動シロ
 50
90.0
  0
ENDBLK
  5
B4AC
  8
0
  0
BLOCK
  8
0
  2
*U80
 70
     1
 10
0.0
 20
0.0
 30
0.0
  3
*U80
  1

  0
TEXT
  5
B4AE
  8
1DIM
 62
   201
 10
397.73342289019502
 20
-1021.25182368424
 30
0.0
 40
3.5
  1
16
  0
ENDBLK
  5
B4B0
  8
0
  0
BLOCK
  8
0
  2
*U81
 70
     1
 10
0.0
 20
0.0
 30
0.0
  3
*U81
  1

  0
TEXT
  5
B4B2
  8
1DIM
 62
   201
 10
429.15951656274569
 20
-950.12637206311535
 30
0.0
 40
3.5
  1
123
 50
90.0
  0
ENDBLK
  5
B4B4
  8
0
  0
BLOCK
  8
0
  2
*U82
 70
     1
 10
0.0
 20
0.0
 30
0.0
  3
*U82
  1

  0
TEXT
  5
B4B6
  8
1DIM
 62
   201
 10
580.99476096390936
 20
-980.41405436730804
 30
0.0
 40
3.5
  1
1.5
  0
ENDBLK
  5
B4B8
  8
0
  0
BLOCK
  8
0
  2
*U83
 70
     1
 10
0.0
 20
0.0
 30
0.0
  3
*U83
  1

  0
TEXT
  5
B4BA
  8
1DIM
 62
   201
 10
531.7614311208024
 20
-980.41405436730804
 30
0.0
 40
3.5
  1
1.5
  0
ENDBLK
  5
B4BC
  8
0
  0
BLOCK
  8
0
  2
*U84
 70
     1
 10
0.0
 20
0.0
 30
0.0
  3
*U84
  1

  0
TEXT
  5
B4BE
  8
1DIM
 62
   201
 10
598.35008536990051
 20
-879.70102434485091
 30
0.0
 40
3.5
  1
3
 50
90.0
  0
ENDBLK
  5
B4C0
  8
0
  0
BLOCK
  8
0
  2
*U85
 70
     1
 10
0.0
 20
0.0
 30
0.0
  3
*U85
  1

  0
TEXT
  5
B4C2
  8
1DIM
 62
   201
 10
592.46679571314428
 20
-868.16761909323566
 30
0.0
 40
3.5
  1
16
 50
90.0
  0
ENDBLK
  5
B4C4
  8
0
  0
BLOCK
  8
0
  2
*U86
 70
     1
 10
0.0
 20
0.0
 30
0.0
  3
*U86
  1

  0
TEXT
  5
B4C6
  8
1DIM
 62
   201
 10
679.19340579871391
 20
-867.45492371062687
 30
0.0
 40
3.5
  1
7
 50
90.0
  0
ENDBLK
  5
B4C8
  8
0
  0
BLOCK
  8
0
  2
*U87
 70
     1
 10
0.0
 20
0.0
 30
0.0
  3
*U87
  1

  0
TEXT
  5
B4CA
  8
1DIM
 62
   201
 10
480.37812878746848
 20
-1099.9380292187441
 30
0.0
 40
3.5
  1
38
  0
ENDBLK
  5
B4CC
  8
0
  0
BLOCK
  8
0
  2
*U88
 70
     1
 10
0.0
 20
0.0
 30
0.0
  3
*U88
  1

  0
TEXT
  5
B4CE
  8
1DIM
 62
   201
 10
453.04043518130999
 20
-1024.9782298749919
 30
0.0
 40
3.5
  1
160
 50
90.0
  0
ENDBLK
  5
B4D0
  8
0
  0
BLOCK
  8
0
  2
*U89
 70
     1
 10
0.0
 20
0.0
 30
0.0
  3
*U89
  1

  0
TEXT
  5
B4D2
  8
1DIM
 62
   201
 10
310.10733158419862
 20
-1024.301033857201
 30
0.0
 40
3.5
  1
13
 50
90.0
  0
ENDBLK
  5
B4D4
  8
0
  0
BLOCK
  8
0
  2
*U90
 70
     1
 10
0.0
 20
0.0
 30
0.0
  3
*U90
  1

  0
TEXT
  5
B4D6
  8
1DIM
 62
   201
 10
347.13959633846707
 20
-1024.301033857201
 30
0.0
 40
3.5
  1
16
 50
90.0
  0
ENDBLK
  5
B4D8
  8
0
  0
BLOCK
  8
0
  2
*U91
 70
     1
 10
0.0
 20
0.0
 30
0.0
  3
*U91
  1

  0
TEXT
  5
B4DA
  8
1DIM
 62
   201
 10
415.93393241900799
 20
-1056.435183966255
 30
0.0
 40
3.5
  1
φ4
 50
90.0
  0
ENDBLK
  5
B4DC
  8
0
  0
BLOCK
  8
0
  2
*U92
 70
     1
 10
0.0
 20
0.0
 30
0.0
  3
*U92
  1

  0
TEXT
  5
B4DE
  8
1DIM
 62
   201
 10
427.05330317490348
 20
-1075.028075348818
 30
0.0
 40
3.5
  1
25
  0
ENDBLK
  5
B4E0
  8
0
  0
BLOCK
  8
0
  2
*U93
 70
     1
 10
0.0
 20
0.0
 30
0.0
  3
*U93
  1

  0
TEXT
  5
B4E2
  8
1DIM
 62
   201
 10
410.32608216806727
 20
-1080.630430949926
 30
0.0
 40
3.5
  1
φ3.5
 50
90.0
  0
ENDBLK
  5
B4E4
  8
0
  0
BLOCK
  8
0
  2
*U94
 70
     1
 10
0.0
 20
0.0
 30
0.0
  3
*U94
  1

  0
TEXT
  5
B4E6
  8
1DIM
 62
   201
 10
380.76572928122772
 20
-1044.997228792859
 30
0.0
 40
3.5
  1
15
  0
ENDBLK
  5
B4E8
  8
0
  0
BLOCK
  8
0
  2
*U95
 70
     1
 10
0.0
 20
0.0
 30
0.0
  3
*U95
  1

  0
TEXT
  5
B4EA
  8
1DIM
 62
   201
 10
383.68239594789441
 20
-1072.1699160590281
 30
0.0
 40
3.5
  1
22
  0
ENDBLK
  5
B4EC
  8
0
  0
BLOCK
  8
0
  2
*U96
 70
     1
 10
0.0
 20
0.0
 30
0.0
  3
*U96
  1

  0
TEXT
  5
B4EE
  8
1DIM
 62
   201
 10
369.3314737382205
 20
-1079.6323504056979
 30
0.0
 40
3.5
  1
4
 50
90.0
  0
ENDBLK
  5
B4F0
  8
0
  0
BLOCK
  8
0
  2
*U97
 70
     1
 10
0.0
 20
0.0
 30
0.0
  3
*U97
  1

  0
TEXT
  5
B4F2
  8
1DIM
 62
   201
 10
403.89186053491221
 20
-1073.215683739031
 30
0.0
 40
3.5
  1
φ6
 50
90.0
  0
ENDBLK
  5
B4F4
  8
0
  0
BLOCK
  8
0
  2
*U98
 70
     1
 10
0.0
 20
0.0
 30
0.0
  3
*U98
  1

  0
TEXT
  5
B4F6
  8
1DIM
 62
   201
 10
348.4221339618922
 20
-1039.9423884739549
 30
0.0
 40
3.5
  1
22
  0
ENDBLK
  5
B4F8
  8
0
  0
BLOCK
  8
0
  2
*U99
 70
     1
 10
0.0
 20
0.0
 30
0.0
  3
*U99
  1

  0
TEXT
  5
B4FA
  8
1DIM
 62
   201
 10
345.9221339618959
 20
-1062.296898814041
 30
0.0
 40
3.5
  1
27
  0
ENDBLK
  5
B4FC
  8
0
  0
BLOCK
  8
0
  2
*U100
 70
     1
 10
0.0
 20
0.0
 30
0.0
  3
*U100
  1

  0
TEXT
  5
B4FE
  8
1DIM
 62
   201
 10
343.42213396189771
 20
-1083.5900984360151
 30
0.0
 40
3.5
  1
32
  0
ENDBLK
  5
B500
  8
0
  0
BLOCK
  8
0
  2
*U101
 70
     1
 10
0.0
 20
0.0
 30
0.0
  3
*U101
  1

  0
TEXT
  5
B502
  8
1DIM
 62
   201
 10
429.84497565853042
 20
-1043.5930027254151
 30
0.0
 40
3.5
  1
20
  0
ENDBLK
  5
B504
  8
0
  0
BLOCK
  8
0
  2
*U102
 70
     1
 10
0.0
 20
0.0
 30
0.0
  3
*U102
  1

  0
TEXT
  5
B506
  8
1DIM
 62
   201
 10
523.62811526369535
 20
-1020.085994733334
 30
0.0
 40
3.5
  1
7
  0
ENDBLK
  5
B508
  8
0
  0
BLOCK
  8
0
  2
*U103
 70
     1
 10
0.0
 20
0.0
 30
0.0
  3
*U103
  1

  0
TEXT
  5
B50A
  8
1DIM
 62
   201
 10
524.92668606775862
 20
-867.54134172978252
 30
0.0
 40
3.5
  1
12
  0
ENDBLK
  5
B50C
  8
0
  0
ENDSEC
  0
SECTION
  2
ENTITIES
  0
LINE
  5
97CF
  8
01
 10
621.79473345413521
 20
-932.0430387297788
 30
0.0
 11
658.79473345413885
 21
-932.04303872978608
 31
0.0
  0
LINE
  5
97D0
  8
01
 10
621.79473345412794
 20
-1092.0430387297861
 30
0.0
 11
658.79473345413157
 21
-1092.0430387297861
 31
0.0
  0
LINE
  5
97D1
  8
01
 10
659.29473345413885
 20
-932.54303872978596
 30
0.0
 11
659.29473345413157
 21
-1091.5430387297861
 31
0.0
  0
LINE
  5
97D4
  8
01
 10
626.29473345412055
 20
-943.04303872978255
 30
0.0
 11
626.29473345411702
 21
-1081.0430387297929
 31
0.0
  0
LINE
  5
97D7
  8
01
 10
627.29473345412055
 20
-942.04303872978255
 30
0.0
 11
653.29473345413521
 21
-942.04303872978255
 31
0.0
  0
LINE
  5
97DA
  8
01
 10
654.29473345413521
 20
-943.04303872978255
 30
0.0
 11
654.29473345415704
 21
-1081.0430387297681
 31
0.0
  0
LINE
  5
97DB
  8
01
 10
627.29473345411702
 20
-1082.0430387297929
 30
0.0
 11
653.29473345415704
 21
-1082.0430387297681
 31
0.0
  0
CIRCLE
  5
97DC
  8
1DIM
 10
640.29473345413521
 20
-947.54303872978255
 30
0.0
 40
3.2000000000000002
  0
LINE
  5
97DD
  8
1PHANTOM
 10
626.29473345413157
 20
-978.04303872978244
 30
0.0
 11
654.29473345413521
 21
-978.04303872977869
 31
0.0
  0
ARC
  5
97DE
  8
01
 10
640.29473345413521
 20
-960.04303872978255
 30
0.0
 40
6.0
 50
198.5283562368501
 51
341.4716437631343
  0
CIRCLE
  5
97DF
  8
01
 10
640.29473345413521
 20
-947.54303872978255
 30
0.0
 40
2.1000000000000001
  0
CIRCLE
  5
97E0
  8
01
 10
640.29473345412794
 20
-1076.543038729782
 30
0.0
 40
2.1000000000000001
  0
CIRCLE
  5
97E1
  8
1DIM
 10
640.29473345412794
 20
-1076.543038729782
 30
0.0
 40
3.2000000000000002
  0
ARC
  5
97EB
  8
01
 10
621.79473345412794
 20
-1091.5430387297861
 30
0.0
 40
0.5
 50
180.0
 51
270.0
  0
ARC
  5
97EC
  8
01
 10
658.79473345413157
 20
-1091.5430387297861
 30
0.0
 40
0.5
 50
270.0
 51
0.0
  0
ARC
  5
97ED
  8
01
 10
621.79473345413521
 20
-932.54303872977869
 30
0.0
 40
0.5
 50
90.0
 51
180.0
  0
ARC
  5
97EE
  8
01
 10
658.79473345413885
 20
-932.54303872978596
 30
0.0
 40
0.5
 50
0.0
 51
90.0
  0
ARC
  5
981E
  8
01
 10
653.29473345413521
 20
-943.04303872978255
 30
0.0
 40
1.0
 50
0.0
 51
90.0
  0
ARC
  5
981F
  8
01
 10
627.29473345412055
 20
-943.04303872978255
 30
0.0
 40
1.0
 50
90.0
 51
180.0
  0
ARC
  5
9820
  8
01
 10
653.29473345415704
 20
-1081.0430387297681
 30
0.0
 40
1.0
 50
270.0
 51
0.0
  0
ARC
  5
9821
  8
01
 10
627.29473345411702
 20
-1081.0430387297929
 30
0.0
 40
1.0
 50
180.0
 51
270.0
  0
LINE
  5
98DE
  8
01
 10
469.29479545413892
 20
-1071.043038729782
 30
0.0
 11
469.29479545413523
 21
-979.04303872978971
 31
0.0
  0
LINE
  5
98DF
  8
01
 10
497.29479545413528
 20
-979.04303872978244
 30
0.0
 11
497.29479545413159
 21
-1071.0430387297899
 31
0.0
  0
LINE
  5
98E1
  8
01
 10
464.29479545413528
 20
-1091.543038729782
 30
0.0
 11
464.29479545413528
 21
-932.54303872978244
 31
0.0
  0
LINE
  5
98EB
  8
01
 10
501.79479545413528
 20
-1092.043038729782
 30
0.0
 11
464.79479545413523
 21
-1092.043038729782
 31
0.0
  0
LINE
  5
98F2
  8
01
 10
496.29479545413159
 20
-1072.043038729789
 30
0.0
 11
470.29479545413892
 21
-1072.043038729782
 31
0.0
  0
CIRCLE
  5
990A
  8
01
 10
483.29479545413523
 20
-960.04303872978255
 30
0.0
 40
4.7000000000000002
  0
LINE
  5
990F
  8
01
 10
496.29479545413528
 20
-978.04303872978244
 30
0.0
 11
470.29479545413523
 21
-978.04303872978971
 31
0.0
  0
ARC
  5
9919
  8
01
 10
488.75865383676972
 20
-961.66669250276061
 30
0.0
 40
1.0
 50
163.45002542691191
 51
277.88405415865469
  0
ARC
  5
9926
  8
01
 10
484.91844922711363
 20
-965.50689711241694
 30
0.0
 40
1.0
 50
352.11594584134832
 51
106.54997457309069
  0
CIRCLE
  5
9927
  8
01
 10
489.3759137723402
 20
-966.1241570479873
 30
0.0
 40
2.399999999999999
  0
ARC
  5
9928
  8
01
 10
489.3759137723402
 20
-966.1241570479873
 30
0.0
 40
3.5
 50
172.11594584134821
 51
97.884054158654777
  0
LINE
  5
9929
  8
01
 10
464.79479545413523
 20
-932.04303872978244
 30
0.0
 11
501.79479545413892
 21
-932.04303872978244
 31
0.0
  0
ARC
  5
993E
  8
01
 10
501.79479545413892
 20
-932.54303872978244
 30
0.0
 40
0.5
 50
0.0
 51
90.0
  0
ARC
  5
993F
  8
01
 10
464.79479545413523
 20
-932.54303872978244
 30
0.0
 40
0.5
 50
90.0
 51
180.0
  0
ARC
  5
9940
  8
01
 10
464.79479545413523
 20
-1091.543038729782
 30
0.0
 40
0.5
 50
180.0
 51
270.0
  0
ARC
  5
9941
  8
01
 10
501.79479545413528
 20
-1091.543038729782
 30
0.0
 40
0.5
 50
270.0
 51
0.0
  0
ARC
  5
9943
  8
01
 10
470.29479545413892
 20
-1071.043038729782
 30
0.0
 40
1.0
 50
180.0
 51
270.0
  0
ARC
  5
9944
  8
01
 10
496.29479545413159
 20
-1071.0430387297899
 30
0.0
 40
1.0
 50
270.0
 51
0.0
  0
ARC
  5
9945
  8
01
 10
496.29479545413528
 20
-979.04303872978244
 30
0.0
 40
1.0
 50
0.0
 51
90.0
  0
ARC
  5
9946
  8
01
 10
470.29479545413523
 20
-979.04303872978971
 30
0.0
 40
1.0
 50
90.0
 51
180.0
  0
LINE
  5
99E9
  8
01
 10
653.2184076014421
 20
-961.94968244237725
 30
0.0
 11
627.37105930682469
 21
-961.94968244237361
 31
0.0
  0
LINE
  5
99EA
  8
01
 10
653.19671840767501
 20
-957.94968244237725
 30
0.0
 11
627.39274850059542
 21
-957.94968244238453
 31
0.0
  0
ARC
  5
99F0
  8
01
 10
640.29473345413521
 20
-960.04303872978255
 30
0.0
 40
13.5
 50
172.95979062820209
 51
186.2117576298057
  0
ARC
  5
99F1
  8
01
 10
640.29473345413521
 20
-960.04303872978255
 30
0.0
 40
5.7999999999956344
 50
199.1918113766896
 51
340.80818862331029
  0
ARC
  5
99F3
  8
01
 10
640.29473345413521
 20
-960.04303872978255
 30
0.0
 40
13.5
 50
353.78824237019421
 51
7.0402093720017014
  0
ARC
  5
99F5
  8
01
 10
653.19671840767501
 20
-958.44968244236998
 30
0.0
 40
0.5
 50
7.0402093717979017
 51
90.0
  0
ARC
  5
99F6
  8
01
 10
653.2184076014421
 20
-961.44968244237725
 30
0.0
 40
0.5
 50
270.0
 51
353.78824237019421
  0
ARC
  5
99F7
  8
01
 10
627.37105930682469
 20
-961.44968244237725
 30
0.0
 40
0.5
 50
186.2117576298057
 51
270.0
  0
ARC
  5
99F8
  8
01
 10
627.39274850059542
 20
-958.44968244238464
 30
0.0
 40
0.5
 50
90.0
 51
172.95979062820209
  0
ARC
  5
99FB
  8
01
 10
640.29473345413521
 20
-960.04303872978255
 30
0.0
 40
5.7999999999956344
 50
21.156922017011929
 51
158.84307798298809
  0
ARC
  5
9A16
  8
01
 10
640.29473345413521
 20
-960.04303872978255
 30
0.0
 40
6.0
 50
20.419603544439671
 51
159.5803964555933
  0
ARC
  5
9A7A
  8
01
 10
483.29479545413523
 20
-960.04303872978255
 30
0.0
 40
4.5
 50
12.83958840694798
 51
167.160411593052
  0
LINE
  5
9A7B
  8
1DIM
 10
487.68227764783131
 20
-959.04303872978255
 30
0.0
 11
478.90731326044011
 21
-959.04303872978255
 31
0.0
  0
LINE
  5
9A7C
  8
1DIM
 10
487.6822776478304
 20
-961.04303872978244
 30
0.0
 11
478.9073132604392
 21
-961.04303872978244
 31
0.0
  0
ARC
  5
9A7D
  8
01
 10
483.29479545413523
 20
-960.04303872978255
 30
0.0
 40
4.5
 50
347.16041159305212
 51
12.83958840694798
  0
ARC
  5
9A7E
  8
01
 10
483.29479545413523
 20
-960.04303872978255
 30
0.0
 40
4.5
 50
167.160411593052
 51
192.839588406948
  0
ARC
  5
9A7F
  8
01
 10
483.29479545413523
 20
-960.04303872978255
 30
0.0
 40
4.5
 50
192.839588406948
 51
347.16041159305212
  0
LINE
  5
9A86
  8
01
 10
502.29479545413892
 20
-932.54303872978244
 30
0.0
 11
502.29479545413523
 21
-1091.543038729782
 31
0.0
  0
LINE
  5
9A87
  8
01
 10
621.29473345413521
 20
-932.54303872977869
 30
0.0
 11
621.29473345413885
 21
-1091.543038729779
 31
0.0
  0
LINE
  5
A198
  8
01
 10
560.2947644541357
 20
-941.54304072978255
 30
0.0
 11
560.2947644541357
 21
-963.54303872978255
 31
0.0
  0
LINE
  5
A199
  8
01
 10
558.2947644541357
 20
-941.54304072978255
 30
0.0
 11
558.2947644541357
 21
-963.54303872978255
 31
0.0
  0
LINE
  5
A19A
  8
1CENTER
 10
559.29476445413559
 20
-880.67626272978259
 30
0.0
 11
559.29476445413559
 21
-1013.077889729782
 31
0.0
  0
LINE
  5
A19B
  8
01
 10
567.29476445413559
 20
-890.54303872978244
 30
0.0
 11
567.29476445413559
 21
-1001.543038729782
 31
0.0
  0
LINE
  5
A19C
  8
01
 10
551.29476445413559
 20
-890.54303872978244
 30
0.0
 11
551.29476445413559
 21
-1001.543038729782
 31
0.0
  0
CIRCLE
  5
A19E
  8
01
 10
559.29476445413559
 20
-981.33982582859664
 30
0.0
 40
2.0
  0
CIRCLE
  5
A19F
  8
01
 10
559.29476445413559
 20
-999.04303872978232
 30
0.0
 40
3.4000015000000001
  0
CIRCLE
  5
A1A0
  8
01
 10
559.29476445413559
 20
-999.04303872978232
 30
0.0
 40
4.4000009999999996
  0
LINE
  5
A1A1
  8
1CENTER
 10
564.79983045413564
 20
-999.04303872978232
 30
0.0
 11
553.21859345413577
 21
-999.04303872978232
 31
0.0
  0
LINE
  5
A1A2
  8
01
 10
561.2947644541357
 20
-1007.543038729782
 30
0.0
 11
557.2947644541357
 21
-1007.543038729782
 31
0.0
  0
ARC
  5
A1A3
  8
01
 10
561.2947644541357
 20
-1001.543038729782
 30
0.0
 40
6.0
 50
270.0
 51
0.0000100000010064
  0
LINE
  5
A1A4
  8
01
 10
560.2947644541357
 20
-963.54303872978255
 30
0.0
 11
558.2947644541357
 21
-963.54303872978255
 31
0.0
  0
ARC
  5
A1A5
  8
01
 10
557.2947644541357
 20
-1001.543038729782
 30
0.0
 40
6.0
 50
180.0
 51
270.0
  0
CIRCLE
  5
A1A9
  8
01
 10
559.29476445413559
 20
-893.04303872978255
 30
0.0
 40
4.4000009999999996
  0
CIRCLE
  5
A1AA
  8
01
 10
559.29476445413559
 20
-893.04303872978255
 30
0.0
 40
3.4000015000000001
  0
ARC
  5
A1AB
  8
01
 10
557.9947774541356
 20
-953.54304062978235
 30
0.0
 40
0.5
 50
180.0
 51
270.0
  0
ARC
  5
A1AC
  8
01
 10
557.9947774541356
 20
-922.04303872978244
 30
0.0
 40
0.5
 50
89.999997000002296
 51
180.0
  0
ARC
  5
A1AD
  8
01
 10
560.59475245413557
 20
-953.54304062978235
 30
0.0
 40
0.5
 50
270.0
 51
0.0000100000010064
  0
ARC
  5
A1AE
  8
01
 10
560.59475245413557
 20
-922.04303872978244
 30
0.0
 40
0.5
 50
359.999989999999
 51
89.999997000002296
  0
LINE
  5
A1AF
  8
01
 10
558.2947644541357
 20
-954.04304062978235
 30
0.0
 11
557.9947774541356
 21
-954.04304062978235
 31
0.0
  0
LINE
  5
A1B0
  8
01
 10
561.09475245413569
 20
-922.04303872978244
 30
0.0
 11
561.09475245413569
 21
-953.54304062978235
 31
0.0
  0
LINE
  5
A1B1
  8
01
 10
560.59475245413557
 20
-954.04304062978235
 30
0.0
 11
560.2947644541357
 21
-954.04304062978235
 31
0.0
  0
LINE
  5
A1B2
  8
01
 10
560.59475245413557
 20
-921.54303872978255
 30
0.0
 11
557.9947774541356
 21
-921.54303872978255
 31
0.0
  0
LINE
  5
A1B3
  8
01
 10
560.2947644541357
 20
-941.54304072978255
 30
0.0
 11
558.2947644541357
 21
-941.54304072978255
 31
0.0
  0
LINE
  5
A1B5
  8
01
 10
557.4947774541356
 20
-922.04303872978244
 30
0.0
 11
557.4947774541356
 21
-953.54304062978235
 31
0.0
  0
LINE
  5
A1B7
  8
1CENTER
 10
564.79983045413564
 20
-893.04303872978255
 30
0.0
 11
553.21859345413577
 21
-893.04303872978255
 31
0.0
  0
LINE
  5
A1B8
  8
01
 10
561.2947644541357
 20
-884.54303872978244
 30
0.0
 11
557.2947644541357
 21
-884.54303872978244
 31
0.0
  0
ARC
  5
A1BA
  8
01
 10
561.2947644541357
 20
-890.54303872978244
 30
0.0
 40
6.0
 50
359.999989999999
 51
89.999997000002296
  0
ARC
  5
A1BB
  8
01
 10
557.2947644541357
 20
-890.54303872978244
 30
0.0
 40
6.0
 50
89.999997000002296
 51
180.0
  0
LINE
  5
A1BC
  8
1CENTER
 10
483.29479545413523
 20
-934.94960872978265
 30
0.0
 11
483.29479545413523
 21
-982.95741972978249
 31
0.0
  0
LINE
  5
A1BD
  8
01
 10
519.79476445413525
 20
-884.54303872978244
 30
0.0
 11
519.79476445413525
 21
-1007.543038729782
 31
0.0
  0
LINE
  5
A1BE
  8
01
 10
521.29476445413525
 20
-884.54303872978244
 30
0.0
 11
521.29476445413525
 21
-1007.543038729782
 31
0.0
  0
LINE
  5
A1C0
  8
1CENTER
 10
506.58318245413528
 20
-960.04303872978255
 30
0.0
 11
459.56007945413529
 21
-960.04303872978255
 31
0.0
  0
LINE
  5
A1C1
  8
01
 10
518.59475245413523
 20
-986.2430357297826
 30
0.0
 11
502.29479545413761
 21
-986.2430357297826
 31
0.0
  0
LINE
  5
A1C2
  8
01
 10
518.59475245413523
 20
-986.2430357297826
 30
0.0
 11
518.59475245413523
 21
-1007.043038729782
 31
0.0
  0
LINE
  5
A1C3
  8
01
 10
519.79476445413525
 20
-1007.043038729782
 30
0.0
 11
518.59475245413523
 21
-1007.043038729782
 31
0.0
  0
LINE
  5
A1C4
  8
1CENTER
 10
525.69497245413515
 20
-999.04303872978232
 30
0.0
 11
514.19839045413516
 21
-999.04303872978232
 31
0.0
  0
LINE
  5
A1C5
  8
01
 10
521.29476445413525
 20
-1007.543038729782
 30
0.0
 11
519.79476445413525
 21
-1007.543038729782
 31
0.0
  0
LINE
  5
A1C7
  8
01
 10
464.29479545413523
 20
-985.7430713964003
 30
0.0
 11
463.59478345413532
 21
-985.04306172977545
 31
0.0
  0
LINE
  5
A1CA
  8
01
 10
518.59475245413523
 20
-905.84304172978216
 30
0.0
 11
464.7947644541353
 21
-905.84304172978216
 31
0.0
  0
LINE
  5
A1CB
  8
01
 10
518.59475245413523
 20
-885.04303872978255
 30
0.0
 11
518.59475245413523
 21
-905.84304172978216
 31
0.0
  0
LINE
  5
A1CF
  8
1CENTER
 10
524.28652545413524
 20
-893.04303872978255
 30
0.0
 11
516.00741145413531
 21
-893.04303872978255
 31
0.0
  0
LINE
  5
A1D0
  8
01
 10
519.79476445413525
 20
-885.04303872978255
 30
0.0
 11
518.59475245413523
 21
-885.04303872978255
 31
0.0
  0
LINE
  5
A1D1
  8
01
 10
521.29476445413525
 20
-884.54303872978244
 30
0.0
 11
519.79476445413525
 21
-884.54303872978244
 31
0.0
  0
LINE
  5
A1D2
  8
01
 10
464.79476145413543
 20
-905.84305672978235
 30
0.0
 11
463.59476245413538
 21
-907.04304972978264
 31
0.0
  0
LINE
  5
A1D3
  8
01
 10
463.59478345413532
 20
-907.04303872978244
 30
0.0
 11
463.59478345413532
 21
-985.04306172977545
 31
0.0
  0
POINT
  5
A1D4
  8
01
 10
559.29476445413559
 20
-893.04303872978255
 30
0.0
  0
LINE
  5
A1D5
  8
01
 10
659.99474545413523
 20
-907.04303872978244
 30
0.0
 11
659.99474545413523
 21
-985.04306172977567
 31
0.0
  0
LINE
  5
A1D6
  8
01
 10
658.79476745413513
 20
-905.84305672978235
 30
0.0
 11
659.99476645413506
 21
-907.04304972978264
 31
0.0
  0
LINE
  5
A1D7
  8
01
 10
602.29476445413536
 20
-884.54303872978244
 30
0.0
 11
603.79476445413536
 21
-884.54303872978244
 31
0.0
  0
LINE
  5
A1D8
  8
01
 10
603.79476445413536
 20
-885.04303872978255
 30
0.0
 11
604.99477645413515
 21
-885.04303872978255
 31
0.0
  0
LINE
  5
A1D9
  8
1CENTER
 10
599.30300345413525
 20
-893.04303872978255
 30
0.0
 11
607.58211745413519
 21
-893.04303872978255
 31
0.0
  0
LINE
  5
A1DD
  8
01
 10
604.99477645413515
 20
-885.04303872978255
 30
0.0
 11
604.99477645413515
 21
-905.84304172978216
 31
0.0
  0
LINE
  5
A1DE
  8
01
 10
604.99477645413515
 20
-905.84304172978216
 30
0.0
 11
658.79476445413525
 21
-905.84304172978216
 31
0.0
  0
LINE
  5
A1DF
  8
1HIDDEN
 10
658.79474845413495
 20
-986.24305472978222
 30
0.0
 11
659.29473345413635
 21
-985.74307139639905
 31
0.0
  0
LINE
  5
A1E1
  8
01
 10
602.29476445413536
 20
-1007.543038729782
 30
0.0
 11
603.79476445413536
 21
-1007.543038729782
 31
0.0
  0
LINE
  5
A1E2
  8
1CENTER
 10
597.89455645413545
 20
-999.04303872978232
 30
0.0
 11
609.3911384541351
 21
-999.04303872978232
 31
0.0
  0
LINE
  5
A1E3
  8
01
 10
603.79476445413536
 20
-1007.043038729782
 30
0.0
 11
604.99477645413515
 21
-1007.043038729782
 31
0.0
  0
LINE
  5
A1E4
  8
01
 10
604.99477645413515
 20
-986.2430357297826
 30
0.0
 11
604.99477645413515
 21
-1007.043038729782
 31
0.0
  0
LINE
  5
A1E5
  8
01
 10
604.99477645413515
 20
-986.2430357297826
 30
0.0
 11
621.29473345413646
 21
-986.2430357297826
 31
0.0
  0
LINE
  5
A1E7
  8
01
 10
602.29476445413536
 20
-884.54303872978244
 30
0.0
 11
602.29476445413536
 21
-1007.543038729782
 31
0.0
  0
LINE
  5
A1E8
  8
01
 10
603.79476445413536
 20
-884.54303872978244
 30
0.0
 11
603.79476445413536
 21
-1007.543038729782
 31
0.0
  0
LINE
  5
A1E9
  8
1CENTER
 10
640.29473345413521
 20
-934.94960872978265
 30
0.0
 11
640.29473345413521
 21
-982.95741972978249
 31
0.0
  0
POINT
  5
A1F2
  8
01
 10
503.29479545413523
 20
-960.04303872978255
 30
0.0
  0
POINT
  5
A1F3
  8
01
 10
463.29479545413528
 20
-960.04303872978255
 30
0.0
  0
LINE
  5
A1F9
  8
01
 10
544.2947644541357
 20
-863.31269417453973
 30
0.0
 11
544.2947644541357
 21
-1037.0747129149561
 31
0.0
  0
LINE
  5
A1FA
  8
01
 10
574.2947644541357
 20
-863.3663496190868
 30
0.0
 11
574.2947644541357
 21
-1037.0747129149561
 31
0.0
  0
POINT
  5
A209
  8
01
 10
503.29479545413523
 20
-960.04303872978255
 30
0.0
 50
180.0
  0
POINT
  5
A20F
  8
01
 10
463.29479545413528
 20
-960.04303872978255
 30
0.0
 50
180.0
  0
ARC
  5
A213
  8
01
  6
BYBLOCK
 10
543.29476445413559
 20
-932.54303872978232
 30
0.0
 40
0.5
 50
90.0
 51
180.0
  0
LINE
  5
A214
  8
01
  6
BYBLOCK
 10
544.2947644541357
 20
-932.04303872978244
 30
0.0
 11
543.29476445413559
 21
-932.04303872978244
 31
0.0
  0
LINE
  5
A215
  8
01
  6
BYBLOCK
 10
544.2947644541357
 20
-932.04303872978244
 30
0.0
 11
544.29476445413547
 21
-1037.0747129149561
 31
0.0
  0
LINE
  5
A217
  8
01
  6
BYBLOCK
 10
575.79473656455355
 20
-932.53810619877993
 30
0.0
 11
575.79455297380741
 21
-1037.0747129149561
 31
0.0
  0
LINE
  5
A219
  8
01
  6
BYBLOCK
 10
575.2947644541141
 20
-932.04304571016678
 30
0.0
 11
574.2947644541357
 21
-932.04303872978244
 31
0.0
  0
ARC
  5
A21A
  8
01
  6
BYBLOCK
 10
575.29476096392159
 20
-932.54304571015484
 30
0.0
 40
0.5
 50
359.99960005341183
 51
89.999600053411768
  0
LINE
  5
A21C
  8
01
  6
BYBLOCK
 10
574.2947644541357
 20
-932.04303872978244
 30
0.0
 11
574.2947644541357
 21
-1037.0747129149561
 31
0.0
  0
TEXT
  5
A22A
  8
1TEXT
 10
324.73992107597911
 20
-858.80241597412135
 30
0.0
 40
7.0
  1
3-KM-07-X
  0
LINE
  5
A22B
  8
1TEXT
 10
527.31230198059325
 20
-1081.3125740266339
 30
0.0
 11
597.31230198059325
 21
-1081.3125740266339
 31
0.0
  0
LINE
  5
A22C
  8
1TEXT
 10
527.31230198059325
 20
-1074.3125740266339
 30
0.0
 11
597.31230198059325
 21
-1074.3125740266339
 31
0.0
  0
LINE
  5
A22D
  8
1TEXT
 10
527.31230198059325
 20
-1067.3125740266339
 30
0.0
 11
597.31230198059325
 21
-1067.3125740266339
 31
0.0
  0
LINE
  5
A22E
  8
1TEXT
 10
527.31230198059325
 20
-1060.3125740266339
 30
0.0
 11
597.31230198059325
 21
-1060.3125740266339
 31
0.0
  0
LINE
  5
A22F
  8
1TEXT
 10
527.31230198059325
 20
-1060.3125740266339
 30
0.0
 11
597.31230198059325
 21
-1060.3125740266339
 31
0.0
  0
LINE
  5
A230
  8
1TEXT
 10
527.31230198059325
 20
-1067.3125740266339
 30
0.0
 11
597.31230198059325
 21
-1067.3125740266339
 31
0.0
  0
LINE
  5
A231
  8
1TEXT
 10
527.31230198059325
 20
-1053.3125740266339
 30
0.0
 11
597.31230198059325
 21
-1053.3125740266339
 31
0.0
  0
LINE
  5
A232
  8
1TEXT
 10
527.31230198059325
 20
-1046.3125740266339
 30
0.0
 11
597.31230198059325
 21
-1046.3125740266339
 31
0.0
  0
LINE
  5
A233
  8
1TEXT
 10
562.31230198059325
 20
-1046.3125740266339
 30
0.0
 11
562.31230198059347
 21
-1088.3125740266339
 31
0.0
  0
LINE
  5
A234
  8
1TEXT
 10
527.31230198059325
 20
-1046.3125740266339
 30
0.0
 11
527.31230198059336
 21
-1088.3125740266339
 31
0.0
  0
TEXT
  5
A235
  8
1TEXT
 10
528.44563531392657
 20
-1065.7824874427799
 30
0.0
 40
4.0
  1
サテンニッケル
 72
     1
 11
544.71230198059334
 21
-1065.7824874427799
 31
0.0
  0
TEXT
  5
A236
  8
1TEXT
 10
535.37896864725985
 20
-1058.7824874427799
 30
0.0
 40
4.0
  1
クローム
 72
     1
 11
544.71230198059334
 21
-1058.7824874427799
 31
0.0
  0
TEXT
  5
A237
  8
1TEXT
 10
528.31230198059325
 20
-1072.7824874427799
 30
0.0
 40
4.0
  1
パールクローム
 72
     1
 11
544.71230198059334
 21
-1072.7824874427799
 31
0.0
  0
TEXT
  5
A238
  8
1TEXT
 10
536.77896864725994
 20
-1051.8125740266339
 30
0.0
 40
3.5
  1
表面処理
 72
     1
 11
544.71230198059334
 21
-1051.8125740266339
 31
0.0
  0
TEXT
  5
A239
  8
1TEXT
 10
528.44563531392657
 20
-1086.7824874427799
 30
0.0
 40
4.0
  1
パールブラック
 72
     1
 11
544.71230198059334
 21
-1086.7824874427799
 31
0.0
  0
TEXT
  5
A23A
  8
1TEXT
 10
533.51230198059329
 20
-1079.7824874427799
 30
0.0
 40
4.0
  1
本金メッキ
 72
     1
 11
544.71230198059334
 21
-1079.7824874427799
 31
0.0
  0
LINE
  5
A23C
  8
1TEXT
 10
527.31230198059325
 20
-1088.3125740266339
 30
0.0
 11
597.31230198059325
 21
-1088.3125740266339
 31
0.0
  0
LINE
  5
A23D
  8
1TEXT
 10
527.31230198059325
 20
-1088.3125740266339
 30
0.0
 11
597.31230198059325
 21
-1088.3125740266339
 31
0.0
  0
TEXT
  5
A23F
  8
1TEXT
 10
567.13794683645335
 20
-1065.7824874427799
 30
0.0
 40
4.0
  1
3-KM-07-XN
 41
0.7
 72
     1
 11
580.43794683645342
 21
-1065.7824874427799
 31
0.0
  0
LINE
  5
A240
  8
1TEXT
 10
597.31230198059325
 20
-1046.3125740266339
 30
0.0
 11
597.31230198059336
 21
-1088.3125740266339
 31
0.0
  0
TEXT
  5
A242
  8
1TEXT
 10
567.13794683645335
 20
-1086.7824874427799
 30
0.0
 40
4.0
  1
3-KM-07-GQ
 41
0.7
 72
     1
 11
580.43794683645342
 21
-1086.7824874427799
 31
0.0
  0
TEXT
  5
A243
  8
1TEXT
 10
567.13794683645335
 20
-1079.7824874427799
 30
0.0
 40
4.0
  1
3-KM-07-XG
 41
0.7
 72
     1
 11
580.43794683645342
 21
-1079.7824874427799
 31
0.0
  0
TEXT
  5
A244
  8
1TEXT
 10
567.13794683645335
 20
-1072.7824874427799
 30
0.0
 40
4.0
  1
3-KM-07-XB
 41
0.7
 72
     1
 11
580.43794683645342
 21
-1072.7824874427799
 31
0.0
  0
TEXT
  5
A245
  8
1TEXT
 10
567.13794683645335
 20
-1058.7824874427799
 30
0.0
 40
4.0
  1
3-KM-07-XC
 41
0.7
 72
     1
 11
580.43794683645342
 21
-1058.7824874427799
 31
0.0
  0
TEXT
  5
A246
  8
1TEXT
 10
572.91230198059338
 20
-1051.8125740266339
 30
0.0
 40
4.0
  1
コード
 72
     1
 11
579.71230198059334
 21
-1051.8125740266339
 31
0.0
  0
LINE
  5
A247
  8
01
  6
BYBLOCK
 10
650.57208057875778
 20
-864.18826504396054
 30
0.0
 11
670.57208057875778
 21
-864.18826504396054
 31
0.0
  0
LINE
  5
A248
  8
1CENTER
 10
598.7319927233475
 20
-866.28825604396047
 30
0.0
 11
673.1964504595453
 21
-866.28825604396047
 31
0.0
  0
LINE
  5
A249
  8
01
  6
BYBLOCK
 10
600.87208410875758
 20
-864.78825604396025
 30
0.0
 11
612.87208410875758
 21
-864.78825604396047
 31
0.0
  0
LINE
  5
A24A
  8
01
  6
BYBLOCK
 10
600.87208410875758
 20
-867.78825604396036
 30
0.0
 11
612.87208410875758
 21
-867.78825604396036
 31
0.0
  0
LINE
  5
A24B
  8
01
  6
BYBLOCK
 10
615.57208107875772
 20
-869.58825104396055
 30
0.0
 11
669.37208057875773
 21
-869.58825104396055
 31
0.0
  0
LINE
  5
A24C
  8
01
  6
BYBLOCK
 10
621.57208107875772
 20
-864.18826504396054
 30
0.0
 11
645.57208057875778
 21
-864.18826504396054
 31
0.0
  0
LINE
  5
A24D
  8
01
  6
BYBLOCK
 10
621.57208107875772
 20
-862.98826004396051
 30
0.0
 11
621.57208107875772
 21
-864.18826504396054
 31
0.0
  0
LINE
  5
A24E
  8
01
  6
BYBLOCK
 10
615.57208107875772
 20
-858.28825604396047
 30
0.0
 11
615.57208107875772
 21
-866.28825604396047
 31
0.0
  0
LINE
  5
A24F
  8
01
  6
BYBLOCK
 10
614.37208407875778
 20
-858.28825604396047
 30
0.0
 11
614.37208407875778
 21
-874.28825604396047
 31
0.0
  0
LINE
  5
A250
  8
01
  6
BYBLOCK
 10
617.07208107875772
 20
-868.38824604396029
 30
0.0
 11
617.07208107875772
 21
-869.58825104396055
 31
0.0
  0
LINE
  5
A251
  8
01
  6
BYBLOCK
 10
615.57208107875772
 20
-868.38824604396029
 30
0.0
 11
617.07208107875772
 21
-868.38824604396029
 31
0.0
  0
LINE
  5
A252
  8
01
  6
BYBLOCK
 10
614.37208407875778
 20
-874.28825604396047
 30
0.0
 11
615.57208107875772
 21
-874.28825604396047
 31
0.0
  0
LINE
  5
A253
  8
01
  6
BYBLOCK
 10
615.57208107875772
 20
-866.28825604396047
 30
0.0
 11
615.57208107875772
 21
-874.28825604396047
 31
0.0
  0
LINE
  5
A254
  8
01
  6
BYBLOCK
 10
615.57208107875772
 20
-862.98826004396051
 30
0.0
 11
670.57208057875778
 21
-862.98826004396051
 31
0.0
  0
LINE
  5
A255
  8
01
  6
BYBLOCK
 10
614.37208407875778
 20
-858.28825604396047
 30
0.0
 11
615.57208107875772
 21
-858.28825604396047
 31
0.0
  0
LINE
  5
A256
  8
01
  6
BYBLOCK
 10
645.57208057875778
 20
-862.98826004396051
 30
0.0
 11
645.57208057875778
 21
-864.18826504396054
 31
0.0
  0
LINE
  5
A257
  8
01
  6
BYBLOCK
 10
650.57208057875778
 20
-862.98826004396051
 30
0.0
 11
650.57208057875778
 21
-864.18826504396054
 31
0.0
  0
LINE
  5
A258
  8
01
  6
BYBLOCK
 10
669.37208457875772
 20
-862.98826004396051
 30
0.0
 11
669.37208457875772
 21
-869.58825104396055
 31
0.0
  0
LINE
  5
A259
  8
01
  6
BYBLOCK
 10
670.57208057875778
 20
-862.98826004396051
 30
0.0
 11
670.57208057875778
 21
-868.38825404396039
 31
0.0
  0
ARC
  5
A25A
  8
01
  6
BYBLOCK
 10
669.37208057875773
 20
-868.38825404396039
 30
0.0
 40
1.1999999999999991
 50
270.0
 51
0.0
  0
LINE
  5
A25B
  8
01
  6
BYBLOCK
 10
612.87208410875758
 20
-858.28825604396047
 30
0.0
 11
614.37208407875778
 21
-858.28825604396047
 31
0.0
  0
LINE
  5
A25C
  8
01
  6
BYBLOCK
 10
612.87208410875758
 20
-874.28825604396047
 30
0.0
 11
614.37208407875778
 21
-874.28825604396047
 31
0.0
  0
LINE
  5
A25D
  8
01
  6
BYBLOCK
 10
612.87208410875758
 20
-858.28825604396047
 30
0.0
 11
612.87208410875758
 21
-874.28825604396047
 31
0.0
  0
TEXT
  5
A293
  8
1TEXT
 10
338.52303387759048
 20
-1106.1296521422721
 30
0.0
 40
4.0
  1
付属角芯
  0
LINE
  5
A294
  8
01
  6
BYBLOCK
 10
404.56675622352827
 20
-958.54303872978221
 30
0.0
 11
404.56675622352827
 21
-919.0430387297821
 31
0.0
  0
LINE
  5
A295
  8
01
  6
BYBLOCK
 10
395.56675622352827
 20
-958.54303872978221
 30
0.0
 11
395.56675622352827
 21
-919.0430387297821
 31
0.0
  0
LINE
  5
A296
  8
01
  6
BYBLOCK
 10
395.56675622352827
 20
-958.54303872978221
 30
0.0
 11
404.56675622352827
 21
-958.54303872978221
 31
0.0
  0
LINE
  5
A297
  8
01
  6
BYBLOCK
 10
396.06675622352827
 20
-954.5430387297821
 30
0.0
 11
393.56675622352827
 21
-954.5430387297821
 31
0.0
  0
LINE
  5
A298
  8
01
  6
BYBLOCK
 10
404.06675622352827
 20
-954.5430387297821
 30
0.0
 11
406.56675622352822
 21
-954.5430387297821
 31
0.0
  0
LINE
  5
A299
  8
01
  6
BYBLOCK
 10
395.56675622352827
 20
-958.54303872978221
 30
0.0
 11
394.56675622352827
 21
-958.54303872978221
 31
0.0
  0
LINE
  5
A29A
  8
01
  6
BYBLOCK
 10
394.56675622352827
 20
-957.54303872978232
 30
0.0
 11
395.56675622352827
 21
-957.54303872978232
 31
0.0
  0
LINE
  5
A29B
  8
01
  6
BYBLOCK
 10
394.56675622352827
 20
-956.5430387297821
 30
0.0
 11
395.56675622352827
 21
-956.5430387297821
 31
0.0
  0
LINE
  5
A29C
  8
01
  6
BYBLOCK
 10
394.56675622352827
 20
-955.5430387297821
 30
0.0
 11
395.56675622352827
 21
-955.5430387297821
 31
0.0
  0
LINE
  5
A29D
  8
01
  6
BYBLOCK
 10
404.56675622352827
 20
-958.54303872978221
 30
0.0
 11
405.56675622352822
 21
-958.54303872978221
 31
0.0
  0
LINE
  5
A29E
  8
01
  6
BYBLOCK
 10
404.56675622352827
 20
-957.54303872978232
 30
0.0
 11
405.56675622352822
 21
-957.54303872978232
 31
0.0
  0
LINE
  5
A29F
  8
01
  6
BYBLOCK
 10
404.56675622352827
 20
-956.5430387297821
 30
0.0
 11
405.56675622352822
 21
-956.5430387297821
 31
0.0
  0
LINE
  5
A2A0
  8
01
  6
BYBLOCK
 10
404.56675622352827
 20
-955.5430387297821
 30
0.0
 11
405.56675622352822
 21
-955.5430387297821
 31
0.0
  0
LINE
  5
A2A1
  8
01
  6
BYBLOCK
 10
404.56675622352827
 20
-953.54303872978221
 30
0.0
 11
405.56675622352822
 21
-953.54303872978221
 31
0.0
  0
LINE
  5
A2A2
  8
01
  6
BYBLOCK
 10
404.56675622352827
 20
-952.54303872978221
 30
0.0
 11
405.56675622352822
 21
-952.54303872978221
 31
0.0
  0
LINE
  5
A2A3
  8
01
  6
BYBLOCK
 10
404.56675622352827
 20
-951.54303872978221
 30
0.0
 11
405.56675622352822
 21
-951.54303872978221
 31
0.0
  0
LINE
  5
A2A4
  8
01
  6
BYBLOCK
 10
404.56675622352827
 20
-950.54303872978221
 30
0.0
 11
405.56675622352822
 21
-950.54303872978221
 31
0.0
  0
LINE
  5
A2A5
  8
01
  6
BYBLOCK
 10
394.56675622352827
 20
-953.54303872978221
 30
0.0
 11
395.56675622352827
 21
-953.54303872978221
 31
0.0
  0
LINE
  5
A2A6
  8
01
  6
BYBLOCK
 10
394.56675622352827
 20
-952.54303872978221
 30
0.0
 11
395.56675622352827
 21
-952.54303872978221
 31
0.0
  0
LINE
  5
A2A7
  8
01
  6
BYBLOCK
 10
394.56675622352827
 20
-951.54303872978221
 30
0.0
 11
395.56675622352827
 21
-951.54303872978221
 31
0.0
  0
LINE
  5
A2A8
  8
01
  6
BYBLOCK
 10
394.56675622352827
 20
-950.54303872978221
 30
0.0
 11
395.56675622352827
 21
-950.54303872978221
 31
0.0
  0
TEXT
  5
A2A9
  8
01
  6
BYBLOCK
 10
393.86121477332398
 20
-914.07640012882621
 30
0.0
 40
4.0
  1
KAWAJUN
 41
0.45
  0
LINE
  5
A2AA
  8
01
  6
BYBLOCK
 10
395.56675622352827
 20
-954.5430387297821
 30
0.0
 11
404.56675622352827
 21
-954.5430387297821
 31
0.0
  0
LINE
  5
A2AB
  8
01
  6
BYBLOCK
 10
398.06675622352827
 20
-1007.543038729782
 30
0.0
 11
402.06675622352822
 21
-1007.543038729782
 31
0.0
  0
ARC
  5
A2AC
  8
01
  6
BYBLOCK
 10
398.06675622352827
 20
-1001.543038729782
 30
0.0
 40
6.0
 50
180.0
 51
270.0
  0
LINE
  5
A2AD
  8
1CENTER
 10
392.06675622352782
 20
-996.04303872978221
 30
0.0
 11
408.0667562235277
 21
-996.04303872978221
 31
0.0
  0
LINE
  5
A2AE
  8
01
  6
BYBLOCK
 10
398.06675622352827
 20
-884.54303872978221
 30
0.0
 11
402.06675622352822
 21
-884.54303872978221
 31
0.0
  0
LINE
  5
A2AF
  8
1CENTER
 10
392.06675622352827
 20
-896.04303872978221
 30
0.0
 11
408.06675622352822
 21
-896.04303872978221
 31
0.0
  0
LINE
  5
A2B0
  8
01
  6
BYBLOCK
 10
395.56675622352827
 20
-923.04303872978221
 30
0.0
 11
404.56675622352827
 21
-923.04303872978221
 31
0.0
  0
LINE
  5
A2B1
  8
01
  6
BYBLOCK
 10
395.56675622352827
 20
-919.0430387297821
 30
0.0
 11
404.56675622352827
 21
-919.0430387297821
 31
0.0
  0
LINE
  5
A2B2
  8
1CENTER
 10
400.06675622352827
 20
-875.77812359517725
 30
0.0
 11
400.06675622352827
 21
-1014.556916897672
 31
0.0
  0
LINE
  5
A2B3
  8
01
  6
BYBLOCK
 10
392.06675622352827
 20
-890.54303872978232
 30
0.0
 11
392.06675622352827
 21
-1001.543038729782
 31
0.0
  0
ARC
  5
A2B4
  8
01
  6
BYBLOCK
 10
398.06675622352827
 20
-890.54303872978232
 30
0.0
 40
6.0
 50
90.0
 51
180.0
  0
LINE
  5
A2B5
  8
01
  6
BYBLOCK
 10
408.06675622352822
 20
-890.54303872978232
 30
0.0
 11
408.06675622352822
 21
-1001.543038729782
 31
0.0
  0
ARC
  5
A2B6
  8
01
  6
BYBLOCK
 10
402.06675622352822
 20
-1001.543038729782
 30
0.0
 40
6.0
 50
270.0
 51
0.0
  0
ARC
  5
A2B7
  8
01
  6
BYBLOCK
 10
402.06675622352822
 20
-890.54303872978232
 30
0.0
 40
6.0
 50
0.0
 51
90.0
  0
LINE
  5
A2B8
  8
1CENTER
 10
408.06675622352822
 20
-970.04303872978187
 30
0.0
 11
392.06675622352827
 21
-970.04303872978187
 31
0.0
  0
LINE
  5
A2B9
  8
01
  6
BYBLOCK
 10
396.56675622352827
 20
-974.04303872978198
 30
0.0
 11
396.56675622352827
 21
-966.04303872978198
 31
0.0
  0
ARC
  5
A2BA
  8
01
  6
BYBLOCK
 10
400.06675622352827
 20
-966.04303872978198
 30
0.0
 40
3.5
 50
0.0
 51
180.0
  0
ARC
  5
A2BB
  8
01
  6
BYBLOCK
 10
400.06675622352827
 20
-974.04303872978198
 30
0.0
 40
3.5
 50
180.0
 51
0.0
  0
LINE
  5
A2BC
  8
1CENTER
 10
394.6652562235281
 20
-974.04303872978198
 30
0.0
 11
405.34295622352801
 21
-974.04303872978198
 31
0.0
  0
LINE
  5
A2BD
  8
1CENTER
 10
394.6652562235281
 20
-966.04303872978198
 30
0.0
 11
405.34295622352801
 21
-966.04303872978198
 31
0.0
  0
LINE
  5
A2BE
  8
01
  6
BYBLOCK
 10
403.56675622352822
 20
-974.04303872978198
 30
0.0
 11
403.56675622352822
 21
-966.04303872978198
 31
0.0
  0
CIRCLE
  5
A2BF
  8
01
  6
BYBLOCK
 10
400.06675622352827
 20
-970.04303872978187
 30
0.0
 40
3.5
  0
LINE
  5
A2C0
  8
01
  6
BYBLOCK
 10
397.87475622352821
 20
-971.66903872978196
 30
0.0
 11
398.44045622352792
 21
-972.23503872978199
 31
0.0
  0
ARC
  5
A2C1
  8
01
  6
BYBLOCK
 10
397.37975622352792
 20
-970.04303872978187
 30
0.0
 40
1.5
 50
314.99999999999079
 51
45.000000000009209
  0
LINE
  5
A2C2
  8
01
  6
BYBLOCK
 10
397.87475622352821
 20
-971.66903872978196
 30
0.0
 11
398.44045622352792
 21
-971.10403872978191
 31
0.0
  0
LINE
  5
A2C3
  8
01
  6
BYBLOCK
 10
401.69315622352792
 20
-972.23503872978199
 30
0.0
 11
402.25875622352822
 21
-971.66903872978196
 31
0.0
  0
LINE
  5
A2C4
  8
01
  6
BYBLOCK
 10
398.44045622352792
 20
-972.23503872978199
 30
0.0
 11
399.00605622352828
 21
-971.66903872978196
 31
0.0
  0
ARC
  5
A2C5
  8
01
  6
BYBLOCK
 10
400.06675622352827
 20
-972.73003872978177
 30
0.0
 40
1.5
 50
45.000000000009209
 51
134.99999999999079
  0
LINE
  5
A2C6
  8
01
  6
BYBLOCK
 10
401.12745622352821
 20
-971.66903872978196
 30
0.0
 11
401.69315622352792
 21
-972.23503872978199
 31
0.0
  0
ARC
  5
A2C7
  8
01
  6
BYBLOCK
 10
402.75375622352823
 20
-970.04303872978187
 30
0.0
 40
1.5
 50
134.99999999999079
 51
225.00000000000921
  0
LINE
  5
A2C8
  8
01
  6
BYBLOCK
 10
401.69315622352792
 20
-971.10403872978191
 30
0.0
 11
402.25875622352822
 21
-971.66903872978196
 31
0.0
  0
LINE
  5
A2C9
  8
01
  6
BYBLOCK
 10
401.69315622352792
 20
-967.85103872978186
 30
0.0
 11
402.25875622352822
 21
-968.41703872978201
 31
0.0
  0
LINE
  5
A2CA
  8
01
  6
BYBLOCK
 10
401.69315622352792
 20
-968.98203872978172
 30
0.0
 11
402.25875622352822
 21
-968.41703872978201
 31
0.0
  0
LINE
  5
A2CB
  8
01
  6
BYBLOCK
 10
398.44045622352792
 20
-967.85103872978186
 30
0.0
 11
399.00605622352828
 21
-968.41703872978201
 31
0.0
  0
ARC
  5
A2CC
  8
01
  6
BYBLOCK
 10
400.06675622352827
 20
-967.35603872978197
 30
0.0
 40
1.5
 50
225.00000000000921
 51
314.99999999999079
  0
LINE
  5
A2CD
  8
01
  6
BYBLOCK
 10
401.12745622352821
 20
-968.41703872978201
 30
0.0
 11
401.69315622352792
 21
-967.85103872978186
 31
0.0
  0
LINE
  5
A2CE
  8
01
  6
BYBLOCK
 10
397.87475622352821
 20
-968.41703872978201
 30
0.0
 11
398.44045622352792
 21
-967.85103872978186
 31
0.0
  0
LINE
  5
A2CF
  8
01
  6
BYBLOCK
 10
397.87475622352821
 20
-968.41703872978201
 30
0.0
 11
398.44045622352792
 21
-968.98203872978172
 31
0.0
  0
ARC
  5
A2D0
  8
01
  6
BYBLOCK
 10
400.06675622352827
 20
-973.32903872978181
 30
0.0
 40
6.4142900000000003
 50
231.42000000000371
 51
308.57999999999629
  0
LINE
  5
A2D1
  8
01
  6
BYBLOCK
 10
396.65415622352822
 20
-979.04303872978187
 30
0.0
 11
396.06675622352827
 21
-978.34303872978194
 31
0.0
  0
LINE
  5
A2D2
  8
01
  6
BYBLOCK
 10
396.06675622352827
 20
-978.34303872978194
 30
0.0
 11
396.92545622352799
 21
-978.65603872978181
 31
0.0
  0
LINE
  5
A2D3
  8
01
  6
BYBLOCK
 10
403.47935622352787
 20
-979.04303872978187
 30
0.0
 11
404.06675622352827
 21
-978.34303872978194
 31
0.0
  0
LINE
  5
A2D4
  8
01
  6
BYBLOCK
 10
404.06675622352827
 20
-978.34303872978194
 30
0.0
 11
403.20805622352799
 21
-978.65603872978181
 31
0.0
  0
TEXT
  5
A2D5
  8
01
  6
BYBLOCK
 10
394.42858955686148
 20
-982.95803872978195
 30
0.0
 40
2.5
  1
前後調整
 72
     1
 11
400.09525622352822
 21
-981.70803872978195
 31
0.0
 73
     2
  0
CIRCLE
  5
A2D6
  8
01
  6
BYBLOCK
 10
400.06675622352827
 20
-996.04303872978221
 30
0.0
 40
2.0
  0
CIRCLE
  5
A2D7
  8
01
  6
BYBLOCK
 10
400.06675622352827
 20
-996.04303872978221
 30
0.0
 40
3.5
  0
CIRCLE
  5
A2D8
  8
01
  6
BYBLOCK
 10
400.06675622352827
 20
-896.04303872978221
 30
0.0
 40
2.0
  0
CIRCLE
  5
A2D9
  8
01
  6
BYBLOCK
 10
400.06675622352827
 20
-896.04303872978221
 30
0.0
 40
3.5
  0
LINE
  5
A2DA
  8
01
  6
BYBLOCK
 10
367.75094635556093
 20
-911.04303872978176
 30
0.0
 11
357.2509463555607
 21
-911.04303872978176
 31
0.0
  0
LINE
  5
A2DB
  8
1PHANTOM
 10
366.722230731438
 20
-907.04303872978164
 30
0.0
 11
357.2509463555607
 21
-907.04303872978164
 31
0.0
  0
LINE
  5
A2DC
  8
01
  6
BYBLOCK
 10
368.2509463555607
 20
-911.54303872978176
 30
0.0
 11
357.2509463555607
 21
-911.54303872978176
 31
0.0
  0
LINE
  5
A2DF
  8
01
  6
BYBLOCK
 10
368.2509463555607
 20
-889.5430387297821
 30
0.0
 11
368.2509463555607
 21
-967.54303872978198
 31
0.0
  0
LINE
  5
A2E0
  8
01
  6
BYBLOCK
 10
368.2509463555607
 20
-972.54303872978255
 30
0.0
 11
368.2509463555607
 21
-1002.543038729782
 31
0.0
  0
LINE
  5
A2E2
  8
01
  6
BYBLOCK
 10
369.25094635556093
 20
-884.54303872978198
 30
0.0
 11
369.2509463555607
 21
-1007.543038729782
 31
0.0
  0
LINE
  5
A2E3
  8
01
  6
BYBLOCK
 10
370.2509463555607
 20
-884.54303872978198
 30
0.0
 11
370.2509463555607
 21
-1007.543038729782
 31
0.0
  0
LINE
  5
A2E4
  8
01
  6
BYBLOCK
 10
370.2509463555607
 20
-884.54303872978198
 30
0.0
 11
370.2509463555607
 21
-1007.543038729782
 31
0.0
  0
LINE
  5
A2E5
  8
01
  6
BYBLOCK
 10
367.75094635556047
 20
-889.5430387297821
 30
0.0
 11
367.75094635556093
 21
-911.04303872978176
 31
0.0
  0
LINE
  5
A2E6
  8
01
  6
BYBLOCK
 10
367.7509463555607
 20
-978.04303872978232
 30
0.0
 11
367.75094635556093
 21
-1002.543038729782
 31
0.0
  0
LINE
  5
A2E7
  8
01
  6
BYBLOCK
 10
357.2509463555607
 20
-911.04303872978176
 30
0.0
 11
357.2509463555607
 21
-978.04303872978232
 31
0.0
  0
LINE
  5
A2E8
  8
01
  6
BYBLOCK
 10
370.2509463555607
 20
-884.54303872978221
 30
0.0
 11
369.25094635556093
 21
-884.54303872978198
 31
0.0
  0
LINE
  5
A2E9
  8
01
  6
BYBLOCK
 10
369.2509463555607
 20
-889.5430387297821
 30
0.0
 11
367.7509463555607
 21
-889.5430387297821
 31
0.0
  0
LINE
  5
A2EA
  8
01
  6
BYBLOCK
 10
369.2509463555607
 20
-923.04303872978221
 30
0.0
 11
368.2509463555607
 21
-923.04303872978221
 31
0.0
  0
LINE
  5
A2EB
  8
01
  6
BYBLOCK
 10
370.2509463555607
 20
-919.0430387297821
 30
0.0
 11
369.2509463555607
 21
-919.0430387297821
 31
0.0
  0
LINE
  5
A2EC
  8
1CENTER
 10
378.2475294872811
 20
-996.04303872978221
 30
0.0
 11
357.83180744373948
 21
-996.04303872978221
 31
0.0
  0
LINE
  5
A2ED
  8
01
  6
BYBLOCK
 10
370.25094635556047
 20
-1007.543038729782
 30
0.0
 11
369.2509463555607
 21
-1007.543038729782
 31
0.0
  0
LINE
  5
A2EE
  8
01
  6
BYBLOCK
 10
369.2509463555607
 20
-1002.543038729782
 30
0.0
 11
367.7509463555607
 21
-1002.543038729782
 31
0.0
  0
LINE
  5
A2EF
  8
01
  6
BYBLOCK
 10
370.2509463555607
 20
-977.54303872978221
 30
0.0
 11
369.2509463555607
 21
-977.54303872978221
 31
0.0
  0
LINE
  5
A2F0
  8
01
  6
BYBLOCK
 10
370.2509463555607
 20
-962.5430387297821
 30
0.0
 11
369.2509463555607
 21
-962.5430387297821
 31
0.0
  0
LINE
  5
A2F1
  8
01
  6
BYBLOCK
 10
369.2509463555607
 20
-973.54303872978232
 30
0.0
 11
367.85094635556089
 21
-972.14303872978235
 31
0.0
  0
LINE
  5
A2F2
  8
01
  6
BYBLOCK
 10
367.85094635556089
 20
-967.94303872978196
 30
0.0
 11
369.2509463555607
 21
-966.54303872978221
 31
0.0
  0
LINE
  5
A2F3
  8
01
  6
BYBLOCK
 10
367.85094635556089
 20
-967.94303872978196
 30
0.0
 11
367.85094635556089
 21
-972.14303872978235
 31
0.0
  0
LINE
  5
A2F4
  8
01
  6
BYBLOCK
 10
367.55094635556088
 20
-971.5430387297821
 30
0.0
 11
367.45094635556052
 21
-971.5430387297821
 31
0.0
  0
LINE
  5
A2F5
  8
01
  6
BYBLOCK
 10
367.55094635556088
 20
-968.54303872978221
 30
0.0
 11
367.45094635556052
 21
-968.54303872978221
 31
0.0
  0
LINE
  5
A2F6
  8
01
  6
BYBLOCK
 10
357.2509463555607
 20
-974.04303872978221
 30
0.0
 11
356.45094635556052
 21
-974.04303872978221
 31
0.0
  0
LINE
  5
A2F7
  8
01
  6
BYBLOCK
 10
356.45094635556052
 20
-974.04303872978221
 30
0.0
 11
356.45094635556052
 21
-966.04303872978221
 31
0.0
  0
LINE
  5
A2F8
  8
01
  6
BYBLOCK
 10
357.2509463555607
 20
-966.04303872978221
 30
0.0
 11
356.45094635556052
 21
-966.04303872978221
 31
0.0
  0
ARC
  5
A2F9
  8
01
  6
BYBLOCK
 10
359.95094635556052
 20
-970.04303872978232
 30
0.0
 40
4.2000000000000002
 50
146.44269023809059
 51
213.55730976190941
  0
LINE
  5
A2FA
  8
1CENTER
 10
373.28994635556069
 20
-970.04303872978232
 30
0.0
 11
349.78894635556071
 21
-970.04303872978232
 31
0.0
  0
LINE
  5
A2FB
  8
01
  6
BYBLOCK
 10
370.2509463555607
 20
-958.54303872978221
 30
0.0
 11
369.2509463555607
 21
-958.54303872978221
 31
0.0
  0
LINE
  5
A2FC
  8
01
  6
BYBLOCK
 10
369.2509463555607
 20
-954.5430387297821
 30
0.0
 11
361.65094635556079
 21
-954.5430387297821
 31
0.0
  0
LINE
  5
A2FD
  8
01
  6
BYBLOCK
 10
366.65094635556079
 20
-977.0430387297821
 30
0.0
 11
366.65094635556079
 21
-974.00303872978225
 31
0.0
  0
ARC
  5
A2FE
  8
01
  6
BYBLOCK
 10
366.15094635556079
 20
-974.00303872978225
 30
0.0
 40
0.5
 50
0.0
 51
85.236400000004579
  0
LINE
  5
A2FF
  8
01
  6
BYBLOCK
 10
366.19294635556071
 20
-973.50503872978209
 30
0.0
 11
360.65094635556079
 21
-973.04303872978221
 31
0.0
  0
LINE
  5
A300
  8
01
  6
BYBLOCK
 10
366.65094635556079
 20
-966.08303872978206
 30
0.0
 11
366.65094635556079
 21
-954.5430387297821
 31
0.0
  0
ARC
  5
A301
  8
01
  6
BYBLOCK
 10
366.15094635556079
 20
-966.08303872978206
 30
0.0
 40
0.5
 50
274.76400000000473
 51
0.0
  0
LINE
  5
A302
  8
01
  6
BYBLOCK
 10
366.19294635556071
 20
-966.58103872978222
 30
0.0
 11
360.65094635556079
 21
-967.0430387297821
 31
0.0
  0
LINE
  5
A303
  8
01
  6
BYBLOCK
 10
368.2509463555607
 20
-977.0430387297821
 30
0.0
 11
361.65094635556079
 21
-977.0430387297821
 31
0.0
  0
LINE
  5
A304
  8
01
  6
BYBLOCK
 10
368.2509463555607
 20
-977.54303872978221
 30
0.0
 11
357.2509463555607
 21
-977.54303872978221
 31
0.0
  0
LINE
  5
A305
  8
01
  6
BYBLOCK
 10
367.7509463555607
 20
-978.04303872978232
 30
0.0
 11
357.2509463555607
 21
-978.04303872978232
 31
0.0
  0
LINE
  5
A306
  8
1PHANTOM
 10
366.53424167267212
 20
-982.04303872978221
 30
0.0
 11
357.2509463555607
 21
-982.04303872978221
 31
0.0
  0
ARC
  5
A307
  8
01
  6
BYBLOCK
 10
361.65094635556079
 20
-976.0430387297821
 30
0.0
 40
1.0
 50
180.0
 51
270.0
  0
ARC
  5
A308
  8
01
  6
BYBLOCK
 10
361.65094635556079
 20
-955.5430387297821
 30
0.0
 40
1.0
 50
90.0
 51
179.99999999997391
  0
LINE
  5
A309
  8
01
  6
BYBLOCK
 10
367.85094635556089
 20
-967.94303872978196
 30
0.0
 11
358.59506210933517
 21
-967.94303872978196
 31
0.0
  0
LINE
  5
A30A
  8
01
  6
BYBLOCK
 10
367.85094635556089
 20
-968.54303872978221
 30
0.0
 11
358.58251657005729
 21
-968.54303872978221
 31
0.0
  0
LINE
  5
A30B
  8
01
  6
BYBLOCK
 10
367.85094635556089
 20
-971.5430387297821
 30
0.0
 11
358.62840428502409
 21
-971.5430387297821
 31
0.0
  0
LINE
  5
A30C
  8
01
  6
BYBLOCK
 10
367.85094635556089
 20
-972.14303872978235
 30
0.0
 11
358.66522717897192
 21
-972.14303872978235
 31
0.0
  0
LINE
  5
A30D
  8
01
  6
BYBLOCK
 10
360.65094635556079
 20
-976.0430387297821
 30
0.0
 11
360.65094635556079
 21
-971.5430387297821
 31
0.0
  0
LINE
  5
A30E
  8
01
  6
BYBLOCK
 10
360.65094635556079
 20
-968.54303872978221
 30
0.0
 11
360.65094635556079
 21
-955.5430387297821
 31
0.0
  0
LINE
  5
A30F
  8
1CENTER
 10
378.2475294872811
 20
-896.04303872978221
 30
0.0
 11
357.83180744373948
 21
-896.04303872978221
 31
0.0
  0
LINE
  5
A310
  8
01
  6
BYBLOCK
 10
319.9282429897537
 20
-1015.467700523868
 30
0.0
 11
319.9282429897537
 21
-1028.467700523868
 31
0.0
  0
LINE
  5
A311
  8
01
  6
BYBLOCK
 10
319.9282429897537
 20
-1017.967700523868
 30
0.0
 11
319.12824298975352
 21
-1017.967700523868
 31
0.0
  0
LINE
  5
A312
  8
01
  6
BYBLOCK
 10
319.12824298975352
 20
-1017.967700523868
 30
0.0
 11
319.12824298975352
 21
-1025.9677005238671
 31
0.0
  0
ARC
  5
A313
  8
01
  6
BYBLOCK
 10
322.52824298975361
 20
-1021.967700523868
 30
0.0
 40
4.2000000000000002
 50
144.04899999999719
 51
215.95100000000269
  0
LINE
  5
A314
  8
01
  6
BYBLOCK
 10
319.9282429897537
 20
-1025.9677005238671
 30
0.0
 11
319.12824298975352
 21
-1025.9677005238671
 31
0.0
  0
LINE
  5
A315
  8
01
  6
BYBLOCK
 10
319.9282429897537
 20
-1027.967700523868
 30
0.0
 11
330.4282429897537
 21
-1027.967700523868
 31
0.0
  0
LINE
  5
A316
  8
01
  6
BYBLOCK
 10
319.9282429897537
 20
-1015.967700523868
 30
0.0
 11
330.4282429897537
 21
-1015.967700523868
 31
0.0
  0
LINE
  5
A317
  8
01
  6
BYBLOCK
 10
330.4282429897537
 20
-1028.467700523868
 30
0.0
 11
330.4282429897537
 21
-1015.467700523868
 31
0.0
  0
LINE
  5
A318
  8
01
  6
BYBLOCK
 10
319.9282429897537
 20
-1028.467700523868
 30
0.0
 11
331.9282429897537
 21
-1028.467700523868
 31
0.0
  0
LINE
  5
A319
  8
01
  6
BYBLOCK
 10
319.9282429897537
 20
-1015.467700523868
 30
0.0
 11
331.9282429897537
 21
-1015.467700523868
 31
0.0
  0
LINE
  5
A31A
  8
01
  6
BYBLOCK
 10
330.4282429897537
 20
-1028.467700523868
 30
0.0
 11
330.4282429897537
 21
-1015.467700523868
 31
0.0
  0
LINE
  5
A31B
  8
01
  6
BYBLOCK
 10
331.9282429897537
 20
-1029.967700523868
 30
0.0
 11
332.9282429897537
 21
-1029.967700523868
 31
0.0
  0
LINE
  5
A31C
  8
01
  6
BYBLOCK
 10
331.9282429897537
 20
-1013.967700523868
 30
0.0
 11
332.9282429897537
 21
-1013.967700523868
 31
0.0
  0
LINE
  5
A31D
  8
1CENTER
 10
314.5472826706
 20
-1021.967700523868
 30
0.0
 11
335.0696092944072
 21
-1021.967700523868
 31
0.0
  0
LINE
  5
A31E
  8
01
  6
BYBLOCK
 10
330.9282429897537
 20
-1017.967700523868
 30
0.0
 11
331.9282429897537
 21
-1017.967700523868
 31
0.0
  0
LINE
  5
A31F
  8
01
  6
BYBLOCK
 10
330.9282429897537
 20
-1025.9677005238671
 30
0.0
 11
331.9282429897537
 21
-1025.9677005238671
 31
0.0
  0
LINE
  5
A320
  8
01
  6
BYBLOCK
 10
332.9282429897537
 20
-1029.967700523868
 30
0.0
 11
332.9282429897537
 21
-1013.967700523868
 31
0.0
  0
LINE
  5
A321
  8
01
  6
BYBLOCK
 10
319.9282429897537
 20
-1028.467700523868
 30
0.0
 11
319.9282429897537
 21
-1015.467700523868
 31
0.0
  0
LINE
  5
A322
  8
01
  6
BYBLOCK
 10
331.9282429897537
 20
-1029.967700523868
 30
0.0
 11
331.9282429897537
 21
-1013.967700523868
 31
0.0
  0
LINE
  5
A323
  8
01
  6
BYBLOCK
 10
330.9282429897537
 20
-1028.467700523868
 30
0.0
 11
330.9282429897537
 21
-1025.0677005238681
 31
0.0
  0
LINE
  5
A324
  8
01
  6
BYBLOCK
 10
330.9282429897537
 20
-1018.8677005238681
 30
0.0
 11
330.9282429897537
 21
-1015.467700523868
 31
0.0
  0
LINE
  5
A325
  8
01
  6
BYBLOCK
 10
330.9282429897537
 20
-1018.717700523868
 30
0.0
 11
330.4282429897537
 21
-1018.717700523868
 31
0.0
  0
LINE
  5
A326
  8
01
  6
BYBLOCK
 10
330.9282429897537
 20
-1025.2177005238671
 30
0.0
 11
330.4282429897537
 21
-1025.2177005238671
 31
0.0
  0
LINE
  5
A327
  8
01
  6
BYBLOCK
 10
331.9282429897537
 20
-1025.8817005238679
 30
0.0
 11
331.11424298975362
 21
-1025.0677005238681
 31
0.0
  0
LINE
  5
A328
  8
01
  6
BYBLOCK
 10
331.9282429897537
 20
-1018.053700523868
 30
0.0
 11
331.11424298975362
 21
-1018.8677005238681
 31
0.0
  0
LINE
  5
A329
  8
01
  6
BYBLOCK
 10
331.11424298975362
 20
-1018.8677005238681
 30
0.0
 11
330.42824298975353
 21
-1018.8677005238681
 31
0.0
  0
LINE
  5
A32A
  8
01
  6
BYBLOCK
 10
331.11424298975362
 20
-1025.0677005238681
 30
0.0
 11
330.4282429897537
 21
-1025.0677005238681
 31
0.0
  0
LINE
  5
A32B
  8
01
  6
BYBLOCK
 10
331.11424298975362
 20
-1025.0677005238681
 30
0.0
 11
331.11424298975362
 21
-1018.8677005238681
 31
0.0
  0
LINE
  5
A336
  8
1PHANTOM
 10
357.2509463555607
 20
-982.04303872978221
 30
0.0
 11
357.2509463555607
 21
-980.22340978324985
 31
0.0
  0
LINE
  5
A337
  8
1PHANTOM
 10
357.2509463555607
 20
-907.04303872978164
 30
0.0
 11
357.2509463555607
 21
-909.38407139225228
 31
0.0
  0
POLYLINE
  8
1PHANTOM
  5
B50D
  66
     1
 10
0.000000
 20
0.000000
 30
0.000000
  70
     8
  0
VERTEX
  8
1PHANTOM
  5
B50E
 10
370.251
 20
-946.608
 30
0.000000
  70
    32
  0
VERTEX
  8
1PHANTOM
  5
B50F
 10
370.098
 20
-946.627
 30
0.000000
  70
    32
  0
VERTEX
  8
1PHANTOM
  5
B510
 10
369.945
 20
-946.647
 30
0.000000
  70
    32
  0
VERTEX
  8
1PHANTOM
  5
B511
 10
369.793
 20
-946.667
 30
0.000000
  70
    32
  0
VERTEX
  8
1PHANTOM
  5
B512
 10
369.641
 20
-946.688
 30
0.000000
  70
    32
  0
VERTEX
  8
1PHANTOM
  5
B513
 10
369.489
 20
-946.709
 30
0.000000
  70
    32
  0
VERTEX
  8
1PHANTOM
  5
B514
 10
369.338
 20
-946.731
 30
0.000000
  70
    32
  0
VERTEX
  8
1PHANTOM
  5
B515
 10
369.187
 20
-946.754
 30
0.000000
  70
    32
  0
VERTEX
  8
1PHANTOM
  5
B516
 10
369.037
 20
-946.777
 30
0.000000
  70
    32
  0
VERTEX
  8
1PHANTOM
  5
B517
 10
368.887
 20
-946.801
 30
0.000000
  70
    32
  0
VERTEX
  8
1PHANTOM
  5
B518
 10
368.737
 20
-946.826
 30
0.000000
  70
    32
  0
VERTEX
  8
1PHANTOM
  5
B519
 10
368.588
 20
-946.852
 30
0.000000
  70
    32
  0
VERTEX
  8
1PHANTOM
  5
B51A
 10
368.439
 20
-946.879
 30
0.000000
  70
    32
  0
VERTEX
  8
1PHANTOM
  5
B51B
 10
368.291
 20
-946.906
 30
0.000000
  70
    32
  0
VERTEX
  8
1PHANTOM
  5
B51C
 10
368.144
 20
-946.935
 30
0.000000
  70
    32
  0
VERTEX
  8
1PHANTOM
  5
B51D
 10
367.997
 20
-946.964
 30
0.000000
  70
    32
  0
VERTEX
  8
1PHANTOM
  5
B51E
 10
367.850
 20
-946.995
 30
0.000000
  70
    32
  0
VERTEX
  8
1PHANTOM
  5
B51F
 10
367.705
 20
-947.026
 30
0.000000
  70
    32
  0
VERTEX
  8
1PHANTOM
  5
B520
 10
367.560
 20
-947.059
 30
0.000000
  70
    32
  0
VERTEX
  8
1PHANTOM
  5
B521
 10
367.415
 20
-947.093
 30
0.000000
  70
    32
  0
VERTEX
  8
1PHANTOM
  5
B522
 10
367.271
 20
-947.128
 30
0.000000
  70
    32
  0
VERTEX
  8
1PHANTOM
  5
B523
 10
367.128
 20
-947.164
 30
0.000000
  70
    32
  0
VERTEX
  8
1PHANTOM
  5
B524
 10
366.986
 20
-947.201
 30
0.000000
  70
    32
  0
VERTEX
  8
1PHANTOM
  5
B525
 10
366.845
 20
-947.240
 30
0.000000
  70
    32
  0
VERTEX
  8
1PHANTOM
  5
B526
 10
366.704
 20
-947.280
 30
0.000000
  70
    32
  0
VERTEX
  8
1PHANTOM
  5
B527
 10
366.564
 20
-947.322
 30
0.000000
  70
    32
  0
VERTEX
  8
1PHANTOM
  5
B528
 10
366.425
 20
-947.365
 30
0.000000
  70
    32
  0
VERTEX
  8
1PHANTOM
  5
B529
 10
366.287
 20
-947.409
 30
0.000000
  70
    32
  0
VERTEX
  8
1PHANTOM
  5
B52A
 10
366.149
 20
-947.455
 30
0.000000
  70
    32
  0
VERTEX
  8
1PHANTOM
  5
B52B
 10
366.013
 20
-947.503
 30
0.000000
  70
    32
  0
VERTEX
  8
1PHANTOM
  5
B52C
 10
365.877
 20
-947.552
 30
0.000000
  70
    32
  0
VERTEX
  8
1PHANTOM
  5
B52D
 10
365.742
 20
-947.602
 30
0.000000
  70
    32
  0
VERTEX
  8
1PHANTOM
  5
B52E
 10
365.609
 20
-947.655
 30
0.000000
  70
    32
  0
VERTEX
  8
1PHANTOM
  5
B52F
 10
365.476
 20
-947.709
 30
0.000000
  70
    32
  0
VERTEX
  8
1PHANTOM
  5
B530
 10
365.345
 20
-947.765
 30
0.000000
  70
    32
  0
VERTEX
  8
1PHANTOM
  5
B531
 10
365.214
 20
-947.822
 30
0.000000
  70
    32
  0
VERTEX
  8
1PHANTOM
  5
B532
 10
365.084
 20
-947.882
 30
0.000000
  70
    32
  0
VERTEX
  8
1PHANTOM
  5
B533
 10
364.956
 20
-947.943
 30
0.000000
  70
    32
  0
VERTEX
  8
1PHANTOM
  5
B534
 10
364.829
 20
-948.006
 30
0.000000
  70
    32
  0
VERTEX
  8
1PHANTOM
  5
B535
 10
364.702
 20
-948.071
 30
0.000000
  70
    32
  0
VERTEX
  8
1PHANTOM
  5
B536
 10
364.577
 20
-948.138
 30
0.000000
  70
    32
  0
VERTEX
  8
1PHANTOM
  5
B537
 10
364.453
 20
-948.207
 30
0.000000
  70
    32
  0
VERTEX
  8
1PHANTOM
  5
B538
 10
364.331
 20
-948.279
 30
0.000000
  70
    32
  0
VERTEX
  8
1PHANTOM
  5
B539
 10
364.209
 20
-948.352
 30
0.000000
  70
    32
  0
VERTEX
  8
1PHANTOM
  5
B53A
 10
364.089
 20
-948.427
 30
0.000000
  70
    32
  0
VERTEX
  8
1PHANTOM
  5
B53B
 10
363.970
 20
-948.505
 30
0.000000
  70
    32
  0
VERTEX
  8
1PHANTOM
  5
B53C
 10
363.852
 20
-948.585
 30
0.000000
  70
    32
  0
VERTEX
  8
1PHANTOM
  5
B53D
 10
363.736
 20
-948.667
 30
0.000000
  70
    32
  0
VERTEX
  8
1PHANTOM
  5
B53E
 10
363.621
 20
-948.751
 30
0.000000
  70
    32
  0
VERTEX
  8
1PHANTOM
  5
B53F
 10
363.507
 20
-948.838
 30
0.000000
  70
    32
  0
VERTEX
  8
1PHANTOM
  5
B540
 10
363.395
 20
-948.926
 30
0.000000
  70
    32
  0
VERTEX
  8
1PHANTOM
  5
B541
 10
363.284
 20
-949.017
 30
0.000000
  70
    32
  0
VERTEX
  8
1PHANTOM
  5
B542
 10
363.174
 20
-949.110
 30
0.000000
  70
    32
  0
VERTEX
  8
1PHANTOM
  5
B543
 10
363.066
 20
-949.205
 30
0.000000
  70
    32
  0
VERTEX
  8
1PHANTOM
  5
B544
 10
362.959
 20
-949.302
 30
0.000000
  70
    32
  0
VERTEX
  8
1PHANTOM
  5
B545
 10
362.853
 20
-949.400
 30
0.000000
  70
    32
  0
VERTEX
  8
1PHANTOM
  5
B546
 10
362.748
 20
-949.501
 30
0.000000
  70
    32
  0
VERTEX
  8
1PHANTOM
  5
B547
 10
362.645
 20
-949.604
 30
0.000000
  70
    32
  0
VERTEX
  8
1PHANTOM
  5
B548
 10
362.544
 20
-949.708
 30
0.000000
  70
    32
  0
VERTEX
  8
1PHANTOM
  5
B549
 10
362.443
 20
-949.814
 30
0.000000
  70
    32
  0
VERTEX
  8
1PHANTOM
  5
B54A
 10
362.344
 20
-949.922
 30
0.000000
  70
    32
  0
VERTEX
  8
1PHANTOM
  5
B54B
 10
362.247
 20
-950.032
 30
0.000000
  70
    32
  0
VERTEX
  8
1PHANTOM
  5
B54C
 10
362.150
 20
-950.143
 30
0.000000
  70
    32
  0
VERTEX
  8
1PHANTOM
  5
B54D
 10
362.055
 20
-950.257
 30
0.000000
  70
    32
  0
VERTEX
  8
1PHANTOM
  5
B54E
 10
361.962
 20
-950.371
 30
0.000000
  70
    32
  0
VERTEX
  8
1PHANTOM
  5
B54F
 10
361.870
 20
-950.488
 30
0.000000
  70
    32
  0
VERTEX
  8
1PHANTOM
  5
B550
 10
361.779
 20
-950.605
 30
0.000000
  70
    32
  0
VERTEX
  8
1PHANTOM
  5
B551
 10
361.689
 20
-950.725
 30
0.000000
  70
    32
  0
VERTEX
  8
1PHANTOM
  5
B552
 10
361.601
 20
-950.845
 30
0.000000
  70
    32
  0
VERTEX
  8
1PHANTOM
  5
B553
 10
361.515
 20
-950.968
 30
0.000000
  70
    32
  0
VERTEX
  8
1PHANTOM
  5
B554
 10
361.429
 20
-951.091
 30
0.000000
  70
    32
  0
VERTEX
  8
1PHANTOM
  5
B555
 10
361.345
 20
-951.216
 30
0.000000
  70
    32
  0
VERTEX
  8
1PHANTOM
  5
B556
 10
361.263
 20
-951.342
 30
0.000000
  70
    32
  0
VERTEX
  8
1PHANTOM
  5
B557
 10
361.182
 20
-951.470
 30
0.000000
  70
    32
  0
VERTEX
  8
1PHANTOM
  5
B558
 10
361.102
 20
-951.599
 30
0.000000
  70
    32
  0
VERTEX
  8
1PHANTOM
  5
B559
 10
361.023
 20
-951.729
 30
0.000000
  70
    32
  0
VERTEX
  8
1PHANTOM
  5
B55A
 10
360.946
 20
-951.860
 30
0.000000
  70
    32
  0
VERTEX
  8
1PHANTOM
  5
B55B
 10
360.871
 20
-951.992
 30
0.000000
  70
    32
  0
VERTEX
  8
1PHANTOM
  5
B55C
 10
360.797
 20
-952.126
 30
0.000000
  70
    32
  0
VERTEX
  8
1PHANTOM
  5
B55D
 10
360.724
 20
-952.260
 30
0.000000
  70
    32
  0
VERTEX
  8
1PHANTOM
  5
B55E
 10
360.652
 20
-952.396
 30
0.000000
  70
    32
  0
VERTEX
  8
1PHANTOM
  5
B55F
 10
360.582
 20
-952.532
 30
0.000000
  70
    32
  0
VERTEX
  8
1PHANTOM
  5
B560
 10
360.514
 20
-952.670
 30
0.000000
  70
    32
  0
VERTEX
  8
1PHANTOM
  5
B561
 10
360.447
 20
-952.808
 30
0.000000
  70
    32
  0
VERTEX
  8
1PHANTOM
  5
B562
 10
360.381
 20
-952.947
 30
0.000000
  70
    32
  0
VERTEX
  8
1PHANTOM
  5
B563
 10
360.317
 20
-953.087
 30
0.000000
  70
    32
  0
VERTEX
  8
1PHANTOM
  5
B564
 10
360.254
 20
-953.228
 30
0.000000
  70
    32
  0
VERTEX
  8
1PHANTOM
  5
B565
 10
360.193
 20
-953.370
 30
0.000000
  70
    32
  0
VERTEX
  8
1PHANTOM
  5
B566
 10
360.133
 20
-953.512
 30
0.000000
  70
    32
  0
VERTEX
  8
1PHANTOM
  5
B567
 10
360.074
 20
-953.655
 30
0.000000
  70
    32
  0
VERTEX
  8
1PHANTOM
  5
B568
 10
360.017
 20
-953.799
 30
0.000000
  70
    32
  0
VERTEX
  8
1PHANTOM
  5
B569
 10
359.961
 20
-953.943
 30
0.000000
  70
    32
  0
VERTEX
  8
1PHANTOM
  5
B56A
 10
359.907
 20
-954.088
 30
0.000000
  70
    32
  0
VERTEX
  8
1PHANTOM
  5
B56B
 10
359.854
 20
-954.233
 30
0.000000
  70
    32
  0
VERTEX
  8
1PHANTOM
  5
B56C
 10
359.803
 20
-954.379
 30
0.000000
  70
    32
  0
VERTEX
  8
1PHANTOM
  5
B56D
 10
359.753
 20
-954.525
 30
0.000000
  70
    32
  0
VERTEX
  8
1PHANTOM
  5
B56E
 10
359.705
 20
-954.672
 30
0.000000
  70
    32
  0
VERTEX
  8
1PHANTOM
  5
B56F
 10
359.658
 20
-954.819
 30
0.000000
  70
    32
  0
VERTEX
  8
1PHANTOM
  5
B570
 10
359.612
 20
-954.967
 30
0.000000
  70
    32
  0
VERTEX
  8
1PHANTOM
  5
B571
 10
359.568
 20
-955.115
 30
0.000000
  70
    32
  0
VERTEX
  8
1PHANTOM
  5
B572
 10
359.526
 20
-955.263
 30
0.000000
  70
    32
  0
VERTEX
  8
1PHANTOM
  5
B573
 10
359.485
 20
-955.411
 30
0.000000
  70
    32
  0
VERTEX
  8
1PHANTOM
  5
B574
 10
359.445
 20
-955.560
 30
0.000000
  70
    32
  0
VERTEX
  8
1PHANTOM
  5
B575
 10
359.407
 20
-955.708
 30
0.000000
  70
    32
  0
VERTEX
  8
1PHANTOM
  5
B576
 10
359.370
 20
-955.857
 30
0.000000
  70
    32
  0
VERTEX
  8
1PHANTOM
  5
B577
 10
359.335
 20
-956.006
 30
0.000000
  70
    32
  0
VERTEX
  8
1PHANTOM
  5
B578
 10
359.301
 20
-956.155
 30
0.000000
  70
    32
  0
VERTEX
  8
1PHANTOM
  5
B579
 10
359.269
 20
-956.304
 30
0.000000
  70
    32
  0
VERTEX
  8
1PHANTOM
  5
B57A
 10
359.238
 20
-956.453
 30
0.000000
  70
    32
  0
VERTEX
  8
1PHANTOM
  5
B57B
 10
359.209
 20
-956.602
 30
0.000000
  70
    32
  0
VERTEX
  8
1PHANTOM
  5
B57C
 10
359.181
 20
-956.751
 30
0.000000
  70
    32
  0
VERTEX
  8
1PHANTOM
  5
B57D
 10
359.155
 20
-956.899
 30
0.000000
  70
    32
  0
VERTEX
  8
1PHANTOM
  5
B57E
 10
359.130
 20
-957.048
 30
0.000000
  70
    32
  0
VERTEX
  8
1PHANTOM
  5
B57F
 10
359.107
 20
-957.197
 30
0.000000
  70
    32
  0
VERTEX
  8
1PHANTOM
  5
B580
 10
359.085
 20
-957.345
 30
0.000000
  70
    32
  0
VERTEX
  8
1PHANTOM
  5
B581
 10
359.064
 20
-957.493
 30
0.000000
  70
    32
  0
VERTEX
  8
1PHANTOM
  5
B582
 10
359.045
 20
-957.641
 30
0.000000
  70
    32
  0
VERTEX
  8
1PHANTOM
  5
B583
 10
359.026
 20
-957.789
 30
0.000000
  70
    32
  0
VERTEX
  8
1PHANTOM
  5
B584
 10
359.009
 20
-957.937
 30
0.000000
  70
    32
  0
VERTEX
  8
1PHANTOM
  5
B585
 10
358.993
 20
-958.085
 30
0.000000
  70
    32
  0
VERTEX
  8
1PHANTOM
  5
B586
 10
358.978
 20
-958.233
 30
0.000000
  70
    32
  0
VERTEX
  8
1PHANTOM
  5
B587
 10
358.964
 20
-958.380
 30
0.000000
  70
    32
  0
VERTEX
  8
1PHANTOM
  5
B588
 10
358.951
 20
-958.528
 30
0.000000
  70
    32
  0
VERTEX
  8
1PHANTOM
  5
B589
 10
358.939
 20
-958.675
 30
0.000000
  70
    32
  0
VERTEX
  8
1PHANTOM
  5
B58A
 10
358.928
 20
-958.822
 30
0.000000
  70
    32
  0
VERTEX
  8
1PHANTOM
  5
B58B
 10
358.917
 20
-958.969
 30
0.000000
  70
    32
  0
VERTEX
  8
1PHANTOM
  5
B58C
 10
358.908
 20
-959.116
 30
0.000000
  70
    32
  0
VERTEX
  8
1PHANTOM
  5
B58D
 10
358.899
 20
-959.263
 30
0.000000
  70
    32
  0
VERTEX
  8
1PHANTOM
  5
B58E
 10
358.891
 20
-959.410
 30
0.000000
  70
    32
  0
VERTEX
  8
1PHANTOM
  5
B58F
 10
358.884
 20
-959.557
 30
0.000000
  70
    32
  0
VERTEX
  8
1PHANTOM
  5
B590
 10
358.877
 20
-959.704
 30
0.000000
  70
    32
  0
VERTEX
  8
1PHANTOM
  5
B591
 10
358.871
 20
-959.850
 30
0.000000
  70
    32
  0
VERTEX
  8
1PHANTOM
  5
B592
 10
358.865
 20
-959.996
 30
0.000000
  70
    32
  0
VERTEX
  8
1PHANTOM
  5
B593
 10
358.860
 20
-960.143
 30
0.000000
  70
    32
  0
VERTEX
  8
1PHANTOM
  5
B594
 10
358.855
 20
-960.289
 30
0.000000
  70
    32
  0
VERTEX
  8
1PHANTOM
  5
B595
 10
358.851
 20
-960.435
 30
0.000000
  70
    32
  0
VERTEX
  8
1PHANTOM
  5
B596
 10
358.847
 20
-960.581
 30
0.000000
  70
    32
  0
VERTEX
  8
1PHANTOM
  5
B597
 10
358.843
 20
-960.727
 30
0.000000
  70
    32
  0
VERTEX
  8
1PHANTOM
  5
B598
 10
358.839
 20
-960.873
 30
0.000000
  70
    32
  0
VERTEX
  8
1PHANTOM
  5
B599
 10
358.836
 20
-961.018
 30
0.000000
  70
    32
  0
VERTEX
  8
1PHANTOM
  5
B59A
 10
358.833
 20
-961.164
 30
0.000000
  70
    32
  0
VERTEX
  8
1PHANTOM
  5
B59B
 10
358.830
 20
-961.309
 30
0.000000
  70
    32
  0
VERTEX
  8
1PHANTOM
  5
B59C
 10
358.827
 20
-961.455
 30
0.000000
  70
    32
  0
VERTEX
  8
1PHANTOM
  5
B59D
 10
358.824
 20
-961.600
 30
0.000000
  70
    32
  0
VERTEX
  8
1PHANTOM
  5
B59E
 10
358.822
 20
-961.745
 30
0.000000
  70
    32
  0
VERTEX
  8
1PHANTOM
  5
B59F
 10
358.819
 20
-961.890
 30
0.000000
  70
    32
  0
VERTEX
  8
1PHANTOM
  5
B5A0
 10
358.816
 20
-962.035
 30
0.000000
  70
    32
  0
VERTEX
  8
1PHANTOM
  5
B5A1
 10
358.812
 20
-962.180
 30
0.000000
  70
    32
  0
VERTEX
  8
1PHANTOM
  5
B5A2
 10
358.809
 20
-962.325
 30
0.000000
  70
    32
  0
VERTEX
  8
1PHANTOM
  5
B5A3
 10
358.806
 20
-962.469
 30
0.000000
  70
    32
  0
VERTEX
  8
1PHANTOM
  5
B5A4
 10
358.802
 20
-962.614
 30
0.000000
  70
    32
  0
VERTEX
  8
1PHANTOM
  5
B5A5
 10
358.798
 20
-962.758
 30
0.000000
  70
    32
  0
VERTEX
  8
1PHANTOM
  5
B5A6
 10
358.793
 20
-962.903
 30
0.000000
  70
    32
  0
VERTEX
  8
1PHANTOM
  5
B5A7
 10
358.788
 20
-963.047
 30
0.000000
  70
    32
  0
VERTEX
  8
1PHANTOM
  5
B5A8
 10
358.784
 20
-963.191
 30
0.000000
  70
    32
  0
VERTEX
  8
1PHANTOM
  5
B5A9
 10
358.778
 20
-963.335
 30
0.000000
  70
    32
  0
VERTEX
  8
1PHANTOM
  5
B5AA
 10
358.773
 20
-963.479
 30
0.000000
  70
    32
  0
VERTEX
  8
1PHANTOM
  5
B5AB
 10
358.768
 20
-963.623
 30
0.000000
  70
    32
  0
VERTEX
  8
1PHANTOM
  5
B5AC
 10
358.762
 20
-963.767
 30
0.000000
  70
    32
  0
VERTEX
  8
1PHANTOM
  5
B5AD
 10
358.756
 20
-963.911
 30
0.000000
  70
    32
  0
VERTEX
  8
1PHANTOM
  5
B5AE
 10
358.750
 20
-964.055
 30
0.000000
  70
    32
  0
VERTEX
  8
1PHANTOM
  5
B5AF
 10
358.744
 20
-964.199
 30
0.000000
  70
    32
  0
VERTEX
  8
1PHANTOM
  5
B5B0
 10
358.738
 20
-964.343
 30
0.000000
  70
    32
  0
VERTEX
  8
1PHANTOM
  5
B5B1
 10
358.732
 20
-964.487
 30
0.000000
  70
    32
  0
VERTEX
  8
1PHANTOM
  5
B5B2
 10
358.726
 20
-964.630
 30
0.000000
  70
    32
  0
VERTEX
  8
1PHANTOM
  5
B5B3
 10
358.719
 20
-964.774
 30
0.000000
  70
    32
  0
VERTEX
  8
1PHANTOM
  5
B5B4
 10
358.713
 20
-964.918
 30
0.000000
  70
    32
  0
VERTEX
  8
1PHANTOM
  5
B5B5
 10
358.706
 20
-965.062
 30
0.000000
  70
    32
  0
VERTEX
  8
1PHANTOM
  5
B5B6
 10
358.700
 20
-965.206
 30
0.000000
  70
    32
  0
VERTEX
  8
1PHANTOM
  5
B5B7
 10
358.693
 20
-965.350
 30
0.000000
  70
    32
  0
VERTEX
  8
1PHANTOM
  5
B5B8
 10
358.687
 20
-965.493
 30
0.000000
  70
    32
  0
VERTEX
  8
1PHANTOM
  5
B5B9
 10
358.681
 20
-965.637
 30
0.000000
  70
    32
  0
VERTEX
  8
1PHANTOM
  5
B5BA
 10
358.674
 20
-965.781
 30
0.000000
  70
    32
  0
VERTEX
  8
1PHANTOM
  5
B5BB
 10
358.668
 20
-965.925
 30
0.000000
  70
    32
  0
VERTEX
  8
1PHANTOM
  5
B5BC
 10
358.662
 20
-966.069
 30
0.000000
  70
    32
  0
VERTEX
  8
1PHANTOM
  5
B5BD
 10
358.656
 20
-966.214
 30
0.000000
  70
    32
  0
VERTEX
  8
1PHANTOM
  5
B5BE
 10
358.650
 20
-966.358
 30
0.000000
  70
    32
  0
VERTEX
  8
1PHANTOM
  5
B5BF
 10
358.644
 20
-966.502
 30
0.000000
  70
    32
  0
VERTEX
  8
1PHANTOM
  5
B5C0
 10
358.638
 20
-966.646
 30
0.000000
  70
    32
  0
VERTEX
  8
1PHANTOM
  5
B5C1
 10
358.632
 20
-966.791
 30
0.000000
  70
    32
  0
VERTEX
  8
1PHANTOM
  5
B5C2
 10
358.627
 20
-966.935
 30
0.000000
  70
    32
  0
VERTEX
  8
1PHANTOM
  5
B5C3
 10
358.622
 20
-967.080
 30
0.000000
  70
    32
  0
VERTEX
  8
1PHANTOM
  5
B5C4
 10
358.617
 20
-967.225
 30
0.000000
  70
    32
  0
VERTEX
  8
1PHANTOM
  5
B5C5
 10
358.612
 20
-967.370
 30
0.000000
  70
    32
  0
VERTEX
  8
1PHANTOM
  5
B5C6
 10
358.607
 20
-967.515
 30
0.000000
  70
    32
  0
VERTEX
  8
1PHANTOM
  5
B5C7
 10
358.603
 20
-967.660
 30
0.000000
  70
    32
  0
VERTEX
  8
1PHANTOM
  5
B5C8
 10
358.599
 20
-967.805
 30
0.000000
  70
    32
  0
VERTEX
  8
1PHANTOM
  5
B5C9
 10
358.595
 20
-967.950
 30
0.000000
  70
    32
  0
VERTEX
  8
1PHANTOM
  5
B5CA
 10
358.591
 20
-968.096
 30
0.000000
  70
    32
  0
VERTEX
  8
1PHANTOM
  5
B5CB
 10
358.588
 20
-968.241
 30
0.000000
  70
    32
  0
VERTEX
  8
1PHANTOM
  5
B5CC
 10
358.585
 20
-968.387
 30
0.000000
  70
    32
  0
VERTEX
  8
1PHANTOM
  5
B5CD
 10
358.583
 20
-968.533
 30
0.000000
  70
    32
  0
VERTEX
  8
1PHANTOM
  5
B5CE
 10
358.580
 20
-968.679
 30
0.000000
  70
    32
  0
VERTEX
  8
1PHANTOM
  5
B5CF
 10
358.579
 20
-968.826
 30
0.000000
  70
    32
  0
VERTEX
  8
1PHANTOM
  5
B5D0
 10
358.577
 20
-968.972
 30
0.000000
  70
    32
  0
VERTEX
  8
1PHANTOM
  5
B5D1
 10
358.576
 20
-969.119
 30
0.000000
  70
    32
  0
VERTEX
  8
1PHANTOM
  5
B5D2
 10
358.575
 20
-969.266
 30
0.000000
  70
    32
  0
VERTEX
  8
1PHANTOM
  5
B5D3
 10
358.575
 20
-969.413
 30
0.000000
  70
    32
  0
VERTEX
  8
1PHANTOM
  5
B5D4
 10
358.576
 20
-969.560
 30
0.000000
  70
    32
  0
VERTEX
  8
1PHANTOM
  5
B5D5
 10
358.576
 20
-969.708
 30
0.000000
  70
    32
  0
VERTEX
  8
1PHANTOM
  5
B5D6
 10
358.577
 20
-969.855
 30
0.000000
  70
    32
  0
VERTEX
  8
1PHANTOM
  5
B5D7
 10
358.579
 20
-970.003
 30
0.000000
  70
    32
  0
VERTEX
  8
1PHANTOM
  5
B5D8
 10
358.581
 20
-970.152
 30
0.000000
  70
    32
  0
VERTEX
  8
1PHANTOM
  5
B5D9
 10
358.584
 20
-970.300
 30
0.000000
  70
    32
  0
VERTEX
  8
1PHANTOM
  5
B5DA
 10
358.587
 20
-970.449
 30
0.000000
  70
    32
  0
VERTEX
  8
1PHANTOM
  5
B5DB
 10
358.591
 20
-970.598
 30
0.000000
  70
    32
  0
VERTEX
  8
1PHANTOM
  5
B5DC
 10
358.595
 20
-970.747
 30
0.000000
  70
    32
  0
VERTEX
  8
1PHANTOM
  5
B5DD
 10
358.600
 20
-970.896
 30
0.000000
  70
    32
  0
VERTEX
  8
1PHANTOM
  5
B5DE
 10
358.606
 20
-971.046
 30
0.000000
  70
    32
  0
VERTEX
  8
1PHANTOM
  5
B5DF
 10
358.612
 20
-971.196
 30
0.000000
  70
    32
  0
VERTEX
  8
1PHANTOM
  5
B5E0
 10
358.619
 20
-971.347
 30
0.000000
  70
    32
  0
VERTEX
  8
1PHANTOM
  5
B5E1
 10
358.626
 20
-971.497
 30
0.000000
  70
    32
  0
VERTEX
  8
1PHANTOM
  5
B5E2
 10
358.634
 20
-971.648
 30
0.000000
  70
    32
  0
VERTEX
  8
1PHANTOM
  5
B5E3
 10
358.643
 20
-971.799
 30
0.000000
  70
    32
  0
VERTEX
  8
1PHANTOM
  5
B5E4
 10
358.652
 20
-971.951
 30
0.000000
  70
    32
  0
VERTEX
  8
1PHANTOM
  5
B5E5
 10
358.662
 20
-972.103
 30
0.000000
  70
    32
  0
VERTEX
  8
1PHANTOM
  5
B5E6
 10
358.673
 20
-972.255
 30
0.000000
  70
    32
  0
VERTEX
  8
1PHANTOM
  5
B5E7
 10
358.685
 20
-972.407
 30
0.000000
  70
    32
  0
VERTEX
  8
1PHANTOM
  5
B5E8
 10
358.697
 20
-972.560
 30
0.000000
  70
    32
  0
VERTEX
  8
1PHANTOM
  5
B5E9
 10
358.710
 20
-972.713
 30
0.000000
  70
    32
  0
VERTEX
  8
1PHANTOM
  5
B5EA
 10
358.724
 20
-972.867
 30
0.000000
  70
    32
  0
VERTEX
  8
1PHANTOM
  5
B5EB
 10
358.739
 20
-973.021
 30
0.000000
  70
    32
  0
VERTEX
  8
1PHANTOM
  5
B5EC
 10
358.754
 20
-973.175
 30
0.000000
  70
    32
  0
VERTEX
  8
1PHANTOM
  5
B5ED
 10
358.771
 20
-973.330
 30
0.000000
  70
    32
  0
VERTEX
  8
1PHANTOM
  5
B5EE
 10
358.788
 20
-973.485
 30
0.000000
  70
    32
  0
VERTEX
  8
1PHANTOM
  5
B5EF
 10
358.806
 20
-973.640
 30
0.000000
  70
    32
  0
VERTEX
  8
1PHANTOM
  5
B5F0
 10
358.825
 20
-973.796
 30
0.000000
  70
    32
  0
VERTEX
  8
1PHANTOM
  5
B5F1
 10
358.845
 20
-973.952
 30
0.000000
  70
    32
  0
VERTEX
  8
1PHANTOM
  5
B5F2
 10
358.866
 20
-974.108
 30
0.000000
  70
    32
  0
VERTEX
  8
1PHANTOM
  5
B5F3
 10
358.887
 20
-974.264
 30
0.000000
  70
    32
  0
VERTEX
  8
1PHANTOM
  5
B5F4
 10
358.911
 20
-974.421
 30
0.000000
  70
    32
  0
VERTEX
  8
1PHANTOM
  5
B5F5
 10
358.935
 20
-974.577
 30
0.000000
  70
    32
  0
VERTEX
  8
1PHANTOM
  5
B5F6
 10
358.960
 20
-974.733
 30
0.000000
  70
    32
  0
VERTEX
  8
1PHANTOM
  5
B5F7
 10
358.987
 20
-974.888
 30
0.000000
  70
    32
  0
VERTEX
  8
1PHANTOM
  5
B5F8
 10
359.015
 20
-975.044
 30
0.000000
  70
    32
  0
VERTEX
  8
1PHANTOM
  5
B5F9
 10
359.045
 20
-975.199
 30
0.000000
  70
    32
  0
VERTEX
  8
1PHANTOM
  5
B5FA
 10
359.076
 20
-975.353
 30
0.000000
  70
    32
  0
VERTEX
  8
1PHANTOM
  5
B5FB
 10
359.109
 20
-975.506
 30
0.000000
  70
    32
  0
VERTEX
  8
1PHANTOM
  5
B5FC
 10
359.143
 20
-975.659
 30
0.000000
  70
    32
  0
VERTEX
  8
1PHANTOM
  5
B5FD
 10
359.179
 20
-975.811
 30
0.000000
  70
    32
  0
VERTEX
  8
1PHANTOM
  5
B5FE
 10
359.217
 20
-975.962
 30
0.000000
  70
    32
  0
VERTEX
  8
1PHANTOM
  5
B5FF
 10
359.257
 20
-976.112
 30
0.000000
  70
    32
  0
VERTEX
  8
1PHANTOM
  5
B600
 10
359.298
 20
-976.261
 30
0.000000
  70
    32
  0
VERTEX
  8
1PHANTOM
  5
B601
 10
359.342
 20
-976.408
 30
0.000000
  70
    32
  0
VERTEX
  8
1PHANTOM
  5
B602
 10
359.387
 20
-976.554
 30
0.000000
  70
    32
  0
VERTEX
  8
1PHANTOM
  5
B603
 10
359.435
 20
-976.699
 30
0.000000
  70
    32
  0
VERTEX
  8
1PHANTOM
  5
B604
 10
359.484
 20
-976.842
 30
0.000000
  70
    32
  0
VERTEX
  8
1PHANTOM
  5
B605
 10
359.536
 20
-976.983
 30
0.000000
  70
    32
  0
VERTEX
  8
1PHANTOM
  5
B606
 10
359.590
 20
-977.123
 30
0.000000
  70
    32
  0
VERTEX
  8
1PHANTOM
  5
B607
 10
359.647
 20
-977.261
 30
0.000000
  70
    32
  0
VERTEX
  8
1PHANTOM
  5
B608
 10
359.706
 20
-977.396
 30
0.000000
  70
    32
  0
VERTEX
  8
1PHANTOM
  5
B609
 10
359.767
 20
-977.530
 30
0.000000
  70
    32
  0
VERTEX
  8
1PHANTOM
  5
B60A
 10
359.831
 20
-977.662
 30
0.000000
  70
    32
  0
VERTEX
  8
1PHANTOM
  5
B60B
 10
359.897
 20
-977.791
 30
0.000000
  70
    32
  0
VERTEX
  8
1PHANTOM
  5
B60C
 10
359.966
 20
-977.918
 30
0.000000
  70
    32
  0
VERTEX
  8
1PHANTOM
  5
B60D
 10
360.038
 20
-978.043
 30
0.000000
  70
    32
  0
SEQEND
  8
1PHANTOM
  5
B60E
  0
POLYLINE
  8
1PHANTOM
  5
B60F
  66
     1
 10
0.000000
 20
0.000000
 30
0.000000
  70
     8
  0
VERTEX
  8
1PHANTOM
  5
B610
 10
367.751
 20
-981.352
 30
0.000000
  70
    32
  0
VERTEX
  8
1PHANTOM
  5
B611
 10
367.771
 20
-981.356
 30
0.000000
  70
    32
  0
VERTEX
  8
1PHANTOM
  5
B612
 10
367.791
 20
-981.359
 30
0.000000
  70
    32
  0
VERTEX
  8
1PHANTOM
  5
B613
 10
367.810
 20
-981.363
 30
0.000000
  70
    32
  0
VERTEX
  8
1PHANTOM
  5
B614
 10
367.830
 20
-981.366
 30
0.000000
  70
    32
  0
VERTEX
  8
1PHANTOM
  5
B615
 10
367.850
 20
-981.370
 30
0.000000
  70
    32
  0
VERTEX
  8
1PHANTOM
  5
B616
 10
367.870
 20
-981.373
 30
0.000000
  70
    32
  0
VERTEX
  8
1PHANTOM
  5
B617
 10
367.890
 20
-981.377
 30
0.000000
  70
    32
  0
VERTEX
  8
1PHANTOM
  5
B618
 10
367.909
 20
-981.380
 30
0.000000
  70
    32
  0
VERTEX
  8
1PHANTOM
  5
B619
 10
367.929
 20
-981.384
 30
0.000000
  70
    32
  0
VERTEX
  8
1PHANTOM
  5
B61A
 10
367.949
 20
-981.387
 30
0.000000
  70
    32
  0
VERTEX
  8
1PHANTOM
  5
B61B
 10
367.969
 20
-981.391
 30
0.000000
  70
    32
  0
VERTEX
  8
1PHANTOM
  5
B61C
 10
367.989
 20
-981.394
 30
0.000000
  70
    32
  0
VERTEX
  8
1PHANTOM
  5
B61D
 10
368.008
 20
-981.398
 30
0.000000
  70
    32
  0
VERTEX
  8
1PHANTOM
  5
B61E
 10
368.028
 20
-981.401
 30
0.000000
  70
    32
  0
VERTEX
  8
1PHANTOM
  5
B61F
 10
368.048
 20
-981.404
 30
0.000000
  70
    32
  0
VERTEX
  8
1PHANTOM
  5
B620
 10
368.068
 20
-981.408
 30
0.000000
  70
    32
  0
VERTEX
  8
1PHANTOM
  5
B621
 10
368.088
 20
-981.411
 30
0.000000
  70
    32
  0
VERTEX
  8
1PHANTOM
  5
B622
 10
368.107
 20
-981.415
 30
0.000000
  70
    32
  0
VERTEX
  8
1PHANTOM
  5
B623
 10
368.127
 20
-981.418
 30
0.000000
  70
    32
  0
VERTEX
  8
1PHANTOM
  5
B624
 10
368.147
 20
-981.421
 30
0.000000
  70
    32
  0
VERTEX
  8
1PHANTOM
  5
B625
 10
368.167
 20
-981.425
 30
0.000000
  70
    32
  0
VERTEX
  8
1PHANTOM
  5
B626
 10
368.186
 20
-981.428
 30
0.000000
  70
    32
  0
VERTEX
  8
1PHANTOM
  5
B627
 10
368.206
 20
-981.432
 30
0.000000
  70
    32
  0
VERTEX
  8
1PHANTOM
  5
B628
 10
368.226
 20
-981.435
 30
0.000000
  70
    32
  0
VERTEX
  8
1PHANTOM
  5
B629
 10
368.246
 20
-981.438
 30
0.000000
  70
    32
  0
VERTEX
  8
1PHANTOM
  5
B62A
 10
368.265
 20
-981.442
 30
0.000000
  70
    32
  0
VERTEX
  8
1PHANTOM
  5
B62B
 10
368.285
 20
-981.445
 30
0.000000
  70
    32
  0
VERTEX
  8
1PHANTOM
  5
B62C
 10
368.305
 20
-981.448
 30
0.000000
  70
    32
  0
VERTEX
  8
1PHANTOM
  5
B62D
 10
368.325
 20
-981.452
 30
0.000000
  70
    32
  0
VERTEX
  8
1PHANTOM
  5
B62E
 10
368.344
 20
-981.455
 30
0.000000
  70
    32
  0
VERTEX
  8
1PHANTOM
  5
B62F
 10
368.364
 20
-981.458
 30
0.000000
  70
    32
  0
VERTEX
  8
1PHANTOM
  5
B630
 10
368.384
 20
-981.462
 30
0.000000
  70
    32
  0
VERTEX
  8
1PHANTOM
  5
B631
 10
368.404
 20
-981.465
 30
0.000000
  70
    32
  0
VERTEX
  8
1PHANTOM
  5
B632
 10
368.423
 20
-981.468
 30
0.000000
  70
    32
  0
VERTEX
  8
1PHANTOM
  5
B633
 10
368.443
 20
-981.472
 30
0.000000
  70
    32
  0
VERTEX
  8
1PHANTOM
  5
B634
 10
368.463
 20
-981.475
 30
0.000000
  70
    32
  0
VERTEX
  8
1PHANTOM
  5
B635
 10
368.483
 20
-981.478
 30
0.000000
  70
    32
  0
VERTEX
  8
1PHANTOM
  5
B636
 10
368.502
 20
-981.482
 30
0.000000
  70
    32
  0
VERTEX
  8
1PHANTOM
  5
B637
 10
368.522
 20
-981.485
 30
0.000000
  70
    32
  0
VERTEX
  8
1PHANTOM
  5
B638
 10
368.542
 20
-981.488
 30
0.000000
  70
    32
  0
VERTEX
  8
1PHANTOM
  5
B639
 10
368.561
 20
-981.492
 30
0.000000
  70
    32
  0
VERTEX
  8
1PHANTOM
  5
B63A
 10
368.581
 20
-981.495
 30
0.000000
  70
    32
  0
VERTEX
  8
1PHANTOM
  5
B63B
 10
368.601
 20
-981.498
 30
0.000000
  70
    32
  0
VERTEX
  8
1PHANTOM
  5
B63C
 10
368.621
 20
-981.502
 30
0.000000
  70
    32
  0
VERTEX
  8
1PHANTOM
  5
B63D
 10
368.640
 20
-981.505
 30
0.000000
  70
    32
  0
VERTEX
  8
1PHANTOM
  5
B63E
 10
368.660
 20
-981.508
 30
0.000000
  70
    32
  0
VERTEX
  8
1PHANTOM
  5
B63F
 10
368.680
 20
-981.511
 30
0.000000
  70
    32
  0
VERTEX
  8
1PHANTOM
  5
B640
 10
368.699
 20
-981.515
 30
0.000000
  70
    32
  0
VERTEX
  8
1PHANTOM
  5
B641
 10
368.719
 20
-981.518
 30
0.000000
  70
    32
  0
VERTEX
  8
1PHANTOM
  5
B642
 10
368.739
 20
-981.521
 30
0.000000
  70
    32
  0
VERTEX
  8
1PHANTOM
  5
B643
 10
368.759
 20
-981.524
 30
0.000000
  70
    32
  0
VERTEX
  8
1PHANTOM
  5
B644
 10
368.778
 20
-981.528
 30
0.000000
  70
    32
  0
VERTEX
  8
1PHANTOM
  5
B645
 10
368.798
 20
-981.531
 30
0.000000
  70
    32
  0
VERTEX
  8
1PHANTOM
  5
B646
 10
368.818
 20
-981.534
 30
0.000000
  70
    32
  0
VERTEX
  8
1PHANTOM
  5
B647
 10
368.837
 20
-981.537
 30
0.000000
  70
    32
  0
VERTEX
  8
1PHANTOM
  5
B648
 10
368.857
 20
-981.541
 30
0.000000
  70
    32
  0
VERTEX
  8
1PHANTOM
  5
B649
 10
368.877
 20
-981.544
 30
0.000000
  70
    32
  0
VERTEX
  8
1PHANTOM
  5
B64A
 10
368.896
 20
-981.547
 30
0.000000
  70
    32
  0
VERTEX
  8
1PHANTOM
  5
B64B
 10
368.916
 20
-981.550
 30
0.000000
  70
    32
  0
VERTEX
  8
1PHANTOM
  5
B64C
 10
368.936
 20
-981.553
 30
0.000000
  70
    32
  0
VERTEX
  8
1PHANTOM
  5
B64D
 10
368.955
 20
-981.557
 30
0.000000
  70
    32
  0
VERTEX
  8
1PHANTOM
  5
B64E
 10
368.975
 20
-981.560
 30
0.000000
  70
    32
  0
VERTEX
  8
1PHANTOM
  5
B64F
 10
368.995
 20
-981.563
 30
0.000000
  70
    32
  0
VERTEX
  8
1PHANTOM
  5
B650
 10
369.014
 20
-981.566
 30
0.000000
  70
    32
  0
VERTEX
  8
1PHANTOM
  5
B651
 10
369.034
 20
-981.570
 30
0.000000
  70
    32
  0
VERTEX
  8
1PHANTOM
  5
B652
 10
369.054
 20
-981.573
 30
0.000000
  70
    32
  0
VERTEX
  8
1PHANTOM
  5
B653
 10
369.073
 20
-981.576
 30
0.000000
  70
    32
  0
VERTEX
  8
1PHANTOM
  5
B654
 10
369.093
 20
-981.579
 30
0.000000
  70
    32
  0
VERTEX
  8
1PHANTOM
  5
B655
 10
369.113
 20
-981.582
 30
0.000000
  70
    32
  0
VERTEX
  8
1PHANTOM
  5
B656
 10
369.132
 20
-981.585
 30
0.000000
  70
    32
  0
VERTEX
  8
1PHANTOM
  5
B657
 10
369.152
 20
-981.589
 30
0.000000
  70
    32
  0
VERTEX
  8
1PHANTOM
  5
B658
 10
369.172
 20
-981.592
 30
0.000000
  70
    32
  0
VERTEX
  8
1PHANTOM
  5
B659
 10
369.191
 20
-981.595
 30
0.000000
  70
    32
  0
VERTEX
  8
1PHANTOM
  5
B65A
 10
369.211
 20
-981.598
 30
0.000000
  70
    32
  0
VERTEX
  8
1PHANTOM
  5
B65B
 10
369.231
 20
-981.601
 30
0.000000
  70
    32
  0
VERTEX
  8
1PHANTOM
  5
B65C
 10
369.250
 20
-981.604
 30
0.000000
  70
    32
  0
VERTEX
  8
1PHANTOM
  5
B65D
 10
369.270
 20
-981.608
 30
0.000000
  70
    32
  0
VERTEX
  8
1PHANTOM
  5
B65E
 10
369.290
 20
-981.611
 30
0.000000
  70
    32
  0
VERTEX
  8
1PHANTOM
  5
B65F
 10
369.309
 20
-981.614
 30
0.000000
  70
    32
  0
VERTEX
  8
1PHANTOM
  5
B660
 10
369.329
 20
-981.617
 30
0.000000
  70
    32
  0
VERTEX
  8
1PHANTOM
  5
B661
 10
369.349
 20
-981.620
 30
0.000000
  70
    32
  0
VERTEX
  8
1PHANTOM
  5
B662
 10
369.368
 20
-981.623
 30
0.000000
  70
    32
  0
VERTEX
  8
1PHANTOM
  5
B663
 10
369.388
 20
-981.627
 30
0.000000
  70
    32
  0
VERTEX
  8
1PHANTOM
  5
B664
 10
369.408
 20
-981.630
 30
0.000000
  70
    32
  0
VERTEX
  8
1PHANTOM
  5
B665
 10
369.427
 20
-981.633
 30
0.000000
  70
    32
  0
VERTEX
  8
1PHANTOM
  5
B666
 10
369.447
 20
-981.636
 30
0.000000
  70
    32
  0
VERTEX
  8
1PHANTOM
  5
B667
 10
369.466
 20
-981.639
 30
0.000000
  70
    32
  0
VERTEX
  8
1PHANTOM
  5
B668
 10
369.486
 20
-981.642
 30
0.000000
  70
    32
  0
VERTEX
  8
1PHANTOM
  5
B669
 10
369.506
 20
-981.645
 30
0.000000
  70
    32
  0
VERTEX
  8
1PHANTOM
  5
B66A
 10
369.525
 20
-981.648
 30
0.000000
  70
    32
  0
VERTEX
  8
1PHANTOM
  5
B66B
 10
369.545
 20
-981.652
 30
0.000000
  70
    32
  0
VERTEX
  8
1PHANTOM
  5
B66C
 10
369.565
 20
-981.655
 30
0.000000
  70
    32
  0
VERTEX
  8
1PHANTOM
  5
B66D
 10
369.584
 20
-981.658
 30
0.000000
  70
    32
  0
VERTEX
  8
1PHANTOM
  5
B66E
 10
369.604
 20
-981.661
 30
0.000000
  70
    32
  0
VERTEX
  8
1PHANTOM
  5
B66F
 10
369.624
 20
-981.664
 30
0.000000
  70
    32
  0
VERTEX
  8
1PHANTOM
  5
B670
 10
369.643
 20
-981.667
 30
0.000000
  70
    32
  0
VERTEX
  8
1PHANTOM
  5
B671
 10
369.663
 20
-981.670
 30
0.000000
  70
    32
  0
VERTEX
  8
1PHANTOM
  5
B672
 10
369.682
 20
-981.673
 30
0.000000
  70
    32
  0
VERTEX
  8
1PHANTOM
  5
B673
 10
369.702
 20
-981.676
 30
0.000000
  70
    32
  0
VERTEX
  8
1PHANTOM
  5
B674
 10
369.722
 20
-981.679
 30
0.000000
  70
    32
  0
VERTEX
  8
1PHANTOM
  5
B675
 10
369.741
 20
-981.683
 30
0.000000
  70
    32
  0
VERTEX
  8
1PHANTOM
  5
B676
 10
369.761
 20
-981.686
 30
0.000000
  70
    32
  0
VERTEX
  8
1PHANTOM
  5
B677
 10
369.780
 20
-981.689
 30
0.000000
  70
    32
  0
VERTEX
  8
1PHANTOM
  5
B678
 10
369.800
 20
-981.692
 30
0.000000
  70
    32
  0
VERTEX
  8
1PHANTOM
  5
B679
 10
369.820
 20
-981.695
 30
0.000000
  70
    32
  0
VERTEX
  8
1PHANTOM
  5
B67A
 10
369.839
 20
-981.698
 30
0.000000
  70
    32
  0
VERTEX
  8
1PHANTOM
  5
B67B
 10
369.859
 20
-981.701
 30
0.000000
  70
    32
  0
VERTEX
  8
1PHANTOM
  5
B67C
 10
369.879
 20
-981.704
 30
0.000000
  70
    32
  0
VERTEX
  8
1PHANTOM
  5
B67D
 10
369.898
 20
-981.707
 30
0.000000
  70
    32
  0
VERTEX
  8
1PHANTOM
  5
B67E
 10
369.918
 20
-981.710
 30
0.000000
  70
    32
  0
VERTEX
  8
1PHANTOM
  5
B67F
 10
369.937
 20
-981.713
 30
0.000000
  70
    32
  0
VERTEX
  8
1PHANTOM
  5
B680
 10
369.957
 20
-981.716
 30
0.000000
  70
    32
  0
VERTEX
  8
1PHANTOM
  5
B681
 10
369.977
 20
-981.720
 30
0.000000
  70
    32
  0
VERTEX
  8
1PHANTOM
  5
B682
 10
369.996
 20
-981.723
 30
0.000000
  70
    32
  0
VERTEX
  8
1PHANTOM
  5
B683
 10
370.016
 20
-981.726
 30
0.000000
  70
    32
  0
VERTEX
  8
1PHANTOM
  5
B684
 10
370.035
 20
-981.729
 30
0.000000
  70
    32
  0
VERTEX
  8
1PHANTOM
  5
B685
 10
370.055
 20
-981.732
 30
0.000000
  70
    32
  0
VERTEX
  8
1PHANTOM
  5
B686
 10
370.075
 20
-981.735
 30
0.000000
  70
    32
  0
VERTEX
  8
1PHANTOM
  5
B687
 10
370.094
 20
-981.738
 30
0.000000
  70
    32
  0
VERTEX
  8
1PHANTOM
  5
B688
 10
370.114
 20
-981.741
 30
0.000000
  70
    32
  0
VERTEX
  8
1PHANTOM
  5
B689
 10
370.133
 20
-981.744
 30
0.000000
  70
    32
  0
VERTEX
  8
1PHANTOM
  5
B68A
 10
370.153
 20
-981.747
 30
0.000000
  70
    32
  0
VERTEX
  8
1PHANTOM
  5
B68B
 10
370.173
 20
-981.750
 30
0.000000
  70
    32
  0
VERTEX
  8
1PHANTOM
  5
B68C
 10
370.192
 20
-981.753
 30
0.000000
  70
    32
  0
VERTEX
  8
1PHANTOM
  5
B68D
 10
370.212
 20
-981.756
 30
0.000000
  70
    32
  0
VERTEX
  8
1PHANTOM
  5
B68E
 10
370.231
 20
-981.759
 30
0.000000
  70
    32
  0
VERTEX
  8
1PHANTOM
  5
B68F
 10
370.251
 20
-981.762
 30
0.000000
  70
    32
  0
SEQEND
  8
1PHANTOM
  5
B690
  0
LINE
  5
A340
  8
01
 10
442.46995355400588
 20
-1099.7982627839631
 30
0.0
 11
442.46996984157022
 21
-1092.7982627839631
 31
0.0
  0
LINE
  5
A341
  8
01
 10
442.20746984156921
 20
-1092.7982627839631
 30
0.0
 11
442.46996984157022
 21
-1092.7982627839631
 31
0.0
  0
LINE
  5
A342
  8
01
 10
442.20745355400499
 20
-1099.7982627839631
 30
0.0
 11
442.46995355400588
 21
-1099.7982627839631
 31
0.0
  0
LINE
  5
A343
  8
01
 10
442.20746984156921
 20
-1092.7982627839631
 30
0.0
 11
440.0199443921021
 21
-1094.9857627839631
 31
0.0
  0
LINE
  5
A344
  8
01
 10
442.20745355400499
 20
-1099.7982627839631
 30
0.0
 11
440.01996882354342
 21
-1097.6107627839631
 31
0.0
  0
LINE
  5
A345
  8
01
 10
422.10747289553518
 20
-1094.9857627839631
 30
0.0
 11
440.0199443921021
 21
-1094.9857627839631
 31
0.0
  0
LINE
  5
A346
  8
01
 10
422.10746678769851
 20
-1097.6107627839631
 30
0.0
 11
440.01996882354342
 21
-1097.6107627839631
 31
0.0
  0
LINE
  5
A347
  8
01
 10
417.46996984157022
 20
-1096.2982627839631
 30
0.0
 11
422.10747289553518
 21
-1094.9857627839631
 31
0.0
  0
LINE
  5
A348
  8
01
 10
417.46996984157022
 20
-1096.2982627839631
 30
0.0
 11
422.10746678769851
 21
-1097.6107627839631
 31
0.0
  0
LINE
  5
A349
  8
01
 10
442.20745355400499
 20
-1099.7982627839631
 30
0.0
 11
442.20746984156921
 21
-1092.7982627839631
 31
0.0
  0
LINE
  5
A34A
  8
01
 10
431.90746576972577
 20
-1098.0482627839631
 30
0.0
 11
431.20747391350972
 21
-1094.5482627839631
 31
0.0
  0
LINE
  5
A34B
  8
01
 10
431.20747391350972
 20
-1094.5482627839631
 30
0.0
 11
431.11997289553688
 21
-1094.9857627839631
 31
0.0
  0
LINE
  5
A34C
  8
01
 10
429.10746576972582
 20
-1098.0482627839631
 30
0.0
 11
428.40747391350601
 21
-1094.5482627839631
 31
0.0
  0
LINE
  5
A34D
  8
01
 10
430.50746576972568
 20
-1098.0482627839631
 30
0.0
 11
429.80747391350582
 21
-1094.5482627839631
 31
0.0
  0
LINE
  5
A34E
  8
01
 10
426.3074657697257
 20
-1098.0482627839631
 30
0.0
 11
425.607473913506
 21
-1094.5482627839631
 31
0.0
  0
LINE
  5
A34F
  8
01
 10
427.70746576972579
 20
-1098.0482627839631
 30
0.0
 11
427.00747391350592
 21
-1094.5482627839631
 31
0.0
  0
LINE
  5
A350
  8
01
 10
423.50746576972568
 20
-1098.0482627839631
 30
0.0
 11
422.80747391350582
 21
-1094.5482627839631
 31
0.0
  0
LINE
  5
A351
  8
01
 10
421.40747345255357
 20
-1094.746368954641
 30
0.0
 11
421.29436159212742
 21
-1095.215888473004
 31
0.0
  0
LINE
  5
A352
  8
01
 10
422.10746576972588
 20
-1098.0482627839631
 30
0.0
 11
421.40747345255357
 21
-1094.746368954641
 31
0.0
  0
LINE
  5
A353
  8
01
 10
424.90746576972577
 20
-1098.0482627839631
 30
0.0
 11
424.20747391350591
 21
-1094.5482627839631
 31
0.0
  0
LINE
  5
A354
  8
01
 10
428.40747391350601
 20
-1094.5482627839631
 30
0.0
 11
428.3199728955334
 21
-1094.9857627839631
 31
0.0
  0
LINE
  5
A355
  8
01
 10
429.80747391350582
 20
-1094.5482627839631
 30
0.0
 11
429.7199728955336
 21
-1094.9857627839631
 31
0.0
  0
LINE
  5
A356
  8
01
 10
425.607473913506
 20
-1094.5482627839631
 30
0.0
 11
425.51997289553327
 21
-1094.9857627839631
 31
0.0
  0
LINE
  5
A357
  8
01
 10
427.00747391350592
 20
-1094.5482627839631
 30
0.0
 11
426.91997289553342
 21
-1094.9857627839631
 31
0.0
  0
LINE
  5
A358
  8
01
 10
422.80747391350582
 20
-1094.5482627839631
 30
0.0
 11
422.71997289553349
 21
-1094.9857627839631
 31
0.0
  0
LINE
  5
A359
  8
01
 10
424.20747391350591
 20
-1094.5482627839631
 30
0.0
 11
424.11997289553358
 21
-1094.9857627839631
 31
0.0
  0
LINE
  5
A35A
  8
1CENTER
 10
416.36496994969718
 20
-1096.2982627839631
 30
0.0
 11
443.92744512611711
 21
-1096.2982627839631
 31
0.0
  0
LINE
  5
A35B
  8
01
 10
420.80614001494081
 20
-1097.2424625114049
 30
0.0
 11
420.70746669163458
 21
-1097.652048659661
 31
0.0
  0
LINE
  5
A35C
  8
01
 10
418.60747160874359
 20
-1095.5387936373529
 30
0.0
 11
418.33467298452308
 21
-1096.053535640516
 31
0.0
  0
LINE
  5
A35D
  8
01
 10
419.43997393542372
 20
-1096.8558114795669
 30
0.0
 11
419.30746761353839
 21
-1097.2558368401189
 31
0.0
  0
LINE
  5
A35E
  8
01
 10
420.00747253064873
 20
-1095.1425812959981
 30
0.0
 11
419.84755390584928
 21
-1095.625362076825
 31
0.0
  0
LINE
  5
A35F
  8
01
 10
419.30746761353839
 20
-1097.2558368401189
 30
0.0
 11
418.60747160874359
 21
-1095.5387936373529
 31
0.0
  0
LINE
  5
A360
  8
01
 10
420.70746669163458
 20
-1097.652048659661
 30
0.0
 11
420.00747253064873
 21
-1095.1425812959981
 31
0.0
  0
LINE
  5
A361
  8
01
 10
429.19496678769832
 20
-1097.6107627839631
 30
0.0
 11
429.10746576972582
 21
-1098.0482627839631
 31
0.0
  0
LINE
  5
A362
  8
01
 10
430.59496678769858
 20
-1097.6107627839631
 30
0.0
 11
430.50746576972568
 21
-1098.0482627839631
 31
0.0
  0
LINE
  5
A363
  8
01
 10
424.99496678769827
 20
-1097.6107627839631
 30
0.0
 11
424.90746576972577
 21
-1098.0482627839631
 31
0.0
  0
LINE
  5
A364
  8
01
 10
426.39496678769819
 20
-1097.6107627839631
 30
0.0
 11
426.3074657697257
 21
-1098.0482627839631
 31
0.0
  0
LINE
  5
A365
  8
01
 10
427.794966787698
 20
-1097.6107627839631
 30
0.0
 11
427.70746576972579
 21
-1098.0482627839631
 31
0.0
  0
LINE
  5
A366
  8
01
 10
423.59496678769818
 20
-1097.6107627839631
 30
0.0
 11
423.50746576972568
 21
-1098.0482627839631
 31
0.0
  0
LINE
  5
A367
  8
01
 10
422.19496678769832
 20
-1097.6107627839631
 30
0.0
 11
422.10746576972588
 21
-1098.0482627839631
 31
0.0
  0
LINE
  5
A368
  8
01
 10
431.99496678769867
 20
-1097.6107627839631
 30
0.0
 11
431.90746576972577
 21
-1098.0482627839631
 31
0.0
  0
LINE
  5
A369
  8
01
 10
433.30746576972768
 20
-1098.0482627839631
 30
0.0
 11
432.60747391351168
 21
-1094.5482627839631
 31
0.0
  0
LINE
  5
A36A
  8
01
 10
432.60747391351168
 20
-1094.5482627839631
 30
0.0
 11
432.51997289553879
 21
-1094.9857627839631
 31
0.0
  0
LINE
  5
A36B
  8
01
 10
433.39496678770058
 20
-1097.6107627839631
 30
0.0
 11
433.30746576972768
 21
-1098.0482627839631
 31
0.0
  0
LINE
  5
A36C
  8
01
 10
434.70746576972982
 20
-1098.0482627839631
 30
0.0
 11
434.00747391351388
 21
-1094.5482627839631
 31
0.0
  0
LINE
  5
A36D
  8
01
 10
434.00747391351388
 20
-1094.5482627839631
 30
0.0
 11
433.91997289554092
 21
-1094.9857627839631
 31
0.0
  0
LINE
  5
A36E
  8
01
 10
434.79496678770278
 20
-1097.6107627839631
 30
0.0
 11
434.70746576972982
 21
-1098.0482627839631
 31
0.0
  0
LINE
  5
A36F
  8
01
 10
436.10746576973179
 20
-1098.0482627839631
 30
0.0
 11
435.40747391351579
 21
-1094.5482627839631
 31
0.0
  0
LINE
  5
A370
  8
01
 10
435.40747391351579
 20
-1094.5482627839631
 30
0.0
 11
435.31997289554278
 21
-1094.9857627839631
 31
0.0
  0
LINE
  5
A371
  8
01
 10
436.19496678770469
 20
-1097.6107627839631
 30
0.0
 11
436.10746576973179
 21
-1098.0482627839631
 31
0.0
  0
LINE
  5
A372
  8
01
 10
437.50746576973381
 20
-1098.0482627839631
 30
0.0
 11
436.80747391351792
 21
-1094.5482627839631
 31
0.0
  0
LINE
  5
A373
  8
01
 10
436.80747391351792
 20
-1094.5482627839631
 30
0.0
 11
436.71997289554503
 21
-1094.9857627839631
 31
0.0
  0
LINE
  5
A374
  8
01
 10
437.59496678770682
 20
-1097.6107627839631
 30
0.0
 11
437.50746576973381
 21
-1098.0482627839631
 31
0.0
  0
LINE
  5
A375
  8
01
 10
438.90746576973578
 20
-1098.0482627839631
 30
0.0
 11
438.20747391351978
 21
-1094.5482627839631
 31
0.0
  0
LINE
  5
A376
  8
01
 10
438.20747391351978
 20
-1094.5482627839631
 30
0.0
 11
438.11997289554682
 21
-1094.9857627839631
 31
0.0
  0
LINE
  5
A377
  8
01
 10
438.99496678770879
 20
-1097.6107627839631
 30
0.0
 11
438.90746576973578
 21
-1098.0482627839631
 31
0.0
  0
LINE
  5
A378
  8
01
 10
442.46995355400588
 20
-1090.297097616593
 30
0.0
 11
442.46996984157022
 21
-1083.297097616593
 31
0.0
  0
LINE
  5
A379
  8
01
 10
442.20746984156921
 20
-1083.297097616593
 30
0.0
 11
442.46996984157022
 21
-1083.297097616593
 31
0.0
  0
LINE
  5
A37A
  8
01
 10
442.20745355400499
 20
-1090.297097616593
 30
0.0
 11
442.46995355400588
 21
-1090.297097616593
 31
0.0
  0
LINE
  5
A37B
  8
01
 10
442.20746984156921
 20
-1083.297097616593
 30
0.0
 11
440.0199443921021
 21
-1085.484597616593
 31
0.0
  0
LINE
  5
A37C
  8
01
 10
442.20745355400499
 20
-1090.297097616593
 30
0.0
 11
440.01996882354342
 21
-1088.109597616593
 31
0.0
  0
LINE
  5
A37D
  8
01
 10
422.10747289553518
 20
-1085.484597616593
 30
0.0
 11
440.0199443921021
 21
-1085.484597616593
 31
0.0
  0
LINE
  5
A37E
  8
01
 10
422.10746678769851
 20
-1088.109597616593
 30
0.0
 11
440.01996882354342
 21
-1088.109597616593
 31
0.0
  0
LINE
  5
A37F
  8
01
 10
417.46996984157022
 20
-1086.797097616593
 30
0.0
 11
422.10747289553518
 21
-1085.484597616593
 31
0.0
  0
LINE
  5
A380
  8
01
 10
417.46996984157022
 20
-1086.797097616593
 30
0.0
 11
422.10746678769851
 21
-1088.109597616593
 31
0.0
  0
LINE
  5
A381
  8
01
 10
442.20745355400499
 20
-1090.297097616593
 30
0.0
 11
442.20746984156921
 21
-1083.297097616593
 31
0.0
  0
LINE
  5
A382
  8
01
 10
431.90746576972577
 20
-1088.547097616593
 30
0.0
 11
431.20747391350972
 21
-1085.047097616593
 31
0.0
  0
LINE
  5
A383
  8
01
 10
431.20747391350972
 20
-1085.047097616593
 30
0.0
 11
431.11997289553688
 21
-1085.484597616593
 31
0.0
  0
LINE
  5
A384
  8
01
 10
429.10746576972582
 20
-1088.547097616593
 30
0.0
 11
428.40747391350601
 21
-1085.047097616593
 31
0.0
  0
LINE
  5
A385
  8
01
 10
430.50746576972568
 20
-1088.547097616593
 30
0.0
 11
429.80747391350582
 21
-1085.047097616593
 31
0.0
  0
LINE
  5
A386
  8
01
 10
426.3074657697257
 20
-1088.547097616593
 30
0.0
 11
425.607473913506
 21
-1085.047097616593
 31
0.0
  0
LINE
  5
A387
  8
01
 10
427.70746576972579
 20
-1088.547097616593
 30
0.0
 11
427.00747391350592
 21
-1085.047097616593
 31
0.0
  0
LINE
  5
A388
  8
01
 10
423.50746576972568
 20
-1088.547097616593
 30
0.0
 11
422.80747391350582
 21
-1085.047097616593
 31
0.0
  0
LINE
  5
A389
  8
01
 10
421.40747345255357
 20
-1085.2452037872711
 30
0.0
 11
421.29436159212742
 21
-1085.7147233056339
 31
0.0
  0
LINE
  5
A38A
  8
01
 10
422.10746576972588
 20
-1088.547097616593
 30
0.0
 11
421.40747345255357
 21
-1085.2452037872711
 31
0.0
  0
LINE
  5
A38B
  8
01
 10
424.90746576972577
 20
-1088.547097616593
 30
0.0
 11
424.20747391350591
 21
-1085.047097616593
 31
0.0
  0
LINE
  5
A38C
  8
01
 10
428.40747391350601
 20
-1085.047097616593
 30
0.0
 11
428.3199728955334
 21
-1085.484597616593
 31
0.0
  0
LINE
  5
A38D
  8
01
 10
429.80747391350582
 20
-1085.047097616593
 30
0.0
 11
429.7199728955336
 21
-1085.484597616593
 31
0.0
  0
LINE
  5
A38E
  8
01
 10
425.607473913506
 20
-1085.047097616593
 30
0.0
 11
425.51997289553327
 21
-1085.484597616593
 31
0.0
  0
LINE
  5
A38F
  8
01
 10
427.00747391350592
 20
-1085.047097616593
 30
0.0
 11
426.91997289553342
 21
-1085.484597616593
 31
0.0
  0
LINE
  5
A390
  8
01
 10
422.80747391350582
 20
-1085.047097616593
 30
0.0
 11
422.71997289553349
 21
-1085.484597616593
 31
0.0
  0
LINE
  5
A391
  8
01
 10
424.20747391350591
 20
-1085.047097616593
 30
0.0
 11
424.11997289553358
 21
-1085.484597616593
 31
0.0
  0
LINE
  5
A392
  8
1CENTER
 10
416.36496994969718
 20
-1086.797097616593
 30
0.0
 11
443.92744512611711
 21
-1086.797097616593
 31
0.0
  0
LINE
  5
A393
  8
01
 10
420.80614001494081
 20
-1087.741297344035
 30
0.0
 11
420.70746669163458
 21
-1088.150883492292
 31
0.0
  0
LINE
  5
A394
  8
01
 10
418.60747160874359
 20
-1086.037628469983
 30
0.0
 11
418.33467298452308
 21
-1086.5523704731461
 31
0.0
  0
LINE
  5
A395
  8
01
 10
419.43997393542372
 20
-1087.354646312197
 30
0.0
 11
419.30746761353839
 21
-1087.7546716727491
 31
0.0
  0
LINE
  5
A396
  8
01
 10
420.00747253064873
 20
-1085.641416128628
 30
0.0
 11
419.84755390584928
 21
-1086.1241969094549
 31
0.0
  0
LINE
  5
A397
  8
01
 10
419.30746761353839
 20
-1087.7546716727491
 30
0.0
 11
418.60747160874359
 21
-1086.037628469983
 31
0.0
  0
LINE
  5
A398
  8
01
 10
420.70746669163458
 20
-1088.150883492292
 30
0.0
 11
420.00747253064873
 21
-1085.641416128628
 31
0.0
  0
LINE
  5
A399
  8
01
 10
429.19496678769832
 20
-1088.109597616593
 30
0.0
 11
429.10746576972582
 21
-1088.547097616593
 31
0.0
  0
LINE
  5
A39A
  8
01
 10
430.59496678769858
 20
-1088.109597616593
 30
0.0
 11
430.50746576972568
 21
-1088.547097616593
 31
0.0
  0
LINE
  5
A39B
  8
01
 10
424.99496678769827
 20
-1088.109597616593
 30
0.0
 11
424.90746576972577
 21
-1088.547097616593
 31
0.0
  0
LINE
  5
A39C
  8
01
 10
426.39496678769819
 20
-1088.109597616593
 30
0.0
 11
426.3074657697257
 21
-1088.547097616593
 31
0.0
  0
LINE
  5
A39D
  8
01
 10
427.794966787698
 20
-1088.109597616593
 30
0.0
 11
427.70746576972579
 21
-1088.547097616593
 31
0.0
  0
LINE
  5
A39E
  8
01
 10
423.59496678769818
 20
-1088.109597616593
 30
0.0
 11
423.50746576972568
 21
-1088.547097616593
 31
0.0
  0
LINE
  5
A39F
  8
01
 10
422.19496678769832
 20
-1088.109597616593
 30
0.0
 11
422.10746576972588
 21
-1088.547097616593
 31
0.0
  0
LINE
  5
A3A0
  8
01
 10
431.99496678769867
 20
-1088.109597616593
 30
0.0
 11
431.90746576972577
 21
-1088.547097616593
 31
0.0
  0
LINE
  5
A3A1
  8
01
 10
433.30746576972768
 20
-1088.547097616593
 30
0.0
 11
432.60747391351168
 21
-1085.047097616593
 31
0.0
  0
LINE
  5
A3A2
  8
01
 10
432.60747391351168
 20
-1085.047097616593
 30
0.0
 11
432.51997289553879
 21
-1085.484597616593
 31
0.0
  0
LINE
  5
A3A3
  8
01
 10
433.39496678770058
 20
-1088.109597616593
 30
0.0
 11
433.30746576972768
 21
-1088.547097616593
 31
0.0
  0
LINE
  5
A3A4
  8
01
 10
434.70746576972982
 20
-1088.547097616593
 30
0.0
 11
434.00747391351388
 21
-1085.047097616593
 31
0.0
  0
LINE
  5
A3A5
  8
01
 10
434.00747391351388
 20
-1085.047097616593
 30
0.0
 11
433.91997289554092
 21
-1085.484597616593
 31
0.0
  0
LINE
  5
A3A6
  8
01
 10
434.79496678770278
 20
-1088.109597616593
 30
0.0
 11
434.70746576972982
 21
-1088.547097616593
 31
0.0
  0
LINE
  5
A3A7
  8
01
 10
436.10746576973179
 20
-1088.547097616593
 30
0.0
 11
435.40747391351579
 21
-1085.047097616593
 31
0.0
  0
LINE
  5
A3A8
  8
01
 10
435.40747391351579
 20
-1085.047097616593
 30
0.0
 11
435.31997289554278
 21
-1085.484597616593
 31
0.0
  0
LINE
  5
A3A9
  8
01
 10
436.19496678770469
 20
-1088.109597616593
 30
0.0
 11
436.10746576973179
 21
-1088.547097616593
 31
0.0
  0
LINE
  5
A3AA
  8
01
 10
437.50746576973381
 20
-1088.547097616593
 30
0.0
 11
436.80747391351792
 21
-1085.047097616593
 31
0.0
  0
LINE
  5
A3AB
  8
01
 10
436.80747391351792
 20
-1085.047097616593
 30
0.0
 11
436.71997289554503
 21
-1085.484597616593
 31
0.0
  0
LINE
  5
A3AC
  8
01
 10
437.59496678770682
 20
-1088.109597616593
 30
0.0
 11
437.50746576973381
 21
-1088.547097616593
 31
0.0
  0
LINE
  5
A3AD
  8
01
 10
438.90746576973578
 20
-1088.547097616593
 30
0.0
 11
438.20747391351978
 21
-1085.047097616593
 31
0.0
  0
LINE
  5
A3AE
  8
01
 10
438.20747391351978
 20
-1085.047097616593
 30
0.0
 11
438.11997289554682
 21
-1085.484597616593
 31
0.0
  0
LINE
  5
A3AF
  8
01
 10
438.99496678770879
 20
-1088.109597616593
 30
0.0
 11
438.90746576973578
 21
-1088.547097616593
 31
0.0
  0
TEXT
  5
A3B2
  8
1TEXT
 10
393.78907603402217
 20
-1103.387503849259
 30
0.0
 40
4.0
  1
付属ねじ
  0
LINE
  5
A3B8
  8
1DIM
 10
375.59906261456109
 20
-1085.8281313673269
 30
0.0
 11
395.94906261456089
 21
-1085.8281313673269
 31
0.0
  0
LINE
  5
A3B9
  8
01
 10
375.949062614561
 20
-1085.4781313673259
 30
0.0
 11
396.29906244048698
 21
-1085.4781313673259
 31
0.0
  0
LINE
  5
A3BA
  8
1DIM
 10
375.59906261456132
 20
-1089.1281313673269
 30
0.0
 11
395.94906261456089
 21
-1089.1281313673269
 31
0.0
  0
LINE
  5
A3BB
  8
01
 10
375.949062614561
 20
-1089.478131367327
 30
0.0
 11
396.29906244048698
 21
-1089.478131367327
 31
0.0
  0
LINE
  5
A3BC
  8
1CENTER
 10
374.00649375423018
 20
-1087.4781313673259
 30
0.0
 11
399.157831514561
 21
-1087.4781313673259
 31
0.0
  0
LINE
  5
A3BD
  8
01
 10
375.949062614561
 20
-1076.465683739031
 30
0.0
 11
396.29906244048698
 21
-1076.465683739031
 31
0.0
  0
LINE
  5
A3BE
  8
01
 10
375.949062614561
 20
-1080.465683739031
 30
0.0
 11
396.29906244048698
 21
-1080.465683739031
 31
0.0
  0
LINE
  5
A3BF
  8
1DIM
 10
375.59906261456132
 20
-1080.1156837390311
 30
0.0
 11
395.94906261456089
 21
-1080.1156837390311
 31
0.0
  0
LINE
  5
A3C0
  8
1CENTER
 10
374.00649375423018
 20
-1078.465683739031
 30
0.0
 11
399.157831514561
 21
-1078.465683739031
 31
0.0
  0
LINE
  5
A3C1
  8
1DIM
 10
375.59906261456109
 20
-1076.8156837390311
 30
0.0
 11
395.94906261456089
 21
-1076.8156837390311
 31
0.0
  0
LINE
  5
A3C6
  8
1DIM
 10
375.949062614561
 20
-1085.4781313673259
 30
0.0
 11
375.949062614561
 21
-1089.478131367327
 31
0.0
  0
LINE
  5
A3C7
  8
01
 10
375.59906261456109
 20
-1089.128131367326
 30
0.0
 11
375.949062614561
 21
-1089.478131367327
 31
0.0
  0
LINE
  5
A3C8
  8
01
 10
375.59906261456109
 20
-1085.8281313673269
 30
0.0
 11
375.59906261456109
 21
-1089.128131367326
 31
0.0
  0
LINE
  5
A3C9
  8
01
 10
375.949062614561
 20
-1085.4781313673259
 30
0.0
 11
375.59906261456109
 21
-1085.8281313673269
 31
0.0
  0
LINE
  5
A3CA
  8
01
 10
375.949062614561
 20
-1076.465683739031
 30
0.0
 11
375.59906261456109
 21
-1076.8156837390311
 31
0.0
  0
LINE
  5
A3CB
  8
01
 10
375.59906261456109
 20
-1076.8156837390311
 30
0.0
 11
375.59906261456109
 21
-1080.1156837390311
 31
0.0
  0
LINE
  5
A3CC
  8
01
 10
375.59906261456109
 20
-1080.1156837390311
 30
0.0
 11
375.949062614561
 21
-1080.465683739031
 31
0.0
  0
LINE
  5
A3CD
  8
1DIM
 10
375.949062614561
 20
-1076.465683739031
 30
0.0
 11
375.949062614561
 21
-1080.465683739031
 31
0.0
  0
LINE
  5
A3CF
  8
01
 10
396.29906244048698
 20
-1085.4781313673259
 30
0.0
 11
397.29906260456102
 21
-1084.478131367327
 31
0.0
  0
LINE
  5
A3D0
  8
01
 10
396.29906244048698
 20
-1089.478131367327
 30
0.0
 11
397.299062514561
 21
-1090.478131367327
 31
0.0
  0
LINE
  5
A3D1
  8
1DIM
 10
396.29906244048698
 20
-1089.478131367327
 30
0.0
 11
395.94906261456089
 21
-1089.1281313673269
 31
0.0
  0
LINE
  5
A3D2
  8
1DIM
 10
395.94906261456089
 20
-1085.8281313673269
 30
0.0
 11
396.29906244048698
 21
-1085.4781313673259
 31
0.0
  0
LINE
  5
A3D3
  8
01
 10
397.29906260456102
 20
-1084.478131367327
 30
0.0
 11
397.59906261456098
 21
-1084.478131367327
 31
0.0
  0
LINE
  5
A3D4
  8
01
 10
397.59906261456098
 20
-1084.478131367327
 30
0.0
 11
397.59906261456098
 21
-1090.478131367327
 31
0.0
  0
LINE
  5
A3D5
  8
01
 10
397.299062514561
 20
-1090.478131367327
 30
0.0
 11
397.59906261456098
 21
-1090.478131367327
 31
0.0
  0
LINE
  5
A3D6
  8
01
 10
397.29906260456102
 20
-1084.478131367327
 30
0.0
 11
397.29906260456102
 21
-1090.478131367327
 31
0.0
  0
LINE
  5
A3D7
  8
01
 10
396.29906244048698
 20
-1076.465683739031
 30
0.0
 11
397.29906260456102
 21
-1075.465683739031
 31
0.0
  0
LINE
  5
A3D8
  8
01
 10
396.29906244048698
 20
-1080.465683739031
 30
0.0
 11
397.299062514561
 21
-1081.465683739031
 31
0.0
  0
LINE
  5
A3D9
  8
1DIM
 10
395.94906261456089
 20
-1076.8156837390311
 30
0.0
 11
396.29906244048698
 21
-1076.465683739031
 31
0.0
  0
LINE
  5
A3DA
  8
1DIM
 10
396.29906244048698
 20
-1080.465683739031
 30
0.0
 11
395.94906261456089
 21
-1080.1156837390311
 31
0.0
  0
LINE
  5
A3DB
  8
01
 10
397.29906260456102
 20
-1075.465683739031
 30
0.0
 11
397.59906261456098
 21
-1075.465683739031
 31
0.0
  0
LINE
  5
A3DC
  8
01
 10
397.59906261456098
 20
-1075.465683739031
 30
0.0
 11
397.59906261456098
 21
-1081.465683739031
 31
0.0
  0
LINE
  5
A3DD
  8
01
 10
397.299062514561
 20
-1081.465683739031
 30
0.0
 11
397.59906261456098
 21
-1081.465683739031
 31
0.0
  0
LINE
  5
A3DE
  8
01
 10
397.29906260456102
 20
-1075.465683739031
 30
0.0
 11
397.29906260456102
 21
-1081.465683739031
 31
0.0
  0
LINE
  5
A851
  8
01
 10
330.3388006285644
 20
-1098.244171430779
 30
0.0
 11
330.63880062856367
 21
-1098.544171430779
 31
0.0
  0
LINE
  5
A852
  8
01
 10
330.33880062856082
 20
-1096.844171430778
 30
0.0
 11
330.63880062856009
 21
-1096.544171430779
 31
0.0
  0
LINE
  5
A853
  8
01
 10
335.33880062855712
 20
-1075.859510980345
 30
0.0
 11
335.6388006285564
 21
-1076.1595109803441
 31
0.0
  0
LINE
  5
A854
  8
01
 10
335.3388006285644
 20
-1074.459510980347
 30
0.0
 11
335.63880062856367
 21
-1074.1595109803479
 31
0.0
  0
LINE
  5
A855
  8
01
 10
340.3388006285644
 20
-1053.884387105003
 30
0.0
 11
340.63880062856367
 21
-1054.184387105003
 31
0.0
  0
LINE
  5
A856
  8
01
 10
340.33880062856082
 20
-1052.4843871050059
 30
0.0
 11
340.63880062855998
 21
-1052.184387105006
 31
0.0
  0
LINE
  5
A857
  8
01
 10
330.33880062855712
 20
-1092.841635231511
 30
0.0
 11
330.83880062855712
 21
-1093.341635231511
 31
0.0
  0
LINE
  5
A858
  8
01
 10
330.33880062856082
 20
-1089.8416352315151
 30
0.0
 11
330.8388006285607
 21
-1089.3416352315151
 31
0.0
  0
LINE
  5
A859
  8
01
 10
335.33880062855349
 20
-1070.456974781077
 30
0.0
 11
335.83880062855349
 21
-1070.956974781077
 31
0.0
  0
LINE
  5
A85A
  8
01
 10
335.83880062856082
 20
-1066.956974781084
 30
0.0
 11
335.33880062856082
 21
-1067.456974781084
 31
0.0
  0
LINE
  5
A85B
  8
01
 10
340.33880062856082
 20
-1044.864822668837
 30
0.0
 11
340.83880062856082
 21
-1044.364822668837
 31
0.0
  0
LINE
  5
A85C
  8
01
 10
340.33880062856082
 20
-1047.8648226688399
 30
0.0
 11
340.83880062856082
 21
-1048.3648226688399
 31
0.0
  0
LINE
  5
A85D
  8
1DIM
 10
361.8388006285607
 20
-1095.5441714307819
 30
0.0
 11
361.8388006285607
 21
-1099.5441714307819
 31
0.0
  0
LINE
  5
A85E
  8
1DIM
 10
361.8388006285607
 20
-1093.341635231511
 30
0.0
 11
361.8388006285607
 21
-1089.341635231508
 31
0.0
  0
LINE
  5
A85F
  8
1DIM
 10
361.8388006285607
 20
-1073.1595109803509
 30
0.0
 11
361.8388006285607
 21
-1077.1595109803479
 31
0.0
  0
LINE
  5
A860
  8
1DIM
 10
361.8388006285607
 20
-1066.9569747810799
 30
0.0
 11
361.8388006285644
 21
-1070.9569747810799
 31
0.0
  0
LINE
  5
A861
  8
1DIM
 10
361.8388006285607
 20
-1051.184387105003
 30
0.0
 11
361.83880062855712
 21
-1055.18438710501
 31
0.0
  0
LINE
  5
A862
  8
1DIM
 10
361.83880062855712
 20
-1044.364822668844
 30
0.0
 11
361.8388006285607
 21
-1048.3648226688399
 31
0.0
  0
LINE
  5
A863
  8
01
 10
361.8388006285607
 20
-1066.9569747810799
 30
0.0
 11
362.33880062856082
 21
-1067.4569747810799
 31
0.0
  0
LINE
  5
A864
  8
01
 10
361.8388006285644
 20
-1070.9569747810799
 30
0.0
 11
362.3388006285644
 21
-1070.4569747810799
 31
0.0
  0
LINE
  5
A865
  8
01
 10
362.33880062856082
 20
-1073.6595109803509
 30
0.0
 11
361.8388006285607
 21
-1073.1595109803509
 31
0.0
  0
LINE
  5
A866
  8
01
 10
361.8388006285607
 20
-1077.1595109803479
 30
0.0
 11
362.33880062856082
 21
-1076.6595109803479
 31
0.0
  0
LINE
  5
A867
  8
01
 10
362.33880062856082
 20
-1089.841635231508
 30
0.0
 11
361.8388006285607
 21
-1089.341635231508
 31
0.0
  0
LINE
  5
A868
  8
01
 10
361.8388006285607
 20
-1093.341635231511
 30
0.0
 11
362.33880062856082
 21
-1092.841635231511
 31
0.0
  0
LINE
  5
A869
  8
01
 10
362.33880062856082
 20
-1096.0441714307819
 30
0.0
 11
361.8388006285607
 21
-1095.5441714307819
 31
0.0
  0
LINE
  5
A86A
  8
01
 10
362.33880062856082
 20
-1099.0441714307819
 30
0.0
 11
361.8388006285607
 21
-1099.5441714307819
 31
0.0
  0
LINE
  5
A86B
  8
01
 10
362.33880062855712
 20
-1044.864822668844
 30
0.0
 11
361.83880062855712
 21
-1044.364822668844
 31
0.0
  0
LINE
  5
A86C
  8
01
 10
361.8388006285607
 20
-1048.3648226688399
 30
0.0
 11
362.33880062856082
 21
-1047.8648226688399
 31
0.0
  0
LINE
  5
A86D
  8
01
 10
362.33880062855712
 20
-1054.68438710501
 30
0.0
 11
361.83880062855712
 21
-1055.18438710501
 31
0.0
  0
LINE
  5
A86E
  8
01
 10
362.33880062856082
 20
-1051.684387105003
 30
0.0
 11
361.8388006285607
 21
-1051.184387105003
 31
0.0
  0
ARC
  5
A86F
  8
01
 10
336.8388006285644
 20
-1099.5441714307899
 30
0.0
 40
1.0
 50
0.0000000006253225
 51
90.0
  0
ARC
  5
A870
  8
01
 10
336.8388006285607
 20
-1095.5441714307819
 30
0.0
 40
1.0
 50
270.0
 51
0.0
  0
ARC
  5
A871
  8
01
 10
341.8388006285644
 20
-1077.1595109803479
 30
0.0
 40
1.0
 50
0.0000000004168817
 51
90.0
  0
ARC
  5
A872
  8
01
 10
341.83880062856082
 20
-1073.1595109803509
 30
0.0
 40
1.0
 50
270.0
 51
0.0
  0
ARC
  5
A873
  8
01
 10
346.8388006285644
 20
-1055.184387105006
 30
0.0
 40
1.0
 50
0.0000000004168817
 51
90.0
  0
ARC
  5
A874
  8
01
 10
346.83880062856082
 20
-1051.184387105006
 30
0.0
 40
1.0
 50
270.0
 51
0.0
  0
LINE
  5
A875
  8
1DIM
 10
361.8388006285607
 20
-1089.341635231508
 30
0.0
 11
337.83880062856082
 21
-1093.3416352315151
 31
0.0
  0
LINE
  5
A876
  8
1DIM
 10
337.83880062856082
 20
-1089.4216352315129
 30
0.0
 11
361.8388006285607
 21
-1093.341635231511
 31
0.0
  0
LINE
  5
A877
  8
1DIM
 10
361.8388006285607
 20
-1095.5441714307819
 30
0.0
 11
337.83880062856809
 21
-1099.5441714307781
 31
0.0
  0
LINE
  5
A878
  8
1DIM
 10
337.83880062856082
 20
-1095.5441714307819
 30
0.0
 11
361.8388006285607
 21
-1099.5441714307819
 31
0.0
  0
LINE
  5
A879
  8
1DIM
 10
361.8388006285607
 20
-1073.1595109803509
 30
0.0
 11
342.8388006285644
 21
-1077.1595109803509
 31
0.0
  0
LINE
  5
A87A
  8
1DIM
 10
342.83880062856082
 20
-1073.1595109803509
 30
0.0
 11
361.8388006285607
 21
-1077.1595109803479
 31
0.0
  0
LINE
  5
A87B
  8
1DIM
 10
361.8388006285607
 20
-1066.9569747810799
 30
0.0
 11
342.83880062856082
 21
-1070.9569747810799
 31
0.0
  0
LINE
  5
A87C
  8
1DIM
 10
342.83880062856082
 20
-1066.956974781084
 30
0.0
 11
361.8388006285644
 21
-1070.9569747810799
 31
0.0
  0
LINE
  5
A87D
  8
1DIM
 10
361.8388006285644
 20
-1051.184387105006
 30
0.0
 11
347.8388006285644
 21
-1055.184387105006
 31
0.0
  0
LINE
  5
A87E
  8
1DIM
 10
347.83880062856082
 20
-1051.184387105006
 30
0.0
 11
361.8388006285607
 21
-1055.184387105006
 31
0.0
  0
LINE
  5
A87F
  8
1DIM
 10
361.83880062855712
 20
-1044.364822668844
 30
0.0
 11
347.83880062856082
 21
-1048.3648226688399
 31
0.0
  0
LINE
  5
A880
  8
1DIM
 10
347.83880062856082
 20
-1044.3648226688399
 30
0.0
 11
361.8388006285607
 21
-1048.3648226688399
 31
0.0
  0
LINE
  5
A882
  8
1CENTER
 10
329.21659099544951
 20
-1097.5441714307819
 30
0.0
 11
363.20935289279839
 21
-1097.5441714307819
 31
0.0
  0
LINE
  5
A883
  8
1CENTER
 10
329.21659099544951
 20
-1091.341635231511
 30
0.0
 11
363.20935289279839
 21
-1091.341635231511
 31
0.0
  0
LINE
  5
A884
  8
01
 10
337.8388006285644
 20
-1099.5441714307781
 30
0.0
 11
337.83880062856809
 21
-1099.5441714307781
 31
0.0
  0
LINE
  5
A885
  8
01
 10
336.8388006285644
 20
-1098.544171430789
 30
0.0
 11
330.63880062856367
 21
-1098.544171430779
 31
0.0
  0
LINE
  5
A886
  8
01
 10
330.63880062856009
 20
-1096.544171430779
 30
0.0
 11
336.8388006285607
 21
-1096.5441714307819
 31
0.0
  0
LINE
  5
A887
  8
01
 10
337.83880062856082
 20
-1095.5441714307819
 30
0.0
 11
361.8388006285607
 21
-1095.5441714307819
 31
0.0
  0
LINE
  5
A888
  8
01
 10
362.33880062856082
 20
-1096.0441714307819
 30
0.0
 11
362.33880062856082
 21
-1099.0441714307819
 31
0.0
  0
LINE
  5
A889
  8
01
 10
361.8388006285607
 20
-1099.5441714307819
 30
0.0
 11
337.83880062856809
 21
-1099.5441714307781
 31
0.0
  0
LINE
  5
A88A
  8
01
 10
330.3388006285644
 20
-1098.244171430779
 30
0.0
 11
330.33880062856082
 21
-1096.844171430778
 31
0.0
  0
LINE
  5
A88B
  8
01
 10
337.83880062856082
 20
-1095.5441714307819
 30
0.0
 11
337.83880062856082
 21
-1095.5441714307819
 31
0.0
  0
LINE
  5
A88C
  8
01
 10
337.83880062856082
 20
-1093.341635231511
 30
0.0
 11
337.83880062856082
 21
-1089.341635231511
 31
0.0
  0
LINE
  5
A88D
  8
01
 10
330.33880062855712
 20
-1092.841635231511
 30
0.0
 11
330.33880062856082
 21
-1089.8416352315151
 31
0.0
  0
LINE
  5
A88E
  8
01
 10
361.8388006285607
 20
-1093.341635231511
 30
0.0
 11
330.83880062855712
 21
-1093.341635231511
 31
0.0
  0
LINE
  5
A88F
  8
01
 10
362.33880062856082
 20
-1089.841635231508
 30
0.0
 11
362.33880062856082
 21
-1092.841635231511
 31
0.0
  0
LINE
  5
A890
  8
01
 10
330.8388006285607
 20
-1089.3416352315151
 30
0.0
 11
361.8388006285607
 21
-1089.341635231508
 31
0.0
  0
LINE
  5
A891
  8
01
 10
335.83880062856082
 20
-1066.956974781084
 30
0.0
 11
361.8388006285607
 21
-1066.9569747810799
 31
0.0
  0
LINE
  5
A892
  8
01
 10
362.33880062856082
 20
-1067.4569747810799
 30
0.0
 11
362.3388006285644
 21
-1070.4569747810799
 31
0.0
  0
LINE
  5
A893
  8
01
 10
361.8388006285644
 20
-1070.9569747810799
 30
0.0
 11
335.83880062855349
 21
-1070.956974781077
 31
0.0
  0
LINE
  5
A894
  8
01
 10
335.33880062855349
 20
-1070.456974781077
 30
0.0
 11
335.33880062856082
 21
-1067.456974781084
 31
0.0
  0
LINE
  5
A895
  8
01
 10
342.83880062856082
 20
-1070.9569747810799
 30
0.0
 11
342.83880062856082
 21
-1066.9569747810799
 31
0.0
  0
LINE
  5
A896
  8
01
 10
342.83880062856082
 20
-1073.1595109803509
 30
0.0
 11
342.83880062856082
 21
-1073.1595109803509
 31
0.0
  0
LINE
  5
A897
  8
01
 10
335.33880062855712
 20
-1075.859510980345
 30
0.0
 11
335.3388006285644
 21
-1074.459510980347
 31
0.0
  0
LINE
  5
A898
  8
01
 10
361.8388006285607
 20
-1077.1595109803479
 30
0.0
 11
342.8388006285644
 21
-1077.1595109803509
 31
0.0
  0
LINE
  5
A899
  8
01
 10
362.33880062856082
 20
-1073.6595109803509
 30
0.0
 11
362.33880062856082
 21
-1076.6595109803479
 31
0.0
  0
LINE
  5
A89A
  8
01
 10
342.83880062856082
 20
-1073.1595109803509
 30
0.0
 11
361.8388006285607
 21
-1073.1595109803509
 31
0.0
  0
LINE
  5
A89B
  8
01
 10
335.63880062856367
 20
-1074.1595109803479
 30
0.0
 11
341.83880062856082
 21
-1074.1595109803509
 31
0.0
  0
LINE
  5
A89C
  8
01
 10
341.8388006285644
 20
-1076.1595109803479
 30
0.0
 11
335.6388006285564
 21
-1076.1595109803441
 31
0.0
  0
LINE
  5
A89D
  8
01
 10
342.8388006285644
 20
-1077.15951098034
 30
0.0
 11
342.8388006285644
 21
-1077.1595109803509
 31
0.0
  0
LINE
  5
A89E
  8
1CENTER
 10
334.79735859512982
 20
-1068.9569747810799
 30
0.0
 11
363.20935289279839
 21
-1068.9569747810799
 31
0.0
  0
LINE
  5
A89F
  8
1CENTER
 10
334.79735859512982
 20
-1075.1595109803509
 30
0.0
 11
363.20935289279839
 21
-1075.1595109803509
 31
0.0
  0
LINE
  5
A8A2
  8
1CENTER
 10
339.37500658548049
 20
-1053.184387105006
 30
0.0
 11
363.20935289279839
 21
-1053.184387105006
 31
0.0
  0
LINE
  5
A8A3
  8
1CENTER
 10
339.37500658548049
 20
-1046.3648226688399
 30
0.0
 11
363.20935289279839
 21
-1046.3648226688399
 31
0.0
  0
LINE
  5
A8A4
  8
01
 10
347.8388006285644
 20
-1055.1843871049989
 30
0.0
 11
347.8388006285644
 21
-1055.184387105006
 31
0.0
  0
LINE
  5
A8A5
  8
01
 10
346.8388006285644
 20
-1054.184387105006
 30
0.0
 11
340.63880062856367
 21
-1054.184387105003
 31
0.0
  0
LINE
  5
A8A6
  8
01
 10
340.63880062855998
 20
-1052.184387105006
 30
0.0
 11
346.83880062856082
 21
-1052.184387105006
 31
0.0
  0
LINE
  5
A8A7
  8
01
 10
347.83880062856082
 20
-1051.184387105006
 30
0.0
 11
361.8388006285607
 21
-1051.184387105003
 31
0.0
  0
LINE
  5
A8A8
  8
01
 10
362.33880062856082
 20
-1051.684387105003
 30
0.0
 11
362.33880062855712
 21
-1054.68438710501
 31
0.0
  0
LINE
  5
A8A9
  8
01
 10
361.83880062855712
 20
-1055.18438710501
 30
0.0
 11
347.8388006285644
 21
-1055.184387105006
 31
0.0
  0
LINE
  5
A8AA
  8
01
 10
340.3388006285644
 20
-1053.884387105003
 30
0.0
 11
340.33880062856082
 21
-1052.4843871050059
 31
0.0
  0
LINE
  5
A8AB
  8
01
 10
347.83880062856082
 20
-1051.184387105006
 30
0.0
 11
347.83880062856082
 21
-1051.184387105006
 31
0.0
  0
LINE
  5
A8AC
  8
01
 10
347.83880062856082
 20
-1048.3648226688399
 30
0.0
 11
347.83880062856082
 21
-1044.3648226688399
 31
0.0
  0
LINE
  5
A8AD
  8
01
 10
340.33880062856082
 20
-1047.8648226688399
 30
0.0
 11
340.33880062856082
 21
-1044.864822668837
 31
0.0
  0
LINE
  5
A8AE
  8
01
 10
361.8388006285607
 20
-1048.3648226688399
 30
0.0
 11
340.83880062856082
 21
-1048.3648226688399
 31
0.0
  0
LINE
  5
A8AF
  8
01
 10
362.33880062855712
 20
-1044.864822668844
 30
0.0
 11
362.33880062856082
 21
-1047.8648226688399
 31
0.0
  0
LINE
  5
A8B0
  8
01
 10
340.83880062856082
 20
-1044.364822668837
 30
0.0
 11
361.83880062855712
 21
-1044.364822668844
 31
0.0
  0
LINE
  5
A9ED
  8
1CENTER
 10
663.58312045413527
 20
-960.04303872978255
 30
0.0
 11
616.56001745413528
 21
-960.04303872978255
 31
0.0
  0
LINE
  5
A9EE
  8
1HIDDEN
 10
621.29473345413646
 20
-986.2430357297826
 30
0.0
 11
658.79473345413521
 21
-986.2430357297826
 31
0.0
  0
LINE
  5
A9EF
  8
01
 10
659.29473345413635
 20
-985.74307139639905
 30
0.0
 11
659.99474545413523
 21
-985.04306172977567
 31
0.0
  0
LINE
  5
AD74
  8
01
  6
BYBLOCK
 10
542.79476445413559
 20
-1037.0747129149561
 30
0.0
 11
542.79476445413559
 21
-932.54303872978232
 31
0.0
  0
LINE
  5
AEC4
  8
01
 10
596.29472950168167
 20
-953.54304062978235
 30
0.0
 11
602.2947024541354
 21
-953.54304062978235
 31
0.0
  0
ARC
  5
AEC5
  8
01
 10
596.29472950168167
 20
-954.54304062978235
 30
0.0
 40
1.0
 50
90.0
 51
180.0
  0
LINE
  5
AEC6
  8
01
 10
595.36425456022175
 20
-945.54304242661021
 30
0.0
 11
597.09666245413541
 21
-945.54304062978235
 31
0.0
  0
ARC
  5
AEC7
  8
01
 10
607.29470245413529
 20
-951.54304062978235
 30
0.0
 40
10.0
 50
119.9999999999979
 51
132.83341999999661
  0
ARC
  5
AEC8
  8
01
 10
597.09666245413541
 20
-940.54304062978235
 30
0.0
 40
5.0
 50
270.0
 51
312.83342999999792
  0
LINE
  5
AEC9
  8
01
 10
595.29472950168179
 20
-962.54304242661021
 30
0.0
 11
595.29472950168179
 21
-954.54304062978235
 31
0.0
  0
LINE
  5
AECA
  8
01
 10
593.48930759178324
 20
-963.54304242661021
 30
0.0
 11
594.29472950168179
 21
-963.54304242661021
 31
0.0
  0
ARC
  5
AECB
  8
01
 10
594.29472950168179
 20
-962.54304242661021
 30
0.0
 40
1.0
 50
270.0
 51
0.0
  0
ARC
  5
AECC
  8
01
 10
640.2947565492284
 20
-948.04304422343819
 30
0.0
 40
50.0
 50
183.1847362453799
 51
197.2126126623084
  0
ARC
  5
AECD
  8
01
 10
593.48930759178324
 20
-962.54304242661021
 30
0.0
 40
1.0
 50
197.2126126623084
 51
270.0
  0
ARC
  5
AECE
  8
01
 10
595.36425456022175
 20
-950.54304242661033
 30
0.0
 40
5.0
 50
90.0
 51
183.1847362453799
  0
LINE
  5
AECF
  8
01
 10
527.29479940658894
 20
-953.54304062978235
 30
0.0
 11
521.29482645413532
 21
-953.54304062978235
 31
0.0
  0
ARC
  5
AED0
  8
01
 10
527.29479940658894
 20
-954.54304062978235
 30
0.0
 40
1.0
 50
0.0
 51
90.0
  0
LINE
  5
AED1
  8
01
 10
528.22527434804897
 20
-945.54304242661021
 30
0.0
 11
526.4928664541352
 21
-945.54304062978235
 31
0.0
  0
ARC
  5
AED2
  8
01
 10
516.29482645413532
 20
-951.54304062978235
 30
0.0
 40
10.0
 50
47.166580000003357
 51
60.00000000000351
  0
ARC
  5
AED3
  8
01
 10
526.4928664541352
 20
-940.54304062978235
 30
0.0
 40
5.0
 50
227.1665700000033
 51
270.0
  0
LINE
  5
AED4
  8
01
 10
528.29479940658894
 20
-962.54304242661021
 30
0.0
 11
528.29479940658894
 21
-954.54304062978235
 31
0.0
  0
LINE
  5
AED5
  8
01
 10
530.10022131648736
 20
-963.54304242661021
 30
0.0
 11
529.29479940658894
 21
-963.54304242661021
 31
0.0
  0
ARC
  5
AED6
  8
01
 10
529.29479940658894
 20
-962.54304242661021
 30
0.0
 40
1.0
 50
180.0
 51
270.0
  0
ARC
  5
AED7
  8
01
 10
483.29477235904233
 20
-948.04304422343819
 30
0.0
 40
50.0
 50
342.78738733769211
 51
356.81526375461988
  0
ARC
  5
AED8
  8
01
 10
530.10022131648736
 20
-962.54304242661021
 30
0.0
 40
1.0
 50
270.0
 51
342.78738733769211
  0
ARC
  5
AED9
  8
01
 10
528.22527434804897
 20
-950.54304242661033
 30
0.0
 40
5.0
 50
356.81526375461988
 51
90.0
  0
LINE
  5
AEDA
  8
01
  6
BYBLOCK
 10
600.87208410875758
 20
-864.78825604396025
 30
0.0
 11
600.87208410875758
 21
-867.78825604396036
 31
0.0
  0
LINE
  5
B107
  8
1HATCH
 10
389.29906244048709
 20
-1063.558208000203
 30
0.0
 11
388.94906261456111
 21
-1063.2082080002031
 31
0.0
  0
LINE
  5
B108
  8
1HATCH
 10
388.94906261456111
 20
-1059.9082080002031
 30
0.0
 11
389.29906244048709
 21
-1059.558208000203
 31
0.0
  0
LINE
  5
B109
  8
1HATCH
 10
390.29906260456102
 20
-1058.558208000203
 30
0.0
 11
390.29906260456102
 21
-1064.558208000203
 31
0.0
  0
LINE
  5
B10A
  8
1HATCH
 10
375.949062614561
 20
-1059.558208000203
 30
0.0
 11
375.949062614561
 21
-1063.558208000203
 31
0.0
  0
LINE
  5
B10C
  8
1CENTER
 10
373.99738761456098
 20
-1061.558208000203
 30
0.0
 11
392.15783151456111
 21
-1061.558208000203
 31
0.0
  0
LINE
  5
B10D
  8
1HATCH
 10
375.59906261456109
 20
-1059.9082080002031
 30
0.0
 11
388.94906261456111
 21
-1059.9082080002031
 31
0.0
  0
LINE
  5
B10E
  8
1HATCH
 10
375.59906261456109
 20
-1063.2082080002031
 30
0.0
 11
388.94906261456111
 21
-1063.2082080002031
 31
0.0
  0
LINE
  5
B10F
  8
1HATCH
 10
389.29906244048709
 20
-1055.558208000203
 30
0.0
 11
388.94906261456111
 21
-1055.2082080002031
 31
0.0
  0
LINE
  5
B110
  8
1HATCH
 10
388.94906261456111
 20
-1051.9082080002031
 30
0.0
 11
389.29906244048709
 21
-1051.558208000203
 31
0.0
  0
LINE
  5
B111
  8
1HATCH
 10
390.29906260456102
 20
-1050.558208000203
 30
0.0
 11
390.29906260456102
 21
-1056.558208000203
 31
0.0
  0
LINE
  5
B112
  8
1HATCH
 10
375.949062614561
 20
-1051.558208000203
 30
0.0
 11
375.949062614561
 21
-1055.558208000203
 31
0.0
  0
LINE
  5
B114
  8
1CENTER
 10
373.99738761456098
 20
-1053.558208000203
 30
0.0
 11
392.15783151456111
 21
-1053.558208000203
 31
0.0
  0
LINE
  5
B115
  8
1HATCH
 10
375.59906261456109
 20
-1051.9082080002031
 30
0.0
 11
388.94906261456111
 21
-1051.9082080002031
 31
0.0
  0
LINE
  5
B116
  8
1HATCH
 10
375.59906261456109
 20
-1055.2082080002031
 30
0.0
 11
388.94906261456111
 21
-1055.2082080002031
 31
0.0
  0
LINE
  5
B118
  8
01
 10
442.16996169778702
 20
-1056.4516486926079
 30
0.0
 11
442.16998031214621
 21
-1048.4516486926079
 31
0.0
  0
LINE
  5
B119
  8
01
 10
438.9699663513768
 20
-1054.4516486926079
 30
0.0
 11
438.1699756585586
 21
-1050.4516486926079
 31
0.0
  0
LINE
  5
B11A
  8
01
 10
438.1699756585586
 20
-1050.4516486926079
 30
0.0
 11
438.06997449516092
 21
-1050.9516486926079
 31
0.0
  0
LINE
  5
B11B
  8
01
 10
435.76996635137692
 20
-1054.4516486926079
 30
0.0
 11
434.96997565855429
 21
-1050.4516486926079
 31
0.0
  0
LINE
  5
B11C
  8
01
 10
437.36996635137677
 20
-1054.4516486926079
 30
0.0
 11
436.5699756585542
 21
-1050.4516486926079
 31
0.0
  0
LINE
  5
B11D
  8
01
 10
432.56996635137682
 20
-1054.4516486926079
 30
0.0
 11
431.76997565855419
 21
-1050.4516486926079
 31
0.0
  0
LINE
  5
B11E
  8
01
 10
434.16996635137667
 20
-1054.4516486926079
 30
0.0
 11
433.3699756585541
 21
-1050.4516486926079
 31
0.0
  0
LINE
  5
B11F
  8
01
 10
429.36996635137677
 20
-1054.4516486926079
 30
0.0
 11
428.5699756585542
 21
-1050.4516486926079
 31
0.0
  0
LINE
  5
B120
  8
01
 10
426.96997513175148
 20
-1050.6780557448119
 30
0.0
 11
426.84070443412168
 21
-1051.2146494800829
 31
0.0
  0
LINE
  5
B121
  8
01
 10
427.76996635137692
 20
-1054.4516486926079
 30
0.0
 11
426.96997513175148
 21
-1050.6780557448119
 31
0.0
  0
LINE
  5
B122
  8
01
 10
430.9699663513768
 20
-1054.4516486926079
 30
0.0
 11
430.16997565855422
 21
-1050.4516486926079
 31
0.0
  0
LINE
  5
B123
  8
01
 10
434.96997565855429
 20
-1050.4516486926079
 30
0.0
 11
434.86997449515712
 21
-1050.9516486926079
 31
0.0
  0
LINE
  5
B124
  8
01
 10
436.5699756585542
 20
-1050.4516486926079
 30
0.0
 11
436.46997449515709
 21
-1050.9516486926079
 31
0.0
  0
LINE
  5
B125
  8
01
 10
431.76997565855419
 20
-1050.4516486926079
 30
0.0
 11
431.66997449515702
 21
-1050.9516486926079
 31
0.0
  0
LINE
  5
B126
  8
01
 10
433.3699756585541
 20
-1050.4516486926079
 30
0.0
 11
433.2699744951571
 21
-1050.9516486926079
 31
0.0
  0
LINE
  5
B127
  8
01
 10
428.5699756585542
 20
-1050.4516486926079
 30
0.0
 11
428.46997449515709
 21
-1050.9516486926079
 31
0.0
  0
LINE
  5
B128
  8
01
 10
430.16997565855422
 20
-1050.4516486926079
 30
0.0
 11
430.06997449515728
 21
-1050.9516486926079
 31
0.0
  0
LINE
  5
B129
  8
1CENTER
 10
422.46997100491348
 20
-1052.4516486926079
 30
0.0
 11
444.13566635162948
 21
-1052.4516486926079
 31
0.0
  0
LINE
  5
B12A
  8
01
 10
426.28273691733699
 20
-1053.5307340953991
 30
0.0
 11
426.16996740498701
 21
-1053.998832550549
 31
0.0
  0
LINE
  5
B12B
  8
01
 10
423.76997302454021
 20
-1051.583683953625
 30
0.0
 11
423.45820316828809
 21
-1052.171960528668
 31
0.0
  0
LINE
  5
B12C
  8
01
 10
424.72140425503159
 20
-1053.0888472018701
 30
0.0
 11
424.56996845859129
 21
-1053.546019042501
 31
0.0
  0
LINE
  5
B12D
  8
01
 10
425.3699740781459
 20
-1051.130869849218
 30
0.0
 11
425.1872099355179
 21
-1051.6826193130221
 31
0.0
  0
LINE
  5
B12E
  8
01
 10
424.56996845859129
 20
-1053.546019042501
 30
0.0
 11
423.76997302454021
 21
-1051.583683953625
 31
0.0
  0
LINE
  5
B12F
  8
01
 10
426.16996740498701
 20
-1053.998832550549
 30
0.0
 11
425.3699740781459
 21
-1051.130869849218
 31
0.0
  0
LINE
  5
B130
  8
01
 10
435.86996751477398
 20
-1053.9516486926079
 30
0.0
 11
435.76996635137692
 21
-1054.4516486926079
 31
0.0
  0
LINE
  5
B131
  8
01
 10
437.46996751477462
 20
-1053.9516486926079
 30
0.0
 11
437.36996635137677
 21
-1054.4516486926079
 31
0.0
  0
LINE
  5
B132
  8
01
 10
431.06996751477402
 20
-1053.9516486926079
 30
0.0
 11
430.9699663513768
 21
-1054.4516486926079
 31
0.0
  0
LINE
  5
B133
  8
01
 10
432.66996751477399
 20
-1053.9516486926079
 30
0.0
 11
432.56996635137682
 21
-1054.4516486926079
 31
0.0
  0
LINE
  5
B134
  8
01
 10
434.2699675147739
 20
-1053.9516486926079
 30
0.0
 11
434.16996635137667
 21
-1054.4516486926079
 31
0.0
  0
LINE
  5
B135
  8
01
 10
429.46996751477388
 20
-1053.9516486926079
 30
0.0
 11
429.36996635137677
 21
-1054.4516486926079
 31
0.0
  0
LINE
  5
B136
  8
01
 10
427.86996751477398
 20
-1053.9516486926079
 30
0.0
 11
427.76996635137692
 21
-1054.4516486926079
 31
0.0
  0
LINE
  5
B137
  8
01
 10
439.06996751477448
 20
-1053.9516486926079
 30
0.0
 11
438.9699663513768
 21
-1054.4516486926079
 31
0.0
  0
LINE
  5
B139
  8
01
 10
442.16996169778702
 20
-1066.768517299588
 30
0.0
 11
442.16998031214621
 21
-1058.768517299588
 31
0.0
  0
LINE
  5
B13A
  8
01
 10
438.9699663513768
 20
-1064.768517299588
 30
0.0
 11
438.1699756585586
 21
-1060.768517299588
 31
0.0
  0
LINE
  5
B13B
  8
01
 10
438.1699756585586
 20
-1060.768517299588
 30
0.0
 11
438.06997449516092
 21
-1061.268517299588
 31
0.0
  0
LINE
  5
B13C
  8
01
 10
435.76996635137692
 20
-1064.768517299588
 30
0.0
 11
434.96997565855429
 21
-1060.768517299588
 31
0.0
  0
LINE
  5
B13D
  8
01
 10
437.36996635137677
 20
-1064.768517299588
 30
0.0
 11
436.5699756585542
 21
-1060.768517299588
 31
0.0
  0
LINE
  5
B13E
  8
01
 10
432.56996635137682
 20
-1064.768517299588
 30
0.0
 11
431.76997565855419
 21
-1060.768517299588
 31
0.0
  0
LINE
  5
B13F
  8
01
 10
434.16996635137667
 20
-1064.768517299588
 30
0.0
 11
433.3699756585541
 21
-1060.768517299588
 31
0.0
  0
LINE
  5
B140
  8
01
 10
429.36996635137677
 20
-1064.768517299588
 30
0.0
 11
428.5699756585542
 21
-1060.768517299588
 31
0.0
  0
LINE
  5
B141
  8
01
 10
426.96997513175148
 20
-1060.994924351792
 30
0.0
 11
426.84070443412168
 21
-1061.531518087063
 31
0.0
  0
LINE
  5
B142
  8
01
 10
427.76996635137692
 20
-1064.768517299588
 30
0.0
 11
426.96997513175148
 21
-1060.994924351792
 31
0.0
  0
LINE
  5
B143
  8
01
 10
430.9699663513768
 20
-1064.768517299588
 30
0.0
 11
430.16997565855422
 21
-1060.768517299588
 31
0.0
  0
LINE
  5
B144
  8
01
 10
434.96997565855429
 20
-1060.768517299588
 30
0.0
 11
434.86997449515712
 21
-1061.268517299588
 31
0.0
  0
LINE
  5
B145
  8
01
 10
436.5699756585542
 20
-1060.768517299588
 30
0.0
 11
436.46997449515709
 21
-1061.268517299588
 31
0.0
  0
LINE
  5
B146
  8
01
 10
431.76997565855419
 20
-1060.768517299588
 30
0.0
 11
431.66997449515702
 21
-1061.268517299588
 31
0.0
  0
LINE
  5
B147
  8
01
 10
433.3699756585541
 20
-1060.768517299588
 30
0.0
 11
433.2699744951571
 21
-1061.268517299588
 31
0.0
  0
LINE
  5
B148
  8
01
 10
428.5699756585542
 20
-1060.768517299588
 30
0.0
 11
428.46997449515709
 21
-1061.268517299588
 31
0.0
  0
LINE
  5
B149
  8
01
 10
430.16997565855422
 20
-1060.768517299588
 30
0.0
 11
430.06997449515728
 21
-1061.268517299588
 31
0.0
  0
LINE
  5
B14A
  8
1CENTER
 10
422.46997100491348
 20
-1062.768517299588
 30
0.0
 11
444.13566635162948
 21
-1062.768517299588
 31
0.0
  0
LINE
  5
B14B
  8
01
 10
426.28273691733699
 20
-1063.8476027023789
 30
0.0
 11
426.16996740498701
 21
-1064.315701157529
 31
0.0
  0
LINE
  5
B14C
  8
01
 10
423.76997302454021
 20
-1061.900552560606
 30
0.0
 11
423.45820316828809
 21
-1062.4888291356481
 31
0.0
  0
LINE
  5
B14D
  8
01
 10
424.72140425503159
 20
-1063.4057158088499
 30
0.0
 11
424.56996845859129
 21
-1063.8628876494811
 31
0.0
  0
LINE
  5
B14E
  8
01
 10
425.3699740781459
 20
-1061.447738456199
 30
0.0
 11
425.1872099355179
 21
-1061.9994879200019
 31
0.0
  0
LINE
  5
B14F
  8
01
 10
424.56996845859129
 20
-1063.8628876494811
 30
0.0
 11
423.76997302454021
 21
-1061.900552560606
 31
0.0
  0
LINE
  5
B150
  8
01
 10
426.16996740498701
 20
-1064.315701157529
 30
0.0
 11
425.3699740781459
 21
-1061.447738456199
 31
0.0
  0
LINE
  5
B151
  8
01
 10
435.86996751477398
 20
-1064.268517299588
 30
0.0
 11
435.76996635137692
 21
-1064.768517299588
 31
0.0
  0
LINE
  5
B152
  8
01
 10
437.46996751477462
 20
-1064.268517299588
 30
0.0
 11
437.36996635137677
 21
-1064.768517299588
 31
0.0
  0
LINE
  5
B153
  8
01
 10
431.06996751477402
 20
-1064.268517299588
 30
0.0
 11
430.9699663513768
 21
-1064.768517299588
 31
0.0
  0
LINE
  5
B154
  8
01
 10
432.66996751477399
 20
-1064.268517299588
 30
0.0
 11
432.56996635137682
 21
-1064.768517299588
 31
0.0
  0
LINE
  5
B155
  8
01
 10
434.2699675147739
 20
-1064.268517299588
 30
0.0
 11
434.16996635137667
 21
-1064.768517299588
 31
0.0
  0
LINE
  5
B156
  8
01
 10
429.46996751477388
 20
-1064.268517299588
 30
0.0
 11
429.36996635137677
 21
-1064.768517299588
 31
0.0
  0
LINE
  5
B157
  8
01
 10
427.86996751477398
 20
-1064.268517299588
 30
0.0
 11
427.76996635137692
 21
-1064.768517299588
 31
0.0
  0
LINE
  5
B158
  8
01
 10
439.06996751477448
 20
-1064.268517299588
 30
0.0
 11
438.9699663513768
 21
-1064.768517299588
 31
0.0
  0
LINE
  5
B159
  8
01
 10
442.46996169778799
 20
-1066.768517299588
 30
0.0
 11
442.46998031214719
 21
-1058.768517299588
 31
0.0
  0
LINE
  5
B15A
  8
01
 10
442.16998031214621
 20
-1058.768517299588
 30
0.0
 11
442.46998031214719
 21
-1058.768517299588
 31
0.0
  0
LINE
  5
B15B
  8
01
 10
442.16996169778702
 20
-1066.768517299588
 30
0.0
 11
442.46996169778799
 21
-1066.768517299588
 31
0.0
  0
LINE
  5
B15C
  8
01
 10
442.16998031214621
 20
-1058.768517299588
 30
0.0
 11
439.66995122704083
 21
-1061.268517299588
 31
0.0
  0
LINE
  5
B15D
  8
01
 10
442.16996169778702
 20
-1066.768517299588
 30
0.0
 11
439.66997914868801
 21
-1064.268517299588
 31
0.0
  0
LINE
  5
B15E
  8
01
 10
427.76997449515898
 20
-1061.268517299588
 30
0.0
 11
439.66995122704083
 21
-1061.268517299588
 31
0.0
  0
LINE
  5
B15F
  8
01
 10
427.76996751477429
 20
-1064.268517299588
 30
0.0
 11
439.66997914868801
 21
-1064.268517299588
 31
0.0
  0
LINE
  5
B160
  8
01
 10
422.46997100491348
 20
-1062.768517299588
 30
0.0
 11
427.76997449515898
 21
-1061.268517299588
 31
0.0
  0
LINE
  5
B161
  8
01
 10
422.46997100491348
 20
-1062.768517299588
 30
0.0
 11
427.76996751477429
 21
-1064.268517299588
 31
0.0
  0
LINE
  5
B162
  8
01
 10
442.46996169778799
 20
-1056.4516486926079
 30
0.0
 11
442.46998031214719
 21
-1048.4516486926079
 31
0.0
  0
LINE
  5
B163
  8
01
 10
442.16998031214621
 20
-1048.4516486926079
 30
0.0
 11
442.46998031214719
 21
-1048.4516486926079
 31
0.0
  0
LINE
  5
B164
  8
01
 10
442.16996169778702
 20
-1056.4516486926079
 30
0.0
 11
442.46996169778799
 21
-1056.4516486926079
 31
0.0
  0
LINE
  5
B165
  8
01
 10
442.16998031214621
 20
-1048.4516486926079
 30
0.0
 11
439.66995122704083
 21
-1050.9516486926079
 31
0.0
  0
LINE
  5
B166
  8
01
 10
442.16996169778702
 20
-1056.4516486926079
 30
0.0
 11
439.66997914868801
 21
-1053.9516486926079
 31
0.0
  0
LINE
  5
B167
  8
01
 10
427.76997449515898
 20
-1050.9516486926079
 30
0.0
 11
439.66995122704083
 21
-1050.9516486926079
 31
0.0
  0
LINE
  5
B168
  8
01
 10
427.76996751477429
 20
-1053.9516486926079
 30
0.0
 11
439.66997914868801
 21
-1053.9516486926079
 31
0.0
  0
LINE
  5
B169
  8
01
 10
422.46997100491348
 20
-1052.4516486926079
 30
0.0
 11
427.76997449515898
 21
-1050.9516486926079
 31
0.0
  0
LINE
  5
B16A
  8
01
 10
422.46997100491348
 20
-1052.4516486926079
 30
0.0
 11
427.76996751477429
 21
-1053.9516486926079
 31
0.0
  0
LINE
  5
B16B
  8
01
 10
375.949062614561
 20
-1055.558208000203
 30
0.0
 11
389.29906244048709
 21
-1055.558208000203
 31
0.0
  0
LINE
  5
B16C
  8
01
 10
389.29906244048709
 20
-1055.558208000203
 30
0.0
 11
390.299062514561
 21
-1056.558208000203
 31
0.0
  0
LINE
  5
B16D
  8
01
 10
375.59906261456109
 20
-1055.2082080002031
 30
0.0
 11
375.949062614561
 21
-1055.558208000203
 31
0.0
  0
LINE
  5
B16E
  8
01
 10
390.299062514561
 20
-1056.558208000203
 30
0.0
 11
390.59906261456098
 21
-1056.558208000203
 31
0.0
  0
LINE
  5
B16F
  8
01
 10
375.59906261456109
 20
-1051.9082080002031
 30
0.0
 11
375.59906261456109
 21
-1055.2082080002031
 31
0.0
  0
LINE
  5
B170
  8
01
 10
390.59906261456098
 20
-1050.558208000203
 30
0.0
 11
390.59906261456098
 21
-1056.558208000203
 31
0.0
  0
LINE
  5
B171
  8
01
 10
375.949062614561
 20
-1051.558208000203
 30
0.0
 11
375.59906261456109
 21
-1051.9082080002031
 31
0.0
  0
LINE
  5
B172
  8
01
 10
390.29906260456102
 20
-1050.558208000203
 30
0.0
 11
390.59906261456098
 21
-1050.558208000203
 31
0.0
  0
LINE
  5
B173
  8
01
 10
375.949062614561
 20
-1051.558208000203
 30
0.0
 11
389.29906244048709
 21
-1051.558208000203
 31
0.0
  0
LINE
  5
B174
  8
01
 10
389.29906244048709
 20
-1051.558208000203
 30
0.0
 11
390.29906260456102
 21
-1050.558208000203
 31
0.0
  0
LINE
  5
B175
  8
01
 10
375.949062614561
 20
-1063.558208000203
 30
0.0
 11
389.29906244048709
 21
-1063.558208000203
 31
0.0
  0
LINE
  5
B176
  8
01
 10
389.29906244048709
 20
-1063.558208000203
 30
0.0
 11
390.299062514561
 21
-1064.558208000203
 31
0.0
  0
LINE
  5
B177
  8
01
 10
375.59906261456109
 20
-1063.2082080002031
 30
0.0
 11
375.949062614561
 21
-1063.558208000203
 31
0.0
  0
LINE
  5
B178
  8
01
 10
390.299062514561
 20
-1064.558208000203
 30
0.0
 11
390.59906261456098
 21
-1064.558208000203
 31
0.0
  0
LINE
  5
B179
  8
01
 10
375.59906261456109
 20
-1059.9082080002031
 30
0.0
 11
375.59906261456109
 21
-1063.2082080002031
 31
0.0
  0
LINE
  5
B17A
  8
01
 10
390.59906261456098
 20
-1058.558208000203
 30
0.0
 11
390.59906261456098
 21
-1064.558208000203
 31
0.0
  0
LINE
  5
B17B
  8
01
 10
375.949062614561
 20
-1059.558208000203
 30
0.0
 11
375.59906261456109
 21
-1059.9082080002031
 31
0.0
  0
LINE
  5
B17C
  8
01
 10
390.29906260456102
 20
-1058.558208000203
 30
0.0
 11
390.59906261456098
 21
-1058.558208000203
 31
0.0
  0
LINE
  5
B17D
  8
01
 10
375.949062614561
 20
-1059.558208000203
 30
0.0
 11
389.29906244048709
 21
-1059.558208000203
 31
0.0
  0
LINE
  5
B17E
  8
01
 10
389.29906244048709
 20
-1059.558208000203
 30
0.0
 11
390.29906260456102
 21
-1058.558208000203
 31
0.0
  0
LINE
  5
B17F
  8
1DIM
 10
422.46997100491348
 20
-1052.4516486926079
 30
0.0
 11
422.46997100491348
 21
-1043.2930027254149
 31
0.0
  0
LINE
  5
B180
  8
1DIM
 10
442.46998031214719
 20
-1048.4516486926079
 30
0.0
 11
442.46998031214719
 21
-1043.2930027254149
 31
0.0
  0
LINE
  5
B181
  8
1DIM
 10
424.46997100491348
 20
-1044.2930027254149
 30
0.0
 11
440.4699803121473
 21
-1044.2930027254149
 31
0.0
  0
LINE
  5
B185
  8
1DIM
 10
502.29479545413523
 20
-1091.543038729782
 30
0.0
 11
502.29479545413523
 21
-1101.6380292187439
 31
0.0
  0
LINE
  5
B186
  8
1DIM
 10
464.29479545413528
 20
-1091.543038729782
 30
0.0
 11
464.29479545413528
 21
-1101.6380292187439
 31
0.0
  0
LINE
  5
B187
  8
1DIM
 10
500.29479545413528
 20
-1100.6380292187439
 30
0.0
 11
466.29479545413523
 21
-1100.6380292187439
 31
0.0
  0
LINE
  5
B18B
  8
1DIM
 10
464.79479545413523
 20
-932.04303872978244
 30
0.0
 11
452.74043518130981
 21
-932.04303872978244
 31
0.0
  0
LINE
  5
B18C
  8
1DIM
 10
464.79479545413523
 20
-1092.043038729782
 30
0.0
 11
452.74043518130981
 21
-1092.043038729782
 31
0.0
  0
LINE
  5
B18D
  8
1DIM
 10
453.74043518130981
 20
-934.04303872978255
 30
0.0
 11
453.74043518130981
 21
-1090.043038729782
 31
0.0
  0
LINE
  5
B191
  8
1DIM
 10
572.29476445413559
 20
-981.11405436730786
 30
0.0
 11
570.2947644541357
 21
-981.11405436730786
 31
0.0
  0
LINE
  5
B192
  8
1DIM
 10
577.79476096390943
 20
-981.11405436730786
 30
0.0
 11
588.02809429724277
 21
-981.11405436730786
 31
0.0
  0
LINE
  5
B193
  8
1DIM
 10
574.2947644541357
 20
-981.11405436730786
 30
0.0
 11
575.79476096390943
 21
-981.11405436730786
 31
0.0
  0
LINE
  5
B197
  8
1DIM
 10
546.29476445413559
 20
-981.11405436730786
 30
0.0
 11
548.2947644541357
 21
-981.11405436730786
 31
0.0
  0
LINE
  5
B198
  8
1DIM
 10
540.7947644541357
 20
-981.11405436730786
 30
0.0
 11
530.56143112080235
 21
-981.11405436730786
 31
0.0
  0
LINE
  5
B199
  8
1DIM
 10
544.2947644541357
 20
-981.11405436730786
 30
0.0
 11
542.79476445413559
 21
-981.11405436730786
 31
0.0
  0
LINE
  5
B19D
  8
1DIM
 10
330.33880062856082
 20
-1089.8416352315151
 30
0.0
 11
330.33880062856082
 21
-1083.2900984360149
 31
0.0
  0
LINE
  5
B19E
  8
1DIM
 10
362.33880062856798
 20
-1089.8416352315151
 30
0.0
 11
362.33880062856798
 21
-1083.2900984360149
 31
0.0
  0
LINE
  5
B19F
  8
1DIM
 10
332.33880062856082
 20
-1084.2900984360149
 30
0.0
 11
360.33880062856798
 21
-1084.2900984360149
 31
0.0
  0
LINE
  5
B1A3
  8
1DIM
 10
335.33880062856082
 20
-1067.456974781084
 30
0.0
 11
335.33880062856082
 21
-1061.996898814042
 31
0.0
  0
LINE
  5
B1A4
  8
1DIM
 10
362.3388006285644
 20
-1067.456974781084
 30
0.0
 11
362.3388006285644
 21
-1061.996898814042
 31
0.0
  0
LINE
  5
B1A5
  8
1DIM
 10
337.33880062856082
 20
-1062.9968988140411
 30
0.0
 11
360.3388006285644
 21
-1062.9968988140411
 31
0.0
  0
LINE
  5
B1A9
  8
1DIM
 10
340.33880062856082
 20
-1044.864822668837
 30
0.0
 11
340.33880062856082
 21
-1039.642388473955
 31
0.0
  0
LINE
  5
B1AA
  8
1DIM
 10
362.33880062855712
 20
-1044.864822668844
 30
0.0
 11
362.33880062855712
 21
-1039.642388473955
 31
0.0
  0
LINE
  5
B1AB
  8
1DIM
 10
342.33880062856082
 20
-1040.642388473955
 30
0.0
 11
360.33880062855712
 21
-1040.642388473955
 31
0.0
  0
LINE
  5
B1AF
  8
1DIM
 10
397.59906261456098
 20
-1081.465683739031
 30
0.0
 11
405.59186053491209
 21
-1081.465683739031
 31
0.0
  0
LINE
  5
B1B0
  8
1DIM
 10
397.59906261456098
 20
-1075.465683739031
 30
0.0
 11
405.59186053491209
 21
-1075.465683739031
 31
0.0
  0
LINE
  5
B1B1
  8
1DIM
 10
404.59186053491197
 20
-1079.465683739031
 30
0.0
 11
404.59186053491197
 21
-1077.465683739031
 31
0.0
  0
LINE
  5
B1B2
  8
1DIM
 10
404.59186053491197
 20
-1075.465683739031
 30
0.0
 11
404.59186053491197
 21
-1065.7323504056969
 31
0.0
  0
LINE
  5
B1B6
  8
1DIM
 10
375.949062614561
 20
-1076.465683739031
 30
0.0
 11
369.03147373822031
 21
-1076.465683739031
 31
0.0
  0
LINE
  5
B1B7
  8
1DIM
 10
375.949062614561
 20
-1080.465683739031
 30
0.0
 11
369.03147373822031
 21
-1080.465683739031
 31
0.0
  0
LINE
  5
B1B8
  8
1DIM
 10
370.03147373822031
 20
-1074.465683739031
 30
0.0
 11
370.03147373822031
 21
-1072.465683739031
 31
0.0
  0
LINE
  5
B1B9
  8
1DIM
 10
370.03147373822031
 20
-1082.465683739031
 30
0.0
 11
370.03147373822031
 21
-1084.465683739031
 31
0.0
  0
LINE
  5
B1BA
  8
1DIM
 10
370.03147373822031
 20
-1076.465683739031
 30
0.0
 11
370.03147373822031
 21
-1080.465683739031
 31
0.0
  0
LINE
  5
B1BE
  8
1DIM
 10
375.59906261456109
 20
-1076.8156837390311
 30
0.0
 11
375.59906261456109
 21
-1071.8699160590279
 31
0.0
  0
LINE
  5
B1BF
  8
1DIM
 10
397.59906261456098
 20
-1075.465683739031
 30
0.0
 11
397.59906261456098
 21
-1071.8699160590279
 31
0.0
  0
LINE
  5
B1C0
  8
1DIM
 10
377.59906261456098
 20
-1072.8699160590279
 30
0.0
 11
395.59906261456098
 21
-1072.8699160590279
 31
0.0
  0
LINE
  5
B1C4
  8
1DIM
 10
375.59906261456109
 20
-1051.9082080002031
 30
0.0
 11
375.59906261456109
 21
-1044.6972287928591
 31
0.0
  0
LINE
  5
B1C5
  8
1DIM
 10
390.59906261456098
 20
-1050.558208000203
 30
0.0
 11
390.59906261456098
 21
-1044.6972287928591
 31
0.0
  0
LINE
  5
B1C6
  8
1DIM
 10
377.59906261456098
 20
-1045.6972287928591
 30
0.0
 11
388.59906261456109
 21
-1045.6972287928591
 31
0.0
  0
TEXT
  5
B1CA
  8
1DIM
 10
336.88054261325101
 20
-870.38376722017279
 30
0.0
 40
3.5
  1
材質：スチール
  0
TEXT
  5
B1CB
  8
1DIM
 10
338.51387594658428
 20
-876.21710055350616
 30
0.0
 40
3.5
  1
（亜鉛メッキ）
  0
SOLID
  5
B1CC
  8
1DIM
 10
362.74123572182953
 20
-912.96084313496544
 30
0.0
 11
362.12699373935612
 21
-914.89315209009624
 31
0.0
 12
362.08133865624802
 22
-912.86607865173801
 32
0.0
 13
362.08133865624802
 23
-912.86607865173801
 33
0.0
1001
ACAD
1000
DSTYLE
1002
{
1070
   341
1005
0
1002
}
  0
TEXT
  5
B1CE
  8
1DIM
 10
403.36281668559809
 20
-869.50209985555978
 30
0.0
 40
3.5
  1
材質：ステンレス
  0
SOLID
  5
B1CF
  8
1DIM
 10
398.12196630405168
 20
-887.24495612284466
 30
0.0
 11
397.4601654978199
 21
-889.16149748790338
 31
0.0
 12
397.4646123042362
 22
-887.13391485406976
 32
0.0
 13
397.4646123042362
 23
-887.13391485406976
 33
0.0
1001
ACAD
1000
DSTYLE
1002
{
1070
   341
1005
0
1002
}
  0
LINE
  5
B1D1
  8
1DIM
 10
424.20747391350591
 20
-1085.047097616593
 30
0.0
 11
410.02608216806709
 21
-1085.047097616593
 31
0.0
  0
LINE
  5
B1D2
  8
1DIM
 10
423.50746576972568
 20
-1088.547097616593
 30
0.0
 11
410.02608216806709
 21
-1088.547097616593
 31
0.0
  0
LINE
  5
B1D3
  8
1DIM
 10
411.02608216806709
 20
-1090.547097616593
 30
0.0
 11
411.02608216806709
 21
-1092.547097616593
 31
0.0
  0
LINE
  5
B1D4
  8
1DIM
 10
411.02608216806709
 20
-1083.047097616593
 30
0.0
 11
411.02608216806709
 21
-1068.3137642832601
 31
0.0
  0
LINE
  5
B1D5
  8
1DIM
 10
411.02608216806709
 20
-1088.547097616593
 30
0.0
 11
411.02608216806709
 21
-1085.047097616593
 31
0.0
  0
LINE
  5
B1D9
  8
1DIM
 10
417.46996984157022
 20
-1086.797097616593
 30
0.0
 11
417.46996984157022
 21
-1074.728075348818
 31
0.0
  0
LINE
  5
B1DA
  8
1DIM
 10
442.46996984157022
 20
-1083.297097616593
 30
0.0
 11
442.46996984157022
 21
-1074.728075348818
 31
0.0
  0
LINE
  5
B1DB
  8
1DIM
 10
419.46996984157022
 20
-1075.728075348818
 30
0.0
 11
440.46996984157022
 21
-1075.728075348818
 31
0.0
  0
LINE
  5
B1DF
  8
1DIM
 10
402.06675622352822
 20
-884.54303872978221
 30
0.0
 11
430.85951656274563
 21
-884.54303872978221
 31
0.0
  0
LINE
  5
B1E0
  8
1DIM
 10
402.06675622352822
 20
-1007.543038729782
 30
0.0
 11
430.85951656274563
 21
-1007.543038729782
 31
0.0
  0
LINE
  5
B1E1
  8
1DIM
 10
429.85951656274563
 20
-886.54303872978221
 30
0.0
 11
429.85951656274551
 21
-1005.543038729782
 31
0.0
  0
LINE
  5
B1E5
  8
1DIM
 10
392.06675622352827
 20
-1001.543038729782
 30
0.0
 11
392.06675622352827
 21
-1022.95182368424
 31
0.0
  0
LINE
  5
B1E6
  8
1DIM
 10
408.06675622352822
 20
-1001.543038729782
 30
0.0
 11
408.06675622352822
 21
-1022.95182368424
 31
0.0
  0
LINE
  5
B1E7
  8
1DIM
 10
394.06675622352827
 20
-1021.95182368424
 30
0.0
 11
406.06675622352822
 21
-1021.95182368424
 31
0.0
  0
LINE
  5
B1EB
  8
1DIM
 10
357.2509463555607
 20
-978.04303872978232
 30
0.0
 11
339.04223265142849
 21
-978.04303872978232
 31
0.0
  0
LINE
  5
B1EC
  8
1DIM
 10
357.2509463555607
 20
-982.04303872978221
 30
0.0
 11
339.04223265142849
 21
-982.04303872978221
 31
0.0
  0
LINE
  5
B1ED
  8
1DIM
 10
340.04223265142861
 20
-976.0430387297821
 30
0.0
 11
340.04223265142861
 21
-974.04303872978221
 31
0.0
  0
LINE
  5
B1EE
  8
1DIM
 10
340.04223265142861
 20
-984.0430387297821
 30
0.0
 11
340.04223265142861
 21
-1007.776372063115
 31
0.0
  0
LINE
  5
B1EF
  8
1DIM
 10
340.04223265142861
 20
-978.04303872978232
 30
0.0
 11
340.04223265142861
 21
-982.04303872978221
 31
0.0
  0
LINE
  5
B1F3
  8
1DIM
 10
357.2509463555607
 20
-911.04303872978176
 30
0.0
 11
339.04223265142849
 21
-911.04303872978176
 31
0.0
  0
LINE
  5
B1F4
  8
1DIM
 10
357.2509463555607
 20
-907.04303872978164
 30
0.0
 11
339.04223265142849
 21
-907.04303872978164
 31
0.0
  0
LINE
  5
B1F5
  8
1DIM
 10
340.04223265142861
 20
-913.04303872978176
 30
0.0
 11
340.04223265142861
 21
-915.04303872978164
 31
0.0
  0
LINE
  5
B1F6
  8
1DIM
 10
340.04223265142861
 20
-905.04303872978176
 30
0.0
 11
340.04223265142861
 21
-881.30970539644829
 31
0.0
  0
LINE
  5
B1F7
  8
1DIM
 10
340.04223265142861
 20
-911.04303872978176
 30
0.0
 11
340.04223265142861
 21
-907.04303872978164
 31
0.0
  0
LINE
  5
B1FB
  8
1DIM
 10
357.2509463555607
 20
-911.04303872978176
 30
0.0
 11
339.04223265142849
 21
-911.04303872978176
 31
0.0
  0
LINE
  5
B1FC
  8
1DIM
 10
357.2509463555607
 20
-978.04303872978232
 30
0.0
 11
339.04223265142849
 21
-978.04303872978232
 31
0.0
  0
LINE
  5
B1FD
  8
1DIM
 10
340.04223265142861
 20
-913.04303872978176
 30
0.0
 11
340.04223265142861
 21
-976.0430387297821
 31
0.0
  0
LINE
  5
B201
  8
1DIM
 10
357.2509463555607
 20
-907.04303872978164
 30
0.0
 11
331.86135594553798
 21
-907.04303872978164
 31
0.0
  0
LINE
  5
B202
  8
1DIM
 10
357.2509463555607
 20
-982.04303872978221
 30
0.0
 11
331.86135594553798
 21
-982.04303872978221
 31
0.0
  0
LINE
  5
B203
  8
1DIM
 10
332.86135594553798
 20
-909.04303872978176
 30
0.0
 11
332.86135594553798
 21
-980.04303872978221
 31
0.0
  0
LINE
  5
B207
  8
1DIM
 10
367.75094635556093
 20
-1002.543038729782
 30
0.0
 11
367.75094635556093
 21
-1015.112699531562
 31
0.0
  0
LINE
  5
B208
  8
1DIM
 10
370.2509463555607
 20
-1007.543038729782
 30
0.0
 11
370.2509463555607
 21
-1015.112699531562
 31
0.0
  0
LINE
  5
B209
  8
1DIM
 10
372.2509463555607
 20
-1014.112699531563
 30
0.0
 11
374.2509463555607
 21
-1014.112699531563
 31
0.0
  0
LINE
  5
B20A
  8
1DIM
 10
365.75094635556093
 20
-1014.112699531563
 30
0.0
 11
355.01761302222752
 21
-1014.112699531563
 31
0.0
  0
LINE
  5
B20B
  8
1DIM
 10
370.2509463555607
 20
-1014.112699531563
 30
0.0
 11
367.75094635556093
 21
-1014.112699531563
 31
0.0
  0
LINE
  5
B20F
  8
1DIM
 10
370.2509463555607
 20
-1007.543038729782
 30
0.0
 11
370.2509463555607
 21
-1022.95182368424
 31
0.0
  0
LINE
  5
B210
  8
1DIM
 10
355.7509463555607
 20
-970.04303872978232
 30
0.0
 11
355.7509463555607
 21
-1022.95182368424
 31
0.0
  0
LINE
  5
B211
  8
1DIM
 10
368.2509463555607
 20
-1021.95182368424
 30
0.0
 11
357.7509463555607
 21
-1021.95182368424
 31
0.0
  0
LINE
  5
B215
  8
1DIM
 10
332.9282429897537
 20
-1029.967700523868
 30
0.0
 11
348.83959633846689
 21
-1029.967700523868
 31
0.0
  0
LINE
  5
B216
  8
1DIM
 10
332.9282429897537
 20
-1013.967700523868
 30
0.0
 11
348.83959633846689
 21
-1013.967700523868
 31
0.0
  0
LINE
  5
B217
  8
1DIM
 10
347.83959633846689
 20
-1027.967700523868
 30
0.0
 11
347.83959633846689
 21
-1015.967700523868
 31
0.0
  0
LINE
  5
B21B
  8
1DIM
 10
397.56675622352827
 20
-932.58424274286995
 30
0.0
 11
402.56675622352822
 21
-932.58424274286995
 31
0.0
  0
LINE
  5
B21F
  8
1DIM
 10
402.06675622352748
 20
-890.54303872978278
 30
0.0
 11
404.96319963736732
 21
-887.78430431878553
 31
0.0
  0
LINE
  5
B220
  8
1DIM
 10
406.41142134428742
 20
-886.40493711328656
 30
0.0
 11
417.1778943072577
 21
-876.15034718893389
 31
0.0
  0
LINE
  5
B223
  8
1DIM
 10
319.9282429897537
 20
-1028.467700523868
 30
0.0
 11
309.80733158419838
 21
-1028.467700523868
 31
0.0
  0
LINE
  5
B224
  8
1DIM
 10
319.9282429897537
 20
-1015.467700523868
 30
0.0
 11
309.80733158419838
 21
-1015.467700523868
 31
0.0
  0
LINE
  5
B225
  8
1DIM
 10
310.80733158419849
 20
-1026.467700523868
 30
0.0
 11
310.80733158419849
 21
-1017.467700523868
 31
0.0
  0
LINE
  5
B229
  8
1DIM
 10
404.56675622352827
 20
-923.04303872978221
 30
0.0
 11
423.27821658991178
 21
-923.04303872978221
 31
0.0
  0
LINE
  5
B22A
  8
1DIM
 10
406.56675622352822
 20
-954.5430387297821
 30
0.0
 11
423.27821658991178
 21
-954.5430387297821
 31
0.0
  0
LINE
  5
B22B
  8
1DIM
 10
422.27821658991178
 20
-925.0430387297821
 30
0.0
 11
422.27821658991178
 21
-952.54303872978221
 31
0.0
  0
LINE
  5
B22F
  8
1DIM
 10
402.06675622352822
 20
-884.54303872978221
 30
0.0
 11
423.27821658991178
 21
-884.54303872978221
 31
0.0
  0
LINE
  5
B230
  8
1DIM
 10
404.56675622352827
 20
-923.04303872978221
 30
0.0
 11
423.27821658991178
 21
-923.04303872978221
 31
0.0
  0
LINE
  5
B231
  8
1DIM
 10
422.27821658991178
 20
-886.54303872978221
 30
0.0
 11
422.27821658991178
 21
-921.04303872978221
 31
0.0
  0
LINE
  5
B235
  8
1DIM
 10
392.06675622352827
 20
-896.04303872978221
 30
0.0
 11
382.14008975858559
 21
-896.04303872978221
 31
0.0
  0
LINE
  5
B236
  8
1DIM
 10
392.06675622352827
 20
-996.04303872978221
 30
0.0
 11
382.14008975858559
 21
-996.04303872978221
 31
0.0
  0
LINE
  5
B237
  8
1DIM
 10
383.1400897585857
 20
-898.04303872978221
 30
0.0
 11
383.1400897585857
 21
-994.0430387297821
 31
0.0
  0
LINE
  5
B23B
  8
1DIM
 10
392.06675622352827
 20
-896.04303872978221
 30
0.0
 11
382.14008975858559
 21
-896.04303872978221
 31
0.0
  0
LINE
  5
B23C
  8
1DIM
 10
398.06675622352827
 20
-884.54303872978221
 30
0.0
 11
382.14008975858559
 21
-884.54303872978221
 31
0.0
  0
LINE
  5
B23D
  8
1DIM
 10
383.1400897585857
 20
-894.0430387297821
 30
0.0
 11
383.1400897585857
 21
-886.54303872978221
 31
0.0
  0
LINE
  5
B23E
  8
1DIM
 10
383.1400897585857
 20
-884.54303872978221
 30
0.0
 11
383.1400897585857
 21
-870.97637206311549
 31
0.0
  0
LINE
  5
B242
  8
1HATCH
 10
369.2509463555611
 20
-959.78975165107522
 30
0.0
 11
370.25094635556059
 21
-958.78975165107545
 31
0.0
1001
ACAD
1010
0.0
1020
0.0
1030
0.0
  0
LINE
  5
B243
  8
1HATCH
 10
369.25094635556093
 20
-961.13679006923553
 30
0.0
 11
370.25094635556059
 21
-960.13679006923587
 31
0.0
1001
ACAD
1010
0.0
1020
0.0
1030
0.0
  0
LINE
  5
B244
  8
1HATCH
 10
369.25094635556098
 20
-962.48382848739595
 30
0.0
 11
370.2509463555607
 21
-961.48382848739629
 31
0.0
1001
ACAD
1010
0.0
1020
0.0
1030
0.0
  0
LINE
  5
B245
  8
1HATCH
 10
369.25094635556093
 20
-978.64828950532035
 30
0.0
 11
370.25094635556081
 21
-977.64828950532058
 31
0.0
1001
ACAD
1010
0.0
1020
0.0
1030
0.0
  0
LINE
  5
B246
  8
1HATCH
 10
369.25094635556093
 20
-979.99532792348089
 30
0.0
 11
370.2509463555607
 21
-978.995327923481
 31
0.0
1001
ACAD
1010
0.0
1020
0.0
1030
0.0
  0
LINE
  5
B247
  8
1HATCH
 10
369.25094635556093
 20
-981.34236634164131
 30
0.0
 11
370.25094635556081
 21
-980.34236634164131
 31
0.0
1001
ACAD
1010
0.0
1020
0.0
1030
0.0
  0
LINE
  5
B248
  8
1HATCH
 10
370.18788898515442
 20
-981.75246213020819
 30
0.0
 11
370.2509463555607
 21
-981.68940475980185
 31
0.0
1001
ACAD
1010
0.0
1020
0.0
1030
0.0
  0
LINE
  5
B249
  8
1HATCH
 10
366.65094635556068
 20
-954.75653394816675
 30
0.0
 11
366.8644415739451
 21
-954.54303872978255
 31
0.0
1001
ACAD
1010
0.0
1020
0.0
1030
0.0
  0
LINE
  5
B24A
  8
1HATCH
 10
366.65094635556079
 20
-955.65455956027358
 30
0.0
 11
367.76246718605211
 21
-954.54303872978232
 31
0.0
1001
ACAD
1010
0.0
1020
0.0
1030
0.0
  0
LINE
  5
B24B
  8
1HATCH
 10
366.65094635556068
 20
-956.55258517238053
 30
0.0
 11
368.25094635556047
 21
-954.95258517238085
 31
0.0
1001
ACAD
1010
0.0
1020
0.0
1030
0.0
  0
LINE
  5
B24C
  8
1HATCH
 10
366.65094635556079
 20
-957.45061078448748
 30
0.0
 11
368.25094635556047
 21
-955.85061078448769
 31
0.0
1001
ACAD
1010
0.0
1020
0.0
1030
0.0
  0
LINE
  5
B24D
  8
1HATCH
 10
366.65094635556079
 20
-958.34863639659443
 30
0.0
 11
368.25094635556047
 21
-956.74863639659475
 31
0.0
1001
ACAD
1010
0.0
1020
0.0
1030
0.0
  0
LINE
  5
B24E
  8
1HATCH
 10
366.6509463555609
 20
-959.24666200870115
 30
0.0
 11
368.25094635556047
 21
-957.64666200870158
 31
0.0
1001
ACAD
1010
0.0
1020
0.0
1030
0.0
  0
LINE
  5
B24F
  8
1HATCH
 10
366.65094635556079
 20
-960.14468762080833
 30
0.0
 11
368.25094635556059
 21
-958.54468762080842
 31
0.0
1001
ACAD
1010
0.0
1020
0.0
1030
0.0
  0
LINE
  5
B250
  8
1HATCH
 10
366.65094635556068
 20
-961.04271323291505
 30
0.0
 11
368.25094635556042
 21
-959.44271323291548
 31
0.0
1001
ACAD
1010
0.0
1020
0.0
1030
0.0
  0
LINE
  5
B251
  8
1HATCH
 10
360.65094635556062
 20
-967.94073884502222
 30
0.0
 11
361.63028770175362
 21
-966.96139749882923
 31
0.0
1001
ACAD
1010
0.0
1020
0.0
1030
0.0
  0
LINE
  5
B252
  8
1HATCH
 10
366.65094635556079
 20
-961.940738845022
 30
0.0
 11
368.25094635556047
 21
-960.34073884502232
 31
0.0
1001
ACAD
1010
0.0
1020
0.0
1030
0.0
  0
LINE
  5
B253
  8
1HATCH
 10
361.54667208290761
 20
-967.94303872978196
 30
0.0
 11
362.60998414708752
 21
-966.87972666560233
 31
0.0
1001
ACAD
1010
0.0
1020
0.0
1030
0.0
  0
LINE
  5
B254
  8
1HATCH
 10
366.65094635556079
 20
-962.83876445712883
 30
0.0
 11
368.25094635556047
 21
-961.23876445712915
 31
0.0
1001
ACAD
1010
0.0
1020
0.0
1030
0.0
  0
LINE
  5
B255
  8
1HATCH
 10
362.44469769501461
 20
-967.94303872978196
 30
0.0
 11
363.58968059242159
 21
-966.7980558323751
 31
0.0
1001
ACAD
1010
0.0
1020
0.0
1030
0.0
  0
LINE
  5
B256
  8
1HATCH
 10
366.65094635556079
 20
-963.73679006923589
 30
0.0
 11
368.25094635556047
 21
-962.13679006923599
 31
0.0
1001
ACAD
1010
0.0
1020
0.0
1030
0.0
  0
LINE
  5
B257
  8
1HATCH
 10
363.34272330712167
 20
-967.94303872978196
 30
0.0
 11
364.5693770377556
 21
-966.71638499914798
 31
0.0
1001
ACAD
1010
0.0
1020
0.0
1030
0.0
  0
LINE
  5
B258
  8
1HATCH
 10
366.65094635556079
 20
-964.63481568134273
 30
0.0
 11
368.25094635556059
 21
-963.03481568134305
 31
0.0
1001
ACAD
1010
0.0
1020
0.0
1030
0.0
  0
LINE
  5
B259
  8
1HATCH
 10
364.24074891922862
 20
-967.94303872978196
 30
0.0
 11
365.5490734830895
 21
-966.63471416592097
 31
0.0
1001
ACAD
1010
0.0
1020
0.0
1030
0.0
  0
LINE
  5
B25A
  8
1HATCH
 10
366.6509463555609
 20
-965.53284129344956
 30
0.0
 11
368.25094635556047
 21
-963.93284129344988
 31
0.0
1001
ACAD
1010
0.0
1020
0.0
1030
0.0
  0
LINE
  5
B25B
  8
1HATCH
 10
360.6509463555609
 20
-972.43086690555674
 30
0.0
 11
360.93877453133518
 21
-972.14303872978235
 31
0.0
1001
ACAD
1010
0.0
1020
0.0
1030
0.0
  0
LINE
  5
B25C
  8
1HATCH
 10
365.13877453133563
 20
-967.94303872978196
 30
0.0
 11
368.25094635556059
 21
-964.83086690555695
 31
0.0
1001
ACAD
1010
0.0
1020
0.0
1030
0.0
  0
LINE
  5
B25D
  8
1HATCH
 10
360.9148040658269
 20
-973.0650348073973
 30
0.0
 11
361.83680014344202
 21
-972.14303872978223
 31
0.0
1001
ACAD
1010
0.0
1020
0.0
1030
0.0
  0
LINE
  5
B25E
  8
1HATCH
 10
366.03680014344241
 20
-967.94303872978185
 30
0.0
 11
368.25094635556047
 21
-965.72889251766378
 31
0.0
1001
ACAD
1010
0.0
1020
0.0
1030
0.0
  0
LINE
  5
B25F
  8
1HATCH
 10
361.74372777373782
 20
-973.13413671159356
 30
0.0
 11
362.73482575554902
 21
-972.14303872978235
 31
0.0
1001
ACAD
1010
0.0
1020
0.0
1030
0.0
  0
LINE
  5
B260
  8
1HATCH
 10
366.93482575554941
 20
-967.94303872978185
 30
0.0
 11
368.25094635556047
 21
-966.62691812977073
 31
0.0
1001
ACAD
1010
0.0
1020
0.0
1030
0.0
  0
LINE
  5
B261
  8
1HATCH
 10
362.57265148164862
 20
-973.20323861578947
 30
0.0
 11
363.63285136765592
 21
-972.14303872978223
 31
0.0
1001
ACAD
1010
0.0
1020
0.0
1030
0.0
  0
LINE
  5
B262
  8
1HATCH
 10
367.8328513676563
 20
-967.94303872978162
 30
0.0
 11
368.25094635556047
 21
-967.52494374187768
 31
0.0
1001
ACAD
1010
0.0
1020
0.0
1030
0.0
  0
LINE
  5
B263
  8
1HATCH
 10
363.40157518955948
 20
-973.27234051998551
 30
0.0
 11
364.53087697976281
 21
-972.14303872978223
 31
0.0
1001
ACAD
1010
0.0
1020
0.0
1030
0.0
  0
LINE
  5
B264
  8
1HATCH
 10
364.23049889747028
 20
-973.34144242418176
 30
0.0
 11
365.4289025918697
 21
-972.14303872978235
 31
0.0
1001
ACAD
1010
0.0
1020
0.0
1030
0.0
  0
LINE
  5
B265
  8
1HATCH
 10
365.05942260538097
 20
-973.41054432837791
 30
0.0
 11
366.32692820397671
 21
-972.14303872978223
 31
0.0
1001
ACAD
1010
0.0
1020
0.0
1030
0.0
  0
LINE
  5
B266
  8
1HATCH
 10
365.88834631329189
 20
-973.47964623257394
 30
0.0
 11
367.2249538160836
 21
-972.14303872978235
 31
0.0
1001
ACAD
1010
0.0
1020
0.0
1030
0.0
  0
LINE
  5
B267
  8
1HATCH
 10
366.55605048497972
 20
-973.70996767299289
 30
0.0
 11
367.98696289187569
 21
-972.27905526609686
 31
0.0
1001
ACAD
1010
0.0
1020
0.0
1030
0.0
  0
LINE
  5
B268
  8
1HATCH
 10
366.65094635556062
 20
-974.51309741451905
 30
0.0
 11
368.2509463555607
 21
-972.91309741451903
 31
0.0
1001
ACAD
1010
0.0
1020
0.0
1030
0.0
  0
LINE
  5
B269
  8
1HATCH
 10
366.65094635556062
 20
-975.41112302662589
 30
0.0
 11
368.2509463555607
 21
-973.81112302662586
 31
0.0
1001
ACAD
1010
0.0
1020
0.0
1030
0.0
  0
LINE
  5
B26A
  8
1HATCH
 10
366.65094635556062
 20
-976.30914863873272
 30
0.0
 11
368.2509463555607
 21
-974.7091486387327
 31
0.0
1001
ACAD
1010
0.0
1020
0.0
1030
0.0
  0
LINE
  5
B26B
  8
1HATCH
 10
366.81508187661791
 20
-977.04303872978255
 30
0.0
 11
368.2509463555607
 21
-975.60717425083976
 31
0.0
1001
ACAD
1010
0.0
1020
0.0
1030
0.0
  0
LINE
  5
B26C
  8
1HATCH
 10
367.71310748872509
 20
-977.04303872978232
 30
0.0
 11
368.2509463555607
 21
-976.5051998629466
 31
0.0
1001
ACAD
1010
0.0
1020
0.0
1030
0.0
  0
LINE
  5
B26D
  8
1HATCH
 10
369.25094635556081
 20
-981.12373745678235
 30
0.0
 11
368.25094635556098
 21
-980.12373745678258
 31
0.0
1001
ACAD
1010
0.0
1020
0.0
1030
0.0
  0
LINE
  5
B26E
  8
1HATCH
 10
369.2509463555607
 20
-979.77669903862204
 30
0.0
 11
368.25094635556098
 21
-978.77669903862216
 31
0.0
1001
ACAD
1010
0.0
1020
0.0
1030
0.0
  0
LINE
  5
B26F
  8
1HATCH
 10
369.2509463555607
 20
-978.42966062046185
 30
0.0
 11
368.25094635556093
 21
-977.42966062046185
 31
0.0
1001
ACAD
1010
0.0
1020
0.0
1030
0.0
  0
LINE
  5
B270
  8
1HATCH
 10
369.2509463555607
 20
-977.0826222023012
 30
0.0
 11
368.25094635556093
 21
-976.08262220230142
 31
0.0
1001
ACAD
1010
0.0
1020
0.0
1030
0.0
  0
LINE
  5
B271
  8
1HATCH
 10
369.2509463555607
 20
-975.73558378414089
 30
0.0
 11
368.25094635556093
 21
-974.73558378414111
 31
0.0
1001
ACAD
1010
0.0
1020
0.0
1030
0.0
  0
LINE
  5
B272
  8
1HATCH
 10
369.2509463555607
 20
-974.38854536598046
 30
0.0
 11
368.25094635556093
 21
-973.38854536598069
 31
0.0
1001
ACAD
1010
0.0
1020
0.0
1030
0.0
  0
LINE
  5
B273
  8
1HATCH
 10
368.69578908286252
 20
-967.09819600248034
 30
0.0
 11
368.2509463555607
 21
-966.65335327517857
 31
0.0
1001
ACAD
1010
0.0
1020
0.0
1030
0.0
  0
LINE
  5
B274
  8
1HATCH
 10
369.2509463555607
 20
-966.30631485701826
 30
0.0
 11
368.2509463555607
 21
-965.30631485701815
 31
0.0
1001
ACAD
1010
0.0
1020
0.0
1030
0.0
  0
LINE
  5
B275
  8
1HATCH
 10
369.2509463555607
 20
-964.95927643885796
 30
0.0
 11
368.25094635556059
 21
-963.95927643885796
 31
0.0
1001
ACAD
1010
0.0
1020
0.0
1030
0.0
  0
LINE
  5
B276
  8
1HATCH
 10
369.25094635556081
 20
-963.61223802069765
 30
0.0
 11
368.25094635556059
 21
-962.61223802069753
 31
0.0
1001
ACAD
1010
0.0
1020
0.0
1030
0.0
  0
LINE
  5
B277
  8
1HATCH
 10
369.25094635556081
 20
-962.26519960253711
 30
0.0
 11
368.25094635556059
 21
-961.265199602537
 31
0.0
1001
ACAD
1010
0.0
1020
0.0
1030
0.0
  0
LINE
  5
B278
  8
1HATCH
 10
369.25094635556081
 20
-960.91816118437691
 30
0.0
 11
368.25094635556059
 21
-959.91816118437657
 31
0.0
1001
ACAD
1010
0.0
1020
0.0
1030
0.0
  0
LINE
  5
B279
  8
1HATCH
 10
369.25094635556081
 20
-959.5711227662166
 30
0.0
 11
368.25094635556059
 21
-958.57112276621615
 31
0.0
1001
ACAD
1010
0.0
1020
0.0
1030
0.0
  0
LINE
  5
B27A
  8
1HATCH
 10
369.25094635556093
 20
-958.22408434805595
 30
0.0
 11
368.25094635556047
 21
-957.22408434805595
 31
0.0
1001
ACAD
1010
0.0
1020
0.0
1030
0.0
  0
LINE
  5
B27B
  8
1HATCH
 10
369.25094635556093
 20
-956.87704592989576
 30
0.0
 11
368.25094635556047
 21
-955.8770459298953
 31
0.0
1001
ACAD
1010
0.0
1020
0.0
1030
0.0
  0
LINE
  5
B27C
  8
1HATCH
 10
369.25094635556093
 20
-955.53000751173556
 30
0.0
 11
368.26397757360758
 21
-954.5430387297821
 31
0.0
1001
ACAD
1010
0.0
1020
0.0
1030
0.0
  0
LINE
  5
B27D
  8
1DIM
 10
429.36996635137712
 20
-1064.768517299588
 30
0.0
 11
415.63393241900781
 21
-1064.768517299588
 31
0.0
  0
LINE
  5
B27E
  8
1DIM
 10
428.56997565855448
 20
-1060.768517299588
 30
0.0
 11
415.63393241900781
 21
-1060.768517299588
 31
0.0
  0
LINE
  5
B27F
  8
1DIM
 10
416.63393241900781
 20
-1066.768517299588
 30
0.0
 11
416.63393241900781
 21
-1068.768517299588
 31
0.0
  0
LINE
  5
B280
  8
1DIM
 10
416.63393241900781
 20
-1058.768517299588
 30
0.0
 11
416.63393241900781
 21
-1048.8685172995879
 31
0.0
  0
LINE
  5
B281
  8
1DIM
 10
416.63393241900781
 20
-1064.768517299588
 30
0.0
 11
416.63393241900781
 21
-1060.768517299588
 31
0.0
  0
LINE
  5
B285
  8
1DIM
 10
612.87208410875758
 20
-874.28825604396047
 30
0.0
 11
592.1667957131441
 21
-874.28825604396047
 31
0.0
  0
LINE
  5
B286
  8
1DIM
 10
612.87208410875758
 20
-858.28825604396047
 30
0.0
 11
592.1667957131441
 21
-858.28825604396047
 31
0.0
  0
LINE
  5
B287
  8
1DIM
 10
593.16679571314421
 20
-872.28825604396036
 30
0.0
 11
593.16679571314421
 21
-860.28825604396047
 31
0.0
  0
LINE
  5
B28B
  8
1DIM
 10
601.15069853121145
 20
-867.78825604396036
 30
0.0
 11
598.05008536990044
 21
-867.78825604396036
 31
0.0
  0
LINE
  5
B28C
  8
1DIM
 10
601.15069853121145
 20
-864.78825604396047
 30
0.0
 11
598.05008536990044
 21
-864.78825604396047
 31
0.0
  0
LINE
  5
B28D
  8
1DIM
 10
599.05008536990044
 20
-862.78825604396047
 30
0.0
 11
599.05008536990044
 21
-860.78825604396036
 31
0.0
  0
LINE
  5
B28E
  8
1DIM
 10
599.05008536990044
 20
-869.78825604396047
 30
0.0
 11
599.05008536990044
 21
-880.40102434485107
 31
0.0
  0
LINE
  5
B28F
  8
1DIM
 10
599.05008536990044
 20
-864.78825604396047
 30
0.0
 11
599.05008536990044
 21
-867.78825604396036
 31
0.0
  0
LINE
  5
B293
  8
1DIM
 10
670.57208057875778
 20
-862.98826004396051
 30
0.0
 11
680.89340579871373
 21
-862.98826004396051
 31
0.0
  0
LINE
  5
B294
  8
1DIM
 10
669.37208057875773
 20
-869.58825404396055
 30
0.0
 11
680.89340579871373
 21
-869.58825404396055
 31
0.0
  0
LINE
  5
B295
  8
1DIM
 10
679.89340579871373
 20
-864.98826004396051
 30
0.0
 11
679.89340579871373
 21
-867.58825404396032
 31
0.0
  0
LINE
  5
B299
  8
1DIM
 10
464.79479545413523
 20
-986.2430357297826
 30
0.0
 11
444.4745266860524
 21
-986.2430357297826
 31
0.0
  0
LINE
  5
B29A
  8
1DIM
 10
519.79476445413525
 20
-1007.543038729782
 30
0.0
 11
444.4745266860524
 21
-1007.543038729782
 31
0.0
  0
LINE
  5
B29B
  8
1DIM
 10
445.47452668605251
 20
-988.2430357297826
 30
0.0
 11
445.47452668605251
 21
-1005.543038729782
 31
0.0
  0
LINE
  5
B29F
  8
1DIM
 10
464.79476145413543
 20
-905.84305672978235
 30
0.0
 11
444.4745266860524
 21
-905.84305672978235
 31
0.0
  0
LINE
  5
B2A0
  8
1DIM
 10
519.29476445413525
 20
-884.54303872978244
 30
0.0
 11
444.4745266860524
 21
-884.54303872978244
 31
0.0
  0
LINE
  5
B2A1
  8
1DIM
 10
445.4745266860524
 20
-903.84305672978223
 30
0.0
 11
445.47452668605251
 21
-886.54303872978232
 31
0.0
  0
TEXT
  5
B2A5
  8
1DIM
 10
619.91867467192355
 20
-890.14984452058877
 30
0.0
 40
3.5
  1
材質：亜鉛ダイキャスト
  0
TEXT
  5
B2A6
  8
1DIM
 10
619.91867467192355
 20
-895.98317785392214
 30
0.0
 40
3.5
  1
仕上：各種メッキ
  0
SOLID
  5
B2A7
  8
1DIM
 10
622.74892283268014
 20
-946.77776771148535
 30
0.0
 11
622.62367392656461
 21
-948.80148306267199
 31
0.0
 12
622.08581250764041
 22
-946.84653646362017
 32
0.0
 13
622.08581250764041
 23
-946.84653646362017
 33
0.0
  0
LINE
  5
B2A9
  8
1DIM
 10
544.2947644541357
 20
-863.31269417453973
 30
0.0
 11
544.2947644541357
 21
-852.84708623620713
 31
0.0
  0
LINE
  5
B2AA
  8
1DIM
 10
574.2947644541357
 20
-863.3663496190868
 30
0.0
 11
574.2947644541357
 21
-852.84708623620713
 31
0.0
  0
LINE
  5
B2AB
  8
1DIM
 10
546.29476445413559
 20
-853.84708623620713
 30
0.0
 11
572.29476445413559
 21
-853.84708623620713
 31
0.0
  0
LINE
  5
B2AC
  8
1DIM
 10
574.2947644541357
 20
-853.84708623620713
 30
0.0
 11
615.72809778746887
 21
-853.84708623620713
 31
0.0
  0
LINE
  5
B2B0
  8
1DIM
 10
521.29476445413525
 20
-1007.543038729782
 30
0.0
 11
521.29476445413525
 21
-1021.785994733334
 31
0.0
  0
LINE
  5
B2B1
  8
1DIM
 10
518.59475245413523
 20
-1007.043038729782
 30
0.0
 11
518.59475245413523
 21
-1021.785994733334
 31
0.0
  0
LINE
  5
B2B2
  8
1DIM
 10
523.29476445413525
 20
-1020.785994733334
 30
0.0
 11
525.29476445413525
 21
-1020.785994733334
 31
0.0
  0
LINE
  5
B2B3
  8
1DIM
 10
516.59475245413523
 20
-1020.785994733334
 30
0.0
 11
505.86141912080183
 21
-1020.785994733334
 31
0.0
  0
LINE
  5
B2B4
  8
1DIM
 10
521.29476445413525
 20
-1020.785994733334
 30
0.0
 11
518.59475245413523
 21
-1020.785994733334
 31
0.0
  0
LINE
  5
B2B8
  8
1DIM
 10
464.7947644541353
 20
-905.84304172978216
 30
0.0
 11
444.4745266860524
 21
-905.84304172978216
 31
0.0
  0
LINE
  5
B2B9
  8
1DIM
 10
464.79479545413523
 20
-986.2430357297826
 30
0.0
 11
444.4745266860524
 21
-986.2430357297826
 31
0.0
  0
LINE
  5
B2BA
  8
1DIM
 10
445.47452668605251
 20
-907.84304172978216
 30
0.0
 11
445.47452668605251
 21
-984.24303572978272
 31
0.0
  0
LINE
  5
B2BE
  8
1DIM
 10
528.29479940658894
 20
-962.54304242661021
 30
0.0
 11
528.29479940658894
 21
-1021.785994733334
 31
0.0
  0
LINE
  5
B2BF
  8
1DIM
 10
521.29476445413525
 20
-1007.543038729782
 30
0.0
 11
521.29476445413525
 21
-1021.785994733334
 31
0.0
  0
LINE
  5
B2C0
  8
1DIM
 10
526.29479940658894
 20
-1020.785994733334
 30
0.0
 11
523.29476445413525
 21
-1020.785994733334
 31
0.0
  0
LINE
  5
B2C4
  8
1DIM
 10
521.29476445413525
 20
-884.54303872978244
 30
0.0
 11
521.29476445413525
 21
-867.24134172978245
 31
0.0
  0
LINE
  5
B2C5
  8
1DIM
 10
533.22527434804863
 20
-950.54304055134571
 30
0.0
 11
533.22527434804863
 21
-867.24134172978245
 31
0.0
  0
LINE
  5
B2C6
  8
1DIM
 10
523.29476445413525
 20
-868.24134172978245
 30
0.0
 11
531.22527434804863
 21
-868.24134172978245
 31
0.0
  0
LINE
  5
B2CA
  8
1DIM
 10
521.29476445413525
 20
-884.54303872978244
 30
0.0
 11
521.29476445413525
 21
-873.28948653671273
 31
0.0
  0
LINE
  5
B2CB
  8
1DIM
 10
483.29479545413523
 20
-934.94960872978265
 30
0.0
 11
483.29479545413523
 21
-873.28948653671273
 31
0.0
  0
LINE
  5
B2CC
  8
1DIM
 10
519.29476445413525
 20
-874.28948653671273
 30
0.0
 11
485.29479545413523
 21
-874.28948653671273
 31
0.0
  0
LINE
  5
B2D0
  8
1DIM
 10
521.29476445413525
 20
-884.54303872978244
 30
0.0
 11
521.29476445413525
 21
-867.24134172978245
 31
0.0
  0
LINE
  5
B2D1
  8
1DIM
 10
463.59478345413532
 20
-907.04303872978244
 30
0.0
 11
463.59478345413532
 21
-867.24134172978245
 31
0.0
  0
LINE
  5
B2D2
  8
1DIM
 10
519.29476445413525
 20
-868.24134172978245
 30
0.0
 11
465.59478345413521
 21
-868.24134172978245
 31
0.0
  0
LINE
  5
B2D6
  8
1DIM
 10
561.29476445413604
 20
-890.54303872978244
 30
0.0
 11
564.35284231808305
 21
-887.96464039893215
 31
0.0
  0
LINE
  5
B2D7
  8
1DIM
 10
565.88188229293416
 20
-886.67544035421145
 30
0.0
 11
585.71819748794132
 21
-869.95058105876615
 31
0.0
  0
LINE
  5
B2DA
  8
1DIM
 10
567.29476445413559
 20
-890.54303872978244
 30
0.0
 11
567.29476445413559
 21
-867.24134172978245
 31
0.0
  0
LINE
  5
B2DB
  8
1DIM
 10
551.29476445413559
 20
-890.54303872978244
 30
0.0
 11
551.29476445413559
 21
-867.24134172978245
 31
0.0
  0
LINE
  5
B2DC
  8
1DIM
 10
565.2947644541357
 20
-868.24134172978245
 30
0.0
 11
553.2947644541357
 21
-868.24134172978245
 31
0.0
  0
LINE
  5
B2E0
  8
1DIM
 10
561.2947644541357
 20
-884.54303872978244
 30
0.0
 11
587.15867664311315
 21
-884.54303872978244
 31
0.0
  0
LINE
  5
B2E1
  8
1DIM
 10
561.2947644541357
 20
-1007.543038729782
 30
0.0
 11
587.15867664311315
 21
-1007.543038729782
 31
0.0
  0
LINE
  5
B2E2
  8
1DIM
 10
586.15867664311315
 20
-886.54303872978232
 30
0.0
 11
586.15867664311315
 21
-1005.543038729782
 31
0.0
  0
TEXT
  5
B2E6
  8
1DIM
 10
585.45867664311334
 20
-950.12637206311558
 30
0.0
 40
3.5
  1
123
 50
90.0
  0
LINE
  5
B2E7
  8
0
  6
BYBLOCK
 10
586.69457502311332
 20
-1005.543038729782
 30
0.0
 11
586.15867664311315
 21
-1007.543038729782
 31
0.0
  0
LINE
  5
B2E8
  8
0
  6
BYBLOCK
 10
586.15867664311315
 20
-1007.543038729782
 30
0.0
 11
585.6227782631131
 21
-1005.543038729782
 31
0.0
  0
LINE
  5
B2E9
  8
0
  6
BYBLOCK
 10
586.15867664311315
 20
-1007.543038729782
 30
0.0
 11
586.15867664311315
 21
-1005.543038729782
 31
0.0
  0
LINE
  5
B2EA
  8
0
  6
BYBLOCK
 10
585.6227782631131
 20
-886.54303872978232
 30
0.0
 11
586.15867664311315
 21
-884.54303872978244
 31
0.0
  0
LINE
  5
B2EB
  8
0
  6
BYBLOCK
 10
586.15867664311315
 20
-884.54303872978244
 30
0.0
 11
586.69457502311332
 21
-886.54303872978232
 31
0.0
  0
LINE
  5
B2EC
  8
0
  6
BYBLOCK
 10
586.15867664311315
 20
-884.54303872978244
 30
0.0
 11
586.15867664311315
 21
-886.54303872978232
 31
0.0
  0
TEXT
  5
B2ED
  8
1DIM
 10
556.96143112080233
 20
-867.54134172978252
 30
0.0
 40
3.5
  1
16
  0
LINE
  5
B2EE
  8
0
  6
BYBLOCK
 10
553.2947644541357
 20
-868.7772401097825
 30
0.0
 11
551.29476445413559
 21
-868.24134172978245
 31
0.0
  0
LINE
  5
B2EF
  8
0
  6
BYBLOCK
 10
551.29476445413559
 20
-868.24134172978245
 30
0.0
 11
553.2947644541357
 21
-867.70544334978263
 31
0.0
  0
LINE
  5
B2F0
  8
0
  6
BYBLOCK
 10
551.29476445413559
 20
-868.24134172978245
 30
0.0
 11
553.2947644541357
 21
-868.24134172978245
 31
0.0
  0
LINE
  5
B2F1
  8
0
  6
BYBLOCK
 10
565.2947644541357
 20
-867.70544334978263
 30
0.0
 11
567.29476445413559
 21
-868.24134172978245
 31
0.0
  0
LINE
  5
B2F2
  8
0
  6
BYBLOCK
 10
567.29476445413559
 20
-868.24134172978245
 30
0.0
 11
565.2947644541357
 21
-868.7772401097825
 31
0.0
  0
LINE
  5
B2F3
  8
0
  6
BYBLOCK
 10
567.29476445413559
 20
-868.24134172978245
 30
0.0
 11
565.2947644541357
 21
-868.24134172978245
 31
0.0
  0
TEXT
  5
B2F4
  8
1DIM
 10
580.33582355339468
 20
-873.57308721179209
 30
0.0
 40
3.5
  1
R6
 50
40.135693142128751
  0
LINE
  5
B2F5
  8
0
  6
BYBLOCK
 10
564.00740221035244
 20
-887.55493537619304
 30
0.0
 11
565.88188229293416
 21
-886.67544035421145
 31
0.0
  0
LINE
  5
B2F6
  8
0
  6
BYBLOCK
 10
565.88188229293416
 20
-886.67544035421145
 30
0.0
 11
564.69828242581411
 21
-888.37434542167114
 31
0.0
  0
LINE
  5
B2F7
  8
0
  6
BYBLOCK
 10
565.88188229293416
 20
-886.67544035421145
 30
0.0
 11
564.35284231808316
 21
-887.96464039893215
 31
0.0
  0
TEXT
  5
B2F8
  8
1DIM
 10
487.19477395413531
 20
-867.54134172978252
 30
0.0
 40
3.5
  1
57.7
  0
LINE
  5
B2F9
  8
0
  6
BYBLOCK
 10
465.59478345413521
 20
-868.7772401097825
 30
0.0
 11
463.59478345413532
 21
-868.24134172978245
 31
0.0
  0
LINE
  5
B2FA
  8
0
  6
BYBLOCK
 10
463.59478345413532
 20
-868.24134172978245
 30
0.0
 11
465.59478345413521
 21
-867.70544334978263
 31
0.0
  0
LINE
  5
B2FB
  8
0
  6
BYBLOCK
 10
463.59478345413532
 20
-868.24134172978245
 30
0.0
 11
465.59478345413521
 21
-868.24134172978245
 31
0.0
  0
LINE
  5
B2FC
  8
0
  6
BYBLOCK
 10
519.29476445413525
 20
-867.70544334978263
 30
0.0
 11
521.29476445413525
 21
-868.24134172978245
 31
0.0
  0
LINE
  5
B2FD
  8
0
  6
BYBLOCK
 10
521.29476445413525
 20
-868.24134172978245
 30
0.0
 11
519.29476445413525
 21
-868.7772401097825
 31
0.0
  0
LINE
  5
B2FE
  8
0
  6
BYBLOCK
 10
521.29476445413525
 20
-868.24134172978245
 30
0.0
 11
519.29476445413525
 21
-868.24134172978245
 31
0.0
  0
TEXT
  5
B2FF
  8
1DIM
 10
499.37811328746852
 20
-873.58948653671268
 30
0.0
 40
3.5
  1
38
  0
LINE
  5
B300
  8
0
  6
BYBLOCK
 10
485.29479545413523
 20
-874.82538491671266
 30
0.0
 11
483.29479545413523
 21
-874.28948653671273
 31
0.0
  0
LINE
  5
B301
  8
0
  6
BYBLOCK
 10
483.29479545413523
 20
-874.28948653671273
 30
0.0
 11
485.29479545413523
 21
-873.75358815671257
 31
0.0
  0
LINE
  5
B302
  8
0
  6
BYBLOCK
 10
483.29479545413523
 20
-874.28948653671273
 30
0.0
 11
485.29479545413523
 21
-874.28948653671273
 31
0.0
  0
LINE
  5
B303
  8
0
  6
BYBLOCK
 10
519.29476445413525
 20
-873.75358815671257
 30
0.0
 11
521.29476445413525
 21
-874.28948653671273
 31
0.0
  0
LINE
  5
B304
  8
0
  6
BYBLOCK
 10
521.29476445413525
 20
-874.28948653671273
 30
0.0
 11
519.29476445413525
 21
-874.82538491671266
 31
0.0
  0
LINE
  5
B305
  8
0
  6
BYBLOCK
 10
521.29476445413525
 20
-874.28948653671273
 30
0.0
 11
519.29476445413525
 21
-874.28948653671273
 31
0.0
  0
TEXT
  5
B306
  8
1DIM
 10
524.92668606775862
 20
-867.54134172978252
 30
0.0
 40
3.5
  1
12
  0
LINE
  5
B307
  8
0
  6
BYBLOCK
 10
531.22527434804863
 20
-867.70544334978263
 30
0.0
 11
533.22527434804863
 21
-868.24134172978245
 31
0.0
  0
LINE
  5
B308
  8
0
  6
BYBLOCK
 10
533.22527434804863
 20
-868.24134172978245
 30
0.0
 11
531.22527434804863
 21
-868.7772401097825
 31
0.0
  0
LINE
  5
B309
  8
0
  6
BYBLOCK
 10
533.22527434804863
 20
-868.24134172978245
 30
0.0
 11
531.22527434804863
 21
-868.24134172978245
 31
0.0
  0
LINE
  5
B30A
  8
0
  6
BYBLOCK
 10
523.29476445413525
 20
-868.7772401097825
 30
0.0
 11
521.29476445413525
 21
-868.24134172978245
 31
0.0
  0
LINE
  5
B30B
  8
0
  6
BYBLOCK
 10
521.29476445413525
 20
-868.24134172978245
 30
0.0
 11
523.29476445413525
 21
-867.70544334978263
 31
0.0
  0
LINE
  5
B30C
  8
0
  6
BYBLOCK
 10
521.29476445413525
 20
-868.24134172978245
 30
0.0
 11
523.29476445413525
 21
-868.24134172978245
 31
0.0
  0
TEXT
  5
B30D
  8
1DIM
 10
523.62811526369535
 20
-1020.085994733334
 30
0.0
 40
3.5
  1
7
  0
LINE
  5
B30E
  8
0
  6
BYBLOCK
 10
523.29476445413525
 20
-1021.321893113334
 30
0.0
 11
521.29476445413525
 21
-1020.785994733334
 31
0.0
  0
LINE
  5
B30F
  8
0
  6
BYBLOCK
 10
521.29476445413525
 20
-1020.785994733334
 30
0.0
 11
523.29476445413525
 21
-1020.250096353334
 31
0.0
  0
LINE
  5
B310
  8
0
  6
BYBLOCK
 10
521.29476445413525
 20
-1020.785994733334
 30
0.0
 11
523.29476445413525
 21
-1020.785994733334
 31
0.0
  0
LINE
  5
B311
  8
0
  6
BYBLOCK
 10
526.29479940658894
 20
-1020.250096353334
 30
0.0
 11
528.29479940658894
 21
-1020.785994733334
 31
0.0
  0
LINE
  5
B312
  8
0
  6
BYBLOCK
 10
528.29479940658894
 20
-1020.785994733334
 30
0.0
 11
526.29479940658894
 21
-1021.321893113334
 31
0.0
  0
LINE
  5
B313
  8
0
  6
BYBLOCK
 10
528.29479940658894
 20
-1020.785994733334
 30
0.0
 11
526.29479940658894
 21
-1020.785994733334
 31
0.0
  0
TEXT
  5
B314
  8
1DIM
 10
444.77452668605258
 20
-948.37637206311581
 30
0.0
 40
3.5
  1
81
 50
90.0
  0
LINE
  5
B315
  8
0
  6
BYBLOCK
 10
446.01042506605251
 20
-984.24303572978272
 30
0.0
 11
445.47452668605251
 21
-986.2430357297826
 31
0.0
  0
LINE
  5
B316
  8
0
  6
BYBLOCK
 10
445.47452668605251
 20
-986.2430357297826
 30
0.0
 11
444.93862830605252
 21
-984.24303572978272
 31
0.0
  0
LINE
  5
B317
  8
0
  6
BYBLOCK
 10
445.47452668605251
 20
-986.2430357297826
 30
0.0
 11
445.47452668605251
 21
-984.24303572978272
 31
0.0
  0
LINE
  5
B318
  8
0
  6
BYBLOCK
 10
444.93862830605252
 20
-907.84304172978216
 30
0.0
 11
445.47452668605251
 21
-905.84304172978216
 31
0.0
  0
LINE
  5
B319
  8
0
  6
BYBLOCK
 10
445.47452668605251
 20
-905.84304172978216
 30
0.0
 11
446.01042506605251
 21
-907.84304172978216
 31
0.0
  0
LINE
  5
B31A
  8
0
  6
BYBLOCK
 10
445.47452668605251
 20
-905.84304172978216
 30
0.0
 11
445.47452668605251
 21
-907.84304172978216
 31
0.0
  0
TEXT
  5
B31B
  8
1DIM
 10
506.7280857874685
 20
-1020.085994733334
 30
0.0
 40
3.5
  1
2.7
  0
LINE
  5
B31C
  8
0
  6
BYBLOCK
 10
516.59475245413523
 20
-1020.250096353334
 30
0.0
 11
518.59475245413523
 21
-1020.785994733334
 31
0.0
  0
LINE
  5
B31D
  8
0
  6
BYBLOCK
 10
518.59475245413523
 20
-1020.785994733334
 30
0.0
 11
516.59475245413523
 21
-1021.321893113334
 31
0.0
  0
LINE
  5
B31E
  8
0
  6
BYBLOCK
 10
518.59475245413523
 20
-1020.785994733334
 30
0.0
 11
516.59475245413523
 21
-1020.785994733334
 31
0.0
  0
LINE
  5
B31F
  8
0
  6
BYBLOCK
 10
523.29476445413525
 20
-1021.321893113334
 30
0.0
 11
521.29476445413525
 21
-1020.785994733334
 31
0.0
  0
LINE
  5
B320
  8
0
  6
BYBLOCK
 10
521.29476445413525
 20
-1020.785994733334
 30
0.0
 11
523.29476445413525
 21
-1020.250096353334
 31
0.0
  0
LINE
  5
B321
  8
0
  6
BYBLOCK
 10
521.29476445413525
 20
-1020.785994733334
 30
0.0
 11
523.29476445413525
 21
-1020.785994733334
 31
0.0
  0
TEXT
  5
B322
  8
1DIM
 10
576.99476445413575
 20
-853.14708623620697
 30
0.0
 40
3.5
  1
対応扉厚：28～42
  0
LINE
  5
B323
  8
0
  6
BYBLOCK
 10
572.29476445413559
 20
-853.31118785620697
 30
0.0
 11
574.2947644541357
 21
-853.84708623620713
 31
0.0
  0
LINE
  5
B324
  8
0
  6
BYBLOCK
 10
574.2947644541357
 20
-853.84708623620713
 30
0.0
 11
572.29476445413559
 21
-854.38298461620718
 31
0.0
  0
LINE
  5
B325
  8
0
  6
BYBLOCK
 10
574.2947644541357
 20
-853.84708623620713
 30
0.0
 11
572.29476445413559
 21
-853.84708623620713
 31
0.0
  0
LINE
  5
B326
  8
0
  6
BYBLOCK
 10
546.29476445413559
 20
-854.38298461620718
 30
0.0
 11
544.2947644541357
 21
-853.84708623620713
 31
0.0
  0
LINE
  5
B327
  8
0
  6
BYBLOCK
 10
544.2947644541357
 20
-853.84708623620713
 30
0.0
 11
546.29476445413559
 21
-853.31118785620697
 31
0.0
  0
LINE
  5
B328
  8
0
  6
BYBLOCK
 10
544.2947644541357
 20
-853.84708623620713
 30
0.0
 11
546.29476445413559
 21
-853.84708623620713
 31
0.0
  0
LINE
  5
B329
  8
1DIM
 10
622.41736767016016
 20
-946.8121520875527
 30
0.0
 11
617.2186746719234
 21
-896.68317785392207
 31
0.0
  0
LINE
  5
B32A
  8
1DIM
 10
617.2186746719234
 20
-896.68317785392207
 30
0.0
 11
664.48534133859005
 21
-896.68317785392207
 31
0.0
  0
TEXT
  5
B32B
  8
1DIM
 10
444.77452668605258
 20
-897.52638106311565
 30
0.0
 40
3.5
  1
21
 50
90.0
  0
LINE
  5
B32C
  8
0
  6
BYBLOCK
 10
444.93862830605252
 20
-886.54303872978232
 30
0.0
 11
445.47452668605251
 21
-884.54303872978244
 31
0.0
  0
LINE
  5
B32D
  8
0
  6
BYBLOCK
 10
445.47452668605251
 20
-884.54303872978244
 30
0.0
 11
446.01042506605251
 21
-886.54303872978232
 31
0.0
  0
LINE
  5
B32E
  8
0
  6
BYBLOCK
 10
445.47452668605251
 20
-884.54303872978244
 30
0.0
 11
445.47452668605251
 21
-886.54303872978232
 31
0.0
  0
LINE
  5
B32F
  8
0
  6
BYBLOCK
 10
446.01042506605239
 20
-903.84305672978223
 30
0.0
 11
445.4745266860524
 21
-905.84305672978235
 31
0.0
  0
LINE
  5
B330
  8
0
  6
BYBLOCK
 10
445.4745266860524
 20
-905.84305672978235
 30
0.0
 11
444.93862830605241
 21
-903.84305672978223
 31
0.0
  0
LINE
  5
B331
  8
0
  6
BYBLOCK
 10
445.4745266860524
 20
-905.84305672978235
 30
0.0
 11
445.4745266860524
 21
-903.84305672978223
 31
0.0
  0
TEXT
  5
B332
  8
1DIM
 10
444.77452668605258
 20
-999.22637056311578
 30
0.0
 40
3.5
  1
21
 50
90.0
  0
LINE
  5
B333
  8
0
  6
BYBLOCK
 10
446.01042506605251
 20
-1005.543038729782
 30
0.0
 11
445.47452668605251
 21
-1007.543038729782
 31
0.0
  0
LINE
  5
B334
  8
0
  6
BYBLOCK
 10
445.47452668605251
 20
-1007.543038729782
 30
0.0
 11
444.93862830605252
 21
-1005.543038729782
 31
0.0
  0
LINE
  5
B335
  8
0
  6
BYBLOCK
 10
445.47452668605251
 20
-1007.543038729782
 30
0.0
 11
445.47452668605251
 21
-1005.543038729782
 31
0.0
  0
LINE
  5
B336
  8
0
  6
BYBLOCK
 10
444.93862830605252
 20
-988.2430357297826
 30
0.0
 11
445.47452668605251
 21
-986.2430357297826
 31
0.0
  0
LINE
  5
B337
  8
0
  6
BYBLOCK
 10
445.47452668605251
 20
-986.2430357297826
 30
0.0
 11
446.01042506605251
 21
-988.2430357297826
 31
0.0
  0
LINE
  5
B338
  8
0
  6
BYBLOCK
 10
445.47452668605251
 20
-986.2430357297826
 30
0.0
 11
445.47452668605251
 21
-988.2430357297826
 31
0.0
  0
TEXT
  5
B339
  8
1DIM
 10
679.19340579871391
 20
-867.45492371062687
 30
0.0
 40
3.5
  1
7
 50
90.0
  0
LINE
  5
B33A
  8
0
  6
BYBLOCK
 10
680.42930417871366
 20
-867.58825404396032
 30
0.0
 11
679.89340579871373
 21
-869.58825404396055
 31
0.0
  0
LINE
  5
B33B
  8
0
  6
BYBLOCK
 10
679.89340579871373
 20
-869.58825404396055
 30
0.0
 11
679.35750741871368
 21
-867.58825404396032
 31
0.0
  0
LINE
  5
B33C
  8
0
  6
BYBLOCK
 10
679.89340579871373
 20
-869.58825404396055
 30
0.0
 11
679.89340579871373
 21
-867.58825404396032
 31
0.0
  0
LINE
  5
B33D
  8
0
  6
BYBLOCK
 10
679.35750741871368
 20
-864.98826004396051
 30
0.0
 11
679.89340579871373
 21
-862.98826004396051
 31
0.0
  0
LINE
  5
B33E
  8
0
  6
BYBLOCK
 10
679.89340579871373
 20
-862.98826004396051
 30
0.0
 11
680.42930417871366
 21
-864.98826004396051
 31
0.0
  0
LINE
  5
B33F
  8
0
  6
BYBLOCK
 10
679.89340579871373
 20
-862.98826004396051
 30
0.0
 11
679.89340579871373
 21
-864.98826004396051
 31
0.0
  0
TEXT
  5
B340
  8
1DIM
 10
598.35008536990051
 20
-879.70102434485091
 30
0.0
 40
3.5
  1
3
 50
90.0
  0
LINE
  5
B341
  8
0
  6
BYBLOCK
 10
598.51418698990028
 20
-869.78825604396047
 30
0.0
 11
599.05008536990044
 21
-867.78825604396036
 31
0.0
  0
LINE
  5
B342
  8
0
  6
BYBLOCK
 10
599.05008536990044
 20
-867.78825604396036
 30
0.0
 11
599.58598374990038
 21
-869.78825604396047
 31
0.0
  0
LINE
  5
B343
  8
0
  6
BYBLOCK
 10
599.05008536990044
 20
-867.78825604396036
 30
0.0
 11
599.05008536990044
 21
-869.78825604396047
 31
0.0
  0
LINE
  5
B344
  8
0
  6
BYBLOCK
 10
599.58598374990038
 20
-862.78825604396047
 30
0.0
 11
599.05008536990044
 21
-864.78825604396047
 31
0.0
  0
LINE
  5
B345
  8
0
  6
BYBLOCK
 10
599.05008536990044
 20
-864.78825604396047
 30
0.0
 11
598.51418698990028
 21
-862.78825604396047
 31
0.0
  0
LINE
  5
B346
  8
0
  6
BYBLOCK
 10
599.05008536990044
 20
-864.78825604396047
 30
0.0
 11
599.05008536990044
 21
-862.78825604396047
 31
0.0
  0
TEXT
  5
B347
  8
1DIM
 10
592.46679571314428
 20
-868.16761909323566
 30
0.0
 40
3.5
  1
16
 50
90.0
  0
LINE
  5
B348
  8
0
  6
BYBLOCK
 10
592.63089733314405
 20
-860.28825604396047
 30
0.0
 11
593.16679571314421
 21
-858.28825604396047
 31
0.0
  0
LINE
  5
B349
  8
0
  6
BYBLOCK
 10
593.16679571314421
 20
-858.28825604396047
 30
0.0
 11
593.70269409314415
 21
-860.28825604396047
 31
0.0
  0
LINE
  5
B34A
  8
0
  6
BYBLOCK
 10
593.16679571314421
 20
-858.28825604396047
 30
0.0
 11
593.16679571314421
 21
-860.28825604396047
 31
0.0
  0
LINE
  5
B34B
  8
0
  6
BYBLOCK
 10
593.70269409314415
 20
-872.28825604396036
 30
0.0
 11
593.16679571314421
 21
-874.28825604396047
 31
0.0
  0
LINE
  5
B34C
  8
0
  6
BYBLOCK
 10
593.16679571314421
 20
-874.28825604396047
 30
0.0
 11
592.63089733314405
 21
-872.28825604396036
 31
0.0
  0
LINE
  5
B34D
  8
0
  6
BYBLOCK
 10
593.16679571314421
 20
-874.28825604396047
 30
0.0
 11
593.16679571314421
 21
-872.28825604396036
 31
0.0
  0
TEXT
  5
B34E
  8
1DIM
 10
415.93393241900799
 20
-1056.435183966255
 30
0.0
 40
3.5
  1
φ4
 50
90.0
  0
LINE
  5
B34F
  8
0
  6
BYBLOCK
 10
417.1698307990078
 20
-1058.768517299588
 30
0.0
 11
416.63393241900781
 21
-1060.768517299588
 31
0.0
  0
LINE
  5
B350
  8
0
  6
BYBLOCK
 10
416.63393241900781
 20
-1060.768517299588
 30
0.0
 11
416.09803403900781
 21
-1058.768517299588
 31
0.0
  0
LINE
  5
B351
  8
0
  6
BYBLOCK
 10
416.63393241900781
 20
-1060.768517299588
 30
0.0
 11
416.63393241900781
 21
-1058.768517299588
 31
0.0
  0
LINE
  5
B352
  8
0
  6
BYBLOCK
 10
416.09803403900781
 20
-1066.768517299588
 30
0.0
 11
416.63393241900781
 21
-1064.768517299588
 31
0.0
  0
LINE
  5
B353
  8
0
  6
BYBLOCK
 10
416.63393241900781
 20
-1064.768517299588
 30
0.0
 11
417.1698307990078
 21
-1066.768517299588
 31
0.0
  0
LINE
  5
B354
  8
0
  6
BYBLOCK
 10
416.63393241900781
 20
-1064.768517299588
 30
0.0
 11
416.63393241900781
 21
-1066.768517299588
 31
0.0
  0
TEXT
  5
B355
  8
1DIM
 10
382.44008975858583
 20
-880.84303872978205
 30
0.0
 40
3.5
  1
11.5
 50
90.0
  0
LINE
  5
B356
  8
0
  6
BYBLOCK
 10
382.60419137858571
 20
-886.54303872978221
 30
0.0
 11
383.1400897585857
 21
-884.54303872978221
 31
0.0
  0
LINE
  5
B357
  8
0
  6
BYBLOCK
 10
383.1400897585857
 20
-884.54303872978221
 30
0.0
 11
383.67598813858569
 21
-886.54303872978221
 31
0.0
  0
LINE
  5
B358
  8
0
  6
BYBLOCK
 10
383.1400897585857
 20
-884.54303872978221
 30
0.0
 11
383.1400897585857
 21
-886.54303872978221
 31
0.0
  0
LINE
  5
B359
  8
0
  6
BYBLOCK
 10
383.67598813858558
 20
-894.0430387297821
 30
0.0
 11
383.14008975858559
 21
-896.04303872978221
 31
0.0
  0
LINE
  5
B35A
  8
0
  6
BYBLOCK
 10
383.14008975858559
 20
-896.04303872978221
 30
0.0
 11
382.6041913785856
 21
-894.0430387297821
 31
0.0
  0
LINE
  5
B35B
  8
0
  6
BYBLOCK
 10
383.14008975858559
 20
-896.04303872978221
 30
0.0
 11
383.14008975858559
 21
-894.0430387297821
 31
0.0
  0
TEXT
  5
B35C
  8
1DIM
 10
382.44008975858583
 20
-966.34303872978205
 30
0.0
 40
3.5
  1
取付けねじピッチ100
 50
90.0
  0
LINE
  5
B35D
  8
0
  6
BYBLOCK
 10
383.67598813858569
 20
-994.0430387297821
 30
0.0
 11
383.1400897585857
 21
-996.04303872978221
 31
0.0
  0
LINE
  5
B35E
  8
0
  6
BYBLOCK
 10
383.1400897585857
 20
-996.04303872978221
 30
0.0
 11
382.60419137858571
 21
-994.0430387297821
 31
0.0
  0
LINE
  5
B35F
  8
0
  6
BYBLOCK
 10
383.1400897585857
 20
-996.04303872978221
 30
0.0
 11
383.1400897585857
 21
-994.0430387297821
 31
0.0
  0
LINE
  5
B360
  8
0
  6
BYBLOCK
 10
382.60419137858571
 20
-898.04303872978221
 30
0.0
 11
383.1400897585857
 21
-896.04303872978221
 31
0.0
  0
LINE
  5
B361
  8
0
  6
BYBLOCK
 10
383.1400897585857
 20
-896.04303872978221
 30
0.0
 11
383.67598813858569
 21
-898.04303872978221
 31
0.0
  0
LINE
  5
B362
  8
0
  6
BYBLOCK
 10
383.1400897585857
 20
-896.04303872978221
 30
0.0
 11
383.1400897585857
 21
-898.04303872978221
 31
0.0
  0
TEXT
  5
B363
  8
1DIM
 10
415.74488325657859
 20
-915.80970539644875
 30
0.0
 40
3.5
  1
上下調整範囲
 50
90.0
  0
TEXT
  5
B364
  8
1DIM
 10
421.5782165899119
 20
-916.62637206311547
 30
0.0
 40
3.5
  1
34.5~42.5
 50
90.0
  0
LINE
  5
B365
  8
0
  6
BYBLOCK
 10
422.81411496991171
 20
-921.04303872978221
 30
0.0
 11
422.27821658991178
 21
-923.04303872978221
 31
0.0
  0
LINE
  5
B366
  8
0
  6
BYBLOCK
 10
422.27821658991178
 20
-923.04303872978221
 30
0.0
 11
421.74231820991179
 21
-921.04303872978221
 31
0.0
  0
LINE
  5
B367
  8
0
  6
BYBLOCK
 10
422.27821658991178
 20
-923.04303872978221
 30
0.0
 11
422.27821658991178
 21
-921.04303872978221
 31
0.0
  0
LINE
  5
B368
  8
0
  6
BYBLOCK
 10
421.7423182099119
 20
-886.54303872978221
 30
0.0
 11
422.27821658991178
 21
-884.54303872978221
 31
0.0
  0
LINE
  5
B369
  8
0
  6
BYBLOCK
 10
422.27821658991178
 20
-884.54303872978221
 30
0.0
 11
422.81411496991183
 21
-886.54303872978221
 31
0.0
  0
LINE
  5
B36A
  8
0
  6
BYBLOCK
 10
422.27821658991178
 20
-884.54303872978221
 30
0.0
 11
422.27821658991178
 21
-886.54303872978221
 31
0.0
  0
TEXT
  5
B36B
  8
1DIM
 10
421.57821658991202
 20
-943.45970539644884
 30
0.0
 40
3.5
  1
31.5
 50
90.0
  0
LINE
  5
B36C
  8
0
  6
BYBLOCK
 10
422.81411496991171
 20
-952.54303872978221
 30
0.0
 11
422.27821658991178
 21
-954.5430387297821
 31
0.0
  0
LINE
  5
B36D
  8
0
  6
BYBLOCK
 10
422.27821658991178
 20
-954.5430387297821
 30
0.0
 11
421.74231820991179
 21
-952.54303872978221
 31
0.0
  0
LINE
  5
B36E
  8
0
  6
BYBLOCK
 10
422.27821658991178
 20
-954.5430387297821
 30
0.0
 11
422.27821658991178
 21
-952.54303872978221
 31
0.0
  0
LINE
  5
B36F
  8
0
  6
BYBLOCK
 10
421.74231820991179
 20
-925.0430387297821
 30
0.0
 11
422.27821658991178
 21
-923.04303872978221
 31
0.0
  0
LINE
  5
B370
  8
0
  6
BYBLOCK
 10
422.27821658991178
 20
-923.04303872978221
 30
0.0
 11
422.81411496991171
 21
-925.0430387297821
 31
0.0
  0
LINE
  5
B371
  8
0
  6
BYBLOCK
 10
422.27821658991178
 20
-923.04303872978221
 30
0.0
 11
422.27821658991178
 21
-925.0430387297821
 31
0.0
  0
TEXT
  5
B372
  8
1DIM
 10
310.10733158419862
 20
-1024.301033857201
 30
0.0
 40
3.5
  1
13
 50
90.0
  0
LINE
  5
B373
  8
0
  6
BYBLOCK
 10
310.27143320419839
 20
-1017.467700523868
 30
0.0
 11
310.80733158419849
 21
-1015.467700523868
 31
0.0
  0
LINE
  5
B374
  8
0
  6
BYBLOCK
 10
310.80733158419849
 20
-1015.467700523868
 30
0.0
 11
311.34322996419837
 21
-1017.467700523868
 31
0.0
  0
LINE
  5
B375
  8
0
  6
BYBLOCK
 10
310.80733158419849
 20
-1015.467700523868
 30
0.0
 11
310.80733158419849
 21
-1017.467700523868
 31
0.0
  0
LINE
  5
B376
  8
0
  6
BYBLOCK
 10
311.34322996419837
 20
-1026.467700523868
 30
0.0
 11
310.80733158419849
 21
-1028.467700523868
 31
0.0
  0
LINE
  5
B377
  8
0
  6
BYBLOCK
 10
310.80733158419849
 20
-1028.467700523868
 30
0.0
 11
310.27143320419839
 21
-1026.467700523868
 31
0.0
  0
LINE
  5
B378
  8
0
  6
BYBLOCK
 10
310.80733158419849
 20
-1028.467700523868
 30
0.0
 11
310.80733158419849
 21
-1026.467700523868
 31
0.0
  0
TEXT
  5
B379
  8
1DIM
 10
412.02460078051598
 20
-880.0919288292456
 30
0.0
 40
3.5
  1
R6
 50
43.605068500903919
  0
LINE
  5
B37A
  8
0
  6
BYBLOCK
 10
404.59359931194138
 20
-887.39625448547588
 30
0.0
 11
406.41142134428742
 21
-886.40493711328656
 31
0.0
  0
LINE
  5
B37B
  8
0
  6
BYBLOCK
 10
406.41142134428742
 20
-886.40493711328656
 30
0.0
 11
405.33279996279327
 21
-888.17235415209507
 31
0.0
  0
LINE
  5
B37C
  8
0
  6
BYBLOCK
 10
406.41142134428742
 20
-886.40493711328656
 30
0.0
 11
404.96319963736732
 21
-887.78430431878553
 31
0.0
  0
TEXT
  5
B37D
  8
1DIM
 10
398.90008955686159
 20
-931.88424274286979
 30
0.0
 40
3.5
  1
9
  0
LINE
  5
B37E
  8
0
  6
BYBLOCK
 10
402.56675622352822
 20
-932.0483443628699
 30
0.0
 11
404.56675622352827
 21
-932.58424274286995
 31
0.0
  0
LINE
  5
B37F
  8
0
  6
BYBLOCK
 10
404.56675622352827
 20
-932.58424274286995
 30
0.0
 11
402.56675622352822
 21
-933.12014112287
 31
0.0
  0
LINE
  5
B380
  8
0
  6
BYBLOCK
 10
404.56675622352827
 20
-932.58424274286995
 30
0.0
 11
402.56675622352822
 21
-932.58424274286995
 31
0.0
  0
LINE
  5
B381
  8
0
  6
BYBLOCK
 10
397.56675622352827
 20
-933.12014112287
 30
0.0
 11
395.56675622352827
 21
-932.58424274286995
 31
0.0
  0
LINE
  5
B382
  8
0
  6
BYBLOCK
 10
395.56675622352827
 20
-932.58424274286995
 30
0.0
 11
397.56675622352827
 21
-932.0483443628699
 31
0.0
  0
LINE
  5
B383
  8
0
  6
BYBLOCK
 10
395.56675622352827
 20
-932.58424274286995
 30
0.0
 11
397.56675622352827
 21
-932.58424274286995
 31
0.0
  0
TEXT
  5
B384
  8
1DIM
 10
347.13959633846707
 20
-1024.301033857201
 30
0.0
 40
3.5
  1
16
 50
90.0
  0
LINE
  5
B385
  8
0
  6
BYBLOCK
 10
347.3036979584669
 20
-1015.967700523868
 30
0.0
 11
347.83959633846689
 21
-1013.967700523868
 31
0.0
  0
LINE
  5
B386
  8
0
  6
BYBLOCK
 10
347.83959633846689
 20
-1013.967700523868
 30
0.0
 11
348.37549471846688
 21
-1015.967700523868
 31
0.0
  0
LINE
  5
B387
  8
0
  6
BYBLOCK
 10
347.83959633846689
 20
-1013.967700523868
 30
0.0
 11
347.83959633846689
 21
-1015.967700523868
 31
0.0
  0
LINE
  5
B388
  8
0
  6
BYBLOCK
 10
348.37549471846688
 20
-1027.967700523868
 30
0.0
 11
347.83959633846689
 21
-1029.967700523868
 31
0.0
  0
LINE
  5
B389
  8
0
  6
BYBLOCK
 10
347.83959633846689
 20
-1029.967700523868
 30
0.0
 11
347.3036979584669
 21
-1027.967700523868
 31
0.0
  0
LINE
  5
B38A
  8
0
  6
BYBLOCK
 10
347.83959633846689
 20
-1029.967700523868
 30
0.0
 11
347.83959633846689
 21
-1027.967700523868
 31
0.0
  0
TEXT
  5
B38B
  8
1DIM
 10
358.33427968889401
 20
-1021.25182368424
 30
0.0
 40
3.5
  1
14.5
  0
LINE
  5
B38C
  8
0
  6
BYBLOCK
 10
357.7509463555607
 20
-1022.48772206424
 30
0.0
 11
355.7509463555607
 21
-1021.95182368424
 31
0.0
  0
LINE
  5
B38D
  8
0
  6
BYBLOCK
 10
355.7509463555607
 20
-1021.95182368424
 30
0.0
 11
357.7509463555607
 21
-1021.41592530424
 31
0.0
  0
LINE
  5
B38E
  8
0
  6
BYBLOCK
 10
355.7509463555607
 20
-1021.95182368424
 30
0.0
 11
357.7509463555607
 21
-1021.95182368424
 31
0.0
  0
LINE
  5
B38F
  8
0
  6
BYBLOCK
 10
368.2509463555607
 20
-1021.41592530424
 30
0.0
 11
370.2509463555607
 21
-1021.95182368424
 31
0.0
  0
LINE
  5
B390
  8
0
  6
BYBLOCK
 10
370.2509463555607
 20
-1021.95182368424
 30
0.0
 11
368.2509463555607
 21
-1022.48772206424
 31
0.0
  0
LINE
  5
B391
  8
0
  6
BYBLOCK
 10
370.2509463555607
 20
-1021.95182368424
 30
0.0
 11
368.2509463555607
 21
-1021.95182368424
 31
0.0
  0
TEXT
  5
B392
  8
1DIM
 10
355.88427968889408
 20
-1013.412699531562
 30
0.0
 40
3.5
  1
2.5
  0
LINE
  5
B393
  8
0
  6
BYBLOCK
 10
365.75094635556093
 20
-1013.576801151562
 30
0.0
 11
367.75094635556093
 21
-1014.112699531563
 31
0.0
  0
LINE
  5
B394
  8
0
  6
BYBLOCK
 10
367.75094635556093
 20
-1014.112699531563
 30
0.0
 11
365.75094635556093
 21
-1014.648597911562
 31
0.0
  0
LINE
  5
B395
  8
0
  6
BYBLOCK
 10
367.75094635556093
 20
-1014.112699531563
 30
0.0
 11
365.75094635556093
 21
-1014.112699531563
 31
0.0
  0
LINE
  5
B396
  8
0
  6
BYBLOCK
 10
372.2509463555607
 20
-1014.648597911562
 30
0.0
 11
370.2509463555607
 21
-1014.112699531563
 31
0.0
  0
LINE
  5
B397
  8
0
  6
BYBLOCK
 10
370.2509463555607
 20
-1014.112699531563
 30
0.0
 11
372.2509463555607
 21
-1013.576801151562
 31
0.0
  0
LINE
  5
B398
  8
0
  6
BYBLOCK
 10
370.2509463555607
 20
-1014.112699531563
 30
0.0
 11
372.2509463555607
 21
-1014.112699531563
 31
0.0
  0
TEXT
  5
B399
  8
1DIM
 10
332.16135594553822
 20
-962.15970539644854
 30
0.0
 40
3.5
  1
切欠き必要寸法75
 50
90.0
  0
LINE
  5
B39A
  8
0
  6
BYBLOCK
 10
333.39725432553797
 20
-980.04303872978221
 30
0.0
 11
332.86135594553798
 21
-982.04303872978221
 31
0.0
  0
LINE
  5
B39B
  8
0
  6
BYBLOCK
 10
332.86135594553798
 20
-982.04303872978221
 30
0.0
 11
332.32545756553799
 21
-980.04303872978221
 31
0.0
  0
LINE
  5
B39C
  8
0
  6
BYBLOCK
 10
332.86135594553798
 20
-982.04303872978221
 30
0.0
 11
332.86135594553798
 21
-980.04303872978221
 31
0.0
  0
LINE
  5
B39D
  8
0
  6
BYBLOCK
 10
332.32545756553799
 20
-909.04303872978176
 30
0.0
 11
332.86135594553798
 21
-907.04303872978164
 31
0.0
  0
LINE
  5
B39E
  8
0
  6
BYBLOCK
 10
332.86135594553798
 20
-907.04303872978164
 30
0.0
 11
333.39725432553797
 21
-909.04303872978176
 31
0.0
  0
LINE
  5
B39F
  8
0
  6
BYBLOCK
 10
332.86135594553798
 20
-907.04303872978164
 30
0.0
 11
332.86135594553798
 21
-909.04303872978176
 31
0.0
  0
TEXT
  5
B3A0
  8
1DIM
 10
339.34223265142867
 20
-947.4597053964485
 30
0.0
 40
3.5
  1
67
 50
90.0
  0
LINE
  5
B3A1
  8
0
  6
BYBLOCK
 10
340.57813103142848
 20
-976.0430387297821
 30
0.0
 11
340.04223265142861
 21
-978.04303872978232
 31
0.0
  0
LINE
  5
B3A2
  8
0
  6
BYBLOCK
 10
340.04223265142861
 20
-978.04303872978232
 30
0.0
 11
339.50633427142861
 21
-976.0430387297821
 31
0.0
  0
LINE
  5
B3A3
  8
0
  6
BYBLOCK
 10
340.04223265142861
 20
-978.04303872978232
 30
0.0
 11
340.04223265142861
 21
-976.0430387297821
 31
0.0
  0
LINE
  5
B3A4
  8
0
  6
BYBLOCK
 10
339.50633427142861
 20
-913.04303872978176
 30
0.0
 11
340.04223265142861
 21
-911.04303872978176
 31
0.0
  0
LINE
  5
B3A5
  8
0
  6
BYBLOCK
 10
340.04223265142861
 20
-911.04303872978176
 30
0.0
 11
340.57813103142848
 21
-913.04303872978176
 31
0.0
  0
LINE
  5
B3A6
  8
0
  6
BYBLOCK
 10
340.04223265142861
 20
-911.04303872978176
 30
0.0
 11
340.04223265142861
 21
-913.04303872978176
 31
0.0
  0
TEXT
  5
B3A7
  8
1DIM
 10
339.34223265142867
 20
-902.67637206311497
 30
0.0
 40
3.5
  1
4 可動シロ
 50
90.0
  0
LINE
  5
B3A8
  8
0
  6
BYBLOCK
 10
340.57813103142848
 20
-905.04303872978176
 30
0.0
 11
340.04223265142861
 21
-907.04303872978164
 31
0.0
  0
LINE
  5
B3A9
  8
0
  6
BYBLOCK
 10
340.04223265142861
 20
-907.04303872978164
 30
0.0
 11
339.50633427142861
 21
-905.04303872978176
 31
0.0
  0
LINE
  5
B3AA
  8
0
  6
BYBLOCK
 10
340.04223265142861
 20
-907.04303872978164
 30
0.0
 11
340.04223265142861
 21
-905.04303872978176
 31
0.0
  0
LINE
  5
B3AB
  8
0
  6
BYBLOCK
 10
339.50633427142861
 20
-913.04303872978176
 30
0.0
 11
340.04223265142861
 21
-911.04303872978176
 31
0.0
  0
LINE
  5
B3AC
  8
0
  6
BYBLOCK
 10
340.04223265142861
 20
-911.04303872978176
 30
0.0
 11
340.57813103142848
 21
-913.04303872978176
 31
0.0
  0
LINE
  5
B3AD
  8
0
  6
BYBLOCK
 10
340.04223265142861
 20
-911.04303872978176
 30
0.0
 11
340.04223265142861
 21
-913.04303872978176
 31
0.0
  0
TEXT
  5
B3AE
  8
1DIM
 10
339.34223265142867
 20
-1007.409705396449
 30
0.0
 40
3.5
  1
4 可動シロ
 50
90.0
  0
LINE
  5
B3AF
  8
0
  6
BYBLOCK
 10
339.50633427142861
 20
-984.0430387297821
 30
0.0
 11
340.04223265142861
 21
-982.04303872978221
 31
0.0
  0
LINE
  5
B3B0
  8
0
  6
BYBLOCK
 10
340.04223265142861
 20
-982.04303872978221
 30
0.0
 11
340.57813103142848
 21
-984.0430387297821
 31
0.0
  0
LINE
  5
B3B1
  8
0
  6
BYBLOCK
 10
340.04223265142861
 20
-982.04303872978221
 30
0.0
 11
340.04223265142861
 21
-984.0430387297821
 31
0.0
  0
LINE
  5
B3B2
  8
0
  6
BYBLOCK
 10
340.57813103142848
 20
-976.0430387297821
 30
0.0
 11
340.04223265142861
 21
-978.04303872978232
 31
0.0
  0
LINE
  5
B3B3
  8
0
  6
BYBLOCK
 10
340.04223265142861
 20
-978.04303872978232
 30
0.0
 11
339.50633427142861
 21
-976.0430387297821
 31
0.0
  0
LINE
  5
B3B4
  8
0
  6
BYBLOCK
 10
340.04223265142861
 20
-978.04303872978232
 30
0.0
 11
340.04223265142861
 21
-976.0430387297821
 31
0.0
  0
TEXT
  5
B3B5
  8
1DIM
 10
397.73342289019502
 20
-1021.25182368424
 30
0.0
 40
3.5
  1
16
  0
LINE
  5
B3B6
  8
0
  6
BYBLOCK
 10
406.06675622352822
 20
-1021.41592530424
 30
0.0
 11
408.06675622352822
 21
-1021.95182368424
 31
0.0
  0
LINE
  5
B3B7
  8
0
  6
BYBLOCK
 10
408.06675622352822
 20
-1021.95182368424
 30
0.0
 11
406.06675622352822
 21
-1022.48772206424
 31
0.0
  0
LINE
  5
B3B8
  8
0
  6
BYBLOCK
 10
408.06675622352822
 20
-1021.95182368424
 30
0.0
 11
406.06675622352822
 21
-1021.95182368424
 31
0.0
  0
LINE
  5
B3B9
  8
0
  6
BYBLOCK
 10
394.06675622352827
 20
-1022.48772206424
 30
0.0
 11
392.06675622352827
 21
-1021.95182368424
 31
0.0
  0
LINE
  5
B3BA
  8
0
  6
BYBLOCK
 10
392.06675622352827
 20
-1021.95182368424
 30
0.0
 11
394.06675622352827
 21
-1021.41592530424
 31
0.0
  0
LINE
  5
B3BB
  8
0
  6
BYBLOCK
 10
392.06675622352827
 20
-1021.95182368424
 30
0.0
 11
394.06675622352827
 21
-1021.95182368424
 31
0.0
  0
TEXT
  5
B3BC
  8
1DIM
 10
429.15951656274569
 20
-950.12637206311535
 30
0.0
 40
3.5
  1
123
 50
90.0
  0
LINE
  5
B3BD
  8
0
  6
BYBLOCK
 10
430.3954149427455
 20
-1005.543038729782
 30
0.0
 11
429.85951656274551
 21
-1007.543038729782
 31
0.0
  0
LINE
  5
B3BE
  8
0
  6
BYBLOCK
 10
429.85951656274551
 20
-1007.543038729782
 30
0.0
 11
429.32361818274552
 21
-1005.543038729782
 31
0.0
  0
LINE
  5
B3BF
  8
0
  6
BYBLOCK
 10
429.85951656274551
 20
-1007.543038729782
 30
0.0
 11
429.85951656274551
 21
-1005.543038729782
 31
0.0
  0
LINE
  5
B3C0
  8
0
  6
BYBLOCK
 10
429.32361818274558
 20
-886.54303872978221
 30
0.0
 11
429.85951656274563
 21
-884.54303872978221
 31
0.0
  0
LINE
  5
B3C1
  8
0
  6
BYBLOCK
 10
429.85951656274563
 20
-884.54303872978221
 30
0.0
 11
430.39541494274562
 21
-886.54303872978221
 31
0.0
  0
LINE
  5
B3C2
  8
0
  6
BYBLOCK
 10
429.85951656274563
 20
-884.54303872978221
 30
0.0
 11
429.85951656274563
 21
-886.54303872978221
 31
0.0
  0
TEXT
  5
B3C3
  8
1DIM
 10
427.05330317490348
 20
-1075.028075348818
 30
0.0
 40
3.5
  1
25
  0
LINE
  5
B3C4
  8
0
  6
BYBLOCK
 10
440.46996984157022
 20
-1075.1921769688181
 30
0.0
 11
442.46996984157022
 21
-1075.728075348818
 31
0.0
  0
LINE
  5
B3C5
  8
0
  6
BYBLOCK
 10
442.46996984157022
 20
-1075.728075348818
 30
0.0
 11
440.46996984157022
 21
-1076.263973728818
 31
0.0
  0
LINE
  5
B3C6
  8
0
  6
BYBLOCK
 10
442.46996984157022
 20
-1075.728075348818
 30
0.0
 11
440.46996984157022
 21
-1075.728075348818
 31
0.0
  0
LINE
  5
B3C7
  8
0
  6
BYBLOCK
 10
419.46996984157022
 20
-1076.263973728818
 30
0.0
 11
417.46996984157022
 21
-1075.728075348818
 31
0.0
  0
LINE
  5
B3C8
  8
0
  6
BYBLOCK
 10
417.46996984157022
 20
-1075.728075348818
 30
0.0
 11
419.46996984157022
 21
-1075.1921769688181
 31
0.0
  0
LINE
  5
B3C9
  8
0
  6
BYBLOCK
 10
417.46996984157022
 20
-1075.728075348818
 30
0.0
 11
419.46996984157022
 21
-1075.728075348818
 31
0.0
  0
TEXT
  5
B3CA
  8
1DIM
 10
410.32608216806727
 20
-1080.630430949926
 30
0.0
 40
3.5
  1
φ3.5
 50
90.0
  0
LINE
  5
B3CB
  8
0
  6
BYBLOCK
 10
411.56198054806708
 20
-1083.047097616593
 30
0.0
 11
411.02608216806709
 21
-1085.047097616593
 31
0.0
  0
LINE
  5
B3CC
  8
0
  6
BYBLOCK
 10
411.02608216806709
 20
-1085.047097616593
 30
0.0
 11
410.4901837880671
 21
-1083.047097616593
 31
0.0
  0
LINE
  5
B3CD
  8
0
  6
BYBLOCK
 10
411.02608216806709
 20
-1085.047097616593
 30
0.0
 11
411.02608216806709
 21
-1083.047097616593
 31
0.0
  0
LINE
  5
B3CE
  8
0
  6
BYBLOCK
 10
410.4901837880671
 20
-1090.547097616593
 30
0.0
 11
411.02608216806709
 21
-1088.547097616593
 31
0.0
  0
LINE
  5
B3CF
  8
0
  6
BYBLOCK
 10
411.02608216806709
 20
-1088.547097616593
 30
0.0
 11
411.56198054806708
 21
-1090.547097616593
 31
0.0
  0
LINE
  5
B3D0
  8
0
  6
BYBLOCK
 10
411.02608216806709
 20
-1088.547097616593
 30
0.0
 11
411.02608216806709
 21
-1090.547097616593
 31
0.0
  0
LINE
  5
B3D1
  8
1DIM
 10
397.79328930414403
 20
-887.18943548845721
 30
0.0
 11
400.6628166855981
 21
-870.20209985556005
 31
0.0
1001
ACAD
1000
DSTYLE
1002
{
1070
   341
1005
0
1002
}
  0
LINE
  5
B3D2
  8
1DIM
 10
400.6628166855981
 20
-870.20209985556005
 30
0.0
 11
435.56281668559808
 21
-870.20209985556005
 31
0.0
1001
ACAD
1000
DSTYLE
1002
{
1070
   341
1005
0
1002
}
  0
LINE
  5
B3D3
  8
1DIM
 10
362.41128718903877
 20
-912.91346089335173
 30
0.0
 11
367.580542613251
 21
-876.91710055350643
 31
0.0
1001
ACAD
1000
DSTYLE
1002
{
1070
   341
1005
0
1002
}
  0
LINE
  5
B3D4
  8
1DIM
 10
367.580542613251
 20
-876.91710055350643
 30
0.0
 11
336.88054261325101
 21
-876.91710055350643
 31
0.0
1001
ACAD
1000
DSTYLE
1002
{
1070
   341
1005
0
1002
}
  0
TEXT
  5
B3D5
  8
1DIM
 10
380.76572928122772
 20
-1044.997228792859
 30
0.0
 40
3.5
  1
15
  0
LINE
  5
B3D6
  8
0
  6
BYBLOCK
 10
388.59906261456109
 20
-1045.1613304128589
 30
0.0
 11
390.59906261456098
 21
-1045.6972287928591
 31
0.0
  0
LINE
  5
B3D7
  8
0
  6
BYBLOCK
 10
390.59906261456098
 20
-1045.6972287928591
 30
0.0
 11
388.59906261456109
 21
-1046.233127172859
 31
0.0
  0
LINE
  5
B3D8
  8
0
  6
BYBLOCK
 10
390.59906261456098
 20
-1045.6972287928591
 30
0.0
 11
388.59906261456109
 21
-1045.6972287928591
 31
0.0
  0
LINE
  5
B3D9
  8
0
  6
BYBLOCK
 10
377.59906261456098
 20
-1046.233127172859
 30
0.0
 11
375.59906261456109
 21
-1045.6972287928591
 31
0.0
  0
LINE
  5
B3DA
  8
0
  6
BYBLOCK
 10
375.59906261456109
 20
-1045.6972287928591
 30
0.0
 11
377.59906261456098
 21
-1045.1613304128589
 31
0.0
  0
LINE
  5
B3DB
  8
0
  6
BYBLOCK
 10
375.59906261456109
 20
-1045.6972287928591
 30
0.0
 11
377.59906261456098
 21
-1045.6972287928591
 31
0.0
  0
TEXT
  5
B3DC
  8
1DIM
 10
383.68239594789441
 20
-1072.1699160590281
 30
0.0
 40
3.5
  1
22
  0
LINE
  5
B3DD
  8
0
  6
BYBLOCK
 10
395.59906261456098
 20
-1072.334017679028
 30
0.0
 11
397.59906261456098
 21
-1072.8699160590279
 31
0.0
  0
LINE
  5
B3DE
  8
0
  6
BYBLOCK
 10
397.59906261456098
 20
-1072.8699160590279
 30
0.0
 11
395.59906261456098
 21
-1073.4058144390281
 31
0.0
  0
LINE
  5
B3DF
  8
0
  6
BYBLOCK
 10
397.59906261456098
 20
-1072.8699160590279
 30
0.0
 11
395.59906261456098
 21
-1072.8699160590279
 31
0.0
  0
LINE
  5
B3E0
  8
0
  6
BYBLOCK
 10
377.59906261456098
 20
-1073.4058144390281
 30
0.0
 11
375.59906261456109
 21
-1072.8699160590279
 31
0.0
  0
LINE
  5
B3E1
  8
0
  6
BYBLOCK
 10
375.59906261456109
 20
-1072.8699160590279
 30
0.0
 11
377.59906261456098
 21
-1072.334017679028
 31
0.0
  0
LINE
  5
B3E2
  8
0
  6
BYBLOCK
 10
375.59906261456109
 20
-1072.8699160590279
 30
0.0
 11
377.59906261456098
 21
-1072.8699160590279
 31
0.0
  0
TEXT
  5
B3E3
  8
1DIM
 10
369.3314737382205
 20
-1079.6323504056979
 30
0.0
 40
3.5
  1
4
 50
90.0
  0
LINE
  5
B3E4
  8
0
  6
BYBLOCK
 10
369.49557535822032
 20
-1082.465683739031
 30
0.0
 11
370.03147373822031
 21
-1080.465683739031
 31
0.0
  0
LINE
  5
B3E5
  8
0
  6
BYBLOCK
 10
370.03147373822031
 20
-1080.465683739031
 30
0.0
 11
370.56737211822031
 21
-1082.465683739031
 31
0.0
  0
LINE
  5
B3E6
  8
0
  6
BYBLOCK
 10
370.03147373822031
 20
-1080.465683739031
 30
0.0
 11
370.03147373822031
 21
-1082.465683739031
 31
0.0
  0
LINE
  5
B3E7
  8
0
  6
BYBLOCK
 10
370.56737211822031
 20
-1074.465683739031
 30
0.0
 11
370.03147373822031
 21
-1076.465683739031
 31
0.0
  0
LINE
  5
B3E8
  8
0
  6
BYBLOCK
 10
370.03147373822031
 20
-1076.465683739031
 30
0.0
 11
369.49557535822032
 21
-1074.465683739031
 31
0.0
  0
LINE
  5
B3E9
  8
0
  6
BYBLOCK
 10
370.03147373822031
 20
-1076.465683739031
 30
0.0
 11
370.03147373822031
 21
-1074.465683739031
 31
0.0
  0
TEXT
  5
B3EA
  8
1DIM
 10
403.89186053491221
 20
-1073.215683739031
 30
0.0
 40
3.5
  1
φ6
 50
90.0
  0
LINE
  5
B3EB
  8
0
  6
BYBLOCK
 10
404.05596215491198
 20
-1077.465683739031
 30
0.0
 11
404.59186053491197
 21
-1075.465683739031
 31
0.0
  0
LINE
  5
B3EC
  8
0
  6
BYBLOCK
 10
404.59186053491197
 20
-1075.465683739031
 30
0.0
 11
405.12775891491208
 21
-1077.465683739031
 31
0.0
  0
LINE
  5
B3ED
  8
0
  6
BYBLOCK
 10
404.59186053491197
 20
-1075.465683739031
 30
0.0
 11
404.59186053491197
 21
-1077.465683739031
 31
0.0
  0
LINE
  5
B3EE
  8
0
  6
BYBLOCK
 10
405.12775891491208
 20
-1079.465683739031
 30
0.0
 11
404.59186053491197
 21
-1081.465683739031
 31
0.0
  0
LINE
  5
B3EF
  8
0
  6
BYBLOCK
 10
404.59186053491197
 20
-1081.465683739031
 30
0.0
 11
404.05596215491198
 21
-1079.465683739031
 31
0.0
  0
LINE
  5
B3F0
  8
0
  6
BYBLOCK
 10
404.59186053491197
 20
-1081.465683739031
 30
0.0
 11
404.59186053491197
 21
-1079.465683739031
 31
0.0
  0
TEXT
  5
B3F1
  8
1DIM
 10
348.4221339618922
 20
-1039.9423884739549
 30
0.0
 40
3.5
  1
22
  0
LINE
  5
B3F2
  8
0
  6
BYBLOCK
 10
360.33880062855712
 20
-1040.106490093955
 30
0.0
 11
362.33880062855712
 21
-1040.642388473955
 31
0.0
  0
LINE
  5
B3F3
  8
0
  6
BYBLOCK
 10
362.33880062855712
 20
-1040.642388473955
 30
0.0
 11
360.33880062855712
 21
-1041.1782868539549
 31
0.0
  0
LINE
  5
B3F4
  8
0
  6
BYBLOCK
 10
362.33880062855712
 20
-1040.642388473955
 30
0.0
 11
360.33880062855712
 21
-1040.642388473955
 31
0.0
  0
LINE
  5
B3F5
  8
0
  6
BYBLOCK
 10
342.33880062856082
 20
-1041.1782868539549
 30
0.0
 11
340.33880062856082
 21
-1040.642388473955
 31
0.0
  0
LINE
  5
B3F6
  8
0
  6
BYBLOCK
 10
340.33880062856082
 20
-1040.642388473955
 30
0.0
 11
342.33880062856082
 21
-1040.106490093955
 31
0.0
  0
LINE
  5
B3F7
  8
0
  6
BYBLOCK
 10
340.33880062856082
 20
-1040.642388473955
 30
0.0
 11
342.33880062856082
 21
-1040.642388473955
 31
0.0
  0
TEXT
  5
B3F8
  8
1DIM
 10
345.9221339618959
 20
-1062.296898814041
 30
0.0
 40
3.5
  1
27
  0
LINE
  5
B3F9
  8
0
  6
BYBLOCK
 10
360.3388006285644
 20
-1062.461000434042
 30
0.0
 11
362.3388006285644
 21
-1062.9968988140411
 31
0.0
  0
LINE
  5
B3FA
  8
0
  6
BYBLOCK
 10
362.3388006285644
 20
-1062.9968988140411
 30
0.0
 11
360.3388006285644
 21
-1063.532797194041
 31
0.0
  0
LINE
  5
B3FB
  8
0
  6
BYBLOCK
 10
362.3388006285644
 20
-1062.9968988140411
 30
0.0
 11
360.3388006285644
 21
-1062.9968988140411
 31
0.0
  0
LINE
  5
B3FC
  8
0
  6
BYBLOCK
 10
337.33880062856082
 20
-1063.532797194041
 30
0.0
 11
335.33880062856082
 21
-1062.9968988140411
 31
0.0
  0
LINE
  5
B3FD
  8
0
  6
BYBLOCK
 10
335.33880062856082
 20
-1062.9968988140411
 30
0.0
 11
337.33880062856082
 21
-1062.461000434042
 31
0.0
  0
LINE
  5
B3FE
  8
0
  6
BYBLOCK
 10
335.33880062856082
 20
-1062.9968988140411
 30
0.0
 11
337.33880062856082
 21
-1062.9968988140411
 31
0.0
  0
TEXT
  5
B3FF
  8
1DIM
 10
343.42213396189771
 20
-1083.5900984360151
 30
0.0
 40
3.5
  1
32
  0
LINE
  5
B400
  8
0
  6
BYBLOCK
 10
360.33880062856798
 20
-1083.754200056015
 30
0.0
 11
362.33880062856798
 21
-1084.2900984360149
 31
0.0
  0
LINE
  5
B401
  8
0
  6
BYBLOCK
 10
362.33880062856798
 20
-1084.2900984360149
 30
0.0
 11
360.33880062856798
 21
-1084.825996816015
 31
0.0
  0
LINE
  5
B402
  8
0
  6
BYBLOCK
 10
362.33880062856798
 20
-1084.2900984360149
 30
0.0
 11
360.33880062856798
 21
-1084.2900984360149
 31
0.0
  0
LINE
  5
B403
  8
0
  6
BYBLOCK
 10
332.33880062856082
 20
-1084.825996816015
 30
0.0
 11
330.33880062856082
 21
-1084.2900984360149
 31
0.0
  0
LINE
  5
B404
  8
0
  6
BYBLOCK
 10
330.33880062856082
 20
-1084.2900984360149
 30
0.0
 11
332.33880062856082
 21
-1083.754200056015
 31
0.0
  0
LINE
  5
B405
  8
0
  6
BYBLOCK
 10
330.33880062856082
 20
-1084.2900984360149
 30
0.0
 11
332.33880062856082
 21
-1084.2900984360149
 31
0.0
  0
TEXT
  5
B406
  8
1DIM
 10
531.7614311208024
 20
-980.41405436730804
 30
0.0
 40
3.5
  1
1.5
  0
LINE
  5
B407
  8
0
  6
BYBLOCK
 10
540.7947644541357
 20
-980.57815598730792
 30
0.0
 11
542.79476445413559
 21
-981.11405436730786
 31
0.0
  0
LINE
  5
B408
  8
0
  6
BYBLOCK
 10
542.79476445413559
 20
-981.11405436730786
 30
0.0
 11
540.7947644541357
 21
-981.64995274730802
 31
0.0
  0
LINE
  5
B409
  8
0
  6
BYBLOCK
 10
542.79476445413559
 20
-981.11405436730786
 30
0.0
 11
540.7947644541357
 21
-981.11405436730786
 31
0.0
  0
LINE
  5
B40A
  8
0
  6
BYBLOCK
 10
546.29476445413559
 20
-981.64995274730802
 30
0.0
 11
544.2947644541357
 21
-981.11405436730786
 31
0.0
  0
LINE
  5
B40B
  8
0
  6
BYBLOCK
 10
544.2947644541357
 20
-981.11405436730786
 30
0.0
 11
546.29476445413559
 21
-980.57815598730792
 31
0.0
  0
LINE
  5
B40C
  8
0
  6
BYBLOCK
 10
544.2947644541357
 20
-981.11405436730786
 30
0.0
 11
546.29476445413559
 21
-981.11405436730786
 31
0.0
  0
TEXT
  5
B40D
  8
1DIM
 10
580.99476096390936
 20
-980.41405436730804
 30
0.0
 40
3.5
  1
1.5
  0
LINE
  5
B40E
  8
0
  6
BYBLOCK
 10
577.79476096390943
 20
-981.64995274730802
 30
0.0
 11
575.79476096390943
 21
-981.11405436730786
 31
0.0
  0
LINE
  5
B40F
  8
0
  6
BYBLOCK
 10
575.79476096390943
 20
-981.11405436730786
 30
0.0
 11
577.79476096390943
 21
-980.57815598730792
 31
0.0
  0
LINE
  5
B410
  8
0
  6
BYBLOCK
 10
575.79476096390943
 20
-981.11405436730786
 30
0.0
 11
577.79476096390943
 21
-981.11405436730786
 31
0.0
  0
LINE
  5
B411
  8
0
  6
BYBLOCK
 10
572.29476445413559
 20
-980.57815598730792
 30
0.0
 11
574.2947644541357
 21
-981.11405436730786
 31
0.0
  0
LINE
  5
B412
  8
0
  6
BYBLOCK
 10
574.2947644541357
 20
-981.11405436730786
 30
0.0
 11
572.29476445413559
 21
-981.64995274730802
 31
0.0
  0
LINE
  5
B413
  8
0
  6
BYBLOCK
 10
574.2947644541357
 20
-981.11405436730786
 30
0.0
 11
572.29476445413559
 21
-981.11405436730786
 31
0.0
  0
TEXT
  5
B414
  8
1DIM
 10
453.04043518130999
 20
-1024.9782298749919
 30
0.0
 40
3.5
  1
160
 50
90.0
  0
LINE
  5
B415
  8
0
  6
BYBLOCK
 10
454.2763335613098
 20
-1090.043038729782
 30
0.0
 11
453.74043518130981
 21
-1092.043038729782
 31
0.0
  0
LINE
  5
B416
  8
0
  6
BYBLOCK
 10
453.74043518130981
 20
-1092.043038729782
 30
0.0
 11
453.20453680130981
 21
-1090.043038729782
 31
0.0
  0
LINE
  5
B417
  8
0
  6
BYBLOCK
 10
453.74043518130981
 20
-1092.043038729782
 30
0.0
 11
453.74043518130981
 21
-1090.043038729782
 31
0.0
  0
LINE
  5
B418
  8
0
  6
BYBLOCK
 10
453.20453680130981
 20
-934.04303872978255
 30
0.0
 11
453.74043518130981
 21
-932.04303872978244
 31
0.0
  0
LINE
  5
B419
  8
0
  6
BYBLOCK
 10
453.74043518130981
 20
-932.04303872978244
 30
0.0
 11
454.2763335613098
 21
-934.04303872978255
 31
0.0
  0
LINE
  5
B41A
  8
0
  6
BYBLOCK
 10
453.74043518130981
 20
-932.04303872978244
 30
0.0
 11
453.74043518130981
 21
-934.04303872978255
 31
0.0
  0
TEXT
  5
B41B
  8
1DIM
 10
480.37812878746848
 20
-1099.9380292187441
 30
0.0
 40
3.5
  1
38
  0
LINE
  5
B41C
  8
0
  6
BYBLOCK
 10
466.29479545413523
 20
-1101.1739275987441
 30
0.0
 11
464.29479545413528
 21
-1100.6380292187439
 31
0.0
  0
LINE
  5
B41D
  8
0
  6
BYBLOCK
 10
464.29479545413528
 20
-1100.6380292187439
 30
0.0
 11
466.29479545413523
 21
-1100.102130838744
 31
0.0
  0
LINE
  5
B41E
  8
0
  6
BYBLOCK
 10
464.29479545413528
 20
-1100.6380292187439
 30
0.0
 11
466.29479545413523
 21
-1100.6380292187439
 31
0.0
  0
LINE
  5
B41F
  8
0
  6
BYBLOCK
 10
500.29479545413528
 20
-1100.102130838744
 30
0.0
 11
502.29479545413523
 21
-1100.6380292187439
 31
0.0
  0
LINE
  5
B420
  8
0
  6
BYBLOCK
 10
502.29479545413523
 20
-1100.6380292187439
 30
0.0
 11
500.29479545413528
 21
-1101.1739275987441
 31
0.0
  0
LINE
  5
B421
  8
0
  6
BYBLOCK
 10
502.29479545413523
 20
-1100.6380292187439
 30
0.0
 11
500.29479545413528
 21
-1100.6380292187439
 31
0.0
  0
TEXT
  5
B422
  8
1DIM
 10
429.84497565853042
 20
-1043.5930027254151
 30
0.0
 40
3.5
  1
20
  0
LINE
  5
B423
  8
0
  6
BYBLOCK
 10
440.4699803121473
 20
-1043.757104345415
 30
0.0
 11
442.46998031214719
 21
-1044.2930027254149
 31
0.0
  0
LINE
  5
B424
  8
0
  6
BYBLOCK
 10
442.46998031214719
 20
-1044.2930027254149
 30
0.0
 11
440.4699803121473
 21
-1044.8289011054151
 31
0.0
  0
LINE
  5
B425
  8
0
  6
BYBLOCK
 10
442.46998031214719
 20
-1044.2930027254149
 30
0.0
 11
440.4699803121473
 21
-1044.2930027254149
 31
0.0
  0
LINE
  5
B426
  8
0
  6
BYBLOCK
 10
424.46997100491348
 20
-1044.8289011054151
 30
0.0
 11
422.46997100491348
 21
-1044.2930027254149
 31
0.0
  0
LINE
  5
B427
  8
0
  6
BYBLOCK
 10
422.46997100491348
 20
-1044.2930027254149
 30
0.0
 11
424.46997100491348
 21
-1043.757104345415
 31
0.0
  0
LINE
  5
B428
  8
0
  6
BYBLOCK
 10
422.46997100491348
 20
-1044.2930027254149
 30
0.0
 11
424.46997100491348
 21
-1044.2930027254149
 31
0.0
  0
VIEWPORT
  5
104
 67
     1
  8
0
 10
-7.7295765619315944
 20
12.60828540224489
 30
0.0
 40
395.32203995561161
 41
279.90212293285708
 68
     1
 69
     1
1001
ACAD
1000
MVIEW
1002
{
1070
    16
1010
0.0
1020
0.0
1030
0.0
1010
0.0
1020
0.0
1030
1.0
1040
0.0
1040
279.90212293285708
1040
-7.7295765619315944
1040
12.60828540224489
1040
50.0
1040
0.0
1040
0.0
1070
     0
1070
   100
1070
     1
1070
     1
1070
     0
1070
     0
1070
     0
1070
     0
1040
0.0
1040
0.0
1040
0.0
1040
10.0
1040
10.0
1040
10.0
1040
10.0
1070
     0
1002
{
1002
}
1002
}
  0
ENDSEC
  0
EOF
