  0
SECTION
  2
HEADER
  9
$ACADVER
  1
AC1009
  9
$INSBASE
 10
0.0
 20
0.0
 30
0.0
  9
$EXTMIN
 10
557.40778000705325
 20
-279.61602358842498
 30
0.0
  9
$EXTMAX
 10
911.9184744701264
 20
-23.51262029029613
 30
0.0000000000003411
  9
$LIMMIN
 10
0.0
 20
0.0
  9
$LIMMAX
 10
420.0
 20
297.0
  9
$ORTHOMODE
 70
     0
  9
$REGENMODE
 70
     1
  9
$FILLMODE
 70
     1
  9
$QTEXTMODE
 70
     0
  9
$MIRRTEXT
 70
     1
  9
$DRAGMODE
 70
     2
  9
$LTSCALE
 40
0.5
  9
$OSMODE
 70
    63
  9
$ATTMODE
 70
     1
  9
$TEXTSIZE
 40
4.0
  9
$TRACEWID
 40
1.0
  9
$TEXTSTYLE
  7
STANDARD
  9
$CLAYER
  8
1TEXT
  9
$CELTYPE
  6
BYLAYER
  9
$CECOLOR
 62
   256
  9
$DIMSCALE
 40
1.0
  9
$DIMASZ
 40
2.0
  9
$DIMEXO
 40
0.0
  9
$DIMDLI
 40
7.0
  9
$DIMRND
 40
0.0
  9
$DIMDLE
 40
0.0
  9
$DIMEXE
 40
1.0
  9
$DIMTP
 40
0.0
  9
$DIMTM
 40
0.0
  9
$DIMTXT
 40
3.5
  9
$DIMCEN
 40
0.0
  9
$DIMTSZ
 40
0.0
  9
$DIMTOL
 70
     0
  9
$DIMLIM
 70
     0
  9
$DIMTIH
 70
     0
  9
$DIMTOH
 70
     0
  9
$DIMSE1
 70
     0
  9
$DIMSE2
 70
     0
  9
$DIMTAD
 70
     1
  9
$DIMZIN
 70
     8
  9
$DIMBLK
  1

  9
$DIMASO
 70
     1
  9
$DIMSHO
 70
     1
  9
$DIMPOST
  1
 
  9
$DIMAPOST
  1

  9
$DIMALT
 70
     0
  9
$DIMALTD
 70
     2
  9
$DIMALTF
 40
25.399999999999999
  9
$DIMLFAC
 40
1.0
  9
$DIMTOFL
 70
     1
  9
$DIMTVP
 40
0.0
  9
$DIMTIX
 70
     0
  9
$DIMSOXD
 70
     0
  9
$DIMSAH
 70
     1
  9
$DIMBLK1
  1
OPEN30
  9
$DIMBLK2
  1
OPEN30
  9
$DIMSTYLE
  2
NEWX10
  9
$DIMCLRD
 70
   256
  9
$DIMCLRE
 70
   256
  9
$DIMCLRT
 70
   201
  9
$DIMTFAC
 40
0.7
  9
$DIMGAP
 40
0.7
  9
$LUNITS
 70
     2
  9
$LUPREC
 70
     4
  9
$SKETCHINC
 40
1.0
  9
$FILLETRAD
 40
0.0
  9
$AUNITS
 70
     0
  9
$AUPREC
 70
     2
  9
$MENU
  1
acad
  9
$ELEVATION
 40
0.0
  9
$PELEVATION
 40
0.0
  9
$THICKNESS
 40
0.0
  9
$LIMCHECK
 70
     0
  9
$BLIPMODE
 70
     0
  9
$CHAMFERA
 40
10.0
  9
$CHAMFERB
 40
10.0
  9
$SKPOLY
 70
     0
  9
$TDCREATE
 40
2453614.41351309
  9
$TDUPDATE
 40
2457014.661102246
  9
$TDINDWG
 40
0.8287203704
  9
$TDUSRTIMER
 40
0.8287201852
  9
$USRTIMER
 70
     1
  9
$ANGBASE
 50
0.0
  9
$ANGDIR
 70
     0
  9
$PDMODE
 70
     0
  9
$PDSIZE
 40
0.0
  9
$PLINEWID
 40
0.0
  9
$COORDS
 70
     0
  9
$SPLFRAME
 70
     0
  9
$SPLINETYPE
 70
     6
  9
$SPLINESEGS
 70
     8
  9
$ATTDIA
 70
     0
  9
$ATTREQ
 70
     1
  9
$HANDLING
 70
     1
  9
$HANDSEED
  5
904A
  9
$SURFTAB1
 70
     6
  9
$SURFTAB2
 70
     6
  9
$SURFTYPE
 70
     6
  9
$SURFU
 70
     6
  9
$SURFV
 70
     6
  9
$UCSNAME
  2

  9
$UCSORG
 10
0.0
 20
0.0
 30
0.0
  9
$UCSXDIR
 10
1.0
 20
0.0
 30
0.0
  9
$UCSYDIR
 10
0.0
 20
1.0
 30
0.0
  9
$PUCSNAME
  2

  9
$PUCSORG
 10
0.0
 20
0.0
 30
0.0
  9
$PUCSXDIR
 10
1.0
 20
0.0
 30
0.0
  9
$PUCSYDIR
 10
0.0
 20
1.0
 30
0.0
  9
$USERI1
 70
     0
  9
$USERI2
 70
     0
  9
$USERI3
 70
     0
  9
$USERI4
 70
     0
  9
$USERI5
 70
     0
  9
$USERR1
 40
0.0
  9
$USERR2
 40
0.0
  9
$USERR3
 40
0.0
  9
$USERR4
 40
0.0
  9
$USERR5
 40
0.0
  9
$WORLDVIEW
 70
     1
  9
$SHADEDGE
 70
     3
  9
$SHADEDIF
 70
    70
  9
$TILEMODE
 70
     1
  9
$MAXACTVP
 70
    48
  9
$PLIMCHECK
 70
     0
  9
$PEXTMIN
 10
1.0000000000000000E+020
 20
1.0000000000000000E+020
 30
1.0000000000000000E+020
  9
$PEXTMAX
 10
-1.0000000000000000E+020
 20
-1.0000000000000000E+020
 30
-1.0000000000000000E+020
  9
$PLIMMIN
 10
0.0
 20
0.0
  9
$PLIMMAX
 10
420.0
 20
297.0
  9
$UNITMODE
 70
     0
  9
$VISRETAIN
 70
     1
  9
$PLINEGEN
 70
     0
  9
$PSLTSCALE
 70
     1
  0
ENDSEC
  0
SECTION
  2
TABLES
  0
TABLE
  2
VPORT
 70
     1
  0
VPORT
  2
*ACTIVE
 70
     0
 10
0.0
 20
0.0
 11
1.0
 21
1.0
 12
734.67211571480675
 22
-151.5720009590336
 13
0.0
 23
0.0
 14
10.0
 24
10.0
 15
10.0
 25
10.0
 16
0.0
 26
0.0
 36
1.0
 17
0.0
 27
0.0
 37
0.0
 40
271.6078930565065
 41
2.1749379652605461
 42
50.0
 43
0.0
 44
0.0
 50
0.0
 51
0.0
 71
     0
 72
  1000
 73
     1
 74
     1
 75
     0
 76
     0
 77
     0
 78
     0
  0
ENDTAB
  0
TABLE
  2
LTYPE
 70
    14
  0
LTYPE
  2
CONTINUOUS
 70
     0
  3
Solid line
 72
    65
 73
     0
 40
0.0
  0
LTYPE
  2
CENTER2
 70
     0
  3
Center (.5x) ___ _ ___ _ ___ _ ___ _ ___ _ ___
 72
    65
 73
     4
 40
28.574999999999999
 49
19.050000000000001
 49
-3.1749999999999989
 49
3.1749999999999989
 49
-3.1749999999999989
  0
LTYPE
  2
XREF1|CENTER2
 70
    48
  3
Center (.5x) ___ _ ___ _ ___ _ ___ _ ___ _ ___
 72
    65
 73
     4
 40
28.574999999999999
 49
19.050000000000001
 49
-3.1749999999999989
 49
3.1749999999999989
 49
-3.1749999999999989
  0
LTYPE
  2
PHANTOM2
 70
     0
  3
Phantom (.5x) ___ _ _ ___ _ _ ___ _ _ ___ _ _
 72
    65
 73
     6
 40
31.75
 49
15.875
 49
-3.1749999999999989
 49
3.1749999999999989
 49
-3.1749999999999989
 49
3.1749999999999989
 49
-3.1749999999999989
  0
LTYPE
  2
A3WAKUDAKE|CENTER2
 70
    48
  3
Center (.5x) ___ _ ___ _ ___ _ ___ _ ___ _ ___
 72
    65
 73
     4
 40
28.574999999999999
 49
19.050000000000001
 49
-3.1749999999999989
 49
3.1749999999999989
 49
-3.1749999999999989
  0
ENDTAB
  0
TABLE
  2
LAYER
 70
    46
  0
LAYER
  2
0
 70
     0
 62
     7
  6
CONTINUOUS
  0
LAYER
  2
1CENTER
 70
     0
 62
     7
  6
CENTER2
  0
LAYER
  2
1TEXT
 70
     0
 62
     7
  6
CONTINUOUS
  0
LAYER
  2
1DIM
 70
     0
 62
     7
  6
CONTINUOUS
  0
LAYER
  2
1PHANTOM
 70
     0
 62
     7
  6
PHANTOM2
  0
LAYER
  2
01
 70
     0
 62
     1
  6
CONTINUOUS
  0
LAYER
  2
1HATCH
 70
     0
 62
     7
  6
CONTINUOUS
  0
LAYER
  2
A3WAKUDAKE|THICK
 70
    48
 62
     7
  6
CONTINUOUS
  0
LAYER
  2
A3WAKUDAKE|POINT
 70
    48
 62
     7
  6
CONTINUOUS
  0
LAYER
  2
A3WAKUDAKE|1CENTER
 70
    48
 62
     7
  6
A3WAKUDAKE|CENTER2
  0
LAYER
  2
A3WAKUDAKE|0-6
 70
    48
 62
     7
  6
CONTINUOUS
  0
LAYER
  2
A3WAKUDAKE|1DIM
 70
    48
 62
     7
  6
CONTINUOUS
  0
LAYER
  2
XREF1|1CENTER
 70
    48
 62
     7
  6
XREF1|CENTER2
  0
ENDTAB
  0
TABLE
  2
STYLE
 70
    22
  0
STYLE
  2
STANDARD
 70
     0
 40
0.0
 41
1.0
 50
0.0
 71
     0
 42
4.0
  3
txt.shx
  4
extfont.shx
  0
ENDTAB
  0
TABLE
  2
VIEW
 70
     5
  0
ENDTAB
  0
TABLE
  2
UCS
 70
     0
  0
ENDTAB
  0
TABLE
  2
APPID
 70
    15
  0
APPID
  2
ACAD
 70
     0
  0
APPID
  2
DRAWINGVARIABLESXDATA
 70
     0
  0
APPID
  2
CONTENTTABDATA
 70
     0
  0
APPID
  2
CONTENTCURRENTTAB
 70
     0
  0
APPID
  2
CONTENTBLOCKDESCRIPTION
 70
     0
  0
APPID
  2
CONTENTBLOCKICON
 70
     0
  0
APPID
  2
CONTENTLONGBLOCKNAME
 70
     0
  0
APPID
  2
ACAD_PSEXT
 70
     0
  0
APPID
  2
ACAD_DSTYLE_DIMTEXT_FILL
 70
     0
  0
APPID
  2
ACAD_MLEADERVER
 70
     0
  0
APPID
  2
ACAD_DSTYLE_DIMRADIAL_EXTENSION
 70
     0
  0
APPID
  2
ACADANNOTATIVE
 70
     0
  0
APPID
  2
ACAD_NAV_VCDISPLAY
 70
     0
  0
APPID
  2
ACAD_EXEMPT_FROM_CAD_STANDARDS
 70
     0
  0
APPID
  2
ACLAYERTOOLS
 70
     0
  0
ENDTAB
  0
TABLE
  2
DIMSTYLE
 70
     9
  0
DIMSTYLE
  2
NEWX10
 70
     0
  3
 
  4

  5

  6
OPEN30
  7
OPEN30
 40
1.0
 41
2.0
 42
0.0
 43
7.0
 44
1.0
 45
0.0
 46
0.0
 47
0.0
 48
0.0
140
3.5
141
0.0
142
0.0
143
25.399999999999999
144
1.0
145
0.0
146
0.7
147
0.7
 71
     0
 72
     0
 73
     0
 74
     0
 75
     0
 76
     0
 77
     1
 78
     8
170
     0
171
     2
172
     1
173
     1
174
     0
175
     0
176
   256
177
   256
178
   201
  0
ENDTAB
  0
ENDSEC
  0
SECTION
  2
BLOCKS
  0
BLOCK
  8
0
  2
$MODEL_SPACE
 70
     0
 10
0.0
 20
0.0
 30
0.0
  3
$MODEL_SPACE
  1

  0
ENDBLK
  5
1A
  8
0
  0
BLOCK
 67
     1
  8
0
  2
$PAPER_SPACE
 70
     0
 10
0.0
 20
0.0
 30
0.0
  3
$PAPER_SPACE
  1

  0
ENDBLK
  5
17
 67
     1
  8
0
  0
BLOCK
  8
0
  2
_OPEN30
 70
     0
 10
0.0
 20
0.0
 30
0.0
  3
_OPEN30
  1

  0
LINE
  5
44
  8
0
  6
BYBLOCK
 62
     0
 10
-1.0
 20
0.26794919
 30
0.0
 11
0.0
 21
0.0
 31
0.0
  0
LINE
  5
45
  8
0
  6
BYBLOCK
 62
     0
 10
0.0
 20
0.0
 30
0.0
 11
-1.0
 21
-0.26794919
 31
0.0
  0
LINE
  5
46
  8
0
  6
BYBLOCK
 62
     0
 10
0.0
 20
0.0
 30
0.0
 11
-1.0
 21
0.0
 31
0.0
  0
ENDBLK
  5
47
  8
0
  0
BLOCK
  8
0
  2
XREF1
 70
    36
 10
0.0
 20
0.0
 30
0.0
  3
XREF1
  1
D:\ACLT\FORMAT\KAWAJUN(9)図面用.dwg
  0
ENDBLK
  5
5D
  8
0
  0
BLOCK
  8
0
  2
A3WAKUDAKE
 70
    36
 10
0.0
 20
0.0
 30
0.0
  3
A3WAKUDAKE
  1
D:\ACLT\FORMAT\A3WAKUdake.dwg
  0
ENDBLK
  5
73FE
  8
0
  0
ENDSEC
  0
SECTION
  2
ENTITIES
  0
LINE
  5
796A
  8
01
 10
797.69715278017031
 20
-116.7622582038202
 30
0.0
 11
797.69715278017031
 21
-138.76225620381999
 31
0.0
  0
LINE
  5
796B
  8
01
 10
795.69715278017031
 20
-116.7622582038202
 30
0.0
 11
795.69715278017031
 21
-138.76225620381999
 31
0.0
  0
LINE
  5
796C
  8
1CENTER
 10
796.69715278017031
 20
-55.895480203820171
 30
0.0
 11
796.69715278017031
 21
-188.29710720381991
 31
0.0
  0
LINE
  5
796D
  8
01
 10
804.69715278017031
 20
-65.762256203820016
 30
0.0
 11
804.69715278017031
 21
-176.76225620381999
 31
0.0
  0
LINE
  5
796E
  8
01
 10
788.69715278017031
 20
-65.762256203820016
 30
0.0
 11
788.69715278017031
 21
-176.76225620381999
 31
0.0
  0
CIRCLE
  5
7970
  8
01
 10
796.69715278017031
 20
-156.55904330263411
 30
0.0
 40
2.0
  0
CIRCLE
  5
7971
  8
01
 10
796.69715278017031
 20
-174.26225620381999
 30
0.0
 40
3.4000015000000001
  0
CIRCLE
  5
7972
  8
01
 10
796.69715278017031
 20
-174.26225620381999
 30
0.0
 40
4.4000009999999996
  0
LINE
  5
7973
  8
1CENTER
 10
802.20221878017026
 20
-174.26225620381999
 30
0.0
 11
790.62098178017038
 21
-174.26225620381999
 31
0.0
  0
LINE
  5
7974
  8
01
 10
798.69715278017031
 20
-182.76225620381999
 30
0.0
 11
794.69715278017031
 21
-182.76225620381999
 31
0.0
  0
ARC
  5
7975
  8
01
 10
798.69715278017031
 20
-176.76225620381999
 30
0.0
 40
6.0
 50
270.0
 51
0.0000100000010064
  0
LINE
  5
7976
  8
01
 10
797.69715278017031
 20
-138.76225620381999
 30
0.0
 11
795.69715278017031
 21
-138.76225620381999
 31
0.0
  0
ARC
  5
7977
  8
01
 10
794.69715278017031
 20
-176.76225620381999
 30
0.0
 40
6.0
 50
180.0
 51
270.0
  0
CIRCLE
  5
797B
  8
01
 10
796.69715278017031
 20
-68.262256203820016
 30
0.0
 40
4.4000009999999996
  0
CIRCLE
  5
797C
  8
01
 10
796.69715278017031
 20
-68.262256203820016
 30
0.0
 40
3.4000015000000001
  0
ARC
  5
797D
  8
01
 10
795.39716578017021
 20
-128.7622581038199
 30
0.0
 40
0.5
 50
180.0
 51
270.0
  0
ARC
  5
797E
  8
01
 10
795.39716578017021
 20
-97.26225620382003
 30
0.0
 40
0.5
 50
89.999997000002296
 51
180.0
  0
ARC
  5
797F
  8
01
 10
797.9971407801703
 20
-128.7622581038199
 30
0.0
 40
0.5
 50
270.0
 51
0.0000100000010064
  0
ARC
  5
7980
  8
01
 10
797.9971407801703
 20
-97.26225620382003
 30
0.0
 40
0.5
 50
359.999989999999
 51
89.999997000002296
  0
LINE
  5
7981
  8
01
 10
795.69715278017031
 20
-129.2622581038199
 30
0.0
 11
795.39716578017021
 21
-129.2622581038199
 31
0.0
  0
LINE
  5
7982
  8
01
 10
798.4971407801703
 20
-97.26225620382003
 30
0.0
 11
798.4971407801703
 21
-128.7622581038199
 31
0.0
  0
LINE
  5
7983
  8
01
 10
797.9971407801703
 20
-129.2622581038199
 30
0.0
 11
797.69715278017031
 21
-129.2622581038199
 31
0.0
  0
LINE
  5
7984
  8
01
 10
797.9971407801703
 20
-96.762256203820016
 30
0.0
 11
795.39716578017021
 21
-96.762256203820016
 31
0.0
  0
LINE
  5
7985
  8
01
 10
797.69715278017031
 20
-116.7622582038202
 30
0.0
 11
795.69715278017031
 21
-116.7622582038202
 31
0.0
  0
LINE
  5
7987
  8
01
 10
794.89716578017021
 20
-97.26225620382003
 30
0.0
 11
794.89716578017021
 21
-128.7622581038199
 31
0.0
  0
LINE
  5
7989
  8
1CENTER
 10
802.20221878017026
 20
-68.262256203820016
 30
0.0
 11
790.62098178017038
 21
-68.262256203820016
 31
0.0
  0
LINE
  5
798A
  8
01
 10
798.69715278017031
 20
-59.762256203820023
 30
0.0
 11
794.69715278017031
 21
-59.762256203820023
 31
0.0
  0
ARC
  5
798C
  8
01
 10
798.69715278017031
 20
-65.762256203820016
 30
0.0
 40
6.0
 50
359.999989999999
 51
89.999997000002296
  0
ARC
  5
798D
  8
01
 10
794.69715278017031
 20
-65.762256203820016
 30
0.0
 40
6.0
 50
89.999997000002296
 51
180.0
  0
LINE
  5
798E
  8
1CENTER
 10
720.69718378016989
 20
-110.1688262038201
 30
0.0
 11
720.69718378016989
 21
-158.17663720382001
 31
0.0
  0
LINE
  5
798F
  8
01
 10
757.19715278016974
 20
-59.762256203820023
 30
0.0
 11
757.19715278016974
 21
-182.76225620381999
 31
0.0
  0
LINE
  5
7990
  8
01
 10
758.69715278016974
 20
-59.762256203820023
 30
0.0
 11
758.69715278016974
 21
-182.76225620381999
 31
0.0
  0
LINE
  5
7992
  8
1CENTER
 10
743.98557078016995
 20
-135.26225620381999
 30
0.0
 11
696.96246778016985
 21
-135.26225620381999
 31
0.0
  0
LINE
  5
7993
  8
01
 10
755.99714078016984
 20
-161.46225320382021
 30
0.0
 11
702.19718378016978
 21
-161.46225320382021
 31
0.0
  0
LINE
  5
7994
  8
01
 10
755.99714078016984
 20
-161.46225320382021
 30
0.0
 11
755.99714078016984
 21
-182.26225620381999
 31
0.0
  0
LINE
  5
7995
  8
01
 10
757.19715278016974
 20
-182.26225620381999
 30
0.0
 11
755.99714078016984
 21
-182.26225620381999
 31
0.0
  0
LINE
  5
7996
  8
1CENTER
 10
763.09736078016977
 20
-174.26225620381999
 30
0.0
 11
751.60077878016978
 21
-174.26225620381999
 31
0.0
  0
LINE
  5
7997
  8
01
 10
758.69715278016974
 20
-182.76225620381999
 30
0.0
 11
757.19715278016974
 21
-182.76225620381999
 31
0.0
  0
LINE
  5
7998
  8
01
 10
700.99717178016988
 20
-138.7132715949493
 30
0.0
 11
700.99717178016988
 21
-160.2622792038201
 31
0.0
  0
LINE
  5
7999
  8
01
 10
702.19716878017005
 20
-161.46227220381979
 30
0.0
 11
700.99716978016988
 21
-160.26227720381979
 31
0.0
  0
LINE
  5
799C
  8
01
 10
755.99714078016984
 20
-81.062259203819849
 30
0.0
 11
702.19715278016974
 21
-81.062259203819849
 31
0.0
  0
LINE
  5
799D
  8
01
 10
755.99714078016984
 20
-60.262256203820009
 30
0.0
 11
755.99714078016984
 21
-81.062259203819849
 31
0.0
  0
LINE
  5
79A1
  8
1CENTER
 10
761.68891378016986
 20
-68.262256203820016
 30
0.0
 11
753.40979978016992
 21
-68.262256203820016
 31
0.0
  0
LINE
  5
79A2
  8
01
 10
757.19715278016974
 20
-60.262256203820009
 30
0.0
 11
755.99714078016984
 21
-60.262256203820009
 31
0.0
  0
LINE
  5
79A3
  8
01
 10
758.69715278016974
 20
-59.762256203820023
 30
0.0
 11
757.19715278016974
 21
-59.762256203820023
 31
0.0
  0
LINE
  5
79A4
  8
01
 10
702.19714978016998
 20
-81.062274203819925
 30
0.0
 11
700.99715078017005
 21
-82.262267203820102
 31
0.0
  0
LINE
  5
79A5
  8
01
 10
700.99717178016988
 20
-82.262256203820016
 30
0.0
 11
700.99717178016988
 21
-131.8112408126905
 31
0.0
  0
POINT
  5
79A6
  8
01
 10
796.69715278017031
 20
-68.262256203820016
 30
0.0
  0
LINE
  5
79A7
  8
01
 10
897.39713378016984
 20
-82.262256203820016
 30
0.0
 11
897.39713378016984
 21
-135.26225620381999
 31
0.0
  0
LINE
  5
79A8
  8
01
 10
896.19715578016985
 20
-81.062274203819925
 30
0.0
 11
897.39715478016956
 21
-82.262267203820102
 31
0.0
  0
LINE
  5
79A9
  8
01
 10
839.69715278017009
 20
-59.762256203820023
 30
0.0
 11
841.19715278016997
 21
-59.762256203820023
 31
0.0
  0
LINE
  5
79AA
  8
01
 10
841.19715278016997
 20
-60.262256203820009
 30
0.0
 11
842.39716478016976
 21
-60.262256203820009
 31
0.0
  0
LINE
  5
79AB
  8
1CENTER
 10
836.70539178016975
 20
-68.262256203820016
 30
0.0
 11
844.98450578016968
 21
-68.262256203820016
 31
0.0
  0
LINE
  5
79AF
  8
01
 10
842.39716478016976
 20
-60.262256203820009
 30
0.0
 11
842.39716478016976
 21
-81.062259203819849
 31
0.0
  0
LINE
  5
79B0
  8
01
 10
842.39716478016976
 20
-81.062259203819849
 30
0.0
 11
896.19715278016986
 21
-81.062259203819849
 31
0.0
  0
LINE
  5
79B1
  8
01
 10
896.19713678016956
 20
-161.46227220381979
 30
0.0
 11
897.39713578016983
 21
-160.26227720381979
 31
0.0
  0
LINE
  5
79B2
  8
01
 10
897.39713378016984
 20
-135.26225620381999
 30
0.0
 11
897.39713378016984
 21
-160.2622792038201
 31
0.0
  0
LINE
  5
79B3
  8
01
 10
839.69715278017009
 20
-182.76225620381999
 30
0.0
 11
841.19715278016997
 21
-182.76225620381999
 31
0.0
  0
LINE
  5
79B4
  8
1CENTER
 10
835.29694478017007
 20
-174.26225620381999
 30
0.0
 11
846.79352678016971
 21
-174.26225620381999
 31
0.0
  0
LINE
  5
79B5
  8
01
 10
841.19715278016997
 20
-182.26225620381999
 30
0.0
 11
842.39716478016976
 21
-182.26225620381999
 31
0.0
  0
LINE
  5
79B6
  8
01
 10
842.39716478016976
 20
-161.46225320382021
 30
0.0
 11
842.39716478016976
 21
-182.26225620381999
 31
0.0
  0
LINE
  5
79B7
  8
01
 10
842.39716478016976
 20
-161.46225320382021
 30
0.0
 11
896.19712178016982
 21
-161.46225320382021
 31
0.0
  0
LINE
  5
79B8
  8
1CENTER
 10
854.40873478016988
 20
-135.26225620381999
 30
0.0
 11
901.43183778016999
 21
-135.26225620381999
 31
0.0
  0
LINE
  5
79B9
  8
01
 10
839.69715278017009
 20
-59.762256203820023
 30
0.0
 11
839.69715278017009
 21
-182.76225620381999
 31
0.0
  0
LINE
  5
79BA
  8
01
 10
841.19715278016997
 20
-59.762256203820023
 30
0.0
 11
841.19715278016997
 21
-182.76225620381999
 31
0.0
  0
LINE
  5
79BB
  8
1CENTER
 10
877.69712178016982
 20
-110.1688262038201
 30
0.0
 11
877.69712178016982
 21
-158.17663720382001
 31
0.0
  0
LINE
  5
79CB
  8
01
 10
781.69715278017031
 20
-38.531911648577307
 30
0.0
 11
781.69715278017031
 21
-192.54265123713051
 31
0.0
  0
LINE
  5
79CC
  8
01
 10
811.69715278017043
 20
-38.585567093124382
 30
0.0
 11
811.69715278017043
 21
-194.06452183459189
 31
0.0
  0
CIRCLE
  5
79F0
  8
1DIM
 10
877.69720903497864
 20
-122.762256204124
 30
0.0
 40
3.100403702697168
  0
CIRCLE
  5
79F1
  8
1DIM
 10
877.69703452536157
 20
-147.76225620351491
 30
0.0
 40
3.100403702697168
  0
TEXT
  5
79FC
  8
1TEXT
 10
557.40778000705325
 20
-30.51262029029613
 30
0.0
 40
7.0
  1
3-KM-15-X
  0
LINE
  5
79FF
  8
1DIM
 10
681.36041298755583
 20
-238.78554209453841
 30
0.0
 11
751.36041298755583
 21
-238.78554209453841
 31
0.0
  0
LINE
  5
7A00
  8
1DIM
 10
681.36041298755583
 20
-231.78554209453841
 30
0.0
 11
751.36041298755583
 21
-231.78554209453841
 31
0.0
  0
LINE
  5
7A01
  8
1DIM
 10
681.36041298755583
 20
-231.78554209453841
 30
0.0
 11
751.36041298755583
 21
-231.78554209453841
 31
0.0
  0
LINE
  5
7A02
  8
1DIM
 10
681.36041298755583
 20
-238.78554209453841
 30
0.0
 11
751.36041298755583
 21
-238.7855420945387
 31
0.0
  0
LINE
  5
7A03
  8
1DIM
 10
681.36041298755583
 20
-224.78554209453841
 30
0.0
 11
751.36041298755583
 21
-224.78554209453841
 31
0.0
  0
LINE
  5
7A04
  8
1DIM
 10
681.36041298755583
 20
-217.78554209453841
 30
0.0
 11
751.36041298755583
 21
-217.7855420945387
 31
0.0
  0
LINE
  5
7A05
  8
1DIM
 10
716.36041298755583
 20
-217.78554209453841
 30
0.0
 11
716.36041298755583
 21
-238.78554209453841
 31
0.0
  0
LINE
  5
7A06
  8
1DIM
 10
681.36041298755583
 20
-217.78554209453819
 30
0.0
 11
681.36041298755583
 21
-238.78554209453841
 31
0.0
  0
TEXT
  5
7A07
  8
1TEXT
 10
683.82707965422253
 20
-230.25545551068441
 30
0.0
 40
4.0
  1
ブラストシルバー
 41
0.8
 72
     1
 11
698.76041298755592
 21
-230.25545551068441
 31
0.0
  0
TEXT
  5
7A09
  8
1TEXT
 10
683.82707965422264
 20
-237.25545551068441
 30
0.0
 40
4.0
  1
ブラストブラック
 41
0.8
 72
     1
 11
698.76041298755592
 21
-237.25545551068441
 31
0.0
  0
TEXT
  5
7A0A
  8
1TEXT
 10
690.82707965422264
 20
-223.28554209453841
 30
0.0
 40
3.5
  1
表面処理
 72
     1
 11
698.76041298755592
 21
-223.28554209453841
 31
0.0
  0
TEXT
  5
7A11
  8
1TEXT
 10
721.41939117674929
 20
-230.25545551068441
 30
0.0
 40
4.0
  1
3-KM-15-XS
 41
0.7
 72
     1
 11
734.48605784341589
 21
-230.25545551068441
 31
0.0
  0
LINE
  5
7A12
  8
1DIM
 10
751.36041298755583
 20
-217.78554209453841
 30
0.0
 11
751.36041298755595
 21
-238.78554209453841
 31
0.0
  0
TEXT
  5
7A16
  8
1TEXT
 10
721.41939117674929
 20
-237.25545551068441
 30
0.0
 40
4.0
  1
3-KM-15-XK
 41
0.7
 72
     1
 11
734.48605784341589
 21
-237.25545551068441
 31
0.0
  0
TEXT
  5
7A18
  8
1TEXT
 10
726.96041298755597
 20
-223.28554209453841
 30
0.0
 40
4.0
  1
コード
 72
     1
 11
733.76041298755581
 21
-223.28554209453841
 31
0.0
  0
LINE
  5
7A19
  8
01
  6
BYBLOCK
 10
877.3971492501704
 20
-197.42396957194291
 30
0.0
 11
897.3971492501704
 21
-197.42396957194291
 31
0.0
  0
LINE
  5
7A1A
  8
1CENTER
 10
825.55706139476001
 20
-199.52396057194301
 30
0.0
 11
903.23320525017016
 21
-199.52396057194301
 31
0.0
  0
LINE
  5
7A1B
  8
01
  6
BYBLOCK
 10
827.76664288625625
 20
-198.02396057194301
 30
0.0
 11
839.69715278017031
 21
-198.02396057194301
 31
0.0
  0
LINE
  5
7A1C
  8
01
  6
BYBLOCK
 10
827.76664288625625
 20
-201.02396057194301
 30
0.0
 11
839.69715278017031
 21
-201.02396057194301
 31
0.0
  0
LINE
  5
7A1D
  8
01
  6
BYBLOCK
 10
842.39714975017034
 20
-202.82395557194309
 30
0.0
 11
896.19714925017036
 21
-202.82395557194309
 31
0.0
  0
LINE
  5
7A1E
  8
01
  6
BYBLOCK
 10
848.39714975017046
 20
-197.42396957194291
 30
0.0
 11
872.3971492501704
 21
-197.42396957194291
 31
0.0
  0
LINE
  5
7A1F
  8
01
  6
BYBLOCK
 10
848.39714975017046
 20
-196.22396457194299
 30
0.0
 11
848.39714975017046
 21
-197.42396957194291
 31
0.0
  0
LINE
  5
7A20
  8
01
  6
BYBLOCK
 10
842.39714975017034
 20
-191.52396057194301
 30
0.0
 11
842.39714975017034
 21
-199.52396057194301
 31
0.0
  0
LINE
  5
7A21
  8
01
  6
BYBLOCK
 10
841.19715275017029
 20
-191.52396057194301
 30
0.0
 11
841.19715275017029
 21
-207.52396057194301
 31
0.0
  0
LINE
  5
7A22
  8
01
  6
BYBLOCK
 10
843.89714975017046
 20
-201.623950571943
 30
0.0
 11
843.89714975017046
 21
-202.82395557194309
 31
0.0
  0
LINE
  5
7A23
  8
01
  6
BYBLOCK
 10
842.39714975017034
 20
-201.623950571943
 30
0.0
 11
843.89714975017046
 21
-201.623950571943
 31
0.0
  0
LINE
  5
7A24
  8
01
  6
BYBLOCK
 10
841.19715275017029
 20
-207.52396057194301
 30
0.0
 11
842.39714975017034
 21
-207.52396057194301
 31
0.0
  0
LINE
  5
7A25
  8
01
  6
BYBLOCK
 10
842.39714975017034
 20
-199.52396057194301
 30
0.0
 11
842.39714975017034
 21
-207.52396057194301
 31
0.0
  0
LINE
  5
7A26
  8
01
  6
BYBLOCK
 10
842.39714975017034
 20
-196.22396457194299
 30
0.0
 11
897.3971492501704
 21
-196.22396457194299
 31
0.0
  0
LINE
  5
7A27
  8
01
  6
BYBLOCK
 10
841.19715275017029
 20
-191.52396057194301
 30
0.0
 11
842.39714975017034
 21
-191.52396057194301
 31
0.0
  0
LINE
  5
7A28
  8
01
  6
BYBLOCK
 10
872.3971492501704
 20
-196.22396457194299
 30
0.0
 11
872.3971492501704
 21
-197.42396957194291
 31
0.0
  0
LINE
  5
7A29
  8
01
  6
BYBLOCK
 10
877.3971492501704
 20
-196.22396457194299
 30
0.0
 11
877.3971492501704
 21
-197.42396957194291
 31
0.0
  0
LINE
  5
7A2A
  8
01
  6
BYBLOCK
 10
896.19715325017035
 20
-196.22396457194299
 30
0.0
 11
896.19715325017035
 21
-202.82395557194309
 31
0.0
  0
LINE
  5
7A2B
  8
01
  6
BYBLOCK
 10
897.3971492501704
 20
-196.22396457194299
 30
0.0
 11
897.3971492501704
 21
-201.62395857194289
 31
0.0
  0
ARC
  5
7A2C
  8
01
  6
BYBLOCK
 10
896.19714925017036
 20
-201.62395857194289
 30
0.0
 40
1.1999999999999991
 50
270.0
 51
0.0
  0
LINE
  5
7A2D
  8
01
  6
BYBLOCK
 10
839.69715278017031
 20
-191.52396057194301
 30
0.0
 11
841.19715275017029
 21
-191.52396057194301
 31
0.0
  0
LINE
  5
7A2E
  8
01
  6
BYBLOCK
 10
839.69715278017031
 20
-207.52396057194301
 30
0.0
 11
841.19715275017029
 21
-207.52396057194301
 31
0.0
  0
LINE
  5
7A2F
  8
01
  6
BYBLOCK
 10
839.69715278017031
 20
-191.52396057194301
 30
0.0
 11
839.69715278017031
 21
-207.52396057194301
 31
0.0
  0
LINE
  5
7A66
  8
01
  6
BYBLOCK
 10
641.96914454956288
 20
-133.76225620381979
 30
0.0
 11
641.96914454956288
 21
-94.262256203819788
 31
0.0
  0
LINE
  5
7A67
  8
01
  6
BYBLOCK
 10
632.96914454956288
 20
-133.76225620381979
 30
0.0
 11
632.96914454956288
 21
-94.262256203819788
 31
0.0
  0
LINE
  5
7A68
  8
01
  6
BYBLOCK
 10
632.96914454956288
 20
-133.76225620381979
 30
0.0
 11
641.96914454956288
 21
-133.76225620381979
 31
0.0
  0
LINE
  5
7A69
  8
01
  6
BYBLOCK
 10
633.46914454956288
 20
-129.76225620381979
 30
0.0
 11
630.96914454956277
 21
-129.76225620381979
 31
0.0
  0
LINE
  5
7A6A
  8
01
  6
BYBLOCK
 10
641.46914454956288
 20
-129.76225620381979
 30
0.0
 11
643.96914454956277
 21
-129.76225620381979
 31
0.0
  0
LINE
  5
7A6B
  8
01
  6
BYBLOCK
 10
632.96914454956288
 20
-133.76225620381979
 30
0.0
 11
631.96914454956277
 21
-133.76225620381979
 31
0.0
  0
LINE
  5
7A6C
  8
01
  6
BYBLOCK
 10
631.96914454956277
 20
-132.76225620381979
 30
0.0
 11
632.96914454956288
 21
-132.76225620381979
 31
0.0
  0
LINE
  5
7A6D
  8
01
  6
BYBLOCK
 10
631.96914454956277
 20
-131.76225620381979
 30
0.0
 11
632.96914454956288
 21
-131.76225620381979
 31
0.0
  0
LINE
  5
7A6E
  8
01
  6
BYBLOCK
 10
631.96914454956277
 20
-130.76225620381979
 30
0.0
 11
632.96914454956288
 21
-130.76225620381979
 31
0.0
  0
LINE
  5
7A6F
  8
01
  6
BYBLOCK
 10
641.96914454956288
 20
-133.76225620381979
 30
0.0
 11
642.96914454956277
 21
-133.76225620381979
 31
0.0
  0
LINE
  5
7A70
  8
01
  6
BYBLOCK
 10
641.96914454956288
 20
-132.76225620381979
 30
0.0
 11
642.96914454956277
 21
-132.76225620381979
 31
0.0
  0
LINE
  5
7A71
  8
01
  6
BYBLOCK
 10
641.96914454956288
 20
-131.76225620381979
 30
0.0
 11
642.96914454956277
 21
-131.76225620381979
 31
0.0
  0
LINE
  5
7A72
  8
01
  6
BYBLOCK
 10
641.96914454956288
 20
-130.76225620381979
 30
0.0
 11
642.96914454956277
 21
-130.76225620381979
 31
0.0
  0
LINE
  5
7A73
  8
01
  6
BYBLOCK
 10
641.96914454956288
 20
-128.76225620381979
 30
0.0
 11
642.96914454956277
 21
-128.76225620381979
 31
0.0
  0
LINE
  5
7A74
  8
01
  6
BYBLOCK
 10
641.96914454956288
 20
-127.7622562038198
 30
0.0
 11
642.96914454956277
 21
-127.7622562038198
 31
0.0
  0
LINE
  5
7A75
  8
01
  6
BYBLOCK
 10
641.96914454956288
 20
-126.7622562038198
 30
0.0
 11
642.96914454956277
 21
-126.7622562038198
 31
0.0
  0
LINE
  5
7A76
  8
01
  6
BYBLOCK
 10
641.96914454956288
 20
-125.7622562038198
 30
0.0
 11
642.96914454956277
 21
-125.7622562038198
 31
0.0
  0
LINE
  5
7A77
  8
01
  6
BYBLOCK
 10
631.96914454956277
 20
-128.76225620381979
 30
0.0
 11
632.96914454956288
 21
-128.76225620381979
 31
0.0
  0
LINE
  5
7A78
  8
01
  6
BYBLOCK
 10
631.96914454956277
 20
-127.7622562038198
 30
0.0
 11
632.96914454956288
 21
-127.7622562038198
 31
0.0
  0
LINE
  5
7A79
  8
01
  6
BYBLOCK
 10
631.96914454956277
 20
-126.7622562038198
 30
0.0
 11
632.96914454956288
 21
-126.7622562038198
 31
0.0
  0
LINE
  5
7A7A
  8
01
  6
BYBLOCK
 10
631.96914454956277
 20
-125.7622562038198
 30
0.0
 11
632.96914454956288
 21
-125.7622562038198
 31
0.0
  0
TEXT
  5
7A7B
  8
01
  6
BYBLOCK
 10
631.26360309935865
 20
-89.295617602863786
 30
0.0
 40
4.0
  1
KAWAJUN
 41
0.45
  0
LINE
  5
7A7C
  8
01
  6
BYBLOCK
 10
632.96914454956288
 20
-129.76225620381979
 30
0.0
 11
641.96914454956288
 21
-129.76225620381979
 31
0.0
  0
LINE
  5
7A7D
  8
01
  6
BYBLOCK
 10
635.46914454956277
 20
-182.76225620381979
 30
0.0
 11
639.46914454956277
 21
-182.76225620381979
 31
0.0
  0
ARC
  5
7A7E
  8
01
  6
BYBLOCK
 10
635.46914454956277
 20
-176.76225620381979
 30
0.0
 40
6.0
 50
180.0
 51
270.0
  0
LINE
  5
7A7F
  8
1CENTER
 10
629.46914454956243
 20
-171.26225620381979
 30
0.0
 11
645.46914454956243
 21
-171.26225620381979
 31
0.0
  0
LINE
  5
7A80
  8
01
  6
BYBLOCK
 10
635.46914454956277
 20
-59.762256203819788
 30
0.0
 11
639.46914454956277
 21
-59.762256203819788
 31
0.0
  0
LINE
  5
7A81
  8
1CENTER
 10
629.46914454956288
 20
-71.262256203819788
 30
0.0
 11
645.46914454956288
 21
-71.262256203819788
 31
0.0
  0
LINE
  5
7A82
  8
01
  6
BYBLOCK
 10
632.96914454956288
 20
-98.262256203819788
 30
0.0
 11
641.96914454956288
 21
-98.262256203819788
 31
0.0
  0
LINE
  5
7A83
  8
01
  6
BYBLOCK
 10
632.96914454956288
 20
-94.262256203819788
 30
0.0
 11
641.96914454956288
 21
-94.262256203819788
 31
0.0
  0
LINE
  5
7A84
  8
1CENTER
 10
637.46914454956288
 20
-50.997341069214819
 30
0.0
 11
637.46914454956288
 21
-189.7761343717093
 31
0.0
  0
LINE
  5
7A85
  8
01
  6
BYBLOCK
 10
629.46914454956288
 20
-65.762256203819788
 30
0.0
 11
629.46914454956288
 21
-176.76225620381979
 31
0.0
  0
ARC
  5
7A86
  8
01
  6
BYBLOCK
 10
635.46914454956277
 20
-65.762256203819788
 30
0.0
 40
6.0
 50
90.0
 51
180.0
  0
LINE
  5
7A87
  8
01
  6
BYBLOCK
 10
645.46914454956288
 20
-65.762256203819788
 30
0.0
 11
645.46914454956288
 21
-176.76225620381979
 31
0.0
  0
ARC
  5
7A88
  8
01
  6
BYBLOCK
 10
639.46914454956277
 20
-176.76225620381979
 30
0.0
 40
6.0
 50
270.0
 51
0.0
  0
ARC
  5
7A89
  8
01
  6
BYBLOCK
 10
639.46914454956277
 20
-65.762256203819788
 30
0.0
 40
6.0
 50
0.0
 51
90.0
  0
LINE
  5
7A8A
  8
1CENTER
 10
645.46914454956288
 20
-145.2622562038195
 30
0.0
 11
629.46914454956288
 21
-145.2622562038195
 31
0.0
  0
LINE
  5
7A8B
  8
01
  6
BYBLOCK
 10
633.96914454956288
 20
-149.2622562038195
 30
0.0
 11
633.96914454956288
 21
-141.2622562038195
 31
0.0
  0
ARC
  5
7A8C
  8
01
  6
BYBLOCK
 10
637.46914454956288
 20
-141.2622562038195
 30
0.0
 40
3.5
 50
0.0
 51
180.0
  0
ARC
  5
7A8D
  8
01
  6
BYBLOCK
 10
637.46914454956288
 20
-149.2622562038195
 30
0.0
 40
3.5
 50
180.0
 51
0.0
  0
LINE
  5
7A8E
  8
1CENTER
 10
632.06764454956271
 20
-149.2622562038195
 30
0.0
 11
642.74534454956256
 21
-149.2622562038195
 31
0.0
  0
LINE
  5
7A8F
  8
1CENTER
 10
632.06764454956271
 20
-141.2622562038195
 30
0.0
 11
642.74534454956256
 21
-141.2622562038195
 31
0.0
  0
LINE
  5
7A90
  8
01
  6
BYBLOCK
 10
640.96914454956288
 20
-149.2622562038195
 30
0.0
 11
640.96914454956288
 21
-141.2622562038195
 31
0.0
  0
CIRCLE
  5
7A91
  8
01
  6
BYBLOCK
 10
637.46914454956288
 20
-145.2622562038195
 30
0.0
 40
3.5
  0
LINE
  5
7A92
  8
01
  6
BYBLOCK
 10
635.27714454956276
 20
-146.88825620381951
 30
0.0
 11
635.84284454956253
 21
-147.4542562038196
 31
0.0
  0
ARC
  5
7A93
  8
01
  6
BYBLOCK
 10
634.78214454956253
 20
-145.2622562038195
 30
0.0
 40
1.5
 50
314.99999999999079
 51
45.000000000009209
  0
LINE
  5
7A94
  8
01
  6
BYBLOCK
 10
635.27714454956276
 20
-146.88825620381951
 30
0.0
 11
635.84284454956253
 21
-146.32325620381951
 31
0.0
  0
LINE
  5
7A95
  8
01
  6
BYBLOCK
 10
639.09554454956253
 20
-147.4542562038196
 30
0.0
 11
639.66114454956278
 21
-146.88825620381951
 31
0.0
  0
LINE
  5
7A96
  8
01
  6
BYBLOCK
 10
635.84284454956253
 20
-147.4542562038196
 30
0.0
 11
636.40844454956277
 21
-146.88825620381951
 31
0.0
  0
ARC
  5
7A97
  8
01
  6
BYBLOCK
 10
637.46914454956288
 20
-147.9492562038194
 30
0.0
 40
1.5
 50
45.000000000009209
 51
134.99999999999079
  0
LINE
  5
7A98
  8
01
  6
BYBLOCK
 10
638.52984454956277
 20
-146.88825620381951
 30
0.0
 11
639.09554454956253
 21
-147.4542562038196
 31
0.0
  0
ARC
  5
7A99
  8
01
  6
BYBLOCK
 10
640.15614454956267
 20
-145.2622562038195
 30
0.0
 40
1.5
 50
134.99999999999079
 51
225.00000000000921
  0
LINE
  5
7A9A
  8
01
  6
BYBLOCK
 10
639.09554454956253
 20
-146.32325620381951
 30
0.0
 11
639.66114454956278
 21
-146.88825620381951
 31
0.0
  0
LINE
  5
7A9B
  8
01
  6
BYBLOCK
 10
639.09554454956253
 20
-143.0702562038195
 30
0.0
 11
639.66114454956278
 21
-143.63625620381961
 31
0.0
  0
LINE
  5
7A9C
  8
01
  6
BYBLOCK
 10
639.09554454956253
 20
-144.20125620381941
 30
0.0
 11
639.66114454956278
 21
-143.63625620381961
 31
0.0
  0
LINE
  5
7A9D
  8
01
  6
BYBLOCK
 10
635.84284454956253
 20
-143.0702562038195
 30
0.0
 11
636.40844454956277
 21
-143.63625620381961
 31
0.0
  0
ARC
  5
7A9E
  8
01
  6
BYBLOCK
 10
637.46914454956288
 20
-142.57525620381961
 30
0.0
 40
1.5
 50
225.00000000000921
 51
314.99999999999079
  0
LINE
  5
7A9F
  8
01
  6
BYBLOCK
 10
638.52984454956277
 20
-143.63625620381961
 30
0.0
 11
639.09554454956253
 21
-143.0702562038195
 31
0.0
  0
LINE
  5
7AA0
  8
01
  6
BYBLOCK
 10
635.27714454956276
 20
-143.63625620381961
 30
0.0
 11
635.84284454956253
 21
-143.0702562038195
 31
0.0
  0
LINE
  5
7AA1
  8
01
  6
BYBLOCK
 10
635.27714454956276
 20
-143.63625620381961
 30
0.0
 11
635.84284454956253
 21
-144.20125620381941
 31
0.0
  0
ARC
  5
7AA2
  8
01
  6
BYBLOCK
 10
637.46914454956288
 20
-148.54825620381939
 30
0.0
 40
6.4142900000000003
 50
231.42000000000581
 51
308.5799999999943
  0
LINE
  5
7AA3
  8
01
  6
BYBLOCK
 10
634.05654454956266
 20
-154.2622562038195
 30
0.0
 11
633.46914454956288
 21
-153.56225620381949
 31
0.0
  0
LINE
  5
7AA4
  8
01
  6
BYBLOCK
 10
633.46914454956288
 20
-153.56225620381949
 30
0.0
 11
634.32784454956266
 21
-153.87525620381939
 31
0.0
  0
LINE
  5
7AA5
  8
01
  6
BYBLOCK
 10
640.88174454956254
 20
-154.2622562038195
 30
0.0
 11
641.46914454956288
 21
-153.56225620381949
 31
0.0
  0
LINE
  5
7AA6
  8
01
  6
BYBLOCK
 10
641.46914454956288
 20
-153.56225620381949
 30
0.0
 11
640.61044454956266
 21
-153.87525620381939
 31
0.0
  0
TEXT
  5
7AA7
  8
01
  6
BYBLOCK
 10
631.83097788289615
 20
-158.1772562038195
 30
0.0
 40
2.5
  1
前後調整
 72
     1
 11
637.49764454956278
 21
-156.9272562038195
 31
0.0
 73
     2
  0
CIRCLE
  5
7AA8
  8
01
  6
BYBLOCK
 10
637.46914454956288
 20
-171.26225620381979
 30
0.0
 40
2.0
  0
CIRCLE
  5
7AA9
  8
01
  6
BYBLOCK
 10
637.46914454956288
 20
-171.26225620381979
 30
0.0
 40
3.5
  0
CIRCLE
  5
7AAA
  8
01
  6
BYBLOCK
 10
637.46914454956288
 20
-71.262256203819788
 30
0.0
 40
2.0
  0
CIRCLE
  5
7AAB
  8
01
  6
BYBLOCK
 10
637.46914454956288
 20
-71.262256203819788
 30
0.0
 40
3.5
  0
LINE
  5
7AAC
  8
01
  6
BYBLOCK
 10
605.15333468159554
 20
-86.262256203819334
 30
0.0
 11
594.65333468159531
 21
-86.262256203819334
 31
0.0
  0
LINE
  5
7AAD
  8
1PHANTOM
 10
604.1246190574725
 20
-82.262256203819334
 30
0.0
 11
594.65333468159531
 21
-82.262256203819334
 31
0.0
  0
LINE
  5
7AAE
  8
01
  6
BYBLOCK
 10
605.65333468159531
 20
-86.762256203819334
 30
0.0
 11
594.65333468159531
 21
-86.762256203819334
 31
0.0
  0
LINE
  5
7AB1
  8
01
  6
BYBLOCK
 10
605.65333468159531
 20
-64.762256203819788
 30
0.0
 11
605.65333468159531
 21
-142.7622562038195
 31
0.0
  0
LINE
  5
7AB2
  8
01
  6
BYBLOCK
 10
605.65333468159531
 20
-147.76225620381999
 30
0.0
 11
605.65333468159531
 21
-177.76225620381979
 31
0.0
  0
LINE
  5
7AB4
  8
01
  6
BYBLOCK
 10
606.65333468159554
 20
-59.762256203819561
 30
0.0
 11
606.65333468159531
 21
-182.76225620381979
 31
0.0
  0
LINE
  5
7AB5
  8
01
  6
BYBLOCK
 10
607.65333468159531
 20
-59.762256203819561
 30
0.0
 11
607.65333468159531
 21
-182.76225620381979
 31
0.0
  0
LINE
  5
7AB6
  8
01
  6
BYBLOCK
 10
607.65333468159531
 20
-59.762256203819561
 30
0.0
 11
607.65333468159531
 21
-182.76225620381979
 31
0.0
  0
LINE
  5
7AB7
  8
01
  6
BYBLOCK
 10
605.15333468159508
 20
-64.762256203819788
 30
0.0
 11
605.15333468159554
 21
-86.262256203819334
 31
0.0
  0
LINE
  5
7AB8
  8
01
  6
BYBLOCK
 10
605.1533346815952
 20
-153.26225620381979
 30
0.0
 11
605.15333468159554
 21
-177.76225620381979
 31
0.0
  0
LINE
  5
7AB9
  8
01
  6
BYBLOCK
 10
594.65333468159531
 20
-86.262256203819334
 30
0.0
 11
594.65333468159531
 21
-153.26225620381979
 31
0.0
  0
LINE
  5
7ABA
  8
01
  6
BYBLOCK
 10
607.65333468159531
 20
-59.762256203819788
 30
0.0
 11
606.65333468159554
 21
-59.762256203819561
 31
0.0
  0
LINE
  5
7ABB
  8
01
  6
BYBLOCK
 10
606.65333468159531
 20
-64.762256203819788
 30
0.0
 11
605.1533346815952
 21
-64.762256203819788
 31
0.0
  0
LINE
  5
7ABC
  8
01
  6
BYBLOCK
 10
606.65333468159531
 20
-98.262256203819788
 30
0.0
 11
605.65333468159531
 21
-98.262256203819788
 31
0.0
  0
LINE
  5
7ABD
  8
01
  6
BYBLOCK
 10
607.65333468159531
 20
-94.262256203819788
 30
0.0
 11
606.65333468159531
 21
-94.262256203819788
 31
0.0
  0
LINE
  5
7ABE
  8
1CENTER
 10
615.64991781331571
 20
-171.26225620381979
 30
0.0
 11
595.23419576977415
 21
-171.26225620381979
 31
0.0
  0
LINE
  5
7ABF
  8
01
  6
BYBLOCK
 10
607.65333468159497
 20
-182.76225620381979
 30
0.0
 11
606.65333468159531
 21
-182.76225620381979
 31
0.0
  0
LINE
  5
7AC0
  8
01
  6
BYBLOCK
 10
606.65333468159531
 20
-177.76225620381979
 30
0.0
 11
605.1533346815952
 21
-177.76225620381979
 31
0.0
  0
LINE
  5
7AC1
  8
01
  6
BYBLOCK
 10
607.65333468159531
 20
-152.76225620381979
 30
0.0
 11
606.65333468159531
 21
-152.76225620381979
 31
0.0
  0
LINE
  5
7AC2
  8
01
  6
BYBLOCK
 10
607.65333468159531
 20
-137.76225620381979
 30
0.0
 11
606.65333468159531
 21
-137.76225620381979
 31
0.0
  0
LINE
  5
7AC3
  8
01
  6
BYBLOCK
 10
606.65333468159531
 20
-148.76225620381979
 30
0.0
 11
605.25333468159545
 21
-147.3622562038199
 31
0.0
  0
LINE
  5
7AC4
  8
01
  6
BYBLOCK
 10
605.25333468159545
 20
-143.1622562038196
 30
0.0
 11
606.65333468159531
 21
-141.76225620381979
 31
0.0
  0
LINE
  5
7AC5
  8
01
  6
BYBLOCK
 10
605.25333468159545
 20
-143.1622562038196
 30
0.0
 11
605.25333468159545
 21
-147.3622562038199
 31
0.0
  0
LINE
  5
7AC6
  8
01
  6
BYBLOCK
 10
604.95333468159538
 20
-146.76225620381979
 30
0.0
 11
604.85333468159513
 21
-146.76225620381979
 31
0.0
  0
LINE
  5
7AC7
  8
01
  6
BYBLOCK
 10
604.95333468159538
 20
-143.76225620381979
 30
0.0
 11
604.85333468159513
 21
-143.76225620381979
 31
0.0
  0
LINE
  5
7AC8
  8
01
  6
BYBLOCK
 10
594.65333468159531
 20
-149.26225620381979
 30
0.0
 11
593.85333468159513
 21
-149.26225620381979
 31
0.0
  0
LINE
  5
7AC9
  8
01
  6
BYBLOCK
 10
593.85333468159513
 20
-149.26225620381979
 30
0.0
 11
593.85333468159513
 21
-141.26225620381979
 31
0.0
  0
LINE
  5
7ACA
  8
01
  6
BYBLOCK
 10
594.65333468159531
 20
-141.26225620381979
 30
0.0
 11
593.85333468159513
 21
-141.26225620381979
 31
0.0
  0
ARC
  5
7ACB
  8
01
  6
BYBLOCK
 10
597.35333468159513
 20
-145.26225620381979
 30
0.0
 40
4.2000000000000002
 50
146.44269023809329
 51
213.55730976190671
  0
LINE
  5
7ACC
  8
1CENTER
 10
610.69233468159518
 20
-145.26225620381979
 30
0.0
 11
587.19133468159532
 21
-145.26225620381979
 31
0.0
  0
LINE
  5
7ACD
  8
01
  6
BYBLOCK
 10
607.65333468159531
 20
-133.76225620381979
 30
0.0
 11
606.65333468159531
 21
-133.76225620381979
 31
0.0
  0
LINE
  5
7ACE
  8
01
  6
BYBLOCK
 10
606.65333468159531
 20
-129.76225620381979
 30
0.0
 11
599.05333468159529
 21
-129.76225620381979
 31
0.0
  0
LINE
  5
7ACF
  8
01
  6
BYBLOCK
 10
604.0533346815954
 20
-152.26225620381979
 30
0.0
 11
604.0533346815954
 21
-149.2222562038198
 31
0.0
  0
ARC
  5
7AD0
  8
01
  6
BYBLOCK
 10
603.55333468159529
 20
-149.2222562038198
 30
0.0
 40
0.5
 50
0.0
 51
85.236400000004579
  0
LINE
  5
7AD1
  8
01
  6
BYBLOCK
 10
603.5953346815952
 20
-148.72425620381969
 30
0.0
 11
598.0533346815954
 21
-148.26225620381979
 31
0.0
  0
LINE
  5
7AD2
  8
01
  6
BYBLOCK
 10
604.0533346815954
 20
-141.3022562038197
 30
0.0
 11
604.0533346815954
 21
-129.76225620381979
 31
0.0
  0
ARC
  5
7AD3
  8
01
  6
BYBLOCK
 10
603.55333468159529
 20
-141.3022562038197
 30
0.0
 40
0.5
 50
274.76400000000473
 51
0.0
  0
LINE
  5
7AD4
  8
01
  6
BYBLOCK
 10
603.5953346815952
 20
-141.8002562038198
 30
0.0
 11
598.0533346815954
 21
-142.2622562038197
 31
0.0
  0
LINE
  5
7AD5
  8
01
  6
BYBLOCK
 10
605.65333468159531
 20
-152.26225620381979
 30
0.0
 11
599.05333468159529
 21
-152.26225620381979
 31
0.0
  0
LINE
  5
7AD6
  8
01
  6
BYBLOCK
 10
605.65333468159531
 20
-152.76225620381979
 30
0.0
 11
594.65333468159531
 21
-152.76225620381979
 31
0.0
  0
LINE
  5
7AD7
  8
01
  6
BYBLOCK
 10
605.1533346815952
 20
-153.26225620381979
 30
0.0
 11
594.65333468159531
 21
-153.26225620381979
 31
0.0
  0
LINE
  5
7AD8
  8
1PHANTOM
 10
603.93662999870674
 20
-157.26225620381979
 30
0.0
 11
594.65333468159531
 21
-157.26225620381979
 31
0.0
  0
ARC
  5
7AD9
  8
01
  6
BYBLOCK
 10
599.05333468159529
 20
-151.26225620381979
 30
0.0
 40
1.0
 50
180.0
 51
270.0
  0
ARC
  5
7ADA
  8
01
  6
BYBLOCK
 10
599.05333468159529
 20
-130.76225620381979
 30
0.0
 40
1.0
 50
90.0
 51
179.99999999997391
  0
LINE
  5
7ADB
  8
01
  6
BYBLOCK
 10
605.25333468159545
 20
-143.1622562038196
 30
0.0
 11
595.99745043536984
 21
-143.1622562038196
 31
0.0
  0
LINE
  5
7ADC
  8
01
  6
BYBLOCK
 10
605.25333468159545
 20
-143.76225620381979
 30
0.0
 11
595.98490489609185
 21
-143.76225620381979
 31
0.0
  0
LINE
  5
7ADD
  8
01
  6
BYBLOCK
 10
605.25333468159545
 20
-146.76225620381979
 30
0.0
 11
596.03079261105859
 21
-146.76225620381979
 31
0.0
  0
LINE
  5
7ADE
  8
01
  6
BYBLOCK
 10
605.25333468159545
 20
-147.3622562038199
 30
0.0
 11
596.06761550500653
 21
-147.3622562038199
 31
0.0
  0
LINE
  5
7ADF
  8
01
  6
BYBLOCK
 10
598.0533346815954
 20
-151.26225620381979
 30
0.0
 11
598.0533346815954
 21
-146.76225620381979
 31
0.0
  0
LINE
  5
7AE0
  8
01
  6
BYBLOCK
 10
598.0533346815954
 20
-143.76225620381979
 30
0.0
 11
598.0533346815954
 21
-130.76225620381979
 31
0.0
  0
LINE
  5
7AE1
  8
1CENTER
 10
615.64991781331571
 20
-71.262256203819788
 30
0.0
 11
595.23419576977415
 21
-71.262256203819788
 31
0.0
  0
LINE
  5
7AE2
  8
01
  6
BYBLOCK
 10
576.66996218860879
 20
-209.79724117657631
 30
0.0
 11
576.66996218860879
 21
-222.79724117657631
 31
0.0
  0
LINE
  5
7AE3
  8
01
  6
BYBLOCK
 10
576.66996218860879
 20
-212.29724117657639
 30
0.0
 11
575.86996218860861
 21
-212.29724117657639
 31
0.0
  0
LINE
  5
7AE4
  8
01
  6
BYBLOCK
 10
575.86996218860861
 20
-212.29724117657639
 30
0.0
 11
575.86996218860861
 21
-220.29724117657631
 31
0.0
  0
ARC
  5
7AE5
  8
01
  6
BYBLOCK
 10
579.2699621886087
 20
-216.29724117657639
 30
0.0
 40
4.2000000000000002
 50
144.04899999999989
 51
215.95100000000011
  0
LINE
  5
7AE6
  8
01
  6
BYBLOCK
 10
576.66996218860879
 20
-220.29724117657631
 30
0.0
 11
575.86996218860861
 21
-220.29724117657631
 31
0.0
  0
LINE
  5
7AE7
  8
01
  6
BYBLOCK
 10
576.66996218860879
 20
-222.29724117657631
 30
0.0
 11
587.16996218860868
 21
-222.29724117657631
 31
0.0
  0
LINE
  5
7AE8
  8
01
  6
BYBLOCK
 10
576.66996218860879
 20
-210.29724117657631
 30
0.0
 11
587.16996218860868
 21
-210.29724117657631
 31
0.0
  0
LINE
  5
7AE9
  8
01
  6
BYBLOCK
 10
587.16996218860868
 20
-222.79724117657631
 30
0.0
 11
587.16996218860868
 21
-209.79724117657631
 31
0.0
  0
LINE
  5
7AEA
  8
01
  6
BYBLOCK
 10
576.66996218860879
 20
-222.79724117657631
 30
0.0
 11
588.66996218860868
 21
-222.79724117657631
 31
0.0
  0
LINE
  5
7AEB
  8
01
  6
BYBLOCK
 10
576.66996218860879
 20
-209.79724117657631
 30
0.0
 11
588.66996218860868
 21
-209.79724117657631
 31
0.0
  0
LINE
  5
7AEC
  8
01
  6
BYBLOCK
 10
587.16996218860868
 20
-222.79724117657631
 30
0.0
 11
587.16996218860868
 21
-209.79724117657631
 31
0.0
  0
LINE
  5
7AED
  8
01
  6
BYBLOCK
 10
588.66996218860868
 20
-224.29724117657631
 30
0.0
 11
589.66996218860879
 21
-224.29724117657631
 31
0.0
  0
LINE
  5
7AEE
  8
01
  6
BYBLOCK
 10
588.66996218860868
 20
-208.29724117657631
 30
0.0
 11
589.66996218860879
 21
-208.29724117657631
 31
0.0
  0
LINE
  5
7AEF
  8
1CENTER
 10
571.28900186945498
 20
-216.29724117657639
 30
0.0
 11
591.81132849326229
 21
-216.29724117657639
 31
0.0
  0
LINE
  5
7AF0
  8
01
  6
BYBLOCK
 10
587.66996218860868
 20
-212.29724117657659
 30
0.0
 11
588.66996218860868
 21
-212.29724117657639
 31
0.0
  0
LINE
  5
7AF1
  8
01
  6
BYBLOCK
 10
587.66996218860868
 20
-220.29724117657631
 30
0.0
 11
588.66996218860868
 21
-220.29724117657631
 31
0.0
  0
LINE
  5
7AF2
  8
01
  6
BYBLOCK
 10
589.66996218860879
 20
-224.29724117657631
 30
0.0
 11
589.66996218860879
 21
-208.29724117657631
 31
0.0
  0
LINE
  5
7AF3
  8
01
  6
BYBLOCK
 10
576.66996218860879
 20
-222.79724117657631
 30
0.0
 11
576.66996218860879
 21
-209.79724117657631
 31
0.0
  0
LINE
  5
7AF4
  8
01
  6
BYBLOCK
 10
588.66996218860868
 20
-224.29724117657631
 30
0.0
 11
588.66996218860868
 21
-208.29724117657631
 31
0.0
  0
LINE
  5
7AF5
  8
01
  6
BYBLOCK
 10
587.66996218860868
 20
-222.79724117657631
 30
0.0
 11
587.66996218860868
 21
-219.3972411765765
 31
0.0
  0
LINE
  5
7AF6
  8
01
  6
BYBLOCK
 10
587.66996218860868
 20
-213.1972411765764
 30
0.0
 11
587.66996218860868
 21
-209.79724117657631
 31
0.0
  0
LINE
  5
7AF7
  8
01
  6
BYBLOCK
 10
587.66996218860868
 20
-213.04724117657631
 30
0.0
 11
587.16996218860868
 21
-213.04724117657631
 31
0.0
  0
LINE
  5
7AF8
  8
01
  6
BYBLOCK
 10
587.66996218860868
 20
-219.54724117657631
 30
0.0
 11
587.16996218860868
 21
-219.54724117657631
 31
0.0
  0
LINE
  5
7AF9
  8
01
  6
BYBLOCK
 10
588.66996218860868
 20
-220.21124117657629
 30
0.0
 11
587.85596218860871
 21
-219.3972411765765
 31
0.0
  0
LINE
  5
7AFA
  8
01
  6
BYBLOCK
 10
588.66996218860868
 20
-212.38324117657629
 30
0.0
 11
587.85596218860871
 21
-213.1972411765764
 31
0.0
  0
LINE
  5
7AFB
  8
01
  6
BYBLOCK
 10
587.85596218860871
 20
-213.1972411765764
 30
0.0
 11
587.16996218860857
 21
-213.1972411765764
 31
0.0
  0
LINE
  5
7AFC
  8
01
  6
BYBLOCK
 10
587.85596218860871
 20
-219.3972411765765
 30
0.0
 11
587.16996218860868
 21
-219.3972411765765
 31
0.0
  0
LINE
  5
7AFD
  8
01
  6
BYBLOCK
 10
587.85596218860871
 20
-219.3972411765765
 30
0.0
 11
587.85596218860871
 21
-213.1972411765764
 31
0.0
  0
LINE
  5
7B08
  8
1PHANTOM
 10
594.65333468159531
 20
-157.26225620381979
 30
0.0
 11
594.65333468159531
 21
-155.44262725728751
 31
0.0
  0
LINE
  5
7B09
  8
1PHANTOM
 10
594.65333468159531
 20
-82.262256203819334
 30
0.0
 11
594.65333468159531
 21
-84.603288866289844
 31
0.0
  0
POLYLINE
  8
1PHANTOM
  5
8C02
  66
     1
 10
0.000000
 20
0.000000
 30
0.000000
  70
     8
  0
VERTEX
  8
1PHANTOM
  5
8C03
 10
607.653
 20
-121.827
 30
0.000000
  70
    32
  0
VERTEX
  8
1PHANTOM
  5
8C04
 10
607.500
 20
-121.846
 30
0.000000
  70
    32
  0
VERTEX
  8
1PHANTOM
  5
8C05
 10
607.348
 20
-121.866
 30
0.000000
  70
    32
  0
VERTEX
  8
1PHANTOM
  5
8C06
 10
607.196
 20
-121.886
 30
0.000000
  70
    32
  0
VERTEX
  8
1PHANTOM
  5
8C07
 10
607.044
 20
-121.907
 30
0.000000
  70
    32
  0
VERTEX
  8
1PHANTOM
  5
8C08
 10
606.892
 20
-121.928
 30
0.000000
  70
    32
  0
VERTEX
  8
1PHANTOM
  5
8C09
 10
606.741
 20
-121.950
 30
0.000000
  70
    32
  0
VERTEX
  8
1PHANTOM
  5
8C0A
 10
606.590
 20
-121.973
 30
0.000000
  70
    32
  0
VERTEX
  8
1PHANTOM
  5
8C0B
 10
606.439
 20
-121.996
 30
0.000000
  70
    32
  0
VERTEX
  8
1PHANTOM
  5
8C0C
 10
606.289
 20
-122.021
 30
0.000000
  70
    32
  0
VERTEX
  8
1PHANTOM
  5
8C0D
 10
606.140
 20
-122.045
 30
0.000000
  70
    32
  0
VERTEX
  8
1PHANTOM
  5
8C0E
 10
605.990
 20
-122.071
 30
0.000000
  70
    32
  0
VERTEX
  8
1PHANTOM
  5
8C0F
 10
605.842
 20
-122.098
 30
0.000000
  70
    32
  0
VERTEX
  8
1PHANTOM
  5
8C10
 10
605.694
 20
-122.125
 30
0.000000
  70
    32
  0
VERTEX
  8
1PHANTOM
  5
8C11
 10
605.546
 20
-122.154
 30
0.000000
  70
    32
  0
VERTEX
  8
1PHANTOM
  5
8C12
 10
605.399
 20
-122.183
 30
0.000000
  70
    32
  0
VERTEX
  8
1PHANTOM
  5
8C13
 10
605.253
 20
-122.214
 30
0.000000
  70
    32
  0
VERTEX
  8
1PHANTOM
  5
8C14
 10
605.107
 20
-122.245
 30
0.000000
  70
    32
  0
VERTEX
  8
1PHANTOM
  5
8C15
 10
604.962
 20
-122.278
 30
0.000000
  70
    32
  0
VERTEX
  8
1PHANTOM
  5
8C16
 10
604.818
 20
-122.312
 30
0.000000
  70
    32
  0
VERTEX
  8
1PHANTOM
  5
8C17
 10
604.674
 20
-122.347
 30
0.000000
  70
    32
  0
VERTEX
  8
1PHANTOM
  5
8C18
 10
604.531
 20
-122.383
 30
0.000000
  70
    32
  0
VERTEX
  8
1PHANTOM
  5
8C19
 10
604.389
 20
-122.421
 30
0.000000
  70
    32
  0
VERTEX
  8
1PHANTOM
  5
8C1A
 10
604.247
 20
-122.459
 30
0.000000
  70
    32
  0
VERTEX
  8
1PHANTOM
  5
8C1B
 10
604.106
 20
-122.500
 30
0.000000
  70
    32
  0
VERTEX
  8
1PHANTOM
  5
8C1C
 10
603.966
 20
-122.541
 30
0.000000
  70
    32
  0
VERTEX
  8
1PHANTOM
  5
8C1D
 10
603.827
 20
-122.584
 30
0.000000
  70
    32
  0
VERTEX
  8
1PHANTOM
  5
8C1E
 10
603.689
 20
-122.628
 30
0.000000
  70
    32
  0
VERTEX
  8
1PHANTOM
  5
8C1F
 10
603.552
 20
-122.674
 30
0.000000
  70
    32
  0
VERTEX
  8
1PHANTOM
  5
8C20
 10
603.415
 20
-122.722
 30
0.000000
  70
    32
  0
VERTEX
  8
1PHANTOM
  5
8C21
 10
603.279
 20
-122.771
 30
0.000000
  70
    32
  0
VERTEX
  8
1PHANTOM
  5
8C22
 10
603.145
 20
-122.822
 30
0.000000
  70
    32
  0
VERTEX
  8
1PHANTOM
  5
8C23
 10
603.011
 20
-122.874
 30
0.000000
  70
    32
  0
VERTEX
  8
1PHANTOM
  5
8C24
 10
602.879
 20
-122.928
 30
0.000000
  70
    32
  0
VERTEX
  8
1PHANTOM
  5
8C25
 10
602.747
 20
-122.984
 30
0.000000
  70
    32
  0
VERTEX
  8
1PHANTOM
  5
8C26
 10
602.616
 20
-123.041
 30
0.000000
  70
    32
  0
VERTEX
  8
1PHANTOM
  5
8C27
 10
602.487
 20
-123.101
 30
0.000000
  70
    32
  0
VERTEX
  8
1PHANTOM
  5
8C28
 10
602.358
 20
-123.162
 30
0.000000
  70
    32
  0
VERTEX
  8
1PHANTOM
  5
8C29
 10
602.231
 20
-123.225
 30
0.000000
  70
    32
  0
VERTEX
  8
1PHANTOM
  5
8C2A
 10
602.105
 20
-123.290
 30
0.000000
  70
    32
  0
VERTEX
  8
1PHANTOM
  5
8C2B
 10
601.980
 20
-123.358
 30
0.000000
  70
    32
  0
VERTEX
  8
1PHANTOM
  5
8C2C
 10
601.856
 20
-123.427
 30
0.000000
  70
    32
  0
VERTEX
  8
1PHANTOM
  5
8C2D
 10
601.733
 20
-123.498
 30
0.000000
  70
    32
  0
VERTEX
  8
1PHANTOM
  5
8C2E
 10
601.612
 20
-123.571
 30
0.000000
  70
    32
  0
VERTEX
  8
1PHANTOM
  5
8C2F
 10
601.491
 20
-123.647
 30
0.000000
  70
    32
  0
VERTEX
  8
1PHANTOM
  5
8C30
 10
601.372
 20
-123.724
 30
0.000000
  70
    32
  0
VERTEX
  8
1PHANTOM
  5
8C31
 10
601.255
 20
-123.804
 30
0.000000
  70
    32
  0
VERTEX
  8
1PHANTOM
  5
8C32
 10
601.138
 20
-123.886
 30
0.000000
  70
    32
  0
VERTEX
  8
1PHANTOM
  5
8C33
 10
601.023
 20
-123.971
 30
0.000000
  70
    32
  0
VERTEX
  8
1PHANTOM
  5
8C34
 10
600.910
 20
-124.057
 30
0.000000
  70
    32
  0
VERTEX
  8
1PHANTOM
  5
8C35
 10
600.797
 20
-124.146
 30
0.000000
  70
    32
  0
VERTEX
  8
1PHANTOM
  5
8C36
 10
600.686
 20
-124.236
 30
0.000000
  70
    32
  0
VERTEX
  8
1PHANTOM
  5
8C37
 10
600.576
 20
-124.329
 30
0.000000
  70
    32
  0
VERTEX
  8
1PHANTOM
  5
8C38
 10
600.468
 20
-124.424
 30
0.000000
  70
    32
  0
VERTEX
  8
1PHANTOM
  5
8C39
 10
600.361
 20
-124.521
 30
0.000000
  70
    32
  0
VERTEX
  8
1PHANTOM
  5
8C3A
 10
600.255
 20
-124.620
 30
0.000000
  70
    32
  0
VERTEX
  8
1PHANTOM
  5
8C3B
 10
600.151
 20
-124.720
 30
0.000000
  70
    32
  0
VERTEX
  8
1PHANTOM
  5
8C3C
 10
600.048
 20
-124.823
 30
0.000000
  70
    32
  0
VERTEX
  8
1PHANTOM
  5
8C3D
 10
599.946
 20
-124.927
 30
0.000000
  70
    32
  0
VERTEX
  8
1PHANTOM
  5
8C3E
 10
599.846
 20
-125.034
 30
0.000000
  70
    32
  0
VERTEX
  8
1PHANTOM
  5
8C3F
 10
599.747
 20
-125.142
 30
0.000000
  70
    32
  0
VERTEX
  8
1PHANTOM
  5
8C40
 10
599.649
 20
-125.251
 30
0.000000
  70
    32
  0
VERTEX
  8
1PHANTOM
  5
8C41
 10
599.553
 20
-125.363
 30
0.000000
  70
    32
  0
VERTEX
  8
1PHANTOM
  5
8C42
 10
599.458
 20
-125.476
 30
0.000000
  70
    32
  0
VERTEX
  8
1PHANTOM
  5
8C43
 10
599.364
 20
-125.590
 30
0.000000
  70
    32
  0
VERTEX
  8
1PHANTOM
  5
8C44
 10
599.272
 20
-125.707
 30
0.000000
  70
    32
  0
VERTEX
  8
1PHANTOM
  5
8C45
 10
599.181
 20
-125.825
 30
0.000000
  70
    32
  0
VERTEX
  8
1PHANTOM
  5
8C46
 10
599.092
 20
-125.944
 30
0.000000
  70
    32
  0
VERTEX
  8
1PHANTOM
  5
8C47
 10
599.004
 20
-126.065
 30
0.000000
  70
    32
  0
VERTEX
  8
1PHANTOM
  5
8C48
 10
598.917
 20
-126.187
 30
0.000000
  70
    32
  0
VERTEX
  8
1PHANTOM
  5
8C49
 10
598.832
 20
-126.310
 30
0.000000
  70
    32
  0
VERTEX
  8
1PHANTOM
  5
8C4A
 10
598.748
 20
-126.435
 30
0.000000
  70
    32
  0
VERTEX
  8
1PHANTOM
  5
8C4B
 10
598.665
 20
-126.562
 30
0.000000
  70
    32
  0
VERTEX
  8
1PHANTOM
  5
8C4C
 10
598.584
 20
-126.689
 30
0.000000
  70
    32
  0
VERTEX
  8
1PHANTOM
  5
8C4D
 10
598.504
 20
-126.818
 30
0.000000
  70
    32
  0
VERTEX
  8
1PHANTOM
  5
8C4E
 10
598.426
 20
-126.948
 30
0.000000
  70
    32
  0
VERTEX
  8
1PHANTOM
  5
8C4F
 10
598.349
 20
-127.079
 30
0.000000
  70
    32
  0
VERTEX
  8
1PHANTOM
  5
8C50
 10
598.273
 20
-127.212
 30
0.000000
  70
    32
  0
VERTEX
  8
1PHANTOM
  5
8C51
 10
598.199
 20
-127.345
 30
0.000000
  70
    32
  0
VERTEX
  8
1PHANTOM
  5
8C52
 10
598.126
 20
-127.480
 30
0.000000
  70
    32
  0
VERTEX
  8
1PHANTOM
  5
8C53
 10
598.055
 20
-127.615
 30
0.000000
  70
    32
  0
VERTEX
  8
1PHANTOM
  5
8C54
 10
597.985
 20
-127.751
 30
0.000000
  70
    32
  0
VERTEX
  8
1PHANTOM
  5
8C55
 10
597.916
 20
-127.889
 30
0.000000
  70
    32
  0
VERTEX
  8
1PHANTOM
  5
8C56
 10
597.849
 20
-128.027
 30
0.000000
  70
    32
  0
VERTEX
  8
1PHANTOM
  5
8C57
 10
597.784
 20
-128.166
 30
0.000000
  70
    32
  0
VERTEX
  8
1PHANTOM
  5
8C58
 10
597.719
 20
-128.307
 30
0.000000
  70
    32
  0
VERTEX
  8
1PHANTOM
  5
8C59
 10
597.656
 20
-128.447
 30
0.000000
  70
    32
  0
VERTEX
  8
1PHANTOM
  5
8C5A
 10
597.595
 20
-128.589
 30
0.000000
  70
    32
  0
VERTEX
  8
1PHANTOM
  5
8C5B
 10
597.535
 20
-128.731
 30
0.000000
  70
    32
  0
VERTEX
  8
1PHANTOM
  5
8C5C
 10
597.476
 20
-128.874
 30
0.000000
  70
    32
  0
VERTEX
  8
1PHANTOM
  5
8C5D
 10
597.419
 20
-129.018
 30
0.000000
  70
    32
  0
VERTEX
  8
1PHANTOM
  5
8C5E
 10
597.364
 20
-129.162
 30
0.000000
  70
    32
  0
VERTEX
  8
1PHANTOM
  5
8C5F
 10
597.309
 20
-129.307
 30
0.000000
  70
    32
  0
VERTEX
  8
1PHANTOM
  5
8C60
 10
597.257
 20
-129.452
 30
0.000000
  70
    32
  0
VERTEX
  8
1PHANTOM
  5
8C61
 10
597.205
 20
-129.598
 30
0.000000
  70
    32
  0
VERTEX
  8
1PHANTOM
  5
8C62
 10
597.155
 20
-129.745
 30
0.000000
  70
    32
  0
VERTEX
  8
1PHANTOM
  5
8C63
 10
597.107
 20
-129.891
 30
0.000000
  70
    32
  0
VERTEX
  8
1PHANTOM
  5
8C64
 10
597.060
 20
-130.039
 30
0.000000
  70
    32
  0
VERTEX
  8
1PHANTOM
  5
8C65
 10
597.015
 20
-130.186
 30
0.000000
  70
    32
  0
VERTEX
  8
1PHANTOM
  5
8C66
 10
596.971
 20
-130.334
 30
0.000000
  70
    32
  0
VERTEX
  8
1PHANTOM
  5
8C67
 10
596.928
 20
-130.482
 30
0.000000
  70
    32
  0
VERTEX
  8
1PHANTOM
  5
8C68
 10
596.887
 20
-130.630
 30
0.000000
  70
    32
  0
VERTEX
  8
1PHANTOM
  5
8C69
 10
596.847
 20
-130.779
 30
0.000000
  70
    32
  0
VERTEX
  8
1PHANTOM
  5
8C6A
 10
596.809
 20
-130.928
 30
0.000000
  70
    32
  0
VERTEX
  8
1PHANTOM
  5
8C6B
 10
596.773
 20
-131.076
 30
0.000000
  70
    32
  0
VERTEX
  8
1PHANTOM
  5
8C6C
 10
596.737
 20
-131.225
 30
0.000000
  70
    32
  0
VERTEX
  8
1PHANTOM
  5
8C6D
 10
596.704
 20
-131.374
 30
0.000000
  70
    32
  0
VERTEX
  8
1PHANTOM
  5
8C6E
 10
596.672
 20
-131.523
 30
0.000000
  70
    32
  0
VERTEX
  8
1PHANTOM
  5
8C6F
 10
596.641
 20
-131.672
 30
0.000000
  70
    32
  0
VERTEX
  8
1PHANTOM
  5
8C70
 10
596.612
 20
-131.821
 30
0.000000
  70
    32
  0
VERTEX
  8
1PHANTOM
  5
8C71
 10
596.584
 20
-131.970
 30
0.000000
  70
    32
  0
VERTEX
  8
1PHANTOM
  5
8C72
 10
596.558
 20
-132.119
 30
0.000000
  70
    32
  0
VERTEX
  8
1PHANTOM
  5
8C73
 10
596.533
 20
-132.267
 30
0.000000
  70
    32
  0
VERTEX
  8
1PHANTOM
  5
8C74
 10
596.509
 20
-132.416
 30
0.000000
  70
    32
  0
VERTEX
  8
1PHANTOM
  5
8C75
 10
596.487
 20
-132.564
 30
0.000000
  70
    32
  0
VERTEX
  8
1PHANTOM
  5
8C76
 10
596.467
 20
-132.712
 30
0.000000
  70
    32
  0
VERTEX
  8
1PHANTOM
  5
8C77
 10
596.447
 20
-132.860
 30
0.000000
  70
    32
  0
VERTEX
  8
1PHANTOM
  5
8C78
 10
596.429
 20
-133.008
 30
0.000000
  70
    32
  0
VERTEX
  8
1PHANTOM
  5
8C79
 10
596.411
 20
-133.156
 30
0.000000
  70
    32
  0
VERTEX
  8
1PHANTOM
  5
8C7A
 10
596.395
 20
-133.304
 30
0.000000
  70
    32
  0
VERTEX
  8
1PHANTOM
  5
8C7B
 10
596.380
 20
-133.452
 30
0.000000
  70
    32
  0
VERTEX
  8
1PHANTOM
  5
8C7C
 10
596.366
 20
-133.599
 30
0.000000
  70
    32
  0
VERTEX
  8
1PHANTOM
  5
8C7D
 10
596.353
 20
-133.747
 30
0.000000
  70
    32
  0
VERTEX
  8
1PHANTOM
  5
8C7E
 10
596.341
 20
-133.894
 30
0.000000
  70
    32
  0
VERTEX
  8
1PHANTOM
  5
8C7F
 10
596.330
 20
-134.041
 30
0.000000
  70
    32
  0
VERTEX
  8
1PHANTOM
  5
8C80
 10
596.320
 20
-134.189
 30
0.000000
  70
    32
  0
VERTEX
  8
1PHANTOM
  5
8C81
 10
596.310
 20
-134.336
 30
0.000000
  70
    32
  0
VERTEX
  8
1PHANTOM
  5
8C82
 10
596.302
 20
-134.483
 30
0.000000
  70
    32
  0
VERTEX
  8
1PHANTOM
  5
8C83
 10
596.294
 20
-134.629
 30
0.000000
  70
    32
  0
VERTEX
  8
1PHANTOM
  5
8C84
 10
596.286
 20
-134.776
 30
0.000000
  70
    32
  0
VERTEX
  8
1PHANTOM
  5
8C85
 10
596.279
 20
-134.923
 30
0.000000
  70
    32
  0
VERTEX
  8
1PHANTOM
  5
8C86
 10
596.273
 20
-135.069
 30
0.000000
  70
    32
  0
VERTEX
  8
1PHANTOM
  5
8C87
 10
596.267
 20
-135.216
 30
0.000000
  70
    32
  0
VERTEX
  8
1PHANTOM
  5
8C88
 10
596.262
 20
-135.362
 30
0.000000
  70
    32
  0
VERTEX
  8
1PHANTOM
  5
8C89
 10
596.257
 20
-135.508
 30
0.000000
  70
    32
  0
VERTEX
  8
1PHANTOM
  5
8C8A
 10
596.253
 20
-135.654
 30
0.000000
  70
    32
  0
VERTEX
  8
1PHANTOM
  5
8C8B
 10
596.249
 20
-135.800
 30
0.000000
  70
    32
  0
VERTEX
  8
1PHANTOM
  5
8C8C
 10
596.245
 20
-135.946
 30
0.000000
  70
    32
  0
VERTEX
  8
1PHANTOM
  5
8C8D
 10
596.242
 20
-136.092
 30
0.000000
  70
    32
  0
VERTEX
  8
1PHANTOM
  5
8C8E
 10
596.239
 20
-136.237
 30
0.000000
  70
    32
  0
VERTEX
  8
1PHANTOM
  5
8C8F
 10
596.236
 20
-136.383
 30
0.000000
  70
    32
  0
VERTEX
  8
1PHANTOM
  5
8C90
 10
596.233
 20
-136.528
 30
0.000000
  70
    32
  0
VERTEX
  8
1PHANTOM
  5
8C91
 10
596.230
 20
-136.674
 30
0.000000
  70
    32
  0
VERTEX
  8
1PHANTOM
  5
8C92
 10
596.227
 20
-136.819
 30
0.000000
  70
    32
  0
VERTEX
  8
1PHANTOM
  5
8C93
 10
596.224
 20
-136.964
 30
0.000000
  70
    32
  0
VERTEX
  8
1PHANTOM
  5
8C94
 10
596.221
 20
-137.109
 30
0.000000
  70
    32
  0
VERTEX
  8
1PHANTOM
  5
8C95
 10
596.218
 20
-137.254
 30
0.000000
  70
    32
  0
VERTEX
  8
1PHANTOM
  5
8C96
 10
596.215
 20
-137.399
 30
0.000000
  70
    32
  0
VERTEX
  8
1PHANTOM
  5
8C97
 10
596.212
 20
-137.544
 30
0.000000
  70
    32
  0
VERTEX
  8
1PHANTOM
  5
8C98
 10
596.208
 20
-137.688
 30
0.000000
  70
    32
  0
VERTEX
  8
1PHANTOM
  5
8C99
 10
596.204
 20
-137.833
 30
0.000000
  70
    32
  0
VERTEX
  8
1PHANTOM
  5
8C9A
 10
596.200
 20
-137.977
 30
0.000000
  70
    32
  0
VERTEX
  8
1PHANTOM
  5
8C9B
 10
596.196
 20
-138.122
 30
0.000000
  70
    32
  0
VERTEX
  8
1PHANTOM
  5
8C9C
 10
596.191
 20
-138.266
 30
0.000000
  70
    32
  0
VERTEX
  8
1PHANTOM
  5
8C9D
 10
596.186
 20
-138.410
 30
0.000000
  70
    32
  0
VERTEX
  8
1PHANTOM
  5
8C9E
 10
596.181
 20
-138.554
 30
0.000000
  70
    32
  0
VERTEX
  8
1PHANTOM
  5
8C9F
 10
596.176
 20
-138.698
 30
0.000000
  70
    32
  0
VERTEX
  8
1PHANTOM
  5
8CA0
 10
596.170
 20
-138.842
 30
0.000000
  70
    32
  0
VERTEX
  8
1PHANTOM
  5
8CA1
 10
596.164
 20
-138.986
 30
0.000000
  70
    32
  0
VERTEX
  8
1PHANTOM
  5
8CA2
 10
596.159
 20
-139.130
 30
0.000000
  70
    32
  0
VERTEX
  8
1PHANTOM
  5
8CA3
 10
596.153
 20
-139.274
 30
0.000000
  70
    32
  0
VERTEX
  8
1PHANTOM
  5
8CA4
 10
596.147
 20
-139.418
 30
0.000000
  70
    32
  0
VERTEX
  8
1PHANTOM
  5
8CA5
 10
596.141
 20
-139.562
 30
0.000000
  70
    32
  0
VERTEX
  8
1PHANTOM
  5
8CA6
 10
596.134
 20
-139.706
 30
0.000000
  70
    32
  0
VERTEX
  8
1PHANTOM
  5
8CA7
 10
596.128
 20
-139.850
 30
0.000000
  70
    32
  0
VERTEX
  8
1PHANTOM
  5
8CA8
 10
596.122
 20
-139.993
 30
0.000000
  70
    32
  0
VERTEX
  8
1PHANTOM
  5
8CA9
 10
596.115
 20
-140.137
 30
0.000000
  70
    32
  0
VERTEX
  8
1PHANTOM
  5
8CAA
 10
596.109
 20
-140.281
 30
0.000000
  70
    32
  0
VERTEX
  8
1PHANTOM
  5
8CAB
 10
596.102
 20
-140.425
 30
0.000000
  70
    32
  0
VERTEX
  8
1PHANTOM
  5
8CAC
 10
596.096
 20
-140.569
 30
0.000000
  70
    32
  0
VERTEX
  8
1PHANTOM
  5
8CAD
 10
596.089
 20
-140.713
 30
0.000000
  70
    32
  0
VERTEX
  8
1PHANTOM
  5
8CAE
 10
596.083
 20
-140.857
 30
0.000000
  70
    32
  0
VERTEX
  8
1PHANTOM
  5
8CAF
 10
596.077
 20
-141.001
 30
0.000000
  70
    32
  0
VERTEX
  8
1PHANTOM
  5
8CB0
 10
596.070
 20
-141.145
 30
0.000000
  70
    32
  0
VERTEX
  8
1PHANTOM
  5
8CB1
 10
596.064
 20
-141.289
 30
0.000000
  70
    32
  0
VERTEX
  8
1PHANTOM
  5
8CB2
 10
596.058
 20
-141.433
 30
0.000000
  70
    32
  0
VERTEX
  8
1PHANTOM
  5
8CB3
 10
596.052
 20
-141.577
 30
0.000000
  70
    32
  0
VERTEX
  8
1PHANTOM
  5
8CB4
 10
596.046
 20
-141.721
 30
0.000000
  70
    32
  0
VERTEX
  8
1PHANTOM
  5
8CB5
 10
596.040
 20
-141.866
 30
0.000000
  70
    32
  0
VERTEX
  8
1PHANTOM
  5
8CB6
 10
596.035
 20
-142.010
 30
0.000000
  70
    32
  0
VERTEX
  8
1PHANTOM
  5
8CB7
 10
596.029
 20
-142.155
 30
0.000000
  70
    32
  0
VERTEX
  8
1PHANTOM
  5
8CB8
 10
596.024
 20
-142.299
 30
0.000000
  70
    32
  0
VERTEX
  8
1PHANTOM
  5
8CB9
 10
596.019
 20
-142.444
 30
0.000000
  70
    32
  0
VERTEX
  8
1PHANTOM
  5
8CBA
 10
596.014
 20
-142.589
 30
0.000000
  70
    32
  0
VERTEX
  8
1PHANTOM
  5
8CBB
 10
596.010
 20
-142.734
 30
0.000000
  70
    32
  0
VERTEX
  8
1PHANTOM
  5
8CBC
 10
596.005
 20
-142.879
 30
0.000000
  70
    32
  0
VERTEX
  8
1PHANTOM
  5
8CBD
 10
596.001
 20
-143.024
 30
0.000000
  70
    32
  0
VERTEX
  8
1PHANTOM
  5
8CBE
 10
595.997
 20
-143.169
 30
0.000000
  70
    32
  0
VERTEX
  8
1PHANTOM
  5
8CBF
 10
595.994
 20
-143.315
 30
0.000000
  70
    32
  0
VERTEX
  8
1PHANTOM
  5
8CC0
 10
595.991
 20
-143.461
 30
0.000000
  70
    32
  0
VERTEX
  8
1PHANTOM
  5
8CC1
 10
595.988
 20
-143.606
 30
0.000000
  70
    32
  0
VERTEX
  8
1PHANTOM
  5
8CC2
 10
595.985
 20
-143.752
 30
0.000000
  70
    32
  0
VERTEX
  8
1PHANTOM
  5
8CC3
 10
595.983
 20
-143.899
 30
0.000000
  70
    32
  0
VERTEX
  8
1PHANTOM
  5
8CC4
 10
595.981
 20
-144.045
 30
0.000000
  70
    32
  0
VERTEX
  8
1PHANTOM
  5
8CC5
 10
595.980
 20
-144.191
 30
0.000000
  70
    32
  0
VERTEX
  8
1PHANTOM
  5
8CC6
 10
595.979
 20
-144.338
 30
0.000000
  70
    32
  0
VERTEX
  8
1PHANTOM
  5
8CC7
 10
595.978
 20
-144.485
 30
0.000000
  70
    32
  0
VERTEX
  8
1PHANTOM
  5
8CC8
 10
595.978
 20
-144.632
 30
0.000000
  70
    32
  0
VERTEX
  8
1PHANTOM
  5
8CC9
 10
595.978
 20
-144.779
 30
0.000000
  70
    32
  0
VERTEX
  8
1PHANTOM
  5
8CCA
 10
595.979
 20
-144.927
 30
0.000000
  70
    32
  0
VERTEX
  8
1PHANTOM
  5
8CCB
 10
595.980
 20
-145.075
 30
0.000000
  70
    32
  0
VERTEX
  8
1PHANTOM
  5
8CCC
 10
595.981
 20
-145.223
 30
0.000000
  70
    32
  0
VERTEX
  8
1PHANTOM
  5
8CCD
 10
595.984
 20
-145.371
 30
0.000000
  70
    32
  0
VERTEX
  8
1PHANTOM
  5
8CCE
 10
595.986
 20
-145.519
 30
0.000000
  70
    32
  0
VERTEX
  8
1PHANTOM
  5
8CCF
 10
595.990
 20
-145.668
 30
0.000000
  70
    32
  0
VERTEX
  8
1PHANTOM
  5
8CD0
 10
595.993
 20
-145.817
 30
0.000000
  70
    32
  0
VERTEX
  8
1PHANTOM
  5
8CD1
 10
595.998
 20
-145.966
 30
0.000000
  70
    32
  0
VERTEX
  8
1PHANTOM
  5
8CD2
 10
596.003
 20
-146.116
 30
0.000000
  70
    32
  0
VERTEX
  8
1PHANTOM
  5
8CD3
 10
596.008
 20
-146.265
 30
0.000000
  70
    32
  0
VERTEX
  8
1PHANTOM
  5
8CD4
 10
596.014
 20
-146.415
 30
0.000000
  70
    32
  0
VERTEX
  8
1PHANTOM
  5
8CD5
 10
596.021
 20
-146.566
 30
0.000000
  70
    32
  0
VERTEX
  8
1PHANTOM
  5
8CD6
 10
596.028
 20
-146.716
 30
0.000000
  70
    32
  0
VERTEX
  8
1PHANTOM
  5
8CD7
 10
596.036
 20
-146.867
 30
0.000000
  70
    32
  0
VERTEX
  8
1PHANTOM
  5
8CD8
 10
596.045
 20
-147.018
 30
0.000000
  70
    32
  0
VERTEX
  8
1PHANTOM
  5
8CD9
 10
596.055
 20
-147.170
 30
0.000000
  70
    32
  0
VERTEX
  8
1PHANTOM
  5
8CDA
 10
596.065
 20
-147.322
 30
0.000000
  70
    32
  0
VERTEX
  8
1PHANTOM
  5
8CDB
 10
596.076
 20
-147.474
 30
0.000000
  70
    32
  0
VERTEX
  8
1PHANTOM
  5
8CDC
 10
596.087
 20
-147.626
 30
0.000000
  70
    32
  0
VERTEX
  8
1PHANTOM
  5
8CDD
 10
596.100
 20
-147.779
 30
0.000000
  70
    32
  0
VERTEX
  8
1PHANTOM
  5
8CDE
 10
596.113
 20
-147.932
 30
0.000000
  70
    32
  0
VERTEX
  8
1PHANTOM
  5
8CDF
 10
596.127
 20
-148.086
 30
0.000000
  70
    32
  0
VERTEX
  8
1PHANTOM
  5
8CE0
 10
596.141
 20
-148.240
 30
0.000000
  70
    32
  0
VERTEX
  8
1PHANTOM
  5
8CE1
 10
596.157
 20
-148.394
 30
0.000000
  70
    32
  0
VERTEX
  8
1PHANTOM
  5
8CE2
 10
596.173
 20
-148.549
 30
0.000000
  70
    32
  0
VERTEX
  8
1PHANTOM
  5
8CE3
 10
596.190
 20
-148.704
 30
0.000000
  70
    32
  0
VERTEX
  8
1PHANTOM
  5
8CE4
 10
596.208
 20
-148.859
 30
0.000000
  70
    32
  0
VERTEX
  8
1PHANTOM
  5
8CE5
 10
596.227
 20
-149.015
 30
0.000000
  70
    32
  0
VERTEX
  8
1PHANTOM
  5
8CE6
 10
596.247
 20
-149.171
 30
0.000000
  70
    32
  0
VERTEX
  8
1PHANTOM
  5
8CE7
 10
596.268
 20
-149.327
 30
0.000000
  70
    32
  0
VERTEX
  8
1PHANTOM
  5
8CE8
 10
596.290
 20
-149.483
 30
0.000000
  70
    32
  0
VERTEX
  8
1PHANTOM
  5
8CE9
 10
596.313
 20
-149.640
 30
0.000000
  70
    32
  0
VERTEX
  8
1PHANTOM
  5
8CEA
 10
596.337
 20
-149.796
 30
0.000000
  70
    32
  0
VERTEX
  8
1PHANTOM
  5
8CEB
 10
596.363
 20
-149.952
 30
0.000000
  70
    32
  0
VERTEX
  8
1PHANTOM
  5
8CEC
 10
596.389
 20
-150.108
 30
0.000000
  70
    32
  0
VERTEX
  8
1PHANTOM
  5
8CED
 10
596.418
 20
-150.263
 30
0.000000
  70
    32
  0
VERTEX
  8
1PHANTOM
  5
8CEE
 10
596.447
 20
-150.418
 30
0.000000
  70
    32
  0
VERTEX
  8
1PHANTOM
  5
8CEF
 10
596.478
 20
-150.572
 30
0.000000
  70
    32
  0
VERTEX
  8
1PHANTOM
  5
8CF0
 10
596.511
 20
-150.726
 30
0.000000
  70
    32
  0
VERTEX
  8
1PHANTOM
  5
8CF1
 10
596.546
 20
-150.878
 30
0.000000
  70
    32
  0
VERTEX
  8
1PHANTOM
  5
8CF2
 10
596.582
 20
-151.030
 30
0.000000
  70
    32
  0
VERTEX
  8
1PHANTOM
  5
8CF3
 10
596.619
 20
-151.181
 30
0.000000
  70
    32
  0
VERTEX
  8
1PHANTOM
  5
8CF4
 10
596.659
 20
-151.331
 30
0.000000
  70
    32
  0
VERTEX
  8
1PHANTOM
  5
8CF5
 10
596.700
 20
-151.480
 30
0.000000
  70
    32
  0
VERTEX
  8
1PHANTOM
  5
8CF6
 10
596.744
 20
-151.627
 30
0.000000
  70
    32
  0
VERTEX
  8
1PHANTOM
  5
8CF7
 10
596.789
 20
-151.773
 30
0.000000
  70
    32
  0
VERTEX
  8
1PHANTOM
  5
8CF8
 10
596.837
 20
-151.918
 30
0.000000
  70
    32
  0
VERTEX
  8
1PHANTOM
  5
8CF9
 10
596.887
 20
-152.061
 30
0.000000
  70
    32
  0
VERTEX
  8
1PHANTOM
  5
8CFA
 10
596.939
 20
-152.202
 30
0.000000
  70
    32
  0
VERTEX
  8
1PHANTOM
  5
8CFB
 10
596.993
 20
-152.342
 30
0.000000
  70
    32
  0
VERTEX
  8
1PHANTOM
  5
8CFC
 10
597.049
 20
-152.480
 30
0.000000
  70
    32
  0
VERTEX
  8
1PHANTOM
  5
8CFD
 10
597.108
 20
-152.616
 30
0.000000
  70
    32
  0
VERTEX
  8
1PHANTOM
  5
8CFE
 10
597.169
 20
-152.749
 30
0.000000
  70
    32
  0
VERTEX
  8
1PHANTOM
  5
8CFF
 10
597.233
 20
-152.881
 30
0.000000
  70
    32
  0
VERTEX
  8
1PHANTOM
  5
8D00
 10
597.300
 20
-153.011
 30
0.000000
  70
    32
  0
VERTEX
  8
1PHANTOM
  5
8D01
 10
597.369
 20
-153.138
 30
0.000000
  70
    32
  0
VERTEX
  8
1PHANTOM
  5
8D02
 10
597.441
 20
-153.262
 30
0.000000
  70
    32
  0
SEQEND
  8
1PHANTOM
  5
8D03
  0
POLYLINE
  8
1PHANTOM
  5
8D04
  66
     1
 10
0.000000
 20
0.000000
 30
0.000000
  70
     8
  0
VERTEX
  8
1PHANTOM
  5
8D05
 10
605.153
 20
-156.572
 30
0.000000
  70
    32
  0
VERTEX
  8
1PHANTOM
  5
8D06
 10
605.173
 20
-156.575
 30
0.000000
  70
    32
  0
VERTEX
  8
1PHANTOM
  5
8D07
 10
605.193
 20
-156.579
 30
0.000000
  70
    32
  0
VERTEX
  8
1PHANTOM
  5
8D08
 10
605.213
 20
-156.582
 30
0.000000
  70
    32
  0
VERTEX
  8
1PHANTOM
  5
8D09
 10
605.233
 20
-156.586
 30
0.000000
  70
    32
  0
VERTEX
  8
1PHANTOM
  5
8D0A
 10
605.252
 20
-156.589
 30
0.000000
  70
    32
  0
VERTEX
  8
1PHANTOM
  5
8D0B
 10
605.272
 20
-156.593
 30
0.000000
  70
    32
  0
VERTEX
  8
1PHANTOM
  5
8D0C
 10
605.292
 20
-156.596
 30
0.000000
  70
    32
  0
VERTEX
  8
1PHANTOM
  5
8D0D
 10
605.312
 20
-156.600
 30
0.000000
  70
    32
  0
VERTEX
  8
1PHANTOM
  5
8D0E
 10
605.332
 20
-156.603
 30
0.000000
  70
    32
  0
VERTEX
  8
1PHANTOM
  5
8D0F
 10
605.351
 20
-156.606
 30
0.000000
  70
    32
  0
VERTEX
  8
1PHANTOM
  5
8D10
 10
605.371
 20
-156.610
 30
0.000000
  70
    32
  0
VERTEX
  8
1PHANTOM
  5
8D11
 10
605.391
 20
-156.613
 30
0.000000
  70
    32
  0
VERTEX
  8
1PHANTOM
  5
8D12
 10
605.411
 20
-156.617
 30
0.000000
  70
    32
  0
VERTEX
  8
1PHANTOM
  5
8D13
 10
605.431
 20
-156.620
 30
0.000000
  70
    32
  0
VERTEX
  8
1PHANTOM
  5
8D14
 10
605.450
 20
-156.624
 30
0.000000
  70
    32
  0
VERTEX
  8
1PHANTOM
  5
8D15
 10
605.470
 20
-156.627
 30
0.000000
  70
    32
  0
VERTEX
  8
1PHANTOM
  5
8D16
 10
605.490
 20
-156.630
 30
0.000000
  70
    32
  0
VERTEX
  8
1PHANTOM
  5
8D17
 10
605.510
 20
-156.634
 30
0.000000
  70
    32
  0
VERTEX
  8
1PHANTOM
  5
8D18
 10
605.529
 20
-156.637
 30
0.000000
  70
    32
  0
VERTEX
  8
1PHANTOM
  5
8D19
 10
605.549
 20
-156.641
 30
0.000000
  70
    32
  0
VERTEX
  8
1PHANTOM
  5
8D1A
 10
605.569
 20
-156.644
 30
0.000000
  70
    32
  0
VERTEX
  8
1PHANTOM
  5
8D1B
 10
605.589
 20
-156.647
 30
0.000000
  70
    32
  0
VERTEX
  8
1PHANTOM
  5
8D1C
 10
605.609
 20
-156.651
 30
0.000000
  70
    32
  0
VERTEX
  8
1PHANTOM
  5
8D1D
 10
605.628
 20
-156.654
 30
0.000000
  70
    32
  0
VERTEX
  8
1PHANTOM
  5
8D1E
 10
605.648
 20
-156.658
 30
0.000000
  70
    32
  0
VERTEX
  8
1PHANTOM
  5
8D1F
 10
605.668
 20
-156.661
 30
0.000000
  70
    32
  0
VERTEX
  8
1PHANTOM
  5
8D20
 10
605.688
 20
-156.664
 30
0.000000
  70
    32
  0
VERTEX
  8
1PHANTOM
  5
8D21
 10
605.707
 20
-156.668
 30
0.000000
  70
    32
  0
VERTEX
  8
1PHANTOM
  5
8D22
 10
605.727
 20
-156.671
 30
0.000000
  70
    32
  0
VERTEX
  8
1PHANTOM
  5
8D23
 10
605.747
 20
-156.674
 30
0.000000
  70
    32
  0
VERTEX
  8
1PHANTOM
  5
8D24
 10
605.767
 20
-156.678
 30
0.000000
  70
    32
  0
VERTEX
  8
1PHANTOM
  5
8D25
 10
605.786
 20
-156.681
 30
0.000000
  70
    32
  0
VERTEX
  8
1PHANTOM
  5
8D26
 10
605.806
 20
-156.684
 30
0.000000
  70
    32
  0
VERTEX
  8
1PHANTOM
  5
8D27
 10
605.826
 20
-156.688
 30
0.000000
  70
    32
  0
VERTEX
  8
1PHANTOM
  5
8D28
 10
605.846
 20
-156.691
 30
0.000000
  70
    32
  0
VERTEX
  8
1PHANTOM
  5
8D29
 10
605.865
 20
-156.694
 30
0.000000
  70
    32
  0
VERTEX
  8
1PHANTOM
  5
8D2A
 10
605.885
 20
-156.698
 30
0.000000
  70
    32
  0
VERTEX
  8
1PHANTOM
  5
8D2B
 10
605.905
 20
-156.701
 30
0.000000
  70
    32
  0
VERTEX
  8
1PHANTOM
  5
8D2C
 10
605.924
 20
-156.704
 30
0.000000
  70
    32
  0
VERTEX
  8
1PHANTOM
  5
8D2D
 10
605.944
 20
-156.708
 30
0.000000
  70
    32
  0
VERTEX
  8
1PHANTOM
  5
8D2E
 10
605.964
 20
-156.711
 30
0.000000
  70
    32
  0
VERTEX
  8
1PHANTOM
  5
8D2F
 10
605.984
 20
-156.714
 30
0.000000
  70
    32
  0
VERTEX
  8
1PHANTOM
  5
8D30
 10
606.003
 20
-156.717
 30
0.000000
  70
    32
  0
VERTEX
  8
1PHANTOM
  5
8D31
 10
606.023
 20
-156.721
 30
0.000000
  70
    32
  0
VERTEX
  8
1PHANTOM
  5
8D32
 10
606.043
 20
-156.724
 30
0.000000
  70
    32
  0
VERTEX
  8
1PHANTOM
  5
8D33
 10
606.062
 20
-156.727
 30
0.000000
  70
    32
  0
VERTEX
  8
1PHANTOM
  5
8D34
 10
606.082
 20
-156.731
 30
0.000000
  70
    32
  0
VERTEX
  8
1PHANTOM
  5
8D35
 10
606.102
 20
-156.734
 30
0.000000
  70
    32
  0
VERTEX
  8
1PHANTOM
  5
8D36
 10
606.122
 20
-156.737
 30
0.000000
  70
    32
  0
VERTEX
  8
1PHANTOM
  5
8D37
 10
606.141
 20
-156.740
 30
0.000000
  70
    32
  0
VERTEX
  8
1PHANTOM
  5
8D38
 10
606.161
 20
-156.744
 30
0.000000
  70
    32
  0
VERTEX
  8
1PHANTOM
  5
8D39
 10
606.181
 20
-156.747
 30
0.000000
  70
    32
  0
VERTEX
  8
1PHANTOM
  5
8D3A
 10
606.200
 20
-156.750
 30
0.000000
  70
    32
  0
VERTEX
  8
1PHANTOM
  5
8D3B
 10
606.220
 20
-156.753
 30
0.000000
  70
    32
  0
VERTEX
  8
1PHANTOM
  5
8D3C
 10
606.240
 20
-156.757
 30
0.000000
  70
    32
  0
VERTEX
  8
1PHANTOM
  5
8D3D
 10
606.259
 20
-156.760
 30
0.000000
  70
    32
  0
VERTEX
  8
1PHANTOM
  5
8D3E
 10
606.279
 20
-156.763
 30
0.000000
  70
    32
  0
VERTEX
  8
1PHANTOM
  5
8D3F
 10
606.299
 20
-156.766
 30
0.000000
  70
    32
  0
VERTEX
  8
1PHANTOM
  5
8D40
 10
606.318
 20
-156.769
 30
0.000000
  70
    32
  0
VERTEX
  8
1PHANTOM
  5
8D41
 10
606.338
 20
-156.773
 30
0.000000
  70
    32
  0
VERTEX
  8
1PHANTOM
  5
8D42
 10
606.358
 20
-156.776
 30
0.000000
  70
    32
  0
VERTEX
  8
1PHANTOM
  5
8D43
 10
606.378
 20
-156.779
 30
0.000000
  70
    32
  0
VERTEX
  8
1PHANTOM
  5
8D44
 10
606.397
 20
-156.782
 30
0.000000
  70
    32
  0
VERTEX
  8
1PHANTOM
  5
8D45
 10
606.417
 20
-156.786
 30
0.000000
  70
    32
  0
VERTEX
  8
1PHANTOM
  5
8D46
 10
606.437
 20
-156.789
 30
0.000000
  70
    32
  0
VERTEX
  8
1PHANTOM
  5
8D47
 10
606.456
 20
-156.792
 30
0.000000
  70
    32
  0
VERTEX
  8
1PHANTOM
  5
8D48
 10
606.476
 20
-156.795
 30
0.000000
  70
    32
  0
VERTEX
  8
1PHANTOM
  5
8D49
 10
606.496
 20
-156.798
 30
0.000000
  70
    32
  0
VERTEX
  8
1PHANTOM
  5
8D4A
 10
606.515
 20
-156.801
 30
0.000000
  70
    32
  0
VERTEX
  8
1PHANTOM
  5
8D4B
 10
606.535
 20
-156.805
 30
0.000000
  70
    32
  0
VERTEX
  8
1PHANTOM
  5
8D4C
 10
606.555
 20
-156.808
 30
0.000000
  70
    32
  0
VERTEX
  8
1PHANTOM
  5
8D4D
 10
606.574
 20
-156.811
 30
0.000000
  70
    32
  0
VERTEX
  8
1PHANTOM
  5
8D4E
 10
606.594
 20
-156.814
 30
0.000000
  70
    32
  0
VERTEX
  8
1PHANTOM
  5
8D4F
 10
606.613
 20
-156.817
 30
0.000000
  70
    32
  0
VERTEX
  8
1PHANTOM
  5
8D50
 10
606.633
 20
-156.821
 30
0.000000
  70
    32
  0
VERTEX
  8
1PHANTOM
  5
8D51
 10
606.653
 20
-156.824
 30
0.000000
  70
    32
  0
VERTEX
  8
1PHANTOM
  5
8D52
 10
606.672
 20
-156.827
 30
0.000000
  70
    32
  0
VERTEX
  8
1PHANTOM
  5
8D53
 10
606.692
 20
-156.830
 30
0.000000
  70
    32
  0
VERTEX
  8
1PHANTOM
  5
8D54
 10
606.712
 20
-156.833
 30
0.000000
  70
    32
  0
VERTEX
  8
1PHANTOM
  5
8D55
 10
606.731
 20
-156.836
 30
0.000000
  70
    32
  0
VERTEX
  8
1PHANTOM
  5
8D56
 10
606.751
 20
-156.839
 30
0.000000
  70
    32
  0
VERTEX
  8
1PHANTOM
  5
8D57
 10
606.771
 20
-156.843
 30
0.000000
  70
    32
  0
VERTEX
  8
1PHANTOM
  5
8D58
 10
606.790
 20
-156.846
 30
0.000000
  70
    32
  0
VERTEX
  8
1PHANTOM
  5
8D59
 10
606.810
 20
-156.849
 30
0.000000
  70
    32
  0
VERTEX
  8
1PHANTOM
  5
8D5A
 10
606.830
 20
-156.852
 30
0.000000
  70
    32
  0
VERTEX
  8
1PHANTOM
  5
8D5B
 10
606.849
 20
-156.855
 30
0.000000
  70
    32
  0
VERTEX
  8
1PHANTOM
  5
8D5C
 10
606.869
 20
-156.858
 30
0.000000
  70
    32
  0
VERTEX
  8
1PHANTOM
  5
8D5D
 10
606.889
 20
-156.861
 30
0.000000
  70
    32
  0
VERTEX
  8
1PHANTOM
  5
8D5E
 10
606.908
 20
-156.865
 30
0.000000
  70
    32
  0
VERTEX
  8
1PHANTOM
  5
8D5F
 10
606.928
 20
-156.868
 30
0.000000
  70
    32
  0
VERTEX
  8
1PHANTOM
  5
8D60
 10
606.947
 20
-156.871
 30
0.000000
  70
    32
  0
VERTEX
  8
1PHANTOM
  5
8D61
 10
606.967
 20
-156.874
 30
0.000000
  70
    32
  0
VERTEX
  8
1PHANTOM
  5
8D62
 10
606.987
 20
-156.877
 30
0.000000
  70
    32
  0
VERTEX
  8
1PHANTOM
  5
8D63
 10
607.006
 20
-156.880
 30
0.000000
  70
    32
  0
VERTEX
  8
1PHANTOM
  5
8D64
 10
607.026
 20
-156.883
 30
0.000000
  70
    32
  0
VERTEX
  8
1PHANTOM
  5
8D65
 10
607.046
 20
-156.886
 30
0.000000
  70
    32
  0
VERTEX
  8
1PHANTOM
  5
8D66
 10
607.065
 20
-156.889
 30
0.000000
  70
    32
  0
VERTEX
  8
1PHANTOM
  5
8D67
 10
607.085
 20
-156.893
 30
0.000000
  70
    32
  0
VERTEX
  8
1PHANTOM
  5
8D68
 10
607.104
 20
-156.896
 30
0.000000
  70
    32
  0
VERTEX
  8
1PHANTOM
  5
8D69
 10
607.124
 20
-156.899
 30
0.000000
  70
    32
  0
VERTEX
  8
1PHANTOM
  5
8D6A
 10
607.144
 20
-156.902
 30
0.000000
  70
    32
  0
VERTEX
  8
1PHANTOM
  5
8D6B
 10
607.163
 20
-156.905
 30
0.000000
  70
    32
  0
VERTEX
  8
1PHANTOM
  5
8D6C
 10
607.183
 20
-156.908
 30
0.000000
  70
    32
  0
VERTEX
  8
1PHANTOM
  5
8D6D
 10
607.202
 20
-156.911
 30
0.000000
  70
    32
  0
VERTEX
  8
1PHANTOM
  5
8D6E
 10
607.222
 20
-156.914
 30
0.000000
  70
    32
  0
VERTEX
  8
1PHANTOM
  5
8D6F
 10
607.242
 20
-156.917
 30
0.000000
  70
    32
  0
VERTEX
  8
1PHANTOM
  5
8D70
 10
607.261
 20
-156.920
 30
0.000000
  70
    32
  0
VERTEX
  8
1PHANTOM
  5
8D71
 10
607.281
 20
-156.923
 30
0.000000
  70
    32
  0
VERTEX
  8
1PHANTOM
  5
8D72
 10
607.301
 20
-156.926
 30
0.000000
  70
    32
  0
VERTEX
  8
1PHANTOM
  5
8D73
 10
607.320
 20
-156.930
 30
0.000000
  70
    32
  0
VERTEX
  8
1PHANTOM
  5
8D74
 10
607.340
 20
-156.933
 30
0.000000
  70
    32
  0
VERTEX
  8
1PHANTOM
  5
8D75
 10
607.359
 20
-156.936
 30
0.000000
  70
    32
  0
VERTEX
  8
1PHANTOM
  5
8D76
 10
607.379
 20
-156.939
 30
0.000000
  70
    32
  0
VERTEX
  8
1PHANTOM
  5
8D77
 10
607.399
 20
-156.942
 30
0.000000
  70
    32
  0
VERTEX
  8
1PHANTOM
  5
8D78
 10
607.418
 20
-156.945
 30
0.000000
  70
    32
  0
VERTEX
  8
1PHANTOM
  5
8D79
 10
607.438
 20
-156.948
 30
0.000000
  70
    32
  0
VERTEX
  8
1PHANTOM
  5
8D7A
 10
607.457
 20
-156.951
 30
0.000000
  70
    32
  0
VERTEX
  8
1PHANTOM
  5
8D7B
 10
607.477
 20
-156.954
 30
0.000000
  70
    32
  0
VERTEX
  8
1PHANTOM
  5
8D7C
 10
607.497
 20
-156.957
 30
0.000000
  70
    32
  0
VERTEX
  8
1PHANTOM
  5
8D7D
 10
607.516
 20
-156.960
 30
0.000000
  70
    32
  0
VERTEX
  8
1PHANTOM
  5
8D7E
 10
607.536
 20
-156.963
 30
0.000000
  70
    32
  0
VERTEX
  8
1PHANTOM
  5
8D7F
 10
607.555
 20
-156.966
 30
0.000000
  70
    32
  0
VERTEX
  8
1PHANTOM
  5
8D80
 10
607.575
 20
-156.969
 30
0.000000
  70
    32
  0
VERTEX
  8
1PHANTOM
  5
8D81
 10
607.595
 20
-156.972
 30
0.000000
  70
    32
  0
VERTEX
  8
1PHANTOM
  5
8D82
 10
607.614
 20
-156.975
 30
0.000000
  70
    32
  0
VERTEX
  8
1PHANTOM
  5
8D83
 10
607.634
 20
-156.978
 30
0.000000
  70
    32
  0
VERTEX
  8
1PHANTOM
  5
8D84
 10
607.653
 20
-156.981
 30
0.000000
  70
    32
  0
SEQEND
  8
1PHANTOM
  5
8D85
  0
LINE
  5
7B12
  8
01
 10
649.39719439034832
 20
-245.3979659004913
 30
0.0
 11
649.39721067791254
 21
-238.3979659004913
 31
0.0
  0
LINE
  5
7B13
  8
01
 10
649.13471067791158
 20
-238.3979659004913
 30
0.0
 11
649.39721067791254
 21
-238.3979659004913
 31
0.0
  0
LINE
  5
7B14
  8
01
 10
649.13469439034725
 20
-245.3979659004913
 30
0.0
 11
649.39719439034832
 21
-245.3979659004913
 31
0.0
  0
LINE
  5
7B15
  8
01
 10
649.13471067791158
 20
-238.3979659004913
 30
0.0
 11
646.94718522844448
 21
-240.5854659004913
 31
0.0
  0
LINE
  5
7B16
  8
01
 10
649.13469439034725
 20
-245.3979659004913
 30
0.0
 11
646.94720965988574
 21
-243.2104659004913
 31
0.0
  0
LINE
  5
7B17
  8
01
 10
629.03471373187745
 20
-240.5854659004913
 30
0.0
 11
646.94718522844448
 21
-240.5854659004913
 31
0.0
  0
LINE
  5
7B18
  8
01
 10
629.03470762404083
 20
-243.2104659004913
 30
0.0
 11
646.94720965988574
 21
-243.2104659004913
 31
0.0
  0
LINE
  5
7B19
  8
01
 10
624.39721067791254
 20
-241.8979659004913
 30
0.0
 11
629.03471373187745
 21
-240.5854659004913
 31
0.0
  0
LINE
  5
7B1A
  8
01
 10
624.39721067791254
 20
-241.8979659004913
 30
0.0
 11
629.03470762404083
 21
-243.2104659004913
 31
0.0
  0
LINE
  5
7B1B
  8
01
 10
649.13469439034725
 20
-245.3979659004913
 30
0.0
 11
649.13471067791158
 21
-238.3979659004913
 31
0.0
  0
LINE
  5
7B1C
  8
01
 10
638.83470660606815
 20
-243.6479659004913
 30
0.0
 11
638.13471474985215
 21
-240.1479659004913
 31
0.0
  0
LINE
  5
7B1D
  8
01
 10
638.13471474985215
 20
-240.1479659004913
 30
0.0
 11
638.0472137318792
 21
-240.5854659004913
 31
0.0
  0
LINE
  5
7B1E
  8
01
 10
636.0347066060682
 20
-243.6479659004913
 30
0.0
 11
635.33471474984833
 21
-240.1479659004913
 31
0.0
  0
LINE
  5
7B1F
  8
01
 10
637.43470660606795
 20
-243.6479659004913
 30
0.0
 11
636.73471474984819
 21
-240.1479659004913
 31
0.0
  0
LINE
  5
7B20
  8
01
 10
633.2347066060679
 20
-243.6479659004913
 30
0.0
 11
632.53471474984826
 21
-240.1479659004913
 31
0.0
  0
LINE
  5
7B21
  8
01
 10
634.63470660606811
 20
-243.6479659004913
 30
0.0
 11
633.93471474984824
 21
-240.1479659004913
 31
0.0
  0
LINE
  5
7B22
  8
01
 10
630.43470660606795
 20
-243.6479659004913
 30
0.0
 11
629.73471474984819
 21
-240.1479659004913
 31
0.0
  0
LINE
  5
7B23
  8
01
 10
628.33471428889595
 20
-240.3460720711698
 30
0.0
 11
628.22160242846974
 21
-240.815591589532
 31
0.0
  0
LINE
  5
7B24
  8
01
 10
629.03470660606808
 20
-243.6479659004913
 30
0.0
 11
628.33471428889595
 21
-240.3460720711698
 31
0.0
  0
LINE
  5
7B25
  8
01
 10
631.83470660606815
 20
-243.6479659004913
 30
0.0
 11
631.13471474984829
 21
-240.1479659004913
 31
0.0
  0
LINE
  5
7B26
  8
01
 10
635.33471474984833
 20
-240.1479659004913
 30
0.0
 11
635.24721373187583
 21
-240.5854659004913
 31
0.0
  0
LINE
  5
7B27
  8
01
 10
636.73471474984819
 20
-240.1479659004913
 30
0.0
 11
636.64721373187581
 21
-240.5854659004913
 31
0.0
  0
LINE
  5
7B28
  8
01
 10
632.53471474984826
 20
-240.1479659004913
 30
0.0
 11
632.44721373187565
 21
-240.5854659004913
 31
0.0
  0
LINE
  5
7B29
  8
01
 10
633.93471474984824
 20
-240.1479659004913
 30
0.0
 11
633.84721373187574
 21
-240.5854659004913
 31
0.0
  0
LINE
  5
7B2A
  8
01
 10
629.73471474984819
 20
-240.1479659004913
 30
0.0
 11
629.64721373187592
 21
-240.5854659004913
 31
0.0
  0
LINE
  5
7B2B
  8
01
 10
631.13471474984829
 20
-240.1479659004913
 30
0.0
 11
631.04721373187601
 21
-240.5854659004913
 31
0.0
  0
LINE
  5
7B2C
  8
1CENTER
 10
623.29221078603962
 20
-241.8979659004913
 30
0.0
 11
650.85468596245937
 21
-241.8979659004913
 31
0.0
  0
LINE
  5
7B2D
  8
01
 10
627.73338085128319
 20
-242.84216562793361
 30
0.0
 11
627.63470752797684
 21
-243.25175177618979
 31
0.0
  0
LINE
  5
7B2E
  8
01
 10
625.53471244508603
 20
-241.13849675388181
 30
0.0
 11
625.26191382086552
 21
-241.65323875704391
 31
0.0
  0
LINE
  5
7B2F
  8
01
 10
626.36721477176604
 20
-242.45551459609561
 30
0.0
 11
626.23470844988071
 21
-242.85553995664779
 31
0.0
  0
LINE
  5
7B30
  8
01
 10
626.9347133669911
 20
-240.74228441252581
 30
0.0
 11
626.77479474219149
 21
-241.22506519335369
 31
0.0
  0
LINE
  5
7B31
  8
01
 10
626.23470844988071
 20
-242.85553995664779
 30
0.0
 11
625.53471244508603
 21
-241.13849675388181
 31
0.0
  0
LINE
  5
7B32
  8
01
 10
627.63470752797684
 20
-243.25175177618979
 30
0.0
 11
626.9347133669911
 21
-240.74228441252581
 31
0.0
  0
LINE
  5
7B33
  8
01
 10
636.1222076240407
 20
-243.2104659004913
 30
0.0
 11
636.0347066060682
 21
-243.6479659004913
 31
0.0
  0
LINE
  5
7B34
  8
01
 10
637.52220762404102
 20
-243.2104659004913
 30
0.0
 11
637.43470660606795
 21
-243.6479659004913
 31
0.0
  0
LINE
  5
7B35
  8
01
 10
631.92220762404065
 20
-243.2104659004913
 30
0.0
 11
631.83470660606815
 21
-243.6479659004913
 31
0.0
  0
LINE
  5
7B36
  8
01
 10
633.32220762404052
 20
-243.2104659004913
 30
0.0
 11
633.2347066060679
 21
-243.6479659004913
 31
0.0
  0
LINE
  5
7B37
  8
01
 10
634.72220762404027
 20
-243.2104659004913
 30
0.0
 11
634.63470660606811
 21
-243.6479659004913
 31
0.0
  0
LINE
  5
7B38
  8
01
 10
630.52220762404045
 20
-243.2104659004913
 30
0.0
 11
630.43470660606795
 21
-243.6479659004913
 31
0.0
  0
LINE
  5
7B39
  8
01
 10
629.1222076240407
 20
-243.2104659004913
 30
0.0
 11
629.03470660606808
 21
-243.6479659004913
 31
0.0
  0
LINE
  5
7B3A
  8
01
 10
638.92220762404111
 20
-243.2104659004913
 30
0.0
 11
638.83470660606815
 21
-243.6479659004913
 31
0.0
  0
LINE
  5
7B3B
  8
01
 10
640.23470660606995
 20
-243.6479659004913
 30
0.0
 11
639.53471474985395
 21
-240.1479659004913
 31
0.0
  0
LINE
  5
7B3C
  8
01
 10
639.53471474985395
 20
-240.1479659004913
 30
0.0
 11
639.44721373188099
 21
-240.5854659004913
 31
0.0
  0
LINE
  5
7B3D
  8
01
 10
640.32220762404302
 20
-243.2104659004913
 30
0.0
 11
640.23470660606995
 21
-243.6479659004913
 31
0.0
  0
LINE
  5
7B3E
  8
01
 10
641.6347066060722
 20
-243.6479659004913
 30
0.0
 11
640.9347147498562
 21
-240.1479659004913
 31
0.0
  0
LINE
  5
7B3F
  8
01
 10
640.9347147498562
 20
-240.1479659004913
 30
0.0
 11
640.84721373188324
 21
-240.5854659004913
 31
0.0
  0
LINE
  5
7B40
  8
01
 10
641.72220762404515
 20
-243.2104659004913
 30
0.0
 11
641.6347066060722
 21
-243.6479659004913
 31
0.0
  0
LINE
  5
7B41
  8
01
 10
643.03470660607411
 20
-243.6479659004913
 30
0.0
 11
642.33471474985811
 21
-240.1479659004913
 31
0.0
  0
LINE
  5
7B42
  8
01
 10
642.33471474985811
 20
-240.1479659004913
 30
0.0
 11
642.24721373188515
 21
-240.5854659004913
 31
0.0
  0
LINE
  5
7B43
  8
01
 10
643.12220762404695
 20
-243.2104659004913
 30
0.0
 11
643.03470660607411
 21
-243.6479659004913
 31
0.0
  0
LINE
  5
7B44
  8
01
 10
644.43470660607625
 20
-243.6479659004913
 30
0.0
 11
643.73471474986025
 21
-240.1479659004913
 31
0.0
  0
LINE
  5
7B45
  8
01
 10
643.73471474986025
 20
-240.1479659004913
 30
0.0
 11
643.64721373188718
 21
-240.5854659004913
 31
0.0
  0
LINE
  5
7B46
  8
01
 10
644.5222076240492
 20
-243.2104659004913
 30
0.0
 11
644.43470660607625
 21
-243.6479659004913
 31
0.0
  0
LINE
  5
7B47
  8
01
 10
645.83470660607804
 20
-243.6479659004913
 30
0.0
 11
645.13471474986216
 21
-240.1479659004913
 31
0.0
  0
LINE
  5
7B48
  8
01
 10
645.13471474986216
 20
-240.1479659004913
 30
0.0
 11
645.04721373188909
 21
-240.5854659004913
 31
0.0
  0
LINE
  5
7B49
  8
01
 10
645.92220762405111
 20
-243.2104659004913
 30
0.0
 11
645.83470660607804
 21
-243.6479659004913
 31
0.0
  0
LINE
  5
7B4A
  8
01
 10
649.39719439034832
 20
-232.89680073312141
 30
0.0
 11
649.39721067791254
 21
-225.89680073312141
 31
0.0
  0
LINE
  5
7B4B
  8
01
 10
649.13471067791158
 20
-225.89680073312141
 30
0.0
 11
649.39721067791254
 21
-225.89680073312141
 31
0.0
  0
LINE
  5
7B4C
  8
01
 10
649.13469439034725
 20
-232.89680073312141
 30
0.0
 11
649.39719439034832
 21
-232.89680073312141
 31
0.0
  0
LINE
  5
7B4D
  8
01
 10
649.13471067791158
 20
-225.89680073312141
 30
0.0
 11
646.94718522844448
 21
-228.08430073312141
 31
0.0
  0
LINE
  5
7B4E
  8
01
 10
649.13469439034725
 20
-232.89680073312141
 30
0.0
 11
646.94720965988574
 21
-230.70930073312141
 31
0.0
  0
LINE
  5
7B4F
  8
01
 10
629.03471373187745
 20
-228.08430073312141
 30
0.0
 11
646.94718522844448
 21
-228.08430073312141
 31
0.0
  0
LINE
  5
7B50
  8
01
 10
629.03470762404083
 20
-230.70930073312141
 30
0.0
 11
646.94720965988574
 21
-230.70930073312141
 31
0.0
  0
LINE
  5
7B51
  8
01
 10
624.39721067791254
 20
-229.39680073312141
 30
0.0
 11
629.03471373187745
 21
-228.08430073312141
 31
0.0
  0
LINE
  5
7B52
  8
01
 10
624.39721067791254
 20
-229.39680073312141
 30
0.0
 11
629.03470762404083
 21
-230.70930073312141
 31
0.0
  0
LINE
  5
7B53
  8
01
 10
649.13469439034725
 20
-232.89680073312141
 30
0.0
 11
649.13471067791158
 21
-225.89680073312141
 31
0.0
  0
LINE
  5
7B54
  8
01
 10
638.83470660606815
 20
-231.14680073312141
 30
0.0
 11
638.13471474985215
 21
-227.64680073312141
 31
0.0
  0
LINE
  5
7B55
  8
01
 10
638.13471474985215
 20
-227.64680073312141
 30
0.0
 11
638.0472137318792
 21
-228.08430073312141
 31
0.0
  0
LINE
  5
7B56
  8
01
 10
636.0347066060682
 20
-231.14680073312141
 30
0.0
 11
635.33471474984833
 21
-227.64680073312141
 31
0.0
  0
LINE
  5
7B57
  8
01
 10
637.43470660606795
 20
-231.14680073312141
 30
0.0
 11
636.73471474984819
 21
-227.64680073312141
 31
0.0
  0
LINE
  5
7B58
  8
01
 10
633.2347066060679
 20
-231.14680073312141
 30
0.0
 11
632.53471474984826
 21
-227.64680073312141
 31
0.0
  0
LINE
  5
7B59
  8
01
 10
634.63470660606811
 20
-231.14680073312141
 30
0.0
 11
633.93471474984824
 21
-227.64680073312141
 31
0.0
  0
LINE
  5
7B5A
  8
01
 10
630.43470660606795
 20
-231.14680073312141
 30
0.0
 11
629.73471474984819
 21
-227.64680073312141
 31
0.0
  0
LINE
  5
7B5B
  8
01
 10
628.33471428889595
 20
-227.84490690379991
 30
0.0
 11
628.22160242846974
 21
-228.31442642216209
 31
0.0
  0
LINE
  5
7B5C
  8
01
 10
629.03470660606808
 20
-231.14680073312141
 30
0.0
 11
628.33471428889595
 21
-227.84490690379991
 31
0.0
  0
LINE
  5
7B5D
  8
01
 10
631.83470660606815
 20
-231.14680073312141
 30
0.0
 11
631.13471474984829
 21
-227.64680073312141
 31
0.0
  0
LINE
  5
7B5E
  8
01
 10
635.33471474984833
 20
-227.64680073312141
 30
0.0
 11
635.24721373187583
 21
-228.08430073312141
 31
0.0
  0
LINE
  5
7B5F
  8
01
 10
636.73471474984819
 20
-227.64680073312141
 30
0.0
 11
636.64721373187581
 21
-228.08430073312141
 31
0.0
  0
LINE
  5
7B60
  8
01
 10
632.53471474984826
 20
-227.64680073312141
 30
0.0
 11
632.44721373187565
 21
-228.08430073312141
 31
0.0
  0
LINE
  5
7B61
  8
01
 10
633.93471474984824
 20
-227.64680073312141
 30
0.0
 11
633.84721373187574
 21
-228.08430073312141
 31
0.0
  0
LINE
  5
7B62
  8
01
 10
629.73471474984819
 20
-227.64680073312141
 30
0.0
 11
629.64721373187592
 21
-228.08430073312141
 31
0.0
  0
LINE
  5
7B63
  8
01
 10
631.13471474984829
 20
-227.64680073312141
 30
0.0
 11
631.04721373187601
 21
-228.08430073312141
 31
0.0
  0
LINE
  5
7B64
  8
1CENTER
 10
623.29221078603962
 20
-229.39680073312141
 30
0.0
 11
650.85468596245937
 21
-229.39680073312141
 31
0.0
  0
LINE
  5
7B65
  8
01
 10
627.73338085128319
 20
-230.34100046056369
 30
0.0
 11
627.63470752797684
 21
-230.75058660881999
 31
0.0
  0
LINE
  5
7B66
  8
01
 10
625.53471244508603
 20
-228.63733158651189
 30
0.0
 11
625.26191382086552
 21
-229.1520735896741
 31
0.0
  0
LINE
  5
7B67
  8
01
 10
626.36721477176604
 20
-229.95434942872569
 30
0.0
 11
626.23470844988071
 21
-230.3543747892779
 31
0.0
  0
LINE
  5
7B68
  8
01
 10
626.9347133669911
 20
-228.24111924515589
 30
0.0
 11
626.77479474219149
 21
-228.72390002598371
 31
0.0
  0
LINE
  5
7B69
  8
01
 10
626.23470844988071
 20
-230.3543747892779
 30
0.0
 11
625.53471244508603
 21
-228.63733158651189
 31
0.0
  0
LINE
  5
7B6A
  8
01
 10
627.63470752797684
 20
-230.75058660881999
 30
0.0
 11
626.9347133669911
 21
-228.24111924515589
 31
0.0
  0
LINE
  5
7B6B
  8
01
 10
636.1222076240407
 20
-230.70930073312141
 30
0.0
 11
636.0347066060682
 21
-231.14680073312141
 31
0.0
  0
LINE
  5
7B6C
  8
01
 10
637.52220762404102
 20
-230.70930073312141
 30
0.0
 11
637.43470660606795
 21
-231.14680073312141
 31
0.0
  0
LINE
  5
7B6D
  8
01
 10
631.92220762404065
 20
-230.70930073312141
 30
0.0
 11
631.83470660606815
 21
-231.14680073312141
 31
0.0
  0
LINE
  5
7B6E
  8
01
 10
633.32220762404052
 20
-230.70930073312141
 30
0.0
 11
633.2347066060679
 21
-231.14680073312141
 31
0.0
  0
LINE
  5
7B6F
  8
01
 10
634.72220762404027
 20
-230.70930073312141
 30
0.0
 11
634.63470660606811
 21
-231.14680073312141
 31
0.0
  0
LINE
  5
7B70
  8
01
 10
630.52220762404045
 20
-230.70930073312141
 30
0.0
 11
630.43470660606795
 21
-231.14680073312141
 31
0.0
  0
LINE
  5
7B71
  8
01
 10
629.1222076240407
 20
-230.70930073312141
 30
0.0
 11
629.03470660606808
 21
-231.14680073312141
 31
0.0
  0
LINE
  5
7B72
  8
01
 10
638.92220762404111
 20
-230.70930073312141
 30
0.0
 11
638.83470660606815
 21
-231.14680073312141
 31
0.0
  0
LINE
  5
7B73
  8
01
 10
640.23470660606995
 20
-231.14680073312141
 30
0.0
 11
639.53471474985395
 21
-227.64680073312141
 31
0.0
  0
LINE
  5
7B74
  8
01
 10
639.53471474985395
 20
-227.64680073312141
 30
0.0
 11
639.44721373188099
 21
-228.08430073312141
 31
0.0
  0
LINE
  5
7B75
  8
01
 10
640.32220762404302
 20
-230.70930073312141
 30
0.0
 11
640.23470660606995
 21
-231.14680073312141
 31
0.0
  0
LINE
  5
7B76
  8
01
 10
641.6347066060722
 20
-231.14680073312141
 30
0.0
 11
640.9347147498562
 21
-227.64680073312141
 31
0.0
  0
LINE
  5
7B77
  8
01
 10
640.9347147498562
 20
-227.64680073312141
 30
0.0
 11
640.84721373188324
 21
-228.08430073312141
 31
0.0
  0
LINE
  5
7B78
  8
01
 10
641.72220762404515
 20
-230.70930073312141
 30
0.0
 11
641.6347066060722
 21
-231.14680073312141
 31
0.0
  0
LINE
  5
7B79
  8
01
 10
643.03470660607411
 20
-231.14680073312141
 30
0.0
 11
642.33471474985811
 21
-227.64680073312141
 31
0.0
  0
LINE
  5
7B7A
  8
01
 10
642.33471474985811
 20
-227.64680073312141
 30
0.0
 11
642.24721373188515
 21
-228.08430073312141
 31
0.0
  0
LINE
  5
7B7B
  8
01
 10
643.12220762404695
 20
-230.70930073312141
 30
0.0
 11
643.03470660607411
 21
-231.14680073312141
 31
0.0
  0
LINE
  5
7B7C
  8
01
 10
644.43470660607625
 20
-231.14680073312141
 30
0.0
 11
643.73471474986025
 21
-227.64680073312141
 31
0.0
  0
LINE
  5
7B7D
  8
01
 10
643.73471474986025
 20
-227.64680073312141
 30
0.0
 11
643.64721373188718
 21
-228.08430073312141
 31
0.0
  0
LINE
  5
7B7E
  8
01
 10
644.5222076240492
 20
-230.70930073312141
 30
0.0
 11
644.43470660607625
 21
-231.14680073312141
 31
0.0
  0
LINE
  5
7B7F
  8
01
 10
645.83470660607804
 20
-231.14680073312141
 30
0.0
 11
645.13471474986216
 21
-227.64680073312141
 31
0.0
  0
LINE
  5
7B80
  8
01
 10
645.13471474986216
 20
-227.64680073312141
 30
0.0
 11
645.04721373188909
 21
-228.08430073312141
 31
0.0
  0
LINE
  5
7B81
  8
01
 10
645.92220762405111
 20
-230.70930073312141
 30
0.0
 11
645.83470660607804
 21
-231.14680073312141
 31
0.0
  0
TEXT
  5
7B84
  8
1TEXT
 10
628.73817854934134
 20
-252.87346921919561
 30
0.0
 40
4.0
  1
付属ねじ
  0
POINT
  5
80B5
  8
01
  6
CONTINUOUS
 10
773.46777569666062
 20
-268.46316593907949
 30
0.0
  0
POINT
  5
80B6
  8
01
  6
CONTINUOUS
 10
773.46777569666062
 20
-268.46316593907949
 30
0.0
  0
POINT
  5
80B7
  8
01
  6
CONTINUOUS
 10
805.46777169666063
 20
-268.46316593907949
 30
0.0
  0
POINT
  5
80B8
  8
01
  6
CONTINUOUS
 10
805.46777169666063
 20
-272.46316593907949
 30
0.0
  0
POINT
  5
80BA
  8
01
 10
805.46777169666063
 20
-252.46316683907941
 30
0.0
  0
POINT
  5
80BB
  8
01
 10
805.46777169666063
 20
-248.4631638390795
 30
0.0
  0
POINT
  5
80BE
  8
01
 10
778.46776909666085
 20
-248.9723100369801
 30
0.0
  0
POINT
  5
80BF
  8
01
 10
805.46776869666087
 20
-252.97231073698021
 30
0.0
  0
POINT
  5
80C0
  8
01
 10
783.46776909666085
 20
-228.97230973698009
 30
0.0
  0
POINT
  5
80C1
  8
01
 10
805.46776869666087
 20
-232.97231043698031
 30
0.0
  0
POINT
  5
80C2
  8
01
 10
778.46776909666085
 20
-248.9723100369801
 30
0.0
  0
POINT
  5
80C3
  8
01
 10
805.46776869666087
 20
-248.9723100369801
 30
0.0
  0
POINT
  5
80C4
  8
01
 10
783.46776909666085
 20
-228.97230973698009
 30
0.0
  0
POINT
  5
80C5
  8
01
 10
805.46776869666087
 20
-228.97230973698009
 30
0.0
  0
LINE
  5
80C6
  8
01
 10
778.46776909666085
 20
-252.97231073698021
 30
0.0
 11
778.46776909666085
 21
-248.9723100369801
 31
0.0
  0
LINE
  5
80C7
  8
01
 10
805.46776869666087
 20
-252.97231073698021
 30
0.0
 11
805.46776869666087
 21
-248.9723100369801
 31
0.0
  0
LINE
  5
80C8
  8
01
 10
778.46776909666085
 20
-252.97231073698021
 30
0.0
 11
805.46776869666087
 21
-252.97231073698021
 31
0.0
  0
LINE
  5
80C9
  8
01
 10
778.46776909666085
 20
-248.9723100369801
 30
0.0
 11
805.46776869666087
 21
-248.9723100369801
 31
0.0
  0
LINE
  5
80CA
  8
1CENTER
 10
776.95281369666077
 20
-250.97230953698019
 30
0.0
 11
806.67686369666069
 21
-250.97230953698019
 31
0.0
  0
LINE
  5
80CB
  8
1DIM
 10
778.46776909666085
 20
-248.97231043698031
 30
0.0
 11
805.46777069666075
 21
-252.97231073698021
 31
0.0
  0
LINE
  5
80CC
  8
1DIM
 10
778.4677681966607
 20
-252.97230973698021
 30
0.0
 11
805.46777069666075
 21
-248.97230953698019
 31
0.0
  0
LINE
  5
80CD
  8
01
 10
783.46776909666085
 20
-232.97231043698031
 30
0.0
 11
783.46776909666085
 21
-228.97230973698009
 31
0.0
  0
LINE
  5
80CE
  8
01
 10
805.46776869666087
 20
-232.97231043698031
 30
0.0
 11
805.46776869666087
 21
-228.97230973698009
 31
0.0
  0
LINE
  5
80CF
  8
01
 10
783.46776909666085
 20
-232.97231043698031
 30
0.0
 11
805.46776869666087
 21
-232.97231043698031
 31
0.0
  0
LINE
  5
80D0
  8
01
 10
783.46776909666085
 20
-228.97230973698009
 30
0.0
 11
805.46776869666087
 21
-228.97230973698009
 31
0.0
  0
LINE
  5
80D1
  8
1CENTER
 10
781.95281409666075
 20
-230.97230973698009
 30
0.0
 11
806.67686369666069
 21
-230.97230973698009
 31
0.0
  0
LINE
  5
80D2
  8
1DIM
 10
783.46776869666087
 20
-228.97230973698009
 30
0.0
 11
805.46776869666087
 21
-232.97230953698019
 31
0.0
  0
LINE
  5
80D3
  8
1DIM
 10
783.46776909666085
 20
-232.97230953698019
 30
0.0
 11
805.46776869666087
 21
-228.97230973698009
 31
0.0
  0
LINE
  5
80D4
  8
1DIM
 10
773.46777109666095
 20
-268.97231073698032
 30
0.0
 11
805.46777269666086
 21
-272.97231103698027
 31
0.0
  0
LINE
  5
80D5
  8
1DIM
 10
773.46777019666104
 20
-272.97231003698022
 30
0.0
 11
805.46777269666086
 21
-268.97230983698017
 31
0.0
  0
LINE
  5
80D6
  8
1CENTER
 10
771.95281569666065
 20
-270.97230983698017
 30
0.0
 11
806.6768656966608
 21
-270.97230983698017
 31
0.0
  0
LINE
  5
80D7
  8
01
 10
773.46777109666095
 20
-272.97231103698027
 30
0.0
 11
805.46777069666075
 21
-272.97231103698027
 31
0.0
  0
LINE
  5
80D8
  8
01
 10
773.46777109666095
 20
-268.97231033698017
 30
0.0
 11
805.46777069666075
 21
-268.97231033698017
 31
0.0
  0
POINT
  5
80DA
  8
01
 10
773.46777109666095
 20
-268.97231033698017
 30
0.0
  0
POINT
  5
80DB
  8
01
 10
773.46777109666095
 20
-268.97231033698017
 30
0.0
  0
LINE
  5
80DC
  8
01
 10
773.46777109666095
 20
-272.97231103698027
 30
0.0
 11
773.46777109666095
 21
-268.97231033698017
 31
0.0
  0
POINT
  5
80DD
  8
01
 10
805.46777369666086
 20
-272.46316713907942
 30
0.0
  0
POINT
  5
80DE
  8
01
 10
805.46777369666086
 20
-268.46316413907948
 30
0.0
  0
POINT
  5
80DF
  8
01
 10
805.46777069666075
 20
-272.97231103698027
 30
0.0
  0
POINT
  5
80E0
  8
01
 10
805.46777069666075
 20
-268.97231033698017
 30
0.0
  0
LINE
  5
80E1
  8
01
 10
805.46777069666075
 20
-272.97231103698027
 30
0.0
 11
805.46777069666075
 21
-268.97231033698017
 31
0.0
  0
TEXT
  5
80E4
  8
1TEXT
 10
867.95602481332969
 20
-257.42319538067238
 30
0.0
 40
4.0
  1
付属ねじ
  0
TEXT
  5
80E5
  8
1TEXT
 10
781.56881703520867
 20
-279.61602358842492
 30
0.0
 40
4.0
  1
付属角芯
  0
LINE
  5
80E7
  8
1DIM
 10
823.87924775633746
 20
-264.0189241274872
 30
0.0
 11
844.22924775633749
 21
-264.0189241274872
 31
0.0
  0
LINE
  5
80E8
  8
01
 10
824.22924775633737
 20
-263.66892412748717
 30
0.0
 11
844.57924758226352
 21
-263.66892412748717
 31
0.0
  0
LINE
  5
80E9
  8
1DIM
 10
823.87924775633769
 20
-267.31892412748709
 30
0.0
 11
844.22924775633749
 21
-267.31892412748709
 31
0.0
  0
LINE
  5
80EA
  8
01
 10
824.22924775633737
 20
-267.66892412748717
 30
0.0
 11
844.57924758226352
 21
-267.66892412748717
 31
0.0
  0
LINE
  5
80EB
  8
1CENTER
 10
822.28667889600661
 20
-265.66892412748717
 30
0.0
 11
847.43801665633737
 21
-265.66892412748717
 31
0.0
  0
LINE
  5
80EC
  8
01
 10
824.22924775633737
 20
-254.6564764991916
 30
0.0
 11
844.57924758226352
 21
-254.6564764991916
 31
0.0
  0
LINE
  5
80ED
  8
01
 10
824.22924775633737
 20
-258.65647649919163
 30
0.0
 11
844.57924758226352
 21
-258.65647649919163
 31
0.0
  0
LINE
  5
80EE
  8
1DIM
 10
823.87924775633769
 20
-258.30647649919149
 30
0.0
 11
844.22924775633749
 21
-258.30647649919149
 31
0.0
  0
LINE
  5
80EF
  8
1CENTER
 10
822.28667889600661
 20
-256.65647649919163
 30
0.0
 11
847.43801665633737
 21
-256.65647649919163
 31
0.0
  0
LINE
  5
80F0
  8
1DIM
 10
823.87924775633746
 20
-255.00647649919159
 30
0.0
 11
844.22924775633749
 21
-255.00647649919159
 31
0.0
  0
LINE
  5
80F5
  8
1DIM
 10
824.22924775633737
 20
-263.66892412748717
 30
0.0
 11
824.22924775633737
 21
-267.66892412748717
 31
0.0
  0
LINE
  5
80F6
  8
01
 10
823.87924775633746
 20
-267.31892412748709
 30
0.0
 11
824.22924775633737
 21
-267.66892412748717
 31
0.0
  0
LINE
  5
80F7
  8
01
 10
823.87924775633746
 20
-264.0189241274872
 30
0.0
 11
823.87924775633746
 21
-267.31892412748709
 31
0.0
  0
LINE
  5
80F8
  8
01
 10
824.22924775633737
 20
-263.66892412748717
 30
0.0
 11
823.87924775633746
 21
-264.0189241274872
 31
0.0
  0
LINE
  5
80F9
  8
01
 10
824.22924775633737
 20
-254.6564764991916
 30
0.0
 11
823.87924775633746
 21
-255.00647649919159
 31
0.0
  0
LINE
  5
80FA
  8
01
 10
823.87924775633746
 20
-255.00647649919159
 30
0.0
 11
823.87924775633746
 21
-258.30647649919138
 31
0.0
  0
LINE
  5
80FB
  8
01
 10
823.87924775633746
 20
-258.30647649919138
 30
0.0
 11
824.22924775633737
 21
-258.65647649919163
 31
0.0
  0
LINE
  5
80FC
  8
1DIM
 10
824.22924775633737
 20
-254.6564764991916
 30
0.0
 11
824.22924775633737
 21
-258.65647649919163
 31
0.0
  0
LINE
  5
80FE
  8
01
 10
844.57924758226352
 20
-263.66892412748717
 30
0.0
 11
845.57924774633739
 21
-262.66892412748717
 31
0.0
  0
LINE
  5
80FF
  8
01
 10
844.57924758226352
 20
-267.66892412748717
 30
0.0
 11
845.57924765633766
 21
-268.66892412748717
 31
0.0
  0
LINE
  5
8100
  8
1DIM
 10
844.57924758226352
 20
-267.66892412748717
 30
0.0
 11
844.22924775633749
 21
-267.31892412748709
 31
0.0
  0
LINE
  5
8101
  8
1DIM
 10
844.22924775633749
 20
-264.0189241274872
 30
0.0
 11
844.57924758226352
 21
-263.66892412748717
 31
0.0
  0
LINE
  5
8102
  8
01
 10
845.57924774633739
 20
-262.66892412748717
 30
0.0
 11
845.87924775633758
 21
-262.66892412748717
 31
0.0
  0
LINE
  5
8103
  8
01
 10
845.87924775633758
 20
-262.66892412748717
 30
0.0
 11
845.87924775633758
 21
-268.66892412748717
 31
0.0
  0
LINE
  5
8104
  8
01
 10
845.57924765633766
 20
-268.66892412748717
 30
0.0
 11
845.87924775633758
 21
-268.66892412748717
 31
0.0
  0
LINE
  5
8105
  8
01
 10
845.57924774633739
 20
-262.66892412748717
 30
0.0
 11
845.57924774633739
 21
-268.66892412748717
 31
0.0
  0
LINE
  5
8106
  8
01
 10
844.57924758226352
 20
-254.6564764991916
 30
0.0
 11
845.57924774633739
 21
-253.6564764991916
 31
0.0
  0
LINE
  5
8107
  8
01
 10
844.57924758226352
 20
-258.65647649919163
 30
0.0
 11
845.57924765633766
 21
-259.65647649919163
 31
0.0
  0
LINE
  5
8108
  8
1DIM
 10
844.22924775633749
 20
-255.00647649919159
 30
0.0
 11
844.57924758226352
 21
-254.6564764991916
 31
0.0
  0
LINE
  5
8109
  8
1DIM
 10
844.57924758226352
 20
-258.65647649919163
 30
0.0
 11
844.22924775633749
 21
-258.30647649919149
 31
0.0
  0
LINE
  5
810A
  8
01
 10
845.57924774633739
 20
-253.6564764991916
 30
0.0
 11
845.87924775633758
 21
-253.6564764991916
 31
0.0
  0
LINE
  5
810B
  8
01
 10
845.87924775633758
 20
-253.6564764991916
 30
0.0
 11
845.87924775633758
 21
-259.65647649919163
 31
0.0
  0
LINE
  5
810C
  8
01
 10
845.57924765633766
 20
-259.65647649919163
 30
0.0
 11
845.87924775633758
 21
-259.65647649919163
 31
0.0
  0
LINE
  5
810D
  8
01
 10
845.57924774633739
 20
-253.6564764991916
 30
0.0
 11
845.57924774633739
 21
-259.65647649919163
 31
0.0
  0
LINE
  5
8243
  8
01
 10
833.69711782771628
 20
-128.7622581038199
 30
0.0
 11
839.69709078017002
 21
-128.7622581038199
 31
0.0
  0
ARC
  5
8244
  8
01
 10
833.69711782771628
 20
-129.7622581038199
 30
0.0
 40
1.0
 50
90.0
 51
180.0
  0
LINE
  5
8245
  8
01
 10
832.76664288625625
 20
-120.7622599006479
 30
0.0
 11
834.49905078017002
 21
-120.7622581038199
 31
0.0
  0
ARC
  5
8246
  8
01
 10
844.69709078017002
 20
-126.7622581038199
 30
0.0
 40
10.0
 50
119.9999999999999
 51
132.83341999999439
  0
ARC
  5
8247
  8
01
 10
834.49905078017002
 20
-115.76225810382
 30
0.0
 40
5.0
 50
270.0
 51
312.83343000000059
  0
LINE
  5
8248
  8
01
 10
832.6971178277164
 20
-137.7622599006479
 30
0.0
 11
832.6971178277164
 21
-129.7622581038199
 31
0.0
  0
LINE
  5
8249
  8
01
 10
830.89169591781786
 20
-138.7622599006479
 30
0.0
 11
831.6971178277164
 21
-138.7622599006479
 31
0.0
  0
ARC
  5
824A
  8
01
 10
831.6971178277164
 20
-137.7622599006479
 30
0.0
 40
1.0
 50
270.0
 51
0.0
  0
ARC
  5
824B
  8
01
 10
877.69714487526312
 20
-123.26226169747579
 30
0.0
 40
50.0
 50
183.1847362453862
 51
197.2126126623034
  0
ARC
  5
824C
  8
01
 10
830.89169591781786
 20
-137.7622599006479
 30
0.0
 40
1.0
 50
197.2126126623034
 51
270.0
  0
ARC
  5
824D
  8
01
 10
832.76664288625625
 20
-125.7622599006479
 30
0.0
 40
5.0
 50
90.0
 51
183.1847362453862
  0
LINE
  5
824E
  8
01
 10
764.69718773262355
 20
-128.7622581038199
 30
0.0
 11
758.69721478016993
 21
-128.7622581038199
 31
0.0
  0
ARC
  5
824F
  8
01
 10
764.69718773262355
 20
-129.7622581038199
 30
0.0
 40
1.0
 50
0.0
 51
90.0
  0
LINE
  5
8250
  8
01
 10
765.62766267408358
 20
-120.7622599006479
 30
0.0
 11
763.89525478016992
 21
-120.7622581038199
 31
0.0
  0
ARC
  5
8251
  8
01
 10
753.69721478016993
 20
-126.7622581038199
 30
0.0
 40
10.0
 50
47.166580000007698
 51
59.999999999999858
  0
ARC
  5
8252
  8
01
 10
763.89525478016992
 20
-115.76225810382
 30
0.0
 40
5.0
 50
227.16656999999941
 51
270.0
  0
LINE
  5
8253
  8
01
 10
765.69718773262355
 20
-137.7622599006479
 30
0.0
 11
765.69718773262355
 21
-129.7622581038199
 31
0.0
  0
LINE
  5
8254
  8
01
 10
767.50260964252197
 20
-138.7622599006479
 30
0.0
 11
766.69718773262355
 21
-138.7622599006479
 31
0.0
  0
ARC
  5
8255
  8
01
 10
766.69718773262355
 20
-137.7622599006479
 30
0.0
 40
1.0
 50
180.0
 51
270.0
  0
ARC
  5
8256
  8
01
 10
720.69716068507694
 20
-123.26226169747579
 30
0.0
 40
50.0
 50
342.78738733769637
 51
356.8152637546138
  0
ARC
  5
8257
  8
01
 10
767.50260964252197
 20
-137.7622599006479
 30
0.0
 40
1.0
 50
270.0
 51
342.78738733769637
  0
ARC
  5
8258
  8
01
 10
765.62766267408358
 20
-125.7622599006479
 30
0.0
 40
5.0
 50
356.8152637546138
 51
90.0
  0
LINE
  5
826B
  8
01
 10
827.76664288625625
 20
-198.02396057194301
 30
0.0
 11
827.76664288625625
 21
-201.02396057194301
 31
0.0
  0
ARC
  5
8377
  8
01
  6
BYBLOCK
 10
877.69712178067459
 20
-135.2621871685478
 30
0.0
 40
15.800042498286871
 50
359.99987281343658
 51
179.99994607757489
  0
ARC
  5
8378
  8
01
  6
BYBLOCK
 10
-877.69713477572691
 20
-135.26224017560639
 30
0.0
 40
19.500029503205379
210
0.0
220
0.0
230
-1.0
 50
179.99994730635319
 51
0.0000144324040976
  0
ARC
  5
837D
  8
01
  6
BYBLOCK
 10
877.69712178016982
 20
-135.2622562038201
 30
0.0
 40
15.800042498788461
 50
179.99987683804471
 51
0.0001231559691121
  0
ARC
  5
837E
  8
01
  6
BYBLOCK
 10
-877.69713477560697
 20
-135.26220656981019
 30
0.0
 40
19.50002950332377
210
0.0
220
0.0
230
-1.0
 50
359.99995394867852
 51
180.0000460478235
  0
ARC
  5
8381
  8
01
  6
BYBLOCK
 10
877.69712178067459
 20
-135.2621871685478
 30
0.0
 40
15.800042498286871
 50
359.99987281343658
 51
179.99994607757489
  0
ARC
  5
8382
  8
01
  6
BYBLOCK
 10
-877.69713477572691
 20
-135.26224017560639
 30
0.0
 40
19.500029503205379
210
0.0
220
0.0
230
-1.0
 50
179.99994730635319
 51
0.0000144324040976
  0
ARC
  5
8387
  8
01
  6
BYBLOCK
 10
877.69712178016982
 20
-135.2622562038201
 30
0.0
 40
15.800042498788461
 50
179.99987683804471
 51
0.0001231559691121
  0
ARC
  5
8388
  8
01
  6
BYBLOCK
 10
-877.69713477560697
 20
-135.26220656981019
 30
0.0
 40
19.50002950332377
210
0.0
220
0.0
230
-1.0
 50
359.99995394867852
 51
180.0000460478235
  0
LINE
  5
838B
  8
01
  6
BYBLOCK
 10
892.41853475583241
 20
-138.06225620382011
 30
0.0
 11
862.97570880450689
 21
-138.06225620382011
 31
0.0
  0
LINE
  5
838C
  8
01
  6
BYBLOCK
 10
892.41853475583241
 20
-132.46225620382009
 30
0.0
 11
862.97570880450712
 21
-132.46225620382
 31
0.0
  0
ARC
  5
838D
  8
01
  6
BYBLOCK
 10
877.69712178016982
 20
-135.26225620381999
 30
0.0
 40
15.4
 50
351.12017963960062
 51
8.8798203603994246
  0
ARC
  5
838E
  8
01
  6
BYBLOCK
 10
892.41853475583241
 20
-137.56225620382011
 30
0.0
 40
0.5
 50
270.0
 51
351.12017963959403
  0
ARC
  5
838F
  8
01
  6
BYBLOCK
 10
892.41853475583241
 20
-132.96225620382009
 30
0.0
 40
0.5
 50
8.8798203603994246
 51
90.0
  0
ARC
  5
8390
  8
01
  6
BYBLOCK
 10
877.69712178016982
 20
-135.26225620381999
 30
0.0
 40
15.4
 50
171.12017963960059
 51
188.87982036039941
  0
ARC
  5
8391
  8
01
  6
BYBLOCK
 10
862.97570880450712
 20
-132.96225620382
 30
0.0
 40
0.5
 50
90.0
 51
171.120179639594
  0
ARC
  5
8392
  8
01
  6
BYBLOCK
 10
862.97570880450689
 20
-137.56225620382
 30
0.0
 40
0.5
 50
188.87982036039941
 51
270.0
  0
ARC
  5
8393
  8
01
  6
BYBLOCK
 10
877.69712178016982
 20
-135.26225620381999
 30
0.0
 40
5.4000000000000004
 50
31.232929015516071
 51
148.76707098448389
  0
ARC
  5
8394
  8
01
  6
BYBLOCK
 10
877.69712178016982
 20
-135.26225620381999
 30
0.0
 40
5.4000000000000004
 50
211.23292901551611
 51
328.76707098448401
  0
CIRCLE
  5
8395
  8
01
  6
BYBLOCK
 10
720.69718378016989
 20
-135.26225620381999
 30
0.0
 40
19.999999500748881
  0
CIRCLE
  5
8396
  8
01
  6
BYBLOCK
 10
720.69718378016989
 20
-135.26225620381999
 30
0.0
 40
5.5
  0
CIRCLE
  5
8397
  8
01
  6
BYBLOCK
 10
720.69718378016944
 20
-127.2622562038201
 30
0.0000000000003411
 40
1.25
  0
LINE
  5
8398
  8
01
  6
BYBLOCK
 10
811.69715278017043
 20
-135.26225620381999
 30
0.0
 11
811.69715192779813
 21
-154.76225620381999
 31
0.0
  0
LINE
  5
8399
  8
01
  6
BYBLOCK
 10
811.69715192779813
 20
-115.7622562038201
 30
0.0
 11
811.69715278017043
 21
-135.26225620381999
 31
0.0
  0
POLYLINE
  8
01
  5
8D86
  66
     1
 10
0.000000
 20
0.000000
 30
0.000000
  70
     8
  0
VERTEX
  8
01
  5
8D87
 10
812.897
 20
-116.262
 30
0.000000
  70
    32
  0
VERTEX
  8
01
  5
8D88
 10
812.897
 20
-116.262
 30
0.000000
  70
    32
  0
VERTEX
  8
01
  5
8D89
 10
812.897
 20
-116.263
 30
0.000000
  70
    32
  0
VERTEX
  8
01
  5
8D8A
 10
812.897
 20
-116.264
 30
0.000000
  70
    32
  0
VERTEX
  8
01
  5
8D8B
 10
812.897
 20
-116.265
 30
0.000000
  70
    32
  0
VERTEX
  8
01
  5
8D8C
 10
812.897
 20
-116.267
 30
0.000000
  70
    32
  0
VERTEX
  8
01
  5
8D8D
 10
812.897
 20
-116.269
 30
0.000000
  70
    32
  0
VERTEX
  8
01
  5
8D8E
 10
812.897
 20
-116.272
 30
0.000000
  70
    32
  0
VERTEX
  8
01
  5
8D8F
 10
812.897
 20
-116.274
 30
0.000000
  70
    32
  0
VERTEX
  8
01
  5
8D90
 10
812.897
 20
-116.278
 30
0.000000
  70
    32
  0
VERTEX
  8
01
  5
8D91
 10
812.897
 20
-116.281
 30
0.000000
  70
    32
  0
VERTEX
  8
01
  5
8D92
 10
812.897
 20
-116.285
 30
0.000000
  70
    32
  0
VERTEX
  8
01
  5
8D93
 10
812.897
 20
-116.290
 30
0.000000
  70
    32
  0
VERTEX
  8
01
  5
8D94
 10
812.897
 20
-116.294
 30
0.000000
  70
    32
  0
VERTEX
  8
01
  5
8D95
 10
812.897
 20
-116.300
 30
0.000000
  70
    32
  0
VERTEX
  8
01
  5
8D96
 10
812.897
 20
-116.305
 30
0.000000
  70
    32
  0
VERTEX
  8
01
  5
8D97
 10
812.897
 20
-116.311
 30
0.000000
  70
    32
  0
VERTEX
  8
01
  5
8D98
 10
812.897
 20
-116.317
 30
0.000000
  70
    32
  0
VERTEX
  8
01
  5
8D99
 10
812.897
 20
-116.324
 30
0.000000
  70
    32
  0
VERTEX
  8
01
  5
8D9A
 10
812.897
 20
-116.331
 30
0.000000
  70
    32
  0
VERTEX
  8
01
  5
8D9B
 10
812.897
 20
-116.338
 30
0.000000
  70
    32
  0
VERTEX
  8
01
  5
8D9C
 10
812.897
 20
-116.346
 30
0.000000
  70
    32
  0
VERTEX
  8
01
  5
8D9D
 10
812.897
 20
-116.354
 30
0.000000
  70
    32
  0
VERTEX
  8
01
  5
8D9E
 10
812.897
 20
-116.363
 30
0.000000
  70
    32
  0
VERTEX
  8
01
  5
8D9F
 10
812.897
 20
-116.372
 30
0.000000
  70
    32
  0
VERTEX
  8
01
  5
8DA0
 10
812.897
 20
-116.381
 30
0.000000
  70
    32
  0
VERTEX
  8
01
  5
8DA1
 10
812.897
 20
-116.391
 30
0.000000
  70
    32
  0
VERTEX
  8
01
  5
8DA2
 10
812.897
 20
-116.401
 30
0.000000
  70
    32
  0
VERTEX
  8
01
  5
8DA3
 10
812.897
 20
-116.411
 30
0.000000
  70
    32
  0
VERTEX
  8
01
  5
8DA4
 10
812.897
 20
-116.422
 30
0.000000
  70
    32
  0
VERTEX
  8
01
  5
8DA5
 10
812.897
 20
-116.433
 30
0.000000
  70
    32
  0
VERTEX
  8
01
  5
8DA6
 10
812.897
 20
-116.445
 30
0.000000
  70
    32
  0
VERTEX
  8
01
  5
8DA7
 10
812.897
 20
-116.457
 30
0.000000
  70
    32
  0
VERTEX
  8
01
  5
8DA8
 10
812.897
 20
-116.469
 30
0.000000
  70
    32
  0
VERTEX
  8
01
  5
8DA9
 10
812.897
 20
-116.482
 30
0.000000
  70
    32
  0
VERTEX
  8
01
  5
8DAA
 10
812.897
 20
-116.495
 30
0.000000
  70
    32
  0
VERTEX
  8
01
  5
8DAB
 10
812.897
 20
-116.508
 30
0.000000
  70
    32
  0
VERTEX
  8
01
  5
8DAC
 10
812.897
 20
-116.522
 30
0.000000
  70
    32
  0
VERTEX
  8
01
  5
8DAD
 10
812.897
 20
-116.536
 30
0.000000
  70
    32
  0
VERTEX
  8
01
  5
8DAE
 10
812.897
 20
-116.551
 30
0.000000
  70
    32
  0
VERTEX
  8
01
  5
8DAF
 10
812.897
 20
-116.566
 30
0.000000
  70
    32
  0
VERTEX
  8
01
  5
8DB0
 10
812.897
 20
-116.581
 30
0.000000
  70
    32
  0
VERTEX
  8
01
  5
8DB1
 10
812.897
 20
-116.597
 30
0.000000
  70
    32
  0
VERTEX
  8
01
  5
8DB2
 10
812.897
 20
-116.613
 30
0.000000
  70
    32
  0
VERTEX
  8
01
  5
8DB3
 10
812.897
 20
-116.629
 30
0.000000
  70
    32
  0
VERTEX
  8
01
  5
8DB4
 10
812.897
 20
-116.646
 30
0.000000
  70
    32
  0
VERTEX
  8
01
  5
8DB5
 10
812.897
 20
-116.663
 30
0.000000
  70
    32
  0
VERTEX
  8
01
  5
8DB6
 10
812.897
 20
-116.681
 30
0.000000
  70
    32
  0
VERTEX
  8
01
  5
8DB7
 10
812.897
 20
-116.699
 30
0.000000
  70
    32
  0
VERTEX
  8
01
  5
8DB8
 10
812.897
 20
-116.717
 30
0.000000
  70
    32
  0
VERTEX
  8
01
  5
8DB9
 10
812.897
 20
-116.736
 30
0.000000
  70
    32
  0
VERTEX
  8
01
  5
8DBA
 10
812.897
 20
-116.755
 30
0.000000
  70
    32
  0
VERTEX
  8
01
  5
8DBB
 10
812.897
 20
-116.774
 30
0.000000
  70
    32
  0
VERTEX
  8
01
  5
8DBC
 10
812.897
 20
-116.794
 30
0.000000
  70
    32
  0
VERTEX
  8
01
  5
8DBD
 10
812.897
 20
-116.814
 30
0.000000
  70
    32
  0
VERTEX
  8
01
  5
8DBE
 10
812.897
 20
-116.835
 30
0.000000
  70
    32
  0
VERTEX
  8
01
  5
8DBF
 10
812.897
 20
-116.856
 30
0.000000
  70
    32
  0
VERTEX
  8
01
  5
8DC0
 10
812.897
 20
-116.877
 30
0.000000
  70
    32
  0
VERTEX
  8
01
  5
8DC1
 10
812.897
 20
-116.899
 30
0.000000
  70
    32
  0
VERTEX
  8
01
  5
8DC2
 10
812.897
 20
-116.921
 30
0.000000
  70
    32
  0
VERTEX
  8
01
  5
8DC3
 10
812.897
 20
-116.943
 30
0.000000
  70
    32
  0
VERTEX
  8
01
  5
8DC4
 10
812.897
 20
-116.966
 30
0.000000
  70
    32
  0
VERTEX
  8
01
  5
8DC5
 10
812.897
 20
-116.989
 30
0.000000
  70
    32
  0
VERTEX
  8
01
  5
8DC6
 10
812.897
 20
-117.012
 30
0.000000
  70
    32
  0
VERTEX
  8
01
  5
8DC7
 10
812.897
 20
-117.036
 30
0.000000
  70
    32
  0
VERTEX
  8
01
  5
8DC8
 10
812.897
 20
-117.060
 30
0.000000
  70
    32
  0
VERTEX
  8
01
  5
8DC9
 10
812.897
 20
-117.085
 30
0.000000
  70
    32
  0
VERTEX
  8
01
  5
8DCA
 10
812.897
 20
-117.110
 30
0.000000
  70
    32
  0
VERTEX
  8
01
  5
8DCB
 10
812.897
 20
-117.135
 30
0.000000
  70
    32
  0
VERTEX
  8
01
  5
8DCC
 10
812.897
 20
-117.161
 30
0.000000
  70
    32
  0
VERTEX
  8
01
  5
8DCD
 10
812.897
 20
-117.187
 30
0.000000
  70
    32
  0
VERTEX
  8
01
  5
8DCE
 10
812.897
 20
-117.213
 30
0.000000
  70
    32
  0
VERTEX
  8
01
  5
8DCF
 10
812.897
 20
-117.240
 30
0.000000
  70
    32
  0
VERTEX
  8
01
  5
8DD0
 10
812.897
 20
-117.267
 30
0.000000
  70
    32
  0
VERTEX
  8
01
  5
8DD1
 10
812.897
 20
-117.295
 30
0.000000
  70
    32
  0
VERTEX
  8
01
  5
8DD2
 10
812.897
 20
-117.322
 30
0.000000
  70
    32
  0
VERTEX
  8
01
  5
8DD3
 10
812.897
 20
-117.351
 30
0.000000
  70
    32
  0
VERTEX
  8
01
  5
8DD4
 10
812.897
 20
-117.379
 30
0.000000
  70
    32
  0
VERTEX
  8
01
  5
8DD5
 10
812.897
 20
-117.408
 30
0.000000
  70
    32
  0
VERTEX
  8
01
  5
8DD6
 10
812.897
 20
-117.437
 30
0.000000
  70
    32
  0
VERTEX
  8
01
  5
8DD7
 10
812.897
 20
-117.467
 30
0.000000
  70
    32
  0
VERTEX
  8
01
  5
8DD8
 10
812.897
 20
-117.497
 30
0.000000
  70
    32
  0
VERTEX
  8
01
  5
8DD9
 10
812.897
 20
-117.527
 30
0.000000
  70
    32
  0
VERTEX
  8
01
  5
8DDA
 10
812.897
 20
-117.558
 30
0.000000
  70
    32
  0
VERTEX
  8
01
  5
8DDB
 10
812.897
 20
-117.589
 30
0.000000
  70
    32
  0
VERTEX
  8
01
  5
8DDC
 10
812.897
 20
-117.620
 30
0.000000
  70
    32
  0
VERTEX
  8
01
  5
8DDD
 10
812.897
 20
-117.652
 30
0.000000
  70
    32
  0
VERTEX
  8
01
  5
8DDE
 10
812.897
 20
-117.684
 30
0.000000
  70
    32
  0
VERTEX
  8
01
  5
8DDF
 10
812.897
 20
-117.717
 30
0.000000
  70
    32
  0
VERTEX
  8
01
  5
8DE0
 10
812.897
 20
-117.749
 30
0.000000
  70
    32
  0
VERTEX
  8
01
  5
8DE1
 10
812.897
 20
-117.783
 30
0.000000
  70
    32
  0
VERTEX
  8
01
  5
8DE2
 10
812.897
 20
-117.816
 30
0.000000
  70
    32
  0
VERTEX
  8
01
  5
8DE3
 10
812.897
 20
-117.850
 30
0.000000
  70
    32
  0
VERTEX
  8
01
  5
8DE4
 10
812.897
 20
-117.884
 30
0.000000
  70
    32
  0
VERTEX
  8
01
  5
8DE5
 10
812.897
 20
-117.919
 30
0.000000
  70
    32
  0
VERTEX
  8
01
  5
8DE6
 10
812.897
 20
-117.954
 30
0.000000
  70
    32
  0
VERTEX
  8
01
  5
8DE7
 10
812.897
 20
-117.989
 30
0.000000
  70
    32
  0
VERTEX
  8
01
  5
8DE8
 10
812.897
 20
-118.024
 30
0.000000
  70
    32
  0
VERTEX
  8
01
  5
8DE9
 10
812.897
 20
-118.060
 30
0.000000
  70
    32
  0
VERTEX
  8
01
  5
8DEA
 10
812.897
 20
-118.097
 30
0.000000
  70
    32
  0
VERTEX
  8
01
  5
8DEB
 10
812.897
 20
-118.133
 30
0.000000
  70
    32
  0
VERTEX
  8
01
  5
8DEC
 10
812.897
 20
-118.170
 30
0.000000
  70
    32
  0
VERTEX
  8
01
  5
8DED
 10
812.897
 20
-118.208
 30
0.000000
  70
    32
  0
VERTEX
  8
01
  5
8DEE
 10
812.897
 20
-118.245
 30
0.000000
  70
    32
  0
VERTEX
  8
01
  5
8DEF
 10
812.897
 20
-118.283
 30
0.000000
  70
    32
  0
VERTEX
  8
01
  5
8DF0
 10
812.897
 20
-118.322
 30
0.000000
  70
    32
  0
VERTEX
  8
01
  5
8DF1
 10
812.897
 20
-118.360
 30
0.000000
  70
    32
  0
VERTEX
  8
01
  5
8DF2
 10
812.897
 20
-118.399
 30
0.000000
  70
    32
  0
VERTEX
  8
01
  5
8DF3
 10
812.897
 20
-118.439
 30
0.000000
  70
    32
  0
VERTEX
  8
01
  5
8DF4
 10
812.897
 20
-118.478
 30
0.000000
  70
    32
  0
VERTEX
  8
01
  5
8DF5
 10
812.897
 20
-118.518
 30
0.000000
  70
    32
  0
VERTEX
  8
01
  5
8DF6
 10
812.897
 20
-118.559
 30
0.000000
  70
    32
  0
VERTEX
  8
01
  5
8DF7
 10
812.897
 20
-118.599
 30
0.000000
  70
    32
  0
VERTEX
  8
01
  5
8DF8
 10
812.897
 20
-118.640
 30
0.000000
  70
    32
  0
VERTEX
  8
01
  5
8DF9
 10
812.897
 20
-118.682
 30
0.000000
  70
    32
  0
VERTEX
  8
01
  5
8DFA
 10
812.897
 20
-118.723
 30
0.000000
  70
    32
  0
VERTEX
  8
01
  5
8DFB
 10
812.897
 20
-118.765
 30
0.000000
  70
    32
  0
VERTEX
  8
01
  5
8DFC
 10
812.897
 20
-118.808
 30
0.000000
  70
    32
  0
VERTEX
  8
01
  5
8DFD
 10
812.897
 20
-118.850
 30
0.000000
  70
    32
  0
VERTEX
  8
01
  5
8DFE
 10
812.897
 20
-118.893
 30
0.000000
  70
    32
  0
VERTEX
  8
01
  5
8DFF
 10
812.897
 20
-118.937
 30
0.000000
  70
    32
  0
VERTEX
  8
01
  5
8E00
 10
812.897
 20
-118.980
 30
0.000000
  70
    32
  0
VERTEX
  8
01
  5
8E01
 10
812.897
 20
-119.024
 30
0.000000
  70
    32
  0
VERTEX
  8
01
  5
8E02
 10
812.897
 20
-119.069
 30
0.000000
  70
    32
  0
VERTEX
  8
01
  5
8E03
 10
812.897
 20
-119.113
 30
0.000000
  70
    32
  0
VERTEX
  8
01
  5
8E04
 10
812.897
 20
-119.158
 30
0.000000
  70
    32
  0
VERTEX
  8
01
  5
8E05
 10
812.897
 20
-119.204
 30
0.000000
  70
    32
  0
VERTEX
  8
01
  5
8E06
 10
812.897
 20
-119.249
 30
0.000000
  70
    32
  0
VERTEX
  8
01
  5
8E07
 10
812.897
 20
-119.295
 30
0.000000
  70
    32
  0
VERTEX
  8
01
  5
8E08
 10
812.897
 20
-119.341
 30
0.000000
  70
    32
  0
VERTEX
  8
01
  5
8E09
 10
812.897
 20
-119.388
 30
0.000000
  70
    32
  0
VERTEX
  8
01
  5
8E0A
 10
812.897
 20
-119.435
 30
0.000000
  70
    32
  0
VERTEX
  8
01
  5
8E0B
 10
812.897
 20
-119.482
 30
0.000000
  70
    32
  0
VERTEX
  8
01
  5
8E0C
 10
812.897
 20
-119.530
 30
0.000000
  70
    32
  0
VERTEX
  8
01
  5
8E0D
 10
812.897
 20
-119.577
 30
0.000000
  70
    32
  0
VERTEX
  8
01
  5
8E0E
 10
812.897
 20
-119.626
 30
0.000000
  70
    32
  0
VERTEX
  8
01
  5
8E0F
 10
812.897
 20
-119.674
 30
0.000000
  70
    32
  0
VERTEX
  8
01
  5
8E10
 10
812.897
 20
-119.723
 30
0.000000
  70
    32
  0
VERTEX
  8
01
  5
8E11
 10
812.897
 20
-119.772
 30
0.000000
  70
    32
  0
VERTEX
  8
01
  5
8E12
 10
812.897
 20
-119.821
 30
0.000000
  70
    32
  0
VERTEX
  8
01
  5
8E13
 10
812.897
 20
-119.871
 30
0.000000
  70
    32
  0
VERTEX
  8
01
  5
8E14
 10
812.897
 20
-119.921
 30
0.000000
  70
    32
  0
VERTEX
  8
01
  5
8E15
 10
812.897
 20
-119.971
 30
0.000000
  70
    32
  0
VERTEX
  8
01
  5
8E16
 10
812.897
 20
-120.022
 30
0.000000
  70
    32
  0
VERTEX
  8
01
  5
8E17
 10
812.897
 20
-120.073
 30
0.000000
  70
    32
  0
VERTEX
  8
01
  5
8E18
 10
812.897
 20
-120.124
 30
0.000000
  70
    32
  0
VERTEX
  8
01
  5
8E19
 10
812.897
 20
-120.176
 30
0.000000
  70
    32
  0
VERTEX
  8
01
  5
8E1A
 10
812.897
 20
-120.227
 30
0.000000
  70
    32
  0
VERTEX
  8
01
  5
8E1B
 10
812.897
 20
-120.280
 30
0.000000
  70
    32
  0
VERTEX
  8
01
  5
8E1C
 10
812.897
 20
-120.332
 30
0.000000
  70
    32
  0
VERTEX
  8
01
  5
8E1D
 10
812.897
 20
-120.385
 30
0.000000
  70
    32
  0
VERTEX
  8
01
  5
8E1E
 10
812.897
 20
-120.438
 30
0.000000
  70
    32
  0
VERTEX
  8
01
  5
8E1F
 10
812.897
 20
-120.491
 30
0.000000
  70
    32
  0
VERTEX
  8
01
  5
8E20
 10
812.897
 20
-120.545
 30
0.000000
  70
    32
  0
VERTEX
  8
01
  5
8E21
 10
812.897
 20
-120.599
 30
0.000000
  70
    32
  0
VERTEX
  8
01
  5
8E22
 10
812.897
 20
-120.653
 30
0.000000
  70
    32
  0
VERTEX
  8
01
  5
8E23
 10
812.897
 20
-120.707
 30
0.000000
  70
    32
  0
VERTEX
  8
01
  5
8E24
 10
812.897
 20
-120.762
 30
0.000000
  70
    32
  0
VERTEX
  8
01
  5
8E25
 10
812.897
 20
-120.817
 30
0.000000
  70
    32
  0
VERTEX
  8
01
  5
8E26
 10
812.897
 20
-120.873
 30
0.000000
  70
    32
  0
VERTEX
  8
01
  5
8E27
 10
812.897
 20
-120.928
 30
0.000000
  70
    32
  0
VERTEX
  8
01
  5
8E28
 10
812.897
 20
-120.984
 30
0.000000
  70
    32
  0
VERTEX
  8
01
  5
8E29
 10
812.897
 20
-121.041
 30
0.000000
  70
    32
  0
VERTEX
  8
01
  5
8E2A
 10
812.897
 20
-121.097
 30
0.000000
  70
    32
  0
VERTEX
  8
01
  5
8E2B
 10
812.897
 20
-121.154
 30
0.000000
  70
    32
  0
VERTEX
  8
01
  5
8E2C
 10
812.897
 20
-121.211
 30
0.000000
  70
    32
  0
VERTEX
  8
01
  5
8E2D
 10
812.897
 20
-121.268
 30
0.000000
  70
    32
  0
VERTEX
  8
01
  5
8E2E
 10
812.897
 20
-121.326
 30
0.000000
  70
    32
  0
VERTEX
  8
01
  5
8E2F
 10
812.897
 20
-121.384
 30
0.000000
  70
    32
  0
VERTEX
  8
01
  5
8E30
 10
812.897
 20
-121.442
 30
0.000000
  70
    32
  0
VERTEX
  8
01
  5
8E31
 10
812.897
 20
-121.501
 30
0.000000
  70
    32
  0
VERTEX
  8
01
  5
8E32
 10
812.897
 20
-121.559
 30
0.000000
  70
    32
  0
VERTEX
  8
01
  5
8E33
 10
812.897
 20
-121.618
 30
0.000000
  70
    32
  0
VERTEX
  8
01
  5
8E34
 10
812.897
 20
-121.678
 30
0.000000
  70
    32
  0
VERTEX
  8
01
  5
8E35
 10
812.897
 20
-121.737
 30
0.000000
  70
    32
  0
VERTEX
  8
01
  5
8E36
 10
812.897
 20
-121.797
 30
0.000000
  70
    32
  0
VERTEX
  8
01
  5
8E37
 10
812.897
 20
-121.857
 30
0.000000
  70
    32
  0
VERTEX
  8
01
  5
8E38
 10
812.897
 20
-121.918
 30
0.000000
  70
    32
  0
VERTEX
  8
01
  5
8E39
 10
812.897
 20
-121.978
 30
0.000000
  70
    32
  0
VERTEX
  8
01
  5
8E3A
 10
812.897
 20
-122.039
 30
0.000000
  70
    32
  0
VERTEX
  8
01
  5
8E3B
 10
812.897
 20
-122.100
 30
0.000000
  70
    32
  0
VERTEX
  8
01
  5
8E3C
 10
812.897
 20
-122.162
 30
0.000000
  70
    32
  0
VERTEX
  8
01
  5
8E3D
 10
812.897
 20
-122.224
 30
0.000000
  70
    32
  0
VERTEX
  8
01
  5
8E3E
 10
812.897
 20
-122.286
 30
0.000000
  70
    32
  0
VERTEX
  8
01
  5
8E3F
 10
812.897
 20
-122.348
 30
0.000000
  70
    32
  0
VERTEX
  8
01
  5
8E40
 10
812.897
 20
-122.410
 30
0.000000
  70
    32
  0
VERTEX
  8
01
  5
8E41
 10
812.897
 20
-122.473
 30
0.000000
  70
    32
  0
VERTEX
  8
01
  5
8E42
 10
812.897
 20
-122.536
 30
0.000000
  70
    32
  0
VERTEX
  8
01
  5
8E43
 10
812.897
 20
-122.599
 30
0.000000
  70
    32
  0
VERTEX
  8
01
  5
8E44
 10
812.897
 20
-122.663
 30
0.000000
  70
    32
  0
VERTEX
  8
01
  5
8E45
 10
812.897
 20
-122.727
 30
0.000000
  70
    32
  0
VERTEX
  8
01
  5
8E46
 10
812.897
 20
-122.791
 30
0.000000
  70
    32
  0
VERTEX
  8
01
  5
8E47
 10
812.897
 20
-122.855
 30
0.000000
  70
    32
  0
VERTEX
  8
01
  5
8E48
 10
812.897
 20
-122.920
 30
0.000000
  70
    32
  0
VERTEX
  8
01
  5
8E49
 10
812.897
 20
-122.984
 30
0.000000
  70
    32
  0
VERTEX
  8
01
  5
8E4A
 10
812.897
 20
-123.049
 30
0.000000
  70
    32
  0
VERTEX
  8
01
  5
8E4B
 10
812.897
 20
-123.115
 30
0.000000
  70
    32
  0
VERTEX
  8
01
  5
8E4C
 10
812.897
 20
-123.180
 30
0.000000
  70
    32
  0
VERTEX
  8
01
  5
8E4D
 10
812.897
 20
-123.246
 30
0.000000
  70
    32
  0
VERTEX
  8
01
  5
8E4E
 10
812.897
 20
-123.312
 30
0.000000
  70
    32
  0
VERTEX
  8
01
  5
8E4F
 10
812.897
 20
-123.378
 30
0.000000
  70
    32
  0
VERTEX
  8
01
  5
8E50
 10
812.897
 20
-123.444
 30
0.000000
  70
    32
  0
VERTEX
  8
01
  5
8E51
 10
812.897
 20
-123.511
 30
0.000000
  70
    32
  0
VERTEX
  8
01
  5
8E52
 10
812.897
 20
-123.578
 30
0.000000
  70
    32
  0
VERTEX
  8
01
  5
8E53
 10
812.897
 20
-123.645
 30
0.000000
  70
    32
  0
VERTEX
  8
01
  5
8E54
 10
812.897
 20
-123.713
 30
0.000000
  70
    32
  0
VERTEX
  8
01
  5
8E55
 10
812.897
 20
-123.780
 30
0.000000
  70
    32
  0
VERTEX
  8
01
  5
8E56
 10
812.897
 20
-123.848
 30
0.000000
  70
    32
  0
VERTEX
  8
01
  5
8E57
 10
812.897
 20
-123.916
 30
0.000000
  70
    32
  0
VERTEX
  8
01
  5
8E58
 10
812.897
 20
-123.985
 30
0.000000
  70
    32
  0
VERTEX
  8
01
  5
8E59
 10
812.897
 20
-124.053
 30
0.000000
  70
    32
  0
VERTEX
  8
01
  5
8E5A
 10
812.897
 20
-124.122
 30
0.000000
  70
    32
  0
VERTEX
  8
01
  5
8E5B
 10
812.897
 20
-124.191
 30
0.000000
  70
    32
  0
VERTEX
  8
01
  5
8E5C
 10
812.897
 20
-124.260
 30
0.000000
  70
    32
  0
VERTEX
  8
01
  5
8E5D
 10
812.897
 20
-124.329
 30
0.000000
  70
    32
  0
VERTEX
  8
01
  5
8E5E
 10
812.897
 20
-124.399
 30
0.000000
  70
    32
  0
VERTEX
  8
01
  5
8E5F
 10
812.897
 20
-124.469
 30
0.000000
  70
    32
  0
VERTEX
  8
01
  5
8E60
 10
812.897
 20
-124.539
 30
0.000000
  70
    32
  0
VERTEX
  8
01
  5
8E61
 10
812.897
 20
-124.609
 30
0.000000
  70
    32
  0
VERTEX
  8
01
  5
8E62
 10
812.897
 20
-124.680
 30
0.000000
  70
    32
  0
VERTEX
  8
01
  5
8E63
 10
812.897
 20
-124.751
 30
0.000000
  70
    32
  0
VERTEX
  8
01
  5
8E64
 10
812.897
 20
-124.822
 30
0.000000
  70
    32
  0
VERTEX
  8
01
  5
8E65
 10
812.897
 20
-124.893
 30
0.000000
  70
    32
  0
VERTEX
  8
01
  5
8E66
 10
812.897
 20
-124.964
 30
0.000000
  70
    32
  0
VERTEX
  8
01
  5
8E67
 10
812.897
 20
-125.036
 30
0.000000
  70
    32
  0
VERTEX
  8
01
  5
8E68
 10
812.897
 20
-125.107
 30
0.000000
  70
    32
  0
VERTEX
  8
01
  5
8E69
 10
812.897
 20
-125.179
 30
0.000000
  70
    32
  0
VERTEX
  8
01
  5
8E6A
 10
812.897
 20
-125.252
 30
0.000000
  70
    32
  0
VERTEX
  8
01
  5
8E6B
 10
812.897
 20
-125.324
 30
0.000000
  70
    32
  0
VERTEX
  8
01
  5
8E6C
 10
812.897
 20
-125.396
 30
0.000000
  70
    32
  0
VERTEX
  8
01
  5
8E6D
 10
812.897
 20
-125.469
 30
0.000000
  70
    32
  0
VERTEX
  8
01
  5
8E6E
 10
812.897
 20
-125.542
 30
0.000000
  70
    32
  0
VERTEX
  8
01
  5
8E6F
 10
812.897
 20
-125.615
 30
0.000000
  70
    32
  0
VERTEX
  8
01
  5
8E70
 10
812.897
 20
-125.689
 30
0.000000
  70
    32
  0
VERTEX
  8
01
  5
8E71
 10
812.897
 20
-125.762
 30
0.000000
  70
    32
  0
VERTEX
  8
01
  5
8E72
 10
812.897
 20
-125.836
 30
0.000000
  70
    32
  0
VERTEX
  8
01
  5
8E73
 10
812.897
 20
-125.910
 30
0.000000
  70
    32
  0
VERTEX
  8
01
  5
8E74
 10
812.897
 20
-125.984
 30
0.000000
  70
    32
  0
VERTEX
  8
01
  5
8E75
 10
812.897
 20
-126.058
 30
0.000000
  70
    32
  0
VERTEX
  8
01
  5
8E76
 10
812.897
 20
-126.133
 30
0.000000
  70
    32
  0
VERTEX
  8
01
  5
8E77
 10
812.897
 20
-126.207
 30
0.000000
  70
    32
  0
VERTEX
  8
01
  5
8E78
 10
812.897
 20
-126.282
 30
0.000000
  70
    32
  0
VERTEX
  8
01
  5
8E79
 10
812.897
 20
-126.357
 30
0.000000
  70
    32
  0
VERTEX
  8
01
  5
8E7A
 10
812.897
 20
-126.433
 30
0.000000
  70
    32
  0
VERTEX
  8
01
  5
8E7B
 10
812.897
 20
-126.508
 30
0.000000
  70
    32
  0
VERTEX
  8
01
  5
8E7C
 10
812.897
 20
-126.583
 30
0.000000
  70
    32
  0
VERTEX
  8
01
  5
8E7D
 10
812.897
 20
-126.659
 30
0.000000
  70
    32
  0
VERTEX
  8
01
  5
8E7E
 10
812.897
 20
-126.735
 30
0.000000
  70
    32
  0
VERTEX
  8
01
  5
8E7F
 10
812.897
 20
-126.811
 30
0.000000
  70
    32
  0
VERTEX
  8
01
  5
8E80
 10
812.897
 20
-126.887
 30
0.000000
  70
    32
  0
VERTEX
  8
01
  5
8E81
 10
812.897
 20
-126.964
 30
0.000000
  70
    32
  0
VERTEX
  8
01
  5
8E82
 10
812.897
 20
-127.040
 30
0.000000
  70
    32
  0
VERTEX
  8
01
  5
8E83
 10
812.897
 20
-127.117
 30
0.000000
  70
    32
  0
VERTEX
  8
01
  5
8E84
 10
812.897
 20
-127.194
 30
0.000000
  70
    32
  0
VERTEX
  8
01
  5
8E85
 10
812.897
 20
-127.271
 30
0.000000
  70
    32
  0
VERTEX
  8
01
  5
8E86
 10
812.897
 20
-127.348
 30
0.000000
  70
    32
  0
VERTEX
  8
01
  5
8E87
 10
812.897
 20
-127.426
 30
0.000000
  70
    32
  0
VERTEX
  8
01
  5
8E88
 10
812.897
 20
-127.503
 30
0.000000
  70
    32
  0
VERTEX
  8
01
  5
8E89
 10
812.897
 20
-127.581
 30
0.000000
  70
    32
  0
VERTEX
  8
01
  5
8E8A
 10
812.897
 20
-127.659
 30
0.000000
  70
    32
  0
VERTEX
  8
01
  5
8E8B
 10
812.897
 20
-127.737
 30
0.000000
  70
    32
  0
VERTEX
  8
01
  5
8E8C
 10
812.897
 20
-127.815
 30
0.000000
  70
    32
  0
VERTEX
  8
01
  5
8E8D
 10
812.897
 20
-127.893
 30
0.000000
  70
    32
  0
VERTEX
  8
01
  5
8E8E
 10
812.897
 20
-127.972
 30
0.000000
  70
    32
  0
VERTEX
  8
01
  5
8E8F
 10
812.897
 20
-128.050
 30
0.000000
  70
    32
  0
VERTEX
  8
01
  5
8E90
 10
812.897
 20
-128.129
 30
0.000000
  70
    32
  0
VERTEX
  8
01
  5
8E91
 10
812.897
 20
-128.208
 30
0.000000
  70
    32
  0
VERTEX
  8
01
  5
8E92
 10
812.897
 20
-128.287
 30
0.000000
  70
    32
  0
VERTEX
  8
01
  5
8E93
 10
812.897
 20
-128.366
 30
0.000000
  70
    32
  0
VERTEX
  8
01
  5
8E94
 10
812.897
 20
-128.445
 30
0.000000
  70
    32
  0
VERTEX
  8
01
  5
8E95
 10
812.897
 20
-128.525
 30
0.000000
  70
    32
  0
VERTEX
  8
01
  5
8E96
 10
812.897
 20
-128.604
 30
0.000000
  70
    32
  0
VERTEX
  8
01
  5
8E97
 10
812.897
 20
-128.684
 30
0.000000
  70
    32
  0
VERTEX
  8
01
  5
8E98
 10
812.897
 20
-128.764
 30
0.000000
  70
    32
  0
VERTEX
  8
01
  5
8E99
 10
812.897
 20
-128.844
 30
0.000000
  70
    32
  0
VERTEX
  8
01
  5
8E9A
 10
812.897
 20
-128.924
 30
0.000000
  70
    32
  0
VERTEX
  8
01
  5
8E9B
 10
812.897
 20
-129.004
 30
0.000000
  70
    32
  0
VERTEX
  8
01
  5
8E9C
 10
812.897
 20
-129.084
 30
0.000000
  70
    32
  0
VERTEX
  8
01
  5
8E9D
 10
812.897
 20
-129.165
 30
0.000000
  70
    32
  0
VERTEX
  8
01
  5
8E9E
 10
812.897
 20
-129.246
 30
0.000000
  70
    32
  0
VERTEX
  8
01
  5
8E9F
 10
812.897
 20
-129.326
 30
0.000000
  70
    32
  0
VERTEX
  8
01
  5
8EA0
 10
812.897
 20
-129.407
 30
0.000000
  70
    32
  0
VERTEX
  8
01
  5
8EA1
 10
812.897
 20
-129.488
 30
0.000000
  70
    32
  0
VERTEX
  8
01
  5
8EA2
 10
812.897
 20
-129.569
 30
0.000000
  70
    32
  0
VERTEX
  8
01
  5
8EA3
 10
812.897
 20
-129.650
 30
0.000000
  70
    32
  0
VERTEX
  8
01
  5
8EA4
 10
812.897
 20
-129.732
 30
0.000000
  70
    32
  0
VERTEX
  8
01
  5
8EA5
 10
812.897
 20
-129.813
 30
0.000000
  70
    32
  0
VERTEX
  8
01
  5
8EA6
 10
812.897
 20
-129.895
 30
0.000000
  70
    32
  0
VERTEX
  8
01
  5
8EA7
 10
812.897
 20
-129.976
 30
0.000000
  70
    32
  0
VERTEX
  8
01
  5
8EA8
 10
812.897
 20
-130.058
 30
0.000000
  70
    32
  0
VERTEX
  8
01
  5
8EA9
 10
812.897
 20
-130.140
 30
0.000000
  70
    32
  0
VERTEX
  8
01
  5
8EAA
 10
812.897
 20
-130.222
 30
0.000000
  70
    32
  0
VERTEX
  8
01
  5
8EAB
 10
812.897
 20
-130.304
 30
0.000000
  70
    32
  0
VERTEX
  8
01
  5
8EAC
 10
812.897
 20
-130.386
 30
0.000000
  70
    32
  0
VERTEX
  8
01
  5
8EAD
 10
812.897
 20
-130.468
 30
0.000000
  70
    32
  0
VERTEX
  8
01
  5
8EAE
 10
812.897
 20
-130.550
 30
0.000000
  70
    32
  0
VERTEX
  8
01
  5
8EAF
 10
812.897
 20
-130.633
 30
0.000000
  70
    32
  0
VERTEX
  8
01
  5
8EB0
 10
812.897
 20
-130.715
 30
0.000000
  70
    32
  0
VERTEX
  8
01
  5
8EB1
 10
812.897
 20
-130.798
 30
0.000000
  70
    32
  0
VERTEX
  8
01
  5
8EB2
 10
812.897
 20
-130.881
 30
0.000000
  70
    32
  0
VERTEX
  8
01
  5
8EB3
 10
812.897
 20
-130.963
 30
0.000000
  70
    32
  0
VERTEX
  8
01
  5
8EB4
 10
812.897
 20
-131.046
 30
0.000000
  70
    32
  0
VERTEX
  8
01
  5
8EB5
 10
812.897
 20
-131.129
 30
0.000000
  70
    32
  0
VERTEX
  8
01
  5
8EB6
 10
812.897
 20
-131.212
 30
0.000000
  70
    32
  0
VERTEX
  8
01
  5
8EB7
 10
812.897
 20
-131.295
 30
0.000000
  70
    32
  0
VERTEX
  8
01
  5
8EB8
 10
812.897
 20
-131.378
 30
0.000000
  70
    32
  0
VERTEX
  8
01
  5
8EB9
 10
812.897
 20
-131.462
 30
0.000000
  70
    32
  0
VERTEX
  8
01
  5
8EBA
 10
812.897
 20
-131.545
 30
0.000000
  70
    32
  0
VERTEX
  8
01
  5
8EBB
 10
812.897
 20
-131.629
 30
0.000000
  70
    32
  0
VERTEX
  8
01
  5
8EBC
 10
812.897
 20
-131.712
 30
0.000000
  70
    32
  0
VERTEX
  8
01
  5
8EBD
 10
812.897
 20
-131.796
 30
0.000000
  70
    32
  0
VERTEX
  8
01
  5
8EBE
 10
812.897
 20
-131.879
 30
0.000000
  70
    32
  0
VERTEX
  8
01
  5
8EBF
 10
812.897
 20
-131.963
 30
0.000000
  70
    32
  0
VERTEX
  8
01
  5
8EC0
 10
812.897
 20
-132.047
 30
0.000000
  70
    32
  0
VERTEX
  8
01
  5
8EC1
 10
812.897
 20
-132.131
 30
0.000000
  70
    32
  0
VERTEX
  8
01
  5
8EC2
 10
812.897
 20
-132.214
 30
0.000000
  70
    32
  0
VERTEX
  8
01
  5
8EC3
 10
812.897
 20
-132.298
 30
0.000000
  70
    32
  0
VERTEX
  8
01
  5
8EC4
 10
812.897
 20
-132.382
 30
0.000000
  70
    32
  0
VERTEX
  8
01
  5
8EC5
 10
812.897
 20
-132.466
 30
0.000000
  70
    32
  0
VERTEX
  8
01
  5
8EC6
 10
812.897
 20
-132.551
 30
0.000000
  70
    32
  0
VERTEX
  8
01
  5
8EC7
 10
812.897
 20
-132.635
 30
0.000000
  70
    32
  0
VERTEX
  8
01
  5
8EC8
 10
812.897
 20
-132.719
 30
0.000000
  70
    32
  0
VERTEX
  8
01
  5
8EC9
 10
812.897
 20
-132.803
 30
0.000000
  70
    32
  0
VERTEX
  8
01
  5
8ECA
 10
812.897
 20
-132.888
 30
0.000000
  70
    32
  0
VERTEX
  8
01
  5
8ECB
 10
812.897
 20
-132.972
 30
0.000000
  70
    32
  0
VERTEX
  8
01
  5
8ECC
 10
812.897
 20
-133.056
 30
0.000000
  70
    32
  0
VERTEX
  8
01
  5
8ECD
 10
812.897
 20
-133.141
 30
0.000000
  70
    32
  0
VERTEX
  8
01
  5
8ECE
 10
812.897
 20
-133.225
 30
0.000000
  70
    32
  0
VERTEX
  8
01
  5
8ECF
 10
812.897
 20
-133.310
 30
0.000000
  70
    32
  0
VERTEX
  8
01
  5
8ED0
 10
812.897
 20
-133.395
 30
0.000000
  70
    32
  0
VERTEX
  8
01
  5
8ED1
 10
812.897
 20
-133.479
 30
0.000000
  70
    32
  0
VERTEX
  8
01
  5
8ED2
 10
812.897
 20
-133.564
 30
0.000000
  70
    32
  0
VERTEX
  8
01
  5
8ED3
 10
812.897
 20
-133.649
 30
0.000000
  70
    32
  0
VERTEX
  8
01
  5
8ED4
 10
812.897
 20
-133.733
 30
0.000000
  70
    32
  0
VERTEX
  8
01
  5
8ED5
 10
812.897
 20
-133.818
 30
0.000000
  70
    32
  0
VERTEX
  8
01
  5
8ED6
 10
812.897
 20
-133.903
 30
0.000000
  70
    32
  0
VERTEX
  8
01
  5
8ED7
 10
812.897
 20
-133.988
 30
0.000000
  70
    32
  0
VERTEX
  8
01
  5
8ED8
 10
812.897
 20
-134.073
 30
0.000000
  70
    32
  0
VERTEX
  8
01
  5
8ED9
 10
812.897
 20
-134.157
 30
0.000000
  70
    32
  0
VERTEX
  8
01
  5
8EDA
 10
812.897
 20
-134.242
 30
0.000000
  70
    32
  0
VERTEX
  8
01
  5
8EDB
 10
812.897
 20
-134.327
 30
0.000000
  70
    32
  0
VERTEX
  8
01
  5
8EDC
 10
812.897
 20
-134.412
 30
0.000000
  70
    32
  0
VERTEX
  8
01
  5
8EDD
 10
812.897
 20
-134.497
 30
0.000000
  70
    32
  0
VERTEX
  8
01
  5
8EDE
 10
812.897
 20
-134.582
 30
0.000000
  70
    32
  0
VERTEX
  8
01
  5
8EDF
 10
812.897
 20
-134.667
 30
0.000000
  70
    32
  0
VERTEX
  8
01
  5
8EE0
 10
812.897
 20
-134.752
 30
0.000000
  70
    32
  0
VERTEX
  8
01
  5
8EE1
 10
812.897
 20
-134.837
 30
0.000000
  70
    32
  0
VERTEX
  8
01
  5
8EE2
 10
812.897
 20
-134.922
 30
0.000000
  70
    32
  0
VERTEX
  8
01
  5
8EE3
 10
812.897
 20
-135.007
 30
0.000000
  70
    32
  0
VERTEX
  8
01
  5
8EE4
 10
812.897
 20
-135.092
 30
0.000000
  70
    32
  0
VERTEX
  8
01
  5
8EE5
 10
812.897
 20
-135.177
 30
0.000000
  70
    32
  0
VERTEX
  8
01
  5
8EE6
 10
812.897
 20
-135.262
 30
0.000000
  70
    32
  0
SEQEND
  8
01
  5
8EE7
  0
LINE
  5
839B
  8
01
  6
BYBLOCK
 10
812.89715275831463
 20
-135.26225620381979
 30
0.0
 11
812.89715192779886
 21
-154.2623024243444
 31
0.0
  0
ARC
  5
839C
  8
01
  6
BYBLOCK
 10
-812.39713638055139
 20
-116.2622265731232
 30
0.0
 40
0.5000155495054433
210
0.0
220
0.0
230
-1.0
 50
90.001781530141656
 51
179.9902481586345
  0
LINE
  5
839D
  8
01
  6
BYBLOCK
 10
812.39715192779806
 20
-115.7622562038201
 30
0.0
 11
811.69715192779813
 21
-115.7622562038201
 31
0.0
  0
ARC
  5
839E
  8
01
  6
BYBLOCK
 10
-812.397136293274
 20
-154.2622880100684
 30
0.0
 40
0.5000156347186503
210
0.0
220
0.0
230
-1.0
 50
180.0016521306074
 51
269.99820847338782
  0
LINE
  5
839F
  8
01
  6
BYBLOCK
 10
811.69715192779813
 20
-154.76225620381999
 30
0.0
 11
812.39715192779806
 21
-154.76225620381999
 31
0.0
  0
LINE
  5
83A0
  8
01
  6
BYBLOCK
 10
811.69715278017043
 20
-135.26225620381999
 30
0.0
 11
811.69715192779813
 21
-154.76225620381999
 31
0.0
  0
LINE
  5
83A1
  8
01
  6
BYBLOCK
 10
811.69715192779813
 20
-115.7622562038201
 30
0.0
 11
811.69715278017043
 21
-135.26225620381999
 31
0.0
  0
POLYLINE
  8
01
  5
8EE8
  66
     1
 10
0.000000
 20
0.000000
 30
0.000000
  70
     8
  0
VERTEX
  8
01
  5
8EE9
 10
812.897
 20
-116.262
 30
0.000000
  70
    32
  0
VERTEX
  8
01
  5
8EEA
 10
812.897
 20
-116.262
 30
0.000000
  70
    32
  0
VERTEX
  8
01
  5
8EEB
 10
812.897
 20
-116.263
 30
0.000000
  70
    32
  0
VERTEX
  8
01
  5
8EEC
 10
812.897
 20
-116.264
 30
0.000000
  70
    32
  0
VERTEX
  8
01
  5
8EED
 10
812.897
 20
-116.265
 30
0.000000
  70
    32
  0
VERTEX
  8
01
  5
8EEE
 10
812.897
 20
-116.267
 30
0.000000
  70
    32
  0
VERTEX
  8
01
  5
8EEF
 10
812.897
 20
-116.269
 30
0.000000
  70
    32
  0
VERTEX
  8
01
  5
8EF0
 10
812.897
 20
-116.272
 30
0.000000
  70
    32
  0
VERTEX
  8
01
  5
8EF1
 10
812.897
 20
-116.274
 30
0.000000
  70
    32
  0
VERTEX
  8
01
  5
8EF2
 10
812.897
 20
-116.278
 30
0.000000
  70
    32
  0
VERTEX
  8
01
  5
8EF3
 10
812.897
 20
-116.281
 30
0.000000
  70
    32
  0
VERTEX
  8
01
  5
8EF4
 10
812.897
 20
-116.285
 30
0.000000
  70
    32
  0
VERTEX
  8
01
  5
8EF5
 10
812.897
 20
-116.290
 30
0.000000
  70
    32
  0
VERTEX
  8
01
  5
8EF6
 10
812.897
 20
-116.294
 30
0.000000
  70
    32
  0
VERTEX
  8
01
  5
8EF7
 10
812.897
 20
-116.300
 30
0.000000
  70
    32
  0
VERTEX
  8
01
  5
8EF8
 10
812.897
 20
-116.305
 30
0.000000
  70
    32
  0
VERTEX
  8
01
  5
8EF9
 10
812.897
 20
-116.311
 30
0.000000
  70
    32
  0
VERTEX
  8
01
  5
8EFA
 10
812.897
 20
-116.317
 30
0.000000
  70
    32
  0
VERTEX
  8
01
  5
8EFB
 10
812.897
 20
-116.324
 30
0.000000
  70
    32
  0
VERTEX
  8
01
  5
8EFC
 10
812.897
 20
-116.331
 30
0.000000
  70
    32
  0
VERTEX
  8
01
  5
8EFD
 10
812.897
 20
-116.338
 30
0.000000
  70
    32
  0
VERTEX
  8
01
  5
8EFE
 10
812.897
 20
-116.346
 30
0.000000
  70
    32
  0
VERTEX
  8
01
  5
8EFF
 10
812.897
 20
-116.354
 30
0.000000
  70
    32
  0
VERTEX
  8
01
  5
8F00
 10
812.897
 20
-116.363
 30
0.000000
  70
    32
  0
VERTEX
  8
01
  5
8F01
 10
812.897
 20
-116.372
 30
0.000000
  70
    32
  0
VERTEX
  8
01
  5
8F02
 10
812.897
 20
-116.381
 30
0.000000
  70
    32
  0
VERTEX
  8
01
  5
8F03
 10
812.897
 20
-116.391
 30
0.000000
  70
    32
  0
VERTEX
  8
01
  5
8F04
 10
812.897
 20
-116.401
 30
0.000000
  70
    32
  0
VERTEX
  8
01
  5
8F05
 10
812.897
 20
-116.411
 30
0.000000
  70
    32
  0
VERTEX
  8
01
  5
8F06
 10
812.897
 20
-116.422
 30
0.000000
  70
    32
  0
VERTEX
  8
01
  5
8F07
 10
812.897
 20
-116.433
 30
0.000000
  70
    32
  0
VERTEX
  8
01
  5
8F08
 10
812.897
 20
-116.445
 30
0.000000
  70
    32
  0
VERTEX
  8
01
  5
8F09
 10
812.897
 20
-116.457
 30
0.000000
  70
    32
  0
VERTEX
  8
01
  5
8F0A
 10
812.897
 20
-116.469
 30
0.000000
  70
    32
  0
VERTEX
  8
01
  5
8F0B
 10
812.897
 20
-116.482
 30
0.000000
  70
    32
  0
VERTEX
  8
01
  5
8F0C
 10
812.897
 20
-116.495
 30
0.000000
  70
    32
  0
VERTEX
  8
01
  5
8F0D
 10
812.897
 20
-116.508
 30
0.000000
  70
    32
  0
VERTEX
  8
01
  5
8F0E
 10
812.897
 20
-116.522
 30
0.000000
  70
    32
  0
VERTEX
  8
01
  5
8F0F
 10
812.897
 20
-116.536
 30
0.000000
  70
    32
  0
VERTEX
  8
01
  5
8F10
 10
812.897
 20
-116.551
 30
0.000000
  70
    32
  0
VERTEX
  8
01
  5
8F11
 10
812.897
 20
-116.566
 30
0.000000
  70
    32
  0
VERTEX
  8
01
  5
8F12
 10
812.897
 20
-116.581
 30
0.000000
  70
    32
  0
VERTEX
  8
01
  5
8F13
 10
812.897
 20
-116.597
 30
0.000000
  70
    32
  0
VERTEX
  8
01
  5
8F14
 10
812.897
 20
-116.613
 30
0.000000
  70
    32
  0
VERTEX
  8
01
  5
8F15
 10
812.897
 20
-116.629
 30
0.000000
  70
    32
  0
VERTEX
  8
01
  5
8F16
 10
812.897
 20
-116.646
 30
0.000000
  70
    32
  0
VERTEX
  8
01
  5
8F17
 10
812.897
 20
-116.663
 30
0.000000
  70
    32
  0
VERTEX
  8
01
  5
8F18
 10
812.897
 20
-116.681
 30
0.000000
  70
    32
  0
VERTEX
  8
01
  5
8F19
 10
812.897
 20
-116.699
 30
0.000000
  70
    32
  0
VERTEX
  8
01
  5
8F1A
 10
812.897
 20
-116.717
 30
0.000000
  70
    32
  0
VERTEX
  8
01
  5
8F1B
 10
812.897
 20
-116.736
 30
0.000000
  70
    32
  0
VERTEX
  8
01
  5
8F1C
 10
812.897
 20
-116.755
 30
0.000000
  70
    32
  0
VERTEX
  8
01
  5
8F1D
 10
812.897
 20
-116.774
 30
0.000000
  70
    32
  0
VERTEX
  8
01
  5
8F1E
 10
812.897
 20
-116.794
 30
0.000000
  70
    32
  0
VERTEX
  8
01
  5
8F1F
 10
812.897
 20
-116.814
 30
0.000000
  70
    32
  0
VERTEX
  8
01
  5
8F20
 10
812.897
 20
-116.835
 30
0.000000
  70
    32
  0
VERTEX
  8
01
  5
8F21
 10
812.897
 20
-116.856
 30
0.000000
  70
    32
  0
VERTEX
  8
01
  5
8F22
 10
812.897
 20
-116.877
 30
0.000000
  70
    32
  0
VERTEX
  8
01
  5
8F23
 10
812.897
 20
-116.899
 30
0.000000
  70
    32
  0
VERTEX
  8
01
  5
8F24
 10
812.897
 20
-116.921
 30
0.000000
  70
    32
  0
VERTEX
  8
01
  5
8F25
 10
812.897
 20
-116.943
 30
0.000000
  70
    32
  0
VERTEX
  8
01
  5
8F26
 10
812.897
 20
-116.966
 30
0.000000
  70
    32
  0
VERTEX
  8
01
  5
8F27
 10
812.897
 20
-116.989
 30
0.000000
  70
    32
  0
VERTEX
  8
01
  5
8F28
 10
812.897
 20
-117.012
 30
0.000000
  70
    32
  0
VERTEX
  8
01
  5
8F29
 10
812.897
 20
-117.036
 30
0.000000
  70
    32
  0
VERTEX
  8
01
  5
8F2A
 10
812.897
 20
-117.060
 30
0.000000
  70
    32
  0
VERTEX
  8
01
  5
8F2B
 10
812.897
 20
-117.085
 30
0.000000
  70
    32
  0
VERTEX
  8
01
  5
8F2C
 10
812.897
 20
-117.110
 30
0.000000
  70
    32
  0
VERTEX
  8
01
  5
8F2D
 10
812.897
 20
-117.135
 30
0.000000
  70
    32
  0
VERTEX
  8
01
  5
8F2E
 10
812.897
 20
-117.161
 30
0.000000
  70
    32
  0
VERTEX
  8
01
  5
8F2F
 10
812.897
 20
-117.187
 30
0.000000
  70
    32
  0
VERTEX
  8
01
  5
8F30
 10
812.897
 20
-117.213
 30
0.000000
  70
    32
  0
VERTEX
  8
01
  5
8F31
 10
812.897
 20
-117.240
 30
0.000000
  70
    32
  0
VERTEX
  8
01
  5
8F32
 10
812.897
 20
-117.267
 30
0.000000
  70
    32
  0
VERTEX
  8
01
  5
8F33
 10
812.897
 20
-117.295
 30
0.000000
  70
    32
  0
VERTEX
  8
01
  5
8F34
 10
812.897
 20
-117.322
 30
0.000000
  70
    32
  0
VERTEX
  8
01
  5
8F35
 10
812.897
 20
-117.351
 30
0.000000
  70
    32
  0
VERTEX
  8
01
  5
8F36
 10
812.897
 20
-117.379
 30
0.000000
  70
    32
  0
VERTEX
  8
01
  5
8F37
 10
812.897
 20
-117.408
 30
0.000000
  70
    32
  0
VERTEX
  8
01
  5
8F38
 10
812.897
 20
-117.437
 30
0.000000
  70
    32
  0
VERTEX
  8
01
  5
8F39
 10
812.897
 20
-117.467
 30
0.000000
  70
    32
  0
VERTEX
  8
01
  5
8F3A
 10
812.897
 20
-117.497
 30
0.000000
  70
    32
  0
VERTEX
  8
01
  5
8F3B
 10
812.897
 20
-117.527
 30
0.000000
  70
    32
  0
VERTEX
  8
01
  5
8F3C
 10
812.897
 20
-117.558
 30
0.000000
  70
    32
  0
VERTEX
  8
01
  5
8F3D
 10
812.897
 20
-117.589
 30
0.000000
  70
    32
  0
VERTEX
  8
01
  5
8F3E
 10
812.897
 20
-117.620
 30
0.000000
  70
    32
  0
VERTEX
  8
01
  5
8F3F
 10
812.897
 20
-117.652
 30
0.000000
  70
    32
  0
VERTEX
  8
01
  5
8F40
 10
812.897
 20
-117.684
 30
0.000000
  70
    32
  0
VERTEX
  8
01
  5
8F41
 10
812.897
 20
-117.717
 30
0.000000
  70
    32
  0
VERTEX
  8
01
  5
8F42
 10
812.897
 20
-117.749
 30
0.000000
  70
    32
  0
VERTEX
  8
01
  5
8F43
 10
812.897
 20
-117.783
 30
0.000000
  70
    32
  0
VERTEX
  8
01
  5
8F44
 10
812.897
 20
-117.816
 30
0.000000
  70
    32
  0
VERTEX
  8
01
  5
8F45
 10
812.897
 20
-117.850
 30
0.000000
  70
    32
  0
VERTEX
  8
01
  5
8F46
 10
812.897
 20
-117.884
 30
0.000000
  70
    32
  0
VERTEX
  8
01
  5
8F47
 10
812.897
 20
-117.919
 30
0.000000
  70
    32
  0
VERTEX
  8
01
  5
8F48
 10
812.897
 20
-117.954
 30
0.000000
  70
    32
  0
VERTEX
  8
01
  5
8F49
 10
812.897
 20
-117.989
 30
0.000000
  70
    32
  0
VERTEX
  8
01
  5
8F4A
 10
812.897
 20
-118.024
 30
0.000000
  70
    32
  0
VERTEX
  8
01
  5
8F4B
 10
812.897
 20
-118.060
 30
0.000000
  70
    32
  0
VERTEX
  8
01
  5
8F4C
 10
812.897
 20
-118.097
 30
0.000000
  70
    32
  0
VERTEX
  8
01
  5
8F4D
 10
812.897
 20
-118.133
 30
0.000000
  70
    32
  0
VERTEX
  8
01
  5
8F4E
 10
812.897
 20
-118.170
 30
0.000000
  70
    32
  0
VERTEX
  8
01
  5
8F4F
 10
812.897
 20
-118.208
 30
0.000000
  70
    32
  0
VERTEX
  8
01
  5
8F50
 10
812.897
 20
-118.245
 30
0.000000
  70
    32
  0
VERTEX
  8
01
  5
8F51
 10
812.897
 20
-118.283
 30
0.000000
  70
    32
  0
VERTEX
  8
01
  5
8F52
 10
812.897
 20
-118.322
 30
0.000000
  70
    32
  0
VERTEX
  8
01
  5
8F53
 10
812.897
 20
-118.360
 30
0.000000
  70
    32
  0
VERTEX
  8
01
  5
8F54
 10
812.897
 20
-118.399
 30
0.000000
  70
    32
  0
VERTEX
  8
01
  5
8F55
 10
812.897
 20
-118.439
 30
0.000000
  70
    32
  0
VERTEX
  8
01
  5
8F56
 10
812.897
 20
-118.478
 30
0.000000
  70
    32
  0
VERTEX
  8
01
  5
8F57
 10
812.897
 20
-118.518
 30
0.000000
  70
    32
  0
VERTEX
  8
01
  5
8F58
 10
812.897
 20
-118.559
 30
0.000000
  70
    32
  0
VERTEX
  8
01
  5
8F59
 10
812.897
 20
-118.599
 30
0.000000
  70
    32
  0
VERTEX
  8
01
  5
8F5A
 10
812.897
 20
-118.640
 30
0.000000
  70
    32
  0
VERTEX
  8
01
  5
8F5B
 10
812.897
 20
-118.682
 30
0.000000
  70
    32
  0
VERTEX
  8
01
  5
8F5C
 10
812.897
 20
-118.723
 30
0.000000
  70
    32
  0
VERTEX
  8
01
  5
8F5D
 10
812.897
 20
-118.765
 30
0.000000
  70
    32
  0
VERTEX
  8
01
  5
8F5E
 10
812.897
 20
-118.808
 30
0.000000
  70
    32
  0
VERTEX
  8
01
  5
8F5F
 10
812.897
 20
-118.850
 30
0.000000
  70
    32
  0
VERTEX
  8
01
  5
8F60
 10
812.897
 20
-118.893
 30
0.000000
  70
    32
  0
VERTEX
  8
01
  5
8F61
 10
812.897
 20
-118.937
 30
0.000000
  70
    32
  0
VERTEX
  8
01
  5
8F62
 10
812.897
 20
-118.980
 30
0.000000
  70
    32
  0
VERTEX
  8
01
  5
8F63
 10
812.897
 20
-119.024
 30
0.000000
  70
    32
  0
VERTEX
  8
01
  5
8F64
 10
812.897
 20
-119.069
 30
0.000000
  70
    32
  0
VERTEX
  8
01
  5
8F65
 10
812.897
 20
-119.113
 30
0.000000
  70
    32
  0
VERTEX
  8
01
  5
8F66
 10
812.897
 20
-119.158
 30
0.000000
  70
    32
  0
VERTEX
  8
01
  5
8F67
 10
812.897
 20
-119.204
 30
0.000000
  70
    32
  0
VERTEX
  8
01
  5
8F68
 10
812.897
 20
-119.249
 30
0.000000
  70
    32
  0
VERTEX
  8
01
  5
8F69
 10
812.897
 20
-119.295
 30
0.000000
  70
    32
  0
VERTEX
  8
01
  5
8F6A
 10
812.897
 20
-119.341
 30
0.000000
  70
    32
  0
VERTEX
  8
01
  5
8F6B
 10
812.897
 20
-119.388
 30
0.000000
  70
    32
  0
VERTEX
  8
01
  5
8F6C
 10
812.897
 20
-119.435
 30
0.000000
  70
    32
  0
VERTEX
  8
01
  5
8F6D
 10
812.897
 20
-119.482
 30
0.000000
  70
    32
  0
VERTEX
  8
01
  5
8F6E
 10
812.897
 20
-119.530
 30
0.000000
  70
    32
  0
VERTEX
  8
01
  5
8F6F
 10
812.897
 20
-119.577
 30
0.000000
  70
    32
  0
VERTEX
  8
01
  5
8F70
 10
812.897
 20
-119.626
 30
0.000000
  70
    32
  0
VERTEX
  8
01
  5
8F71
 10
812.897
 20
-119.674
 30
0.000000
  70
    32
  0
VERTEX
  8
01
  5
8F72
 10
812.897
 20
-119.723
 30
0.000000
  70
    32
  0
VERTEX
  8
01
  5
8F73
 10
812.897
 20
-119.772
 30
0.000000
  70
    32
  0
VERTEX
  8
01
  5
8F74
 10
812.897
 20
-119.821
 30
0.000000
  70
    32
  0
VERTEX
  8
01
  5
8F75
 10
812.897
 20
-119.871
 30
0.000000
  70
    32
  0
VERTEX
  8
01
  5
8F76
 10
812.897
 20
-119.921
 30
0.000000
  70
    32
  0
VERTEX
  8
01
  5
8F77
 10
812.897
 20
-119.971
 30
0.000000
  70
    32
  0
VERTEX
  8
01
  5
8F78
 10
812.897
 20
-120.022
 30
0.000000
  70
    32
  0
VERTEX
  8
01
  5
8F79
 10
812.897
 20
-120.073
 30
0.000000
  70
    32
  0
VERTEX
  8
01
  5
8F7A
 10
812.897
 20
-120.124
 30
0.000000
  70
    32
  0
VERTEX
  8
01
  5
8F7B
 10
812.897
 20
-120.176
 30
0.000000
  70
    32
  0
VERTEX
  8
01
  5
8F7C
 10
812.897
 20
-120.227
 30
0.000000
  70
    32
  0
VERTEX
  8
01
  5
8F7D
 10
812.897
 20
-120.280
 30
0.000000
  70
    32
  0
VERTEX
  8
01
  5
8F7E
 10
812.897
 20
-120.332
 30
0.000000
  70
    32
  0
VERTEX
  8
01
  5
8F7F
 10
812.897
 20
-120.385
 30
0.000000
  70
    32
  0
VERTEX
  8
01
  5
8F80
 10
812.897
 20
-120.438
 30
0.000000
  70
    32
  0
VERTEX
  8
01
  5
8F81
 10
812.897
 20
-120.491
 30
0.000000
  70
    32
  0
VERTEX
  8
01
  5
8F82
 10
812.897
 20
-120.545
 30
0.000000
  70
    32
  0
VERTEX
  8
01
  5
8F83
 10
812.897
 20
-120.599
 30
0.000000
  70
    32
  0
VERTEX
  8
01
  5
8F84
 10
812.897
 20
-120.653
 30
0.000000
  70
    32
  0
VERTEX
  8
01
  5
8F85
 10
812.897
 20
-120.707
 30
0.000000
  70
    32
  0
VERTEX
  8
01
  5
8F86
 10
812.897
 20
-120.762
 30
0.000000
  70
    32
  0
VERTEX
  8
01
  5
8F87
 10
812.897
 20
-120.817
 30
0.000000
  70
    32
  0
VERTEX
  8
01
  5
8F88
 10
812.897
 20
-120.873
 30
0.000000
  70
    32
  0
VERTEX
  8
01
  5
8F89
 10
812.897
 20
-120.928
 30
0.000000
  70
    32
  0
VERTEX
  8
01
  5
8F8A
 10
812.897
 20
-120.984
 30
0.000000
  70
    32
  0
VERTEX
  8
01
  5
8F8B
 10
812.897
 20
-121.041
 30
0.000000
  70
    32
  0
VERTEX
  8
01
  5
8F8C
 10
812.897
 20
-121.097
 30
0.000000
  70
    32
  0
VERTEX
  8
01
  5
8F8D
 10
812.897
 20
-121.154
 30
0.000000
  70
    32
  0
VERTEX
  8
01
  5
8F8E
 10
812.897
 20
-121.211
 30
0.000000
  70
    32
  0
VERTEX
  8
01
  5
8F8F
 10
812.897
 20
-121.268
 30
0.000000
  70
    32
  0
VERTEX
  8
01
  5
8F90
 10
812.897
 20
-121.326
 30
0.000000
  70
    32
  0
VERTEX
  8
01
  5
8F91
 10
812.897
 20
-121.384
 30
0.000000
  70
    32
  0
VERTEX
  8
01
  5
8F92
 10
812.897
 20
-121.442
 30
0.000000
  70
    32
  0
VERTEX
  8
01
  5
8F93
 10
812.897
 20
-121.501
 30
0.000000
  70
    32
  0
VERTEX
  8
01
  5
8F94
 10
812.897
 20
-121.559
 30
0.000000
  70
    32
  0
VERTEX
  8
01
  5
8F95
 10
812.897
 20
-121.618
 30
0.000000
  70
    32
  0
VERTEX
  8
01
  5
8F96
 10
812.897
 20
-121.678
 30
0.000000
  70
    32
  0
VERTEX
  8
01
  5
8F97
 10
812.897
 20
-121.737
 30
0.000000
  70
    32
  0
VERTEX
  8
01
  5
8F98
 10
812.897
 20
-121.797
 30
0.000000
  70
    32
  0
VERTEX
  8
01
  5
8F99
 10
812.897
 20
-121.857
 30
0.000000
  70
    32
  0
VERTEX
  8
01
  5
8F9A
 10
812.897
 20
-121.918
 30
0.000000
  70
    32
  0
VERTEX
  8
01
  5
8F9B
 10
812.897
 20
-121.978
 30
0.000000
  70
    32
  0
VERTEX
  8
01
  5
8F9C
 10
812.897
 20
-122.039
 30
0.000000
  70
    32
  0
VERTEX
  8
01
  5
8F9D
 10
812.897
 20
-122.100
 30
0.000000
  70
    32
  0
VERTEX
  8
01
  5
8F9E
 10
812.897
 20
-122.162
 30
0.000000
  70
    32
  0
VERTEX
  8
01
  5
8F9F
 10
812.897
 20
-122.224
 30
0.000000
  70
    32
  0
VERTEX
  8
01
  5
8FA0
 10
812.897
 20
-122.286
 30
0.000000
  70
    32
  0
VERTEX
  8
01
  5
8FA1
 10
812.897
 20
-122.348
 30
0.000000
  70
    32
  0
VERTEX
  8
01
  5
8FA2
 10
812.897
 20
-122.410
 30
0.000000
  70
    32
  0
VERTEX
  8
01
  5
8FA3
 10
812.897
 20
-122.473
 30
0.000000
  70
    32
  0
VERTEX
  8
01
  5
8FA4
 10
812.897
 20
-122.536
 30
0.000000
  70
    32
  0
VERTEX
  8
01
  5
8FA5
 10
812.897
 20
-122.599
 30
0.000000
  70
    32
  0
VERTEX
  8
01
  5
8FA6
 10
812.897
 20
-122.663
 30
0.000000
  70
    32
  0
VERTEX
  8
01
  5
8FA7
 10
812.897
 20
-122.727
 30
0.000000
  70
    32
  0
VERTEX
  8
01
  5
8FA8
 10
812.897
 20
-122.791
 30
0.000000
  70
    32
  0
VERTEX
  8
01
  5
8FA9
 10
812.897
 20
-122.855
 30
0.000000
  70
    32
  0
VERTEX
  8
01
  5
8FAA
 10
812.897
 20
-122.920
 30
0.000000
  70
    32
  0
VERTEX
  8
01
  5
8FAB
 10
812.897
 20
-122.984
 30
0.000000
  70
    32
  0
VERTEX
  8
01
  5
8FAC
 10
812.897
 20
-123.049
 30
0.000000
  70
    32
  0
VERTEX
  8
01
  5
8FAD
 10
812.897
 20
-123.115
 30
0.000000
  70
    32
  0
VERTEX
  8
01
  5
8FAE
 10
812.897
 20
-123.180
 30
0.000000
  70
    32
  0
VERTEX
  8
01
  5
8FAF
 10
812.897
 20
-123.246
 30
0.000000
  70
    32
  0
VERTEX
  8
01
  5
8FB0
 10
812.897
 20
-123.312
 30
0.000000
  70
    32
  0
VERTEX
  8
01
  5
8FB1
 10
812.897
 20
-123.378
 30
0.000000
  70
    32
  0
VERTEX
  8
01
  5
8FB2
 10
812.897
 20
-123.444
 30
0.000000
  70
    32
  0
VERTEX
  8
01
  5
8FB3
 10
812.897
 20
-123.511
 30
0.000000
  70
    32
  0
VERTEX
  8
01
  5
8FB4
 10
812.897
 20
-123.578
 30
0.000000
  70
    32
  0
VERTEX
  8
01
  5
8FB5
 10
812.897
 20
-123.645
 30
0.000000
  70
    32
  0
VERTEX
  8
01
  5
8FB6
 10
812.897
 20
-123.713
 30
0.000000
  70
    32
  0
VERTEX
  8
01
  5
8FB7
 10
812.897
 20
-123.780
 30
0.000000
  70
    32
  0
VERTEX
  8
01
  5
8FB8
 10
812.897
 20
-123.848
 30
0.000000
  70
    32
  0
VERTEX
  8
01
  5
8FB9
 10
812.897
 20
-123.916
 30
0.000000
  70
    32
  0
VERTEX
  8
01
  5
8FBA
 10
812.897
 20
-123.985
 30
0.000000
  70
    32
  0
VERTEX
  8
01
  5
8FBB
 10
812.897
 20
-124.053
 30
0.000000
  70
    32
  0
VERTEX
  8
01
  5
8FBC
 10
812.897
 20
-124.122
 30
0.000000
  70
    32
  0
VERTEX
  8
01
  5
8FBD
 10
812.897
 20
-124.191
 30
0.000000
  70
    32
  0
VERTEX
  8
01
  5
8FBE
 10
812.897
 20
-124.260
 30
0.000000
  70
    32
  0
VERTEX
  8
01
  5
8FBF
 10
812.897
 20
-124.329
 30
0.000000
  70
    32
  0
VERTEX
  8
01
  5
8FC0
 10
812.897
 20
-124.399
 30
0.000000
  70
    32
  0
VERTEX
  8
01
  5
8FC1
 10
812.897
 20
-124.469
 30
0.000000
  70
    32
  0
VERTEX
  8
01
  5
8FC2
 10
812.897
 20
-124.539
 30
0.000000
  70
    32
  0
VERTEX
  8
01
  5
8FC3
 10
812.897
 20
-124.609
 30
0.000000
  70
    32
  0
VERTEX
  8
01
  5
8FC4
 10
812.897
 20
-124.680
 30
0.000000
  70
    32
  0
VERTEX
  8
01
  5
8FC5
 10
812.897
 20
-124.751
 30
0.000000
  70
    32
  0
VERTEX
  8
01
  5
8FC6
 10
812.897
 20
-124.822
 30
0.000000
  70
    32
  0
VERTEX
  8
01
  5
8FC7
 10
812.897
 20
-124.893
 30
0.000000
  70
    32
  0
VERTEX
  8
01
  5
8FC8
 10
812.897
 20
-124.964
 30
0.000000
  70
    32
  0
VERTEX
  8
01
  5
8FC9
 10
812.897
 20
-125.036
 30
0.000000
  70
    32
  0
VERTEX
  8
01
  5
8FCA
 10
812.897
 20
-125.107
 30
0.000000
  70
    32
  0
VERTEX
  8
01
  5
8FCB
 10
812.897
 20
-125.179
 30
0.000000
  70
    32
  0
VERTEX
  8
01
  5
8FCC
 10
812.897
 20
-125.252
 30
0.000000
  70
    32
  0
VERTEX
  8
01
  5
8FCD
 10
812.897
 20
-125.324
 30
0.000000
  70
    32
  0
VERTEX
  8
01
  5
8FCE
 10
812.897
 20
-125.396
 30
0.000000
  70
    32
  0
VERTEX
  8
01
  5
8FCF
 10
812.897
 20
-125.469
 30
0.000000
  70
    32
  0
VERTEX
  8
01
  5
8FD0
 10
812.897
 20
-125.542
 30
0.000000
  70
    32
  0
VERTEX
  8
01
  5
8FD1
 10
812.897
 20
-125.615
 30
0.000000
  70
    32
  0
VERTEX
  8
01
  5
8FD2
 10
812.897
 20
-125.689
 30
0.000000
  70
    32
  0
VERTEX
  8
01
  5
8FD3
 10
812.897
 20
-125.762
 30
0.000000
  70
    32
  0
VERTEX
  8
01
  5
8FD4
 10
812.897
 20
-125.836
 30
0.000000
  70
    32
  0
VERTEX
  8
01
  5
8FD5
 10
812.897
 20
-125.910
 30
0.000000
  70
    32
  0
VERTEX
  8
01
  5
8FD6
 10
812.897
 20
-125.984
 30
0.000000
  70
    32
  0
VERTEX
  8
01
  5
8FD7
 10
812.897
 20
-126.058
 30
0.000000
  70
    32
  0
VERTEX
  8
01
  5
8FD8
 10
812.897
 20
-126.133
 30
0.000000
  70
    32
  0
VERTEX
  8
01
  5
8FD9
 10
812.897
 20
-126.207
 30
0.000000
  70
    32
  0
VERTEX
  8
01
  5
8FDA
 10
812.897
 20
-126.282
 30
0.000000
  70
    32
  0
VERTEX
  8
01
  5
8FDB
 10
812.897
 20
-126.357
 30
0.000000
  70
    32
  0
VERTEX
  8
01
  5
8FDC
 10
812.897
 20
-126.433
 30
0.000000
  70
    32
  0
VERTEX
  8
01
  5
8FDD
 10
812.897
 20
-126.508
 30
0.000000
  70
    32
  0
VERTEX
  8
01
  5
8FDE
 10
812.897
 20
-126.583
 30
0.000000
  70
    32
  0
VERTEX
  8
01
  5
8FDF
 10
812.897
 20
-126.659
 30
0.000000
  70
    32
  0
VERTEX
  8
01
  5
8FE0
 10
812.897
 20
-126.735
 30
0.000000
  70
    32
  0
VERTEX
  8
01
  5
8FE1
 10
812.897
 20
-126.811
 30
0.000000
  70
    32
  0
VERTEX
  8
01
  5
8FE2
 10
812.897
 20
-126.887
 30
0.000000
  70
    32
  0
VERTEX
  8
01
  5
8FE3
 10
812.897
 20
-126.964
 30
0.000000
  70
    32
  0
VERTEX
  8
01
  5
8FE4
 10
812.897
 20
-127.040
 30
0.000000
  70
    32
  0
VERTEX
  8
01
  5
8FE5
 10
812.897
 20
-127.117
 30
0.000000
  70
    32
  0
VERTEX
  8
01
  5
8FE6
 10
812.897
 20
-127.194
 30
0.000000
  70
    32
  0
VERTEX
  8
01
  5
8FE7
 10
812.897
 20
-127.271
 30
0.000000
  70
    32
  0
VERTEX
  8
01
  5
8FE8
 10
812.897
 20
-127.348
 30
0.000000
  70
    32
  0
VERTEX
  8
01
  5
8FE9
 10
812.897
 20
-127.426
 30
0.000000
  70
    32
  0
VERTEX
  8
01
  5
8FEA
 10
812.897
 20
-127.503
 30
0.000000
  70
    32
  0
VERTEX
  8
01
  5
8FEB
 10
812.897
 20
-127.581
 30
0.000000
  70
    32
  0
VERTEX
  8
01
  5
8FEC
 10
812.897
 20
-127.659
 30
0.000000
  70
    32
  0
VERTEX
  8
01
  5
8FED
 10
812.897
 20
-127.737
 30
0.000000
  70
    32
  0
VERTEX
  8
01
  5
8FEE
 10
812.897
 20
-127.815
 30
0.000000
  70
    32
  0
VERTEX
  8
01
  5
8FEF
 10
812.897
 20
-127.893
 30
0.000000
  70
    32
  0
VERTEX
  8
01
  5
8FF0
 10
812.897
 20
-127.972
 30
0.000000
  70
    32
  0
VERTEX
  8
01
  5
8FF1
 10
812.897
 20
-128.050
 30
0.000000
  70
    32
  0
VERTEX
  8
01
  5
8FF2
 10
812.897
 20
-128.129
 30
0.000000
  70
    32
  0
VERTEX
  8
01
  5
8FF3
 10
812.897
 20
-128.208
 30
0.000000
  70
    32
  0
VERTEX
  8
01
  5
8FF4
 10
812.897
 20
-128.287
 30
0.000000
  70
    32
  0
VERTEX
  8
01
  5
8FF5
 10
812.897
 20
-128.366
 30
0.000000
  70
    32
  0
VERTEX
  8
01
  5
8FF6
 10
812.897
 20
-128.445
 30
0.000000
  70
    32
  0
VERTEX
  8
01
  5
8FF7
 10
812.897
 20
-128.525
 30
0.000000
  70
    32
  0
VERTEX
  8
01
  5
8FF8
 10
812.897
 20
-128.604
 30
0.000000
  70
    32
  0
VERTEX
  8
01
  5
8FF9
 10
812.897
 20
-128.684
 30
0.000000
  70
    32
  0
VERTEX
  8
01
  5
8FFA
 10
812.897
 20
-128.764
 30
0.000000
  70
    32
  0
VERTEX
  8
01
  5
8FFB
 10
812.897
 20
-128.844
 30
0.000000
  70
    32
  0
VERTEX
  8
01
  5
8FFC
 10
812.897
 20
-128.924
 30
0.000000
  70
    32
  0
VERTEX
  8
01
  5
8FFD
 10
812.897
 20
-129.004
 30
0.000000
  70
    32
  0
VERTEX
  8
01
  5
8FFE
 10
812.897
 20
-129.084
 30
0.000000
  70
    32
  0
VERTEX
  8
01
  5
8FFF
 10
812.897
 20
-129.165
 30
0.000000
  70
    32
  0
VERTEX
  8
01
  5
9000
 10
812.897
 20
-129.246
 30
0.000000
  70
    32
  0
VERTEX
  8
01
  5
9001
 10
812.897
 20
-129.326
 30
0.000000
  70
    32
  0
VERTEX
  8
01
  5
9002
 10
812.897
 20
-129.407
 30
0.000000
  70
    32
  0
VERTEX
  8
01
  5
9003
 10
812.897
 20
-129.488
 30
0.000000
  70
    32
  0
VERTEX
  8
01
  5
9004
 10
812.897
 20
-129.569
 30
0.000000
  70
    32
  0
VERTEX
  8
01
  5
9005
 10
812.897
 20
-129.650
 30
0.000000
  70
    32
  0
VERTEX
  8
01
  5
9006
 10
812.897
 20
-129.732
 30
0.000000
  70
    32
  0
VERTEX
  8
01
  5
9007
 10
812.897
 20
-129.813
 30
0.000000
  70
    32
  0
VERTEX
  8
01
  5
9008
 10
812.897
 20
-129.895
 30
0.000000
  70
    32
  0
VERTEX
  8
01
  5
9009
 10
812.897
 20
-129.976
 30
0.000000
  70
    32
  0
VERTEX
  8
01
  5
900A
 10
812.897
 20
-130.058
 30
0.000000
  70
    32
  0
VERTEX
  8
01
  5
900B
 10
812.897
 20
-130.140
 30
0.000000
  70
    32
  0
VERTEX
  8
01
  5
900C
 10
812.897
 20
-130.222
 30
0.000000
  70
    32
  0
VERTEX
  8
01
  5
900D
 10
812.897
 20
-130.304
 30
0.000000
  70
    32
  0
VERTEX
  8
01
  5
900E
 10
812.897
 20
-130.386
 30
0.000000
  70
    32
  0
VERTEX
  8
01
  5
900F
 10
812.897
 20
-130.468
 30
0.000000
  70
    32
  0
VERTEX
  8
01
  5
9010
 10
812.897
 20
-130.550
 30
0.000000
  70
    32
  0
VERTEX
  8
01
  5
9011
 10
812.897
 20
-130.633
 30
0.000000
  70
    32
  0
VERTEX
  8
01
  5
9012
 10
812.897
 20
-130.715
 30
0.000000
  70
    32
  0
VERTEX
  8
01
  5
9013
 10
812.897
 20
-130.798
 30
0.000000
  70
    32
  0
VERTEX
  8
01
  5
9014
 10
812.897
 20
-130.881
 30
0.000000
  70
    32
  0
VERTEX
  8
01
  5
9015
 10
812.897
 20
-130.963
 30
0.000000
  70
    32
  0
VERTEX
  8
01
  5
9016
 10
812.897
 20
-131.046
 30
0.000000
  70
    32
  0
VERTEX
  8
01
  5
9017
 10
812.897
 20
-131.129
 30
0.000000
  70
    32
  0
VERTEX
  8
01
  5
9018
 10
812.897
 20
-131.212
 30
0.000000
  70
    32
  0
VERTEX
  8
01
  5
9019
 10
812.897
 20
-131.295
 30
0.000000
  70
    32
  0
VERTEX
  8
01
  5
901A
 10
812.897
 20
-131.378
 30
0.000000
  70
    32
  0
VERTEX
  8
01
  5
901B
 10
812.897
 20
-131.462
 30
0.000000
  70
    32
  0
VERTEX
  8
01
  5
901C
 10
812.897
 20
-131.545
 30
0.000000
  70
    32
  0
VERTEX
  8
01
  5
901D
 10
812.897
 20
-131.629
 30
0.000000
  70
    32
  0
VERTEX
  8
01
  5
901E
 10
812.897
 20
-131.712
 30
0.000000
  70
    32
  0
VERTEX
  8
01
  5
901F
 10
812.897
 20
-131.796
 30
0.000000
  70
    32
  0
VERTEX
  8
01
  5
9020
 10
812.897
 20
-131.879
 30
0.000000
  70
    32
  0
VERTEX
  8
01
  5
9021
 10
812.897
 20
-131.963
 30
0.000000
  70
    32
  0
VERTEX
  8
01
  5
9022
 10
812.897
 20
-132.047
 30
0.000000
  70
    32
  0
VERTEX
  8
01
  5
9023
 10
812.897
 20
-132.131
 30
0.000000
  70
    32
  0
VERTEX
  8
01
  5
9024
 10
812.897
 20
-132.214
 30
0.000000
  70
    32
  0
VERTEX
  8
01
  5
9025
 10
812.897
 20
-132.298
 30
0.000000
  70
    32
  0
VERTEX
  8
01
  5
9026
 10
812.897
 20
-132.382
 30
0.000000
  70
    32
  0
VERTEX
  8
01
  5
9027
 10
812.897
 20
-132.466
 30
0.000000
  70
    32
  0
VERTEX
  8
01
  5
9028
 10
812.897
 20
-132.551
 30
0.000000
  70
    32
  0
VERTEX
  8
01
  5
9029
 10
812.897
 20
-132.635
 30
0.000000
  70
    32
  0
VERTEX
  8
01
  5
902A
 10
812.897
 20
-132.719
 30
0.000000
  70
    32
  0
VERTEX
  8
01
  5
902B
 10
812.897
 20
-132.803
 30
0.000000
  70
    32
  0
VERTEX
  8
01
  5
902C
 10
812.897
 20
-132.888
 30
0.000000
  70
    32
  0
VERTEX
  8
01
  5
902D
 10
812.897
 20
-132.972
 30
0.000000
  70
    32
  0
VERTEX
  8
01
  5
902E
 10
812.897
 20
-133.056
 30
0.000000
  70
    32
  0
VERTEX
  8
01
  5
902F
 10
812.897
 20
-133.141
 30
0.000000
  70
    32
  0
VERTEX
  8
01
  5
9030
 10
812.897
 20
-133.225
 30
0.000000
  70
    32
  0
VERTEX
  8
01
  5
9031
 10
812.897
 20
-133.310
 30
0.000000
  70
    32
  0
VERTEX
  8
01
  5
9032
 10
812.897
 20
-133.395
 30
0.000000
  70
    32
  0
VERTEX
  8
01
  5
9033
 10
812.897
 20
-133.479
 30
0.000000
  70
    32
  0
VERTEX
  8
01
  5
9034
 10
812.897
 20
-133.564
 30
0.000000
  70
    32
  0
VERTEX
  8
01
  5
9035
 10
812.897
 20
-133.649
 30
0.000000
  70
    32
  0
VERTEX
  8
01
  5
9036
 10
812.897
 20
-133.733
 30
0.000000
  70
    32
  0
VERTEX
  8
01
  5
9037
 10
812.897
 20
-133.818
 30
0.000000
  70
    32
  0
VERTEX
  8
01
  5
9038
 10
812.897
 20
-133.903
 30
0.000000
  70
    32
  0
VERTEX
  8
01
  5
9039
 10
812.897
 20
-133.988
 30
0.000000
  70
    32
  0
VERTEX
  8
01
  5
903A
 10
812.897
 20
-134.073
 30
0.000000
  70
    32
  0
VERTEX
  8
01
  5
903B
 10
812.897
 20
-134.157
 30
0.000000
  70
    32
  0
VERTEX
  8
01
  5
903C
 10
812.897
 20
-134.242
 30
0.000000
  70
    32
  0
VERTEX
  8
01
  5
903D
 10
812.897
 20
-134.327
 30
0.000000
  70
    32
  0
VERTEX
  8
01
  5
903E
 10
812.897
 20
-134.412
 30
0.000000
  70
    32
  0
VERTEX
  8
01
  5
903F
 10
812.897
 20
-134.497
 30
0.000000
  70
    32
  0
VERTEX
  8
01
  5
9040
 10
812.897
 20
-134.582
 30
0.000000
  70
    32
  0
VERTEX
  8
01
  5
9041
 10
812.897
 20
-134.667
 30
0.000000
  70
    32
  0
VERTEX
  8
01
  5
9042
 10
812.897
 20
-134.752
 30
0.000000
  70
    32
  0
VERTEX
  8
01
  5
9043
 10
812.897
 20
-134.837
 30
0.000000
  70
    32
  0
VERTEX
  8
01
  5
9044
 10
812.897
 20
-134.922
 30
0.000000
  70
    32
  0
VERTEX
  8
01
  5
9045
 10
812.897
 20
-135.007
 30
0.000000
  70
    32
  0
VERTEX
  8
01
  5
9046
 10
812.897
 20
-135.092
 30
0.000000
  70
    32
  0
VERTEX
  8
01
  5
9047
 10
812.897
 20
-135.177
 30
0.000000
  70
    32
  0
VERTEX
  8
01
  5
9048
 10
812.897
 20
-135.262
 30
0.000000
  70
    32
  0
SEQEND
  8
01
  5
9049
  0
LINE
  5
83A3
  8
01
  6
BYBLOCK
 10
812.89715275831463
 20
-135.26225620381979
 30
0.0
 11
812.89715192779886
 21
-154.2623024243444
 31
0.0
  0
ARC
  5
83A4
  8
01
  6
BYBLOCK
 10
-812.39713638055139
 20
-116.2622265731232
 30
0.0
 40
0.5000155495054433
210
0.0
220
0.0
230
-1.0
 50
90.001781530141656
 51
179.9902481586345
  0
LINE
  5
83A5
  8
01
  6
BYBLOCK
 10
812.39715192779806
 20
-115.7622562038201
 30
0.0
 11
811.69715192779813
 21
-115.7622562038201
 31
0.0
  0
ARC
  5
83A6
  8
01
  6
BYBLOCK
 10
-812.397136293274
 20
-154.2622880100684
 30
0.0
 40
0.5000156347186503
210
0.0
220
0.0
230
-1.0
 50
180.0016521306074
 51
269.99820847338782
  0
LINE
  5
83A7
  8
01
  6
BYBLOCK
 10
811.69715192779813
 20
-154.76225620381999
 30
0.0
 11
812.39715192779806
 21
-154.76225620381999
 31
0.0
  0
LINE
  5
83A8
  8
01
  6
BYBLOCK
 10
781.69715278017031
 20
-155.2622557045689
 30
0.0
 11
781.69715278017031
 21
-115.2622567030711
 31
0.0
  0
LINE
  5
83A9
  8
01
  6
BYBLOCK
 10
780.29715278017022
 20
-154.7622557045689
 30
0.0
 11
780.29715278017022
 21
-115.7622567030711
 31
0.0
  0
ARC
  5
83AA
  8
01
  6
BYBLOCK
 10
780.79715278017022
 20
-154.7622557045689
 30
0.0
 40
0.5
 50
180.0
 51
270.0
  0
ARC
  5
83AB
  8
01
  6
BYBLOCK
 10
780.79715278017022
 20
-115.7622567030711
 30
0.0
 40
0.5
 50
90.0
 51
180.0
  0
LINE
  5
83AC
  8
01
  6
BYBLOCK
 10
780.79715278017022
 20
-115.2622567030711
 30
0.0
 11
781.69715278017031
 21
-115.2622567030711
 31
0.0
  0
LINE
  5
83AD
  8
01
  6
BYBLOCK
 10
781.69715278017031
 20
-155.2622557045689
 30
0.0
 11
780.79715278017022
 21
-155.2622557045689
 31
0.0
  0
LINE
  5
83AE
  8
01
  6
BYBLOCK
 10
715.79820057480208
 20
-134.2622744272237
 30
0.0
 11
725.59616698553612
 21
-134.26227442721631
 31
0.0
  0
LINE
  5
83AF
  8
01
  6
BYBLOCK
 10
715.79820801447545
 20
-136.2622744272237
 30
0.0
 11
725.59615954586582
 21
-136.26227442721631
 31
0.0
  0
CIRCLE
  5
83B0
  8
01
 10
720.69718378016989
 20
-135.2622562038199
 30
0.0
 40
5.0
  0
LINE
  5
8851
  8
1HATCH
 10
837.57924758226352
 20
-241.7490007603636
 30
0.0
 11
837.22924775633749
 21
-241.39900076036361
 31
0.0
  0
LINE
  5
8852
  8
1HATCH
 10
837.22924775633749
 20
-238.09900076036359
 30
0.0
 11
837.57924758226352
 21
-237.7490007603636
 31
0.0
  0
LINE
  5
8853
  8
1HATCH
 10
838.5792477463375
 20
-236.7490007603636
 30
0.0
 11
838.5792477463375
 21
-242.7490007603636
 31
0.0
  0
LINE
  5
8854
  8
1HATCH
 10
824.2292477563376
 20
-237.7490007603636
 30
0.0
 11
824.2292477563376
 21
-241.7490007603636
 31
0.0
  0
LINE
  5
8856
  8
1CENTER
 10
822.27757275633746
 20
-239.7490007603636
 30
0.0
 11
840.4380166563376
 21
-239.7490007603636
 31
0.0
  0
LINE
  5
8857
  8
1HATCH
 10
823.87924775633746
 20
-238.09900076036359
 30
0.0
 11
837.22924775633749
 21
-238.09900076036359
 31
0.0
  0
LINE
  5
8858
  8
1HATCH
 10
823.87924775633746
 20
-241.39900076036361
 30
0.0
 11
837.22924775633749
 21
-241.39900076036361
 31
0.0
  0
LINE
  5
885B
  8
1HATCH
 10
837.57924758226352
 20
-233.7490007603636
 30
0.0
 11
837.22924775633749
 21
-233.39900076036361
 31
0.0
  0
LINE
  5
885C
  8
1HATCH
 10
837.22924775633749
 20
-230.09900076036359
 30
0.0
 11
837.57924758226352
 21
-229.7490007603636
 31
0.0
  0
LINE
  5
885D
  8
1HATCH
 10
838.5792477463375
 20
-228.7490007603636
 30
0.0
 11
838.5792477463375
 21
-234.7490007603636
 31
0.0
  0
LINE
  5
885E
  8
1HATCH
 10
824.2292477563376
 20
-229.7490007603636
 30
0.0
 11
824.2292477563376
 21
-233.7490007603636
 31
0.0
  0
LINE
  5
8860
  8
1CENTER
 10
822.27757275633746
 20
-231.7490007603636
 30
0.0
 11
840.4380166563376
 21
-231.7490007603636
 31
0.0
  0
LINE
  5
8861
  8
1HATCH
 10
823.87924775633746
 20
-230.09900076036359
 30
0.0
 11
837.22924775633749
 21
-230.09900076036359
 31
0.0
  0
LINE
  5
8862
  8
1HATCH
 10
823.87924775633746
 20
-233.39900076036361
 30
0.0
 11
837.22924775633749
 21
-233.39900076036361
 31
0.0
  0
LINE
  5
8864
  8
01
 10
887.78736787656999
 20
-231.45764834875999
 30
0.0
 11
887.78738649092895
 21
-223.45764834875999
 31
0.0
  0
LINE
  5
8865
  8
01
 10
884.58737253015988
 20
-229.45764834875999
 30
0.0
 11
883.78738183734174
 21
-225.45764834875999
 31
0.0
  0
LINE
  5
8866
  8
01
 10
883.78738183734174
 20
-225.45764834875999
 30
0.0
 11
883.68738067394384
 21
-225.95764834875999
 31
0.0
  0
LINE
  5
8867
  8
01
 10
881.38737253015995
 20
-229.45764834875999
 30
0.0
 11
880.58738183733715
 21
-225.45764834875999
 31
0.0
  0
LINE
  5
8868
  8
01
 10
882.98737253015975
 20
-229.45764834875999
 30
0.0
 11
882.18738183733717
 21
-225.45764834875999
 31
0.0
  0
LINE
  5
8869
  8
01
 10
878.18737253015968
 20
-229.45764834875999
 30
0.0
 11
877.38738183733722
 21
-225.45764834875999
 31
0.0
  0
LINE
  5
886A
  8
01
 10
879.7873725301597
 20
-229.45764834875999
 30
0.0
 11
878.98738183733701
 21
-225.45764834875999
 31
0.0
  0
LINE
  5
886B
  8
01
 10
874.98737253015975
 20
-229.45764834875999
 30
0.0
 11
874.18738183733717
 21
-225.45764834875999
 31
0.0
  0
LINE
  5
886C
  8
01
 10
872.5873813105344
 20
-225.68405540096401
 30
0.0
 11
872.45811061290465
 21
-226.2206491362351
 31
0.0
  0
LINE
  5
886D
  8
01
 10
873.38737253015995
 20
-229.45764834875999
 30
0.0
 11
872.5873813105344
 21
-225.68405540096401
 31
0.0
  0
LINE
  5
886E
  8
01
 10
876.58737253015988
 20
-229.45764834875999
 30
0.0
 11
875.78738183733719
 21
-225.45764834875999
 31
0.0
  0
LINE
  5
886F
  8
01
 10
880.58738183733715
 20
-225.45764834875999
 30
0.0
 11
880.48738067394015
 21
-225.95764834875999
 31
0.0
  0
LINE
  5
8870
  8
01
 10
882.18738183733717
 20
-225.45764834875999
 30
0.0
 11
882.08738067394006
 21
-225.95764834875999
 31
0.0
  0
LINE
  5
8871
  8
01
 10
877.38738183733722
 20
-225.45764834875999
 30
0.0
 11
877.28738067394011
 21
-225.95764834875999
 31
0.0
  0
LINE
  5
8872
  8
01
 10
878.98738183733701
 20
-225.45764834875999
 30
0.0
 11
878.88738067394013
 21
-225.95764834875999
 31
0.0
  0
LINE
  5
8873
  8
01
 10
874.18738183733717
 20
-225.45764834875999
 30
0.0
 11
874.08738067394006
 21
-225.95764834875999
 31
0.0
  0
LINE
  5
8874
  8
01
 10
875.78738183733719
 20
-225.45764834875999
 30
0.0
 11
875.6873806739402
 21
-225.95764834875999
 31
0.0
  0
LINE
  5
8875
  8
1CENTER
 10
868.08737718369639
 20
-227.45764834875999
 30
0.0
 11
889.75307253041251
 21
-227.45764834875999
 31
0.0
  0
LINE
  5
8876
  8
01
 10
871.9001430961199
 20
-228.53673375155131
 30
0.0
 11
871.78737358376986
 21
-229.00483220670131
 31
0.0
  0
LINE
  5
8877
  8
01
 10
869.38737920332312
 20
-226.58968360977761
 30
0.0
 11
869.07560934707101
 21
-227.17796018481999
 31
0.0
  0
LINE
  5
8878
  8
01
 10
870.3388104338145
 20
-228.0948468580219
 30
0.0
 11
870.18737463737421
 21
-228.552018698653
 31
0.0
  0
LINE
  5
8879
  8
01
 10
870.98738025692887
 20
-226.13686950537081
 30
0.0
 11
870.80461611430087
 21
-226.688618969174
 31
0.0
  0
LINE
  5
887A
  8
01
 10
870.18737463737421
 20
-228.552018698653
 30
0.0
 11
869.38737920332312
 21
-226.58968360977761
 31
0.0
  0
LINE
  5
887B
  8
01
 10
871.78737358376986
 20
-229.00483220670131
 30
0.0
 11
870.98738025692887
 21
-226.13686950537081
 31
0.0
  0
LINE
  5
887C
  8
01
 10
881.48737369355683
 20
-228.95764834875999
 30
0.0
 11
881.38737253015995
 21
-229.45764834875999
 31
0.0
  0
LINE
  5
887D
  8
01
 10
883.08737369355765
 20
-228.95764834875999
 30
0.0
 11
882.98737253015975
 21
-229.45764834875999
 31
0.0
  0
LINE
  5
887E
  8
01
 10
876.68737369355699
 20
-228.95764834875999
 30
0.0
 11
876.58737253015988
 21
-229.45764834875999
 31
0.0
  0
LINE
  5
887F
  8
01
 10
878.28737369355679
 20
-228.95764834875999
 30
0.0
 11
878.18737253015968
 21
-229.45764834875999
 31
0.0
  0
LINE
  5
8880
  8
01
 10
879.88737369355681
 20
-228.95764834875999
 30
0.0
 11
879.7873725301597
 21
-229.45764834875999
 31
0.0
  0
LINE
  5
8881
  8
01
 10
875.08737369355686
 20
-228.95764834875999
 30
0.0
 11
874.98737253015975
 21
-229.45764834875999
 31
0.0
  0
LINE
  5
8882
  8
01
 10
873.48737369355683
 20
-228.95764834875999
 30
0.0
 11
873.38737253015995
 21
-229.45764834875999
 31
0.0
  0
LINE
  5
8883
  8
01
 10
884.68737369355745
 20
-228.95764834875999
 30
0.0
 11
884.58737253015988
 21
-229.45764834875999
 31
0.0
  0
LINE
  5
8885
  8
01
 10
887.78736787656999
 20
-241.7745169557403
 30
0.0
 11
887.78738649092895
 21
-233.7745169557403
 31
0.0
  0
LINE
  5
8886
  8
01
 10
884.58737253015988
 20
-239.7745169557403
 30
0.0
 11
883.78738183734174
 21
-235.7745169557403
 31
0.0
  0
LINE
  5
8887
  8
01
 10
883.78738183734174
 20
-235.7745169557403
 30
0.0
 11
883.68738067394384
 21
-236.2745169557403
 31
0.0
  0
LINE
  5
8888
  8
01
 10
881.38737253015995
 20
-239.7745169557403
 30
0.0
 11
880.58738183733715
 21
-235.7745169557403
 31
0.0
  0
LINE
  5
8889
  8
01
 10
882.98737253015975
 20
-239.7745169557403
 30
0.0
 11
882.18738183733717
 21
-235.7745169557403
 31
0.0
  0
LINE
  5
888A
  8
01
 10
878.18737253015968
 20
-239.7745169557403
 30
0.0
 11
877.38738183733722
 21
-235.7745169557403
 31
0.0
  0
LINE
  5
888B
  8
01
 10
879.7873725301597
 20
-239.7745169557403
 30
0.0
 11
878.98738183733701
 21
-235.7745169557403
 31
0.0
  0
LINE
  5
888C
  8
01
 10
874.98737253015975
 20
-239.7745169557403
 30
0.0
 11
874.18738183733717
 21
-235.7745169557403
 31
0.0
  0
LINE
  5
888D
  8
01
 10
872.5873813105344
 20
-236.00092400794429
 30
0.0
 11
872.45811061290465
 21
-236.5375177432154
 31
0.0
  0
LINE
  5
888E
  8
01
 10
873.38737253015995
 20
-239.7745169557403
 30
0.0
 11
872.5873813105344
 21
-236.00092400794429
 31
0.0
  0
LINE
  5
888F
  8
01
 10
876.58737253015988
 20
-239.7745169557403
 30
0.0
 11
875.78738183733719
 21
-235.7745169557403
 31
0.0
  0
LINE
  5
8890
  8
01
 10
880.58738183733715
 20
-235.7745169557403
 30
0.0
 11
880.48738067394015
 21
-236.2745169557403
 31
0.0
  0
LINE
  5
8891
  8
01
 10
882.18738183733717
 20
-235.7745169557403
 30
0.0
 11
882.08738067394006
 21
-236.2745169557403
 31
0.0
  0
LINE
  5
8892
  8
01
 10
877.38738183733722
 20
-235.7745169557403
 30
0.0
 11
877.28738067394011
 21
-236.2745169557403
 31
0.0
  0
LINE
  5
8893
  8
01
 10
878.98738183733701
 20
-235.7745169557403
 30
0.0
 11
878.88738067394013
 21
-236.2745169557403
 31
0.0
  0
LINE
  5
8894
  8
01
 10
874.18738183733717
 20
-235.7745169557403
 30
0.0
 11
874.08738067394006
 21
-236.2745169557403
 31
0.0
  0
LINE
  5
8895
  8
01
 10
875.78738183733719
 20
-235.7745169557403
 30
0.0
 11
875.6873806739402
 21
-236.2745169557403
 31
0.0
  0
LINE
  5
8896
  8
1CENTER
 10
868.08737718369639
 20
-237.7745169557403
 30
0.0
 11
889.75307253041251
 21
-237.7745169557403
 31
0.0
  0
LINE
  5
8897
  8
01
 10
871.9001430961199
 20
-238.85360235853159
 30
0.0
 11
871.78737358376986
 21
-239.32170081368159
 31
0.0
  0
LINE
  5
8898
  8
01
 10
869.38737920332312
 20
-236.9065522167578
 30
0.0
 11
869.07560934707101
 21
-237.4948287918003
 31
0.0
  0
LINE
  5
8899
  8
01
 10
870.3388104338145
 20
-238.4117154650022
 30
0.0
 11
870.18737463737421
 21
-238.86888730563331
 31
0.0
  0
LINE
  5
889A
  8
01
 10
870.98738025692887
 20
-236.45373811235109
 30
0.0
 11
870.80461611430087
 21
-237.00548757615431
 31
0.0
  0
LINE
  5
889B
  8
01
 10
870.18737463737421
 20
-238.86888730563331
 30
0.0
 11
869.38737920332312
 21
-236.9065522167578
 31
0.0
  0
LINE
  5
889C
  8
01
 10
871.78737358376986
 20
-239.32170081368159
 30
0.0
 11
870.98738025692887
 21
-236.45373811235109
 31
0.0
  0
LINE
  5
889D
  8
01
 10
881.48737369355683
 20
-239.2745169557403
 30
0.0
 11
881.38737253015995
 21
-239.7745169557403
 31
0.0
  0
LINE
  5
889E
  8
01
 10
883.08737369355765
 20
-239.2745169557403
 30
0.0
 11
882.98737253015975
 21
-239.7745169557403
 31
0.0
  0
LINE
  5
889F
  8
01
 10
876.68737369355699
 20
-239.2745169557403
 30
0.0
 11
876.58737253015988
 21
-239.7745169557403
 31
0.0
  0
LINE
  5
88A0
  8
01
 10
878.28737369355679
 20
-239.2745169557403
 30
0.0
 11
878.18737253015968
 21
-239.7745169557403
 31
0.0
  0
LINE
  5
88A1
  8
01
 10
879.88737369355681
 20
-239.2745169557403
 30
0.0
 11
879.7873725301597
 21
-239.7745169557403
 31
0.0
  0
LINE
  5
88A2
  8
01
 10
875.08737369355686
 20
-239.2745169557403
 30
0.0
 11
874.98737253015975
 21
-239.7745169557403
 31
0.0
  0
LINE
  5
88A3
  8
01
 10
873.48737369355683
 20
-239.2745169557403
 30
0.0
 11
873.38737253015995
 21
-239.7745169557403
 31
0.0
  0
LINE
  5
88A4
  8
01
 10
884.68737369355745
 20
-239.2745169557403
 30
0.0
 11
884.58737253015988
 21
-239.7745169557403
 31
0.0
  0
POINT
  5
88A5
  8
01
  6
CONTINUOUS
 10
877.69703452536157
 20
-147.7622562035146
 30
0.0
  0
LINE
  5
88A6
  8
01
  6
CONTINUOUS
 10
879.69703522536156
 20
-147.2622577535146
 30
0.0
 11
879.69703522536156
 21
-148.2622577535146
 31
0.0
  0
LINE
  5
88A7
  8
01
  6
CONTINUOUS
 10
877.19703515536162
 20
-145.76225770351459
 30
0.0
 11
878.19703512536148
 21
-145.76225770351459
 31
0.0
  0
LINE
  5
88A8
  8
01
  6
CONTINUOUS
 10
877.19703515536162
 20
-149.7622576035146
 30
0.0
 11
878.19703512536148
 21
-149.7622576035146
 31
0.0
  0
LINE
  5
88A9
  8
01
  6
CONTINUOUS
 10
878.89703512536153
 20
-147.2622577535146
 30
0.0
 11
879.69703522536156
 21
-147.2622577535146
 31
0.0
  0
LINE
  5
88AA
  8
01
  6
CONTINUOUS
 10
878.89703512536153
 20
-148.2622577535146
 30
0.0
 11
879.69703522536156
 21
-148.2622577535146
 31
0.0
  0
LINE
  5
88AB
  8
01
  6
CONTINUOUS
 10
878.19703512536148
 20
-145.76225770351459
 30
0.0
 11
878.19703512536148
 21
-146.5622577035146
 31
0.0
  0
LINE
  5
88AC
  8
01
  6
CONTINUOUS
 10
877.19703515536162
 20
-148.9622578035146
 30
0.0
 11
877.19703515536162
 21
-149.7622576035146
 31
0.0
  0
LINE
  5
88AD
  8
01
  6
CONTINUOUS
 10
878.19703512536148
 20
-148.9622578035146
 30
0.0
 11
878.19703512536148
 21
-149.7622576035146
 31
0.0
  0
LINE
  5
88AE
  8
01
  6
CONTINUOUS
 10
876.49703522536163
 20
-147.2622577535146
 30
0.0
 11
875.69703512536148
 21
-147.2622577535146
 31
0.0
  0
LINE
  5
88AF
  8
01
  6
CONTINUOUS
 10
876.49703522536163
 20
-148.2622577535146
 30
0.0
 11
875.69703512536148
 21
-148.2622577535146
 31
0.0
  0
LINE
  5
88B0
  8
01
  6
CONTINUOUS
 10
877.19703515536162
 20
-145.76225770351459
 30
0.0
 11
877.19703515536162
 21
-146.5622577035146
 31
0.0
  0
LINE
  5
88B1
  8
01
  6
CONTINUOUS
 10
877.34703500536148
 20
-148.8847098035146
 30
0.0
 11
877.19703494536145
 21
-149.76225790351461
 31
0.0
  0
LINE
  5
88B2
  8
01
  6
CONTINUOUS
 10
878.04703466536148
 20
-148.8847098035146
 30
0.0
 11
878.19703446536153
 21
-149.76225640351461
 31
0.0
  0
LINE
  5
88B3
  8
01
  6
CONTINUOUS
 10
878.81948632536159
 20
-148.11225733351461
 30
0.0
 11
879.69703412536148
 21
-148.2622573935146
 31
0.0
  0
LINE
  5
88B4
  8
01
  6
CONTINUOUS
 10
878.8194869253615
 20
-147.41225710351461
 30
0.0
 11
879.69703502536163
 21
-147.26225700351461
 31
0.0
  0
LINE
  5
88B5
  8
01
  6
CONTINUOUS
 10
878.04703398536162
 20
-146.63980470351461
 30
0.0
 11
878.19703407536144
 21
-145.76225640351461
 31
0.0
  0
LINE
  5
88B6
  8
01
  6
CONTINUOUS
 10
877.34703491536152
 20
-146.63980470351461
 30
0.0
 11
877.19703488536152
 21
-145.76225670351459
 31
0.0
  0
LINE
  5
88B7
  8
01
  6
CONTINUOUS
 10
876.57458272536155
 20
-147.41225710351461
 30
0.0
 11
875.69703472536162
 21
-147.2622570335146
 31
0.0
  0
LINE
  5
88B8
  8
01
  6
CONTINUOUS
 10
876.57458262536147
 20
-148.11225745351459
 30
0.0
 11
875.69703532536153
 21
-148.2622573935146
 31
0.0
  0
LINE
  5
88B9
  8
01
  6
CONTINUOUS
 10
878.04703514536152
 20
-148.88470950351461
 30
0.0
 11
877.3470351553616
 21
-148.88470950351461
 31
0.0
  0
LINE
  5
88BA
  8
01
  6
CONTINUOUS
 10
878.8194869253615
 20
-147.41225776351459
 30
0.0
 11
878.8194869253615
 21
-148.11225774351459
 31
0.0
  0
LINE
  5
88BB
  8
01
  6
CONTINUOUS
 10
877.3470351553616
 20
-146.6398044035146
 30
0.0
 11
878.04703514536152
 21
-146.6398044035146
 31
0.0
  0
LINE
  5
88BC
  8
01
  6
CONTINUOUS
 10
876.57458182536141
 20
-148.11225774351459
 30
0.0
 11
876.57458182536141
 21
-147.41225776351459
 31
0.0
  0
LINE
  5
88BD
  8
01
  6
CONTINUOUS
 10
877.88145320536148
 20
-147.81976626651459
 30
0.0
 11
878.6876057853616
 21
-148.07116028351459
 31
0.0
  0
LINE
  5
88BE
  8
01
  6
CONTINUOUS
 10
877.88145300536155
 20
-147.7047480625146
 30
0.0
 11
878.68760566536162
 21
-147.45335403351459
 31
0.0
  0
LINE
  5
88BF
  8
01
  6
CONTINUOUS
 10
877.63952509236162
 20
-147.57783901351459
 30
0.0
 11
877.38813106536145
 21
-146.7716863735146
 31
0.0
  0
LINE
  5
88C0
  8
01
  6
CONTINUOUS
 10
877.75454393636153
 20
-147.57783907351461
 30
0.0
 11
878.00593795536156
 21
-146.77168649351461
 31
0.0
  0
LINE
  5
88C1
  8
01
  6
CONTINUOUS
 10
877.51261700536145
 20
-147.81976743651461
 30
0.0
 11
876.70646439536154
 21
-148.07116147351459
 31
0.0
  0
LINE
  5
88C2
  8
01
  6
CONTINUOUS
 10
877.51261720536161
 20
-147.70474689251461
 30
0.0
 11
876.7064646353615
 21
-147.45335289351459
 31
0.0
  0
LINE
  5
88C3
  8
01
  6
CONTINUOUS
 10
877.75454446936146
 20
-147.94667503351459
 30
0.0
 11
878.00593848536153
 21
-148.75282764351459
 31
0.0
  0
LINE
  5
88C4
  8
01
  6
CONTINUOUS
 10
877.63952456336153
 20
-147.94667509351461
 30
0.0
 11
877.38813053536148
 21
-148.7528277635146
 31
0.0
  0
LINE
  5
88C5
  8
01
  6
CONTINUOUS
 10
875.69703512536148
 20
-147.2622577535146
 30
0.0
 11
875.69703512536148
 21
-148.2622577535146
 31
0.0
  0
ARC
  5
88C6
  8
01
  6
CONTINUOUS
 10
878.89703512536153
 20
-146.5622577035146
 30
0.0
 40
0.6999999900000001
 50
179.99999000000059
 51
270.0
  0
ARC
  5
88C7
  8
01
  6
CONTINUOUS
 10
876.49703522536163
 20
-146.5622577035146
 30
0.0
 40
0.6999999900000001
 50
270.0
 51
0.0
  0
ARC
  5
88C8
  8
01
  6
CONTINUOUS
 10
876.49703522536163
 20
-148.9622578035146
 30
0.0
 40
0.6999999900000001
 50
0.0
 51
90.00000299999769
  0
ARC
  5
88C9
  8
01
  6
CONTINUOUS
 10
878.89703512536153
 20
-148.9622578035146
 30
0.0
 40
0.6999999900000001
 50
90.00000299999769
 51
180.00000999999941
  0
ARC
  5
88CA
  8
01
  6
CONTINUOUS
 10
878.89703512536153
 20
-146.5622577035146
 30
0.0
 40
0.8535000099999999
 50
185.20520999999991
 51
264.79477999999762
  0
ARC
  5
88CB
  8
01
  6
CONTINUOUS
 10
876.49703522536163
 20
-146.5622577035146
 30
0.0
 40
0.8535000099999999
 50
275.20522000000238
 51
354.79477999999921
  0
ARC
  5
88CC
  8
01
  6
CONTINUOUS
 10
878.89703512536153
 20
-148.9622578035146
 30
0.0
 40
0.8535000099999999
 50
95.205220999997891
 51
174.79479000000001
  0
ARC
  5
88CD
  8
01
  6
CONTINUOUS
 10
876.49703522536163
 20
-148.9622578035146
 30
0.0
 40
0.8535000099999999
 50
5.2052206000002288
 51
84.794776999997936
  0
POINT
  5
88CE
  8
01
  6
CONTINUOUS
 10
877.69720903497864
 20
-122.7622562041238
 30
0.0
  0
LINE
  5
88CF
  8
01
  6
CONTINUOUS
 10
879.69720973497874
 20
-122.26225775412379
 30
0.0
 11
879.69720973497874
 21
-123.26225775412379
 31
0.0
  0
LINE
  5
88D0
  8
01
  6
CONTINUOUS
 10
877.1972096649788
 20
-120.7622577041238
 30
0.0
 11
878.19720963497878
 21
-120.7622577041238
 31
0.0
  0
LINE
  5
88D1
  8
01
  6
CONTINUOUS
 10
877.1972096649788
 20
-124.7622576041238
 30
0.0
 11
878.19720963497878
 21
-124.7622576041238
 31
0.0
  0
LINE
  5
88D2
  8
01
  6
CONTINUOUS
 10
878.89720963497871
 20
-122.26225775412379
 30
0.0
 11
879.69720973497874
 21
-122.26225775412379
 31
0.0
  0
LINE
  5
88D3
  8
01
  6
CONTINUOUS
 10
878.89720963497871
 20
-123.26225775412379
 30
0.0
 11
879.69720973497874
 21
-123.26225775412379
 31
0.0
  0
LINE
  5
88D4
  8
01
  6
CONTINUOUS
 10
878.19720963497878
 20
-120.7622577041238
 30
0.0
 11
878.19720963497878
 21
-121.56225770412379
 31
0.0
  0
LINE
  5
88D5
  8
01
  6
CONTINUOUS
 10
877.1972096649788
 20
-123.96225780412379
 30
0.0
 11
877.1972096649788
 21
-124.7622576041238
 31
0.0
  0
LINE
  5
88D6
  8
01
  6
CONTINUOUS
 10
878.19720963497878
 20
-123.96225780412379
 30
0.0
 11
878.19720963497878
 21
-124.7622576041238
 31
0.0
  0
LINE
  5
88D7
  8
01
  6
CONTINUOUS
 10
876.49720973497881
 20
-122.26225775412379
 30
0.0
 11
875.69720963497866
 21
-122.26225775412379
 31
0.0
  0
LINE
  5
88D8
  8
01
  6
CONTINUOUS
 10
876.49720973497881
 20
-123.26225775412379
 30
0.0
 11
875.69720963497866
 21
-123.26225775412379
 31
0.0
  0
LINE
  5
88D9
  8
01
  6
CONTINUOUS
 10
877.1972096649788
 20
-120.7622577041238
 30
0.0
 11
877.1972096649788
 21
-121.56225770412379
 31
0.0
  0
LINE
  5
88DA
  8
01
  6
CONTINUOUS
 10
877.34720951497877
 20
-123.8847098041238
 30
0.0
 11
877.19720945497875
 21
-124.7622579041238
 31
0.0
  0
LINE
  5
88DB
  8
01
  6
CONTINUOUS
 10
878.04720917497866
 20
-123.8847098041238
 30
0.0
 11
878.19720897497871
 21
-124.7622564041238
 31
0.0
  0
LINE
  5
88DC
  8
01
  6
CONTINUOUS
 10
878.81966083497866
 20
-123.1122573341238
 30
0.0
 11
879.69720863497878
 21
-123.26225739412379
 31
0.0
  0
LINE
  5
88DD
  8
01
  6
CONTINUOUS
 10
878.8196614349788
 20
-122.4122571041238
 30
0.0
 11
879.69720953497881
 21
-122.2622570041238
 31
0.0
  0
LINE
  5
88DE
  8
01
  6
CONTINUOUS
 10
878.04720849497892
 20
-121.6398047041238
 30
0.0
 11
878.19720858497874
 21
-120.7622564041238
 31
0.0
  0
LINE
  5
88DF
  8
01
  6
CONTINUOUS
 10
877.34720942497859
 20
-121.6398047041238
 30
0.0
 11
877.19720939497859
 21
-120.7622567041238
 31
0.0
  0
LINE
  5
88E0
  8
01
  6
CONTINUOUS
 10
876.57475723497885
 20
-122.4122571041238
 30
0.0
 11
875.69720923497869
 21
-122.26225703412381
 31
0.0
  0
LINE
  5
88E1
  8
01
  6
CONTINUOUS
 10
876.57475713497877
 20
-123.11225745412381
 30
0.0
 11
875.69720983497882
 21
-123.26225739412379
 31
0.0
  0
LINE
  5
88E2
  8
01
  6
CONTINUOUS
 10
878.04720965497859
 20
-123.8847095041238
 30
0.0
 11
877.34720966497878
 21
-123.8847095041238
 31
0.0
  0
LINE
  5
88E3
  8
01
  6
CONTINUOUS
 10
878.8196614349788
 20
-122.41225776412379
 30
0.0
 11
878.8196614349788
 21
-123.1122577441237
 31
0.0
  0
LINE
  5
88E4
  8
01
  6
CONTINUOUS
 10
877.34720966497878
 20
-121.63980440412379
 30
0.0
 11
878.04720965497859
 21
-121.63980440412379
 31
0.0
  0
LINE
  5
88E5
  8
01
  6
CONTINUOUS
 10
876.5747563349787
 20
-123.1122577441237
 30
0.0
 11
876.5747563349787
 21
-122.41225776412379
 31
0.0
  0
LINE
  5
88E6
  8
01
  6
CONTINUOUS
 10
877.88162771497878
 20
-122.8197662671238
 30
0.0
 11
878.68778029497867
 21
-123.07116028412381
 31
0.0
  0
LINE
  5
88E7
  8
01
  6
CONTINUOUS
 10
877.88162751497885
 20
-122.7047480631238
 30
0.0
 11
878.6877801749788
 21
-122.45335403412381
 31
0.0
  0
LINE
  5
88E8
  8
01
  6
CONTINUOUS
 10
877.63969960197869
 20
-122.5778390141238
 30
0.0
 11
877.38830557497874
 21
-121.7716863741238
 31
0.0
  0
LINE
  5
88E9
  8
01
  6
CONTINUOUS
 10
877.75471844597882
 20
-122.5778390741238
 30
0.0
 11
878.00611246497874
 21
-121.7716864941237
 31
0.0
  0
LINE
  5
88EA
  8
01
  6
CONTINUOUS
 10
877.51279151497874
 20
-122.8197674371238
 30
0.0
 11
876.70663890497872
 21
-123.0711614741238
 31
0.0
  0
LINE
  5
88EB
  8
01
  6
CONTINUOUS
 10
877.51279171497879
 20
-122.7047468931238
 30
0.0
 11
876.70663914497868
 21
-122.4533528941238
 31
0.0
  0
LINE
  5
88EC
  8
01
  6
CONTINUOUS
 10
877.75471897897864
 20
-122.9466750341238
 30
0.0
 11
878.00611299497871
 21
-123.7528276441238
 31
0.0
  0
LINE
  5
88ED
  8
01
  6
CONTINUOUS
 10
877.63969907297883
 20
-122.9466750941238
 30
0.0
 11
877.38830504497878
 21
-123.75282776412379
 31
0.0
  0
LINE
  5
88EE
  8
01
  6
CONTINUOUS
 10
875.69720963497866
 20
-122.26225775412379
 30
0.0
 11
875.69720963497866
 21
-123.26225775412379
 31
0.0
  0
ARC
  5
88EF
  8
01
  6
CONTINUOUS
 10
878.89720963497871
 20
-121.56225770412379
 30
0.0
 40
0.6999999900000001
 50
179.9999899999998
 51
270.0
  0
ARC
  5
88F0
  8
01
  6
CONTINUOUS
 10
876.49720973497881
 20
-121.56225770412379
 30
0.0
 40
0.6999999900000001
 50
270.0
 51
0.0
  0
ARC
  5
88F1
  8
01
  6
CONTINUOUS
 10
876.49720973497881
 20
-123.96225780412379
 30
0.0
 40
0.6999999900000001
 50
0.0
 51
90.00000299999769
  0
ARC
  5
88F2
  8
01
  6
CONTINUOUS
 10
878.89720963497871
 20
-123.96225780412379
 30
0.0
 40
0.6999999900000001
 50
90.00000299999769
 51
180.0000100000002
  0
ARC
  5
88F3
  8
01
  6
CONTINUOUS
 10
878.89720963497871
 20
-121.56225770412379
 30
0.0
 40
0.8535000099999999
 50
185.20520999999991
 51
264.79477999999767
  0
ARC
  5
88F4
  8
01
  6
CONTINUOUS
 10
876.49720973497881
 20
-121.56225770412379
 30
0.0
 40
0.8535000099999999
 50
275.20522000000233
 51
354.79478
  0
ARC
  5
88F5
  8
01
  6
CONTINUOUS
 10
878.89720963497871
 20
-123.96225780412379
 30
0.0
 40
0.8535000099999999
 50
95.205220999997934
 51
174.79479000000001
  0
ARC
  5
88F6
  8
01
  6
CONTINUOUS
 10
876.49720973497881
 20
-123.96225780412379
 30
0.0
 40
0.8535000099999999
 50
5.2052206000002288
 51
84.794776999998035
  0
LINE
  5
88F7
  8
01
 10
888.08736787657108
 20
-241.7745169557403
 30
0.0
 11
888.08738649093016
 21
-233.7745169557403
 31
0.0
  0
LINE
  5
88F8
  8
01
 10
887.78738649092895
 20
-233.7745169557403
 30
0.0
 11
888.08738649093016
 21
-233.7745169557403
 31
0.0
  0
LINE
  5
88F9
  8
01
 10
887.78736787656999
 20
-241.7745169557403
 30
0.0
 11
888.08736787657108
 21
-241.7745169557403
 31
0.0
  0
LINE
  5
88FA
  8
01
 10
887.78738649092895
 20
-233.7745169557403
 30
0.0
 11
885.28735740582385
 21
-236.2745169557403
 31
0.0
  0
LINE
  5
88FB
  8
01
 10
887.78736787656999
 20
-241.7745169557403
 30
0.0
 11
885.28738532747104
 21
-239.2745169557403
 31
0.0
  0
LINE
  5
88FC
  8
01
 10
873.38738067394206
 20
-236.2745169557403
 30
0.0
 11
885.28735740582385
 21
-236.2745169557403
 31
0.0
  0
LINE
  5
88FD
  8
01
 10
873.38737369355727
 20
-239.2745169557403
 30
0.0
 11
885.28738532747104
 21
-239.2745169557403
 31
0.0
  0
LINE
  5
88FE
  8
01
 10
868.08737718369639
 20
-237.7745169557403
 30
0.0
 11
873.38738067394206
 21
-236.2745169557403
 31
0.0
  0
LINE
  5
88FF
  8
01
 10
868.08737718369639
 20
-237.7745169557403
 30
0.0
 11
873.38737369355727
 21
-239.2745169557403
 31
0.0
  0
LINE
  5
8900
  8
01
 10
888.08736787657108
 20
-231.45764834875999
 30
0.0
 11
888.08738649093016
 21
-223.45764834875999
 31
0.0
  0
LINE
  5
8901
  8
01
 10
887.78738649092895
 20
-223.45764834875999
 30
0.0
 11
888.08738649093016
 21
-223.45764834875999
 31
0.0
  0
LINE
  5
8902
  8
01
 10
887.78736787656999
 20
-231.45764834875999
 30
0.0
 11
888.08736787657108
 21
-231.45764834875999
 31
0.0
  0
LINE
  5
8903
  8
01
 10
887.78738649092895
 20
-223.45764834875999
 30
0.0
 11
885.28735740582385
 21
-225.95764834875999
 31
0.0
  0
LINE
  5
8904
  8
01
 10
887.78736787656999
 20
-231.45764834875999
 30
0.0
 11
885.28738532747104
 21
-228.95764834875999
 31
0.0
  0
LINE
  5
8905
  8
01
 10
873.38738067394206
 20
-225.95764834875999
 30
0.0
 11
885.28735740582385
 21
-225.95764834875999
 31
0.0
  0
LINE
  5
8906
  8
01
 10
873.38737369355727
 20
-228.95764834875999
 30
0.0
 11
885.28738532747104
 21
-228.95764834875999
 31
0.0
  0
LINE
  5
8907
  8
01
 10
868.08737718369639
 20
-227.45764834875999
 30
0.0
 11
873.38738067394206
 21
-225.95764834875999
 31
0.0
  0
LINE
  5
8908
  8
01
 10
868.08737718369639
 20
-227.45764834875999
 30
0.0
 11
873.38737369355727
 21
-228.95764834875999
 31
0.0
  0
LINE
  5
8909
  8
01
 10
824.2292477563376
 20
-233.7490007603636
 30
0.0
 11
837.57924758226352
 21
-233.7490007603636
 31
0.0
  0
LINE
  5
890A
  8
01
 10
837.57924758226352
 20
-233.7490007603636
 30
0.0
 11
838.57924765633754
 21
-234.7490007603636
 31
0.0
  0
LINE
  5
890B
  8
01
 10
823.87924775633746
 20
-233.39900076036349
 30
0.0
 11
824.2292477563376
 21
-233.7490007603636
 31
0.0
  0
LINE
  5
890C
  8
01
 10
838.57924765633754
 20
-234.7490007603636
 30
0.0
 11
838.87924775633746
 21
-234.7490007603636
 31
0.0
  0
LINE
  5
890D
  8
01
 10
823.87924775633746
 20
-230.09900076036359
 30
0.0
 11
823.87924775633746
 21
-233.39900076036349
 31
0.0
  0
LINE
  5
890E
  8
01
 10
838.87924775633746
 20
-228.7490007603636
 30
0.0
 11
838.87924775633746
 21
-234.7490007603636
 31
0.0
  0
LINE
  5
890F
  8
01
 10
824.2292477563376
 20
-229.7490007603636
 30
0.0
 11
823.87924775633746
 21
-230.09900076036359
 31
0.0
  0
LINE
  5
8910
  8
01
 10
838.5792477463375
 20
-228.7490007603636
 30
0.0
 11
838.87924775633746
 21
-228.7490007603636
 31
0.0
  0
LINE
  5
8911
  8
01
 10
824.2292477563376
 20
-229.7490007603636
 30
0.0
 11
837.57924758226352
 21
-229.7490007603636
 31
0.0
  0
LINE
  5
8912
  8
01
 10
837.57924758226352
 20
-229.7490007603636
 30
0.0
 11
838.5792477463375
 21
-228.7490007603636
 31
0.0
  0
LINE
  5
8913
  8
01
 10
824.2292477563376
 20
-241.7490007603636
 30
0.0
 11
837.57924758226352
 21
-241.7490007603636
 31
0.0
  0
LINE
  5
8914
  8
01
 10
837.57924758226352
 20
-241.7490007603636
 30
0.0
 11
838.57924765633754
 21
-242.7490007603636
 31
0.0
  0
LINE
  5
8915
  8
01
 10
823.87924775633746
 20
-241.39900076036349
 30
0.0
 11
824.2292477563376
 21
-241.7490007603636
 31
0.0
  0
LINE
  5
8916
  8
01
 10
838.57924765633754
 20
-242.7490007603636
 30
0.0
 11
838.87924775633746
 21
-242.7490007603636
 31
0.0
  0
LINE
  5
8917
  8
01
 10
823.87924775633746
 20
-238.09900076036359
 30
0.0
 11
823.87924775633746
 21
-241.39900076036349
 31
0.0
  0
LINE
  5
8918
  8
01
 10
838.87924775633746
 20
-236.7490007603636
 30
0.0
 11
838.87924775633746
 21
-242.7490007603636
 31
0.0
  0
LINE
  5
8919
  8
01
 10
824.2292477563376
 20
-237.7490007603636
 30
0.0
 11
823.87924775633746
 21
-238.09900076036359
 31
0.0
  0
LINE
  5
891A
  8
01
 10
838.5792477463375
 20
-236.7490007603636
 30
0.0
 11
838.87924775633746
 21
-236.7490007603636
 31
0.0
  0
LINE
  5
891B
  8
01
 10
824.2292477563376
 20
-237.7490007603636
 30
0.0
 11
837.57924758226352
 21
-237.7490007603636
 31
0.0
  0
LINE
  5
891C
  8
01
 10
837.57924758226352
 20
-237.7490007603636
 30
0.0
 11
838.5792477463375
 21
-236.7490007603636
 31
0.0
  0
LINE
  5
891D
  8
1DIM
 10
845.87924775633758
 20
-259.65647649919163
 30
0.0
 11
853.87204567668869
 21
-259.65647649919163
 31
0.0
  0
LINE
  5
891E
  8
1DIM
 10
845.87924775633758
 20
-253.6564764991916
 30
0.0
 11
853.8720456766888
 21
-253.6564764991916
 31
0.0
  0
LINE
  5
891F
  8
1DIM
 10
852.87204567668869
 20
-257.65647649919163
 30
0.0
 11
852.87204567668869
 21
-255.6564764991916
 31
0.0
  0
LINE
  5
8920
  8
1DIM
 10
852.87204567668869
 20
-253.6564764991916
 30
0.0
 11
852.87204567668869
 21
-243.92314316585819
 31
0.0
  0
LINE
  5
8924
  8
1DIM
 10
824.22924775633737
 20
-254.6564764991916
 30
0.0
 11
817.31165887999703
 21
-254.6564764991916
 31
0.0
  0
LINE
  5
8925
  8
1DIM
 10
824.22924775633737
 20
-258.65647649919163
 30
0.0
 11
817.31165887999691
 21
-258.65647649919163
 31
0.0
  0
LINE
  5
8926
  8
1DIM
 10
818.31165887999703
 20
-252.6564764991916
 30
0.0
 11
818.31165887999703
 21
-250.6564764991916
 31
0.0
  0
LINE
  5
8927
  8
1DIM
 10
818.3116588799968
 20
-260.65647649919163
 30
0.0
 11
818.3116588799968
 21
-262.65647649919163
 31
0.0
  0
LINE
  5
8928
  8
1DIM
 10
818.31165887999703
 20
-254.6564764991916
 30
0.0
 11
818.3116588799968
 21
-258.65647649919163
 31
0.0
  0
LINE
  5
892C
  8
1DIM
 10
823.87924775633746
 20
-255.00647649919159
 30
0.0
 11
823.87924775633746
 21
-250.06070881918839
 31
0.0
  0
LINE
  5
892D
  8
1DIM
 10
845.87924775633758
 20
-253.6564764991916
 30
0.0
 11
845.87924775633758
 21
-250.06070881918839
 31
0.0
  0
LINE
  5
892E
  8
1DIM
 10
825.87924775633746
 20
-251.06070881918839
 30
0.0
 11
843.87924775633758
 21
-251.06070881918839
 31
0.0
  0
LINE
  5
8932
  8
1DIM
 10
823.87924775633746
 20
-230.09900076036359
 30
0.0
 11
823.87924775633746
 21
-222.88802155302
 31
0.0
  0
LINE
  5
8933
  8
1DIM
 10
838.87924775633746
 20
-228.7490007603636
 30
0.0
 11
838.87924775633746
 21
-222.88802155302
 31
0.0
  0
LINE
  5
8934
  8
1DIM
 10
825.87924775633746
 20
-223.88802155301991
 30
0.0
 11
836.87924775633758
 21
-223.88802155301991
 31
0.0
  0
LINE
  5
8938
  8
1DIM
 10
874.98737253016009
 20
-239.7745169557403
 30
0.0
 11
861.25133859779066
 21
-239.7745169557403
 31
0.0
  0
LINE
  5
8939
  8
1DIM
 10
874.18738183733763
 20
-235.7745169557403
 30
0.0
 11
861.25133859779066
 21
-235.7745169557403
 31
0.0
  0
LINE
  5
893A
  8
1DIM
 10
862.25133859779078
 20
-241.7745169557403
 30
0.0
 11
862.25133859779078
 21
-243.7745169557403
 31
0.0
  0
LINE
  5
893B
  8
1DIM
 10
862.25133859779078
 20
-233.7745169557403
 30
0.0
 11
862.25133859779078
 21
-223.87451695574029
 31
0.0
  0
LINE
  5
893C
  8
1DIM
 10
862.25133859779078
 20
-239.7745169557403
 30
0.0
 11
862.25133859779078
 21
-235.7745169557403
 31
0.0
  0
LINE
  5
8940
  8
1DIM
 10
868.0873771836965
 20
-237.7745169557403
 30
0.0
 11
868.0873771836965
 21
-251.12732884499081
 31
0.0
  0
LINE
  5
8941
  8
1DIM
 10
888.08736787657108
 20
-241.7745169557403
 30
0.0
 11
888.08736787657108
 21
-251.12732884499081
 31
0.0
  0
LINE
  5
8942
  8
1DIM
 10
870.0873771836965
 20
-250.12732884499081
 30
0.0
 11
886.08736787657108
 21
-250.12732884499081
 31
0.0
  0
LINE
  5
8946
  8
1DIM
 10
773.46777769666085
 20
-268.97231073698032
 30
0.0
 11
773.46777769666085
 21
-260.57195908245558
 31
0.0
  0
LINE
  5
8947
  8
1DIM
 10
805.46777369666086
 20
-268.97231073698032
 30
0.0
 11
805.46777369666086
 21
-260.57195908245558
 31
0.0
  0
LINE
  5
8948
  8
1DIM
 10
775.46777769666085
 20
-261.57195908245558
 30
0.0
 11
803.46777369666086
 21
-261.57195908245558
 31
0.0
  0
LINE
  5
894C
  8
1DIM
 10
783.46777569666062
 20
-228.97230833698021
 30
0.0
 11
783.46777569666062
 21
-220.41562833698021
 31
0.0
  0
LINE
  5
894D
  8
1DIM
 10
805.46777169666063
 20
-228.97230833698021
 30
0.0
 11
805.46777169666063
 21
-220.41562833698021
 31
0.0
  0
LINE
  5
894E
  8
1DIM
 10
785.46777569666062
 20
-221.41562833698029
 30
0.0
 11
803.46777169666075
 21
-221.41562833698029
 31
0.0
  0
LINE
  5
8952
  8
1DIM
 10
778.46777569666062
 20
-248.97231043698031
 30
0.0
 11
778.46777569666062
 21
-241.66935033698019
 31
0.0
  0
LINE
  5
8953
  8
1DIM
 10
805.46777169666063
 20
-248.97231043698031
 30
0.0
 11
805.46777169666063
 21
-241.66935033698019
 31
0.0
  0
LINE
  5
8954
  8
1DIM
 10
780.46777569666062
 20
-242.66935033698019
 30
0.0
 11
803.46777169666075
 21
-242.66935033698019
 31
0.0
  0
TEXT
  5
8958
  8
1DIM
 10
574.28293093928562
 20
-51.436318027543841
 30
0.0
 40
3.5
  1
材質：スチール
  0
SOLID
  5
8959
  8
1DIM
 10
600.14362404786414
 20
-88.180060609003135
 30
0.0
 11
599.52938206539056
 21
-90.112369564133814
 31
0.0
 12
599.48372698228263
 22
-88.085296125775557
 32
0.0
 13
599.48372698228263
 23
-88.085296125775557
 33
0.0
1001
ACAD
1000
DSTYLE
1002
{
1070
   341
1005
0
1002
}
  0
TEXT
  5
895B
  8
1DIM
 10
603.28174190288712
 20
-37.158790490665531
 30
0.0
 40
3.5
  1
材質：ステンレス
  0
SOLID
  5
895C
  8
1DIM
 10
635.44166735145848
 20
-62.437588966732072
 30
0.0
 11
634.86255382385446
 21
-64.380714961941067
 31
0.0
 12
634.78016089206085
 22
-62.354802200763629
 32
0.0
 13
634.78016089206085
 23
-62.354802200763629
 33
0.0
1001
ACAD
1000
DSTYLE
1002
{
1070
   341
1005
0
1002
}
  0
LINE
  5
895E
  8
1DIM
 10
631.13471474984829
 20
-227.64680073312141
 30
0.0
 11
614.9884729366164
 21
-227.64680073312141
 31
0.0
  0
LINE
  5
895F
  8
1DIM
 10
630.43470660606795
 20
-231.14680073312141
 30
0.0
 11
614.9884729366164
 21
-231.14680073312141
 31
0.0
  0
LINE
  5
8960
  8
1DIM
 10
615.98847293661629
 20
-225.64680073312141
 30
0.0
 11
615.98847293661629
 21
-223.64680073312141
 31
0.0
  0
LINE
  5
8961
  8
1DIM
 10
615.98847293661629
 20
-233.14680073312141
 30
0.0
 11
615.98847293661629
 21
-247.8801340664547
 31
0.0
  0
LINE
  5
8962
  8
1DIM
 10
615.98847293661629
 20
-227.64680073312141
 30
0.0
 11
615.98847293661629
 21
-231.14680073312141
 31
0.0
  0
LINE
  5
8966
  8
1DIM
 10
624.39721067791254
 20
-229.39680073312141
 30
0.0
 11
624.39721067791254
 21
-217.3277784653464
 31
0.0
  0
LINE
  5
8967
  8
1DIM
 10
649.39721067791254
 20
-225.89680073312141
 30
0.0
 11
649.39721067791254
 21
-217.3277784653464
 31
0.0
  0
LINE
  5
8968
  8
1DIM
 10
626.39721067791254
 20
-218.32777846534651
 30
0.0
 11
647.39721067791254
 21
-218.32777846534651
 31
0.0
  0
LINE
  5
896C
  8
1DIM
 10
639.46914454956277
 20
-59.762256203819788
 30
0.0
 11
668.26190488878035
 21
-59.762256203819788
 31
0.0
  0
LINE
  5
896D
  8
1DIM
 10
639.46914454956277
 20
-182.76225620381979
 30
0.0
 11
668.26190488878035
 21
-182.76225620381979
 31
0.0
  0
LINE
  5
896E
  8
1DIM
 10
667.26190488878035
 20
-61.762256203819803
 30
0.0
 11
667.26190488878035
 21
-180.7622562038197
 31
0.0
  0
LINE
  5
8972
  8
1DIM
 10
629.46914454956288
 20
-176.76225620381979
 30
0.0
 11
629.46914454956288
 21
-198.1710411582778
 31
0.0
  0
LINE
  5
8973
  8
1DIM
 10
645.46914454956288
 20
-176.76225620381979
 30
0.0
 11
645.46914454956288
 21
-198.1710411582778
 31
0.0
  0
LINE
  5
8974
  8
1DIM
 10
631.46914454956277
 20
-197.1710411582778
 30
0.0
 11
643.46914454956277
 21
-197.1710411582778
 31
0.0
  0
LINE
  5
8978
  8
1DIM
 10
594.65333468159531
 20
-153.26225620381979
 30
0.0
 11
576.44462097746305
 21
-153.26225620381979
 31
0.0
  0
LINE
  5
8979
  8
1DIM
 10
594.65333468159531
 20
-157.26225620381979
 30
0.0
 11
576.44462097746305
 21
-157.26225620381979
 31
0.0
  0
LINE
  5
897A
  8
1DIM
 10
577.44462097746305
 20
-151.26225620381979
 30
0.0
 11
577.44462097746305
 21
-149.26225620381979
 31
0.0
  0
LINE
  5
897B
  8
1DIM
 10
577.44462097746305
 20
-159.26225620381979
 30
0.0
 11
577.44462097746305
 21
-182.99558953715311
 31
0.0
  0
LINE
  5
897C
  8
1DIM
 10
577.44462097746305
 20
-153.26225620381979
 30
0.0
 11
577.44462097746305
 21
-157.26225620381979
 31
0.0
  0
LINE
  5
8980
  8
1DIM
 10
594.65333468159531
 20
-86.262256203819334
 30
0.0
 11
576.44462097746305
 21
-86.262256203819334
 31
0.0
  0
LINE
  5
8981
  8
1DIM
 10
594.65333468159531
 20
-82.262256203819334
 30
0.0
 11
576.44462097746305
 21
-82.262256203819334
 31
0.0
  0
LINE
  5
8982
  8
1DIM
 10
577.44462097746305
 20
-88.262256203819334
 30
0.0
 11
577.44462097746305
 21
-90.262256203819334
 31
0.0
  0
LINE
  5
8983
  8
1DIM
 10
577.44462097746305
 20
-80.262256203819334
 30
0.0
 11
577.44462097746305
 21
-56.528922870486007
 31
0.0
  0
LINE
  5
8984
  8
1DIM
 10
577.44462097746305
 20
-86.262256203819334
 30
0.0
 11
577.44462097746305
 21
-82.262256203819334
 31
0.0
  0
LINE
  5
8988
  8
1DIM
 10
594.65333468159531
 20
-86.262256203819334
 30
0.0
 11
576.44462097746305
 21
-86.262256203819334
 31
0.0
  0
LINE
  5
8989
  8
1DIM
 10
594.65333468159531
 20
-153.26225620381979
 30
0.0
 11
576.44462097746305
 21
-153.26225620381979
 31
0.0
  0
LINE
  5
898A
  8
1DIM
 10
577.44462097746305
 20
-88.262256203819334
 30
0.0
 11
577.44462097746305
 21
-151.26225620381979
 31
0.0
  0
LINE
  5
898E
  8
1DIM
 10
594.65333468159531
 20
-82.262256203819334
 30
0.0
 11
569.26374427157248
 21
-82.262256203819334
 31
0.0
  0
LINE
  5
898F
  8
1DIM
 10
594.65333468159531
 20
-157.26225620381979
 30
0.0
 11
569.26374427157248
 21
-157.2622562038197
 31
0.0
  0
LINE
  5
8990
  8
1DIM
 10
570.26374427157248
 20
-84.262256203819334
 30
0.0
 11
570.26374427157248
 21
-155.2622562038197
 31
0.0
  0
LINE
  5
8994
  8
1DIM
 10
605.15333468159554
 20
-177.76225620381979
 30
0.0
 11
605.15333468159554
 21
-190.33191700560019
 31
0.0
  0
LINE
  5
8995
  8
1DIM
 10
607.65333468159531
 20
-182.76225620381979
 30
0.0
 11
607.65333468159531
 21
-190.33191700560019
 31
0.0
  0
LINE
  5
8996
  8
1DIM
 10
609.6533346815952
 20
-189.33191700560019
 30
0.0
 11
611.65333468159531
 21
-189.33191700560019
 31
0.0
  0
LINE
  5
8997
  8
1DIM
 10
603.15333468159554
 20
-189.33191700560019
 30
0.0
 11
592.42000134826208
 21
-189.33191700560019
 31
0.0
  0
LINE
  5
8998
  8
1DIM
 10
607.65333468159531
 20
-189.33191700560019
 30
0.0
 11
605.15333468159554
 21
-189.33191700560019
 31
0.0
  0
LINE
  5
899C
  8
1DIM
 10
607.65333468159531
 20
-182.76225620381979
 30
0.0
 11
607.65333468159531
 21
-198.1710411582778
 31
0.0
  0
LINE
  5
899D
  8
1DIM
 10
593.1533346815952
 20
-145.26225620381979
 30
0.0
 11
593.1533346815952
 21
-198.1710411582778
 31
0.0
  0
LINE
  5
899E
  8
1DIM
 10
605.65333468159531
 20
-197.1710411582778
 30
0.0
 11
595.15333468159531
 21
-197.1710411582778
 31
0.0
  0
LINE
  5
89A2
  8
1DIM
 10
589.66996218860879
 20
-224.29724117657631
 30
0.0
 11
605.58131553732187
 21
-224.29724117657631
 31
0.0
  0
LINE
  5
89A3
  8
1DIM
 10
589.66996218860879
 20
-208.29724117657631
 30
0.0
 11
605.58131553732187
 21
-208.29724117657631
 31
0.0
  0
LINE
  5
89A4
  8
1DIM
 10
604.58131553732187
 20
-222.29724117657631
 30
0.0
 11
604.58131553732187
 21
-210.29724117657631
 31
0.0
  0
LINE
  5
89A8
  8
1DIM
 10
634.96914454956277
 20
-107.8034602169075
 30
0.0
 11
639.96914454956277
 21
-107.8034602169075
 31
0.0
  0
LINE
  5
89AC
  8
1DIM
 10
639.46914454956175
 20
-65.762256203820357
 30
0.0
 11
642.36558796340182
 21
-63.00352179282288
 31
0.0
  0
LINE
  5
89AD
  8
1DIM
 10
643.81380967032192
 20
-61.624154587324078
 30
0.0
 11
654.58028263329231
 21
-51.369564662971577
 31
0.0
  0
LINE
  5
89B0
  8
1DIM
 10
576.66996218860879
 20
-222.79724117657631
 30
0.0
 11
566.54905078305353
 21
-222.79724117657631
 31
0.0
  0
LINE
  5
89B1
  8
1DIM
 10
576.66996218860879
 20
-209.79724117657631
 30
0.0
 11
566.54905078305353
 21
-209.79724117657631
 31
0.0
  0
LINE
  5
89B2
  8
1DIM
 10
567.54905078305353
 20
-220.79724117657631
 30
0.0
 11
567.54905078305353
 21
-211.79724117657631
 31
0.0
  0
LINE
  5
89B6
  8
1DIM
 10
641.96914454956288
 20
-98.262256203819788
 30
0.0
 11
660.68060491594645
 21
-98.262256203819788
 31
0.0
  0
LINE
  5
89B7
  8
1DIM
 10
643.96914454956277
 20
-129.76225620381979
 30
0.0
 11
660.68060491594645
 21
-129.76225620381979
 31
0.0
  0
LINE
  5
89B8
  8
1DIM
 10
659.68060491594645
 20
-100.2622562038198
 30
0.0
 11
659.68060491594645
 21
-127.7622562038198
 31
0.0
  0
LINE
  5
89BC
  8
1DIM
 10
639.46914454956277
 20
-59.762256203819788
 30
0.0
 11
660.68060491594645
 21
-59.762256203819788
 31
0.0
  0
LINE
  5
89BD
  8
1DIM
 10
641.96914454956288
 20
-98.262256203819788
 30
0.0
 11
660.68060491594645
 21
-98.262256203819788
 31
0.0
  0
LINE
  5
89BE
  8
1DIM
 10
659.68060491594645
 20
-61.762256203819803
 30
0.0
 11
659.68060491594645
 21
-96.262256203819803
 31
0.0
  0
LINE
  5
89C2
  8
1DIM
 10
629.46914454956288
 20
-71.262256203819788
 30
0.0
 11
619.54247808462026
 21
-71.262256203819788
 31
0.0
  0
LINE
  5
89C3
  8
1DIM
 10
629.46914454956288
 20
-171.26225620381979
 30
0.0
 11
619.54247808462026
 21
-171.26225620381979
 31
0.0
  0
LINE
  5
89C4
  8
1DIM
 10
620.54247808462026
 20
-73.262256203819788
 30
0.0
 11
620.54247808462026
 21
-169.26225620381979
 31
0.0
  0
LINE
  5
89C8
  8
1DIM
 10
629.46914454956288
 20
-71.262256203819788
 30
0.0
 11
619.54247808462026
 21
-71.262256203819788
 31
0.0
  0
LINE
  5
89C9
  8
1DIM
 10
635.46914454956277
 20
-59.762256203819788
 30
0.0
 11
619.54247808462026
 21
-59.762256203819781
 31
0.0
  0
LINE
  5
89CA
  8
1DIM
 10
620.54247808462026
 20
-69.262256203819788
 30
0.0
 11
620.54247808462026
 21
-61.762256203819781
 31
0.0
  0
LINE
  5
89CB
  8
1DIM
 10
620.54247808462026
 20
-59.762256203819781
 30
0.0
 11
620.54247808462026
 21
-46.195589537153111
 31
0.0
  0
LINE
  5
89CF
  8
1HATCH
 10
606.65333468159542
 20
-135.00896912511291
 30
0.0
 11
607.6533346815952
 21
-134.00896912511311
 31
0.0
1001
ACAD
1010
0.0
1020
0.0
1030
0.0
  0
LINE
  5
89D0
  8
1HATCH
 10
606.65333468159565
 20
-136.35600754327319
 30
0.0
 11
607.65333468159531
 21
-135.35600754327351
 31
0.0
1001
ACAD
1010
0.0
1020
0.0
1030
0.0
  0
LINE
  5
89D1
  8
1HATCH
 10
606.65333468159554
 20
-137.70304596143359
 30
0.0
 11
607.65333468159531
 21
-136.70304596143379
 31
0.0
1001
ACAD
1010
0.0
1020
0.0
1030
0.0
  0
LINE
  5
89D2
  8
1HATCH
 10
606.65333468159554
 20
-153.86750697935801
 30
0.0
 11
607.65333468159531
 21
-152.86750697935821
 31
0.0
1001
ACAD
1010
0.0
1020
0.0
1030
0.0
  0
LINE
  5
89D3
  8
1HATCH
 10
606.65333468159565
 20
-155.21454539751841
 30
0.0
 11
607.65333468159542
 21
-154.21454539751869
 31
0.0
1001
ACAD
1010
0.0
1020
0.0
1030
0.0
  0
LINE
  5
89D4
  8
1HATCH
 10
606.65333468159554
 20
-156.5615838156788
 30
0.0
 11
607.65333468159542
 21
-155.561583815679
 31
0.0
1001
ACAD
1010
0.0
1020
0.0
1030
0.0
  0
LINE
  5
89D5
  8
1HATCH
 10
607.59027731118908
 20
-156.97167960424559
 30
0.0
 11
607.65333468159531
 21
-156.9086222338394
 31
0.0
1001
ACAD
1010
0.0
1020
0.0
1030
0.0
  0
LINE
  5
89D6
  8
1HATCH
 10
604.05333468159552
 20
-129.9757514222043
 30
0.0
 11
604.26682989997971
 21
-129.76225620381999
 31
0.0
1001
ACAD
1010
0.0
1020
0.0
1030
0.0
  0
LINE
  5
89D7
  8
1HATCH
 10
604.0533346815954
 20
-130.87377703431119
 30
0.0
 11
605.16485551208655
 21
-129.76225620381979
 31
0.0
1001
ACAD
1010
0.0
1020
0.0
1030
0.0
  0
LINE
  5
89D8
  8
1HATCH
 10
604.0533346815954
 20
-131.77180264641811
 30
0.0
 11
605.65333468159508
 21
-130.1718026464184
 31
0.0
1001
ACAD
1010
0.0
1020
0.0
1030
0.0
  0
LINE
  5
89D9
  8
1HATCH
 10
604.0533346815954
 20
-132.669828258525
 30
0.0
 11
605.65333468159508
 21
-131.06982825852529
 31
0.0
1001
ACAD
1010
0.0
1020
0.0
1030
0.0
  0
LINE
  5
89DA
  8
1HATCH
 10
604.0533346815954
 20
-133.56785387063189
 30
0.0
 11
605.65333468159508
 21
-131.96785387063221
 31
0.0
1001
ACAD
1010
0.0
1020
0.0
1030
0.0
  0
LINE
  5
89DB
  8
1HATCH
 10
604.05333468159552
 20
-134.46587948273881
 30
0.0
 11
605.65333468159508
 21
-132.86587948273919
 31
0.0
1001
ACAD
1010
0.0
1020
0.0
1030
0.0
  0
LINE
  5
89DC
  8
1HATCH
 10
604.05333468159517
 20
-135.36390509484579
 30
0.0
 11
605.65333468159508
 21
-133.76390509484611
 31
0.0
1001
ACAD
1010
0.0
1020
0.0
1030
0.0
  0
LINE
  5
89DD
  8
1HATCH
 10
604.05333468159552
 20
-136.26193070695271
 30
0.0
 11
605.65333468159508
 21
-134.661930706953
 31
0.0
1001
ACAD
1010
0.0
1020
0.0
1030
0.0
  0
LINE
  5
89DE
  8
1HATCH
 10
598.05333468159517
 20
-143.1599563190598
 30
0.0
 11
599.03267602778817
 21
-142.18061497286681
 31
0.0
1001
ACAD
1010
0.0
1020
0.0
1030
0.0
  0
LINE
  5
89DF
  8
1HATCH
 10
604.0533346815954
 20
-137.15995631905949
 30
0.0
 11
605.65333468159508
 21
-135.55995631905989
 31
0.0
1001
ACAD
1010
0.0
1020
0.0
1030
0.0
  0
LINE
  5
89E0
  8
1HATCH
 10
598.94906040894216
 20
-143.16225620381971
 30
0.0
 11
600.01237247312213
 21
-142.09894413963971
 31
0.0
1001
ACAD
1010
0.0
1020
0.0
1030
0.0
  0
LINE
  5
89E1
  8
1HATCH
 10
604.0533346815954
 20
-138.05798193116649
 30
0.0
 11
605.65333468159508
 21
-136.45798193116681
 31
0.0
1001
ACAD
1010
0.0
1020
0.0
1030
0.0
  0
LINE
  5
89E2
  8
1HATCH
 10
599.84708602104922
 20
-143.1622562038196
 30
0.0
 11
600.9920689184562
 21
-142.0172733064127
 31
0.0
1001
ACAD
1010
0.0
1020
0.0
1030
0.0
  0
LINE
  5
89E3
  8
1HATCH
 10
604.0533346815954
 20
-138.95600754327339
 30
0.0
 11
605.65333468159508
 21
-137.35600754327371
 31
0.0
1001
ACAD
1010
0.0
1020
0.0
1030
0.0
  0
LINE
  5
89E4
  8
1HATCH
 10
600.74511163315617
 20
-143.16225620381951
 30
0.0
 11
601.97176536379015
 21
-141.93560247318561
 31
0.0
1001
ACAD
1010
0.0
1020
0.0
1030
0.0
  0
LINE
  5
89E5
  8
1HATCH
 10
604.0533346815954
 20
-139.85403315538031
 30
0.0
 11
605.65333468159508
 21
-138.2540331553806
 31
0.0
1001
ACAD
1010
0.0
1020
0.0
1030
0.0
  0
LINE
  5
89E6
  8
1HATCH
 10
601.64313724526323
 20
-143.16225620381951
 30
0.0
 11
602.95146180912411
 21
-141.8539316399586
 31
0.0
1001
ACAD
1010
0.0
1020
0.0
1030
0.0
  0
LINE
  5
89E7
  8
1HATCH
 10
604.05333468159552
 20
-140.75205876748731
 30
0.0
 11
605.65333468159508
 21
-139.1520587674876
 31
0.0
1001
ACAD
1010
0.0
1020
0.0
1030
0.0
  0
LINE
  5
89E8
  8
1HATCH
 10
598.0533346815954
 20
-147.65008437959409
 30
0.0
 11
598.34116285736968
 21
-147.3622562038199
 31
0.0
1001
ACAD
1010
0.0
1020
0.0
1030
0.0
  0
LINE
  5
89E9
  8
1HATCH
 10
602.54116285736995
 20
-143.16225620381951
 30
0.0
 11
605.65333468159497
 21
-140.05008437959449
 31
0.0
1001
ACAD
1010
0.0
1020
0.0
1030
0.0
  0
LINE
  5
89EA
  8
1HATCH
 10
598.31719239186157
 20
-148.28425228143479
 30
0.0
 11
599.23918846947663
 21
-147.3622562038199
 31
0.0
1001
ACAD
1010
0.0
1020
0.0
1030
0.0
  0
LINE
  5
89EB
  8
1HATCH
 10
603.43918846947713
 20
-143.1622562038194
 30
0.0
 11
605.65333468159508
 21
-140.94810999170139
 31
0.0
1001
ACAD
1010
0.0
1020
0.0
1030
0.0
  0
LINE
  5
89EC
  8
1HATCH
 10
599.14611609977226
 20
-148.35335418563099
 30
0.0
 11
600.13721408158335
 21
-147.3622562038199
 31
0.0
1001
ACAD
1010
0.0
1020
0.0
1030
0.0
  0
LINE
  5
89ED
  8
1HATCH
 10
604.33721408158385
 20
-143.1622562038194
 30
0.0
 11
605.65333468159508
 21
-141.84613560380831
 31
0.0
1001
ACAD
1010
0.0
1020
0.0
1030
0.0
  0
LINE
  5
89EE
  8
1HATCH
 10
599.97503980768329
 20
-148.42245608982711
 30
0.0
 11
601.0352396936903
 21
-147.3622562038199
 31
0.0
1001
ACAD
1010
0.0
1020
0.0
1030
0.0
  0
LINE
  5
89EF
  8
1HATCH
 10
605.23523969369091
 20
-143.1622562038194
 30
0.0
 11
605.65333468159508
 21
-142.7441612159152
 31
0.0
1001
ACAD
1010
0.0
1020
0.0
1030
0.0
  0
LINE
  5
89F0
  8
1HATCH
 10
600.80396351559409
 20
-148.49155799402311
 30
0.0
 11
601.93326530579725
 21
-147.3622562038199
 31
0.0
1001
ACAD
1010
0.0
1020
0.0
1030
0.0
  0
LINE
  5
89F1
  8
1HATCH
 10
601.63288722350489
 20
-148.56065989821931
 30
0.0
 11
602.83129091790408
 21
-147.3622562038199
 31
0.0
1001
ACAD
1010
0.0
1020
0.0
1030
0.0
  0
LINE
  5
89F2
  8
1HATCH
 10
602.4618109314157
 20
-148.6297618024154
 30
0.0
 11
603.72931653001115
 21
-147.3622562038199
 31
0.0
1001
ACAD
1010
0.0
1020
0.0
1030
0.0
  0
LINE
  5
89F3
  8
1HATCH
 10
603.29073463932639
 20
-148.69886370661149
 30
0.0
 11
604.62734214211798
 21
-147.3622562038199
 31
0.0
1001
ACAD
1010
0.0
1020
0.0
1030
0.0
  0
LINE
  5
89F4
  8
1HATCH
 10
603.95843881101416
 20
-148.92918514703049
 30
0.0
 11
605.3893512179103
 21
-147.4982727401345
 31
0.0
1001
ACAD
1010
0.0
1020
0.0
1030
0.0
  0
LINE
  5
89F5
  8
1HATCH
 10
604.05333468159506
 20
-149.7323148885566
 30
0.0
 11
605.65333468159508
 21
-148.13231488855649
 31
0.0
1001
ACAD
1010
0.0
1020
0.0
1030
0.0
  0
LINE
  5
89F6
  8
1HATCH
 10
604.05333468159506
 20
-150.63034050066349
 30
0.0
 11
605.65333468159531
 21
-149.03034050066341
 31
0.0
1001
ACAD
1010
0.0
1020
0.0
1030
0.0
  0
LINE
  5
89F7
  8
1HATCH
 10
604.05333468159506
 20
-151.5283661127705
 30
0.0
 11
605.65333468159531
 21
-149.92836611277039
 31
0.0
1001
ACAD
1010
0.0
1020
0.0
1030
0.0
  0
LINE
  5
89F8
  8
1HATCH
 10
604.21747020265263
 20
-152.2622562038199
 30
0.0
 11
605.65333468159531
 21
-150.82639172487731
 31
0.0
1001
ACAD
1010
0.0
1020
0.0
1030
0.0
  0
LINE
  5
89F9
  8
1HATCH
 10
605.1154958147597
 20
-152.2622562038199
 30
0.0
 11
605.65333468159542
 21
-151.7244173369842
 31
0.0
1001
ACAD
1010
0.0
1020
0.0
1030
0.0
  0
LINE
  5
89FA
  8
1HATCH
 10
606.65333468159531
 20
-156.3429549308199
 30
0.0
 11
605.65333468159554
 21
-155.3429549308201
 31
0.0
1001
ACAD
1010
0.0
1020
0.0
1030
0.0
  0
LINE
  5
89FB
  8
1HATCH
 10
606.65333468159531
 20
-154.99591651265951
 30
0.0
 11
605.65333468159554
 21
-153.99591651265979
 31
0.0
1001
ACAD
1010
0.0
1020
0.0
1030
0.0
  0
LINE
  5
89FC
  8
1HATCH
 10
606.65333468159531
 20
-153.6488780944992
 30
0.0
 11
605.65333468159554
 21
-152.64887809449939
 31
0.0
1001
ACAD
1010
0.0
1020
0.0
1030
0.0
  0
LINE
  5
89FD
  8
1HATCH
 10
606.65333468159508
 20
-152.3018396763388
 30
0.0
 11
605.65333468159554
 21
-151.301839676339
 31
0.0
1001
ACAD
1010
0.0
1020
0.0
1030
0.0
  0
LINE
  5
89FE
  8
1HATCH
 10
606.65333468159531
 20
-150.95480125817841
 30
0.0
 11
605.65333468159554
 21
-149.95480125817869
 31
0.0
1001
ACAD
1010
0.0
1020
0.0
1030
0.0
  0
LINE
  5
89FF
  8
1HATCH
 10
606.65333468159531
 20
-149.6077628400181
 30
0.0
 11
605.65333468159554
 21
-148.6077628400183
 31
0.0
1001
ACAD
1010
0.0
1020
0.0
1030
0.0
  0
LINE
  5
8A00
  8
1HATCH
 10
606.09817740889696
 20
-142.317413476518
 30
0.0
 11
605.65333468159531
 21
-141.87257074921621
 31
0.0
1001
ACAD
1010
0.0
1020
0.0
1030
0.0
  0
LINE
  5
8A01
  8
1HATCH
 10
606.65333468159531
 20
-141.52553233105581
 30
0.0
 11
605.65333468159531
 21
-140.52553233105581
 31
0.0
1001
ACAD
1010
0.0
1020
0.0
1030
0.0
  0
LINE
  5
8A02
  8
1HATCH
 10
606.65333468159542
 20
-140.1784939128955
 30
0.0
 11
605.65333468159531
 21
-139.17849391289539
 31
0.0
1001
ACAD
1010
0.0
1020
0.0
1030
0.0
  0
LINE
  5
8A03
  8
1HATCH
 10
606.65333468159531
 20
-138.83145549473511
 30
0.0
 11
605.65333468159508
 21
-137.831455494735
 31
0.0
1001
ACAD
1010
0.0
1020
0.0
1030
0.0
  0
LINE
  5
8A04
  8
1HATCH
 10
606.65333468159542
 20
-137.4844170765748
 30
0.0
 11
605.65333468159508
 21
-136.4844170765746
 31
0.0
1001
ACAD
1010
0.0
1020
0.0
1030
0.0
  0
LINE
  5
8A05
  8
1HATCH
 10
606.65333468159542
 20
-136.13737865841441
 30
0.0
 11
605.65333468159508
 21
-135.13737865841421
 31
0.0
1001
ACAD
1010
0.0
1020
0.0
1030
0.0
  0
LINE
  5
8A06
  8
1HATCH
 10
606.65333468159542
 20
-134.79034024025401
 30
0.0
 11
605.65333468159508
 21
-133.79034024025381
 31
0.0
1001
ACAD
1010
0.0
1020
0.0
1030
0.0
  0
LINE
  5
8A07
  8
1HATCH
 10
606.65333468159542
 20
-133.4433018220937
 30
0.0
 11
605.65333468159508
 21
-132.44330182209339
 31
0.0
1001
ACAD
1010
0.0
1020
0.0
1030
0.0
  0
LINE
  5
8A08
  8
1HATCH
 10
606.65333468159554
 20
-132.09626340393339
 30
0.0
 11
605.65333468159508
 21
-131.09626340393299
 31
0.0
1001
ACAD
1010
0.0
1020
0.0
1030
0.0
  0
LINE
  5
8A09
  8
1HATCH
 10
606.65333468159554
 20
-130.74922498577311
 30
0.0
 11
605.6663658996423
 21
-129.76225620381979
 31
0.0
1001
ACAD
1010
0.0
1020
0.0
1030
0.0
  0
LINE
  5
8A0A
  8
1DIM
 10
839.69715278017031
 20
-207.52396057194301
 30
0.0
 11
818.99186438455706
 21
-207.52396057194301
 31
0.0
  0
LINE
  5
8A0B
  8
1DIM
 10
839.69715278017031
 20
-191.52396057194301
 30
0.0
 11
818.99186438455706
 21
-191.52396057194301
 31
0.0
  0
LINE
  5
8A0C
  8
1DIM
 10
819.99186438455695
 20
-205.52396057194301
 30
0.0
 11
819.99186438455695
 21
-193.52396057194301
 31
0.0
  0
LINE
  5
8A10
  8
1DIM
 10
827.97576720262396
 20
-201.02396057194301
 30
0.0
 11
824.87515404131329
 21
-201.02396057194301
 31
0.0
  0
LINE
  5
8A11
  8
1DIM
 10
827.97576720262396
 20
-198.02396057194301
 30
0.0
 11
824.87515404131329
 21
-198.02396057194301
 31
0.0
  0
LINE
  5
8A12
  8
1DIM
 10
825.87515404131329
 20
-196.02396057194301
 30
0.0
 11
825.87515404131329
 21
-194.02396057194301
 31
0.0
  0
LINE
  5
8A13
  8
1DIM
 10
825.87515404131329
 20
-203.02396057194301
 30
0.0
 11
825.87515404131329
 21
-213.6367288728336
 31
0.0
  0
LINE
  5
8A14
  8
1DIM
 10
825.87515404131329
 20
-198.02396057194301
 30
0.0
 11
825.87515404131329
 21
-201.02396057194301
 31
0.0
  0
LINE
  5
8A18
  8
1DIM
 10
897.3971492501704
 20
-196.22396457194299
 30
0.0
 11
911.9184744701264
 21
-196.22396457194299
 31
0.0
  0
LINE
  5
8A19
  8
1DIM
 10
896.19714925017036
 20
-202.82395857194291
 30
0.0
 11
911.9184744701264
 21
-202.82395857194291
 31
0.0
  0
LINE
  5
8A1A
  8
1DIM
 10
910.91847447012651
 20
-198.22396457194299
 30
0.0
 11
910.91847447012651
 21
-200.82395857194291
 31
0.0
  0
LINE
  5
8A1E
  8
1DIM
 10
858.19710527228949
 20
-135.26222224290399
 30
0.0
 11
858.19710527228949
 21
-178.88898654692159
 31
0.0
  0
LINE
  5
8A1F
  8
1DIM
 10
897.19716427892433
 20
-135.26222224171349
 30
0.0
 11
897.19716427892433
 21
-178.88898654692159
 31
0.0
  0
LINE
  5
8A20
  8
1DIM
 10
860.19710527228949
 20
-177.88898654692159
 30
0.0
 11
895.19716427892445
 21
-177.88898654692159
 31
0.0
  0
LINE
  5
8A24
  8
1DIM
 10
702.19718378016978
 20
-161.46225320382021
 30
0.0
 11
681.87691501208712
 21
-161.46225320382021
 31
0.0
  0
LINE
  5
8A25
  8
1DIM
 10
757.19715278016974
 20
-182.76225620381999
 30
0.0
 11
681.87691501208712
 21
-182.76225620381999
 31
0.0
  0
LINE
  5
8A26
  8
1DIM
 10
682.87691501208712
 20
-163.46225320382021
 30
0.0
 11
682.87691501208712
 21
-180.76225620381999
 31
0.0
  0
LINE
  5
8A2A
  8
1DIM
 10
702.19714978016998
 20
-81.062274203819925
 30
0.0
 11
681.87691501208712
 21
-81.062274203819925
 31
0.0
  0
LINE
  5
8A2B
  8
1DIM
 10
756.69715278016974
 20
-59.762256203820023
 30
0.0
 11
681.87691501208712
 21
-59.762256203819987
 31
0.0
  0
LINE
  5
8A2C
  8
1DIM
 10
682.87691501208712
 20
-79.062274203819925
 30
0.0
 11
682.87691501208712
 21
-61.76225620381998
 31
0.0
  0
TEXT
  5
8A30
  8
1DIM
 10
857.32106299795817
 20
-65.369061994626392
 30
0.0
 40
3.5
  1
材質：アルミ
  0
TEXT
  5
8A31
  8
1DIM
 10
857.32106299795817
 20
-71.202395327959721
 30
0.0
 40
3.5
  1
仕上げ：各種アルマイト
  0
TEXT
  5
8A34
  8
1DIM
 10
712.94300596586822
 20
-173.493205215275
 30
0.0
 40
3.5
  1
材質：アルミ
  0
TEXT
  5
8A35
  8
1DIM
 10
691.70967263253488
 20
-179.32653854860831
 30
0.0
 40
3.5
  1
仕上げ：各種アルマイト
  0
LINE
  5
8A38
  8
1DIM
 10
811.69718572806278
 20
-159.2619037775612
 30
0.0
 11
811.69718572806278
 21
-175.2547742394467
 31
0.0
  0
LINE
  5
8A39
  8
1DIM
 10
812.89715192778488
 20
-154.2623024280787
 30
0.0
 11
812.89715192778488
 21
-175.2547742394467
 31
0.0
  0
LINE
  5
8A3A
  8
1DIM
 10
809.69718572806278
 20
-174.2547742394467
 30
0.0
 11
807.69718572806289
 21
-174.2547742394467
 31
0.0
  0
LINE
  5
8A3B
  8
1DIM
 10
814.89715192778476
 20
-174.2547742394467
 30
0.0
 11
825.13048526111822
 21
-174.2547742394467
 31
0.0
  0
LINE
  5
8A3C
  8
1DIM
 10
811.69718572806278
 20
-174.2547742394467
 30
0.0
 11
812.89715192778488
 21
-174.2547742394467
 31
0.0
  0
LINE
  5
8A40
  8
1DIM
 10
781.69715278017031
 20
-159.26191603377811
 30
0.0
 11
781.69715278017031
 21
-175.25477424274621
 31
0.0
  0
LINE
  5
8A41
  8
1DIM
 10
780.29715278017022
 20
-154.7622557045689
 30
0.0
 11
780.29715278017022
 21
-175.25477424274621
 31
0.0
  0
LINE
  5
8A42
  8
1DIM
 10
783.6971527801702
 20
-174.25477424274609
 30
0.0
 11
785.69715278017031
 21
-174.25477424274609
 31
0.0
  0
LINE
  5
8A43
  8
1DIM
 10
778.29715278017022
 20
-174.25477424274609
 30
0.0
 11
768.06381944683676
 21
-174.25477424274609
 31
0.0
  0
LINE
  5
8A44
  8
1DIM
 10
781.69715278017031
 20
-174.25477424274609
 30
0.0
 11
780.29715278017022
 21
-174.25477424274609
 31
0.0
  0
LINE
  5
8A48
  8
1DIM
 10
781.69715278017031
 20
-38.531911648577307
 30
0.0
 11
781.69715278017031
 21
-28.066303710244711
 31
0.0
  0
LINE
  5
8A49
  8
1DIM
 10
811.69715278017043
 20
-38.585567093124382
 30
0.0
 11
811.69715278017043
 21
-28.066303710244711
 31
0.0
  0
LINE
  5
8A4A
  8
1DIM
 10
783.6971527801702
 20
-29.066303710244711
 30
0.0
 11
809.6971527801702
 21
-29.066303710244711
 31
0.0
  0
LINE
  5
8A4B
  8
1DIM
 10
811.69715278017043
 20
-29.066303710244711
 30
0.0
 11
853.13048611350348
 21
-29.066303710244711
 31
0.0
  0
LINE
  5
8A4F
  8
1DIM
 10
758.69715278016974
 20
-182.76225620381999
 30
0.0
 11
758.69715278016974
 21
-197.0052122073719
 31
0.0
  0
LINE
  5
8A50
  8
1DIM
 10
755.99714078016984
 20
-182.26225620381999
 30
0.0
 11
755.99714078016984
 21
-197.0052122073719
 31
0.0
  0
LINE
  5
8A51
  8
1DIM
 10
760.69715278016974
 20
-196.0052122073719
 30
0.0
 11
762.69715278016974
 21
-196.0052122073719
 31
0.0
  0
LINE
  5
8A52
  8
1DIM
 10
753.99714078016984
 20
-196.0052122073719
 30
0.0
 11
743.26380744683638
 21
-196.0052122073719
 31
0.0
  0
LINE
  5
8A53
  8
1DIM
 10
758.69715278016974
 20
-196.0052122073719
 30
0.0
 11
755.99714078016984
 21
-196.0052122073719
 31
0.0
  0
LINE
  5
8A57
  8
1DIM
 10
702.19715278016974
 20
-81.062259203819849
 30
0.0
 11
681.87691501208712
 21
-81.062259203819849
 31
0.0
  0
LINE
  5
8A58
  8
1DIM
 10
702.19718378016978
 20
-161.46225320382021
 30
0.0
 11
681.87691501208712
 21
-161.46225320382021
 31
0.0
  0
LINE
  5
8A59
  8
1DIM
 10
682.87691501208712
 20
-83.062259203819849
 30
0.0
 11
682.87691501208712
 21
-159.46225320382021
 31
0.0
  0
LINE
  5
8A5D
  8
1DIM
 10
765.69718773262355
 20
-137.7622599006479
 30
0.0
 11
765.69718773262355
 21
-197.0052122073719
 31
0.0
  0
LINE
  5
8A5E
  8
1DIM
 10
758.69715278016974
 20
-182.76225620381999
 30
0.0
 11
758.69715278016974
 21
-197.0052122073719
 31
0.0
  0
LINE
  5
8A5F
  8
1DIM
 10
763.69718773262355
 20
-196.0052122073719
 30
0.0
 11
760.69715278016974
 21
-196.0052122073719
 31
0.0
  0
LINE
  5
8A63
  8
1DIM
 10
758.69715278016974
 20
-59.762256203820023
 30
0.0
 11
758.69715278016974
 21
-42.460559203820139
 31
0.0
  0
LINE
  5
8A64
  8
1DIM
 10
770.62766267408324
 20
-125.7622580253833
 30
0.0
 11
770.62766267408324
 21
-42.460559203820139
 31
0.0
  0
LINE
  5
8A65
  8
1DIM
 10
760.69715278016974
 20
-43.460559203820132
 30
0.0
 11
768.62766267408324
 21
-43.460559203820132
 31
0.0
  0
LINE
  5
8A69
  8
1DIM
 10
758.69715278016974
 20
-59.762256203820023
 30
0.0
 11
758.69715278016974
 21
-48.508704010750307
 31
0.0
  0
LINE
  5
8A6A
  8
1DIM
 10
720.69718378016989
 20
-110.1688262038201
 30
0.0
 11
720.69718378016989
 21
-48.508704010750307
 31
0.0
  0
LINE
  5
8A6B
  8
1DIM
 10
756.69715278016974
 20
-49.508704010750307
 30
0.0
 11
722.69718378016978
 21
-49.508704010750307
 31
0.0
  0
LINE
  5
8A6F
  8
1DIM
 10
758.69715278016974
 20
-59.762256203820023
 30
0.0
 11
758.69715278016974
 21
-42.460559203820139
 31
0.0
  0
LINE
  5
8A70
  8
1DIM
 10
700.99717178016988
 20
-82.262256203820016
 30
0.0
 11
700.99717178016988
 21
-42.460559203820139
 31
0.0
  0
LINE
  5
8A71
  8
1DIM
 10
756.69715278016974
 20
-43.460559203820132
 30
0.0
 11
702.99717178016977
 21
-43.460559203820132
 31
0.0
  0
LINE
  5
8A75
  8
1DIM
 10
740.69718378016978
 20
-135.26225620381999
 30
0.0
 11
740.69718378016978
 21
-197.0052122073719
 31
0.0
  0
LINE
  5
8A76
  8
1DIM
 10
700.69718378016989
 20
-135.26225620381999
 30
0.0
 11
700.69718378016989
 21
-197.0052122073719
 31
0.0
  0
LINE
  5
8A77
  8
1DIM
 10
738.69718378016989
 20
-196.0052122073719
 30
0.0
 11
702.69718378016978
 21
-196.0052122073719
 31
0.0
  0
LINE
  5
8A7B
  8
1DIM
 10
798.69715278017043
 20
-65.762256203820073
 30
0.0
 11
801.75523064411755
 21
-63.183857872969547
 31
0.0
  0
LINE
  5
8A7C
  8
1DIM
 10
803.28427061896878
 20
-61.89465782824896
 30
0.0
 11
823.12058581397616
 21
-45.169798532803838
 31
0.0
  0
LINE
  5
8A7F
  8
1DIM
 10
804.69715278017031
 20
-65.762256203820016
 30
0.0
 11
804.69715278017031
 21
-42.460559203820139
 31
0.0
  0
LINE
  5
8A80
  8
1DIM
 10
788.69715278017031
 20
-65.762256203820016
 30
0.0
 11
788.69715278017031
 21
-42.460559203820139
 31
0.0
  0
LINE
  5
8A81
  8
1DIM
 10
802.6971527801702
 20
-43.460559203820132
 30
0.0
 11
790.69715278017031
 21
-43.460559203820132
 31
0.0
  0
LINE
  5
8A85
  8
1DIM
 10
798.69715278017031
 20
-59.762256203820023
 30
0.0
 11
824.56106496914776
 21
-59.76225620382003
 31
0.0
  0
LINE
  5
8A86
  8
1DIM
 10
798.69715278017031
 20
-182.76225620381999
 30
0.0
 11
824.56106496914776
 21
-182.76225620381999
 31
0.0
  0
LINE
  5
8A87
  8
1DIM
 10
823.56106496914776
 20
-61.762256203820023
 30
0.0
 11
823.56106496914776
 21
-180.76225620381999
 31
0.0
  0
TEXT
  5
8A8B
  8
1DIM
 10
822.86106496914795
 20
-125.3455895371532
 30
0.0
 40
3.5
  1
123
 50
90.0
  0
LINE
  5
8A8C
  8
0
  6
BYBLOCK
 10
824.09696334914793
 20
-180.76225620381999
 30
0.0
 11
823.56106496914776
 21
-182.76225620381999
 31
0.0
  0
LINE
  5
8A8D
  8
0
  6
BYBLOCK
 10
823.56106496914776
 20
-182.76225620381999
 30
0.0
 11
823.02516658914772
 21
-180.76225620381999
 31
0.0
  0
LINE
  5
8A8E
  8
0
  6
BYBLOCK
 10
823.56106496914776
 20
-182.76225620381999
 30
0.0
 11
823.56106496914776
 21
-180.76225620381999
 31
0.0
  0
LINE
  5
8A8F
  8
0
  6
BYBLOCK
 10
823.02516658914772
 20
-61.762256203820023
 30
0.0
 11
823.56106496914776
 21
-59.76225620382003
 31
0.0
  0
LINE
  5
8A90
  8
0
  6
BYBLOCK
 10
823.56106496914776
 20
-59.76225620382003
 30
0.0
 11
824.09696334914793
 21
-61.762256203820023
 31
0.0
  0
LINE
  5
8A91
  8
0
  6
BYBLOCK
 10
823.56106496914776
 20
-59.76225620382003
 30
0.0
 11
823.56106496914776
 21
-61.762256203820023
 31
0.0
  0
TEXT
  5
8A92
  8
1DIM
 10
794.36381944683694
 20
-42.760559203820129
 30
0.0
 40
3.5
  1
16
  0
LINE
  5
8A93
  8
0
  6
BYBLOCK
 10
790.69715278017031
 20
-43.996457583820131
 30
0.0
 11
788.69715278017031
 21
-43.460559203820132
 31
0.0
  0
LINE
  5
8A94
  8
0
  6
BYBLOCK
 10
788.69715278017031
 20
-43.460559203820132
 30
0.0
 11
790.69715278017031
 21
-42.92466082382014
 31
0.0
  0
LINE
  5
8A95
  8
0
  6
BYBLOCK
 10
788.69715278017031
 20
-43.460559203820132
 30
0.0
 11
790.69715278017031
 21
-43.460559203820132
 31
0.0
  0
LINE
  5
8A96
  8
0
  6
BYBLOCK
 10
802.6971527801702
 20
-42.92466082382014
 30
0.0
 11
804.69715278017031
 21
-43.460559203820132
 31
0.0
  0
LINE
  5
8A97
  8
0
  6
BYBLOCK
 10
804.69715278017031
 20
-43.460559203820132
 30
0.0
 11
802.6971527801702
 21
-43.996457583820131
 31
0.0
  0
LINE
  5
8A98
  8
0
  6
BYBLOCK
 10
804.69715278017031
 20
-43.460559203820132
 30
0.0
 11
802.6971527801702
 21
-43.460559203820132
 31
0.0
  0
TEXT
  5
8A99
  8
1DIM
 10
817.73821187942929
 20
-48.792304685829748
 30
0.0
 40
3.5
  1
R6
 50
40.135693142127828
  0
LINE
  5
8A9A
  8
0
  6
BYBLOCK
 10
801.40979053638682
 20
-62.774152850230571
 30
0.0
 11
803.28427061896878
 21
-61.89465782824896
 31
0.0
  0
LINE
  5
8A9B
  8
0
  6
BYBLOCK
 10
803.28427061896878
 20
-61.89465782824896
 30
0.0
 11
802.10067075184861
 21
-63.593562895708487
 31
0.0
  0
LINE
  5
8A9C
  8
0
  6
BYBLOCK
 10
803.28427061896878
 20
-61.89465782824896
 30
0.0
 11
801.75523064411777
 21
-63.183857872969533
 31
0.0
  0
TEXT
  5
8A9D
  8
1DIM
 10
715.62218378016985
 20
-195.30521220737191
 30
0.0
 40
3.5
  1
\U+03C640
  0
LINE
  5
8A9E
  8
0
  6
BYBLOCK
 10
702.69718378016978
 20
-196.5411105873718
 30
0.0
 11
700.69718378016989
 21
-196.0052122073719
 31
0.0
  0
LINE
  5
8A9F
  8
0
  6
BYBLOCK
 10
700.69718378016989
 20
-196.0052122073719
 30
0.0
 11
702.69718378016978
 21
-195.46931382737179
 31
0.0
  0
LINE
  5
8AA0
  8
0
  6
BYBLOCK
 10
700.69718378016989
 20
-196.0052122073719
 30
0.0
 11
702.69718378016978
 21
-196.0052122073719
 31
0.0
  0
LINE
  5
8AA1
  8
0
  6
BYBLOCK
 10
738.69718378016989
 20
-195.46931382737179
 30
0.0
 11
740.69718378016978
 21
-196.0052122073719
 31
0.0
  0
LINE
  5
8AA2
  8
0
  6
BYBLOCK
 10
740.69718378016978
 20
-196.0052122073719
 30
0.0
 11
738.69718378016989
 21
-196.5411105873718
 31
0.0
  0
LINE
  5
8AA3
  8
0
  6
BYBLOCK
 10
740.69718378016978
 20
-196.0052122073719
 30
0.0
 11
738.69718378016989
 21
-196.0052122073719
 31
0.0
  0
TEXT
  5
8AA4
  8
1DIM
 10
724.59716228016987
 20
-42.760559203820129
 30
0.0
 40
3.5
  1
57.7
  0
LINE
  5
8AA5
  8
0
  6
BYBLOCK
 10
702.99717178016977
 20
-43.996457583820131
 30
0.0
 11
700.99717178016988
 21
-43.460559203820132
 31
0.0
  0
LINE
  5
8AA6
  8
0
  6
BYBLOCK
 10
700.99717178016988
 20
-43.460559203820132
 30
0.0
 11
702.99717178016977
 21
-42.92466082382014
 31
0.0
  0
LINE
  5
8AA7
  8
0
  6
BYBLOCK
 10
700.99717178016988
 20
-43.460559203820132
 30
0.0
 11
702.99717178016977
 21
-43.460559203820132
 31
0.0
  0
LINE
  5
8AA8
  8
0
  6
BYBLOCK
 10
756.69715278016974
 20
-42.92466082382014
 30
0.0
 11
758.69715278016974
 21
-43.460559203820132
 31
0.0
  0
LINE
  5
8AA9
  8
0
  6
BYBLOCK
 10
758.69715278016974
 20
-43.460559203820132
 30
0.0
 11
756.69715278016974
 21
-43.996457583820131
 31
0.0
  0
LINE
  5
8AAA
  8
0
  6
BYBLOCK
 10
758.69715278016974
 20
-43.460559203820132
 30
0.0
 11
756.69715278016974
 21
-43.460559203820132
 31
0.0
  0
TEXT
  5
8AAB
  8
1DIM
 10
736.78050161350325
 20
-48.808704010750297
 30
0.0
 40
3.5
  1
38
  0
LINE
  5
8AAC
  8
0
  6
BYBLOCK
 10
722.69718378016978
 20
-50.044602390750299
 30
0.0
 11
720.69718378016989
 21
-49.508704010750307
 31
0.0
  0
LINE
  5
8AAD
  8
0
  6
BYBLOCK
 10
720.69718378016989
 20
-49.508704010750307
 30
0.0
 11
722.69718378016978
 21
-48.972805630750308
 31
0.0
  0
LINE
  5
8AAE
  8
0
  6
BYBLOCK
 10
720.69718378016989
 20
-49.508704010750307
 30
0.0
 11
722.69718378016978
 21
-49.508704010750307
 31
0.0
  0
LINE
  5
8AAF
  8
0
  6
BYBLOCK
 10
756.69715278016974
 20
-48.972805630750308
 30
0.0
 11
758.69715278016974
 21
-49.508704010750307
 31
0.0
  0
LINE
  5
8AB0
  8
0
  6
BYBLOCK
 10
758.69715278016974
 20
-49.508704010750307
 30
0.0
 11
756.69715278016974
 21
-50.044602390750299
 31
0.0
  0
LINE
  5
8AB1
  8
0
  6
BYBLOCK
 10
758.69715278016974
 20
-49.508704010750307
 30
0.0
 11
756.69715278016974
 21
-49.508704010750307
 31
0.0
  0
TEXT
  5
8AB2
  8
1DIM
 10
762.32907439379312
 20
-42.760559203820129
 30
0.0
 40
3.5
  1
12
  0
LINE
  5
8AB3
  8
0
  6
BYBLOCK
 10
768.62766267408324
 20
-42.92466082382014
 30
0.0
 11
770.62766267408324
 21
-43.460559203820132
 31
0.0
  0
LINE
  5
8AB4
  8
0
  6
BYBLOCK
 10
770.62766267408324
 20
-43.460559203820132
 30
0.0
 11
768.62766267408324
 21
-43.996457583820131
 31
0.0
  0
LINE
  5
8AB5
  8
0
  6
BYBLOCK
 10
770.62766267408324
 20
-43.460559203820132
 30
0.0
 11
768.62766267408324
 21
-43.460559203820132
 31
0.0
  0
LINE
  5
8AB6
  8
0
  6
BYBLOCK
 10
760.69715278016974
 20
-43.996457583820131
 30
0.0
 11
758.69715278016974
 21
-43.460559203820132
 31
0.0
  0
LINE
  5
8AB7
  8
0
  6
BYBLOCK
 10
758.69715278016974
 20
-43.460559203820132
 30
0.0
 11
760.69715278016974
 21
-42.92466082382014
 31
0.0
  0
LINE
  5
8AB8
  8
0
  6
BYBLOCK
 10
758.69715278016974
 20
-43.460559203820132
 30
0.0
 11
760.69715278016974
 21
-43.460559203820132
 31
0.0
  0
TEXT
  5
8AB9
  8
1DIM
 10
761.03050358972996
 20
-195.30521220737191
 30
0.0
 40
3.5
  1
7
  0
LINE
  5
8ABA
  8
0
  6
BYBLOCK
 10
760.69715278016974
 20
-196.5411105873718
 30
0.0
 11
758.69715278016974
 21
-196.0052122073719
 31
0.0
  0
LINE
  5
8ABB
  8
0
  6
BYBLOCK
 10
758.69715278016974
 20
-196.0052122073719
 30
0.0
 11
760.69715278016974
 21
-195.46931382737179
 31
0.0
  0
LINE
  5
8ABC
  8
0
  6
BYBLOCK
 10
758.69715278016974
 20
-196.0052122073719
 30
0.0
 11
760.69715278016974
 21
-196.0052122073719
 31
0.0
  0
LINE
  5
8ABD
  8
0
  6
BYBLOCK
 10
763.69718773262355
 20
-195.46931382737179
 30
0.0
 11
765.69718773262355
 21
-196.0052122073719
 31
0.0
  0
LINE
  5
8ABE
  8
0
  6
BYBLOCK
 10
765.69718773262355
 20
-196.0052122073719
 30
0.0
 11
763.69718773262355
 21
-196.5411105873718
 31
0.0
  0
LINE
  5
8ABF
  8
0
  6
BYBLOCK
 10
765.69718773262355
 20
-196.0052122073719
 30
0.0
 11
763.69718773262355
 21
-196.0052122073719
 31
0.0
  0
TEXT
  5
8AC0
  8
1DIM
 10
682.17691501208708
 20
-123.5955895371532
 30
0.0
 40
3.5
  1
81
 50
90.0
  0
LINE
  5
8AC1
  8
0
  6
BYBLOCK
 10
683.41281339208706
 20
-159.46225320382021
 30
0.0
 11
682.87691501208712
 21
-161.46225320382021
 31
0.0
  0
LINE
  5
8AC2
  8
0
  6
BYBLOCK
 10
682.87691501208712
 20
-161.46225320382021
 30
0.0
 11
682.34101663208696
 21
-159.46225320382021
 31
0.0
  0
LINE
  5
8AC3
  8
0
  6
BYBLOCK
 10
682.87691501208712
 20
-161.46225320382021
 30
0.0
 11
682.87691501208712
 21
-159.46225320382021
 31
0.0
  0
LINE
  5
8AC4
  8
0
  6
BYBLOCK
 10
682.34101663208696
 20
-83.062259203819849
 30
0.0
 11
682.87691501208712
 21
-81.062259203819849
 31
0.0
  0
LINE
  5
8AC5
  8
0
  6
BYBLOCK
 10
682.87691501208712
 20
-81.062259203819849
 30
0.0
 11
683.41281339208706
 21
-83.062259203819849
 31
0.0
  0
LINE
  5
8AC6
  8
0
  6
BYBLOCK
 10
682.87691501208712
 20
-81.062259203819849
 30
0.0
 11
682.87691501208712
 21
-83.062259203819849
 31
0.0
  0
TEXT
  5
8AC7
  8
1DIM
 10
744.13047411350317
 20
-195.30521220737191
 30
0.0
 40
3.5
  1
2.7
  0
LINE
  5
8AC8
  8
0
  6
BYBLOCK
 10
753.99714078016984
 20
-195.46931382737179
 30
0.0
 11
755.99714078016984
 21
-196.0052122073719
 31
0.0
  0
LINE
  5
8AC9
  8
0
  6
BYBLOCK
 10
755.99714078016984
 20
-196.0052122073719
 30
0.0
 11
753.99714078016984
 21
-196.5411105873718
 31
0.0
  0
LINE
  5
8ACA
  8
0
  6
BYBLOCK
 10
755.99714078016984
 20
-196.0052122073719
 30
0.0
 11
753.99714078016984
 21
-196.0052122073719
 31
0.0
  0
LINE
  5
8ACB
  8
0
  6
BYBLOCK
 10
760.69715278016974
 20
-196.5411105873718
 30
0.0
 11
758.69715278016974
 21
-196.0052122073719
 31
0.0
  0
LINE
  5
8ACC
  8
0
  6
BYBLOCK
 10
758.69715278016974
 20
-196.0052122073719
 30
0.0
 11
760.69715278016974
 21
-195.46931382737179
 31
0.0
  0
LINE
  5
8ACD
  8
0
  6
BYBLOCK
 10
758.69715278016974
 20
-196.0052122073719
 30
0.0
 11
760.69715278016974
 21
-196.0052122073719
 31
0.0
  0
TEXT
  5
8ACE
  8
1DIM
 10
814.68881944683699
 20
-28.366303710244711
 30
0.0
 40
3.5
  1
対応扉厚：30～42
  0
LINE
  5
8ACF
  8
0
  6
BYBLOCK
 10
809.6971527801702
 20
-28.530405330244712
 30
0.0
 11
811.69715278017043
 21
-29.066303710244711
 31
0.0
  0
LINE
  5
8AD0
  8
0
  6
BYBLOCK
 10
811.69715278017043
 20
-29.066303710244711
 30
0.0
 11
809.6971527801702
 21
-29.60220209024471
 31
0.0
  0
LINE
  5
8AD1
  8
0
  6
BYBLOCK
 10
811.69715278017043
 20
-29.066303710244711
 30
0.0
 11
809.6971527801702
 21
-29.066303710244711
 31
0.0
  0
LINE
  5
8AD2
  8
0
  6
BYBLOCK
 10
783.6971527801702
 20
-29.60220209024471
 30
0.0
 11
781.69715278017031
 21
-29.066303710244711
 31
0.0
  0
LINE
  5
8AD3
  8
0
  6
BYBLOCK
 10
781.69715278017031
 20
-29.066303710244711
 30
0.0
 11
783.6971527801702
 21
-28.530405330244712
 31
0.0
  0
LINE
  5
8AD4
  8
0
  6
BYBLOCK
 10
781.69715278017031
 20
-29.066303710244711
 30
0.0
 11
783.6971527801702
 21
-29.066303710244711
 31
0.0
  0
TEXT
  5
8AD5
  8
1DIM
 10
769.26381944683692
 20
-173.55477424274619
 30
0.0
 40
3.5
  1
1.5
  0
LINE
  5
8AD6
  8
0
  6
BYBLOCK
 10
778.29715278017022
 20
-173.71887586274619
 30
0.0
 11
780.29715278017022
 21
-174.25477424274609
 31
0.0
  0
LINE
  5
8AD7
  8
0
  6
BYBLOCK
 10
780.29715278017022
 20
-174.25477424274609
 30
0.0
 11
778.29715278017022
 21
-174.79067262274609
 31
0.0
  0
LINE
  5
8AD8
  8
0
  6
BYBLOCK
 10
780.29715278017022
 20
-174.25477424274609
 30
0.0
 11
778.29715278017022
 21
-174.25477424274609
 31
0.0
  0
LINE
  5
8AD9
  8
0
  6
BYBLOCK
 10
783.6971527801702
 20
-174.79067262274609
 30
0.0
 11
781.69715278017031
 21
-174.25477424274609
 31
0.0
  0
LINE
  5
8ADA
  8
0
  6
BYBLOCK
 10
781.69715278017031
 20
-174.25477424274609
 30
0.0
 11
783.6971527801702
 21
-173.71887586274619
 31
0.0
  0
LINE
  5
8ADB
  8
0
  6
BYBLOCK
 10
781.69715278017031
 20
-174.25477424274609
 30
0.0
 11
783.6971527801702
 21
-174.25477424274609
 31
0.0
  0
TEXT
  5
8ADC
  8
1DIM
 10
818.09715192778481
 20
-173.5547742394468
 30
0.0
 40
3.5
  1
1.5
  0
LINE
  5
8ADD
  8
0
  6
BYBLOCK
 10
814.89715192778476
 20
-174.7906726194467
 30
0.0
 11
812.89715192778488
 21
-174.2547742394467
 31
0.0
  0
LINE
  5
8ADE
  8
0
  6
BYBLOCK
 10
812.89715192778488
 20
-174.2547742394467
 30
0.0
 11
814.89715192778476
 21
-173.71887585944671
 31
0.0
  0
LINE
  5
8ADF
  8
0
  6
BYBLOCK
 10
812.89715192778488
 20
-174.2547742394467
 30
0.0
 11
814.89715192778476
 21
-174.2547742394467
 31
0.0
  0
LINE
  5
8AE0
  8
0
  6
BYBLOCK
 10
809.69718572806278
 20
-173.71887585944671
 30
0.0
 11
811.69718572806278
 21
-174.2547742394467
 31
0.0
  0
LINE
  5
8AE1
  8
0
  6
BYBLOCK
 10
811.69718572806278
 20
-174.2547742394467
 30
0.0
 11
809.69718572806278
 21
-174.7906726194467
 31
0.0
  0
LINE
  5
8AE2
  8
0
  6
BYBLOCK
 10
811.69718572806278
 20
-174.2547742394467
 30
0.0
 11
809.69718572806278
 21
-174.2547742394467
 31
0.0
  0
LINE
  5
8AE3
  8
1DIM
 10
734.7565247513013
 20
-153.8309835188588
 30
0.0
 11
738.97633929920164
 21
-180.0265385486083
 31
0.0
  0
LINE
  5
8AE4
  8
1DIM
 10
738.97633929920164
 20
-180.0265385486083
 30
0.0
 11
736.27633929920148
 21
-180.0265385486083
 31
0.0
  0
LINE
  5
8AE5
  8
0
  6
BYBLOCK
 10
734.22744709608219
 20
-153.91621208469479
 30
0.0
 11
734.43844741045928
 21
-151.85643881051641
 31
0.0
  0
LINE
  5
8AE6
  8
0
  6
BYBLOCK
 10
734.43844741045928
 20
-151.85643881051641
 30
0.0
 11
735.28560240652041
 21
-153.74575495302281
 31
0.0
  0
LINE
  5
8AE7
  8
0
  6
BYBLOCK
 10
734.43844741045928
 20
-151.85643881051641
 30
0.0
 11
734.7565247513013
 21
-153.8309835188588
 31
0.0
  0
LINE
  5
8AE8
  8
1DIM
 10
863.82929739891176
 20
-122.0535838479688
 30
0.0
 11
854.62106299795812
 21
-71.902395327959724
 31
0.0
  0
LINE
  5
8AE9
  8
1DIM
 10
854.62106299795812
 20
-71.902395327959724
 30
0.0
 11
857.32106299795817
 21
-71.902395327959724
 31
0.0
  0
LINE
  5
8AEA
  8
0
  6
BYBLOCK
 10
864.35638472229527
 20
-121.9568056106684
 30
0.0
 11
864.19047870086092
 21
-124.0207005367096
 31
0.0
  0
LINE
  5
8AEB
  8
0
  6
BYBLOCK
 10
864.19047870086092
 20
-124.0207005367096
 30
0.0
 11
863.30221007552814
 21
-122.15036208526919
 31
0.0
  0
LINE
  5
8AEC
  8
0
  6
BYBLOCK
 10
864.19047870086092
 20
-124.0207005367096
 30
0.0
 11
863.82929739891176
 21
-122.0535838479688
 31
0.0
  0
TEXT
  5
8AED
  8
1DIM
 10
682.17691501208708
 20
-72.745598537153171
 30
0.0
 40
3.5
  1
21
 50
90.0
  0
LINE
  5
8AEE
  8
0
  6
BYBLOCK
 10
682.34101663208696
 20
-61.76225620381998
 30
0.0
 11
682.87691501208712
 21
-59.762256203819987
 31
0.0
  0
LINE
  5
8AEF
  8
0
  6
BYBLOCK
 10
682.87691501208712
 20
-59.762256203819987
 30
0.0
 11
683.41281339208706
 21
-61.76225620381998
 31
0.0
  0
LINE
  5
8AF0
  8
0
  6
BYBLOCK
 10
682.87691501208712
 20
-59.762256203819987
 30
0.0
 11
682.87691501208712
 21
-61.76225620381998
 31
0.0
  0
LINE
  5
8AF1
  8
0
  6
BYBLOCK
 10
683.41281339208706
 20
-79.062274203819925
 30
0.0
 11
682.87691501208712
 21
-81.062274203819925
 31
0.0
  0
LINE
  5
8AF2
  8
0
  6
BYBLOCK
 10
682.87691501208712
 20
-81.062274203819925
 30
0.0
 11
682.34101663208696
 21
-79.062274203819925
 31
0.0
  0
LINE
  5
8AF3
  8
0
  6
BYBLOCK
 10
682.87691501208712
 20
-81.062274203819925
 30
0.0
 11
682.87691501208712
 21
-79.062274203819925
 31
0.0
  0
TEXT
  5
8AF4
  8
1DIM
 10
682.17691501208708
 20
-174.4455880371533
 30
0.0
 40
3.5
  1
21
 50
90.0
  0
LINE
  5
8AF5
  8
0
  6
BYBLOCK
 10
683.41281339208706
 20
-180.76225620381999
 30
0.0
 11
682.87691501208712
 21
-182.76225620381999
 31
0.0
  0
LINE
  5
8AF6
  8
0
  6
BYBLOCK
 10
682.87691501208712
 20
-182.76225620381999
 30
0.0
 11
682.34101663208696
 21
-180.76225620381999
 31
0.0
  0
LINE
  5
8AF7
  8
0
  6
BYBLOCK
 10
682.87691501208712
 20
-182.76225620381999
 30
0.0
 11
682.87691501208712
 21
-180.76225620381999
 31
0.0
  0
LINE
  5
8AF8
  8
0
  6
BYBLOCK
 10
682.34101663208696
 20
-163.46225320382021
 30
0.0
 11
682.87691501208712
 21
-161.46225320382021
 31
0.0
  0
LINE
  5
8AF9
  8
0
  6
BYBLOCK
 10
682.87691501208712
 20
-161.46225320382021
 30
0.0
 11
683.41281339208706
 21
-163.46225320382021
 31
0.0
  0
LINE
  5
8AFA
  8
0
  6
BYBLOCK
 10
682.87691501208712
 20
-161.46225320382021
 30
0.0
 11
682.87691501208712
 21
-163.46225320382021
 31
0.0
  0
TEXT
  5
8AFB
  8
1DIM
 10
872.33046810894018
 20
-177.1889865469216
 30
0.0
 40
3.5
  1
\U+03C639
  0
LINE
  5
8AFC
  8
0
  6
BYBLOCK
 10
895.19716427892445
 20
-177.35308816692159
 30
0.0
 11
897.19716427892433
 21
-177.88898654692159
 31
0.0
  0
LINE
  5
8AFD
  8
0
  6
BYBLOCK
 10
897.19716427892433
 20
-177.88898654692159
 30
0.0
 11
895.19716427892445
 21
-178.42488492692161
 31
0.0
  0
LINE
  5
8AFE
  8
0
  6
BYBLOCK
 10
897.19716427892433
 20
-177.88898654692159
 30
0.0
 11
895.19716427892445
 21
-177.88898654692159
 31
0.0
  0
LINE
  5
8AFF
  8
0
  6
BYBLOCK
 10
860.19710527228949
 20
-178.42488492692161
 30
0.0
 11
858.19710527228949
 21
-177.88898654692159
 31
0.0
  0
LINE
  5
8B00
  8
0
  6
BYBLOCK
 10
858.19710527228949
 20
-177.88898654692159
 30
0.0
 11
860.19710527228949
 21
-177.35308816692159
 31
0.0
  0
LINE
  5
8B01
  8
0
  6
BYBLOCK
 10
858.19710527228949
 20
-177.88898654692159
 30
0.0
 11
860.19710527228949
 21
-177.88898654692159
 31
0.0
  0
TEXT
  5
8B02
  8
1DIM
 10
910.21847447012635
 20
-200.69062823860949
 30
0.0
 40
3.5
  1
7
 50
90.0
  0
LINE
  5
8B03
  8
0
  6
BYBLOCK
 10
911.45437285012645
 20
-200.82395857194291
 30
0.0
 11
910.91847447012651
 21
-202.82395857194291
 31
0.0
  0
LINE
  5
8B04
  8
0
  6
BYBLOCK
 10
910.91847447012651
 20
-202.82395857194291
 30
0.0
 11
910.38257609012635
 21
-200.82395857194291
 31
0.0
  0
LINE
  5
8B05
  8
0
  6
BYBLOCK
 10
910.91847447012651
 20
-202.82395857194291
 30
0.0
 11
910.91847447012651
 21
-200.82395857194291
 31
0.0
  0
LINE
  5
8B06
  8
0
  6
BYBLOCK
 10
910.38257609012635
 20
-198.22396457194299
 30
0.0
 11
910.91847447012651
 21
-196.22396457194299
 31
0.0
  0
LINE
  5
8B07
  8
0
  6
BYBLOCK
 10
910.91847447012651
 20
-196.22396457194299
 30
0.0
 11
911.45437285012645
 21
-198.22396457194299
 31
0.0
  0
LINE
  5
8B08
  8
0
  6
BYBLOCK
 10
910.91847447012651
 20
-196.22396457194299
 30
0.0
 11
910.91847447012651
 21
-198.22396457194299
 31
0.0
  0
TEXT
  5
8B09
  8
1DIM
 10
825.17515404131325
 20
-212.9367288728335
 30
0.0
 40
3.5
  1
3
 50
90.0
  0
LINE
  5
8B0A
  8
0
  6
BYBLOCK
 10
825.33925566131325
 20
-203.02396057194301
 30
0.0
 11
825.87515404131329
 21
-201.02396057194301
 31
0.0
  0
LINE
  5
8B0B
  8
0
  6
BYBLOCK
 10
825.87515404131329
 20
-201.02396057194301
 30
0.0
 11
826.41105242131334
 21
-203.02396057194301
 31
0.0
  0
LINE
  5
8B0C
  8
0
  6
BYBLOCK
 10
825.87515404131329
 20
-201.02396057194301
 30
0.0
 11
825.87515404131329
 21
-203.02396057194301
 31
0.0
  0
LINE
  5
8B0D
  8
0
  6
BYBLOCK
 10
826.41105242131334
 20
-196.02396057194301
 30
0.0
 11
825.87515404131329
 21
-198.02396057194301
 31
0.0
  0
LINE
  5
8B0E
  8
0
  6
BYBLOCK
 10
825.87515404131329
 20
-198.02396057194301
 30
0.0
 11
825.33925566131325
 21
-196.02396057194301
 31
0.0
  0
LINE
  5
8B0F
  8
0
  6
BYBLOCK
 10
825.87515404131329
 20
-198.02396057194301
 30
0.0
 11
825.87515404131329
 21
-196.02396057194301
 31
0.0
  0
TEXT
  5
8B10
  8
1DIM
 10
819.2918643845569
 20
-201.40332362121819
 30
0.0
 40
3.5
  1
16
 50
90.0
  0
LINE
  5
8B11
  8
0
  6
BYBLOCK
 10
819.45596600455701
 20
-193.52396057194301
 30
0.0
 11
819.99186438455695
 21
-191.52396057194301
 31
0.0
  0
LINE
  5
8B12
  8
0
  6
BYBLOCK
 10
819.99186438455695
 20
-191.52396057194301
 30
0.0
 11
820.52776276455711
 21
-193.52396057194301
 31
0.0
  0
LINE
  5
8B13
  8
0
  6
BYBLOCK
 10
819.99186438455695
 20
-191.52396057194301
 30
0.0
 11
819.99186438455695
 21
-193.52396057194301
 31
0.0
  0
LINE
  5
8B14
  8
0
  6
BYBLOCK
 10
820.52776276455711
 20
-205.52396057194301
 30
0.0
 11
819.99186438455695
 21
-207.52396057194301
 31
0.0
  0
LINE
  5
8B15
  8
0
  6
BYBLOCK
 10
819.99186438455695
 20
-207.52396057194301
 30
0.0
 11
819.45596600455701
 21
-205.52396057194301
 31
0.0
  0
LINE
  5
8B16
  8
0
  6
BYBLOCK
 10
819.99186438455695
 20
-207.52396057194301
 30
0.0
 11
819.99186438455695
 21
-205.52396057194301
 31
0.0
  0
TEXT
  5
8B17
  8
1DIM
 10
619.84247808462021
 20
-56.062256203819693
 30
0.0
 40
3.5
  1
11.5
 50
90.0
  0
LINE
  5
8B18
  8
0
  6
BYBLOCK
 10
620.00657970462009
 20
-61.762256203819781
 30
0.0
 11
620.54247808462026
 21
-59.762256203819781
 31
0.0
  0
LINE
  5
8B19
  8
0
  6
BYBLOCK
 10
620.54247808462026
 20
-59.762256203819781
 30
0.0
 11
621.07837646462031
 21
-61.762256203819781
 31
0.0
  0
LINE
  5
8B1A
  8
0
  6
BYBLOCK
 10
620.54247808462026
 20
-59.762256203819781
 30
0.0
 11
620.54247808462026
 21
-61.762256203819781
 31
0.0
  0
LINE
  5
8B1B
  8
0
  6
BYBLOCK
 10
621.07837646462031
 20
-69.262256203819788
 30
0.0
 11
620.54247808462026
 21
-71.262256203819788
 31
0.0
  0
LINE
  5
8B1C
  8
0
  6
BYBLOCK
 10
620.54247808462026
 20
-71.262256203819788
 30
0.0
 11
620.00657970462009
 21
-69.262256203819788
 31
0.0
  0
LINE
  5
8B1D
  8
0
  6
BYBLOCK
 10
620.54247808462026
 20
-71.262256203819788
 30
0.0
 11
620.54247808462026
 21
-69.262256203819788
 31
0.0
  0
TEXT
  5
8B1E
  8
1DIM
 10
619.84247808462021
 20
-141.56225620381969
 30
0.0
 40
3.5
  1
取付けねじピッチ100
 50
90.0
  0
LINE
  5
8B1F
  8
0
  6
BYBLOCK
 10
621.07837646462031
 20
-169.26225620381979
 30
0.0
 11
620.54247808462026
 21
-171.26225620381979
 31
0.0
  0
LINE
  5
8B20
  8
0
  6
BYBLOCK
 10
620.54247808462026
 20
-171.26225620381979
 30
0.0
 11
620.00657970462009
 21
-169.26225620381979
 31
0.0
  0
LINE
  5
8B21
  8
0
  6
BYBLOCK
 10
620.54247808462026
 20
-171.26225620381979
 30
0.0
 11
620.54247808462026
 21
-169.26225620381979
 31
0.0
  0
LINE
  5
8B22
  8
0
  6
BYBLOCK
 10
620.00657970462009
 20
-73.262256203819788
 30
0.0
 11
620.54247808462026
 21
-71.262256203819788
 31
0.0
  0
LINE
  5
8B23
  8
0
  6
BYBLOCK
 10
620.54247808462026
 20
-71.262256203819788
 30
0.0
 11
621.07837646462031
 21
-73.262256203819788
 31
0.0
  0
LINE
  5
8B24
  8
0
  6
BYBLOCK
 10
620.54247808462026
 20
-71.262256203819788
 30
0.0
 11
620.54247808462026
 21
-73.262256203819788
 31
0.0
  0
TEXT
  5
8B25
  8
1DIM
 10
653.14727158261314
 20
-91.028922870486355
 30
0.0
 40
3.5
  1
上下調整範囲
 50
90.0
  0
TEXT
  5
8B26
  8
1DIM
 10
658.98060491594651
 20
-91.845589537153003
 30
0.0
 40
3.5
  1
34.5~42.5
 50
90.0
  0
LINE
  5
8B27
  8
0
  6
BYBLOCK
 10
660.21650329594638
 20
-96.262256203819803
 30
0.0
 11
659.68060491594645
 21
-98.262256203819788
 31
0.0
  0
LINE
  5
8B28
  8
0
  6
BYBLOCK
 10
659.68060491594645
 20
-98.262256203819788
 30
0.0
 11
659.1447065359464
 21
-96.262256203819803
 31
0.0
  0
LINE
  5
8B29
  8
0
  6
BYBLOCK
 10
659.68060491594645
 20
-98.262256203819788
 30
0.0
 11
659.68060491594645
 21
-96.262256203819803
 31
0.0
  0
LINE
  5
8B2A
  8
0
  6
BYBLOCK
 10
659.1447065359464
 20
-61.762256203819803
 30
0.0
 11
659.68060491594645
 21
-59.762256203819788
 31
0.0
  0
LINE
  5
8B2B
  8
0
  6
BYBLOCK
 10
659.68060491594645
 20
-59.762256203819788
 30
0.0
 11
660.21650329594638
 21
-61.762256203819803
 31
0.0
  0
LINE
  5
8B2C
  8
0
  6
BYBLOCK
 10
659.68060491594645
 20
-59.762256203819788
 30
0.0
 11
659.68060491594645
 21
-61.762256203819803
 31
0.0
  0
TEXT
  5
8B2D
  8
1DIM
 10
658.9806049159464
 20
-118.6789228704863
 30
0.0
 40
3.5
  1
31.5
 50
90.0
  0
LINE
  5
8B2E
  8
0
  6
BYBLOCK
 10
660.21650329594638
 20
-127.7622562038198
 30
0.0
 11
659.68060491594645
 21
-129.76225620381979
 31
0.0
  0
LINE
  5
8B2F
  8
0
  6
BYBLOCK
 10
659.68060491594645
 20
-129.76225620381979
 30
0.0
 11
659.1447065359464
 21
-127.7622562038198
 31
0.0
  0
LINE
  5
8B30
  8
0
  6
BYBLOCK
 10
659.68060491594645
 20
-129.76225620381979
 30
0.0
 11
659.68060491594645
 21
-127.7622562038198
 31
0.0
  0
LINE
  5
8B31
  8
0
  6
BYBLOCK
 10
659.1447065359464
 20
-100.2622562038198
 30
0.0
 11
659.68060491594645
 21
-98.262256203819788
 31
0.0
  0
LINE
  5
8B32
  8
0
  6
BYBLOCK
 10
659.68060491594645
 20
-98.262256203819788
 30
0.0
 11
660.21650329594638
 21
-100.2622562038198
 31
0.0
  0
LINE
  5
8B33
  8
0
  6
BYBLOCK
 10
659.68060491594645
 20
-98.262256203819788
 30
0.0
 11
659.68060491594645
 21
-100.2622562038198
 31
0.0
  0
TEXT
  5
8B34
  8
1DIM
 10
566.84905078305349
 20
-218.63057450990959
 30
0.0
 40
3.5
  1
13
 50
90.0
  0
LINE
  5
8B35
  8
0
  6
BYBLOCK
 10
567.01315240305337
 20
-211.79724117657631
 30
0.0
 11
567.54905078305353
 21
-209.79724117657631
 31
0.0
  0
LINE
  5
8B36
  8
0
  6
BYBLOCK
 10
567.54905078305353
 20
-209.79724117657631
 30
0.0
 11
568.08494916305347
 21
-211.79724117657631
 31
0.0
  0
LINE
  5
8B37
  8
0
  6
BYBLOCK
 10
567.54905078305353
 20
-209.79724117657631
 30
0.0
 11
567.54905078305353
 21
-211.79724117657631
 31
0.0
  0
LINE
  5
8B38
  8
0
  6
BYBLOCK
 10
568.08494916305347
 20
-220.79724117657631
 30
0.0
 11
567.54905078305353
 21
-222.79724117657631
 31
0.0
  0
LINE
  5
8B39
  8
0
  6
BYBLOCK
 10
567.54905078305353
 20
-222.79724117657631
 30
0.0
 11
567.01315240305337
 21
-220.79724117657631
 31
0.0
  0
LINE
  5
8B3A
  8
0
  6
BYBLOCK
 10
567.54905078305353
 20
-222.79724117657631
 30
0.0
 11
567.54905078305353
 21
-220.79724117657631
 31
0.0
  0
TEXT
  5
8B3B
  8
1DIM
 10
649.42698910655054
 20
-55.311146303283252
 30
0.0
 40
3.5
  1
R6
 50
43.605068500902867
  0
LINE
  5
8B3C
  8
0
  6
BYBLOCK
 10
641.99598763797576
 20
-62.615471959513229
 30
0.0
 11
643.81380967032192
 21
-61.624154587324078
 31
0.0
  0
LINE
  5
8B3D
  8
0
  6
BYBLOCK
 10
643.81380967032192
 20
-61.624154587324078
 30
0.0
 11
642.73518828882766
 21
-63.391571626132531
 31
0.0
  0
LINE
  5
8B3E
  8
0
  6
BYBLOCK
 10
643.81380967032192
 20
-61.624154587324078
 30
0.0
 11
642.36558796340182
 21
-63.00352179282288
 31
0.0
  0
TEXT
  5
8B3F
  8
1DIM
 10
636.30247788289626
 20
-107.10346021690749
 30
0.0
 40
3.5
  1
9
  0
LINE
  5
8B40
  8
0
  6
BYBLOCK
 10
639.96914454956277
 20
-107.2675618369075
 30
0.0
 11
641.96914454956288
 21
-107.8034602169075
 31
0.0
  0
LINE
  5
8B41
  8
0
  6
BYBLOCK
 10
641.96914454956288
 20
-107.8034602169075
 30
0.0
 11
639.96914454956277
 21
-108.3393585969075
 31
0.0
  0
LINE
  5
8B42
  8
0
  6
BYBLOCK
 10
641.96914454956288
 20
-107.8034602169075
 30
0.0
 11
639.96914454956277
 21
-107.8034602169075
 31
0.0
  0
LINE
  5
8B43
  8
0
  6
BYBLOCK
 10
634.96914454956277
 20
-108.3393585969075
 30
0.0
 11
632.96914454956288
 21
-107.8034602169075
 31
0.0
  0
LINE
  5
8B44
  8
0
  6
BYBLOCK
 10
632.96914454956288
 20
-107.8034602169075
 30
0.0
 11
634.96914454956277
 21
-107.2675618369075
 31
0.0
  0
LINE
  5
8B45
  8
0
  6
BYBLOCK
 10
632.96914454956288
 20
-107.8034602169075
 30
0.0
 11
634.96914454956277
 21
-107.8034602169075
 31
0.0
  0
TEXT
  5
8B46
  8
1DIM
 10
603.88131553732194
 20
-218.63057450990959
 30
0.0
 40
3.5
  1
16
 50
90.0
  0
LINE
  5
8B47
  8
0
  6
BYBLOCK
 10
604.04541715732194
 20
-210.29724117657631
 30
0.0
 11
604.58131553732187
 21
-208.29724117657631
 31
0.0
  0
LINE
  5
8B48
  8
0
  6
BYBLOCK
 10
604.58131553732187
 20
-208.29724117657631
 30
0.0
 11
605.11721391732203
 21
-210.29724117657631
 31
0.0
  0
LINE
  5
8B49
  8
0
  6
BYBLOCK
 10
604.58131553732187
 20
-208.29724117657631
 30
0.0
 11
604.58131553732187
 21
-210.29724117657631
 31
0.0
  0
LINE
  5
8B4A
  8
0
  6
BYBLOCK
 10
605.11721391732203
 20
-222.29724117657631
 30
0.0
 11
604.58131553732187
 21
-224.29724117657631
 31
0.0
  0
LINE
  5
8B4B
  8
0
  6
BYBLOCK
 10
604.58131553732187
 20
-224.29724117657631
 30
0.0
 11
604.04541715732194
 21
-222.29724117657631
 31
0.0
  0
LINE
  5
8B4C
  8
0
  6
BYBLOCK
 10
604.58131553732187
 20
-224.29724117657631
 30
0.0
 11
604.58131553732187
 21
-222.29724117657631
 31
0.0
  0
TEXT
  5
8B4D
  8
1DIM
 10
595.73666801492857
 20
-196.47104115827781
 30
0.0
 40
3.5
  1
14.5
  0
LINE
  5
8B4E
  8
0
  6
BYBLOCK
 10
595.15333468159531
 20
-197.70693953827779
 30
0.0
 11
593.1533346815952
 21
-197.1710411582778
 31
0.0
  0
LINE
  5
8B4F
  8
0
  6
BYBLOCK
 10
593.1533346815952
 20
-197.1710411582778
 30
0.0
 11
595.15333468159531
 21
-196.63514277827781
 31
0.0
  0
LINE
  5
8B50
  8
0
  6
BYBLOCK
 10
593.1533346815952
 20
-197.1710411582778
 30
0.0
 11
595.15333468159531
 21
-197.1710411582778
 31
0.0
  0
LINE
  5
8B51
  8
0
  6
BYBLOCK
 10
605.65333468159531
 20
-196.63514277827781
 30
0.0
 11
607.65333468159531
 21
-197.1710411582778
 31
0.0
  0
LINE
  5
8B52
  8
0
  6
BYBLOCK
 10
607.65333468159531
 20
-197.1710411582778
 30
0.0
 11
605.65333468159531
 21
-197.70693953827779
 31
0.0
  0
LINE
  5
8B53
  8
0
  6
BYBLOCK
 10
607.65333468159531
 20
-197.1710411582778
 30
0.0
 11
605.65333468159531
 21
-197.1710411582778
 31
0.0
  0
TEXT
  5
8B54
  8
1DIM
 10
593.28666801492875
 20
-188.6319170056002
 30
0.0
 40
3.5
  1
2.5
  0
LINE
  5
8B55
  8
0
  6
BYBLOCK
 10
603.15333468159554
 20
-188.7960186256002
 30
0.0
 11
605.15333468159554
 21
-189.33191700560019
 31
0.0
  0
LINE
  5
8B56
  8
0
  6
BYBLOCK
 10
605.15333468159554
 20
-189.33191700560019
 30
0.0
 11
603.15333468159554
 21
-189.86781538560021
 31
0.0
  0
LINE
  5
8B57
  8
0
  6
BYBLOCK
 10
605.15333468159554
 20
-189.33191700560019
 30
0.0
 11
603.15333468159554
 21
-189.33191700560019
 31
0.0
  0
LINE
  5
8B58
  8
0
  6
BYBLOCK
 10
609.6533346815952
 20
-189.86781538560021
 30
0.0
 11
607.65333468159531
 21
-189.33191700560019
 31
0.0
  0
LINE
  5
8B59
  8
0
  6
BYBLOCK
 10
607.65333468159531
 20
-189.33191700560019
 30
0.0
 11
609.6533346815952
 21
-188.7960186256002
 31
0.0
  0
LINE
  5
8B5A
  8
0
  6
BYBLOCK
 10
607.65333468159531
 20
-189.33191700560019
 30
0.0
 11
609.6533346815952
 21
-189.33191700560019
 31
0.0
  0
TEXT
  5
8B5B
  8
1DIM
 10
569.56374427157255
 20
-137.37892287048609
 30
0.0
 40
3.5
  1
切欠き必要寸法75
 50
90.0
  0
LINE
  5
8B5C
  8
0
  6
BYBLOCK
 10
570.79964265157264
 20
-155.2622562038197
 30
0.0
 11
570.26374427157248
 21
-157.2622562038197
 31
0.0
  0
LINE
  5
8B5D
  8
0
  6
BYBLOCK
 10
570.26374427157248
 20
-157.2622562038197
 30
0.0
 11
569.72784589157254
 21
-155.2622562038197
 31
0.0
  0
LINE
  5
8B5E
  8
0
  6
BYBLOCK
 10
570.26374427157248
 20
-157.2622562038197
 30
0.0
 11
570.26374427157248
 21
-155.2622562038197
 31
0.0
  0
LINE
  5
8B5F
  8
0
  6
BYBLOCK
 10
569.72784589157254
 20
-84.262256203819334
 30
0.0
 11
570.26374427157248
 21
-82.262256203819334
 31
0.0
  0
LINE
  5
8B60
  8
0
  6
BYBLOCK
 10
570.26374427157248
 20
-82.262256203819334
 30
0.0
 11
570.79964265157264
 21
-84.262256203819334
 31
0.0
  0
LINE
  5
8B61
  8
0
  6
BYBLOCK
 10
570.26374427157248
 20
-82.262256203819334
 30
0.0
 11
570.26374427157248
 21
-84.262256203819334
 31
0.0
  0
TEXT
  5
8B62
  8
1DIM
 10
576.74462097746311
 20
-122.6789228704861
 30
0.0
 40
3.5
  1
67
 50
90.0
  0
LINE
  5
8B63
  8
0
  6
BYBLOCK
 10
577.98051935746321
 20
-151.26225620381979
 30
0.0
 11
577.44462097746305
 21
-153.26225620381979
 31
0.0
  0
LINE
  5
8B64
  8
0
  6
BYBLOCK
 10
577.44462097746305
 20
-153.26225620381979
 30
0.0
 11
576.908722597463
 21
-151.26225620381979
 31
0.0
  0
LINE
  5
8B65
  8
0
  6
BYBLOCK
 10
577.44462097746305
 20
-153.26225620381979
 30
0.0
 11
577.44462097746305
 21
-151.26225620381979
 31
0.0
  0
LINE
  5
8B66
  8
0
  6
BYBLOCK
 10
576.908722597463
 20
-88.262256203819334
 30
0.0
 11
577.44462097746305
 21
-86.262256203819334
 31
0.0
  0
LINE
  5
8B67
  8
0
  6
BYBLOCK
 10
577.44462097746305
 20
-86.262256203819334
 30
0.0
 11
577.98051935746321
 21
-88.262256203819334
 31
0.0
  0
LINE
  5
8B68
  8
0
  6
BYBLOCK
 10
577.44462097746305
 20
-86.262256203819334
 30
0.0
 11
577.44462097746305
 21
-88.262256203819334
 31
0.0
  0
TEXT
  5
8B69
  8
1DIM
 10
576.74462097746311
 20
-77.895589537152574
 30
0.0
 40
3.5
  1
4 可動シロ
 50
90.0
  0
LINE
  5
8B6A
  8
0
  6
BYBLOCK
 10
577.98051935746321
 20
-80.262256203819334
 30
0.0
 11
577.44462097746305
 21
-82.262256203819334
 31
0.0
  0
LINE
  5
8B6B
  8
0
  6
BYBLOCK
 10
577.44462097746305
 20
-82.262256203819334
 30
0.0
 11
576.908722597463
 21
-80.262256203819334
 31
0.0
  0
LINE
  5
8B6C
  8
0
  6
BYBLOCK
 10
577.44462097746305
 20
-82.262256203819334
 30
0.0
 11
577.44462097746305
 21
-80.262256203819334
 31
0.0
  0
LINE
  5
8B6D
  8
0
  6
BYBLOCK
 10
576.908722597463
 20
-88.262256203819334
 30
0.0
 11
577.44462097746305
 21
-86.262256203819334
 31
0.0
  0
LINE
  5
8B6E
  8
0
  6
BYBLOCK
 10
577.44462097746305
 20
-86.262256203819334
 30
0.0
 11
577.98051935746321
 21
-88.262256203819334
 31
0.0
  0
LINE
  5
8B6F
  8
0
  6
BYBLOCK
 10
577.44462097746305
 20
-86.262256203819334
 30
0.0
 11
577.44462097746305
 21
-88.262256203819334
 31
0.0
  0
TEXT
  5
8B70
  8
1DIM
 10
576.74462097746311
 20
-182.62892287048629
 30
0.0
 40
3.5
  1
4 可動シロ
 50
90.0
  0
LINE
  5
8B71
  8
0
  6
BYBLOCK
 10
576.908722597463
 20
-159.26225620381979
 30
0.0
 11
577.44462097746305
 21
-157.26225620381979
 31
0.0
  0
LINE
  5
8B72
  8
0
  6
BYBLOCK
 10
577.44462097746305
 20
-157.26225620381979
 30
0.0
 11
577.98051935746321
 21
-159.26225620381979
 31
0.0
  0
LINE
  5
8B73
  8
0
  6
BYBLOCK
 10
577.44462097746305
 20
-157.26225620381979
 30
0.0
 11
577.44462097746305
 21
-159.26225620381979
 31
0.0
  0
LINE
  5
8B74
  8
0
  6
BYBLOCK
 10
577.98051935746321
 20
-151.26225620381979
 30
0.0
 11
577.44462097746305
 21
-153.26225620381979
 31
0.0
  0
LINE
  5
8B75
  8
0
  6
BYBLOCK
 10
577.44462097746305
 20
-153.26225620381979
 30
0.0
 11
576.908722597463
 21
-151.26225620381979
 31
0.0
  0
LINE
  5
8B76
  8
0
  6
BYBLOCK
 10
577.44462097746305
 20
-153.26225620381979
 30
0.0
 11
577.44462097746305
 21
-151.26225620381979
 31
0.0
  0
TEXT
  5
8B77
  8
1DIM
 10
635.1358112162294
 20
-196.47104115827781
 30
0.0
 40
3.5
  1
16
  0
LINE
  5
8B78
  8
0
  6
BYBLOCK
 10
643.46914454956277
 20
-196.63514277827781
 30
0.0
 11
645.46914454956288
 21
-197.1710411582778
 31
0.0
  0
LINE
  5
8B79
  8
0
  6
BYBLOCK
 10
645.46914454956288
 20
-197.1710411582778
 30
0.0
 11
643.46914454956277
 21
-197.70693953827779
 31
0.0
  0
LINE
  5
8B7A
  8
0
  6
BYBLOCK
 10
645.46914454956288
 20
-197.1710411582778
 30
0.0
 11
643.46914454956277
 21
-197.1710411582778
 31
0.0
  0
LINE
  5
8B7B
  8
0
  6
BYBLOCK
 10
631.46914454956277
 20
-197.70693953827779
 30
0.0
 11
629.46914454956288
 21
-197.1710411582778
 31
0.0
  0
LINE
  5
8B7C
  8
0
  6
BYBLOCK
 10
629.46914454956288
 20
-197.1710411582778
 30
0.0
 11
631.46914454956277
 21
-196.63514277827781
 31
0.0
  0
LINE
  5
8B7D
  8
0
  6
BYBLOCK
 10
629.46914454956288
 20
-197.1710411582778
 30
0.0
 11
631.46914454956277
 21
-197.1710411582778
 31
0.0
  0
TEXT
  5
8B7E
  8
1DIM
 10
666.5619048887803
 20
-125.3455895371529
 30
0.0
 40
3.5
  1
123
 50
90.0
  0
LINE
  5
8B7F
  8
0
  6
BYBLOCK
 10
667.79780326878029
 20
-180.7622562038197
 30
0.0
 11
667.26190488878035
 21
-182.76225620381979
 31
0.0
  0
LINE
  5
8B80
  8
0
  6
BYBLOCK
 10
667.26190488878035
 20
-182.76225620381979
 30
0.0
 11
666.7260065087803
 21
-180.7622562038197
 31
0.0
  0
LINE
  5
8B81
  8
0
  6
BYBLOCK
 10
667.26190488878035
 20
-182.76225620381979
 30
0.0
 11
667.26190488878035
 21
-180.7622562038197
 31
0.0
  0
LINE
  5
8B82
  8
0
  6
BYBLOCK
 10
666.7260065087803
 20
-61.762256203819803
 30
0.0
 11
667.26190488878035
 21
-59.762256203819788
 31
0.0
  0
LINE
  5
8B83
  8
0
  6
BYBLOCK
 10
667.26190488878035
 20
-59.762256203819788
 30
0.0
 11
667.79780326878029
 21
-61.762256203819803
 31
0.0
  0
LINE
  5
8B84
  8
0
  6
BYBLOCK
 10
667.26190488878035
 20
-59.762256203819788
 30
0.0
 11
667.26190488878035
 21
-61.762256203819803
 31
0.0
  0
TEXT
  5
8B85
  8
1DIM
 10
633.98054401124591
 20
-217.62777846534649
 30
0.0
 40
3.5
  1
25
  0
LINE
  5
8B86
  8
0
  6
BYBLOCK
 10
647.39721067791254
 20
-217.79188008534649
 30
0.0
 11
649.39721067791254
 21
-218.32777846534651
 31
0.0
  0
LINE
  5
8B87
  8
0
  6
BYBLOCK
 10
649.39721067791254
 20
-218.32777846534651
 30
0.0
 11
647.39721067791254
 21
-218.8636768453465
 31
0.0
  0
LINE
  5
8B88
  8
0
  6
BYBLOCK
 10
649.39721067791254
 20
-218.32777846534651
 30
0.0
 11
647.39721067791254
 21
-218.32777846534651
 31
0.0
  0
LINE
  5
8B89
  8
0
  6
BYBLOCK
 10
626.39721067791254
 20
-218.8636768453465
 30
0.0
 11
624.39721067791254
 21
-218.32777846534651
 31
0.0
  0
LINE
  5
8B8A
  8
0
  6
BYBLOCK
 10
624.39721067791254
 20
-218.32777846534651
 30
0.0
 11
626.39721067791254
 21
-217.79188008534649
 31
0.0
  0
LINE
  5
8B8B
  8
0
  6
BYBLOCK
 10
624.39721067791254
 20
-218.32777846534651
 30
0.0
 11
626.39721067791254
 21
-218.32777846534651
 31
0.0
  0
TEXT
  5
8B8C
  8
1DIM
 10
615.28847293661636
 20
-247.4634673997879
 30
0.0
 40
3.5
  1
\U+03C63.5
 50
90.0
  0
LINE
  5
8B8D
  8
0
  6
BYBLOCK
 10
615.45257455661636
 20
-233.14680073312141
 30
0.0
 11
615.98847293661629
 21
-231.14680073312141
 31
0.0
  0
LINE
  5
8B8E
  8
0
  6
BYBLOCK
 10
615.98847293661629
 20
-231.14680073312141
 30
0.0
 11
616.52437131661645
 21
-233.14680073312141
 31
0.0
  0
LINE
  5
8B8F
  8
0
  6
BYBLOCK
 10
615.98847293661629
 20
-231.14680073312141
 30
0.0
 11
615.98847293661629
 21
-233.14680073312141
 31
0.0
  0
LINE
  5
8B90
  8
0
  6
BYBLOCK
 10
616.52437131661645
 20
-225.64680073312141
 30
0.0
 11
615.98847293661629
 21
-227.64680073312141
 31
0.0
  0
LINE
  5
8B91
  8
0
  6
BYBLOCK
 10
615.98847293661629
 20
-227.64680073312141
 30
0.0
 11
615.45257455661636
 21
-225.64680073312141
 31
0.0
  0
LINE
  5
8B92
  8
0
  6
BYBLOCK
 10
615.98847293661629
 20
-227.64680073312141
 30
0.0
 11
615.98847293661629
 21
-225.64680073312141
 31
0.0
  0
LINE
  5
8B93
  8
1DIM
 10
635.11091412175972
 20
-62.396195583747847
 30
0.0
 11
638.1817419028871
 21
-37.858790490665527
 31
0.0
1001
ACAD
1000
DSTYLE
1002
{
1070
   341
1005
0
1002
}
  0
LINE
  5
8B94
  8
1DIM
 10
638.1817419028871
 20
-37.858790490665527
 30
0.0
 11
635.48174190288705
 21
-37.858790490665527
 31
0.0
1001
ACAD
1000
DSTYLE
1002
{
1070
   341
1005
0
1002
}
  0
LINE
  5
8B95
  8
1DIM
 10
599.81367551507344
 20
-88.132678367389346
 30
0.0
 11
604.98293093928567
 21
-52.136318027543851
 31
0.0
1001
ACAD
1000
DSTYLE
1002
{
1070
   341
1005
0
1002
}
  0
LINE
  5
8B96
  8
1DIM
 10
604.98293093928567
 20
-52.136318027543851
 30
0.0
 11
602.28293093928551
 21
-52.136318027543851
 31
0.0
1001
ACAD
1000
DSTYLE
1002
{
1070
   341
1005
0
1002
}
  0
TEXT
  5
8B97
  8
1DIM
 10
789.051107029994
 20
-241.9693503369802
 30
0.0
 40
3.5
  1
27
  0
LINE
  5
8B98
  8
0
  6
BYBLOCK
 10
803.46777169666075
 20
-242.1334519569802
 30
0.0
 11
805.46777169666063
 21
-242.66935033698019
 31
0.0
  0
LINE
  5
8B99
  8
0
  6
BYBLOCK
 10
805.46777169666063
 20
-242.66935033698019
 30
0.0
 11
803.46777169666075
 21
-243.20524871698021
 31
0.0
  0
LINE
  5
8B9A
  8
0
  6
BYBLOCK
 10
805.46777169666063
 20
-242.66935033698019
 30
0.0
 11
803.46777169666075
 21
-242.66935033698019
 31
0.0
  0
LINE
  5
8B9B
  8
0
  6
BYBLOCK
 10
780.46777569666062
 20
-243.20524871698021
 30
0.0
 11
778.46777569666062
 21
-242.66935033698019
 31
0.0
  0
LINE
  5
8B9C
  8
0
  6
BYBLOCK
 10
778.46777569666062
 20
-242.66935033698019
 30
0.0
 11
780.46777569666062
 21
-242.1334519569802
 31
0.0
  0
LINE
  5
8B9D
  8
0
  6
BYBLOCK
 10
778.46777569666062
 20
-242.66935033698019
 30
0.0
 11
780.46777569666062
 21
-242.66935033698019
 31
0.0
  0
TEXT
  5
8B9E
  8
1DIM
 10
791.551107029994
 20
-220.7156283369803
 30
0.0
 40
3.5
  1
22
  0
LINE
  5
8B9F
  8
0
  6
BYBLOCK
 10
803.46777169666075
 20
-220.8797299569803
 30
0.0
 11
805.46777169666063
 21
-221.41562833698029
 31
0.0
  0
LINE
  5
8BA0
  8
0
  6
BYBLOCK
 10
805.46777169666063
 20
-221.41562833698029
 30
0.0
 11
803.46777169666075
 21
-221.95152671698031
 31
0.0
  0
LINE
  5
8BA1
  8
0
  6
BYBLOCK
 10
805.46777169666063
 20
-221.41562833698029
 30
0.0
 11
803.46777169666075
 21
-221.41562833698029
 31
0.0
  0
LINE
  5
8BA2
  8
0
  6
BYBLOCK
 10
785.46777569666062
 20
-221.95152671698031
 30
0.0
 11
783.46777569666062
 21
-221.41562833698029
 31
0.0
  0
LINE
  5
8BA3
  8
0
  6
BYBLOCK
 10
783.46777569666062
 20
-221.41562833698029
 30
0.0
 11
785.46777569666062
 21
-220.8797299569803
 31
0.0
  0
LINE
  5
8BA4
  8
0
  6
BYBLOCK
 10
783.46777569666062
 20
-221.41562833698029
 30
0.0
 11
785.46777569666062
 21
-221.41562833698029
 31
0.0
  0
TEXT
  5
8BA5
  8
1DIM
 10
786.55110902999422
 20
-260.87195908245559
 30
0.0
 40
3.5
  1
32
  0
LINE
  5
8BA6
  8
0
  6
BYBLOCK
 10
803.46777369666086
 20
-261.03606070245559
 30
0.0
 11
805.46777369666086
 21
-261.57195908245558
 31
0.0
  0
LINE
  5
8BA7
  8
0
  6
BYBLOCK
 10
805.46777369666086
 20
-261.57195908245558
 30
0.0
 11
803.46777369666086
 21
-262.10785746245563
 31
0.0
  0
LINE
  5
8BA8
  8
0
  6
BYBLOCK
 10
805.46777369666086
 20
-261.57195908245558
 30
0.0
 11
803.46777369666086
 21
-261.57195908245558
 31
0.0
  0
LINE
  5
8BA9
  8
0
  6
BYBLOCK
 10
775.46777769666085
 20
-262.10785746245563
 30
0.0
 11
773.46777769666085
 21
-261.57195908245558
 31
0.0
  0
LINE
  5
8BAA
  8
0
  6
BYBLOCK
 10
773.46777769666085
 20
-261.57195908245558
 30
0.0
 11
775.46777769666085
 21
-261.03606070245559
 31
0.0
  0
LINE
  5
8BAB
  8
0
  6
BYBLOCK
 10
773.46777769666085
 20
-261.57195908245558
 30
0.0
 11
775.46777769666085
 21
-261.57195908245558
 31
0.0
  0
TEXT
  5
8BAC
  8
1DIM
 10
875.46237253013385
 20
-249.4273288449908
 30
0.0
 40
3.5
  1
20
  0
LINE
  5
8BAD
  8
0
  6
BYBLOCK
 10
886.08736787657108
 20
-249.59143046499071
 30
0.0
 11
888.08736787657108
 21
-250.12732884499081
 31
0.0
  0
LINE
  5
8BAE
  8
0
  6
BYBLOCK
 10
888.08736787657108
 20
-250.12732884499081
 30
0.0
 11
886.08736787657108
 21
-250.66322722499081
 31
0.0
  0
LINE
  5
8BAF
  8
0
  6
BYBLOCK
 10
888.08736787657108
 20
-250.12732884499081
 30
0.0
 11
886.08736787657108
 21
-250.12732884499081
 31
0.0
  0
LINE
  5
8BB0
  8
0
  6
BYBLOCK
 10
870.0873771836965
 20
-250.66322722499081
 30
0.0
 11
868.0873771836965
 21
-250.12732884499081
 31
0.0
  0
LINE
  5
8BB1
  8
0
  6
BYBLOCK
 10
868.0873771836965
 20
-250.12732884499081
 30
0.0
 11
870.0873771836965
 21
-249.59143046499071
 31
0.0
  0
LINE
  5
8BB2
  8
0
  6
BYBLOCK
 10
868.0873771836965
 20
-250.12732884499081
 30
0.0
 11
870.0873771836965
 21
-250.12732884499081
 31
0.0
  0
TEXT
  5
8BB3
  8
1DIM
 10
861.55133859779073
 20
-231.44118362240681
 30
0.0
 40
3.5
  1
\U+03C64
 50
90.0
  0
LINE
  5
8BB4
  8
0
  6
BYBLOCK
 10
862.78723697779071
 20
-233.7745169557403
 30
0.0
 11
862.25133859779078
 21
-235.7745169557403
 31
0.0
  0
LINE
  5
8BB5
  8
0
  6
BYBLOCK
 10
862.25133859779078
 20
-235.7745169557403
 30
0.0
 11
861.71544021779084
 21
-233.7745169557403
 31
0.0
  0
LINE
  5
8BB6
  8
0
  6
BYBLOCK
 10
862.25133859779078
 20
-235.7745169557403
 30
0.0
 11
862.25133859779078
 21
-233.7745169557403
 31
0.0
  0
LINE
  5
8BB7
  8
0
  6
BYBLOCK
 10
861.71544021779084
 20
-241.7745169557403
 30
0.0
 11
862.25133859779078
 21
-239.7745169557403
 31
0.0
  0
LINE
  5
8BB8
  8
0
  6
BYBLOCK
 10
862.25133859779078
 20
-239.7745169557403
 30
0.0
 11
862.78723697779071
 21
-241.7745169557403
 31
0.0
  0
LINE
  5
8BB9
  8
0
  6
BYBLOCK
 10
862.25133859779078
 20
-239.7745169557403
 30
0.0
 11
862.25133859779078
 21
-241.7745169557403
 31
0.0
  0
TEXT
  5
8BBA
  8
1DIM
 10
829.04591442300409
 20
-223.18802155302001
 30
0.0
 40
3.5
  1
15
  0
LINE
  5
8BBB
  8
0
  6
BYBLOCK
 10
836.87924775633758
 20
-223.35212317302
 30
0.0
 11
838.87924775633746
 21
-223.88802155301991
 31
0.0
  0
LINE
  5
8BBC
  8
0
  6
BYBLOCK
 10
838.87924775633746
 20
-223.88802155301991
 30
0.0
 11
836.87924775633758
 21
-224.4239199330199
 31
0.0
  0
LINE
  5
8BBD
  8
0
  6
BYBLOCK
 10
838.87924775633746
 20
-223.88802155301991
 30
0.0
 11
836.87924775633758
 21
-223.88802155301991
 31
0.0
  0
LINE
  5
8BBE
  8
0
  6
BYBLOCK
 10
825.87924775633746
 20
-224.4239199330199
 30
0.0
 11
823.87924775633746
 21
-223.88802155301991
 31
0.0
  0
LINE
  5
8BBF
  8
0
  6
BYBLOCK
 10
823.87924775633746
 20
-223.88802155301991
 30
0.0
 11
825.87924775633746
 21
-223.35212317302
 31
0.0
  0
LINE
  5
8BC0
  8
0
  6
BYBLOCK
 10
823.87924775633746
 20
-223.88802155301991
 30
0.0
 11
825.87924775633746
 21
-223.88802155301991
 31
0.0
  0
TEXT
  5
8BC1
  8
1DIM
 10
831.96258108967095
 20
-250.3607088191884
 30
0.0
 40
3.5
  1
22
  0
LINE
  5
8BC2
  8
0
  6
BYBLOCK
 10
843.87924775633758
 20
-250.5248104391884
 30
0.0
 11
845.87924775633758
 21
-251.06070881918839
 31
0.0
  0
LINE
  5
8BC3
  8
0
  6
BYBLOCK
 10
845.87924775633758
 20
-251.06070881918839
 30
0.0
 11
843.87924775633758
 21
-251.59660719918841
 31
0.0
  0
LINE
  5
8BC4
  8
0
  6
BYBLOCK
 10
845.87924775633758
 20
-251.06070881918839
 30
0.0
 11
843.87924775633758
 21
-251.06070881918839
 31
0.0
  0
LINE
  5
8BC5
  8
0
  6
BYBLOCK
 10
825.87924775633746
 20
-251.59660719918841
 30
0.0
 11
823.87924775633746
 21
-251.06070881918839
 31
0.0
  0
LINE
  5
8BC6
  8
0
  6
BYBLOCK
 10
823.87924775633746
 20
-251.06070881918839
 30
0.0
 11
825.87924775633746
 21
-250.5248104391884
 31
0.0
  0
LINE
  5
8BC7
  8
0
  6
BYBLOCK
 10
823.87924775633746
 20
-251.06070881918839
 30
0.0
 11
825.87924775633746
 21
-251.06070881918839
 31
0.0
  0
TEXT
  5
8BC8
  8
1DIM
 10
817.61165887999687
 20
-257.82314316585808
 30
0.0
 40
3.5
  1
4
 50
90.0
  0
LINE
  5
8BC9
  8
0
  6
BYBLOCK
 10
817.77576049999675
 20
-260.65647649919163
 30
0.0
 11
818.3116588799968
 21
-258.65647649919163
 31
0.0
  0
LINE
  5
8BCA
  8
0
  6
BYBLOCK
 10
818.3116588799968
 20
-258.65647649919163
 30
0.0
 11
818.84755725999685
 21
-260.65647649919163
 31
0.0
  0
LINE
  5
8BCB
  8
0
  6
BYBLOCK
 10
818.3116588799968
 20
-258.65647649919163
 30
0.0
 11
818.3116588799968
 21
-260.65647649919163
 31
0.0
  0
LINE
  5
8BCC
  8
0
  6
BYBLOCK
 10
818.84755725999707
 20
-252.6564764991916
 30
0.0
 11
818.31165887999703
 21
-254.6564764991916
 31
0.0
  0
LINE
  5
8BCD
  8
0
  6
BYBLOCK
 10
818.31165887999703
 20
-254.6564764991916
 30
0.0
 11
817.77576049999686
 21
-252.6564764991916
 31
0.0
  0
LINE
  5
8BCE
  8
0
  6
BYBLOCK
 10
818.31165887999703
 20
-254.6564764991916
 30
0.0
 11
818.31165887999703
 21
-252.6564764991916
 31
0.0
  0
TEXT
  5
8BCF
  8
1DIM
 10
852.17204567668875
 20
-251.40647649919131
 30
0.0
 40
3.5
  1
\U+03C66
 50
90.0
  0
LINE
  5
8BD0
  8
0
  6
BYBLOCK
 10
852.33614729668875
 20
-255.6564764991916
 30
0.0
 11
852.87204567668869
 21
-253.6564764991916
 31
0.0
  0
LINE
  5
8BD1
  8
0
  6
BYBLOCK
 10
852.87204567668869
 20
-253.6564764991916
 30
0.0
 11
853.40794405668885
 21
-255.6564764991916
 31
0.0
  0
LINE
  5
8BD2
  8
0
  6
BYBLOCK
 10
852.87204567668869
 20
-253.6564764991916
 30
0.0
 11
852.87204567668869
 21
-255.6564764991916
 31
0.0
  0
LINE
  5
8BD3
  8
0
  6
BYBLOCK
 10
853.40794405668885
 20
-257.65647649919163
 30
0.0
 11
852.87204567668869
 21
-259.65647649919163
 31
0.0
  0
LINE
  5
8BD4
  8
0
  6
BYBLOCK
 10
852.87204567668869
 20
-259.65647649919163
 30
0.0
 11
852.33614729668864
 21
-257.65647649919163
 31
0.0
  0
LINE
  5
8BD5
  8
0
  6
BYBLOCK
 10
852.87204567668869
 20
-259.65647649919163
 30
0.0
 11
852.87204567668869
 21
-257.65647649919163
 31
0.0
  0
VIEWPORT
  5
57
 67
     1
  8
0
 10
96.702374564348617
 20
10.09248672500371
 30
0.0
 40
624.48802127823649
 41
287.12911873945148
 68
     1
 69
     1
1001
ACAD
1000
MVIEW
1002
{
1070
    16
1010
0.0
1020
0.0
1030
0.0
1010
0.0
1020
0.0
1030
1.0
1040
0.0
1040
287.12911873945148
1040
96.702374564348617
1040
10.09248672500371
1040
50.0
1040
0.0
1040
0.0
1070
     0
1070
  1000
1070
     1
1070
     1
1070
     0
1070
     0
1070
     0
1070
     0
1040
0.0
1040
0.0
1040
0.0
1040
10.0
1040
10.0
1040
10.0
1040
10.0
1070
     0
1002
{
1002
}
1002
}
  0
ENDSEC
  0
EOF
