  0
SECTION
  2
HEADER
  9
$ACADVER
  1
AC1009
  9
$INSBASE
 10
0.0
 20
0.0
 30
0.0
  9
$EXTMIN
 10
712.35017464506541
 20
-181.3310918086749
 30
0.0
  9
$EXTMAX
 10
1198.3922089835919
 20
240.77951852603161
 30
0.0
  9
$LIMMIN
 10
0.0
 20
0.0
  9
$LIMMAX
 10
420.0
 20
297.0
  9
$ORTHOMODE
 70
     0
  9
$REGENMODE
 70
     1
  9
$FILLMODE
 70
     1
  9
$QTEXTMODE
 70
     0
  9
$MIRRTEXT
 70
     1
  9
$DRAGMODE
 70
     2
  9
$LTSCALE
 40
0.5
  9
$OSMODE
 70
  2175
  9
$ATTMODE
 70
     1
  9
$TEXTSIZE
 40
8.0
  9
$TRACEWID
 40
1.0
  9
$TEXTSTYLE
  7
STANDARD
  9
$CLAYER
  8
1TEXT
  9
$CELTYPE
  6
BYLAYER
  9
$CECOLOR
 62
   256
  9
$DIMSCALE
 40
1.3
  9
$DIMASZ
 40
2.0
  9
$DIMEXO
 40
0.0
  9
$DIMDLI
 40
7.0
  9
$DIMRND
 40
0.0
  9
$DIMDLE
 40
0.0
  9
$DIMEXE
 40
1.0
  9
$DIMTP
 40
0.0
  9
$DIMTM
 40
0.0
  9
$DIMTXT
 40
3.5
  9
$DIMCEN
 40
0.0
  9
$DIMTSZ
 40
0.0
  9
$DIMTOL
 70
     0
  9
$DIMLIM
 70
     0
  9
$DIMTIH
 70
     0
  9
$DIMTOH
 70
     0
  9
$DIMSE1
 70
     0
  9
$DIMSE2
 70
     0
  9
$DIMTAD
 70
     1
  9
$DIMZIN
 70
     8
  9
$DIMBLK
  1

  9
$DIMASO
 70
     1
  9
$DIMSHO
 70
     1
  9
$DIMPOST
  1

  9
$DIMAPOST
  1

  9
$DIMALT
 70
     0
  9
$DIMALTD
 70
     2
  9
$DIMALTF
 40
25.399999999999999
  9
$DIMLFAC
 40
1.0
  9
$DIMTOFL
 70
     1
  9
$DIMTVP
 40
0.0
  9
$DIMTIX
 70
     0
  9
$DIMSOXD
 70
     0
  9
$DIMSAH
 70
     1
  9
$DIMBLK1
  1
OPEN30
  9
$DIMBLK2
  1
OPEN30
  9
$DIMSTYLE
  2
NEWX10
  9
$DIMCLRD
 70
   256
  9
$DIMCLRE
 70
   256
  9
$DIMCLRT
 70
   201
  9
$DIMTFAC
 40
0.7
  9
$DIMGAP
 40
0.7
  9
$LUNITS
 70
     2
  9
$LUPREC
 70
     4
  9
$SKETCHINC
 40
1.0
  9
$FILLETRAD
 40
0.0
  9
$AUNITS
 70
     0
  9
$AUPREC
 70
     2
  9
$MENU
  1
acad
  9
$ELEVATION
 40
0.0
  9
$PELEVATION
 40
0.0
  9
$THICKNESS
 40
0.0
  9
$LIMCHECK
 70
     0
  9
$BLIPMODE
 70
     0
  9
$CHAMFERA
 40
0.5
  9
$CHAMFERB
 40
0.5
  9
$SKPOLY
 70
     0
  9
$TDCREATE
 40
2451027.6274212962
  9
$TDUPDATE
 40
2455631.4389340971
  9
$TDINDWG
 40
26.7329487037
  9
$TDUSRTIMER
 40
26.7329487037
  9
$USRTIMER
 70
     1
  9
$ANGBASE
 50
0.0
  9
$ANGDIR
 70
     0
  9
$PDMODE
 70
     0
  9
$PDSIZE
 40
0.0
  9
$PLINEWID
 40
0.0
  9
$COORDS
 70
     2
  9
$SPLFRAME
 70
     0
  9
$SPLINETYPE
 70
     6
  9
$SPLINESEGS
 70
     8
  9
$ATTDIA
 70
     0
  9
$ATTREQ
 70
     1
  9
$HANDLING
 70
     1
  9
$HANDSEED
  5
1866F
  9
$SURFTAB1
 70
     6
  9
$SURFTAB2
 70
     6
  9
$SURFTYPE
 70
     6
  9
$SURFU
 70
     6
  9
$SURFV
 70
     6
  9
$UCSNAME
  2

  9
$UCSORG
 10
0.0
 20
0.0
 30
0.0
  9
$UCSXDIR
 10
1.0
 20
0.0
 30
0.0
  9
$UCSYDIR
 10
0.0
 20
1.0
 30
0.0
  9
$PUCSNAME
  2

  9
$PUCSORG
 10
0.0
 20
0.0
 30
0.0
  9
$PUCSXDIR
 10
1.0
 20
0.0
 30
0.0
  9
$PUCSYDIR
 10
0.0
 20
1.0
 30
0.0
  9
$USERI1
 70
     0
  9
$USERI2
 70
     0
  9
$USERI3
 70
     0
  9
$USERI4
 70
     0
  9
$USERI5
 70
     0
  9
$USERR1
 40
0.0
  9
$USERR2
 40
0.0
  9
$USERR3
 40
0.0
  9
$USERR4
 40
0.0
  9
$USERR5
 40
6.2000000000000002
  9
$WORLDVIEW
 70
     1
  9
$SHADEDGE
 70
     3
  9
$SHADEDIF
 70
    70
  9
$TILEMODE
 70
     1
  9
$MAXACTVP
 70
    48
  9
$PLIMCHECK
 70
     0
  9
$PEXTMIN
 10
1.0000000000000000E+020
 20
1.0000000000000000E+020
 30
1.0000000000000000E+020
  9
$PEXTMAX
 10
-1.0000000000000000E+020
 20
-1.0000000000000000E+020
 30
-1.0000000000000000E+020
  9
$PLIMMIN
 10
0.0
 20
0.0
  9
$PLIMMAX
 10
420.0
 20
297.0
  9
$UNITMODE
 70
     0
  9
$VISRETAIN
 70
     1
  9
$PLINEGEN
 70
     0
  9
$PSLTSCALE
 70
     1
  0
ENDSEC
  0
SECTION
  2
TABLES
  0
TABLE
  2
VPORT
 70
     1
  0
VPORT
  2
*ACTIVE
 70
     0
 10
0.0
 20
0.0
 11
1.0
 21
1.0
 12
955.36194403817296
 22
29.734255233666939
 13
0.0
 23
0.0
 14
10.0
 24
10.0
 15
10.0
 25
10.0
 16
0.0
 26
0.0
 36
1.0
 17
0.0
 27
0.0
 37
0.0
 40
447.73685469467608
 41
1.4123581336696089
 42
50.0
 43
0.0
 44
0.0
 50
0.0
 51
0.0
 71
     0
 72
   100
 73
     1
 74
     1
 75
     0
 76
     0
 77
     0
 78
     0
  0
ENDTAB
  0
TABLE
  2
LTYPE
 70
    13
  0
LTYPE
  2
CONTINUOUS
 70
     0
  3
Solid line
 72
    65
 73
     0
 40
0.0
  0
LTYPE
  2
A3WAKUDAKE|CENTER2
 70
    48
  3
Center (.5x) ___ _ ___ _ ___ _ ___ _ ___ _ ___
 72
    65
 73
     4
 40
28.574999999999999
 49
19.050000000000001
 49
-3.1749999999999989
 49
3.1749999999999989
 49
-3.1749999999999989
  0
LTYPE
  2
XREF1|CENTER2
 70
    48
  3
Center (.5x) ___ _ ___ _ ___ _ ___ _ ___ _ ___
 72
    65
 73
     4
 40
28.574999999999999
 49
19.050000000000001
 49
-3.1749999999999989
 49
3.1749999999999989
 49
-3.1749999999999989
  0
ENDTAB
  0
TABLE
  2
LAYER
 70
    95
  0
LAYER
  2
0
 70
     0
 62
     7
  6
CONTINUOUS
  0
LAYER
  2
1TEXT
 70
     0
 62
     7
  6
CONTINUOUS
  0
LAYER
  2
01
 70
     0
 62
     1
  6
CONTINUOUS
  0
LAYER
  2
A3WAKUDAKE|THICK
 70
    48
 62
     7
  6
CONTINUOUS
  0
LAYER
  2
A3WAKUDAKE|POINT
 70
    48
 62
     7
  6
CONTINUOUS
  0
LAYER
  2
A3WAKUDAKE|1CENTER
 70
    48
 62
     7
  6
A3WAKUDAKE|CENTER2
  0
LAYER
  2
A3WAKUDAKE|0-6
 70
    48
 62
     7
  6
CONTINUOUS
  0
LAYER
  2
A3WAKUDAKE|1DIM
 70
    48
 62
     7
  6
CONTINUOUS
  0
LAYER
  2
XREF1|1CENTER
 70
    48
 62
     7
  6
XREF1|CENTER2
  0
ENDTAB
  0
TABLE
  2
STYLE
 70
     9
  0
STYLE
  2
STANDARD
 70
     0
 40
0.0
 41
1.0
 50
0.0
 71
     0
 42
8.0
  3
romans.shx
  4
extfont.shx
  0
ENDTAB
  0
TABLE
  2
VIEW
 70
     0
  0
ENDTAB
  0
TABLE
  2
UCS
 70
     0
  0
ENDTAB
  0
TABLE
  2
APPID
 70
    13
  0
APPID
  2
ACAD
 70
     0
  0
APPID
  2
CONTENTTABDATA
 70
     0
  0
APPID
  2
CONTENTCURRENTTAB
 70
     0
  0
APPID
  2
CONTENTBLOCKICON
 70
     0
  0
APPID
  2
CONTENTBLOCKDESCRIPTION
 70
     0
  0
APPID
  2
DRAWINGVARIABLESXDATA
 70
     0
  0
APPID
  2
CONTENTLONGBLOCKNAME
 70
     0
  0
APPID
  2
ACAD_PSEXT
 70
     0
  0
APPID
  2
ACAD_DSTYLE_DIMTEXT_FILL
 70
     0
  0
APPID
  2
ACAD_DIMASSOC_CALC_DIMLFAC
 70
     0
  0
APPID
  2
ACAD_DIMASSOC_DIMLFAC
 70
     0
  0
APPID
  2
ACAD_DIMASSOC_OVERRIDDEN_D
 70
     0
  0
APPID
  2
ACAD_MLEADERVER
 70
     0
  0
ENDTAB
  0
TABLE
  2
DIMSTYLE
 70
     8
  0
DIMSTYLE
  2
NEWX10
 70
     0
  3

  4

  5

  6
OPEN30
  7
OPEN30
 40
1.0
 41
2.0
 42
0.0
 43
7.0
 44
1.0
 45
0.0
 46
0.0
 47
0.0
 48
0.0
140
3.5
141
0.0
142
0.0
143
25.399999999999999
144
1.0
145
0.0
146
0.7
147
0.7
 71
     0
 72
     0
 73
     0
 74
     0
 75
     0
 76
     0
 77
     1
 78
     8
170
     0
171
     2
172
     1
173
     1
174
     0
175
     0
176
   256
177
   256
178
   201
  0
ENDTAB
  0
ENDSEC
  0
SECTION
  2
BLOCKS
  0
BLOCK
  8
0
  2
$MODEL_SPACE
 70
     0
 10
0.0
 20
0.0
 30
0.0
  3
$MODEL_SPACE
  1

  0
ENDBLK
  5
1A
  8
0
  0
BLOCK
 67
     1
  8
0
  2
$PAPER_SPACE
 70
     0
 10
0.0
 20
0.0
 30
0.0
  3
$PAPER_SPACE
  1

  0
ENDBLK
  5
17
 67
     1
  8
0
  0
BLOCK
  8
0
  2
_OPEN30
 70
     0
 10
0.0
 20
0.0
 30
0.0
  3
_OPEN30
  1

  0
LINE
  5
2F1
  8
0
  6
BYBLOCK
 62
     0
 10
-1.0
 20
0.26794919
 30
0.0
 11
0.0
 21
0.0
 31
0.0
  0
LINE
  5
2F2
  8
0
  6
BYBLOCK
 62
     0
 10
0.0
 20
0.0
 30
0.0
 11
-1.0
 21
-0.26794919
 31
0.0
  0
LINE
  5
2F3
  8
0
  6
BYBLOCK
 62
     0
 10
0.0
 20
0.0
 30
0.0
 11
-1.0
 21
0.0
 31
0.0
  0
ENDBLK
  5
2F4
  8
0
  0
BLOCK
  8
0
  2
A3WAKUDAKE
 70
    36
 10
0.0
 20
0.0
 30
0.0
  3
A3WAKUDAKE
  1
D:\ACLT\FORMAT\A3WAKUdake.dwg
  0
ENDBLK
  5
16041
  8
0
  0
BLOCK
  8
0
  2
XREF1
 70
    36
 10
0.0
 20
0.0
 30
0.0
  3
XREF1
  1
D:\ACLT\FORMAT\KAWAJUN(9)図面用.dwg
  0
ENDBLK
  5
16044
  8
0
  0
BLOCK
  8
0
  2
*U82
 70
     1
 10
0.0
 20
0.0
 30
0.0
  3
*U82
  1

  0
LINE
  5
18476
  8
0
 10
-7.9999999999999991
 20
2.5
 30
0.0
 11
-7.9999978000002088
 21
2.4999999999999432
 31
0.0
  0
LINE
  5
18477
  8
0
 10
-7.9999999999999991
 20
-2.4999999999999432
 30
0.0
 11
-7.9999999999999991
 21
2.5
 31
0.0
  0
LINE
  5
18478
  8
0
 10
-7.9999978000002088
 20
2.4999999999999432
 30
0.0
 11
-7.4999979000001629
 21
3.0
 31
0.0
  0
LINE
  5
18479
  8
0
 10
-8.0000021000010921
 20
-2.4999999999999432
 30
0.0
 11
-7.9999999999999991
 21
-2.4999999999999432
 31
0.0
  0
LINE
  5
1847A
  8
0
 10
-7.4999979000001629
 20
3.0
 30
0.0
 11
-1.999998199999983
 21
3.0
 31
0.0
  0
LINE
  5
1847B
  8
0
 10
-7.5000018999986429
 20
-3.000000000000056
 30
0.0
 11
-8.0000021000010921
 21
-2.4999999999999432
 31
0.0
  0
LINE
  5
1847C
  8
0
 10
-1.999998199999983
 20
3.0
 30
0.0
 11
-1.49999999999998
 21
2.0
 31
0.0
  0
LINE
  5
1847D
  8
0
 10
-1.999998199999959
 20
-2.9999999999999432
 30
0.0
 11
-7.5000018999986429
 21
-3.000000000000056
 31
0.0
  0
LINE
  5
1847E
  8
0
 10
-1.49999999999998
 20
2.0
 30
0.0
 11
-0.5000000000000004
 21
2.0
 31
0.0
  0
LINE
  5
1847F
  8
0
 10
-1.50000000000001
 20
-2.0
 30
0.0
 11
-1.999998199999959
 21
-2.9999999999999432
 31
0.0
  0
ARC
  5
18480
  8
0
 10
-0.5000000000000006
 20
1.5
 30
0.0
 40
0.5000000000000004
 50
0.0
 51
90.0
  0
LINE
  5
18481
  8
0
 10
-0.5
 20
-2.0
 30
0.0
 11
-1.50000000000001
 21
-2.0
 31
0.0
  0
LINE
  5
18482
  8
0
 10
-0.0000000000000001
 20
1.5
 30
0.0
 11
-0.0000000000000001
 21
-1.5
 31
0.0
  0
ARC
  5
18483
  8
0
 10
-0.5
 20
-1.5
 30
0.0
 40
0.5
 50
270.0
 51
0.0
  0
ENDBLK
  5
18485
  8
0
  0
BLOCK
  8
0
  2
*U83
 70
     1
 10
0.0
 20
0.0
 30
0.0
  3
*U83
  1

  0
LINE
  5
18487
  8
1TEXT
 10
-1.5
 20
2.000000000000056
 30
0.0
 11
-1.7499990999999879
 21
2.5
 31
0.0
  0
LINE
  5
18488
  8
1TEXT
 10
-1.7499990999999879
 20
2.5
 30
0.0
 11
-7.999997800000223
 21
2.5
 31
0.0
  0
LINE
  5
18489
  8
1TEXT
 10
-1.5
 20
-2.000000000000056
 30
0.0
 11
-1.5
 21
2.000000000000056
 31
0.0
  0
LINE
  5
1848A
  8
1TEXT
 10
-7.999997800000223
 20
2.5
 30
0.0
 11
-7.9999999999999991
 21
2.4999977999997318
 31
0.0
  0
LINE
  5
1848B
  8
1TEXT
 10
-1.749999099999981
 20
-2.5
 30
0.0
 11
-1.5
 21
-2.000000000000056
 31
0.0
  0
LINE
  5
1848C
  8
1TEXT
 10
-7.9999999999999991
 20
2.4999977999997318
 30
0.0
 11
-7.9999999999999991
 21
-2.5
 31
0.0
  0
LINE
  5
1848D
  8
1TEXT
 10
-7.9999999999999991
 20
-2.5
 30
0.0
 11
-1.749999099999981
 21
-2.5
 31
0.0
  0
ENDBLK
  5
1848F
  8
0
  0
BLOCK
  8
0
  2
*U84
 70
     1
 10
0.0
 20
0.0
 30
0.0
  3
*U84
  1

  0
LINE
  5
18491
  8
1TEXT
 10
-1.9999981999999989
 20
3.000000000000056
 30
0.0
 11
-7.4999979000001362
 21
3.0
 31
0.0
  0
LINE
  5
18492
  8
1TEXT
 10
-7.4999979000001362
 20
3.0
 30
0.0
 11
-7.999997800000143
 21
2.5
 31
0.0
  0
LINE
  5
18493
  8
1TEXT
 10
-1.749999099999983
 20
2.5
 30
0.0
 11
-1.9999981999999989
 21
3.000000000000056
 31
0.0
  0
LINE
  5
18494
  8
1TEXT
 10
-7.999997800000143
 20
2.5
 30
0.0
 11
-1.749999099999983
 21
2.5
 31
0.0
  0
ENDBLK
  5
18496
  8
0
  0
BLOCK
  8
0
  2
*U85
 70
     1
 10
0.0
 20
0.0
 30
0.0
  3
*U85
  1

  0
ARC
  5
18498
  8
1TEXT
 10
-0.5000000000000002
 20
1.5
 30
0.0
 40
0.5000000000000002
 50
0.0
 51
90.0
  0
LINE
  5
18499
  8
1TEXT
 10
-0.5000000000000004
 20
2.0
 30
0.0
 11
-1.5
 21
2.0
 31
0.0
  0
LINE
  5
1849A
  8
1TEXT
 10
0.0
 20
-1.5
 30
0.0
 11
0.0
 21
1.5
 31
0.0
  0
LINE
  5
1849B
  8
1TEXT
 10
-1.5
 20
2.0
 30
0.0
 11
-1.5
 21
-2.0
 31
0.0
  0
ARC
  5
1849C
  8
1TEXT
 10
-0.5
 20
-1.5
 30
0.0
 40
0.5
 50
270.0
 51
0.0
  0
LINE
  5
1849D
  8
1TEXT
 10
-1.5
 20
-2.0
 30
0.0
 11
-0.5
 21
-2.0
 31
0.0
  0
ENDBLK
  5
1849F
  8
0
  0
BLOCK
  8
0
  2
*U86
 70
     1
 10
0.0
 20
0.0
 30
0.0
  3
*U86
  1

  0
TEXT
  5
184A1
  8
0
 62
   201
 10
374.74489202640223
 20
-49.151173070012163
 30
0.0
 40
3.5
  1
2.5
 50
90.0
  0
ENDBLK
  5
184A3
  8
0
  0
BLOCK
  8
0
  2
*U87
 70
     1
 10
0.0
 20
0.0
 30
0.0
  3
*U87
  1

  0
TEXT
  5
184A5
  8
0
 62
   201
 10
300.30445595033882
 20
-22.478458106637721
 30
0.0
 40
3.5
  1
2-R1
 50
326.15832242262178
  0
ENDBLK
  5
184A7
  8
0
  0
BLOCK
  8
0
  2
*U88
 70
     1
 10
0.0
 20
0.0
 30
0.0
  3
*U88
  1

  0
TEXT
  5
184A9
  8
0
 62
   201
 10
299.43465470602922
 20
-49.651173070012561
 30
0.0
 40
3.5
  1
0.5
 50
90.0
  0
ENDBLK
  5
184AB
  8
0
  0
BLOCK
  8
0
  2
*X89
 70
     1
 10
0.0
 20
0.0
 30
0.0
  3
*X89
  1

  0
LINE
  5
184AD
  8
0
 62
     0
 10
53.098518733692508
 20
12.73333356147122
 30
0.0
 11
53.53795109395552
 21
13.17276592173422
 31
0.0
  0
LINE
  5
184AE
  8
0
 62
     0
 10
52.037951093955648
 20
13.91782995200165
 30
0.0
 11
55.437951093955711
 21
17.317829952001709
 31
0.0
  0
LINE
  5
184AF
  8
0
 62
     0
 10
52.037951093955598
 20
16.16289398226888
 30
0.0
 11
55.437951093955689
 21
19.562893982268999
 31
0.0
  0
LINE
  5
184B0
  8
0
 62
     0
 10
52.03795109395557
 20
18.407958012536142
 30
0.0
 11
53.363326642890662
 21
19.73333356147122
 31
0.0
  0
LINE
  5
184B1
  8
0
 62
     0
 10
28.402814400752419
 20
12.73333356147128
 30
0.0
 11
29.237951093955651
 21
13.56847025467451
 31
0.0
  0
LINE
  5
184B2
  8
0
 62
     0
 10
27.197850732220498
 20
13.77343392320665
 30
0.0
 11
29.237951093955651
 21
15.81353428494179
 31
0.0
  0
LINE
  5
184B3
  8
0
 62
     0
 10
26.075318717086791
 20
14.89596593834025
 30
0.0
 11
29.237951093955619
 21
18.058598315209078
 31
0.0
  0
LINE
  5
184B4
  8
0
 62
     0
 10
18.15407593052916
 20
6.9747231517826256
 30
0.0
 11
19.53795109395557
 21
8.3585983152090364
 31
0.0
  0
LINE
  5
184B5
  8
0
 62
     0
 10
25.837951093955521
 20
16.903662345476281
 30
0.0
 11
28.667622309950278
 21
19.733333561471031
 31
0.0
  0
LINE
  5
184B6
  8
0
 62
     0
 10
16.626719920191331
 20
7.6924311717120579
 30
0.0
 11
19.53795109395563
 21
10.60366234547638
 31
0.0
  0
LINE
  5
184B7
  8
0
 62
     0
 10
25.837951093955521
 20
19.148726375743561
 30
0.0
 11
26.422558279682988
 21
19.733333561471031
 31
0.0
  0
LINE
  5
184B8
  8
0
 62
     0
 10
15.597835208819021
 20
8.9086104906070602
 30
0.0
 11
19.53795109395568
 21
12.84872637574372
 31
0.0
  0
LINE
  5
184B9
  8
0
 62
     0
 10
15.138152112674049
 20
10.69399142472937
 30
0.0
 11
21.43795109395575
 21
16.993790406011041
 31
0.0
  0
LINE
  5
184BA
  8
0
 62
     0
 10
20.03795109395563
 20
17.838854436278272
 30
0.0
 11
21.437951093955771
 21
19.23885443627838
 31
0.0
  0
LINE
  5
184BB
  8
0
 62
     0
 10
15.137951093955589
 20
12.938854436278231
 30
0.0
 11
17.932430219148578
 21
15.7333335614712
 31
0.0
  0
LINE
  5
184BC
  8
0
 62
     0
 10
15.137951093955619
 20
15.18391846654549
 30
0.0
 11
15.687366188881329
 21
15.7333335614712
 31
0.0
  0
ENDBLK
  5
184BE
  8
0
  0
BLOCK
  8
0
  2
*X90
 70
     1
 10
0.0
 20
0.0
 30
0.0
  3
*X90
  1

  0
LINE
  5
184C0
  8
0
 62
     0
 10
63.037669514163632
 20
6.957036130071315
 30
0.0
 11
66.064248525355879
 21
9.9836151412635559
 31
0.0
  0
LINE
  5
184C1
  8
0
 62
     0
 10
61.738088305530219
 20
7.902518951705189
 30
0.0
 11
66.137951093955564
 21
12.302381740130549
 31
0.0
  0
LINE
  5
184C2
  8
0
 62
     0
 10
61.737951093955452
 20
10.14744577039769
 30
0.0
 11
66.137951093955593
 21
14.547445770397839
 31
0.0
  0
LINE
  5
184C3
  8
0
 62
     0
 10
61.737951093955502
 20
12.39250980066504
 30
0.0
 11
65.078774854761633
 21
15.7333335614712
 31
0.0
  0
LINE
  5
184C4
  8
0
 62
     0
 10
61.035830959225159
 20
13.935453696201989
 30
0.0
 11
62.83371082449446
 21
15.73333356147128
 31
0.0
  0
LINE
  5
184C5
  8
0
 62
     0
 10
59.913298944091558
 20
15.0579857113357
 30
0.0
 11
61.237951093955623
 21
16.382637861199751
 31
0.0
  0
LINE
  5
184C6
  8
0
 62
     0
 10
59.837951093955517
 20
17.227701891466921
 30
0.0
 11
61.237951093955637
 21
18.627701891467041
 31
0.0
  0
LINE
  5
184C7
  8
0
 62
     0
 10
59.837951093955517
 20
19.472765921734229
 30
0.0
 11
60.0985187336926
 21
19.733333561471309
 31
0.0
  0
ENDBLK
  5
184C9
  8
0
  0
BLOCK
  8
0
  2
*X91
 70
     1
 10
0.0
 20
0.0
 30
0.0
  3
*X91
  1

  0
LINE
  5
184CB
  8
0
 62
     0
 10
37.960567792221298
 20
10.7503230713628
 30
0.0
 11
38.400000152484303
 21
11.1897554316258
 31
0.0
  0
LINE
  5
184CC
  8
0
 62
     0
 10
36.900000152484438
 20
11.93481946189322
 30
0.0
 11
40.300000152484493
 21
15.334819461893289
 31
0.0
  0
LINE
  5
184CD
  8
0
 62
     0
 10
36.900000152484381
 20
14.17988349216045
 30
0.0
 11
40.300000152484472
 21
17.579883492160569
 31
0.0
  0
LINE
  5
184CE
  8
0
 62
     0
 10
36.900000152484353
 20
16.424947522427711
 30
0.0
 11
38.225375701419438
 21
17.7503230713628
 31
0.0
  0
LINE
  5
184CF
  8
0
 62
     0
 10
13.2648634592812
 20
10.75032307136285
 30
0.0
 11
14.100000152484419
 21
11.58545976456608
 31
0.0
  0
LINE
  5
184D0
  8
0
 62
     0
 10
12.059899790749281
 20
11.790423433098219
 30
0.0
 11
14.100000152484419
 21
13.83052379483337
 31
0.0
  0
LINE
  5
184D1
  8
0
 62
     0
 10
10.93736777561557
 20
12.912955448231831
 30
0.0
 11
14.1000001524844
 21
16.075587825100651
 31
0.0
  0
LINE
  5
184D2
  8
0
 62
     0
 10
3.0161249890579418
 20
4.9917126616741987
 30
0.0
 11
4.4000001524843517
 21
6.3755878251006086
 31
0.0
  0
LINE
  5
184D3
  8
0
 62
     0
 10
10.700000152484311
 20
14.920651855367851
 30
0.0
 11
13.529671368479059
 21
17.750323071362601
 31
0.0
  0
LINE
  5
184D4
  8
0
 62
     0
 10
1.4887689787201159
 20
5.709420681603631
 30
0.0
 11
4.4000001524844086
 21
8.6206518553679512
 31
0.0
  0
LINE
  5
184D5
  8
0
 62
     0
 10
10.700000152484311
 20
17.16571588563513
 30
0.0
 11
11.284607338211771
 21
17.750323071362601
 31
0.0
  0
LINE
  5
184D6
  8
0
 62
     0
 10
0.4598842673478032
 20
6.9256000004986333
 30
0.0
 11
4.4000001524844663
 21
10.865715885635289
 31
0.0
  0
LINE
  5
184D7
  8
0
 62
     0
 10
0.000201171202832
 20
8.7109809346209488
 30
0.0
 11
6.3000001524845279
 21
15.010779915902621
 31
0.0
  0
LINE
  5
184D8
  8
0
 62
     0
 10
4.9000001524844086
 20
15.855843946169839
 30
0.0
 11
6.3000001524845572
 21
17.255843946169961
 31
0.0
  0
LINE
  5
184D9
  8
0
 62
     0
 10
0.0000001524843753
 20
10.9558439461698
 30
0.0
 11
2.7944792776774241
 21
13.75032307136283
 31
0.0
  0
LINE
  5
184DA
  8
0
 62
     0
 10
0.0000001524844038
 20
13.20090797643706
 30
0.0
 11
0.5494152474101101
 21
13.75032307136277
 31
0.0
  0
ENDBLK
  5
184DC
  8
0
  0
BLOCK
  8
0
  2
*X92
 70
     1
 10
0.0
 20
0.0
 30
0.0
  3
*X92
  1

  0
LINE
  5
184DE
  8
0
 62
     0
 10
47.899718572692422
 20
4.974025639962889
 30
0.0
 11
50.926297583884661
 21
8.0006046511551272
 31
0.0
  0
LINE
  5
184DF
  8
0
 62
     0
 10
46.600137364059002
 20
5.919508461596763
 30
0.0
 11
51.000000152484347
 21
10.31937125002213
 31
0.0
  0
LINE
  5
184E0
  8
0
 62
     0
 10
46.600000152484228
 20
8.1644352802892683
 30
0.0
 11
51.000000152484368
 21
12.564435280289411
 31
0.0
  0
LINE
  5
184E1
  8
0
 62
     0
 10
46.600000152484277
 20
10.40949931055661
 30
0.0
 11
49.940823913290409
 21
13.75032307136277
 31
0.0
  0
LINE
  5
184E2
  8
0
 62
     0
 10
45.897880017753948
 20
11.952443206093561
 30
0.0
 11
47.695759883023243
 21
13.75032307136285
 31
0.0
  0
LINE
  5
184E3
  8
0
 62
     0
 10
44.775348002620341
 20
13.07497522122728
 30
0.0
 11
46.100000152484398
 21
14.399627371091331
 31
0.0
  0
LINE
  5
184E4
  8
0
 62
     0
 10
44.7000001524843
 20
15.244691401358491
 30
0.0
 11
46.100000152484419
 21
16.64469140135861
 31
0.0
  0
LINE
  5
184E5
  8
0
 62
     0
 10
44.7000001524843
 20
17.489755431625809
 30
0.0
 11
44.960567792221383
 21
17.750323071362882
 31
0.0
  0
ENDBLK
  5
184E7
  8
0
  0
BLOCK
  8
0
  2
*U93
 70
     1
 10
0.0
 20
0.0
 30
0.0
  3
*U93
  1

  0
TEXT
  5
184E9
  8
0
 62
   201
 10
445.93535416768322
 20
-52.892167405258277
 30
0.0
 40
3.5
  1
10
 50
90.0
  0
ENDBLK
  5
184EB
  8
0
  0
BLOCK
  8
0
  2
*U94
 70
     1
 10
0.0
 20
0.0
 30
0.0
  3
*U94
  1

  0
TEXT
  5
184ED
  8
0
 62
   201
 10
446.76217104627369
 20
-86.342167405257655
 30
0.0
 40
3.5
  1
2.5
 50
90.0
  0
ENDBLK
  5
184EF
  8
0
  0
BLOCK
  8
0
  2
*X95
 70
     1
 10
0.0
 20
0.0
 30
0.0
  3
*X95
  1

  0
LINE
  5
184F1
  8
0
 62
     0
 10
51.938831917660423
 20
7.0047073853284871
 30
0.0
 11
53.07020384723063
 21
8.1360793148986943
 31
0.0
  0
LINE
  5
184F2
  8
0
 62
     0
 10
49.498727744660471
 20
6.8096672425958209
 30
0.0
 11
53.691577892651303
 21
11.002517390586631
 31
0.0
  0
LINE
  5
184F3
  8
0
 62
     0
 10
49.291577892651127
 20
8.8475814208537713
 30
0.0
 11
53.691577892651303
 21
13.247581420853949
 31
0.0
  0
LINE
  5
184F4
  8
0
 62
     0
 10
49.29157789265119
 20
11.092645451121079
 30
0.0
 11
53.432265781437451
 21
15.23333333990734
 31
0.0
  0
LINE
  5
184F5
  8
0
 62
     0
 10
48.989389821910891
 20
13.0355214106481
 30
0.0
 11
51.187201751170221
 21
15.23333333990743
 31
0.0
  0
LINE
  5
184F6
  8
0
 62
     0
 10
47.866857806777347
 20
14.158053425781841
 30
0.0
 11
48.942137720902991
 21
15.233333339907491
 31
0.0
  0
LINE
  5
184F7
  8
0
 62
     0
 10
47.191577892651253
 20
15.72783754192303
 30
0.0
 11
48.791577892651333
 21
17.32783754192311
 31
0.0
  0
LINE
  5
184F8
  8
0
 62
     0
 10
47.191577892651267
 20
17.972901572190349
 30
0.0
 11
48.791577892651333
 21
19.5729015721904
 31
0.0
  0
LINE
  5
184F9
  8
0
 62
     0
 10
47.19157789265131
 20
20.217965602457671
 30
0.0
 11
48.791577892651361
 21
21.817965602457718
 31
0.0
  0
LINE
  5
184FA
  8
0
 62
     0
 10
39.649261761376209
 20
12.67564947118257
 30
0.0
 11
43.191577892651161
 21
16.217965602457522
 31
0.0
  0
LINE
  5
184FB
  8
0
 62
     0
 10
47.191577892651338
 20
22.463029632724979
 30
0.0
 11
48.791577892651333
 21
24.06302963272498
 31
0.0
  0
LINE
  5
184FC
  8
0
 62
     0
 10
39.591577892651458
 20
14.8630296327251
 30
0.0
 11
43.191577892651217
 21
18.463029632724869
 31
0.0
  0
LINE
  5
184FD
  8
0
 62
     0
 10
47.19157789265131
 20
24.708093662992241
 30
0.0
 11
48.791577892651361
 21
26.308093662992292
 31
0.0
  0
LINE
  5
184FE
  8
0
 62
     0
 10
39.591577892651429
 20
17.10809366299236
 30
0.0
 11
43.191577892651217
 21
20.708093662992152
 31
0.0
  0
LINE
  5
184FF
  8
0
 62
     0
 10
47.19157789265136
 20
26.95315769325958
 30
0.0
 11
48.791577892651361
 21
28.553157693259578
 31
0.0
  0
LINE
  5
18500
  8
0
 62
     0
 10
41.591577892651387
 20
21.353157693259622
 30
0.0
 11
43.191577892651253
 21
22.95315769325947
 31
0.0
  0
LINE
  5
18501
  8
0
 62
     0
 10
47.191577892651416
 20
29.198221723526931
 30
0.0
 11
48.791577892651361
 21
30.798221723526868
 31
0.0
  0
LINE
  5
18502
  8
0
 62
     0
 10
41.591577892651387
 20
23.598221723526908
 30
0.0
 11
43.19157789265131
 21
25.19822172352681
 31
0.0
  0
LINE
  5
18503
  8
0
 62
     0
 10
47.191577892651416
 20
31.443285753794189
 30
0.0
 11
48.791577892651361
 21
33.043285753794152
 31
0.0
  0
LINE
  5
18504
  8
0
 62
     0
 10
41.591577892651458
 20
25.843285753794252
 30
0.0
 11
43.191577892651331
 21
27.443285753794129
 31
0.0
  0
LINE
  5
18505
  8
0
 62
     0
 10
47.191577892651416
 20
33.688349784061501
 30
0.0
 11
48.791577892651333
 21
35.28834978406141
 31
0.0
  0
LINE
  5
18506
  8
0
 62
     0
 10
41.591577892651458
 20
28.088349784061531
 30
0.0
 11
43.19157789265131
 21
29.688349784061391
 31
0.0
  0
LINE
  5
18507
  8
0
 62
     0
 10
47.191577892651388
 20
35.933413814328787
 30
0.0
 11
48.791577892651361
 21
37.533413814328732
 31
0.0
  0
LINE
  5
18508
  8
0
 62
     0
 10
41.591577892651429
 20
30.333413814328821
 30
0.0
 11
43.19157789265131
 21
31.933413814328699
 31
0.0
  0
LINE
  5
18509
  8
0
 62
     0
 10
47.191577892651416
 20
38.178477844596067
 30
0.0
 11
48.791577892651333
 21
39.778477844595983
 31
0.0
  0
LINE
  5
1850A
  8
0
 62
     0
 10
41.591577892651429
 20
32.57847784459608
 30
0.0
 11
43.191577892651402
 21
34.178477844596053
 31
0.0
  0
LINE
  5
1850B
  8
0
 62
     0
 10
47.191577892651452
 20
40.42354187486341
 30
0.0
 11
48.791577892651361
 21
42.023541874863319
 31
0.0
  0
LINE
  5
1850C
  8
0
 62
     0
 10
41.591577892651458
 20
34.823541874863423
 30
0.0
 11
43.191577892651402
 21
36.423541874863361
 31
0.0
  0
LINE
  5
1850D
  8
0
 62
     0
 10
41.591577892651479
 20
37.06860590513071
 30
0.0
 11
43.191577892651452
 21
38.668605905130683
 31
0.0
  0
LINE
  5
1850E
  8
0
 62
     0
 10
41.591577892651458
 20
39.313669935398003
 30
0.0
 11
43.191577892651452
 21
40.913669935397991
 31
0.0
  0
LINE
  5
1850F
  8
0
 62
     0
 10
15.15140959490625
 20
12.87350163765279
 30
0.0
 11
16.791577892651269
 21
14.513669935397839
 31
0.0
  0
LINE
  5
18510
  8
0
 62
     0
 10
14.028877579772571
 20
13.996033652786389
 30
0.0
 11
16.791577892651301
 21
16.75873396566513
 31
0.0
  0
LINE
  5
18511
  8
0
 62
     0
 10
41.591577892651507
 20
41.558733965665311
 30
0.0
 11
42.266177266893521
 21
42.23333333990734
 31
0.0
  0
LINE
  5
18512
  8
0
 62
     0
 10
6.5784602629546782
 20
6.5456163359685027
 30
0.0
 11
6.9650454406964002
 21
6.9322015137102246
 31
0.0
  0
LINE
  5
18513
  8
0
 62
     0
 10
13.19157789265134
 20
15.40379799593245
 30
0.0
 11
16.791577892651301
 21
19.003797995932409
 31
0.0
  0
LINE
  5
18514
  8
0
 62
     0
 10
4.6614230864952901
 20
6.8736431897764296
 30
0.0
 11
7.0915778926513431
 21
9.3037979959324542
 31
0.0
  0
LINE
  5
18515
  8
0
 62
     0
 10
13.19157789265134
 20
17.64886202619974
 30
0.0
 11
15.223181796739
 21
19.680465930287401
 31
0.0
  0
LINE
  5
18516
  8
0
 62
     0
 10
3.4634951160699918
 20
7.9207792496183913
 30
0.0
 11
7.0915778926514292
 21
11.54886202619983
 31
0.0
  0
LINE
  5
18517
  8
0
 62
     0
 10
13.19157789265131
 20
19.893926056466992
 30
0.0
 11
14.791577892651221
 21
21.493926056466929
 31
0.0
  0
LINE
  5
18518
  8
0
 62
     0
 10
2.7679489146375138
 20
9.4702970784531981
 30
0.0
 11
9.1915778926513099
 21
15.89392605646702
 31
0.0
  0
LINE
  5
18519
  8
0
 62
     0
 10
7.5915778926513724
 20
16.538990086734341
 30
0.0
 11
9.1915778926513383
 21
18.13899008673431
 31
0.0
  0
LINE
  5
1851A
  8
0
 62
     0
 10
13.19157789265134
 20
22.13899008673431
 30
0.0
 11
14.791577892651249
 21
23.738990086734219
 31
0.0
  0
LINE
  5
1851B
  8
0
 62
     0
 10
2.6915778926513658
 20
11.63899008673434
 30
0.0
 11
6.2859211458244308
 21
15.2333333399074
 31
0.0
  0
LINE
  5
1851C
  8
0
 62
     0
 10
7.5915778926513431
 20
18.784054117001599
 30
0.0
 11
9.1915778926513383
 21
20.3840541170016
 31
0.0
  0
LINE
  5
1851D
  8
0
 62
     0
 10
13.19157789265134
 20
24.3840541170016
 30
0.0
 11
14.791577892651249
 21
25.984054117001509
 31
0.0
  0
LINE
  5
1851E
  8
0
 62
     0
 10
2.6915778926513658
 20
13.88405411700162
 30
0.0
 11
4.0408571155571451
 21
15.2333333399074
 31
0.0
  0
LINE
  5
1851F
  8
0
 62
     0
 10
13.19157789265131
 20
26.62911814726888
 30
0.0
 11
14.791577892651301
 21
28.229118147268849
 31
0.0
  0
LINE
  5
18520
  8
0
 62
     0
 10
7.5915778926513724
 20
21.029118147268921
 30
0.0
 11
9.1915778926513383
 21
22.629118147268908
 31
0.0
  0
LINE
  5
18521
  8
0
 62
     0
 10
13.19157789265131
 20
28.874182177536142
 30
0.0
 11
14.791577892651301
 21
30.474182177536139
 31
0.0
  0
LINE
  5
18522
  8
0
 62
     0
 10
7.5915778926513724
 20
23.274182177536211
 30
0.0
 11
9.1915778926513383
 21
24.87418217753617
 31
0.0
  0
LINE
  5
18523
  8
0
 62
     0
 10
13.19157789265134
 20
31.11924620780346
 30
0.0
 11
14.791577892651301
 21
32.719246207803423
 31
0.0
  0
LINE
  5
18524
  8
0
 62
     0
 10
7.5915778926513724
 20
25.519246207803519
 30
0.0
 11
9.1915778926513383
 21
27.11924620780346
 31
0.0
  0
LINE
  5
18525
  8
0
 62
     0
 10
13.19157789265131
 20
33.364310238070722
 30
0.0
 11
14.791577892651301
 21
34.964310238070709
 31
0.0
  0
LINE
  5
18526
  8
0
 62
     0
 10
7.5915778926513724
 20
27.764310238070781
 30
0.0
 11
9.1915778926513383
 21
29.36431023807074
 31
0.0
  0
LINE
  5
18527
  8
0
 62
     0
 10
13.19157789265131
 20
35.60937426833803
 30
0.0
 11
14.791577892651359
 21
37.209374268338053
 31
0.0
  0
LINE
  5
18528
  8
0
 62
     0
 10
7.5915778926514292
 20
30.009374268338121
 30
0.0
 11
9.1915778926513383
 21
31.609374268338058
 31
0.0
  0
LINE
  5
18529
  8
0
 62
     0
 10
13.19157789265131
 20
37.854438298605288
 30
0.0
 11
14.791577892651359
 21
39.454438298605339
 31
0.0
  0
LINE
  5
1852A
  8
0
 62
     0
 10
7.5915778926514292
 20
32.254438298605407
 30
0.0
 11
9.1915778926513383
 21
33.854438298605317
 31
0.0
  0
LINE
  5
1852B
  8
0
 62
     0
 10
13.19157789265131
 20
40.099502328872568
 30
0.0
 11
14.791577892651359
 21
41.699502328872619
 31
0.0
  0
LINE
  5
1852C
  8
0
 62
     0
 10
7.5915778926514568
 20
34.499502328872723
 30
0.0
 11
9.1915778926513667
 21
36.099502328872632
 31
0.0
  0
LINE
  5
1852D
  8
0
 62
     0
 10
7.5915778926514292
 20
36.744566359139981
 30
0.0
 11
9.1915778926513383
 21
38.34456635913989
 31
0.0
  0
LINE
  5
1852E
  8
0
 62
     0
 10
7.5915778926514861
 20
38.989630389407331
 30
0.0
 11
9.1915778926513383
 21
40.589630389407169
 31
0.0
  0
LINE
  5
1852F
  8
0
 62
     0
 10
7.5915778926514861
 20
41.234694419674597
 30
0.0
 11
8.5408973527677858
 21
42.184013879790911
 31
0.0
  0
ENDBLK
  5
18531
  8
0
  0
BLOCK
  8
0
  2
*U96
 70
     1
 10
0.0
 20
0.0
 30
0.0
  3
*U96
  1

  0
SOLID
  5
18533
  8
1TEXT
 10
13.05095413769137
 20
18.828903494745798
 30
0.0
 11
13.14109116436407
 21
18.670236181090441
 31
0.0
 12
13.004366740109781
 22
18.791093252924629
 32
0.0
 13
13.004366740109781
 23
18.791093252924629
 33
0.0
  0
POLYLINE
  5
18534
  8
1TEXT
 66
     1
 10
0.0
 20
0.0
 30
0.0
  0
VERTEX
  5
18535
  8
1TEXT
 10
13.027660438900581
 20
18.80999837383521
 30
0.0
  0
VERTEX
  5
18536
  8
1TEXT
 10
-0.0000003267300599
 20
34.861861107672667
 30
0.0
  0
SEQEND
  5
18537
  8
1TEXT
  0
ENDBLK
  5
18539
  8
0
  0
BLOCK
  8
0
  2
*U97
 70
     1
 10
0.0
 20
0.0
 30
0.0
  3
*U97
  1

  0
TEXT
  5
1853B
  8
0
 62
   201
 10
263.11602112977761
 20
131.29184118276331
 30
0.0
 40
1.75
  1
R4.7
 50
325.19614227831522
  0
ENDBLK
  5
1853D
  8
0
  0
BLOCK
  8
0
  2
*U98
 70
     1
 10
0.0
 20
0.0
 30
0.0
  3
*U98
  1

  0
TEXT
  5
1853F
  8
0
 62
   201
 10
259.16506232562023
 20
112.7890877232873
 30
0.0
 40
1.75
  1
R5.7
 50
29.21831010326985
  0
ENDBLK
  5
18541
  8
0
  0
BLOCK
  8
0
  2
*U99
 70
     1
 10
0.0
 20
0.0
 30
0.0
  3
*U99
  1

  0
TEXT
  5
18543
  8
0
 62
   201
 10
275.03606606697781
 20
131.19484738148131
 30
0.0
 40
1.75
  1
R1
 50
69.733556487256863
  0
ENDBLK
  5
18545
  8
0
  0
BLOCK
  8
0
  2
*X100
 70
     1
 10
0.0
 20
0.0
 30
0.0
  3
*X100
  1

  0
LINE
  5
18547
  8
0
 62
     0
 10
11.413661092726549
 20
4.8755649672218331
 30
0.0
 11
12.744724524158009
 21
6.2066283986532929
 31
0.0
  0
LINE
  5
18548
  8
0
 62
     0
 10
9.1685970624591846
 20
4.8755649672217478
 30
0.0
 11
12.024805907627441
 21
7.7317738123900019
 31
0.0
  0
LINE
  5
18549
  8
0
 62
     0
 10
6.9235330321918971
 20
4.8755649672217771
 30
0.0
 11
13.08677519332255
 21
11.038807128352429
 31
0.0
  0
LINE
  5
1854A
  8
0
 62
     0
 10
5.4826397855775042
 20
5.6797357508746691
 30
0.0
 11
16.236203295419902
 21
16.43329926071706
 31
0.0
  0
LINE
  5
1854B
  8
0
 62
     0
 10
5.5182724528295353
 20
7.9604324483939592
 30
0.0
 11
12.75885012864137
 21
15.201010124205791
 31
0.0
  0
ENDBLK
  5
1854D
  8
0
  0
BLOCK
  8
0
  2
*U101
 70
     1
 10
0.0
 20
0.0
 30
0.0
  3
*U101
  1

  0
LINE
  5
1854F
  8
0
 10
-29.650013959840731
 20
-1.999767327302947
 30
0.0
 11
-2.3000325751465591
 21
-1.9999759305926541
 31
0.0
  0
LINE
  5
18550
  8
0
 10
-0.30002792150799
 20
-3.99999454508179
 30
0.0
 11
-2.3000325751465591
 21
-1.9999759305926541
 31
0.0
  0
LINE
  5
18551
  8
0
 10
-30.00001151669592
 20
-1.6497646577977321
 30
0.0
 11
-29.650013959840731
 21
-1.999767327302947
 31
0.0
  0
LINE
  5
18552
  8
0
 10
-0.30002792150799
 20
-3.99999454508179
 30
0.0
 11
-0.0000279215201999
 21
-3.9999973372356399
 31
0.0
  0
LINE
  5
18553
  8
0
 10
-29.999988481426449
 20
1.6502353421326461
 30
0.0
 11
-30.00001151669592
 21
-1.6497646577977321
 31
0.0
  0
LINE
  5
18554
  8
0
 10
0.0000279215573755
 20
4.0000026625912142
 30
0.0
 11
-0.0000279215201999
 21
-3.9999973372356399
 31
0.0
  0
LINE
  5
18555
  8
0
 10
-29.999988481426449
 20
1.6502353421326461
 30
0.0
 11
-29.649986038302011
 21
2.000232672609854
 31
0.0
  0
LINE
  5
18556
  8
0
 10
-0.2999720784305282
 20
4.0000054547450636
 30
0.0
 11
0.0000279215573755
 21
4.0000026625912142
 31
0.0
  0
LINE
  5
18557
  8
0
 10
-29.649986038302011
 20
2.000232672609854
 30
0.0
 11
-2.2999767319823121
 21
2.0000240690608271
 31
0.0
  0
LINE
  5
18558
  8
0
 10
-0.2999720784305282
 20
4.0000054547450636
 30
0.0
 11
-2.2999767319823121
 21
2.0000240690608271
 31
0.0
  0
ENDBLK
  5
1855A
  8
0
  0
BLOCK
  8
0
  2
*U102
 70
     1
 10
0.0
 20
0.0
 30
0.0
  3
*U102
  1

  0
LINE
  5
1855C
  8
0
 10
-24.650013959859169
 20
-1.9997699899808481
 30
0.0
 11
-1.800031398622707
 21
-1.9999832600255441
 31
0.0
  0
LINE
  5
1855D
  8
0
 10
-0.3000279215265778
 20
-3.4999972077595198
 30
0.0
 11
-1.800031398622707
 21
-1.9999832600255441
 31
0.0
  0
LINE
  5
1855E
  8
0
 10
-25.000011516714501
 20
-1.6497673204754051
 30
0.0
 11
-24.650013959859169
 21
-1.9997699899808481
 31
0.0
  0
LINE
  5
1855F
  8
0
 10
-0.3000279215265778
 20
-3.4999972077595198
 30
0.0
 11
-0.0000244313465316
 21
-3.4999999999457709
 31
0.0
  0
LINE
  5
18560
  8
0
 10
-24.99998848144503
 20
1.6502326794550291
 30
0.0
 11
-25.000011516714501
 21
-1.6497673204754051
 31
0.0
  0
LINE
  5
18561
  8
0
 10
0.0000244313465316
 20
3.4999999999458851
 30
0.0
 11
-0.0000244313465316
 21
-3.4999999999457709
 31
0.0
  0
LINE
  5
18562
  8
0
 10
-24.99998848144503
 20
1.6502326794550291
 30
0.0
 11
-24.649986038320609
 21
2.0002300099321242
 31
0.0
  0
LINE
  5
18563
  8
0
 10
-0.2999720784489455
 20
3.5000027920674479
 30
0.0
 11
0.0000244313465316
 21
3.4999999999458851
 31
0.0
  0
LINE
  5
18564
  8
0
 10
-24.649986038320609
 20
2.0002300099321242
 30
0.0
 11
-1.7999755817891689
 21
2.000016739628335
 31
0.0
  0
LINE
  5
18565
  8
0
 10
-0.2999720784489455
 20
3.5000027920674479
 30
0.0
 11
-1.7999755817891689
 21
2.000016739628335
 31
0.0
  0
ENDBLK
  5
18567
  8
0
  0
BLOCK
  8
0
  2
*U103
 70
     1
 10
0.0
 20
0.0
 30
0.0
  3
*U103
  1

  0
TEXT
  5
18569
  8
0
 62
   201
 10
69.04397489003307
 20
133.94667378796311
 30
0.0
 40
3.5
  1
\U+22057.6
 50
15.24249726222477
  0
ENDBLK
  5
1856B
  8
0
  0
BLOCK
  8
0
  2
*U104
 70
     1
 10
0.0
 20
0.0
 30
0.0
  3
*U104
  1

  0
TEXT
  5
18570
  8
1TEXT
 10
38.09529321751814
 20
1.4528811229823271
 30
0.0
 40
2.2000000000000002
  1
Takahashi
  0
ENDBLK
  5
18572
  8
0
  0
BLOCK
  8
0
  2
*U105
 70
     1
 10
0.0
 20
0.0
 30
0.0
  3
*U105
  1

  0
TEXT
  5
18575
  8
1TEXT
 10
108.49208504993859
 20
225.44465387024201
 30
0.0
 40
6.0
  1
%%U改正図
  0
ENDBLK
  5
18577
  8
0
  0
BLOCK
  8
0
  2
*U106
 70
     1
 10
0.0
 20
0.0
 30
0.0
  3
*U106
  1

  0
CIRCLE
  5
18579
  8
0
 10
0.0
 20
0.0
 30
0.0
 40
4.0
  0
ENDBLK
  5
1857B
  8
0
  0
BLOCK
  8
0
  2
*U107
 70
     1
 10
0.0
 20
0.0
 30
0.0
  3
*U107
  1

  0
LINE
  5
1857D
  8
0
 10
-24.650013959859319
 20
-1.9997699899806769
 30
0.0
 11
-2.3000325751651469
 21
-1.999978593270384
 31
0.0
  0
LINE
  5
1857E
  8
0
 10
-0.3000279215265778
 20
-3.9999972077595198
 30
0.0
 11
-2.3000325751651469
 21
-1.999978593270384
 31
0.0
  0
LINE
  5
1857F
  8
0
 10
-25.000011516714508
 20
-1.649767320475461
 30
0.0
 11
-24.650013959859319
 21
-1.9997699899806769
 31
0.0
  0
LINE
  5
18580
  8
0
 10
-0.3000279215265778
 20
-3.9999972077595198
 30
0.0
 11
-0.0000279215387877
 21
-3.9999999999133702
 31
0.0
  0
LINE
  5
18581
  8
0
 10
-24.999988481445051
 20
1.650232679454916
 30
0.0
 11
-25.000011516714508
 21
-1.649767320475461
 31
0.0
  0
LINE
  5
18582
  8
0
 10
0.0000279215387877
 20
3.9999999999134839
 30
0.0
 11
-0.0000279215387877
 21
-3.9999999999133702
 31
0.0
  0
LINE
  5
18583
  8
0
 10
-24.999988481445051
 20
1.650232679454916
 30
0.0
 11
-24.649986038320591
 21
2.0002300099321242
 31
0.0
  0
LINE
  5
18584
  8
0
 10
-0.299972078449116
 20
4.0000027920673338
 30
0.0
 11
0.0000279215387877
 21
3.9999999999134839
 31
0.0
  0
LINE
  5
18585
  8
0
 10
-24.649986038320591
 20
2.0002300099321242
 30
0.0
 11
-2.299976732000899
 21
2.0000214063830981
 31
0.0
  0
LINE
  5
18586
  8
0
 10
-0.299972078449116
 20
4.0000027920673338
 30
0.0
 11
-2.299976732000899
 21
2.0000214063830981
 31
0.0
  0
ENDBLK
  5
18588
  8
0
  0
BLOCK
  8
0
  2
*U108
 70
     1
 10
0.0
 20
0.0
 30
0.0
  3
*U108
  1

  0
LINE
  5
1858B
  8
0
 10
-11.649999999999981
 20
-2.0
 30
0.0
 11
-0.0000000000000284
 21
-2.0
 31
0.0
  0
LINE
  5
1858C
  8
0
 10
-0.0000000000000284
 20
-2.0
 30
0.0
 11
0.0
 21
-3.5
 31
0.0
  0
LINE
  5
1858D
  8
0
 10
-12.0
 20
-1.6499999999998629
 30
0.0
 11
-11.649999999999981
 21
-2.0
 31
0.0
  0
LINE
  5
1858E
  8
0
 10
0.0
 20
-3.5
 30
0.0
 11
0.5999999999999944
 21
-3.5
 31
0.0
  0
LINE
  5
1858F
  8
0
 10
-12.0
 20
1.649999999999977
 30
0.0
 11
-12.0
 21
-1.6499999999998629
 31
0.0
  0
ARC
  5
18590
  8
0
 10
0.5999999999999944
 20
-1.5
 30
0.0
 40
2.0
 50
270.0
 51
0.0
  0
LINE
  5
18591
  8
0
 10
-11.649999999999981
 20
2.0
 30
0.0
 11
-12.0
 21
1.649999999999977
 31
0.0
  0
LINE
  5
18592
  8
0
 10
2.5999999999999939
 20
1.4999999999999429
 30
0.0
 11
2.5999999999999939
 21
-1.5
 31
0.0
  0
LINE
  5
18593
  8
0
 10
-11.649999999999981
 20
2.0
 30
0.0
 11
-0.0000000000000284
 21
2.0000000000001128
 31
0.0
  0
ARC
  5
18594
  8
0
 10
0.5999999999999944
 20
1.4999999999999429
 30
0.0
 40
2.0
 50
0.0
 51
90.00000000000081
  0
LINE
  5
18595
  8
0
 10
0.0
 20
3.4999999999999432
 30
0.0
 11
-0.0000000000000284
 21
2.0000000000001128
 31
0.0
  0
LINE
  5
18596
  8
0
 10
0.0
 20
3.4999999999999432
 30
0.0
 11
0.5999999999999659
 21
3.4999999999999432
 31
0.0
  0
ENDBLK
  5
18598
  8
0
  0
BLOCK
  8
0
  2
*U109
 70
     1
 10
0.0
 20
0.0
 30
0.0
  3
*U109
  1

  0
LINE
  5
185BE
  8
0
 10
-0.25
 20
1.5
 30
0.0
 11
0.0
 21
1.25
 31
0.0
  0
LINE
  5
185BF
  8
0
 10
-4.2499999999998863
 20
1.5
 30
0.0
 11
-0.25
 21
1.5
 31
0.0
  0
LINE
  5
185C0
  8
0
 10
-0.0000000000000568
 20
-1.250000000000113
 30
0.0
 11
0.0
 21
1.25
 31
0.0
  0
LINE
  5
185C1
  8
0
 10
-4.9999999999999432
 20
0.75
 30
0.0
 11
-4.2499999999998863
 21
1.5
 31
0.0
  0
LINE
  5
185C2
  8
0
 10
-0.0000000000000568
 20
-1.250000000000113
 30
0.0
 11
-0.25
 21
-1.5
 31
0.0
  0
LINE
  5
185C3
  8
0
 10
-5.000000000000056
 20
-0.75
 30
0.0
 11
-4.9999999999999432
 21
0.75
 31
0.0
  0
LINE
  5
185C4
  8
0
 10
-4.2499999999999432
 20
-1.500000000000113
 30
0.0
 11
-0.25
 21
-1.5
 31
0.0
  0
LINE
  5
185C5
  8
0
 10
-5.000000000000056
 20
-0.75
 30
0.0
 11
-4.2499999999999432
 21
-1.500000000000113
 31
0.0
  0
ENDBLK
  5
185C7
  8
0
  0
BLOCK
  8
0
  2
*U110
 70
     1
 10
0.0
 20
0.0
 30
0.0
  3
*U110
  1

  0
LINE
  5
185C9
  8
0
 10
-5.0
 20
2.0999999999999939
 30
0.0
 11
-5.0000000000000071
 21
-2.0999999999999939
 31
0.0
  0
LINE
  5
185CA
  8
0
 10
-4.6000000000000076
 20
-2.5
 30
0.0
 11
-5.0000000000000071
 21
-2.0999999999999939
 31
0.0
  0
LINE
  5
185CB
  8
0
 10
-5.0
 20
2.0999999999999939
 30
0.0
 11
-4.5999999999999943
 21
2.5
 31
0.0
  0
LINE
  5
185CC
  8
0
 10
-4.6000000000000076
 20
-2.5
 30
0.0
 11
-0.3999999999999986
 21
-2.5
 31
0.0
  0
LINE
  5
185CD
  8
0
 10
-4.5999999999999943
 20
2.5
 30
0.0
 11
-0.3999999999999986
 21
2.5
 31
0.0
  0
LINE
  5
185CE
  8
0
 10
0.0
 20
-2.1000000000000081
 30
0.0
 11
-0.3999999999999986
 21
-2.5
 31
0.0
  0
LINE
  5
185CF
  8
0
 10
-0.3999999999999986
 20
2.5
 30
0.0
 11
0.0
 21
2.1000000000000081
 31
0.0
  0
LINE
  5
185D0
  8
0
 10
0.0
 20
2.1000000000000081
 30
0.0
 11
0.0
 21
-2.1000000000000081
 31
0.0
  0
ENDBLK
  5
185D2
  8
0
  0
BLOCK
  8
0
  2
*U111
 70
     1
 10
0.0
 20
0.0
 30
0.0
  3
*U111
  1

  0
LINE
  5
185D4
  8
0
 10
-14.649999999999981
 20
2.0
 30
0.0
 11
-0.0000000000000284
 21
2.0
 31
0.0
  0
LINE
  5
185D5
  8
0
 10
-14.649999999999981
 20
2.0
 30
0.0
 11
-15.0
 21
1.649999999999977
 31
0.0
  0
LINE
  5
185D6
  8
0
 10
0.0
 20
3.4999999999999432
 30
0.0
 11
-0.0000000000000284
 21
2.0
 31
0.0
  0
LINE
  5
185D7
  8
0
 10
-15.0
 20
1.649999999999977
 30
0.0
 11
-15.0
 21
-1.6499999999998629
 31
0.0
  0
LINE
  5
185D8
  8
0
 10
0.0
 20
3.4999999999999432
 30
0.0
 11
0.5999999999999375
 21
3.4999999999999432
 31
0.0
  0
LINE
  5
185D9
  8
0
 10
-15.0
 20
-1.6499999999998629
 30
0.0
 11
-14.649999999999981
 21
-2.0
 31
0.0
  0
ARC
  5
185DA
  8
0
 10
0.5999999999999944
 20
1.4999999999999429
 30
0.0
 40
2.0
 50
0.0
 51
90.000000000001606
  0
LINE
  5
185DB
  8
0
 10
-14.649999999999981
 20
-2.0
 30
0.0
 11
0.0000000000000568
 21
-2.0
 31
0.0
  0
LINE
  5
185DC
  8
0
 10
2.5999999999999939
 20
1.4999999999999429
 30
0.0
 11
2.5999999999999939
 21
-1.5
 31
0.0
  0
LINE
  5
185DD
  8
0
 10
0.0000000000000568
 20
-2.0
 30
0.0
 11
0.0
 21
-3.5
 31
0.0
  0
ARC
  5
185DE
  8
0
 10
0.5999999999999944
 20
-1.5
 30
0.0
 40
2.0
 50
270.0
 51
0.0
  0
LINE
  5
185DF
  8
0
 10
0.0
 20
-3.5
 30
0.0
 11
0.5999999999999944
 21
-3.5
 31
0.0
  0
ENDBLK
  5
185E1
  8
0
  0
BLOCK
  8
0
  2
*U112
 70
     1
 10
0.0
 20
0.0
 30
0.0
  3
*U112
  1

  0
LINE
  5
185E6
  8
0
 10
0.0
 20
5.0
 30
0.0
 11
0.0
 21
-5.0
 31
0.0
  0
LINE
  5
185E7
  8
0
 10
-0.3499999999999659
 20
5.0
 30
0.0
 11
0.0
 21
5.0
 31
0.0
  0
LINE
  5
185E8
  8
0
 10
-0.3499999999999659
 20
-5.0
 30
0.0
 11
0.0
 21
-5.0
 31
0.0
  0
LINE
  5
185E9
  8
0
 10
-0.3499999999999659
 20
5.0
 30
0.0
 11
-2.849999999999937
 21
2.5
 31
0.0
  0
LINE
  5
185EA
  8
0
 10
-0.3499999999999659
 20
-5.0
 30
0.0
 11
-2.8500000000000218
 21
-2.5
 31
0.0
  0
LINE
  5
185EB
  8
0
 10
-9.5999999999999943
 20
2.5
 30
0.0
 11
-2.849999999999937
 21
2.5
 31
0.0
  0
LINE
  5
185EC
  8
0
 10
-9.6000000000000227
 20
-2.5
 30
0.0
 11
-2.8500000000000218
 21
-2.5
 31
0.0
  0
LINE
  5
185ED
  8
0
 10
-10.0
 20
2.1000000000000218
 30
0.0
 11
-9.5999999999999943
 21
2.5
 31
0.0
  0
LINE
  5
185EE
  8
0
 10
-9.6000000000000227
 20
-2.5
 30
0.0
 11
-10.0
 21
-2.1000000000000218
 31
0.0
  0
LINE
  5
185EF
  8
0
 10
-10.0
 20
2.1000000000000218
 30
0.0
 11
-10.0
 21
-2.1000000000000218
 31
0.0
  0
ENDBLK
  5
185F1
  8
0
  0
BLOCK
  8
0
  2
*U113
 70
     1
 10
0.0
 20
0.0
 30
0.0
  3
*U113
  1

  0
LINE
  5
185F3
  8
0
 10
-19.999988481471402
 20
1.650228902743833
 30
0.0
 11
-20.000011516740869
 21
-1.649771097186544
 31
0.0
  0
LINE
  5
185F4
  8
0
 10
-20.000011516740869
 20
-1.649771097186544
 30
0.0
 11
-19.65001395988568
 21
-1.9997737666917601
 31
0.0
  0
LINE
  5
185F5
  8
0
 10
-19.999988481471402
 20
1.650228902743833
 30
0.0
 11
-19.649986038346949
 21
2.0002262332210421
 31
0.0
  0
LINE
  5
185F6
  8
0
 10
-19.65001395988568
 20
-1.9997737666917601
 30
0.0
 11
-2.3000325751915081
 21
-1.9999823699814661
 31
0.0
  0
LINE
  5
185F7
  8
0
 10
-19.649986038346949
 20
2.0002262332210421
 30
0.0
 11
-2.2999767320272611
 21
2.0000176296720151
 31
0.0
  0
LINE
  5
185F8
  8
0
 10
-0.3000279215529389
 20
-4.0000009844706019
 30
0.0
 11
-2.3000325751915081
 21
-1.9999823699814661
 31
0.0
  0
LINE
  5
185F9
  8
0
 10
-0.2999720784754771
 20
3.9999990153562521
 30
0.0
 11
-2.2999767320272611
 21
2.0000176296720151
 31
0.0
  0
LINE
  5
185FA
  8
0
 10
-0.3000279215529389
 20
-4.0000009844706019
 30
0.0
 11
-0.0000279215651489
 21
-4.0000037766244532
 31
0.0
  0
LINE
  5
185FB
  8
0
 10
-0.2999720784754771
 20
3.9999990153562521
 30
0.0
 11
0.0000279215124266
 21
3.9999962232024009
 31
0.0
  0
LINE
  5
185FC
  8
0
 10
0.0000279215124266
 20
3.9999962232024009
 30
0.0
 11
-0.0000279215651489
 21
-4.0000037766244532
 31
0.0
  0
ENDBLK
  5
185FE
  8
0
  0
BLOCK
  8
0
  2
*U114
 70
     1
 10
0.0
 20
0.0
 30
0.0
  3
*U114
  1

  0
CIRCLE
  5
18600
  8
0
 10
0.0
 20
0.0
 30
0.0
 40
3.0
  0
ENDBLK
  5
18602
  8
0
  0
BLOCK
  8
0
  2
*U115
 70
     1
 10
0.0
 20
0.0
 30
0.0
  3
*U115
  1

  0
LINE
  5
18604
  8
0
 10
-5.0000000000000142
 20
1.649999999999977
 30
0.0
 11
-5.0000000000000142
 21
-1.6499999999998629
 31
0.0
  0
LINE
  5
18605
  8
0
 10
-5.0000000000000142
 20
-1.6499999999998629
 30
0.0
 11
-4.6500000000000341
 21
-2.0
 31
0.0
  0
LINE
  5
18606
  8
0
 10
-4.6500000000000341
 20
2.0
 30
0.0
 11
-5.0000000000000142
 21
1.649999999999977
 31
0.0
  0
LINE
  5
18607
  8
0
 10
-4.6500000000000341
 20
-2.0
 30
0.0
 11
-1.3000001740740139
 21
-2.0
 31
0.0
  0
LINE
  5
18608
  8
0
 10
-4.6500000000000341
 20
2.0
 30
0.0
 11
-1.3000001740740139
 21
2.0
 31
0.0
  0
LINE
  5
18609
  8
0
 10
-1.3000001740740139
 20
-2.0
 30
0.0
 11
-0.3000001000000054
 21
-3.0
 31
0.0
  0
LINE
  5
1860A
  8
0
 10
-1.3000001740740139
 20
2.0
 30
0.0
 11
-0.3000000100000193
 21
3.0
 31
0.0
  0
LINE
  5
1860B
  8
0
 10
-0.3000001000000054
 20
-3.0
 30
0.0
 11
0.0
 21
-3.0
 31
0.0
  0
LINE
  5
1860C
  8
0
 10
-0.3000000100000193
 20
3.0
 30
0.0
 11
0.0
 21
3.0
 31
0.0
  0
LINE
  5
1860D
  8
0
 10
0.0
 20
3.0
 30
0.0
 11
0.0
 21
-3.0
 31
0.0
  0
ENDBLK
  5
1860F
  8
0
  0
BLOCK
  8
0
  2
*U116
 70
     1
 10
0.0
 20
0.0
 30
0.0
  3
*U116
  1

  0
TEXT
  5
18611
  8
1TEXT
 10
-12.893285996522289
 20
-2.8719116403264522
 30
0.0
 40
6.0
  1
%%U見積図
  0
ENDBLK
  5
18613
  8
0
  0
BLOCK
  8
0
  2
*U117
 70
     1
 10
0.0
 20
0.0
 30
0.0
  3
*U117
  1

  0
TEXT
  5
18615
  8
1TEXT
 62
   201
 10
1178.0633233081189
 20
-145.6077851715205
 30
0.0
 40
7.0
  1
R0.5
 50
314.05766344057969
  0
ENDBLK
  5
18617
  8
0
  0
BLOCK
  8
0
  2
*U118
 70
     1
 10
0.0
 20
0.0
 30
0.0
  3
*U118
  1

  0
TEXT
  5
18619
  8
1TEXT
 62
   201
 10
975.4157868661573
 20
87.991366930839376
 30
0.0
 40
4.5499999999999989
  1
16
  0
ENDBLK
  5
1861B
  8
0
  0
BLOCK
  8
0
  2
*U119
 70
     1
 10
0.0
 20
0.0
 30
0.0
  3
*U119
  1

  0
TEXT
  5
1861D
  8
1TEXT
 62
   201
 10
927.85332729879235
 20
-112.49193051578401
 30
0.0
 40
4.5499999999999989
  1
81
 50
90.0
  0
ENDBLK
  5
1861F
  8
0
  0
BLOCK
  8
0
  2
*U120
 70
     1
 10
0.0
 20
0.0
 30
0.0
  3
*U120
  1

  0
TEXT
  5
18621
  8
1TEXT
 62
   201
 10
1066.297951856186
 20
87.991366930839376
 30
0.0
 40
4.5499999999999989
  1
15
  0
ENDBLK
  5
18623
  8
0
  0
BLOCK
  8
0
  2
*U121
 70
     1
 10
0.0
 20
0.0
 30
0.0
  3
*U121
  1

  0
TEXT
  5
18625
  8
1TEXT
 62
   201
 10
1102.6229518564419
 20
87.991366930839376
 30
0.0
 40
4.5499999999999989
  1
57
  0
ENDBLK
  5
18627
  8
0
  0
BLOCK
  8
0
  2
*U122
 70
     1
 10
0.0
 20
0.0
 30
0.0
  3
*U122
  1

  0
TEXT
  5
18629
  8
1TEXT
 62
   201
 10
1093.122951309058
 20
67.210137096330513
 30
0.0
 40
4.5499999999999989
  1
38
  0
ENDBLK
  5
1862B
  8
0
  0
BLOCK
  8
0
  2
*U123
 70
     1
 10
0.0
 20
0.0
 30
0.0
  3
*U123
  1

  0
TEXT
  5
1862D
  8
1TEXT
 62
   201
 10
1112.1229518565019
 20
57.756724559712431
 30
0.0
 40
4.5499999999999989
  1
50
  0
ENDBLK
  5
1862F
  8
0
  0
BLOCK
  8
0
  2
*U124
 70
     1
 10
0.0
 20
0.0
 30
0.0
  3
*U124
  1

  0
TEXT
  5
18631
  8
1TEXT
 62
   201
 10
1060.8691687124431
 20
139.4782177973951
 30
0.0
 40
4.5499999999999989
  1
1.5
 50
90.0
  0
ENDBLK
  5
18633
  8
0
  0
BLOCK
  8
0
  2
*U125
 70
     1
 10
0.0
 20
0.0
 30
0.0
  3
*U125
  1

  0
TEXT
  5
18635
  8
1TEXT
 62
   201
 10
1072.2896185231079
 20
-109.79478576050769
 30
0.0
 40
4.5499999999999989
  1
8
  0
ENDBLK
  5
18637
  8
0
  0
BLOCK
  8
0
  2
*U126
 70
     1
 10
0.0
 20
0.0
 30
0.0
  3
*U126
  1

  0
TEXT
  5
18639
  8
1TEXT
 62
   201
 10
1054.0199659041079
 20
3.533069484170352
 30
0.0
 40
4.5499999999999989
  1
10
 50
90.0
  0
ENDBLK
  5
1863B
  8
0
  0
BLOCK
  8
0
  2
*U127
 70
     1
 10
0.0
 20
0.0
 30
0.0
  3
*U127
  1

  0
TEXT
  5
1863D
  8
1TEXT
 62
   201
 10
1044.17323573712
 20
19.208069484170181
 30
0.0
 40
4.5499999999999989
  1
47.2
 50
90.0
  0
ENDBLK
  5
1863F
  8
0
  0
BLOCK
  8
0
  2
*U128
 70
     1
 10
0.0
 20
0.0
 30
0.0
  3
*U128
  1

  0
TEXT
  5
18641
  8
1TEXT
 62
   201
 10
1018.62311959463
 20
-21.433597182507999
 30
0.0
 40
4.5499999999999989
  1
130
 50
90.0
  0
ENDBLK
  5
18643
  8
0
  0
BLOCK
  8
0
  2
*U129
 70
     1
 10
0.0
 20
0.0
 30
0.0
  3
*U129
  1

  0
TEXT
  5
18645
  8
1TEXT
 62
   201
 10
1100.272951309058
 20
77.746092326649205
 30
0.0
 40
4.5499999999999989
  1
51
  0
ENDBLK
  5
18647
  8
0
  0
BLOCK
  8
0
  2
*U130
 70
     1
 10
0.0
 20
0.0
 30
0.0
  3
*U130
  1

  0
TEXT
  5
18649
  8
1TEXT
 62
   201
 10
1167.6066150064371
 20
150.6211952953042
 30
0.0
 40
4.5499999999999989
  1
9
 50
90.0
  0
ENDBLK
  5
1864B
  8
0
  0
BLOCK
  8
0
  2
*U131
 70
     1
 10
0.0
 20
0.0
 30
0.0
  3
*U131
  1

  0
TEXT
  5
1864D
  8
1TEXT
 62
   201
 10
1167.6066150064371
 20
180.2342329870869
 30
0.0
 40
4.5499999999999989
  1
11.5
 50
90.0
  0
ENDBLK
  5
1864F
  8
0
  0
BLOCK
  8
0
  2
*U132
 70
     1
 10
0.0
 20
0.0
 30
0.0
  3
*U132
  1

  0
TEXT
  5
18651
  8
1TEXT
 62
   201
 10
1001.384084095008
 20
87.991366930839376
 30
0.0
 40
4.5499999999999989
  1
1.5
  0
ENDBLK
  5
18653
  8
0
  0
BLOCK
  8
0
  2
*U133
 70
     1
 10
0.0
 20
0.0
 30
0.0
  3
*U133
  1

  0
TEXT
  5
18655
  8
1TEXT
 62
   201
 10
947.28078686615754
 20
87.991366930839376
 30
0.0
 40
4.5499999999999989
  1
1.5
  0
ENDBLK
  5
18657
  8
0
  0
BLOCK
  8
0
  2
*U134
 70
     1
 10
0.0
 20
0.0
 30
0.0
  3
*U134
  1

  0
TEXT
  5
18659
  8
1TEXT
 62
   201
 10
906.95842237336285
 20
87.991366930839376
 30
0.0
 40
4.5499999999999989
  1
7
  0
ENDBLK
  5
1865B
  8
0
  0
BLOCK
  8
0
  2
*U135
 70
     1
 10
0.0
 20
0.0
 30
0.0
  3
*U135
  1

  0
TEXT
  5
1865D
  8
1TEXT
 62
   201
 10
872.16508903999954
 20
87.991366930839376
 30
0.0
 40
4.5499999999999989
  1
36
  0
ENDBLK
  5
1865F
  8
0
  0
BLOCK
  8
0
  2
*U136
 70
     1
 10
0.0
 20
0.0
 30
0.0
  3
*U136
  1

  0
TEXT
  5
18661
  8
1TEXT
 62
   201
 10
998.5171996677841
 20
-109.1455233672944
 30
0.0
 40
4.5499999999999989
  1
8
  0
ENDBLK
  5
18663
  8
0
  0
BLOCK
  8
0
  2
*U137
 70
     1
 10
0.0
 20
0.0
 30
0.0
  3
*U137
  1

  0
TEXT
  5
18665
  8
1TEXT
 62
   201
 10
1167.6066150064371
 20
-80.633599999999618
 30
0.0
 40
4.5499999999999989
  1
190
 50
90.0
  0
ENDBLK
  5
18667
  8
0
  0
BLOCK
  8
0
  2
*U138
 70
     1
 10
0.0
 20
0.0
 30
0.0
  3
*U138
  1

  0
TEXT
  5
18669
  8
1TEXT
 62
   201
 10
1157.841832291497
 20
-80.741933333333165
 30
0.0
 40
4.5499999999999989
  1
174
 50
90.0
  0
ENDBLK
  5
1866B
  8
0
  0
ENDSEC
  0
SECTION
  2
ENTITIES
  0
TEXT
  5
513D
  8
01
 10
-75.839753125126435
 20
-3.4540358490735339
 30
0.0
 40
4.0
  1

  0
TEXT
  5
144FC
  8
01
 10
709.4930317879224
 20
220.77951852603161
 30
0.0
 40
20.0
  1
3-KP-01-X
  0
TEXT
  5
152B7
  8
01
 10
718.6980491426782
 20
200.98126620010751
 30
0.0
 40
6.0
  1
材質：亜鉛ダイキャスト
 72
     1
 11
756.89804914267825
 21
200.98126620010751
 31
0.0
  0
LINE
  5
152B8
  8
01
 10
718.38107389803906
 20
153.33222482062411
 30
0.0
 11
838.38107389803906
 21
153.33222482062411
 31
0.0
  0
TEXT
  5
152B9
  8
01
 10
730.48107389803931
 20
166.3658544032676
 30
0.0
 40
6.0
  1
クローム
 72
     1
 11
744.48107389803931
 21
166.3658544032676
 31
0.0
  0
TEXT
  5
152BA
  8
01
 10
730.88107389803918
 20
187.08222482062411
 30
0.0
 40
6.0
  1
表面処理
 72
     1
 11
744.48107389803931
 21
187.08222482062411
 31
0.0
  0
TEXT
  5
152BB
  8
01
 10
727.68107389803924
 20
176.82929183133771
 30
0.0
 40
6.0
  1
本金メッキ
 72
     1
 11
744.48107389803931
 21
176.82929183133771
 31
0.0
  0
LINE
  5
152BC
  8
01
 10
718.38107389803906
 20
195.33222482062411
 30
0.0
 11
838.38107389803906
 21
195.33222482062411
 31
0.0
  0
LINE
  5
152BD
  8
01
 10
718.38107389803906
 20
174.33222482062411
 30
0.0
 11
838.38107389803906
 21
174.33222482062411
 31
0.0
  0
LINE
  5
152BE
  8
01
 10
718.38107389803906
 20
184.83222482062411
 30
0.0
 11
838.38107389803906
 21
184.83222482062411
 31
0.0
  0
LINE
  5
152BF
  8
01
 10
718.38107389803906
 20
163.83222482062411
 30
0.0
 11
823.38107389803906
 21
163.83222482062411
 31
0.0
  0
LINE
  5
152C0
  8
01
 10
718.38107389803906
 20
163.83222482062411
 30
0.0
 11
838.38107389803906
 21
163.83222482062411
 31
0.0
  0
LINE
  5
152C1
  8
01
 10
770.88107389803918
 20
195.33222482062411
 30
0.0
 11
770.88107389803895
 21
132.33222482062411
 31
0.0
  0
TEXT
  5
152C2
  8
01
 10
772.08302636618714
 20
176.26068934514981
 30
0.0
 40
6.0
  1
3-KP-01-XG
 72
     1
 11
803.65445493761558
 21
176.26068934514981
 31
0.0
  0
TEXT
  5
152C3
  8
01
 10
772.08302636618714
 20
165.76068934514981
 30
0.0
 40
6.0
  1
3-KP-01-XC
 72
     1
 11
803.65445493761558
 21
165.76068934514981
 31
0.0
  0
TEXT
  5
152C4
  8
01
 10
793.78812474522101
 20
187.08222482062411
 30
0.0
 40
6.0
  1
コード
 72
     1
 11
803.98812474522094
 21
187.08222482062411
 31
0.0
  0
LINE
  5
152C7
  8
01
 10
718.38107389803918
 20
132.33222482062411
 30
0.0
 11
718.38107389803906
 21
195.33222482062411
 31
0.0
  0
LINE
  5
1535F
  8
01
 10
838.38107389803929
 20
132.33222482062411
 30
0.0
 11
838.38107389803906
 21
195.33222482062411
 31
0.0
  0
LINE
  5
168FF
  8
01
 10
1081.156285189775
 20
49.39140281750322
 30
0.0
 11
1081.156285189775
 21
29.39140281750322
 31
0.0
  0
LINE
  5
16906
  8
01
 10
1081.156285189775
 20
-58.608597182520029
 30
0.0
 11
1081.156285189775
 21
-78.608597182520029
 31
0.0
  0
LINE
  5
16907
  8
01
 10
1079.9562851897761
 20
-78.608597182520086
 30
0.0
 11
1081.156285189775
 21
-78.608597182520029
 31
0.0
  0
LINE
  5
16908
  8
01
 10
1076.3330869892709
 20
-69.608597182543448
 30
0.0
 11
1085.3192750092319
 21
-69.608597182543448
 31
0.0
  0
LINE
  5
16909
  8
01
 10
1079.9562851897749
 20
29.39140281750317
 30
0.0
 11
1134.2562851897751
 21
29.391402817505721
 31
0.0
  0
LINE
  5
1690B
  8
01
 10
1079.9562851897749
 20
-58.608597182520079
 30
0.0
 11
1091.4562851897749
 21
-58.608597182519567
 31
0.0
  0
LINE
  5
1690D
  8
01
 10
1076.498702651302
 20
40.391402817503099
 30
0.0
 11
1085.3086917510579
 21
40.391402817503099
 31
0.0
  0
LINE
  5
1690E
  8
01
 10
1081.156285189775
 20
32.391402817526242
 30
0.0
 11
1079.9562851897749
 21
32.391402817526242
 31
0.0
  0
LINE
  5
16911
  8
01
 10
1081.156285189775
 20
178.0242329870868
 30
0.0
 11
1135.4562851897749
 21
178.0242329870868
 31
0.0
  0
LINE
  5
16913
  8
01
 10
1094.9562851897749
 20
167.72423298708671
 30
0.0
 11
1135.4562851897749
 21
167.72423298708671
 31
0.0
  0
LINE
  5
16915
  8
01
 10
1079.9562851897749
 20
49.39140281750322
 30
0.0
 11
1081.156285189775
 21
49.39140281750322
 31
0.0
  0
LINE
  5
16916
  8
01
 10
1081.156285189775
 20
178.2742329870868
 30
0.0
 11
1081.156285189775
 21
166.2742329870868
 31
0.0
  0
LINE
  5
16917
  8
01
 10
1081.156285189775
 20
167.72423298708679
 30
0.0
 11
1086.9562851897749
 21
167.72423298708679
 31
0.0
  0
LINE
  5
16918
  8
01
 10
1079.9562851897749
 20
166.2742329870868
 30
0.0
 11
1081.156285189775
 21
166.2742329870868
 31
0.0
  0
LINE
  5
16919
  8
01
 10
1086.9562851897749
 20
167.72423298708679
 30
0.0
 11
1086.9562851897749
 21
166.5242329870868
 31
0.0
  0
LINE
  5
1691A
  8
01
 10
1079.9562851897749
 20
178.2742329870868
 30
0.0
 11
1081.156285189775
 21
178.2742329870868
 31
0.0
  0
LINE
  5
1691E
  8
01
 10
1094.9562851897749
 20
167.72423298708679
 30
0.0
 11
1094.9562851897749
 21
166.5242329870868
 31
0.0
  0
LINE
  5
16924
  8
01
 10
1135.4562851897749
 20
178.0242329870868
 30
0.0
 11
1135.4562851897749
 21
166.52423298708669
 31
0.0
  0
LINE
  5
16925
  8
01
 10
1134.2562851897751
 20
178.0242329870868
 30
0.0
 11
1134.2562851897751
 21
167.72423298708671
 31
0.0
  0
LINE
  5
16928
  8
01
 10
911.79842237336254
 20
49.391402817503277
 30
0.0
 11
911.798422373363
 21
-2.3085971824967682
 31
0.0
  0
LINE
  5
16929
  8
01
 10
911.79842237336368
 20
-55.408597182519983
 30
0.0
 11
911.79842237336413
 21
-78.608597182519972
 31
0.0
  0
LINE
  5
1692A
  8
01
 10
912.99842237336247
 20
-78.608597182520029
 30
0.0
 11
911.79842237336254
 21
-78.608597182519972
 31
0.0
  0
LINE
  5
1692B
  8
01
 10
916.6216205738674
 20
-69.608597182543392
 30
0.0
 11
907.63543255390618
 21
-69.608597182543392
 31
0.0
  0
LINE
  5
16930
  8
01
 10
911.79842237336345
 20
-14.80859718249677
 30
0.0
 11
911.79842237336345
 21
-38.608597182497178
 31
0.0
  0
LINE
  5
16933
  8
01
 10
911.79842237336277
 20
-58.608597182519972
 30
0.0
 11
901.49842237336293
 21
-58.60859718251951
 31
0.0
  0
LINE
  5
16935
  8
01
 10
912.9984223733627
 20
-57.40859718252004
 30
0.0
 11
911.79842237336368
 21
-57.408597182519983
 31
0.0
  0
LINE
  5
16936
  8
01
 10
912.9984223733627
 20
-55.40859718252004
 30
0.0
 11
911.79842237336368
 21
-55.408597182519983
 31
0.0
  0
LINE
  5
16937
  8
01
 10
911.79842237336345
 20
-43.008597182519999
 30
0.0
 11
911.79842237336368
 21
-50.408597182519983
 31
0.0
  0
LINE
  5
16938
  8
01
 10
912.9984223733627
 20
-50.408597182519983
 30
0.0
 11
911.79842237336368
 21
-50.408597182519983
 31
0.0
  0
LINE
  5
1693A
  8
01
 10
912.9984223733627
 20
-43.008597182519999
 30
0.0
 11
911.79842237336345
 21
-43.008597182519999
 31
0.0
  0
LINE
  5
1693B
  8
01
 10
912.9984223733627
 20
-38.608597182497242
 30
0.0
 11
911.79842237336277
 21
-38.608597182497178
 31
0.0
  0
LINE
  5
1693D
  8
01
 10
912.9984223733627
 20
-14.80859718249677
 30
0.0
 11
911.798422373363
 21
-14.80859718249677
 31
0.0
  0
LINE
  5
1693F
  8
01
 10
911.79842237336663
 20
29.39140281750328
 30
0.0
 11
858.69842237336275
 21
29.391402817505782
 31
0.0
  0
LINE
  5
16941
  8
01
 10
858.69842237336275
 20
28.191402817505789
 30
0.0
 11
857.49842237336293
 21
28.191402817505839
 31
0.0
  0
LINE
  5
16942
  8
01
 10
858.69842237336275
 20
29.391402817505782
 30
0.0
 11
858.69842237336275
 21
28.191402817505789
 31
0.0
  0
LINE
  5
16943
  8
01
 10
912.9984223733627
 20
-2.3085971824967682
 30
0.0
 11
911.798422373363
 21
-2.3085971824967682
 31
0.0
  0
LINE
  5
16944
  8
01
 10
916.45600491183575
 20
40.391402817503163
 30
0.0
 11
907.64601581207967
 21
40.391402817503163
 31
0.0
  0
LINE
  5
16945
  8
01
 10
911.79842237336277
 20
32.391402817526298
 30
0.0
 11
912.9984223733627
 21
32.391402817526298
 31
0.0
  0
LINE
  5
16946
  8
01
 10
912.9984223733627
 20
28.191402817503231
 30
0.0
 11
911.79842237336277
 21
28.191402817503349
 31
0.0
  0
LINE
  5
16949
  8
01
 10
912.9984223733627
 20
49.391402817503277
 30
0.0
 11
911.79842237336277
 21
49.391402817503277
 31
0.0
  0
LINE
  5
16951
  8
01
 10
1134.2562851897751
 20
29.391402817505721
 30
0.0
 11
1135.4562851897749
 21
28.191402817505789
 31
0.0
  0
LINE
  5
16952
  8
01
 10
1081.156285189775
 20
166.5242329870868
 30
0.0
 11
1135.4562851897749
 21
166.5242329870868
 31
0.0
  0
LINE
  5
16955
  8
01
 10
1135.4562851897749
 20
167.72423298708659
 30
0.0
 11
1135.4562851897749
 21
166.5242329870868
 31
0.0
  0
LINE
  5
16956
  8
01
 10
978.32412019949061
 20
24.991402817503982
 30
0.0
 11
978.32412019949061
 21
-2.3085971824963698
 31
0.0
  0
LINE
  5
16957
  8
01
 10
981.82412019949061
 20
24.991402817503982
 30
0.0
 11
981.82412019949061
 21
-2.3085971824963698
 31
0.0
  0
LINE
  5
16958
  8
01
 10
977.57412019949061
 20
24.991402817504099
 30
0.0
 11
978.32412019949061
 21
24.991402817504099
 31
0.0
  0
LINE
  5
16959
  8
01
 10
978.32412019949061
 20
23.05211972307508
 30
0.0
 11
981.82412019949061
 21
23.05211972307508
 31
0.0
  0
LINE
  5
1695A
  8
01
 10
981.82412019949061
 20
24.991402817503982
 30
0.0
 11
982.57412019949061
 21
24.991402817503872
 31
0.0
  0
LINE
  5
1695B
  8
01
 10
978.57412019949072
 20
13.19140281817023
 30
0.0
 11
978.57412019949072
 21
-2.808597182496654
 31
0.0
  0
LINE
  5
1695C
  8
01
 10
981.57412019949084
 20
13.19140281817023
 30
0.0
 11
981.57412019949084
 21
-2.808597182496654
 31
0.0
  0
LINE
  5
1695D
  8
01
 10
980.07412019949084
 20
13.19140281817023
 30
0.0
 11
980.07412019949084
 21
-2.8085971818488669
 31
0.0
  0
LINE
  5
1695E
  8
01
 10
978.57412019949072
 20
5.0078982154945058
 30
0.0
 11
981.57412019949084
 21
5.0078982154945058
 31
0.0
  0
LINE
  5
1695F
  8
01
 10
978.57412019949072
 20
13.19140281817023
 30
0.0
 11
981.57412019949084
 21
13.19140281817023
 31
0.0
  0
LINE
  5
16960
  8
01
 10
1063.4562851892631
 20
170.7742329870868
 30
0.0
 11
1078.3562851897759
 21
170.7742329870868
 31
0.0
  0
LINE
  5
16961
  8
01
 10
1078.3562851897759
 20
172.2742329870868
 30
0.0
 11
1063.4562851892631
 21
172.2742329870868
 31
0.0
  0
LINE
  5
16962
  8
01
 10
1063.4562851892631
 20
173.7742329870868
 30
0.0
 11
1078.3562851897759
 21
173.7742329870868
 31
0.0
  0
LINE
  5
16963
  8
01
 10
1063.4562851892631
 20
173.7742329870868
 30
0.0
 11
1063.4562851892631
 21
170.7742329870868
 31
0.0
  0
LINE
  5
16964
  8
01
 10
1066.93685406759
 20
170.7742329870868
 30
0.0
 11
1066.93685406759
 21
173.7742329870868
 31
0.0
  0
LINE
  5
16966
  8
01
 10
1078.3562851897759
 20
157.27423298708661
 30
0.0
 11
1078.356285189775
 21
187.27423298708459
 31
0.0
  0
LINE
  5
16967
  8
01
 10
1079.9562851897749
 20
180.2742329870868
 30
0.0
 11
1079.9562851897749
 21
164.2742329870868
 31
0.0
  0
LINE
  5
16968
  8
01
 10
1079.9562851897749
 20
180.2742329870868
 30
0.0
 11
1078.3562851897759
 21
180.2742329870868
 31
0.0
  0
LINE
  5
16969
  8
01
 10
1079.9562851897749
 20
164.2742329870868
 30
0.0
 11
1078.3562851897759
 21
164.2742329870868
 31
0.0
  0
LINE
  5
16971
  8
01
 10
981.82412019949061
 20
2.1914028175050499
 30
0.0
 11
981.57412019949084
 21
2.1914028175049931
 31
0.0
  0
LINE
  5
16972
  8
01
 10
978.57412019949072
 20
2.1914028175049931
 30
0.0
 11
978.32412019949061
 21
2.1914028175049931
 31
0.0
  0
LINE
  5
16976
  8
01
 10
1079.9562851897749
 20
50.391402817503099
 30
0.0
 11
1079.9562851897749
 21
-79.608597182520199
 31
0.0
  0
LINE
  5
16977
  8
01
 10
1078.4562851897749
 20
50.39140281750317
 30
0.0
 11
1078.4562851897749
 21
-79.608597182520086
 31
0.0
  0
LINE
  5
16978
  8
01
 10
1079.9562851897749
 20
-79.608597182520199
 30
0.0
 11
1078.4562851897749
 21
-79.608597182520086
 31
0.0
  0
LINE
  5
1697B
  8
01
 10
1079.9562851897749
 20
50.391402817503099
 30
0.0
 11
1078.4562851897749
 21
50.39140281750317
 31
0.0
  0
LINE
  5
1697C
  8
01
 10
914.49842237336293
 20
50.39140281750317
 30
0.0
 11
914.49842237336281
 21
-79.608597182520143
 31
0.0
  0
LINE
  5
1697D
  8
01
 10
912.9984223733627
 20
50.39140281750322
 30
0.0
 11
912.9984223733627
 21
-79.608597182520015
 31
0.0
  0
LINE
  5
1697E
  8
01
 10
914.49842237336236
 20
-79.608597182520143
 30
0.0
 11
912.99842237336247
 21
-79.608597182520015
 31
0.0
  0
LINE
  5
16981
  8
01
 10
914.49842237336293
 20
50.39140281750317
 30
0.0
 11
912.9984223733627
 21
50.39140281750322
 31
0.0
  0
CIRCLE
  5
16983
  8
01
 10
980.07412019949061
 20
-46.708597182520393
 30
0.0
 40
3.399999999999999
  0
LINE
  5
16986
  8
01
 10
982.07412019949061
 20
-79.608597182519802
 30
0.0
 11
978.07412019949061
 21
-79.608597182519802
 31
0.0
  0
LINE
  5
16987
  8
01
 10
982.57412019949061
 20
28.191402817503519
 30
0.0
 11
982.57412019949061
 21
-2.3085971824964271
 31
0.0
  0
LINE
  5
16988
  8
01
 10
977.57412019949061
 20
28.191402817503519
 30
0.0
 11
977.57412019949061
 21
-2.3085971824964271
 31
0.0
  0
LINE
  5
16989
  8
01
 10
988.07412019949061
 20
44.391402817503497
 30
0.0
 11
988.07412019949061
 21
-73.608597182519802
 31
0.0
  0
LINE
  5
1698A
  8
01
 10
972.07412019949061
 20
44.391402817503497
 30
0.0
 11
972.07412019949061
 21
-73.608597182519802
 31
0.0
  0
CIRCLE
  5
1698D
  8
01
 10
980.07412019949061
 20
-46.70859718252067
 30
0.0
 40
3.7000000000010398
  0
CIRCLE
  5
1698E
  8
01
 10
980.07412019949061
 20
-46.70859718252067
 30
0.0
 40
4.0000000000010401
  0
LINE
  5
1698F
  8
01
 10
984.758342421713
 20
-18.608597182498539
 30
0.0
 11
985.07412019949049
 21
-18.608597182498539
 31
0.0
  0
LINE
  5
16990
  8
01
 10
983.44567575504914
 20
-18.608597182498539
 30
0.0
 11
983.12567575504909
 21
-18.608597182498539
 31
0.0
  0
LINE
  5
16991
  8
01
 10
982.42567575504893
 20
-18.608597182498539
 30
0.0
 11
982.10567575504922
 21
-18.608597182498539
 31
0.0
  0
LINE
  5
16992
  8
01
 10
981.58567575504935
 20
-18.608597182498539
 30
0.0
 11
981.90567575504929
 21
-18.608597182498539
 31
0.0
  0
LINE
  5
16993
  8
01
 10
979.71656464394039
 20
-18.608597182498539
 30
0.0
 11
980.04789797727335
 21
-18.608597182498539
 31
0.0
  0
LINE
  5
16994
  8
01
 10
977.4161201994981
 20
-18.608597182498539
 30
0.0
 11
977.74745353283129
 21
-18.608597182498539
 31
0.0
  0
LINE
  5
16995
  8
01
 10
976.10034242172185
 20
-18.608597182498539
 30
0.0
 11
976.5036757550547
 21
-18.608597182498539
 31
0.0
  0
LINE
  5
16996
  8
01
 10
975.07412019950073
 20
-18.608597182498539
 30
0.0
 11
975.38989797727788
 21
-18.608597182498539
 31
0.0
  0
LINE
  5
16997
  8
01
 10
983.65300908838105
 20
-20.555952738052252
 30
0.0
 11
983.96878686615833
 21
-20.555952738052252
 31
0.0
  0
LINE
  5
16998
  8
01
 10
985.07412019949049
 20
-20.608597182496499
 30
0.0
 11
983.96878686615833
 21
-19.368886071386768
 31
0.0
  0
LINE
  5
16999
  8
01
 10
983.96878686615833
 20
-19.368886071386768
 30
0.0
 11
983.96878686615833
 21
-20.555952738052252
 31
0.0
  0
ARC
  5
1699A
  8
01
 10
982.86567575504898
 20
-20.004481755179871
 30
0.0
 40
0.26
 50
299.99999999996982
 51
0.0
  0
ARC
  5
1699B
  8
01
 10
982.68567575504915
 20
-20.004481755179871
 30
0.0
 40
0.26
 50
180.0
 51
240.00000000002851
  0
ARC
  5
1699C
  8
01
 10
982.77567575504918
 20
-19.848597182498551
 30
0.0
 40
0.4399999999999978
 50
240.00000000002851
 51
299.99999999996982
  0
ARC
  5
1699D
  8
01
 10
982.77567575504918
 20
-19.848597182498551
 30
0.0
 40
0.7600000000000016
 50
240.00000000002851
 51
299.99999999997152
  0
ARC
  5
1699E
  8
01
 10
982.68567575504915
 20
-20.004481755179871
 30
0.0
 40
0.58
 50
180.0
 51
240.00000000002851
  0
LINE
  5
1699F
  8
01
 10
981.06825107244515
 20
-20.248597182498639
 30
0.0
 11
981.38567575504919
 21
-20.248597182498639
 31
0.0
  0
ARC
  5
169A0
  8
01
 10
981.38567575504919
 20
-20.0485971824986
 30
0.0
 40
0.2
 50
270.0
 51
0.0
  0
LINE
  5
169A1
  8
01
 10
980.12723131060659
 20
-19.740174960275318
 30
0.0
 11
980.49478686616169
 21
-19.740174960275318
 31
0.0
  0
LINE
  5
169A2
  8
01
 10
980.85637701463884
 20
-20.5485971824986
 30
0.0
 11
981.38567575504919
 21
-20.5485971824986
 31
0.0
  0
LINE
  5
169A3
  8
01
 10
980.85637701463884
 20
-20.5485971824986
 30
0.0
 11
980.6243424217173
 21
-20.029641626941711
 31
0.0
  0
ARC
  5
169A4
  8
01
 10
981.38567575504919
 20
-20.028597182498618
 30
0.0
 40
0.5200000000000001
 50
270.0
 51
0.0
  0
LINE
  5
169A5
  8
01
 10
980.12723131060659
 20
-19.740174960275318
 30
0.0
 11
980.31100908838425
 21
-19.329263849164459
 31
0.0
  0
LINE
  5
169A6
  8
01
 10
980.49478686616169
 20
-19.740174960275318
 30
0.0
 11
980.31100908838425
 21
-19.329263849164459
 31
0.0
  0
ARC
  5
169A7
  8
01
 10
982.86567575504898
 20
-20.004481755179871
 30
0.0
 40
0.58
 50
299.99999999997152
 51
0.0
  0
LINE
  5
169A8
  8
01
 10
979.76212019949583
 20
-20.555974960274501
 30
0.0
 11
979.9976757550512
 21
-20.029641626941711
 31
0.0
  0
LINE
  5
169A9
  8
01
 10
979.9976757550512
 20
-20.029641626941711
 30
0.0
 11
980.6243424217173
 21
-20.029641626941711
 31
0.0
  0
LINE
  5
169AA
  8
01
 10
976.81345353283211
 20
-20.029641626941711
 30
0.0
 11
977.4401201994981
 21
-20.029641626941711
 31
0.0
  0
LINE
  5
169AB
  8
01
 10
976.94300908838784
 20
-19.740174960275318
 30
0.0
 11
977.31056464394294
 21
-19.740174960275318
 31
0.0
  0
LINE
  5
169AC
  8
01
 10
977.67545353283128
 20
-20.555952738052252
 30
0.0
 11
978.02145353283095
 21
-20.555952738052252
 31
0.0
  0
LINE
  5
169AD
  8
01
 10
977.67545353283128
 20
-20.555974960274501
 30
0.0
 11
977.4401201994981
 21
-20.029641626941711
 31
0.0
  0
LINE
  5
169AE
  8
01
 10
979.20567575505197
 20
-20.608597182496499
 30
0.0
 11
978.73212019949676
 21
-19.348641626942349
 31
0.0
  0
LINE
  5
169AF
  8
01
 10
978.25834242171948
 20
-20.608597182496499
 30
0.0
 11
978.73212019949676
 21
-19.348641626942349
 31
0.0
  0
LINE
  5
169B0
  8
01
 10
977.31056464394294
 20
-19.740174960275318
 30
0.0
 11
977.12678686616516
 21
-19.329263849164459
 31
0.0
  0
LINE
  5
169B1
  8
01
 10
976.94300908838784
 20
-19.740174960275318
 30
0.0
 11
977.12678686616516
 21
-19.329263849164459
 31
0.0
  0
LINE
  5
169B2
  8
01
 10
976.10034242172185
 20
-20.555952738052252
 30
0.0
 11
976.57789797727696
 21
-20.555952738052252
 31
0.0
  0
LINE
  5
169B3
  8
01
 10
976.3314535328326
 20
-20.333730515830311
 30
0.0
 11
975.78123131061113
 21
-19.518486071386501
 31
0.0
  0
LINE
  5
169B4
  8
01
 10
976.10034242172185
 20
-20.555974960274501
 30
0.0
 11
975.38989797727788
 21
-19.503330515830939
 31
0.0
  0
LINE
  5
169B5
  8
01
 10
976.57789797727696
 20
-20.555974960274501
 30
0.0
 11
976.81345353283211
 21
-20.029641626941711
 31
0.0
  0
LINE
  5
169B6
  8
01
 10
975.07412019950073
 20
-20.555952738052252
 30
0.0
 11
975.38989797727788
 21
-20.555952738052252
 31
0.0
  0
LINE
  5
169B7
  8
01
 10
979.41612019949628
 20
-20.555952738052252
 30
0.0
 11
979.76212019949583
 21
-20.555952738052252
 31
0.0
  0
LINE
  5
169B8
  8
01
 10
983.65300908838105
 20
-18.555952738054302
 30
0.0
 11
983.65300908838105
 21
-20.555952738052252
 31
0.0
  0
LINE
  5
169B9
  8
01
 10
985.07412019949049
 20
-18.608597182498539
 30
0.0
 11
985.07412019949049
 21
-20.608597182496499
 31
0.0
  0
LINE
  5
169BA
  8
01
 10
984.758342421713
 20
-19.795686071386271
 30
0.0
 11
983.65300908838105
 21
-18.555974960276309
 31
0.0
  0
LINE
  5
169BB
  8
01
 10
984.758342421713
 20
-18.608597182498539
 30
0.0
 11
984.758342421713
 21
-19.795686071386271
 31
0.0
  0
LINE
  5
169BC
  8
01
 10
981.06825107244515
 20
-20.248597182498639
 30
0.0
 11
980.31100908838425
 21
-18.555974960276309
 31
0.0
  0
LINE
  5
169BD
  8
01
 10
982.10567575504922
 20
-18.608597182498539
 30
0.0
 11
982.10567575504922
 21
-20.004481755179871
 31
0.0
  0
LINE
  5
169BE
  8
01
 10
983.44567575504914
 20
-18.608597182498539
 30
0.0
 11
983.44567575504914
 21
-20.004481755179871
 31
0.0
  0
LINE
  5
169BF
  8
01
 10
983.12567575504909
 20
-18.608597182498539
 30
0.0
 11
983.12567575504909
 21
-20.004481755179871
 31
0.0
  0
LINE
  5
169C0
  8
01
 10
982.42567575504893
 20
-18.608597182498539
 30
0.0
 11
982.42567575504893
 21
-20.004481755179871
 31
0.0
  0
LINE
  5
169C1
  8
01
 10
981.90567575504929
 20
-18.608597182498539
 30
0.0
 11
981.90567575504929
 21
-20.028597182498618
 31
0.0
  0
LINE
  5
169C2
  8
01
 10
981.58567575504935
 20
-18.608597182498539
 30
0.0
 11
981.58567575504935
 21
-20.0485971824986
 31
0.0
  0
LINE
  5
169C3
  8
01
 10
978.02145353283095
 20
-20.555974960274501
 30
0.0
 11
977.12678686616516
 21
-18.555974960276309
 31
0.0
  0
LINE
  5
169C4
  8
01
 10
979.20567575505197
 20
-20.608597182496499
 30
0.0
 11
980.04789797727335
 21
-18.608597182498539
 31
0.0
  0
LINE
  5
169C5
  8
01
 10
978.25834242171948
 20
-20.608597182496499
 30
0.0
 11
977.4161201994981
 21
-18.608597182498539
 31
0.0
  0
LINE
  5
169C6
  8
01
 10
978.25723131060863
 20
-19.819108293608551
 30
0.0
 11
978.73212019949676
 21
-18.555974960276309
 31
0.0
  0
LINE
  5
169C7
  8
01
 10
978.25723131060863
 20
-19.819108293608551
 30
0.0
 11
977.74745353283129
 21
-18.608597182498539
 31
0.0
  0
LINE
  5
169C8
  8
01
 10
979.20700908838535
 20
-19.819108293608551
 30
0.0
 11
979.71656464394039
 21
-18.608597182498539
 31
0.0
  0
LINE
  5
169C9
  8
01
 10
979.20700908838535
 20
-19.819108293608551
 30
0.0
 11
978.73212019949676
 21
-18.555974960276309
 31
0.0
  0
LINE
  5
169CA
  8
01
 10
976.5036757550547
 20
-18.608597182498539
 30
0.0
 11
975.78123131061113
 21
-19.518486071386501
 31
0.0
  0
LINE
  5
169CB
  8
01
 10
976.10034242172185
 20
-18.608597182498539
 30
0.0
 11
975.38989797727788
 21
-19.503330515830939
 31
0.0
  0
LINE
  5
169CC
  8
01
 10
975.38989797727788
 20
-18.608597182498539
 30
0.0
 11
975.38989797727788
 21
-20.555952738052252
 31
0.0
  0
LINE
  5
169CD
  8
01
 10
975.07412019950073
 20
-18.608597182498539
 30
0.0
 11
975.07412019950073
 21
-20.555952738052252
 31
0.0
  0
LINE
  5
169CE
  8
01
 10
976.3314535328326
 20
-20.333730515830311
 30
0.0
 11
977.12678686616516
 21
-18.555952738054302
 31
0.0
  0
LINE
  5
169CF
  8
01
 10
979.41612019949628
 20
-20.555974960274501
 30
0.0
 11
980.31100908838425
 21
-18.555974960276309
 31
0.0
  0
LINE
  5
169D0
  8
01
 10
977.57412019949061
 20
-2.3085971824964271
 30
0.0
 11
978.57412019949072
 21
-2.3085971824964271
 31
0.0
  0
LINE
  5
169D2
  8
01
 10
977.57412019949061
 20
28.191402817503519
 30
0.0
 11
982.57412019949061
 21
28.191402817503519
 31
0.0
  0
LINE
  5
169D3
  8
01
 10
978.07412019949061
 20
50.391402817503497
 30
0.0
 11
982.07412019949061
 21
50.391402817503497
 31
0.0
  0
ARC
  5
169E2
  8
01
 10
1080.156967892925
 20
-46.708597182519988
 30
0.0
 40
3.4000000000002042
 50
120.01328538257511
 51
239.98671461742481
  0
ARC
  5
169E3
  8
01
 10
912.79773962969728
 20
-46.708597227505187
 30
0.0
 40
3.4000000000002042
 50
300.01328535842572
 51
59.98671459326409
  0
LINE
  5
16A08
  8
01
 10
1135.4562851897749
 20
21.191400000000161
 30
0.0
 11
1135.4562851897749
 21
28.191402817505899
 31
0.0
  0
LINE
  5
16A24
  8
01
 10
857.49842237336293
 20
28.191402817505839
 30
0.0
 11
857.4984223733627
 21
21.191402817484249
 31
0.0
  0
LINE
  5
16A5F
  8
01
 10
1079.9562851897749
 20
36.391402817503113
 30
0.0
 11
1081.156285189775
 21
36.391402817503113
 31
0.0
  0
LINE
  5
16A60
  8
01
 10
1079.9562851897749
 20
44.391402817503113
 30
0.0
 11
1081.156285189775
 21
44.391402817503113
 31
0.0
  0
CIRCLE
  5
16A63
  8
01
 10
980.07412019949061
 20
40.391402817503497
 30
0.0
 40
4.4500000000000002
  0
CIRCLE
  5
16A64
  8
01
 10
980.07412019949061
 20
40.391402817503497
 30
0.0
 40
2.7000000000000002
  0
CIRCLE
  5
16A65
  8
01
 10
980.07412019949084
 20
-69.608597182519802
 30
0.0
 40
4.4500000000000002
  0
CIRCLE
  5
16A66
  8
01
 10
980.07412019949084
 20
-69.608597182519802
 30
0.0
 40
2.7000000000000002
  0
ARC
  5
16A6B
  8
01
 10
978.07412019949061
 20
44.391402817503497
 30
0.0
 40
6.0
 50
90.0
 51
180.0
  0
ARC
  5
16A6C
  8
01
 10
982.07412019949061
 20
44.391402817503497
 30
0.0
 40
6.0
 50
0.0
 51
90.0
  0
ARC
  5
16A6D
  8
01
 10
978.07412019949061
 20
-73.608597182519802
 30
0.0
 40
6.0
 50
180.0
 51
270.0
  0
ARC
  5
16A6E
  8
01
 10
982.07412019949061
 20
-73.608597182519802
 30
0.0
 40
6.0
 50
270.0
 51
0.0
  0
LINE
  5
16A6F
  8
01
 10
983.07412019949038
 20
-21.708597182520389
 30
0.0
 11
985.07412019949027
 21
-24.208597182520389
 31
0.0
  0
LINE
  5
16A70
  8
01
 10
975.07412019949038
 20
-24.208597182520389
 30
0.0
 11
977.07412019949027
 21
-21.708597182520389
 31
0.0
  0
TEXT
  5
16A71
  8
01
 10
977.36933374831017
 20
-25.83676152200773
 30
0.0
 40
3.0
  1
KP
  0
LINE
  5
16A72
  8
01
 10
977.07412019949027
 20
-26.708597182520389
 30
0.0
 11
975.07412019949038
 21
-24.208597182520389
 31
0.0
  0
LINE
  5
16A73
  8
01
 10
983.07412019949038
 20
-26.708597182520389
 30
0.0
 11
977.07412019949027
 21
-26.708597182520389
 31
0.0
  0
LINE
  5
16A74
  8
01
 10
985.07412019949027
 20
-24.208597182520389
 30
0.0
 11
983.07412019949038
 21
-26.708597182520389
 31
0.0
  0
LINE
  5
16A75
  8
01
 10
977.07412019949027
 20
-21.708597182520389
 30
0.0
 11
983.07412019949038
 21
-21.708597182520389
 31
0.0
  0
LINE
  5
16A76
  8
01
 10
1066.131131475554
 20
11.452856415772731
 30
0.0
 11
1063.734386069272
 21
6.2812835405199081
 31
0.0
  0
ARC
  5
16A77
  8
01
 10
1074.303546322845
 20
2.191402817503572
 30
0.0
 40
1.0
 50
90.0
 51
169.37661859692199
  0
ARC
  5
16A78
  8
01
 10
1053.663482123143
 20
6.0628043508185812
 30
0.0
 40
20.0
 50
335.52574702183938
 51
349.37661859692201
  0
ARC
  5
16A79
  8
01
 10
1075.4937730000149
 20
9.3004623803972351
 30
0.0
 40
13.0
 50
205.34471138287219
 51
247.7824737632773
  0
ARC
  5
16A7A
  8
01
 10
1070.9562851897749
 20
-1.808597182496654
 30
0.0
 40
1.0
 50
247.7824737632773
 51
335.52574702183938
  0
ARC
  5
16A7B
  8
01
 10
1066.4562851892631
 20
5.0198299422497854
 30
0.0
 40
3.0
 50
155.13481815599809
 51
204.3326182920153
  0
LINE
  5
16A7C
  8
01
 10
1074.303546322845
 20
3.1914028175035152
 30
0.0
 11
1078.4562851897749
 21
3.1914028175037989
 31
0.0
  0
LINE
  5
16A7D
  8
01
 10
1068.8530305955451
 20
13.191402817503
 30
0.0
 11
1078.4562851897749
 21
13.191402817503739
 31
0.0
  0
ARC
  5
16A7E
  8
01
 10
1068.853030595546
 20
10.191402817502659
 30
0.0
 40
3.0
 50
90.0
 51
155.13481815599809
  0
LINE
  5
16A7F
  8
01
 10
926.82357608758423
 20
11.45285641577278
 30
0.0
 11
929.22032149386632
 21
6.2812835405199081
 31
0.0
  0
ARC
  5
16A80
  8
01
 10
917.46093456312315
 20
9.3004623803972351
 30
0.0
 40
13.0
 50
292.21752623672268
 51
334.65528861712778
  0
ARC
  5
16A81
  8
01
 10
939.29122543999517
 20
6.0628043508186371
 30
0.0
 40
20.0
 50
190.6233814030779
 51
204.47425297816051
  0
ARC
  5
16A82
  8
01
 10
921.99842237336304
 20
-1.808597182496654
 30
0.0
 40
1.0
 50
204.47425297816051
 51
292.21752623672268
  0
ARC
  5
16A83
  8
01
 10
918.65116124029259
 20
2.191402817503572
 30
0.0
 40
1.0
 50
10.62338140307795
 51
90.0
  0
LINE
  5
16A84
  8
01
 10
918.65116124029259
 20
3.191402817503572
 30
0.0
 11
914.49842237336293
 21
3.1914028175037989
 31
0.0
  0
ARC
  5
16A85
  8
01
 10
926.4984223738744
 20
5.0198299422497854
 30
0.0
 40
3.0
 50
335.66738170798482
 51
24.865181844001881
  0
LINE
  5
16A86
  8
01
 10
924.10167696759243
 20
13.191402817503
 30
0.0
 11
914.49842237336293
 21
13.1914028175038
 31
0.0
  0
ARC
  5
16A87
  8
01
 10
924.10167696759243
 20
10.191402817502659
 30
0.0
 40
3.0
 50
24.865181844001881
 51
90.0
  0
LINE
  5
16A8B
  8
01
 10
995.07412019949027
 20
56.566563644116187
 30
0.0
 11
995.07412019949084
 21
-181.3310918086749
 31
0.0
  0
LINE
  5
16AEE
  8
01
 10
1116.456285189837
 20
157.27423298708669
 30
0.0
 11
1157.7296872512361
 21
157.27423298708669
 31
0.0
  0
LINE
  5
16AEF
  8
01
 10
1097.456285189837
 20
155.77423298708641
 30
0.0
 11
1135.456285189837
 21
155.77423298708709
 31
0.0
  0
LINE
  5
16AF1
  8
01
 10
1078.3562851897759
 20
157.27423298708661
 30
0.0
 11
1116.456285189837
 21
157.2742329870868
 31
0.0
  0
ARC
  5
16AF2
  8
01
 10
1101.0740764481211
 20
205.6404952383738
 30
0.0
 40
50.0
 50
259.38563382176687
 51
265.8506906847058
  0
ARC
  5
16AF3
  8
01
 10
1091.9562851898361
 20
156.98748009470191
 30
0.0
 40
0.5
 50
180.0
 51
259.3856338217538
  0
LINE
  5
16AF4
  8
01
 10
1091.456285189837
 20
156.98748009470199
 30
0.0
 11
1091.456285189837
 21
157.27423298708669
 31
0.0
  0
ARC
  5
16AF5
  8
01
 10
1097.456285189837
 20
156.77423298708689
 30
0.0
 40
1.0
 50
262.32046010283301
 51
270.0
  0
ARC
  5
16AFE
  8
01
 10
1131.838493931554
 20
205.64049523837369
 30
0.0
 40
50.0
 50
274.23414203062009
 51
280.61436617823313
  0
ARC
  5
16AFF
  8
01
 10
1135.456285189837
 20
156.77423298708709
 30
0.0
 40
1.0
 50
270.0
 51
274.23414203062009
  0
ARC
  5
16B00
  8
01
 10
1140.956285189837
 20
156.9874800947016
 30
0.0
 40
0.5
 50
280.61436617823313
 51
0.0
  0
LINE
  5
16B01
  8
01
 10
1141.456285189837
 20
156.9874800947016
 30
0.0
 11
1141.456285189837
 21
157.27423298708669
 31
0.0
  0
LINE
  5
16B3C
  8
01
 10
1097.4562851898349
 20
188.7742329870859
 30
0.0
 11
1135.4562851898349
 21
188.77423298708749
 31
0.0
  0
LINE
  5
16B3D
  8
01
 10
1116.4562851898349
 20
187.27423298708669
 30
0.0
 11
1157.7296872512361
 21
187.27423298708919
 31
0.0
  0
LINE
  5
16B3E
  8
01
 10
1078.356285189775
 20
187.27423298708459
 30
0.0
 11
1116.4562851898349
 21
187.27423298708649
 31
0.0
  0
ARC
  5
16B3F
  8
01
 10
1097.4562851898349
 20
187.7742329870853
 30
0.0
 40
1.0
 50
90.0
 51
94.234142030633137
  0
ARC
  5
16B40
  8
01
 10
1091.9562851898349
 20
187.56098587947
 30
0.0
 40
0.5
 50
100.6143661782462
 51
180.00000000000321
  0
LINE
  5
16B41
  8
01
 10
1091.4562851898349
 20
187.56098587947
 30
0.0
 11
1091.4562851898349
 21
187.27423298708521
 31
0.0
  0
ARC
  5
16B42
  8
01
 10
1101.0740764481211
 20
138.90797073579881
 30
0.0
 40
50.0
 50
94.234142030633137
 51
100.6143661782462
  0
ARC
  5
16B43
  8
01
 10
1131.8384939315549
 20
138.90797073580069
 30
0.0
 40
50.0
 50
79.385633821766874
 51
85.765857969379965
  0
ARC
  5
16B44
  8
01
 10
1135.4562851898349
 20
187.77423298708749
 30
0.0
 40
1.0
 50
85.765857969379965
 51
90.0
  0
ARC
  5
16B45
  8
01
 10
1140.9562851898349
 20
187.56098587947321
 30
0.0
 40
0.5
 50
0.0000000000032569
 51
79.385633821766874
  0
LINE
  5
16B46
  8
01
 10
1141.4562851898349
 20
187.56098587947321
 30
0.0
 11
1141.4562851898349
 21
187.2742329870882
 31
0.0
  0
LINE
  5
16B50
  8
01
 10
965.07412019949072
 20
56.56656364411613
 30
0.0
 11
965.07412019949072
 21
-181.3310918086749
 31
0.0
  0
LINE
  5
16E28
  8
01
 10
974.28908409500866
 20
40.391400000000068
 30
0.0
 11
985.85908409500871
 21
40.391400000000068
 31
0.0
  0
LINE
  5
16E29
  8
01
 10
980.07408409500852
 20
34.606400000000079
 30
0.0
 11
980.07408409500852
 21
46.176400000000072
 31
0.0
  0
LINE
  5
16E2A
  8
01
 10
976.56408409500852
 20
-69.608599999999925
 30
0.0
 11
983.58408409500851
 21
-69.608599999999925
 31
0.0
  0
LINE
  5
16E2B
  8
01
 10
980.07408409500852
 20
-73.11859999999993
 30
0.0
 11
980.07408409500852
 21
-66.098599999999934
 31
0.0
  0
LINE
  5
16E2C
  8
01
 10
978.57412019949072
 20
-2.808597182496654
 30
0.0
 11
981.57412019949084
 21
-2.808597182496654
 31
0.0
  0
LINE
  5
16E2D
  8
01
 10
981.57412019949084
 20
-2.3085971824964271
 30
0.0
 11
982.57412019949061
 21
-2.3085971824964271
 31
0.0
  0
TEXT
  5
16E3A
  8
01
 10
720.08107389803934
 20
145.3658544032676
 30
0.0
 40
6.0
  1
サテンニッケル
 72
     1
 11
744.48107389803931
 21
145.3658544032676
 31
0.0
  0
TEXT
  5
16E3B
  8
01
 10
720.08107389803934
 20
155.82929183133771
 30
0.0
 40
6.0
  1
パールブラック
 72
     1
 11
744.48107389803931
 21
155.82929183133771
 31
0.0
  0
LINE
  5
16E3C
  8
01
 10
718.38107389803906
 20
142.83222482062411
 30
0.0
 11
838.38107389803906
 21
142.83222482062411
 31
0.0
  0
LINE
  5
16E3D
  8
01
 10
718.38107389803906
 20
142.83222482062411
 30
0.0
 11
823.38107389803906
 21
142.83222482062411
 31
0.0
  0
LINE
  5
16E3E
  8
01
 10
718.38107389803906
 20
132.33222482062411
 30
0.0
 11
838.38107389803906
 21
132.33222482062411
 31
0.0
  0
TEXT
  5
16E3F
  8
01
 10
771.79731208047281
 20
155.26068934514981
 30
0.0
 40
6.0
  1
3-KP-01-GQ
 72
     1
 11
803.65445493761558
 21
155.26068934514981
 31
0.0
  0
TEXT
  5
16E40
  8
01
 10
772.08302636618714
 20
144.76068934514981
 30
0.0
 40
6.0
  1
3-KP-01-XN
 72
     1
 11
803.65445493761558
 21
144.76068934514981
 31
0.0
  0
TEXT
  5
16E41
  8
01
 10
719.88107389803929
 20
134.8658544032676
 30
0.0
 40
6.0
  1
パールクローム
 72
     1
 11
744.48107389803931
 21
134.8658544032676
 31
0.0
  0
TEXT
  5
16E42
  8
01
 10
772.08302636618714
 20
134.26068934514981
 30
0.0
 40
6.0
  1
3-KP-01-XB
 72
     1
 11
803.65445493761558
 21
134.26068934514981
 31
0.0
  0
LINE
  5
16E43
  8
01
 10
1116.456284095008
 20
190.5593826712161
 30
0.0
 11
1116.456284095008
 21
153.27479825744899
 31
0.0
  0
ARC
  5
16E6F
  8
01
 10
1073.856285189775
 20
-46.708597182519988
 30
0.0
 40
3.4000000000002042
 50
90.0
 51
270.0
  0
LINE
  5
16E70
  8
01
 10
1077.136128549324
 20
-50.108597182520683
 30
0.0
 11
1073.856285189775
 21
-50.108597182521052
 31
0.0
  0
LINE
  5
16E71
  8
01
 10
1077.400091698029
 20
-43.308597182519811
 30
0.0
 11
1073.856285189775
 21
-43.308597182519847
 31
0.0
  0
LINE
  5
16E8E
  8
01
 10
1068.8530305955451
 20
23.191402817502951
 30
0.0
 11
1078.4562851897749
 21
23.1914028175037
 31
0.0
  0
LINE
  5
16E9B
  8
01
 10
1066.131131475554
 20
21.452856415772661
 30
0.0
 11
1063.734386069272
 21
16.28128354051983
 31
0.0
  0
ARC
  5
16E9C
  8
01
 10
1053.663482123143
 20
16.062804350818539
 30
0.0
 40
20.0
 50
335.52574702183932
 51
349.37661859692292
  0
ARC
  5
16E9D
  8
01
 10
1075.4937730000149
 20
19.30046238039716
 30
0.0
 40
13.0
 50
205.3447113828729
 51
247.7824737632773
  0
ARC
  5
16E9E
  8
01
 10
1066.456285189264
 20
15.019829942249711
 30
0.0
 40
3.0
 50
155.13481815599809
 51
204.33261829201581
  0
ARC
  5
16E9F
  8
01
 10
1074.3035463228459
 20
12.1914028175035
 30
0.0
 40
1.0
 50
90.0
 51
169.37661859692199
  0
ARC
  5
16EA0
  8
01
 10
1068.853030595546
 20
20.191402817502588
 30
0.0
 40
3.0
 50
90.0
 51
155.13481815599809
  0
ARC
  5
16EA1
  8
01
 10
1070.9562851897749
 20
8.191402817503274
 30
0.0
 40
1.0
 50
247.7824737632773
 51
335.52574702183961
  0
LINE
  5
170E3
  8
01
 10
1122.180020411635
 20
150.5799339219829
 30
0.0
 11
1121.4710027207691
 21
151.2889516128497
 31
0.0
  0
ARC
  5
170EA
  8
01
 10
1129.956284095008
 20
159.77423298708641
 30
0.0
 40
11.999999999999909
 50
199.47122063448899
 51
225.0000000000046
  0
ARC
  5
170F0
  8
01
 10
1123.3024092840431
 20
149.58482427018831
 30
0.0
 40
1.5000000000000779
 50
138.4398127675058
 51
315.0000000000058
  0
LINE
  5
170F1
  8
01
 10
1131.6131383445011
 20
155.77423298708621
 30
0.0
 11
1124.3630694558231
 21
148.52416409840831
 31
0.0
  0
LINE
  5
1724E
  8
01
 10
1135.456284094935
 20
21.191400000000161
 30
0.0
 11
1135.4562840949361
 21
-50.408600000001542
 31
0.0
  0
LINE
  5
1724F
  8
01
 10
1091.4562851898349
 20
-58.608600000003683
 30
0.0
 11
1098.4562840949361
 21
-58.608600000003349
 31
0.0
  0
LINE
  5
17250
  8
01
 10
1110.956284094935
 20
-51.608600000002333
 30
0.0
 11
1134.2562840949349
 21
-51.608600000001637
 31
0.0
  0
LINE
  5
17251
  8
01
 10
1134.2562840949349
 20
-50.408600000001599
 30
0.0
 11
1135.4562840949361
 21
-50.408600000001542
 31
0.0
  0
LINE
  5
17252
  8
01
 10
1134.2562840949349
 20
-50.408600000001599
 30
0.0
 11
1134.2562840949349
 21
-51.608600000001637
 31
0.0
  0
LINE
  5
17253
  8
01
 10
1110.956284094935
 20
-50.408600000002849
 30
0.0
 11
1110.956284094935
 21
-51.608600000002333
 31
0.0
  0
LINE
  5
17254
  8
01
 10
1098.4562840949361
 20
-51.608600000002781
 30
0.0
 11
1108.9562840949361
 21
-51.60860000000244
 31
0.0
  0
LINE
  5
17256
  8
01
 10
1108.9562840949361
 20
-50.408600000003133
 30
0.0
 11
1108.9562840949361
 21
-51.608600000002831
 31
0.0
  0
ARC
  5
17257
  8
01
 10
1119.9562840949291
 20
-53.108600000002887
 30
0.0
 40
3.0
 50
180.0
 51
270.0
  0
ARC
  5
17258
  8
01
 10
1123.9562840949279
 20
-55.608600000003008
 30
0.0
 40
0.5
 50
270.0
 51
359.99999999999682
  0
LINE
  5
17259
  8
01
 10
1119.9562840949291
 20
-56.108600000002902
 30
0.0
 11
1123.9562840949279
 21
-56.108600000003001
 31
0.0
  0
LINE
  5
1725A
  8
01
 10
1116.9562840949291
 20
-51.608600000002163
 30
0.0
 11
1116.9562840949291
 21
-53.108600000002887
 31
0.0
  0
LINE
  5
1725B
  8
01
 10
1124.4562840949279
 20
-53.70860000000291
 30
0.0
 11
1124.4562840949279
 21
-55.608600000003008
 31
0.0
  0
ARC
  5
1725C
  8
01
 10
1126.5562840949281
 20
-53.70860000000286
 30
0.0
 40
2.1000000000000001
 50
90.0
 51
180.0
  0
LINE
  5
17265
  8
01
 10
1108.9562840949361
 20
-50.408600000003133
 30
0.0
 11
1110.956284094935
 21
-50.408600000002849
 31
0.0
  0
LINE
  5
1780E
  8
01
 10
1092.4562840949479
 20
21.191399999999959
 30
0.0
 11
1140.4562840949479
 21
21.19140000000019
 31
0.0
  0
LINE
  5
1780F
  8
01
 10
1098.4562840950091
 20
21.191399999999991
 30
0.0
 11
1098.456284095008
 21
-168.80859999999981
 31
0.0
  0
LINE
  5
17810
  8
01
 10
1134.456284095008
 20
21.191400000000161
 30
0.0
 11
1134.456284095008
 21
-168.80859999999981
 31
0.0
  0
LINE
  5
17811
  8
01
 10
1133.9562840950091
 20
-71.308599999999927
 30
0.0
 11
1133.9562840950091
 21
-146.3085999999999
 31
0.0
  0
ARC
  5
17823
  8
01
 10
1656.543486323633
 20
-108.8086
 30
0.0
 40
540.0
 50
175.85066827788961
 51
184.14933172211039
  0
LINE
  5
17824
  8
01
 10
1141.456284095008
 20
-167.80859999999981
 30
0.0
 11
1141.456284095008
 21
20.191400000000069
 31
0.0
  0
LINE
  5
17825
  8
01
 10
1091.456284095008
 20
-167.80859999999981
 30
0.0
 11
1091.456284095008
 21
20.191400000000069
 31
0.0
  0
LINE
  5
17826
  8
01
 10
1101.4562840950091
 20
-149.3086000000001
 30
0.0
 11
1131.4562840950091
 21
-149.3085999999999
 31
0.0
  0
LINE
  5
17827
  8
01
 10
1092.456284095008
 20
-168.80859999999981
 30
0.0
 11
1140.456284095008
 21
-168.80859999999981
 31
0.0
  0
ARC
  5
17828
  8
01
 10
1092.456284095008
 20
-167.8085999999999
 30
0.0
 40
1.0
 50
179.9999999999967
 51
270.0
  0
ARC
  5
17829
  8
01
 10
1101.456284095008
 20
-146.30860000000001
 30
0.0
 40
3.0
 50
180.0
 51
270.0
  0
ARC
  5
1782B
  8
01
 10
1140.456284095008
 20
-167.80859999999981
 30
0.0
 40
1.0
 50
270.0
 51
0.0000000000016284
  0
LINE
  5
1782C
  8
01
 10
1118.956284095008
 20
-148.80860000000001
 30
0.0
 11
1131.4562840950091
 21
-148.8085999999999
 31
0.0
  0
ARC
  5
1782E
  8
01
 10
1118.956284095008
 20
-147.80860000000001
 30
0.0
 40
1.0
 50
184.14933172211201
 51
270.0
  0
ARC
  5
1782F
  8
01
 10
1131.456284095008
 20
-146.3085999999999
 30
0.0
 40
3.0
 50
270.0
 51
0.0
  0
ARC
  5
17830
  8
01
 10
1131.456284095008
 20
-146.3085999999999
 30
0.0
 40
2.5
 50
270.0
 51
0.0
  0
LINE
  5
17831
  8
01
 10
1131.456284095008
 20
-37.252411122749074
 30
0.0
 11
1131.456284095008
 21
3.9913999999795631
 31
0.0
  0
LINE
  5
17832
  8
01
 10
1101.456284095008
 20
3.9913999999795631
 30
0.0
 11
1101.456284095008
 21
-37.25241112274918
 31
0.0
  0
LINE
  5
17833
  8
01
 10
1100.9562840950689
 20
4.2913999999597356
 30
0.0
 11
1100.9562840950689
 21
-37.308599999998222
 31
0.0
  0
LINE
  5
17834
  8
01
 10
1131.956284095068
 20
-37.308599999998108
 30
0.0
 11
1131.956284095068
 21
4.2913999999598502
 31
0.0
  0
LINE
  5
17835
  8
01
 10
1103.9562840950091
 20
-39.508600000020436
 30
0.0
 11
1128.956284095008
 21
-39.508600000020436
 31
0.0
  0
LINE
  5
17836
  8
01
 10
1128.956284095008
 20
-39.752411122749074
 30
0.0
 11
1103.9562840950091
 21
-39.75241112274918
 31
0.0
  0
LINE
  5
17837
  8
01
 10
1103.956284095068
 20
-40.308599999998222
 30
0.0
 11
1128.956284095068
 21
-40.308599999998108
 31
0.0
  0
LINE
  5
17838
  8
01
 10
1101.456284095008
 20
-68.308600000000155
 30
0.0
 11
1131.456284095008
 21
-68.308599999999927
 31
0.0
  0
ARC
  5
17839
  8
01
 10
1101.456284095008
 20
-71.308600000000155
 30
0.0
 40
3.0
 50
90.0
 51
180.0
  0
ARC
  5
1783A
  8
01
 10
1103.9562840950091
 20
-37.008600000020436
 30
0.0
 40
2.5
 50
180.0
 51
270.0
  0
ARC
  5
1783B
  8
01
 10
1103.9562840950091
 20
-37.25241112274918
 30
0.0
 40
2.5
 50
180.0
 51
270.0
  0
ARC
  5
1783C
  8
01
 10
1103.956284095068
 20
-37.308599999998222
 30
0.0
 40
3.0
 50
180.0
 51
270.0
  0
ARC
  5
1783D
  8
01
 10
1131.456284095008
 20
-71.308599999999927
 30
0.0
 40
3.0
 50
0.0
 51
90.0
  0
ARC
  5
1783E
  8
01
 10
1131.456284095008
 20
-71.308599999999927
 30
0.0
 40
2.5
 50
0.0
 51
90.0
  0
LINE
  5
17840
  8
01
 10
1118.956284095008
 20
-68.808600000000041
 30
0.0
 11
1131.456284095008
 21
-68.808599999999927
 31
0.0
  0
ARC
  5
17841
  8
01
 10
1118.956284095008
 20
-69.808600000000041
 30
0.0
 40
1.0
 50
90.0
 51
175.85066827788799
  0
ARC
  5
17842
  8
01
 10
1128.9562840950091
 20
-37.008600000020436
 30
0.0
 40
2.5
 50
270.0
 51
0.0000000000016284
  0
ARC
  5
17843
  8
01
 10
1128.956284095008
 20
-37.252411122749074
 30
0.0
 40
2.5
 50
270.0
 51
0.0
  0
ARC
  5
17844
  8
01
 10
1128.956284095068
 20
-37.308599999998108
 30
0.0
 40
3.0
 50
270.0
 51
0.0
  0
LINE
  5
17845
  8
01
 10
1106.956284095008
 20
2.4913999999795631
 30
0.0
 11
1125.9562840950091
 21
2.4913999999794489
 31
0.0
  0
LINE
  5
17846
  8
01
 10
1106.956284095008
 20
3.4913999999795631
 30
0.0
 11
1125.9562840950091
 21
3.4913999999794489
 31
0.0
  0
LINE
  5
17847
  8
01
 10
1103.9562840950091
 20
6.4913999999795626
 30
0.0
 11
1128.956284095008
 21
6.4913999999795626
 31
0.0
  0
LINE
  5
17848
  8
01
 10
1103.956284095068
 20
7.2913999999598502
 30
0.0
 11
1128.956284095068
 21
7.2913999999598502
 31
0.0
  0
ARC
  5
1784A
  8
01
 10
1103.9562840950091
 20
3.9913999999794489
 30
0.0
 40
2.5
 50
90.0
 51
180.0
  0
ARC
  5
1784B
  8
01
 10
1103.956284095068
 20
4.2913999999598502
 30
0.0
 40
3.0
 50
90.0
 51
180.00000000000159
  0
ARC
  5
1784C
  8
01
 10
1106.956284095008
 20
2.9913999999794489
 30
0.0
 40
0.5
 50
90.0
 51
270.0
  0
ARC
  5
1784D
  8
01
 10
1092.456284095008
 20
20.19140000000019
 30
0.0
 40
1.0
 50
90.0
 51
180.00000000000159
  0
TEXT
  5
1784E
  8
01
 10
1109.032322211342
 20
-3.515726460461877
 30
0.0
 40
4.0
  1
LOCK
  0
ARC
  5
17850
  8
01
 10
1128.956284095008
 20
3.9913999999795631
 30
0.0
 40
2.5
 50
0.0
 51
90.0
  0
ARC
  5
17851
  8
01
 10
1128.956284095068
 20
4.2913999999598502
 30
0.0
 40
3.0
 50
0.0
 51
90.0
  0
ARC
  5
17852
  8
01
 10
1125.9562840950091
 20
2.9913999999794489
 30
0.0
 40
0.5
 50
270.0
 51
90.0
  0
ARC
  5
17853
  8
01
 10
1140.456284095008
 20
20.19140000000019
 30
0.0
 40
1.0
 50
359.99999999999841
 51
90.0
  0
LINE
  5
17855
  8
01
 10
852.4984223733627
 20
21.191402817484249
 30
0.0
 11
900.49842237336293
 21
21.191402817484249
 31
0.0
  0
LINE
  5
17856
  8
01
 10
873.99842237336281
 20
-68.808597182515868
 30
0.0
 11
861.49842237336281
 21
-68.808597182515754
 31
0.0
  0
LINE
  5
17857
  8
01
 10
891.49842237336293
 20
-68.308597182515982
 30
0.0
 11
861.49842237336281
 21
-68.308597182515754
 31
0.0
  0
LINE
  5
17858
  8
01
 10
891.49842237336225
 20
-149.308597182516
 30
0.0
 11
861.49842237336225
 21
-149.30859718251571
 31
0.0
  0
LINE
  5
17859
  8
01
 10
873.99842237336281
 20
-148.80859718251591
 30
0.0
 11
861.49842237336225
 21
-148.8085971825158
 31
0.0
  0
LINE
  5
1785A
  8
01
 10
852.4984223733627
 20
-168.8085971825158
 30
0.0
 11
900.49842237336293
 21
-168.8085971825158
 31
0.0
  0
LINE
  5
1785B
  8
01
 10
858.49842237336293
 20
21.191402817484231
 30
0.0
 11
858.49842237336293
 21
-168.8085971825158
 31
0.0
  0
LINE
  5
1785C
  8
01
 10
858.99842237336304
 20
-71.308597182515754
 30
0.0
 11
858.99842237336304
 21
-146.30859718251571
 31
0.0
  0
LINE
  5
1785D
  8
01
 10
851.4984223733627
 20
-167.80859718251571
 30
0.0
 11
851.4984223733627
 21
20.191402817484249
 31
0.0
  0
ARC
  5
1785E
  8
01
 10
852.4984223733627
 20
-167.80859718251571
 30
0.0
 40
1.0
 50
180.0
 51
270.0
  0
ARC
  5
1785F
  8
01
 10
861.49842237336259
 20
-146.30859718251571
 30
0.0
 40
3.0
 50
180.0
 51
270.0
  0
ARC
  5
17860
  8
01
 10
861.49842237336259
 20
-146.30859718251571
 30
0.0
 40
2.5
 50
180.0
 51
270.0
  0
ARC
  5
17861
  8
01
 10
861.49842237336281
 20
-71.308597182515754
 30
0.0
 40
3.0
 50
90.0
 51
180.0
  0
ARC
  5
17862
  8
01
 10
861.49842237336281
 20
-71.308597182515754
 30
0.0
 40
2.5
 50
90.0
 51
180.0
  0
ARC
  5
17863
  8
01
 10
852.4984223733627
 20
20.191402817484249
 30
0.0
 40
1.0
 50
90.0
 51
180.00000000000489
  0
LINE
  5
17875
  8
01
 10
894.49842237336281
 20
21.191402817484231
 30
0.0
 11
894.49842237336281
 21
-168.8085971825158
 31
0.0
  0
ARC
  5
17876
  8
01
 10
336.41122014473831
 20
-108.8085971825158
 30
0.0
 40
540.0
 50
355.85066827788961
 51
4.1493317221103894
  0
LINE
  5
17877
  8
01
 10
901.49842237336293
 20
-167.80859718251571
 30
0.0
 11
901.49842237336293
 21
20.191402817484249
 31
0.0
  0
ARC
  5
1787A
  8
01
 10
873.99842237336281
 20
-147.80859718251591
 30
0.0
 40
1.0
 50
270.0
 51
355.85066827788961
  0
ARC
  5
1787B
  8
01
 10
900.4984223733627
 20
-167.80859718251571
 30
0.0
 40
1.0
 50
270.0
 51
359.99999999999841
  0
ARC
  5
1787C
  8
01
 10
891.4984223733627
 20
-146.308597182516
 30
0.0
 40
3.0
 50
270.0
 51
0.0
  0
ARC
  5
1787D
  8
01
 10
873.99842237336281
 20
-69.808597182515854
 30
0.0
 40
1.0
 50
4.1493317221103894
 51
90.0
  0
ARC
  5
1787F
  8
01
 10
891.49842237336293
 20
-71.308597182515982
 30
0.0
 40
3.0
 50
0.0
 51
90.0
  0
CIRCLE
  5
17882
  8
01
 10
876.49842237330256
 20
-21.808597182515751
 30
0.0
 40
1.1999999999999991
  0
ARC
  5
17884
  8
01
 10
900.49842237336293
 20
20.191402817484249
 30
0.0
 40
1.0
 50
359.99999999999511
 51
90.0
  0
LINE
  5
1788F
  8
01
 10
996.57408409500806
 20
20.691399999980991
 30
0.0
 11
996.57408409500897
 21
-168.308600000019
 31
0.0
  0
LINE
  5
17891
  8
01
 10
963.5740840950084
 20
20.69139999998087
 30
0.0
 11
963.57408409500931
 21
-168.30860000001911
 31
0.0
  0
ARC
  5
1789D
  8
01
 10
964.0740840950092
 20
-168.30860000001911
 30
0.0
 40
0.5
 50
180.0
 51
270.0
  0
LINE
  5
1789E
  8
01
 10
965.0740840950092
 20
-168.80860000001911
 30
0.0
 11
964.0740840950092
 21
-168.80860000001911
 31
0.0
  0
ARC
  5
178A4
  8
01
 10
996.07408409500908
 20
-168.308600000019
 30
0.0
 40
0.5
 50
270.0
 51
0.0
  0
LINE
  5
178A5
  8
01
 10
995.07408409500908
 20
-168.808600000019
 30
0.0
 11
996.07408409500908
 21
-168.808600000019
 31
0.0
  0
ARC
  5
178D8
  8
01
 10
996.07408409500817
 20
20.691399999980991
 30
0.0
 40
0.5
 50
0.0
 51
90.0
  0
LINE
  5
178D9
  8
01
 10
995.0740840950084
 20
21.191399999980991
 30
0.0
 11
996.07408409500817
 21
21.191399999980991
 31
0.0
  0
LINE
  5
178DE
  8
01
 10
1118.582483963537
 20
13.818517833134679
 30
0.0
 11
1117.08344759121
 21
13.818528296985249
 31
0.0
  0
LINE
  5
178DF
  8
01
 10
1117.08343712742
 20
15.317555914235379
 30
0.0
 11
1115.829197231714
 21
15.317564669312359
 31
0.0
  0
LINE
  5
178E0
  8
01
 10
1117.08343712742
 20
15.317555914235379
 30
0.0
 11
1117.08344759121
 21
13.818528296985249
 31
0.0
  0
LINE
  5
178E1
  8
01
 10
1118.58247520846
 20
12.564277937428439
 30
0.0
 11
1118.582483963537
 21
13.818517833134679
 31
0.0
  0
LINE
  5
178E2
  8
01
 10
1118.58247520846
 20
12.564277937428439
 30
0.0
 11
1117.083456346433
 21
12.564267473700079
 31
0.0
  0
LINE
  5
178E3
  8
01
 10
1117.083456346433
 20
12.564267473700079
 30
0.0
 11
1117.083466810283
 21
11.06523110110467
 31
0.0
  0
LINE
  5
178E4
  8
01
 10
1115.8291780125801
 20
12.564258718354809
 30
0.0
 11
1114.3301503953289
 21
12.564248254565401
 31
0.0
  0
LINE
  5
178E5
  8
01
 10
1115.8291780125801
 20
12.564258718354809
 30
0.0
 11
1115.829167548851
 21
11.06523985659598
 31
0.0
  0
LINE
  5
178E6
  8
01
 10
1115.829167548851
 20
11.06523985659598
 30
0.0
 11
1117.083466810283
 21
11.06523110110467
 31
0.0
  0
LINE
  5
178E7
  8
01
 10
1115.829186767925
 20
13.81853705220831
 30
0.0
 11
1114.3301591508209
 21
13.81854751599772
 31
0.0
  0
LINE
  5
178E8
  8
01
 10
1114.3301591508209
 20
13.81854751599772
 30
0.0
 11
1114.3301503953289
 21
12.564248254565401
 31
0.0
  0
LINE
  5
178E9
  8
01
 10
1115.829197231714
 20
15.317564669312359
 30
0.0
 11
1115.829186767925
 21
13.81853705220831
 31
0.0
  0
LINE
  5
178EA
  8
01
 10
1118.582483963537
 20
-160.18148216686501
 30
0.0
 11
1117.08344759121
 21
-160.18147170301441
 31
0.0
  0
LINE
  5
178EB
  8
01
 10
1117.08343712742
 20
-158.6824440857643
 30
0.0
 11
1115.829197231714
 21
-158.6824353306873
 31
0.0
  0
LINE
  5
178EC
  8
01
 10
1117.08343712742
 20
-158.6824440857643
 30
0.0
 11
1117.08344759121
 21
-160.18147170301441
 31
0.0
  0
LINE
  5
178ED
  8
01
 10
1118.58247520846
 20
-161.4357220625713
 30
0.0
 11
1118.582483963537
 21
-160.18148216686501
 31
0.0
  0
LINE
  5
178EE
  8
01
 10
1118.58247520846
 20
-161.4357220625713
 30
0.0
 11
1117.083456346433
 21
-161.4357325262996
 31
0.0
  0
LINE
  5
178EF
  8
01
 10
1117.083456346433
 20
-161.4357325262996
 30
0.0
 11
1117.083466810283
 21
-162.93476889889499
 31
0.0
  0
LINE
  5
178F0
  8
01
 10
1115.8291780125801
 20
-161.43574128164491
 30
0.0
 11
1114.3301503953289
 21
-161.43575174543429
 31
0.0
  0
LINE
  5
178F1
  8
01
 10
1115.8291780125801
 20
-161.43574128164491
 30
0.0
 11
1115.829167548851
 21
-162.93476014340371
 31
0.0
  0
LINE
  5
178F2
  8
01
 10
1115.829167548851
 20
-162.93476014340371
 30
0.0
 11
1117.083466810283
 21
-162.93476889889499
 31
0.0
  0
LINE
  5
178F3
  8
01
 10
1115.829186767925
 20
-160.1814629477914
 30
0.0
 11
1114.3301591508209
 21
-160.18145248400199
 31
0.0
  0
LINE
  5
178F4
  8
01
 10
1114.3301591508209
 20
-160.18145248400199
 30
0.0
 11
1114.3301503953289
 21
-161.43575174543429
 31
0.0
  0
LINE
  5
178F5
  8
01
 10
1115.829197231714
 20
-158.6824353306873
 30
0.0
 11
1115.829186767925
 21
-160.1814629477914
 31
0.0
  0
ARC
  5
17910
  8
01
 10
876.49842237330256
 20
-16.631691991115972
 30
0.0
 40
3.0
 50
0.0
 51
180.0
  0
LINE
  5
17911
  8
01
 10
873.49842237330267
 20
-16.631691991115972
 30
0.0
 11
873.49842237330267
 21
-21.808597182515751
 31
0.0
  0
LINE
  5
17912
  8
01
 10
879.49842237330256
 20
-16.631691991115972
 30
0.0
 11
879.49842237330256
 21
-21.808597182515751
 31
0.0
  0
ARC
  5
17913
  8
01
 10
876.49842237330256
 20
-21.808597182515751
 30
0.0
 40
3.0
 50
180.0
 51
0.0
  0
CIRCLE
  5
17916
  8
01
 10
876.49842237330256
 20
-21.808597182515751
 30
0.0
 40
2.0
  0
CIRCLE
  5
17917
  8
01
 10
876.49842237330256
 20
-16.631691991115972
 30
0.0
 40
2.75
  0
CIRCLE
  5
1792F
  8
01
 10
1116.456284095008
 20
13.191400000000071
 30
0.0
 40
3.1000000000000001
  0
CIRCLE
  5
17930
  8
01
 10
1116.456284095008
 20
-160.80859999999959
 30
0.0
 40
3.1000000000000001
  0
LINE
  5
1793D
  8
01
 10
1110.049453531482
 20
-152.30859999999981
 30
0.0
 11
1110.654453531482
 21
-152.30859999999981
 31
0.0
  0
LINE
  5
1793E
  8
01
 10
1110.654453531482
 20
-152.30859999999981
 30
0.0
 11
1109.570786864816
 21
-153.67343333333179
 31
0.0
  0
LINE
  5
1793F
  8
01
 10
1110.049453531482
 20
-155.22963333333041
 30
0.0
 11
1110.765786864815
 21
-155.22963333333041
 31
0.0
  0
LINE
  5
17940
  8
01
 10
1110.396120198149
 20
-154.8962999999975
 30
0.0
 11
1109.570786864816
 21
-153.67343333333179
 31
0.0
  0
LINE
  5
17942
  8
01
 10
1108.5101201981511
 20
-152.30859999999981
 30
0.0
 11
1108.9837868648169
 21
-152.30859999999981
 31
0.0
  0
LINE
  5
17943
  8
01
 10
1110.049453531482
 20
-152.30859999999981
 30
0.0
 11
1108.9837868648169
 21
-153.65069999999841
 31
0.0
  0
LINE
  5
17944
  8
01
 10
1108.5101201981511
 20
-155.22963333333041
 30
0.0
 11
1108.9837868648169
 21
-155.22963333333041
 31
0.0
  0
LINE
  5
17945
  8
01
 10
1110.049453531482
 20
-155.2296666666638
 30
0.0
 11
1108.9837868648169
 21
-153.65069999999841
 31
0.0
  0
LINE
  5
17946
  8
01
 10
1108.9837868648169
 20
-152.30859999999981
 30
0.0
 11
1108.9837868648169
 21
-155.22963333333041
 31
0.0
  0
LINE
  5
17947
  8
01
 10
1108.5101201981511
 20
-152.30859999999981
 30
0.0
 11
1108.5101201981511
 21
-155.22963333333041
 31
0.0
  0
LINE
  5
17948
  8
01
 10
1119.5374535314729
 20
-152.30859999999981
 30
0.0
 11
1119.0574535314729
 21
-152.30859999999981
 31
0.0
  0
ARC
  5
17949
  8
01
 10
1119.927453531473
 20
-154.4024268590218
 30
0.0
 40
0.8699999999999999
 50
180.0
 51
240.00000000002851
  0
LINE
  5
1794A
  8
01
 10
1118.2774535314741
 20
-152.30859999999981
 30
0.0
 11
1118.7574535314741
 21
-152.30859999999981
 31
0.0
  0
LINE
  5
1794B
  8
01
 10
1117.501316507567
 20
-154.76859999999999
 30
0.0
 11
1117.9774535314741
 21
-154.76859999999999
 31
0.0
  0
ARC
  5
1794C
  8
01
 10
1117.9774535314741
 20
-154.4685999999999
 30
0.0
 40
0.3
 50
270.0
 51
0.0
  0
ARC
  5
1794D
  8
01
 10
1117.9774535314741
 20
-154.43859999999989
 30
0.0
 40
0.7800000000000001
 50
270.0
 51
0.0
  0
LINE
  5
1794E
  8
01
 10
1119.0574535314729
 20
-152.30859999999981
 30
0.0
 11
1119.0574535314729
 21
-154.4024268590218
 31
0.0
  0
LINE
  5
1794F
  8
01
 10
1118.7574535314741
 20
-152.30859999999981
 30
0.0
 11
1118.7574535314741
 21
-154.43859999999989
 31
0.0
  0
LINE
  5
17950
  8
01
 10
1118.2774535314741
 20
-152.30859999999981
 30
0.0
 11
1118.2774535314741
 21
-154.4685999999999
 31
0.0
  0
LINE
  5
17951
  8
01
 10
1114.707453531478
 20
-155.30859999999669
 30
0.0
 11
1113.997120198145
 21
-153.4186666666655
 31
0.0
  0
LINE
  5
17952
  8
01
 10
1114.7094535314779
 20
-154.1243666666648
 30
0.0
 11
1113.997120198145
 21
-152.2296666666665
 31
0.0
  0
LINE
  5
17953
  8
01
 10
1112.0231201981469
 20
-152.30859999999981
 30
0.0
 11
1112.520120198147
 21
-152.30859999999981
 31
0.0
  0
LINE
  5
17954
  8
01
 10
1111.3134535314809
 20
-154.00596666666499
 30
0.0
 11
1111.8647868648141
 21
-154.00596666666499
 31
0.0
  0
LINE
  5
17955
  8
01
 10
1111.8647868648141
 20
-154.00596666666499
 30
0.0
 11
1111.5891201981481
 21
-153.38959999999869
 31
0.0
  0
LINE
  5
17956
  8
01
 10
1111.3134535314809
 20
-154.00596666666499
 30
0.0
 11
1111.5891201981481
 21
-153.38959999999869
 31
0.0
  0
LINE
  5
17957
  8
01
 10
1111.119120198148
 20
-154.4401666666646
 30
0.0
 11
1112.059120198147
 21
-154.4401666666646
 31
0.0
  0
LINE
  5
17958
  8
01
 10
1112.412120198147
 20
-155.22963333333041
 30
0.0
 11
1112.9311201981459
 21
-155.22963333333041
 31
0.0
  0
LINE
  5
17959
  8
01
 10
1112.412120198147
 20
-155.2296666666638
 30
0.0
 11
1112.059120198147
 21
-154.4401666666646
 31
0.0
  0
LINE
  5
1795A
  8
01
 10
1112.9311201981459
 20
-155.2296666666638
 30
0.0
 11
1111.5891201981481
 21
-152.2296666666665
 31
0.0
  0
LINE
  5
1795B
  8
01
 10
1113.2864535314791
 20
-155.30859999999669
 30
0.0
 11
1113.997120198145
 21
-153.4186666666655
 31
0.0
  0
LINE
  5
1795C
  8
01
 10
1113.2864535314791
 20
-155.30859999999669
 30
0.0
 11
1112.0231201981469
 21
-152.30859999999981
 31
0.0
  0
LINE
  5
1795D
  8
01
 10
1113.284786864813
 20
-154.1243666666648
 30
0.0
 11
1113.997120198145
 21
-152.2296666666665
 31
0.0
  0
LINE
  5
1795E
  8
01
 10
1113.284786864813
 20
-154.1243666666648
 30
0.0
 11
1112.520120198147
 21
-152.30859999999981
 31
0.0
  0
LINE
  5
1795F
  8
01
 10
1116.0897868648101
 20
-154.00596666666499
 30
0.0
 11
1116.6411201981421
 21
-154.00596666666499
 31
0.0
  0
LINE
  5
17960
  8
01
 10
1116.0897868648101
 20
-154.00596666666499
 30
0.0
 11
1116.3654535314761
 21
-153.38959999999869
 31
0.0
  0
LINE
  5
17961
  8
01
 10
1116.6411201981421
 20
-154.00596666666499
 30
0.0
 11
1116.3654535314761
 21
-153.38959999999869
 31
0.0
  0
LINE
  5
17962
  8
01
 10
1115.473786864811
 20
-152.30859999999981
 30
0.0
 11
1115.97078686481
 21
-152.30859999999981
 31
0.0
  0
LINE
  5
17963
  8
01
 10
1117.183505420858
 20
-155.2185999999999
 30
0.0
 11
1116.8354535314761
 21
-154.4401666666646
 31
0.0
  0
LINE
  5
17964
  8
01
 10
1115.0231201981439
 20
-155.22963333333041
 30
0.0
 11
1115.5421201981439
 21
-155.22963333333041
 31
0.0
  0
LINE
  5
17965
  8
01
 10
1115.5421201981439
 20
-155.2296666666638
 30
0.0
 11
1115.895453531477
 21
-154.4401666666646
 31
0.0
  0
LINE
  5
17966
  8
01
 10
1115.895453531477
 20
-154.4401666666646
 30
0.0
 11
1116.8354535314761
 21
-154.4401666666646
 31
0.0
  0
LINE
  5
17967
  8
01
 10
1114.707453531478
 20
-155.30859999999669
 30
0.0
 11
1115.97078686481
 21
-152.30859999999981
 31
0.0
  0
LINE
  5
17968
  8
01
 10
1114.7094535314779
 20
-154.1243666666648
 30
0.0
 11
1115.473786864811
 21
-152.30859999999981
 31
0.0
  0
LINE
  5
17969
  8
01
 10
1115.0231201981439
 20
-155.2296666666638
 30
0.0
 11
1116.3654535314761
 21
-152.2296666666665
 31
0.0
  0
LINE
  5
1796A
  8
01
 10
1117.183505420858
 20
-155.2185999999999
 30
0.0
 11
1117.9774535314741
 21
-155.2185999999999
 31
0.0
  0
LINE
  5
1796B
  8
01
 10
1117.501316507567
 20
-154.76859999999999
 30
0.0
 11
1116.3654535314761
 21
-152.2296666666665
 31
0.0
  0
LINE
  5
1796C
  8
01
 10
1110.765786864815
 20
-155.2296666666638
 30
0.0
 11
1111.119120198148
 21
-154.4401666666646
 31
0.0
  0
LINE
  5
1796D
  8
01
 10
1110.396120198149
 20
-154.8962999999975
 30
0.0
 11
1111.5891201981481
 21
-152.22963333333351
 31
0.0
  0
ARC
  5
1796E
  8
01
 10
1120.0624535314739
 20
-154.1685999999998
 30
0.0
 40
0.6599999999999966
 50
240.00000000002851
 51
299.99999999996982
  0
ARC
  5
1796F
  8
01
 10
1120.0624535314739
 20
-154.1685999999998
 30
0.0
 40
1.1400000000000019
 50
240.00000000002851
 51
299.99999999997152
  0
ARC
  5
17970
  8
01
 10
1119.927453531473
 20
-154.4024268590218
 30
0.0
 40
0.39
 50
180.0
 51
240.00000000002851
  0
LINE
  5
17971
  8
01
 10
1119.5374535314729
 20
-152.30859999999981
 30
0.0
 11
1119.5374535314729
 21
-154.4024268590218
 31
0.0
  0
LINE
  5
17972
  8
01
 10
1123.03645353147
 20
-152.30859999999981
 30
0.0
 11
1123.5101201981361
 21
-152.30859999999981
 31
0.0
  0
LINE
  5
17973
  8
01
 10
1123.03645353147
 20
-152.30859999999981
 30
0.0
 11
1123.03645353147
 21
-154.08923333333141
 31
0.0
  0
LINE
  5
17974
  8
01
 10
1121.0674535314729
 20
-152.30859999999981
 30
0.0
 11
1120.5874535314731
 21
-152.30859999999981
 31
0.0
  0
LINE
  5
17975
  8
01
 10
1123.03645353147
 20
-154.08923333333141
 30
0.0
 11
1121.378453531471
 21
-152.2296666666665
 31
0.0
  0
LINE
  5
17976
  8
01
 10
1121.378453531471
 20
-155.22963333333041
 30
0.0
 11
1121.8521201981371
 21
-155.22963333333041
 31
0.0
  0
ARC
  5
17977
  8
01
 10
1120.197453531473
 20
-154.4024268590218
 30
0.0
 40
0.39
 50
299.99999999996982
 51
0.0
  0
ARC
  5
17978
  8
01
 10
1120.197453531473
 20
-154.4024268590218
 30
0.0
 40
0.8699999999999999
 50
299.99999999997152
 51
0.0
  0
LINE
  5
17979
  8
01
 10
1123.5101201981361
 20
-155.30859999999669
 30
0.0
 11
1121.8521201981371
 21
-153.4490333333321
 31
0.0
  0
LINE
  5
1797A
  8
01
 10
1121.8521201981371
 20
-153.4490333333321
 30
0.0
 11
1121.8521201981371
 21
-155.22963333333041
 31
0.0
  0
LINE
  5
1797B
  8
01
 10
1121.378453531471
 20
-152.22963333333351
 30
0.0
 11
1121.378453531471
 21
-155.22963333333041
 31
0.0
  0
LINE
  5
1797C
  8
01
 10
1123.5101201981361
 20
-152.30859999999981
 30
0.0
 11
1123.5101201981361
 21
-155.30859999999669
 31
0.0
  0
LINE
  5
1797D
  8
01
 10
1121.0674535314729
 20
-152.30859999999981
 30
0.0
 11
1121.0674535314729
 21
-154.4024268590218
 31
0.0
  0
LINE
  5
1797E
  8
01
 10
1120.5874535314731
 20
-152.30859999999981
 30
0.0
 11
1120.5874535314731
 21
-154.4024268590218
 31
0.0
  0
LINE
  5
1797F
  8
01
 10
870.0915918098367
 20
-152.30859718251571
 30
0.0
 11
870.69659180983604
 21
-152.30859718251571
 31
0.0
  0
LINE
  5
17980
  8
01
 10
870.69659180983604
 20
-152.30859718251571
 30
0.0
 11
869.6129251431704
 21
-153.67343051584771
 31
0.0
  0
LINE
  5
17981
  8
01
 10
870.0915918098367
 20
-155.22963051584631
 30
0.0
 11
870.80792514316965
 21
-155.22963051584631
 31
0.0
  0
LINE
  5
17982
  8
01
 10
870.43825847650305
 20
-154.89629718251339
 30
0.0
 11
869.6129251431704
 21
-153.67343051584771
 31
0.0
  0
LINE
  5
17984
  8
01
 10
868.5522584765049
 20
-152.30859718251571
 30
0.0
 11
869.02592514317098
 21
-152.30859718251571
 31
0.0
  0
LINE
  5
17985
  8
01
 10
870.0915918098367
 20
-152.30859718251571
 30
0.0
 11
869.02592514317098
 21
-153.65069718251431
 31
0.0
  0
LINE
  5
17986
  8
01
 10
868.5522584765049
 20
-155.22963051584631
 30
0.0
 11
869.02592514317098
 21
-155.22963051584631
 31
0.0
  0
LINE
  5
17987
  8
01
 10
870.0915918098367
 20
-155.2296638491797
 30
0.0
 11
869.02592514317098
 21
-153.65069718251431
 31
0.0
  0
LINE
  5
17988
  8
01
 10
869.02592514317098
 20
-152.30859718251571
 30
0.0
 11
869.02592514317098
 21
-155.22963051584631
 31
0.0
  0
LINE
  5
17989
  8
01
 10
868.5522584765049
 20
-152.30859718251571
 30
0.0
 11
868.5522584765049
 21
-155.22963051584631
 31
0.0
  0
LINE
  5
1798A
  8
01
 10
879.57959180982743
 20
-152.30859718251571
 30
0.0
 11
879.09959180982764
 21
-152.30859718251571
 31
0.0
  0
ARC
  5
1798B
  8
01
 10
879.96959180982765
 20
-154.4024240415377
 30
0.0
 40
0.8699999999999999
 50
180.0
 51
240.00000000002851
  0
LINE
  5
1798C
  8
01
 10
878.31959180982813
 20
-152.30859718251571
 30
0.0
 11
878.7995918098278
 21
-152.30859718251571
 31
0.0
  0
LINE
  5
1798D
  8
01
 10
877.54345478592165
 20
-154.76859718251589
 30
0.0
 11
878.01959180982794
 21
-154.76859718251589
 31
0.0
  0
ARC
  5
1798E
  8
01
 10
878.01959180982794
 20
-154.46859718251579
 30
0.0
 40
0.3
 50
270.0
 51
0.0
  0
ARC
  5
1798F
  8
01
 10
878.01959180982794
 20
-154.43859718251591
 30
0.0
 40
0.7800000000000001
 50
270.0
 51
0.0
  0
LINE
  5
17990
  8
01
 10
879.09959180982764
 20
-152.30859718251571
 30
0.0
 11
879.09959180982764
 21
-154.4024240415377
 31
0.0
  0
LINE
  5
17991
  8
01
 10
878.7995918098278
 20
-152.30859718251571
 30
0.0
 11
878.7995918098278
 21
-154.43859718251591
 31
0.0
  0
LINE
  5
17992
  8
01
 10
878.31959180982813
 20
-152.30859718251571
 30
0.0
 11
878.31959180982813
 21
-154.46859718251579
 31
0.0
  0
LINE
  5
17993
  8
01
 10
874.74959180983205
 20
-155.3085971825127
 30
0.0
 11
874.0392584764993
 21
-153.41866384918151
 31
0.0
  0
LINE
  5
17994
  8
01
 10
874.75159180983201
 20
-154.12436384918081
 30
0.0
 11
874.0392584764993
 21
-152.2296638491824
 31
0.0
  0
LINE
  5
17995
  8
01
 10
872.06525847650119
 20
-152.30859718251571
 30
0.0
 11
872.56225847650114
 21
-152.30859718251571
 31
0.0
  0
LINE
  5
17996
  8
01
 10
871.35559180983535
 20
-154.00596384918089
 30
0.0
 11
871.90692514316834
 21
-154.00596384918089
 31
0.0
  0
LINE
  5
17997
  8
01
 10
871.90692514316834
 20
-154.00596384918089
 30
0.0
 11
871.63125847650178
 21
-153.38959718251459
 31
0.0
  0
LINE
  5
17998
  8
01
 10
871.35559180983535
 20
-154.00596384918089
 30
0.0
 11
871.63125847650178
 21
-153.38959718251459
 31
0.0
  0
LINE
  5
17999
  8
01
 10
871.16125847650221
 20
-154.44016384918049
 30
0.0
 11
872.10125847650147
 21
-154.44016384918049
 31
0.0
  0
LINE
  5
1799A
  8
01
 10
872.45425847650108
 20
-155.22963051584631
 30
0.0
 11
872.9732584765004
 21
-155.22963051584631
 31
0.0
  0
LINE
  5
1799B
  8
01
 10
872.45425847650108
 20
-155.2296638491797
 30
0.0
 11
872.10125847650147
 21
-154.44016384918049
 31
0.0
  0
LINE
  5
1799C
  8
01
 10
872.9732584765004
 20
-155.2296638491797
 30
0.0
 11
871.63125847650178
 21
-152.2296638491824
 31
0.0
  0
LINE
  5
1799D
  8
01
 10
873.32859180983326
 20
-155.3085971825127
 30
0.0
 11
874.0392584764993
 21
-153.41866384918151
 31
0.0
  0
LINE
  5
1799E
  8
01
 10
873.32859180983326
 20
-155.3085971825127
 30
0.0
 11
872.06525847650119
 21
-152.30859718251571
 31
0.0
  0
LINE
  5
1799F
  8
01
 10
873.32692514316705
 20
-154.12436384918081
 30
0.0
 11
874.0392584764993
 21
-152.2296638491824
 31
0.0
  0
LINE
  5
179A0
  8
01
 10
873.32692514316705
 20
-154.12436384918081
 30
0.0
 11
872.56225847650114
 21
-152.30859718251571
 31
0.0
  0
LINE
  5
179A1
  8
01
 10
876.13192514316415
 20
-154.00596384918089
 30
0.0
 11
876.68325847649658
 21
-154.00596384918089
 31
0.0
  0
LINE
  5
179A2
  8
01
 10
876.13192514316415
 20
-154.00596384918089
 30
0.0
 11
876.40759180983025
 21
-153.38959718251459
 31
0.0
  0
LINE
  5
179A3
  8
01
 10
876.68325847649658
 20
-154.00596384918089
 30
0.0
 11
876.40759180983025
 21
-153.38959718251459
 31
0.0
  0
LINE
  5
179A4
  8
01
 10
875.51592514316462
 20
-152.30859718251571
 30
0.0
 11
876.01292514316401
 21
-152.30859718251571
 31
0.0
  0
LINE
  5
179A5
  8
01
 10
877.22564369921224
 20
-155.21859718251579
 30
0.0
 11
876.87759180982994
 21
-154.44016384918049
 31
0.0
  0
LINE
  5
179A6
  8
01
 10
875.06525847649812
 20
-155.22963051584631
 30
0.0
 11
875.58425847649767
 21
-155.22963051584631
 31
0.0
  0
LINE
  5
179A7
  8
01
 10
875.58425847649767
 20
-155.2296638491797
 30
0.0
 11
875.93759180983079
 21
-154.44016384918049
 31
0.0
  0
LINE
  5
179A8
  8
01
 10
875.93759180983079
 20
-154.44016384918049
 30
0.0
 11
876.87759180982994
 21
-154.44016384918049
 31
0.0
  0
LINE
  5
179A9
  8
01
 10
874.74959180983205
 20
-155.3085971825127
 30
0.0
 11
876.01292514316401
 21
-152.30859718251571
 31
0.0
  0
LINE
  5
179AA
  8
01
 10
874.75159180983201
 20
-154.12436384918081
 30
0.0
 11
875.51592514316462
 21
-152.30859718251571
 31
0.0
  0
LINE
  5
179AB
  8
01
 10
875.06525847649812
 20
-155.2296638491797
 30
0.0
 11
876.40759180983025
 21
-152.2296638491824
 31
0.0
  0
LINE
  5
179AC
  8
01
 10
877.22564369921224
 20
-155.21859718251579
 30
0.0
 11
878.01959180982794
 21
-155.21859718251579
 31
0.0
  0
LINE
  5
179AD
  8
01
 10
877.54345478592165
 20
-154.76859718251589
 30
0.0
 11
876.40759180983025
 21
-152.2296638491824
 31
0.0
  0
LINE
  5
179AE
  8
01
 10
870.80792514316965
 20
-155.2296638491797
 30
0.0
 11
871.16125847650221
 21
-154.44016384918049
 31
0.0
  0
LINE
  5
179AF
  8
01
 10
870.43825847650305
 20
-154.89629718251339
 30
0.0
 11
871.63125847650178
 21
-152.22963051584941
 31
0.0
  0
ARC
  5
179B0
  8
01
 10
880.10459180982775
 20
-154.16859718251581
 30
0.0
 40
0.6599999999999966
 50
240.00000000002851
 51
299.99999999996982
  0
ARC
  5
179B1
  8
01
 10
880.10459180982775
 20
-154.16859718251581
 30
0.0
 40
1.1400000000000019
 50
240.00000000002851
 51
299.99999999997152
  0
ARC
  5
179B2
  8
01
 10
879.96959180982765
 20
-154.4024240415377
 30
0.0
 40
0.39
 50
180.0
 51
240.00000000002851
  0
LINE
  5
179B3
  8
01
 10
879.57959180982743
 20
-152.30859718251571
 30
0.0
 11
879.57959180982743
 21
-154.4024240415377
 31
0.0
  0
LINE
  5
179B4
  8
01
 10
883.07859180982371
 20
-152.30859718251571
 30
0.0
 11
883.55225847648978
 21
-152.30859718251571
 31
0.0
  0
LINE
  5
179B5
  8
01
 10
883.07859180982371
 20
-152.30859718251571
 30
0.0
 11
883.07859180982371
 21
-154.08923051584731
 31
0.0
  0
LINE
  5
179B6
  8
01
 10
881.10959180982763
 20
-152.30859718251571
 30
0.0
 11
880.62959180982762
 21
-152.30859718251571
 31
0.0
  0
LINE
  5
179B7
  8
01
 10
883.07859180982371
 20
-154.08923051584731
 30
0.0
 11
881.4205918098254
 21
-152.2296638491824
 31
0.0
  0
LINE
  5
179B8
  8
01
 10
881.4205918098254
 20
-155.22963051584631
 30
0.0
 11
881.89425847649125
 21
-155.22963051584631
 31
0.0
  0
ARC
  5
179B9
  8
01
 10
880.23959180982774
 20
-154.4024240415377
 30
0.0
 40
0.39
 50
299.99999999996982
 51
0.0
  0
ARC
  5
179BA
  8
01
 10
880.23959180982774
 20
-154.4024240415377
 30
0.0
 40
0.8699999999999999
 50
299.99999999997152
 51
0.0
  0
LINE
  5
179BB
  8
01
 10
883.55225847648978
 20
-155.3085971825127
 30
0.0
 11
881.89425847649125
 21
-153.44903051584811
 31
0.0
  0
LINE
  5
179BC
  8
01
 10
881.89425847649125
 20
-153.44903051584811
 30
0.0
 11
881.89425847649125
 21
-155.22963051584631
 31
0.0
  0
LINE
  5
179BD
  8
01
 10
881.4205918098254
 20
-152.22963051584941
 30
0.0
 11
881.4205918098254
 21
-155.22963051584631
 31
0.0
  0
LINE
  5
179BE
  8
01
 10
883.55225847648978
 20
-152.30859718251571
 30
0.0
 11
883.55225847648978
 21
-155.3085971825127
 31
0.0
  0
LINE
  5
179BF
  8
01
 10
881.10959180982763
 20
-152.30859718251571
 30
0.0
 11
881.10959180982763
 21
-154.4024240415377
 31
0.0
  0
LINE
  5
179C0
  8
01
 10
880.62959180982762
 20
-152.30859718251571
 30
0.0
 11
880.62959180982762
 21
-154.4024240415377
 31
0.0
  0
ARC
  5
17BFB
  8
01
 10
964.07408409500897
 20
20.691399999980991
 30
0.0
 40
0.5
 50
90.0
 51
180.0
  0
LINE
  5
17BFC
  8
01
 10
965.07408409500886
 20
21.191399999980991
 30
0.0
 11
964.07408409500897
 21
21.191399999980991
 31
0.0
  0
LINE
  5
17C13
  8
01
 10
1110.9963
 20
13.1914
 30
0.0
 11
1121.9163000000001
 21
13.1914
 31
0.0
  0
LINE
  5
17C14
  8
01
 10
1116.4563000000001
 20
7.7313999999999989
 30
0.0
 11
1116.4563000000001
 21
18.651399999999999
 31
0.0
  0
LINE
  5
17C15
  8
01
 10
1123.9963
 20
13.1914
 30
0.0
 11
1134.9163000000001
 21
13.1914
 31
0.0
  0
LINE
  5
17C16
  8
01
 10
1129.4563000000001
 20
7.7313999999999989
 30
0.0
 11
1129.4563000000001
 21
18.651399999999999
 31
0.0
  0
LINE
  5
17C17
  8
01
 10
1112.4263000000001
 20
-160.80860000000001
 30
0.0
 11
1120.4863
 21
-160.80860000000001
 31
0.0
  0
LINE
  5
17C18
  8
01
 10
1116.4563000000001
 20
-164.83860000000001
 30
0.0
 11
1116.4563000000001
 21
-156.77860000000001
 31
0.0
  0
LINE
  5
17C19
  8
01
 10
858.03840000000002
 20
13.1914
 30
0.0
 11
868.95839999999987
 21
13.1914
 31
0.0
  0
LINE
  5
17C1A
  8
01
 10
863.49839999999995
 20
7.7313999999999989
 30
0.0
 11
863.49839999999995
 21
18.651399999999999
 31
0.0
  0
LINE
  5
17C1B
  8
01
 10
871.03840000000014
 20
13.1914
 30
0.0
 11
881.95839999999998
 21
13.1914
 31
0.0
  0
LINE
  5
17C1C
  8
01
 10
876.49839999999995
 20
7.7313999999999989
 30
0.0
 11
876.49839999999995
 21
18.651399999999999
 31
0.0
  0
LINE
  5
17D96
  8
01
 10
996.57408409500806
 20
-13.891356371314441
 30
0.0
 11
1004.763494884286
 21
-36.39157759349537
 31
0.0
  0
ARC
  5
17DA7
  8
01
 10
993.07412019948913
 20
-14.50860000003938
 30
0.0
 40
25.243811122728651
 50
277.9695276489548
 51
296.96381265401777
  0
ARC
  5
17DB6
  8
01
 10
1004.2936485738931
 20
-36.562587665158183
 30
0.0
 40
0.5
 50
296.96381265401777
 51
19.999999999996898
  0
LINE
  5
1834B
  8
01
 10
1134.9163000000001
 20
13.1914
 30
0.0
 11
1160.051832291497
 21
13.191399999999989
 31
0.0
  0
LINE
  5
1834C
  8
01
 10
1120.4863
 20
-160.80860000000001
 30
0.0
 11
1160.051832291497
 21
-160.80860000000001
 31
0.0
  0
LINE
  5
1834D
  8
01
 10
1158.7518322914971
 20
10.591399999999989
 30
0.0
 11
1158.7518322914971
 21
-158.20859999999999
 31
0.0
  0
LINE
  5
18351
  8
01
 10
1140.456284095008
 20
21.19140000000019
 30
0.0
 11
1169.8166150064369
 21
21.191400000000179
 31
0.0
  0
LINE
  5
18352
  8
01
 10
1140.456284095008
 20
-168.80859999999981
 30
0.0
 11
1169.8166150064369
 21
-168.80859999999981
 31
0.0
  0
LINE
  5
18353
  8
01
 10
1168.516615006437
 20
18.591400000000171
 30
0.0
 11
1168.516615006437
 21
-166.20859999999979
 31
0.0
  0
LINE
  5
18357
  8
01
 10
1004.7936485738931
 20
-36.562587665158183
 30
0.0
 11
1004.7936485738931
 21
-111.3555233672944
 31
0.0
  0
LINE
  5
18358
  8
01
 10
999.1740840950082
 20
-110.0555233672944
 30
0.0
 11
1002.193648573893
 21
-110.0555233672944
 31
0.0
  0
LINE
  5
1835C
  8
01
 10
1135.4562851897749
 20
166.52423298708669
 30
0.0
 11
1169.8166150064369
 21
166.52423298708669
 31
0.0
  0
LINE
  5
1835D
  8
01
 10
1135.4562851897749
 20
178.0242329870868
 30
0.0
 11
1169.8166150064369
 21
178.0242329870868
 31
0.0
  0
LINE
  5
1835E
  8
01
 10
1168.516615006437
 20
169.12423298708671
 30
0.0
 11
1168.516615006437
 21
175.42423298708681
 31
0.0
  0
LINE
  5
1835F
  8
01
 10
1168.516615006437
 20
178.0242329870868
 30
0.0
 11
1168.516615006437
 21
195.6608996537534
 31
0.0
  0
LINE
  5
18363
  8
01
 10
1157.7296872512361
 20
157.27423298708669
 30
0.0
 11
1169.8166150064369
 21
157.27423298708669
 31
0.0
  0
LINE
  5
18364
  8
01
 10
1123.3024092840431
 20
148.08482427018811
 30
0.0
 11
1169.8166150064369
 21
148.08482427018811
 31
0.0
  0
LINE
  5
18365
  8
01
 10
1168.516615006437
 20
154.6742329870867
 30
0.0
 11
1168.516615006437
 21
150.6848242701881
 31
0.0
  0
LINE
  5
18369
  8
01
 10
1078.4562851897749
 20
50.39140281750317
 30
0.0
 11
1078.4562851897749
 21
78.136092326649191
 31
0.0
  0
LINE
  5
1836A
  8
01
 10
1129.4562840950091
 20
18.65140000000007
 30
0.0
 11
1129.4562840950091
 21
78.136092326649191
 31
0.0
  0
LINE
  5
1836B
  8
01
 10
1081.0562851897751
 20
76.836092326649194
 30
0.0
 11
1126.856284095008
 21
76.836092326649194
 31
0.0
  0
LINE
  5
1836F
  8
01
 10
982.07412019949061
 20
50.391402817503497
 30
0.0
 11
1020.833119594629
 21
50.39140281750349
 31
0.0
  0
LINE
  5
18370
  8
01
 10
978.07412019949061
 20
-79.608597182519802
 30
0.0
 11
1020.833119594629
 21
-79.608597182519816
 31
0.0
  0
LINE
  5
18371
  8
01
 10
1019.5331195946291
 20
47.791402817503503
 30
0.0
 11
1019.5331195946291
 21
-77.008597182519821
 31
0.0
  0
LINE
  5
18375
  8
01
 10
1078.4562851897749
 20
50.39140281750317
 30
0.0
 11
1043.7832357371201
 21
50.39140281750317
 31
0.0
  0
LINE
  5
18376
  8
01
 10
1074.303546322845
 20
3.1914028175035152
 30
0.0
 11
1043.7832357371201
 21
3.1914028175035241
 31
0.0
  0
LINE
  5
18377
  8
01
 10
1045.08323573712
 20
47.791402817503169
 30
0.0
 11
1045.08323573712
 21
5.7914028175035241
 31
0.0
  0
LINE
  5
1837B
  8
01
 10
1074.303546322845
 20
3.1914028175035152
 30
0.0
 11
1053.6299659041081
 21
3.191402817503521
 31
0.0
  0
LINE
  5
1837C
  8
01
 10
1074.3035463228459
 20
13.1914028175035
 30
0.0
 11
1053.6299659041081
 21
13.19140281750351
 31
0.0
  0
LINE
  5
1837D
  8
01
 10
1054.929965904108
 20
5.7914028175035197
 30
0.0
 11
1054.929965904108
 21
10.591402817503511
 31
0.0
  0
LINE
  5
18381
  8
01
 10
1078.4562851897749
 20
-79.608597182520086
 30
0.0
 11
1078.4562851897749
 21
-112.0047857605077
 31
0.0
  0
LINE
  5
18382
  8
01
 10
1070.456285189774
 20
-46.708597182519988
 30
0.0
 11
1070.456285189774
 21
-112.0047857605077
 31
0.0
  0
LINE
  5
18383
  8
01
 10
1075.856285189775
 20
-110.7047857605077
 30
0.0
 11
1073.0562851897739
 21
-110.7047857605077
 31
0.0
  0
LINE
  5
18387
  8
01
 10
1078.3562851897759
 20
157.27423298708661
 30
0.0
 11
1060.479168712443
 21
157.27423298708661
 31
0.0
  0
LINE
  5
18388
  8
01
 10
1097.4562851898361
 20
155.7715511307282
 30
0.0
 11
1060.479168712443
 21
155.77155113072831
 31
0.0
  0
LINE
  5
18389
  8
01
 10
1061.7791687124429
 20
159.8742329870866
 30
0.0
 11
1061.7791687124429
 21
162.47423298708659
 31
0.0
  0
LINE
  5
1838A
  8
01
 10
1061.7791687124429
 20
153.17155113072829
 30
0.0
 11
1061.7791687124429
 21
139.86821779739489
 31
0.0
  0
LINE
  5
1838B
  8
01
 10
1061.7791687124429
 20
157.27423298708661
 30
0.0
 11
1061.7791687124429
 21
155.77155113072831
 31
0.0
  0
LINE
  5
1838F
  8
01
 10
1091.4562851898349
 20
-32.308597325781953
 30
0.0
 11
1091.4562851898349
 21
58.146724559712418
 31
0.0
  0
LINE
  5
18390
  8
01
 10
1141.4562851898349
 20
-32.308597325781953
 30
0.0
 11
1141.4562851898349
 21
58.146724559712418
 31
0.0
  0
LINE
  5
18391
  8
01
 10
1094.0562851898351
 20
56.84672455971242
 30
0.0
 11
1138.856285189835
 21
56.84672455971242
 31
0.0
  0
LINE
  5
18395
  8
01
 10
1078.4562851897749
 20
50.39140281750317
 30
0.0
 11
1078.4562851897749
 21
67.600137096330513
 31
0.0
  0
LINE
  5
18396
  8
01
 10
1116.456284095008
 20
18.65140000000007
 30
0.0
 11
1116.456284095008
 21
67.600137096330513
 31
0.0
  0
LINE
  5
18397
  8
01
 10
1081.0562851897751
 20
66.300137096330516
 30
0.0
 11
1113.856284095009
 21
66.300137096330516
 31
0.0
  0
LINE
  5
1839B
  8
01
 10
1078.4562851897749
 20
50.39140281750317
 30
0.0
 11
1078.4562851897749
 21
88.381366930839377
 31
0.0
  0
LINE
  5
1839C
  8
01
 10
1135.4562851897749
 20
28.191402817505789
 30
0.0
 11
1135.4562851897749
 21
88.381366930839377
 31
0.0
  0
LINE
  5
1839D
  8
01
 10
1081.0562851897751
 20
87.081366930839366
 30
0.0
 11
1132.856285189775
 21
87.081366930839366
 31
0.0
  0
LINE
  5
183A1
  8
01
 10
1078.4562851897749
 20
50.39140281750317
 30
0.0
 11
1078.4562851897749
 21
88.381366930839377
 31
0.0
  0
LINE
  5
183A2
  8
01
 10
1063.4562851892631
 20
15.019829942249711
 30
0.0
 11
1063.4562851892631
 21
88.381366930839377
 31
0.0
  0
LINE
  5
183A3
  8
01
 10
1075.856285189775
 20
87.081366930839366
 30
0.0
 11
1066.056285189263
 21
87.081366930839366
 31
0.0
  0
LINE
  5
183A7
  8
01
 10
894.49842237330256
 20
21.191402817484249
 30
0.0
 11
894.49842237330256
 21
88.381366930839377
 31
0.0
  0
LINE
  5
183A8
  8
01
 10
858.49842237336293
 20
21.191402817484249
 30
0.0
 11
858.49842237336293
 21
88.381366930839377
 31
0.0
  0
LINE
  5
183A9
  8
01
 10
891.89842237330265
 20
87.081366930839366
 30
0.0
 11
861.09842237336295
 21
87.081366930839366
 31
0.0
  0
LINE
  5
183AD
  8
01
 10
894.49842237330256
 20
21.191402817484249
 30
0.0
 11
894.49842237330256
 21
88.381366930839377
 31
0.0
  0
LINE
  5
183AE
  8
01
 10
901.49842237336293
 20
20.19140281748416
 30
0.0
 11
901.49842237336293
 21
88.381366930839377
 31
0.0
  0
LINE
  5
183AF
  8
01
 10
891.89842237330265
 20
87.081366930839366
 30
0.0
 11
889.29842237330263
 21
87.081366930839366
 31
0.0
  0
LINE
  5
183B0
  8
01
 10
904.09842237336284
 20
87.081366930839366
 30
0.0
 11
911.55175570669633
 21
87.081366930839366
 31
0.0
  0
LINE
  5
183B1
  8
01
 10
894.49842237330256
 20
87.081366930839366
 30
0.0
 11
901.49842237336293
 21
87.081366930839366
 31
0.0
  0
LINE
  5
183B5
  8
01
 10
891.49842237330267
 20
-68.30859718238581
 30
0.0
 11
930.06332729879227
 21
-68.308597182385824
 31
0.0
  0
LINE
  5
183B6
  8
01
 10
891.49842237336316
 20
-149.3085971825158
 30
0.0
 11
930.06332729879227
 21
-149.3085971825158
 31
0.0
  0
LINE
  5
183B7
  8
01
 10
928.76332729879232
 20
-70.908597182385819
 30
0.0
 11
928.76332729879232
 21
-146.70859718251589
 31
0.0
  0
LINE
  5
183BB
  8
01
 10
995.07412019949027
 20
56.566563644116187
 30
0.0
 11
995.07412019949027
 21
88.381366930839377
 31
0.0
  0
LINE
  5
183BC
  8
01
 10
996.57408409500806
 20
20.691399999980991
 30
0.0
 11
996.57408409500806
 21
88.381366930839377
 31
0.0
  0
LINE
  5
183BD
  8
01
 10
992.47412019949024
 20
87.081366930839366
 30
0.0
 11
989.87412019949033
 21
87.081366930839366
 31
0.0
  0
LINE
  5
183BE
  8
01
 10
999.1740840950082
 20
87.081366930839366
 30
0.0
 11
1012.477417428341
 21
87.081366930839366
 31
0.0
  0
LINE
  5
183BF
  8
01
 10
995.07412019949027
 20
87.081366930839366
 30
0.0
 11
996.57408409500806
 21
87.081366930839366
 31
0.0
  0
LINE
  5
183C3
  8
01
 10
965.07412019949072
 20
56.56656364411613
 30
0.0
 11
965.07412019949072
 21
88.381366930839377
 31
0.0
  0
LINE
  5
183C4
  8
01
 10
963.57412019949095
 20
20.697408592013851
 30
0.0
 11
963.57412019949095
 21
88.381366930839377
 31
0.0
  0
LINE
  5
183C5
  8
01
 10
967.67412019949086
 20
87.081366930839366
 30
0.0
 11
970.27412019949088
 21
87.081366930839366
 31
0.0
  0
LINE
  5
183C6
  8
01
 10
960.9741201994907
 20
87.081366930839366
 30
0.0
 11
947.67078686615753
 21
87.081366930839366
 31
0.0
  0
LINE
  5
183C7
  8
01
 10
965.07412019949072
 20
87.081366930839366
 30
0.0
 11
963.57412019949095
 21
87.081366930839366
 31
0.0
  0
LINE
  5
183CB
  8
01
 10
972.07412019949061
 20
44.391402817503497
 30
0.0
 11
972.07412019949061
 21
88.381366930839377
 31
0.0
  0
LINE
  5
183CC
  8
01
 10
988.07412019949061
 20
44.391402817503497
 30
0.0
 11
988.07412019949061
 21
88.381366930839377
 31
0.0
  0
LINE
  5
183CD
  8
01
 10
974.67412019949063
 20
87.081366930839366
 30
0.0
 11
985.47412019949059
 21
87.081366930839366
 31
0.0
  0
LINE
  5
183D1
  8
01
 10
1193.792753040432
 20
-163.8765969758135
 30
0.0
 11
1174.2293401644461
 21
-143.65884929986919
 31
0.0
  0
LINE
  5
183D4
  8
01
  6
BYBLOCK
 10
1173.4591037976129
 20
-144.4041574468487
 30
0.0
 11
1171.447812267387
 21
-140.7842880189292
 31
0.0
  0
LINE
  5
183D5
  8
01
  6
BYBLOCK
 10
1171.447812267387
 20
-140.7842880189292
 30
0.0
 11
1174.999576531279
 21
-142.91354115288959
 31
0.0
  0
LINE
  5
183D6
  8
01
  6
BYBLOCK
 10
1171.447812267387
 20
-140.7842880189292
 30
0.0
 11
1174.2293401644461
 21
-143.65884929986919
 31
0.0
  0
TEXT
  5
183D7
  8
01
 10
1178.0633233081189
 20
-145.6077851715205
 30
0.0
 40
7.0
  1
R0.5
 50
314.05766344057969
  0
TEXT
  5
183D8
  8
01
 10
975.4157868661573
 20
87.991366930839376
 30
0.0
 40
4.5499999999999989
  1
16
  0
LINE
  5
183D9
  8
01
  6
BYBLOCK
 10
985.47412019949059
 20
87.778034824839366
 30
0.0
 11
988.07412019949061
 21
87.081366930839366
 31
0.0
  0
LINE
  5
183DA
  8
01
  6
BYBLOCK
 10
988.07412019949061
 20
87.081366930839366
 30
0.0
 11
985.47412019949059
 21
86.384699036839365
 31
0.0
  0
LINE
  5
183DB
  8
01
  6
BYBLOCK
 10
988.07412019949061
 20
87.081366930839366
 30
0.0
 11
985.47412019949059
 21
87.081366930839366
 31
0.0
  0
LINE
  5
183DC
  8
01
  6
BYBLOCK
 10
974.67412019949063
 20
86.384699036839365
 30
0.0
 11
972.07412019949061
 21
87.081366930839366
 31
0.0
  0
LINE
  5
183DD
  8
01
  6
BYBLOCK
 10
972.07412019949061
 20
87.081366930839366
 30
0.0
 11
974.67412019949063
 21
87.778034824839366
 31
0.0
  0
LINE
  5
183DE
  8
01
  6
BYBLOCK
 10
972.07412019949061
 20
87.081366930839366
 30
0.0
 11
974.67412019949063
 21
87.081366930839366
 31
0.0
  0
TEXT
  5
183DF
  8
01
 10
947.28078686615754
 20
87.991366930839376
 30
0.0
 40
4.5499999999999989
  1
1.5
  0
LINE
  5
183E0
  8
01
  6
BYBLOCK
 10
960.9741201994907
 20
87.778034824839366
 30
0.0
 11
963.57412019949095
 21
87.081366930839366
 31
0.0
  0
LINE
  5
183E1
  8
01
  6
BYBLOCK
 10
963.57412019949095
 20
87.081366930839366
 30
0.0
 11
960.9741201994907
 21
86.384699036839365
 31
0.0
  0
LINE
  5
183E2
  8
01
  6
BYBLOCK
 10
963.57412019949095
 20
87.081366930839366
 30
0.0
 11
960.9741201994907
 21
87.081366930839366
 31
0.0
  0
LINE
  5
183E3
  8
01
  6
BYBLOCK
 10
967.67412019949086
 20
86.384699036839365
 30
0.0
 11
965.07412019949072
 21
87.081366930839366
 31
0.0
  0
LINE
  5
183E4
  8
01
  6
BYBLOCK
 10
965.07412019949072
 20
87.081366930839366
 30
0.0
 11
967.67412019949086
 21
87.778034824839366
 31
0.0
  0
LINE
  5
183E5
  8
01
  6
BYBLOCK
 10
965.07412019949072
 20
87.081366930839366
 30
0.0
 11
967.67412019949086
 21
87.081366930839366
 31
0.0
  0
TEXT
  5
183E6
  8
01
 10
1001.384084095008
 20
87.991366930839376
 30
0.0
 40
4.5499999999999989
  1
1.5
  0
LINE
  5
183E7
  8
01
  6
BYBLOCK
 10
999.1740840950082
 20
86.384699036839365
 30
0.0
 11
996.57408409500806
 21
87.081366930839366
 31
0.0
  0
LINE
  5
183E8
  8
01
  6
BYBLOCK
 10
996.57408409500806
 20
87.081366930839366
 30
0.0
 11
999.1740840950082
 21
87.778034824839366
 31
0.0
  0
LINE
  5
183E9
  8
01
  6
BYBLOCK
 10
996.57408409500806
 20
87.081366930839366
 30
0.0
 11
999.1740840950082
 21
87.081366930839366
 31
0.0
  0
LINE
  5
183EA
  8
01
  6
BYBLOCK
 10
992.47412019949024
 20
87.778034824839366
 30
0.0
 11
995.07412019949027
 21
87.081366930839366
 31
0.0
  0
LINE
  5
183EB
  8
01
  6
BYBLOCK
 10
995.07412019949027
 20
87.081366930839366
 30
0.0
 11
992.47412019949024
 21
86.384699036839365
 31
0.0
  0
LINE
  5
183EC
  8
01
  6
BYBLOCK
 10
995.07412019949027
 20
87.081366930839366
 30
0.0
 11
992.47412019949024
 21
87.081366930839366
 31
0.0
  0
TEXT
  5
183ED
  8
01
 10
927.85332729879235
 20
-112.49193051578401
 30
0.0
 40
4.5499999999999989
  1
81
 50
90.0
  0
LINE
  5
183EE
  8
01
  6
BYBLOCK
 10
929.45999519279223
 20
-146.70859718251589
 30
0.0
 11
928.76332729879232
 21
-149.3085971825158
 31
0.0
  0
LINE
  5
183EF
  8
01
  6
BYBLOCK
 10
928.76332729879232
 20
-149.3085971825158
 30
0.0
 11
928.06665940479229
 21
-146.70859718251589
 31
0.0
  0
LINE
  5
183F0
  8
01
  6
BYBLOCK
 10
928.76332729879232
 20
-149.3085971825158
 30
0.0
 11
928.76332729879232
 21
-146.70859718251589
 31
0.0
  0
LINE
  5
183F1
  8
01
  6
BYBLOCK
 10
928.06665940479229
 20
-70.908597182385819
 30
0.0
 11
928.76332729879232
 21
-68.308597182385824
 31
0.0
  0
LINE
  5
183F2
  8
01
  6
BYBLOCK
 10
928.76332729879232
 20
-68.308597182385824
 30
0.0
 11
929.45999519279223
 21
-70.908597182385819
 31
0.0
  0
LINE
  5
183F3
  8
01
  6
BYBLOCK
 10
928.76332729879232
 20
-68.308597182385824
 30
0.0
 11
928.76332729879232
 21
-70.908597182385819
 31
0.0
  0
TEXT
  5
183F4
  8
01
 10
906.95842237336285
 20
87.991366930839376
 30
0.0
 40
4.5499999999999989
  1
7
  0
LINE
  5
183F5
  8
01
  6
BYBLOCK
 10
904.09842237336284
 20
86.384699036839365
 30
0.0
 11
901.49842237336293
 21
87.081366930839366
 31
0.0
  0
LINE
  5
183F6
  8
01
  6
BYBLOCK
 10
901.49842237336293
 20
87.081366930839366
 30
0.0
 11
904.09842237336284
 21
87.778034824839366
 31
0.0
  0
LINE
  5
183F7
  8
01
  6
BYBLOCK
 10
901.49842237336293
 20
87.081366930839366
 30
0.0
 11
904.09842237336284
 21
87.081366930839366
 31
0.0
  0
LINE
  5
183F8
  8
01
  6
BYBLOCK
 10
891.89842237330265
 20
87.778034824839366
 30
0.0
 11
894.49842237330256
 21
87.081366930839366
 31
0.0
  0
LINE
  5
183F9
  8
01
  6
BYBLOCK
 10
894.49842237330256
 20
87.081366930839366
 30
0.0
 11
891.89842237330265
 21
86.384699036839365
 31
0.0
  0
LINE
  5
183FA
  8
01
  6
BYBLOCK
 10
894.49842237330256
 20
87.081366930839366
 30
0.0
 11
891.89842237330265
 21
87.081366930839366
 31
0.0
  0
TEXT
  5
183FB
  8
01
 10
872.16508903999954
 20
87.991366930839376
 30
0.0
 40
4.5499999999999989
  1
36
  0
LINE
  5
183FC
  8
01
  6
BYBLOCK
 10
861.09842237336295
 20
86.384699036839365
 30
0.0
 11
858.49842237336293
 21
87.081366930839366
 31
0.0
  0
LINE
  5
183FD
  8
01
  6
BYBLOCK
 10
858.49842237336293
 20
87.081366930839366
 30
0.0
 11
861.09842237336295
 21
87.778034824839366
 31
0.0
  0
LINE
  5
183FE
  8
01
  6
BYBLOCK
 10
858.49842237336293
 20
87.081366930839366
 30
0.0
 11
861.09842237336295
 21
87.081366930839366
 31
0.0
  0
LINE
  5
183FF
  8
01
  6
BYBLOCK
 10
891.89842237330265
 20
87.778034824839366
 30
0.0
 11
894.49842237330256
 21
87.081366930839366
 31
0.0
  0
LINE
  5
18400
  8
01
  6
BYBLOCK
 10
894.49842237330256
 20
87.081366930839366
 30
0.0
 11
891.89842237330265
 21
86.384699036839365
 31
0.0
  0
LINE
  5
18401
  8
01
  6
BYBLOCK
 10
894.49842237330256
 20
87.081366930839366
 30
0.0
 11
891.89842237330265
 21
87.081366930839366
 31
0.0
  0
TEXT
  5
18402
  8
01
 10
1066.297951856186
 20
87.991366930839376
 30
0.0
 40
4.5499999999999989
  1
15
  0
LINE
  5
18403
  8
01
  6
BYBLOCK
 10
1066.056285189263
 20
86.384699036839365
 30
0.0
 11
1063.4562851892631
 21
87.081366930839366
 31
0.0
  0
LINE
  5
18404
  8
01
  6
BYBLOCK
 10
1063.4562851892631
 20
87.081366930839366
 30
0.0
 11
1066.056285189263
 21
87.778034824839366
 31
0.0
  0
LINE
  5
18405
  8
01
  6
BYBLOCK
 10
1063.4562851892631
 20
87.081366930839366
 30
0.0
 11
1066.056285189263
 21
87.081366930839366
 31
0.0
  0
LINE
  5
18406
  8
01
  6
BYBLOCK
 10
1075.856285189775
 20
87.778034824839366
 30
0.0
 11
1078.4562851897749
 21
87.081366930839366
 31
0.0
  0
LINE
  5
18407
  8
01
  6
BYBLOCK
 10
1078.4562851897749
 20
87.081366930839366
 30
0.0
 11
1075.856285189775
 21
86.384699036839365
 31
0.0
  0
LINE
  5
18408
  8
01
  6
BYBLOCK
 10
1078.4562851897749
 20
87.081366930839366
 30
0.0
 11
1075.856285189775
 21
87.081366930839366
 31
0.0
  0
TEXT
  5
18409
  8
01
 10
1102.6229518564419
 20
87.991366930839376
 30
0.0
 40
4.5499999999999989
  1
57
  0
LINE
  5
1840A
  8
01
  6
BYBLOCK
 10
1132.856285189775
 20
87.778034824839366
 30
0.0
 11
1135.4562851897749
 21
87.081366930839366
 31
0.0
  0
LINE
  5
1840B
  8
01
  6
BYBLOCK
 10
1135.4562851897749
 20
87.081366930839366
 30
0.0
 11
1132.856285189775
 21
86.384699036839365
 31
0.0
  0
LINE
  5
1840C
  8
01
  6
BYBLOCK
 10
1135.4562851897749
 20
87.081366930839366
 30
0.0
 11
1132.856285189775
 21
87.081366930839366
 31
0.0
  0
LINE
  5
1840D
  8
01
  6
BYBLOCK
 10
1081.0562851897751
 20
86.384699036839365
 30
0.0
 11
1078.4562851897749
 21
87.081366930839366
 31
0.0
  0
LINE
  5
1840E
  8
01
  6
BYBLOCK
 10
1078.4562851897749
 20
87.081366930839366
 30
0.0
 11
1081.0562851897751
 21
87.778034824839366
 31
0.0
  0
LINE
  5
1840F
  8
01
  6
BYBLOCK
 10
1078.4562851897749
 20
87.081366930839366
 30
0.0
 11
1081.0562851897751
 21
87.081366930839366
 31
0.0
  0
TEXT
  5
18410
  8
01
 10
1093.122951309058
 20
67.210137096330513
 30
0.0
 40
4.5499999999999989
  1
38
  0
LINE
  5
18411
  8
01
  6
BYBLOCK
 10
1113.856284095009
 20
66.996804990330517
 30
0.0
 11
1116.456284095008
 21
66.300137096330516
 31
0.0
  0
LINE
  5
18412
  8
01
  6
BYBLOCK
 10
1116.456284095008
 20
66.300137096330516
 30
0.0
 11
1113.856284095009
 21
65.603469202330515
 31
0.0
  0
LINE
  5
18413
  8
01
  6
BYBLOCK
 10
1116.456284095008
 20
66.300137096330516
 30
0.0
 11
1113.856284095009
 21
66.300137096330516
 31
0.0
  0
LINE
  5
18414
  8
01
  6
BYBLOCK
 10
1081.0562851897751
 20
65.603469202330515
 30
0.0
 11
1078.4562851897749
 21
66.300137096330516
 31
0.0
  0
LINE
  5
18415
  8
01
  6
BYBLOCK
 10
1078.4562851897749
 20
66.300137096330516
 30
0.0
 11
1081.0562851897751
 21
66.996804990330517
 31
0.0
  0
LINE
  5
18416
  8
01
  6
BYBLOCK
 10
1078.4562851897749
 20
66.300137096330516
 30
0.0
 11
1081.0562851897751
 21
66.300137096330516
 31
0.0
  0
TEXT
  5
18417
  8
01
 10
1112.1229518565019
 20
57.756724559712431
 30
0.0
 40
4.5499999999999989
  1
50
  0
LINE
  5
18418
  8
01
  6
BYBLOCK
 10
1138.856285189835
 20
57.543392453712428
 30
0.0
 11
1141.4562851898349
 21
56.84672455971242
 31
0.0
  0
LINE
  5
18419
  8
01
  6
BYBLOCK
 10
1141.4562851898349
 20
56.84672455971242
 30
0.0
 11
1138.856285189835
 21
56.15005666571242
 31
0.0
  0
LINE
  5
1841A
  8
01
  6
BYBLOCK
 10
1141.4562851898349
 20
56.84672455971242
 30
0.0
 11
1138.856285189835
 21
56.84672455971242
 31
0.0
  0
LINE
  5
1841B
  8
01
  6
BYBLOCK
 10
1094.0562851898351
 20
56.15005666571242
 30
0.0
 11
1091.4562851898349
 21
56.84672455971242
 31
0.0
  0
LINE
  5
1841C
  8
01
  6
BYBLOCK
 10
1091.4562851898349
 20
56.84672455971242
 30
0.0
 11
1094.0562851898351
 21
57.543392453712428
 31
0.0
  0
LINE
  5
1841D
  8
01
  6
BYBLOCK
 10
1091.4562851898349
 20
56.84672455971242
 30
0.0
 11
1094.0562851898351
 21
56.84672455971242
 31
0.0
  0
TEXT
  5
1841E
  8
01
 10
1060.8691687124431
 20
139.4782177973951
 30
0.0
 40
4.5499999999999989
  1
1.5
 50
90.0
  0
LINE
  5
1841F
  8
01
  6
BYBLOCK
 10
1061.0825008184429
 20
153.17155113072829
 30
0.0
 11
1061.7791687124429
 21
155.77155113072831
 31
0.0
  0
LINE
  5
18420
  8
01
  6
BYBLOCK
 10
1061.7791687124429
 20
155.77155113072831
 30
0.0
 11
1062.475836606443
 21
153.17155113072829
 31
0.0
  0
LINE
  5
18421
  8
01
  6
BYBLOCK
 10
1061.7791687124429
 20
155.77155113072831
 30
0.0
 11
1061.7791687124429
 21
153.17155113072829
 31
0.0
  0
LINE
  5
18422
  8
01
  6
BYBLOCK
 10
1062.475836606443
 20
159.8742329870866
 30
0.0
 11
1061.7791687124429
 21
157.27423298708661
 31
0.0
  0
LINE
  5
18423
  8
01
  6
BYBLOCK
 10
1061.7791687124429
 20
157.27423298708661
 30
0.0
 11
1061.0825008184429
 21
159.8742329870866
 31
0.0
  0
LINE
  5
18424
  8
01
  6
BYBLOCK
 10
1061.7791687124429
 20
157.27423298708661
 30
0.0
 11
1061.7791687124429
 21
159.8742329870866
 31
0.0
  0
TEXT
  5
18425
  8
01
 10
1072.2896185231079
 20
-109.79478576050769
 30
0.0
 40
4.5499999999999989
  1
8
  0
LINE
  5
18426
  8
01
  6
BYBLOCK
 10
1073.0562851897739
 20
-111.4014536545077
 30
0.0
 11
1070.456285189774
 21
-110.7047857605077
 31
0.0
  0
LINE
  5
18427
  8
01
  6
BYBLOCK
 10
1070.456285189774
 20
-110.7047857605077
 30
0.0
 11
1073.0562851897739
 21
-110.0081178665077
 31
0.0
  0
LINE
  5
18428
  8
01
  6
BYBLOCK
 10
1070.456285189774
 20
-110.7047857605077
 30
0.0
 11
1073.0562851897739
 21
-110.7047857605077
 31
0.0
  0
LINE
  5
18429
  8
01
  6
BYBLOCK
 10
1075.856285189775
 20
-110.0081178665077
 30
0.0
 11
1078.4562851897749
 21
-110.7047857605077
 31
0.0
  0
LINE
  5
1842A
  8
01
  6
BYBLOCK
 10
1078.4562851897749
 20
-110.7047857605077
 30
0.0
 11
1075.856285189775
 21
-111.4014536545077
 31
0.0
  0
LINE
  5
1842B
  8
01
  6
BYBLOCK
 10
1078.4562851897749
 20
-110.7047857605077
 30
0.0
 11
1075.856285189775
 21
-110.7047857605077
 31
0.0
  0
TEXT
  5
1842C
  8
01
 10
1054.0199659041079
 20
3.533069484170352
 30
0.0
 40
4.5499999999999989
  1
10
 50
90.0
  0
LINE
  5
1842D
  8
01
  6
BYBLOCK
 10
1054.233298010108
 20
10.591402817503511
 30
0.0
 11
1054.929965904108
 21
13.19140281750351
 31
0.0
  0
LINE
  5
1842E
  8
01
  6
BYBLOCK
 10
1054.929965904108
 20
13.19140281750351
 30
0.0
 11
1055.6266337981081
 21
10.591402817503511
 31
0.0
  0
LINE
  5
1842F
  8
01
  6
BYBLOCK
 10
1054.929965904108
 20
13.19140281750351
 30
0.0
 11
1054.929965904108
 21
10.591402817503511
 31
0.0
  0
LINE
  5
18430
  8
01
  6
BYBLOCK
 10
1055.6266337981081
 20
5.7914028175035206
 30
0.0
 11
1054.929965904108
 21
3.191402817503521
 31
0.0
  0
LINE
  5
18431
  8
01
  6
BYBLOCK
 10
1054.929965904108
 20
3.191402817503521
 30
0.0
 11
1054.233298010108
 21
5.7914028175035206
 31
0.0
  0
LINE
  5
18432
  8
01
  6
BYBLOCK
 10
1054.929965904108
 20
3.191402817503521
 30
0.0
 11
1054.929965904108
 21
5.7914028175035206
 31
0.0
  0
TEXT
  5
18433
  8
01
 10
1044.17323573712
 20
19.208069484170181
 30
0.0
 40
4.5499999999999989
  1
47.2
 50
90.0
  0
LINE
  5
18434
  8
01
  6
BYBLOCK
 10
1045.7799036311201
 20
5.7914028175035241
 30
0.0
 11
1045.08323573712
 21
3.1914028175035232
 31
0.0
  0
LINE
  5
18435
  8
01
  6
BYBLOCK
 10
1045.08323573712
 20
3.1914028175035232
 30
0.0
 11
1044.38656784312
 21
5.7914028175035241
 31
0.0
  0
LINE
  5
18436
  8
01
  6
BYBLOCK
 10
1045.08323573712
 20
3.1914028175035232
 30
0.0
 11
1045.08323573712
 21
5.7914028175035241
 31
0.0
  0
LINE
  5
18437
  8
01
  6
BYBLOCK
 10
1044.38656784312
 20
47.791402817503169
 30
0.0
 11
1045.08323573712
 21
50.39140281750317
 31
0.0
  0
LINE
  5
18438
  8
01
  6
BYBLOCK
 10
1045.08323573712
 20
50.39140281750317
 30
0.0
 11
1045.7799036311201
 21
47.791402817503169
 31
0.0
  0
LINE
  5
18439
  8
01
  6
BYBLOCK
 10
1045.08323573712
 20
50.39140281750317
 30
0.0
 11
1045.08323573712
 21
47.791402817503169
 31
0.0
  0
TEXT
  5
1843A
  8
01
 10
1018.62311959463
 20
-21.433597182507999
 30
0.0
 40
4.5499999999999989
  1
130
 50
90.0
  0
LINE
  5
1843B
  8
01
  6
BYBLOCK
 10
1020.229787488629
 20
-77.008597182519821
 30
0.0
 11
1019.5331195946291
 21
-79.608597182519816
 31
0.0
  0
LINE
  5
1843C
  8
01
  6
BYBLOCK
 10
1019.5331195946291
 20
-79.608597182519816
 30
0.0
 11
1018.836451700629
 21
-77.008597182519821
 31
0.0
  0
LINE
  5
1843D
  8
01
  6
BYBLOCK
 10
1019.5331195946291
 20
-79.608597182519816
 30
0.0
 11
1019.5331195946291
 21
-77.008597182519821
 31
0.0
  0
LINE
  5
1843E
  8
01
  6
BYBLOCK
 10
1018.836451700629
 20
47.791402817503503
 30
0.0
 11
1019.5331195946291
 21
50.39140281750349
 31
0.0
  0
LINE
  5
1843F
  8
01
  6
BYBLOCK
 10
1019.5331195946291
 20
50.39140281750349
 30
0.0
 11
1020.229787488629
 21
47.791402817503503
 31
0.0
  0
LINE
  5
18440
  8
01
  6
BYBLOCK
 10
1019.5331195946291
 20
50.39140281750349
 30
0.0
 11
1019.5331195946291
 21
47.791402817503503
 31
0.0
  0
TEXT
  5
18441
  8
01
 10
1100.272951309058
 20
77.746092326649205
 30
0.0
 40
4.5499999999999989
  1
51
  0
LINE
  5
18442
  8
01
  6
BYBLOCK
 10
1126.856284095008
 20
77.532760220649195
 30
0.0
 11
1129.4562840950091
 21
76.836092326649194
 31
0.0
  0
LINE
  5
18443
  8
01
  6
BYBLOCK
 10
1129.4562840950091
 20
76.836092326649194
 30
0.0
 11
1126.856284095008
 21
76.139424432649193
 31
0.0
  0
LINE
  5
18444
  8
01
  6
BYBLOCK
 10
1129.4562840950091
 20
76.836092326649194
 30
0.0
 11
1126.856284095008
 21
76.836092326649194
 31
0.0
  0
LINE
  5
18445
  8
01
  6
BYBLOCK
 10
1081.0562851897751
 20
76.139424432649193
 30
0.0
 11
1078.4562851897749
 21
76.836092326649194
 31
0.0
  0
LINE
  5
18446
  8
01
  6
BYBLOCK
 10
1078.4562851897749
 20
76.836092326649194
 30
0.0
 11
1081.0562851897751
 21
77.532760220649195
 31
0.0
  0
LINE
  5
18447
  8
01
  6
BYBLOCK
 10
1078.4562851897749
 20
76.836092326649194
 30
0.0
 11
1081.0562851897751
 21
76.836092326649194
 31
0.0
  0
TEXT
  5
18448
  8
01
 10
1167.6066150064371
 20
150.6211952953042
 30
0.0
 40
4.5499999999999989
  1
9
 50
90.0
  0
LINE
  5
18449
  8
01
  6
BYBLOCK
 10
1169.213282900437
 20
150.6848242701881
 30
0.0
 11
1168.516615006437
 21
148.08482427018811
 31
0.0
  0
LINE
  5
1844A
  8
01
  6
BYBLOCK
 10
1168.516615006437
 20
148.08482427018811
 30
0.0
 11
1167.8199471124369
 21
150.6848242701881
 31
0.0
  0
LINE
  5
1844B
  8
01
  6
BYBLOCK
 10
1168.516615006437
 20
148.08482427018811
 30
0.0
 11
1168.516615006437
 21
150.6848242701881
 31
0.0
  0
LINE
  5
1844C
  8
01
  6
BYBLOCK
 10
1167.8199471124369
 20
154.6742329870867
 30
0.0
 11
1168.516615006437
 21
157.27423298708669
 31
0.0
  0
LINE
  5
1844D
  8
01
  6
BYBLOCK
 10
1168.516615006437
 20
157.27423298708669
 30
0.0
 11
1169.213282900437
 21
154.6742329870867
 31
0.0
  0
LINE
  5
1844E
  8
01
  6
BYBLOCK
 10
1168.516615006437
 20
157.27423298708669
 30
0.0
 11
1168.516615006437
 21
154.6742329870867
 31
0.0
  0
TEXT
  5
1844F
  8
01
 10
1167.6066150064371
 20
180.2342329870869
 30
0.0
 40
4.5499999999999989
  1
11.5
 50
90.0
  0
LINE
  5
18450
  8
01
  6
BYBLOCK
 10
1167.8199471124369
 20
175.42423298708681
 30
0.0
 11
1168.516615006437
 21
178.0242329870868
 31
0.0
  0
LINE
  5
18451
  8
01
  6
BYBLOCK
 10
1168.516615006437
 20
178.0242329870868
 30
0.0
 11
1169.213282900437
 21
175.42423298708681
 31
0.0
  0
LINE
  5
18452
  8
01
  6
BYBLOCK
 10
1168.516615006437
 20
178.0242329870868
 30
0.0
 11
1168.516615006437
 21
175.42423298708681
 31
0.0
  0
LINE
  5
18453
  8
01
  6
BYBLOCK
 10
1169.213282900437
 20
169.12423298708671
 30
0.0
 11
1168.516615006437
 21
166.52423298708669
 31
0.0
  0
LINE
  5
18454
  8
01
  6
BYBLOCK
 10
1168.516615006437
 20
166.52423298708669
 30
0.0
 11
1167.8199471124369
 21
169.12423298708671
 31
0.0
  0
LINE
  5
18455
  8
01
  6
BYBLOCK
 10
1168.516615006437
 20
166.52423298708669
 30
0.0
 11
1168.516615006437
 21
169.12423298708671
 31
0.0
  0
TEXT
  5
18456
  8
01
 10
998.5171996677841
 20
-109.1455233672944
 30
0.0
 40
4.5499999999999989
  1
8
  0
LINE
  5
18457
  8
01
  6
BYBLOCK
 10
1002.193648573893
 20
-109.3588554732944
 30
0.0
 11
1004.7936485738931
 21
-110.0555233672944
 31
0.0
  0
LINE
  5
18458
  8
01
  6
BYBLOCK
 10
1004.7936485738931
 20
-110.0555233672944
 30
0.0
 11
1002.193648573893
 21
-110.7521912612944
 31
0.0
  0
LINE
  5
18459
  8
01
  6
BYBLOCK
 10
1004.7936485738931
 20
-110.0555233672944
 30
0.0
 11
1002.193648573893
 21
-110.0555233672944
 31
0.0
  0
LINE
  5
1845A
  8
01
  6
BYBLOCK
 10
999.1740840950082
 20
-110.7521912612944
 30
0.0
 11
996.57408409500829
 21
-110.0555233672944
 31
0.0
  0
LINE
  5
1845B
  8
01
  6
BYBLOCK
 10
996.57408409500829
 20
-110.0555233672944
 30
0.0
 11
999.1740840950082
 21
-109.3588554732944
 31
0.0
  0
LINE
  5
1845C
  8
01
  6
BYBLOCK
 10
996.57408409500829
 20
-110.0555233672944
 30
0.0
 11
999.1740840950082
 21
-110.0555233672944
 31
0.0
  0
TEXT
  5
1845D
  8
01
 10
1167.6066150064371
 20
-80.633599999999618
 30
0.0
 40
4.5499999999999989
  1
190
 50
90.0
  0
LINE
  5
1845E
  8
01
  6
BYBLOCK
 10
1169.213282900437
 20
-166.20859999999979
 30
0.0
 11
1168.516615006437
 21
-168.80859999999981
 31
0.0
  0
LINE
  5
1845F
  8
01
  6
BYBLOCK
 10
1168.516615006437
 20
-168.80859999999981
 30
0.0
 11
1167.8199471124369
 21
-166.20859999999979
 31
0.0
  0
LINE
  5
18460
  8
01
  6
BYBLOCK
 10
1168.516615006437
 20
-168.80859999999981
 30
0.0
 11
1168.516615006437
 21
-166.20859999999979
 31
0.0
  0
LINE
  5
18461
  8
01
  6
BYBLOCK
 10
1167.8199471124369
 20
18.591400000000171
 30
0.0
 11
1168.516615006437
 21
21.191400000000179
 31
0.0
  0
LINE
  5
18462
  8
01
  6
BYBLOCK
 10
1168.516615006437
 20
21.191400000000179
 30
0.0
 11
1169.213282900437
 21
18.591400000000171
 31
0.0
  0
LINE
  5
18463
  8
01
  6
BYBLOCK
 10
1168.516615006437
 20
21.191400000000179
 30
0.0
 11
1168.516615006437
 21
18.591400000000171
 31
0.0
  0
TEXT
  5
18464
  8
01
 10
1157.841832291497
 20
-80.741933333333165
 30
0.0
 40
4.5499999999999989
  1
174
 50
90.0
  0
LINE
  5
18465
  8
01
  6
BYBLOCK
 10
1159.4485001854971
 20
-158.20859999999999
 30
0.0
 11
1158.7518322914971
 21
-160.80860000000001
 31
0.0
  0
LINE
  5
18466
  8
01
  6
BYBLOCK
 10
1158.7518322914971
 20
-160.80860000000001
 30
0.0
 11
1158.055164397497
 21
-158.20859999999999
 31
0.0
  0
LINE
  5
18467
  8
01
  6
BYBLOCK
 10
1158.7518322914971
 20
-160.80860000000001
 30
0.0
 11
1158.7518322914971
 21
-158.20859999999999
 31
0.0
  0
LINE
  5
18468
  8
01
  6
BYBLOCK
 10
1158.055164397497
 20
10.591399999999989
 30
0.0
 11
1158.7518322914971
 21
13.191399999999989
 31
0.0
  0
LINE
  5
18469
  8
01
  6
BYBLOCK
 10
1158.7518322914971
 20
13.191399999999989
 30
0.0
 11
1159.4485001854971
 21
10.591399999999989
 31
0.0
  0
LINE
  5
1846A
  8
01
  6
BYBLOCK
 10
1158.7518322914971
 20
13.191399999999989
 30
0.0
 11
1158.7518322914971
 21
10.591399999999989
 31
0.0
  0
VIEWPORT
  5
104
 67
     1
  8
0
 10
-7.7295765619315944
 20
12.60828540224489
 30
0.0
 40
395.35608430159238
 41
279.926227545681
 68
     1
 69
     1
1001
ACAD
1000
MVIEW
1002
{
1070
    16
1010
0.0
1020
0.0
1030
0.0
1010
0.0
1020
0.0
1030
1.0
1040
0.0
1040
279.926227545681
1040
-7.7295765619315944
1040
12.60828540224489
1040
50.0
1040
0.0
1040
0.0
1070
     0
1070
   100
1070
     1
1070
     1
1070
     0
1070
     0
1070
     0
1070
     0
1040
0.0
1040
0.0
1040
0.0
1040
10.0
1040
10.0
1040
10.0
1040
10.0
1070
     0
1002
{
1002
}
1002
}
  0
ENDSEC
  0
EOF
