  0
SECTION
  2
HEADER
  9
$ACADVER
  1
AC1012
  9
$DWGCODEPAGE
  3
ansi_932
  9
$INSBASE
 10
0.0
 20
0.0
 30
0.0
  9
$EXTMIN
 10
6972.375324355964
 20
176.1851543608748
 30
0.0
  9
$EXTMAX
 10
7598.376839840122
 20
602.2061158151821
 30
0.0000000001127424
  9
$LIMMIN
 10
0.0
 20
0.0
  9
$LIMMAX
 10
420.0
 20
297.0
  9
$ORTHOMODE
 70
     0
  9
$REGENMODE
 70
     1
  9
$FILLMODE
 70
     1
  9
$QTEXTMODE
 70
     0
  9
$MIRRTEXT
 70
     0
  9
$DRAGMODE
 70
     2
  9
$LTSCALE
 40
0.5
  9
$OSMODE
 70
 16383
  9
$ATTMODE
 70
     1
  9
$TEXTSIZE
 40
4.0
  9
$TRACEWID
 40
1.0
  9
$TEXTSTYLE
  7
STANDARD
  9
$CLAYER
  8
1TEXT
  9
$CELTYPE
  6
BYLAYER
  9
$CECOLOR
 62
   256
  9
$CELTSCALE
 40
1.0
  9
$DELOBJ
 70
     1
  9
$DISPSILH
 70
     0
  9
$DIMSCALE
 40
1.0
  9
$DIMASZ
 40
2.0
  9
$DIMEXO
 40
0.0
  9
$DIMDLI
 40
7.0
  9
$DIMRND
 40
0.0
  9
$DIMDLE
 40
0.0
  9
$DIMEXE
 40
1.0
  9
$DIMTP
 40
0.0
  9
$DIMTM
 40
0.0
  9
$DIMTXT
 40
3.5
  9
$DIMCEN
 40
0.0
  9
$DIMTSZ
 40
0.0
  9
$DIMTOL
 70
     0
  9
$DIMLIM
 70
     0
  9
$DIMTIH
 70
     0
  9
$DIMTOH
 70
     0
  9
$DIMSE1
 70
     0
  9
$DIMSE2
 70
     0
  9
$DIMTAD
 70
     1
  9
$DIMZIN
 70
     8
  9
$DIMBLK
  1

  9
$DIMASO
 70
     1
  9
$DIMSHO
 70
     1
  9
$DIMPOST
  1
 
  9
$DIMAPOST
  1

  9
$DIMALT
 70
     0
  9
$DIMALTD
 70
     2
  9
$DIMALTF
 40
25.4
  9
$DIMLFAC
 40
1.0
  9
$DIMTOFL
 70
     1
  9
$DIMTVP
 40
0.0
  9
$DIMTIX
 70
     0
  9
$DIMSOXD
 70
     0
  9
$DIMSAH
 70
     1
  9
$DIMBLK1
  1
OPEN30
  9
$DIMBLK2
  1
OPEN30
  9
$DIMSTYLE
  2
NEWX10
  9
$DIMCLRD
 70
   256
  9
$DIMCLRE
 70
   256
  9
$DIMCLRT
 70
   201
  9
$DIMTFAC
 40
0.7
  9
$DIMGAP
 40
0.7
  9
$DIMJUST
 70
     0
  9
$DIMSD1
 70
     0
  9
$DIMSD2
 70
     0
  9
$DIMTOLJ
 70
     1
  9
$DIMTZIN
 70
     8
  9
$DIMALTZ
 70
     0
  9
$DIMALTTZ
 70
     0
  9
$DIMFIT
 70
     2
  9
$DIMUPT
 70
     0
  9
$DIMUNIT
 70
     2
  9
$DIMDEC
 70
     2
  9
$DIMTDEC
 70
     4
  9
$DIMALTU
 70
     2
  9
$DIMALTTD
 70
     2
  9
$DIMTXSTY
  7
STANDARD
  9
$DIMAUNIT
 70
     0
  9
$LUNITS
 70
     2
  9
$LUPREC
 70
     4
  9
$SKETCHINC
 40
1.0
  9
$FILLETRAD
 40
0.0
  9
$AUNITS
 70
     0
  9
$AUPREC
 70
     2
  9
$MENU
  1
acad
  9
$ELEVATION
 40
0.0
  9
$PELEVATION
 40
0.0
  9
$THICKNESS
 40
0.0
  9
$LIMCHECK
 70
     0
  9
$CHAMFERA
 40
10.0
  9
$CHAMFERB
 40
10.0
  9
$CHAMFERC
 40
20.0
  9
$CHAMFERD
 40
0.0
  9
$SKPOLY
 70
     0
  9
$TDCREATE
 40
2451318.621352917
  9
$TDUPDATE
 40
2458967.572081551
  9
$TDINDWG
 40
1.4859231713
  9
$TDUSRTIMER
 40
1.4859231713
  9
$USRTIMER
 70
     1
  9
$ANGBASE
 50
0.0
  9
$ANGDIR
 70
     0
  9
$PDMODE
 70
     0
  9
$PDSIZE
 40
0.0
  9
$PLINEWID
 40
0.0
  9
$COORDS
 70
     2
  9
$SPLFRAME
 70
     0
  9
$SPLINETYPE
 70
     6
  9
$SPLINESEGS
 70
     8
  9
$ATTDIA
 70
     0
  9
$ATTREQ
 70
     1
  9
$HANDLING
 70
     1
  9
$HANDSEED
  5
11938
  9
$SURFTAB1
 70
     6
  9
$SURFTAB2
 70
     6
  9
$SURFTYPE
 70
     6
  9
$SURFU
 70
     6
  9
$SURFV
 70
     6
  9
$UCSNAME
  2

  9
$UCSORG
 10
0.0
 20
0.0
 30
0.0
  9
$UCSXDIR
 10
1.0
 20
0.0
 30
0.0
  9
$UCSYDIR
 10
0.0
 20
1.0
 30
0.0
  9
$PUCSNAME
  2

  9
$PUCSORG
 10
0.0
 20
0.0
 30
0.0
  9
$PUCSXDIR
 10
1.0
 20
0.0
 30
0.0
  9
$PUCSYDIR
 10
0.0
 20
1.0
 30
0.0
  9
$USERI1
 70
     0
  9
$USERI2
 70
     0
  9
$USERI3
 70
     0
  9
$USERI4
 70
     0
  9
$USERI5
 70
     0
  9
$USERR1
 40
0.0
  9
$USERR2
 40
0.0
  9
$USERR3
 40
0.0
  9
$USERR4
 40
0.0
  9
$USERR5
 40
0.0
  9
$WORLDVIEW
 70
     1
  9
$SHADEDGE
 70
     3
  9
$SHADEDIF
 70
    70
  9
$TILEMODE
 70
     1
  9
$MAXACTVP
 70
    48
  9
$PINSBASE
 10
0.0
 20
0.0
 30
0.0
  9
$PLIMCHECK
 70
     0
  9
$PEXTMIN
 10
1.000000000000000E+20
 20
1.000000000000000E+20
 30
1.000000000000000E+20
  9
$PEXTMAX
 10
-1.000000000000000E+20
 20
-1.000000000000000E+20
 30
-1.000000000000000E+20
  9
$PLIMMIN
 10
0.0
 20
0.0
  9
$PLIMMAX
 10
420.0
 20
297.0
  9
$UNITMODE
 70
     0
  9
$VISRETAIN
 70
     1
  9
$PLINEGEN
 70
     0
  9
$PSLTSCALE
 70
     1
  9
$TREEDEPTH
 70
  3020
  9
$PICKSTYLE
 70
     0
  9
$CMLSTYLE
  2
STANDARD
  9
$CMLJUST
 70
     0
  9
$CMLSCALE
 40
20.0
  9
$SAVEIMAGES
 70
     1
  0
ENDSEC
  0
SECTION
  2
CLASSES
  0
CLASS
  1
DICTIONARYVAR
  2
AcDbDictionaryVar
  3
ObjectDBX Classes
 90
        0
280
     0
281
     0
  0
CLASS
  1
IDBUFFER
  2
AcDbIdBuffer
  3
ObjectDBX Classes
 90
    32768
280
     0
281
     0
  0
CLASS
  1
LWPOLYLINE
  2
AcDbPolyline
  3
ObjectDBX Classes
 90
    32768
280
     0
281
     1
  0
CLASS
  1
ACDBDICTIONARYWDFLT
  2
AcDbDictionaryWithDefault
  3
ObjectDBX Classes
 90
    32768
280
     0
281
     0
  0
CLASS
  1
ACDBPLACEHOLDER
  2
AcDbPlaceHolder
  3
ObjectDBX Classes
 90
        0
280
     0
281
     0
  0
CLASS
  1
LAYOUT
  2
AcDbLayout
  3
ObjectDBX Classes
 90
        0
280
     0
281
     0
  0
CLASS
  1
TABLESTYLE
  2
AcDbTableStyle
  3
ObjectDBX Classes
 90
     4095
280
     0
281
     0
  0
CLASS
  1
SORTENTSTABLE
  2
AcDbSortentsTable
  3
ObjectDBX Classes
 90
    32768
280
     0
281
     0
  0
CLASS
  1
MATERIAL
  2
AcDbMaterial
  3
ObjectDBX Classes
 90
     1153
280
     0
281
     0
  0
CLASS
  1
VISUALSTYLE
  2
AcDbVisualStyle
  3
ObjectDBX Classes
 90
     4095
280
     0
281
     0
  0
CLASS
  1
SCALE
  2
AcDbScale
  3
ObjectDBX Classes
 90
     1153
280
     0
281
     0
  0
CLASS
  1
MLEADERSTYLE
  2
AcDbMLeaderStyle
  3
ACDB_MLEADERSTYLE_CLASS
 90
     4095
280
     0
281
     0
  0
CLASS
  1
CELLSTYLEMAP
  2
AcDbCellStyleMap
  3
ObjectDBX Classes
 90
     1152
280
     0
281
     0
  0
CLASS
  1
SUN
  2
AcDbSun
  3
SCENEOE
 90
     1153
280
     0
281
     0
  0
CLASS
  1
XRECORD
  2
AcDbXrecord
  3
ObjectDBX Classes
 90
    32768
280
     0
281
     0
  0
CLASS
  1
HATCH
  2
AcDbHatch
  3
ObjectDBX Classes
 90
    32768
280
     0
281
     1
  0
ENDSEC
  0
SECTION
  2
TABLES
  0
TABLE
  2
VPORT
  5
8
330
0
100
AcDbSymbolTable
 70
     1
  0
VPORT
  5
952D
330
8
100
AcDbSymbolTableRecord
100
AcDbViewportTableRecord
  2
*ACTIVE
 70
     0
 10
0.0
 20
0.0
 11
1.0
 21
1.0
 12
7285.376082098042
 22
389.1956350880284
 13
0.0
 23
0.0
 14
10.0
 24
10.0
 15
10.0
 25
10.0
 16
0.0
 26
0.0
 36
1.0
 17
0.0
 27
0.0
 37
0.0
 40
457.41197966673
 41
1.803066037735849
 42
50.0
 43
0.0
 44
0.0
 50
0.0
 51
0.0
 71
    16
 72
   100
 73
     1
 74
     1
 75
     0
 76
     0
 77
     0
 78
     0
1001
ACAD_NAV_VCDISPLAY
1070
     3
  0
ENDTAB
  0
TABLE
  2
LTYPE
  5
5
330
0
100
AcDbSymbolTable
 70
     3
  0
LTYPE
  5
12
330
5
100
AcDbSymbolTableRecord
100
AcDbLinetypeTableRecord
  2
BYBLOCK
 70
     0
  3

 72
    65
 73
     0
 40
0.0
  0
LTYPE
  5
13
330
5
100
AcDbSymbolTableRecord
100
AcDbLinetypeTableRecord
  2
BYLAYER
 70
     0
  3

 72
    65
 73
     0
 40
0.0
  0
LTYPE
  5
14
330
5
100
AcDbSymbolTableRecord
100
AcDbLinetypeTableRecord
  2
CONTINUOUS
 70
     0
  3
Solid line
 72
    65
 73
     0
 40
0.0
  0
LTYPE
  5
2C03
330
5
100
AcDbSymbolTableRecord
100
AcDbLinetypeTableRecord
  2
HIDDEN
 70
     0
  3
Hidden __ __ __ __ __ __ __ __ __ __ __ __ __ _
 72
    65
 73
     2
 40
9.524999999999999
 49
6.35
 74
     0
 49
-3.175
 74
     0
  0
LTYPE
  5
9837
330
5
100
AcDbSymbolTableRecord
100
AcDbLinetypeTableRecord
  2
CENTER2
 70
     0
  3
Center (.5x) ___ _ ___ _ ___ _ ___ _ ___ _ ___
 72
    65
 73
     4
 40
28.575
 49
19.05
 74
     0
 49
-3.175
 74
     0
 49
3.175
 74
     0
 49
-3.175
 74
     0
  0
ENDTAB
  0
TABLE
  2
LAYER
  5
2
102
{ACAD_XDICTIONARY
360
96D9
102
}
330
0
100
AcDbSymbolTable
 70
     6
  0
LAYER
  5
E
102
{ACAD_XDICTIONARY
360
9593
102
}
330
2
100
AcDbSymbolTableRecord
100
AcDbLayerTableRecord
  2
0
 70
     0
 62
     7
  6
CONTINUOUS
  0
LAYER
  5
29
102
{ACAD_XDICTIONARY
360
9595
102
}
330
2
100
AcDbSymbolTableRecord
100
AcDbLayerTableRecord
  2
1CENTER
 70
     0
 62
     7
  6
CENTER2
  0
LAYER
  5
31
102
{ACAD_XDICTIONARY
360
9597
102
}
330
2
100
AcDbSymbolTableRecord
100
AcDbLayerTableRecord
  2
1TEXT
 70
     0
 62
     7
  6
CONTINUOUS
  0
LAYER
  5
243
102
{ACAD_XDICTIONARY
360
959D
102
}
330
2
100
AcDbSymbolTableRecord
100
AcDbLayerTableRecord
  2
01
 70
     0
 62
     1
  6
CONTINUOUS
  0
LAYER
  5
24E
102
{ACAD_XDICTIONARY
360
95A3
102
}
330
2
100
AcDbSymbolTableRecord
100
AcDbLayerTableRecord
  2
1DIM
 70
     0
 62
     7
  6
CONTINUOUS
  0
LAYER
  5
2C05
102
{ACAD_XDICTIONARY
360
95AF
102
}
330
2
100
AcDbSymbolTableRecord
100
AcDbLayerTableRecord
  2
1HIDDEN
 70
     0
 62
     7
  6
HIDDEN
  0
ENDTAB
  0
TABLE
  2
STYLE
  5
3
330
0
100
AcDbSymbolTable
 70
     1
  0
STYLE
  5
F
330
3
100
AcDbSymbolTableRecord
100
AcDbTextStyleTableRecord
  2
STANDARD
 70
     0
 40
0.0
 41
1.0
 50
0.0
 71
     0
 42
4.0
  3
txt.shx
  4
extfont.shx
  0
ENDTAB
  0
TABLE
  2
VIEW
  5
6
330
0
100
AcDbSymbolTable
 70
     0
  0
ENDTAB
  0
TABLE
  2
UCS
  5
7
330
0
100
AcDbSymbolTable
 70
     0
  0
ENDTAB
  0
TABLE
  2
APPID
  5
9
330
0
100
AcDbSymbolTable
 70
    14
  0
APPID
  5
10
330
9
100
AcDbSymbolTableRecord
100
AcDbRegAppTableRecord
  2
ACAD
 70
     0
  0
APPID
  5
21
330
9
100
AcDbSymbolTableRecord
100
AcDbRegAppTableRecord
  2
DRAWINGVARIABLESXDATA
 70
     0
  0
APPID
  5
64
330
9
100
AcDbSymbolTableRecord
100
AcDbRegAppTableRecord
  2
CONTENTTABDATA
 70
     0
  0
APPID
  5
65
330
9
100
AcDbSymbolTableRecord
100
AcDbRegAppTableRecord
  2
CONTENTCURRENTTAB
 70
     0
  0
APPID
  5
66
330
9
100
AcDbSymbolTableRecord
100
AcDbRegAppTableRecord
  2
CONTENTBLOCKDESCRIPTION
 70
     0
  0
APPID
  5
67
330
9
100
AcDbSymbolTableRecord
100
AcDbRegAppTableRecord
  2
CONTENTBLOCKICON
 70
     0
  0
APPID
  5
68
330
9
100
AcDbSymbolTableRecord
100
AcDbRegAppTableRecord
  2
CONTENTLONGBLOCKNAME
 70
     0
  0
APPID
  5
2AE
330
9
100
AcDbSymbolTableRecord
100
AcDbRegAppTableRecord
  2
ACAD_PSEXT
 70
     0
  0
APPID
  5
9585
330
9
100
AcDbSymbolTableRecord
100
AcDbRegAppTableRecord
  2
ACAD_MLEADERVER
 70
     0
  0
APPID
  5
A2E3
330
9
100
AcDbSymbolTableRecord
100
AcDbRegAppTableRecord
  2
ACADANNOTATIVE
 70
     0
  0
APPID
  5
A2E4
330
9
100
AcDbSymbolTableRecord
100
AcDbRegAppTableRecord
  2
ACDBBLOCKREPETAG
 70
     0
  0
APPID
  5
AEB1
330
9
100
AcDbSymbolTableRecord
100
AcDbRegAppTableRecord
  2
ACAD_NAV_VCDISPLAY
 70
     0
  0
APPID
  5
B6A4
330
9
100
AcDbSymbolTableRecord
100
AcDbRegAppTableRecord
  2
ACAECLAYERSTANDARD
 70
     0
  0
APPID
  5
E1EF
330
9
100
AcDbSymbolTableRecord
100
AcDbRegAppTableRecord
  2
ACAD_EXEMPT_FROM_CAD_STAND
 70
     0
  0
ENDTAB
  0
TABLE
  2
DIMSTYLE
  5
A
330
0
100
AcDbSymbolTable
 70
     1
  0
DIMSTYLE
105
48
330
A
100
AcDbSymbolTableRecord
100
AcDbDimStyleTableRecord
  2
NEWX10
 70
     0
  3
 
  4

  5

  6
OPEN30
  7
OPEN30
 40
1.0
 41
2.0
 42
0.0
 43
7.0
 44
1.0
 45
0.0
 46
0.0
 47
0.0
 48
0.0
140
3.5
141
0.0
142
0.0
143
25.4
144
1.0
145
0.0
146
0.7
147
0.7
 71
     0
 72
     0
 73
     0
 74
     0
 75
     0
 76
     0
 77
     1
 78
     8
170
     0
171
     2
172
     1
173
     1
174
     0
175
     0
176
   256
177
   256
178
   201
179
     2
270
     2
271
     2
272
     4
273
     2
274
     2
340
F
275
     0
280
     0
281
     0
282
     0
283
     1
284
     8
285
     0
286
     0
287
     2
288
     0
  0
ENDTAB
  0
TABLE
  2
BLOCK_RECORD
  5
1
330
0
100
AcDbSymbolTable
 70
     8
  0
BLOCK_RECORD
  5
18
102
{ACAD_XDICTIONARY
360
88F
102
}
330
1
100
AcDbSymbolTableRecord
100
AcDbBlockTableRecord
  2
*MODEL_SPACE
  0
BLOCK_RECORD
  5
15
330
1
100
AcDbSymbolTableRecord
100
AcDbBlockTableRecord
  2
*PAPER_SPACE
  0
BLOCK_RECORD
  5
42
330
1
100
AcDbSymbolTableRecord
100
AcDbBlockTableRecord
  2
_OPEN30
  0
BLOCK_RECORD
  5
A333
330
1
100
AcDbSymbolTableRecord
100
AcDbBlockTableRecord
  2
A3WAKUKAWAJUN2017_HYOUDAI_
  0
BLOCK_RECORD
  5
11798
330
1
100
AcDbSymbolTableRecord
100
AcDbBlockTableRecord
  2
*X306
  0
BLOCK_RECORD
  5
117E6
330
1
100
AcDbSymbolTableRecord
100
AcDbBlockTableRecord
  2
*X307
  0
BLOCK_RECORD
  5
11838
330
1
100
AcDbSymbolTableRecord
100
AcDbBlockTableRecord
  2
*X308
  0
BLOCK_RECORD
  5
11889
330
1
100
AcDbSymbolTableRecord
100
AcDbBlockTableRecord
  2
*X309
  0
BLOCK_RECORD
  5
118C6
330
1
100
AcDbSymbolTableRecord
100
AcDbBlockTableRecord
  2
*X310
  0
BLOCK_RECORD
  5
11906
330
1
100
AcDbSymbolTableRecord
100
AcDbBlockTableRecord
  2
*X311
  0
ENDTAB
  0
ENDSEC
  0
SECTION
  2
BLOCKS
  0
BLOCK
  5
19
330
18
100
AcDbEntity
  8
0
100
AcDbBlockBegin
  2
*MODEL_SPACE
 70
     0
 10
0.0
 20
0.0
 30
0.0
  3
*MODEL_SPACE
  1

  0
ENDBLK
  5
1A
330
18
100
AcDbEntity
  8
0
100
AcDbBlockEnd
  0
BLOCK
  5
16
330
15
100
AcDbEntity
 67
     1
  8
0
100
AcDbBlockBegin
  2
*PAPER_SPACE
 70
     0
 10
0.0
 20
0.0
 30
0.0
  3
*PAPER_SPACE
  1

  0
ENDBLK
  5
17
330
15
100
AcDbEntity
 67
     1
  8
0
100
AcDbBlockEnd
  0
BLOCK
  5
43
330
42
100
AcDbEntity
  8
0
100
AcDbBlockBegin
  2
_OPEN30
 70
     0
 10
0.0
 20
0.0
 30
0.0
  3
_OPEN30
  1

  0
LINE
  5
44
330
42
100
AcDbEntity
  8
0
  6
BYBLOCK
 62
     0
100
AcDbLine
 10
-1.0
 20
0.26794919
 30
0.0
 11
0.0
 21
0.0
 31
0.0
  0
LINE
  5
45
330
42
100
AcDbEntity
  8
0
  6
BYBLOCK
 62
     0
100
AcDbLine
 10
0.0
 20
0.0
 30
0.0
 11
-1.0
 21
-0.26794919
 31
0.0
  0
LINE
  5
46
330
42
100
AcDbEntity
  8
0
  6
BYBLOCK
 62
     0
100
AcDbLine
 10
0.0
 20
0.0
 30
0.0
 11
-1.0
 21
0.0
 31
0.0
  0
ENDBLK
  5
47
330
42
100
AcDbEntity
  8
0
100
AcDbBlockEnd
  0
BLOCK
  5
AA56
330
A333
100
AcDbEntity
  8
0
100
AcDbBlockBegin
  2
A3WAKUKAWAJUN2017_HYOUDAI_
 70
     0
 10
0.0
 20
0.0
 30
0.0
  3
A3WAKUKAWAJUN2017_HYOUDAI_
  1

  0
LINE
  5
A335
330
A333
100
AcDbEntity
  8
0
100
AcDbLine
 10
13.26299999998673
 20
-0.0001000000000317
 30
0.0
 11
9.236999999990758
 21
8.999899999990987
 31
0.0
1001
ACAD
1000
ASC_BOUNDS
1002
{
1070
    19
1005
A376
1002
}
  0
LINE
  5
A336
330
A333
100
AcDbEntity
  8
0
100
AcDbLine
 10
5.657999999994331
 20
0.9999999999989768
 30
0.0
 11
9.236999999990758
 21
8.999999999991019
 31
0.0
1001
ACAD
1000
ASC_BOUNDS
1002
{
1070
    19
1005
A376
1002
}
  0
LINE
  5
A337
330
A333
100
AcDbEntity
  8
0
100
AcDbLine
 10
18.59199999998134
 20
-0.2368999999997641
 30
0.0
 11
16.46099999998353
 21
5.432899999994561
 31
0.0
1001
ACAD
1000
ASC_BOUNDS
1002
{
1070
    19
1005
A377
1002
}
  0
LINE
  5
A338
330
A333
100
AcDbEntity
  8
0
100
AcDbLine
 10
18.59199999998134
 20
-0.2368999999997641
 30
0.0
 11
22.38199999997767
 21
8.763099999991255
 31
0.0
1001
ACAD
1000
ASC_BOUNDS
1002
{
1070
    19
1005
A377
1002
}
  0
LINE
  5
A339
330
A333
100
AcDbEntity
  8
0
100
AcDbLine
 10
14.32899999998563
 20
-0.2368999999997641
 30
0.0
 11
16.46099999998353
 21
5.432899999994561
 31
0.0
1001
ACAD
1000
ASC_BOUNDS
1002
{
1070
    19
1005
A377
1002
}
  0
LINE
  5
A33A
330
A333
100
AcDbEntity
  8
0
100
AcDbLine
 10
14.32899999998563
 20
-0.2368999999997641
 30
0.0
 11
10.53899999998941
 21
8.763099999991255
 31
0.0
1001
ACAD
1000
ASC_BOUNDS
1002
{
1070
    19
1005
A377
1002
}
  0
LINE
  5
A33B
330
A333
100
AcDbEntity
  8
0
100
AcDbLine
 10
19.53899999998043
 20
-0.0001000000000317
 30
0.0
 11
23.56599999997638
 21
8.999899999990987
 31
0.0
1001
ACAD
1000
ASC_BOUNDS
1002
{
1070
    19
1005
A378
1002
}
  0
LINE
  5
A33C
330
A333
100
AcDbEntity
  8
0
100
AcDbLine
 10
26.97358892824991
 20
1.383099999991202
 30
0.0
 11
23.56599999997638
 21
8.999899999990987
 31
0.0
1001
ACAD
1000
ASC_BOUNDS
1002
{
1070
    19
1005
A378
1002
}
  0
LINE
  5
A33D
330
A333
100
AcDbEntity
  8
0
100
AcDbLine
 10
5.657999999994331
 20
0.9999999999989768
 30
0.0
 11
3.181999999996833
 21
4.668599999995308
 31
0.0
1001
ACAD
1000
ASC_BOUNDS
1002
{
1070
    19
1005
A376
1002
}
  0
LINE
  5
A33E
330
A333
100
AcDbEntity
  8
0
100
AcDbLine
 10
4.617999999995391
 20
-0.0001000000000317
 30
0.0
 11
1.420999999998571
 21
4.736799999995242
 31
0.0
1001
ACAD
1000
ASC_BOUNDS
1002
{
1070
    19
1005
A376
1002
}
  0
LINE
  5
A33F
330
A333
100
AcDbEntity
  8
0
100
AcDbLine
 10
1.420999999998571
 20
8.763099999991255
 30
0.0
 11
1.420999999998571
 21
0.0
 31
0.0
1001
ACAD
1000
ASC_BOUNDS
1002
{
1070
    19
1005
A37B
1002
}
  0
LINE
  5
A340
330
A333
100
AcDbEntity
  8
0
100
AcDbLine
 10
0.0
 20
8.763099999991255
 30
0.0
 11
0.0
 21
0.0
 31
0.0
1001
ACAD
1000
ASC_BOUNDS
1002
{
1070
    19
1005
A37B
1002
}
  0
LINE
  5
A341
330
A333
100
AcDbEntity
  8
0
100
AcDbLine
 10
6.766999999993232
 20
-0.0001000000000317
 30
0.0
 11
7.826999999992154
 21
2.368399999997621
 31
0.0
1001
ACAD
1000
ASC_BOUNDS
1002
{
1070
    19
1005
A376
1002
}
  0
LINE
  5
A342
330
A333
100
AcDbEntity
  8
0
100
AcDbLine
 10
0.0
 20
0.0
 30
0.0
 11
1.420999999998571
 21
0.0
 31
0.0
1001
ACAD
1000
ASC_BOUNDS
1002
{
1070
    19
1005
A37B
1002
}
  0
LINE
  5
A343
330
A333
100
AcDbEntity
  8
0
100
AcDbLine
 10
4.617999999995391
 20
0.0
 30
0.0
 11
6.766999999993232
 21
0.0
 31
0.0
1001
ACAD
1000
ASC_BOUNDS
1002
{
1070
    19
1005
A376
1002
}
  0
LINE
  5
A344
330
A333
100
AcDbEntity
  8
0
100
AcDbLine
 10
11.70599999998831
 20
-0.0001000000000317
 30
0.0
 11
10.64699999998936
 21
2.368399999997621
 31
0.0
1001
ACAD
1000
ASC_BOUNDS
1002
{
1070
    19
1005
A376
1002
}
  0
LINE
  5
A345
330
A333
100
AcDbEntity
  8
0
100
AcDbLine
 10
7.826999999992154
 20
2.368399999997621
 30
0.0
 11
10.64699999998936
 21
2.368399999997621
 31
0.0
1001
ACAD
1000
ASC_BOUNDS
1002
{
1070
    19
1005
A376
1002
}
  0
LINE
  5
A346
330
A333
100
AcDbEntity
  8
0
100
AcDbLine
 10
11.70599999998831
 20
0.0
 30
0.0
 11
13.26299999998673
 21
0.0
 31
0.0
1001
ACAD
1000
ASC_BOUNDS
1002
{
1070
    19
1005
A376
1002
}
  0
LINE
  5
A347
330
A333
100
AcDbEntity
  8
0
100
AcDbLine
 10
22.15599999997789
 20
2.368399999997621
 30
0.0
 11
24.97599999997499
 21
2.368399999997621
 31
0.0
1001
ACAD
1000
ASC_BOUNDS
1002
{
1070
    19
1005
A378
1002
}
  0
LINE
  5
A348
330
A333
100
AcDbEntity
  8
0
100
AcDbLine
 10
19.53899999998043
 20
0.0
 30
0.0
 11
21.09599999997886
 21
0.0
 31
0.0
1001
ACAD
1000
ASC_BOUNDS
1002
{
1070
    19
1005
A378
1002
}
  0
LINE
  5
A349
330
A333
100
AcDbEntity
  8
0
100
AcDbLine
 10
21.09599999997886
 20
-0.0001000000000317
 30
0.0
 11
22.15599999997789
 21
2.368399999997621
 31
0.0
1001
ACAD
1000
ASC_BOUNDS
1002
{
1070
    19
1005
A378
1002
}
  0
LINE
  5
A34A
330
A333
100
AcDbEntity
  8
0
100
AcDbLine
 10
26.02015566812236
 20
0.0330999999912365
 30
0.0
 11
24.97599999997499
 21
2.368399999997621
 31
0.0
1001
ACAD
1000
ASC_BOUNDS
1002
{
1070
    19
1005
A378
1002
}
  0
LINE
  5
A34B
330
A333
100
AcDbEntity
  8
0
100
AcDbLine
 10
14.32399999998563
 20
3.315799999996671
 30
0.0
 11
16.46099999998353
 21
8.999899999990987
 31
0.0
1001
ACAD
1000
ASC_BOUNDS
1002
{
1070
    19
1005
A377
1002
}
  0
LINE
  5
A34C
330
A333
100
AcDbEntity
  8
0
100
AcDbLine
 10
6.432999999993513
 20
8.763099999991255
 30
0.0
 11
3.181999999996833
 21
4.668599999995308
 31
0.0
1001
ACAD
1000
ASC_BOUNDS
1002
{
1070
    19
1005
A376
1002
}
  0
LINE
  5
A34D
330
A333
100
AcDbEntity
  8
0
100
AcDbLine
 10
4.617999999995391
 20
8.763099999991255
 30
0.0
 11
1.420999999998571
 21
4.736799999995242
 31
0.0
1001
ACAD
1000
ASC_BOUNDS
1002
{
1070
    19
1005
A376
1002
}
  0
LINE
  5
A34E
330
A333
100
AcDbEntity
  8
0
100
AcDbLine
 10
0.0
 20
8.763099999991255
 30
0.0
 11
1.420999999998571
 21
8.763099999991255
 31
0.0
1001
ACAD
1000
ASC_BOUNDS
1002
{
1070
    19
1005
A37B
1002
}
  0
LINE
  5
A34F
330
A333
100
AcDbEntity
  8
0
100
AcDbLine
 10
4.617999999995391
 20
8.763099999991255
 30
0.0
 11
6.432999999993513
 21
8.763099999991255
 31
0.0
1001
ACAD
1000
ASC_BOUNDS
1002
{
1070
    19
1005
A376
1002
}
  0
LINE
  5
A350
330
A333
100
AcDbEntity
  8
0
100
AcDbLine
 10
14.32399999998563
 20
3.315799999996671
 30
0.0
 11
12.02999999998792
 21
8.763099999991255
 31
0.0
1001
ACAD
1000
ASC_BOUNDS
1002
{
1070
    19
1005
A377
1002
}
  0
LINE
  5
A351
330
A333
100
AcDbEntity
  8
0
100
AcDbLine
 10
10.06399999998996
 20
3.670999999996297
 30
0.0
 11
9.236999999990758
 21
5.5200999999945
 31
0.0
1001
ACAD
1000
ASC_BOUNDS
1002
{
1070
    19
1005
A376
1002
}
  0
LINE
  5
A352
330
A333
100
AcDbEntity
  8
0
100
AcDbLine
 10
8.409999999991555
 20
3.670999999996297
 30
0.0
 11
9.236999999990758
 21
5.5200999999945
 31
0.0
1001
ACAD
1000
ASC_BOUNDS
1002
{
1070
    19
1005
A376
1002
}
  0
LINE
  5
A353
330
A333
100
AcDbEntity
  8
0
100
AcDbLine
 10
8.409999999991555
 20
3.670999999996297
 30
0.0
 11
10.06399999998996
 21
3.670999999996297
 31
0.0
1001
ACAD
1000
ASC_BOUNDS
1002
{
1070
    19
1005
A376
1002
}
  0
LINE
  5
A354
330
A333
100
AcDbEntity
  8
0
100
AcDbLine
 10
10.53899999998941
 20
8.763099999991255
 30
0.0
 11
12.02999999998792
 21
8.763099999991255
 31
0.0
1001
ACAD
1000
ASC_BOUNDS
1002
{
1070
    19
1005
A377
1002
}
  0
LINE
  5
A355
330
A333
100
AcDbEntity
  8
0
100
AcDbLine
 10
22.7389999999773
 20
3.670999999996297
 30
0.0
 11
23.56599999997638
 21
5.5200999999945
 31
0.0
1001
ACAD
1000
ASC_BOUNDS
1002
{
1070
    19
1005
A378
1002
}
  0
LINE
  5
A356
330
A333
100
AcDbEntity
  8
0
100
AcDbLine
 10
22.7389999999773
 20
3.670999999996297
 30
0.0
 11
24.39299999997559
 21
3.670999999996297
 31
0.0
1001
ACAD
1000
ASC_BOUNDS
1002
{
1070
    19
1005
A378
1002
}
  0
LINE
  5
A357
330
A333
100
AcDbEntity
  8
0
100
AcDbLine
 10
18.59799999998143
 20
3.315799999996671
 30
0.0
 11
20.89099999997916
 21
8.763099999991255
 31
0.0
1001
ACAD
1000
ASC_BOUNDS
1002
{
1070
    19
1005
A377
1002
}
  0
LINE
  5
A358
330
A333
100
AcDbEntity
  8
0
100
AcDbLine
 10
18.59799999998143
 20
3.315799999996671
 30
0.0
 11
16.46099999998353
 21
8.999899999990987
 31
0.0
1001
ACAD
1000
ASC_BOUNDS
1002
{
1070
    19
1005
A377
1002
}
  0
LINE
  5
A359
330
A333
100
AcDbEntity
  8
0
100
AcDbLine
 10
20.89099999997916
 20
8.763099999991255
 30
0.0
 11
22.38199999997767
 21
8.763099999991255
 31
0.0
1001
ACAD
1000
ASC_BOUNDS
1002
{
1070
    19
1005
A377
1002
}
  0
LINE
  5
A35A
330
A333
100
AcDbEntity
  8
0
100
AcDbLine
 10
24.39299999997559
 20
3.670999999996297
 30
0.0
 11
23.56599999997638
 21
5.5200999999945
 31
0.0
1001
ACAD
1000
ASC_BOUNDS
1002
{
1070
    19
1005
A378
1002
}
  0
LINE
  5
A35B
330
A333
100
AcDbEntity
  8
0
100
AcDbLine
 10
44.99999999995498
 20
-0.2368999999997641
 30
0.0
 11
40.02599999995994
 21
5.341799999994635
 31
0.0
1001
ACAD
1000
ASC_BOUNDS
1002
{
1070
    19
1005
A37A
1002
}
  0
LINE
  5
A35C
330
A333
100
AcDbEntity
  8
0
100
AcDbLine
 10
40.02599999995994
 20
5.341799999994635
 30
0.0
 11
40.02599999995994
 21
0.0
 31
0.0
1001
ACAD
1000
ASC_BOUNDS
1002
{
1070
    19
1005
A37A
1002
}
  0
LINE
  5
A35D
330
A333
100
AcDbEntity
  8
0
100
AcDbLine
 10
38.60499999996136
 20
8.999999999991019
 30
0.0
 11
38.60499999996136
 21
0.0
 31
0.0
1001
ACAD
1000
ASC_BOUNDS
1002
{
1070
    19
1005
A37A
1002
}
  0
LINE
  5
A35E
330
A333
100
AcDbEntity
  8
0
100
AcDbLine
 10
44.99999999995498
 20
8.763099999991255
 30
0.0
 11
44.99999999995498
 21
-0.2368999999997641
 31
0.0
1001
ACAD
1000
ASC_BOUNDS
1002
{
1070
    19
1005
A37A
1002
}
  0
LINE
  5
A35F
330
A333
100
AcDbEntity
  8
0
100
AcDbLine
 10
38.60499999996136
 20
0.0
 30
0.0
 11
40.02599999995994
 21
0.0
 31
0.0
1001
ACAD
1000
ASC_BOUNDS
1002
{
1070
    19
1005
A37A
1002
}
  0
LINE
  5
A360
330
A333
100
AcDbEntity
  8
0
100
AcDbLine
 10
43.57899999995641
 20
3.421199999996588
 30
0.0
 11
38.60499999996136
 21
8.999899999990987
 31
0.0
1001
ACAD
1000
ASC_BOUNDS
1002
{
1070
    19
1005
A37A
1002
}
  0
LINE
  5
A361
330
A333
100
AcDbEntity
  8
0
100
AcDbLine
 10
43.57899999995641
 20
8.763099999991255
 30
0.0
 11
43.57899999995641
 21
3.421199999996588
 31
0.0
1001
ACAD
1000
ASC_BOUNDS
1002
{
1070
    19
1005
A37A
1002
}
  0
LINE
  5
A362
330
A333
100
AcDbEntity
  8
0
100
AcDbLine
 10
43.57899999995641
 20
8.763099999991255
 30
0.0
 11
44.99999999995498
 21
8.763099999991255
 31
0.0
1001
ACAD
1000
ASC_BOUNDS
1002
{
1070
    19
1005
A37A
1002
}
  0
LINE
  5
A363
330
A333
100
AcDbEntity
  8
0
100
AcDbLine
 10
37.67199999996831
 20
8.763099999991255
 30
0.0
 11
36.23199999996837
 21
8.763099999991255
 31
0.0
  0
LINE
  5
A364
330
A333
100
AcDbEntity
  8
0
100
AcDbLine
 10
31.64199999996833
 20
8.763099999991255
 30
0.0
 11
31.64199999996833
 21
2.481619422925121
 31
0.0
  0
LINE
  5
A365
330
A333
100
AcDbEntity
  8
0
100
AcDbLine
 10
37.67199999996831
 20
8.763099999991255
 30
0.0
 11
37.67199999996831
 21
2.481619422925121
 31
0.0
  0
LINE
  5
A366
330
A333
100
AcDbEntity
  8
0
100
AcDbLine
 10
36.23199999996837
 20
8.763099999991255
 30
0.0
 11
36.23199999996837
 21
2.481619422925064
 31
0.0
  0
LINE
  5
A367
330
A333
100
AcDbEntity
  8
0
100
AcDbLine
 10
33.08199999996839
 20
8.763099999991255
 30
0.0
 11
33.08199999996839
 21
2.481619422925121
 31
0.0
  0
ARC
  5
A368
330
A333
100
AcDbEntity
  8
0
100
AcDbCircle
 10
34.65699999996832
 20
3.183099999991214
 30
0.0
 40
3.420000000000007
100
AcDbArc
 50
240.0000000000255
 51
299.9999999999766
  0
ARC
  5
A369
330
A333
100
AcDbEntity
  8
0
100
AcDbCircle
 10
34.65699999996832
 20
3.183099999991214
 30
0.0
 40
1.97999999999999
100
AcDbArc
 50
240.000000000026
 51
299.9999999999703
  0
LINE
  5
A36A
330
A333
100
AcDbEntity
  8
0
100
AcDbLine
 10
33.08199999996828
 20
8.763099999991255
 30
0.0
 11
31.64199999996833
 21
8.763099999991255
 31
0.0
  0
ARC
  5
A36B
330
A333
100
AcDbEntity
  8
0
100
AcDbCircle
 10
35.06199999996829
 20
2.481619422925064
 30
0.0
 40
1.17
100
AcDbArc
 50
299.9999999999699
 51
0.0
  0
ARC
  5
A36C
330
A333
100
AcDbEntity
  8
0
100
AcDbCircle
 10
34.25199999996835
 20
2.481619422925121
 30
0.0
 40
1.17
100
AcDbArc
 50
180.0
 51
240.0000000000238
  0
ARC
  5
A36D
330
A333
100
AcDbEntity
  8
0
100
AcDbCircle
 10
35.06199999996841
 20
2.481619422925121
 30
0.0
 40
2.61
100
AcDbArc
 50
299.9999999999756
 51
0.0
  0
ARC
  5
A36E
330
A333
100
AcDbEntity
  8
0
100
AcDbCircle
 10
34.25199999996835
 20
2.481619422925121
 30
0.0
 40
2.61
100
AcDbArc
 50
180.0
 51
240.0000000000244
  0
LINE
  5
A36F
330
A333
100
AcDbEntity
  8
0
100
AcDbLine
 10
29.30199999996933
 20
8.763099999991255
 30
0.0
 11
30.74199999996927
 21
8.763099999991255
 31
0.0
1001
ACAD
1000
ASC_BOUNDS
1002
{
1070
    19
1005
A378
1002
}
  0
LINE
  5
A370
330
A333
100
AcDbEntity
  8
0
100
AcDbLine
 10
30.74199999996927
 20
8.763099999991255
 30
0.0
 11
30.74199999996927
 21
2.373099999991211
 31
0.0
1001
ACAD
1000
ASC_BOUNDS
1002
{
1070
    19
1005
A378
1002
}
  0
LINE
  5
A371
330
A333
100
AcDbEntity
  8
0
100
AcDbLine
 10
26.02015566812236
 20
0.0330999999912365
 30
0.0
 11
28.40199999996923
 21
0.0330999999912365
 31
0.0
1001
ACAD
1000
ASC_BOUNDS
1002
{
1070
    19
1005
A378
1002
}
  0
LINE
  5
A372
330
A333
100
AcDbEntity
  8
0
100
AcDbLine
 10
29.30199999996933
 20
8.763099999991255
 30
0.0
 11
29.30199999996933
 21
2.283099999991236
 31
0.0
1001
ACAD
1000
ASC_BOUNDS
1002
{
1070
    19
1005
A378
1002
}
  0
LINE
  5
A373
330
A333
100
AcDbEntity
  8
0
100
AcDbLine
 10
26.97358892824991
 20
1.383099999991202
 30
0.0
 11
28.40199999996923
 21
1.383099999991202
 31
0.0
1001
ACAD
1000
ASC_BOUNDS
1002
{
1070
    19
1005
A378
1002
}
  0
ARC
  5
A374
330
A333
100
AcDbEntity
  8
0
100
AcDbCircle
 10
28.40199999996923
 20
2.283099999991236
 30
0.0
 40
0.9
100
AcDbArc
 50
270.0
 51
0.0
1001
ACAD
1000
ASC_BOUNDS
1002
{
1070
    19
1005
A378
1002
}
  0
ARC
  5
A375
330
A333
100
AcDbEntity
  8
0
100
AcDbCircle
 10
28.40199999996923
 20
2.373099999991211
 30
0.0
 40
2.34
100
AcDbArc
 50
270.0
 51
0.0
1001
ACAD
1000
ASC_BOUNDS
1002
{
1070
    19
1005
A378
1002
}
  0
INSERT
  5
A376
330
A333
100
AcDbEntity
  8
0
100
AcDbBlockReference
  2
*X306
 10
0.0
 20
0.0
 30
0.0
1001
ACAD
1000
HATCH
1002
{
1070
    19
1000
ANSI37
1040
0.15
1040
0.0
1000
ASC_BOUNDS
1070
     2
1070
     2
1070
    12
1005
A335
1005
A336
1005
A33D
1005
A34C
1005
A34F
1005
A34D
1005
A33E
1005
A343
1005
A341
1005
A345
1005
A344
1005
A346
1070
     2
1070
     3
1005
A351
1005
A353
1005
A352
1000
ASC_SEEDPOINT
1011
3.614004224891801
1021
2.996669441146025
1031
0.0
1000
R14_HATCH_DATA
1000
A376
1011
1.0
1021
0.0
1031
0.0
1011
0.0
1021
1.0
1031
0.0
1011
0.0
1021
0.0
1031
1.0
1040
0.0
1010
0.0
1020
0.0
1030
1.0
1000
ANSI37
1070
     0
1070
     1
1071
        2
1071
        7
1070
     0
1070
     1
1071
       17
1040
13.26299999998673
1040
-0.0001000000000317
1040
9.236999999990758
1040
8.999899999990987
1040
9.236999999990758
1040
8.999999999991019
1040
5.657999999994331
1040
0.9999999999989768
1040
3.181999999996833
1040
4.668599999995308
1040
6.432999999993513
1040
8.763099999991255
1040
4.617999999995391
1040
8.763099999991255
1040
1.420999999998571
1040
4.736799999995242
1040
4.617999999995391
1040
-0.0001000000000317
1040
4.617999999995391
1040
0.0
1040
6.766999999993232
1040
0.0
1040
6.766999999993232
1040
-0.0001000000000317
1040
7.826999999992154
1040
2.368399999997621
1040
10.64699999998936
1040
2.368399999997621
1040
11.70599999998831
1040
-0.0001000000000317
1040
11.70599999998831
1040
0.0
1040
13.26299999998673
1040
0.0
1071
       12
1005
A335
1005
A336
1005
A33D
1005
A34C
1005
A34F
1005
A34D
1005
A33E
1005
A343
1005
A341
1005
A345
1005
A344
1005
A346
1071
       22
1070
     0
1070
     1
1071
        3
1040
9.236999999990758
1040
5.5200999999945
1040
10.06399999998996
1040
3.670999999996297
1040
8.409999999991555
1040
3.670999999996297
1071
        3
1005
A351
1005
A353
1005
A352
1070
     0
1070
     1
1040
0.0
1040
0.15
1070
     0
1070
     2
1040
0.7853981633974483
1040
49.29960901727088
1040
-10.17736998311392
1040
-0.3367596045400932
1040
0.3367596045400932
1070
     0
1040
2.356194490192345
1040
49.29960901727088
1040
-10.17736998311392
1040
-0.3367596045400932
1040
-0.3367596045400932
1070
     0
1040
0.0110235143455945
1071
        2
1040
3.614004224891801
1040
2.996669441146025
1040
0.0
1040
3.614004224891801
1040
2.996669441146025
1040
0.0
1002
}
  0
INSERT
  5
A377
330
A333
100
AcDbEntity
  8
0
100
AcDbBlockReference
  2
*X307
 10
0.0
 20
0.0
 30
0.0
1001
ACAD
1000
HATCH
1002
{
1070
    19
1000
ANSI37
1040
0.15
1040
0.0
1000
ASC_BOUNDS
1070
     1
1070
     2
1070
    10
1005
A337
1005
A338
1005
A359
1005
A357
1005
A358
1005
A34B
1005
A350
1005
A354
1005
A33A
1005
A339
1000
ASC_SEEDPOINT
1011
14.73245321214324
1021
2.798246178283421
1031
0.0
1000
R14_HATCH_DATA
1000
A377
1011
1.0
1021
0.0
1031
0.0
1011
0.0
1021
1.0
1031
0.0
1011
0.0
1021
0.0
1031
1.0
1040
0.0
1010
0.0
1020
0.0
1030
1.0
1000
ANSI37
1070
     0
1070
     1
1071
        1
1071
        7
1070
     0
1070
     1
1071
       10
1040
16.46099999998353
1040
5.432899999994561
1040
18.59199999998134
1040
-0.2368999999997641
1040
22.38199999997767
1040
8.763099999991255
1040
20.89099999997916
1040
8.763099999991255
1040
18.59799999998143
1040
3.315799999996671
1040
16.46099999998353
1040
8.999899999990987
1040
14.32399999998563
1040
3.315799999996671
1040
12.02999999998792
1040
8.763099999991255
1040
10.53899999998941
1040
8.763099999991255
1040
14.32899999998563
1040
-0.2368999999997641
1071
       10
1005
A337
1005
A338
1005
A359
1005
A357
1005
A358
1005
A34B
1005
A350
1005
A354
1005
A33A
1005
A339
1070
     0
1070
     1
1040
0.0
1040
0.15
1070
     0
1070
     2
1040
0.7853981633974483
1040
49.29960901727088
1040
-10.17736998311392
1040
-0.3367596045400932
1040
0.3367596045400932
1070
     0
1040
2.356194490192345
1040
49.29960901727088
1040
-10.17736998311392
1040
-0.3367596045400932
1040
-0.3367596045400932
1070
     0
1040
0.0110235143455945
1071
        1
1040
14.73245321214324
1040
2.798246178283421
1040
0.0
1002
}
  0
INSERT
  5
A378
330
A333
100
AcDbEntity
  8
0
100
AcDbBlockReference
  2
*X308
 10
0.0
 20
0.0
 30
0.0
1001
ACAD
1000
HATCH
1002
{
1070
    19
1000
ANSI37
1040
0.15
1040
0.0
1000
ASC_BOUNDS
1070
     2
1070
     2
1070
    13
1005
A33B
1005
A348
1005
A349
1005
A347
1005
A34A
1005
A371
1005
A375
1005
A370
1005
A36F
1005
A372
1005
A374
1005
A373
1005
A33C
1070
     2
1070
     3
1005
A355
1005
A35A
1005
A356
1000
ASC_SEEDPOINT
1011
21.97929957367762
1021
3.294304244259308
1031
0.0
1000
R14_HATCH_DATA
1000
A378
1011
1.0
1021
0.0
1031
0.0
1011
0.0
1021
1.0
1031
0.0
1011
0.0
1021
0.0
1031
1.0
1040
0.0
1010
0.0
1020
0.0
1030
1.0
1000
ANSI37
1070
     0
1070
     1
1071
        2
1071
        7
1070
     1
1070
     1
1071
       15
1040
23.56599999997638
1040
8.999899999990987
1040
0.0
1040
19.53899999998043
1040
-0.0001000000000317
1040
0.0
1040
19.53899999998043
1040
0.0
1040
0.0
1040
21.09599999997886
1040
0.0
1040
0.0
1040
21.09599999997886
1040
-0.0001000000000317
1040
0.0
1040
22.15599999997789
1040
2.368399999997621
1040
0.0
1040
24.97599999997499
1040
2.368399999997621
1040
0.0
1040
26.02015566812236
1040
0.0330999999912365
1040
0.0
1040
28.40199999996923
1040
0.0330999999912365
1040
0.414213562373095
1040
30.74199999996923
1040
2.373099999991211
1040
0.0
1040
30.74199999996927
1040
8.763099999991255
1040
0.0
1040
29.30199999996933
1040
8.763099999991255
1040
0.0
1040
29.30199999996933
1040
2.283099999991236
1040
-0.414213562373095
1040
28.40199999996923
1040
1.383099999991237
1040
0.0
1040
26.97358892824991
1040
1.383099999991202
1040
0.0
1071
       13
1005
A33B
1005
A348
1005
A349
1005
A347
1005
A34A
1005
A371
1005
A375
1005
A370
1005
A36F
1005
A372
1005
A374
1005
A373
1005
A33C
1071
       22
1070
     0
1070
     1
1071
        3
1040
22.7389999999773
1040
3.670999999996297
1040
23.56599999997638
1040
5.5200999999945
1040
24.39299999997559
1040
3.670999999996297
1071
        3
1005
A355
1005
A35A
1005
A356
1070
     0
1070
     1
1040
0.0
1040
0.15
1070
     0
1070
     2
1040
0.7853981633974483
1040
49.29960901727088
1040
-10.17736998311392
1040
-0.3367596045400932
1040
0.3367596045400932
1070
     0
1040
2.356194490192345
1040
49.29960901727088
1040
-10.17736998311392
1040
-0.3367596045400932
1040
-0.3367596045400932
1070
     0
1040
0.0110235143455945
1071
        2
1040
21.97929957367762
1040
3.294304244259308
1040
0.0
1040
21.97929957367762
1040
3.294304244259308
1040
0.0
1002
}
  0
INSERT
  5
A379
330
A333
100
AcDbEntity
  8
0
100
AcDbBlockReference
  2
*X309
 10
0.0
 20
0.0
 30
0.0
1001
ACAD
1000
HATCH
1002
{
1070
    19
1000
ANSI37
1040
0.15
1040
0.0
1000
R14_HATCH_DATA
1000
A379
1011
1.0
1021
0.0
1031
0.0
1011
0.0
1021
1.0
1031
0.0
1011
0.0
1021
0.0
1031
1.0
1040
0.0
1010
0.0
1020
0.0
1030
1.0
1000
ANSI37
1070
     0
1070
     1
1071
        1
1071
        7
1070
     1
1070
     1
1071
       12
1040
31.64199999996833
1040
2.481619422925121
1040
0.2679491924310942
1040
32.94699999997067
1040
0.2212931190493919
1040
0.2679491924301353
1040
36.36699999995983
1040
0.2212931190459813
1040
0.2679491924321411
1040
37.67199999996831
1040
2.481619422928361
1040
0.0
1040
37.67199999996831
1040
8.763099999991255
1040
0.0
1040
36.23199999996837
1040
8.763099999991255
1040
0.0
1040
36.23199999996837
1040
2.481619422925064
1040
-0.2679491924310291
1040
35.64699999996708
1040
1.468369700498386
1040
-0.267949192430519
1040
33.66699999997093
1040
1.468369700497703
1040
-0.267949192431809
1040
33.08199999996839
1040
2.481619422926997
1040
0.0
1040
33.08199999996839
1040
8.763099999991255
1040
0.0
1040
31.64199999996833
1040
8.763099999991255
1040
0.0
1071
        0
1070
     0
1070
     1
1040
0.0
1040
0.15
1070
     0
1070
     2
1040
0.7853981633974483
1040
49.29960901727088
1040
-10.17736998311392
1040
-0.3367596045400932
1040
0.3367596045400932
1070
     0
1040
2.356194490192345
1040
49.29960901727088
1040
-10.17736998311392
1040
-0.3367596045400932
1040
-0.3367596045400932
1070
     0
1040
0.0110235143455945
1071
        1
1040
32.30357378967278
1040
3.988785755459219
1040
0.0
1002
}
  0
INSERT
  5
A37A
330
A333
100
AcDbEntity
  8
0
100
AcDbBlockReference
  2
*X310
 10
0.0
 20
0.0
 30
0.0
1001
ACAD
1000
HATCH
1002
{
1070
    19
1000
ANSI37
1040
0.15
1040
0.0
1000
ASC_BOUNDS
1070
     1
1070
     2
1070
     8
1005
A35B
1005
A35E
1005
A362
1005
A361
1005
A360
1005
A35D
1005
A35F
1005
A35C
1000
ASC_SEEDPOINT
1011
39.74896370716704
1021
4.484843821435049
1031
0.0
1000
R14_HATCH_DATA
1000
A37A
1011
1.0
1021
0.0
1031
0.0
1011
0.0
1021
1.0
1031
0.0
1011
0.0
1021
0.0
1031
1.0
1040
0.0
1010
0.0
1020
0.0
1030
1.0
1000
ANSI37
1070
     0
1070
     1
1071
        1
1071
        7
1070
     0
1070
     1
1071
        9
1040
40.02599999995994
1040
5.341799999994635
1040
44.99999999995498
1040
-0.2368999999997641
1040
44.99999999995498
1040
8.763099999991255
1040
43.57899999995641
1040
8.763099999991255
1040
43.57899999995641
1040
3.421199999996588
1040
38.60499999996136
1040
8.999899999990987
1040
38.60499999996136
1040
8.999999999991019
1040
38.60499999996136
1040
0.0
1040
40.02599999995994
1040
0.0
1071
        8
1005
A35B
1005
A35E
1005
A362
1005
A361
1005
A360
1005
A35D
1005
A35F
1005
A35C
1070
     0
1070
     1
1040
0.0
1040
0.15
1070
     0
1070
     2
1040
0.7853981633974483
1040
49.29960901727088
1040
-10.17736998311392
1040
-0.3367596045400932
1040
0.3367596045400932
1070
     0
1040
2.356194490192345
1040
49.29960901727088
1040
-10.17736998311392
1040
-0.3367596045400932
1040
-0.3367596045400932
1070
     0
1040
0.0110235143455945
1071
        1
1040
39.74896370716704
1040
4.484843821435049
1040
0.0
1002
}
  0
INSERT
  5
A37B
330
A333
100
AcDbEntity
  8
0
100
AcDbBlockReference
  2
*X311
 10
0.0
 20
0.0
 30
0.0
1001
ACAD
1000
HATCH
1002
{
1070
    19
1000
ANSI37
1040
0.15
1040
0.0
1000
ASC_BOUNDS
1070
     1
1070
     2
1070
     4
1005
A33F
1005
A34E
1005
A340
1005
A342
1000
ASC_SEEDPOINT
1011
1.079051535452663
1021
4.148538732891836
1031
0.0
1000
R14_HATCH_DATA
1000
A37B
1011
1.0
1021
0.0
1031
0.0
1011
0.0
1021
1.0
1031
0.0
1011
0.0
1021
0.0
1031
1.0
1040
0.0
1010
0.0
1020
0.0
1030
1.0
1000
ANSI37
1070
     0
1070
     1
1071
        1
1071
        7
1070
     0
1070
     1
1071
        4
1040
1.420999999998571
1040
0.0
1040
1.420999999998571
1040
8.763099999991255
1040
0.0
1040
8.763099999991255
1040
0.0
1040
0.0
1071
        4
1005
A33F
1005
A34E
1005
A340
1005
A342
1070
     0
1070
     1
1040
0.0
1040
0.15
1070
     0
1070
     2
1040
0.7853981633974483
1040
49.29960901727088
1040
-10.17736998311392
1040
-0.3367596045400932
1040
0.3367596045400932
1070
     0
1040
2.356194490192345
1040
49.29960901727088
1040
-10.17736998311392
1040
-0.3367596045400932
1040
-0.3367596045400932
1070
     0
1040
0.0053004257112761
1071
        1
1040
1.079051535452663
1040
4.148538732891836
1040
0.0
1002
}
  0
ENDBLK
  5
AA57
330
A333
100
AcDbEntity
  8
0
100
AcDbBlockEnd
  0
BLOCK
  5
11926
330
11798
100
AcDbEntity
  8
0
100
AcDbBlockBegin
  2
*X306
 70
     1
 10
0.0
 20
0.0
 30
0.0
  3
*X306
  1

  0
LINE
  5
11799
330
11798
100
AcDbEntity
  8
0
  6
CONTINUOUS
100
AcDbLine
 10
3.418023043697893
 20
7.251849696850613
 30
0.0
 11
4.929273346838536
 21
8.763099999991255
 31
0.0
  0
LINE
  5
1179A
330
11798
100
AcDbEntity
  8
0
  6
CONTINUOUS
100
AcDbLine
 10
1.483656411257782
 20
4.643963855330318
 30
0.0
 11
5.60279255591872
 21
8.763099999991255
 31
0.0
  0
LINE
  5
1179B
330
11798
100
AcDbEntity
  8
0
  6
CONTINUOUS
100
AcDbLine
 10
1.755053947328235
 20
4.241842182320584
 30
0.0
 11
6.276311764998907
 21
8.763099999991255
 31
0.0
  0
LINE
  5
1179C
330
11798
100
AcDbEntity
  8
0
  6
CONTINUOUS
100
AcDbLine
 10
2.026451483398688
 20
3.839720509310849
 30
0.0
 11
4.441040904851878
 21
6.254309930764039
 31
0.0
  0
LINE
  5
1179D
330
11798
100
AcDbEntity
  8
0
  6
CONTINUOUS
100
AcDbLine
 10
2.297849019469139
 20
3.437598836301114
 30
0.0
 11
3.321765168359338
 21
4.461514985191313
 31
0.0
  0
LINE
  5
1179E
330
11798
100
AcDbEntity
  8
0
  6
CONTINUOUS
100
AcDbLine
 10
2.569246555539591
 20
3.03547716329138
 30
0.0
 11
3.593163397972743
 21
4.059394005724531
 31
0.0
  0
LINE
  5
1179F
330
11798
100
AcDbEntity
  8
0
  6
CONTINUOUS
100
AcDbLine
 10
2.840644091610043
 20
2.633355490281646
 30
0.0
 11
3.864561627586149
 21
3.657273026257751
 31
0.0
  0
LINE
  5
117A0
330
11798
100
AcDbEntity
  8
0
  6
CONTINUOUS
100
AcDbLine
 10
3.112041627680496
 20
2.231233817271911
 30
0.0
 11
4.135959857199554
 21
3.25515204679097
 31
0.0
  0
LINE
  5
117A1
330
11798
100
AcDbEntity
  8
0
  6
CONTINUOUS
100
AcDbLine
 10
3.383439163750948
 20
1.829112144262177
 30
0.0
 11
4.40735808681296
 21
2.853031067324189
 31
0.0
  0
LINE
  5
117A2
330
11798
100
AcDbEntity
  8
0
  6
CONTINUOUS
100
AcDbLine
 10
3.654836699821399
 20
1.426990471252442
 30
0.0
 11
4.678756316426365
 21
2.450910087857407
 31
0.0
  0
LINE
  5
117A3
330
11798
100
AcDbEntity
  8
0
  6
CONTINUOUS
100
AcDbLine
 10
3.926234235891853
 20
1.024868798242709
 30
0.0
 11
4.95015454603977
 21
2.048789108390626
 31
0.0
  0
LINE
  5
117A4
330
11798
100
AcDbEntity
  8
0
  6
CONTINUOUS
100
AcDbLine
 10
4.197631771962304
 20
0.6227471252329737
 30
0.0
 11
5.221552775653176
 21
1.646668128923846
 31
0.0
  0
LINE
  5
117A5
330
11798
100
AcDbEntity
  8
0
  6
CONTINUOUS
100
AcDbLine
 10
8.715877546767851
 20
7.835069736359266
 30
0.0
 11
9.435953450375058
 21
8.555145639966472
 31
0.0
  0
LINE
  5
117A6
330
11798
100
AcDbEntity
  8
0
  6
CONTINUOUS
100
AcDbLine
 10
8.170620868422267
 20
6.616293848933497
 30
0.0
 11
9.644120833743461
 21
8.08979381425469
 31
0.0
  0
LINE
  5
117A7
330
11798
100
AcDbEntity
  8
0
  6
CONTINUOUS
100
AcDbLine
 10
7.625364190076684
 20
5.397517961507727
 30
0.0
 11
9.852288217111864
 21
7.624441988542907
 31
0.0
  0
LINE
  5
117A8
330
11798
100
AcDbEntity
  8
0
  6
CONTINUOUS
100
AcDbLine
 10
7.080107511731101
 20
4.178742074081957
 30
0.0
 11
10.06045560048027
 21
7.159090162831124
 31
0.0
  0
LINE
  5
117A9
330
11798
100
AcDbEntity
  8
0
  6
CONTINUOUS
100
AcDbLine
 10
6.534850833385518
 20
2.959966186656187
 30
0.0
 11
10.26862298384867
 21
6.693738337119342
 31
0.0
  0
LINE
  5
117AA
330
11798
100
AcDbEntity
  8
0
  6
CONTINUOUS
100
AcDbLine
 10
4.469029308032756
 20
0.2206254522232385
 30
0.0
 11
5.492951005266582
 21
1.244547149457064
 31
0.0
  0
LINE
  5
117AB
330
11798
100
AcDbEntity
  8
0
  6
CONTINUOUS
100
AcDbLine
 10
5.989594155039935
 20
1.741190299230417
 30
0.0
 11
8.806950407233131
 21
4.558546551423613
 31
0.0
  0
LINE
  5
117AC
330
11798
100
AcDbEntity
  8
0
  6
CONTINUOUS
100
AcDbLine
 10
9.401251593263643
 20
5.152847737454126
 30
0.0
 11
10.47679036721708
 21
6.228386511407559
 31
0.0
  0
LINE
  5
117AD
330
11798
100
AcDbEntity
  8
0
  6
CONTINUOUS
100
AcDbLine
 10
4.921837203428691
 20
-0.0000858614610131
 30
0.0
 11
8.592923064886001
 21
3.670999999996297
 31
0.0
  0
LINE
  5
117AE
330
11798
100
AcDbEntity
  8
0
  6
CONTINUOUS
100
AcDbLine
 10
9.609390446785305
 20
4.6874673818956
 30
0.0
 11
10.68495775058548
 21
5.763034685695775
 31
0.0
  0
LINE
  5
117AF
330
11798
100
AcDbEntity
  8
0
  6
CONTINUOUS
100
AcDbLine
 10
5.595387755019432
 20
-0.0000545189504582
 30
0.0
 11
7.716137258923768
 21
2.120694984953879
 31
0.0
  0
LINE
  5
117B0
330
11798
100
AcDbEntity
  8
0
  6
CONTINUOUS
100
AcDbLine
 10
6.268938306610172
 20
-0.000023176439905
 30
0.0
 11
7.170485805526503
 21
0.9015243224764267
 31
0.0
  0
LINE
  5
117B1
330
11798
100
AcDbEntity
  8
0
  6
CONTINUOUS
100
AcDbLine
 10
7.963842273967511
 20
2.368399999997621
 30
0.0
 11
9.266442273966188
 21
3.670999999996297
 31
0.0
  0
LINE
  5
117B2
330
11798
100
AcDbEntity
  8
0
  6
CONTINUOUS
100
AcDbLine
 10
8.637361483047696
 20
2.368399999997621
 30
0.0
 11
9.939961483046375
 21
3.670999999996297
 31
0.0
  0
LINE
  5
117B3
330
11798
100
AcDbEntity
  8
0
  6
CONTINUOUS
100
AcDbLine
 10
9.817529300306965
 20
4.222087026337075
 30
0.0
 11
10.89312513395388
 21
5.297682859983993
 31
0.0
  0
LINE
  5
117B4
330
11798
100
AcDbEntity
  8
0
  6
CONTINUOUS
100
AcDbLine
 10
10.02566815382863
 20
3.756706670778549
 30
0.0
 11
11.10129251732229
 21
4.832331034272211
 31
0.0
  0
LINE
  5
117B5
330
11798
100
AcDbEntity
  8
0
  6
CONTINUOUS
100
AcDbLine
 10
9.310880692127883
 20
2.368399999997621
 30
0.0
 11
11.30945990069069
 21
4.366979208560428
 31
0.0
  0
LINE
  5
117B6
330
11798
100
AcDbEntity
  8
0
  6
CONTINUOUS
100
AcDbLine
 10
9.98439990120807
 20
2.36839999999762
 30
0.0
 11
11.5176272840591
 21
3.901627382848645
 31
0.0
  0
LINE
  5
117B7
330
11798
100
AcDbEntity
  8
0
  6
CONTINUOUS
100
AcDbLine
 10
10.65037369446246
 20
2.36085458417182
 30
0.0
 11
11.7257946674275
 21
3.436275557136862
 31
0.0
  0
LINE
  5
117B8
330
11798
100
AcDbEntity
  8
0
  6
CONTINUOUS
100
AcDbLine
 10
10.85847197087848
 20
1.895433651507656
 30
0.0
 11
11.9339620507959
 21
2.97092373142508
 31
0.0
  0
LINE
  5
117B9
330
11798
100
AcDbEntity
  8
0
  6
CONTINUOUS
100
AcDbLine
 10
11.0665702472945
 20
1.430012718843491
 30
0.0
 11
12.14212943416431
 21
2.505571905713296
 31
0.0
  0
LINE
  5
117BA
330
11798
100
AcDbEntity
  8
0
  6
CONTINUOUS
100
AcDbLine
 10
11.27466852371052
 20
0.9645917861793256
 30
0.0
 11
12.35029681753271
 21
2.040220080001513
 31
0.0
  0
LINE
  5
117BB
330
11798
100
AcDbEntity
  8
0
  6
CONTINUOUS
100
AcDbLine
 10
11.48276680012654
 20
0.4991708535151611
 30
0.0
 11
12.55846420090111
 21
1.57486825428973
 31
0.0
  0
LINE
  5
117BC
330
11798
100
AcDbEntity
  8
0
  6
CONTINUOUS
100
AcDbLine
 10
11.69086507654257
 20
0.0337499208509957
 30
0.0
 11
12.76663158426952
 21
1.109516428577947
 31
0.0
  0
LINE
  5
117BD
330
11798
100
AcDbEntity
  8
0
  6
CONTINUOUS
100
AcDbLine
 10
12.33057447873954
 20
-0.0000598860322123
 30
0.0
 11
12.97479896763792
 21
0.6441646028661663
 31
0.0
  0
LINE
  5
117BE
330
11798
100
AcDbEntity
  8
0
  6
CONTINUOUS
100
AcDbLine
 10
13.00413694809395
 20
-0.0000166257579952
 30
0.0
 11
13.18296635100632
 21
0.1788127771543824
 31
0.0
  0
LINE
  5
117BF
330
11798
100
AcDbEntity
  8
0
  6
CONTINUOUS
100
AcDbLine
 10
4.772852165289667
 20
-0.000092794222212
 30
0.0
 11
4.296495091028902
 21
0.4762642800385528
 31
0.0
  0
LINE
  5
117C0
330
11798
100
AcDbEntity
  8
0
  6
CONTINUOUS
100
AcDbLine
 10
5.446340034776103
 20
-0.0000614546284616
 30
0.0
 11
2.898195908335625
 21
2.548082671812017
 31
0.0
  0
LINE
  5
117C1
330
11798
100
AcDbEntity
  8
0
  6
CONTINUOUS
100
AcDbLine
 10
6.119827904262539
 20
-0.0000301150347113
 30
0.0
 11
1.499896725642348
 21
4.61990106358548
 31
0.0
  0
LINE
  5
117C2
330
11798
100
AcDbEntity
  8
0
  6
CONTINUOUS
100
AcDbLine
 10
6.775136745476159
 20
0.0181802528318542
 30
0.0
 11
5.699826040202669
 21
1.093490958105344
 31
0.0
  0
LINE
  5
117C3
330
11798
100
AcDbEntity
  8
0
  6
CONTINUOUS
100
AcDbLine
 10
6.983376846288489
 20
0.4834593610997118
 30
0.0
 11
5.908008617934405
 21
1.558827589453796
 31
0.0
  0
LINE
  5
117C4
330
11798
100
AcDbEntity
  8
0
  6
CONTINUOUS
100
AcDbLine
 10
5.377063484962296
 20
1.416253513345719
 30
0.0
 11
1.702276957014131
 21
5.091040041293883
 31
0.0
  0
LINE
  5
117C5
330
11798
100
AcDbEntity
  8
0
  6
CONTINUOUS
100
AcDbLine
 10
3.978745891735324
 20
3.488090315652877
 30
0.0
 11
2.000373521109399
 21
5.466462686278803
 31
0.0
  0
LINE
  5
117C6
330
11798
100
AcDbEntity
  8
0
  6
CONTINUOUS
100
AcDbLine
 10
7.191616947100819
 20
0.948738469367568
 30
0.0
 11
6.11619119566614
 21
2.024164220802247
 31
0.0
  0
LINE
  5
117C7
330
11798
100
AcDbEntity
  8
0
  6
CONTINUOUS
100
AcDbLine
 10
7.399857047913149
 20
1.414017577635424
 30
0.0
 11
6.324373773397875
 21
2.489500852150698
 31
0.0
  0
LINE
  5
117C8
330
11798
100
AcDbEntity
  8
0
  6
CONTINUOUS
100
AcDbLine
 10
7.608097148725479
 20
1.879296685903281
 30
0.0
 11
6.53255635112961
 21
2.95483748349915
 31
0.0
  0
LINE
  5
117C9
330
11798
100
AcDbEntity
  8
0
  6
CONTINUOUS
100
AcDbLine
 10
7.816337249537808
 20
2.344575794171138
 30
0.0
 11
6.740738928861345
 21
3.420174114847601
 31
0.0
  0
LINE
  5
117CA
330
11798
100
AcDbEntity
  8
0
  6
CONTINUOUS
100
AcDbLine
 10
3.310241080789734
 20
4.830114335678653
 30
0.0
 11
2.298470085204666
 21
5.84188533126372
 31
0.0
  0
LINE
  5
117CB
330
11798
100
AcDbEntity
  8
0
  6
CONTINUOUS
100
AcDbLine
 10
3.60832983563551
 20
5.205544789913063
 30
0.0
 11
2.596566649299935
 21
6.217307976248638
 31
0.0
  0
LINE
  5
117CC
330
11798
100
AcDbEntity
  8
0
  6
CONTINUOUS
100
AcDbLine
 10
3.906418590481286
 20
5.580975244147473
 30
0.0
 11
2.894663213395203
 21
6.592730621233557
 31
0.0
  0
LINE
  5
117CD
330
11798
100
AcDbEntity
  8
0
  6
CONTINUOUS
100
AcDbLine
 10
4.204507345327062
 20
5.956405698381884
 30
0.0
 11
3.192759777490472
 21
6.968153266218474
 31
0.0
  0
LINE
  5
117CE
330
11798
100
AcDbEntity
  8
0
  6
CONTINUOUS
100
AcDbLine
 10
8.466032252791512
 20
2.368399999997621
 30
0.0
 11
6.948921506593081
 21
3.885510746196053
 31
0.0
  0
LINE
  5
117CF
330
11798
100
AcDbEntity
  8
0
  6
CONTINUOUS
100
AcDbLine
 10
9.139551461871699
 20
2.36839999999762
 30
0.0
 11
7.157104084324816
 21
4.350847377544504
 31
0.0
  0
LINE
  5
117D0
330
11798
100
AcDbEntity
  8
0
  6
CONTINUOUS
100
AcDbLine
 10
4.502596100172839
 20
6.331836152616295
 30
0.0
 11
3.49085634158574
 21
7.343575911203393
 31
0.0
  0
LINE
  5
117D1
330
11798
100
AcDbEntity
  8
0
  6
CONTINUOUS
100
AcDbLine
 10
4.800684855018615
 20
6.707266606850705
 30
0.0
 11
3.788952905681008
 21
7.718998556188312
 31
0.0
  0
LINE
  5
117D2
330
11798
100
AcDbEntity
  8
0
  6
CONTINUOUS
100
AcDbLine
 10
12.18154012887317
 20
-0.0000694579236642
 30
0.0
 11
11.32140332908496
 21
0.8600673418645499
 31
0.0
  0
LINE
  5
117D3
330
11798
100
AcDbEntity
  8
0
  6
CONTINUOUS
100
AcDbLine
 10
12.85501608323566
 20
-0.0000262032059659
 30
0.0
 11
10.77672456435345
 21
2.078265315676246
 31
0.0
  0
LINE
  5
117D4
330
11798
100
AcDbEntity
  8
0
  6
CONTINUOUS
100
AcDbLine
 10
9.813070670951886
 20
2.36839999999762
 30
0.0
 11
8.51047067095321
 21
3.670999999996297
 31
0.0
  0
LINE
  5
117D5
330
11798
100
AcDbEntity
  8
0
  6
CONTINUOUS
100
AcDbLine
 10
10.48658988003207
 20
2.36839999999762
 30
0.0
 11
9.183989880033396
 21
3.670999999996297
 31
0.0
  0
LINE
  5
117D6
330
11798
100
AcDbEntity
  8
0
  6
CONTINUOUS
100
AcDbLine
 10
8.441048632286794
 20
3.740422038662712
 30
0.0
 11
7.365286662056551
 21
4.816184008892956
 31
0.0
  0
LINE
  5
117D7
330
11798
100
AcDbEntity
  8
0
  6
CONTINUOUS
100
AcDbLine
 10
8.649187485808454
 20
4.205802394221237
 30
0.0
 11
7.573469239788285
 21
5.281520640241407
 31
0.0
  0
LINE
  5
117D8
330
11798
100
AcDbEntity
  8
0
  6
CONTINUOUS
100
AcDbLine
 10
5.098773609864391
 20
7.082697061085115
 30
0.0
 11
4.087049469776277
 21
8.09442120117323
 31
0.0
  0
LINE
  5
117D9
330
11798
100
AcDbEntity
  8
0
  6
CONTINUOUS
100
AcDbLine
 10
5.396862364710167
 20
7.458127515319526
 30
0.0
 11
4.385146033871544
 21
8.469843846158149
 31
0.0
  0
LINE
  5
117DA
330
11798
100
AcDbEntity
  8
0
  6
CONTINUOUS
100
AcDbLine
 10
13.04801363231285
 20
0.4804954567970334
 30
0.0
 11
9.85750908911358
 21
3.670999999996297
 31
0.0
  0
LINE
  5
117DB
330
11798
100
AcDbEntity
  8
0
  6
CONTINUOUS
100
AcDbLine
 10
8.857326339330116
 20
4.671182749779763
 30
0.0
 11
7.781651817520021
 21
5.746857271589858
 31
0.0
  0
LINE
  5
117DC
330
11798
100
AcDbEntity
  8
0
  6
CONTINUOUS
100
AcDbLine
 10
5.694951119555943
 20
7.833557969553937
 30
0.0
 11
4.765409089118624
 21
8.763099999991255
 31
0.0
  0
LINE
  5
117DD
330
11798
100
AcDbEntity
  8
0
  6
CONTINUOUS
100
AcDbLine
 10
12.50286117236978
 20
1.699167125820288
 30
0.0
 11
9.68611877250287
 21
4.515909525687196
 31
0.0
  0
LINE
  5
117DE
330
11798
100
AcDbEntity
  8
0
  6
CONTINUOUS
100
AcDbLine
 10
9.065465192851777
 20
5.136563105338288
 30
0.0
 11
7.989834395251757
 21
6.21219390293831
 31
0.0
  0
LINE
  5
117DF
330
11798
100
AcDbEntity
  8
0
  6
CONTINUOUS
100
AcDbLine
 10
5.993039874401719
 20
8.208988423788346
 30
0.0
 11
5.43892829819881
 21
8.763099999991255
 31
0.0
  0
LINE
  5
117E0
330
11798
100
AcDbEntity
  8
0
  6
CONTINUOUS
100
AcDbLine
 10
11.95770871242671
 20
2.917838794843543
 30
0.0
 11
8.19801697298349
 21
6.677530534286761
 31
0.0
  0
LINE
  5
117E1
330
11798
100
AcDbEntity
  8
0
  6
CONTINUOUS
100
AcDbLine
 10
6.291128629247495
 20
8.584418878022756
 30
0.0
 11
6.112447507278997
 21
8.763099999991255
 31
0.0
  0
LINE
  5
117E2
330
11798
100
AcDbEntity
  8
0
  6
CONTINUOUS
100
AcDbLine
 10
11.41255625248364
 20
4.136510463866797
 30
0.0
 11
8.406199550715227
 21
7.142867165635211
 31
0.0
  0
LINE
  5
117E3
330
11798
100
AcDbEntity
  8
0
  6
CONTINUOUS
100
AcDbLine
 10
10.86740379254057
 20
5.355182132890051
 30
0.0
 11
8.614382128446962
 21
7.608203796983664
 31
0.0
  0
LINE
  5
117E4
330
11798
100
AcDbEntity
  8
0
  6
CONTINUOUS
100
AcDbLine
 10
10.3222513325975
 20
6.573853801913305
 30
0.0
 11
8.822564706178696
 21
8.073540428332114
 31
0.0
  0
LINE
  5
117E5
330
11798
100
AcDbEntity
  8
0
  6
CONTINUOUS
100
AcDbLine
 10
9.777098872654436
 20
7.792525470936562
 30
0.0
 11
9.030747283910433
 21
8.538877059680566
 31
0.0
  0
ENDBLK
  5
11927
330
11798
100
AcDbEntity
  8
0
100
AcDbBlockEnd
  0
BLOCK
  5
11928
330
117E6
100
AcDbEntity
  8
0
100
AcDbBlockBegin
  2
*X307
 70
     1
 10
0.0
 20
0.0
 30
0.0
  3
*X307
  1

  0
LINE
  5
117E7
330
117E6
100
AcDbEntity
  8
0
  6
CONTINUOUS
100
AcDbLine
 10
10.67292308101235
 20
8.445076852443387
 30
0.0
 11
10.99094622856022
 21
8.763099999991255
 31
0.0
  0
LINE
  5
117E8
330
117E6
100
AcDbEntity
  8
0
  6
CONTINUOUS
100
AcDbLine
 10
10.87250383178748
 20
7.971138394138331
 30
0.0
 11
11.6644654376404
 21
8.763099999991255
 31
0.0
  0
LINE
  5
117E9
330
117E6
100
AcDbEntity
  8
0
  6
CONTINUOUS
100
AcDbLine
 10
11.07208458256261
 20
7.497199935833273
 30
0.0
 11
12.12126590876355
 21
8.546381262034211
 31
0.0
  0
LINE
  5
117EA
330
117E6
100
AcDbEntity
  8
0
  6
CONTINUOUS
100
AcDbLine
 10
11.27166533333774
 20
7.023261477528216
 30
0.0
 11
12.32085164573666
 21
8.072447789927136
 31
0.0
  0
LINE
  5
117EB
330
117E6
100
AcDbEntity
  8
0
  6
CONTINUOUS
100
AcDbLine
 10
11.47124608411287
 20
6.549323019223158
 30
0.0
 11
12.52043738270977
 21
7.59851431782006
 31
0.0
  0
LINE
  5
117EC
330
117E6
100
AcDbEntity
  8
0
  6
CONTINUOUS
100
AcDbLine
 10
11.670826834888
 20
6.075384560918101
 30
0.0
 11
12.72002311968288
 21
7.124580845712984
 31
0.0
  0
LINE
  5
117ED
330
117E6
100
AcDbEntity
  8
0
  6
CONTINUOUS
100
AcDbLine
 10
11.87040758566313
 20
5.601446102613043
 30
0.0
 11
12.91960885665599
 21
6.650647373605907
 31
0.0
  0
LINE
  5
117EE
330
117E6
100
AcDbEntity
  8
0
  6
CONTINUOUS
100
AcDbLine
 10
12.06998833643825
 20
5.127507644307986
 30
0.0
 11
13.1191945936291
 21
6.176713901498832
 31
0.0
  0
LINE
  5
117EF
330
117E6
100
AcDbEntity
  8
0
  6
CONTINUOUS
100
AcDbLine
 10
12.26956908721338
 20
4.65356918600293
 30
0.0
 11
13.31878033060221
 21
5.702780429391757
 31
0.0
  0
LINE
  5
117F0
330
117E6
100
AcDbEntity
  8
0
  6
CONTINUOUS
100
AcDbLine
 10
12.46914983798851
 20
4.179630727697873
 30
0.0
 11
13.51836606757532
 21
5.228846957284683
 31
0.0
  0
LINE
  5
117F1
330
117E6
100
AcDbEntity
  8
0
  6
CONTINUOUS
100
AcDbLine
 10
12.66873058876364
 20
3.705692269392816
 30
0.0
 11
13.71795180454843
 21
4.754913485177607
 31
0.0
  0
LINE
  5
117F2
330
117E6
100
AcDbEntity
  8
0
  6
CONTINUOUS
100
AcDbLine
 10
12.86831133953877
 20
3.231753811087759
 30
0.0
 11
13.91753754152154
 21
4.280980013070531
 31
0.0
  0
LINE
  5
117F3
330
117E6
100
AcDbEntity
  8
0
  6
CONTINUOUS
100
AcDbLine
 10
13.0678920903139
 20
2.757815352782702
 30
0.0
 11
14.11712327849465
 21
3.807046540963456
 31
0.0
  0
LINE
  5
117F4
330
117E6
100
AcDbEntity
  8
0
  6
CONTINUOUS
100
AcDbLine
 10
13.26747284108903
 20
2.283876894477644
 30
0.0
 11
14.31670901546777
 21
3.333113068856379
 31
0.0
  0
LINE
  5
117F5
330
117E6
100
AcDbEntity
  8
0
  6
CONTINUOUS
100
AcDbLine
 10
16.36767838827179
 20
8.751678487061342
 30
0.0
 11
16.50332410898388
 21
8.887324207773432
 31
0.0
  0
LINE
  5
117F6
330
117E6
100
AcDbEntity
  8
0
  6
CONTINUOUS
100
AcDbLine
 10
15.96190732182191
 20
7.67238821153127
 30
0.0
 11
16.68735328004734
 21
8.397834169756699
 31
0.0
  0
LINE
  5
117F7
330
117E6
100
AcDbEntity
  8
0
  6
CONTINUOUS
100
AcDbLine
 10
15.55613625537202
 20
6.593097936001196
 30
0.0
 11
16.87138245111079
 21
7.908344131739965
 31
0.0
  0
LINE
  5
117F8
330
117E6
100
AcDbEntity
  8
0
  6
CONTINUOUS
100
AcDbLine
 10
15.15036518892213
 20
5.513807660471122
 30
0.0
 11
17.05541162217424
 21
7.418854093723231
 31
0.0
  0
LINE
  5
117F9
330
117E6
100
AcDbEntity
  8
0
  6
CONTINUOUS
100
AcDbLine
 10
14.74459412247225
 20
4.434517384941048
 30
0.0
 11
17.2394407932377
 21
6.929364055706499
 31
0.0
  0
LINE
  5
117FA
330
117E6
100
AcDbEntity
  8
0
  6
CONTINUOUS
100
AcDbLine
 10
14.33882305602236
 20
3.355227109410975
 30
0.0
 11
17.42346996430115
 21
6.439874017689766
 31
0.0
  0
LINE
  5
117FB
330
117E6
100
AcDbEntity
  8
0
  6
CONTINUOUS
100
AcDbLine
 10
13.46705359186416
 20
1.809938436172586
 30
0.0
 11
16.0819338255367
 21
4.424818669845129
 31
0.0
  0
LINE
  5
117FC
330
117E6
100
AcDbEntity
  8
0
  6
CONTINUOUS
100
AcDbLine
 10
16.63283254238972
 20
4.975717386698149
 30
0.0
 11
17.60749913536461
 21
5.950383979673033
 31
0.0
  0
LINE
  5
117FD
330
117E6
100
AcDbEntity
  8
0
  6
CONTINUOUS
100
AcDbLine
 10
13.66663434263929
 20
1.335999977867529
 30
0.0
 11
15.67604797733754
 21
3.345413612565779
 31
0.0
  0
LINE
  5
117FE
330
117E6
100
AcDbEntity
  8
0
  6
CONTINUOUS
100
AcDbLine
 10
13.86621509341442
 20
0.8620615195624723
 30
0.0
 11
15.27016212913838
 21
2.26600855528643
 31
0.0
  0
LINE
  5
117FF
330
117E6
100
AcDbEntity
  8
0
  6
CONTINUOUS
100
AcDbLine
 10
16.81682257348267
 20
4.486188208710908
 30
0.0
 11
17.79152830642806
 21
5.460893941656299
 31
0.0
  0
LINE
  5
11800
330
117E6
100
AcDbEntity
  8
0
  6
CONTINUOUS
100
AcDbLine
 10
17.00081260457561
 20
3.996659030723667
 30
0.0
 11
17.97555747749151
 21
4.971403903639565
 31
0.0
  0
LINE
  5
11801
330
117E6
100
AcDbEntity
  8
0
  6
CONTINUOUS
100
AcDbLine
 10
20.74362343514722
 20
8.412989070375462
 30
0.0
 11
21.09373436476302
 21
8.763099999991256
 31
0.0
  0
LINE
  5
11802
330
117E6
100
AcDbEntity
  8
0
  6
CONTINUOUS
100
AcDbLine
 10
20.25401257174777
 20
7.249858997895826
 30
0.0
 11
21.7672535738432
 21
8.763099999991255
 31
0.0
  0
LINE
  5
11803
330
117E6
100
AcDbEntity
  8
0
  6
CONTINUOUS
100
AcDbLine
 10
14.06579584418955
 20
0.3881230612574149
 30
0.0
 11
14.86427628093921
 21
1.186603498007082
 31
0.0
  0
LINE
  5
11804
330
117E6
100
AcDbEntity
  8
0
  6
CONTINUOUS
100
AcDbLine
 10
14.26537659496467
 20
-0.0858153970476412
 30
0.0
 11
14.45839043274005
 21
0.1071984407277329
 31
0.0
  0
LINE
  5
11805
330
117E6
100
AcDbEntity
  8
0
  6
CONTINUOUS
100
AcDbLine
 10
17.18480263566856
 20
3.507129852736426
 30
0.0
 11
18.15958664855496
 21
4.481913865622833
 31
0.0
  0
LINE
  5
11806
330
117E6
100
AcDbEntity
  8
0
  6
CONTINUOUS
100
AcDbLine
 10
17.3687926667615
 20
3.017600674749186
 30
0.0
 11
18.34361581961842
 21
3.9924238276061
 31
0.0
  0
LINE
  5
11807
330
117E6
100
AcDbEntity
  8
0
  6
CONTINUOUS
100
AcDbLine
 10
19.76440170834832
 20
6.086728925416191
 30
0.0
 11
22.33924590259489
 21
8.661573119662755
 31
0.0
  0
LINE
  5
11808
330
117E6
100
AcDbEntity
  8
0
  6
CONTINUOUS
100
AcDbLine
 10
19.27479084494887
 20
4.923598852936555
 30
0.0
 11
21.84929622842713
 21
7.498104236414807
 31
0.0
  0
LINE
  5
11809
330
117E6
100
AcDbEntity
  8
0
  6
CONTINUOUS
100
AcDbLine
 10
17.55278269785445
 20
2.528071496761945
 30
0.0
 11
18.52764499068187
 21
3.502933789589366
 31
0.0
  0
LINE
  5
1180A
330
117E6
100
AcDbEntity
  8
0
  6
CONTINUOUS
100
AcDbLine
 10
18.78517998154942
 20
3.760468780456919
 30
0.0
 11
21.35934655425936
 21
6.33463535316686
 31
0.0
  0
LINE
  5
1180B
330
117E6
100
AcDbEntity
  8
0
  6
CONTINUOUS
100
AcDbLine
 10
17.73677272894739
 20
2.038542318774704
 30
0.0
 11
20.8693968800916
 21
5.171166469918914
 31
0.0
  0
LINE
  5
1180C
330
117E6
100
AcDbEntity
  8
0
  6
CONTINUOUS
100
AcDbLine
 10
17.92076276004034
 20
1.549013140787464
 30
0.0
 11
20.37944720592384
 21
4.007697586670968
 31
0.0
  0
LINE
  5
1180D
330
117E6
100
AcDbEntity
  8
0
  6
CONTINUOUS
100
AcDbLine
 10
18.10475279113329
 20
1.059483962800223
 30
0.0
 11
19.88949753175608
 21
2.84422870342302
 31
0.0
  0
LINE
  5
1180E
330
117E6
100
AcDbEntity
  8
0
  6
CONTINUOUS
100
AcDbLine
 10
18.28874282222623
 20
0.5699547848129822
 30
0.0
 11
19.39954785758832
 21
1.680759820175074
 31
0.0
  0
LINE
  5
1180F
330
117E6
100
AcDbEntity
  8
0
  6
CONTINUOUS
100
AcDbLine
 10
18.47273285331918
 20
0.0804256068257416
 30
0.0
 11
18.90959818342056
 21
0.517290936927127
 31
0.0
  0
LINE
  5
11810
330
117E6
100
AcDbEntity
  8
0
  6
CONTINUOUS
100
AcDbLine
 10
14.3590401358224
 20
-0.1570118376323384
 30
0.0
 11
14.24903296539946
 21
-0.0470046672093929
 31
0.0
  0
LINE
  5
11811
330
117E6
100
AcDbEntity
  8
0
  6
CONTINUOUS
100
AcDbLine
 10
14.54309291258661
 20
0.332454594683643
 30
0.0
 11
13.75908329123172
 21
1.116464216038529
 31
0.0
  0
LINE
  5
11812
330
117E6
100
AcDbEntity
  8
0
  6
CONTINUOUS
100
AcDbLine
 10
14.72714568935081
 20
0.8219210269996244
 30
0.0
 11
13.26913361706399
 21
2.27993309928645
 31
0.0
  0
LINE
  5
11813
330
117E6
100
AcDbEntity
  8
0
  6
CONTINUOUS
100
AcDbLine
 10
14.91119846611502
 20
1.311387459315606
 30
0.0
 11
12.77918394289625
 21
3.443401982534371
 31
0.0
  0
LINE
  5
11814
330
117E6
100
AcDbEntity
  8
0
  6
CONTINUOUS
100
AcDbLine
 10
15.09525124287922
 20
1.800853891631587
 30
0.0
 11
12.28923426872852
 21
4.606870865782293
 31
0.0
  0
LINE
  5
11815
330
117E6
100
AcDbEntity
  8
0
  6
CONTINUOUS
100
AcDbLine
 10
15.27930401964343
 20
2.290320323947569
 30
0.0
 11
11.79928459456078
 21
5.770339749030213
 31
0.0
  0
LINE
  5
11816
330
117E6
100
AcDbEntity
  8
0
  6
CONTINUOUS
100
AcDbLine
 10
15.46335679640763
 20
2.77978675626355
 30
0.0
 11
14.48885470994921
 21
3.754288842721972
 31
0.0
  0
LINE
  5
11817
330
117E6
100
AcDbEntity
  8
0
  6
CONTINUOUS
100
AcDbLine
 10
13.88507249233704
 20
4.358071060334137
 30
0.0
 11
11.30933492039305
 21
6.933808632278135
 31
0.0
  0
LINE
  5
11818
330
117E6
100
AcDbEntity
  8
0
  6
CONTINUOUS
100
AcDbLine
 10
18.75840522805855
 20
0.1582575336928151
 30
0.0
 11
18.25383727664818
 21
0.6628254851031863
 31
0.0
  0
LINE
  5
11819
330
117E6
100
AcDbEntity
  8
0
  6
CONTINUOUS
100
AcDbLine
 10
15.64740957317184
 20
3.269253188579531
 30
0.0
 11
14.67288388101266
 21
4.243778880738705
 31
0.0
  0
LINE
  5
1181A
330
117E6
100
AcDbEntity
  8
0
  6
CONTINUOUS
100
AcDbLine
 10
13.39509276772158
 20
5.521569994029786
 30
0.0
 11
10.81938524622531
 21
8.097277515526056
 31
0.0
  0
LINE
  5
1181B
330
117E6
100
AcDbEntity
  8
0
  6
CONTINUOUS
100
AcDbLine
 10
18.95798597883369
 20
0.6321959919978686
 30
0.0
 11
17.84825644852853
 21
1.741925522303024
 31
0.0
  0
LINE
  5
1181C
330
117E6
100
AcDbEntity
  8
0
  6
CONTINUOUS
100
AcDbLine
 10
19.15756672960882
 20
1.106134450302922
 30
0.0
 11
17.44267562040888
 21
2.821025559502861
 31
0.0
  0
LINE
  5
1181D
330
117E6
100
AcDbEntity
  8
0
  6
CONTINUOUS
100
AcDbLine
 10
15.83146234993604
 20
3.758719620895513
 30
0.0
 11
14.85691305207612
 21
4.733268918755439
 31
0.0
  0
LINE
  5
1181E
330
117E6
100
AcDbEntity
  8
0
  6
CONTINUOUS
100
AcDbLine
 10
16.01551512670025
 20
4.248186053211494
 30
0.0
 11
15.04094222313957
 21
5.222758956772172
 31
0.0
  0
LINE
  5
1181F
330
117E6
100
AcDbEntity
  8
0
  6
CONTINUOUS
100
AcDbLine
 10
12.90511304310612
 20
6.685068927725435
 30
0.0
 11
10.8270819708403
 21
8.763099999991255
 31
0.0
  0
LINE
  5
11820
330
117E6
100
AcDbEntity
  8
0
  6
CONTINUOUS
100
AcDbLine
 10
12.41513331849066
 20
7.848567861421083
 30
0.0
 11
11.50060117992049
 21
8.763099999991255
 31
0.0
  0
LINE
  5
11821
330
117E6
100
AcDbEntity
  8
0
  6
CONTINUOUS
100
AcDbLine
 10
19.35714748038395
 20
1.580072908607975
 30
0.0
 11
17.03709479228923
 21
3.900125596702697
 31
0.0
  0
LINE
  5
11822
330
117E6
100
AcDbEntity
  8
0
  6
CONTINUOUS
100
AcDbLine
 10
19.55672823115909
 20
2.054011366913028
 30
0.0
 11
16.63151396416958
 21
4.979225633902534
 31
0.0
  0
LINE
  5
11823
330
117E6
100
AcDbEntity
  8
0
  6
CONTINUOUS
100
AcDbLine
 10
16.19956790346445
 20
4.737652485527476
 30
0.0
 11
15.22497139420302
 21
5.712248994788904
 31
0.0
  0
LINE
  5
11824
330
117E6
100
AcDbEntity
  8
0
  6
CONTINUOUS
100
AcDbLine
 10
16.38362068022866
 20
5.227118917843457
 30
0.0
 11
15.40900056526648
 21
6.201739032805637
 31
0.0
  0
LINE
  5
11825
330
117E6
100
AcDbEntity
  8
0
  6
CONTINUOUS
100
AcDbLine
 10
19.75630898193422
 20
2.527949825218081
 30
0.0
 11
18.70774536448286
 21
3.576513442669441
 31
0.0
  0
LINE
  5
11826
330
117E6
100
AcDbEntity
  8
0
  6
CONTINUOUS
100
AcDbLine
 10
19.95588973270936
 20
3.001888283523134
 30
0.0
 11
18.90726987211446
 21
4.050508144118028
 31
0.0
  0
LINE
  5
11827
330
117E6
100
AcDbEntity
  8
0
  6
CONTINUOUS
100
AcDbLine
 10
20.15547048348449
 20
3.475826741828186
 30
0.0
 11
19.10679437974606
 21
4.524502845566614
 31
0.0
  0
LINE
  5
11828
330
117E6
100
AcDbEntity
  8
0
  6
CONTINUOUS
100
AcDbLine
 10
20.35505123425962
 20
3.94976520013324
 30
0.0
 11
19.30631888737766
 21
4.998497547015201
 31
0.0
  0
LINE
  5
11829
330
117E6
100
AcDbEntity
  8
0
  6
CONTINUOUS
100
AcDbLine
 10
20.55463198503475
 20
4.423703658438292
 30
0.0
 11
19.50584339500926
 21
5.472492248463787
 31
0.0
  0
LINE
  5
1182A
330
117E6
100
AcDbEntity
  8
0
  6
CONTINUOUS
100
AcDbLine
 10
18.37481191085755
 20
3.909446896294752
 30
0.0
 11
15.59302973632993
 21
6.691229070822371
 31
0.0
  0
LINE
  5
1182B
330
117E6
100
AcDbEntity
  8
0
  6
CONTINUOUS
100
AcDbLine
 10
17.96904084440766
 20
4.988737171824825
 30
0.0
 11
15.77705890739338
 21
7.180719108839104
 31
0.0
  0
LINE
  5
1182C
330
117E6
100
AcDbEntity
  8
0
  6
CONTINUOUS
100
AcDbLine
 10
17.56326977795777
 20
6.068027447354899
 30
0.0
 11
15.96108807845684
 21
7.670209146855838
 31
0.0
  0
LINE
  5
1182D
330
117E6
100
AcDbEntity
  8
0
  6
CONTINUOUS
100
AcDbLine
 10
17.15749871150789
 20
7.147317722884972
 30
0.0
 11
16.14511724952029
 21
8.15969918487257
 31
0.0
  0
LINE
  5
1182E
330
117E6
100
AcDbEntity
  8
0
  6
CONTINUOUS
100
AcDbLine
 10
16.751727645058
 20
8.226607998415046
 30
0.0
 11
16.32914642058374
 21
8.649189222889303
 31
0.0
  0
LINE
  5
1182F
330
117E6
100
AcDbEntity
  8
0
  6
CONTINUOUS
100
AcDbLine
 10
20.75421273580989
 20
4.897642116743345
 30
0.0
 11
19.70536790264086
 21
5.946486949912374
 31
0.0
  0
LINE
  5
11830
330
117E6
100
AcDbEntity
  8
0
  6
CONTINUOUS
100
AcDbLine
 10
20.95379348658502
 20
5.371580575048398
 30
0.0
 11
19.90489241027246
 21
6.42048165136096
 31
0.0
  0
LINE
  5
11831
330
117E6
100
AcDbEntity
  8
0
  6
CONTINUOUS
100
AcDbLine
 10
21.15337423736015
 20
5.845519033353452
 30
0.0
 11
20.10441691790406
 21
6.894476352809547
 31
0.0
  0
LINE
  5
11832
330
117E6
100
AcDbEntity
  8
0
  6
CONTINUOUS
100
AcDbLine
 10
21.35295498813529
 20
6.319457491658505
 30
0.0
 11
20.30394142553566
 21
7.368471054258134
 31
0.0
  0
LINE
  5
11833
330
117E6
100
AcDbEntity
  8
0
  6
CONTINUOUS
100
AcDbLine
 10
21.55253573891042
 20
6.793395949963558
 30
0.0
 11
20.50346593316726
 21
7.842465755706721
 31
0.0
  0
LINE
  5
11834
330
117E6
100
AcDbEntity
  8
0
  6
CONTINUOUS
100
AcDbLine
 10
21.75211648968556
 20
7.267334408268612
 30
0.0
 11
20.70299044079886
 21
8.316460457155308
 31
0.0
  0
LINE
  5
11835
330
117E6
100
AcDbEntity
  8
0
  6
CONTINUOUS
100
AcDbLine
 10
21.95169724046069
 20
7.741272866573663
 30
0.0
 11
20.9298701070431
 21
8.763099999991256
 31
0.0
  0
LINE
  5
11836
330
117E6
100
AcDbEntity
  8
0
  6
CONTINUOUS
100
AcDbLine
 10
22.15127799123582
 20
8.215211324878716
 30
0.0
 11
21.60338931612328
 21
8.763099999991256
 31
0.0
  0
LINE
  5
11837
330
117E6
100
AcDbEntity
  8
0
  6
CONTINUOUS
100
AcDbLine
 10
22.35085874201096
 20
8.689149783183769
 30
0.0
 11
22.27690852520347
 21
8.763099999991255
 31
0.0
  0
ENDBLK
  5
11929
330
117E6
100
AcDbEntity
  8
0
100
AcDbBlockEnd
  0
BLOCK
  5
1192A
330
11838
100
AcDbEntity
  8
0
100
AcDbBlockBegin
  2
*X308
 70
     1
 10
0.0
 20
0.0
 30
0.0
  3
*X308
  1

  0
LINE
  5
11839
330
11838
100
AcDbEntity
  8
0
  6
CONTINUOUS
100
AcDbLine
 10
23.19462913593892
 20
8.169917934846424
 30
0.0
 11
23.70775465517246
 21
8.683043454079957
 31
0.0
  0
LINE
  5
1183A
330
11838
100
AcDbEntity
  8
0
  6
CONTINUOUS
100
AcDbLine
 10
22.64923161835078
 20
6.951001208178088
 30
0.0
 11
23.9159364069932
 21
8.217705996820516
 31
0.0
  0
LINE
  5
1183B
330
11838
100
AcDbEntity
  8
0
  6
CONTINUOUS
100
AcDbLine
 10
22.10383410076263
 20
5.732084481509751
 30
0.0
 11
24.12411815881395
 21
7.752368539561078
 31
0.0
  0
LINE
  5
1183C
330
11838
100
AcDbEntity
  8
0
  6
CONTINUOUS
100
AcDbLine
 10
21.55843658317447
 20
4.513167754841414
 30
0.0
 11
24.3322999106347
 21
7.287031082301639
 31
0.0
  0
LINE
  5
1183D
330
11838
100
AcDbEntity
  8
0
  6
CONTINUOUS
100
AcDbLine
 10
21.01303906558632
 20
3.294251028173077
 30
0.0
 11
24.54048166245544
 21
6.821693625042199
 31
0.0
  0
LINE
  5
1183E
330
11838
100
AcDbEntity
  8
0
  6
CONTINUOUS
100
AcDbLine
 10
20.46764154799817
 20
2.075334301504738
 30
0.0
 11
23.28571549467848
 21
4.89340824818505
 31
0.0
  0
LINE
  5
1183F
330
11838
100
AcDbEntity
  8
0
  6
CONTINUOUS
100
AcDbLine
 10
19.92224403041002
 20
0.8564175748364002
 30
0.0
 11
22.74075865492779
 21
3.674932199354171
 31
0.0
  0
LINE
  5
11840
330
11838
100
AcDbEntity
  8
0
  6
CONTINUOUS
100
AcDbLine
 10
23.67305085490148
 20
5.280743608408048
 30
0.0
 11
24.74866341427619
 21
6.356356167782759
 31
0.0
  0
LINE
  5
11841
330
11838
100
AcDbEntity
  8
0
  6
CONTINUOUS
100
AcDbLine
 10
23.88118970842314
 20
4.815363252849522
 30
0.0
 11
24.95684516609694
 21
5.89101871052332
 31
0.0
  0
LINE
  5
11842
330
11838
100
AcDbEntity
  8
0
  6
CONTINUOUS
100
AcDbLine
 10
19.73925852647308
 20
-0.0000871381807288
 30
0.0
 11
23.4103456646501
 21
3.670999999996297
 31
0.0
  0
LINE
  5
11843
330
11838
100
AcDbEntity
  8
0
  6
CONTINUOUS
100
AcDbLine
 10
24.0893285619448
 20
4.349982897290997
 30
0.0
 11
25.16502691791769
 21
5.42568125326388
 31
0.0
  0
LINE
  5
11844
330
11838
100
AcDbEntity
  8
0
  6
CONTINUOUS
100
AcDbLine
 10
20.41282099582748
 20
-0.0000438779065108
 30
0.0
 11
21.64944178675636
 21
1.236576913022366
 31
0.0
  0
LINE
  5
11845
330
11838
100
AcDbEntity
  8
0
  6
CONTINUOUS
100
AcDbLine
 10
22.78126487373161
 20
2.36839999999762
 30
0.0
 11
24.08386487373029
 21
3.670999999996297
 31
0.0
  0
LINE
  5
11846
330
11838
100
AcDbEntity
  8
0
  6
CONTINUOUS
100
AcDbLine
 10
24.29746741546646
 20
3.884602541732471
 30
0.0
 11
25.37320866973843
 21
4.960343796004441
 31
0.0
  0
LINE
  5
11847
330
11838
100
AcDbEntity
  8
0
  6
CONTINUOUS
100
AcDbLine
 10
21.08638346518189
 20
-0.0000006176322938
 30
0.0
 11
21.10379033335899
 21
0.0174062505448083
 31
0.0
  0
LINE
  5
11848
330
11838
100
AcDbEntity
  8
0
  6
CONTINUOUS
100
AcDbLine
 10
23.4547840828118
 20
2.36839999999762
 30
0.0
 11
25.58139042155918
 21
4.495006338745002
 31
0.0
  0
LINE
  5
11849
330
11838
100
AcDbEntity
  8
0
  6
CONTINUOUS
100
AcDbLine
 10
29.30199999996933
 20
8.215615917155148
 30
0.0
 11
29.84948408280543
 21
8.763099999991255
 31
0.0
  0
LINE
  5
1184A
330
11838
100
AcDbEntity
  8
0
  6
CONTINUOUS
100
AcDbLine
 10
24.12830329189199
 20
2.36839999999762
 30
0.0
 11
25.78957217337993
 21
4.029668881485562
 31
0.0
  0
LINE
  5
1184B
330
11838
100
AcDbEntity
  8
0
  6
CONTINUOUS
100
AcDbLine
 10
29.30199999996933
 20
7.54209670807496
 30
0.0
 11
30.52300329188562
 21
8.763099999991255
 31
0.0
  0
LINE
  5
1184C
330
11838
100
AcDbEntity
  8
0
  6
CONTINUOUS
100
AcDbLine
 10
24.80182250097217
 20
2.36839999999762
 30
0.0
 11
25.99775392520067
 21
3.564331424226122
 31
0.0
  0
LINE
  5
1184D
330
11838
100
AcDbEntity
  8
0
  6
CONTINUOUS
100
AcDbLine
 10
29.30199999996933
 20
6.868577498994774
 30
0.0
 11
30.74199999996926
 21
8.308577498994712
 31
0.0
  0
LINE
  5
1184E
330
11838
100
AcDbEntity
  8
0
  6
CONTINUOUS
100
AcDbLine
 10
25.13028238392013
 20
2.023340673865392
 30
0.0
 11
26.20593567702142
 21
3.098993966966683
 31
0.0
  0
LINE
  5
1184F
330
11838
100
AcDbEntity
  8
0
  6
CONTINUOUS
100
AcDbLine
 10
25.33838066033617
 20
1.557919741201244
 30
0.0
 11
26.41411742884217
 21
2.633656509707244
 31
0.0
  0
LINE
  5
11850
330
11838
100
AcDbEntity
  8
0
  6
CONTINUOUS
100
AcDbLine
 10
25.54647893675221
 20
1.092498808537098
 30
0.0
 11
26.62229918066291
 21
2.168319052447804
 31
0.0
  0
LINE
  5
11851
330
11838
100
AcDbEntity
  8
0
  6
CONTINUOUS
100
AcDbLine
 10
25.75457721316825
 20
0.62707787587295
 30
0.0
 11
26.83048093248366
 21
1.702981595188365
 31
0.0
  0
LINE
  5
11852
330
11838
100
AcDbEntity
  8
0
  6
CONTINUOUS
100
AcDbLine
 10
29.30199999996933
 20
6.195058289914587
 30
0.0
 11
30.74199999996926
 21
7.635058289914522
 31
0.0
  0
LINE
  5
11853
330
11838
100
AcDbEntity
  8
0
  6
CONTINUOUS
100
AcDbLine
 10
29.30199999996933
 20
5.521539080834401
 30
0.0
 11
30.74199999996926
 21
6.961539080834331
 31
0.0
  0
LINE
  5
11854
330
11838
100
AcDbEntity
  8
0
  6
CONTINUOUS
100
AcDbLine
 10
29.30199999996933
 20
4.848019871754214
 30
0.0
 11
30.74199999996925
 21
6.288019871754143
 31
0.0
  0
LINE
  5
11855
330
11838
100
AcDbEntity
  8
0
  6
CONTINUOUS
100
AcDbLine
 10
29.30199999996933
 20
4.174500662674028
 30
0.0
 11
30.74199999996925
 21
5.614500662673953
 31
0.0
  0
LINE
  5
11856
330
11838
100
AcDbEntity
  8
0
  6
CONTINUOUS
100
AcDbLine
 10
25.96267548958429
 20
0.1616569432088024
 30
0.0
 11
27.18411854636669
 21
1.383099999991207
 31
0.0
  0
LINE
  5
11857
330
11838
100
AcDbEntity
  8
0
  6
CONTINUOUS
100
AcDbLine
 10
29.30199999996933
 20
3.500981453593841
 30
0.0
 11
30.74199999996925
 21
4.940981453593762
 31
0.0
  0
LINE
  5
11858
330
11838
100
AcDbEntity
  8
0
  6
CONTINUOUS
100
AcDbLine
 10
26.50763775544691
 20
0.0330999999912356
 30
0.0
 11
27.85763775544689
 21
1.383099999991223
 31
0.0
  0
LINE
  5
11859
330
11838
100
AcDbEntity
  8
0
  6
CONTINUOUS
100
AcDbLine
 10
29.30199999996933
 20
2.827462244513656
 30
0.0
 11
30.74199999996925
 21
4.267462244513574
 31
0.0
  0
LINE
  5
1185A
330
11838
100
AcDbEntity
  8
0
  6
CONTINUOUS
100
AcDbLine
 10
27.18115696452709
 20
0.0330999999912356
 30
0.0
 11
28.55073879889363
 21
1.402681834357775
 31
0.0
  0
LINE
  5
1185B
330
11838
100
AcDbEntity
  8
0
  6
CONTINUOUS
100
AcDbLine
 10
29.28241816560272
 20
2.134361201066866
 30
0.0
 11
30.74199999996924
 21
3.593943035433383
 31
0.0
  0
LINE
  5
1185C
330
11838
100
AcDbEntity
  8
0
  6
CONTINUOUS
100
AcDbLine
 10
27.85467617360728
 20
0.0330999999912356
 30
0.0
 11
30.74199999996924
 21
2.920423826353195
 31
0.0
  0
LINE
  5
1185D
330
11838
100
AcDbEntity
  8
0
  6
CONTINUOUS
100
AcDbLine
 10
28.53897559587887
 20
0.0438802131826428
 30
0.0
 11
30.73121978677781
 21
2.236124404081585
 31
0.0
  0
LINE
  5
1185E
330
11838
100
AcDbEntity
  8
0
  6
CONTINUOUS
100
AcDbLine
 10
29.45140055588722
 20
0.2827859641107988
 30
0.0
 11
30.49231403584965
 21
1.323699444073236
 31
0.0
  0
LINE
  5
1185F
330
11838
100
AcDbEntity
  8
0
  6
CONTINUOUS
100
AcDbLine
 10
19.59027867740337
 20
-0.0000967065718083
 30
0.0
 11
19.55485265190471
 21
0.035329318926844
 31
0.0
  0
LINE
  5
11860
330
11838
100
AcDbEntity
  8
0
  6
CONTINUOUS
100
AcDbLine
 10
20.26375463176586
 20
-0.0000534518541091
 30
0.0
 11
19.76305575737534
 21
0.5006454225364014
 31
0.0
  0
LINE
  5
11861
330
11838
100
AcDbEntity
  8
0
  6
CONTINUOUS
100
AcDbLine
 10
20.93723058612834
 20
-0.0000101971364099
 30
0.0
 11
19.97125886284597
 21
0.965961526145958
 31
0.0
  0
LINE
  5
11862
330
11838
100
AcDbEntity
  8
0
  6
CONTINUOUS
100
AcDbLine
 10
21.25514828313686
 20
0.355591314935257
 30
0.0
 11
20.1794619683166
 21
1.431277629755512
 31
0.0
  0
LINE
  5
11863
330
11838
100
AcDbEntity
  8
0
  6
CONTINUOUS
100
AcDbLine
 10
21.46338838394921
 20
0.8208704232030986
 30
0.0
 11
20.38766507378723
 21
1.896593733365069
 31
0.0
  0
LINE
  5
11864
330
11838
100
AcDbEntity
  8
0
  6
CONTINUOUS
100
AcDbLine
 10
21.67162848476155
 20
1.28614953147094
 30
0.0
 11
20.59586817925786
 21
2.361909836974626
 31
0.0
  0
LINE
  5
11865
330
11838
100
AcDbEntity
  8
0
  6
CONTINUOUS
100
AcDbLine
 10
21.8798685855739
 20
1.751428639738782
 30
0.0
 11
20.80407128472849
 21
2.827225940584183
 31
0.0
  0
LINE
  5
11866
330
11838
100
AcDbEntity
  8
0
  6
CONTINUOUS
100
AcDbLine
 10
22.08810868638624
 20
2.216707748006623
 30
0.0
 11
21.01227439019912
 21
3.292542044193739
 31
0.0
  0
LINE
  5
11867
330
11838
100
AcDbEntity
  8
0
  6
CONTINUOUS
100
AcDbLine
 10
22.60993564347543
 20
2.36839999999762
 30
0.0
 11
21.22047749566975
 21
3.757858147803296
 31
0.0
  0
LINE
  5
11868
330
11838
100
AcDbEntity
  8
0
  6
CONTINUOUS
100
AcDbLine
 10
23.28345485255561
 20
2.36839999999762
 30
0.0
 11
21.42868060114038
 21
4.223174251412853
 31
0.0
  0
LINE
  5
11869
330
11838
100
AcDbEntity
  8
0
  6
CONTINUOUS
100
AcDbLine
 10
26.29227406164219
 20
0.0330999999912356
 30
0.0
 11
25.80009199592872
 21
0.5252820657046957
 31
0.0
  0
LINE
  5
1186A
330
11838
100
AcDbEntity
  8
0
  6
CONTINUOUS
100
AcDbLine
 10
23.9569740616358
 20
2.36839999999762
 30
0.0
 11
21.63688370661101
 21
4.688490355022409
 31
0.0
  0
LINE
  5
1186B
330
11838
100
AcDbEntity
  8
0
  6
CONTINUOUS
100
AcDbLine
 10
26.96579327072237
 20
0.0330999999912356
 30
0.0
 11
25.2554132311971
 21
1.743480039516508
 31
0.0
  0
LINE
  5
1186C
330
11838
100
AcDbEntity
  8
0
  6
CONTINUOUS
100
AcDbLine
 10
24.63049327071599
 20
2.36839999999762
 30
0.0
 11
23.32789327071731
 21
3.670999999996297
 31
0.0
  0
LINE
  5
1186D
330
11838
100
AcDbEntity
  8
0
  6
CONTINUOUS
100
AcDbLine
 10
22.92098674744635
 20
4.077906523267254
 30
0.0
 11
21.84508681208164
 21
5.153806458631966
 31
0.0
  0
LINE
  5
1186E
330
11838
100
AcDbEntity
  8
0
  6
CONTINUOUS
100
AcDbLine
 10
27.63931247980256
 20
0.0330999999912356
 30
0.0
 11
24.0014124797975
 21
3.670999999996297
 31
0.0
  0
LINE
  5
1186F
330
11838
100
AcDbEntity
  8
0
  6
CONTINUOUS
100
AcDbLine
 10
23.129125600968
 20
4.5432868788258
 30
0.0
 11
22.05328991755227
 21
5.619122562241522
 31
0.0
  0
LINE
  5
11870
330
11838
100
AcDbEntity
  8
0
  6
CONTINUOUS
100
AcDbLine
 10
28.31283168888275
 20
0.0330999999912356
 30
0.0
 11
24.16488385994816
 21
4.181047828925828
 31
0.0
  0
LINE
  5
11871
330
11838
100
AcDbEntity
  8
0
  6
CONTINUOUS
100
AcDbLine
 10
23.33726445448964
 20
5.008667234384345
 30
0.0
 11
22.2614930230229
 21
6.084438665851079
 31
0.0
  0
LINE
  5
11872
330
11838
100
AcDbEntity
  8
0
  6
CONTINUOUS
100
AcDbLine
 10
28.92085740005492
 20
0.0985934978992438
 30
0.0
 11
27.63635089796295
 21
1.383099999991217
 31
0.0
  0
LINE
  5
11873
330
11838
100
AcDbEntity
  8
0
  6
CONTINUOUS
100
AcDbLine
 10
26.43704649509776
 20
2.582404402856405
 30
0.0
 11
23.61992702019732
 21
5.399523877756844
 31
0.0
  0
LINE
  5
11874
330
11838
100
AcDbEntity
  8
0
  6
CONTINUOUS
100
AcDbLine
 10
23.54540330801128
 20
5.47404758994289
 30
0.0
 11
22.46969612849353
 21
6.549754769460635
 31
0.0
  0
LINE
  5
11875
330
11838
100
AcDbEntity
  8
0
  6
CONTINUOUS
100
AcDbLine
 10
29.42225615078443
 20
0.2707139562499279
 30
0.0
 11
28.30987010704312
 21
1.383099999991234
 31
0.0
  0
LINE
  5
11876
330
11838
100
AcDbEntity
  8
0
  6
CONTINUOUS
100
AcDbLine
 10
25.89179548232307
 20
3.801174624711282
 30
0.0
 11
22.67789923396416
 21
7.015070873070191
 31
0.0
  0
LINE
  5
11877
330
11838
100
AcDbEntity
  8
0
  6
CONTINUOUS
100
AcDbLine
 10
29.83624534690007
 20
0.5302439692144705
 30
0.0
 11
28.85811781497101
 21
1.508371501143527
 31
0.0
  0
LINE
  5
11878
330
11838
100
AcDbEntity
  8
0
  6
CONTINUOUS
100
AcDbLine
 10
25.34654446954838
 20
5.01994484656616
 30
0.0
 11
22.88610233943479
 21
7.480386976679748
 31
0.0
  0
LINE
  5
11879
330
11838
100
AcDbEntity
  8
0
  6
CONTINUOUS
100
AcDbLine
 10
30.17865975401872
 20
0.8613487711760022
 30
0.0
 11
29.18888744090175
 21
1.851121084292977
 31
0.0
  0
LINE
  5
1187A
330
11838
100
AcDbEntity
  8
0
  6
CONTINUOUS
100
AcDbLine
 10
24.80129345677369
 20
6.238715068421037
 30
0.0
 11
23.09430544490542
 21
7.945703080289305
 31
0.0
  0
LINE
  5
1187B
330
11838
100
AcDbEntity
  8
0
  6
CONTINUOUS
100
AcDbLine
 10
30.45496647202376
 20
1.258561262251155
 30
0.0
 11
29.30199999996933
 21
2.411527734305588
 31
0.0
  0
LINE
  5
1187C
330
11838
100
AcDbEntity
  8
0
  6
CONTINUOUS
100
AcDbLine
 10
24.256042443999
 20
7.457485290275915
 30
0.0
 11
23.30250855037605
 21
8.411019183898862
 31
0.0
  0
LINE
  5
1187D
330
11838
100
AcDbEntity
  8
0
  6
CONTINUOUS
100
AcDbLine
 10
30.64868582078271
 20
1.738361122572387
 30
0.0
 11
29.30199999996933
 21
3.085046943385775
 31
0.0
  0
LINE
  5
1187E
330
11838
100
AcDbEntity
  8
0
  6
CONTINUOUS
100
AcDbLine
 10
23.71079143122431
 20
8.676255512130794
 30
0.0
 11
23.51071165584668
 21
8.876335287508416
 31
0.0
  0
LINE
  5
1187F
330
11838
100
AcDbEntity
  8
0
  6
CONTINUOUS
100
AcDbLine
 10
30.73802122914428
 20
2.322544923291007
 30
0.0
 11
29.30199999996933
 21
3.758566152465961
 31
0.0
  0
LINE
  5
11880
330
11838
100
AcDbEntity
  8
0
  6
CONTINUOUS
100
AcDbLine
 10
30.74199999996924
 20
2.992085361546236
 30
0.0
 11
29.30199999996933
 21
4.432085361546148
 31
0.0
  0
LINE
  5
11881
330
11838
100
AcDbEntity
  8
0
  6
CONTINUOUS
100
AcDbLine
 10
30.74199999996924
 20
3.665604570626419
 30
0.0
 11
29.30199999996933
 21
5.105604570626333
 31
0.0
  0
LINE
  5
11882
330
11838
100
AcDbEntity
  8
0
  6
CONTINUOUS
100
AcDbLine
 10
30.74199999996925
 20
4.339123779706602
 30
0.0
 11
29.30199999996933
 21
5.77912377970652
 31
0.0
  0
LINE
  5
11883
330
11838
100
AcDbEntity
  8
0
  6
CONTINUOUS
100
AcDbLine
 10
30.74199999996925
 20
5.012642988786785
 30
0.0
 11
29.30199999996933
 21
6.452642988786707
 31
0.0
  0
LINE
  5
11884
330
11838
100
AcDbEntity
  8
0
  6
CONTINUOUS
100
AcDbLine
 10
30.74199999996925
 20
5.68616219786697
 30
0.0
 11
29.30199999996933
 21
7.126162197866894
 31
0.0
  0
LINE
  5
11885
330
11838
100
AcDbEntity
  8
0
  6
CONTINUOUS
100
AcDbLine
 10
30.74199999996925
 20
6.359681406947153
 30
0.0
 11
29.30199999996933
 21
7.799681406947081
 31
0.0
  0
LINE
  5
11886
330
11838
100
AcDbEntity
  8
0
  6
CONTINUOUS
100
AcDbLine
 10
30.74199999996926
 20
7.033200616027337
 30
0.0
 11
29.30199999996933
 21
8.473200616027269
 31
0.0
  0
LINE
  5
11887
330
11838
100
AcDbEntity
  8
0
  6
CONTINUOUS
100
AcDbLine
 10
30.74199999996926
 20
7.706719825107518
 30
0.0
 11
29.68561982508552
 21
8.763099999991255
 31
0.0
  0
LINE
  5
11888
330
11838
100
AcDbEntity
  8
0
  6
CONTINUOUS
100
AcDbLine
 10
30.74199999996926
 20
8.380239034187703
 30
0.0
 11
30.35913903416571
 21
8.763099999991255
 31
0.0
  0
ENDBLK
  5
1192B
330
11838
100
AcDbEntity
  8
0
100
AcDbBlockEnd
  0
BLOCK
  5
1192C
330
11889
100
AcDbEntity
  8
0
100
AcDbBlockBegin
  2
*X309
 70
     1
 10
0.0
 20
0.0
 30
0.0
  3
*X309
  1

  0
LINE
  5
1188A
330
11889
100
AcDbEntity
  8
0
  6
CONTINUOUS
100
AcDbLine
 10
31.64199999996833
 20
8.535058289913598
 30
0.0
 11
31.87004171004599
 21
8.763099999991255
 31
0.0
  0
LINE
  5
1188B
330
11889
100
AcDbEntity
  8
0
  6
CONTINUOUS
100
AcDbLine
 10
31.64199999996833
 20
7.861539080833412
 30
0.0
 11
32.54356091912618
 21
8.763099999991255
 31
0.0
  0
LINE
  5
1188C
330
11889
100
AcDbEntity
  8
0
  6
CONTINUOUS
100
AcDbLine
 10
31.64199999996833
 20
7.188019871753226
 30
0.0
 11
33.08199999996839
 21
8.628019871753281
 31
0.0
  0
LINE
  5
1188D
330
11889
100
AcDbEntity
  8
0
  6
CONTINUOUS
100
AcDbLine
 10
31.64199999996833
 20
6.51450066267304
 30
0.0
 11
33.08199999996839
 21
7.954500662673095
 31
0.0
  0
LINE
  5
1188E
330
11889
100
AcDbEntity
  8
0
  6
CONTINUOUS
100
AcDbLine
 10
31.64199999996833
 20
5.840981453592853
 30
0.0
 11
33.08199999996839
 21
7.280981453592908
 31
0.0
  0
LINE
  5
1188F
330
11889
100
AcDbEntity
  8
0
  6
CONTINUOUS
100
AcDbLine
 10
31.64199999996833
 20
5.167462244512667
 30
0.0
 11
33.08199999996839
 21
6.607462244512721
 31
0.0
  0
LINE
  5
11890
330
11889
100
AcDbEntity
  8
0
  6
CONTINUOUS
100
AcDbLine
 10
31.64199999996833
 20
4.493943035432481
 30
0.0
 11
33.08199999996839
 21
5.933943035432535
 31
0.0
  0
LINE
  5
11891
330
11889
100
AcDbEntity
  8
0
  6
CONTINUOUS
100
AcDbLine
 10
31.64199999996833
 20
3.820423826352293
 30
0.0
 11
33.08199999996839
 21
5.260423826352348
 31
0.0
  0
LINE
  5
11892
330
11889
100
AcDbEntity
  8
0
  6
CONTINUOUS
100
AcDbLine
 10
31.64199999996833
 20
3.146904617272106
 30
0.0
 11
33.08199999996839
 21
4.586904617272161
 31
0.0
  0
LINE
  5
11893
330
11889
100
AcDbEntity
  8
0
  6
CONTINUOUS
100
AcDbLine
 10
36.23199999996837
 20
8.410423826352325
 30
0.0
 11
36.5846761736073
 21
8.763099999991255
 31
0.0
  0
LINE
  5
11894
330
11889
100
AcDbEntity
  8
0
  6
CONTINUOUS
100
AcDbLine
 10
36.23199999996837
 20
7.73690461727214
 30
0.0
 11
37.25819538268748
 21
8.763099999991255
 31
0.0
  0
LINE
  5
11895
330
11889
100
AcDbEntity
  8
0
  6
CONTINUOUS
100
AcDbLine
 10
31.64257403601376
 20
2.473959444237348
 30
0.0
 11
33.08199999996839
 21
3.913385408191974
 31
0.0
  0
LINE
  5
11896
330
11889
100
AcDbEntity
  8
0
  6
CONTINUOUS
100
AcDbLine
 10
36.23199999996837
 20
7.063385408191953
 30
0.0
 11
37.67199999996831
 21
8.503385408191894
 31
0.0
  0
LINE
  5
11897
330
11889
100
AcDbEntity
  8
0
  6
CONTINUOUS
100
AcDbLine
 10
31.72013636841932
 20
1.87800256756272
 30
0.0
 11
33.08199999996839
 21
3.239866199111788
 31
0.0
  0
LINE
  5
11898
330
11889
100
AcDbEntity
  8
0
  6
CONTINUOUS
100
AcDbLine
 10
36.23199999996837
 20
6.389866199111767
 30
0.0
 11
37.67199999996831
 21
7.829866199111708
 31
0.0
  0
LINE
  5
11899
330
11889
100
AcDbEntity
  8
0
  6
CONTINUOUS
100
AcDbLine
 10
31.89042734314753
 20
1.374774333210744
 30
0.0
 11
33.08199999996839
 21
2.566346990031601
 31
0.0
  0
LINE
  5
1189A
330
11889
100
AcDbEntity
  8
0
  6
CONTINUOUS
100
AcDbLine
 10
36.23199999996837
 20
5.71634699003158
 30
0.0
 11
37.67199999996831
 21
7.156346990031521
 31
0.0
  0
LINE
  5
1189B
330
11889
100
AcDbEntity
  8
0
  6
CONTINUOUS
100
AcDbLine
 10
32.14210568064475
 20
0.952933461627778
 30
0.0
 11
33.18745552475986
 21
1.998283305742888
 31
0.0
  0
LINE
  5
1189C
330
11889
100
AcDbEntity
  8
0
  6
CONTINUOUS
100
AcDbLine
 10
36.23199999996837
 20
5.042827780951393
 30
0.0
 11
37.67199999996831
 21
6.482827780951334
 31
0.0
  0
LINE
  5
1189D
330
11889
100
AcDbEntity
  8
0
  6
CONTINUOUS
100
AcDbLine
 10
32.45820639400955
 20
0.5955149659123915
 30
0.0
 11
33.47242681921943
 21
1.60973539112227
 31
0.0
  0
LINE
  5
1189E
330
11889
100
AcDbEntity
  8
0
  6
CONTINUOUS
100
AcDbLine
 10
36.23199999996837
 20
4.369308571871207
 30
0.0
 11
37.67199999996831
 21
5.809308571871147
 31
0.0
  0
LINE
  5
1189F
330
11889
100
AcDbEntity
  8
0
  6
CONTINUOUS
100
AcDbLine
 10
32.83432456621412
 20
0.2981139290367771
 30
0.0
 11
33.89722476612215
 21
1.361014128944803
 31
0.0
  0
LINE
  5
118A0
330
11889
100
AcDbEntity
  8
0
  6
CONTINUOUS
100
AcDbLine
 10
36.23199999996837
 20
3.69578936279102
 30
0.0
 11
37.67199999996831
 21
5.135789362790962
 31
0.0
  0
LINE
  5
118A1
330
11889
100
AcDbEntity
  8
0
  6
CONTINUOUS
100
AcDbLine
 10
33.2711633111245
 20
0.0614334648669672
 30
0.0
 11
34.43247338014423
 21
1.222743533886696
 31
0.0
  0
LINE
  5
118A2
330
11889
100
AcDbEntity
  8
0
  6
CONTINUOUS
100
AcDbLine
 10
36.23199999996837
 20
3.022270153710834
 30
0.0
 11
37.67199999996831
 21
4.462270153710775
 31
0.0
  0
LINE
  5
118A3
330
11889
100
AcDbEntity
  8
0
  6
CONTINUOUS
100
AcDbLine
 10
33.76515245874577
 20
-0.1180965965919523
 30
0.0
 11
35.1587445516215
 21
1.27549549628378
 31
0.0
  0
LINE
  5
118A4
330
11889
100
AcDbEntity
  8
0
  6
CONTINUOUS
100
AcDbLine
 10
36.21639478609585
 20
2.333145730758136
 30
0.0
 11
37.67199999996831
 21
3.788750944630588
 31
0.0
  0
LINE
  5
118A5
330
11889
100
AcDbEntity
  8
0
  6
CONTINUOUS
100
AcDbLine
 10
34.34060583368432
 20
-0.2161624307335863
 30
0.0
 11
37.67199999996831
 21
3.115231735550401
 31
0.0
  0
LINE
  5
118A6
330
11889
100
AcDbEntity
  8
0
  6
CONTINUOUS
100
AcDbLine
 10
35.01698193613905
 20
-0.2133055373590427
 30
0.0
 11
37.66876712070525
 21
2.438479647207154
 31
0.0
  0
LINE
  5
118A7
330
11889
100
AcDbEntity
  8
0
  6
CONTINUOUS
100
AcDbLine
 10
35.90743367693304
 20
0.0036269943547609
 30
0.0
 11
37.51723902192366
 21
1.613432339345381
 31
0.0
  0
LINE
  5
118A8
330
11889
100
AcDbEntity
  8
0
  6
CONTINUOUS
100
AcDbLine
 10
32.55309425579761
 20
0.5074718966376706
 30
0.0
 11
32.27784730925847
 21
0.7827188431768102
 31
0.0
  0
LINE
  5
118A9
330
11889
100
AcDbEntity
  8
0
  6
CONTINUOUS
100
AcDbLine
 10
33.87496468909684
 20
-0.1408793275813673
 30
0.0
 11
31.67993083278052
 21
2.054154528734943
 31
0.0
  0
LINE
  5
118AA
330
11889
100
AcDbEntity
  8
0
  6
CONTINUOUS
100
AcDbLine
 10
34.64362813207632
 20
-0.2360235614806649
 30
0.0
 11
31.64199999996833
 21
2.765604570627322
 31
0.0
  0
LINE
  5
118AB
330
11889
100
AcDbEntity
  8
0
  6
CONTINUOUS
100
AcDbLine
 10
35.25801106796118
 20
-0.1768872882853429
 30
0.0
 11
31.64199999996833
 21
3.439123779707508
 31
0.0
  0
LINE
  5
118AC
330
11889
100
AcDbEntity
  8
0
  6
CONTINUOUS
100
AcDbLine
 10
35.79065650332146
 20
-0.0360135145654361
 30
0.0
 11
34.54143210838231
 21
1.213210880373721
 31
0.0
  0
LINE
  5
118AD
330
11889
100
AcDbEntity
  8
0
  6
CONTINUOUS
100
AcDbLine
 10
33.08199999996839
 20
2.67264298878764
 30
0.0
 11
31.64199999996833
 21
4.112642988787695
 31
0.0
  0
LINE
  5
118AE
330
11889
100
AcDbEntity
  8
0
  6
CONTINUOUS
100
AcDbLine
 10
36.25975597779143
 20
0.1684062200447833
 30
0.0
 11
35.15395110240023
 21
1.274211095435983
 31
0.0
  0
LINE
  5
118AF
330
11889
100
AcDbEntity
  8
0
  6
CONTINUOUS
100
AcDbLine
 10
33.08199999996839
 20
3.346162197867826
 30
0.0
 11
31.64199999996833
 21
4.786162197867881
 31
0.0
  0
LINE
  5
118B0
330
11889
100
AcDbEntity
  8
0
  6
CONTINUOUS
100
AcDbLine
 10
36.67226329638774
 20
0.4294181105286579
 30
0.0
 11
35.63766478748767
 21
1.464016619428737
 31
0.0
  0
LINE
  5
118B1
330
11889
100
AcDbEntity
  8
0
  6
CONTINUOUS
100
AcDbLine
 10
33.08199999996839
 20
4.019681406948012
 30
0.0
 11
31.64199999996833
 21
5.459681406948068
 31
0.0
  0
LINE
  5
118B2
330
11889
100
AcDbEntity
  8
0
  6
CONTINUOUS
100
AcDbLine
 10
37.01677749710036
 20
0.7584231188962329
 30
0.0
 11
35.99563422741351
 21
1.779566388583076
 31
0.0
  0
LINE
  5
118B3
330
11889
100
AcDbEntity
  8
0
  6
CONTINUOUS
100
AcDbLine
 10
33.08199999996839
 20
4.693200616028199
 30
0.0
 11
31.64199999996833
 21
6.133200616028255
 31
0.0
  0
LINE
  5
118B4
330
11889
100
AcDbEntity
  8
0
  6
CONTINUOUS
100
AcDbLine
 10
37.29859977568887
 20
1.1501200493879
 30
0.0
 11
36.20680593341555
 21
2.241913891661226
 31
0.0
  0
LINE
  5
118B5
330
11889
100
AcDbEntity
  8
0
  6
CONTINUOUS
100
AcDbLine
 10
33.08199999996839
 20
5.366719825108386
 30
0.0
 11
31.64199999996833
 21
6.80671982510844
 31
0.0
  0
LINE
  5
118B6
330
11889
100
AcDbEntity
  8
0
  6
CONTINUOUS
100
AcDbLine
 10
37.5148623517228
 20
1.607376682434161
 30
0.0
 11
36.23199999996837
 21
2.890239034188594
 31
0.0
  0
LINE
  5
118B7
330
11889
100
AcDbEntity
  8
0
  6
CONTINUOUS
100
AcDbLine
 10
33.08199999996839
 20
6.040239034188573
 30
0.0
 11
31.64199999996833
 21
7.480239034188627
 31
0.0
  0
LINE
  5
118B8
330
11889
100
AcDbEntity
  8
0
  6
CONTINUOUS
100
AcDbLine
 10
37.64705163358367
 20
2.148706609653477
 30
0.0
 11
36.23199999996837
 21
3.56375824326878
 31
0.0
  0
LINE
  5
118B9
330
11889
100
AcDbEntity
  8
0
  6
CONTINUOUS
100
AcDbLine
 10
33.08199999996839
 20
6.713758243268758
 30
0.0
 11
31.64199999996833
 21
8.153758243268815
 31
0.0
  0
LINE
  5
118BA
330
11889
100
AcDbEntity
  8
0
  6
CONTINUOUS
100
AcDbLine
 10
37.67199999996831
 20
2.797277452349026
 30
0.0
 11
36.23199999996837
 21
4.237277452348967
 31
0.0
  0
LINE
  5
118BB
330
11889
100
AcDbEntity
  8
0
  6
CONTINUOUS
100
AcDbLine
 10
37.67199999996831
 20
3.470796661429213
 30
0.0
 11
36.23199999996837
 21
4.910796661429154
 31
0.0
  0
LINE
  5
118BC
330
11889
100
AcDbEntity
  8
0
  6
CONTINUOUS
100
AcDbLine
 10
37.67199999996831
 20
4.144315870509399
 30
0.0
 11
36.23199999996837
 21
5.58431587050934
 31
0.0
  0
LINE
  5
118BD
330
11889
100
AcDbEntity
  8
0
  6
CONTINUOUS
100
AcDbLine
 10
33.08199999996839
 20
7.387277452348945
 30
0.0
 11
31.70617745232608
 21
8.763099999991255
 31
0.0
  0
LINE
  5
118BE
330
11889
100
AcDbEntity
  8
0
  6
CONTINUOUS
100
AcDbLine
 10
33.08199999996839
 20
8.060796661429132
 30
0.0
 11
32.37969666140626
 21
8.763099999991255
 31
0.0
  0
LINE
  5
118BF
330
11889
100
AcDbEntity
  8
0
  6
CONTINUOUS
100
AcDbLine
 10
33.08199999996839
 20
8.734315870509318
 30
0.0
 11
33.05321587048645
 21
8.763099999991255
 31
0.0
  0
LINE
  5
118C0
330
11889
100
AcDbEntity
  8
0
  6
CONTINUOUS
100
AcDbLine
 10
37.67199999996831
 20
4.817835079589585
 30
0.0
 11
36.23199999996837
 21
6.257835079589526
 31
0.0
  0
LINE
  5
118C1
330
11889
100
AcDbEntity
  8
0
  6
CONTINUOUS
100
AcDbLine
 10
37.67199999996831
 20
5.491354288669771
 30
0.0
 11
36.23199999996837
 21
6.931354288669713
 31
0.0
  0
LINE
  5
118C2
330
11889
100
AcDbEntity
  8
0
  6
CONTINUOUS
100
AcDbLine
 10
37.67199999996831
 20
6.164873497749958
 30
0.0
 11
36.23199999996837
 21
7.6048734977499
 31
0.0
  0
LINE
  5
118C3
330
11889
100
AcDbEntity
  8
0
  6
CONTINUOUS
100
AcDbLine
 10
37.67199999996831
 20
6.838392706830144
 30
0.0
 11
36.23199999996837
 21
8.278392706830086
 31
0.0
  0
LINE
  5
118C4
330
11889
100
AcDbEntity
  8
0
  6
CONTINUOUS
100
AcDbLine
 10
37.67199999996831
 20
7.511911915910332
 30
0.0
 11
36.42081191588738
 21
8.763099999991255
 31
0.0
  0
LINE
  5
118C5
330
11889
100
AcDbEntity
  8
0
  6
CONTINUOUS
100
AcDbLine
 10
37.67199999996831
 20
8.185431124990519
 30
0.0
 11
37.09433112496757
 21
8.763099999991255
 31
0.0
  0
ENDBLK
  5
1192D
330
11889
100
AcDbEntity
  8
0
100
AcDbBlockEnd
  0
BLOCK
  5
1192E
330
118C6
100
AcDbEntity
  8
0
100
AcDbBlockBegin
  2
*X310
 70
     1
 10
0.0
 20
0.0
 30
0.0
  3
*X310
  1

  0
LINE
  5
118C7
330
118C6
100
AcDbEntity
  8
0
  6
CONTINUOUS
100
AcDbLine
 10
38.60499999996136
 20
8.762866199104765
 30
0.0
 11
38.71672554182345
 21
8.874591740966855
 31
0.0
  0
LINE
  5
118C8
330
118C6
100
AcDbEntity
  8
0
  6
CONTINUOUS
100
AcDbLine
 10
38.60499999996136
 20
8.089346990024577
 30
0.0
 11
39.03418785440363
 21
8.518534844466847
 31
0.0
  0
LINE
  5
118C9
330
118C6
100
AcDbEntity
  8
0
  6
CONTINUOUS
100
AcDbLine
 10
38.60499999996136
 20
7.41582778094439
 30
0.0
 11
39.35165016698382
 21
8.16247794796684
 31
0.0
  0
LINE
  5
118CA
330
118C6
100
AcDbEntity
  8
0
  6
CONTINUOUS
100
AcDbLine
 10
38.60499999996136
 20
6.742308571864204
 30
0.0
 11
39.66911247956399
 21
7.806421051466834
 31
0.0
  0
LINE
  5
118CB
330
118C6
100
AcDbEntity
  8
0
  6
CONTINUOUS
100
AcDbLine
 10
38.60499999996136
 20
6.068789362784018
 30
0.0
 11
39.98657479214418
 21
7.450364154966827
 31
0.0
  0
LINE
  5
118CC
330
118C6
100
AcDbEntity
  8
0
  6
CONTINUOUS
100
AcDbLine
 10
38.60499999996136
 20
5.395270153703832
 30
0.0
 11
40.30403710472435
 21
7.09430725846682
 31
0.0
  0
LINE
  5
118CD
330
118C6
100
AcDbEntity
  8
0
  6
CONTINUOUS
100
AcDbLine
 10
38.60499999996136
 20
4.721750944623645
 30
0.0
 11
40.62149941730453
 21
6.738250361966813
 31
0.0
  0
LINE
  5
118CE
330
118C6
100
AcDbEntity
  8
0
  6
CONTINUOUS
100
AcDbLine
 10
38.60499999996136
 20
4.048231735543458
 30
0.0
 11
40.93896172988471
 21
6.382193465466806
 31
0.0
  0
LINE
  5
118CF
330
118C6
100
AcDbEntity
  8
0
  6
CONTINUOUS
100
AcDbLine
 10
38.60499999996136
 20
3.374712526463272
 30
0.0
 11
40.02599999995994
 21
4.795712526461843
 31
0.0
  0
LINE
  5
118D0
330
118C6
100
AcDbEntity
  8
0
  6
CONTINUOUS
100
AcDbLine
 10
38.60499999996136
 20
2.701193317383085
 30
0.0
 11
40.02599999995994
 21
4.122193317381657
 31
0.0
  0
LINE
  5
118D1
330
118C6
100
AcDbEntity
  8
0
  6
CONTINUOUS
100
AcDbLine
 10
40.28339754687704
 20
5.053110073378947
 30
0.0
 11
41.25642404246489
 21
6.026136568966799
 31
0.0
  0
LINE
  5
118D2
330
118C6
100
AcDbEntity
  8
0
  6
CONTINUOUS
100
AcDbLine
 10
40.60085985945722
 20
4.697053176878939
 30
0.0
 11
41.57388635504507
 21
5.670079672466793
 31
0.0
  0
LINE
  5
118D3
330
118C6
100
AcDbEntity
  8
0
  6
CONTINUOUS
100
AcDbLine
 10
43.57899999995641
 20
8.348712526458318
 30
0.0
 11
43.99338747348935
 21
8.763099999991255
 31
0.0
  0
LINE
  5
118D4
330
118C6
100
AcDbEntity
  8
0
  6
CONTINUOUS
100
AcDbLine
 10
43.57899999995641
 20
7.675193317378131
 30
0.0
 11
44.66690668256953
 21
8.763099999991255
 31
0.0
  0
LINE
  5
118D5
330
118C6
100
AcDbEntity
  8
0
  6
CONTINUOUS
100
AcDbLine
 10
38.60499999996136
 20
2.027674108302898
 30
0.0
 11
40.02599999995994
 21
3.44867410830147
 31
0.0
  0
LINE
  5
118D6
330
118C6
100
AcDbEntity
  8
0
  6
CONTINUOUS
100
AcDbLine
 10
38.60499999996136
 20
1.354154899222712
 30
0.0
 11
40.02599999995994
 21
2.775154899221284
 31
0.0
  0
LINE
  5
118D7
330
118C6
100
AcDbEntity
  8
0
  6
CONTINUOUS
100
AcDbLine
 10
38.60499999996136
 20
0.6806356901425255
 30
0.0
 11
40.02599999995994
 21
2.101635690141098
 31
0.0
  0
LINE
  5
118D8
330
118C6
100
AcDbEntity
  8
0
  6
CONTINUOUS
100
AcDbLine
 10
38.60499999996136
 20
0.0071164810623383
 30
0.0
 11
40.02599999995994
 21
1.428116481060911
 31
0.0
  0
LINE
  5
118D9
330
118C6
100
AcDbEntity
  8
0
  6
CONTINUOUS
100
AcDbLine
 10
40.9183221720374
 20
4.340996280378933
 30
0.0
 11
41.89134866762525
 21
5.314022775966786
 31
0.0
  0
LINE
  5
118DA
330
118C6
100
AcDbEntity
  8
0
  6
CONTINUOUS
100
AcDbLine
 10
41.23578448461758
 20
3.984939383878926
 30
0.0
 11
42.20881098020543
 21
4.957965879466778
 31
0.0
  0
LINE
  5
118DB
330
118C6
100
AcDbEntity
  8
0
  6
CONTINUOUS
100
AcDbLine
 10
41.55324679719776
 20
3.628882487378919
 30
0.0
 11
42.52627329278561
 21
4.601908982966772
 31
0.0
  0
LINE
  5
118DC
330
118C6
100
AcDbEntity
  8
0
  6
CONTINUOUS
100
AcDbLine
 10
41.87070910977793
 20
3.272825590878912
 30
0.0
 11
42.84373560536579
 21
4.245852086466765
 31
0.0
  0
LINE
  5
118DD
330
118C6
100
AcDbEntity
  8
0
  6
CONTINUOUS
100
AcDbLine
 10
43.57899999995641
 20
7.001674108297943
 30
0.0
 11
44.99999999995498
 21
8.422674108296516
 31
0.0
  0
LINE
  5
118DE
330
118C6
100
AcDbEntity
  8
0
  6
CONTINUOUS
100
AcDbLine
 10
43.57899999995641
 20
6.328154899217758
 30
0.0
 11
44.99999999995498
 21
7.749154899216329
 31
0.0
  0
LINE
  5
118DF
330
118C6
100
AcDbEntity
  8
0
  6
CONTINUOUS
100
AcDbLine
 10
43.57899999995641
 20
5.654635690137571
 30
0.0
 11
44.99999999995498
 21
7.075635690136142
 31
0.0
  0
LINE
  5
118E0
330
118C6
100
AcDbEntity
  8
0
  6
CONTINUOUS
100
AcDbLine
 10
43.57899999995641
 20
4.981116481057384
 30
0.0
 11
44.99999999995498
 21
6.402116481055955
 31
0.0
  0
LINE
  5
118E1
330
118C6
100
AcDbEntity
  8
0
  6
CONTINUOUS
100
AcDbLine
 10
39.27140272797921
 20
-0.0000000000000009
 30
0.0
 11
40.02599999995994
 21
0.7545972719807246
 31
0.0
  0
LINE
  5
118E2
330
118C6
100
AcDbEntity
  8
0
  6
CONTINUOUS
100
AcDbLine
 10
39.9449219370594
 20
-0.0000000000000009
 30
0.0
 11
40.02599999995994
 21
0.0810780629005379
 31
0.0
  0
LINE
  5
118E3
330
118C6
100
AcDbEntity
  8
0
  6
CONTINUOUS
100
AcDbLine
 10
42.18817142235812
 20
2.916768694378905
 30
0.0
 11
43.16119791794597
 21
3.889795189966758
 31
0.0
  0
LINE
  5
118E4
330
118C6
100
AcDbEntity
  8
0
  6
CONTINUOUS
100
AcDbLine
 10
42.50563373493829
 20
2.560711797878898
 30
0.0
 11
43.47866023052615
 21
3.533738293466751
 31
0.0
  0
LINE
  5
118E5
330
118C6
100
AcDbEntity
  8
0
  6
CONTINUOUS
100
AcDbLine
 10
43.57899999995641
 20
4.307597271977198
 30
0.0
 11
44.99999999995498
 21
5.728597271975769
 31
0.0
  0
LINE
  5
118E6
330
118C6
100
AcDbEntity
  8
0
  6
CONTINUOUS
100
AcDbLine
 10
43.57899999995641
 20
3.634078062897011
 30
0.0
 11
44.99999999995498
 21
5.055078062895582
 31
0.0
  0
LINE
  5
118E7
330
118C6
100
AcDbEntity
  8
0
  6
CONTINUOUS
100
AcDbLine
 10
42.82309604751848
 20
2.204654901378891
 30
0.0
 11
44.99999999995498
 21
4.381558853815395
 31
0.0
  0
LINE
  5
118E8
330
118C6
100
AcDbEntity
  8
0
  6
CONTINUOUS
100
AcDbLine
 10
43.14055836009865
 20
1.848598004878885
 30
0.0
 11
44.99999999995498
 21
3.70803964473521
 31
0.0
  0
LINE
  5
118E9
330
118C6
100
AcDbEntity
  8
0
  6
CONTINUOUS
100
AcDbLine
 10
43.45802067267883
 20
1.492541108378878
 30
0.0
 11
44.99999999995498
 21
3.034520435655023
 31
0.0
  0
LINE
  5
118EA
330
118C6
100
AcDbEntity
  8
0
  6
CONTINUOUS
100
AcDbLine
 10
43.77548298525902
 20
1.136484211878871
 30
0.0
 11
44.99999999995498
 21
2.361001226574837
 31
0.0
  0
LINE
  5
118EB
330
118C6
100
AcDbEntity
  8
0
  6
CONTINUOUS
100
AcDbLine
 10
44.09294529783919
 20
0.7804273153788639
 30
0.0
 11
44.99999999995498
 21
1.687482017494649
 31
0.0
  0
LINE
  5
118EC
330
118C6
100
AcDbEntity
  8
0
  6
CONTINUOUS
100
AcDbLine
 10
44.41040761041938
 20
0.4243704188788566
 30
0.0
 11
44.99999999995498
 21
1.013962808414463
 31
0.0
  0
LINE
  5
118ED
330
118C6
100
AcDbEntity
  8
0
  6
CONTINUOUS
100
AcDbLine
 10
44.72786992299955
 20
0.0683135223788494
 30
0.0
 11
44.99999999995498
 21
0.340443599334276
 31
0.0
  0
LINE
  5
118EE
330
118C6
100
AcDbEntity
  8
0
  6
CONTINUOUS
100
AcDbLine
 10
39.12223903415696
 20
-0.0000000000000009
 30
0.0
 11
38.60499999996136
 21
0.5172390341955961
 31
0.0
  0
LINE
  5
118EF
330
118C6
100
AcDbEntity
  8
0
  6
CONTINUOUS
100
AcDbLine
 10
39.79575824323715
 20
-0.0000000000000009
 30
0.0
 11
38.60499999996136
 21
1.190758243275783
 31
0.0
  0
LINE
  5
118F0
330
118C6
100
AcDbEntity
  8
0
  6
CONTINUOUS
100
AcDbLine
 10
40.02599999995994
 20
0.443277452357397
 30
0.0
 11
38.60499999996136
 21
1.864277452355969
 31
0.0
  0
LINE
  5
118F1
330
118C6
100
AcDbEntity
  8
0
  6
CONTINUOUS
100
AcDbLine
 10
40.02599999995994
 20
1.116796661437583
 30
0.0
 11
38.60499999996136
 21
2.537796661436155
 31
0.0
  0
LINE
  5
118F2
330
118C6
100
AcDbEntity
  8
0
  6
CONTINUOUS
100
AcDbLine
 10
40.02599999995994
 20
1.79031587051777
 30
0.0
 11
38.60499999996136
 21
3.211315870516341
 31
0.0
  0
LINE
  5
118F3
330
118C6
100
AcDbEntity
  8
0
  6
CONTINUOUS
100
AcDbLine
 10
40.02599999995994
 20
2.463835079597956
 30
0.0
 11
38.60499999996136
 21
3.884835079596527
 31
0.0
  0
LINE
  5
118F4
330
118C6
100
AcDbEntity
  8
0
  6
CONTINUOUS
100
AcDbLine
 10
40.02599999995994
 20
3.137354288678143
 30
0.0
 11
38.60499999996136
 21
4.558354288676714
 31
0.0
  0
LINE
  5
118F5
330
118C6
100
AcDbEntity
  8
0
  6
CONTINUOUS
100
AcDbLine
 10
40.02599999995994
 20
3.810873497758329
 30
0.0
 11
38.60499999996136
 21
5.2318734977569
 31
0.0
  0
LINE
  5
118F6
330
118C6
100
AcDbEntity
  8
0
  6
CONTINUOUS
100
AcDbLine
 10
40.02599999995994
 20
4.484392706838515
 30
0.0
 11
38.60499999996136
 21
5.905392706837086
 31
0.0
  0
LINE
  5
118F7
330
118C6
100
AcDbEntity
  8
0
  6
CONTINUOUS
100
AcDbLine
 10
44.99999999995498
 20
0.183911915923658
 30
0.0
 11
41.53858364506288
 21
3.64532827081576
 31
0.0
  0
LINE
  5
118F8
330
118C6
100
AcDbEntity
  8
0
  6
CONTINUOUS
100
AcDbLine
 10
40.02599999995994
 20
5.157911915918703
 30
0.0
 11
38.60499999996136
 21
6.578911915917274
 31
0.0
  0
LINE
  5
118F9
330
118C6
100
AcDbEntity
  8
0
  6
CONTINUOUS
100
AcDbLine
 10
44.99999999995498
 20
0.8574311250038447
 30
0.0
 11
38.60499999996136
 21
7.25243112499746
 31
0.0
  0
LINE
  5
118FA
330
118C6
100
AcDbEntity
  8
0
  6
CONTINUOUS
100
AcDbLine
 10
44.99999999995498
 20
1.530950334084031
 30
0.0
 11
38.60499999996136
 21
7.925950334077647
 31
0.0
  0
LINE
  5
118FB
330
118C6
100
AcDbEntity
  8
0
  6
CONTINUOUS
100
AcDbLine
 10
44.99999999995498
 20
2.204469543164218
 30
0.0
 11
43.57899999995641
 21
3.625469543162789
 31
0.0
  0
LINE
  5
118FC
330
118C6
100
AcDbEntity
  8
0
  6
CONTINUOUS
100
AcDbLine
 10
41.89876730984767
 20
5.305702233271528
 30
0.0
 11
38.60499999996136
 21
8.599469543157834
 31
0.0
  0
LINE
  5
118FD
330
118C6
100
AcDbEntity
  8
0
  6
CONTINUOUS
100
AcDbLine
 10
44.99999999995498
 20
2.877988752244405
 30
0.0
 11
43.57899999995641
 21
4.298988752242975
 31
0.0
  0
LINE
  5
118FE
330
118C6
100
AcDbEntity
  8
0
  6
CONTINUOUS
100
AcDbLine
 10
44.99999999995498
 20
3.551507961324591
 30
0.0
 11
43.57899999995641
 21
4.972507961323163
 31
0.0
  0
LINE
  5
118FF
330
118C6
100
AcDbEntity
  8
0
  6
CONTINUOUS
100
AcDbLine
 10
44.99999999995498
 20
4.225027170404777
 30
0.0
 11
43.57899999995641
 21
5.646027170403348
 31
0.0
  0
LINE
  5
11900
330
118C6
100
AcDbEntity
  8
0
  6
CONTINUOUS
100
AcDbLine
 10
44.99999999995498
 20
4.898546379484964
 30
0.0
 11
43.57899999995641
 21
6.319546379483535
 31
0.0
  0
LINE
  5
11901
330
118C6
100
AcDbEntity
  8
0
  6
CONTINUOUS
100
AcDbLine
 10
44.99999999995498
 20
5.572065588565151
 30
0.0
 11
43.57899999995641
 21
6.993065588563722
 31
0.0
  0
LINE
  5
11902
330
118C6
100
AcDbEntity
  8
0
  6
CONTINUOUS
100
AcDbLine
 10
44.99999999995498
 20
6.245584797645336
 30
0.0
 11
43.57899999995641
 21
7.666584797643908
 31
0.0
  0
LINE
  5
11903
330
118C6
100
AcDbEntity
  8
0
  6
CONTINUOUS
100
AcDbLine
 10
44.99999999995498
 20
6.919104006725522
 30
0.0
 11
43.57899999995641
 21
8.340104006724093
 31
0.0
  0
LINE
  5
11904
330
118C6
100
AcDbEntity
  8
0
  6
CONTINUOUS
100
AcDbLine
 10
44.99999999995498
 20
7.592623215805709
 30
0.0
 11
43.82952321576943
 21
8.763099999991255
 31
0.0
  0
LINE
  5
11905
330
118C6
100
AcDbEntity
  8
0
  6
CONTINUOUS
100
AcDbLine
 10
44.99999999995498
 20
8.266142424885896
 30
0.0
 11
44.50304242484962
 21
8.763099999991255
 31
0.0
  0
ENDBLK
  5
1192F
330
118C6
100
AcDbEntity
  8
0
100
AcDbBlockEnd
  0
BLOCK
  5
11930
330
11906
100
AcDbEntity
  8
0
100
AcDbBlockBegin
  2
*X311
 70
     1
 10
0.0
 20
0.0
 30
0.0
  3
*X311
  1

  0
LINE
  5
11907
330
11906
100
AcDbEntity
  8
0
  6
CONTINUOUS
100
AcDbLine
 10
0.0
 20
8.548461116714023
 30
0.0
 11
0.2146388832772324
 21
8.763099999991255
 31
0.0
  0
LINE
  5
11908
330
11906
100
AcDbEntity
  8
0
  6
CONTINUOUS
100
AcDbLine
 10
-0.0000000000000002
 20
7.874941907633837
 30
0.0
 11
0.8881580923574184
 21
8.763099999991255
 31
0.0
  0
LINE
  5
11909
330
11906
100
AcDbEntity
  8
0
  6
CONTINUOUS
100
AcDbLine
 10
0.0
 20
7.20142269855365
 30
0.0
 11
1.420999999998572
 21
8.622422698552223
 31
0.0
  0
LINE
  5
1190A
330
11906
100
AcDbEntity
  8
0
  6
CONTINUOUS
100
AcDbLine
 10
-0.0000000000000001
 20
6.527903489473465
 30
0.0
 11
1.420999999998571
 21
7.948903489472036
 31
0.0
  0
LINE
  5
1190B
330
11906
100
AcDbEntity
  8
0
  6
CONTINUOUS
100
AcDbLine
 10
-0.0000000000000002
 20
5.854384280393278
 30
0.0
 11
1.420999999998571
 21
7.275384280391849
 31
0.0
  0
LINE
  5
1190C
330
11906
100
AcDbEntity
  8
0
  6
CONTINUOUS
100
AcDbLine
 10
-0.0000000000000002
 20
5.180865071313091
 30
0.0
 11
1.420999999998571
 21
6.601865071311663
 31
0.0
  0
LINE
  5
1190D
330
11906
100
AcDbEntity
  8
0
  6
CONTINUOUS
100
AcDbLine
 10
0.0
 20
4.507345862232905
 30
0.0
 11
1.420999999998571
 21
5.928345862231477
 31
0.0
  0
LINE
  5
1190E
330
11906
100
AcDbEntity
  8
0
  6
CONTINUOUS
100
AcDbLine
 10
-0.0000000000000003
 20
3.833826653152718
 30
0.0
 11
1.420999999998571
 21
5.25482665315129
 31
0.0
  0
LINE
  5
1190F
330
11906
100
AcDbEntity
  8
0
  6
CONTINUOUS
100
AcDbLine
 10
-0.0000000000000002
 20
3.160307444072532
 30
0.0
 11
1.420999999998571
 21
4.581307444071103
 31
0.0
  0
LINE
  5
11910
330
11906
100
AcDbEntity
  8
0
  6
CONTINUOUS
100
AcDbLine
 10
-0.0000000000000001
 20
2.486788234992345
 30
0.0
 11
1.420999999998571
 21
3.907788234990917
 31
0.0
  0
LINE
  5
11911
330
11906
100
AcDbEntity
  8
0
  6
CONTINUOUS
100
AcDbLine
 10
-0.0000000000000006
 20
1.813269025912159
 30
0.0
 11
1.420999999998571
 21
3.234269025910731
 31
0.0
  0
LINE
  5
11912
330
11906
100
AcDbEntity
  8
0
  6
CONTINUOUS
100
AcDbLine
 10
0.0
 20
1.139749816831973
 30
0.0
 11
1.420999999998571
 21
2.560749816830544
 31
0.0
  0
LINE
  5
11913
330
11906
100
AcDbEntity
  8
0
  6
CONTINUOUS
100
AcDbLine
 10
0.0000000000000002
 20
0.466230607751787
 30
0.0
 11
1.420999999998571
 21
1.887230607750358
 31
0.0
  0
LINE
  5
11914
330
11906
100
AcDbEntity
  8
0
  6
CONTINUOUS
100
AcDbLine
 10
0.2072886013284003
 20
-0.0000000000000009
 30
0.0
 11
1.420999999998571
 21
1.213711398670171
 31
0.0
  0
LINE
  5
11915
330
11906
100
AcDbEntity
  8
0
  6
CONTINUOUS
100
AcDbLine
 10
0.8808078104085864
 20
-0.0000000000000009
 30
0.0
 11
1.420999999998571
 21
0.5401921895899839
 31
0.0
  0
LINE
  5
11916
330
11906
100
AcDbEntity
  8
0
  6
CONTINUOUS
100
AcDbLine
 10
0.0581249075061505
 20
-0.0000000000000009
 30
0.0
 11
-0.0000000000000002
 21
0.0581249075061496
 31
0.0
  0
LINE
  5
11917
330
11906
100
AcDbEntity
  8
0
  6
CONTINUOUS
100
AcDbLine
 10
0.7316441165863372
 20
-0.0000000000000009
 30
0.0
 11
-0.0000000000000002
 21
0.7316441165863363
 31
0.0
  0
LINE
  5
11918
330
11906
100
AcDbEntity
  8
0
  6
CONTINUOUS
100
AcDbLine
 10
1.405163325666523
 20
-0.0000000000000009
 30
0.0
 11
-0.0000000000000002
 21
1.405163325666523
 31
0.0
  0
LINE
  5
11919
330
11906
100
AcDbEntity
  8
0
  6
CONTINUOUS
100
AcDbLine
 10
1.420999999998572
 20
0.6576825347481381
 30
0.0
 11
-0.0000000000000001
 21
2.07868253474671
 31
0.0
  0
LINE
  5
1191A
330
11906
100
AcDbEntity
  8
0
  6
CONTINUOUS
100
AcDbLine
 10
1.420999999998571
 20
1.331201743828324
 30
0.0
 11
-0.0000000000000001
 21
2.752201743826896
 31
0.0
  0
LINE
  5
1191B
330
11906
100
AcDbEntity
  8
0
  6
CONTINUOUS
100
AcDbLine
 10
1.420999999998571
 20
2.004720952908511
 30
0.0
 11
-0.0000000000000002
 21
3.425720952907082
 31
0.0
  0
LINE
  5
1191C
330
11906
100
AcDbEntity
  8
0
  6
CONTINUOUS
100
AcDbLine
 10
1.420999999998571
 20
2.678240161988697
 30
0.0
 11
-0.0000000000000001
 21
4.099240161987269
 31
0.0
  0
LINE
  5
1191D
330
11906
100
AcDbEntity
  8
0
  6
CONTINUOUS
100
AcDbLine
 10
1.420999999998572
 20
3.351759371068884
 30
0.0
 11
0.0
 21
4.772759371067455
 31
0.0
  0
LINE
  5
1191E
330
11906
100
AcDbEntity
  8
0
  6
CONTINUOUS
100
AcDbLine
 10
1.420999999998571
 20
4.02527858014907
 30
0.0
 11
-0.0000000000000003
 21
5.446278580147642
 31
0.0
  0
LINE
  5
1191F
330
11906
100
AcDbEntity
  8
0
  6
CONTINUOUS
100
AcDbLine
 10
1.420999999998571
 20
4.698797789229257
 30
0.0
 11
0.0
 21
6.119797789227828
 31
0.0
  0
LINE
  5
11920
330
11906
100
AcDbEntity
  8
0
  6
CONTINUOUS
100
AcDbLine
 10
1.420999999998571
 20
5.372316998309444
 30
0.0
 11
-0.0000000000000001
 21
6.793316998308015
 31
0.0
  0
LINE
  5
11921
330
11906
100
AcDbEntity
  8
0
  6
CONTINUOUS
100
AcDbLine
 10
1.420999999998572
 20
6.045836207389629
 30
0.0
 11
-0.0000000000000004
 21
7.466836207388202
 31
0.0
  0
LINE
  5
11922
330
11906
100
AcDbEntity
  8
0
  6
CONTINUOUS
100
AcDbLine
 10
1.420999999998571
 20
6.719355416469816
 30
0.0
 11
0.0
 21
8.140355416468388
 31
0.0
  0
LINE
  5
11923
330
11906
100
AcDbEntity
  8
0
  6
CONTINUOUS
100
AcDbLine
 10
1.420999999998571
 20
7.392874625550003
 30
0.0
 11
0.0507746255573185
 21
8.763099999991255
 31
0.0
  0
LINE
  5
11924
330
11906
100
AcDbEntity
  8
0
  6
CONTINUOUS
100
AcDbLine
 10
1.420999999998571
 20
8.06639383463019
 30
0.0
 11
0.7242938346375052
 21
8.763099999991255
 31
0.0
  0
LINE
  5
11925
330
11906
100
AcDbEntity
  8
0
  6
CONTINUOUS
100
AcDbLine
 10
1.420999999998571
 20
8.739913043710375
 30
0.0
 11
1.397813043717691
 21
8.763099999991255
 31
0.0
  0
ENDBLK
  5
11931
330
11906
100
AcDbEntity
  8
0
100
AcDbBlockEnd
  0
ENDSEC
  0
SECTION
  2
ENTITIES
  0
CIRCLE
  5
FB74
330
18
100
AcDbEntity
  8
01
100
AcDbCircle
 10
7432.076847840124
 20
303.585144565003
 30
0.0000000000563712
 40
2.5
  0
LINE
  5
1050F
330
18
100
AcDbEntity
  8
01
100
AcDbLine
 10
7079.076952179867
 20
296.1851543608757
 30
0.0000000000563712
 11
7105.076952179867
 21
296.1851543608757
 31
0.0000000000563712
  0
LINE
  5
10510
330
18
100
AcDbEntity
  8
01
100
AcDbLine
 10
7114.576952179867
 20
301.6851543608757
 30
0.0000000000563712
 11
7069.576952179867
 21
301.6851543608757
 31
0.0000000000563712
  0
LINE
  5
10511
330
18
100
AcDbEntity
  8
01
100
AcDbLine
 10
7092.076952179867
 20
324.1851543608757
 30
0.0000000000563712
 11
7092.076952179867
 21
279.1851543608757
 31
0.0000000000563712
  0
LINE
  5
10516
330
18
100
AcDbEntity
  8
1CENTER
100
AcDbLine
 10
7432.076968144716
 20
561.5217850224808
 30
0.0000000000563712
 11
7432.076968144716
 21
517.2350413083595
 31
0.0000000000563712
  0
LINE
  5
10517
330
18
100
AcDbEntity
  8
01
100
AcDbLine
 10
7412.57695592351
 20
542.4851543598472
 30
0.0000000000563712
 11
7451.57695592351
 21
542.4851543598475
 31
0.0000000000563712
  0
LINE
  5
10518
330
18
100
AcDbEntity
  8
01
100
AcDbLine
 10
7452.07695592351
 20
536.1851543598473
 30
0.0000000000563712
 11
7412.07695592351
 21
536.1851543598468
 31
0.0000000000563712
  0
LINE
  5
10519
330
18
100
AcDbEntity
  8
01
100
AcDbLine
 10
7452.07695592351
 20
536.1851543598473
 30
0.0000000000563712
 11
7452.07695592351
 21
541.9851543598475
 31
0.0000000000563712
  0
ARC
  5
1051A
330
18
100
AcDbEntity
  8
01
100
AcDbCircle
 10
7451.57695592351
 20
541.9851543598472
 30
0.0000000000563712
 40
0.5
100
AcDbArc
 50
0.0
 51
90.0
  0
LINE
  5
1051B
330
18
100
AcDbEntity
  8
01
100
AcDbLine
 10
7412.07695592351
 20
536.1851543598468
 30
0.0000000000563712
 11
7412.07695592351
 21
541.9851543598472
 31
0.0000000000563712
  0
ARC
  5
1051C
330
18
100
AcDbEntity
  8
01
100
AcDbCircle
 10
7412.57695592351
 20
541.9851543598472
 30
0.0000000000563712
 40
0.5
100
AcDbArc
 50
90.0
 51
180.0
  0
LINE
  5
1051D
330
18
100
AcDbEntity
  8
01
100
AcDbLine
 10
7428.576968144724
 20
543.685151026647
 30
0.0000000000563885
 11
7422.826968144717
 21
543.6851510266479
 31
0.0000000000563885
  0
LINE
  5
1051E
330
18
100
AcDbEntity
  8
01
100
AcDbLine
 10
7429.576968144725
 20
557.1851739708536
 30
0.0000000000563885
 11
7429.576968144724
 21
544.685151026647
 31
0.0000000000563885
  0
LINE
  5
1051F
330
18
100
AcDbEntity
  8
01
100
AcDbLine
 10
7434.576968144725
 20
557.1851739708518
 30
0.0000000000563885
 11
7434.576968144725
 21
544.6851510266488
 31
0.0000000000563885
  0
ARC
  5
10520
330
18
100
AcDbEntity
  8
01
100
AcDbCircle
 10
7433.576968144725
 20
557.1851739708536
 30
0.0000000000563885
 40
1.0
100
AcDbArc
 50
0.0000000000521102
 51
90.0
  0
ARC
  5
10521
330
18
100
AcDbEntity
  8
01
100
AcDbCircle
 10
7430.576968144725
 20
557.1851739708536
 30
0.0000000000563885
 40
1.0
100
AcDbArc
 50
90.0
 51
180.0
  0
LINE
  5
10522
330
18
100
AcDbEntity
  8
01
100
AcDbLine
 10
7433.576968144725
 20
558.1851739708554
 30
0.0000000000563885
 11
7430.576968144725
 21
558.1851739708554
 31
0.0000000000563885
  0
LINE
  5
10523
330
18
100
AcDbEntity
  8
01
100
AcDbLine
 10
7441.326968144716
 20
543.6851510266488
 30
0.0000000000563885
 11
7435.576968144725
 21
543.6851510266488
 31
0.0000000000563885
  0
ARC
  5
10524
330
18
100
AcDbEntity
  8
01
100
AcDbCircle
 10
7435.576968144725
 20
544.6851510266488
 30
0.0000000000563885
 40
1.0
100
AcDbArc
 50
180.0
 51
270.0
  0
ARC
  5
10525
330
18
100
AcDbEntity
  8
01
100
AcDbCircle
 10
7428.576968144724
 20
544.685151026647
 30
0.0000000000563885
 40
1.0
100
AcDbArc
 50
270.0
 51
0.0
  0
LINE
  5
10526
330
18
100
AcDbEntity
  8
01
100
AcDbLine
 10
7422.326968144717
 20
543.1851510266483
 30
0.000000000112646
 11
7422.326968144717
 21
542.4851543598475
 31
0.0000000001126239
  0
ARC
  5
10527
330
18
100
AcDbEntity
  8
01
100
AcDbCircle
 10
7422.826968144717
 20
543.1851510266483
 30
0.000000000112646
 40
0.5
100
AcDbArc
 50
90.0
 51
180.0
  0
LINE
  5
10528
330
18
100
AcDbEntity
  8
01
100
AcDbLine
 10
7441.826968144716
 20
543.1851510266483
 30
0.000000000112646
 11
7441.826968144716
 21
542.4851543598475
 31
0.0000000001126239
  0
ARC
  5
10529
330
18
100
AcDbEntity
  8
01
100
AcDbCircle
 10
7441.326968144716
 20
543.1851510266483
 30
0.000000000112646
 40
0.5
100
AcDbArc
 50
0.0
 51
90.0
  0
LINE
  5
1052A
330
18
100
AcDbEntity
  8
1CENTER
100
AcDbLine
 10
7432.076943570097
 20
487.3605379717931
 30
0.0000000000563712
 11
7432.076943570097
 21
499.3605379717931
 31
0.0000000000563712
  0
LINE
  5
1052B
330
18
100
AcDbEntity
  8
01
100
AcDbLine
 10
7451.576955791304
 20
489.8851543598441
 30
0.0000000000563712
 11
7412.576955791304
 21
489.8851543598494
 31
0.0000000000563712
  0
LINE
  5
1052C
330
18
100
AcDbEntity
  8
01
100
AcDbLine
 10
7412.076955791304
 20
496.1851543598498
 30
0.0000000000563712
 11
7452.076955791304
 21
496.1851543598443
 31
0.0000000000563712
  0
LINE
  5
1052D
330
18
100
AcDbEntity
  8
01
100
AcDbLine
 10
7412.076955791304
 20
496.1851543598498
 30
0.0000000000563712
 11
7412.076955791304
 21
490.3851543598496
 31
0.0000000000563712
  0
ARC
  5
1052E
330
18
100
AcDbEntity
  8
01
100
AcDbCircle
 10
7412.576955791304
 20
490.3851543598498
 30
0.0000000000563712
 40
0.5
100
AcDbArc
 50
179.9999999999739
 51
270.0
  0
LINE
  5
1052F
330
18
100
AcDbEntity
  8
01
100
AcDbLine
 10
7452.076955791304
 20
496.1851543598443
 30
0.0000000000563712
 11
7452.076955791304
 21
490.3851543598441
 31
0.0000000000563712
  0
ARC
  5
10530
330
18
100
AcDbEntity
  8
01
100
AcDbCircle
 10
7451.576955791304
 20
490.3851543598441
 30
0.0000000000563712
 40
0.5
100
AcDbArc
 50
270.0
 51
0.0
  0
ARC
  5
10531
330
18
100
AcDbEntity
  8
01
100
AcDbCircle
 10
7432.076946249159
 20
494.0351489819718
 30
0.0000000000562575
 40
6.0
100
AcDbArc
 50
234.3146660000189
 51
256.8165180000145
  0
LINE
  5
10532
330
18
100
AcDbEntity
  8
01
100
AcDbLine
 10
7428.576946249159
 20
489.1617489819716
 30
0.0000000000562575
 11
7428.576946249158
 21
489.8851543598471
 31
0.0000000000562575
  0
LINE
  5
10533
330
18
100
AcDbEntity
  8
01
100
AcDbLine
 10
7435.576946249159
 20
489.1617489819716
 30
0.0000000000562575
 11
7435.576946249159
 21
489.8851543598462
 31
0.0000000000562575
  0
LINE
  5
10534
330
18
100
AcDbEntity
  8
01
100
AcDbLine
 10
7433.076946249159
 20
488.4846005225693
 30
0.0000000000562575
 11
7433.076946249159
 21
489.8851543598466
 31
0.0000000000562575
  0
ARC
  5
10535
330
18
100
AcDbEntity
  8
01
100
AcDbCircle
 10
7430.776943249159
 20
488.4853789819717
 30
0.0000000000562575
 40
0.30000001
100
AcDbArc
 50
256.8165179999623
 51
0.0
  0
ARC
  5
10536
330
18
100
AcDbEntity
  8
01
100
AcDbCircle
 10
7433.376945249159
 20
488.4853789819717
 30
0.0000000000562575
 40
0.30000001
100
AcDbArc
 50
179.9999969999697
 51
283.1834800000213
  0
LINE
  5
10537
330
18
100
AcDbEntity
  8
01
100
AcDbLine
 10
7431.076946249159
 20
488.4853789819717
 30
0.0000000000562575
 11
7431.076946249159
 21
489.8851543598469
 31
0.0000000000562575
  0
ARC
  5
10538
330
18
100
AcDbEntity
  8
01
100
AcDbCircle
 10
7432.076946249159
 20
494.0351489819718
 30
0.0000000000562575
 40
6.0
100
AcDbArc
 50
283.1834825033476
 51
305.6853299999988
  0
LINE
  5
10539
330
18
100
AcDbEntity
  8
1CENTER
100
AcDbLine
 10
7092.076952179867
 20
290.1851543608757
 30
0.0000000000563712
 11
7092.076952179867
 21
302.1851543608757
 31
0.0000000000563712
  0
LINE
  5
1053A
330
18
100
AcDbEntity
  8
1CENTER
100
AcDbLine
 10
7086.076952179867
 20
296.1851543608757
 30
0.0000000000563712
 11
7098.076952179867
 21
296.1851543608757
 31
0.0000000000563712
  0
LINE
  5
1053B
330
18
100
AcDbEntity
  8
01
100
AcDbLine
 10
7111.576952179865
 20
321.6851543608757
 30
0.0000000000563712
 11
7072.576952179865
 21
321.6851543608755
 31
0.0000000000563712
  0
ARC
  5
1053C
330
18
100
AcDbEntity
  8
01
100
AcDbCircle
 10
7072.576952179865
 20
321.1851543608755
 30
0.0000000000563712
 40
0.5
100
AcDbArc
 50
90.0
 51
180.0
  0
LINE
  5
1053D
330
18
100
AcDbEntity
  8
01
100
AcDbLine
 10
7111.576952179865
 20
281.6851543608757
 30
0.0000000000563712
 11
7072.576952179865
 21
281.6851543608752
 31
0.0000000000563712
  0
ARC
  5
1053E
330
18
100
AcDbEntity
  8
01
100
AcDbCircle
 10
7111.576952179865
 20
282.1851543608757
 30
0.0000000000563712
 40
0.5
100
AcDbArc
 50
270.0
 51
0.0
  0
LINE
  5
1053F
330
18
100
AcDbEntity
  8
01
100
AcDbLine
 10
7112.076952179865
 20
282.1851543608757
 30
0.0000000000563712
 11
7112.076952179865
 21
321.1851543608757
 31
0.0000000000563712
  0
ARC
  5
10540
330
18
100
AcDbEntity
  8
01
100
AcDbCircle
 10
7111.576952179865
 20
321.1851543608757
 30
0.0000000000563712
 40
0.5
100
AcDbArc
 50
0.0
 51
90.0
  0
LINE
  5
10541
330
18
100
AcDbEntity
  8
01
100
AcDbLine
 10
7072.076952179865
 20
282.1851543608752
 30
0.0000000000563712
 11
7072.076952179865
 21
321.1851543608755
 31
0.0000000000563712
  0
ARC
  5
10542
330
18
100
AcDbEntity
  8
01
100
AcDbCircle
 10
7072.576952179865
 20
282.1851543608752
 30
0.0000000000563712
 40
0.5
100
AcDbArc
 50
180.0
 51
270.0
  0
ARC
  5
10543
330
18
100
AcDbEntity
  8
01
100
AcDbCircle
 10
7094.076952179867
 20
305.21635029497
 30
0.0000000000563712
 40
0.5000000000000013
100
AcDbArc
 50
0.0
 51
77.51311018581228
  0
ARC
  5
10544
330
18
100
AcDbEntity
  8
01
100
AcDbCircle
 10
7090.076952179867
 20
287.1539584267814
 30
0.0000000000563712
 40
0.5000000000000029
100
AcDbArc
 50
180.0
 51
257.5131101858646
  0
ARC
  5
10545
330
18
100
AcDbEntity
  8
01
100
AcDbCircle
 10
7094.076952179867
 20
287.1539584267814
 30
0.0000000000563712
 40
0.5000000000000013
100
AcDbArc
 50
282.4868898141877
 51
0.0
  0
ARC
  5
10546
330
18
100
AcDbEntity
  8
01
100
AcDbCircle
 10
7092.076952179867
 20
296.1851543608757
 30
0.0000000000563712
 40
9.749999999999995
100
AcDbArc
 50
77.51311018586458
 51
102.4868898141354
  0
ARC
  5
10547
330
18
100
AcDbEntity
  8
01
100
AcDbCircle
 10
7090.076952179867
 20
305.21635029497
 30
0.0000000000563712
 40
0.5000000000000029
100
AcDbArc
 50
102.4868898141354
 51
180.0
  0
ARC
  5
10548
330
18
100
AcDbEntity
  8
01
100
AcDbCircle
 10
7092.076952179867
 20
296.1851543608757
 30
0.0000000000563712
 40
9.75
100
AcDbArc
 50
257.5131101858646
 51
282.4868898141354
  0
LINE
  5
10549
330
18
100
AcDbEntity
  8
01
100
AcDbLine
 10
7094.576952179867
 20
305.21635029497
 30
0.0000000000563712
 11
7094.576952179867
 21
287.1539584267814
 31
0.0000000000563712
  0
LINE
  5
1054A
330
18
100
AcDbEntity
  8
01
100
AcDbLine
 10
7089.576952179867
 20
287.1539584267814
 30
0.0000000000563712
 11
7089.576952179867
 21
305.21635029497
 31
0.0000000000563712
  0
SPLINE
  5
1054B
330
18
100
AcDbEntity
  8
01
100
AcDbSpline
210
0.0
220
0.0
230
1.0
 70
     8
 71
     3
 72
    18
 73
    14
 74
     0
 42
0.0000000001
 43
0.0000000001
 40
0.0
 40
0.0
 40
0.0
 40
0.0
 40
0.2500000000000002
 40
0.2500000000000002
 40
0.375
 40
0.375
 40
0.4999999999999998
 40
0.4999999999999998
 40
0.6249999999999996
 40
0.6249999999999996
 40
0.7499999999999993
 40
0.7499999999999993
 40
1.0
 40
1.0
 40
1.0
 40
1.0
 10
7095.766141369055
 20
287.1600569582783
 30
0.0000000000563712
 10
7095.57288031178
 20
287.0810576332417
 30
0.0000000000563712
 10
7095.380558700052
 20
287.0097900986721
 30
0.0000000000563712
 10
7095.101233241592
 20
286.9155329874986
 30
0.0000000000563712
 10
7095.011740099084
 20
286.8868997623108
 30
0.0000000000563712
 10
7094.840462891292
 20
286.8345646865102
 30
0.0000000000563712
 10
7094.757813478122
 20
286.8106325215895
 30
0.0000000000563712
 10
7094.606340338682
 20
286.7686331052428
 30
0.0000000000563712
 10
7094.537668767725
 20
286.7505712376835
 30
0.0000000000563712
 10
7094.415300793466
 20
286.7195000995227
 30
0.0000000000563712
 10
7094.361460556849
 20
286.7064685669159
 30
0.0000000000563712
 10
7094.232106269617
 20
286.6759134621554
 30
0.0000000000563712
 10
7094.185060287975
 20
286.6657856735872
 30
0.0000000000563712
 10
7094.185060287975
 20
286.6657856735872
 30
0.0000000000563712
  0
SPLINE
  5
1054C
330
18
100
AcDbEntity
  8
01
100
AcDbSpline
210
0.0
220
0.0
230
1.0
 70
     8
 71
     3
 72
    18
 73
    14
 74
     0
 42
0.0000000001
 43
0.0000000001
 40
0.0
 40
0.0
 40
0.0
 40
0.0
 40
0.2500000000000002
 40
0.2500000000000002
 40
0.3750000000000002
 40
0.3750000000000002
 40
0.5000000000000002
 40
0.5000000000000002
 40
0.6250000000000002
 40
0.6250000000000002
 40
0.7500000000000001
 40
0.7500000000000001
 40
1.0
 40
1.0
 40
1.0
 40
1.0
 10
7088.387762990676
 20
305.210251763473
 30
0.0000000000563712
 10
7088.581024047953
 20
305.2892510885097
 30
0.0000000000563712
 10
7088.773345659681
 20
305.3605186230791
 30
0.0000000000563712
 10
7089.052671118141
 20
305.4547757342527
 30
0.0000000000563712
 10
7089.142164260649
 20
305.4834089594406
 30
0.0000000000563712
 10
7089.313441468441
 20
305.5357440352411
 30
0.0000000000563712
 10
7089.39609088161
 20
305.5596762001619
 30
0.0000000000563712
 10
7089.547564021052
 20
305.6016756165084
 30
0.0000000000563712
 10
7089.616235592008
 20
305.6197374840679
 30
0.0000000000563712
 10
7089.738603566268
 20
305.6508086222286
 30
0.0000000000563712
 10
7089.792443802884
 20
305.6638401548355
 30
0.0000000000563712
 10
7089.921798090115
 20
305.6943952595959
 30
0.0000000000563712
 10
7089.968844071758
 20
305.7045230481642
 30
0.0000000000563712
 10
7089.968844071758
 20
305.7045230481642
 30
0.0000000000563712
  0
SPLINE
  5
1054D
330
18
100
AcDbEntity
  8
01
100
AcDbSpline
210
0.0
220
0.0
230
1.0
 70
     8
 71
     3
 72
    16
 73
    12
 74
     0
 42
0.0000000001
 43
0.0000000001
 40
0.0
 40
0.0
 40
0.0
 40
0.0
 40
0.1249999999999998
 40
0.1249999999999998
 40
0.2499999999999997
 40
0.2499999999999997
 40
0.4999999999999998
 40
0.4999999999999998
 40
0.7499999999999999
 40
0.7499999999999999
 40
1.0
 40
1.0
 40
1.0
 40
1.0
 10
7089.968844071758
 20
286.6657856735872
 30
0.0000000000563712
 10
7089.968844071758
 20
286.6657856735872
 30
0.0000000000563712
 10
7089.957428549631
 20
286.6682936295781
 30
0.0000000000563712
 10
7089.912995493291
 20
286.6782984107383
 30
0.0000000000563712
 10
7089.879299892737
 20
286.6859550757879
 30
0.0000000000563712
 10
7089.749952571276
 20
286.7164995803205
 30
0.0000000000563712
 10
7089.623496690969
 20
286.7475997340975
 30
0.0000000000563712
 10
7089.322550489973
 20
286.8310027424691
 30
0.0000000000563712
 10
7089.145757055206
 20
286.8841516719917
 30
0.0000000000563712
 10
7088.776060783202
 20
287.0088439985952
 30
0.0000000000563712
 10
7088.580989624968
 20
287.081071704326
 30
0.0000000000563712
 10
7088.387762990676
 20
287.1600569582783
 30
0.0000000000563712
  0
SPLINE
  5
1054E
330
18
100
AcDbEntity
  8
01
100
AcDbSpline
210
0.0
220
0.0
230
1.0
 70
     8
 71
     3
 72
    16
 73
    12
 74
     0
 42
0.0000000001
 43
0.0000000001
 40
0.0
 40
0.0
 40
0.0
 40
0.0
 40
0.1249999999999997
 40
0.1249999999999997
 40
0.2499999999999993
 40
0.2499999999999993
 40
0.4999999999999996
 40
0.4999999999999996
 40
0.7499999999999998
 40
0.7499999999999998
 40
1.0
 40
1.0
 40
1.0
 40
1.0
 10
7094.185060287975
 20
305.7045230481642
 30
0.0000000000563712
 10
7094.185060287975
 20
305.7045230481642
 30
0.0000000000563712
 10
7094.1964758101
 20
305.702015092173
 30
0.0000000000563712
 10
7094.240908866443
 20
305.6920103110128
 30
0.0000000000563712
 10
7094.274604466995
 20
305.6843536459633
 30
0.0000000000563712
 10
7094.403951788458
 20
305.6538091414307
 30
0.0000000000563712
 10
7094.530407668764
 20
305.6227089876538
 30
0.0000000000563712
 10
7094.83135386976
 20
305.5393059792823
 30
0.0000000000563712
 10
7095.008147304527
 20
305.4861570497596
 30
0.0000000000563712
 10
7095.37784357653
 20
305.3614647231561
 30
0.0000000000563712
 10
7095.572914734765
 20
305.2892370174254
 30
0.0000000000563712
 10
7095.766141369055
 20
305.210251763473
 30
0.0000000000563712
  0
ARC
  5
1054F
330
18
100
AcDbEntity
  8
01
100
AcDbCircle
 10
7092.076952179867
 20
296.1851543608757
 30
0.0000000000563712
 40
9.750000000000005
100
AcDbArc
 50
112.2332717982963
 51
247.7667282017037
  0
ARC
  5
10550
330
18
100
AcDbEntity
  8
01
100
AcDbCircle
 10
7092.076952179867
 20
296.1851543608757
 30
0.0000000000563712
 40
9.750000000000009
100
AcDbArc
 50
292.2332717982963
 51
67.7667282017037
  0
CIRCLE
  5
10551
330
18
100
AcDbEntity
  8
01
100
AcDbCircle
 10
7092.076952179867
 20
296.1851543608757
 30
0.0000000000563712
 40
10.3
  0
LINE
  5
10552
330
18
100
AcDbEntity
  8
01
100
AcDbLine
 10
7288.376956179867
 20
282.1851592250655
 30
0.0000000000563712
 11
7288.376956179868
 21
321.185159225065
 31
0.0000000000563712
  0
LINE
  5
10553
330
18
100
AcDbEntity
  8
01
100
AcDbLine
 10
7282.076956179868
 20
321.6851592250655
 30
0.0000000000563712
 11
7282.076956179864
 21
281.6851592250653
 31
0.0000000000563712
  0
LINE
  5
10554
330
18
100
AcDbEntity
  8
01
100
AcDbLine
 10
7282.076956179864
 20
281.6851592250653
 30
0.0000000000563712
 11
7287.876956179868
 21
281.6851592250655
 31
0.0000000000563712
  0
ARC
  5
10555
330
18
100
AcDbEntity
  8
01
100
AcDbCircle
 10
7287.876956179868
 20
282.1851592250655
 30
0.0000000000563712
 40
0.5
100
AcDbArc
 50
270.0
 51
0.0
  0
LINE
  5
10556
330
18
100
AcDbEntity
  8
01
100
AcDbLine
 10
7282.076956179868
 20
321.6851592250655
 30
0.0000000000563712
 11
7287.876956179868
 21
321.685159225065
 31
0.0000000000563712
  0
ARC
  5
10557
330
18
100
AcDbEntity
  8
01
100
AcDbCircle
 10
7287.876956179868
 20
321.185159225065
 30
0.0000000000563712
 40
0.5
100
AcDbArc
 50
0.0
 51
90.0
  0
LINE
  5
10558
330
18
100
AcDbEntity
  8
01
100
AcDbLine
 10
7235.776956179868
 20
282.1851543608757
 30
0.0000000000563712
 11
7235.776956179868
 21
321.1851543608752
 31
0.0000000000563712
  0
LINE
  5
10559
330
18
100
AcDbEntity
  8
01
100
AcDbLine
 10
7242.076956179868
 20
321.6851543608757
 30
0.0000000000563712
 11
7242.076956179863
 21
281.6851543608755
 31
0.0000000000563712
  0
LINE
  5
1055A
330
18
100
AcDbEntity
  8
01
100
AcDbLine
 10
7242.076956179863
 20
281.6851543608755
 30
0.0000000000563712
 11
7236.276956179868
 21
281.6851543608757
 31
0.0000000000563712
  0
ARC
  5
1055B
330
18
100
AcDbEntity
  8
01
100
AcDbCircle
 10
7236.276956179868
 20
282.1851543608757
 30
0.0000000000563712
 40
0.5
100
AcDbArc
 50
180.0
 51
270.0
  0
LINE
  5
1055C
330
18
100
AcDbEntity
  8
01
100
AcDbLine
 10
7242.076956179868
 20
321.6851543608757
 30
0.0000000000563712
 11
7236.276956179868
 21
321.6851543608752
 31
0.0000000000563712
  0
ARC
  5
1055D
330
18
100
AcDbEntity
  8
01
100
AcDbCircle
 10
7236.276956179868
 20
321.1851543608752
 30
0.0000000000563712
 40
0.5
100
AcDbArc
 50
90.0
 51
180.0
  0
SPLINE
  5
1055E
330
18
100
AcDbEntity
  8
01
100
AcDbSpline
210
0.0
220
0.0
230
1.0
 70
    24
 71
     1
 72
     4
 73
     2
 74
     0
 42
0.0000000001
 43
0.0000000001
 40
0.1160848018737504
 40
0.1160848018737504
 40
1.0
 40
1.0
 10
7235.776956179868
 20
286.4351543608684
 30
0.0000000000563712
 10
7221.076931368856
 20
286.4351543608684
 30
0.0000000000563712
  0
SPLINE
  5
1055F
330
18
100
AcDbEntity
  8
01
100
AcDbSpline
210
0.0
220
0.0
230
1.0
 70
    24
 71
     1
 72
     4
 73
     2
 74
     0
 42
0.0000000001
 43
0.0000000001
 40
0.0
 40
0.0
 40
0.8839151981262495
 40
0.8839151981262495
 10
7221.076931368856
 20
305.9351543608684
 30
0.0000000000563712
 10
7235.776956179868
 20
305.9351543608684
 30
0.0000000000563712
  0
ARC
  5
10560
330
18
100
AcDbEntity
  8
01
100
AcDbCircle
 10
7221.076931368856
 20
287.4351543608684
 30
0.0000000000563712
 40
1.0
100
AcDbArc
 50
180.0
 51
270.0
  0
ARC
  5
10561
330
18
100
AcDbEntity
  8
01
100
AcDbCircle
 10
7221.076931368856
 20
304.9351543608684
 30
0.0000000000563712
 40
1.0
100
AcDbArc
 50
90.0
 51
180.0
  0
LINE
  5
10562
330
18
100
AcDbEntity
  8
01
100
AcDbLine
 10
7234.576931368856
 20
304.7474262556402
 30
0.0000000000563712
 11
7234.576931368856
 21
287.6228824660966
 31
0.0000000000563712
  0
SPLINE
  5
10563
330
18
100
AcDbEntity
  8
01
100
AcDbSpline
210
0.0
220
0.0
230
1.0
 70
     8
 71
     3
 72
    14
 73
    10
 74
     0
 42
0.0000000001
 43
0.0000000001
 40
0.0
 40
0.0
 40
0.0
 40
0.0
 40
0.25
 40
0.25
 40
0.5
 40
0.5
 40
0.75
 40
0.75
 40
1.0
 40
1.0
 40
1.0
 40
1.0
 10
7233.576931368856
 20
305.2163502949627
 30
0.0000000000563712
 10
7233.716899046609
 20
305.2163502949627
 30
0.0000000000563712
 10
7233.855320320754
 20
305.2067143396559
 30
0.0000000000563712
 10
7234.105370660709
 20
305.1676334307142
 30
0.0000000000563712
 10
7234.217688223538
 20
305.1378272958405
 30
0.0000000000563712
 10
7234.398735594625
 20
305.0569075590565
 30
0.0000000000563712
 10
7234.466536230929
 20
305.0065180228651
 30
0.0000000000563712
 10
7234.556155147472
 20
304.8871484338501
 30
0.0000000000563712
 10
7234.576931368856
 20
304.8203489831387
 30
0.0000000000563712
 10
7234.576931368856
 20
304.7474262556402
 30
0.0000000000563712
  0
SPLINE
  5
10564
330
18
100
AcDbEntity
  8
01
100
AcDbSpline
210
0.0
220
0.0
230
1.0
 70
     8
 71
     3
 72
    14
 73
    10
 74
     0
 42
0.0000000001
 43
0.0000000001
 40
0.0
 40
0.0
 40
0.0
 40
0.0
 40
0.25
 40
0.25
 40
0.5
 40
0.5
 40
0.75
 40
0.75
 40
1.0
 40
1.0
 40
1.0
 40
1.0
 10
7234.576931368856
 20
287.6228824660966
 30
0.0000000000563712
 10
7234.576931368856
 20
287.5499657789621
 30
0.0000000000563712
 10
7234.555570961595
 20
287.4821810831013
 30
0.0000000000563712
 10
7234.466431769919
 20
287.3638542091376
 30
0.0000000000563712
 10
7234.397499139764
 20
287.3127413543696
 30
0.0000000000563712
 10
7234.217451699398
 20
287.2324837622157
 30
0.0000000000563712
 10
7234.104746025903
 20
287.2025209425092
 30
0.0000000000563712
 10
7233.854175412283
 20
287.1634725669751
 30
0.0000000000563712
 10
7233.716789262966
 20
287.1539584267741
 30
0.0000000000563712
 10
7233.576931368856
 20
287.1539584267741
 30
0.0000000000563712
  0
LINE
  5
10565
330
18
100
AcDbEntity
  8
01
100
AcDbLine
 10
7233.576931368856
 20
287.1539584267741
 30
0.0000000000563712
 11
7221.076931368856
 21
287.1539584267741
 31
0.0000000000563712
  0
LINE
  5
10566
330
18
100
AcDbEntity
  8
01
100
AcDbLine
 10
7221.076931368856
 20
305.2163502949627
 30
0.0000000000563712
 11
7233.576931368856
 21
305.2163502949627
 31
0.0000000000563712
  0
SPLINE
  5
10567
330
18
100
AcDbEntity
  8
01
100
AcDbSpline
210
0.0
220
0.0
230
1.0
 70
     8
 71
     3
 72
    14
 73
    10
 74
     0
 42
0.0000000001
 43
0.0000000001
 40
0.0
 40
0.0
 40
0.0
 40
0.0
 40
0.2500000000000001
 40
0.2500000000000001
 40
0.5000000000000002
 40
0.5000000000000002
 40
0.7500000000000003
 40
0.7500000000000003
 40
1.0
 40
1.0
 40
1.0
 40
1.0
 10
7221.076931368856
 20
305.2163502949627
 30
0.0000000000563712
 10
7220.939722453928
 20
305.2163502949627
 30
0.0000000000563712
 10
7220.804718908416
 20
305.2049754848674
 30
0.0000000000563712
 10
7220.557382449763
 20
305.1620206175471
 30
0.0000000000563712
 10
7220.446881020398
 20
305.1307762904426
 30
0.0000000000563712
 10
7220.26468734687
 20
305.0535907730516
 30
0.0000000000563712
 10
7220.195694244485
 20
305.0092501577919
 30
0.0000000000563712
 10
7220.100926705999
 20
304.9112685064138
 30
0.0000000000563712
 10
7220.076931368856
 20
304.8587750833969
 30
0.0000000000563712
 10
7220.076931368856
 20
304.8056241856518
 30
0.0000000000563712
  0
SPLINE
  5
10568
330
18
100
AcDbEntity
  8
01
100
AcDbSpline
210
0.0
220
0.0
230
1.0
 70
     8
 71
     3
 72
    14
 73
    10
 74
     0
 42
0.0000000001
 43
0.0000000001
 40
0.0
 40
0.0
 40
0.0
 40
0.0
 40
0.2500000000000001
 40
0.2500000000000001
 40
0.5000000000000002
 40
0.5000000000000002
 40
0.7500000000000003
 40
0.7500000000000003
 40
1.0
 40
1.0
 40
1.0
 40
1.0
 10
7221.076931368856
 20
287.1539584267741
 30
0.0000000000563712
 10
7220.939722453928
 20
287.1539584267741
 30
0.0000000000563712
 10
7220.804718908416
 20
287.1653332368694
 30
0.0000000000563712
 10
7220.557382449763
 20
287.2082881041897
 30
0.0000000000563712
 10
7220.446881020398
 20
287.2395324312943
 30
0.0000000000563712
 10
7220.26468734687
 20
287.3167179486854
 30
0.0000000000563712
 10
7220.195694244485
 20
287.3610585639449
 30
0.0000000000563712
 10
7220.100926705999
 20
287.4590402153233
 30
0.0000000000563712
 10
7220.076931368856
 20
287.5115336383399
 30
0.0000000000563712
 10
7220.076931368856
 20
287.564684536085
 30
0.0000000000563712
  0
LINE
  5
10569
330
18
100
AcDbEntity
  8
01
100
AcDbLine
 10
7220.076931368856
 20
304.8056241856518
 30
0.0000000000563712
 11
7220.076931368856
 21
287.564684536085
 31
0.0000000000563712
  0
LINE
  5
1056A
330
18
100
AcDbEntity
  8
01
100
AcDbLine
 10
7220.076931368856
 20
287.564684536085
 30
0.0000000000563712
 11
7220.076931368856
 21
287.4351543608684
 31
0.0000000000563712
  0
LINE
  5
1056B
330
18
100
AcDbEntity
  8
01
100
AcDbLine
 10
7289.118939868828
 20
299.685155681814
 30
0.0000000001126251
 11
7288.376956179867
 21
299.6851556818137
 31
0.0000000001126251
  0
LINE
  5
1056C
330
18
100
AcDbEntity
  8
01
100
AcDbLine
 10
7289.118939868828
 20
292.685155681814
 30
0.0000000001126251
 11
7288.376956179867
 21
292.685155681814
 31
0.0000000001126251
  0
ARC
  5
1056D
330
18
100
AcDbEntity
  8
01
100
AcDbCircle
 10
7284.245539868828
 20
296.185155681814
 30
0.0000000001126251
 40
6.0
100
AcDbArc
 50
324.3146699999944
 51
35.68533471264553
  0
LINE
  5
1056E
330
18
100
AcDbEntity
  8
1CENTER
100
AcDbLine
 10
7432.076847840124
 20
290.1851549608757
 30
0.0000000000563712
 11
7432.076847840124
 21
302.1851549608757
 31
0.0000000000563712
  0
LINE
  5
1056F
330
18
100
AcDbEntity
  8
1CENTER
100
AcDbLine
 10
7426.076847840124
 20
296.1851549608757
 30
0.0000000000563712
 11
7438.076847840124
 21
296.1851549608757
 31
0.0000000000563712
  0
LINE
  5
10570
330
18
100
AcDbEntity
  8
01
100
AcDbLine
 10
7412.576847840126
 20
321.6851551650036
 30
0.0000000000563712
 11
7451.576847840125
 21
321.6851551650034
 31
0.0000000000563712
  0
ARC
  5
10571
330
18
100
AcDbEntity
  8
01
100
AcDbCircle
 10
7451.576847840125
 20
321.1851551650034
 30
0.0000000000563712
 40
0.5
100
AcDbArc
 50
0.0
 51
90.0
  0
LINE
  5
10572
330
18
100
AcDbEntity
  8
01
100
AcDbLine
 10
7412.576847840125
 20
281.6851551650036
 30
0.0000000000563712
 11
7451.576847840125
 21
281.6851551650032
 31
0.0000000000563712
  0
ARC
  5
10573
330
18
100
AcDbEntity
  8
01
100
AcDbCircle
 10
7412.576847840125
 20
282.1851551650036
 30
0.0000000000563712
 40
0.5
100
AcDbArc
 50
180.0
 51
270.0
  0
LINE
  5
10574
330
18
100
AcDbEntity
  8
01
100
AcDbLine
 10
7412.076847840125
 20
282.1851551650036
 30
0.0000000000563712
 11
7412.076847840126
 21
321.1851551650036
 31
0.0000000000563712
  0
ARC
  5
10575
330
18
100
AcDbEntity
  8
01
100
AcDbCircle
 10
7412.576847840126
 20
321.1851551650036
 30
0.0000000000563712
 40
0.5
100
AcDbArc
 50
90.0
 51
180.0
  0
LINE
  5
10576
330
18
100
AcDbEntity
  8
01
100
AcDbLine
 10
7452.076847840125
 20
282.1851551650032
 30
0.0000000000563712
 11
7452.076847840125
 21
321.1851551650034
 31
0.0000000000563712
  0
ARC
  5
10577
330
18
100
AcDbEntity
  8
01
100
AcDbCircle
 10
7451.576847840125
 20
282.1851551650032
 30
0.0000000000563712
 40
0.5
100
AcDbArc
 50
270.0
 51
0.0
  0
CIRCLE
  5
10578
330
18
100
AcDbEntity
  8
01
100
AcDbCircle
 10
7432.076848162584
 20
296.1851553691315
 30
0.0000000000563712
 40
3.75
  0
CIRCLE
  5
10579
330
18
100
AcDbEntity
  8
01
100
AcDbCircle
 10
7432.076848162584
 20
296.1851551650036
 30
0.0000000000563712
 40
3.5000005
  0
LINE
  5
1057A
330
18
100
AcDbEntity
  8
01
100
AcDbLine
 10
7433.076848162584
 20
292.8310523650036
 30
0.0000000000563712
 11
7433.076848162584
 21
299.5392591650036
 31
0.0000000000563712
  0
LINE
  5
1057B
330
18
100
AcDbEntity
  8
01
100
AcDbLine
 10
7431.076848162584
 20
292.8310523650036
 30
0.0000000000563712
 11
7431.076848162584
 21
299.5392591650036
 31
0.0000000000563712
  0
LINE
  5
1057C
330
18
100
AcDbEntity
  8
01
100
AcDbLine
 10
7409.576847840124
 20
301.6851543608757
 30
0.0000000000563712
 11
7454.576847840124
 21
301.6851543608757
 31
0.0000000000563712
  0
LINE
  5
1057D
330
18
100
AcDbEntity
  8
01
100
AcDbLine
 10
7432.076847840124
 20
324.1851543608757
 30
0.0000000000563712
 11
7432.076847840124
 21
279.1851543608757
 31
0.0000000000563712
  0
LINE
  5
10582
330
18
100
AcDbEntity
  8
01
100
AcDbLine
 10
7376.076839840121
 20
324.1851543608752
 30
0.0000000000563712
 11
7390.076839840121
 21
324.1851543608752
 31
0.0000000000563712
  0
LINE
  5
10583
330
18
100
AcDbEntity
  8
01
100
AcDbLine
 10
7381.077724022181
 20
536.1851543598466
 30
0.0000000000563712
 11
7534.832104177214
 21
536.1851543598466
 31
0.0000000000563712
  0
LINE
  5
10584
330
18
100
AcDbEntity
  8
01
  6
BYBLOCK
100
AcDbLine
 10
7381.077724022181
 20
536.1851543598466
 30
0.0000000000563712
 11
7381.077724022181
 21
496.1851543598466
 31
0.0000000000563712
  0
LINE
  5
10588
330
18
100
AcDbEntity
  8
01
100
AcDbLine
 10
7432.076956179866
 20
531.185154358818
 30
0.0000000000563712
 11
7432.076956179866
 21
562.1032345480669
 31
0.0000000000563712
  0
LINE
  5
10589
330
18
100
AcDbEntity
  8
01
  6
BYBLOCK
100
AcDbLine
 10
7382.576839840121
 20
332.0851543608753
 30
0.0000000000563712
 11
7382.576839840121
 21
202.2851543608754
 31
0.0000000000563712
  0
LINE
  5
1058A
330
18
100
AcDbEntity
  8
01
  6
BYBLOCK
100
AcDbLine
 10
7382.576839840121
 20
203.1851543608752
 30
0.0000000000563712
 11
7385.076839840121
 21
203.1851543608752
 31
0.0000000000563712
  0
LINE
  5
1058B
330
18
100
AcDbEntity
  8
01
  6
BYBLOCK
100
AcDbLine
 10
7385.076839840121
 20
203.1851543608752
 30
0.0000000000563712
 11
7385.076839840121
 21
219.6880980860276
 31
0.0000000000563712
  0
LINE
  5
1058C
330
18
100
AcDbEntity
  8
01
  6
BYBLOCK
100
AcDbLine
 10
7381.076839840121
 20
332.0851543608753
 30
0.0000000000563712
 11
7381.076839840121
 21
202.2851543608754
 31
0.0000000000563712
  0
LINE
  5
1058D
330
18
100
AcDbEntity
  8
01
  6
BYBLOCK
100
AcDbLine
 10
7381.076839840121
 20
202.2851543608754
 30
0.0000000000563712
 11
7382.576839840121
 21
202.2851543608754
 31
0.0000000000563712
  0
LINE
  5
1058E
330
18
100
AcDbEntity
  8
01
  6
BYBLOCK
100
AcDbLine
 10
7382.576839840121
 20
331.1851543608752
 30
0.0000000000563712
 11
7385.076839840121
 21
331.1851543608752
 31
0.0000000000563712
  0
LINE
  5
1058F
330
18
100
AcDbEntity
  8
01
  6
BYBLOCK
100
AcDbLine
 10
7381.076839840121
 20
332.0851543608753
 30
0.0000000000563712
 11
7382.576839840121
 21
332.0851543608753
 31
0.0000000000563712
  0
LINE
  5
10590
330
18
100
AcDbEntity
  8
01
  6
BYBLOCK
100
AcDbLine
 10
7382.576839840121
 20
307.1851543608752
 30
0.0000000000563712
 11
7383.77683984012
 21
307.1851543608752
 31
0.0000000000563712
  0
ARC
  5
10591
330
18
100
AcDbEntity
  8
1HIDDEN
100
AcDbCircle
 10
7449.076839840121
 20
303.1851543608752
 30
0.0000000000563712
 40
1.0
100
AcDbArc
 50
0.0
 51
90.0
  0
LINE
  5
10592
330
18
100
AcDbEntity
  8
01
  6
BYBLOCK
100
AcDbLine
 10
7383.77683984012
 20
312.8851543608755
 30
0.0000000000563712
 11
7383.77683984012
 21
221.4851543608754
 31
0.0000000000563712
  0
LINE
  5
10593
330
18
100
AcDbEntity
  8
01
  6
BYBLOCK
100
AcDbLine
 10
7383.876839840121
 20
203.1851543608752
 30
0.0000000000563712
 11
7383.876839840121
 21
219.7851543608754
 31
0.0000000000563712
  0
LINE
  5
10594
330
18
100
AcDbEntity
  8
01
  6
BYBLOCK
100
AcDbLine
 10
7383.876839840121
 20
219.7851543608754
 30
0.0000000000563712
 11
7382.928311702697
 21
220.7336824982992
 31
0.0000000000563712
  0
LINE
  5
10595
330
18
100
AcDbEntity
  8
01
  6
BYBLOCK
100
AcDbLine
 10
7384.725367977544
 20
220.5366262234515
 30
0.0000000000563712
 11
7383.77683984012
 21
221.4851543608754
 31
0.0000000000563712
  0
ARC
  5
10596
330
18
100
AcDbEntity
  8
01
  6
BYBLOCK
100
AcDbCircle
 10
7383.876839840121
 20
219.6880980860276
 30
0.0000000000563712
 40
1.2
100
AcDbArc
 50
0.0
 51
45.00000000005527
  0
ARC
  5
10597
330
18
100
AcDbEntity
  8
01
  6
BYBLOCK
100
AcDbCircle
 10
7383.77683984012
 20
221.5822106357232
 30
0.0000000000563712
 40
1.2
100
AcDbArc
 50
180.0
 51
225.0000000000553
  0
LINE
  5
10598
330
18
100
AcDbEntity
  8
01
  6
BYBLOCK
100
AcDbLine
 10
7385.076839840121
 20
331.1851543608752
 30
0.0000000000563712
 11
7385.076839840121
 21
314.6822106357231
 31
0.0000000000563712
  0
LINE
  5
10599
330
18
100
AcDbEntity
  8
01
  6
BYBLOCK
100
AcDbLine
 10
7383.876839840121
 20
331.1851543608752
 30
0.0000000000563712
 11
7383.876839840121
 21
314.5851543608753
 31
0.0000000000563712
  0
LINE
  5
1059A
330
18
100
AcDbEntity
  8
01
  6
BYBLOCK
100
AcDbLine
 10
7383.876839840121
 20
314.5851543608753
 30
0.0000000000563712
 11
7382.928311702697
 21
313.6366262234515
 31
0.0000000000563712
  0
LINE
  5
1059B
330
18
100
AcDbEntity
  8
01
  6
BYBLOCK
100
AcDbLine
 10
7384.725367977544
 20
313.8336824982991
 30
0.0000000000563712
 11
7383.77683984012
 21
312.8851543608753
 31
0.0000000000563712
  0
ARC
  5
1059C
330
18
100
AcDbEntity
  8
01
  6
BYBLOCK
100
AcDbCircle
 10
7383.876839840121
 20
314.6822106357231
 30
0.0000000000563712
 40
1.2
100
AcDbArc
 50
314.9999999999447
 51
0.0
  0
ARC
  5
1059D
330
18
100
AcDbEntity
  8
01
  6
BYBLOCK
100
AcDbCircle
 10
7383.77683984012
 20
312.7880980860275
 30
0.0000000000563712
 40
1.2
100
AcDbArc
 50
134.9999999999447
 51
180.0
  0
CIRCLE
  5
1059E
330
18
100
AcDbEntity
  8
1HIDDEN
100
AcDbCircle
 10
7432.076839840121
 20
296.1851543608752
 30
0.0000000000563712
 40
4.75
  0
LINE
  5
1059F
330
18
100
AcDbEntity
  8
01
  6
BYBLOCK
100
AcDbLine
 10
7383.77683984012
 20
230.185154360875
 30
0.0000000000563712
 11
7405.576839840125
 21
230.1851543608752
 31
0.0000000000563712
  0
ARC
  5
105A0
330
18
100
AcDbEntity
  8
01
  6
BYBLOCK
100
AcDbCircle
 10
7384.177724022182
 20
519.7464049028465
 30
0.0000000000563712
 40
1.6
100
AcDbArc
 50
115.944479772022
 51
180.0
  0
ARC
  5
105A1
330
18
100
AcDbEntity
  8
01
  6
BYBLOCK
100
AcDbCircle
 10
7384.177724022182
 20
512.6239038168467
 30
0.0000000000563712
 40
1.6
100
AcDbArc
 50
180.0
 51
244.055520227978
  0
ARC
  5
105A2
330
18
100
AcDbEntity
  8
01
  6
BYBLOCK
100
AcDbCircle
 10
7383.477724022181
 20
511.3464049028466
 30
0.0000000000563712
 40
1.6
100
AcDbArc
 50
0.0
 51
64.05552022797804
  0
ARC
  5
105A3
330
18
100
AcDbEntity
  8
01
  6
BYBLOCK
100
AcDbCircle
 10
7383.477724022181
 20
521.0239038168465
 30
0.0000000000563712
 40
1.6
100
AcDbArc
 50
295.944479772022
 51
0.0
  0
LINE
  5
105A4
330
18
100
AcDbEntity
  8
01
  6
BYBLOCK
100
AcDbLine
 10
7385.077724022181
 20
521.0239038168465
 30
0.0000000000563712
 11
7385.077724022181
 21
528.3851543598466
 31
0.0000000000563712
  0
LINE
  5
105A5
330
18
100
AcDbEntity
  8
01
  6
BYBLOCK
100
AcDbLine
 10
7384.177724022182
 20
512.7851543598465
 30
0.0000000000563712
 11
7384.177724022182
 21
519.5851543598467
 31
0.0000000000563712
  0
LINE
  5
105A6
330
18
100
AcDbEntity
  8
01
  6
BYBLOCK
100
AcDbLine
 10
7385.077724022181
 20
504.1851543598466
 30
0.0000000000563712
 11
7385.077724022181
 21
511.3464049028466
 31
0.0000000000563712
  0
LINE
  5
105A7
330
18
100
AcDbEntity
  8
01
  6
BYBLOCK
100
AcDbLine
 10
7383.477724022181
 20
521.1851543598466
 30
0.0000000000563712
 11
7383.477724022181
 21
528.3851543598466
 31
0.0000000000563712
  0
LINE
  5
105A8
330
18
100
AcDbEntity
  8
01
  6
BYBLOCK
100
AcDbLine
 10
7383.477724022181
 20
511.1851543598466
 30
0.0000000000563712
 11
7383.477724022181
 21
504.0851543598467
 31
0.0000000000563712
  0
ARC
  5
105A9
330
18
100
AcDbEntity
  8
01
  6
BYBLOCK
100
AcDbCircle
 10
7448.477724022181
 20
524.0851543598467
 30
0.0000000000563712
 40
1.6
100
AcDbArc
 50
0.0
 51
90.0
  0
LINE
  5
105AA
330
18
100
AcDbEntity
  8
01
  6
BYBLOCK
100
AcDbLine
 10
7382.577724022181
 20
528.5851543598467
 30
0.0000000000563712
 11
7382.577724022181
 21
503.7851543598467
 31
0.0000000000563712
  0
LINE
  5
105AB
330
18
100
AcDbEntity
  8
01
  6
BYBLOCK
100
AcDbLine
 10
7448.477724022181
 20
525.6851543598466
 30
0.0000000000563712
 11
7385.077724022181
 21
525.6851543598466
 31
0.0000000000563712
  0
LINE
  5
105AC
330
18
100
AcDbEntity
  8
01
  6
BYBLOCK
100
AcDbLine
 10
7448.477724022181
 20
508.4851543598465
 30
0.0000000000563712
 11
7448.477724022181
 21
525.6851543598466
 31
0.0000000000563712
  0
LINE
  5
105AD
330
18
100
AcDbEntity
  8
01
  6
BYBLOCK
100
AcDbLine
 10
7450.077724022181
 20
506.8851543598466
 30
0.0000000000563712
 11
7450.077724022181
 21
524.0851543598467
 31
0.0000000000563712
  0
LINE
  5
105AE
330
18
100
AcDbEntity
  8
01
  6
BYBLOCK
100
AcDbLine
 10
7382.577724022181
 20
528.3851543598466
 30
0.0000000000563712
 11
7385.077724022181
 21
528.3851543598466
 31
0.0000000000563712
  0
LINE
  5
105AF
330
18
100
AcDbEntity
  8
01
  6
BYBLOCK
100
AcDbLine
 10
7385.077724022181
 20
504.1851543598466
 30
0.0000000000563712
 11
7383.477724022181
 21
504.1851543598466
 31
0.0000000000563712
  0
LINE
  5
105B0
330
18
100
AcDbEntity
  8
01
  6
BYBLOCK
100
AcDbLine
 10
7383.477724022181
 20
504.0851543598467
 30
0.0000000000563712
 11
7382.577724022181
 21
504.0851543598467
 31
0.0000000000563712
  0
ARC
  5
105B1
330
18
100
AcDbEntity
  8
01
  6
BYBLOCK
100
AcDbCircle
 10
7379.77831894958
 20
510.4851543598472
 30
0.0000000000563712
 40
0.3000000000000051
100
AcDbArc
 50
232.8678058729389
 51
270.0
  0
LINE
  5
105B2
330
18
100
AcDbEntity
  8
01
  6
BYBLOCK
100
AcDbLine
 10
7380.577724022181
 20
510.1851543598473
 30
0.0000000000563712
 11
7379.77831894958
 21
510.1851543598473
 31
0.0000000000563712
  0
LINE
  5
105B3
330
18
100
AcDbEntity
  8
01
  6
BYBLOCK
100
AcDbLine
 10
7370.177724022182
 20
519.8581432260514
 30
0.0000000000563712
 11
7370.177724022182
 21
519.6875211705024
 31
0.0000000000563712
  0
ARC
  5
105B4
330
18
100
AcDbEntity
  8
01
  6
BYBLOCK
100
AcDbCircle
 10
7370.477724022181
 20
519.6875211705024
 30
0.0000000000563712
 40
0.3
100
AcDbArc
 50
180.0
 51
217.7405295629614
  0
ARC
  5
105B5
330
18
100
AcDbEntity
  8
01
  6
BYBLOCK
100
AcDbCircle
 10
7409.780024621465
 20
550.1082241144431
 30
0.0000000000563712
 40
50.00000000000002
100
AcDbArc
 50
217.7405295629717
 51
232.8678058729428
  0
LINE
  5
105B6
330
18
100
AcDbEntity
  8
01
  6
BYBLOCK
100
AcDbLine
 10
7369.977724022181
 20
520.9851543598468
 30
0.0000000000563712
 11
7369.977724022181
 21
521.6851543598466
 31
0.0000000000563712
  0
ARC
  5
105B7
330
18
100
AcDbEntity
  8
01
  6
BYBLOCK
100
AcDbCircle
 10
7370.477724022181
 20
521.6851543598466
 30
0.0000000000563712
 40
0.5000000000000142
100
AcDbArc
 50
90.0
 51
180.0
  0
LINE
  5
105B8
330
18
100
AcDbEntity
  8
01
  6
BYBLOCK
100
AcDbLine
 10
7380.577724022181
 20
522.1851543598466
 30
0.0000000000563712
 11
7370.477724022181
 21
522.1851543598466
 31
0.0000000000563712
  0
LINE
  5
105B9
330
18
100
AcDbEntity
  8
01
  6
BYBLOCK
100
AcDbLine
 10
7369.977724022181
 20
520.6064747034063
 30
0.0000000000563712
 11
7369.977724022181
 21
520.9851543598468
 31
0.0000000000563712
  0
SPLINE
  5
105BA
330
18
100
AcDbEntity
  8
01
  6
BYBLOCK
100
AcDbSpline
210
0.0
220
0.0
230
1.0
 70
     8
 71
     3
 72
     8
 73
     4
 74
     0
 42
0.0000000001
 43
0.0000000001
 40
0.0
 40
0.0
 40
0.0
 40
0.0
 40
1.0
 40
1.0
 40
1.0
 40
1.0
 10
7370.003456563445
 20
520.3298242739572
 30
0.0000000000563712
 10
7369.985988677334
 20
520.4229104698377
 30
0.0000000000563712
 10
7369.977724022181
 20
520.5161764807292
 30
0.0000000000563712
 10
7369.977724022181
 20
520.6064747034068
 30
0.0000000000563712
  0
ARC
  5
105BB
330
18
100
AcDbEntity
  8
01
  6
BYBLOCK
100
AcDbCircle
 10
7371.477724022181
 20
520.6064747034063
 30
0.0000000000563712
 40
1.499999999999998
100
AcDbArc
 50
190.628112987605
 51
225.0000000000553
  0
LINE
  5
105BC
330
18
100
AcDbEntity
  8
01
  6
BYBLOCK
100
AcDbLine
 10
7381.077724022181
 20
523.0351543598467
 30
0.0000000000563712
 11
7380.577724022181
 21
523.0351543598467
 31
0.0000000000563712
  0
LINE
  5
105BD
330
18
100
AcDbEntity
  8
01
  6
BYBLOCK
100
AcDbLine
 10
7380.577724022181
 20
509.3351543598467
 30
0.0000000000563712
 11
7381.077724022181
 21
509.3351543598467
 31
0.0000000000563712
  0
LINE
  5
105BE
330
18
100
AcDbEntity
  8
01
  6
BYBLOCK
100
AcDbLine
 10
7380.577724022181
 20
509.3351543598467
 30
0.0000000000563712
 11
7380.577724022181
 21
523.0351543598467
 31
0.0000000000563712
  0
LINE
  5
105BF
330
18
100
AcDbEntity
  8
01
  6
BYBLOCK
100
AcDbLine
 10
7381.077724022181
 20
528.5851543598467
 30
0.0000000000563712
 11
7382.577724022181
 21
528.5851543598467
 31
0.0000000000563712
  0
LINE
  5
105C0
330
18
100
AcDbEntity
  8
01
  6
BYBLOCK
100
AcDbLine
 10
7381.077724022181
 20
503.7851543598467
 30
0.0000000000563712
 11
7382.577724022181
 21
503.7851543598467
 31
0.0000000000563712
  0
LINE
  5
105C1
330
18
100
AcDbEntity
  8
01
  6
BYBLOCK
100
AcDbLine
 10
7381.077724022181
 20
503.7851543598467
 30
0.0000000000563712
 11
7381.077724022181
 21
528.5851543598467
 31
0.0000000000563712
  0
LINE
  5
105C2
330
18
100
AcDbEntity
  8
01
  6
BYBLOCK
100
AcDbLine
 10
7450.077724022181
 20
508.4851543598465
 30
0.0000000000563712
 11
7385.077724022181
 21
508.4851543598465
 31
0.0000000000563712
  0
LINE
  5
105C3
330
18
100
AcDbEntity
  8
01
  6
BYBLOCK
100
AcDbLine
 10
7450.077724022181
 20
506.8851543598466
 30
0.0000000000563712
 11
7399.677724022182
 21
506.8851543598466
 31
0.0000000000563712
  0
LINE
  5
105C4
330
18
100
AcDbEntity
  8
01
  6
BYBLOCK
100
AcDbLine
 10
7402.514982322384
 20
506.8851543598466
 30
0.0000000000563712
 11
7385.077724022181
 21
506.8851543598466
 31
0.0000000000563712
  0
LINE
  5
105C5
330
18
100
AcDbEntity
  8
01
  6
BYBLOCK
100
AcDbLine
 10
7379.631277412775
 20
510.3316009692533
 30
0.0000000000563712
 11
7370.4170638504
 21
519.5458145316263
 31
0.0000000000563712
  0
ARC
  5
105C6
330
18
100
AcDbEntity
  8
01
  6
BYBLOCK
100
AcDbCircle
 10
7379.984830803367
 20
510.6851543598466
 30
0.0000000000563712
 40
0.5
100
AcDbArc
 50
224.9999999999908
 51
270.0
  0
LINE
  5
105C7
330
18
100
AcDbEntity
  8
01
  6
BYBLOCK
100
AcDbLine
 10
7380.577724022181
 20
510.1851543598466
 30
0.0000000000563712
 11
7379.984830803367
 21
510.1851543598466
 31
0.0000000000563712
  0
LINE
  5
105C9
330
18
100
AcDbEntity
  8
01
  6
BYBLOCK
100
AcDbLine
 10
7370.076839840121
 20
277.2168246278914
 30
0.0000000000563712
 11
7370.076839840121
 21
259.1534840938855
 31
0.0000000000563712
  0
LINE
  5
105CA
330
18
100
AcDbEntity
  8
01
  6
BYBLOCK
100
AcDbLine
 10
7374.369733058935
 20
278.1851543608884
 30
0.0000000000563712
 11
7381.076839840121
 21
278.1851543608884
 31
0.0000000000563712
  0
LINE
  5
105CB
330
18
100
AcDbEntity
  8
01
  6
BYBLOCK
100
AcDbLine
 10
7374.369733058935
 20
258.1851543608884
 30
0.0000000000563712
 11
7381.076839840121
 21
258.1851543608884
 31
0.0000000000563712
  0
LINE
  5
105CC
330
18
100
AcDbEntity
  8
01
  6
BYBLOCK
100
AcDbLine
 10
7379.869733058935
 20
273.4351543608884
 30
0.0000000000563712
 11
7379.869733058935
 21
262.9351543608884
 31
0.0000000000563712
  0
ARC
  5
105CD
330
18
100
AcDbEntity
  8
01
  6
BYBLOCK
100
AcDbCircle
 10
7374.369733058935
 20
268.1851543608884
 30
0.0000000000563712
 40
10.00000000000009
100
AcDbArc
 50
53.13010235413383
 51
115.4224671781395
  0
ARC
  5
105CE
330
18
100
AcDbEntity
  8
01
  6
BYBLOCK
100
AcDbCircle
 10
7374.369733058935
 20
268.1851543608886
 30
0.0000000000563712
 40
10.00000000000009
100
AcDbArc
 50
244.5775328218606
 51
306.8698976458662
  0
LINE
  5
105CF
330
18
100
AcDbEntity
  8
01
  6
BYBLOCK
100
AcDbLine
 10
7380.369733058935
 20
276.1851543608884
 30
0.0000000000563712
 11
7380.369733058935
 21
260.1851543608884
 31
0.0000000000563712
  0
LINE
  5
105D0
330
18
100
AcDbEntity
  8
01
  6
BYBLOCK
100
AcDbLine
 10
7370.076839840121
 20
273.4351543608884
 30
0.0000000000563712
 11
7379.869733058935
 21
273.4351543608884
 31
0.0000000000563712
  0
LINE
  5
105D1
330
18
100
AcDbEntity
  8
01
  6
BYBLOCK
100
AcDbLine
 10
7370.076839840121
 20
262.9351543608884
 30
0.0000000000563712
 11
7379.869733058935
 21
262.9351543608884
 31
0.0000000000563712
  0
LINE
  5
105D2
330
18
100
AcDbEntity
  8
01
  6
BYBLOCK
100
AcDbLine
 10
7255.676956179866
 20
332.0851543608746
 30
0.0000000000563712
 11
7268.476956179866
 21
332.0851543608746
 31
0.0000000000563712
  0
LINE
  5
105D3
330
18
100
AcDbEntity
  8
01
  6
BYBLOCK
100
AcDbLine
 10
7255.676956179866
 20
202.2851543608747
 30
0.0000000000563712
 11
7268.476956179866
 21
202.2851543608747
 31
0.0000000000563712
  0
LINE
  5
105D4
330
18
100
AcDbEntity
  8
01
  6
BYBLOCK
100
AcDbLine
 10
7249.676956179866
 20
326.0851543608746
 30
0.0000000000563712
 11
7249.676956179866
 21
208.2851543608747
 31
0.0000000000563712
  0
LINE
  5
105D5
330
18
100
AcDbEntity
  8
01
  6
BYBLOCK
100
AcDbLine
 10
7274.476956179866
 20
326.0851543608746
 30
0.0000000000563712
 11
7274.476956179866
 21
208.2851543608747
 31
0.0000000000563712
  0
ARC
  5
105D6
330
18
100
AcDbEntity
  8
01
  6
BYBLOCK
100
AcDbCircle
 10
7255.676956179866
 20
208.2851543608747
 30
0.0000000000563712
 40
6.0
100
AcDbArc
 50
180.0
 51
270.0
  0
ARC
  5
105D7
330
18
100
AcDbEntity
  8
01
  6
BYBLOCK
100
AcDbCircle
 10
7268.476956179866
 20
208.2851543608747
 30
0.0000000000563712
 40
6.0
100
AcDbArc
 50
270.0
 51
0.0
  0
ARC
  5
105D8
330
18
100
AcDbEntity
  8
01
  6
BYBLOCK
100
AcDbCircle
 10
7255.676956179866
 20
326.0851543608746
 30
0.0000000000563712
 40
6.0
100
AcDbArc
 50
90.0
 51
180.0
  0
ARC
  5
105D9
330
18
100
AcDbEntity
  8
01
  6
BYBLOCK
100
AcDbCircle
 10
7268.476956179866
 20
326.0851543608746
 30
0.0000000000563712
 40
6.0
100
AcDbArc
 50
0.0
 51
90.0
  0
CIRCLE
  5
105DA
330
18
100
AcDbEntity
  8
01
  6
BYBLOCK
100
AcDbCircle
 10
7262.076956179866
 20
210.1851543608748
 30
0.0000000000563712
 40
2.75
  0
CIRCLE
  5
105DB
330
18
100
AcDbEntity
  8
01
  6
BYBLOCK
100
AcDbCircle
 10
7262.076956179866
 20
210.1851543608748
 30
0.0000000000563712
 40
4.25
  0
CIRCLE
  5
105DC
330
18
100
AcDbEntity
  8
01
  6
BYBLOCK
100
AcDbCircle
 10
7262.076956179866
 20
324.1851543608745
 30
0.0000000000563712
 40
2.75
  0
CIRCLE
  5
105DD
330
18
100
AcDbEntity
  8
01
  6
BYBLOCK
100
AcDbCircle
 10
7262.076956179866
 20
324.1851543608745
 30
0.0000000000563712
 40
4.25
  0
LINE
  5
105DE
330
18
100
AcDbEntity
  8
1CENTER
100
AcDbLine
 10
7267.951981587772
 20
210.1851543608745
 30
0.0000000000563712
 11
7256.20193077196
 21
210.1851543608745
 31
0.0000000000563712
  0
LINE
  5
105DF
330
18
100
AcDbEntity
  8
1CENTER
100
AcDbLine
 10
7262.076956179866
 20
216.0601797687809
 30
0.0000000000563712
 11
7262.076956179866
 21
204.3101289529684
 31
0.0000000000563712
  0
LINE
  5
105E0
330
18
100
AcDbEntity
  8
1CENTER
100
AcDbLine
 10
7267.951981587772
 20
324.1851543608745
 30
0.0000000000563712
 11
7256.20193077196
 21
324.1851543608745
 31
0.0000000000563712
  0
LINE
  5
105E1
330
18
100
AcDbEntity
  8
1CENTER
100
AcDbLine
 10
7262.076956179866
 20
330.0601797687809
 30
0.0000000000563712
 11
7262.076956179866
 21
318.3101289529684
 31
0.0000000000563712
  0
ARC
  5
105E2
330
18
100
AcDbEntity
  8
01
  6
BYBLOCK
100
AcDbCircle
 10
7262.076956179866
 20
268.1851543608748
 30
0.0000000000563712
 40
10.15
100
AcDbArc
 50
231.9925780701392
 51
308.0074219298607
  0
LINE
  5
105E3
330
18
100
AcDbEntity
  8
01
  6
BYBLOCK
100
AcDbLine
 10
7255.826956179866
 20
276.1826539701276
 30
0.0000000000563712
 11
7255.826956179866
 21
260.1876547516219
 31
0.0000000000563712
  0
LINE
  5
105E4
330
18
100
AcDbEntity
  8
01
  6
BYBLOCK
100
AcDbLine
 10
7268.326956179866
 20
276.1826539701276
 30
0.0000000000563712
 11
7268.326956179866
 21
260.1876547516219
 31
0.0000000000563712
  0
ARC
  5
105E5
330
18
100
AcDbEntity
  8
01
  6
BYBLOCK
100
AcDbCircle
 10
7262.076956179866
 20
268.1851543608748
 30
0.0000000000563712
 40
10.15
100
AcDbArc
 50
51.99257807013929
 51
128.0074219298607
  0
LINE
  5
105E6
330
18
100
AcDbEntity
  8
01
  6
BYBLOCK
100
AcDbLine
 10
7257.576956179866
 20
273.4351543608748
 30
0.0000000000563712
 11
7257.576956179866
 21
262.9351543608748
 31
0.0000000000563712
  0
LINE
  5
105E7
330
18
100
AcDbEntity
  8
01
  6
BYBLOCK
100
AcDbLine
 10
7267.576956179866
 20
273.4351543608748
 30
0.0000000000563712
 11
7267.576956179866
 21
262.9351543608748
 31
0.0000000000563712
  0
LINE
  5
105E8
330
18
100
AcDbEntity
  8
01
  6
BYBLOCK
100
AcDbLine
 10
7258.076956179866
 20
277.5137394625931
 30
0.0000000000563712
 11
7258.076956179866
 21
273.4351543608745
 31
0.0000000000563712
  0
LINE
  5
105E9
330
18
100
AcDbEntity
  8
01
  6
BYBLOCK
100
AcDbLine
 10
7256.576956179866
 20
273.4351543608745
 30
0.0000000000563712
 11
7256.576956179866
 21
262.9351543608748
 31
0.0000000000563712
  0
LINE
  5
105EA
330
18
100
AcDbEntity
  8
01
  6
BYBLOCK
100
AcDbLine
 10
7258.076956179866
 20
262.9351543608748
 30
0.0000000000563712
 11
7258.076956179866
 21
258.8565692591565
 31
0.0000000000563712
  0
LINE
  5
105EB
330
18
100
AcDbEntity
  8
01
  6
BYBLOCK
100
AcDbLine
 10
7256.576956179866
 20
273.4351543608748
 30
0.0000000000563712
 11
7267.576956179866
 21
273.4351543608748
 31
0.0000000000563712
  0
LINE
  5
105EC
330
18
100
AcDbEntity
  8
01
  6
BYBLOCK
100
AcDbLine
 10
7256.576956179866
 20
262.9351543608748
 30
0.0000000000563712
 11
7267.576956179866
 21
262.9351543608748
 31
0.0000000000563712
  0
LINE
  5
105F0
330
18
100
AcDbEntity
  8
01
100
AcDbLine
 10
7242.077072519609
 20
366.185154360875
 30
0.0000000000563712
 11
7242.077072519609
 21
176.1851543608748
 31
0.0000000000563712
  0
LINE
  5
105F1
330
18
100
AcDbEntity
  8
01
100
AcDbLine
 10
7244.205357902041
 20
246.1851543608748
 30
0.0000000000563712
 11
7221.577072519609
 21
246.1851543608748
 31
0.0000000000563712
  0
POINT
  5
105F2
330
18
100
AcDbEntity
  8
01
100
AcDbPoint
 10
7227.576956179866
 20
246.1851543608748
 30
0.0000000000563712
 50
180.0
  0
CIRCLE
  5
105F3
330
18
100
AcDbEntity
  8
01
100
AcDbCircle
 10
7227.576956179866
 20
246.1851543608748
 30
0.0000000000563712
 40
2.5
  0
CIRCLE
  5
105F4
330
18
100
AcDbEntity
  8
01
100
AcDbCircle
 10
7227.576956179866
 20
246.1851543608748
 30
0.0000000000563712
 40
3.0
  0
LINE
  5
105F6
330
18
100
AcDbEntity
  8
1CENTER
100
AcDbLine
 10
7227.576956179866
 20
240.1851543608748
 30
0.0000000000563712
 11
7227.576956179866
 21
252.1851543608748
 31
0.0000000000563712
  0
LINE
  5
105F7
330
18
100
AcDbEntity
  8
01
100
AcDbLine
 10
7376.076839840409
 20
210.185154361164
 30
0.0000000000563712
 11
7390.076839840409
 21
210.185154361164
 31
0.0000000000563712
  0
LINE
  5
105F8
330
18
100
AcDbEntity
  8
01
100
AcDbLine
 10
7443.388728107662
 20
296.1851543608752
 30
0.0000000000563712
 11
7420.764951572579
 21
296.1851543608752
 31
0.0000000000563712
  0
LINE
  5
105F9
330
18
100
AcDbEntity
  8
01
100
AcDbLine
 10
7432.076839840121
 20
307.4970426284169
 30
0.0000000000563712
 11
7432.076839840121
 21
284.8732660933335
 31
0.0000000000563712
  0
LINE
  5
105FA
330
18
100
AcDbEntity
  8
01
  6
BYBLOCK
100
AcDbLine
 10
7154.077072519611
 20
277.2168246278914
 30
0.0000000000563712
 11
7154.077072519611
 21
259.1534840938855
 31
0.0000000000563712
  0
LINE
  5
105FB
330
18
100
AcDbEntity
  8
01
  6
BYBLOCK
100
AcDbLine
 10
7149.784179300797
 20
278.1851543608884
 30
0.0000000000563712
 11
7143.077072519611
 21
278.1851543608884
 31
0.0000000000563712
  0
LINE
  5
105FC
330
18
100
AcDbEntity
  8
01
  6
BYBLOCK
100
AcDbLine
 10
7149.784179300797
 20
258.1851543608884
 30
0.0000000000563712
 11
7143.077072519611
 21
258.1851543608884
 31
0.0000000000563712
  0
ARC
  5
105FD
330
18
100
AcDbEntity
  8
01
  6
BYBLOCK
100
AcDbCircle
 10
7149.784179300797
 20
268.1851543608884
 30
0.0000000000563712
 40
10.00000000000009
100
AcDbArc
 50
64.57753282186054
 51
90.0
  0
LINE
  5
105FE
330
18
100
AcDbEntity
  8
01
  6
CONTINUOUS
100
AcDbLine
 10
7153.577072519611
 20
259.8703601680577
 30
0.0000000000563712
 11
7143.077072519611
 21
259.8703601680577
 31
0.0000000000563712
  0
ARC
  5
105FF
330
18
100
AcDbEntity
  8
01
  6
CONTINUOUS
100
AcDbCircle
 10
7153.615652766524
 20
260.3324993988645
 30
0.0000000000563712
 40
0.4637468103423796
100
AcDbArc
 50
265.2279066161988
 51
354.2577450626268
  0
LINE
  5
10600
330
18
100
AcDbEntity
  8
01
  6
CONTINUOUS
100
AcDbLine
 10
7154.077072519611
 20
275.6684691344365
 30
0.0000000000563712
 11
7154.077072519611
 21
260.7018395873406
 31
0.0000000000563712
  0
ARC
  5
10601
330
18
100
AcDbEntity
  8
01
  6
CONTINUOUS
100
AcDbCircle
 10
7153.615652766524
 20
276.0378093229128
 30
0.0000000000563712
 40
0.4637468103423387
100
AcDbArc
 50
5.742254937373203
 51
94.77209338380122
  0
ARC
  5
10602
330
18
100
AcDbEntity
  8
01
  6
BYBLOCK
100
AcDbCircle
 10
7149.784179300797
 20
268.1851543608886
 30
0.0000000000563712
 40
10.00000000000009
100
AcDbArc
 50
270.0
 51
295.4224671781395
  0
LINE
  5
10603
330
18
100
AcDbEntity
  8
01
  6
CONTINUOUS
100
AcDbLine
 10
7143.077072519611
 20
276.4999485537196
 30
0.0000000000563712
 11
7153.577072519611
 21
276.4999485537196
 31
0.0000000000563712
  0
LINE
  5
10604
330
18
100
AcDbEntity
  8
01
100
AcDbLine
 10
7450.076839840121
 20
268.6864726739784
 30
0.0000000000563712
 11
7450.076839840121
 21
231.1851543608752
 31
0.0000000000563712
  0
ARC
  5
10605
330
18
100
AcDbEntity
  8
01
100
AcDbCircle
 10
7449.076839840121
 20
231.1851543608752
 30
0.0000000000563712
 40
1.0
100
AcDbArc
 50
270.0
 51
0.0
  0
LINE
  5
10606
330
18
100
AcDbEntity
  8
01
100
AcDbLine
 10
7405.576839840125
 20
230.1851543608752
 30
0.0000000000563712
 11
7449.076839840121
 21
230.1851543608755
 31
0.0000000000563712
  0
LINE
  5
10607
330
18
100
AcDbEntity
  8
01
100
AcDbLine
 10
7122.077072519611
 20
246.1851543608752
 30
0.0000000000563712
 11
7062.077072519611
 21
246.1851543608752
 31
0.0000000000563712
  0
LINE
  5
10608
330
18
100
AcDbEntity
  8
01
100
AcDbLine
 10
7092.077072519611
 20
276.1851543608752
 30
0.0000000000563712
 11
7092.077072519611
 21
216.1851543608752
 31
0.0000000000563712
  0
LINE
  5
10609
330
18
100
AcDbEntity
  8
1HIDDEN
100
AcDbLine
 10
7450.076839840121
 20
303.1851543608752
 30
0.0000000000563712
 11
7450.076839840121
 21
281.6851545650024
 31
0.0000000000563712
  0
LINE
  5
1060A
330
18
100
AcDbEntity
  8
01
  6
BYBLOCK
100
AcDbLine
 10
7383.77683984012
 20
304.1851543608752
 30
0.0000000000563712
 11
7412.076839840123
 21
304.1851543608752
 31
0.0000000000563712
  0
LINE
  5
1060B
330
18
100
AcDbEntity
  8
1HIDDEN
100
AcDbLine
 10
7412.076839840123
 20
304.1851543608752
 30
0.0000000000563712
 11
7449.076839840121
 21
304.1851543608752
 31
0.0000000000563712
  0
LINE
  5
1060C
330
18
100
AcDbEntity
  8
01
  6
BYBLOCK
100
AcDbLine
 10
7450.076839840123
 20
281.6851551650034
 30
0.0000000000563712
 11
7450.076839840123
 21
268.6864726739782
 31
0.0000000000563712
  0
LINE
  5
1060D
330
18
100
AcDbEntity
  8
01
100
AcDbLine
 10
7148.077072519611
 20
324.1851543608752
 30
0.0000000000563712
 11
7134.077072519611
 21
324.1851543608752
 31
0.0000000000563712
  0
LINE
  5
1060E
330
18
100
AcDbEntity
  8
01
  6
BYBLOCK
100
AcDbLine
 10
7141.577072519611
 20
332.0851543608753
 30
0.0000000000563712
 11
7141.577072519611
 21
202.2851543608754
 31
0.0000000000563712
  0
LINE
  5
1060F
330
18
100
AcDbEntity
  8
01
  6
BYBLOCK
100
AcDbLine
 10
7141.577072519611
 20
203.1851543608752
 30
0.0000000000563712
 11
7139.077072519611
 21
203.1851543608752
 31
0.0000000000563712
  0
LINE
  5
10610
330
18
100
AcDbEntity
  8
01
  6
BYBLOCK
100
AcDbLine
 10
7139.077072519611
 20
203.1851543608752
 30
0.0000000000563712
 11
7139.077072519611
 21
219.6880980860276
 31
0.0000000000563712
  0
LINE
  5
10611
330
18
100
AcDbEntity
  8
01
  6
BYBLOCK
100
AcDbLine
 10
7143.077072519611
 20
332.0851543608753
 30
0.0000000000563712
 11
7143.077072519611
 21
202.2851543608754
 31
0.0000000000563712
  0
LINE
  5
10612
330
18
100
AcDbEntity
  8
01
  6
BYBLOCK
100
AcDbLine
 10
7143.077072519611
 20
202.2851543608754
 30
0.0000000000563712
 11
7141.577072519611
 21
202.2851543608754
 31
0.0000000000563712
  0
LINE
  5
10613
330
18
100
AcDbEntity
  8
01
  6
BYBLOCK
100
AcDbLine
 10
7141.577072519611
 20
331.1851543608752
 30
0.0000000000563712
 11
7139.077072519611
 21
331.1851543608752
 31
0.0000000000563712
  0
LINE
  5
10614
330
18
100
AcDbEntity
  8
01
  6
BYBLOCK
100
AcDbLine
 10
7143.077072519611
 20
332.0851543608753
 30
0.0000000000563712
 11
7141.577072519611
 21
332.0851543608753
 31
0.0000000000563712
  0
LINE
  5
10615
330
18
100
AcDbEntity
  8
01
  6
BYBLOCK
100
AcDbLine
 10
7141.577072519611
 20
307.1851543608752
 30
0.0000000000563712
 11
7140.37707251961
 21
307.1851543608752
 31
0.0000000000563712
  0
LINE
  5
10616
330
18
100
AcDbEntity
  8
01
  6
BYBLOCK
100
AcDbLine
 10
7140.37707251961
 20
312.8851543608755
 30
0.0000000000563712
 11
7140.37707251961
 21
221.4851543608754
 31
0.0000000000563712
  0
LINE
  5
10617
330
18
100
AcDbEntity
  8
01
  6
BYBLOCK
100
AcDbLine
 10
7140.27707251961
 20
203.1851543608752
 30
0.0000000000563712
 11
7140.27707251961
 21
219.7851543608754
 31
0.0000000000563712
  0
LINE
  5
10618
330
18
100
AcDbEntity
  8
01
  6
BYBLOCK
100
AcDbLine
 10
7140.27707251961
 20
219.7851543608754
 30
0.0000000000563712
 11
7141.225600657035
 21
220.7336824982992
 31
0.0000000000563712
  0
LINE
  5
10619
330
18
100
AcDbEntity
  8
01
  6
BYBLOCK
100
AcDbLine
 10
7139.428544382186
 20
220.5366262234515
 30
0.0000000000563712
 11
7140.37707251961
 21
221.4851543608754
 31
0.0000000000563712
  0
ARC
  5
1061A
330
18
100
AcDbEntity
  8
01
  6
BYBLOCK
100
AcDbCircle
 10
7140.27707251961
 20
219.6880980860276
 30
0.0000000000563712
 40
1.2
100
AcDbArc
 50
134.9999999999447
 51
180.0
  0
ARC
  5
1061B
330
18
100
AcDbEntity
  8
01
  6
BYBLOCK
100
AcDbCircle
 10
7140.37707251961
 20
221.5822106357232
 30
0.0000000000563712
 40
1.2
100
AcDbArc
 50
314.9999999999447
 51
0.0
  0
LINE
  5
1061C
330
18
100
AcDbEntity
  8
01
  6
BYBLOCK
100
AcDbLine
 10
7139.077072519611
 20
331.1851543608752
 30
0.0000000000563712
 11
7139.077072519611
 21
314.6822106357231
 31
0.0000000000563712
  0
LINE
  5
1061D
330
18
100
AcDbEntity
  8
01
  6
BYBLOCK
100
AcDbLine
 10
7140.27707251961
 20
331.1851543608752
 30
0.0000000000563712
 11
7140.27707251961
 21
314.5851543608753
 31
0.0000000000563712
  0
LINE
  5
1061E
330
18
100
AcDbEntity
  8
01
  6
BYBLOCK
100
AcDbLine
 10
7140.27707251961
 20
314.5851543608753
 30
0.0000000000563712
 11
7141.225600657035
 21
313.6366262234515
 31
0.0000000000563712
  0
LINE
  5
1061F
330
18
100
AcDbEntity
  8
01
  6
BYBLOCK
100
AcDbLine
 10
7139.428544382186
 20
313.8336824982991
 30
0.0000000000563712
 11
7140.37707251961
 21
312.8851543608753
 31
0.0000000000563712
  0
ARC
  5
10620
330
18
100
AcDbEntity
  8
01
  6
BYBLOCK
100
AcDbCircle
 10
7140.27707251961
 20
314.6822106357231
 30
0.0000000000563712
 40
1.2
100
AcDbArc
 50
180.0
 51
225.0000000000553
  0
ARC
  5
10621
330
18
100
AcDbEntity
  8
01
  6
BYBLOCK
100
AcDbCircle
 10
7140.37707251961
 20
312.7880980860275
 30
0.0000000000563712
 40
1.2
100
AcDbArc
 50
0.0
 51
45.00000000005527
  0
LINE
  5
10622
330
18
100
AcDbEntity
  8
01
  6
BYBLOCK
100
AcDbLine
 10
7140.37707251961
 20
230.185154360875
 30
0.0000000000563712
 11
7118.577072519607
 21
230.1851543608752
 31
0.0000000000563712
  0
LINE
  5
10623
330
18
100
AcDbEntity
  8
01
  6
BYBLOCK
100
AcDbLine
 10
7154.077072519611
 20
277.2168246278914
 30
0.0000000000563712
 11
7154.077072519611
 21
259.1534840938855
 31
0.0000000000563712
  0
LINE
  5
10624
330
18
100
AcDbEntity
  8
01
  6
BYBLOCK
100
AcDbLine
 10
7149.784179300797
 20
278.1851543608884
 30
0.0000000000563712
 11
7143.077072519611
 21
278.1851543608884
 31
0.0000000000563712
  0
LINE
  5
10625
330
18
100
AcDbEntity
  8
01
  6
BYBLOCK
100
AcDbLine
 10
7149.784179300797
 20
258.1851543608884
 30
0.0000000000563712
 11
7143.077072519611
 21
258.1851543608884
 31
0.0000000000563712
  0
LINE
  5
10626
330
18
100
AcDbEntity
  8
01
100
AcDbLine
 10
7148.077072519323
 20
210.185154361164
 30
0.0000000000563712
 11
7134.077072519323
 21
210.185154361164
 31
0.0000000000563712
  0
LINE
  5
10627
330
18
100
AcDbEntity
  8
01
  6
BYBLOCK
100
AcDbLine
 10
7140.37707251961
 20
304.1851543608752
 30
0.0000000000563712
 11
7112.077072519609
 21
304.1851543608752
 31
0.0000000000563712
  0
TEXT
  5
10628
330
18
100
AcDbEntity
  8
1TEXT
100
AcDbText
 10
7074.076972179866
 20
527.6851543608752
 30
0.0
 40
20.0
  1
3-KTV-X-LJ-2
100
AcDbText
  0
TEXT
  5
10629
330
18
100
AcDbEntity
  8
1TEXT
100
AcDbText
 10
7086.276972179867
 20
489.4351543608752
 30
0.0
 40
6.0
  1
表面処理
 72
     1
 11
7100.176972179866
 21
489.4351543608752
 31
0.0
100
AcDbText
  0
TEXT
  5
1062A
330
18
100
AcDbEntity
  8
1TEXT
100
AcDbText
 10
7085.976972179867
 20
479.1822213715884
 30
0.0
 40
6.0
  1
クローム
 72
     1
 11
7100.176972179866
 21
479.1822213715884
 31
0.0
100
AcDbText
  0
LINE
  5
1062B
330
18
100
AcDbEntity
  8
1DIM
100
AcDbLine
 10
7074.076972179866
 20
497.6851543608752
 30
0.0000000000563712
 11
7179.076972179866
 21
497.6851543608752
 31
0.0000000000563712
  0
LINE
  5
1062C
330
18
100
AcDbEntity
  8
1DIM
100
AcDbLine
 10
7074.076972179866
 20
487.1851543608752
 30
0.0000000000563712
 11
7179.076972179866
 21
487.1851543608752
 31
0.0000000000563712
  0
LINE
  5
1062D
330
18
100
AcDbEntity
  8
1DIM
100
AcDbLine
 10
7074.076972179866
 20
476.6851543608752
 30
0.0000000000563712
 11
7179.076972179866
 21
476.6851543608752
 31
0.0000000000563712
  0
LINE
  5
1062E
330
18
100
AcDbEntity
  8
1DIM
100
AcDbLine
 10
7074.076972179866
 20
476.6851543608752
 30
0.0000000000563712
 11
7179.076972179866
 21
476.6851543608752
 31
0.0000000000563712
  0
LINE
  5
1062F
330
18
100
AcDbEntity
  8
1DIM
100
AcDbLine
 10
7126.576972179866
 20
497.6851543608752
 30
0.0000000000563712
 11
7126.576972179866
 21
476.6851543608752
 31
0.0000000000563712
  0
TEXT
  5
10630
330
18
100
AcDbEntity
  8
1TEXT
100
AcDbText
 10
7127.476972179867
 20
478.6136188854014
 30
0.0
 40
6.0
  1
3-KTV-C-LJ-2
 41
0.6999999999999998
 72
     1
 11
7152.676972179866
 21
478.6136188854014
 31
0.0
100
AcDbText
  0
TEXT
  5
10631
330
18
100
AcDbEntity
  8
1TEXT
100
AcDbText
 10
7142.376972179866
 20
489.4351543608752
 30
0.0
 40
6.0
  1
コード
 72
     1
 11
7152.676972179866
 21
489.4351543608752
 31
0.0
100
AcDbText
  0
LINE
  5
10632
330
18
100
AcDbEntity
  8
1DIM
100
AcDbLine
 10
7179.076972179866
 20
476.6851543608752
 30
0.0000000000563712
 11
7179.076972179866
 21
497.6851543608752
 31
0.0000000000563712
  0
LINE
  5
10633
330
18
100
AcDbEntity
  8
1DIM
100
AcDbLine
 10
7074.076972179866
 20
476.6851543608752
 30
0.0000000000563712
 11
7179.076972179866
 21
476.6851543608752
 31
0.0000000000563712
  0
LINE
  5
10634
330
18
100
AcDbEntity
  8
1DIM
100
AcDbLine
 10
7126.576972179866
 20
476.6851543608752
 30
0.0000000000563712
 11
7126.576972179866
 21
466.1851543608752
 31
0.0000000000563712
  0
LINE
  5
10635
330
18
100
AcDbEntity
  8
1DIM
100
AcDbLine
 10
7074.076972179866
 20
466.1851543608752
 30
0.0000000000563712
 11
7179.076972179866
 21
466.1851543608752
 31
0.0000000000563712
  0
TEXT
  5
10636
330
18
100
AcDbEntity
  8
1TEXT
100
AcDbText
 10
7075.376972179866
 20
468.7187839435189
 30
0.0
 40
6.0
  1
サテンニッケル
 72
     1
 11
7100.176972179866
 21
468.7187839435189
 31
0.0
100
AcDbText
  0
LINE
  5
10637
330
18
100
AcDbEntity
  8
1DIM
100
AcDbLine
 10
7074.076972179866
 20
466.1851543608752
 30
0.0000000000563712
 11
7074.076972179866
 21
476.6851543608752
 31
0.0000000000563712
  0
LINE
  5
10638
330
18
100
AcDbEntity
  8
1DIM
100
AcDbLine
 10
7179.076972179866
 20
466.1851543608752
 30
0.0000000000563712
 11
7179.076972179866
 21
476.6851543608752
 31
0.0000000000563712
  0
TEXT
  5
10639
330
18
100
AcDbEntity
  8
1TEXT
100
AcDbText
 10
7127.476972179867
 20
468.1136188854014
 30
0.0
 40
6.0
  1
3-KTV-N-LJ-2
 41
0.6999999999999998
 72
     1
 11
7152.676972179866
 21
468.1136188854014
 31
0.0
100
AcDbText
  0
LINE
  5
1063A
330
18
100
AcDbEntity
  8
1DIM
100
AcDbLine
 10
7074.076972179866
 20
476.6851543608752
 30
0.0000000000563712
 11
7074.076972179866
 21
497.6851543608752
 31
0.0000000000563712
  0
POINT
  5
10641
330
18
100
AcDbEntity
  8
01
100
AcDbPoint
 10
7296.576839840121
 20
246.1864726739784
 30
0.0000000000563712
  0
LINE
  5
10642
330
18
100
AcDbEntity
  8
01
100
AcDbLine
 10
7296.176839830123
 20
244.4364726739784
 30
0.0000000000563712
 11
7296.176839830123
 21
245.2864726939786
 31
0.0000000000563712
  0
LINE
  5
10643
330
18
100
AcDbEntity
  8
01
100
AcDbLine
 10
7296.976839850124
 20
244.4364726739784
 30
0.0000000000563712
 11
7296.976839850124
 21
245.2864726939786
 31
0.0000000000563712
  0
LINE
  5
10644
330
18
100
AcDbEntity
  8
01
100
AcDbLine
 10
7295.676839860122
 20
245.786472663978
 30
0.0000000000563712
 11
7294.826839840121
 21
245.786472663978
 31
0.0000000000563712
  0
LINE
  5
10645
330
18
100
AcDbEntity
  8
01
100
AcDbLine
 10
7295.676839860122
 20
246.5864726839779
 30
0.0000000000563712
 11
7294.826839840121
 21
246.5864726839779
 31
0.0000000000563712
  0
LINE
  5
10646
330
18
100
AcDbEntity
  8
01
100
AcDbLine
 10
7294.826839840121
 20
245.786472663978
 30
0.0000000000563712
 11
7294.826839840121
 21
246.5864726839779
 31
0.0000000000563712
  0
LINE
  5
10647
330
18
100
AcDbEntity
  8
01
100
AcDbLine
 10
7296.976839850124
 20
244.4364726739784
 30
0.0000000000563712
 11
7296.176839830123
 21
244.4364726739784
 31
0.0000000000563712
  0
LINE
  5
10648
330
18
100
AcDbEntity
  8
01
100
AcDbLine
 10
7296.976839850124
 20
247.9364726739784
 30
0.0000000000563712
 11
7296.976839850124
 21
247.0864726539783
 31
0.0000000000563712
  0
LINE
  5
10649
330
18
100
AcDbEntity
  8
01
100
AcDbLine
 10
7296.176839830123
 20
247.9364726739784
 30
0.0000000000563712
 11
7296.176839830123
 21
247.0864726539783
 31
0.0000000000563712
  0
LINE
  5
1064A
330
18
100
AcDbEntity
  8
01
100
AcDbLine
 10
7297.476839820121
 20
246.5864726839779
 30
0.0000000000563712
 11
7298.326839840121
 21
246.5864726839779
 31
0.0000000000563712
  0
LINE
  5
1064B
330
18
100
AcDbEntity
  8
01
100
AcDbLine
 10
7297.476839820121
 20
245.786472663978
 30
0.0000000000563712
 11
7298.326839840121
 21
245.786472663978
 31
0.0000000000563712
  0
LINE
  5
1064C
330
18
100
AcDbEntity
  8
01
100
AcDbLine
 10
7298.326839840121
 20
246.5864726839779
 30
0.0000000000563712
 11
7298.326839840121
 21
245.786472663978
 31
0.0000000000563712
  0
LINE
  5
1064D
330
18
100
AcDbEntity
  8
01
100
AcDbLine
 10
7296.176839830123
 20
247.9364726739784
 30
0.0000000000563712
 11
7296.976839850124
 21
247.9364726739784
 31
0.0000000000563712
  0
CIRCLE
  5
1064E
330
18
100
AcDbEntity
  8
01
100
AcDbCircle
 10
7296.576839840121
 20
246.1864726739784
 30
0.0000000000563712
 40
2.5
  0
ARC
  5
1064F
330
18
100
AcDbEntity
  8
01
100
AcDbCircle
 10
7297.476839820121
 20
247.0864726539783
 30
0.0000000000563712
 40
0.5
100
AcDbArc
 50
179.999989999999
 51
270.0
  0
ARC
  5
10650
330
18
100
AcDbEntity
  8
01
100
AcDbCircle
 10
7297.476839820121
 20
245.2864726939786
 30
0.0000000000563712
 40
0.5
100
AcDbArc
 50
90.00000299998466
 51
180.000010000001
  0
ARC
  5
10651
330
18
100
AcDbEntity
  8
01
100
AcDbCircle
 10
7295.676839860122
 20
245.2864726939786
 30
0.0000000000563712
 40
0.5
100
AcDbArc
 50
0.0
 51
90.00000299998466
  0
ARC
  5
10652
330
18
100
AcDbEntity
  8
01
100
AcDbCircle
 10
7295.676839860122
 20
247.0864726539783
 30
0.0000000000563712
 40
0.5
100
AcDbArc
 50
270.0
 51
0.0
  0
LINE
  5
10654
330
18
100
AcDbEntity
  8
1CENTER
100
AcDbLine
 10
7296.576839840121
 20
240.1864726739784
 30
0.0000000000563712
 11
7296.576839840121
 21
252.1864726739784
 31
0.0000000000563712
  0
LINE
  5
10655
330
18
100
AcDbEntity
  8
01
100
AcDbLine
 10
7279.948554457691
 20
246.1864726739784
 30
0.0000000000563712
 11
7302.576839840121
 21
246.1864726739784
 31
0.0000000000563712
  0
LINE
  5
10656
330
18
100
AcDbEntity
  8
01
  6
BYBLOCK
100
AcDbLine
 10
7381.077607682439
 20
496.1851543608757
 30
0.0000000001127424
 11
7534.83198783747
 21
496.1851543608757
 31
0.0000000001127424
  0
LINE
  5
10657
330
18
100
AcDbEntity
  8
01
100
AcDbLine
 10
7432.076839840121
 20
501.1851543608757
 30
0.0000000001127424
 11
7432.076839840121
 21
474.6851543608757
 31
0.0000000001127424
  0
LINE
  5
1065B
330
18
100
AcDbEntity
  8
01
100
AcDbLine
 10
7282.076839840121
 20
366.1864726739784
 30
0.0000000000563712
 11
7282.076839840121
 21
176.1864726739784
 31
0.0000000000563712
  0
LINE
  5
1065C
330
18
100
AcDbEntity
  8
01
100
AcDbLine
 10
7402.076839840121
 20
246.1864726739784
 30
0.0000000000563712
 11
7462.076839840121
 21
246.1864726739784
 31
0.0000000000563712
  0
LINE
  5
1065D
330
18
100
AcDbEntity
  8
01
100
AcDbLine
 10
7432.076839840121
 20
276.1864726739784
 30
0.0000000000563712
 11
7432.076839840121
 21
216.1864726739784
 31
0.0000000000563712
  0
LINE
  5
1065E
330
18
100
AcDbEntity
  8
01
100
AcDbLine
 10
7282.076839840121
 20
223.6864726739784
 30
0.0000000000563712
 11
7282.076839840121
 21
268.6864726739784
 31
0.0000000000563712
  0
LINE
  5
1065F
330
18
100
AcDbEntity
  8
01
100
AcDbLine
 10
7290.576839840121
 20
224.1864726739784
 30
0.0000000000563712
 11
7290.576839840121
 21
268.1864726739784
 31
0.0000000000563712
  0
LINE
  5
10660
330
18
100
AcDbEntity
  8
01
100
AcDbLine
 10
7282.076839840121
 20
268.6864726739784
 30
0.0
 11
7290.076839840121
 21
268.6864726739784
 31
0.0
  0
LINE
  5
10661
330
18
100
AcDbEntity
  8
01
100
AcDbLine
 10
7282.076839840121
 20
223.6864726739784
 30
0.0
 11
7290.076839840121
 21
223.6864726739784
 31
0.0
  0
ARC
  5
10662
330
18
100
AcDbEntity
  8
01
100
AcDbCircle
 10
7290.076839840121
 20
224.1864726739784
 30
0.0
 40
0.5
100
AcDbArc
 50
270.0
 51
0.0
  0
ARC
  5
10663
330
18
100
AcDbEntity
  8
01
100
AcDbCircle
 10
7290.076839840121
 20
268.1864726739784
 30
0.0
 40
0.5
100
AcDbArc
 50
0.0
 51
90.0
  0
LINE
  5
10664
330
18
100
AcDbEntity
  8
01
100
AcDbLine
 10
7405.576839840125
 20
496.1851543608757
 30
0.0000000001127424
 11
7505.576839840125
 21
496.1851543608757
 31
0.0000000001127424
  0
LINE
  5
10665
330
18
100
AcDbEntity
  8
01
100
AcDbLine
 10
7406.076839840125
 20
487.6851543608757
 30
0.0000000001127424
 11
7505.076839840125
 21
487.6851543608757
 31
0.0000000001127424
  0
LINE
  5
10666
330
18
100
AcDbEntity
  8
01
100
AcDbLine
 10
7505.576839840125
 20
496.1851543608757
 30
0.0
 11
7505.576839840125
 21
488.1851543608757
 31
0.0
  0
LINE
  5
10667
330
18
100
AcDbEntity
  8
01
100
AcDbLine
 10
7405.576839840125
 20
496.1851543608757
 30
0.0000000001127424
 11
7405.576839840125
 21
488.1851543608757
 31
0.0000000001127424
  0
ARC
  5
10668
330
18
100
AcDbEntity
  8
01
100
AcDbCircle
 10
7406.076839840125
 20
488.1851543608757
 30
0.0000000001127424
 40
0.5
100
AcDbArc
 50
180.0
 51
270.0
  0
ARC
  5
10669
330
18
100
AcDbEntity
  8
01
100
AcDbCircle
 10
7505.076839840125
 20
488.1851543608757
 30
0.0
 40
0.5
100
AcDbArc
 50
270.0
 51
0.0
  0
LINE
  5
1066A
330
18
100
AcDbEntity
  8
01
100
AcDbLine
 10
7406.076839840125
 20
223.6864726739784
 30
0.0000000000563712
 11
7505.076839840125
 21
223.6864726739784
 31
0.0000000000563712
  0
ARC
  5
1066B
330
18
100
AcDbEntity
  8
01
100
AcDbCircle
 10
7406.076839840125
 20
224.1864726739784
 30
0.0000000000563712
 40
0.5
100
AcDbArc
 50
180.0
 51
270.0
  0
ARC
  5
1066C
330
18
100
AcDbEntity
  8
01
100
AcDbCircle
 10
7505.076839840125
 20
224.1864726739784
 30
0.0000000000563712
 40
0.5
100
AcDbArc
 50
270.0
 51
0.0
  0
LINE
  5
1066D
330
18
100
AcDbEntity
  8
01
100
AcDbLine
 10
7406.076839840125
 20
268.6864726739784
 30
0.0000000000563712
 11
7505.076839840125
 21
268.6864726739784
 31
0.0000000000563712
  0
LINE
  5
1066E
330
18
100
AcDbEntity
  8
01
100
AcDbLine
 10
7405.576839840125
 20
268.1864726739784
 30
0.0000000000563712
 11
7405.576839840125
 21
224.1864726739784
 31
0.0000000000563712
  0
ARC
  5
1066F
330
18
100
AcDbEntity
  8
01
100
AcDbCircle
 10
7406.076839840125
 20
268.1864726739784
 30
0.0000000000563712
 40
0.5
100
AcDbArc
 50
90.0
 51
180.0
  0
LINE
  5
10670
330
18
100
AcDbEntity
  8
01
100
AcDbLine
 10
7505.576839840125
 20
268.1864726739784
 30
0.0000000000563712
 11
7505.576839840125
 21
253.9179006867978
 31
0.0000000000563712
  0
ARC
  5
10671
330
18
100
AcDbEntity
  8
01
100
AcDbCircle
 10
7505.076839840125
 20
268.1864726739784
 30
0.0000000000563712
 40
0.5
100
AcDbArc
 50
0.0
 51
90.0
  0
LINE
  5
10674
330
18
100
AcDbEntity
  8
01
100
AcDbLine
 10
7505.576839840125
 20
238.4550446611145
 30
0.0000000000563712
 11
7505.576839840125
 21
224.1864726739784
 31
0.0000000000563712
  0
LINE
  5
10675
330
18
100
AcDbEntity
  8
01
100
AcDbLine
 10
7422.020928118456
 20
248.2338739164441
 30
0.0000000000563712
 11
7550.160691017014
 21
248.2338739164513
 31
0.0000000000563712
  0
LINE
  5
10676
330
18
100
AcDbEntity
  8
01
100
AcDbLine
 10
7422.07289849773
 20
244.1390714314728
 30
0.0000000000563712
 11
7550.160691017014
 21
244.1390714314728
 31
0.0000000000563712
  0
ARC
  5
10677
330
18
100
AcDbEntity
  8
01
100
AcDbCircle
 10
7442.111645651594
 20
256.6864726739766
 30
0.0000000000563712
 40
1.5
100
AcDbArc
 50
1.257375080859653
 51
90.0
  0
ARC
  5
10678
330
18
100
AcDbEntity
  8
01
100
AcDbCircle
 10
6963.726863284928
 20
246.186472673962
 30
0.0000000000563712
 40
480.0
100
AcDbArc
 50
358.7426249190101
 51
359.0770888513416
  0
ARC
  5
10679
330
18
100
AcDbEntity
  8
01
100
AcDbCircle
 10
7442.111645651594
 20
235.6864726739693
 30
0.0000000000563712
 40
1.5
100
AcDbArc
 50
270.0
 51
358.7426249191403
  0
ARC
  5
1067A
330
18
100
AcDbEntity
  8
01
100
AcDbCircle
 10
7422.042034028613
 20
235.6864726739693
 30
0.0000000000563712
 40
1.5
100
AcDbArc
 50
181.2573750808596
 51
270.0000000002606
  0
ARC
  5
1067B
330
18
100
AcDbEntity
  8
01
100
AcDbCircle
 10
7422.042034028613
 20
256.6864726739766
 30
0.0000000000563712
 40
1.5
100
AcDbArc
 50
89.99999999973944
 51
178.7426249191404
  0
ARC
  5
1067C
330
18
100
AcDbEntity
  8
01
100
AcDbCircle
 10
7900.426816395278
 20
246.186472673962
 30
0.0000000000563712
 40
480.0
100
AcDbArc
 50
178.7426249190101
 51
181.2573750809899
  0
LINE
  5
1067D
330
18
100
AcDbEntity
  8
01
100
AcDbLine
 10
7550.179251525979
 20
238.4550446611208
 30
0.0000000000563712
 11
7443.664593642612
 21
238.4550446611063
 31
0.0000000000563712
  0
LINE
  5
1067E
330
18
100
AcDbEntity
  8
01
100
AcDbLine
 10
7550.179251525979
 20
253.9179006867887
 30
0.0000000000563712
 11
7443.664593642612
 21
253.9179006868105
 31
0.0000000000563712
  0
LINE
  5
1067F
330
18
100
AcDbEntity
  8
01
100
AcDbLine
 10
7422.04203402862
 20
258.1864726739766
 30
0.0000000000563712
 11
7442.111645651594
 21
258.1864726739693
 31
0.0000000000563712
  0
LINE
  5
10680
330
18
100
AcDbEntity
  8
01
100
AcDbLine
 10
7442.111645651594
 20
234.186472673962
 30
0.0000000000563712
 11
7422.04203402862
 21
234.186472673962
 31
0.0000000000563712
  0
ARC
  5
10681
330
18
100
AcDbEntity
  8
01
100
AcDbCircle
 10
6963.726863284928
 20
246.186472673962
 30
0.0000000000563712
 40
480.0
100
AcDbArc
 50
0.9229111486583993
 51
1.257375080989897
  0
LINE
  5
10682
330
18
100
AcDbEntity
  8
01
100
AcDbLine
 10
7420.576839840103
 20
247.1856154181985
 30
0.0000000000563712
 11
7420.576839840103
 21
245.1873299297401
 31
0.0000000000563712
  0
LINE
  5
10683
330
18
100
AcDbEntity
  8
01
100
AcDbLine
 10
7551.626816395297
 20
247.1856154181985
 30
0.0000000000563712
 11
7551.626816395297
 21
245.1873299296528
 31
0.0000000000563712
  0
ELLIPSE
  5
10684
330
18
100
AcDbEntity
  8
01
100
AcDbEllipse
 10
7550.160691017014
 20
247.1856154181985
 30
0.0000000000563712
 11
1.466125378283323
 21
0.0
 31
0.0
210
0.0
220
0.0
230
1.0
 40
0.7149855761178042
 41
0.0
 42
1.570796326794897
  0
ELLIPSE
  5
10685
330
18
100
AcDbEntity
  8
01
100
AcDbEllipse
 10
7550.160691017014
 20
245.1873299296528
 30
0.0000000000563712
 11
1.466125378283323
 21
0.0
 31
0.0
210
0.0
220
0.0
230
-1.0
 40
0.7149855761178042
 41
0.0
 42
1.570796326794897
  0
ELLIPSE
  5
10686
330
18
100
AcDbEntity
  8
01
100
AcDbEllipse
 10
7422.07289849773
 20
247.1856154181985
 30
0.0000000000563712
 11
-1.496058657627145
 21
0.0
 31
0.0
210
0.0
220
0.0
230
1.0
 40
0.7006800788868608
 41
4.71238898038469
 42
6.283185307179586
  0
ELLIPSE
  5
10687
330
18
100
AcDbEntity
  8
01
100
AcDbEllipse
 10
7422.07289849773
 20
245.1873299297401
 30
0.0000000000563712
 11
-1.496058657627145
 21
0.0
 31
0.0
210
0.0
220
0.0
230
-1.0
 40
0.7006800788868608
 41
4.71238898038469
 42
6.283185307179586
  0
ARC
  5
10688
330
18
100
AcDbEntity
  8
01
100
AcDbCircle
 10
7550.179251525979
 20
239.9550446611208
 30
0.0000000000563712
 40
1.5
100
AcDbArc
 50
270.0
 51
358.1734270623115
  0
ARC
  5
10689
330
18
100
AcDbEntity
  8
01
100
AcDbCircle
 10
7550.179251525979
 20
252.4179006868178
 30
0.0000000000563712
 40
1.5
100
AcDbArc
 50
1.826572937688503
 51
90.0
  0
ARC
  5
1068A
330
18
100
AcDbEntity
  8
01
100
AcDbCircle
 10
7354.778588003768
 20
246.1864726739693
 30
0.0000000000563712
 40
197.0
100
AcDbArc
 50
358.1734270624165
 51
1.826572937583505
  0
LINE
  5
1068B
330
18
100
AcDbEntity
  8
1CENTER
100
AcDbLine
 10
7415.993165076181
 20
481.6851623941286
 30
0.0000000001127424
 11
7424.126837438029
 21
481.6851543608784
 31
0.0000000001127424
  0
LINE
  5
1068D
330
18
100
AcDbEntity
  8
1CENTER
100
AcDbLine
 10
7415.993165076181
 20
481.6851623941282
 30
0.0000000001127424
 11
7424.126837438029
 21
481.685154360878
 31
0.0000000001127424
  0
ARC
  5
1068E
330
18
100
AcDbEntity
  8
01
100
AcDbCircle
 10
7550.160691017029
 20
431.6641929045111
 30
0.0000000001127424
 40
1.5
100
AcDbArc
 50
270.0
 51
358.7729938891957
  0
ARC
  5
1068F
330
18
100
AcDbEntity
  8
01
100
AcDbCircle
 10
7550.160691017014
 20
453.6844308815091
 30
0.0000000001127424
 40
1.5
100
AcDbArc
 50
1.227006111064828
 51
90.0
  0
ARC
  5
10690
330
18
100
AcDbEntity
  8
01
100
AcDbCircle
 10
7422.072898497745
 20
431.6641929045111
 30
0.0000000001127424
 40
1.5
100
AcDbArc
 50
180.1507461495316
 51
270.0
  0
ARC
  5
10691
330
18
100
AcDbEntity
  8
01
100
AcDbCircle
 10
7447.151889348073
 20
458.6844308815237
 30
0.0000000001127424
 40
3.5
100
AcDbArc
 50
179.8492538505465
 51
270.0
  0
LINE
  5
10692
330
18
100
AcDbEntity
  8
01
100
AcDbLine
 10
7443.726863284943
 20
487.1851543608757
 30
0.0000000001127424
 11
7443.633539637127
 21
451.7146708390103
 31
0.0000000001127424
  0
LINE
  5
10693
330
18
100
AcDbEntity
  8
01
100
AcDbLine
 10
7420.4268163953
 20
487.1851543608757
 30
0.0000000001127424
 11
7420.572903689432
 21
431.6602463841011
 31
0.0000000001127424
  0
ARC
  5
10694
330
18
100
AcDbEntity
  8
01
100
AcDbCircle
 10
7036.115239336234
 20
442.6743118926427
 30
0.0000000001127424
 40
515.6633486675555
100
AcDbArc
 50
358.7729938891435
 51
1.227006110960632
  0
LINE
  5
10695
330
18
100
AcDbEntity
  8
01
100
AcDbLine
 10
7550.160691017029
 20
430.1641929045184
 30
0.0000000001127424
 11
7422.072898497745
 21
430.1641929045111
 31
0.0000000001127424
  0
LINE
  5
10696
330
18
100
AcDbEntity
  8
01
100
AcDbLine
 10
7550.160691017014
 20
455.1844308815164
 30
0.0000000001127424
 11
7447.151889348073
 21
455.1844308815237
 31
0.0000000001127424
  0
LINE
  5
10697
330
18
100
AcDbEntity
  8
01
100
AcDbLine
 10
7443.726863284943
 20
487.1851543608757
 30
0.0000000001127424
 11
7420.4268163953
 21
487.1851543608757
 31
0.0000000001127424
  0
ARC
  5
10699
330
18
100
AcDbEntity
  8
01
100
AcDbCircle
 10
7291.076839840121
 20
402.3864726746644
 30
0.0000000000563712
 40
168.2
100
AcDbArc
 50
270.0
 51
289.4527672107872
  0
ARC
  5
1069A
330
18
100
AcDbEntity
  8
01
100
AcDbCircle
 10
7291.076839840121
 20
89.98647267465572
 30
0.0000000000563712
 40
168.2
100
AcDbArc
 50
70.54723278921273
 51
90.0
  0
LINE
  5
1069B
330
18
100
AcDbEntity
  8
01
100
AcDbLine
 10
7291.076839840121
 20
258.1864726739761
 30
0.0000000000563712
 11
7291.076839840121
 21
234.186472675344
 31
0.0000000000563712
  0
ARC
  5
1069C
330
18
100
AcDbEntity
  8
01
100
AcDbCircle
 10
7346.59288461412
 20
245.2023170715941
 30
0.0000000000563712
 40
1.5
100
AcDbArc
 50
289.4527672106225
 51
359.4275238510782
  0
ARC
  5
1069D
330
18
100
AcDbEntity
  8
01
100
AcDbCircle
 10
7346.59288461412
 20
247.1706282777334
 30
0.0000000000563712
 40
1.5
100
AcDbArc
 50
0.5724761489217947
 51
70.54723278926836
  0
ARC
  5
1069E
330
18
100
AcDbEntity
  8
01
100
AcDbCircle
 10
7248.097801296479
 20
246.1864726744855
 30
0.0000000000563712
 40
100.0
100
AcDbArc
 50
359.4275238511564
 51
0.5724761490520638
  0
LINE
  5
1069F
330
18
100
AcDbEntity
  8
01
100
AcDbLine
 10
7405.576839840125
 20
536.1851543588175
 30
0.0000000001127424
 11
7505.576839840125
 21
536.1851543588175
 31
0.0000000001127424
  0
LINE
  5
106A0
330
18
100
AcDbEntity
  8
01
100
AcDbLine
 10
7406.076839840125
 20
544.6851543588175
 30
0.0000000001127424
 11
7429.576968144724
 21
544.685154358817
 31
0.0000000001127424
  0
LINE
  5
106A1
330
18
100
AcDbEntity
  8
01
100
AcDbLine
 10
7434.576968144725
 20
544.6851543588175
 30
0.0000000001127424
 11
7505.076839840125
 21
544.6851543588175
 31
0.0000000001127424
  0
LINE
  5
106A2
330
18
100
AcDbEntity
  8
01
100
AcDbLine
 10
7505.576839840125
 20
536.1851543588175
 30
0.0
 11
7505.576839840125
 21
544.1851543588175
 31
0.0
  0
LINE
  5
106A3
330
18
100
AcDbEntity
  8
01
100
AcDbLine
 10
7405.576839840125
 20
536.1851543588175
 30
0.0000000001127424
 11
7405.576839840125
 21
544.1851543588175
 31
0.0000000001127424
  0
ARC
  5
106A4
330
18
100
AcDbEntity
  8
01
100
AcDbCircle
 10
7406.076839840125
 20
544.1851543588175
 30
0.0000000001127424
 40
0.5
100
AcDbArc
 50
90.0
 51
180.0
  0
ARC
  5
106A5
330
18
100
AcDbEntity
  8
01
100
AcDbCircle
 10
7505.076839840125
 20
544.1851543588175
 30
0.0
 40
0.5
100
AcDbArc
 50
0.0
 51
90.0
  0
LINE
  5
106A6
330
18
100
AcDbEntity
  8
1CENTER
100
AcDbLine
 10
7415.993165076181
 20
550.6851463255646
 30
0.0000000001127424
 11
7424.126837438029
 21
550.6851543588148
 31
0.0000000001127424
  0
LINE
  5
106A7
330
18
100
AcDbEntity
  8
1CENTER
100
AcDbLine
 10
7415.993165076181
 20
550.685146325565
 30
0.0000000001127424
 11
7424.126837438029
 21
550.6851543588152
 31
0.0000000001127424
  0
ARC
  5
106A8
330
18
100
AcDbEntity
  8
01
100
AcDbCircle
 10
7550.160691017029
 20
600.7061158151821
 30
0.0000000001127424
 40
1.5
100
AcDbArc
 50
1.227006110804337
 51
90.0
  0
ARC
  5
106A9
330
18
100
AcDbEntity
  8
01
100
AcDbCircle
 10
7550.160691017014
 20
578.6858778381841
 30
0.0000000001127424
 40
1.5
100
AcDbArc
 50
270.0
 51
358.7729938889352
  0
ARC
  5
106AA
330
18
100
AcDbEntity
  8
01
100
AcDbCircle
 10
7422.072898497745
 20
600.7061158151821
 30
0.0000000001127424
 40
1.5
100
AcDbArc
 50
90.0
 51
179.8492538504684
  0
ARC
  5
106AB
330
18
100
AcDbEntity
  8
01
100
AcDbCircle
 10
7447.151889348073
 20
573.6858778381695
 30
0.0000000001127424
 40
3.5
100
AcDbArc
 50
90.0
 51
180.1507461494535
  0
LINE
  5
106AC
330
18
100
AcDbEntity
  8
01
100
AcDbLine
 10
7443.726863284943
 20
545.1851543588175
 30
0.0000000001127424
 11
7443.633539637127
 21
580.6556378806829
 31
0.0000000001127424
  0
LINE
  5
106AD
330
18
100
AcDbEntity
  8
01
100
AcDbLine
 10
7420.4268163953
 20
545.1851543588175
 30
0.0000000001127424
 11
7420.572903689432
 21
600.710062335592
 31
0.0000000001127424
  0
ARC
  5
106AE
330
18
100
AcDbEntity
  8
01
100
AcDbCircle
 10
7036.115239336234
 20
589.6959968270505
 30
0.0000000001127424
 40
515.6633486675555
100
AcDbArc
 50
358.7729938890394
 51
1.227006110856435
  0
LINE
  5
106AF
330
18
100
AcDbEntity
  8
01
100
AcDbLine
 10
7550.160691017029
 20
602.2061158151748
 30
0.0000000001127424
 11
7422.072898497745
 21
602.2061158151821
 31
0.0000000001127424
  0
LINE
  5
106B0
330
18
100
AcDbEntity
  8
01
100
AcDbLine
 10
7550.160691017014
 20
577.1858778381768
 30
0.0000000001127424
 11
7447.151889348073
 21
577.1858778381695
 31
0.0000000001127424
  0
LINE
  5
106B1
330
18
100
AcDbEntity
  8
01
100
AcDbLine
 10
7443.726863284943
 20
545.1851543588175
 30
0.0000000001127424
 11
7434.576968144725
 21
545.1851543588175
 31
0.0000000001127424
  0
LINE
  5
106B2
330
18
100
AcDbEntity
  8
01
100
AcDbLine
 10
7429.576968144724
 20
545.185154358818
 30
0.0000000001127424
 11
7420.4268163953
 21
545.1851543588175
 31
0.0000000001127424
  0
ARC
  5
106B3
330
18
100
AcDbEntity
  8
01
100
AcDbCircle
 10
7233.077072519611
 20
402.3864726746644
 30
0.0000000000563712
 40
168.2
100
AcDbArc
 50
250.5472327892128
 51
270.0
  0
ARC
  5
106B4
330
18
100
AcDbEntity
  8
01
100
AcDbCircle
 10
7233.077072519611
 20
89.98647267465572
 30
0.0000000000563712
 40
168.2
100
AcDbArc
 50
90.0
 51
109.4527672107873
  0
LINE
  5
106B5
330
18
100
AcDbEntity
  8
01
100
AcDbLine
 10
7233.077072519611
 20
258.1864726739761
 30
0.0000000000563712
 11
7233.077072519611
 21
234.186472675344
 31
0.0000000000563712
  0
ARC
  5
106B6
330
18
100
AcDbEntity
  8
01
100
AcDbCircle
 10
7177.561027745613
 20
245.2023170715941
 30
0.0000000000563712
 40
1.5
100
AcDbArc
 50
180.5724761489218
 51
250.5472327893775
  0
ARC
  5
106B7
330
18
100
AcDbEntity
  8
01
100
AcDbCircle
 10
7177.561027745613
 20
247.1706282777334
 30
0.0000000000563712
 40
1.5
100
AcDbArc
 50
109.4527672107316
 51
179.4275238510782
  0
ARC
  5
106B8
330
18
100
AcDbEntity
  8
01
100
AcDbCircle
 10
7276.056111063253
 20
246.1864726744855
 30
0.0000000000563712
 40
100.0
100
AcDbArc
 50
179.4275238509479
 51
180.5724761488436
  0
LINE
  5
106B9
330
18
100
AcDbEntity
  8
01
100
AcDbLine
 10
7118.077072519607
 20
223.6864726739784
 30
0.0000000000563712
 11
7019.077072519607
 21
223.6864726739784
 31
0.0000000000563712
  0
ARC
  5
106BA
330
18
100
AcDbEntity
  8
01
100
AcDbCircle
 10
7118.077072519607
 20
224.1864726739784
 30
0.0000000000563712
 40
0.5
100
AcDbArc
 50
270.0
 51
0.0
  0
ARC
  5
106BB
330
18
100
AcDbEntity
  8
01
100
AcDbCircle
 10
7019.077072519607
 20
224.1864726739784
 30
0.0000000000563712
 40
0.5
100
AcDbArc
 50
180.0
 51
270.0
  0
LINE
  5
106BC
330
18
100
AcDbEntity
  8
01
100
AcDbLine
 10
7118.077072519607
 20
268.6864726739784
 30
0.0000000000563712
 11
7019.077072519607
 21
268.6864726739784
 31
0.0000000000563712
  0
LINE
  5
106BD
330
18
100
AcDbEntity
  8
01
100
AcDbLine
 10
7118.577072519607
 20
268.1864726739784
 30
0.0000000000563712
 11
7118.577072519607
 21
224.1864726739784
 31
0.0000000000563712
  0
ARC
  5
106BE
330
18
100
AcDbEntity
  8
01
100
AcDbCircle
 10
7118.077072519607
 20
268.1864726739784
 30
0.0000000000563712
 40
0.5
100
AcDbArc
 50
0.0
 51
90.0
  0
LINE
  5
106BF
330
18
100
AcDbEntity
  8
01
100
AcDbLine
 10
7018.577072519607
 20
268.1864726739784
 30
0.0000000000563712
 11
7018.577072519607
 21
253.9179006867978
 31
0.0000000000563712
  0
ARC
  5
106C0
330
18
100
AcDbEntity
  8
01
100
AcDbCircle
 10
7019.077072519607
 20
268.1864726739784
 30
0.0000000000563712
 40
0.5
100
AcDbArc
 50
90.0
 51
180.0
  0
LINE
  5
106C1
330
18
100
AcDbEntity
  8
01
100
AcDbLine
 10
7018.577072519607
 20
238.4550446611145
 30
0.0000000000563712
 11
7018.577072519607
 21
224.1864726739784
 31
0.0000000000563712
  0
LINE
  5
106C2
330
18
100
AcDbEntity
  8
01
100
AcDbLine
 10
7102.132984241276
 20
248.2338739164441
 30
0.0000000000563712
 11
6973.993221342718
 21
248.2338739164513
 31
0.0000000000563712
  0
LINE
  5
106C3
330
18
100
AcDbEntity
  8
01
100
AcDbLine
 10
7102.081013862002
 20
244.1390714314728
 30
0.0000000000563712
 11
6973.993221342718
 21
244.1390714314728
 31
0.0000000000563712
  0
ARC
  5
106C4
330
18
100
AcDbEntity
  8
01
100
AcDbCircle
 10
7082.042266708138
 20
256.6864726739766
 30
0.0000000000563712
 40
1.5
100
AcDbArc
 50
90.0
 51
178.7426249191404
  0
ARC
  5
106C5
330
18
100
AcDbEntity
  8
01
100
AcDbCircle
 10
7560.427049074804
 20
246.186472673962
 30
0.0000000000563712
 40
480.0
100
AcDbArc
 50
180.9229111486584
 51
181.2573750809899
  0
ARC
  5
106C6
330
18
100
AcDbEntity
  8
01
100
AcDbCircle
 10
7082.042266708138
 20
235.6864726739693
 30
0.0000000000563712
 40
1.5
100
AcDbArc
 50
181.2573750808596
 51
270.0
  0
ARC
  5
106C7
330
18
100
AcDbEntity
  8
01
100
AcDbCircle
 10
7102.111878331119
 20
235.6864726739693
 30
0.0000000000563712
 40
1.5
100
AcDbArc
 50
269.9999999997394
 51
358.7426249191403
  0
ARC
  5
106C8
330
18
100
AcDbEntity
  8
01
100
AcDbCircle
 10
7102.111878331119
 20
256.6864726739766
 30
0.0000000000563712
 40
1.5
100
AcDbArc
 50
1.257375080859653
 51
90.00000000026056
  0
ARC
  5
106C9
330
18
100
AcDbEntity
  8
01
100
AcDbCircle
 10
6623.727095964454
 20
246.186472673962
 30
0.0000000000563712
 40
480.0
100
AcDbArc
 50
358.7426249190101
 51
1.257375080989897
  0
LINE
  5
106CA
330
18
100
AcDbEntity
  8
01
100
AcDbLine
 10
6973.974660833754
 20
238.4550446611208
 30
0.0000000000563712
 11
7080.48931871712
 21
238.4550446611063
 31
0.0000000000563712
  0
LINE
  5
106CB
330
18
100
AcDbEntity
  8
01
100
AcDbLine
 10
6973.974660833754
 20
253.9179006867887
 30
0.0000000000563712
 11
7080.48931871712
 21
253.9179006868105
 31
0.0000000000563712
  0
LINE
  5
106CC
330
18
100
AcDbEntity
  8
01
100
AcDbLine
 10
7102.111878331112
 20
258.1864726739766
 30
0.0000000000563712
 11
7082.042266708138
 21
258.1864726739693
 31
0.0000000000563712
  0
LINE
  5
106CD
330
18
100
AcDbEntity
  8
01
100
AcDbLine
 10
7082.042266708138
 20
234.186472673962
 30
0.0000000000563712
 11
7102.111878331112
 21
234.186472673962
 31
0.0000000000563712
  0
ARC
  5
106CE
330
18
100
AcDbEntity
  8
01
100
AcDbCircle
 10
7560.427049074804
 20
246.186472673962
 30
0.0000000000563712
 40
480.0
100
AcDbArc
 50
178.7426249190101
 51
179.0770888513416
  0
LINE
  5
106CF
330
18
100
AcDbEntity
  8
01
100
AcDbLine
 10
7103.577072519629
 20
247.1856154181985
 30
0.0000000000563712
 11
7103.577072519629
 21
245.1873299297401
 31
0.0000000000563712
  0
LINE
  5
106D0
330
18
100
AcDbEntity
  8
01
100
AcDbLine
 10
6972.527095964435
 20
247.1856154181985
 30
0.0000000000563712
 11
6972.527095964435
 21
245.1873299296528
 31
0.0000000000563712
  0
ELLIPSE
  5
106D1
330
18
100
AcDbEntity
  8
01
100
AcDbEllipse
 10
6973.993221342718
 20
247.1856154181985
 30
0.0000000000563712
 11
-1.466125378283323
 21
0.0
 31
0.0
210
0.0
220
0.0
230
-1.0
 40
0.7149855761178042
 41
0.0
 42
1.570796326794897
  0
ELLIPSE
  5
106D2
330
18
100
AcDbEntity
  8
01
100
AcDbEllipse
 10
6973.993221342718
 20
245.1873299296528
 30
0.0000000000563712
 11
-1.466125378283323
 21
0.0
 31
0.0
210
0.0
220
0.0
230
1.0
 40
0.7149855761178042
 41
0.0
 42
1.570796326794897
  0
ELLIPSE
  5
106D3
330
18
100
AcDbEntity
  8
01
100
AcDbEllipse
 10
7102.081013862002
 20
247.1856154181985
 30
0.0000000000563712
 11
1.496058657627145
 21
0.0
 31
0.0
210
0.0
220
0.0
230
-1.0
 40
0.7006800788868608
 41
4.71238898038469
 42
6.283185307179586
  0
ELLIPSE
  5
106D4
330
18
100
AcDbEntity
  8
01
100
AcDbEllipse
 10
7102.081013862002
 20
245.1873299297401
 30
0.0000000000563712
 11
1.496058657627145
 21
0.0
 31
0.0
210
0.0
220
0.0
230
1.0
 40
0.7006800788868608
 41
4.71238898038469
 42
6.283185307179586
  0
ARC
  5
106D5
330
18
100
AcDbEntity
  8
01
100
AcDbCircle
 10
6973.974660833754
 20
239.9550446611208
 30
0.0000000000563712
 40
1.5
100
AcDbArc
 50
181.8265729376885
 51
270.0
  0
ARC
  5
106D6
330
18
100
AcDbEntity
  8
01
100
AcDbCircle
 10
6973.974660833754
 20
252.4179006868178
 30
0.0000000000563712
 40
1.5
100
AcDbArc
 50
90.0
 51
178.1734270623115
  0
ARC
  5
106D7
330
18
100
AcDbEntity
  8
01
100
AcDbCircle
 10
7169.375324355964
 20
246.1864726739693
 30
0.0000000000563712
 40
197.0
100
AcDbArc
 50
178.1734270624165
 51
181.8265729375835
  0
LINE
  5
106D8
330
18
100
AcDbEntity
  8
01
100
AcDbLine
 10
7242.077072519611
 20
223.6864726739784
 30
0.0000000000563712
 11
7242.077072519611
 21
268.6864726739784
 31
0.0000000000563712
  0
LINE
  5
106D9
330
18
100
AcDbEntity
  8
01
100
AcDbLine
 10
7233.577072519611
 20
224.1864726739784
 30
0.0000000000563712
 11
7233.577072519611
 21
268.1864726739784
 31
0.0000000000563712
  0
LINE
  5
106DA
330
18
100
AcDbEntity
  8
01
100
AcDbLine
 10
7242.077072519611
 20
268.6864726739784
 30
0.0
 11
7234.077072519611
 21
268.6864726739784
 31
0.0
  0
LINE
  5
106DB
330
18
100
AcDbEntity
  8
01
100
AcDbLine
 10
7242.077072519611
 20
223.6864726739784
 30
0.0
 11
7234.077072519611
 21
223.6864726739784
 31
0.0
  0
ARC
  5
106DC
330
18
100
AcDbEntity
  8
01
100
AcDbCircle
 10
7234.077072519611
 20
224.1864726739784
 30
0.0
 40
0.5
100
AcDbArc
 50
180.0
 51
270.0
  0
ARC
  5
106DD
330
18
100
AcDbEntity
  8
01
100
AcDbCircle
 10
7234.077072519611
 20
268.1864726739784
 30
0.0
 40
0.5
100
AcDbArc
 50
90.0
 51
180.0
  0
LINE
  5
106DE
330
18
100
AcDbEntity
  8
01
100
AcDbLine
 10
7074.077072519611
 20
268.6864726739784
 30
0.0000000000563712
 11
7074.077072519611
 21
281.6851543608755
 31
0.0000000000563712
  0
LINE
  5
11685
330
18
100
AcDbEntity
  8
01
100
AcDbLine
 10
7242.076956179868
 20
321.6851543608757
 30
0.0
 11
7242.076956179868
 21
353.4851543608757
 31
0.0
1001
ACAD
1000
DSTYLE
1002
{
1070
    40
1040
1.3
1070
    45
1040
0.5
1070
   341
1005
0
1002
}
  0
LINE
  5
11686
330
18
100
AcDbEntity
  8
01
100
AcDbLine
 10
7220.076570614148
 20
306.1851493608767
 30
0.0
 11
7220.076570614148
 21
353.4851543608757
 31
0.0
1001
ACAD
1000
DSTYLE
1002
{
1070
    40
1040
1.3
1070
    45
1040
0.5
1070
   341
1005
0
1002
}
  0
LINE
  5
11687
330
18
100
AcDbEntity
  8
01
100
AcDbLine
 10
7239.476956179868
 20
352.1851543608757
 30
0.0
 11
7222.676570614149
 21
352.1851543608757
 31
0.0
1001
ACAD
1000
DSTYLE
1002
{
1070
    40
1040
1.3
1070
    45
1040
0.5
1070
   341
1005
0
1002
}
  0
LINE
  5
1168B
330
18
100
AcDbEntity
  8
01
100
AcDbLine
 10
7282.076956179868
 20
321.6851543608757
 30
0.0
 11
7282.076956179868
 21
353.4851543608757
 31
0.0
1001
ACAD
1000
DSTYLE
1002
{
1070
    40
1040
1.3
1070
    45
1040
0.5
1070
   271
1070
     1
1070
   341
1005
0
1002
}
  0
LINE
  5
1168C
330
18
100
AcDbEntity
  8
01
100
AcDbLine
 10
7290.245539868828
 20
296.1851559285678
 30
0.0
 11
7290.245539868828
 21
353.4851543608757
 31
0.0
1001
ACAD
1000
DSTYLE
1002
{
1070
    40
1040
1.3
1070
    45
1040
0.5
1070
   271
1070
     1
1070
   341
1005
0
1002
}
  0
LINE
  5
1168D
330
18
100
AcDbEntity
  8
01
100
AcDbLine
 10
7284.676956179868
 20
352.1851543608757
 30
0.0
 11
7287.645539868828
 21
352.1851543608757
 31
0.0
1001
ACAD
1000
DSTYLE
1002
{
1070
    40
1040
1.3
1070
    45
1040
0.5
1070
   271
1070
     1
1070
   341
1005
0
1002
}
  0
LINE
  5
11691
330
18
100
AcDbEntity
  8
01
100
AcDbLine
 10
7072.076967534951
 20
321.1851543608757
 30
0.0
 11
7072.076967534951
 21
330.4851543608757
 31
0.0
1001
ACAD
1000
DSTYLE
1002
{
1070
     3
1000
□<>
1070
    40
1040
1.3
1070
    45
1040
0.5
1070
   271
1070
     1
1070
   272
1070
     2
1002
}
  0
LINE
  5
11692
330
18
100
AcDbEntity
  8
01
100
AcDbLine
 10
7112.076967534951
 20
321.1851543608752
 30
0.0
 11
7112.076967534951
 21
330.4851543608757
 31
0.0
1001
ACAD
1000
DSTYLE
1002
{
1070
     3
1000
□<>
1070
    40
1040
1.3
1070
    45
1040
0.5
1070
   271
1070
     1
1070
   272
1070
     2
1002
}
  0
LINE
  5
11693
330
18
100
AcDbEntity
  8
01
100
AcDbLine
 10
7074.676967534951
 20
329.1851543608757
 30
0.0
 11
7109.476967534951
 21
329.1851543608757
 31
0.0
1001
ACAD
1000
DSTYLE
1002
{
1070
     3
1000
□<>
1070
    40
1040
1.3
1070
    45
1040
0.5
1070
   271
1070
     1
1070
   272
1070
     2
1002
}
  0
LINE
  5
11697
330
18
100
AcDbEntity
  8
01
100
AcDbLine
 10
7412.076847517665
 20
321.1851543608757
 30
0.0
 11
7412.076847517665
 21
330.4851543608757
 31
0.0
1001
ACAD
1000
DSTYLE
1002
{
1070
     3
1000
□<>
1070
    40
1040
1.3
1070
    45
1040
0.5
1070
   271
1070
     1
1070
   272
1070
     2
1002
}
  0
LINE
  5
11698
330
18
100
AcDbEntity
  8
01
100
AcDbLine
 10
7452.076847517665
 20
321.1851543608752
 30
0.0
 11
7452.076847517665
 21
330.4851543608757
 31
0.0
1001
ACAD
1000
DSTYLE
1002
{
1070
     3
1000
□<>
1070
    40
1040
1.3
1070
    45
1040
0.5
1070
   271
1070
     1
1070
   272
1070
     2
1002
}
  0
LINE
  5
11699
330
18
100
AcDbEntity
  8
01
100
AcDbLine
 10
7414.676847517665
 20
329.1851543608757
 30
0.0
 11
7449.476847517664
 21
329.1851543608757
 31
0.0
1001
ACAD
1000
DSTYLE
1002
{
1070
     3
1000
□<>
1070
    40
1040
1.3
1070
    45
1040
0.5
1070
   271
1070
     1
1070
   272
1070
     2
1002
}
  0
TEXT
  5
1169D
330
18
100
AcDbEntity
  8
01
  6
CONTINUOUS
100
AcDbText
 10
7343.08000093314
 20
458.76848769318
 30
0.0000000000563712
 40
4.55
  1
材質：亜鉛ダイキャスト
100
AcDbText
  0
TEXT
  5
1169E
330
18
100
AcDbEntity
  8
01
  6
CONTINUOUS
100
AcDbText
 10
7353.393334266473
 20
451.1851543598466
 30
0.0000000000563712
 40
4.55
  1
仕上げ：各種メッキ
100
AcDbText
  0
LINE
  5
1169F
330
18
100
AcDbEntity
  8
01
100
AcDbLine
 10
7370.076839840121
 20
274.1851536627439
 30
0.0
 11
7370.076839840121
 21
376.9066464455632
 31
0.0
1001
ACAD
1000
DSTYLE
1002
{
1070
    40
1040
1.3
1070
    45
1040
0.5
1002
}
  0
LINE
  5
116A0
330
18
100
AcDbEntity
  8
01
100
AcDbLine
 10
7381.076839840121
 20
332.0564717120328
 30
0.0
 11
7381.076839840121
 21
376.9066464455632
 31
0.0
1001
ACAD
1000
DSTYLE
1002
{
1070
    40
1040
1.3
1070
    45
1040
0.5
1002
}
  0
LINE
  5
116A1
330
18
100
AcDbEntity
  8
01
100
AcDbLine
 10
7372.676839840122
 20
375.6066464455632
 30
0.0
 11
7378.476839840121
 21
375.6066464455632
 31
0.0
1001
ACAD
1000
DSTYLE
1002
{
1070
    40
1040
1.3
1070
    45
1040
0.5
1002
}
  0
LINE
  5
116A5
330
18
100
AcDbEntity
  8
01
100
AcDbLine
 10
7450.076839840121
 20
304.1777818532671
 30
0.0
 11
7478.376839840122
 21
304.1777818532671
 31
0.0
1001
ACAD
1000
DSTYLE
1002
{
1070
    40
1040
1.3
1070
    45
1040
0.5
1002
}
  0
LINE
  5
116A6
330
18
100
AcDbEntity
  8
01
100
AcDbLine
 10
7450.076839840121
 20
230.1851543608748
 30
0.0
 11
7478.376839840122
 21
230.1851543608748
 31
0.0
1001
ACAD
1000
DSTYLE
1002
{
1070
    40
1040
1.3
1070
    45
1040
0.5
1002
}
  0
LINE
  5
116A7
330
18
100
AcDbEntity
  8
01
100
AcDbLine
 10
7477.076839840121
 20
301.5777818532671
 30
0.0
 11
7477.076839840121
 21
232.7851543608748
 31
0.0
1001
ACAD
1000
DSTYLE
1002
{
1070
    40
1040
1.3
1070
    45
1040
0.5
1002
}
  0
LINE
  5
116AB
330
18
100
AcDbEntity
  8
01
100
AcDbLine
 10
7450.076839840121
 20
304.1777818532671
 30
0.0
 11
7450.076839840121
 21
386.9865139136114
 31
0.0
1001
ACAD
1000
DSTYLE
1002
{
1070
    40
1040
1.3
1070
    45
1040
0.5
1002
}
  0
LINE
  5
116AC
330
18
100
AcDbEntity
  8
01
100
AcDbLine
 10
7381.076839840121
 20
332.0564717120328
 30
0.0
 11
7381.076839840121
 21
386.9865139136114
 31
0.0
1001
ACAD
1000
DSTYLE
1002
{
1070
    40
1040
1.3
1070
    45
1040
0.5
1002
}
  0
LINE
  5
116AD
330
18
100
AcDbEntity
  8
01
100
AcDbLine
 10
7447.476839840121
 20
385.6865139136114
 30
0.0
 11
7383.676839840122
 21
385.6865139136114
 31
0.0
1001
ACAD
1000
DSTYLE
1002
{
1070
    40
1040
1.3
1070
    45
1040
0.5
1002
}
  0
LINE
  5
116B1
330
18
100
AcDbEntity
  8
01
100
AcDbLine
 10
7381.076839840121
 20
332.0564717120328
 30
0.0
 11
7381.076839840121
 21
376.9066464455632
 31
0.0
1001
ACAD
1000
DSTYLE
1002
{
1070
    40
1040
1.3
1070
    45
1040
0.5
1002
}
  0
LINE
  5
116B2
330
18
100
AcDbEntity
  8
01
100
AcDbLine
 10
7432.076839840121
 20
296.1851543608752
 30
0.0
 11
7432.076839840121
 21
376.9066464455632
 31
0.0
1001
ACAD
1000
DSTYLE
1002
{
1070
    40
1040
1.3
1070
    45
1040
0.5
1002
}
  0
LINE
  5
116B3
330
18
100
AcDbEntity
  8
01
100
AcDbLine
 10
7383.676839840122
 20
375.6066464455632
 30
0.0
 11
7429.476839840121
 21
375.6066464455632
 31
0.0
1001
ACAD
1000
DSTYLE
1002
{
1070
    40
1040
1.3
1070
    45
1040
0.5
1002
}
  0
LINE
  5
116B7
330
18
100
AcDbEntity
  8
01
100
AcDbLine
 10
7267.951981587772
 20
324.1851543608745
 30
0.0
 11
7348.238112755979
 21
324.1851543608745
 31
0.0
1001
ACAD
1000
DSTYLE
1002
{
1070
    40
1040
1.3
1070
    45
1040
0.5
1002
}
  0
LINE
  5
116B8
330
18
100
AcDbEntity
  8
01
100
AcDbLine
 10
7267.951981587772
 20
210.1851543608745
 30
0.0
 11
7348.238112755979
 21
210.1851543608745
 31
0.0
1001
ACAD
1000
DSTYLE
1002
{
1070
    40
1040
1.3
1070
    45
1040
0.5
1002
}
  0
LINE
  5
116B9
330
18
100
AcDbEntity
  8
01
100
AcDbLine
 10
7346.938112755979
 20
321.5851543608745
 30
0.0
 11
7346.938112755979
 21
212.7851543608745
 31
0.0
1001
ACAD
1000
DSTYLE
1002
{
1070
    40
1040
1.3
1070
    45
1040
0.5
1002
}
  0
LINE
  5
116BD
330
18
100
AcDbEntity
  8
01
100
AcDbLine
 10
7268.550041984536
 20
332.0847092164581
 30
0.0
 11
7357.602446922204
 21
332.0847092164581
 31
0.0
1001
ACAD
1000
DSTYLE
1002
{
1070
    40
1040
1.3
1070
    45
1040
0.5
1002
}
  0
LINE
  5
116BE
330
18
100
AcDbEntity
  8
01
100
AcDbLine
 10
7268.476956179866
 20
202.2851543608747
 30
0.0
 11
7357.602446922204
 21
202.2851543608747
 31
0.0
1001
ACAD
1000
DSTYLE
1002
{
1070
    40
1040
1.3
1070
    45
1040
0.5
1002
}
  0
LINE
  5
116BF
330
18
100
AcDbEntity
  8
01
100
AcDbLine
 10
7356.302446922204
 20
329.484709216458
 30
0.0
 11
7356.302446922204
 21
204.8851543608747
 31
0.0
1001
ACAD
1000
DSTYLE
1002
{
1070
    40
1040
1.3
1070
    45
1040
0.5
1002
}
  0
LINE
  5
116C3
330
18
100
AcDbEntity
  8
01
100
AcDbLine
 10
7249.576956179866
 20
326.1851543608748
 30
0.0
 11
7249.576956179866
 21
376.906646445563
 31
0.0
1001
ACAD
1000
DSTYLE
1002
{
1070
    40
1040
1.3
1070
    45
1040
0.5
1002
}
  0
LINE
  5
116C4
330
18
100
AcDbEntity
  8
01
100
AcDbLine
 10
7274.576956179866
 20
326.1851543608748
 30
0.0
 11
7274.576956179866
 21
376.906646445563
 31
0.0
1001
ACAD
1000
DSTYLE
1002
{
1070
    40
1040
1.3
1070
    45
1040
0.5
1002
}
  0
LINE
  5
116C5
330
18
100
AcDbEntity
  8
01
100
AcDbLine
 10
7252.176956179866
 20
375.606646445563
 30
0.0
 11
7271.976956179866
 21
375.606646445563
 31
0.0
1001
ACAD
1000
DSTYLE
1002
{
1070
    40
1040
1.3
1070
    45
1040
0.5
1002
}
  0
LINE
  5
116C9
330
18
100
AcDbEntity
  8
01
100
AcDbLine
 10
7228.875994285543
 20
246.9351543608748
 30
0.0
 11
7227.576956179866
 21
247.6851543608748
 31
0.0
  0
LINE
  5
116CA
330
18
100
AcDbEntity
  8
01
100
AcDbLine
 10
7227.576956179866
 20
247.6851543608748
 30
0.0
 11
7226.277918074189
 21
246.9351543608748
 31
0.0
  0
LINE
  5
116CB
330
18
100
AcDbEntity
  8
01
100
AcDbLine
 10
7226.277918074189
 20
246.9351543608748
 30
0.0
 11
7226.277918074189
 21
245.4351543608748
 31
0.0
  0
LINE
  5
116CC
330
18
100
AcDbEntity
  8
01
100
AcDbLine
 10
7226.277918074189
 20
245.4351543608748
 30
0.0
 11
7227.576956179866
 21
244.6851543608748
 31
0.0
  0
LINE
  5
116CD
330
18
100
AcDbEntity
  8
01
100
AcDbLine
 10
7227.576956179866
 20
244.6851543608748
 30
0.0
 11
7228.875994285543
 21
245.4351543608748
 31
0.0
  0
LINE
  5
116CE
330
18
100
AcDbEntity
  8
01
100
AcDbLine
 10
7228.875994285543
 20
245.4351543608748
 30
0.0
 11
7228.875994285543
 21
246.9351543608748
 31
0.0
  0
CIRCLE
  5
116CF
330
18
100
AcDbEntity
  8
01
100
AcDbCircle
 10
7296.576839840121
 20
246.1864726739784
 30
0.0000000000563712
 40
3.0
  0
LINE
  5
116D0
330
18
100
AcDbEntity
  8
01
  6
BYBLOCK
100
AcDbLine
 10
7239.476956179868
 20
352.8818222548757
 30
0.0
 11
7242.076956179868
 21
352.1851543608757
 31
0.0
  0
LINE
  5
116D1
330
18
100
AcDbEntity
  8
01
  6
BYBLOCK
100
AcDbLine
 10
7242.076956179868
 20
352.1851543608757
 30
0.0
 11
7239.476956179868
 21
351.4884864668757
 31
0.0
  0
LINE
  5
116D2
330
18
100
AcDbEntity
  8
01
  6
BYBLOCK
100
AcDbLine
 10
7242.076956179868
 20
352.1851543608757
 30
0.0
 11
7239.476956179868
 21
352.1851543608757
 31
0.0
  0
LINE
  5
116D3
330
18
100
AcDbEntity
  8
01
  6
BYBLOCK
100
AcDbLine
 10
7222.676570614149
 20
351.4884864668757
 30
0.0
 11
7220.076570614148
 21
352.1851543608757
 31
0.0
  0
LINE
  5
116D4
330
18
100
AcDbEntity
  8
01
  6
BYBLOCK
100
AcDbLine
 10
7220.076570614148
 20
352.1851543608757
 30
0.0
 11
7222.676570614149
 21
352.8818222548757
 31
0.0
  0
LINE
  5
116D5
330
18
100
AcDbEntity
  8
01
  6
BYBLOCK
100
AcDbLine
 10
7220.076570614148
 20
352.1851543608757
 30
0.0
 11
7222.676570614149
 21
352.1851543608757
 31
0.0
  0
TEXT
  5
116D6
330
18
100
AcDbEntity
  8
01
  6
CONTINUOUS
100
AcDbText
 10
7227.285096730341
 20
353.0951543608757
 30
0.0
 40
4.55
  1
22
100
AcDbText
1001
ACAD
1000
DSTYLE
1002
{
1070
    40
1040
1.3
1070
    45
1040
0.5
1070
   341
1005
0
1002
}
  0
LINE
  5
116D7
330
18
100
AcDbEntity
  8
01
  6
BYBLOCK
100
AcDbLine
 10
7284.676956179868
 20
351.4884864668757
 30
0.0
 11
7282.076956179868
 21
352.1851543608757
 31
0.0
  0
LINE
  5
116D8
330
18
100
AcDbEntity
  8
01
  6
BYBLOCK
100
AcDbLine
 10
7282.076956179868
 20
352.1851543608757
 30
0.0
 11
7284.676956179868
 21
352.8818222548757
 31
0.0
  0
LINE
  5
116D9
330
18
100
AcDbEntity
  8
01
  6
BYBLOCK
100
AcDbLine
 10
7282.076956179868
 20
352.1851543608757
 30
0.0
 11
7284.676956179868
 21
352.1851543608757
 31
0.0
  0
LINE
  5
116DA
330
18
100
AcDbEntity
  8
01
  6
BYBLOCK
100
AcDbLine
 10
7287.645539868828
 20
352.8818222548757
 30
0.0
 11
7290.245539868828
 21
352.1851543608757
 31
0.0
  0
LINE
  5
116DB
330
18
100
AcDbEntity
  8
01
  6
BYBLOCK
100
AcDbLine
 10
7290.245539868828
 20
352.1851543608757
 30
0.0
 11
7287.645539868828
 21
351.4884864668757
 31
0.0
  0
LINE
  5
116DC
330
18
100
AcDbEntity
  8
01
  6
BYBLOCK
100
AcDbLine
 10
7290.245539868828
 20
352.1851543608757
 30
0.0
 11
7287.645539868828
 21
352.1851543608757
 31
0.0
  0
TEXT
  5
116DD
330
18
100
AcDbEntity
  8
01
  6
CONTINUOUS
100
AcDbText
 10
7284.644581357681
 20
353.0951543608757
 30
0.0
 40
4.55
  1
8
100
AcDbText
1001
ACAD
1000
DSTYLE
1002
{
1070
    40
1040
1.3
1070
    45
1040
0.5
1070
   271
1070
     1
1070
   341
1005
0
1002
}
  0
LINE
  5
116DE
330
18
100
AcDbEntity
  8
01
  6
BYBLOCK
100
AcDbLine
 10
7074.676967534951
 20
328.4884864668757
 30
0.0
 11
7072.076967534951
 21
329.1851543608757
 31
0.0
  0
LINE
  5
116DF
330
18
100
AcDbEntity
  8
01
  6
BYBLOCK
100
AcDbLine
 10
7072.076967534951
 20
329.1851543608757
 30
0.0
 11
7074.676967534951
 21
329.8818222548757
 31
0.0
  0
LINE
  5
116E0
330
18
100
AcDbEntity
  8
01
  6
BYBLOCK
100
AcDbLine
 10
7072.076967534951
 20
329.1851543608757
 30
0.0
 11
7074.676967534951
 21
329.1851543608757
 31
0.0
  0
LINE
  5
116E1
330
18
100
AcDbEntity
  8
01
  6
BYBLOCK
100
AcDbLine
 10
7109.476967534951
 20
329.8818222548757
 30
0.0
 11
7112.076967534951
 21
329.1851543608757
 31
0.0
  0
LINE
  5
116E2
330
18
100
AcDbEntity
  8
01
  6
BYBLOCK
100
AcDbLine
 10
7112.076967534951
 20
329.1851543608757
 30
0.0
 11
7109.476967534951
 21
328.4884864668757
 31
0.0
  0
LINE
  5
116E3
330
18
100
AcDbEntity
  8
01
  6
BYBLOCK
100
AcDbLine
 10
7112.076967534951
 20
329.1851543608757
 30
0.0
 11
7109.476967534951
 21
329.1851543608757
 31
0.0
  0
TEXT
  5
116E4
330
18
100
AcDbEntity
  8
01
  6
CONTINUOUS
100
AcDbText
 10
7085.688009201618
 20
330.0951543608757
 30
0.0
 40
4.55
  1
□40
100
AcDbText
1001
ACAD
1000
DSTYLE
1002
{
1070
     3
1000
□<>
1070
    40
1040
1.3
1070
    45
1040
0.5
1070
   271
1070
     1
1070
   272
1070
     2
1002
}
  0
LINE
  5
116E5
330
18
100
AcDbEntity
  8
01
  6
BYBLOCK
100
AcDbLine
 10
7414.676847517665
 20
328.4884864668757
 30
0.0
 11
7412.076847517665
 21
329.1851543608757
 31
0.0
  0
LINE
  5
116E6
330
18
100
AcDbEntity
  8
01
  6
BYBLOCK
100
AcDbLine
 10
7412.076847517665
 20
329.1851543608757
 30
0.0
 11
7414.676847517665
 21
329.8818222548757
 31
0.0
  0
LINE
  5
116E7
330
18
100
AcDbEntity
  8
01
  6
BYBLOCK
100
AcDbLine
 10
7412.076847517665
 20
329.1851543608757
 30
0.0
 11
7414.676847517665
 21
329.1851543608757
 31
0.0
  0
LINE
  5
116E8
330
18
100
AcDbEntity
  8
01
  6
BYBLOCK
100
AcDbLine
 10
7449.476847517664
 20
329.8818222548757
 30
0.0
 11
7452.076847517665
 21
329.1851543608757
 31
0.0
  0
LINE
  5
116E9
330
18
100
AcDbEntity
  8
01
  6
BYBLOCK
100
AcDbLine
 10
7452.076847517665
 20
329.1851543608757
 30
0.0
 11
7449.476847517664
 21
328.4884864668757
 31
0.0
  0
LINE
  5
116EA
330
18
100
AcDbEntity
  8
01
  6
BYBLOCK
100
AcDbLine
 10
7452.076847517665
 20
329.1851543608757
 30
0.0
 11
7449.476847517664
 21
329.1851543608757
 31
0.0
  0
TEXT
  5
116EB
330
18
100
AcDbEntity
  8
01
  6
CONTINUOUS
100
AcDbText
 10
7425.687889184332
 20
330.0951543608757
 30
0.0
 40
4.55
  1
□40
100
AcDbText
1001
ACAD
1000
DSTYLE
1002
{
1070
     3
1000
□<>
1070
    40
1040
1.3
1070
    45
1040
0.5
1070
   271
1070
     1
1070
   272
1070
     2
1002
}
  0
LINE
  5
116EC
330
18
100
AcDbEntity
  8
01
  6
BYBLOCK
100
AcDbLine
 10
7372.676839840122
 20
374.9099785515633
 30
0.0
 11
7370.076839840121
 21
375.6066464455632
 31
0.0
  0
LINE
  5
116ED
330
18
100
AcDbEntity
  8
01
  6
BYBLOCK
100
AcDbLine
 10
7370.076839840121
 20
375.6066464455632
 30
0.0
 11
7372.676839840122
 21
376.3033143395632
 31
0.0
  0
LINE
  5
116EE
330
18
100
AcDbEntity
  8
01
  6
BYBLOCK
100
AcDbLine
 10
7370.076839840121
 20
375.6066464455632
 30
0.0
 11
7372.676839840122
 21
375.6066464455632
 31
0.0
  0
LINE
  5
116EF
330
18
100
AcDbEntity
  8
01
  6
BYBLOCK
100
AcDbLine
 10
7378.476839840121
 20
376.3033143395632
 30
0.0
 11
7381.076839840121
 21
375.6066464455632
 31
0.0
  0
LINE
  5
116F0
330
18
100
AcDbEntity
  8
01
  6
BYBLOCK
100
AcDbLine
 10
7381.076839840121
 20
375.6066464455632
 30
0.0
 11
7378.476839840121
 21
374.9099785515633
 31
0.0
  0
LINE
  5
116F1
330
18
100
AcDbEntity
  8
01
  6
BYBLOCK
100
AcDbLine
 10
7381.076839840121
 20
375.6066464455632
 30
0.0
 11
7378.476839840121
 21
375.6066464455632
 31
0.0
  0
TEXT
  5
116F2
330
18
100
AcDbEntity
  8
01
  6
CONTINUOUS
100
AcDbText
 10
7373.301839840122
 20
376.5166464455632
 30
0.0
 40
4.55
  1
11
100
AcDbText
1001
ACAD
1000
DSTYLE
1002
{
1070
    40
1040
1.3
1070
    45
1040
0.5
1002
}
  0
LINE
  5
116F3
330
18
100
AcDbEntity
  8
01
  6
BYBLOCK
100
AcDbLine
 10
7476.380171946122
 20
301.5777818532671
 30
0.0
 11
7477.076839840121
 21
304.1777818532671
 31
0.0
  0
LINE
  5
116F4
330
18
100
AcDbEntity
  8
01
  6
BYBLOCK
100
AcDbLine
 10
7477.076839840121
 20
304.1777818532671
 30
0.0
 11
7477.773507734121
 21
301.5777818532671
 31
0.0
  0
LINE
  5
116F5
330
18
100
AcDbEntity
  8
01
  6
BYBLOCK
100
AcDbLine
 10
7477.076839840121
 20
304.1777818532671
 30
0.0
 11
7477.076839840121
 21
301.5777818532671
 31
0.0
  0
LINE
  5
116F6
330
18
100
AcDbEntity
  8
01
  6
BYBLOCK
100
AcDbLine
 10
7477.773507734121
 20
232.7851543608748
 30
0.0
 11
7477.076839840121
 21
230.1851543608748
 31
0.0
  0
LINE
  5
116F7
330
18
100
AcDbEntity
  8
01
  6
BYBLOCK
100
AcDbLine
 10
7477.076839840121
 20
230.1851543608748
 30
0.0
 11
7476.380171946122
 21
232.7851543608748
 31
0.0
  0
LINE
  5
116F8
330
18
100
AcDbEntity
  8
01
  6
BYBLOCK
100
AcDbLine
 10
7477.076839840121
 20
230.1851543608748
 30
0.0
 11
7477.076839840121
 21
232.7851543608748
 31
0.0
  0
TEXT
  5
116F9
330
18
100
AcDbEntity
  8
01
  6
CONTINUOUS
100
AcDbText
 10
7476.166839840122
 20
285.1564984468932
 30
0.0
 40
4.55
  1
74
 50
90.0
100
AcDbText
1001
ACAD
1000
DSTYLE
1002
{
1070
    40
1040
1.3
1070
    45
1040
0.5
1002
}
  0
LINE
  5
116FA
330
18
100
AcDbEntity
  8
01
  6
BYBLOCK
100
AcDbLine
 10
7447.476839840121
 20
386.3831818076114
 30
0.0
 11
7450.076839840121
 21
385.6865139136114
 31
0.0
  0
LINE
  5
116FB
330
18
100
AcDbEntity
  8
01
  6
BYBLOCK
100
AcDbLine
 10
7450.076839840121
 20
385.6865139136114
 30
0.0
 11
7447.476839840121
 21
384.9898460196114
 31
0.0
  0
LINE
  5
116FC
330
18
100
AcDbEntity
  8
01
  6
BYBLOCK
100
AcDbLine
 10
7450.076839840121
 20
385.6865139136114
 30
0.0
 11
7447.476839840121
 21
385.6865139136114
 31
0.0
  0
LINE
  5
116FD
330
18
100
AcDbEntity
  8
01
  6
BYBLOCK
100
AcDbLine
 10
7383.676839840122
 20
384.9898460196114
 30
0.0
 11
7381.076839840121
 21
385.6865139136114
 31
0.0
  0
LINE
  5
116FE
330
18
100
AcDbEntity
  8
01
  6
BYBLOCK
100
AcDbLine
 10
7381.076839840121
 20
385.6865139136114
 30
0.0
 11
7383.676839840122
 21
386.3831818076114
 31
0.0
  0
LINE
  5
116FF
330
18
100
AcDbEntity
  8
01
  6
BYBLOCK
100
AcDbLine
 10
7381.076839840121
 20
385.6865139136114
 30
0.0
 11
7383.676839840122
 21
385.6865139136114
 31
0.0
  0
TEXT
  5
11700
330
18
100
AcDbEntity
  8
01
  6
CONTINUOUS
100
AcDbText
 10
7411.768321321603
 20
386.5965139136114
 30
0.0
 40
4.55
  1
69
100
AcDbText
1001
ACAD
1000
DSTYLE
1002
{
1070
    40
1040
1.3
1070
    45
1040
0.5
1002
}
  0
LINE
  5
11701
330
18
100
AcDbEntity
  8
01
  6
BYBLOCK
100
AcDbLine
 10
7383.676839840122
 20
374.9099785515633
 30
0.0
 11
7381.076839840121
 21
375.6066464455632
 31
0.0
  0
LINE
  5
11702
330
18
100
AcDbEntity
  8
01
  6
BYBLOCK
100
AcDbLine
 10
7381.076839840121
 20
375.6066464455632
 30
0.0
 11
7383.676839840122
 21
376.3033143395632
 31
0.0
  0
LINE
  5
11703
330
18
100
AcDbEntity
  8
01
  6
BYBLOCK
100
AcDbLine
 10
7381.076839840121
 20
375.6066464455632
 30
0.0
 11
7383.676839840122
 21
375.6066464455632
 31
0.0
  0
LINE
  5
11704
330
18
100
AcDbEntity
  8
01
  6
BYBLOCK
100
AcDbLine
 10
7429.476839840121
 20
376.3033143395632
 30
0.0
 11
7432.076839840121
 21
375.6066464455632
 31
0.0
  0
LINE
  5
11705
330
18
100
AcDbEntity
  8
01
  6
BYBLOCK
100
AcDbLine
 10
7432.076839840121
 20
375.6066464455632
 30
0.0
 11
7429.476839840121
 21
374.9099785515633
 31
0.0
  0
LINE
  5
11706
330
18
100
AcDbEntity
  8
01
  6
BYBLOCK
100
AcDbLine
 10
7432.076839840121
 20
375.6066464455632
 30
0.0
 11
7429.476839840121
 21
375.6066464455632
 31
0.0
  0
TEXT
  5
11707
330
18
100
AcDbEntity
  8
01
  6
CONTINUOUS
100
AcDbText
 10
7403.527707895677
 20
376.5166464455632
 30
0.0
 40
4.55
  1
51
100
AcDbText
1001
ACAD
1000
DSTYLE
1002
{
1070
    40
1040
1.3
1070
    45
1040
0.5
1002
}
  0
LINE
  5
11708
330
18
100
AcDbEntity
  8
01
  6
BYBLOCK
100
AcDbLine
 10
7346.241444861979
 20
321.5851543608745
 30
0.0
 11
7346.938112755979
 21
324.1851543608745
 31
0.0
  0
LINE
  5
11709
330
18
100
AcDbEntity
  8
01
  6
BYBLOCK
100
AcDbLine
 10
7346.938112755979
 20
324.1851543608745
 30
0.0
 11
7347.634780649979
 21
321.5851543608745
 31
0.0
  0
LINE
  5
1170A
330
18
100
AcDbEntity
  8
01
  6
BYBLOCK
100
AcDbLine
 10
7346.938112755979
 20
324.1851543608745
 30
0.0
 11
7346.938112755979
 21
321.5851543608745
 31
0.0
  0
LINE
  5
1170B
330
18
100
AcDbEntity
  8
01
  6
BYBLOCK
100
AcDbLine
 10
7347.634780649979
 20
212.7851543608745
 30
0.0
 11
7346.938112755979
 21
210.1851543608745
 31
0.0
  0
LINE
  5
1170C
330
18
100
AcDbEntity
  8
01
  6
BYBLOCK
100
AcDbLine
 10
7346.938112755979
 20
210.1851543608745
 30
0.0
 11
7346.241444861979
 21
212.7851543608745
 31
0.0
  0
LINE
  5
1170D
330
18
100
AcDbEntity
  8
01
  6
BYBLOCK
100
AcDbLine
 10
7346.938112755979
 20
210.1851543608745
 30
0.0
 11
7346.938112755979
 21
212.7851543608745
 31
0.0
  0
TEXT
  5
1170E
330
18
100
AcDbEntity
  8
01
  6
CONTINUOUS
100
AcDbText
 10
7346.028112755979
 20
291.7681767087961
 30
0.0
 40
4.55
  1
114
 50
90.0
100
AcDbText
1001
ACAD
1000
DSTYLE
1002
{
1070
    40
1040
1.3
1070
    45
1040
0.5
1002
}
  0
LINE
  5
1170F
330
18
100
AcDbEntity
  8
01
  6
BYBLOCK
100
AcDbLine
 10
7355.605779028204
 20
329.484709216458
 30
0.0
 11
7356.302446922204
 21
332.0847092164581
 31
0.0
  0
LINE
  5
11710
330
18
100
AcDbEntity
  8
01
  6
BYBLOCK
100
AcDbLine
 10
7356.302446922204
 20
332.0847092164581
 30
0.0
 11
7356.999114816203
 21
329.484709216458
 31
0.0
  0
LINE
  5
11711
330
18
100
AcDbEntity
  8
01
  6
BYBLOCK
100
AcDbLine
 10
7356.302446922204
 20
332.0847092164581
 30
0.0
 11
7356.302446922204
 21
329.484709216458
 31
0.0
  0
LINE
  5
11712
330
18
100
AcDbEntity
  8
01
  6
BYBLOCK
100
AcDbLine
 10
7356.999114816203
 20
204.8851543608747
 30
0.0
 11
7356.302446922204
 21
202.2851543608747
 31
0.0
  0
LINE
  5
11713
330
18
100
AcDbEntity
  8
01
  6
BYBLOCK
100
AcDbLine
 10
7356.302446922204
 20
202.2851543608747
 30
0.0
 11
7355.605779028204
 21
204.8851543608747
 31
0.0
  0
LINE
  5
11714
330
18
100
AcDbEntity
  8
01
  6
BYBLOCK
100
AcDbLine
 10
7356.302446922204
 20
202.2851543608747
 30
0.0
 11
7356.302446922204
 21
204.8851543608747
 31
0.0
  0
TEXT
  5
11715
330
18
100
AcDbEntity
  8
01
  6
CONTINUOUS
100
AcDbText
 10
7355.392446922203
 20
290.9836127059889
 30
0.0
 40
4.55
  1
130
 50
90.0
100
AcDbText
1001
ACAD
1000
DSTYLE
1002
{
1070
    40
1040
1.3
1070
    45
1040
0.5
1002
}
  0
LINE
  5
11716
330
18
100
AcDbEntity
  8
01
  6
BYBLOCK
100
AcDbLine
 10
7252.176956179866
 20
374.909978551563
 30
0.0
 11
7249.576956179866
 21
375.606646445563
 31
0.0
  0
LINE
  5
11717
330
18
100
AcDbEntity
  8
01
  6
BYBLOCK
100
AcDbLine
 10
7249.576956179866
 20
375.606646445563
 30
0.0
 11
7252.176956179866
 21
376.303314339563
 31
0.0
  0
LINE
  5
11718
330
18
100
AcDbEntity
  8
01
  6
BYBLOCK
100
AcDbLine
 10
7249.576956179866
 20
375.606646445563
 30
0.0
 11
7252.176956179866
 21
375.606646445563
 31
0.0
  0
LINE
  5
11719
330
18
100
AcDbEntity
  8
01
  6
BYBLOCK
100
AcDbLine
 10
7271.976956179866
 20
376.303314339563
 30
0.0
 11
7274.576956179866
 21
375.606646445563
 31
0.0
  0
LINE
  5
1171A
330
18
100
AcDbEntity
  8
01
  6
BYBLOCK
100
AcDbLine
 10
7274.576956179866
 20
375.606646445563
 30
0.0
 11
7271.976956179866
 21
374.909978551563
 31
0.0
  0
LINE
  5
1171B
330
18
100
AcDbEntity
  8
01
  6
BYBLOCK
100
AcDbLine
 10
7274.576956179866
 20
375.606646445563
 30
0.0
 11
7271.976956179866
 21
375.606646445563
 31
0.0
  0
TEXT
  5
1171C
330
18
100
AcDbEntity
  8
01
  6
CONTINUOUS
100
AcDbText
 10
7258.285289513199
 20
376.516646445563
 30
0.0
 40
4.55
  1
25
100
AcDbText
1001
ACAD
1000
DSTYLE
1002
{
1070
    40
1040
1.3
1070
    45
1040
0.5
1002
}
  0
LINE
  5
1171D
330
18
100
AcDbEntity
  8
1DIM
100
AcDbLine
 10
7062.076960179866
 20
246.1851543608755
 30
0.0
 11
7047.083107777577
 21
246.1851543608755
 31
0.0
1001
ACAD
1000
DSTYLE
1002
{
1070
    40
1040
1.3
1070
    45
1040
0.5
1070
   341
1005
0
1002
}
  0
LINE
  5
1171E
330
18
100
AcDbEntity
  8
1DIM
100
AcDbLine
 10
7069.576952179867
 20
301.6851543608757
 30
0.0
 11
7047.083107777577
 21
301.6851543608757
 31
0.0
1001
ACAD
1000
DSTYLE
1002
{
1070
    40
1040
1.3
1070
    45
1040
0.5
1070
   341
1005
0
1002
}
  0
LINE
  5
1171F
330
18
100
AcDbEntity
  8
1DIM
100
AcDbLine
 10
7048.383107777578
 20
248.7851543608755
 30
0.0
 11
7048.383107777578
 21
299.0851543608757
 31
0.0
1001
ACAD
1000
DSTYLE
1002
{
1070
    40
1040
1.3
1070
    45
1040
0.5
1070
   341
1005
0
1002
}
  0
SOLID
  5
11723
330
18
100
AcDbEntity
  8
1DIM
100
AcDbTrace
 10
7429.446689194868
 20
470.1343973059314
 30
0.0000000000563712
 11
7431.817441080182
 21
471.2864881339717
 31
0.0000000000563712
 12
7429.94848902479
 22
469.4277799824802
 32
0.0000000000563712
 13
7429.94848902479
 23
469.4277799824802
 33
0.0000000000563712
1001
ACAD
1000
DSTYLE
1002
{
1070
    40
1040
1.3
1070
    45
1040
0.5
1002
}
  0
LINE
  5
11724
330
18
100
AcDbEntity
  8
1DIM
100
AcDbLine
 10
7429.697589109828
 20
469.7810886442058
 30
0.0000000000563712
 11
7402.230000933139
 21
450.2751543598466
 31
0.0000000000563712
1001
ACAD
1000
DSTYLE
1002
{
1070
    40
1040
1.3
1070
    45
1040
0.5
1002
}
  0
LINE
  5
11725
330
18
100
AcDbEntity
  8
1DIM
100
AcDbLine
 10
7448.477724022181
 20
525.6851543598466
 30
0.0
 11
7469.038114781894
 21
525.6851543598466
 31
0.0
1001
ACAD
1000
DSTYLE
1002
{
1070
    45
1040
0.5
1070
    40
1040
1.3
1002
}
  0
LINE
  5
11726
330
18
100
AcDbEntity
  8
1DIM
100
AcDbLine
 10
7450.077724022181
 20
506.8851543598466
 30
0.0
 11
7469.038114781894
 21
506.8851543598466
 31
0.0
1001
ACAD
1000
DSTYLE
1002
{
1070
    45
1040
0.5
1070
    40
1040
1.3
1002
}
  0
LINE
  5
11727
330
18
100
AcDbEntity
  8
1DIM
100
AcDbLine
 10
7467.738114781894
 20
523.0851543598466
 30
0.0
 11
7467.738114781894
 21
509.4851543598467
 31
0.0
1001
ACAD
1000
DSTYLE
1002
{
1070
    45
1040
0.5
1070
    40
1040
1.3
1002
}
  0
LINE
  5
1172B
330
18
100
AcDbEntity
  8
1DIM
100
AcDbLine
 10
7550.160691017014
 20
455.1844308815091
 30
0.0000000001127424
 11
7588.376839840122
 21
455.1844308815091
 31
0.0000000001127424
1001
ACAD
1000
DSTYLE
1002
{
1070
    40
1040
1.3
1070
    45
1040
0.5
1002
}
  0
LINE
  5
1172C
330
18
100
AcDbEntity
  8
1DIM
100
AcDbLine
 10
7534.83198783747
 20
496.1851543608757
 30
0.0000000001127424
 11
7588.376839840122
 21
496.1851543608756
 31
0.0000000001127424
1001
ACAD
1000
DSTYLE
1002
{
1070
    40
1040
1.3
1070
    45
1040
0.5
1002
}
  0
LINE
  5
1172D
330
18
100
AcDbEntity
  8
1DIM
100
AcDbLine
 10
7587.076839840121
 20
457.7844308815091
 30
0.0000000001127424
 11
7587.076839840121
 21
493.5851543608756
 31
0.0000000001127424
1001
ACAD
1000
DSTYLE
1002
{
1070
    40
1040
1.3
1070
    45
1040
0.5
1002
}
  0
LINE
  5
11731
330
18
100
AcDbEntity
  8
1DIM
100
AcDbLine
 10
7550.160691017029
 20
430.1641929045111
 30
0.0000000001127424
 11
7598.376839840122
 21
430.164192904511
 31
0.0000000001127424
1001
ACAD
1000
DSTYLE
1002
{
1070
    40
1040
1.3
1070
    45
1040
0.5
1002
}
  0
LINE
  5
11732
330
18
100
AcDbEntity
  8
1DIM
100
AcDbLine
 10
7534.83198783747
 20
496.1851543608757
 30
0.0000000001127424
 11
7598.376839840122
 21
496.1851543608756
 31
0.0000000001127424
1001
ACAD
1000
DSTYLE
1002
{
1070
    40
1040
1.3
1070
    45
1040
0.5
1002
}
  0
LINE
  5
11733
330
18
100
AcDbEntity
  8
1DIM
100
AcDbLine
 10
7597.076839840121
 20
432.764192904511
 30
0.0000000001127424
 11
7597.076839840121
 21
493.5851543608756
 31
0.0000000001127424
1001
ACAD
1000
DSTYLE
1002
{
1070
    40
1040
1.3
1070
    45
1040
0.5
1002
}
  0
LINE
  5
11737
330
18
100
AcDbEntity
  8
1DIM
100
AcDbLine
 10
7550.179251525979
 20
238.4550446611208
 30
0.0
 11
7588.376839840122
 21
238.4550446611208
 31
0.0
1001
ACAD
1000
DSTYLE
1002
{
1070
    40
1040
1.3
1070
    45
1040
0.5
1002
}
  0
LINE
  5
11738
330
18
100
AcDbEntity
  8
1DIM
100
AcDbLine
 10
7550.179251525979
 20
253.9179006868178
 30
0.0
 11
7588.376839840122
 21
253.9179006868178
 31
0.0
1001
ACAD
1000
DSTYLE
1002
{
1070
    40
1040
1.3
1070
    45
1040
0.5
1002
}
  0
LINE
  5
11739
330
18
100
AcDbEntity
  8
1DIM
100
AcDbLine
 10
7587.076839840121
 20
241.0550446611208
 30
0.0
 11
7587.076839840121
 21
251.3179006868178
 31
0.0
1001
ACAD
1000
DSTYLE
1002
{
1070
    40
1040
1.3
1070
    45
1040
0.5
1002
}
  0
LINE
  5
1173D
330
18
100
AcDbEntity
  8
1DIM
100
AcDbLine
 10
7405.576839840125
 20
268.6864726739784
 30
0.0
 11
7393.727939669513
 21
268.6864726739784
 31
0.0
1001
ACAD
1000
DSTYLE
1002
{
1070
    40
1040
1.3
1002
}
  0
LINE
  5
1173E
330
18
100
AcDbEntity
  8
1DIM
100
AcDbLine
 10
7405.576839840125
 20
223.6864726739784
 30
0.0
 11
7393.727939669513
 21
223.6864726739784
 31
0.0
1001
ACAD
1000
DSTYLE
1002
{
1070
    40
1040
1.3
1002
}
  0
LINE
  5
1173F
330
18
100
AcDbEntity
  8
1DIM
100
AcDbLine
 10
7395.027939669513
 20
266.0864726739784
 30
0.0
 11
7395.027939669513
 21
226.2864726739784
 31
0.0
1001
ACAD
1000
DSTYLE
1002
{
1070
    40
1040
1.3
1002
}
  0
LINE
  5
11743
330
18
100
AcDbEntity
  8
1DIM
100
AcDbLine
 10
7405.576839840125
 20
224.1864726739784
 30
0.0
 11
7405.576839840125
 21
202.2229605246725
 31
0.0
1001
ACAD
1000
DSTYLE
1002
{
1070
    40
1040
1.3
1002
}
  0
LINE
  5
11744
330
18
100
AcDbEntity
  8
1DIM
100
AcDbLine
 10
7505.576839840125
 20
224.1864726739784
 30
0.0
 11
7505.576839840125
 21
202.2229605246725
 31
0.0
1001
ACAD
1000
DSTYLE
1002
{
1070
    40
1040
1.3
1002
}
  0
LINE
  5
11745
330
18
100
AcDbEntity
  8
1DIM
100
AcDbLine
 10
7408.176839840125
 20
203.5229605246725
 30
0.0
 11
7502.976839840125
 21
203.5229605246725
 31
0.0
1001
ACAD
1000
DSTYLE
1002
{
1070
    40
1040
1.3
1002
}
  0
LINE
  5
11749
330
18
100
AcDbEntity
  8
1DIM
100
AcDbLine
 10
7420.4268163953
 20
487.1851543608757
 30
0.0000000001127424
 11
7420.4268163953
 21
399.8851543608757
 31
0.0000000001127424
1001
ACAD
1000
DSTYLE
1002
{
1070
    40
1040
1.3
1070
    45
1040
0.5
1002
}
  0
LINE
  5
1174A
330
18
100
AcDbEntity
  8
1DIM
100
AcDbLine
 10
7551.778588003788
 20
442.6743118926427
 30
0.0000000001127424
 11
7551.778588003788
 21
399.8851543608757
 31
0.0000000001127424
1001
ACAD
1000
DSTYLE
1002
{
1070
    40
1040
1.3
1070
    45
1040
0.5
1002
}
  0
LINE
  5
1174B
330
18
100
AcDbEntity
  8
1DIM
100
AcDbLine
 10
7423.026816395301
 20
401.1851543608757
 30
0.0000000001127424
 11
7549.178588003788
 21
401.1851543608757
 31
0.0000000001127424
1001
ACAD
1000
DSTYLE
1002
{
1070
    40
1040
1.3
1070
    45
1040
0.5
1002
}
  0
LINE
  5
1174F
330
18
100
AcDbEntity
  8
1DIM
100
AcDbLine
 10
7432.076839840121
 20
474.6851543608757
 30
0.0
 11
7432.076839840121
 21
411.1493238597813
 31
0.0
1001
ACAD
1000
DSTYLE
1002
{
1070
    40
1040
1.3
1070
   271
1070
     0
1002
}
  0
LINE
  5
11750
330
18
100
AcDbEntity
  8
1DIM
100
AcDbLine
 10
7551.778588003788
 20
442.6743118926427
 30
0.0
 11
7551.778588003788
 21
411.1493238597813
 31
0.0
1001
ACAD
1000
DSTYLE
1002
{
1070
    40
1040
1.3
1070
   271
1070
     0
1002
}
  0
LINE
  5
11751
330
18
100
AcDbEntity
  8
1DIM
100
AcDbLine
 10
7434.676839840122
 20
412.4493238597813
 30
0.0
 11
7549.178588003788
 21
412.4493238597813
 31
0.0
1001
ACAD
1000
DSTYLE
1002
{
1070
    40
1040
1.3
1070
   271
1070
     0
1002
}
  0
LINE
  5
11755
330
18
100
AcDbEntity
  8
0
  6
BYBLOCK
100
AcDbLine
 10
7049.079775671577
 20
248.7851543608755
 30
0.0
 11
7048.383107777578
 21
246.1851543608755
 31
0.0
  0
LINE
  5
11756
330
18
100
AcDbEntity
  8
0
  6
BYBLOCK
100
AcDbLine
 10
7048.383107777578
 20
246.1851543608755
 30
0.0
 11
7047.686439883578
 21
248.7851543608755
 31
0.0
  0
LINE
  5
11757
330
18
100
AcDbEntity
  8
0
  6
BYBLOCK
100
AcDbLine
 10
7048.383107777578
 20
246.1851543608755
 30
0.0
 11
7048.383107777578
 21
248.7851543608755
 31
0.0
  0
LINE
  5
11758
330
18
100
AcDbEntity
  8
0
  6
BYBLOCK
100
AcDbLine
 10
7047.686439883578
 20
299.0851543608757
 30
0.0
 11
7048.383107777578
 21
301.6851543608757
 31
0.0
  0
LINE
  5
11759
330
18
100
AcDbEntity
  8
0
  6
BYBLOCK
100
AcDbLine
 10
7048.383107777578
 20
301.6851543608757
 30
0.0
 11
7049.079775671577
 21
299.0851543608757
 31
0.0
  0
LINE
  5
1175A
330
18
100
AcDbEntity
  8
0
  6
BYBLOCK
100
AcDbLine
 10
7048.383107777578
 20
301.6851543608757
 30
0.0
 11
7048.383107777578
 21
299.0851543608757
 31
0.0
  0
TEXT
  5
1175B
330
18
100
AcDbEntity
  8
1DIM
  6
CONTINUOUS
100
AcDbText
 10
7047.473107777578
 20
267.0785571386541
 30
0.0
 40
4.55
  1
55.5
 50
90.0
100
AcDbText
1001
ACAD
1000
DSTYLE
1002
{
1070
    40
1040
1.3
1070
    45
1040
0.5
1070
   341
1005
0
1002
}
  0
LINE
  5
1175C
330
18
100
AcDbEntity
  8
0
  6
BYBLOCK
100
AcDbLine
 10
7467.041446887894
 20
523.0851543598466
 30
0.0
 11
7467.738114781894
 21
525.6851543598466
 31
0.0
  0
LINE
  5
1175D
330
18
100
AcDbEntity
  8
0
  6
BYBLOCK
100
AcDbLine
 10
7467.738114781894
 20
525.6851543598466
 30
0.0
 11
7468.434782675894
 21
523.0851543598466
 31
0.0
  0
LINE
  5
1175E
330
18
100
AcDbEntity
  8
0
  6
BYBLOCK
100
AcDbLine
 10
7467.738114781894
 20
525.6851543598466
 30
0.0
 11
7467.738114781894
 21
523.0851543598466
 31
0.0
  0
LINE
  5
1175F
330
18
100
AcDbEntity
  8
0
  6
BYBLOCK
100
AcDbLine
 10
7468.434782675894
 20
509.4851543598467
 30
0.0
 11
7467.738114781894
 21
506.8851543598466
 31
0.0
  0
LINE
  5
11760
330
18
100
AcDbEntity
  8
0
  6
BYBLOCK
100
AcDbLine
 10
7467.738114781894
 20
506.8851543598466
 30
0.0
 11
7467.041446887894
 21
509.4851543598467
 31
0.0
  0
LINE
  5
11761
330
18
100
AcDbEntity
  8
0
  6
BYBLOCK
100
AcDbLine
 10
7467.738114781894
 20
506.8851543598466
 30
0.0
 11
7467.738114781894
 21
509.4851543598467
 31
0.0
  0
TEXT
  5
11762
330
18
100
AcDbEntity
  8
1DIM
  6
CONTINUOUS
100
AcDbText
 10
7466.828114781894
 20
513.250767785772
 30
0.0
 40
4.55
  1
19
 50
90.0
100
AcDbText
1001
ACAD
1000
DSTYLE
1002
{
1070
    45
1040
0.5
1070
    40
1040
1.3
1002
}
  0
LINE
  5
11763
330
18
100
AcDbEntity
  8
0
  6
BYBLOCK
100
AcDbLine
 10
7587.773507734121
 20
457.7844308815091
 30
0.0000000001127424
 11
7587.076839840121
 21
455.1844308815091
 31
0.0000000001127424
  0
LINE
  5
11764
330
18
100
AcDbEntity
  8
0
  6
BYBLOCK
100
AcDbLine
 10
7587.076839840121
 20
455.1844308815091
 30
0.0000000001127424
 11
7586.380171946122
 21
457.7844308815091
 31
0.0000000001127424
  0
LINE
  5
11765
330
18
100
AcDbEntity
  8
0
  6
BYBLOCK
100
AcDbLine
 10
7587.076839840121
 20
455.1844308815091
 30
0.0000000001127424
 11
7587.076839840121
 21
457.7844308815091
 31
0.0000000001127424
  0
LINE
  5
11766
330
18
100
AcDbEntity
  8
0
  6
BYBLOCK
100
AcDbLine
 10
7586.380171946122
 20
493.5851543608756
 30
0.0000000001127424
 11
7587.076839840121
 21
496.1851543608756
 31
0.0000000001127424
  0
LINE
  5
11767
330
18
100
AcDbEntity
  8
0
  6
BYBLOCK
100
AcDbLine
 10
7587.076839840121
 20
496.1851543608756
 30
0.0000000001127424
 11
7587.773507734121
 21
493.5851543608756
 31
0.0000000001127424
  0
LINE
  5
11768
330
18
100
AcDbEntity
  8
0
  6
BYBLOCK
100
AcDbLine
 10
7587.076839840121
 20
496.1851543608756
 30
0.0000000001127424
 11
7587.076839840121
 21
493.5851543608756
 31
0.0000000001127424
  0
TEXT
  5
11769
330
18
100
AcDbEntity
  8
1DIM
  6
CONTINUOUS
100
AcDbText
 10
7586.166839840121
 20
472.6514592878602
 30
0.0000000001127424
 40
4.55
  1
41
 50
90.0
100
AcDbText
1001
ACAD
1000
DSTYLE
1002
{
1070
    40
1040
1.3
1070
    45
1040
0.5
1002
}
  0
LINE
  5
1176A
330
18
100
AcDbEntity
  8
0
  6
BYBLOCK
100
AcDbLine
 10
7597.773507734121
 20
432.764192904511
 30
0.0000000001127424
 11
7597.076839840121
 21
430.164192904511
 31
0.0000000001127424
  0
LINE
  5
1176B
330
18
100
AcDbEntity
  8
0
  6
BYBLOCK
100
AcDbLine
 10
7597.076839840121
 20
430.164192904511
 30
0.0000000001127424
 11
7596.380171946122
 21
432.764192904511
 31
0.0000000001127424
  0
LINE
  5
1176C
330
18
100
AcDbEntity
  8
0
  6
BYBLOCK
100
AcDbLine
 10
7597.076839840121
 20
430.164192904511
 30
0.0000000001127424
 11
7597.076839840121
 21
432.764192904511
 31
0.0000000001127424
  0
LINE
  5
1176D
330
18
100
AcDbEntity
  8
0
  6
BYBLOCK
100
AcDbLine
 10
7596.380171946122
 20
493.5851543608756
 30
0.0000000001127424
 11
7597.076839840121
 21
496.1851543608756
 31
0.0000000001127424
  0
LINE
  5
1176E
330
18
100
AcDbEntity
  8
0
  6
BYBLOCK
100
AcDbLine
 10
7597.076839840121
 20
496.1851543608756
 30
0.0000000001127424
 11
7597.773507734121
 21
493.5851543608756
 31
0.0000000001127424
  0
LINE
  5
1176F
330
18
100
AcDbEntity
  8
0
  6
BYBLOCK
100
AcDbLine
 10
7597.076839840121
 20
496.1851543608756
 30
0.0000000001127424
 11
7597.076839840121
 21
493.5851543608756
 31
0.0000000001127424
  0
TEXT
  5
11770
330
18
100
AcDbEntity
  8
1DIM
  6
CONTINUOUS
100
AcDbText
 10
7596.166839840121
 20
459.3672083549172
 30
0.0000000001127424
 40
4.55
  1
66
 50
90.0
100
AcDbText
1001
ACAD
1000
DSTYLE
1002
{
1070
    40
1040
1.3
1070
    45
1040
0.5
1002
}
  0
LINE
  5
11771
330
18
100
AcDbEntity
  8
0
  6
BYBLOCK
100
AcDbLine
 10
7587.773507734121
 20
241.0550446611208
 30
0.0
 11
7587.076839840121
 21
238.4550446611208
 31
0.0
  0
LINE
  5
11772
330
18
100
AcDbEntity
  8
0
  6
BYBLOCK
100
AcDbLine
 10
7587.076839840121
 20
238.4550446611208
 30
0.0
 11
7586.380171946122
 21
241.0550446611208
 31
0.0
  0
LINE
  5
11773
330
18
100
AcDbEntity
  8
0
  6
BYBLOCK
100
AcDbLine
 10
7587.076839840121
 20
238.4550446611208
 30
0.0
 11
7587.076839840121
 21
241.0550446611208
 31
0.0
  0
LINE
  5
11774
330
18
100
AcDbEntity
  8
0
  6
BYBLOCK
100
AcDbLine
 10
7586.380171946122
 20
251.3179006868178
 30
0.0
 11
7587.076839840121
 21
253.9179006868178
 31
0.0
  0
LINE
  5
11775
330
18
100
AcDbEntity
  8
0
  6
BYBLOCK
100
AcDbLine
 10
7587.076839840121
 20
253.9179006868178
 30
0.0
 11
7587.773507734121
 21
251.3179006868178
 31
0.0
  0
LINE
  5
11776
330
18
100
AcDbEntity
  8
0
  6
BYBLOCK
100
AcDbLine
 10
7587.076839840121
 20
253.9179006868178
 30
0.0
 11
7587.076839840121
 21
251.3179006868178
 31
0.0
  0
TEXT
  5
11777
330
18
100
AcDbEntity
  8
1DIM
  6
CONTINUOUS
100
AcDbText
 10
7586.166839840122
 20
240.1040073961931
 30
0.0
 40
4.55
  1
15.5
 50
90.0
100
AcDbText
1001
ACAD
1000
DSTYLE
1002
{
1070
    40
1040
1.3
1070
    45
1040
0.5
1002
}
  0
LINE
  5
11778
330
18
100
AcDbEntity
  8
0
  6
BYBLOCK
100
AcDbLine
 10
7394.331271775513
 20
266.0864726739784
 30
0.0
 11
7395.027939669513
 21
268.6864726739784
 31
0.0
  0
LINE
  5
11779
330
18
100
AcDbEntity
  8
0
  6
BYBLOCK
100
AcDbLine
 10
7395.027939669513
 20
268.6864726739784
 30
0.0
 11
7395.724607563513
 21
266.0864726739784
 31
0.0
  0
LINE
  5
1177A
330
18
100
AcDbEntity
  8
0
  6
BYBLOCK
100
AcDbLine
 10
7395.027939669513
 20
268.6864726739784
 30
0.0
 11
7395.027939669513
 21
266.0864726739784
 31
0.0
  0
LINE
  5
1177B
330
18
100
AcDbEntity
  8
0
  6
BYBLOCK
100
AcDbLine
 10
7395.724607563513
 20
226.2864726739784
 30
0.0
 11
7395.027939669513
 21
223.6864726739784
 31
0.0
  0
LINE
  5
1177C
330
18
100
AcDbEntity
  8
0
  6
BYBLOCK
100
AcDbLine
 10
7395.027939669513
 20
223.6864726739784
 30
0.0
 11
7394.331271775513
 21
226.2864726739784
 31
0.0
  0
LINE
  5
1177D
330
18
100
AcDbEntity
  8
0
  6
BYBLOCK
100
AcDbLine
 10
7395.027939669513
 20
223.6864726739784
 30
0.0
 11
7395.027939669513
 21
226.2864726739784
 31
0.0
  0
TEXT
  5
1177E
330
18
100
AcDbEntity
  8
1DIM
  6
CONTINUOUS
100
AcDbText
 10
7394.117939669512
 20
242.3948060073108
 30
0.0
 40
4.55
  1
45
 50
90.0
100
AcDbText
1001
ACAD
1000
DSTYLE
1002
{
1070
    40
1040
1.3
1002
}
  0
LINE
  5
1177F
330
18
100
AcDbEntity
  8
0
  6
BYBLOCK
100
AcDbLine
 10
7408.176839840125
 20
202.8262926306725
 30
0.0
 11
7405.576839840125
 21
203.5229605246725
 31
0.0
  0
LINE
  5
11780
330
18
100
AcDbEntity
  8
0
  6
BYBLOCK
100
AcDbLine
 10
7405.576839840125
 20
203.5229605246725
 30
0.0
 11
7408.176839840125
 21
204.2196284186725
 31
0.0
  0
LINE
  5
11781
330
18
100
AcDbEntity
  8
0
  6
BYBLOCK
100
AcDbLine
 10
7405.576839840125
 20
203.5229605246725
 30
0.0
 11
7408.176839840125
 21
203.5229605246725
 31
0.0
  0
LINE
  5
11782
330
18
100
AcDbEntity
  8
0
  6
BYBLOCK
100
AcDbLine
 10
7502.976839840125
 20
204.2196284186725
 30
0.0
 11
7505.576839840125
 21
203.5229605246725
 31
0.0
  0
LINE
  5
11783
330
18
100
AcDbEntity
  8
0
  6
BYBLOCK
100
AcDbLine
 10
7505.576839840125
 20
203.5229605246725
 30
0.0
 11
7502.976839840125
 21
202.8262926306725
 31
0.0
  0
LINE
  5
11784
330
18
100
AcDbEntity
  8
0
  6
BYBLOCK
100
AcDbLine
 10
7505.576839840125
 20
203.5229605246725
 30
0.0
 11
7502.976839840125
 21
203.5229605246725
 31
0.0
  0
TEXT
  5
11785
330
18
100
AcDbEntity
  8
1DIM
  6
CONTINUOUS
100
AcDbText
 10
7450.932048173458
 20
204.4329605246725
 30
0.0
 40
4.55
  1
100
100
AcDbText
1001
ACAD
1000
DSTYLE
1002
{
1070
    40
1040
1.3
1002
}
  0
LINE
  5
11786
330
18
100
AcDbEntity
  8
0
  6
BYBLOCK
100
AcDbLine
 10
7423.026816395301
 20
400.4884864668757
 30
0.0000000001127424
 11
7420.4268163953
 21
401.1851543608757
 31
0.0000000001127424
  0
LINE
  5
11787
330
18
100
AcDbEntity
  8
0
  6
BYBLOCK
100
AcDbLine
 10
7420.4268163953
 20
401.1851543608757
 30
0.0000000001127424
 11
7423.026816395301
 21
401.8818222548757
 31
0.0000000001127424
  0
LINE
  5
11788
330
18
100
AcDbEntity
  8
0
  6
BYBLOCK
100
AcDbLine
 10
7420.4268163953
 20
401.1851543608757
 30
0.0000000001127424
 11
7423.026816395301
 21
401.1851543608757
 31
0.0000000001127424
  0
LINE
  5
11789
330
18
100
AcDbEntity
  8
0
  6
BYBLOCK
100
AcDbLine
 10
7549.178588003788
 20
401.8818222548757
 30
0.0000000001127424
 11
7551.778588003788
 21
401.1851543608757
 31
0.0000000001127424
  0
LINE
  5
1178A
330
18
100
AcDbEntity
  8
0
  6
BYBLOCK
100
AcDbLine
 10
7551.778588003788
 20
401.1851543608757
 30
0.0000000001127424
 11
7549.178588003788
 21
400.4884864668757
 31
0.0000000001127424
  0
LINE
  5
1178B
330
18
100
AcDbEntity
  8
0
  6
BYBLOCK
100
AcDbLine
 10
7551.778588003788
 20
401.1851543608757
 30
0.0000000001127424
 11
7549.178588003788
 21
401.1851543608757
 31
0.0000000001127424
  0
TEXT
  5
1178C
330
18
100
AcDbEntity
  8
1DIM
  6
CONTINUOUS
100
AcDbText
 10
7481.552702199544
 20
402.0951543608757
 30
0.0000000001127424
 40
4.55
  1
131
100
AcDbText
1001
ACAD
1000
DSTYLE
1002
{
1070
    40
1040
1.3
1070
    45
1040
0.5
1002
}
  0
LINE
  5
1178D
330
18
100
AcDbEntity
  8
0
  6
BYBLOCK
100
AcDbLine
 10
7434.676839840122
 20
411.7526559657813
 30
0.0
 11
7432.076839840121
 21
412.4493238597813
 31
0.0
  0
LINE
  5
1178E
330
18
100
AcDbEntity
  8
0
  6
BYBLOCK
100
AcDbLine
 10
7432.076839840121
 20
412.4493238597813
 30
0.0
 11
7434.676839840122
 21
413.1459917537813
 31
0.0
  0
LINE
  5
1178F
330
18
100
AcDbEntity
  8
0
  6
BYBLOCK
100
AcDbLine
 10
7432.076839840121
 20
412.4493238597813
 30
0.0
 11
7434.676839840122
 21
412.4493238597813
 31
0.0
  0
LINE
  5
11790
330
18
100
AcDbEntity
  8
0
  6
BYBLOCK
100
AcDbLine
 10
7549.178588003788
 20
413.1459917537813
 30
0.0
 11
7551.778588003788
 21
412.4493238597813
 31
0.0
  0
LINE
  5
11791
330
18
100
AcDbEntity
  8
0
  6
BYBLOCK
100
AcDbLine
 10
7551.778588003788
 20
412.4493238597813
 30
0.0
 11
7549.178588003788
 21
411.7526559657813
 31
0.0
  0
LINE
  5
11792
330
18
100
AcDbEntity
  8
0
  6
BYBLOCK
100
AcDbLine
 10
7551.778588003788
 20
412.4493238597813
 30
0.0
 11
7549.178588003788
 21
412.4493238597813
 31
0.0
  0
TEXT
  5
11793
330
18
100
AcDbEntity
  8
1DIM
  6
CONTINUOUS
100
AcDbText
 10
7486.903755588622
 20
413.3593238597813
 30
0.0
 40
4.55
  1
120
100
AcDbText
1001
ACAD
1000
DSTYLE
1002
{
1070
    40
1040
1.3
1070
   271
1070
     0
1002
}
  0
VIEWPORT
  5
57
330
15
100
AcDbEntity
 67
     1
  8
0
100
AcDbViewport
 68
     1
 10
0.0
 20
0.0
 30
0.0
 40
535.5106132075471
 41
296.9999999999999
 68
     1
 69
     1
1001
ACAD
1000
MVIEW
1002
{
1070
    16
1010
0.0
1020
0.0
1030
0.0
1010
0.0
1020
0.0
1030
1.0
1040
0.0
1040
296.9999999999999
1040
5.728000000000009
1040
25.339
1040
50.0
1040
0.0
1040
0.0
1070
    16
1070
   100
1070
     0
1070
     1
1070
     0
1070
     0
1070
     0
1070
     0
1040
0.0
1040
0.0
1040
0.0
1040
10.0
1040
10.0
1040
10.0
1040
10.0
1070
     0
1002
{
1002
}
1002
}
  0
ENDSEC
  0
SECTION
  2
OBJECTS
  0
DICTIONARY
  5
C
330
0
100
AcDbDictionary
  3
ACAD_CIP_PREVIOUS_PRODUCT_INFO
350
AEA8
  3
ACAD_COLOR
350
18D
  3
ACAD_GROUP
350
D
  3
ACAD_LAYOUT
350
18E
  3
ACAD_MATERIAL
350
18C
  3
ACAD_MLEADERSTYLE
350
9583
  3
ACAD_MLINESTYLE
350
1B
  3
ACAD_PLOTSETTINGS
350
18F
  3
ACAD_SCALELIST
350
9561
  3
ACAD_VISUALSTYLE
350
9550
  3
ACDBHEADERROUNDTRIPXREC
350
11794
  3
ACDBVARIABLEDICTIONARY
350
37
  3
CONTENTDICTIONARY
350
D8
  3
DRAWINGVARIABLESDICT
350
20
  3
DWGPROPS
350
11797
1001
ACAD
1000
TREAT_AS_HARD
1070
     0
  0
DICTIONARY
  5
96D9
330
2
100
AcDbDictionary
  3
ACAD_LAYERSTATES
360
96DA
1001
ACAD
1000
TREAT_AS_HARD
1070
     1
  0
DICTIONARY
  5
9593
330
E
100
AcDbDictionary
  3
ADSK_XREC_LAYER_RECONCILED
360
9594
1001
ACAD
1000
TREAT_AS_HARD
1070
     1
  0
DICTIONARY
  5
9595
330
29
100
AcDbDictionary
  3
ADSK_XREC_LAYER_RECONCILED
360
9596
1001
ACAD
1000
TREAT_AS_HARD
1070
     1
  0
DICTIONARY
  5
9597
330
31
100
AcDbDictionary
  3
ADSK_XREC_LAYER_RECONCILED
360
9598
1001
ACAD
1000
TREAT_AS_HARD
1070
     1
  0
DICTIONARY
  5
959D
330
243
100
AcDbDictionary
  3
ADSK_XREC_LAYER_RECONCILED
360
959E
1001
ACAD
1000
TREAT_AS_HARD
1070
     1
  0
DICTIONARY
  5
95A3
330
24E
100
AcDbDictionary
  3
ADSK_XREC_LAYER_RECONCILED
360
95A4
1001
ACAD
1000
TREAT_AS_HARD
1070
     1
  0
DICTIONARY
  5
95AF
330
2C05
100
AcDbDictionary
  3
ADSK_XREC_LAYER_RECONCILED
360
95B0
1001
ACAD
1000
TREAT_AS_HARD
1070
     1
  0
DICTIONARY
  5
88F
330
18
100
AcDbDictionary
  3
ACAD_SORTENTS
360
890
1001
ACAD
1000
TREAT_AS_HARD
1070
     1
  0
XRECORD
  5
AEA8
102
{ACAD_REACTORS
330
C
102
}
330
C
100
AcDbXrecord
300
ACDLT
300
2012
300
ACDLT_F_S
  0
DICTIONARY
  5
18D
102
{ACAD_REACTORS
330
C
102
}
330
C
100
AcDbDictionary
1001
ACAD
1000
TREAT_AS_HARD
1070
     0
  0
DICTIONARY
  5
D
102
{ACAD_REACTORS
330
C
102
}
330
C
100
AcDbDictionary
1001
ACAD
1000
TREAT_AS_HARD
1070
     0
  0
DICTIONARY
  5
18E
102
{ACAD_REACTORS
330
C
102
}
330
C
100
AcDbDictionary
1001
ACAD
1000
TREAT_AS_HARD
1070
     0
  0
DICTIONARY
  5
18C
102
{ACAD_REACTORS
330
C
102
}
330
C
100
AcDbDictionary
  3
BYBLOCK
350
9540
  3
BYLAYER
350
9538
  3
GLOBAL
350
9548
1001
ACAD
1000
TREAT_AS_HARD
1070
     0
  0
DICTIONARY
  5
9583
102
{ACAD_REACTORS
330
C
102
}
330
C
100
AcDbDictionary
  3
STANDARD
350
9584
1001
ACAD
1000
TREAT_AS_HARD
1070
     0
  0
DICTIONARY
  5
1B
102
{ACAD_REACTORS
330
C
102
}
330
C
100
AcDbDictionary
  3
STANDARD
350
1C
1001
ACAD
1000
TREAT_AS_HARD
1070
     0
  0
DICTIONARY
  5
18F
102
{ACAD_REACTORS
330
C
102
}
330
C
100
AcDbDictionary
1001
ACAD
1000
TREAT_AS_HARD
1070
     0
  0
DICTIONARY
  5
9561
102
{ACAD_REACTORS
330
C
102
}
330
C
100
AcDbDictionary
  3
A0
350
9562
  3
A1
350
9563
  3
A2
350
9564
  3
A3
350
9565
  3
A4
350
9566
  3
A5
350
9567
  3
A6
350
9568
  3
A7
350
9569
  3
A8
350
956A
  3
A9
350
956B
  3
B0
350
956C
  3
B1
350
956D
  3
B2
350
956E
  3
B3
350
956F
  3
B4
350
9570
  3
B5
350
9571
  3
B6
350
9572
  3
B7
350
9573
  3
B8
350
9574
  3
B9
350
9575
  3
C0
350
9576
  3
C1
350
9577
  3
C2
350
9578
  3
C3
350
9579
  3
C4
350
957A
  3
C5
350
957B
  3
C6
350
957C
  3
C7
350
957D
  3
C8
350
957E
  3
C9
350
957F
  3
D0
350
9580
  3
D1
350
9581
  3
D2
350
9582
1001
ACAD
1000
TREAT_AS_HARD
1070
     0
  0
DICTIONARY
  5
9550
102
{ACAD_REACTORS
330
C
102
}
330
C
100
AcDbDictionary
  3
2DWIREFRAME
350
9556
  3
3D_HIDDEN
350
9558
  3
3DWIREFRAME
350
9557
  3
BASIC
350
9555
  3
BRIGHTEN
350
955C
  3
COLORCHANGE
350
9560
  3
CONCEPTUAL
350
9559
  3
DIM
350
955B
  3
EDGECOLOROFF
350
A211
  3
FACEPATTERN
350
955F
  3
FLAT
350
9551
  3
FLATWITHEDGES
350
9552
  3
GOURAUD
350
9553
  3
GOURAUDWITHEDGES
350
9554
  3
HIDDEN
350
A260
  3
JITTEROFF
350
A20F
  3
LINEPATTERN
350
955E
  3
MODELING
350
A266
  3
OVERHANGOFF
350
A210
  3
REALISTIC
350
955A
  3
SHADED
350
A265
  3
SHADED_WITH_EDGES
350
A264
  3
SHADES_OF_GRAY
350
A261
  3
SKETCHY
350
A262
  3
THICKEN
350
955D
  3
WIREFRAME
350
A25F
  3
X-RAY
350
A263
1001
ACAD
1000
TREAT_AS_HARD
1070
     0
  0
DICTIONARY
  5
11794
102
{ACAD_REACTORS
330
C
102
}
330
C
100
AcDbDictionary
  3
COLORDICT
350
11795
  3
MATERIALDICT
350
11796
1001
ACAD
1000
TREAT_AS_HARD
1070
     0
  0
DICTIONARY
  5
37
102
{ACAD_REACTORS
330
C
102
}
330
C
100
AcDbDictionary
  3
CANNOSCALE
350
AAE0
  3
CMLEADERSTYLE
350
9627
  3
CTABLESTYLE
350
29E
  3
DIMADEC
350
38
  3
DIMASSOC
350
1CE
  3
HIDETEXT
350
704E
  3
INDEXCTL
350
962A
  3
INTERSECTIONCOLOR
350
7052
  3
INTERSECTIONDISPLAY
350
7051
  3
MSLTSCALE
350
AB30
  3
OBSCOLOR
350
704F
  3
OBSLTYPE
350
7050
  3
PROJECTNAME
350
1CF
  3
SORTENTS
350
9629
  3
XCLIPFRAME
350
115E5
1001
ACAD
1000
TREAT_AS_HARD
1070
     0
  0
DICTIONARY
  5
D8
102
{ACAD_REACTORS
330
C
102
}
330
C
100
AcDbDictionary
1001
ACAD
1000
TREAT_AS_HARD
1070
     0
  0
DICTIONARY
  5
20
102
{ACAD_REACTORS
330
C
102
}
330
C
100
AcDbDictionary
1001
DRAWINGVARIABLESXDATA
1000
POLARANG
1000
0.261799387799149410000000
1000
POLARMODE
1000
1
1000
POLARSTYLE
1000
1
1001
ACAD
1000
TREAT_AS_HARD
1070
     0
  0
XRECORD
  5
11797
102
{ACAD_REACTORS
330
C
102
}
330
C
100
AcDbXrecord
  1
DWGPROPS COOKIE
  2

  3

  4

  6

  7

  8
3684
  9

300
=
301
=
302
=
303
=
304
=
305
=
306
=
307
=
308
=
309
=
 40
0.0
 41
2451318.246352917
 42
2458967.197081551
  1

 90
        0
  0
DICTIONARY
  5
96DA
102
{ACAD_REACTORS
330
96D9
102
}
330
96D9
100
AcDbDictionary
1001
ACAD
1000
TREAT_AS_HARD
1070
     0
  0
ACAD_PROXY_OBJECT
  5
9594
102
{ACAD_REACTORS
330
9593
102
}
330
9593
100
AcDbZombieObject
 90
      499
 91
      514
 93
       34
310
40C8804040
  0
ACAD_PROXY_OBJECT
  5
9596
102
{ACAD_REACTORS
330
9595
102
}
330
9595
100
AcDbZombieObject
 90
      499
 91
      514
 93
       34
310
40C8804040
  0
ACAD_PROXY_OBJECT
  5
9598
102
{ACAD_REACTORS
330
9597
102
}
330
9597
100
AcDbZombieObject
 90
      499
 91
      514
 93
       34
310
40C8804040
  0
ACAD_PROXY_OBJECT
  5
959E
102
{ACAD_REACTORS
330
959D
102
}
330
959D
100
AcDbZombieObject
 90
      499
 91
      514
 93
       34
310
40C8804040
  0
ACAD_PROXY_OBJECT
  5
95A4
102
{ACAD_REACTORS
330
95A3
102
}
330
95A3
100
AcDbZombieObject
 90
      499
 91
      514
 93
       34
310
40C8804040
  0
ACAD_PROXY_OBJECT
  5
95B0
102
{ACAD_REACTORS
330
95AF
102
}
330
95AF
100
AcDbZombieObject
 90
      499
 91
      514
 93
       34
310
40C8804040
  0
SORTENTSTABLE
  5
890
102
{ACAD_REACTORS
330
88F
102
}
330
88F
100
AcDbSortentsTable
330
18
331
0
  5
1053C
331
10516
  5
1054A
331
10517
  5
1054B
331
10518
  5
1054C
331
10519
  5
1054D
331
1051A
  5
1054E
331
1051B
  5
1054F
331
1051C
  5
10550
331
1051D
  5
10551
331
1051E
  5
10552
331
1051F
  5
10553
331
10520
  5
10554
331
10521
  5
10555
331
10522
  5
10556
331
10523
  5
10557
331
10524
  5
10558
331
10525
  5
10559
331
10526
  5
1055A
331
10527
  5
1055B
331
10528
  5
1055C
331
10529
  5
1055D
331
1052A
  5
1055E
331
1052B
  5
1055F
331
1052C
  5
10560
331
1052D
  5
10561
331
1052E
  5
10562
331
1052F
  5
10563
331
10530
  5
10564
331
10531
  5
10565
331
10532
  5
10566
331
10533
  5
10567
331
10534
  5
10568
331
10535
  5
10569
331
10536
  5
1056A
331
10537
  5
1056B
331
10538
  5
1056C
331
10539
  5
1056D
331
1053A
  5
1056E
331
1053B
  5
1056F
331
1053C
  5
10570
331
1053D
  5
10571
331
1053E
  5
10572
331
1053F
  5
10573
331
10540
  5
10574
331
10541
  5
10575
331
10542
  5
10576
331
10543
  5
10577
331
10544
  5
10578
331
10545
  5
10579
331
10546
  5
1057A
331
10547
  5
1057B
331
10548
  5
1057C
331
10549
  5
1057D
331
1054A
  5
10580
331
1054B
  5
10582
331
1054C
  5
10583
331
1054D
  5
10584
331
1054E
  5
10588
331
1054F
  5
10589
331
10550
  5
1058A
331
10551
  5
1058B
331
10552
  5
1058C
331
10553
  5
1058D
331
10554
  5
1058E
331
10555
  5
1058F
331
10556
  5
10590
331
10557
  5
10591
331
10558
  5
10592
331
10559
  5
10593
331
1055A
  5
10594
331
1055B
  5
10595
331
1055C
  5
10596
331
1055D
  5
10597
331
1055E
  5
10598
331
1055F
  5
1059C
331
10560
  5
1059D
331
10561
  5
1059E
331
10562
  5
1059F
331
10563
  5
105A0
331
10564
  5
105A1
331
10565
  5
105A5
331
10566
  5
105A6
331
10567
  5
105A7
331
10568
  5
105A8
331
10569
  5
105A9
331
1056A
  5
105AA
331
1056B
  5
105AE
331
1056C
  5
105AF
331
1056D
  5
105B0
331
1056E
  5
105B4
331
1056F
  5
105B5
331
10570
  5
105B6
331
10571
  5
105BA
331
10572
  5
105BB
331
10573
  5
105BC
331
10574
  5
105BD
331
10575
  5
105BE
331
10576
  5
105BF
331
10577
  5
105C0
331
10578
  5
105C1
331
10579
  5
105C2
331
1057A
  5
105C3
331
1057B
  5
105C4
331
1057C
  5
105C5
331
1057D
  5
105C7
331
0
  5
105C6
331
10582
  5
105E0
331
10583
  5
105E1
331
10584
  5
105E2
331
10588
  5
10605
331
10589
  5
10606
331
1058A
  5
10607
331
1058B
  5
10608
331
1058C
  5
10609
331
1058D
  5
1060A
331
1058E
  5
1060B
331
1058F
  5
1060C
331
10590
  5
1060D
331
10591
  5
1060E
331
10592
  5
1060F
331
10593
  5
10610
331
10594
  5
10611
331
10595
  5
10612
331
10596
  5
10613
331
10597
  5
10614
331
10598
  5
10615
331
10599
  5
10616
331
1059A
  5
10617
331
1059B
  5
10618
331
1059C
  5
10619
331
1059D
  5
1061A
331
1059E
  5
1061B
331
1059F
  5
1061C
331
105A0
  5
1061D
331
105A1
  5
1061E
331
105A2
  5
1061F
331
105A3
  5
10620
331
105A4
  5
10621
331
105A5
  5
10622
331
105A6
  5
10623
331
105A7
  5
10624
331
105A8
  5
10625
331
105A9
  5
10629
331
105AA
  5
1062A
331
105AB
  5
1062B
331
105AC
  5
1062F
331
105AD
  5
10630
331
105AE
  5
10631
331
105AF
  5
10635
331
105B0
  5
10636
331
105B1
  5
10637
331
105B2
  5
10638
331
105B3
  5
10639
331
105B4
  5
1063A
331
105B5
  5
10641
331
105B6
  5
10642
331
105B7
  5
10643
331
105B8
  5
10644
331
105B9
  5
10646
331
105BA
  5
10647
331
105BB
  5
10648
331
105BC
  5
10649
331
105BD
  5
1064A
331
105BE
  5
1064B
331
105BF
  5
1064C
331
105C0
  5
1064D
331
105C1
  5
1064E
331
105C2
  5
1064F
331
105C3
  5
10650
331
105C4
  5
10655
331
105C5
  5
10656
331
105C6
  5
10657
331
105C7
  5
10658
331
0
  5
10645
331
105C9
  5
10663
331
105CA
  5
10664
331
105CB
  5
10665
331
105CC
  5
10666
331
105CD
  5
10667
331
105CE
  5
10668
331
105CF
  5
10669
331
105D0
  5
1066A
331
105D1
  5
1066B
331
105D2
  5
1066C
331
105D3
  5
1066D
331
105D4
  5
1066E
331
105D5
  5
1066F
331
105D6
  5
10670
331
105D7
  5
10671
331
105D8
  5
10672
331
105D9
  5
10673
331
105DA
  5
10674
331
105DB
  5
10675
331
105DC
  5
10676
331
105DD
  5
10677
331
105DE
  5
10678
331
105DF
  5
10679
331
105E0
  5
1067A
331
105E1
  5
1067B
331
105E2
  5
1067C
331
105E3
  5
1067D
331
105E4
  5
1067E
331
105E5
  5
1067F
331
105E6
  5
10680
331
105E7
  5
10681
331
105E8
  5
10682
331
105E9
  5
10683
331
105EA
  5
10684
331
105EB
  5
10685
331
105EC
  5
10686
331
105F0
  5
106A5
331
105F1
  5
106A6
331
105F2
  5
106A7
331
105F3
  5
106A8
331
105F4
  5
106A9
331
105F6
  5
106B0
331
105F7
  5
106B1
331
105F8
  5
106B2
331
105F9
  5
106B3
331
105FA
  5
106B4
331
105FB
  5
106B5
331
105FC
  5
106B6
331
105FD
  5
106B7
331
105FE
  5
106B8
331
105FF
  5
106B9
331
10600
  5
106BA
331
10601
  5
106BB
331
10602
  5
106BC
331
10603
  5
106BD
331
10604
  5
106BE
331
10605
  5
106BF
331
10606
  5
106C0
331
10607
  5
106C1
331
10608
  5
106C2
331
10609
  5
106C3
331
1060A
  5
106C4
331
1060B
  5
106C5
331
1060C
  5
106C6
331
1060D
  5
106C7
331
1060E
  5
106C8
331
1060F
  5
106C9
331
10610
  5
106CA
331
10611
  5
106CB
331
10612
  5
106CC
331
10613
  5
106CD
331
10614
  5
106CE
331
10615
  5
106CF
331
10616
  5
106D0
331
10617
  5
106D1
331
10618
  5
106D2
331
10619
  5
106D3
331
1061A
  5
106D4
331
1061B
  5
106D5
331
1061C
  5
106D6
331
1061D
  5
106D7
331
1061E
  5
106D8
331
1061F
  5
106D9
331
10620
  5
106DA
331
10621
  5
106DB
331
10622
  5
106DC
331
10623
  5
106DD
331
10624
  5
106DE
331
10625
  5
11685
331
10626
  5
11686
331
10627
  5
11687
331
10628
  5
11688
331
10629
  5
11689
331
1062A
  5
1168A
331
1062B
  5
1168B
331
1062C
  5
1168C
331
1062D
  5
1168D
331
1062E
  5
1168E
331
1062F
  5
1168F
331
10630
  5
11690
331
10631
  5
11691
331
10632
  5
11692
331
10633
  5
11693
331
10634
  5
11694
331
10635
  5
11695
331
10636
  5
11699
331
10637
  5
1169A
331
10638
  5
1169B
331
10639
  5
1169C
331
1063A
  5
1169D
331
10641
  5
1169E
331
10642
  5
1169F
331
10643
  5
116A0
331
10644
  5
116A1
331
10645
  5
116A2
331
10646
  5
116A3
331
10647
  5
116A4
331
10648
  5
116A5
331
10649
  5
116A6
331
1064A
  5
116A7
331
1064B
  5
116A8
331
1064C
  5
116A9
331
1064D
  5
116AD
331
1064E
  5
116AE
331
1064F
  5
116AF
331
10650
  5
116B5
331
10651
  5
116B6
331
10652
  5
116B7
331
10654
  5
116BC
331
10655
  5
116BD
331
10656
  5
116BE
331
10657
  5
116BF
331
0
  5
11696
331
0
  5
11697
331
0
  5
11698
331
1065B
  5
116E6
331
1065C
  5
116E7
331
1065D
  5
116E8
331
1065E
  5
116E9
331
1065F
  5
116EA
331
10660
  5
116EB
331
10661
  5
116EC
331
10662
  5
116ED
331
10663
  5
116EE
331
10664
  5
116EF
331
10665
  5
116F0
331
10666
  5
116F1
331
10667
  5
116F2
331
10668
  5
116F3
331
10669
  5
116F4
331
1066A
  5
116F5
331
1066B
  5
116F6
331
1066C
  5
116F7
331
1066D
  5
116F8
331
1066E
  5
116F9
331
1066F
  5
116FA
331
10670
  5
116FE
331
10671
  5
116FF
331
0
  5
116B0
331
0
  5
116B1
331
10674
  5
11717
331
10675
  5
11718
331
10676
  5
11719
331
10677
  5
1171A
331
10678
  5
1171B
331
10679
  5
1171C
331
1067A
  5
1171D
331
1067B
  5
1171E
331
1067C
  5
1171F
331
1067D
  5
11720
331
1067E
  5
11721
331
1067F
  5
11722
331
10680
  5
11723
331
10681
  5
11724
331
10682
  5
11725
331
10683
  5
11726
331
10684
  5
11727
331
10685
  5
11728
331
10686
  5
11729
331
10687
  5
1172A
331
10688
  5
1172B
331
10689
  5
1172C
331
1068A
  5
1172D
331
1068B
  5
1172E
331
0
  5
116CA
331
1068D
  5
11739
331
1068E
  5
1173A
331
1068F
  5
1173B
331
10690
  5
1173C
331
10691
  5
1173D
331
10692
  5
1173E
331
10693
  5
1173F
331
10694
  5
11740
331
10695
  5
11741
331
10696
  5
11742
331
10697
  5
11743
331
0
  5
116D6
331
10699
  5
1174E
331
1069A
  5
1174F
331
1069B
  5
11750
331
1069C
  5
11751
331
1069D
  5
11752
331
1069E
  5
11753
331
1069F
  5
11754
331
106A0
  5
11755
331
106A1
  5
11756
331
106A2
  5
11757
331
106A3
  5
11758
331
106A4
  5
11759
331
106A5
  5
1175A
331
106A6
  5
1175B
331
106A7
  5
1175C
331
106A8
  5
1175D
331
106A9
  5
1175E
331
106AA
  5
1175F
331
106AB
  5
11760
331
106AC
  5
11761
331
106AD
  5
11762
331
106AE
  5
11763
331
106AF
  5
11764
331
106B0
  5
11765
331
106B1
  5
11766
331
106B2
  5
11767
331
106B3
  5
11768
331
106B4
  5
11769
331
106B5
  5
1176A
331
106B6
  5
1176B
331
106B7
  5
1176C
331
106B8
  5
1176D
331
106B9
  5
1176E
331
106BA
  5
1176F
331
106BB
  5
11770
331
106BC
  5
11771
331
106BD
  5
11772
331
106BE
  5
11773
331
106BF
  5
11774
331
106C0
  5
11775
331
106C1
  5
11776
331
106C2
  5
11777
331
106C3
  5
11778
331
106C4
  5
11779
331
106C5
  5
1177A
331
106C6
  5
1177B
331
106C7
  5
1177C
331
106C8
  5
1177D
331
106C9
  5
1177E
331
106CA
  5
1177F
331
106CB
  5
11780
331
106CC
  5
11781
331
106CD
  5
11782
331
106CE
  5
11783
331
106CF
  5
11784
331
106D0
  5
11785
331
106D1
  5
11786
331
106D2
  5
11787
331
106D3
  5
11788
331
106D4
  5
11789
331
106D5
  5
1178A
331
106D6
  5
1178B
331
106D7
  5
1178C
331
106D8
  5
1178D
331
106D9
  5
1178E
331
106DA
  5
1178F
331
106DB
  5
11790
331
106DC
  5
11791
331
106DD
  5
11792
331
106DE
  5
11793
331
11685
  5
10515
331
11686
  5
10516
331
11687
  5
10517
331
0
  5
10518
331
0
  5
10519
331
0
  5
1051A
331
1168B
  5
10528
331
1168C
  5
10529
331
1168D
  5
1052A
331
0
  5
1051E
331
0
  5
1051F
331
0
  5
10520
331
11691
  5
10532
331
11692
  5
10533
331
11693
  5
10534
331
0
  5
10524
331
0
  5
10525
331
0
  5
10526
331
11697
  5
105C8
331
11698
  5
105C9
331
11699
  5
105CA
331
0
  5
10599
331
0
  5
1059A
331
0
  5
1059B
331
1169D
  5
105D2
331
1169E
  5
105D3
331
1169F
  5
105D6
331
116A0
  5
105D7
331
116A1
  5
105D8
331
0
  5
105A2
331
0
  5
105A3
331
0
  5
105A4
331
116A5
  5
105E3
331
116A6
  5
105E4
331
116A7
  5
105E5
331
0
  5
105AB
331
0
  5
105AC
331
0
  5
105AD
331
116AB
  5
105F0
331
116AC
  5
105F1
331
116AD
  5
105F2
331
0
  5
105B1
331
0
  5
105B2
331
0
  5
105B3
331
116B1
  5
105FB
331
116B2
  5
105FC
331
116B3
  5
105FD
331
0
  5
105B7
331
0
  5
105B8
331
0
  5
105B9
331
116B7
  5
10687
331
116B8
  5
10688
331
116B9
  5
10689
331
0
  5
10626
331
0
  5
10627
331
0
  5
10628
331
116BD
  5
10691
331
116BE
  5
10692
331
116BF
  5
10693
331
0
  5
1062C
331
0
  5
1062D
331
0
  5
1062E
331
116C3
  5
1069B
331
116C4
  5
1069C
331
116C5
  5
1069D
331
0
  5
10632
331
0
  5
10633
331
0
  5
10634
331
116C9
  5
106AA
331
116CA
  5
106AB
331
116CB
  5
106AC
331
116CC
  5
106AD
331
116CD
  5
106AE
331
116CE
  5
106AF
331
116CF
  5
116BB
331
116D0
  5
1051B
331
116D1
  5
1051C
331
116D2
  5
1051D
331
116D3
  5
10521
331
116D4
  5
10522
331
116D5
  5
10523
331
116D6
  5
10527
331
116D7
  5
1052B
331
116D8
  5
1052C
331
116D9
  5
1052D
331
116DA
  5
1052E
331
116DB
  5
1052F
331
116DC
  5
10530
331
116DD
  5
10531
331
116DE
  5
10535
331
116DF
  5
10536
331
116E0
  5
10537
331
116E1
  5
10538
331
116E2
  5
10539
331
116E3
  5
1053A
331
116E4
  5
1053B
331
116E5
  5
105CB
331
116E6
  5
105CC
331
116E7
  5
105CD
331
116E8
  5
105CE
331
116E9
  5
105CF
331
116EA
  5
105D0
331
116EB
  5
105D1
331
116EC
  5
105D9
331
116ED
  5
105DA
331
116EE
  5
105DB
331
116EF
  5
105DC
331
116F0
  5
105DD
331
116F1
  5
105DE
331
116F2
  5
105DF
331
116F3
  5
105E6
331
116F4
  5
105E7
331
116F5
  5
105E8
331
116F6
  5
105E9
331
116F7
  5
105EA
331
116F8
  5
105EB
331
116F9
  5
105EC
331
116FA
  5
105F3
331
116FB
  5
105F4
331
116FC
  5
105F6
331
116FD
  5
105F7
331
116FE
  5
105F8
331
116FF
  5
105F9
331
11700
  5
105FA
331
11701
  5
105FE
331
11702
  5
105FF
331
11703
  5
10600
331
11704
  5
10601
331
11705
  5
10602
331
11706
  5
10603
331
11707
  5
10604
331
11708
  5
1068A
331
11709
  5
1068B
331
1170A
  5
1068C
331
1170B
  5
1068D
331
1170C
  5
1068E
331
1170D
  5
1068F
331
1170E
  5
10690
331
1170F
  5
10694
331
11710
  5
10695
331
11711
  5
10696
331
11712
  5
10697
331
11713
  5
10698
331
11714
  5
10699
331
11715
  5
1069A
331
11716
  5
1069E
331
11717
  5
1069F
331
11718
  5
106A0
331
11719
  5
106A1
331
1171A
  5
106A2
331
1171B
  5
106A3
331
1171C
  5
106A4
331
1171D
  5
1053D
331
1171E
  5
1053E
331
1171F
  5
1053F
331
0
  5
10540
331
0
  5
10541
331
0
  5
10542
331
11723
  5
105D4
331
11724
  5
105D5
331
11725
  5
10659
331
11726
  5
1065A
331
11727
  5
1065B
331
0
  5
10651
331
0
  5
10652
331
0
  5
10654
331
1172B
  5
116C0
331
1172C
  5
116C1
331
1172D
  5
116C2
331
0
  5
116AA
331
0
  5
116AB
331
0
  5
116AC
331
11731
  5
116CB
331
11732
  5
116CC
331
11733
  5
116CD
331
0
  5
116B2
331
0
  5
116B3
331
0
  5
116B4
331
11737
  5
116D5
331
11738
  5
116DA
331
11739
  5
116DB
331
0
  5
116B8
331
0
  5
116B9
331
0
  5
116BA
331
1173D
  5
11700
331
1173E
  5
11701
331
1173F
  5
11702
331
0
  5
116D7
331
0
  5
116D8
331
0
  5
116D9
331
11743
  5
1170A
331
11744
  5
1170B
331
11745
  5
1170F
331
0
  5
116DD
331
0
  5
116DE
331
0
  5
116DF
331
11749
  5
1172F
331
1174A
  5
11730
331
1174B
  5
11731
331
0
  5
116FB
331
0
  5
116FC
331
0
  5
116FD
331
1174F
  5
11744
331
11750
  5
11745
331
11751
  5
11746
331
0
  5
1170C
331
0
  5
1170D
331
0
  5
1170E
331
11755
  5
10543
331
11756
  5
10544
331
11757
  5
10545
331
11758
  5
10546
331
11759
  5
10547
331
1175A
  5
10548
331
1175B
  5
10549
331
1175C
  5
1065C
331
1175D
  5
1065D
331
1175E
  5
1065E
331
1175F
  5
1065F
331
11760
  5
10660
331
11761
  5
10661
331
11762
  5
10662
331
11763
  5
116C3
331
11764
  5
116C4
331
11765
  5
116C5
331
11766
  5
116C6
331
11767
  5
116C7
331
11768
  5
116C8
331
11769
  5
116C9
331
1176A
  5
116CE
331
1176B
  5
116CF
331
1176C
  5
116D0
331
1176D
  5
116D1
331
1176E
  5
116D2
331
1176F
  5
116D3
331
11770
  5
116D4
331
11771
  5
116DC
331
11772
  5
116E0
331
11773
  5
116E1
331
11774
  5
116E2
331
11775
  5
116E3
331
11776
  5
116E4
331
11777
  5
116E5
331
11778
  5
11703
331
11779
  5
11704
331
1177A
  5
11705
331
1177B
  5
11706
331
1177C
  5
11707
331
1177D
  5
11708
331
1177E
  5
11709
331
1177F
  5
11710
331
11780
  5
11711
331
11781
  5
11712
331
11782
  5
11713
331
11783
  5
11714
331
11784
  5
11715
331
11785
  5
11716
331
11786
  5
11732
331
11787
  5
11733
331
11788
  5
11734
331
11789
  5
11735
331
1178A
  5
11736
331
1178B
  5
11737
331
1178C
  5
11738
331
1178D
  5
11747
331
1178E
  5
11748
331
1178F
  5
11749
331
11790
  5
1174A
331
11791
  5
1174B
331
11792
  5
1174C
331
11793
  5
1174D
  0
MATERIAL
  5
9540
102
{ACAD_REACTORS
330
18C
102
}
102
{ACAD_XDICTIONARY
360
11932
102
}
330
18C
100
AcDbMaterial
  1
BYBLOCK
 72
     0
 73
     2
 43
0.0208333333333333
 43
0.0
 43
0.0
 43
0.0
 43
0.0
 43
0.0208333333333333
 43
0.0
 43
0.0
 43
0.0
 43
0.0
 43
1.0
 43
0.0
 43
0.0
 43
0.0
 43
0.0
 43
1.0
 77
     0
 78
     2
 47
0.0208333333333333
 47
0.0
 47
0.0
 47
0.0
 47
0.0
 47
0.0208333333333333
 47
0.0
 47
0.0
 47
0.0
 47
0.0
 47
1.0
 47
0.0
 47
0.0
 47
0.0
 47
0.0
 47
1.0
171
     0
172
     2
 49
0.0208333333333333
 49
0.0
 49
0.0
 49
0.0
 49
0.0
 49
0.0208333333333333
 49
0.0
 49
0.0
 49
0.0
 49
0.0
 49
1.0
 49
0.0
 49
0.0
 49
0.0
 49
0.0
 49
1.0
175
     0
176
     2
142
0.0208333333333333
142
0.0
142
0.0
142
0.0
142
0.0
142
0.0208333333333333
142
0.0
142
0.0
142
0.0
142
0.0
142
1.0
142
0.0
142
0.0
142
0.0
142
0.0
142
1.0
179
     0
270
     2
144
0.0208333333333333
144
0.0
144
0.0
144
0.0
144
0.0
144
0.0208333333333333
144
0.0
144
0.0
144
0.0
144
0.0
144
1.0
144
0.0
144
0.0
144
0.0
144
0.0
144
1.0
274
     2
147
0.0208333333333333
147
0.0
147
0.0
147
0.0
147
0.0
147
0.0208333333333333
147
0.0
147
0.0
147
0.0
147
0.0
147
1.0
147
0.0
147
0.0
147
0.0
147
0.0
147
1.0
  0
MATERIAL
  5
9538
102
{ACAD_REACTORS
330
18C
102
}
102
{ACAD_XDICTIONARY
360
11934
102
}
330
18C
100
AcDbMaterial
  1
BYLAYER
 72
     0
 73
     2
 43
0.0208333333333333
 43
0.0
 43
0.0
 43
0.0
 43
0.0
 43
0.0208333333333333
 43
0.0
 43
0.0
 43
0.0
 43
0.0
 43
1.0
 43
0.0
 43
0.0
 43
0.0
 43
0.0
 43
1.0
 77
     0
 78
     2
 47
0.0208333333333333
 47
0.0
 47
0.0
 47
0.0
 47
0.0
 47
0.0208333333333333
 47
0.0
 47
0.0
 47
0.0
 47
0.0
 47
1.0
 47
0.0
 47
0.0
 47
0.0
 47
0.0
 47
1.0
171
     0
172
     2
 49
0.0208333333333333
 49
0.0
 49
0.0
 49
0.0
 49
0.0
 49
0.0208333333333333
 49
0.0
 49
0.0
 49
0.0
 49
0.0
 49
1.0
 49
0.0
 49
0.0
 49
0.0
 49
0.0
 49
1.0
175
     0
176
     2
142
0.0208333333333333
142
0.0
142
0.0
142
0.0
142
0.0
142
0.0208333333333333
142
0.0
142
0.0
142
0.0
142
0.0
142
1.0
142
0.0
142
0.0
142
0.0
142
0.0
142
1.0
179
     0
270
     2
144
0.0208333333333333
144
0.0
144
0.0
144
0.0
144
0.0
144
0.0208333333333333
144
0.0
144
0.0
144
0.0
144
0.0
144
1.0
144
0.0
144
0.0
144
0.0
144
0.0
144
1.0
274
     2
147
0.0208333333333333
147
0.0
147
0.0
147
0.0
147
0.0
147
0.0208333333333333
147
0.0
147
0.0
147
0.0
147
0.0
147
1.0
147
0.0
147
0.0
147
0.0
147
0.0
147
1.0
  0
MATERIAL
  5
9548
102
{ACAD_REACTORS
330
18C
102
}
102
{ACAD_XDICTIONARY
360
11936
102
}
330
18C
100
AcDbMaterial
  1
GLOBAL
 72
     0
 73
     2
 43
0.0208333333333333
 43
0.0
 43
0.0
 43
0.0
 43
0.0
 43
0.0208333333333333
 43
0.0
 43
0.0
 43
0.0
 43
0.0
 43
1.0
 43
0.0
 43
0.0
 43
0.0
 43
0.0
 43
1.0
 77
     0
 78
     2
 47
0.0208333333333333
 47
0.0
 47
0.0
 47
0.0
 47
0.0
 47
0.0208333333333333
 47
0.0
 47
0.0
 47
0.0
 47
0.0
 47
1.0
 47
0.0
 47
0.0
 47
0.0
 47
0.0
 47
1.0
171
     0
172
     2
 49
0.0208333333333333
 49
0.0
 49
0.0
 49
0.0
 49
0.0
 49
0.0208333333333333
 49
0.0
 49
0.0
 49
0.0
 49
0.0
 49
1.0
 49
0.0
 49
0.0
 49
0.0
 49
0.0
 49
1.0
175
     0
176
     2
142
0.0208333333333333
142
0.0
142
0.0
142
0.0
142
0.0
142
0.0208333333333333
142
0.0
142
0.0
142
0.0
142
0.0
142
1.0
142
0.0
142
0.0
142
0.0
142
0.0
142
1.0
179
     0
270
     2
144
0.0208333333333333
144
0.0
144
0.0
144
0.0
144
0.0
144
0.0208333333333333
144
0.0
144
0.0
144
0.0
144
0.0
144
1.0
144
0.0
144
0.0
144
0.0
144
0.0
144
1.0
274
     2
147
0.0208333333333333
147
0.0
147
0.0
147
0.0
147
0.0
147
0.0208333333333333
147
0.0
147
0.0
147
0.0
147
0.0
147
1.0
147
0.0
147
0.0
147
0.0
147
0.0
147
1.0
  0
ACAD_PROXY_OBJECT
  5
9584
102
{ACAD_REACTORS
330
9583
102
}
330
9583
100
AcDbZombieObject
 90
      499
 91
      511
 93
      610
310
40901902A4063FBFFFFFE000000000000002040AD7A3703D0AD73F4214DD185B99185C990000000000000104090141901A00000000000004100000000000000041025764000000000000300FC0
340
12
340
0
340
F
340
0
 94
        0
1001
ACAD_MLEADERVER
1070
     2
  0
MLINESTYLE
  5
1C
102
{ACAD_REACTORS
330
1B
102
}
330
1B
100
AcDbMlineStyle
  2
STANDARD
 70
     0
  3

 62
   256
 51
90.0
 52
90.0
 71
     2
 49
0.5
 62
   256
  6
BYLAYER
 49
-0.5
 62
   256
  6
BYLAYER
  0
ACAD_PROXY_OBJECT
  5
9562
102
{ACAD_REACTORS
330
9561
102
}
330
9561
100
AcDbZombieObject
 90
      499
 91
      510
 93
       41
310
903313A31580
  0
ACAD_PROXY_OBJECT
  5
9563
102
{ACAD_REACTORS
330
9561
102
}
330
9561
100
AcDbZombieObject
 90
      499
 91
      510
 93
      105
310
903313A324000000000000004000
  0
ACAD_PROXY_OBJECT
  5
9564
102
{ACAD_REACTORS
330
9561
102
}
330
9561
100
AcDbZombieObject
 90
      499
 91
      510
 93
      105
310
903313A344000000000000104000
  0
ACAD_PROXY_OBJECT
  5
9565
102
{ACAD_REACTORS
330
9561
102
}
330
9561
100
AcDbZombieObject
 90
      499
 91
      510
 93
      105
310
903313A354000000000000144000
  0
ACAD_PROXY_OBJECT
  5
9566
102
{ACAD_REACTORS
330
9561
102
}
330
9561
100
AcDbZombieObject
 90
      499
 91
      510
 93
      105
310
903313A384000000000000204000
  0
ACAD_PROXY_OBJECT
  5
9567
102
{ACAD_REACTORS
330
9561
102
}
330
9561
100
AcDbZombieObject
 90
      499
 91
      510
 93
      113
310
904313A31304000000000000244000
  0
ACAD_PROXY_OBJECT
  5
9568
102
{ACAD_REACTORS
330
9561
102
}
330
9561
100
AcDbZombieObject
 90
      499
 91
      510
 93
      113
310
904313A31364000000000000304000
  0
ACAD_PROXY_OBJECT
  5
9569
102
{ACAD_REACTORS
330
9561
102
}
330
9561
100
AcDbZombieObject
 90
      499
 91
      510
 93
      113
310
904313A32304000000000000344000
  0
ACAD_PROXY_OBJECT
  5
956A
102
{ACAD_REACTORS
330
9561
102
}
330
9561
100
AcDbZombieObject
 90
      499
 91
      510
 93
      113
310
904313A333040000000000003E4000
  0
ACAD_PROXY_OBJECT
  5
956B
102
{ACAD_REACTORS
330
9561
102
}
330
9561
100
AcDbZombieObject
 90
      499
 91
      510
 93
      113
310
904313A34304000000000000444000
  0
ACAD_PROXY_OBJECT
  5
956C
102
{ACAD_REACTORS
330
9561
102
}
330
9561
100
AcDbZombieObject
 90
      499
 91
      510
 93
      113
310
904313A35304000000000000494000
  0
ACAD_PROXY_OBJECT
  5
956D
102
{ACAD_REACTORS
330
9561
102
}
330
9561
100
AcDbZombieObject
 90
      499
 91
      510
 93
      121
310
905313A3130304000000000000594000
  0
ACAD_PROXY_OBJECT
  5
956E
102
{ACAD_REACTORS
330
9561
102
}
330
9561
100
AcDbZombieObject
 90
      499
 91
      510
 93
      105
310
903323A310000000000000010100
  0
ACAD_PROXY_OBJECT
  5
956F
102
{ACAD_REACTORS
330
9561
102
}
330
9561
100
AcDbZombieObject
 90
      499
 91
      510
 93
      105
310
903343A310000000000000410100
  0
ACAD_PROXY_OBJECT
  5
9570
102
{ACAD_REACTORS
330
9561
102
}
330
9561
100
AcDbZombieObject
 90
      499
 91
      510
 93
      105
310
903383A310000000000000810100
  0
ACAD_PROXY_OBJECT
  5
9571
102
{ACAD_REACTORS
330
9561
102
}
330
9561
100
AcDbZombieObject
 90
      499
 91
      510
 93
      113
310
90431303A310000000000000910100
  0
ACAD_PROXY_OBJECT
  5
9572
102
{ACAD_REACTORS
330
9561
102
}
330
9561
100
AcDbZombieObject
 90
      499
 91
      510
 93
      121
310
9053130303A310000000000001650100
  0
ACAD_PROXY_OBJECT
  5
9573
102
{ACAD_REACTORS
330
9561
102
}
330
9561
100
AcDbZombieObject
 90
      499
 91
      510
 93
      257
310
90E312F31323822203D2031272D3022000000000000200FC000000000000284000
  0
ACAD_PROXY_OBJECT
  5
9574
102
{ACAD_REACTORS
330
9561
102
}
330
9561
100
AcDbZombieObject
 90
      499
 91
      510
 93
      249
310
90D312F363422203D2031272D3022000000000000240FC000000000000284000
  0
ACAD_PROXY_OBJECT
  5
9575
102
{ACAD_REACTORS
330
9561
102
}
330
9561
100
AcDbZombieObject
 90
      499
 91
      510
 93
      249
310
90D312F333222203D2031272D3022000000000000280FC000000000000284000
  0
ACAD_PROXY_OBJECT
  5
9576
102
{ACAD_REACTORS
330
9561
102
}
330
9561
100
AcDbZombieObject
 90
      499
 91
      510
 93
      249
310
90D312F313622203D2031272D30220000000000002C0FC000000000000284000
  0
ACAD_PROXY_OBJECT
  5
9577
102
{ACAD_REACTORS
330
9561
102
}
330
9561
100
AcDbZombieObject
 90
      499
 91
      510
 93
      249
310
90D332F333222203D2031272D30220000000000002E0FC000000000000284000
  0
ACAD_PROXY_OBJECT
  5
9578
102
{ACAD_REACTORS
330
9561
102
}
330
9561
100
AcDbZombieObject
 90
      499
 91
      510
 93
      241
310
90C312F3822203D2031272D3022000000000000300FC000000000000284000
  0
ACAD_PROXY_OBJECT
  5
9579
102
{ACAD_REACTORS
330
9561
102
}
330
9561
100
AcDbZombieObject
 90
      499
 91
      510
 93
      249
310
90D332F313622203D2031272D3022000000000000320FC000000000000284000
  0
ACAD_PROXY_OBJECT
  5
957A
102
{ACAD_REACTORS
330
9561
102
}
330
9561
100
AcDbZombieObject
 90
      499
 91
      510
 93
      241
310
90C312F3422203D2031272D3022000000000000340FC000000000000284000
  0
ACAD_PROXY_OBJECT
  5
957B
102
{ACAD_REACTORS
330
9561
102
}
330
9561
100
AcDbZombieObject
 90
      499
 91
      510
 93
      241
310
90C332F3822203D2031272D3022000000000000360FC000000000000284000
  0
ACAD_PROXY_OBJECT
  5
957C
102
{ACAD_REACTORS
330
9561
102
}
330
9561
100
AcDbZombieObject
 90
      499
 91
      510
 93
      241
310
90C312F3222203D2031272D3022000000000000380FC000000000000284000
  0
ACAD_PROXY_OBJECT
  5
957D
102
{ACAD_REACTORS
330
9561
102
}
330
9561
100
AcDbZombieObject
 90
      499
 91
      510
 93
      241
310
90C332F3422203D2031272D30220000000000003A0FC000000000000284000
  0
ACAD_PROXY_OBJECT
  5
957E
102
{ACAD_REACTORS
330
9561
102
}
330
9561
100
AcDbZombieObject
 90
      499
 91
      510
 93
      161
310
90A3122203D2031272D30224000000000000284000
  0
ACAD_PROXY_OBJECT
  5
957F
102
{ACAD_REACTORS
330
9561
102
}
330
9561
100
AcDbZombieObject
 90
      499
 91
      510
 93
      257
310
90E312D312F3222203D2031272D30220000000000003E0FC000000000000284000
  0
ACAD_PROXY_OBJECT
  5
9580
102
{ACAD_REACTORS
330
9561
102
}
330
9561
100
AcDbZombieObject
 90
      499
 91
      510
 93
      225
310
90A3322203D2031272D302200000000000002100000000000000284000
  0
ACAD_PROXY_OBJECT
  5
9581
102
{ACAD_REACTORS
330
9561
102
}
330
9561
100
AcDbZombieObject
 90
      499
 91
      510
 93
      225
310
90A3622203D2031272D302200000000000006100000000000000284000
  0
ACAD_PROXY_OBJECT
  5
9582
102
{ACAD_REACTORS
330
9561
102
}
330
9561
100
AcDbZombieObject
 90
      499
 91
      510
 93
      249
310
90D31272D3022203D2031272D30220000000000000A100000000000000284000
  0
ACAD_PROXY_OBJECT
  5
9556
102
{ACAD_REACTORS
330
9550
102
}
330
9550
100
AcDbZombieObject
 90
      499
 91
      509
 93
      436
310
42CC9915DA5C99599C985B595049028333333333333E3BF0000000000000FB0107901411070040501600405405064090741402480A0340
1001
ACAD
1000
AcDbSavedByObjectVersion
1070
     0
  0
ACAD_PROXY_OBJECT
  5
9558
102
{ACAD_REACTORS
330
9550
102
}
330
9550
100
AcDbZombieObject
 90
      499
 91
      509
 93
      500
310
424CD108121A5919195B90640502408333333333333E3BF0000000000000FB01079024090700405020000000000001110200405405064090740C02480A0340
1001
ACAD
1000
AcDbSavedByObjectVersion
1070
     0
  0
ACAD_PROXY_OBJECT
  5
9557
102
{ACAD_REACTORS
330
9550
102
}
330
9550
100
AcDbZombieObject
 90
      499
 91
      509
 93
      436
310
42CCD915DA5C99599C985B595059028333333333333E3BF0000000000000FB0107901411070040501600405405064090741402480A0340
1001
ACAD
1000
AcDbSavedByObjectVersion
1070
     0
  0
ACAD_PROXY_OBJECT
  5
9555
102
{ACAD_REACTORS
330
9550
102
}
330
9550
100
AcDbZombieObject
 90
      499
 91
      509
 93
      388
310
4150985CDA58D07406404333333333333E3BF0000000000000FB0107A41107004050150841D405064090741402480A0350
1001
ACAD
1000
AcDbSavedByObjectVersion
1070
     0
  0
ACAD_PROXY_OBJECT
  5
955C
102
{ACAD_REACTORS
330
9550
102
}
330
9550
100
AcDbZombieObject
 90
      499
 91
      509
 93
      428
310
42109C9A59DA1D195B90C409028333333333333E3BF0000000000000FB010790141107004050150841D405064090741402480A029950
1001
ACAD
1000
AcDbSavedByObjectVersion
1070
     0
  0
ACAD_PROXY_OBJECT
  5
9560
102
{ACAD_REACTORS
330
9550
102
}
330
9550
100
AcDbZombieObject
 90
      499
 91
      509
 93
      452
310
42D0DBDB1BDC90DA185B99D95104090240C333333333333E3BF0000000000000FB0108901411070040501508421405064090741402480A0350
1001
ACAD
1000
AcDbSavedByObjectVersion
1070
     0
  0
ACAD_PROXY_OBJECT
  5
9559
102
{ACAD_REACTORS
330
9550
102
}
330
9550
100
AcDbZombieObject
 90
      499
 91
      509
 93
      500
310
4290DBDB98D95C1D1D585B10940D028333333333333E3BF0000000000000FB0107902409070040501000000000000111010841D405064090740C02480A0340
1001
ACAD
1000
AcDbSavedByObjectVersion
1070
     0
  0
ACAD_PROXY_OBJECT
  5
955B
102
{ACAD_REACTORS
330
9550
102
}
330
9550
100
AcDbZombieObject
 90
      499
 91
      509
 93
      412
310
40D11A5B50B409028333333333333E3BF0000000000000FB010790141107004050150841D405064090741402480A02677FFFFFD0
1001
ACAD
1000
AcDbSavedByObjectVersion
1070
     0
  0
ACAD_PROXY_OBJECT
  5
A211
102
{ACAD_REACTORS
330
9550
102
}
330
9550
100
AcDbZombieObject
 90
      499
 91
      509
 93
      452
310
43115919D950DBDB1BDC93D999916409028333333333333E3BF0000000000000FB010790141107004050150841D405064090741402480A0350
1001
ACAD
1000
AcDbSavedByObjectVersion
1070
     0
  0
ACAD_PROXY_OBJECT
  5
955F
102
{ACAD_REACTORS
330
9550
102
}
330
9550
100
AcDbZombieObject
 90
      499
 91
      509
 93
      444
310
42D19858D95C185D1D195C9B90F409028333333333333E3BF0000000000000FB010790141107004050150841D405064090741402480A0350
1001
ACAD
1000
AcDbSavedByObjectVersion
1070
     0
  0
ACAD_PROXY_OBJECT
  5
9551
102
{ACAD_REACTORS
330
9550
102
}
330
9550
100
AcDbZombieObject
 90
      499
 91
      509
 93
      388
310
41119B185D240901404333333333333E3BF0000000000000F9010740A41107004050150841D405064090741402480A1B50
1001
ACAD
1000
AcDbSavedByObjectVersion
1070
     0
  0
ACAD_PROXY_OBJECT
  5
9552
102
{ACAD_REACTORS
330
9550
102
}
330
9550
100
AcDbZombieObject
 90
      499
 91
      509
 93
      476
310
43519B185D15DA5D1A115919D95CD0140901404333333333333E3BF0000000000000F9010740901411070040501600405405064090741402480A1B50
1001
ACAD
1000
AcDbSavedByObjectVersion
1070
     0
  0
ACAD_PROXY_OBJECT
  5
9553
102
{ACAD_REACTORS
330
9550
102
}
330
9550
100
AcDbZombieObject
 90
      499
 91
      509
 93
      412
310
41D1DBDD5C985D5910240902404333333333333E3BF0000000000000F9010740A411070040501641D405064090741402480A1B50
1001
ACAD
1000
AcDbSavedByObjectVersion
1070
     0
  0
ACAD_PROXY_OBJECT
  5
9554
102
{ACAD_REACTORS
330
9550
102
}
330
9550
100
AcDbZombieObject
 90
      499
 91
      509
 93
      500
310
4411DBDD5C985D5915DA5D1A115919D95CD0340902404333333333333E3BF0000000000000F9010740901411070040501600405405064090741402480A1B50
1001
ACAD
1000
AcDbSavedByObjectVersion
1070
     0
  0
ACAD_PROXY_OBJECT
  5
A260
102
{ACAD_REACTORS
330
9550
102
}
330
9550
100
AcDbZombieObject
 90
      499
 91
      509
 93
      476
310
41921A5919195B90640502408333333333333E3BF0000000000000FB01079024090700405020000000000001110200405405064090740C02480A0340
1001
ACAD
1000
AcDbSavedByObjectVersion
1070
     0
  0
ACAD_PROXY_OBJECT
  5
A20F
102
{ACAD_REACTORS
330
9550
102
}
330
9550
100
AcDbZombieObject
 90
      499
 91
      509
 93
      428
310
42529A5D1D195C93D999914409028333333333333E3BF0000000000000FB010790141107004050150A41D405064090741402480A0350
1001
ACAD
1000
AcDbSavedByObjectVersion
1070
     0
  0
ACAD_PROXY_OBJECT
  5
955E
102
{ACAD_REACTORS
330
9550
102
}
330
9550
100
AcDbZombieObject
 90
      499
 91
      509
 93
      444
310
42D31A5B995C185D1D195C9B90E409028333333333333E3BF0000000000000FB010790141107004050750841D405064090741402483A0350
1001
ACAD
1000
AcDbSavedByObjectVersion
1070
     0
  0
ACAD_PROXY_OBJECT
  5
A266
102
{ACAD_REACTORS
330
9550
102
}
330
9550
100
AcDbZombieObject
 90
      499
 91
      509
 93
      484
310
42135BD9195B1A5B99D0A409028333333333333E3BF0000000000000F901074090290700405010000000000201990108421405064090741402480A1B40
1001
ACAD
1000
AcDbSavedByObjectVersion
1070
     0
  0
ACAD_PROXY_OBJECT
  5
A210
102
{ACAD_REACTORS
330
9550
102
}
330
9550
100
AcDbZombieObject
 90
      499
 91
      509
 93
      444
310
42D3DD995C9A185B99D3D999915409028333333333333E3BF0000000000000FB010790141107004050150941D405064090741402480A0350
1001
ACAD
1000
AcDbSavedByObjectVersion
1070
     0
  0
ACAD_PROXY_OBJECT
  5
955A
102
{ACAD_REACTORS
330
9550
102
}
330
9550
100
AcDbZombieObject
 90
      499
 91
      509
 93
      420
310
425499585B1A5CDD1A58D08409028333333333333E3BF0000000000000FB01079019070040501508421405064090741402480A1B40
1001
ACAD
1000
AcDbSavedByObjectVersion
1070
     0
  0
ACAD_PROXY_OBJECT
  5
A265
102
{ACAD_REACTORS
330
9550
102
}
330
9550
100
AcDbZombieObject
 90
      499
 91
      509
 93
      420
310
4194DA1859195911B40902404333333333333E3BF0000000000000F9010740A41107004050150800405405064090840C02480A0B40
1001
ACAD
1000
AcDbSavedByObjectVersion
1070
     0
  0
ACAD_PROXY_OBJECT
  5
A264
102
{ACAD_REACTORS
330
9550
102
}
330
9550
100
AcDbZombieObject
 90
      499
 91
      509
 93
      516
310
4454DA18591959081DDA5D1A08195919D95CD1A40902404333333333333E3BF0000000000000F901074090142907004050250800405405064090740C02480A0B40
1001
ACAD
1000
AcDbSavedByObjectVersion
1070
     0
  0
ACAD_PROXY_OBJECT
  5
A261
102
{ACAD_REACTORS
330
9550
102
}
330
9550
100
AcDbZombieObject
 90
      499
 91
      509
 93
      532
310
4394DA1859195CC81BD98811DC985E5174090240C333333333333E3BF0000000000000FB01079024090741D01000000000000111010841D405064090740C02480A0340
1001
ACAD
1000
AcDbSavedByObjectVersion
1070
     0
  0
ACAD_PROXY_OBJECT
  5
A262
102
{ACAD_REACTORS
330
9550
102
}
330
9550
100
AcDbZombieObject
 90
      499
 91
      509
 93
      476
310
41D4DAD95D18DA1E51840502408333333333333E3BF0000000000000FB01079024090741D01000000000000111010B41D405064090741802480A0340
1001
ACAD
1000
AcDbSavedByObjectVersion
1070
     0
  0
ACAD_PROXY_OBJECT
  5
955D
102
{ACAD_REACTORS
330
9550
102
}
330
9550
100
AcDbZombieObject
 90
      499
 91
      509
 93
      412
310
41D51A1A58DAD95B90D409028333333333333E3BF0000000000000FB010790141107004050150C41D405064090741402480A0350
1001
ACAD
1000
AcDbSavedByObjectVersion
1070
     0
  0
ACAD_PROXY_OBJECT
  5
A25F
102
{ACAD_REACTORS
330
9550
102
}
330
9550
100
AcDbZombieObject
 90
      499
 91
      509
 93
      420
310
4255DA5C99599C985B595059028333333333333E3BF0000000000000FB0107901411070040501600405405064090740C02480A0340
1001
ACAD
1000
AcDbSavedByObjectVersion
1070
     0
  0
ACAD_PROXY_OBJECT
  5
A263
102
{ACAD_REACTORS
330
9550
102
}
330
9550
100
AcDbZombieObject
 90
      499
 91
      509
 93
      404
310
41560B54985E51940902404000000000000E03F0000000000000FB010740501907004050150841D405064090740C02480A1B40
1001
ACAD
1000
AcDbSavedByObjectVersion
1070
     0
  0
XRECORD
  5
11795
102
{ACAD_REACTORS
330
11794
102
}
330
11794
100
AcDbXrecord
340
18D
  0
XRECORD
  5
11796
102
{ACAD_REACTORS
330
11794
102
}
330
11794
100
AcDbXrecord
340
18C
  0
DICTIONARYVAR
  5
AAE0
102
{ACAD_REACTORS
330
37
102
}
330
37
100
DictionaryVariables
280
     0
  1
1:1
  0
DICTIONARYVAR
  5
9627
102
{ACAD_REACTORS
330
37
102
}
330
37
100
DictionaryVariables
280
     0
  1
Standard
  0
DICTIONARYVAR
  5
29E
102
{ACAD_REACTORS
330
37
102
}
330
37
100
DictionaryVariables
280
     0
  1
Standard
  0
DICTIONARYVAR
  5
38
102
{ACAD_REACTORS
330
37
102
}
330
37
100
DictionaryVariables
280
     0
  1
-1
  0
DICTIONARYVAR
  5
1CE
102
{ACAD_REACTORS
330
37
102
}
330
37
100
DictionaryVariables
280
     0
  1
2
  0
DICTIONARYVAR
  5
704E
102
{ACAD_REACTORS
330
37
102
}
330
37
100
DictionaryVariables
280
     0
  1
1
  0
DICTIONARYVAR
  5
962A
102
{ACAD_REACTORS
330
37
102
}
330
37
100
DictionaryVariables
280
     0
  1
0
  0
DICTIONARYVAR
  5
7052
102
{ACAD_REACTORS
330
37
102
}
330
37
100
DictionaryVariables
280
     0
  1
8
  0
DICTIONARYVAR
  5
7051
102
{ACAD_REACTORS
330
37
102
}
330
37
100
DictionaryVariables
280
     0
  1
1
  0
DICTIONARYVAR
  5
AB30
102
{ACAD_REACTORS
330
37
102
}
330
37
100
DictionaryVariables
280
     0
  1
0
  0
DICTIONARYVAR
  5
704F
102
{ACAD_REACTORS
330
37
102
}
330
37
100
DictionaryVariables
280
     0
  1
8
  0
DICTIONARYVAR
  5
7050
102
{ACAD_REACTORS
330
37
102
}
330
37
100
DictionaryVariables
280
     0
  1
2
  0
DICTIONARYVAR
  5
1CF
102
{ACAD_REACTORS
330
37
102
}
330
37
100
DictionaryVariables
280
     0
  1

  0
DICTIONARYVAR
  5
9629
102
{ACAD_REACTORS
330
37
102
}
330
37
100
DictionaryVariables
280
     0
  1
127
  0
DICTIONARYVAR
  5
115E5
102
{ACAD_REACTORS
330
37
102
}
330
37
100
DictionaryVariables
280
     0
  1
2
  0
DICTIONARY
  5
11932
330
9540
100
AcDbDictionary
  3
ACAD_XREC_ROUNDTRIP
360
11933
1001
ACAD
1000
TREAT_AS_HARD
1070
     1
  0
DICTIONARY
  5
11934
330
9538
100
AcDbDictionary
  3
ACAD_XREC_ROUNDTRIP
360
11935
1001
ACAD
1000
TREAT_AS_HARD
1070
     1
  0
DICTIONARY
  5
11936
330
9548
100
AcDbDictionary
  3
ACAD_XREC_ROUNDTRIP
360
11937
1001
ACAD
1000
TREAT_AS_HARD
1070
     1
  0
XRECORD
  5
11933
102
{ACAD_REACTORS
330
11932
102
}
330
11932
100
AcDbXrecord
102
MATERIAL
148
0.0
149
0.0
149
0.0
 93
        0
 94
      127
282
     0
 72
     0
 77
     0
171
     0
175
     0
179
     0
273
     0
  0
XRECORD
  5
11935
102
{ACAD_REACTORS
330
11934
102
}
330
11934
100
AcDbXrecord
102
MATERIAL
148
0.0
149
0.0
149
0.0
 93
        0
 94
      127
282
     0
 72
     0
 77
     0
171
     0
175
     0
179
     0
273
     0
  0
XRECORD
  5
11937
102
{ACAD_REACTORS
330
11936
102
}
330
11936
100
AcDbXrecord
102
MATERIAL
148
0.0
149
0.0
149
0.0
 93
        0
 94
      127
282
     0
 72
     0
 77
     0
171
     0
175
     0
179
     0
273
     0
  0
ENDSEC
  0
EOF
