  0
SECTION
  2
HEADER
  9
$ACADVER
  1
AC1009
  9
$INSBASE
 10
0.0
 20
0.0
 30
0.0
  9
$EXTMIN
 10
1461.10735749534
 20
-1105.63578285208
 30
0.0
  9
$EXTMAX
 10
1905.5603645931069
 20
-747.78393390951192
 30
0.0
  9
$LIMMIN
 10
0.0
 20
0.0
  9
$LIMMAX
 10
420.0
 20
297.0
  9
$ORTHOMODE
 70
     0
  9
$REGENMODE
 70
     1
  9
$FILLMODE
 70
     1
  9
$QTEXTMODE
 70
     0
  9
$MIRRTEXT
 70
     0
  9
$DRAGMODE
 70
     2
  9
$LTSCALE
 40
0.5
  9
$OSMODE
 70
    63
  9
$ATTMODE
 70
     1
  9
$TEXTSIZE
 40
8.0
  9
$TRACEWID
 40
1.0
  9
$TEXTSTYLE
  7
STANDARD
  9
$CLAYER
  8
1TEXT
  9
$CELTYPE
  6
BYLAYER
  9
$CECOLOR
 62
   256
  9
$DIMSCALE
 40
1.0
  9
$DIMASZ
 40
2.0
  9
$DIMEXO
 40
0.0
  9
$DIMDLI
 40
7.0
  9
$DIMRND
 40
0.0
  9
$DIMDLE
 40
0.0
  9
$DIMEXE
 40
1.0
  9
$DIMTP
 40
0.0
  9
$DIMTM
 40
0.0
  9
$DIMTXT
 40
3.5
  9
$DIMCEN
 40
0.0
  9
$DIMTSZ
 40
0.0
  9
$DIMTOL
 70
     0
  9
$DIMLIM
 70
     0
  9
$DIMTIH
 70
     0
  9
$DIMTOH
 70
     0
  9
$DIMSE1
 70
     0
  9
$DIMSE2
 70
     0
  9
$DIMTAD
 70
     1
  9
$DIMZIN
 70
     8
  9
$DIMBLK
  1

  9
$DIMASO
 70
     1
  9
$DIMSHO
 70
     1
  9
$DIMPOST
  1
 
  9
$DIMAPOST
  1

  9
$DIMALT
 70
     0
  9
$DIMALTD
 70
     2
  9
$DIMALTF
 40
25.399999999999999
  9
$DIMLFAC
 40
1.0
  9
$DIMTOFL
 70
     1
  9
$DIMTVP
 40
0.0
  9
$DIMTIX
 70
     0
  9
$DIMSOXD
 70
     0
  9
$DIMSAH
 70
     1
  9
$DIMBLK1
  1
OPEN30
  9
$DIMBLK2
  1
OPEN30
  9
$DIMSTYLE
  2
NEWX10
  9
$DIMCLRD
 70
   256
  9
$DIMCLRE
 70
   256
  9
$DIMCLRT
 70
   201
  9
$DIMTFAC
 40
0.7
  9
$DIMGAP
 40
0.7
  9
$LUNITS
 70
     2
  9
$LUPREC
 70
     4
  9
$SKETCHINC
 40
1.0
  9
$FILLETRAD
 40
0.0
  9
$AUNITS
 70
     0
  9
$AUPREC
 70
     2
  9
$MENU
  1
acad
  9
$ELEVATION
 40
0.0
  9
$PELEVATION
 40
0.0
  9
$THICKNESS
 40
0.0
  9
$LIMCHECK
 70
     0
  9
$BLIPMODE
 70
     0
  9
$CHAMFERA
 40
0.5
  9
$CHAMFERB
 40
0.5
  9
$SKPOLY
 70
     0
  9
$TDCREATE
 40
2451318.621352917
  9
$TDUPDATE
 40
2457014.6605385542
  9
$TDINDWG
 40
4.4654031249999999
  9
$TDUSRTIMER
 40
4.4654031249999999
  9
$USRTIMER
 70
     1
  9
$ANGBASE
 50
0.0
  9
$ANGDIR
 70
     0
  9
$PDMODE
 70
     0
  9
$PDSIZE
 40
0.0
  9
$PLINEWID
 40
0.0
  9
$COORDS
 70
     0
  9
$SPLFRAME
 70
     0
  9
$SPLINETYPE
 70
     6
  9
$SPLINESEGS
 70
     8
  9
$ATTDIA
 70
     0
  9
$ATTREQ
 70
     1
  9
$HANDLING
 70
     1
  9
$HANDSEED
  5
20807
  9
$SURFTAB1
 70
     6
  9
$SURFTAB2
 70
     6
  9
$SURFTYPE
 70
     6
  9
$SURFU
 70
     6
  9
$SURFV
 70
     6
  9
$UCSNAME
  2

  9
$UCSORG
 10
0.0
 20
0.0
 30
0.0
  9
$UCSXDIR
 10
1.0
 20
0.0
 30
0.0
  9
$UCSYDIR
 10
0.0
 20
1.0
 30
0.0
  9
$PUCSNAME
  2

  9
$PUCSORG
 10
0.0
 20
0.0
 30
0.0
  9
$PUCSXDIR
 10
1.0
 20
0.0
 30
0.0
  9
$PUCSYDIR
 10
0.0
 20
1.0
 30
0.0
  9
$USERI1
 70
     0
  9
$USERI2
 70
     0
  9
$USERI3
 70
     0
  9
$USERI4
 70
     0
  9
$USERI5
 70
     0
  9
$USERR1
 40
0.0
  9
$USERR2
 40
0.0
  9
$USERR3
 40
0.0
  9
$USERR4
 40
0.0
  9
$USERR5
 40
0.0
  9
$WORLDVIEW
 70
     1
  9
$SHADEDGE
 70
     3
  9
$SHADEDIF
 70
    70
  9
$TILEMODE
 70
     1
  9
$MAXACTVP
 70
    48
  9
$PLIMCHECK
 70
     0
  9
$PEXTMIN
 10
1.0000000000000000E+020
 20
1.0000000000000000E+020
 30
1.0000000000000000E+020
  9
$PEXTMAX
 10
-1.0000000000000000E+020
 20
-1.0000000000000000E+020
 30
-1.0000000000000000E+020
  9
$PLIMMIN
 10
0.0
 20
0.0
  9
$PLIMMAX
 10
420.0
 20
297.0
  9
$UNITMODE
 70
     0
  9
$VISRETAIN
 70
     1
  9
$PLINEGEN
 70
     0
  9
$PSLTSCALE
 70
     1
  0
ENDSEC
  0
SECTION
  2
TABLES
  0
TABLE
  2
VPORT
 70
     1
  0
VPORT
  2
*ACTIVE
 70
     0
 10
0.0
 20
0.0
 11
1.0
 21
1.0
 12
1683.3283467695701
 22
-926.6999821211017
 13
0.0
 23
0.0
 14
10.0
 24
10.0
 15
10.0
 25
10.0
 16
0.0
 26
0.0
 36
1.0
 17
0.0
 27
0.0
 37
0.0
 40
379.59852303538349
 41
2.1749379652605461
 42
50.0
 43
0.0
 44
0.0
 50
0.0
 51
0.0
 71
     0
 72
  1000
 73
     1
 74
     1
 75
     0
 76
     0
 77
     0
 78
     0
  0
ENDTAB
  0
TABLE
  2
LTYPE
 70
    13
  0
LTYPE
  2
CONTINUOUS
 70
     0
  3
Solid line
 72
    65
 73
     0
 40
0.0
  0
LTYPE
  2
XREF1|CENTER2
 70
    48
  3
Center (.5x) ___ _ ___ _ ___ _ ___ _ ___ _ ___
 72
    65
 73
     4
 40
28.574999999999999
 49
19.050000000000001
 49
-3.1749999999999989
 49
3.1749999999999989
 49
-3.1749999999999989
  0
LTYPE
  2
A3WAKUDAKE|CENTER2
 70
    48
  3
Center (.5x) ___ _ ___ _ ___ _ ___ _ ___ _ ___
 72
    65
 73
     4
 40
28.574999999999999
 49
19.050000000000001
 49
-3.1749999999999989
 49
3.1749999999999989
 49
-3.1749999999999989
  0
ENDTAB
  0
TABLE
  2
LAYER
 70
    59
  0
LAYER
  2
0
 70
     0
 62
     7
  6
CONTINUOUS
  0
LAYER
  2
1TEXT
 70
     0
 62
     7
  6
CONTINUOUS
  0
LAYER
  2
01
 70
     0
 62
     1
  6
CONTINUOUS
  0
LAYER
  2
A3WAKUDAKE|THICK
 70
    48
 62
     7
  6
CONTINUOUS
  0
LAYER
  2
A3WAKUDAKE|POINT
 70
    48
 62
     7
  6
CONTINUOUS
  0
LAYER
  2
A3WAKUDAKE|1CENTER
 70
    48
 62
     7
  6
A3WAKUDAKE|CENTER2
  0
LAYER
  2
A3WAKUDAKE|0-6
 70
    48
 62
     7
  6
CONTINUOUS
  0
LAYER
  2
A3WAKUDAKE|1DIM
 70
    48
 62
     7
  6
CONTINUOUS
  0
LAYER
  2
XREF1|1CENTER
 70
    48
 62
     7
  6
XREF1|CENTER2
  0
ENDTAB
  0
TABLE
  2
STYLE
 70
    22
  0
STYLE
  2
STANDARD
 70
     0
 40
0.0
 41
1.0
 50
0.0
 71
     0
 42
8.0
  3
romans.shx
  4
extfont.shx
  0
ENDTAB
  0
TABLE
  2
VIEW
 70
     5
  0
ENDTAB
  0
TABLE
  2
UCS
 70
     0
  0
ENDTAB
  0
TABLE
  2
APPID
 70
    16
  0
APPID
  2
ACAD
 70
     0
  0
APPID
  2
DRAWINGVARIABLESXDATA
 70
     0
  0
APPID
  2
CONTENTTABDATA
 70
     0
  0
APPID
  2
CONTENTCURRENTTAB
 70
     0
  0
APPID
  2
CONTENTBLOCKDESCRIPTION
 70
     0
  0
APPID
  2
CONTENTBLOCKICON
 70
     0
  0
APPID
  2
CONTENTLONGBLOCKNAME
 70
     0
  0
APPID
  2
ACAD_PSEXT
 70
     0
  0
APPID
  2
ACAD_DIMASSOC_CALC_DIMLFAC
 70
     0
  0
APPID
  2
ACAD_DIMASSOC_DIMLFAC
 70
     0
  0
APPID
  2
ACAD_DIMASSOC_OVERRIDDEN_D
 70
     0
  0
APPID
  2
ACAD_DSTYLE_DIMTEXT_FILL
 70
     0
  0
APPID
  2
ACAD_MLEADERVER
 70
     0
  0
APPID
  2
ACAD_NAV_VCDISPLAY
 70
     0
  0
APPID
  2
ACAD_EXEMPT_FROM_CAD_STANDARDS
 70
     0
  0
APPID
  2
ACLAYERTOOLS
 70
     0
  0
ENDTAB
  0
TABLE
  2
DIMSTYLE
 70
     8
  0
DIMSTYLE
  2
NEWX10
 70
     0
  3
 
  4

  5

  6
OPEN30
  7
OPEN30
 40
1.0
 41
2.0
 42
0.0
 43
7.0
 44
1.0
 45
0.0
 46
0.0
 47
0.0
 48
0.0
140
3.5
141
0.0
142
0.0
143
25.399999999999999
144
1.0
145
0.0
146
0.7
147
0.7
 71
     0
 72
     0
 73
     0
 74
     0
 75
     0
 76
     0
 77
     1
 78
     8
170
     0
171
     2
172
     1
173
     1
174
     0
175
     0
176
   256
177
   256
178
   201
  0
ENDTAB
  0
ENDSEC
  0
SECTION
  2
BLOCKS
  0
BLOCK
  8
0
  2
$MODEL_SPACE
 70
     0
 10
0.0
 20
0.0
 30
0.0
  3
$MODEL_SPACE
  1

  0
ENDBLK
  5
1A
  8
0
  0
BLOCK
 67
     1
  8
0
  2
$PAPER_SPACE
 70
     0
 10
0.0
 20
0.0
 30
0.0
  3
$PAPER_SPACE
  1

  0
ENDBLK
  5
17
 67
     1
  8
0
  0
BLOCK
  8
0
  2
_OPEN30
 70
     0
 10
0.0
 20
0.0
 30
0.0
  3
_OPEN30
  1

  0
LINE
  5
44
  8
0
  6
BYBLOCK
 62
     0
 10
-1.0
 20
0.26794919
 30
0.0
 11
0.0
 21
0.0
 31
0.0
  0
LINE
  5
45
  8
0
  6
BYBLOCK
 62
     0
 10
0.0
 20
0.0
 30
0.0
 11
-1.0
 21
-0.26794919
 31
0.0
  0
LINE
  5
46
  8
0
  6
BYBLOCK
 62
     0
 10
0.0
 20
0.0
 30
0.0
 11
-1.0
 21
0.0
 31
0.0
  0
ENDBLK
  5
47
  8
0
  0
BLOCK
  8
0
  2
XREF1
 70
    36
 10
0.0
 20
0.0
 30
0.0
  3
XREF1
  1
D:\ACLT\FORMAT\KAWAJUN(9)図面用.dwg
  0
ENDBLK
  5
5D
  8
0
  0
BLOCK
  8
0
  2
A3WAKUDAKE
 70
    36
 10
0.0
 20
0.0
 30
0.0
  3
A3WAKUDAKE
  1
D:\ACLT\FORMAT\A3WAKUdake.dwg
  0
ENDBLK
  5
200EB
  8
0
  0
ENDSEC
  0
SECTION
  2
ENTITIES
  0
LINE
  5
1D6A5
  8
01
 10
1826.991815970609
 20
-920.5029292082254
 30
0.0
 11
1826.991815970609
 21
-1085.5029292082249
 31
0.0
  0
LINE
  5
1D6A7
  8
01
 10
1833.9918159706081
 20
-991.00292920822551
 30
0.0
 11
1833.9918159706081
 21
-1073.5029292082249
 31
0.0
  0
LINE
  5
1D6A8
  8
01
 10
1862.991815970609
 20
-920.5029292082254
 30
0.0
 11
1862.991815970609
 21
-1085.5029292082249
 31
0.0
  0
ARC
  5
1D6A9
  8
01
 10
1862.4918159706081
 20
-1085.5029292082249
 30
0.0
 40
0.5
 50
270.0
 51
0.0
  0
ARC
  5
1D6AA
  8
01
 10
1862.4918159706081
 20
-920.5029292082254
 30
0.0
 40
0.5
 50
0.0
 51
90.0
  0
LINE
  5
1D6AB
  8
01
 10
1855.9918159706081
 20
-991.00292920822551
 30
0.0
 11
1855.9918159706081
 21
-1073.5029292082249
 31
0.0
  0
ARC
  5
1D6AC
  8
01
 10
1854.4918159706081
 20
-1073.5029292082249
 30
0.0
 40
1.5
 50
270.0
 51
0.0
  0
ARC
  5
1D6AD
  8
01
 10
1854.4918159706081
 20
-991.00292920822551
 30
0.0
 40
1.5
 50
0.0
 51
90.0
  0
LINE
  5
1D6AE
  8
01
 10
1827.4918159706081
 20
-920.0029292082254
 30
0.0
 11
1862.4918159706081
 21
-920.0029292082254
 31
0.0
  0
ARC
  5
1D6B4
  8
01
 10
1827.4918159706081
 20
-920.5029292082254
 30
0.0
 40
0.5
 50
90.0
 51
180.0
  0
LINE
  5
1D6B5
  8
01
 10
1827.4918159706081
 20
-1086.0029292082249
 30
0.0
 11
1862.4918159706081
 21
-1086.0029292082249
 31
0.0
  0
ARC
  5
1D6B6
  8
01
 10
1827.4918159706081
 20
-1085.5029292082249
 30
0.0
 40
0.5
 50
180.0
 51
270.0
  0
LINE
  5
1D6B7
  8
01
 10
1835.4918159706081
 20
-1075.0029292082249
 30
0.0
 11
1854.4918159706081
 21
-1075.0029292082249
 31
0.0
  0
ARC
  5
1D6B8
  8
01
 10
1835.4918159706081
 20
-1073.5029292082249
 30
0.0
 40
1.5
 50
180.0
 51
270.0
  0
LINE
  5
1D6B9
  8
01
 10
1835.4918159706081
 20
-989.5029292082254
 30
0.0
 11
1854.4918159706081
 21
-989.5029292082254
 31
0.0
  0
ARC
  5
1D6BA
  8
01
 10
1835.4918159706081
 20
-991.00292920822551
 30
0.0
 40
1.5
 50
90.0
 51
180.0
  0
LINE
  5
1D6BB
  8
01
 10
1750.0446354660951
 20
-920.50292920822585
 30
0.0
 11
1750.0446354660951
 21
-1085.5029292082261
 31
0.0
  0
ARC
  5
1D6BD
  8
01
 10
1749.5446354660951
 20
-920.50292920822585
 30
0.0
 40
0.5
 50
0.0
 51
90.0
  0
LINE
  5
1D6BE
  8
01
 10
1748.5446354660951
 20
-920.00292920822585
 30
0.0
 11
1748.5446354660951
 21
-1086.0029292082261
 31
0.0
  0
LINE
  5
1D6C7
  8
01
 10
1749.5446354660951
 20
-920.00292920822585
 30
0.0
 11
1748.5446354660951
 21
-920.00292920822585
 31
0.0
  0
LINE
  5
1D6C9
  8
01
 10
1749.5446354660951
 20
-1086.0029292082261
 30
0.0
 11
1748.5446354660951
 21
-1086.0029292082261
 31
0.0
  0
ARC
  5
1D6CB
  8
01
 10
1749.5446354660951
 20
-1085.5029292082261
 30
0.0
 40
0.5
 50
270.0
 51
0.0
  0
CIRCLE
  5
1D707
  8
01
 10
1844.9918159706081
 20
-927.0029292082254
 30
0.0
 40
3.1000000000000001
  0
CIRCLE
  5
1D70A
  8
01
 10
1844.9918159706081
 20
-1079.5029292082249
 30
0.0
 40
3.1000000000000001
  0
LINE
  5
1D714
  8
01
 10
1827.4918159706101
 20
-866.12915249825301
 30
0.0
 11
1862.4918159706101
 21
-866.12915249825301
 31
0.0
  0
ARC
  5
1D715
  8
01
 10
1827.4918159706101
 20
-865.62915249825289
 30
0.0
 40
0.5
 50
180.0
 51
270.0
  0
LINE
  5
1D716
  8
01
 10
1826.9918159706101
 20
-864.62915249825301
 30
0.0
 11
1862.9918159706101
 21
-864.62915249825301
 31
0.0
  0
LINE
  5
1D720
  8
01
 10
1826.9918159706101
 20
-865.62915249825289
 30
0.0
 11
1826.9918159706101
 21
-864.62915249825301
 31
0.0
  0
LINE
  5
1D723
  8
01
 10
1862.9918159706101
 20
-865.62915249825289
 30
0.0
 11
1862.9918159706101
 21
-864.62915249825301
 31
0.0
  0
ARC
  5
1D726
  8
01
 10
1862.4918159706101
 20
-865.62915249825289
 30
0.0
 40
0.5
 50
270.0
 51
0.0
  0
LINE
  5
1D727
  8
01
 10
1844.9918159706101
 20
-871.79004818040789
 30
0.0
 11
1844.9918159706101
 21
-831.01299086853396
 31
0.0
  0
LINE
  5
1D745
  8
01
 10
1623.019542844951
 20
-920.5029292082254
 30
0.0
 11
1623.019542844951
 21
-1085.5029292082249
 31
0.0
  0
LINE
  5
1D746
  8
01
 10
1630.019542844951
 20
-985.50292920822528
 30
0.0
 11
1630.019542844951
 21
-1073.5029292082249
 31
0.0
  0
ARC
  5
1D747
  8
01
 10
1631.519542844952
 20
-985.50292920822528
 30
0.0
 40
1.5
 50
90.0
 51
180.0
  0
LINE
  5
1D748
  8
01
 10
1659.019542844951
 20
-920.5029292082254
 30
0.0
 11
1659.019542844951
 21
-1085.5029292082249
 31
0.0
  0
ARC
  5
1D749
  8
01
 10
1658.519542844951
 20
-920.5029292082254
 30
0.0
 40
0.5
 50
0.0
 51
90.0
  0
ARC
  5
1D74A
  8
01
 10
1658.519542844951
 20
-1085.5029292082249
 30
0.0
 40
0.5
 50
270.0
 51
0.0
  0
LINE
  5
1D74B
  8
01
 10
1652.019542844951
 20
-985.50292920822574
 30
0.0
 11
1652.019542844951
 21
-1073.5029292082249
 31
0.0
  0
ARC
  5
1D74C
  8
01
 10
1650.519542844951
 20
-1073.5029292082249
 30
0.0
 40
1.5
 50
270.0
 51
0.0
  0
ARC
  5
1D74D
  8
01
 10
1650.519542844951
 20
-985.50292920822574
 30
0.0
 40
1.5
 50
0.0
 51
90.0
  0
LINE
  5
1D74E
  8
01
 10
1623.519542844951
 20
-920.0029292082254
 30
0.0
 11
1658.519542844951
 21
-920.0029292082254
 31
0.0
  0
ARC
  5
1D74F
  8
01
 10
1623.519542844951
 20
-920.5029292082254
 30
0.0
 40
0.5
 50
90.0
 51
180.0
  0
LINE
  5
1D750
  8
01
 10
1623.519542844951
 20
-1086.0029292082249
 30
0.0
 11
1658.519542844951
 21
-1086.0029292082249
 31
0.0
  0
ARC
  5
1D751
  8
01
 10
1623.519542844951
 20
-1085.5029292082249
 30
0.0
 40
0.5
 50
180.0
 51
270.0
  0
LINE
  5
1D752
  8
01
 10
1631.519542844952
 20
-1075.0029292082249
 30
0.0
 11
1650.519542844951
 21
-1075.0029292082249
 31
0.0
  0
ARC
  5
1D753
  8
01
 10
1631.519542844952
 20
-1073.5029292082249
 30
0.0
 40
1.5
 50
180.0
 51
270.0
  0
LINE
  5
1D754
  8
01
 10
1631.519542844952
 20
-984.0029292082254
 30
0.0
 11
1650.519542844951
 21
-984.00292920822562
 31
0.0
  0
LINE
  5
1D757
  8
01
 10
1719.0446354660951
 20
-920.5029292082254
 30
0.0
 11
1719.0446354660951
 21
-1085.5029292082249
 31
0.0
  0
LINE
  5
1D762
  8
01
 10
1720.5446354660951
 20
-920.0029292082254
 30
0.0
 11
1720.5446354660951
 21
-1086.0029292082249
 31
0.0
  0
LINE
  5
1D76A
  8
01
 10
1734.5446354660951
 20
-924.30292920822546
 30
0.0
 11
1734.544635466096
 21
-929.70292920822556
 31
0.0
  0
LINE
  5
1D76C
  8
01
 10
1719.5446354660951
 20
-1086.0029292082249
 30
0.0
 11
1720.5446354660951
 21
-1086.0029292082249
 31
0.0
  0
ARC
  5
1D76E
  8
01
 10
1719.5446354660951
 20
-1085.5029292082249
 30
0.0
 40
0.5
 50
180.0
 51
270.0
  0
LINE
  5
1D76F
  8
01
 10
1719.5446354660951
 20
-920.0029292082254
 30
0.0
 11
1720.5446354660951
 21
-920.0029292082254
 31
0.0
  0
ARC
  5
1D771
  8
01
 10
1719.5446354660951
 20
-920.5029292082254
 30
0.0
 40
0.5
 50
90.0
 51
180.0
  0
LINE
  5
1D7F9
  8
01
 10
1862.4918159706101
 20
-835.12915249825301
 30
0.0
 11
1827.4918159706101
 21
-835.12915249825301
 31
0.0
  0
ARC
  5
1D7FA
  8
01
 10
1862.4918159706101
 20
-835.62915249825301
 30
0.0
 40
0.5
 50
0.0
 51
90.0
  0
LINE
  5
1D7FB
  8
01
 10
1862.9918159706101
 20
-836.62915249825301
 30
0.0
 11
1826.9918159706101
 21
-836.62915249825301
 31
0.0
  0
LINE
  5
1D800
  8
01
 10
1862.9918159706101
 20
-835.62915249825301
 30
0.0
 11
1862.9918159706101
 21
-836.62915249825301
 31
0.0
  0
LINE
  5
1D801
  8
01
 10
1826.9918159706101
 20
-835.62915249825301
 30
0.0
 11
1826.9918159706101
 21
-836.62915249825301
 31
0.0
  0
ARC
  5
1D802
  8
01
 10
1827.4918159706101
 20
-835.62915249825301
 30
0.0
 40
0.5
 50
90.0
 51
180.0
  0
LINE
  5
1D812
  8
01
 10
1646.9195428449509
 20
-952.80292920822546
 30
0.0
 11
1649.4195428449509
 21
-952.80292920822546
 31
0.0
  0
ARC
  5
1D813
  8
01
 10
1649.4195428449509
 20
-953.30292920822558
 30
0.0
 40
0.5
 50
0.0
 51
90.0
  0
ARC
  5
1D814
  8
01
 10
1646.9195428449509
 20
-953.30292920822558
 30
0.0
 40
0.5
 50
90.0
 51
180.0
  0
LINE
  5
1D815
  8
01
 10
1646.9195428449509
 20
-965.50292920822562
 30
0.0
 11
1649.4195428449509
 21
-965.50292920822585
 31
0.0
  0
ARC
  5
1D816
  8
01
 10
1646.9195428449509
 20
-965.00292920822528
 30
0.0
 40
0.5
 50
180.0
 51
270.0
  0
ARC
  5
1D817
  8
01
 10
1649.4195428449509
 20
-965.00292920822585
 30
0.0
 40
0.5
 50
269.99999999998698
 51
0.0
  0
LINE
  5
1D819
  8
01
 10
1649.9195428449509
 20
-965.00292920822585
 30
0.0
 11
1649.9195428449509
 21
-953.30292920822558
 31
0.0
  0
LINE
  5
1D81A
  8
01
 10
1646.419542844952
 20
-965.00292920822585
 30
0.0
 11
1646.4195428449509
 21
-953.30292920822558
 31
0.0
  0
LINE
  5
1D897
  8
01
 10
1646.9695428449511
 20
-964.81550498485774
 30
0.0
 11
1649.3695428449521
 21
-964.81550498485785
 31
0.0
  0
ARC
  5
1D898
  8
01
 10
1649.3695428449521
 20
-964.51550498485767
 30
0.0
 40
0.3
 50
270.0
 51
0.0
  0
LINE
  5
1D899
  8
01
 10
1649.669542844952
 20
-958.11550498485735
 30
0.0
 11
1649.669542844952
 21
-960.01550498485744
 31
0.0
  0
ARC
  5
1D89A
  8
01
 10
1649.3695428449521
 20
-960.01550498485744
 30
0.0
 40
0.3
 50
270.0
 51
0.0
  0
LINE
  5
1D89B
  8
01
 10
1646.6695428449509
 20
-958.11550498485735
 30
0.0
 11
1646.6695428449509
 21
-960.01550498485744
 31
0.0
  0
ARC
  5
1D89C
  8
01
 10
1646.9695428449511
 20
-964.51550498485767
 30
0.0
 40
0.3
 50
180.0
 51
270.0
  0
ARC
  5
1D89D
  8
01
 10
1646.9695428449511
 20
-958.11550498485735
 30
0.0
 40
0.3
 50
90.0
 51
180.0
  0
LINE
  5
1D89E
  8
01
 10
1646.819542844951
 20
-957.81550498485751
 30
0.0
 11
1649.519542844951
 21
-957.81550498485751
 31
0.0
  0
ARC
  5
1D89F
  8
01
 10
1649.3695428449521
 20
-958.11550498485735
 30
0.0
 40
0.3
 50
0.0
 51
90.0
  0
LINE
  5
1D8A0
  8
01
 10
1646.9695428449511
 20
-962.31550498485751
 30
0.0
 11
1649.3695428449521
 21
-962.31550498485751
 31
0.0
  0
LINE
  5
1D8A1
  8
01
 10
1646.9695428449511
 20
-960.31550498485763
 30
0.0
 11
1649.3695428449521
 21
-960.31550498485763
 31
0.0
  0
ARC
  5
1D8A2
  8
01
 10
1646.9695428449511
 20
-960.01550498485744
 30
0.0
 40
0.3
 50
180.0
 51
270.0
  0
ARC
  5
1D8A3
  8
01
 10
1649.3695428449521
 20
-962.61550498485724
 30
0.0
 40
0.3
 50
0.0
 51
90.0
  0
ARC
  5
1D8A4
  8
01
 10
1646.9695428449511
 20
-962.61550498485724
 30
0.0
 40
0.3
 50
90.0
 51
180.0
  0
LINE
  5
1D8A5
  8
01
 10
1646.6695428449509
 20
-964.51550498485767
 30
0.0
 11
1646.6695428449509
 21
-962.61550498485724
 31
0.0
  0
LINE
  5
1D8A6
  8
01
 10
1649.669542844952
 20
-964.51550498485767
 30
0.0
 11
1649.669542844952
 21
-962.61550498485724
 31
0.0
  0
ARC
  5
1D8A9
  8
01
 10
1646.819542844951
 20
-956.81550498485751
 30
0.0
 40
1.0
 50
246.4218215218219
 51
270.0
  0
ARC
  5
1D8AC
  8
01
 10
1649.519542844951
 20
-956.81550498485751
 30
0.0
 40
1.0
 50
270.0
 51
293.57817847822429
  0
LINE
  5
1D929
  8
01
 10
1835.491815970611
 20
-1014.5655049848569
 30
0.0
 11
1854.491815970611
 21
-1014.5655049848569
 31
0.0
  0
ARC
  5
1D92A
  8
01
 10
1835.491815970611
 20
-1014.0655049848569
 30
0.0
 40
0.5
 50
180.0
 51
270.0
  0
LINE
  5
1D92B
  8
01
 10
1835.491815970611
 20
-1012.5655049848569
 30
0.0
 11
1854.491815970611
 21
-1012.5655049848569
 31
0.0
  0
ARC
  5
1D92C
  8
01
 10
1854.491815970611
 20
-1013.0655049848569
 30
0.0
 40
0.5
 50
0.0
 51
90.0
  0
LINE
  5
1D92D
  8
01
 10
1835.491815970611
 20
-995.56550498485751
 30
0.0
 11
1854.491815970611
 21
-995.56550498485751
 31
0.0
  0
LINE
  5
1D92E
  8
01
 10
1834.9918159706119
 20
-989.25129142248431
 30
0.0
 11
1834.991815970611
 21
-1014.0655049848569
 31
0.0
  0
ARC
  5
1D92F
  8
01
 10
1835.491815970611
 20
-995.06550498485763
 30
0.0
 40
0.5
 50
180.0
 51
270.0
  0
ARC
  5
1D930
  8
01
 10
1835.491815970611
 20
-1013.0655049848569
 30
0.0
 40
0.5
 50
90.0
 51
180.0
  0
LINE
  5
1D931
  8
01
 10
1854.9918159706119
 20
-1014.0655049848569
 30
0.0
 11
1854.9918159706119
 21
-989.25129142248454
 31
0.0
  0
ARC
  5
1D932
  8
01
 10
1854.491815970611
 20
-995.06550498485763
 30
0.0
 40
0.5
 50
270.0
 51
0.0
  0
ARC
  5
1D933
  8
01
 10
1854.491815970611
 20
-1014.0655049848569
 30
0.0
 40
0.5
 50
270.0
 51
0.0
  0
LINE
  5
1D934
  8
01
 10
1834.6118159706109
 20
-1012.5655049848569
 30
0.0
 11
1834.991815970611
 21
-1012.5655049848569
 31
0.0
  0
LINE
  5
1D935
  8
01
 10
1854.9918159706119
 20
-1012.5655049848569
 30
0.0
 11
1855.3718159706109
 21
-1012.5655049848569
 31
0.0
  0
LINE
  5
1D936
  8
01
 10
1834.6118159706109
 20
-992.56550498485751
 30
0.0
 11
1834.991815970611
 21
-992.56550498485751
 31
0.0
  0
LINE
  5
1D937
  8
01
 10
1854.991815970611
 20
-992.56550498485751
 30
0.0
 11
1855.3718159706109
 21
-992.56550498485751
 31
0.0
  0
ARC
  5
1D938
  8
01
 10
1834.6118159706109
 20
-992.06550498485751
 30
0.0
 40
0.5
 50
180.0
 51
270.0
  0
LINE
  5
1D939
  8
01
 10
1834.111815970612
 20
-1012.0655049848569
 30
0.0
 11
1834.11181597061
 21
-990.07762744659112
 31
0.0
  0
LINE
  5
1D93A
  8
01
 10
1855.8718159706109
 20
-1012.0655049848569
 30
0.0
 11
1855.8718159706109
 21
-990.07762744658942
 31
0.0
  0
ARC
  5
1D93B
  8
01
 10
1855.3718159706109
 20
-992.06550498485751
 30
0.0
 40
0.5
 50
270.0
 51
0.0
  0
ARC
  5
1DFFE
  8
01
 10
1855.3718159706109
 20
-1012.0655049848569
 30
0.0
 40
0.5
 50
270.0
 51
0.0000000000005725
  0
ARC
  5
1DFFF
  8
01
 10
1834.6118159706109
 20
-1012.0655049848569
 30
0.0
 40
0.5
 50
180.00000000000171
 51
270.0
  0
LINE
  5
1E7D4
  8
01
 10
1674.5195428449549
 20
-982.90292920822458
 30
0.0
 11
1674.519542844952
 21
-910.90292920822469
 31
0.0
  0
ARC
  5
1E7D5
  8
01
 10
1674.019542844954
 20
-966.40292920822469
 30
0.0
 40
0.5
 50
0.0
 51
90.000000000000028
  0
ARC
  5
1E7D6
  8
01
 10
1674.0195428449531
 20
-927.40292920822458
 30
0.0
 40
0.5
 50
270.0
 51
0.0
  0
LINE
  5
1E7D7
  8
01
 10
1619.019542844952
 20
-928.90292920822583
 30
0.0
 11
1619.0195428449531
 21
-956.00292920822596
 31
0.0
  0
ARC
  5
1E7D8
  8
01
 10
1620.019542844952
 20
-928.90292920822583
 30
0.0
 40
1.0
 50
90.000000000000028
 51
180.0
  0
ARC
  5
1E7D9
  8
01
 10
1620.0195428449531
 20
-956.00292920822596
 30
0.0
 40
1.0
 50
180.0
 51
270.0
  0
LINE
  5
1E7DA
  8
01
 10
1620.019542844952
 20
-927.9029292082256
 30
0.0
 11
1623.019542844951
 21
-927.9029292082256
 31
0.0
  0
LINE
  5
1E7DC
  8
01
 10
1659.019542844952
 20
-927.90292920822469
 30
0.0
 11
1674.0195428449531
 21
-927.90292920822469
 31
0.0
  0
LINE
  5
1E7DD
  8
01
 10
1670.462858959746
 20
-918.40292920822469
 30
0.0
 11
1682.115878043043
 21
-918.40292920822446
 31
0.0
  0
LINE
  5
1E7DE
  8
01
 10
1659.019542844951
 20
-965.90292920822503
 30
0.0
 11
1674.019542844954
 21
-965.90292920822458
 31
0.0
  0
LINE
  5
1E7DF
  8
01
 10
1670.4628589597471
 20
-975.40418411293342
 30
0.0
 11
1682.1158780430439
 21
-975.40418411293319
 31
0.0
  0
LINE
  5
1E7E1
  8
01
 10
1674.519542844952
 20
-910.90292920822469
 30
0.0
 11
1677.519542844952
 21
-910.90292920822469
 31
0.0
  0
LINE
  5
1E7E2
  8
01
 10
1674.5195428449549
 20
-982.90292920822458
 30
0.0
 11
1677.5195428449531
 21
-982.90292920822458
 31
0.0
  0
ARC
  5
1E7E5
  8
01
 10
1621.5195428449549
 20
-961.50292920822551
 30
0.0
 40
4.5
 50
70.528779365558435
 51
90.000000000000028
  0
LINE
  5
1E7EC
  8
01
 10
1621.519542844954
 20
-957.00292920822551
 30
0.0
 11
1620.0195428449531
 21
-957.00292920822596
 31
0.0
  0
ARC
  5
1E851
  8
01
 10
1669.519542849803
 20
-931.6029292082244
 30
0.0
 40
2.5
 50
180.0
 51
0.0
  0
LINE
  5
1E852
  8
01
 10
1672.019542849803
 20
-929.09411139600479
 30
0.0
 11
1667.0195428498021
 21
-929.09411139600479
 31
0.0
  0
LINE
  5
1E853
  8
01
 10
1667.0195428498021
 20
-929.09411139600479
 30
0.0
 11
1667.0195428498021
 21
-931.6029292082244
 31
0.0
  0
LINE
  5
1E854
  8
01
 10
1672.019542849803
 20
-929.09411139600479
 30
0.0
 11
1672.019542849803
 21
-931.6029292082244
 31
0.0
  0
LINE
  5
1E85B
  8
01
 10
1623.019542844951
 20
-928.86304284550499
 30
0.0
 11
1619.0203386225489
 21
-928.86304284550499
 31
0.0
  0
LINE
  5
1E8F4
  8
01
 10
1733.5445992273089
 20
-933.60292920822303
 30
0.0
 11
1733.5445992273089
 21
-934.64473252133314
 31
0.0
  0
LINE
  5
1E8F5
  8
01
 10
1735.5445992273089
 20
-933.60292920822303
 30
0.0
 11
1735.5445992273089
 21
-934.64473252133314
 31
0.0
  0
LINE
  5
1E8F6
  8
01
 10
1731.84459922731
 20
-934.90251735588322
 30
0.0
 11
1731.8445992273089
 21
-952.30292920822353
 31
0.0
  0
ARC
  5
1E8F7
  8
01
 10
1732.1445992273091
 20
-952.30292920822353
 30
0.0
 40
0.3
 50
180.0
 51
270.0
  0
ARC
  5
1E8F8
  8
01
 10
1732.14459922731
 20
-934.90251735588322
 30
0.0
 40
0.3
 50
90.0
 51
180.0
  0
LINE
  5
1E8F9
  8
01
 10
1737.2445992273099
 20
-934.90251735588322
 30
0.0
 11
1737.244599227309
 21
-952.30292920822353
 31
0.0
  0
ARC
  5
1E8FA
  8
01
 10
1736.944599227309
 20
-934.90251735588322
 30
0.0
 40
0.3
 50
0.0
 51
90.0
  0
LINE
  5
1E8FB
  8
01
 10
1733.5445992273089
 20
-933.60292920822303
 30
0.0
 11
1735.5445992273089
 21
-933.60292920822303
 31
0.0
  0
LINE
  5
1E8FC
  8
01
 10
1732.14459922731
 20
-934.60251735588315
 30
0.0
 11
1733.5445992273089
 21
-934.60251735588315
 31
0.0
  0
LINE
  5
1E8FD
  8
01
 10
1735.5445992273089
 20
-934.60251735588315
 30
0.0
 11
1736.944599227309
 21
-934.60251735588315
 31
0.0
  0
LINE
  5
1E8FE
  8
01
 10
1732.1445992273091
 20
-952.60292920822349
 30
0.0
 11
1736.9445992273079
 21
-952.60292920822349
 31
0.0
  0
ARC
  5
1E8FF
  8
01
 10
1736.9445992273079
 20
-952.30292920822353
 30
0.0
 40
0.3
 50
270.0
 51
0.0
  0
LINE
  5
1E9CE
  8
01
 10
1744.5446354660951
 20
-916.40292920822515
 30
0.0
 11
1744.5446354660951
 21
-977.40292920822537
 31
0.0
  0
ARC
  5
1E9CF
  8
01
 10
1738.5446354660951
 20
-916.40292920822515
 30
0.0
 40
6.0
 50
0.0
 51
90.0
  0
ARC
  5
1E9D0
  8
01
 10
1738.5446354660951
 20
-977.40292920822537
 30
0.0
 40
6.0
 50
270.0
 51
0.0
  0
LINE
  5
1E9D1
  8
01
 10
1724.5446354660951
 20
-916.40292920822537
 30
0.0
 11
1724.5446354660951
 21
-977.40292920822515
 31
0.0
  0
ARC
  5
1E9D2
  8
01
 10
1730.5446354660951
 20
-916.40292920822537
 30
0.0
 40
6.0
 50
90.0
 51
180.0
  0
ARC
  5
1E9D3
  8
01
 10
1730.5446354660951
 20
-977.40292920822515
 30
0.0
 40
6.0
 50
180.0
 51
270.0
  0
LINE
  5
1E9D4
  8
01
 10
1731.5446354660951
 20
-940.40292920822526
 30
0.0
 11
1731.5446354660951
 21
-962.90292920822515
 31
0.0
  0
LINE
  5
1E9D5
  8
01
 10
1737.5446354660951
 20
-940.40292920822526
 30
0.0
 11
1737.5446354660951
 21
-962.90292920822515
 31
0.0
  0
LINE
  5
1E9D6
  8
01
 10
1738.5446354660951
 20
-910.40292920822515
 30
0.0
 11
1730.5446354660951
 21
-910.40292920822549
 31
0.0
  0
LINE
  5
1E9D7
  8
01
 10
1738.5446354660951
 20
-983.40292920822537
 30
0.0
 11
1730.5446354660951
 21
-983.40292920822515
 31
0.0
  0
LINE
  5
1E9D8
  8
01
 10
1737.5446354660951
 20
-962.90292920822515
 30
0.0
 11
1731.5446354660951
 21
-962.90292920822515
 31
0.0
  0
LINE
  5
1E9D9
  8
01
 10
1731.5446354660951
 20
-940.40292920822526
 30
0.0
 11
1731.8445992273109
 21
-940.40292920822526
 31
0.0
  0
LINE
  5
1E9DA
  8
01
 10
1731.84459922731
 20
-940.40292920822526
 30
0.0
 11
1737.2445992273099
 21
-940.40292920822526
 31
0.0
  0
LINE
  5
1E9DB
  8
01
 10
1737.2445992273099
 20
-940.40292920822526
 30
0.0
 11
1737.5446354660951
 21
-940.40292920822526
 31
0.0
  0
CIRCLE
  5
1E9DC
  8
01
 10
1734.5446354660951
 20
-918.40292920822537
 30
0.0
 40
4.5
  0
CIRCLE
  5
1E9DD
  8
01
 10
1734.5446354660951
 20
-918.40292920822537
 30
0.0
 40
2.4999999999999711
  0
CIRCLE
  5
1E9DE
  8
01
 10
1734.5446354660951
 20
-975.40418411293388
 30
0.0
 40
4.5
  0
CIRCLE
  5
1E9DF
  8
01
 10
1734.5446354660951
 20
-975.40418411293388
 30
0.0
 40
2.4999999999999711
  0
TEXT
  5
1E9E0
  8
01
 10
1727.1834177689609
 20
-968.88205542240348
 30
0.0
 40
3.0
  1
KAWAJUN
 41
0.73
 11
1727.1834177689609
 21
-968.88205542240348
 31
0.0
 73
     1
  0
LINE
  5
1E9E1
  8
01
 10
1739.0446354660951
 20
-932.90292920822526
 30
0.0
 11
1730.0446354660951
 21
-932.90292920822526
 31
0.0
  0
LINE
  5
1E9E2
  8
01
 10
1730.0446354660951
 20
-927.90292920822537
 30
0.0
 11
1739.0446354660951
 21
-927.90292920822537
 31
0.0
  0
ARC
  5
1E9E3
  8
01
 10
1730.0446354660951
 20
-930.40292920822526
 30
0.0
 40
2.5000000000000351
 50
90.0
 51
270.0
  0
ARC
  5
1E9E4
  8
01
 10
1739.0446354660951
 20
-930.40292920822549
 30
0.0
 40
2.5000000000000702
 50
270.0
 51
90.0
  0
LINE
  5
1E9FB
  8
01
 10
1679.019542844952
 20
-983.40292920822469
 30
0.0
 11
1679.019542844952
 21
-910.40292920822458
 31
0.0
  0
LINE
  5
1E9FC
  8
01
 10
1677.519542844952
 20
-983.40292920822469
 30
0.0
 11
1677.519542844952
 21
-910.40292920822458
 31
0.0
  0
LINE
  5
1E9FD
  8
01
 10
1679.019542844952
 20
-910.40292920822458
 30
0.0
 11
1677.519542844952
 21
-910.40292920822458
 31
0.0
  0
LINE
  5
1E9FE
  8
01
 10
1679.019542844952
 20
-983.40292920822469
 30
0.0
 11
1677.519542844952
 21
-983.40292920822469
 31
0.0
  0
LINE
  5
1EA12
  8
01
 10
1728.6945992273079
 20
-975.40423390347792
 30
0.0
 11
1740.3945992273091
 21
-975.40423390347792
 31
0.0
  0
LINE
  5
1EA13
  8
01
 10
1728.6945992273079
 20
-918.40293390347767
 30
0.0
 11
1740.3945992273091
 21
-918.40293390347767
 31
0.0
  0
LINE
  5
1EA14
  8
01
 10
1734.5445992273089
 20
-987.02728180092743
 30
0.0
 11
1734.5445992273089
 21
-906.68269059525005
 31
0.0
  0
LINE
  5
1EA2D
  8
01
 10
1685.0195428436209
 20
-941.60292920822246
 30
0.0
 11
1685.0195428436209
 21
-934.60292920822224
 31
0.0
  0
ARC
  5
1EA2E
  8
01
 10
1684.0195428436209
 20
-941.60292920822246
 30
0.0
 40
1.0
 50
270.0
 51
0.0
  0
LINE
  5
1EA2F
  8
01
 10
1684.0195428436209
 20
-942.60292920822235
 30
0.0
 11
1679.019542843622
 21
-942.60292920822235
 31
0.0
  0
LINE
  5
1EA30
  8
01
 10
1685.976756831973
 20
-951.60292920822258
 30
0.0
 11
1679.019542843622
 21
-951.60292920822258
 31
0.0
  0
ARC
  5
1EA31
  8
01
 10
1686.0195428436209
 20
-934.60292920822224
 30
0.0
 40
1.0
 50
70.000000000010772
 51
180.0
  0
ARC
  5
1EA32
  8
01
 10
1669.5195428436209
 20
-937.60292920822235
 30
0.0
 40
22.794946129212502
 50
326.24123693480482
 51
344.22762236037028
  0
ARC
  5
1EA33
  8
01
 10
1685.976756831973
 20
-948.60292920822269
 30
0.0
 40
3.0
 50
270.0
 51
326.24123693480482
  0
ARC
  5
1EA34
  8
01
 10
1688.569192392117
 20
-942.98351879839572
 30
0.0
 40
3.0
 50
344.22762236037028
 51
27.773381351468821
  0
LINE
  5
1EA35
  8
01
 10
1691.2235850573479
 20
-941.58559191233428
 30
0.0
 11
1687.3947976138099
 21
-934.31546540701675
 31
0.0
  0
LINE
  5
1EA36
  8
01
 10
1686.3615629869471
 20
-933.6632365874359
 30
0.0
 11
1686.85202020206
 21
-933.84174841491824
 31
0.0
  0
ARC
  5
1EA37
  8
01
 10
1686.510000058734
 20
-934.78144103570355
 30
0.0
 40
1.0
 50
27.773381351468821
 51
70.000000000010772
  0
LINE
  5
1EA38
  8
01
 10
1686.5748891721951
 20
-952.60292920822258
 30
0.0
 11
1679.019542843622
 21
-952.60292920822258
 31
0.0
  0
LINE
  5
1EA39
  8
01
 10
1686.0969033537999
 20
-951.60292920822258
 30
0.0
 11
1679.019542843622
 21
-951.60292920822258
 31
0.0
  0
ARC
  5
1EA3A
  8
01
 10
1669.5195428436209
 20
-937.60292920822235
 30
0.0
 40
22.894946129212499
 50
326.4335152215458
 51
344.22762236037028
  0
ARC
  5
1EA3B
  8
01
 10
1686.0969033537999
 20
-948.60292920822269
 30
0.0
 40
3.0
 50
270.0
 51
326.4335152215458
  0
ARC
  5
1EA3C
  8
01
 10
1669.5195428436209
 20
-937.60292920822235
 30
0.0
 40
24.294946129212502
 50
327.17964080837612
 51
344.22762236037028
  0
ARC
  5
1EA3D
  8
01
 10
1686.5748891721951
 20
-948.60292920822269
 30
0.0
 40
4.0
 50
270.0
 51
327.17964080837612
  0
ARC
  5
1EA3E
  8
01
 10
1688.569192392117
 20
-942.98351879839572
 30
0.0
 40
3.1000000000000001
 50
344.22762236037028
 51
27.773381351427869
  0
ARC
  5
1EA3F
  8
01
 10
1688.569192392117
 20
-942.98351879839572
 30
0.0
 40
4.5
 50
344.22762236037028
 51
27.773381351427869
  0
LINE
  5
1EA40
  8
01
 10
1691.3120648128549
 20
-941.53899434946572
 30
0.0
 11
1688.199428513733
 21
-935.6287002959632
 31
0.0
  0
LINE
  5
1EA41
  8
01
 10
1692.5507813899619
 20
-940.88662846930629
 30
0.0
 11
1689.438145090842
 21
-934.97633441580092
 31
0.0
  0
LINE
  5
1EA42
  8
01
 10
1686.3615629869471
 20
-933.66323658743556
 30
0.0
 11
1689.0582009026141
 21
-934.644732521332
 31
0.0
  0
ARC
  5
1EA43
  8
01
 10
1688.818786802286
 20
-935.3025173558824
 30
0.0
 40
0.7000000000000811
 50
27.773381351427869
 51
207.77338135142779
  0
CIRCLE
  5
1EA44
  8
01
 10
1688.0195428436209
 20
-944.60292920822235
 30
0.0
 40
1.5
  0
CIRCLE
  5
1EA45
  8
01
 10
1680.5195428436209
 20
-946.60292920822269
 30
0.0
 40
1.5
  0
LINE
  5
1EA6C
  8
01
 10
1735.5445992273089
 20
-933.60292920822303
 30
0.0
 11
1737.0445992273089
 21
-933.60292920822303
 31
0.0
  0
LINE
  5
1EA6D
  8
01
 10
1737.0445992273089
 20
-933.60292920822303
 30
0.0
 11
1737.0445992273089
 21
-934.61967464340853
 31
0.0
  0
LINE
  5
1EA6E
  8
01
 10
1737.2445992273099
 20
-945.4029292082198
 30
0.0
 11
1737.5446354660951
 21
-945.4029292082198
 31
0.0
  0
LINE
  5
1EA6F
  8
01
 10
1737.2445992273099
 20
-947.80292920822353
 30
0.0
 11
1737.5446354660951
 21
-947.80292920822353
 31
0.0
  0
LINE
  5
1EA70
  8
01
 10
1733.5445992273089
 20
-933.60292920822303
 30
0.0
 11
1732.0445992273089
 21
-933.60292920822303
 31
0.0
  0
LINE
  5
1EA71
  8
01
 10
1732.0445992273089
 20
-933.60292920822303
 30
0.0
 11
1732.0445992273101
 21
-934.61967464340876
 31
0.0
  0
LINE
  5
1EE33
  8
01
 10
1811.491815970611
 20
-982.90292920822526
 30
0.0
 11
1811.4918159706119
 21
-910.90292920822526
 31
0.0
  0
ARC
  5
1EE34
  8
01
 10
1811.991815970611
 20
-962.40292920822526
 30
0.0
 40
0.5
 50
180.0
 51
233.13010235071019
  0
ARC
  5
1EE35
  8
01
 10
1811.9918159706119
 20
-931.40292920822526
 30
0.0
 40
0.5
 50
126.8698976494852
 51
180.0
  0
ARC
  5
1EE36
  8
01
 10
1811.991815970611
 20
-966.40292920822537
 30
0.0
 40
0.5
 50
90.0
 51
180.0
  0
ARC
  5
1EE37
  8
01
 10
1811.9918159706119
 20
-927.40292920822537
 30
0.0
 40
0.5
 50
180.0
 51
270.0
  0
LINE
  5
1EE38
  8
01
 10
1815.548499855819
 20
-918.40292920822537
 30
0.0
 11
1803.895480772522
 21
-918.40292920822537
 31
0.0
  0
LINE
  5
1EE39
  8
01
 10
1815.548499855819
 20
-975.40418411293388
 30
0.0
 11
1803.895480772522
 21
-975.40418411293388
 31
0.0
  0
LINE
  5
1EE3A
  8
01
 10
1811.4918159706119
 20
-910.90292920822526
 30
0.0
 11
1808.4918159706119
 21
-910.90292920822526
 31
0.0
  0
LINE
  5
1EE3B
  8
01
 10
1811.491815970611
 20
-982.90292920822526
 30
0.0
 11
1808.4918159706119
 21
-982.90292920822526
 31
0.0
  0
ARC
  5
1EE3F
  8
01
 10
1864.491815970606
 20
-961.50292920822528
 30
0.0
 40
4.5
 50
90.0
 51
109.47122063446631
  0
LINE
  5
1EE41
  8
01
 10
1866.9918159705869
 20
-928.90292920822537
 30
0.0
 11
1866.9918159705869
 21
-956.00292920822574
 31
0.0
  0
ARC
  5
1EE42
  8
01
 10
1865.9918159705869
 20
-928.90292920822537
 30
0.0
 40
1.0
 50
0.0
 51
90.0
  0
ARC
  5
1EE43
  8
01
 10
1865.9918159705869
 20
-956.00292920822574
 30
0.0
 40
1.0
 50
270.0
 51
0.0
  0
LINE
  5
1EE44
  8
01
 10
1865.9918159705869
 20
-927.90292920822537
 30
0.0
 11
1862.991815970609
 21
-927.90292920822537
 31
0.0
  0
LINE
  5
1EE46
  8
01
 10
1826.9918159706081
 20
-927.90292920822537
 30
0.0
 11
1811.691815970587
 21
-927.90292920822537
 31
0.0
  0
LINE
  5
1EE47
  8
01
 10
1826.991815970609
 20
-965.90292920822549
 30
0.0
 11
1811.691815970587
 21
-965.90292920822549
 31
0.0
  0
LINE
  5
1EE4C
  8
01
 10
1864.491815970586
 20
-957.00292920822528
 30
0.0
 11
1865.9918159705869
 21
-957.00292920822562
 31
0.0
  0
LINE
  5
1EE4F
  8
01
 10
1811.691815970587
 20
-927.90292920822537
 30
0.0
 11
1811.691815970587
 21
-965.90292920822549
 31
0.0
  0
ARC
  5
1EE51
  8
01
 10
1816.4918159706051
 20
-931.60292920822531
 30
0.0
 40
2.5
 50
180.0
 51
0.0
  0
LINE
  5
1EE52
  8
01
 10
1813.9918159706051
 20
-929.0941113960057
 30
0.0
 11
1818.9918159706051
 21
-929.0941113960057
 31
0.0
  0
LINE
  5
1EE53
  8
01
 10
1818.9918159706051
 20
-929.0941113960057
 30
0.0
 11
1818.9918159706051
 21
-931.60292920822531
 31
0.0
  0
LINE
  5
1EE54
  8
01
 10
1813.9918159706051
 20
-929.0941113960057
 30
0.0
 11
1813.9918159706051
 21
-931.60292920822531
 31
0.0
  0
LINE
  5
1EE73
  8
01
 10
1862.991815970609
 20
-928.86304284550613
 30
0.0
 11
1866.9910201929899
 21
-928.8630428455059
 31
0.0
  0
LINE
  5
1EE76
  8
01
 10
1806.991815970611
 20
-983.40292920822515
 30
0.0
 11
1806.991815970611
 21
-910.40292920822515
 31
0.0
  0
LINE
  5
1EE77
  8
01
 10
1808.4918159706119
 20
-983.40292920822515
 30
0.0
 11
1808.4918159706119
 21
-910.40292920822515
 31
0.0
  0
LINE
  5
1EE78
  8
01
 10
1806.991815970611
 20
-910.40292920822515
 30
0.0
 11
1808.4918159706119
 21
-910.40292920822515
 31
0.0
  0
LINE
  5
1EE79
  8
01
 10
1806.991815970611
 20
-983.40292920822515
 30
0.0
 11
1808.4918159706119
 21
-983.40292920822515
 31
0.0
  0
LINE
  5
1EE7A
  8
01
 10
1800.9918159706131
 20
-941.60292920822314
 30
0.0
 11
1800.9918159706131
 21
-934.60292920822303
 31
0.0
  0
ARC
  5
1EE7B
  8
01
 10
1801.991815970614
 20
-941.60292920822314
 30
0.0
 40
1.0
 50
180.0
 51
270.0
  0
LINE
  5
1EE7C
  8
01
 10
1801.991815970614
 20
-942.60292920822314
 30
0.0
 11
1806.9918159706131
 21
-942.60292920822326
 31
0.0
  0
LINE
  5
1EE7D
  8
01
 10
1800.0346019822609
 20
-951.60292920822349
 30
0.0
 11
1806.991815970611
 21
-951.60292920822349
 31
0.0
  0
ARC
  5
1EE7E
  8
01
 10
1799.9918159706131
 20
-934.60292920822303
 30
0.0
 40
1.0
 50
0.0
 51
109.9999999999892
  0
ARC
  5
1EE7F
  8
01
 10
1816.4918159706119
 20
-937.60292920822326
 30
0.0
 40
22.794946129212502
 50
195.7723776396297
 51
213.7587630651951
  0
ARC
  5
1EE80
  8
01
 10
1800.0346019822609
 20
-948.60292920822337
 30
0.0
 40
3.0
 50
213.7587630651951
 51
270.0
  0
ARC
  5
1EE81
  8
01
 10
1797.442166422117
 20
-942.98351879839652
 30
0.0
 40
3.0
 50
152.2266186485312
 51
195.7723776396297
  0
LINE
  5
1EE82
  8
01
 10
1794.7877737568861
 20
-941.58559191233496
 30
0.0
 11
1798.616561200424
 21
-934.31546540701743
 31
0.0
  0
LINE
  5
1EE83
  8
01
 10
1799.6497958272871
 20
-933.66323658743681
 30
0.0
 11
1799.159338612174
 21
-933.84174841491892
 31
0.0
  0
ARC
  5
1EE84
  8
01
 10
1799.5013587555
 20
-934.78144103570435
 30
0.0
 40
1.0
 50
109.9999999999892
 51
152.2266186485312
  0
LINE
  5
1EE8D
  8
01
 10
1799.4364696420389
 20
-952.60292920822326
 30
0.0
 11
1806.991815970611
 21
-952.60292920822349
 31
0.0
  0
LINE
  5
1EE8E
  8
01
 10
1799.9144554604341
 20
-951.60292920822349
 30
0.0
 11
1806.991815970611
 21
-951.60292920822349
 31
0.0
  0
ARC
  5
1EE8F
  8
01
 10
1816.4918159706119
 20
-937.60292920822326
 30
0.0
 40
22.894946129212499
 50
195.7723776396297
 51
213.5664847784542
  0
ARC
  5
1EE90
  8
01
 10
1799.9144554604341
 20
-948.60292920822337
 30
0.0
 40
3.0
 50
213.5664847784542
 51
270.0
  0
ARC
  5
1EE91
  8
01
 10
1816.4918159706119
 20
-937.60292920822326
 30
0.0
 40
24.294946129212502
 50
195.7723776396297
 51
212.82035919162391
  0
ARC
  5
1EE92
  8
01
 10
1799.4364696420389
 20
-948.60292920822337
 30
0.0
 40
4.0
 50
212.82035919162391
 51
270.0
  0
ARC
  5
1EE93
  8
01
 10
1797.442166422117
 20
-942.98351879839652
 30
0.0
 40
3.1000000000000001
 50
152.2266186485721
 51
195.7723776396297
  0
ARC
  5
1EE94
  8
01
 10
1797.442166422117
 20
-942.98351879839652
 30
0.0
 40
4.5
 50
152.2266186485721
 51
195.7723776396297
  0
LINE
  5
1EE95
  8
01
 10
1794.699294001379
 20
-941.53899434946641
 30
0.0
 11
1797.811930300501
 21
-935.62870029596411
 31
0.0
  0
LINE
  5
1EE96
  8
01
 10
1793.4605774242721
 20
-940.88662846930742
 30
0.0
 11
1796.573213723392
 21
-934.97633441580183
 31
0.0
  0
LINE
  5
1EE97
  8
01
 10
1799.6497958272871
 20
-933.66323658743624
 30
0.0
 11
1796.9531579116201
 21
-934.64473252133268
 31
0.0
  0
ARC
  5
1EE98
  8
01
 10
1797.192572011947
 20
-935.30251735588331
 30
0.0
 40
0.7000000000000811
 50
332.22661864857213
 51
152.2266186485721
  0
CIRCLE
  5
1EE99
  8
01
 10
1797.9918159706131
 20
-944.60292920822326
 30
0.0
 40
1.5
  0
CIRCLE
  5
1EE9A
  8
01
 10
1805.4918159706131
 20
-946.60292920822337
 30
0.0
 40
1.5
  0
CIRCLE
  5
1EEA1
  8
01
 10
1816.491815970609
 20
-931.60292920822531
 30
0.0
 40
2.0
  0
ARC
  5
1EEA3
  8
01
 10
1861.9918159705869
 20
-939.90292920822594
 30
0.0
 40
2.0
 50
300.00000000072282
 51
59.999999999277158
  0
LINE
  5
1EECB
  8
01
 10
1734.5446354660951
 20
-987.02728180092743
 30
0.0
 11
1734.5446354660951
 21
-909.78777692885615
 31
0.0
  0
LINE
  5
1F193
  8
01
 10
1811.491815970611
 20
-841.12915249825278
 30
0.0
 11
1811.4918159706101
 21
-860.12915249825278
 31
0.0
  0
LINE
  5
1F194
  8
01
 10
1866.991815970609
 20
-847.82915249825294
 30
0.0
 11
1866.9918159706101
 21
-850.62915249825289
 31
0.0
  0
ARC
  5
1F195
  8
01
 10
1865.9918159706101
 20
-847.82915249825294
 30
0.0
 40
1.0
 50
0.0
 51
90.0
  0
ARC
  5
1F198
  8
01
 10
1840.8918159706309
 20
-847.82915249825294
 30
0.0
 40
1.0
 50
0.0
 51
90.0
  0
ARC
  5
1F199
  8
01
 10
1849.09181597061
 20
-847.82915249825294
 30
0.0
 40
1.0
 50
90.0
 51
180.0
  0
ARC
  5
1F19A
  8
01
 10
1853.8918159706309
 20
-847.82915249825294
 30
0.0
 40
1.0
 50
0.0
 51
90.0
  0
ARC
  5
1F19B
  8
01
 10
1862.0918159705891
 20
-847.82915249825294
 30
0.0
 40
1.0
 50
90.0
 51
180.0
  0
ARC
  5
1F19C
  8
01
 10
1831.9918159706101
 20
-845.82915249825294
 30
0.0
 40
1.0
 50
179.99999999998701
 51
270.0
  0
LINE
  5
1F19D
  8
01
 10
1829.9918159706101
 20
-842.62915249825289
 30
0.0
 11
1811.9918159706101
 21
-842.62915249825289
 31
0.0
  0
ARC
  5
1F19E
  8
01
 10
1811.9918159706101
 20
-842.12915249825301
 30
0.0
 40
0.5
 50
180.0
 51
270.0
  0
ARC
  5
1F19F
  8
01
 10
1829.9918159706101
 20
-843.62915249825289
 30
0.0
 40
1.0
 50
0.0
 51
90.0
  0
LINE
  5
1F1A0
  8
01
 10
1808.491815970609
 20
-860.12915249825278
 30
0.0
 11
1811.4918159706101
 21
-860.12915249825278
 31
0.0
  0
LINE
  5
1F1A1
  8
01
 10
1808.491815970609
 20
-841.12915249825278
 30
0.0
 11
1811.491815970611
 21
-841.12915249825278
 31
0.0
  0
LINE
  5
1F1A2
  8
01
 10
1830.9918159706101
 20
-843.62915249825301
 30
0.0
 11
1830.9918159706101
 21
-845.82915249825271
 31
0.0
  0
LINE
  5
1F1AC
  8
01
 10
1861.0918159705891
 20
-847.82915249825294
 30
0.0
 11
1861.091815970588
 21
-850.62915249825289
 31
0.0
  0
LINE
  5
1F1AD
  8
01
 10
1854.8918159706309
 20
-847.82915249825294
 30
0.0
 11
1854.8918159706309
 21
-850.62915249825289
 31
0.0
  0
LINE
  5
1F1AE
  8
01
 10
1848.09181597061
 20
-847.82915249825294
 30
0.0
 11
1848.09181597061
 21
-850.62915249825289
 31
0.0
  0
LINE
  5
1F1AF
  8
01
 10
1841.8918159706309
 20
-847.82915249825294
 30
0.0
 11
1841.8918159706309
 21
-850.62915249825289
 31
0.0
  0
LINE
  5
1F1B1
  8
01
 10
1811.6918159706099
 20
-850.62915249825289
 30
0.0
 11
1811.691815970609
 21
-858.62915249825289
 31
0.0
  0
LINE
  5
1F1B2
  8
01
 10
1865.991815970609
 20
-854.42915249825285
 30
0.0
 11
1831.991815970609
 21
-854.42915249825285
 31
0.0
  0
ARC
  5
1F1B3
  8
01
 10
1862.091815970608
 20
-853.42915249825285
 30
0.0
 40
1.0
 50
180.0
 51
270.0
  0
ARC
  5
1F1B4
  8
01
 10
1853.8918159706291
 20
-853.42915249825285
 30
0.0
 40
1.0
 50
270.0
 51
0.0
  0
ARC
  5
1F1B5
  8
01
 10
1849.0918159705891
 20
-853.42915249825285
 30
0.0
 40
1.0
 50
180.0
 51
270.0
  0
ARC
  5
1F1B6
  8
01
 10
1840.89181597063
 20
-853.42915249825285
 30
0.0
 40
1.0
 50
270.0
 51
0.0
  0
ARC
  5
1F1B7
  8
01
 10
1865.991815970609
 20
-853.42915249825285
 30
0.0
 40
1.0
 50
270.0
 51
0.0
  0
LINE
  5
1F1B8
  8
01
 10
1829.991815970609
 20
-858.62915249825289
 30
0.0
 11
1811.691815970609
 21
-858.62915249825289
 31
0.0
  0
ARC
  5
1F1B9
  8
01
 10
1829.991815970609
 20
-857.62915249825289
 30
0.0
 40
1.0
 50
270.0
 51
0.0
  0
LINE
  5
1F1BA
  8
01
 10
1830.991815970609
 20
-855.42915249825285
 30
0.0
 11
1830.991815970609
 21
-857.62915249825289
 31
0.0
  0
ARC
  5
1F1BB
  8
01
 10
1831.991815970609
 20
-855.42915249825273
 30
0.0
 40
1.0
 50
90.0
 51
180.0
  0
LINE
  5
1F1BC
  8
01
 10
1866.991815970609
 20
-850.62915249825289
 30
0.0
 11
1866.991815970609
 21
-853.42915249825285
 31
0.0
  0
LINE
  5
1F1C0
  8
01
 10
1841.8918159706309
 20
-853.42915249825285
 30
0.0
 11
1841.8918159706309
 21
-850.62915249825289
 31
0.0
  0
LINE
  5
1F1C1
  8
01
 10
1848.0918159705891
 20
-853.42915249825285
 30
0.0
 11
1848.0918159705891
 21
-850.62915249825289
 31
0.0
  0
LINE
  5
1F1C2
  8
01
 10
1854.8918159706291
 20
-853.42915249825285
 30
0.0
 11
1854.8918159706291
 21
-850.62915249825289
 31
0.0
  0
LINE
  5
1F1C3
  8
01
 10
1861.091815970608
 20
-853.42915249825285
 30
0.0
 11
1861.091815970608
 21
-850.62915249825289
 31
0.0
  0
LINE
  5
1F1C5
  8
01
 10
1806.9918159706101
 20
-864.62915249825301
 30
0.0
 11
1806.9918159706101
 21
-836.62915249825301
 31
0.0
  0
LINE
  5
1F1C6
  8
01
 10
1808.491815970609
 20
-860.62915249825289
 30
0.0
 11
1808.491815970609
 21
-840.62915249825289
 31
0.0
  0
LINE
  5
1F1C7
  8
01
 10
1808.491815970609
 20
-860.62915249825289
 30
0.0
 11
1806.9918159706101
 21
-860.62915249825289
 31
0.0
  0
LINE
  5
1F1C8
  8
01
 10
1806.9918159706101
 20
-840.62915249825289
 30
0.0
 11
1808.491815970609
 21
-840.62915249825289
 31
0.0
  0
LINE
  5
1F1C9
  8
01
 10
1793.242166422116
 20
-847.92915249825296
 30
0.0
 11
1806.9918159706101
 21
-847.92915249825296
 31
0.0
  0
ARC
  5
1F1CA
  8
01
 10
1797.5925720119451
 20
-848.2291524982528
 30
0.0
 40
0.3
 50
0.0
 51
90.0
  0
LINE
  5
1F1CB
  8
01
 10
1796.9531579116169
 20
-851.62915249825289
 30
0.0
 11
1806.9918159706101
 21
-851.62915249825289
 31
0.0
  0
LINE
  5
1F1CC
  8
01
 10
1796.9531579116169
 20
-849.62915249825289
 30
0.0
 11
1806.9918159706101
 21
-849.62915249825289
 31
0.0
  0
LINE
  5
1F1CD
  8
01
 10
1793.2421664221149
 20
-853.32915249825282
 30
0.0
 11
1806.9918159706101
 21
-853.32915249825282
 31
0.0
  0
ARC
  5
1F1CE
  8
01
 10
1797.592572011946
 20
-853.02915249825276
 30
0.0
 40
0.3
 50
270.0
 51
0.0000000000260592
  0
ARC
  5
1F1CF
  8
01
 10
1793.2421664221149
 20
-853.02915249825276
 30
0.0
 40
0.3
 50
179.99999999998701
 51
270.0
  0
LINE
  5
1F1D0
  8
01
 10
1792.942166422115
 20
-848.2291524982528
 30
0.0
 11
1792.942166422115
 21
-853.02915249825276
 31
0.0
  0
ARC
  5
1F1D1
  8
01
 10
1793.242166422116
 20
-848.2291524982528
 30
0.0
 40
0.3
 50
90.0
 51
180.0
  0
LINE
  5
1F1D2
  8
01
 10
1800.991815970611
 20
-849.62915249825289
 30
0.0
 11
1800.991815970611
 21
-851.62915249825289
 31
0.0
  0
LINE
  5
1F1D3
  8
01
 10
1797.892572011946
 20
-848.2291524982528
 30
0.0
 11
1797.892572011946
 21
-849.62915249825289
 31
0.0
  0
LINE
  5
1F1D4
  8
01
 10
1797.892572011945
 20
-851.62915249825289
 30
0.0
 11
1797.892572011946
 21
-853.02915249825264
 31
0.0
  0
LINE
  5
1F1D7
  8
01
 10
1806.9918159706101
 20
-853.12915249825289
 30
0.0
 11
1797.8754147244199
 21
-853.12915249825289
 31
0.0
  0
LINE
  5
1F1D8
  8
01
 10
1800.991815970611
 20
-851.62915249825312
 30
0.0
 11
1800.991815970611
 21
-853.12915249825289
 31
0.0
  0
LINE
  5
1F1D9
  8
01
 10
1806.9918159706101
 20
-848.12915249825289
 30
0.0
 11
1797.875414724419
 21
-848.12915249825289
 31
0.0
  0
LINE
  5
1F1DB
  8
01
 10
1800.991815970611
 20
-849.62915249825289
 30
0.0
 11
1800.991815970611
 21
-848.12915249825301
 31
0.0
  0
LINE
  5
1F1DC
  8
01
 10
1835.4918159706101
 20
-854.92915249825296
 30
0.0
 11
1835.4918159706101
 21
-854.42915249825285
 31
0.0
  0
LINE
  5
1F1DD
  8
01
 10
1831.491815970611
 20
-854.92915249825296
 30
0.0
 11
1831.491815970611
 21
-854.5631270944674
 31
0.0
  0
LINE
  5
1F1DE
  8
01
 10
1831.491815970611
 20
-854.92915249825296
 30
0.0
 11
1835.4918159706101
 21
-854.92915249825296
 31
0.0
  0
LINE
  5
1F1DF
  8
01
 10
1864.091815970608
 20
-854.92915249825296
 30
0.0
 11
1864.091815970608
 21
-854.42915249825285
 31
0.0
  0
LINE
  5
1F1E0
  8
01
 10
1860.091815970608
 20
-854.92915249825296
 30
0.0
 11
1860.091815970608
 21
-854.42915249825285
 31
0.0
  0
LINE
  5
1F1E1
  8
01
 10
1860.091815970608
 20
-854.92915249825296
 30
0.0
 11
1864.091815970608
 21
-854.92915249825296
 31
0.0
  0
LINE
  5
1F23A
  8
01
 10
1865.9918159706101
 20
-846.82915249825294
 30
0.0
 11
1831.9918159706101
 21
-846.82915249825294
 31
0.0
  0
LINE
  5
1FF07
  8
01
 10
1862.991815970609
 20
-927.90292920822628
 30
0.0
 11
1861.9679950458719
 21
-927.90292920822628
 31
0.0
  0
LINE
  5
1FF08
  8
01
 10
1854.0156369050439
 20
-927.90292920822628
 30
0.0
 11
1848.9679950458731
 21
-927.90292920822606
 31
0.0
  0
LINE
  5
1FF09
  8
01
 10
1841.0156369050451
 20
-927.90292920822606
 30
0.0
 11
1826.9918159706081
 21
-927.9029292082256
 31
0.0
  0
LINE
  5
1FF0A
  8
01
 10
1832.9918159754591
 20
-965.90292920822594
 30
0.0
 11
1826.9918159706081
 21
-965.90292920822594
 31
0.0
  0
ARC
  5
1FF0B
  8
01
 10
1832.9918159754591
 20
-964.90292920822594
 30
0.0
 40
1.0
 50
270.0
 51
0.000000000000007
  0
ARC
  5
1FF0C
  8
01
 10
1838.4918159754579
 20
-961.50292920822596
 30
0.0
 40
4.5
 50
0.000000000000007
 51
180.0
  0
LINE
  5
1FF0D
  8
01
 10
1833.9918159754591
 20
-961.50292920822585
 30
0.0
 11
1833.9918159754591
 21
-964.90292920822594
 31
0.0
  0
ARC
  5
1FF0E
  8
01
 10
1864.4918159754559
 20
-961.50292920822631
 30
0.0
 40
4.5
 50
109.47122069995319
 51
180.0
  0
LINE
  5
1FF0F
  8
01
 10
1842.9918159754591
 20
-964.90292920822594
 30
0.0
 11
1842.9918159754591
 21
-961.50292920822585
 31
0.0
  0
ARC
  5
1FF10
  8
01
 10
1843.9918159754591
 20
-964.90292920822594
 30
0.0
 40
1.0
 50
180.0
 51
270.0
  0
LINE
  5
1FF11
  8
01
 10
1859.991815975457
 20
-964.9029292082264
 30
0.0
 11
1859.991815975457
 21
-961.50292920822631
 31
0.0
  0
ARC
  5
1FF12
  8
01
 10
1858.991815975457
 20
-964.9029292082264
 30
0.0
 40
1.0
 50
270.0
 51
0.000000000000007
  0
LINE
  5
1FF13
  8
01
 10
1844.2918159754579
 20
-965.90292920822594
 30
0.0
 11
1843.9918159754591
 21
-965.90292920822594
 31
0.0
  0
LINE
  5
1FF14
  8
01
 10
1858.691815975458
 20
-965.9029292082264
 30
0.0
 11
1858.991815975457
 21
-965.9029292082264
 31
0.0
  0
LINE
  5
1FF16
  8
01
 10
1830.9918159754579
 20
-929.86304284550567
 30
0.0
 11
1830.9918159754579
 21
-963.94281557094416
 31
0.0
  0
ARC
  5
1FF17
  8
01
 10
1851.4918159754579
 20
-961.50292920822903
 30
0.0
 40
4.5
 50
0.000000000000007
 51
180.0
  0
LINE
  5
1FF18
  8
01
 10
1846.991815975457
 20
-961.50292920822903
 30
0.0
 11
1846.991815975457
 21
-964.72021774070333
 31
0.0
  0
LINE
  5
1FF19
  8
01
 10
1855.991815975457
 20
-961.50292920822903
 30
0.0
 11
1855.9918159754591
 21
-964.72021774070345
 31
0.0
  0
CIRCLE
  5
1FF1A
  8
01
 10
1857.9918159754579
 20
-955.4029292082264
 30
0.0
 40
2.1999999999999882
  0
CIRCLE
  5
1FF1B
  8
01
 10
1844.9918159754579
 20
-955.40292920822617
 30
0.0
 40
2.1999999999999882
  0
ARC
  5
1FF1C
  8
01
 10
1844.9918159754591
 20
-927.90292920822606
 30
0.0
 40
3.0999999999999939
 50
194.11698057130121
 51
345.8830194286989
  0
ARC
  5
1FF1D
  8
01
 10
1841.0156369050451
 20
-928.90292920822594
 30
0.0
 40
1.0
 50
14.116980571301189
 51
89.999999999999986
  0
ARC
  5
1FF1E
  8
01
 10
1848.9679950458731
 20
-928.90292920822606
 30
0.0
 40
1.0
 50
89.999999999999986
 51
165.8830194286989
  0
ARC
  5
1FF1F
  8
01
 10
1857.9918159754591
 20
-927.90292920822628
 30
0.0
 40
3.0999999999999939
 50
194.11698057130121
 51
345.8830194286989
  0
ARC
  5
1FF20
  8
01
 10
1854.0156369050439
 20
-928.90292920822628
 30
0.0
 40
1.0
 50
14.116980571301189
 51
89.999999999999986
  0
ARC
  5
1FF21
  8
01
 10
1861.9679950458719
 20
-928.90292920822628
 30
0.0
 40
1.0
 50
89.999999999999986
 51
165.8830194286989
  0
CIRCLE
  5
1FF22
  8
01
 10
1860.99181597548
 20
-948.90292920823003
 30
0.0
 40
1.2500000000211451
  0
ARC
  5
1FF23
  8
01
 10
1858.691815975458
 20
-964.90292920822606
 30
0.0
 40
1.0
 50
234.8142793593988
 51
270.0
  0
ARC
  5
1FF24
  8
01
 10
1844.2918159754579
 20
-964.90292920822606
 30
0.0
 40
1.0
 50
270.0
 51
305.1857206406014
  0
LINE
  5
1FF25
  8
01
 10
1858.1155873275391
 20
-965.72021774070322
 30
0.0
 11
1856.9918159754591
 21
-965.72021774070322
 31
0.0
  0
ARC
  5
1FF26
  8
01
 10
1856.9918159754591
 20
-964.72021774070333
 30
0.0
 40
1.0
 50
180.0000000000131
 51
269.99999999997391
  0
LINE
  5
1FF27
  8
01
 10
1844.8680446233759
 20
-965.72021774070345
 30
0.0
 11
1845.991815975457
 21
-965.72021774070345
 31
0.0
  0
ARC
  5
1FF28
  8
01
 10
1845.9918159754559
 20
-964.72021774070333
 30
0.0
 40
1.0
 50
270.00000000005213
 51
359.99999999998698
  0
LINE
  5
1FF29
  8
01
 10
1831.9918159754579
 20
-964.94281557094416
 30
0.0
 11
1833.9910201978621
 21
-964.94281557094416
 31
0.0
  0
LINE
  5
1FF2A
  8
01
 10
1842.9926117530549
 20
-964.94281557094416
 30
0.0
 11
1846.966726333372
 21
-964.94281557094416
 31
0.0
  0
LINE
  5
1FF2B
  8
01
 10
1856.016905617543
 20
-964.94281557094416
 30
0.0
 11
1859.9910201978601
 21
-964.94281557094416
 31
0.0
  0
LINE
  5
1FF2C
  8
01
 10
1831.9918159754591
 20
-928.86304284550567
 30
0.0
 11
1842.0442437874531
 21
-928.86304284550567
 31
0.0
  0
LINE
  5
1FF2D
  8
01
 10
1847.9393881634651
 20
-928.86304284550567
 30
0.0
 11
1855.0442437874519
 21
-928.86304284550567
 31
0.0
  0
LINE
  5
1FF2E
  8
01
 10
1860.9393881634651
 20
-928.86304284550567
 30
0.0
 11
1862.991815970609
 21
-928.8630428455059
 31
0.0
  0
ARC
  5
1FF2F
  8
01
 10
1831.9918159754579
 20
-929.86304284550545
 30
0.0
 40
1.0
 50
89.999999999973952
 51
180.0000000000131
  0
ARC
  5
1FF30
  8
01
 10
1831.9918159754579
 20
-963.94281557094405
 30
0.0
 40
1.0
 50
180.0000000000131
 51
269.99999999997391
  0
LINE
  5
1FF31
  8
01
 10
1855.491815975455
 20
-972.16550498485822
 30
0.0
 11
1847.491815975455
 21
-972.16550498485822
 31
0.0
  0
LINE
  5
1FF33
  8
01
 10
1845.491815975455
 20
-965.90042881747877
 30
0.0
 11
1845.491815975455
 21
-970.16550498485822
 31
0.0
  0
LINE
  5
1FF34
  8
01
 10
1857.491815975455
 20
-965.90042881747877
 30
0.0
 11
1857.491815975455
 21
-970.16550498485822
 31
0.0
  0
ARC
  5
1FF35
  8
01
 10
1847.491815975455
 20
-970.16550498485822
 30
0.0
 40
2.0
 50
180.0
 51
270.0
  0
ARC
  5
1FF36
  8
01
 10
1855.491815975455
 20
-970.16550498485822
 30
0.0
 40
2.0
 50
270.0
 51
0.000000000000007
  0
ARC
  5
1FF37
  8
01
 10
1844.9918159754541
 20
-961.96550498485556
 30
0.0
 40
2.5
 50
323.1301023551722
 51
0.000000000000007
  0
ARC
  5
1FF38
  8
01
 10
1857.9918159754541
 20
-961.96550498485556
 30
0.0
 40
2.5
 50
180.0
 51
216.8698976468655
  0
LINE
  5
1FF39
  8
01
 10
1855.4918159754541
 20
-959.44137639541202
 30
0.0
 11
1855.4918159754541
 21
-961.96550498485556
 31
0.0
  0
LINE
  5
1FF3A
  8
01
 10
1847.4918159754541
 20
-959.44137639542782
 30
0.0
 11
1847.4918159754541
 21
-961.96550498485556
 31
0.0
  0
LINE
  5
1FF8D
  8
01
 10
1720.5446354660951
 20
-1095.6991278850539
 30
0.0
 11
1720.5446354660951
 21
-909.78777692885615
 31
0.0
  0
LINE
  5
1FF8E
  8
01
 10
1748.5446354660951
 20
-1095.6991278850539
 30
0.0
 11
1748.5446354660951
 21
-909.78777692885615
 31
0.0
  0
LINE
  5
1FFC9
  8
01
 10
1838.7918159706101
 20
-927.00292920822494
 30
0.0
 11
1851.1918159706099
 21
-927.00292920822494
 31
0.0
  0
LINE
  5
1FFCA
  8
01
 10
1844.9918159706101
 20
-933.20292920822499
 30
0.0
 11
1844.9918159706101
 21
-920.8029292082249
 31
0.0
  0
LINE
  5
1FFCC
  8
01
 10
1838.7918159706101
 20
-1079.5029292082199
 30
0.0
 11
1851.1918159706099
 21
-1079.5029292082199
 31
0.0
  0
LINE
  5
1FFCD
  8
01
 10
1844.9918159706101
 20
-1085.70292920822
 30
0.0
 11
1844.9918159706101
 21
-1073.3029292082199
 31
0.0
  0
LINE
  5
20005
  8
01
 10
1806.9918159706101
 20
-836.62915249825301
 30
0.0
 11
1882.4414496567381
 21
-836.62915249825301
 31
0.0
  0
LINE
  5
20006
  8
01
 10
1806.9918159706101
 20
-864.62915249825301
 30
0.0
 11
1882.4414496567381
 21
-864.62915249825301
 31
0.0
  0
TEXT
  5
200F5
  8
01
 10
1460.9883955552391
 20
-763.78393390951192
 30
0.0
 40
16.0
  1
3-KV-07-X
  0
TEXT
  5
200F9
  8
01
 10
1464.6099143596659
 20
-792.19671186388541
 30
0.0
 40
4.8173872550436876
  1
材質：亜鉛ダイキャスト
 41
0.9396485999999999
  0
ARC
  5
2050F
  8
01
 10
1850.491815975455
 20
-968.06550498485831
 30
0.0
 40
2.1000000000000001
 50
90.0
 51
270.0
  0
ARC
  5
20510
  8
01
 10
1852.491815975455
 20
-968.06550498485831
 30
0.0
 40
2.1000000000000001
 50
270.0
 51
90.0
  0
LINE
  5
20511
  8
01
 10
1850.491815975455
 20
-965.9655049848584
 30
0.0
 11
1852.491815975455
 21
-965.9655049848584
 31
0.0
  0
LINE
  5
20512
  8
01
 10
1850.491815975455
 20
-970.16550498485844
 30
0.0
 11
1852.491815975455
 21
-970.16550498485844
 31
0.0
  0
LINE
  5
205C3
  8
01
 10
1461.10735749534
 20
-832.36830492845775
 30
0.0
 11
1531.10735749534
 21
-832.36830492845786
 31
0.0
  0
LINE
  5
205C4
  8
01
 10
1461.10735749534
 20
-825.36830492845763
 30
0.0
 11
1531.10735749534
 21
-825.36830492845797
 31
0.0
  0
LINE
  5
205C5
  8
01
 10
1461.10735749534
 20
-818.36830492845775
 30
0.0
 11
1531.10735749534
 21
-818.36830492845775
 31
0.0
  0
LINE
  5
205C6
  8
01
 10
1461.10735749534
 20
-811.36830492845775
 30
0.0
 11
1531.10735749534
 21
-811.36830492845775
 31
0.0
  0
LINE
  5
205C7
  8
01
 10
1461.10735749534
 20
-811.36830492845775
 30
0.0
 11
1531.10735749534
 21
-811.36830492845775
 31
0.0
  0
LINE
  5
205C8
  8
01
 10
1461.10735749534
 20
-818.36830492845775
 30
0.0
 11
1531.10735749534
 21
-818.36830492845797
 31
0.0
  0
LINE
  5
205C9
  8
01
 10
1461.10735749534
 20
-804.36830492845775
 30
0.0
 11
1531.10735749534
 21
-804.36830492845775
 31
0.0
  0
LINE
  5
205CA
  8
01
 10
1461.10735749534
 20
-797.36830492845775
 30
0.0
 11
1531.10735749534
 21
-797.36830492845797
 31
0.0
  0
LINE
  5
205CB
  8
01
 10
1496.10735749534
 20
-797.36830492845775
 30
0.0
 11
1496.10735749534
 21
-832.36830492845786
 31
0.0
  0
LINE
  5
205CC
  8
01
 10
1461.10735749534
 20
-797.36830492845741
 30
0.0
 11
1461.10735749534
 21
-832.36830492845775
 31
0.0
  0
TEXT
  5
205CD
  8
01
 10
1462.240690828673
 20
-823.83821834460377
 30
0.0
 40
4.0
  1
サテンニッケル
 72
     1
 11
1478.5073574953401
 21
-823.83821834460377
 31
0.0
  0
TEXT
  5
205CE
  8
01
 10
1469.1740241620071
 20
-809.83821834460366
 30
0.0
 40
4.0
  1
クローム
 72
     1
 11
1478.5073574953401
 21
-809.83821834460366
 31
0.0
  0
TEXT
  5
205CF
  8
01
 10
1462.10735749534
 20
-816.83821834460377
 30
0.0
 40
4.0
  1
パールクローム
 72
     1
 11
1478.5073574953401
 21
-816.83821834460377
 31
0.0
  0
TEXT
  5
205D0
  8
01
 10
1470.574024162006
 20
-802.86830492845775
 30
0.0
 40
3.5
  1
表面処理
 72
     1
 11
1478.5073574953401
 21
-802.86830492845775
 31
0.0
  0
TEXT
  5
205D1
  8
01
 10
1462.240690828673
 20
-830.83821834460377
 30
0.0
 40
4.0
  1
パールブラック
 72
     1
 11
1478.5073574953401
 21
-830.83821834460377
 31
0.0
  0
TEXT
  5
205D2
  8
01
 10
1499.6996690178671
 20
-823.83821834460377
 30
0.0
 40
4.0
  1
3-KV-07-XN
 41
0.7
 72
     1
 11
1514.2330023512
 21
-823.83821834460377
 31
0.0
  0
LINE
  5
205D3
  8
01
 10
1531.10735749534
 20
-797.36830492845775
 30
0.0
 11
1531.10735749534
 21
-832.36830492845786
 31
0.0
  0
TEXT
  5
205D4
  8
01
 10
1499.5663356845339
 20
-830.83821834460377
 30
0.0
 40
4.0
  1
3-KV-07-GQ
 41
0.7
 72
     1
 11
1514.2330023512
 21
-830.83821834460377
 31
0.0
  0
TEXT
  5
205D5
  8
01
 10
1499.699669017866
 20
-816.83821834460377
 30
0.0
 40
4.0
  1
3-KV-07-XB
 41
0.7
 72
     1
 11
1514.2330023512
 21
-816.83821834460377
 31
0.0
  0
TEXT
  5
205D6
  8
01
 10
1499.6996690178671
 20
-809.83821834460366
 30
0.0
 40
4.0
  1
3-KV-07-XC
 41
0.7
 72
     1
 11
1514.2330023512
 21
-809.83821834460366
 31
0.0
  0
TEXT
  5
205D7
  8
01
 10
1506.7073574953399
 20
-802.86830492845775
 30
0.0
 40
4.0
  1
コード
 72
     1
 11
1513.5073574953401
 21
-802.86830492845775
 31
0.0
  0
LINE
  5
20695
  8
01
 10
1865.9918159705869
 20
-927.90292920822537
 30
0.0
 11
1876.30314496602
 21
-927.90292920822537
 31
0.0
  0
LINE
  5
20698
  8
01
 10
1858.991815975457
 20
-965.9029292082264
 30
0.0
 11
1876.30314496602
 21
-965.9029292082264
 31
0.0
  0
LINE
  5
20699
  8
01
 10
1875.30314496602
 20
-929.90292920822537
 30
0.0
 11
1875.30314496602
 21
-963.9029292082264
 31
0.0
  0
LINE
  5
2069D
  8
01
 10
1829.9918159706101
 20
-842.62915249825289
 30
0.0
 11
1905.5603645931069
 21
-842.62915249825289
 31
0.0
  0
LINE
  5
2069E
  8
01
 10
1829.991815970609
 20
-858.62915249825289
 30
0.0
 11
1905.5603645931069
 21
-858.62915249825289
 31
0.0
  0
LINE
  5
2069F
  8
01
 10
1904.5603645931069
 20
-844.62915249825278
 30
0.0
 11
1904.5603645931069
 21
-856.62915249825289
 31
0.0
  0
LINE
  5
206A3
  8
01
 10
1720.5446354660951
 20
-1095.6991278850539
 30
0.0
 11
1720.5446354660951
 21
-1105.63578285208
 31
0.0
  0
LINE
  5
206A4
  8
01
 10
1748.5446354660951
 20
-1095.6991278850539
 30
0.0
 11
1748.5446354660951
 21
-1105.63578285208
 31
0.0
  0
LINE
  5
206A5
  8
01
 10
1722.5446354660951
 20
-1104.63578285208
 30
0.0
 11
1746.5446354660951
 21
-1104.63578285208
 31
0.0
  0
LINE
  5
206A6
  8
01
 10
1748.5446354660951
 20
-1104.63578285208
 30
0.0
 11
1792.0779687994291
 21
-1104.63578285208
 31
0.0
  0
LINE
  5
206AA
  8
01
 10
1623.519542844951
 20
-1086.0029292082249
 30
0.0
 11
1609.7732242397619
 21
-1086.0029292082249
 31
0.0
  0
LINE
  5
206AB
  8
01
 10
1631.519542844952
 20
-1075.0029292082249
 30
0.0
 11
1609.7732242397619
 21
-1075.0029292082249
 31
0.0
  0
LINE
  5
206AC
  8
01
 10
1610.7732242397619
 20
-1084.0029292082249
 30
0.0
 11
1610.7732242397619
 21
-1077.0029292082249
 31
0.0
  0
LINE
  5
206B0
  8
01
 10
1738.5446354660951
 20
-910.40292920822515
 30
0.0
 11
1766.040515865596
 21
-910.40292920822515
 31
0.0
  0
LINE
  5
206B1
  8
01
 10
1738.5446354660951
 20
-983.40292920822537
 30
0.0
 11
1766.040515865596
 21
-983.40292920822537
 31
0.0
  0
LINE
  5
206B2
  8
01
 10
1765.040515865596
 20
-912.40292920822526
 30
0.0
 11
1765.040515865596
 21
-981.40292920822526
 31
0.0
  0
LINE
  5
206B6
  8
01
 10
1720.5446354660951
 20
-909.78777692885615
 30
0.0
 11
1720.5446354660951
 21
-890.16187550090956
 31
0.0
  0
LINE
  5
206B7
  8
01
 10
1719.0446354660951
 20
-920.5029292082254
 30
0.0
 11
1719.0446354660951
 21
-890.16187550090956
 31
0.0
  0
LINE
  5
206B8
  8
01
 10
1722.5446354660951
 20
-891.16187550090945
 30
0.0
 11
1724.5446354660951
 21
-891.16187550090945
 31
0.0
  0
LINE
  5
206B9
  8
01
 10
1717.0446354660951
 20
-891.16187550090945
 30
0.0
 11
1706.811302132762
 21
-891.16187550090945
 31
0.0
  0
LINE
  5
206BA
  8
01
 10
1720.5446354660951
 20
-891.16187550090945
 30
0.0
 11
1719.0446354660951
 21
-891.16187550090945
 31
0.0
  0
LINE
  5
206BE
  8
01
 10
1748.5446354660951
 20
-909.78777692885615
 30
0.0
 11
1748.5446354660951
 21
-890.16187550090956
 31
0.0
  0
LINE
  5
206BF
  8
01
 10
1750.0446354660951
 20
-920.50292920822585
 30
0.0
 11
1750.0446354660951
 21
-890.16187550090956
 31
0.0
  0
LINE
  5
206C0
  8
01
 10
1746.5446354660951
 20
-891.16187550090945
 30
0.0
 11
1744.5446354660951
 21
-891.16187550090945
 31
0.0
  0
LINE
  5
206C1
  8
01
 10
1752.0446354660951
 20
-891.16187550090945
 30
0.0
 11
1762.2779687994289
 21
-891.16187550090945
 31
0.0
  0
LINE
  5
206C2
  8
01
 10
1748.5446354660951
 20
-891.16187550090945
 30
0.0
 11
1750.0446354660951
 21
-891.16187550090945
 31
0.0
  0
LINE
  5
206C6
  8
01
 10
1806.991815970611
 20
-910.40292920822515
 30
0.0
 11
1806.991815970611
 21
-904.18083006270763
 31
0.0
  0
LINE
  5
206C7
  8
01
 10
1811.4918159706119
 20
-910.90292920822526
 30
0.0
 11
1811.4918159706119
 21
-904.18083006270763
 31
0.0
  0
LINE
  5
206C8
  8
01
 10
1804.9918159706119
 20
-905.18083006270763
 30
0.0
 11
1802.9918159706119
 21
-905.18083006270763
 31
0.0
  0
LINE
  5
206C9
  8
01
 10
1813.4918159706119
 20
-905.18083006270763
 30
0.0
 11
1824.225149303945
 21
-905.18083006270763
 31
0.0
  0
LINE
  5
206CA
  8
01
 10
1806.991815970611
 20
-905.18083006270763
 30
0.0
 11
1811.4918159706119
 21
-905.18083006270763
 31
0.0
  0
LINE
  5
206CE
  8
01
 10
1826.991815970609
 20
-920.5029292082254
 30
0.0
 11
1826.991815970609
 21
-904.18083006270763
 31
0.0
  0
LINE
  5
206CF
  8
01
 10
1862.991815970609
 20
-920.5029292082254
 30
0.0
 11
1862.991815970609
 21
-904.18083006270763
 31
0.0
  0
LINE
  5
206D0
  8
01
 10
1828.9918159706081
 20
-905.18083006270763
 30
0.0
 11
1860.9918159706081
 21
-905.18083006270763
 31
0.0
  0
LINE
  5
206D4
  8
01
 10
1806.991815970611
 20
-910.40292920822515
 30
0.0
 11
1806.991815970611
 21
-897.56616521732838
 31
0.0
  0
LINE
  5
206D5
  8
01
 10
1844.9918159706081
 20
-915.78073616782854
 30
0.0
 11
1844.9918159706081
 21
-897.56616521732838
 31
0.0
  0
LINE
  5
206D6
  8
01
 10
1808.991815970611
 20
-898.56616521732838
 30
0.0
 11
1842.991815970609
 21
-898.56616521732838
 31
0.0
  0
LINE
  5
206DA
  8
01
 10
1806.991815970611
 20
-910.40292920822515
 30
0.0
 11
1806.991815970611
 21
-890.16187550090956
 31
0.0
  0
LINE
  5
206DB
  8
01
 10
1866.9918159705869
 20
-928.90292920822537
 30
0.0
 11
1866.9918159705869
 21
-890.16187550090956
 31
0.0
  0
LINE
  5
206DC
  8
01
 10
1808.991815970611
 20
-891.16187550090945
 30
0.0
 11
1864.991815970586
 21
-891.16187550090945
 31
0.0
  0
LINE
  5
206E0
  8
01
 10
1806.991815970611
 20
-910.40292920822515
 30
0.0
 11
1806.991815970611
 21
-897.56616521732838
 31
0.0
  0
LINE
  5
206E1
  8
01
 10
1800.9918159706131
 20
-934.60292920822303
 30
0.0
 11
1800.9918159706131
 21
-897.56616521732838
 31
0.0
  0
LINE
  5
206E2
  8
01
 10
1804.9918159706119
 20
-898.56616521732838
 30
0.0
 11
1802.9918159706131
 21
-898.56616521732838
 31
0.0
  0
LINE
  5
206E6
  8
01
 10
1806.991815970611
 20
-910.40292920822515
 30
0.0
 11
1806.991815970611
 21
-890.16187550090956
 31
0.0
  0
LINE
  5
206E7
  8
01
 10
1792.942166422117
 20
-942.98351879839652
 30
0.0
 11
1792.942166422117
 21
-890.16187550090956
 31
0.0
  0
LINE
  5
206E8
  8
01
 10
1804.9918159706119
 20
-891.16187550090945
 30
0.0
 11
1794.942166422117
 21
-891.16187550090945
 31
0.0
  0
LINE
  5
206EC
  8
01
 10
1862.4918159706081
 20
-920.0029292082254
 30
0.0
 11
1896.79999115446
 21
-920.0029292082254
 31
0.0
  0
LINE
  5
206ED
  8
01
 10
1862.4918159706081
 20
-1086.0029292082249
 30
0.0
 11
1896.79999115446
 21
-1086.0029292082249
 31
0.0
  0
LINE
  5
206EE
  8
01
 10
1895.79999115446
 20
-922.00292920822528
 30
0.0
 11
1895.79999115446
 21
-1084.0029292082249
 31
0.0
  0
LINE
  5
206F2
  8
01
 10
1847.1180158391369
 20
-1078.8758113750901
 30
0.0
 11
1845.6189794668101
 21
-1078.87580091124
 31
0.0
  0
LINE
  5
206F3
  8
01
 10
1845.618969003021
 20
-1077.37677329399
 30
0.0
 11
1844.3647291073139
 21
-1077.376764538913
 31
0.0
  0
LINE
  5
206F4
  8
01
 10
1845.618969003021
 20
-1077.37677329399
 30
0.0
 11
1845.6189794668101
 21
-1078.87580091124
 31
0.0
  0
LINE
  5
206F5
  8
01
 10
1847.1180070840601
 20
-1080.1300512707969
 30
0.0
 11
1847.1180158391369
 21
-1078.8758113750901
 31
0.0
  0
LINE
  5
206F6
  8
01
 10
1847.1180070840601
 20
-1080.1300512707969
 30
0.0
 11
1845.6189882220331
 21
-1080.130061734525
 31
0.0
  0
LINE
  5
206F7
  8
01
 10
1845.6189882220331
 20
-1080.130061734525
 30
0.0
 11
1845.6189986858831
 21
-1081.6290981071211
 31
0.0
  0
LINE
  5
206F8
  8
01
 10
1844.364709888179
 20
-1080.1300704898699
 30
0.0
 11
1842.865682270929
 21
-1080.1300809536599
 31
0.0
  0
LINE
  5
206F9
  8
01
 10
1844.364709888179
 20
-1080.1300704898699
 30
0.0
 11
1844.3646994244509
 21
-1081.6290893516291
 31
0.0
  0
LINE
  5
206FA
  8
01
 10
1844.3646994244509
 20
-1081.6290893516291
 30
0.0
 11
1845.6189986858831
 21
-1081.6290981071211
 31
0.0
  0
LINE
  5
206FB
  8
01
 10
1844.3647186435251
 20
-1078.875792156017
 30
0.0
 11
1842.865691026421
 21
-1078.875781692228
 31
0.0
  0
LINE
  5
206FC
  8
01
 10
1842.865691026421
 20
-1078.875781692228
 30
0.0
 11
1842.865682270929
 21
-1080.1300809536599
 31
0.0
  0
LINE
  5
206FD
  8
01
 10
1844.3647291073139
 20
-1077.376764538913
 30
0.0
 11
1844.3647186435251
 21
-1078.875792156017
 31
0.0
  0
LINE
  5
206FE
  8
01
 10
1847.1180158391369
 20
-926.37581137509085
 30
0.0
 11
1845.6189794668101
 21
-926.37580091124016
 31
0.0
  0
LINE
  5
206FF
  8
01
 10
1845.618969003021
 20
-924.87677329398991
 30
0.0
 11
1844.3647291073139
 21
-924.87676453891311
 31
0.0
  0
LINE
  5
20700
  8
01
 10
1845.618969003021
 20
-924.87677329398991
 30
0.0
 11
1845.6189794668101
 21
-926.37580091124016
 31
0.0
  0
LINE
  5
20701
  8
01
 10
1847.1180070840601
 20
-927.63005127079714
 30
0.0
 11
1847.1180158391369
 21
-926.37581137509085
 31
0.0
  0
LINE
  5
20702
  8
01
 10
1847.1180070840601
 20
-927.63005127079714
 30
0.0
 11
1845.6189882220331
 21
-927.63006173452538
 31
0.0
  0
LINE
  5
20703
  8
01
 10
1845.6189882220331
 20
-927.63006173452538
 30
0.0
 11
1845.6189986858831
 21
-929.12909810712085
 31
0.0
  0
LINE
  5
20704
  8
01
 10
1844.364709888179
 20
-927.63007048987049
 30
0.0
 11
1842.865682270929
 21
-927.63008095366024
 31
0.0
  0
LINE
  5
20705
  8
01
 10
1844.364709888179
 20
-927.63007048987049
 30
0.0
 11
1844.3646994244509
 21
-929.12908935162932
 31
0.0
  0
LINE
  5
20706
  8
01
 10
1844.3646994244509
 20
-929.12908935162932
 30
0.0
 11
1845.6189986858831
 21
-929.12909810712085
 31
0.0
  0
LINE
  5
20707
  8
01
 10
1844.3647186435251
 20
-926.37579215601716
 30
0.0
 11
1842.865691026421
 21
-926.37578169222775
 31
0.0
  0
LINE
  5
20708
  8
01
 10
1842.865691026421
 20
-926.37578169222775
 30
0.0
 11
1842.865682270929
 21
-927.63008095366024
 31
0.0
  0
LINE
  5
20709
  8
01
 10
1844.3647291073139
 20
-924.87676453891311
 30
0.0
 11
1844.3647186435251
 21
-926.37579215601716
 31
0.0
  0
LINE
  5
2070A
  8
01
 10
1724.5446354660951
 20
-916.40292920822537
 30
0.0
 11
1724.5446354660951
 21
-890.16187550090956
 31
0.0
  0
LINE
  5
2070B
  8
01
 10
1744.5446354660951
 20
-916.40292920822515
 30
0.0
 11
1744.5446354660951
 21
-890.16187550090956
 31
0.0
  0
LINE
  5
2070C
  8
01
 10
1726.5446354660951
 20
-891.16187550090945
 30
0.0
 11
1742.5446354660951
 21
-891.16187550090945
 31
0.0
  0
LINE
  5
20710
  8
01
 10
1806.991815970611
 20
-910.40292920822515
 30
0.0
 11
1784.156966821678
 21
-910.40292920822515
 31
0.0
  0
LINE
  5
20711
  8
01
 10
1801.991815970614
 20
-942.60292920822314
 30
0.0
 11
1784.156966821678
 21
-942.60292920822314
 31
0.0
  0
LINE
  5
20712
  8
01
 10
1785.156966821678
 20
-912.40292920822515
 30
0.0
 11
1785.156966821678
 21
-940.60292920822314
 31
0.0
  0
LINE
  5
20716
  8
01
 10
1827.4918159706081
 20
-920.0029292082254
 30
0.0
 11
1820.8385059015991
 21
-920.0029292082254
 31
0.0
  0
LINE
  5
20717
  8
01
 10
1808.4918159706119
 20
-910.40292920822515
 30
0.0
 11
1822.8385059015991
 21
-910.40292920822515
 31
0.0
  0
LINE
  5
20718
  8
01
 10
1821.8385059015991
 20
-918.0029292082254
 30
0.0
 11
1821.8385059015991
 21
-912.40292920822526
 31
0.0
  0
LINE
  5
2071C
  8
01
 10
1735.7650672569509
 20
-928.4672590013887
 30
0.0
 11
1737.2209483859669
 21
-932.46725675387245
 31
0.0
  0
LINE
  5
2071D
  8
01
 10
1736.4035733359681
 20
-928.46725780138866
 30
0.0
 11
1737.5358143359681
 21
-931.57806215138851
 31
0.0
  0
LINE
  5
2071E
  8
01
 10
1737.8506801359681
 20
-932.46725715097682
 30
0.0
 11
1739.306561735968
 21
-928.46725855138857
 31
0.0
  0
LINE
  5
2071F
  8
01
 10
1737.535814185967
 20
-931.57806220138866
 30
0.0
 11
1738.6680543859679
 21
-928.46725995138866
 31
0.0
  0
POINT
  5
20720
  8
01
 10
1735.765068335968
 20
-932.46725710138855
 30
0.0
  0
LINE
  5
20721
  8
01
 10
1737.220948985967
 20
-932.46725710138855
 30
0.0
 11
1737.850680385968
 21
-932.46725710138855
 31
0.0
  0
LINE
  5
20722
  8
01
 10
1738.668055585968
 20
-928.46725735138853
 30
0.0
 11
1739.3065622359679
 21
-928.46725735138853
 31
0.0
  0
LINE
  5
20723
  8
01
 10
1735.765068335968
 20
-928.46725735138853
 30
0.0
 11
1736.4035733359681
 21
-928.46725735138853
 31
0.0
  0
LINE
  5
20724
  8
01
 10
1730.3665142697289
 20
-928.42631107230966
 30
0.0
 11
1730.3665142697289
 21
-932.42631082230957
 31
0.0
  0
LINE
  5
20725
  8
01
 10
1731.9990549697291
 20
-930.05435947230956
 30
0.0
 11
1733.6599124197289
 21
-932.42630985744825
 31
0.0
  0
LINE
  5
20726
  8
01
 10
1732.9274488197291
 20
-932.42631082230957
 30
0.0
 11
1733.659914819729
 21
-932.42631082230957
 31
0.0
  0
LINE
  5
20727
  8
01
 10
1731.568246069729
 20
-930.48516852230966
 30
0.0
 11
1732.927448569729
 21
-932.42631087344591
 31
0.0
  0
POINT
  5
20728
  8
01
 10
1730.3665142697289
 20
-932.42631082230957
 30
0.0
  0
LINE
  5
20729
  8
01
 10
1730.3665142697289
 20
-932.42631082230957
 30
0.0
 11
1730.966514169729
 21
-932.42631082230957
 31
0.0
  0
LINE
  5
2072A
  8
01
 10
1730.9665140697291
 20
-931.08690042230955
 30
0.0
 11
1731.568246169729
 21
-930.48516837230966
 31
0.0
  0
LINE
  5
2072B
  8
01
 10
1730.966514169729
 20
-931.08690027230955
 30
0.0
 11
1730.966514169729
 21
-932.42631082230957
 31
0.0
  0
LINE
  5
2072C
  8
01
 10
1732.7785752697289
 20
-928.42631107230966
 30
0.0
 11
1733.6271022197291
 21
-928.42631107230966
 31
0.0
  0
LINE
  5
2072D
  8
01
 10
1731.9990550697289
 20
-930.05435947230956
 30
0.0
 11
1733.627099819729
 21
-928.42631487230972
 31
0.0
  0
LINE
  5
2072E
  8
01
 10
1730.966514119729
 20
-930.23837237230964
 30
0.0
 11
1732.778572869729
 21
-928.42631367230956
 31
0.0
  0
LINE
  5
2072F
  8
01
 10
1730.3665142697289
 20
-928.42631107230966
 30
0.0
 11
1730.966514169729
 21
-928.42631107230966
 31
0.0
  0
LINE
  5
20730
  8
01
 10
1730.966514169729
 20
-928.42631107230966
 30
0.0
 11
1730.966514169729
 21
-930.23837212230956
 31
0.0
  0
LINE
  5
20731
  8
01
 10
1849.9918159706081
 20
-1079.5029292082249
 30
0.0
 11
1885.652815845611
 21
-1079.5029292082249
 31
0.0
  0
LINE
  5
20732
  8
01
 10
1862.4918159706081
 20
-1086.0029292082249
 30
0.0
 11
1885.652815845611
 21
-1086.0029292082249
 31
0.0
  0
LINE
  5
20733
  8
01
 10
1884.6528158456099
 20
-1081.5029292082249
 30
0.0
 11
1884.6528158456099
 21
-1084.0029292082249
 31
0.0
  0
LINE
  5
20734
  8
01
 10
1884.6528158456099
 20
-1086.0029292082249
 30
0.0
 11
1884.6528158456099
 21
-1096.569595874892
 31
0.0
  0
LINE
  5
20738
  8
01
 10
1849.9918159706081
 20
-927.0029292082254
 30
0.0
 11
1885.652815845611
 21
-927.0029292082254
 31
0.0
  0
LINE
  5
20739
  8
01
 10
1849.9918159706081
 20
-1079.5029292082249
 30
0.0
 11
1885.652815845611
 21
-1079.5029292082249
 31
0.0
  0
LINE
  5
2073A
  8
01
 10
1884.6528158456099
 20
-929.0029292082254
 30
0.0
 11
1884.6528158456099
 21
-1077.5029292082249
 31
0.0
  0
LINE
  5
2073E
  8
01
 10
1630.019542844951
 20
-1073.5029292082249
 30
0.0
 11
1630.019542844951
 21
-1105.63578285208
 31
0.0
  0
LINE
  5
2073F
  8
01
 10
1652.019542844951
 20
-1073.5029292082249
 30
0.0
 11
1652.019542844951
 21
-1105.63578285208
 31
0.0
  0
LINE
  5
20740
  8
01
 10
1632.019542844951
 20
-1104.63578285208
 30
0.0
 11
1650.019542844951
 21
-1104.63578285208
 31
0.0
  0
LINE
  5
20744
  8
01
 10
1631.519542844952
 20
-1075.0029292082249
 30
0.0
 11
1609.7732242397619
 21
-1075.0029292082249
 31
0.0
  0
LINE
  5
20745
  8
01
 10
1631.519542844952
 20
-984.00292920822562
 30
0.0
 11
1609.7732242397619
 21
-984.00292920822562
 31
0.0
  0
LINE
  5
20746
  8
01
 10
1610.7732242397619
 20
-1073.0029292082249
 30
0.0
 11
1610.7732242397619
 21
-986.00292920822562
 31
0.0
  0
TEXT
  5
2074A
  8
01
 10
1610.0732242397621
 20
-1032.336262541558
 30
0.0
 40
3.5
  1
91
 50
90.0
  0
LINE
  5
2074B
  8
01
  6
BYBLOCK
 10
1610.2373258597611
 20
-986.00292920822562
 30
0.0
 11
1610.7732242397619
 21
-984.00292920822562
 31
0.0
  0
LINE
  5
2074C
  8
01
  6
BYBLOCK
 10
1610.7732242397619
 20
-984.00292920822562
 30
0.0
 11
1611.309122619761
 21
-986.00292920822562
 31
0.0
  0
LINE
  5
2074D
  8
01
  6
BYBLOCK
 10
1610.7732242397619
 20
-984.00292920822562
 30
0.0
 11
1610.7732242397619
 21
-986.00292920822562
 31
0.0
  0
LINE
  5
2074E
  8
01
  6
BYBLOCK
 10
1611.309122619761
 20
-1073.0029292082249
 30
0.0
 11
1610.7732242397619
 21
-1075.0029292082249
 31
0.0
  0
LINE
  5
2074F
  8
01
  6
BYBLOCK
 10
1610.7732242397619
 20
-1075.0029292082249
 30
0.0
 11
1610.2373258597611
 21
-1073.0029292082249
 31
0.0
  0
LINE
  5
20750
  8
01
  6
BYBLOCK
 10
1610.7732242397619
 20
-1075.0029292082249
 30
0.0
 11
1610.7732242397619
 21
-1073.0029292082249
 31
0.0
  0
TEXT
  5
20751
  8
01
 10
1637.686209511618
 20
-1103.9357828520799
 30
0.0
 40
3.5
  1
22
  0
LINE
  5
20752
  8
01
  6
BYBLOCK
 10
1650.019542844951
 20
-1104.0998844720809
 30
0.0
 11
1652.019542844951
 21
-1104.63578285208
 31
0.0
  0
LINE
  5
20753
  8
01
  6
BYBLOCK
 10
1652.019542844951
 20
-1104.63578285208
 30
0.0
 11
1650.019542844951
 21
-1105.1716812320799
 31
0.0
  0
LINE
  5
20754
  8
01
  6
BYBLOCK
 10
1652.019542844951
 20
-1104.63578285208
 30
0.0
 11
1650.019542844951
 21
-1104.63578285208
 31
0.0
  0
LINE
  5
20755
  8
01
  6
BYBLOCK
 10
1632.019542844951
 20
-1105.1716812320799
 30
0.0
 11
1630.019542844951
 21
-1104.63578285208
 31
0.0
  0
LINE
  5
20756
  8
01
  6
BYBLOCK
 10
1630.019542844951
 20
-1104.63578285208
 30
0.0
 11
1632.019542844951
 21
-1104.0998844720809
 31
0.0
  0
LINE
  5
20757
  8
01
  6
BYBLOCK
 10
1630.019542844951
 20
-1104.63578285208
 30
0.0
 11
1632.019542844951
 21
-1104.63578285208
 31
0.0
  0
TEXT
  5
20758
  8
01
 10
1883.952815845611
 20
-1011.0029292082251
 30
0.0
 40
3.5
  1
152.5
 50
90.0
  0
LINE
  5
20759
  8
01
  6
BYBLOCK
 10
1885.188714225611
 20
-1077.5029292082249
 30
0.0
 11
1884.6528158456099
 21
-1079.5029292082249
 31
0.0
  0
LINE
  5
2075A
  8
01
  6
BYBLOCK
 10
1884.6528158456099
 20
-1079.5029292082249
 30
0.0
 11
1884.11691746561
 21
-1077.5029292082249
 31
0.0
  0
LINE
  5
2075B
  8
01
  6
BYBLOCK
 10
1884.6528158456099
 20
-1079.5029292082249
 30
0.0
 11
1884.6528158456099
 21
-1077.5029292082249
 31
0.0
  0
LINE
  5
2075C
  8
01
  6
BYBLOCK
 10
1884.11691746561
 20
-929.0029292082254
 30
0.0
 11
1884.6528158456099
 21
-927.0029292082254
 31
0.0
  0
LINE
  5
2075D
  8
01
  6
BYBLOCK
 10
1884.6528158456099
 20
-927.0029292082254
 30
0.0
 11
1885.188714225611
 21
-929.0029292082254
 31
0.0
  0
LINE
  5
2075E
  8
01
  6
BYBLOCK
 10
1884.6528158456099
 20
-927.0029292082254
 30
0.0
 11
1884.6528158456099
 21
-929.0029292082254
 31
0.0
  0
TEXT
  5
2075F
  8
01
 10
1883.952815845611
 20
-1096.536262541558
 30
0.0
 40
3.5
  1
6.5
 50
90.0
  0
LINE
  5
20760
  8
01
  6
BYBLOCK
 10
1885.188714225611
 20
-1084.0029292082249
 30
0.0
 11
1884.6528158456099
 21
-1086.0029292082249
 31
0.0
  0
LINE
  5
20761
  8
01
  6
BYBLOCK
 10
1884.6528158456099
 20
-1086.0029292082249
 30
0.0
 11
1884.11691746561
 21
-1084.0029292082249
 31
0.0
  0
LINE
  5
20762
  8
01
  6
BYBLOCK
 10
1884.6528158456099
 20
-1086.0029292082249
 30
0.0
 11
1884.6528158456099
 21
-1084.0029292082249
 31
0.0
  0
LINE
  5
20763
  8
01
  6
BYBLOCK
 10
1884.11691746561
 20
-1081.5029292082249
 30
0.0
 11
1884.6528158456099
 21
-1079.5029292082249
 31
0.0
  0
LINE
  5
20764
  8
01
  6
BYBLOCK
 10
1884.6528158456099
 20
-1079.5029292082249
 30
0.0
 11
1885.188714225611
 21
-1081.5029292082249
 31
0.0
  0
LINE
  5
20765
  8
01
  6
BYBLOCK
 10
1884.6528158456099
 20
-1079.5029292082249
 30
0.0
 11
1884.6528158456099
 21
-1081.5029292082249
 31
0.0
  0
TEXT
  5
20766
  8
01
 10
1821.138505901599
 20
-919.36959587489162
 30
0.0
 40
3.5
  1
9.6
 50
90.0
  0
LINE
  5
20767
  8
01
  6
BYBLOCK
 10
1821.3026075215989
 20
-912.40292920822526
 30
0.0
 11
1821.8385059015991
 21
-910.40292920822515
 31
0.0
  0
LINE
  5
20768
  8
01
  6
BYBLOCK
 10
1821.8385059015991
 20
-910.40292920822515
 30
0.0
 11
1822.374404281599
 21
-912.40292920822526
 31
0.0
  0
LINE
  5
20769
  8
01
  6
BYBLOCK
 10
1821.8385059015991
 20
-910.40292920822515
 30
0.0
 11
1821.8385059015991
 21
-912.40292920822526
 31
0.0
  0
LINE
  5
2076A
  8
01
  6
BYBLOCK
 10
1822.374404281599
 20
-918.0029292082254
 30
0.0
 11
1821.8385059015991
 21
-920.0029292082254
 31
0.0
  0
LINE
  5
2076B
  8
01
  6
BYBLOCK
 10
1821.8385059015991
 20
-920.0029292082254
 30
0.0
 11
1821.3026075215989
 21
-918.0029292082254
 31
0.0
  0
LINE
  5
2076C
  8
01
  6
BYBLOCK
 10
1821.8385059015991
 20
-920.0029292082254
 30
0.0
 11
1821.8385059015991
 21
-918.0029292082254
 31
0.0
  0
TEXT
  5
2076D
  8
01
 10
1784.456966821678
 20
-932.33626254155729
 30
0.0
 40
3.5
  1
32.2
 50
90.0
  0
LINE
  5
2076E
  8
01
  6
BYBLOCK
 10
1785.692865201677
 20
-940.60292920822314
 30
0.0
 11
1785.156966821678
 21
-942.60292920822314
 31
0.0
  0
LINE
  5
2076F
  8
01
  6
BYBLOCK
 10
1785.156966821678
 20
-942.60292920822314
 30
0.0
 11
1784.6210684416781
 21
-940.60292920822314
 31
0.0
  0
LINE
  5
20770
  8
01
  6
BYBLOCK
 10
1785.156966821678
 20
-942.60292920822314
 30
0.0
 11
1785.156966821678
 21
-940.60292920822314
 31
0.0
  0
LINE
  5
20771
  8
01
  6
BYBLOCK
 10
1784.6210684416781
 20
-912.40292920822515
 30
0.0
 11
1785.156966821678
 21
-910.40292920822515
 31
0.0
  0
LINE
  5
20772
  8
01
  6
BYBLOCK
 10
1785.156966821678
 20
-910.40292920822515
 30
0.0
 11
1785.692865201677
 21
-912.40292920822515
 31
0.0
  0
LINE
  5
20773
  8
01
  6
BYBLOCK
 10
1785.156966821678
 20
-910.40292920822515
 30
0.0
 11
1785.156966821678
 21
-912.40292920822515
 31
0.0
  0
TEXT
  5
20774
  8
01
 10
1731.2113021327621
 20
-890.4618755009094
 30
0.0
 40
3.5
  1
20
  0
LINE
  5
20775
  8
01
  6
BYBLOCK
 10
1742.5446354660951
 20
-890.62597712090951
 30
0.0
 11
1744.5446354660951
 21
-891.16187550090945
 31
0.0
  0
LINE
  5
20776
  8
01
  6
BYBLOCK
 10
1744.5446354660951
 20
-891.16187550090945
 30
0.0
 11
1742.5446354660951
 21
-891.69777388090961
 31
0.0
  0
LINE
  5
20777
  8
01
  6
BYBLOCK
 10
1744.5446354660951
 20
-891.16187550090945
 30
0.0
 11
1742.5446354660951
 21
-891.16187550090945
 31
0.0
  0
LINE
  5
20778
  8
01
  6
BYBLOCK
 10
1726.5446354660951
 20
-891.69777388090961
 30
0.0
 11
1724.5446354660951
 21
-891.16187550090945
 31
0.0
  0
LINE
  5
20779
  8
01
  6
BYBLOCK
 10
1724.5446354660951
 20
-891.16187550090945
 30
0.0
 11
1726.5446354660951
 21
-890.62597712090951
 31
0.0
  0
LINE
  5
2077A
  8
01
  6
BYBLOCK
 10
1724.5446354660951
 20
-891.16187550090945
 30
0.0
 11
1726.5446354660951
 21
-891.16187550090945
 31
0.0
  0
TEXT
  5
2077B
  8
01
 10
1895.09999115446
 20
-1008.2529292082251
 30
0.0
 40
3.5
  1
166
 50
90.0
  0
LINE
  5
2077C
  8
01
  6
BYBLOCK
 10
1896.33588953446
 20
-1084.0029292082249
 30
0.0
 11
1895.79999115446
 21
-1086.0029292082249
 31
0.0
  0
LINE
  5
2077D
  8
01
  6
BYBLOCK
 10
1895.79999115446
 20
-1086.0029292082249
 30
0.0
 11
1895.264092774461
 21
-1084.0029292082249
 31
0.0
  0
LINE
  5
2077E
  8
01
  6
BYBLOCK
 10
1895.79999115446
 20
-1086.0029292082249
 30
0.0
 11
1895.79999115446
 21
-1084.0029292082249
 31
0.0
  0
LINE
  5
2077F
  8
01
  6
BYBLOCK
 10
1895.264092774461
 20
-922.00292920822528
 30
0.0
 11
1895.79999115446
 21
-920.0029292082254
 31
0.0
  0
LINE
  5
20780
  8
01
  6
BYBLOCK
 10
1895.79999115446
 20
-920.0029292082254
 30
0.0
 11
1896.33588953446
 21
-922.00292920822528
 31
0.0
  0
LINE
  5
20781
  8
01
  6
BYBLOCK
 10
1895.79999115446
 20
-920.0029292082254
 30
0.0
 11
1895.79999115446
 21
-922.00292920822528
 31
0.0
  0
TEXT
  5
20782
  8
01
 10
1796.300324529697
 20
-890.4618755009094
 30
0.0
 40
3.5
  1
14
  0
LINE
  5
20783
  8
01
  6
BYBLOCK
 10
1794.942166422117
 20
-891.69777388090961
 30
0.0
 11
1792.942166422117
 21
-891.16187550090945
 31
0.0
  0
LINE
  5
20784
  8
01
  6
BYBLOCK
 10
1792.942166422117
 20
-891.16187550090945
 30
0.0
 11
1794.942166422117
 21
-890.62597712090951
 31
0.0
  0
LINE
  5
20785
  8
01
  6
BYBLOCK
 10
1792.942166422117
 20
-891.16187550090945
 30
0.0
 11
1794.942166422117
 21
-891.16187550090945
 31
0.0
  0
LINE
  5
20786
  8
01
  6
BYBLOCK
 10
1804.9918159706119
 20
-890.62597712090951
 30
0.0
 11
1806.991815970611
 21
-891.16187550090945
 31
0.0
  0
LINE
  5
20787
  8
01
  6
BYBLOCK
 10
1806.991815970611
 20
-891.16187550090945
 30
0.0
 11
1804.9918159706119
 21
-891.69777388090961
 31
0.0
  0
LINE
  5
20788
  8
01
  6
BYBLOCK
 10
1806.991815970611
 20
-891.16187550090945
 30
0.0
 11
1804.9918159706119
 21
-891.16187550090945
 31
0.0
  0
TEXT
  5
20789
  8
01
 10
1802.2418159706131
 20
-897.86616521732844
 30
0.0
 40
3.5
  1
6
  0
LINE
  5
2078A
  8
01
  6
BYBLOCK
 10
1802.9918159706131
 20
-899.10206359732854
 30
0.0
 11
1800.9918159706131
 21
-898.56616521732838
 31
0.0
  0
LINE
  5
2078B
  8
01
  6
BYBLOCK
 10
1800.9918159706131
 20
-898.56616521732838
 30
0.0
 11
1802.9918159706131
 21
-898.03026683732833
 31
0.0
  0
LINE
  5
2078C
  8
01
  6
BYBLOCK
 10
1800.9918159706131
 20
-898.56616521732838
 30
0.0
 11
1802.9918159706131
 21
-898.56616521732838
 31
0.0
  0
LINE
  5
2078D
  8
01
  6
BYBLOCK
 10
1804.9918159706119
 20
-898.03026683732833
 30
0.0
 11
1806.991815970611
 21
-898.56616521732838
 31
0.0
  0
LINE
  5
2078E
  8
01
  6
BYBLOCK
 10
1806.991815970611
 20
-898.56616521732838
 30
0.0
 11
1804.9918159706119
 21
-899.10206359732854
 31
0.0
  0
LINE
  5
2078F
  8
01
  6
BYBLOCK
 10
1806.991815970611
 20
-898.56616521732838
 30
0.0
 11
1804.9918159706119
 21
-898.56616521732838
 31
0.0
  0
TEXT
  5
20790
  8
01
 10
1833.575149303932
 20
-890.4618755009094
 30
0.0
 40
3.5
  1
60
  0
LINE
  5
20791
  8
01
  6
BYBLOCK
 10
1864.991815970586
 20
-890.62597712090951
 30
0.0
 11
1866.9918159705869
 21
-891.16187550090945
 31
0.0
  0
LINE
  5
20792
  8
01
  6
BYBLOCK
 10
1866.9918159705869
 20
-891.16187550090945
 30
0.0
 11
1864.991815970586
 21
-891.69777388090961
 31
0.0
  0
LINE
  5
20793
  8
01
  6
BYBLOCK
 10
1866.9918159705869
 20
-891.16187550090945
 30
0.0
 11
1864.991815970586
 21
-891.16187550090945
 31
0.0
  0
LINE
  5
20794
  8
01
  6
BYBLOCK
 10
1808.991815970611
 20
-891.69777388090961
 30
0.0
 11
1806.991815970611
 21
-891.16187550090945
 31
0.0
  0
LINE
  5
20795
  8
01
  6
BYBLOCK
 10
1806.991815970611
 20
-891.16187550090945
 30
0.0
 11
1808.991815970611
 21
-890.62597712090951
 31
0.0
  0
LINE
  5
20796
  8
01
  6
BYBLOCK
 10
1806.991815970611
 20
-891.16187550090945
 30
0.0
 11
1808.991815970611
 21
-891.16187550090945
 31
0.0
  0
TEXT
  5
20797
  8
01
 10
1816.9418159706099
 20
-896.36616521732844
 30
0.0
 40
3.5
  1
38 /51
  0
LINE
  5
20798
  8
01
  6
BYBLOCK
 10
1842.991815970609
 20
-898.03026683732833
 30
0.0
 11
1844.9918159706081
 21
-898.56616521732838
 31
0.0
  0
LINE
  5
20799
  8
01
  6
BYBLOCK
 10
1844.9918159706081
 20
-898.56616521732838
 30
0.0
 11
1842.991815970609
 21
-899.10206359732854
 31
0.0
  0
LINE
  5
2079A
  8
01
  6
BYBLOCK
 10
1844.9918159706081
 20
-898.56616521732838
 30
0.0
 11
1842.991815970609
 21
-898.56616521732838
 31
0.0
  0
LINE
  5
2079B
  8
01
  6
BYBLOCK
 10
1808.991815970611
 20
-899.10206359732854
 30
0.0
 11
1806.991815970611
 21
-898.56616521732838
 31
0.0
  0
LINE
  5
2079C
  8
01
  6
BYBLOCK
 10
1806.991815970611
 20
-898.56616521732838
 30
0.0
 11
1808.991815970611
 21
-898.03026683732833
 31
0.0
  0
LINE
  5
2079D
  8
01
  6
BYBLOCK
 10
1806.991815970611
 20
-898.56616521732838
 30
0.0
 11
1808.991815970611
 21
-898.56616521732838
 31
0.0
  0
TEXT
  5
2079E
  8
01
 10
1841.658482637275
 20
-904.48083006270758
 30
0.0
 40
3.5
  1
36
  0
LINE
  5
2079F
  8
01
  6
BYBLOCK
 10
1860.9918159706081
 20
-904.64493168270747
 30
0.0
 11
1862.991815970609
 21
-905.18083006270763
 31
0.0
  0
LINE
  5
207A0
  8
01
  6
BYBLOCK
 10
1862.991815970609
 20
-905.18083006270763
 30
0.0
 11
1860.9918159706081
 21
-905.71672844270768
 31
0.0
  0
LINE
  5
207A1
  8
01
  6
BYBLOCK
 10
1862.991815970609
 20
-905.18083006270763
 30
0.0
 11
1860.9918159706081
 21
-905.18083006270763
 31
0.0
  0
LINE
  5
207A2
  8
01
  6
BYBLOCK
 10
1828.9918159706081
 20
-905.71672844270768
 30
0.0
 11
1826.991815970609
 21
-905.18083006270763
 31
0.0
  0
LINE
  5
207A3
  8
01
  6
BYBLOCK
 10
1826.991815970609
 20
-905.18083006270763
 30
0.0
 11
1828.9918159706081
 21
-904.64493168270747
 31
0.0
  0
LINE
  5
207A4
  8
01
  6
BYBLOCK
 10
1826.991815970609
 20
-905.18083006270763
 30
0.0
 11
1828.9918159706081
 21
-905.18083006270763
 31
0.0
  0
TEXT
  5
207A5
  8
01
 10
1815.691815970612
 20
-904.48083006270758
 30
0.0
 40
3.5
  1
4.5
  0
LINE
  5
207A6
  8
01
  6
BYBLOCK
 10
1813.4918159706119
 20
-905.71672844270768
 30
0.0
 11
1811.4918159706119
 21
-905.18083006270763
 31
0.0
  0
LINE
  5
207A7
  8
01
  6
BYBLOCK
 10
1811.4918159706119
 20
-905.18083006270763
 30
0.0
 11
1813.4918159706119
 21
-904.64493168270747
 31
0.0
  0
LINE
  5
207A8
  8
01
  6
BYBLOCK
 10
1811.4918159706119
 20
-905.18083006270763
 30
0.0
 11
1813.4918159706119
 21
-905.18083006270763
 31
0.0
  0
LINE
  5
207A9
  8
01
  6
BYBLOCK
 10
1804.9918159706119
 20
-904.64493168270747
 30
0.0
 11
1806.991815970611
 21
-905.18083006270763
 31
0.0
  0
LINE
  5
207AA
  8
01
  6
BYBLOCK
 10
1806.991815970611
 20
-905.18083006270763
 30
0.0
 11
1804.9918159706119
 21
-905.71672844270768
 31
0.0
  0
LINE
  5
207AB
  8
01
  6
BYBLOCK
 10
1806.991815970611
 20
-905.18083006270763
 30
0.0
 11
1804.9918159706119
 21
-905.18083006270763
 31
0.0
  0
TEXT
  5
207AC
  8
01
 10
1753.7446354660949
 20
-890.4618755009094
 30
0.0
 40
3.5
  1
1.5
  0
LINE
  5
207AD
  8
01
  6
BYBLOCK
 10
1752.0446354660951
 20
-891.69777388090961
 30
0.0
 11
1750.0446354660951
 21
-891.16187550090945
 31
0.0
  0
LINE
  5
207AE
  8
01
  6
BYBLOCK
 10
1750.0446354660951
 20
-891.16187550090945
 30
0.0
 11
1752.0446354660951
 21
-890.62597712090951
 31
0.0
  0
LINE
  5
207AF
  8
01
  6
BYBLOCK
 10
1750.0446354660951
 20
-891.16187550090945
 30
0.0
 11
1752.0446354660951
 21
-891.16187550090945
 31
0.0
  0
LINE
  5
207B0
  8
01
  6
BYBLOCK
 10
1746.5446354660951
 20
-890.62597712090951
 30
0.0
 11
1748.5446354660951
 21
-891.16187550090945
 31
0.0
  0
LINE
  5
207B1
  8
01
  6
BYBLOCK
 10
1748.5446354660951
 20
-891.16187550090945
 30
0.0
 11
1746.5446354660951
 21
-891.69777388090961
 31
0.0
  0
LINE
  5
207B2
  8
01
  6
BYBLOCK
 10
1748.5446354660951
 20
-891.16187550090945
 30
0.0
 11
1746.5446354660951
 21
-891.16187550090945
 31
0.0
  0
TEXT
  5
207B3
  8
01
 10
1706.511302132762
 20
-890.4618755009094
 30
0.0
 40
3.5
  1
1.5
  0
LINE
  5
207B4
  8
01
  6
BYBLOCK
 10
1717.0446354660951
 20
-890.62597712090951
 30
0.0
 11
1719.0446354660951
 21
-891.16187550090945
 31
0.0
  0
LINE
  5
207B5
  8
01
  6
BYBLOCK
 10
1719.0446354660951
 20
-891.16187550090945
 30
0.0
 11
1717.0446354660951
 21
-891.69777388090961
 31
0.0
  0
LINE
  5
207B6
  8
01
  6
BYBLOCK
 10
1719.0446354660951
 20
-891.16187550090945
 30
0.0
 11
1717.0446354660951
 21
-891.16187550090945
 31
0.0
  0
LINE
  5
207B7
  8
01
  6
BYBLOCK
 10
1722.5446354660951
 20
-891.69777388090961
 30
0.0
 11
1720.5446354660951
 21
-891.16187550090945
 31
0.0
  0
LINE
  5
207B8
  8
01
  6
BYBLOCK
 10
1720.5446354660951
 20
-891.16187550090945
 30
0.0
 11
1722.5446354660951
 21
-890.62597712090951
 31
0.0
  0
LINE
  5
207B9
  8
01
  6
BYBLOCK
 10
1720.5446354660951
 20
-891.16187550090945
 30
0.0
 11
1722.5446354660951
 21
-891.16187550090945
 31
0.0
  0
TEXT
  5
207BA
  8
01
 10
1764.340515865596
 20
-950.23626254155852
 30
0.0
 40
3.5
  1
73
 50
90.0
  0
LINE
  5
207BB
  8
01
  6
BYBLOCK
 10
1765.576414245596
 20
-981.40292920822526
 30
0.0
 11
1765.040515865596
 21
-983.40292920822537
 31
0.0
  0
LINE
  5
207BC
  8
01
  6
BYBLOCK
 10
1765.040515865596
 20
-983.40292920822537
 30
0.0
 11
1764.5046174855961
 21
-981.40292920822526
 31
0.0
  0
LINE
  5
207BD
  8
01
  6
BYBLOCK
 10
1765.040515865596
 20
-983.40292920822537
 30
0.0
 11
1765.040515865596
 21
-981.40292920822526
 31
0.0
  0
LINE
  5
207BE
  8
01
  6
BYBLOCK
 10
1764.5046174855961
 20
-912.40292920822526
 30
0.0
 11
1765.040515865596
 21
-910.40292920822515
 31
0.0
  0
LINE
  5
207BF
  8
01
  6
BYBLOCK
 10
1765.040515865596
 20
-910.40292920822515
 30
0.0
 11
1765.576414245596
 21
-912.40292920822526
 31
0.0
  0
LINE
  5
207C0
  8
01
  6
BYBLOCK
 10
1765.040515865596
 20
-910.40292920822515
 30
0.0
 11
1765.040515865596
 21
-912.40292920822526
 31
0.0
  0
TEXT
  5
207C1
  8
01
 10
1610.0732242397621
 20
-1083.586262541558
 30
0.0
 40
3.5
  1
11
 50
90.0
  0
LINE
  5
207C2
  8
01
  6
BYBLOCK
 10
1610.2373258597611
 20
-1077.0029292082249
 30
0.0
 11
1610.7732242397619
 21
-1075.0029292082249
 31
0.0
  0
LINE
  5
207C3
  8
01
  6
BYBLOCK
 10
1610.7732242397619
 20
-1075.0029292082249
 30
0.0
 11
1611.309122619761
 21
-1077.0029292082249
 31
0.0
  0
LINE
  5
207C4
  8
01
  6
BYBLOCK
 10
1610.7732242397619
 20
-1075.0029292082249
 30
0.0
 11
1610.7732242397619
 21
-1077.0029292082249
 31
0.0
  0
LINE
  5
207C5
  8
01
  6
BYBLOCK
 10
1611.309122619761
 20
-1084.0029292082249
 30
0.0
 11
1610.7732242397619
 21
-1086.0029292082249
 31
0.0
  0
LINE
  5
207C6
  8
01
  6
BYBLOCK
 10
1610.7732242397619
 20
-1086.0029292082249
 30
0.0
 11
1610.2373258597611
 21
-1084.0029292082249
 31
0.0
  0
LINE
  5
207C7
  8
01
  6
BYBLOCK
 10
1610.7732242397619
 20
-1086.0029292082249
 30
0.0
 11
1610.7732242397619
 21
-1084.0029292082249
 31
0.0
  0
TEXT
  5
207C8
  8
01
 10
1751.2446354660949
 20
-1103.9357828520799
 30
0.0
 40
3.5
  1
対応扉厚：28 ～40
  0
LINE
  5
207C9
  8
01
  6
BYBLOCK
 10
1746.5446354660951
 20
-1104.0998844720809
 30
0.0
 11
1748.5446354660951
 21
-1104.63578285208
 31
0.0
  0
LINE
  5
207CA
  8
01
  6
BYBLOCK
 10
1748.5446354660951
 20
-1104.63578285208
 30
0.0
 11
1746.5446354660951
 21
-1105.1716812320799
 31
0.0
  0
LINE
  5
207CB
  8
01
  6
BYBLOCK
 10
1748.5446354660951
 20
-1104.63578285208
 30
0.0
 11
1746.5446354660951
 21
-1104.63578285208
 31
0.0
  0
LINE
  5
207CC
  8
01
  6
BYBLOCK
 10
1722.5446354660951
 20
-1105.1716812320799
 30
0.0
 11
1720.5446354660951
 21
-1104.63578285208
 31
0.0
  0
LINE
  5
207CD
  8
01
  6
BYBLOCK
 10
1720.5446354660951
 20
-1104.63578285208
 30
0.0
 11
1722.5446354660951
 21
-1104.0998844720809
 31
0.0
  0
LINE
  5
207CE
  8
01
  6
BYBLOCK
 10
1720.5446354660951
 20
-1104.63578285208
 30
0.0
 11
1722.5446354660951
 21
-1104.63578285208
 31
0.0
  0
TEXT
  5
207CF
  8
01
 10
1903.8603645931071
 20
-854.21248583158604
 30
0.0
 40
3.5
  1
16
 50
90.0
  0
LINE
  5
207D0
  8
01
  6
BYBLOCK
 10
1905.0962629731071
 20
-856.62915249825289
 30
0.0
 11
1904.5603645931069
 21
-858.62915249825289
 31
0.0
  0
LINE
  5
207D1
  8
01
  6
BYBLOCK
 10
1904.5603645931069
 20
-858.62915249825289
 30
0.0
 11
1904.024466213107
 21
-856.62915249825289
 31
0.0
  0
LINE
  5
207D2
  8
01
  6
BYBLOCK
 10
1904.5603645931069
 20
-858.62915249825289
 30
0.0
 11
1904.5603645931069
 21
-856.62915249825289
 31
0.0
  0
LINE
  5
207D3
  8
01
  6
BYBLOCK
 10
1904.024466213107
 20
-844.62915249825278
 30
0.0
 11
1904.5603645931069
 21
-842.62915249825289
 31
0.0
  0
LINE
  5
207D4
  8
01
  6
BYBLOCK
 10
1904.5603645931069
 20
-842.62915249825289
 30
0.0
 11
1905.0962629731071
 21
-844.62915249825278
 31
0.0
  0
LINE
  5
207D5
  8
01
  6
BYBLOCK
 10
1904.5603645931069
 20
-842.62915249825289
 30
0.0
 11
1904.5603645931069
 21
-844.62915249825278
 31
0.0
  0
TEXT
  5
207D6
  8
01
 10
1874.60314496602
 20
-950.23626254155886
 30
0.0
 40
3.5
  1
38
 50
90.0
  0
LINE
  5
207D7
  8
01
  6
BYBLOCK
 10
1875.8390433460199
 20
-963.9029292082264
 30
0.0
 11
1875.30314496602
 21
-965.9029292082264
 31
0.0
  0
LINE
  5
207D8
  8
01
  6
BYBLOCK
 10
1875.30314496602
 20
-965.9029292082264
 30
0.0
 11
1874.7672465860201
 21
-963.9029292082264
 31
0.0
  0
LINE
  5
207D9
  8
01
  6
BYBLOCK
 10
1875.30314496602
 20
-965.9029292082264
 30
0.0
 11
1875.30314496602
 21
-963.9029292082264
 31
0.0
  0
LINE
  5
207DA
  8
01
  6
BYBLOCK
 10
1874.7672465860201
 20
-929.90292920822537
 30
0.0
 11
1875.30314496602
 21
-927.90292920822537
 31
0.0
  0
LINE
  5
207DB
  8
01
  6
BYBLOCK
 10
1875.30314496602
 20
-927.90292920822537
 30
0.0
 11
1875.8390433460199
 21
-929.90292920822537
 31
0.0
  0
LINE
  5
207DC
  8
01
  6
BYBLOCK
 10
1875.30314496602
 20
-927.90292920822537
 30
0.0
 11
1875.30314496602
 21
-929.90292920822537
 31
0.0
  0
VIEWPORT
  5
57
 67
     1
  8
0
 10
-3.7462653884696229
 20
9.2162530290966203
 30
0.0
 40
587.96194908151222
 41
270.33504333126001
 68
     1
 69
     1
1001
ACAD
1000
MVIEW
1002
{
1070
    16
1010
0.0
1020
0.0
1030
0.0
1010
0.0
1020
0.0
1030
1.0
1040
0.0
1040
270.33504333126001
1040
-3.7462653884696229
1040
9.2162530290966203
1040
50.0
1040
0.0
1040
0.0
1070
     0
1070
   100
1070
     1
1070
     1
1070
     0
1070
     0
1070
     0
1070
     1
1040
0.0
1040
0.0
1040
0.0
1040
10.0
1040
10.0
1040
10.0
1040
10.0
1070
     0
1002
{
1002
}
1002
}
  0
ENDSEC
  0
EOF
