  0
SECTION
  2
HEADER
  9
$ACADVER
  1
AC1009
  9
$INSBASE
 10
0.0
 20
0.0
 30
0.0
  9
$EXTMIN
 10
544.93767316632398
 20
6517.0205485256711
 30
-0.0000000000001137
  9
$EXTMAX
 10
1149.737781506069
 20
6920.8564885240303
 30
0.0000000000562575
  9
$LIMMIN
 10
0.0
 20
0.0
  9
$LIMMAX
 10
420.0
 20
297.0
  9
$ORTHOMODE
 70
     0
  9
$REGENMODE
 70
     1
  9
$FILLMODE
 70
     1
  9
$QTEXTMODE
 70
     0
  9
$MIRRTEXT
 70
     0
  9
$DRAGMODE
 70
     2
  9
$LTSCALE
 40
0.5
  9
$OSMODE
 70
  2175
  9
$ATTMODE
 70
     1
  9
$TEXTSIZE
 40
4.0
  9
$TRACEWID
 40
1.0
  9
$TEXTSTYLE
  7
STANDARD
  9
$CLAYER
  8
1TEXT
  9
$CELTYPE
  6
BYLAYER
  9
$CECOLOR
 62
   256
  9
$DIMSCALE
 40
1.0
  9
$DIMASZ
 40
2.0
  9
$DIMEXO
 40
0.0
  9
$DIMDLI
 40
7.0
  9
$DIMRND
 40
0.0
  9
$DIMDLE
 40
0.0
  9
$DIMEXE
 40
1.0
  9
$DIMTP
 40
0.0
  9
$DIMTM
 40
0.0
  9
$DIMTXT
 40
3.5
  9
$DIMCEN
 40
0.0
  9
$DIMTSZ
 40
0.0
  9
$DIMTOL
 70
     0
  9
$DIMLIM
 70
     0
  9
$DIMTIH
 70
     0
  9
$DIMTOH
 70
     0
  9
$DIMSE1
 70
     0
  9
$DIMSE2
 70
     0
  9
$DIMTAD
 70
     1
  9
$DIMZIN
 70
     8
  9
$DIMBLK
  1

  9
$DIMASO
 70
     1
  9
$DIMSHO
 70
     1
  9
$DIMPOST
  1
 
  9
$DIMAPOST
  1

  9
$DIMALT
 70
     0
  9
$DIMALTD
 70
     2
  9
$DIMALTF
 40
25.399999999999999
  9
$DIMLFAC
 40
1.0
  9
$DIMTOFL
 70
     1
  9
$DIMTVP
 40
0.0
  9
$DIMTIX
 70
     0
  9
$DIMSOXD
 70
     0
  9
$DIMSAH
 70
     1
  9
$DIMBLK1
  1
OPEN30
  9
$DIMBLK2
  1
OPEN30
  9
$DIMSTYLE
  2
NEWX10
  9
$DIMCLRD
 70
   256
  9
$DIMCLRE
 70
   256
  9
$DIMCLRT
 70
   201
  9
$DIMTFAC
 40
0.7
  9
$DIMGAP
 40
0.7
  9
$LUNITS
 70
     2
  9
$LUPREC
 70
     4
  9
$SKETCHINC
 40
1.0
  9
$FILLETRAD
 40
1.0
  9
$AUNITS
 70
     0
  9
$AUPREC
 70
     2
  9
$MENU
  1
acad
  9
$ELEVATION
 40
0.0
  9
$PELEVATION
 40
0.0
  9
$THICKNESS
 40
0.0
  9
$LIMCHECK
 70
     0
  9
$BLIPMODE
 70
     0
  9
$CHAMFERA
 40
10.0
  9
$CHAMFERB
 40
10.0
  9
$SKPOLY
 70
     0
  9
$TDCREATE
 40
2451318.621352917
  9
$TDUPDATE
 40
2456016.8207286228
  9
$TDINDWG
 40
0.6315513657
  9
$TDUSRTIMER
 40
0.6315513657
  9
$USRTIMER
 70
     1
  9
$ANGBASE
 50
0.0
  9
$ANGDIR
 70
     0
  9
$PDMODE
 70
     0
  9
$PDSIZE
 40
0.0
  9
$PLINEWID
 40
0.0
  9
$COORDS
 70
     2
  9
$SPLFRAME
 70
     0
  9
$SPLINETYPE
 70
     6
  9
$SPLINESEGS
 70
     8
  9
$ATTDIA
 70
     0
  9
$ATTREQ
 70
     1
  9
$HANDLING
 70
     1
  9
$HANDSEED
  5
1724C
  9
$SURFTAB1
 70
     6
  9
$SURFTAB2
 70
     6
  9
$SURFTYPE
 70
     6
  9
$SURFU
 70
     6
  9
$SURFV
 70
     6
  9
$UCSNAME
  2

  9
$UCSORG
 10
0.0
 20
0.0
 30
0.0
  9
$UCSXDIR
 10
1.0
 20
0.0
 30
0.0
  9
$UCSYDIR
 10
0.0
 20
1.0
 30
0.0
  9
$PUCSNAME
  2

  9
$PUCSORG
 10
0.0
 20
0.0
 30
0.0
  9
$PUCSXDIR
 10
1.0
 20
0.0
 30
0.0
  9
$PUCSYDIR
 10
0.0
 20
1.0
 30
0.0
  9
$USERI1
 70
     0
  9
$USERI2
 70
     0
  9
$USERI3
 70
     0
  9
$USERI4
 70
     0
  9
$USERI5
 70
     0
  9
$USERR1
 40
0.0
  9
$USERR2
 40
0.0
  9
$USERR3
 40
0.0
  9
$USERR4
 40
0.0
  9
$USERR5
 40
0.0
  9
$WORLDVIEW
 70
     1
  9
$SHADEDGE
 70
     3
  9
$SHADEDIF
 70
    70
  9
$TILEMODE
 70
     1
  9
$MAXACTVP
 70
    48
  9
$PLIMCHECK
 70
     0
  9
$PEXTMIN
 10
1.0000000000000000E+020
 20
1.0000000000000000E+020
 30
1.0000000000000000E+020
  9
$PEXTMAX
 10
-1.0000000000000000E+020
 20
-1.0000000000000000E+020
 30
-1.0000000000000000E+020
  9
$PLIMMIN
 10
0.0
 20
0.0
  9
$PLIMMAX
 10
420.0
 20
297.0
  9
$UNITMODE
 70
     0
  9
$VISRETAIN
 70
     1
  9
$PLINEGEN
 70
     0
  9
$PSLTSCALE
 70
     1
  0
ENDSEC
  0
SECTION
  2
TABLES
  0
TABLE
  2
VPORT
 70
     1
  0
VPORT
  2
*ACTIVE
 70
     0
 10
0.0
 20
0.0
 11
1.0
 21
1.0
 12
847.32109935611936
 22
6718.8362682189991
 13
0.0
 23
0.0
 14
10.0
 24
10.0
 15
10.0
 25
10.0
 16
0.0
 26
0.0
 36
1.0
 17
0.0
 27
0.0
 37
0.0
 40
429.22592237886801
 41
1.5395095367847409
 42
50.0
 43
0.0
 44
0.0
 50
0.0
 51
0.0
 71
     0
 72
   100
 73
     1
 74
     1
 75
     0
 76
     0
 77
     0
 78
     0
  0
ENDTAB
  0
TABLE
  2
LTYPE
 70
    12
  0
LTYPE
  2
CONTINUOUS
 70
     0
  3
Solid line
 72
    65
 73
     0
 40
0.0
  0
LTYPE
  2
XREF1|CENTER2
 70
    48
  3
Center (.5x) ___ _ ___ _ ___ _ ___ _ ___ _ ___
 72
    65
 73
     4
 40
28.574999999999999
 49
19.050000000000001
 49
-3.1749999999999989
 49
3.1749999999999989
 49
-3.1749999999999989
  0
LTYPE
  2
A3WAKUDAKE|CENTER2
 70
    48
  3
Center (.5x) ___ _ ___ _ ___ _ ___ _ ___ _ ___
 72
    65
 73
     4
 40
28.574999999999999
 49
19.050000000000001
 49
-3.1749999999999989
 49
3.1749999999999989
 49
-3.1749999999999989
  0
ENDTAB
  0
TABLE
  2
LAYER
 70
    36
  0
LAYER
  2
0
 70
     0
 62
     7
  6
CONTINUOUS
  0
LAYER
  2
1TEXT
 70
     0
 62
     7
  6
CONTINUOUS
  0
LAYER
  2
01
 70
     0
 62
     1
  6
CONTINUOUS
  0
LAYER
  2
A3WAKUDAKE|THICK
 70
    48
 62
     7
  6
CONTINUOUS
  0
LAYER
  2
A3WAKUDAKE|POINT
 70
    48
 62
     7
  6
CONTINUOUS
  0
LAYER
  2
A3WAKUDAKE|1CENTER
 70
    48
 62
     7
  6
A3WAKUDAKE|CENTER2
  0
LAYER
  2
A3WAKUDAKE|0-6
 70
    48
 62
     7
  6
CONTINUOUS
  0
LAYER
  2
A3WAKUDAKE|1DIM
 70
    48
 62
     7
  6
CONTINUOUS
  0
LAYER
  2
XREF1|1CENTER
 70
    48
 62
     7
  6
XREF1|CENTER2
  0
ENDTAB
  0
TABLE
  2
STYLE
 70
     4
  0
STYLE
  2
STANDARD
 70
     0
 40
0.0
 41
1.0
 50
0.0
 71
     0
 42
4.0
  3
romans.shx
  4
extfont2.shx
  0
ENDTAB
  0
TABLE
  2
VIEW
 70
     5
  0
ENDTAB
  0
TABLE
  2
UCS
 70
     0
  0
ENDTAB
  0
TABLE
  2
APPID
 70
     9
  0
APPID
  2
ACAD
 70
     0
  0
APPID
  2
DRAWINGVARIABLESXDATA
 70
     0
  0
APPID
  2
CONTENTTABDATA
 70
     0
  0
APPID
  2
CONTENTCURRENTTAB
 70
     0
  0
APPID
  2
CONTENTBLOCKDESCRIPTION
 70
     0
  0
APPID
  2
CONTENTBLOCKICON
 70
     0
  0
APPID
  2
CONTENTLONGBLOCKNAME
 70
     0
  0
APPID
  2
ACAD_PSEXT
 70
     0
  0
APPID
  2
ACAD_MLEADERVER
 70
     0
  0
ENDTAB
  0
TABLE
  2
DIMSTYLE
 70
     5
  0
DIMSTYLE
  2
NEWX10
 70
     0
  3
 
  4

  5

  6
OPEN30
  7
OPEN30
 40
1.0
 41
2.0
 42
0.0
 43
7.0
 44
1.0
 45
0.0
 46
0.0
 47
0.0
 48
0.0
140
3.5
141
0.0
142
0.0
143
25.399999999999999
144
1.0
145
0.0
146
0.7
147
0.7
 71
     0
 72
     0
 73
     0
 74
     0
 75
     0
 76
     0
 77
     1
 78
     8
170
     0
171
     2
172
     1
173
     1
174
     0
175
     0
176
   256
177
   256
178
   201
  0
ENDTAB
  0
ENDSEC
  0
SECTION
  2
BLOCKS
  0
BLOCK
  8
0
  2
$MODEL_SPACE
 70
     0
 10
0.0
 20
0.0
 30
0.0
  3
$MODEL_SPACE
  1

  0
ENDBLK
  5
1A
  8
0
  0
BLOCK
 67
     1
  8
0
  2
$PAPER_SPACE
 70
     0
 10
0.0
 20
0.0
 30
0.0
  3
$PAPER_SPACE
  1

  0
ENDBLK
  5
17
 67
     1
  8
0
  0
BLOCK
  8
0
  2
_OPEN30
 70
     0
 10
0.0
 20
0.0
 30
0.0
  3
_OPEN30
  1

  0
LINE
  5
44
  8
0
  6
BYBLOCK
 62
     0
 10
-1.0
 20
0.26794919
 30
0.0
 11
0.0
 21
0.0
 31
0.0
  0
LINE
  5
45
  8
0
  6
BYBLOCK
 62
     0
 10
0.0
 20
0.0
 30
0.0
 11
-1.0
 21
-0.26794919
 31
0.0
  0
LINE
  5
46
  8
0
  6
BYBLOCK
 62
     0
 10
0.0
 20
0.0
 30
0.0
 11
-1.0
 21
0.0
 31
0.0
  0
ENDBLK
  5
47
  8
0
  0
BLOCK
  8
0
  2
XREF1
 70
    36
 10
0.0
 20
0.0
 30
0.0
  3
XREF1
  1
D:\ACLT\FORMAT\KAWAJUN(9)図面用.dwg
  0
ENDBLK
  5
5D
  8
0
  0
BLOCK
  8
0
  2
A3WAKUDAKE
 70
    36
 10
0.0
 20
0.0
 30
0.0
  3
A3WAKUDAKE
  1
D:\ACLT\FORMAT\A3WAKUdake.dwg
  0
ENDBLK
  5
6A0
  8
0
  0
BLOCK
  8
0
  2
*U27
 70
     1
 10
0.0
 20
0.0
 30
0.0
  3
*U27
  1

  0
TEXT
  5
1713B
  8
1TEXT
 62
   201
 10
1043.348940108096
 20
6839.5231551913103
 30
0.0
 40
3.5
  1
20.5
 50
90.0
  0
ENDBLK
  5
1713D
  8
0
  0
BLOCK
  8
0
  2
*U28
 70
     1
 10
0.0
 20
0.0
 30
0.0
  3
*U28
  1

  0
TEXT
  5
1713F
  8
1TEXT
 62
   201
 10
5506.9158361993859
 20
-1203.61055353047
 30
0.0
 40
4.5499999999999989
  1
20.5
 50
90.0
  0
ENDBLK
  5
17141
  8
0
  0
ENDSEC
  0
SECTION
  2
ENTITIES
  0
LINE
  5
14B06
  8
01
 10
854.18766916632444
 20
6664.3538685256717
 30
0.0
 11
854.18766916632444
 21
6517.0205485256711
 31
0.0
  0
LINE
  5
14B07
  8
01
 10
814.18766916632433
 20
6664.3538685256717
 30
0.0
 11
814.18766916632433
 21
6517.0205485256711
 31
0.0
  0
LINE
  5
14B08
  8
01
 10
712.78767516632502
 20
6657.856488525671
 30
0.0
 11
712.78767516632502
 21
6634.7565185256708
 31
0.0
  0
LINE
  5
14B09
  8
01
 10
711.18766916632444
 20
6657.856488525671
 30
0.0
 11
711.18766916632444
 21
6634.8564885256701
 31
0.0
  0
LINE
  5
14B0A
  8
01
 10
713.58767816632519
 20
6657.856488525671
 30
0.0
 11
713.58767816632519
 21
6527.856488525671
 31
0.0
  0
LINE
  5
14B0B
  8
01
 10
715.18766916632444
 20
6657.856488525671
 30
0.0
 11
715.18766916632444
 21
6527.856488525671
 31
0.0
  0
LINE
  5
14B0D
  8
01
 10
712.18766916632444
 20
6555.856488525671
 30
0.0
 11
683.39704587862116
 21
6555.8564885256692
 31
0.0
  0
LINE
  5
14B0E
  8
01
 10
646.1876851663244
 20
6619.107811031693
 30
0.0
 11
646.1876851663244
 21
6589.2058525485936
 31
0.0
  0
LINE
  5
14B0F
  8
01
 10
721.18766916632262
 20
6603.8564885256701
 30
0.0
 11
715.18766916632444
 21
6603.8564885256701
 31
0.0
  0
LINE
  5
14B10
  8
01
 10
726.18766916632444
 20
6598.856488525671
 30
0.0
 11
716.18766916632444
 21
6598.856488525671
 31
0.0
  0
POLYLINE
  5
14B11
  8
01
 10
726.18766916632444
 20
6600.2880685256714
 30
0.0
 66
     1
 70
     8
  0
VERTEX
  8
01
  5
17148
 10
726.188
 20
6600.29
 30
0.000000
  70
    32
  0
VERTEX
  8
01
  5
17149
 10
726.186
 20
6600.38
 30
0.000000
  70
    32
  0
VERTEX
  8
01
  5
1714A
 10
726.182
 20
6600.46
 30
0.000000
  70
    32
  0
VERTEX
  8
01
  5
1714B
 10
726.174
 20
6600.55
 30
0.000000
  70
    32
  0
VERTEX
  8
01
  5
1714C
 10
726.164
 20
6600.64
 30
0.000000
  70
    32
  0
VERTEX
  8
01
  5
1714D
 10
726.150
 20
6600.72
 30
0.000000
  70
    32
  0
VERTEX
  8
01
  5
1714E
 10
726.134
 20
6600.81
 30
0.000000
  70
    32
  0
VERTEX
  8
01
  5
1714F
 10
726.114
 20
6600.90
 30
0.000000
  70
    32
  0
VERTEX
  8
01
  5
17150
 10
726.092
 20
6600.98
 30
0.000000
  70
    32
  0
VERTEX
  8
01
  5
17151
 10
726.066
 20
6601.07
 30
0.000000
  70
    32
  0
VERTEX
  8
01
  5
17152
 10
726.038
 20
6601.16
 30
0.000000
  70
    32
  0
VERTEX
  8
01
  5
17153
 10
726.007
 20
6601.24
 30
0.000000
  70
    32
  0
VERTEX
  8
01
  5
17154
 10
725.972
 20
6601.32
 30
0.000000
  70
    32
  0
VERTEX
  8
01
  5
17155
 10
725.935
 20
6601.41
 30
0.000000
  70
    32
  0
VERTEX
  8
01
  5
17156
 10
725.895
 20
6601.49
 30
0.000000
  70
    32
  0
VERTEX
  8
01
  5
17157
 10
725.853
 20
6601.57
 30
0.000000
  70
    32
  0
VERTEX
  8
01
  5
17158
 10
725.807
 20
6601.65
 30
0.000000
  70
    32
  0
VERTEX
  8
01
  5
17159
 10
725.759
 20
6601.73
 30
0.000000
  70
    32
  0
VERTEX
  8
01
  5
1715A
 10
725.708
 20
6601.81
 30
0.000000
  70
    32
  0
VERTEX
  8
01
  5
1715B
 10
725.654
 20
6601.89
 30
0.000000
  70
    32
  0
VERTEX
  8
01
  5
1715C
 10
725.597
 20
6601.97
 30
0.000000
  70
    32
  0
VERTEX
  8
01
  5
1715D
 10
725.538
 20
6602.05
 30
0.000000
  70
    32
  0
VERTEX
  8
01
  5
1715E
 10
725.476
 20
6602.12
 30
0.000000
  70
    32
  0
VERTEX
  8
01
  5
1715F
 10
725.412
 20
6602.20
 30
0.000000
  70
    32
  0
VERTEX
  8
01
  5
17160
 10
725.345
 20
6602.27
 30
0.000000
  70
    32
  0
VERTEX
  8
01
  5
17161
 10
725.276
 20
6602.34
 30
0.000000
  70
    32
  0
VERTEX
  8
01
  5
17162
 10
725.204
 20
6602.41
 30
0.000000
  70
    32
  0
VERTEX
  8
01
  5
17163
 10
725.129
 20
6602.48
 30
0.000000
  70
    32
  0
VERTEX
  8
01
  5
17164
 10
725.053
 20
6602.55
 30
0.000000
  70
    32
  0
VERTEX
  8
01
  5
17165
 10
724.974
 20
6602.62
 30
0.000000
  70
    32
  0
VERTEX
  8
01
  5
17166
 10
724.892
 20
6602.68
 30
0.000000
  70
    32
  0
VERTEX
  8
01
  5
17167
 10
724.809
 20
6602.75
 30
0.000000
  70
    32
  0
VERTEX
  8
01
  5
17168
 10
724.723
 20
6602.81
 30
0.000000
  70
    32
  0
VERTEX
  8
01
  5
17169
 10
724.635
 20
6602.87
 30
0.000000
  70
    32
  0
VERTEX
  8
01
  5
1716A
 10
724.545
 20
6602.93
 30
0.000000
  70
    32
  0
VERTEX
  8
01
  5
1716B
 10
724.454
 20
6602.99
 30
0.000000
  70
    32
  0
VERTEX
  8
01
  5
1716C
 10
724.360
 20
6603.05
 30
0.000000
  70
    32
  0
VERTEX
  8
01
  5
1716D
 10
724.264
 20
6603.10
 30
0.000000
  70
    32
  0
VERTEX
  8
01
  5
1716E
 10
724.166
 20
6603.15
 30
0.000000
  70
    32
  0
VERTEX
  8
01
  5
1716F
 10
724.067
 20
6603.21
 30
0.000000
  70
    32
  0
VERTEX
  8
01
  5
17170
 10
723.966
 20
6603.26
 30
0.000000
  70
    32
  0
VERTEX
  8
01
  5
17171
 10
723.863
 20
6603.30
 30
0.000000
  70
    32
  0
VERTEX
  8
01
  5
17172
 10
723.758
 20
6603.35
 30
0.000000
  70
    32
  0
VERTEX
  8
01
  5
17173
 10
723.652
 20
6603.39
 30
0.000000
  70
    32
  0
VERTEX
  8
01
  5
17174
 10
723.545
 20
6603.44
 30
0.000000
  70
    32
  0
VERTEX
  8
01
  5
17175
 10
723.436
 20
6603.48
 30
0.000000
  70
    32
  0
VERTEX
  8
01
  5
17176
 10
723.325
 20
6603.51
 30
0.000000
  70
    32
  0
VERTEX
  8
01
  5
17177
 10
723.214
 20
6603.55
 30
0.000000
  70
    32
  0
VERTEX
  8
01
  5
17178
 10
723.101
 20
6603.58
 30
0.000000
  70
    32
  0
VERTEX
  8
01
  5
17179
 10
722.987
 20
6603.62
 30
0.000000
  70
    32
  0
VERTEX
  8
01
  5
1717A
 10
722.872
 20
6603.65
 30
0.000000
  70
    32
  0
VERTEX
  8
01
  5
1717B
 10
722.756
 20
6603.68
 30
0.000000
  70
    32
  0
VERTEX
  8
01
  5
1717C
 10
722.639
 20
6603.70
 30
0.000000
  70
    32
  0
VERTEX
  8
01
  5
1717D
 10
722.521
 20
6603.73
 30
0.000000
  70
    32
  0
VERTEX
  8
01
  5
1717E
 10
722.403
 20
6603.75
 30
0.000000
  70
    32
  0
VERTEX
  8
01
  5
1717F
 10
722.283
 20
6603.77
 30
0.000000
  70
    32
  0
VERTEX
  8
01
  5
17180
 10
722.163
 20
6603.79
 30
0.000000
  70
    32
  0
VERTEX
  8
01
  5
17181
 10
722.042
 20
6603.80
 30
0.000000
  70
    32
  0
VERTEX
  8
01
  5
17182
 10
721.921
 20
6603.82
 30
0.000000
  70
    32
  0
VERTEX
  8
01
  5
17183
 10
721.800
 20
6603.83
 30
0.000000
  70
    32
  0
VERTEX
  8
01
  5
17184
 10
721.678
 20
6603.84
 30
0.000000
  70
    32
  0
VERTEX
  8
01
  5
17185
 10
721.555
 20
6603.85
 30
0.000000
  70
    32
  0
VERTEX
  8
01
  5
17186
 10
721.433
 20
6603.85
 30
0.000000
  70
    32
  0
VERTEX
  8
01
  5
17187
 10
721.310
 20
6603.86
 30
0.000000
  70
    32
  0
VERTEX
  8
01
  5
17188
 10
721.188
 20
6603.86
 30
0.000000
  70
    32
  0
VERTEX
  8
01
  5
17189
 10
721.065
 20
6603.86
 30
0.000000
  70
    32
  0
VERTEX
  8
01
  5
1718A
 10
720.942
 20
6603.85
 30
0.000000
  70
    32
  0
VERTEX
  8
01
  5
1718B
 10
720.820
 20
6603.85
 30
0.000000
  70
    32
  0
VERTEX
  8
01
  5
1718C
 10
720.698
 20
6603.84
 30
0.000000
  70
    32
  0
VERTEX
  8
01
  5
1718D
 10
720.576
 20
6603.83
 30
0.000000
  70
    32
  0
VERTEX
  8
01
  5
1718E
 10
720.454
 20
6603.82
 30
0.000000
  70
    32
  0
VERTEX
  8
01
  5
1718F
 10
720.333
 20
6603.80
 30
0.000000
  70
    32
  0
VERTEX
  8
01
  5
17190
 10
720.212
 20
6603.79
 30
0.000000
  70
    32
  0
VERTEX
  8
01
  5
17191
 10
720.092
 20
6603.77
 30
0.000000
  70
    32
  0
VERTEX
  8
01
  5
17192
 10
719.973
 20
6603.75
 30
0.000000
  70
    32
  0
VERTEX
  8
01
  5
17193
 10
719.854
 20
6603.73
 30
0.000000
  70
    32
  0
VERTEX
  8
01
  5
17194
 10
719.736
 20
6603.70
 30
0.000000
  70
    32
  0
VERTEX
  8
01
  5
17195
 10
719.619
 20
6603.68
 30
0.000000
  70
    32
  0
VERTEX
  8
01
  5
17196
 10
719.503
 20
6603.65
 30
0.000000
  70
    32
  0
VERTEX
  8
01
  5
17197
 10
719.388
 20
6603.62
 30
0.000000
  70
    32
  0
VERTEX
  8
01
  5
17198
 10
719.274
 20
6603.58
 30
0.000000
  70
    32
  0
VERTEX
  8
01
  5
17199
 10
719.161
 20
6603.55
 30
0.000000
  70
    32
  0
VERTEX
  8
01
  5
1719A
 10
719.050
 20
6603.51
 30
0.000000
  70
    32
  0
VERTEX
  8
01
  5
1719B
 10
718.940
 20
6603.48
 30
0.000000
  70
    32
  0
VERTEX
  8
01
  5
1719C
 10
718.831
 20
6603.44
 30
0.000000
  70
    32
  0
VERTEX
  8
01
  5
1719D
 10
718.723
 20
6603.39
 30
0.000000
  70
    32
  0
VERTEX
  8
01
  5
1719E
 10
718.617
 20
6603.35
 30
0.000000
  70
    32
  0
VERTEX
  8
01
  5
1719F
 10
718.513
 20
6603.30
 30
0.000000
  70
    32
  0
VERTEX
  8
01
  5
171A0
 10
718.410
 20
6603.26
 30
0.000000
  70
    32
  0
VERTEX
  8
01
  5
171A1
 10
718.309
 20
6603.21
 30
0.000000
  70
    32
  0
VERTEX
  8
01
  5
171A2
 10
718.209
 20
6603.15
 30
0.000000
  70
    32
  0
VERTEX
  8
01
  5
171A3
 10
718.112
 20
6603.10
 30
0.000000
  70
    32
  0
VERTEX
  8
01
  5
171A4
 10
718.016
 20
6603.05
 30
0.000000
  70
    32
  0
VERTEX
  8
01
  5
171A5
 10
717.922
 20
6602.99
 30
0.000000
  70
    32
  0
VERTEX
  8
01
  5
171A6
 10
717.830
 20
6602.93
 30
0.000000
  70
    32
  0
VERTEX
  8
01
  5
171A7
 10
717.740
 20
6602.87
 30
0.000000
  70
    32
  0
VERTEX
  8
01
  5
171A8
 10
717.652
 20
6602.81
 30
0.000000
  70
    32
  0
VERTEX
  8
01
  5
171A9
 10
717.566
 20
6602.75
 30
0.000000
  70
    32
  0
VERTEX
  8
01
  5
171AA
 10
717.483
 20
6602.68
 30
0.000000
  70
    32
  0
VERTEX
  8
01
  5
171AB
 10
717.402
 20
6602.62
 30
0.000000
  70
    32
  0
VERTEX
  8
01
  5
171AC
 10
717.323
 20
6602.55
 30
0.000000
  70
    32
  0
VERTEX
  8
01
  5
171AD
 10
717.246
 20
6602.48
 30
0.000000
  70
    32
  0
VERTEX
  8
01
  5
171AE
 10
717.172
 20
6602.41
 30
0.000000
  70
    32
  0
VERTEX
  8
01
  5
171AF
 10
717.100
 20
6602.34
 30
0.000000
  70
    32
  0
VERTEX
  8
01
  5
171B0
 10
717.030
 20
6602.27
 30
0.000000
  70
    32
  0
VERTEX
  8
01
  5
171B1
 10
716.963
 20
6602.20
 30
0.000000
  70
    32
  0
VERTEX
  8
01
  5
171B2
 10
716.899
 20
6602.12
 30
0.000000
  70
    32
  0
VERTEX
  8
01
  5
171B3
 10
716.837
 20
6602.05
 30
0.000000
  70
    32
  0
VERTEX
  8
01
  5
171B4
 10
716.778
 20
6601.97
 30
0.000000
  70
    32
  0
VERTEX
  8
01
  5
171B5
 10
716.722
 20
6601.89
 30
0.000000
  70
    32
  0
VERTEX
  8
01
  5
171B6
 10
716.668
 20
6601.81
 30
0.000000
  70
    32
  0
VERTEX
  8
01
  5
171B7
 10
716.617
 20
6601.73
 30
0.000000
  70
    32
  0
VERTEX
  8
01
  5
171B8
 10
716.568
 20
6601.65
 30
0.000000
  70
    32
  0
VERTEX
  8
01
  5
171B9
 10
716.523
 20
6601.57
 30
0.000000
  70
    32
  0
VERTEX
  8
01
  5
171BA
 10
716.480
 20
6601.49
 30
0.000000
  70
    32
  0
VERTEX
  8
01
  5
171BB
 10
716.440
 20
6601.41
 30
0.000000
  70
    32
  0
VERTEX
  8
01
  5
171BC
 10
716.403
 20
6601.32
 30
0.000000
  70
    32
  0
VERTEX
  8
01
  5
171BD
 10
716.369
 20
6601.24
 30
0.000000
  70
    32
  0
VERTEX
  8
01
  5
171BE
 10
716.338
 20
6601.16
 30
0.000000
  70
    32
  0
VERTEX
  8
01
  5
171BF
 10
716.309
 20
6601.07
 30
0.000000
  70
    32
  0
VERTEX
  8
01
  5
171C0
 10
716.284
 20
6600.98
 30
0.000000
  70
    32
  0
VERTEX
  8
01
  5
171C1
 10
716.261
 20
6600.90
 30
0.000000
  70
    32
  0
VERTEX
  8
01
  5
171C2
 10
716.242
 20
6600.81
 30
0.000000
  70
    32
  0
VERTEX
  8
01
  5
171C3
 10
716.225
 20
6600.72
 30
0.000000
  70
    32
  0
VERTEX
  8
01
  5
171C4
 10
716.212
 20
6600.64
 30
0.000000
  70
    32
  0
VERTEX
  8
01
  5
171C5
 10
716.201
 20
6600.55
 30
0.000000
  70
    32
  0
VERTEX
  8
01
  5
171C6
 10
716.194
 20
6600.46
 30
0.000000
  70
    32
  0
VERTEX
  8
01
  5
171C7
 10
716.189
 20
6600.38
 30
0.000000
  70
    32
  0
VERTEX
  8
01
  5
171C8
 10
716.188
 20
6600.29
 30
0.000000
  70
    32
  0
SEQEND
  8
01
  5
171C9
  0
LINE
  5
14B12
  8
01
 10
721.18766916632444
 20
6583.8564885256719
 30
0.0
 11
715.18766916632444
 21
6583.8564885256719
 31
0.0
  0
LINE
  5
14B13
  8
01
 10
726.18766916632444
 20
6588.856488525671
 30
0.0
 11
716.18766916632444
 21
6588.856488525671
 31
0.0
  0
POLYLINE
  5
14B14
  8
01
 10
726.18766916632444
 20
6587.4249085256724
 30
0.0
 66
     1
 70
     8
  0
VERTEX
  8
01
  5
171CA
 10
726.188
 20
6587.42
 30
0.000000
  70
    32
  0
VERTEX
  8
01
  5
171CB
 10
726.186
 20
6587.34
 30
0.000000
  70
    32
  0
VERTEX
  8
01
  5
171CC
 10
726.182
 20
6587.25
 30
0.000000
  70
    32
  0
VERTEX
  8
01
  5
171CD
 10
726.174
 20
6587.16
 30
0.000000
  70
    32
  0
VERTEX
  8
01
  5
171CE
 10
726.164
 20
6587.08
 30
0.000000
  70
    32
  0
VERTEX
  8
01
  5
171CF
 10
726.150
 20
6586.99
 30
0.000000
  70
    32
  0
VERTEX
  8
01
  5
171D0
 10
726.134
 20
6586.90
 30
0.000000
  70
    32
  0
VERTEX
  8
01
  5
171D1
 10
726.114
 20
6586.81
 30
0.000000
  70
    32
  0
VERTEX
  8
01
  5
171D2
 10
726.092
 20
6586.73
 30
0.000000
  70
    32
  0
VERTEX
  8
01
  5
171D3
 10
726.066
 20
6586.64
 30
0.000000
  70
    32
  0
VERTEX
  8
01
  5
171D4
 10
726.038
 20
6586.56
 30
0.000000
  70
    32
  0
VERTEX
  8
01
  5
171D5
 10
726.007
 20
6586.47
 30
0.000000
  70
    32
  0
VERTEX
  8
01
  5
171D6
 10
725.972
 20
6586.39
 30
0.000000
  70
    32
  0
VERTEX
  8
01
  5
171D7
 10
725.935
 20
6586.31
 30
0.000000
  70
    32
  0
VERTEX
  8
01
  5
171D8
 10
725.895
 20
6586.22
 30
0.000000
  70
    32
  0
VERTEX
  8
01
  5
171D9
 10
725.853
 20
6586.14
 30
0.000000
  70
    32
  0
VERTEX
  8
01
  5
171DA
 10
725.807
 20
6586.06
 30
0.000000
  70
    32
  0
VERTEX
  8
01
  5
171DB
 10
725.759
 20
6585.98
 30
0.000000
  70
    32
  0
VERTEX
  8
01
  5
171DC
 10
725.708
 20
6585.90
 30
0.000000
  70
    32
  0
VERTEX
  8
01
  5
171DD
 10
725.654
 20
6585.82
 30
0.000000
  70
    32
  0
VERTEX
  8
01
  5
171DE
 10
725.597
 20
6585.74
 30
0.000000
  70
    32
  0
VERTEX
  8
01
  5
171DF
 10
725.538
 20
6585.67
 30
0.000000
  70
    32
  0
VERTEX
  8
01
  5
171E0
 10
725.476
 20
6585.59
 30
0.000000
  70
    32
  0
VERTEX
  8
01
  5
171E1
 10
725.412
 20
6585.52
 30
0.000000
  70
    32
  0
VERTEX
  8
01
  5
171E2
 10
725.345
 20
6585.44
 30
0.000000
  70
    32
  0
VERTEX
  8
01
  5
171E3
 10
725.276
 20
6585.37
 30
0.000000
  70
    32
  0
VERTEX
  8
01
  5
171E4
 10
725.204
 20
6585.30
 30
0.000000
  70
    32
  0
VERTEX
  8
01
  5
171E5
 10
725.129
 20
6585.23
 30
0.000000
  70
    32
  0
VERTEX
  8
01
  5
171E6
 10
725.053
 20
6585.16
 30
0.000000
  70
    32
  0
VERTEX
  8
01
  5
171E7
 10
724.974
 20
6585.09
 30
0.000000
  70
    32
  0
VERTEX
  8
01
  5
171E8
 10
724.892
 20
6585.03
 30
0.000000
  70
    32
  0
VERTEX
  8
01
  5
171E9
 10
724.809
 20
6584.96
 30
0.000000
  70
    32
  0
VERTEX
  8
01
  5
171EA
 10
724.723
 20
6584.90
 30
0.000000
  70
    32
  0
VERTEX
  8
01
  5
171EB
 10
724.635
 20
6584.84
 30
0.000000
  70
    32
  0
VERTEX
  8
01
  5
171EC
 10
724.545
 20
6584.78
 30
0.000000
  70
    32
  0
VERTEX
  8
01
  5
171ED
 10
724.454
 20
6584.72
 30
0.000000
  70
    32
  0
VERTEX
  8
01
  5
171EE
 10
724.360
 20
6584.67
 30
0.000000
  70
    32
  0
VERTEX
  8
01
  5
171EF
 10
724.264
 20
6584.61
 30
0.000000
  70
    32
  0
VERTEX
  8
01
  5
171F0
 10
724.166
 20
6584.56
 30
0.000000
  70
    32
  0
VERTEX
  8
01
  5
171F1
 10
724.067
 20
6584.51
 30
0.000000
  70
    32
  0
VERTEX
  8
01
  5
171F2
 10
723.966
 20
6584.46
 30
0.000000
  70
    32
  0
VERTEX
  8
01
  5
171F3
 10
723.863
 20
6584.41
 30
0.000000
  70
    32
  0
VERTEX
  8
01
  5
171F4
 10
723.758
 20
6584.36
 30
0.000000
  70
    32
  0
VERTEX
  8
01
  5
171F5
 10
723.652
 20
6584.32
 30
0.000000
  70
    32
  0
VERTEX
  8
01
  5
171F6
 10
723.545
 20
6584.28
 30
0.000000
  70
    32
  0
VERTEX
  8
01
  5
171F7
 10
723.436
 20
6584.24
 30
0.000000
  70
    32
  0
VERTEX
  8
01
  5
171F8
 10
723.325
 20
6584.20
 30
0.000000
  70
    32
  0
VERTEX
  8
01
  5
171F9
 10
723.214
 20
6584.16
 30
0.000000
  70
    32
  0
VERTEX
  8
01
  5
171FA
 10
723.101
 20
6584.13
 30
0.000000
  70
    32
  0
VERTEX
  8
01
  5
171FB
 10
722.987
 20
6584.10
 30
0.000000
  70
    32
  0
VERTEX
  8
01
  5
171FC
 10
722.872
 20
6584.07
 30
0.000000
  70
    32
  0
VERTEX
  8
01
  5
171FD
 10
722.756
 20
6584.04
 30
0.000000
  70
    32
  0
VERTEX
  8
01
  5
171FE
 10
722.639
 20
6584.01
 30
0.000000
  70
    32
  0
VERTEX
  8
01
  5
171FF
 10
722.521
 20
6583.99
 30
0.000000
  70
    32
  0
VERTEX
  8
01
  5
17200
 10
722.403
 20
6583.96
 30
0.000000
  70
    32
  0
VERTEX
  8
01
  5
17201
 10
722.283
 20
6583.94
 30
0.000000
  70
    32
  0
VERTEX
  8
01
  5
17202
 10
722.163
 20
6583.93
 30
0.000000
  70
    32
  0
VERTEX
  8
01
  5
17203
 10
722.042
 20
6583.91
 30
0.000000
  70
    32
  0
VERTEX
  8
01
  5
17204
 10
721.921
 20
6583.90
 30
0.000000
  70
    32
  0
VERTEX
  8
01
  5
17205
 10
721.800
 20
6583.88
 30
0.000000
  70
    32
  0
VERTEX
  8
01
  5
17206
 10
721.678
 20
6583.87
 30
0.000000
  70
    32
  0
VERTEX
  8
01
  5
17207
 10
721.555
 20
6583.87
 30
0.000000
  70
    32
  0
VERTEX
  8
01
  5
17208
 10
721.433
 20
6583.86
 30
0.000000
  70
    32
  0
VERTEX
  8
01
  5
17209
 10
721.310
 20
6583.86
 30
0.000000
  70
    32
  0
VERTEX
  8
01
  5
1720A
 10
721.188
 20
6583.86
 30
0.000000
  70
    32
  0
VERTEX
  8
01
  5
1720B
 10
721.065
 20
6583.86
 30
0.000000
  70
    32
  0
VERTEX
  8
01
  5
1720C
 10
720.942
 20
6583.86
 30
0.000000
  70
    32
  0
VERTEX
  8
01
  5
1720D
 10
720.820
 20
6583.87
 30
0.000000
  70
    32
  0
VERTEX
  8
01
  5
1720E
 10
720.698
 20
6583.87
 30
0.000000
  70
    32
  0
VERTEX
  8
01
  5
1720F
 10
720.576
 20
6583.88
 30
0.000000
  70
    32
  0
VERTEX
  8
01
  5
17210
 10
720.454
 20
6583.90
 30
0.000000
  70
    32
  0
VERTEX
  8
01
  5
17211
 10
720.333
 20
6583.91
 30
0.000000
  70
    32
  0
VERTEX
  8
01
  5
17212
 10
720.212
 20
6583.93
 30
0.000000
  70
    32
  0
VERTEX
  8
01
  5
17213
 10
720.092
 20
6583.94
 30
0.000000
  70
    32
  0
VERTEX
  8
01
  5
17214
 10
719.973
 20
6583.96
 30
0.000000
  70
    32
  0
VERTEX
  8
01
  5
17215
 10
719.854
 20
6583.99
 30
0.000000
  70
    32
  0
VERTEX
  8
01
  5
17216
 10
719.736
 20
6584.01
 30
0.000000
  70
    32
  0
VERTEX
  8
01
  5
17217
 10
719.619
 20
6584.04
 30
0.000000
  70
    32
  0
VERTEX
  8
01
  5
17218
 10
719.503
 20
6584.07
 30
0.000000
  70
    32
  0
VERTEX
  8
01
  5
17219
 10
719.388
 20
6584.10
 30
0.000000
  70
    32
  0
VERTEX
  8
01
  5
1721A
 10
719.274
 20
6584.13
 30
0.000000
  70
    32
  0
VERTEX
  8
01
  5
1721B
 10
719.161
 20
6584.16
 30
0.000000
  70
    32
  0
VERTEX
  8
01
  5
1721C
 10
719.050
 20
6584.20
 30
0.000000
  70
    32
  0
VERTEX
  8
01
  5
1721D
 10
718.940
 20
6584.24
 30
0.000000
  70
    32
  0
VERTEX
  8
01
  5
1721E
 10
718.831
 20
6584.28
 30
0.000000
  70
    32
  0
VERTEX
  8
01
  5
1721F
 10
718.723
 20
6584.32
 30
0.000000
  70
    32
  0
VERTEX
  8
01
  5
17220
 10
718.617
 20
6584.36
 30
0.000000
  70
    32
  0
VERTEX
  8
01
  5
17221
 10
718.513
 20
6584.41
 30
0.000000
  70
    32
  0
VERTEX
  8
01
  5
17222
 10
718.410
 20
6584.46
 30
0.000000
  70
    32
  0
VERTEX
  8
01
  5
17223
 10
718.309
 20
6584.51
 30
0.000000
  70
    32
  0
VERTEX
  8
01
  5
17224
 10
718.209
 20
6584.56
 30
0.000000
  70
    32
  0
VERTEX
  8
01
  5
17225
 10
718.112
 20
6584.61
 30
0.000000
  70
    32
  0
VERTEX
  8
01
  5
17226
 10
718.016
 20
6584.67
 30
0.000000
  70
    32
  0
VERTEX
  8
01
  5
17227
 10
717.922
 20
6584.72
 30
0.000000
  70
    32
  0
VERTEX
  8
01
  5
17228
 10
717.830
 20
6584.78
 30
0.000000
  70
    32
  0
VERTEX
  8
01
  5
17229
 10
717.740
 20
6584.84
 30
0.000000
  70
    32
  0
VERTEX
  8
01
  5
1722A
 10
717.652
 20
6584.90
 30
0.000000
  70
    32
  0
VERTEX
  8
01
  5
1722B
 10
717.566
 20
6584.96
 30
0.000000
  70
    32
  0
VERTEX
  8
01
  5
1722C
 10
717.483
 20
6585.03
 30
0.000000
  70
    32
  0
VERTEX
  8
01
  5
1722D
 10
717.402
 20
6585.09
 30
0.000000
  70
    32
  0
VERTEX
  8
01
  5
1722E
 10
717.323
 20
6585.16
 30
0.000000
  70
    32
  0
VERTEX
  8
01
  5
1722F
 10
717.246
 20
6585.23
 30
0.000000
  70
    32
  0
VERTEX
  8
01
  5
17230
 10
717.172
 20
6585.30
 30
0.000000
  70
    32
  0
VERTEX
  8
01
  5
17231
 10
717.100
 20
6585.37
 30
0.000000
  70
    32
  0
VERTEX
  8
01
  5
17232
 10
717.030
 20
6585.44
 30
0.000000
  70
    32
  0
VERTEX
  8
01
  5
17233
 10
716.963
 20
6585.52
 30
0.000000
  70
    32
  0
VERTEX
  8
01
  5
17234
 10
716.899
 20
6585.59
 30
0.000000
  70
    32
  0
VERTEX
  8
01
  5
17235
 10
716.837
 20
6585.67
 30
0.000000
  70
    32
  0
VERTEX
  8
01
  5
17236
 10
716.778
 20
6585.74
 30
0.000000
  70
    32
  0
VERTEX
  8
01
  5
17237
 10
716.722
 20
6585.82
 30
0.000000
  70
    32
  0
VERTEX
  8
01
  5
17238
 10
716.668
 20
6585.90
 30
0.000000
  70
    32
  0
VERTEX
  8
01
  5
17239
 10
716.617
 20
6585.98
 30
0.000000
  70
    32
  0
VERTEX
  8
01
  5
1723A
 10
716.568
 20
6586.06
 30
0.000000
  70
    32
  0
VERTEX
  8
01
  5
1723B
 10
716.523
 20
6586.14
 30
0.000000
  70
    32
  0
VERTEX
  8
01
  5
1723C
 10
716.480
 20
6586.22
 30
0.000000
  70
    32
  0
VERTEX
  8
01
  5
1723D
 10
716.440
 20
6586.31
 30
0.000000
  70
    32
  0
VERTEX
  8
01
  5
1723E
 10
716.403
 20
6586.39
 30
0.000000
  70
    32
  0
VERTEX
  8
01
  5
1723F
 10
716.369
 20
6586.47
 30
0.000000
  70
    32
  0
VERTEX
  8
01
  5
17240
 10
716.338
 20
6586.56
 30
0.000000
  70
    32
  0
VERTEX
  8
01
  5
17241
 10
716.309
 20
6586.64
 30
0.000000
  70
    32
  0
VERTEX
  8
01
  5
17242
 10
716.284
 20
6586.73
 30
0.000000
  70
    32
  0
VERTEX
  8
01
  5
17243
 10
716.261
 20
6586.81
 30
0.000000
  70
    32
  0
VERTEX
  8
01
  5
17244
 10
716.242
 20
6586.90
 30
0.000000
  70
    32
  0
VERTEX
  8
01
  5
17245
 10
716.225
 20
6586.99
 30
0.000000
  70
    32
  0
VERTEX
  8
01
  5
17246
 10
716.212
 20
6587.08
 30
0.000000
  70
    32
  0
VERTEX
  8
01
  5
17247
 10
716.201
 20
6587.16
 30
0.000000
  70
    32
  0
VERTEX
  8
01
  5
17248
 10
716.194
 20
6587.25
 30
0.000000
  70
    32
  0
VERTEX
  8
01
  5
17249
 10
716.189
 20
6587.34
 30
0.000000
  70
    32
  0
VERTEX
  8
01
  5
1724A
 10
716.188
 20
6587.42
 30
0.000000
  70
    32
  0
SEQEND
  8
01
  5
1724B
  0
LINE
  5
14B15
  8
01
 10
726.18766916632444
 20
6600.2880685256714
 30
0.0
 11
726.18766916632444
 21
6587.4249085256706
 31
0.0
  0
LINE
  5
14B16
  8
01
 10
716.18766916632444
 20
6600.2880685256714
 30
0.0
 11
716.18766916632444
 21
6587.4249085256733
 31
0.0
  0
LINE
  5
14B17
  8
01
 10
712.18765416632471
 20
6633.8564885256719
 30
0.0
 11
711.18765416632482
 21
6634.8564885256701
 31
0.0
  0
LINE
  5
14B18
  8
01
 10
713.58767116632475
 20
6633.956468525671
 30
0.0
 11
712.78769016632464
 21
6634.7564485256707
 31
0.0
  0
LINE
  5
14B19
  8
01
 10
713.58767116632475
 20
6551.7564785256718
 30
0.0
 11
712.78766816632435
 21
6550.9564985256711
 31
0.0
  0
LINE
  5
14B1A
  8
01
 10
712.18761616632457
 20
6551.8564585256709
 30
0.0
 11
711.18763116632431
 21
6550.8564585256718
 31
0.0
  0
LINE
  5
14B1B
  8
01
 10
715.18766916632444
 20
6527.856488525671
 30
0.0
 11
711.18766916632444
 21
6527.856488525671
 31
0.0
  0
LINE
  5
14B1C
  8
01
 10
712.78767516632502
 20
6527.856488525671
 30
0.0
 11
712.78767516632502
 21
6550.9564985256711
 31
0.0
  0
LINE
  5
14B1D
  8
01
 10
711.18766916632444
 20
6527.856488525671
 30
0.0
 11
711.18766916632444
 21
6550.856488525671
 31
0.0
  0
LINE
  5
14B1E
  8
01
 10
712.18766916632444
 20
6633.8564885256719
 30
0.0
 11
712.18766916632444
 21
6551.856488525671
 31
0.0
  0
LINE
  5
14B1F
  8
01
 10
715.18766916632444
 20
6657.856488525671
 30
0.0
 11
711.18766916632444
 21
6657.856488525671
 31
0.0
  0
LINE
  5
14B20
  8
01
 10
821.68766916632444
 20
6651.856488525671
 30
0.0
 11
821.68766916632444
 21
6533.856488525671
 31
0.0
  0
LINE
  5
14B21
  8
01
 10
846.68766916632444
 20
6651.856488525671
 30
0.0
 11
846.68766916632444
 21
6533.856488525671
 31
0.0
  0
ARC
  5
14B22
  8
01
 10
840.68766916632444
 20
6533.856488525671
 30
0.0
 40
6.0
 50
270.0
 51
0.0
  0
ARC
  5
14B23
  8
01
 10
827.68766916632433
 20
6533.856488525671
 30
0.0
 40
6.0
 50
180.0
 51
270.0
  0
LINE
  5
14B24
  8
01
 10
841.93766916632433
 20
6600.2880685256714
 30
0.0
 11
841.93766916632433
 21
6587.4249085256724
 31
0.0
  0
LINE
  5
14B25
  8
01
 10
840.93766916632433
 20
6598.856488525671
 30
0.0
 11
840.93766916632433
 21
6588.856488525671
 31
0.0
  0
LINE
  5
14B26
  8
01
 10
827.43766916632444
 20
6598.856488525671
 30
0.0
 11
827.43766916632444
 21
6588.856488525671
 31
0.0
  0
LINE
  5
14B27
  8
01
 10
826.43766916632444
 20
6600.2880685256714
 30
0.0
 11
826.43766916632444
 21
6587.4249085256724
 31
0.0
  0
ARC
  5
14B28
  8
01
 10
834.18766916632444
 20
6594.0564985256706
 30
0.0
 40
10.199999999999999
 50
220.55307999999039
 51
319.44692000000953
  0
LINE
  5
14B29
  8
01
 10
827.43766916632444
 20
6588.856488525671
 30
0.0
 11
840.93766916632433
 21
6588.856488525671
 31
0.0
  0
LINE
  5
14B2A
  8
01
 10
827.43766916632444
 20
6598.856488525671
 30
0.0
 11
840.93766916632433
 21
6598.856488525671
 31
0.0
  0
ARC
  5
14B2B
  8
01
 10
834.18766916632444
 20
6593.6564785256724
 30
0.0
 40
10.199999999999999
 50
40.553083999997327
 51
139.4469200000095
  0
CIRCLE
  5
14B2C
  8
01
 10
834.18766916632444
 20
6535.856488525671
 30
0.0
 40
4.5
  0
CIRCLE
  5
14B2D
  8
01
 10
834.18766916632444
 20
6535.856488525671
 30
0.0
 40
2.75
  0
LINE
  5
14B2E
  8
01
 10
827.68766916632433
 20
6527.856488525671
 30
0.0
 11
840.68766916632444
 21
6527.856488525671
 31
0.0
  0
ARC
  5
14B2F
  8
01
 10
840.68766916632444
 20
6651.856488525671
 30
0.0
 40
6.0
 50
0.0
 51
90.0
  0
ARC
  5
14B31
  8
01
 10
827.68766916632433
 20
6651.856488525671
 30
0.0
 40
6.0
 50
90.0
 51
180.0
  0
LINE
  5
14B32
  8
01
 10
827.68766916632433
 20
6657.856488525671
 30
0.0
 11
840.68766916632444
 21
6657.856488525671
 31
0.0
  0
CIRCLE
  5
14B33
  8
01
 10
834.18766916632444
 20
6649.856488525671
 30
0.0
 40
4.5
  0
CIRCLE
  5
14B34
  8
01
 10
834.18766916632444
 20
6649.856488525671
 30
0.0
 40
2.75
  0
TEXT
  5
14B35
  8
01
 10
649.1876851663244
 20
6856.856488525671
 30
0.0
 40
20.0
  1
3-L3C-X-LW
  0
LINE
  5
14B39
  8
01
 10
955.58767516632429
 20
6657.856488525671
 30
0.0
 11
955.58767516632429
 21
6634.7565185256708
 31
0.0
  0
LINE
  5
14B3A
  8
01
 10
957.1876651663249
 20
6657.856488525671
 30
0.0
 11
957.1876651663249
 21
6634.8564885256701
 31
0.0
  0
LINE
  5
14B3B
  8
01
 10
954.78767516632513
 20
6657.856488525671
 30
0.0
 11
954.78767516632513
 21
6527.856488525671
 31
0.0
  0
LINE
  5
14B3C
  8
01
 10
953.18766516632502
 20
6657.856488525671
 30
0.0
 11
953.18766516632502
 21
6527.856488525671
 31
0.0
  0
LINE
  5
14B3E
  8
01
 10
956.1876651663249
 20
6555.856488525671
 30
0.0
 11
984.97829245402636
 21
6555.856488525671
 31
0.0
  0
LINE
  5
14B3F
  8
01
 10
956.18767516632465
 20
6633.8564885256719
 30
0.0
 11
957.18767516632465
 21
6634.8564885256701
 31
0.0
  0
LINE
  5
14B40
  8
01
 10
954.78766516632527
 20
6633.956468525671
 30
0.0
 11
955.58767516632429
 21
6634.7565185256708
 31
0.0
  0
LINE
  5
14B41
  8
01
 10
946.1876651663249
 20
6603.8564885256701
 30
0.0
 11
953.18766516632502
 21
6603.8564885256701
 31
0.0
  0
LINE
  5
14B42
  8
01
 10
946.1876651663249
 20
6583.8564885256719
 30
0.0
 11
953.18766516632502
 21
6583.8564885256719
 31
0.0
  0
LINE
  5
14B43
  8
01
 10
942.26976516632453
 20
6587.050218525671
 30
0.0
 11
953.18766516632502
 21
6587.050218525671
 31
0.0
  0
LINE
  5
14B44
  8
01
 10
942.26976516632453
 20
6600.6627685256717
 30
0.0
 11
953.18766516632502
 21
6600.6627685256717
 31
0.0
  0
LINE
  5
14B45
  8
01
 10
942.18766516632479
 20
6599.856488525671
 30
0.0
 11
942.18766516632479
 21
6587.8564885256701
 31
0.0
  0
ARC
  5
14B46
  8
01
 10
946.1876651663249
 20
6587.8564885256701
 30
0.0
 40
4.0
 50
179.999989999999
 51
270.0
  0
ARC
  5
14B47
  8
01
 10
946.1876651663249
 20
6599.856488525671
 30
0.0
 40
4.0
 50
90.000002999984645
 51
180.000010000001
  0
LINE
  5
14B48
  8
01
 10
954.78766516632527
 20
6551.7564785256718
 30
0.0
 11
955.58767516632429
 21
6550.9564985256711
 31
0.0
  0
LINE
  5
14B49
  8
01
 10
956.18771516632546
 20
6551.8564585256709
 30
0.0
 11
957.18769516632415
 21
6550.856488525671
 31
0.0
  0
LINE
  5
14B4A
  8
01
 10
948.1876651663249
 20
6535.856488525671
 30
0.0
 11
962.1876651663249
 21
6535.856488525671
 31
0.0
  0
LINE
  5
14B4B
  8
01
 10
953.18766516632502
 20
6527.856488525671
 30
0.0
 11
957.1876651663249
 21
6527.856488525671
 31
0.0
  0
LINE
  5
14B4C
  8
01
 10
955.58767516632429
 20
6527.856488525671
 30
0.0
 11
955.58767516632429
 21
6550.9564985256711
 31
0.0
  0
LINE
  5
14B4D
  8
01
 10
957.1876651663249
 20
6527.856488525671
 30
0.0
 11
957.1876651663249
 21
6550.856488525671
 31
0.0
  0
LINE
  5
14B4E
  8
01
 10
956.1876651663249
 20
6633.8564885256719
 30
0.0
 11
956.1876651663249
 21
6551.856488525671
 31
0.0
  0
LINE
  5
14B4F
  8
01
 10
1022.187665166325
 20
6619.1078546751478
 30
0.0
 11
1022.187665166325
 21
6589.2058400985688
 31
0.0
  0
LINE
  5
14B51
  8
01
 10
953.18766516632502
 20
6657.856488525671
 30
0.0
 11
957.1876651663249
 21
6657.856488525671
 31
0.0
  0
LINE
  5
14B52
  8
01
 10
948.1876651663249
 20
6649.856488525671
 30
0.0
 11
962.1876651663249
 21
6649.856488525671
 31
0.0
  0
LINE
  5
14B54
  8
01
 10
957.18854934838487
 20
6851.3564885246424
 30
0.0
 11
1023.188549348385
 21
6851.3564885246424
 31
0.0
  0
LINE
  5
14B55
  8
01
 10
957.18854934838487
 20
6849.7565185246422
 30
0.0
 11
1023.188549348385
 21
6849.7565185246422
 31
0.0
  0
LINE
  5
14B56
  8
01
 10
954.78855934838487
 20
6832.3564885246424
 30
0.0
 11
1023.188549348385
 21
6832.3564885246424
 31
0.0
  0
LINE
  5
14B57
  8
01
 10
956.38853934838573
 20
6846.8564885246424
 30
0.0
 11
957.18854934838487
 21
6847.656508524643
 31
0.0
  0
LINE
  5
14B58
  8
01
 10
957.18854934838487
 20
6852.3564885246433
 30
0.0
 11
957.18854934838487
 21
6847.656508524643
 31
0.0
  0
LINE
  5
14B59
  8
01
 10
954.78855934838487
 20
6846.8565185246434
 30
0.0
 11
955.58854934838632
 21
6847.6564785246419
 31
0.0
  0
LINE
  5
14B5A
  8
01
 10
942.18854934838475
 20
6834.1064885246433
 30
0.0
 11
953.18854934838475
 21
6834.1064885246433
 31
0.0
  0
LINE
  5
14B5B
  8
01
 10
942.18854934838475
 20
6834.1064885246433
 30
0.0
 11
942.18854934838475
 21
6836.1064885246424
 31
0.0
  0
LINE
  5
14B5C
  8
01
 10
953.18854934838475
 20
6854.3564885246433
 30
0.0
 11
954.78855934838487
 21
6854.3564885246433
 31
0.0
  0
LINE
  5
14B5D
  8
01
 10
954.78855934838487
 20
6854.3564885246433
 30
0.0
 11
954.78855934838487
 21
6846.8564885246424
 31
0.0
  0
LINE
  5
14B5E
  8
01
 10
955.58855934838607
 20
6852.3564885246433
 30
0.0
 11
955.58855934838607
 21
6847.656508524643
 31
0.0
  0
LINE
  5
14B5F
  8
01
 10
954.78855934838487
 20
6852.3564885246433
 30
0.0
 11
957.18854934838487
 21
6852.3564885246433
 31
0.0
  0
LINE
  5
14B60
  8
01
 10
957.18854934838487
 20
6836.0564985246428
 30
0.0
 11
957.18854934838487
 21
6832.3564885246424
 31
0.0
  0
LINE
  5
14B61
  8
01
 10
956.38855934838534
 20
6836.8565185246416
 30
0.0
 11
957.18854934838487
 21
6836.0564985246428
 31
0.0
  0
LINE
  5
14B62
  8
01
 10
957.18854934838487
 20
6833.9564985246416
 30
0.0
 11
961.78855934838487
 21
6833.9564985246416
 31
0.0
  0
LINE
  5
14B63
  8
01
 10
954.78854934838512
 20
6836.8565185246416
 30
0.0
 11
955.58855934838607
 21
6836.0564985246428
 31
0.0
  0
LINE
  5
14B64
  8
01
 10
954.78855934838487
 20
6836.8564885246433
 30
0.0
 11
954.78855934838487
 21
6829.3564885246424
 31
0.0
  0
LINE
  5
14B65
  8
01
 10
953.18854934838475
 20
6829.3564885246424
 30
0.0
 11
954.78855934838487
 21
6829.3564885246424
 31
0.0
  0
LINE
  5
14B66
  8
01
 10
955.58855934838607
 20
6836.0564985246428
 30
0.0
 11
955.58855934838607
 21
6832.3564885246424
 31
0.0
  0
LINE
  5
14B67
  8
01
 10
953.18854934838475
 20
6861.8564885246433
 30
0.0
 11
953.18854934838475
 21
6821.8564885246424
 31
0.0
  0
LINE
  5
14B68
  8
01
 10
961.78855934838487
 20
6849.7565185246422
 30
0.0
 11
961.78855934838487
 21
6832.3564885246424
 31
0.0
  0
LINE
  5
14B69
  8
01
 10
956.38854934838548
 20
6846.8564885246424
 30
0.0
 11
956.38854934838548
 21
6836.8564885246433
 31
0.0
  0
LINE
  5
14B6A
  8
01
 10
954.78855934838487
 20
6846.8564885246424
 30
0.0
 11
954.78855934838487
 21
6836.8564885246433
 31
0.0
  0
ARC
  5
14B6B
  8
01
 10
985.85804934838495
 20
6811.7554085246429
 30
0.0
 40
50.0
 50
130.7976900000059
 51
150.85500000003009
  0
LINE
  5
14B6C
  8
01
 10
985.54989789461695
 20
6807.3564575246437
 30
0.0
 11
1001.172534506068
 21
6807.3564575246437
 31
0.0
  0
LINE
  5
14B6D
  8
01
 10
1021.588549348386
 20
6849.7565185246422
 30
0.0
 11
1021.588549348386
 21
6832.3564885246424
 31
0.0
  0
LINE
  5
14B6E
  8
01
 10
1023.188549348385
 20
6851.3564885246424
 30
0.0
 11
1023.188549348385
 21
6832.3564885246424
 31
0.0
  0
LINE
  5
14B6F
  8
01
 10
985.54989789461695
 20
6876.356519524641
 30
0.0
 11
1001.172534506068
 21
6876.356519524641
 31
0.0
  0
LINE
  5
14B70
  8
01
 10
720.18767316632386
 20
6535.856488525671
 30
0.0
 11
706.18767316632398
 21
6535.856488525671
 31
0.0
  0
LINE
  5
14B71
  8
01
 10
720.18767316632386
 20
6649.856488525671
 30
0.0
 11
706.18767316632398
 21
6649.856488525671
 31
0.0
  0
LINE
  5
14B72
  8
01
 10
840.68766916632444
 20
6649.856488525671
 30
0.0
 11
827.68766916632433
 21
6649.856488525671
 31
0.0
  0
LINE
  5
14B73
  8
01
 10
834.18766916632444
 20
6656.356488525671
 30
0.0
 11
834.18766916632444
 21
6643.3564885256719
 31
0.0
  0
LINE
  5
14B74
  8
01
 10
840.68766916632444
 20
6535.856488525671
 30
0.0
 11
827.68766916632433
 21
6535.856488525671
 31
0.0
  0
LINE
  5
14B75
  8
01
 10
834.18766916632444
 20
6542.356488525671
 30
0.0
 11
834.18766916632444
 21
6529.356488525671
 31
0.0
  0
LINE
  5
14B76
  8
01
 10
694.18767316632386
 20
6571.856488525671
 30
0.0
 11
634.18767316632398
 21
6571.856488525671
 31
0.0
  0
LINE
  5
14B77
  8
01
 10
664.18767316632398
 20
6601.856488525671
 30
0.0
 11
664.18767316632398
 21
6541.856488525671
 31
0.0
  0
LINE
  5
14B78
  8
01
 10
974.1876651663249
 20
6571.856488525671
 30
0.0
 11
1034.1876651663249
 21
6571.856488525671
 31
0.0
  0
LINE
  5
14B79
  8
01
 10
1004.187665166325
 20
6601.856488525671
 30
0.0
 11
1004.187665166325
 21
6541.856488525671
 31
0.0
  0
POINT
  5
14B7A
  8
01
 10
868.68766916632433
 20
6571.856488525671
 30
0.0
  0
LINE
  5
14B7B
  8
01
 10
868.28766915632445
 20
6570.106488525671
 30
0.0
 11
868.28766915632445
 21
6570.9564885456721
 31
0.0
  0
LINE
  5
14B7C
  8
01
 10
869.08766917632454
 20
6570.106488525671
 30
0.0
 11
869.08766917632454
 21
6570.9564885456721
 31
0.0
  0
LINE
  5
14B7D
  8
01
 10
867.78766918632448
 20
6571.4564885156697
 30
0.0
 11
866.93766916632433
 21
6571.4564885156697
 31
0.0
  0
LINE
  5
14B7E
  8
01
 10
867.78766918632448
 20
6572.2564885356715
 30
0.0
 11
866.93766916632433
 21
6572.2564885356715
 31
0.0
  0
LINE
  5
14B7F
  8
01
 10
866.93766916632433
 20
6571.4564885156697
 30
0.0
 11
866.93766916632433
 21
6572.2564885356715
 31
0.0
  0
LINE
  5
14B80
  8
01
 10
869.08766917632454
 20
6570.106488525671
 30
0.0
 11
868.28766915632445
 21
6570.106488525671
 31
0.0
  0
LINE
  5
14B81
  8
01
 10
869.08766917632454
 20
6573.606488525671
 30
0.0
 11
869.08766917632454
 21
6572.7564885056709
 31
0.0
  0
LINE
  5
14B82
  8
01
 10
868.28766915632445
 20
6573.606488525671
 30
0.0
 11
868.28766915632445
 21
6572.7564885056709
 31
0.0
  0
LINE
  5
14B83
  8
01
 10
869.58766914632417
 20
6572.2564885356715
 30
0.0
 11
870.43766916632433
 21
6572.2564885356715
 31
0.0
  0
LINE
  5
14B84
  8
01
 10
869.58766914632417
 20
6571.4564885156697
 30
0.0
 11
870.43766916632433
 21
6571.4564885156697
 31
0.0
  0
LINE
  5
14B85
  8
01
 10
870.43766916632433
 20
6572.2564885356715
 30
0.0
 11
870.43766916632433
 21
6571.4564885156697
 31
0.0
  0
LINE
  5
14B86
  8
01
 10
868.28766915632445
 20
6573.606488525671
 30
0.0
 11
869.08766917632454
 21
6573.606488525671
 31
0.0
  0
CIRCLE
  5
14B87
  8
01
 10
868.68766916632433
 20
6571.856488525671
 30
0.0
 40
2.5
  0
ARC
  5
14B88
  8
01
 10
869.58766914632417
 20
6572.7564885056709
 30
0.0
 40
0.5
 50
179.999989999999
 51
270.0
  0
ARC
  5
14B89
  8
01
 10
869.58766914632417
 20
6570.9564885456721
 30
0.0
 40
0.5
 50
90.000003000000945
 51
180.000010000001
  0
ARC
  5
14B8A
  8
01
 10
867.78766918632448
 20
6570.9564885456721
 30
0.0
 40
0.5
 50
0.0
 51
90.000003000000945
  0
ARC
  5
14B8B
  8
01
 10
867.78766918632448
 20
6572.7564885056709
 30
0.0
 40
0.5
 50
270.0
 51
0.0
  0
POINT
  5
14B8D
  8
01
 10
799.68766916632444
 20
6571.856488525671
 30
0.0
 50
180.0
  0
CIRCLE
  5
14B8E
  8
01
 10
799.68766916632444
 20
6571.856488525671
 30
0.0
 40
2.5
  0
LINE
  5
14BB7
  8
01
 10
651.18766516632354
 20
6621.856488525671
 30
0.0
 11
677.18766516632354
 21
6621.856488525671
 31
0.0
  0
LINE
  5
14BB8
  8
01
 10
686.68766516632354
 20
6627.3564885256719
 30
0.0
 11
641.68766516632354
 21
6627.3564885256719
 31
0.0
  0
LINE
  5
14BB9
  8
01
 10
664.18766516632354
 20
6649.856488525671
 30
0.0
 11
664.18766516632354
 21
6604.856488525671
 31
0.0
  0
LINE
  5
14BBA
  8
01
 10
1017.187673166326
 20
6621.856488525671
 30
0.0
 11
991.18767316632568
 21
6621.856488525671
 31
0.0
  0
LINE
  5
14BBB
  8
01
 10
981.68767316632579
 20
6627.3564885256719
 30
0.0
 11
1026.687673166326
 21
6627.3564885256719
 31
0.0
  0
LINE
  5
14BBC
  8
01
 10
1004.187673166326
 20
6649.856488525671
 30
0.0
 11
1004.187673166326
 21
6604.856488525671
 31
0.0
  0
LINE
  5
14BDA
  8
01
 10
1004.187781506069
 20
6891.8564885246424
 30
0.0
 11
1004.187781506069
 21
6856.8564885246433
 31
0.0
  0
LINE
  5
14BDB
  8
01
 10
1004.187781506069
 20
6826.8564885246424
 30
0.0
 11
1004.187781506069
 21
6791.8564885246433
 31
0.0
  0
LINE
  5
14BDC
  8
01
 10
784.18766916632444
 20
6571.856488525671
 30
0.0
 11
819.18766916632444
 21
6571.856488525671
 31
0.0
  0
LINE
  5
14BDD
  8
01
 10
849.18766916632455
 20
6571.856488525671
 30
0.0
 11
884.18766916632444
 21
6571.856488525671
 31
0.0
  0
LINE
  5
14BE6
  8
01
 10
953.18854934838475
 20
6821.8564885246424
 30
0.0
 11
1106.942929503417
 21
6821.8564885246424
 31
0.0
  0
LINE
  5
14BE7
  8
01
 10
953.18854934838475
 20
6861.8564885246433
 30
0.0
 11
1106.942929503417
 21
6861.8564885246433
 31
0.0
  0
LINE
  5
14F9E
  8
01
 10
649.18768516632349
 20
6795.356488525671
 30
0.0
 11
754.18768516632349
 21
6795.356488525671
 31
0.0
  0
TEXT
  5
14F9F
  8
01
 10
650.88768516632285
 20
6797.8901181083138
 30
0.0
 40
6.0
  1
パールクローム
 72
     1
 11
675.28768516632294
 21
6797.8901181083138
 31
0.0
  0
TEXT
  5
14FA0
  8
01
 10
661.68768516632292
 20
6818.606488525671
 30
0.0
 40
6.0
  1
表面処理
 72
     1
 11
675.28768516632294
 21
6818.606488525671
 31
0.0
  0
TEXT
  5
14FA1
  8
01
 10
661.68768516632292
 20
6808.3535555363842
 30
0.0
 40
6.0
  1
クローム
 72
     1
 11
675.28768516632294
 21
6808.3535555363842
 31
0.0
  0
LINE
  5
14FA2
  8
01
 10
649.18768516632349
 20
6826.8564885256701
 30
0.0
 11
754.18768516632349
 21
6826.8564885256701
 31
0.0
  0
LINE
  5
14FA3
  8
01
 10
649.18768516632349
 20
6816.3564885256701
 30
0.0
 11
754.18768516632349
 21
6816.3564885256701
 31
0.0
  0
LINE
  5
14FA4
  8
01
 10
649.18768516632349
 20
6805.856488525671
 30
0.0
 11
754.18768516632349
 21
6805.856488525671
 31
0.0
  0
LINE
  5
14FA5
  8
01
 10
649.18768516632349
 20
6805.856488525671
 30
0.0
 11
754.18768516632349
 21
6805.856488525671
 31
0.0
  0
LINE
  5
14FA6
  8
01
 10
701.68768516632338
 20
6826.8564885256701
 30
0.0
 11
701.68768516632338
 21
6784.856488525671
 31
0.0
  0
TEXT
  5
14FA7
  8
01
 10
705.88768516632433
 20
6807.7849530501981
 30
0.0
 40
6.0
  1
3-L3C-C-LW
 41
0.7
 72
     1
 11
727.78768516632431
 21
6807.7849530501981
 31
0.0
  0
TEXT
  5
14FA8
  8
01
 10
717.78768516632294
 20
6818.606488525671
 30
0.0
 40
6.0
  1
コード
 72
     1
 11
727.78768516632294
 21
6818.606488525671
 31
0.0
  0
LINE
  5
14FA9
  8
01
 10
649.18768516632349
 20
6784.856488525671
 30
0.0
 11
754.18768516632349
 21
6784.856488525671
 31
0.0
  0
TEXT
  5
14FAA
  8
01
 10
650.88768516632285
 20
6787.3901181083138
 30
0.0
 40
6.0
  1
サテンニッケル
 72
     1
 11
675.28768516632294
 21
6787.3901181083138
 31
0.0
  0
LINE
  5
14FAB
  8
01
 10
649.18768516632349
 20
6784.856488525671
 30
0.0
 11
649.18768516632349
 21
6826.8564885256701
 31
0.0
  0
LINE
  5
14FAC
  8
01
 10
754.18768516632349
 20
6784.856488525671
 30
0.0
 11
754.18768516632349
 21
6826.8564885256701
 31
0.0
  0
TEXT
  5
14FAD
  8
01
 10
705.88768516632433
 20
6797.2849530501981
 30
0.0
 40
6.0
  1
3-L3C-B-LW
 41
0.7
 72
     1
 11
727.78768516632431
 21
6797.2849530501981
 31
0.0
  0
TEXT
  5
14FAE
  8
01
 10
705.78768516632431
 20
6786.7849530501971
 30
0.0
 40
6.0
  1
3-L3C-N-LW
 41
0.7
 72
     1
 11
727.78768516632431
 21
6786.7849530501971
 31
0.0
  0
LINE
  5
16253
  8
01
 10
863.18766916510845
 20
6561.1064885256683
 30
0.0
 11
863.18766916610707
 21
6582.6064885256683
 31
0.0
  0
LINE
  5
16254
  8
01
 10
913.18766916509935
 20
6561.6064885256701
 30
0.0
 11
913.18766916509935
 21
6582.1064885256692
 31
0.0
  0
LINE
  5
16255
  8
01
 10
863.18766916490824
 20
6561.1064885256683
 30
0.0
 11
912.68766916509935
 21
6561.1064885256701
 31
0.0
  0
ARC
  5
16256
  8
01
 10
912.68766916509935
 20
6561.6064885256701
 30
0.0
 40
0.5
 50
270.0
 51
0.0
  0
LINE
  5
16257
  8
01
 10
863.18766916610707
 20
6582.6064885256683
 30
0.0
 11
912.68766916509935
 21
6582.6064885256683
 31
0.0
  0
ARC
  5
16258
  8
01
 10
912.68766916509935
 20
6582.1064885256692
 30
0.0
 40
0.5
 50
0.0
 51
90.0
  0
LINE
  5
1625E
  8
01
 10
805.18766916754043
 20
6561.1064885256683
 30
0.0
 11
805.18766916654181
 21
6582.6064885256683
 31
0.0
  0
LINE
  5
1625F
  8
01
 10
755.18766916754953
 20
6561.6064885256701
 30
0.0
 11
755.18766916754953
 21
6582.1064885256692
 31
0.0
  0
LINE
  5
16260
  8
01
 10
805.18766916774052
 20
6561.1064885256683
 30
0.0
 11
755.68766916754953
 21
6561.1064885256701
 31
0.0
  0
ARC
  5
16261
  8
01
 10
755.68766916754953
 20
6561.6064885256701
 30
0.0
 40
0.5
 50
180.0
 51
270.0
  0
LINE
  5
16262
  8
01
 10
805.18766916654181
 20
6582.6064885256683
 30
0.0
 11
755.68766916754953
 21
6582.6064885256683
 31
0.0
  0
ARC
  5
16263
  8
01
 10
755.68766916754953
 20
6582.1064885256692
 30
0.0
 40
0.5
 50
90.0
 51
180.0
  0
LINE
  5
16269
  8
01
 10
993.93766516632479
 20
6582.6064885256692
 30
0.0
 11
1122.9376651663249
 21
6582.6064885256674
 31
0.0
  0
ARC
  5
1626A
  8
01
 10
1122.9376651663249
 20
6582.1064885256656
 30
0.0
 40
0.5
 50
0.0
 51
90.0
  0
LINE
  5
1626B
  8
01
 10
993.93766516632479
 20
6561.1064885256719
 30
0.0
 11
1122.9376651663249
 21
6561.1064885256646
 31
0.0
  0
ARC
  5
1626C
  8
01
 10
1122.9376651663249
 20
6561.6064885256646
 30
0.0
 40
0.5
 50
270.0
 51
0.0
  0
ARC
  5
1626D
  8
01
 10
993.93766516632479
 20
6561.6064885256719
 30
0.0
 40
0.5
 50
180.0
 51
270.0
  0
LINE
  5
1626E
  8
01
 10
993.4376651663249
 20
6582.106488525671
 30
0.0
 11
993.4376651663249
 21
6561.6064885256719
 31
0.0
  0
ARC
  5
1626F
  8
01
 10
993.93766516632479
 20
6582.106488525671
 30
0.0
 40
0.5
 50
90.0
 51
180.0
  0
LINE
  5
16270
  8
01
 10
1123.4376651663249
 20
6561.6064885256646
 30
0.0
 11
1123.4376651663249
 21
6582.1064885256656
 31
0.0
  0
ARC
  5
16271
  8
01
 10
1004.187665166325
 20
6571.856488525671
 30
0.0
 40
25.0
 50
25.467560142433751
 51
334.53243985756632
  0
LINE
  5
16273
  8
01
 10
674.43767316632398
 20
6582.6064885256692
 30
0.0
 11
545.43767316632398
 21
6582.6064885256674
 31
0.0
  0
ARC
  5
16274
  8
01
 10
545.43767316632398
 20
6582.1064885256656
 30
0.0
 40
0.5
 50
90.0
 51
180.0
  0
LINE
  5
16275
  8
01
 10
674.43767316632398
 20
6561.1064885256719
 30
0.0
 11
545.43767316632398
 21
6561.1064885256646
 31
0.0
  0
ARC
  5
16276
  8
01
 10
545.43767316632398
 20
6561.6064885256646
 30
0.0
 40
0.5
 50
180.0
 51
270.0
  0
ARC
  5
16277
  8
01
 10
674.43767316632398
 20
6561.6064885256719
 30
0.0
 40
0.5
 50
270.0
 51
0.0
  0
LINE
  5
16278
  8
01
 10
674.93767316632398
 20
6582.106488525671
 30
0.0
 11
674.93767316632398
 21
6561.6064885256719
 31
0.0
  0
ARC
  5
16279
  8
01
 10
674.43767316632398
 20
6582.106488525671
 30
0.0
 40
0.5
 50
0.0
 51
90.0
  0
LINE
  5
1627A
  8
01
 10
544.93767316632398
 20
6561.6064885256646
 30
0.0
 11
544.93767316632398
 21
6582.1064885256656
 31
0.0
  0
ARC
  5
1627B
  8
01
 10
664.18767316632398
 20
6571.856488525671
 30
0.0
 40
25.0
 50
205.46756014243371
 51
154.53243985756629
  0
LINE
  5
1627C
  8
01
 10
1123.437782456069
 20
6773.3564885252526
 30
0.0
 11
1123.437782456069
 21
6763.3564885252526
 31
0.0
  0
LINE
  5
1627D
  8
01
 10
993.93778245607132
 20
6762.8564885252526
 30
0.0
 11
1122.937782456069
 21
6762.8564885252526
 31
0.0
  0
ARC
  5
1627E
  8
01
 10
1122.937782456069
 20
6763.3564885252526
 30
0.0
 40
0.5
 50
270.0
 51
0.0
  0
ARC
  5
1627F
  8
01
 10
993.93778245607132
 20
6763.3564885252526
 30
0.0
 40
0.5
 50
180.0
 51
270.0
  0
LINE
  5
16280
  8
01
 10
1015.437782456069
 20
6773.8564885252563
 30
0.0
 11
1122.937782456069
 21
6773.8564885252526
 31
0.0
  0
ARC
  5
16281
  8
01
 10
1015.437782456069
 20
6774.3564885252563
 30
0.0
 40
0.5
 50
180.0
 51
270.0
  0
ARC
  5
16282
  8
01
 10
1122.937782456069
 20
6773.3564885252526
 30
0.0
 40
0.5
 50
0.0
 51
90.0
  0
LINE
  5
16283
  8
01
 10
993.43778245606939
 20
6812.8564885252399
 30
0.0
 11
1014.937782456069
 21
6812.8564885240439
 31
0.0
  0
LINE
  5
16284
  8
01
 10
993.43778245606939
 20
6812.8564885252399
 30
0.0
 11
993.4377824560712
 21
6763.3564885252526
 31
0.0
  0
LINE
  5
16285
  8
01
 10
1014.937782456069
 20
6812.8564885240439
 30
0.0
 11
1014.937782456069
 21
6774.3564885252563
 31
0.0
  0
LINE
  5
16290
  8
01
 10
1123.437782456069
 20
6910.3564885240303
 30
0.0
 11
1123.437782456069
 21
6920.3564885240312
 31
0.0
  0
LINE
  5
16291
  8
01
 10
993.93778245607132
 20
6920.8564885240303
 30
0.0
 11
1122.937782456069
 21
6920.8564885240303
 31
0.0
  0
ARC
  5
16292
  8
01
 10
1122.937782456069
 20
6920.3564885240312
 30
0.0
 40
0.5
 50
0.0
 51
90.000000000000028
  0
ARC
  5
16293
  8
01
 10
993.93778245607132
 20
6920.3564885240312
 30
0.0
 40
0.5
 50
90.000000000000028
 51
180.0
  0
LINE
  5
16294
  8
01
 10
1015.437782456069
 20
6909.8564885240266
 30
0.0
 11
1122.937782456069
 21
6909.8564885240312
 31
0.0
  0
ARC
  5
16295
  8
01
 10
1015.437782456069
 20
6909.3564885240266
 30
0.0
 40
0.5
 50
90.000000000000028
 51
180.0
  0
ARC
  5
16296
  8
01
 10
1122.937782456069
 20
6910.3564885240303
 30
0.0
 40
0.5
 50
270.0
 51
0.0
  0
LINE
  5
16297
  8
01
 10
993.43778245606939
 20
6870.8564885240439
 30
0.0
 11
1001.687781572164
 21
6870.8564885245023
 31
0.0
  0
LINE
  5
16298
  8
01
 10
993.43778245606939
 20
6870.8564885240439
 30
0.0
 11
993.4377824560712
 21
6920.3564885240312
 31
0.0
  0
LINE
  5
16299
  8
01
 10
1014.937782456069
 20
6870.8564885252399
 30
0.0
 11
1014.937782456069
 21
6909.3564885240266
 31
0.0
  0
CIRCLE
  5
16BDC
  8
01
 10
664.18767316632443
 20
6621.856488525671
 30
0.0
 40
11.30000000000109
  0
LINE
  5
16BDD
  8
01
 10
666.68767316632443
 20
6632.1642474964719
 30
0.0
 11
666.68767316632443
 21
6611.5487295548701
 31
0.0
  0
LINE
  5
16BDE
  8
01
 10
661.68767316632443
 20
6632.1642474964719
 30
0.0
 11
661.68767316632443
 21
6611.5487295548701
 31
0.0
  0
ARC
  5
16BDF
  8
01
 10
662.18767316632443
 20
6632.1642474964719
 30
0.0
 40
0.5
 50
100.98058072142879
 51
180.0
  0
ARC
  5
16BE0
  8
01
 10
666.18767316632443
 20
6632.1642474964719
 30
0.0
 40
0.5
 50
0.0
 51
79.019419278571149
  0
ARC
  5
16BE1
  8
01
 10
662.18767316632443
 20
6611.5487295548701
 30
0.0
 40
0.5
 50
180.0
 51
259.01941927857121
  0
ARC
  5
16BE2
  8
01
 10
666.18767316632443
 20
6611.5487295548701
 30
0.0
 40
0.5
 50
280.98058072142891
 51
0.0
  0
CIRCLE
  5
16BE3
  8
01
 10
664.18767316632216
 20
6627.3564885256719
 30
0.0
 40
20.000000000000071
  0
CIRCLE
  5
16BE4
  8
01
 10
664.18767316632398
 20
6621.856488525671
 30
0.0
 40
11.0
  0
LINE
  5
16BE5
  8
01
 10
814.18766916632171
 20
6596.856488525671
 30
0.0
 11
814.18766916632353
 21
6546.856488525671
 31
0.0
  0
LINE
  5
16BE6
  8
01
 10
805.6876691663216
 20
6596.3564885256746
 30
0.0
 11
805.68766916632535
 21
6547.356488525671
 31
0.0
  0
LINE
  5
16BE7
  8
01
 10
814.18766916632353
 20
6546.856488525671
 30
0.0
 11
806.18766916632535
 21
6546.856488525671
 31
0.0
  0
ARC
  5
16BE8
  8
01
 10
806.18766916632535
 20
6547.356488525671
 30
0.0
 40
0.5
 50
180.0
 51
270.0
  0
LINE
  5
16BE9
  8
01
 10
814.18766916632171
 20
6596.856488525671
 30
0.0
 11
806.18766916632217
 21
6596.8564885256728
 31
0.0
  0
ARC
  5
16BEA
  8
01
 10
806.18766916632171
 20
6596.3564885256746
 30
0.0
 40
0.5
 50
89.999999999973952
 51
180.0
  0
LINE
  5
16BEB
  8
01
 10
854.18766916632535
 20
6596.856488525671
 30
0.0
 11
854.18766916632353
 21
6546.856488525671
 31
0.0
  0
LINE
  5
16BEC
  8
01
 10
862.68766916632535
 20
6596.3564885256746
 30
0.0
 11
862.6876691663216
 21
6547.356488525671
 31
0.0
  0
LINE
  5
16BED
  8
01
 10
854.18766916632353
 20
6546.856488525671
 30
0.0
 11
862.18766916632171
 21
6546.856488525671
 31
0.0
  0
ARC
  5
16BEE
  8
01
 10
862.18766916632171
 20
6547.356488525671
 30
0.0
 40
0.5
 50
270.0
 51
0.0
  0
LINE
  5
16BEF
  8
01
 10
854.18766916632535
 20
6596.856488525671
 30
0.0
 11
862.18766916632535
 21
6596.8564885256728
 31
0.0
  0
ARC
  5
16BF0
  8
01
 10
862.18766916632535
 20
6596.3564885256746
 30
0.0
 40
0.5
 50
0.0
 51
90.000000000026048
  0
LINE
  5
16BF1
  8
01
 10
860.48766916632644
 20
6607.8564885256874
 30
0.0000000000562575
 11
860.48766916632644
 21
6646.8564885256874
 31
0.0000000000562575
  0
LINE
  5
16BF2
  8
01
 10
854.18766916632615
 20
6647.3564885256856
 30
0.0000000000562575
 11
854.18766916632171
 21
6607.3564885256783
 31
0.0000000000562575
  0
LINE
  5
16BF3
  8
01
 10
854.18766916632615
 20
6607.3564885256874
 30
0.0000000000562575
 11
859.98766916632655
 21
6607.3564885256874
 31
0.0000000000562575
  0
ARC
  5
16BF4
  8
01
 10
859.98766916632655
 20
6607.8564885256874
 30
0.0000000000562575
 40
0.5
 50
270.0
 51
0.0
  0
LINE
  5
16BF5
  8
01
 10
854.18766916632615
 20
6647.3564885256856
 30
0.0000000000562575
 11
859.98766916632655
 21
6647.3564885256856
 31
0.0000000000562575
  0
ARC
  5
16BF6
  8
01
 10
859.98766916632655
 20
6646.8564885256874
 30
0.0000000000562575
 40
0.5
 50
0.0
 51
90.0
  0
LINE
  5
16BF7
  8
01
 10
861.21106916632709
 20
6625.3564898466184
 30
-0.0000000000001137
 11
860.48766916632644
 21
6625.3564898466184
 31
-0.0000000000001137
  0
LINE
  5
16BF8
  8
01
 10
861.21106916632709
 20
6618.3564898466166
 30
-0.0000000000001137
 11
860.48766916632644
 21
6618.3564898466166
 31
-0.0000000000001137
  0
LINE
  5
16BF9
  8
01
 10
807.88766916632642
 20
6607.8564885256801
 30
0.0
 11
807.88766916632642
 21
6646.8564885256801
 31
0.0
  0
LINE
  5
16BFA
  8
01
 10
814.18766916632717
 20
6647.3564885256792
 30
0.0
 11
814.18766916632171
 21
6607.3564885256783
 31
0.0
  0
LINE
  5
16BFB
  8
01
 10
814.18766916632717
 20
6607.3564885256783
 30
0.0
 11
808.38766916632596
 21
6607.3564885256783
 31
0.0
  0
ARC
  5
16BFC
  8
01
 10
808.38766916632596
 20
6607.8564885256801
 30
0.0
 40
0.5
 50
180.0
 51
270.0
  0
LINE
  5
16BFD
  8
01
 10
814.18766916632717
 20
6647.3564885256792
 30
0.0
 11
808.38766916632596
 21
6647.3564885256792
 31
0.0
  0
ARC
  5
16BFE
  8
01
 10
808.38766916632596
 20
6646.8564885256801
 30
0.0
 40
0.5
 50
90.0
 51
180.0
  0
LINE
  5
16BFF
  8
01
 10
793.18728360060481
 20
6610.8564835256802
 30
0.0
 11
807.88766916632642
 21
6610.8564835256802
 31
0.0
  0
LINE
  5
16C00
  8
01
 10
806.68730654481647
 20
6632.3564835256793
 30
0.0
 11
806.68730654481192
 21
6611.3564835256793
 31
0.0
  0
LINE
  5
16C01
  8
01
 10
793.18728360060697
 20
6632.8564835256802
 30
0.0
 11
807.88766916632642
 21
6632.8564835256802
 31
0.0
  0
ARC
  5
16C02
  8
01
 10
793.18728360060697
 20
6631.8564835256802
 30
0.0
 40
1.0
 50
90.0
 51
180.0
  0
LINE
  5
16C03
  8
01
 10
792.1872836006047
 20
6631.8564835256802
 30
0.0
 11
792.1872836006047
 21
6611.8564835256821
 31
0.0
  0
ARC
  5
16C04
  8
01
 10
793.18728360060481
 20
6611.8564835256821
 30
0.0
 40
1.0
 50
180.0
 51
270.0
  0
ARC
  5
16C05
  8
01
 10
807.18730654481192
 20
6632.3564835256793
 30
0.0
 40
0.5
 50
90.0
 51
179.9999999999479
  0
ARC
  5
16C06
  8
01
 10
807.18730654481192
 20
6611.3564835256793
 30
0.0
 40
0.5
 50
179.9999999999479
 51
270.0
  0
LINE
  5
16C07
  8
01
 10
855.68766916632535
 20
6607.3564885256783
 30
0.0000000000562575
 11
854.18766916632535
 21
6607.3564885256783
 31
0.0000000000562575
  0
LINE
  5
16C08
  8
01
 10
812.68766916632796
 20
6607.356488525671
 30
0.0
 11
814.18766916632808
 21
6607.356488525671
 31
0.0
  0
ARC
  5
16C09
  8
01
 10
855.42603425408709
 20
6621.8564898147952
 30
-0.0000000000001137
 40
6.7614049222401134
 50
328.82566316461163
 51
31.174340835439981
  0
CIRCLE
  5
16C0A
  8
01
 10
1004.18766516632
 20
6629.2564787298161
 30
0.0
 40
2.5
  0
CIRCLE
  5
16C0B
  8
01
 10
1004.18766516632
 20
6621.8564887298153
 30
0.0
 40
3.75
  0
CIRCLE
  5
16C0C
  8
01
 10
1004.18766516632
 20
6621.8564885256883
 30
0.0
 40
3.5000004999999992
  0
LINE
  5
16C0D
  8
01
 10
1005.18766516632
 20
6618.5023857256883
 30
0.0
 11
1005.18766516632
 21
6625.2105925256892
 31
0.0
  0
LINE
  5
16C0E
  8
01
 10
1003.18766516632
 20
6618.5023857256883
 30
0.0
 11
1003.18766516632
 21
6625.2105925256892
 31
0.0
  0
CIRCLE
  5
16C0F
  8
01
 10
1004.1876648438609
 20
6627.3564885256892
 30
0.0
 40
19.99999999999962
  0
LINE
  5
16C10
  8
01
 10
979.18778157217173
 20
6821.8564885246424
 30
0.0
 11
979.18778157217173
 21
6813.8564885246424
 31
0.0
  0
LINE
  5
16C11
  8
01
 10
1029.1877815721709
 20
6821.8564885246424
 30
0.0
 11
1029.1877815721709
 21
6813.8564885246424
 31
0.0
  0
LINE
  5
16C12
  8
01
 10
984.18778124971288
 20
6821.8564885246424
 30
0.0
 11
984.18778124971288
 21
6816.0564885246431
 31
0.0
  0
LINE
  5
16C13
  8
01
 10
1024.1877812497121
 20
6821.8564885246424
 30
0.0
 11
1024.1877812497121
 21
6816.0564885246431
 31
0.0
  0
LINE
  5
16C14
  8
01
 10
979.18778157217173
 20
6821.8564885246424
 30
0.0
 11
1029.1877815721709
 21
6821.8564885246424
 31
0.0
  0
LINE
  5
16C15
  8
01
 10
984.687781249713
 20
6815.5564885246422
 30
0.0
 11
1023.687781249712
 21
6815.5564885246422
 31
0.0
  0
LINE
  5
16C16
  8
01
 10
979.68778157217162
 20
6813.3564885246433
 30
0.0
 11
1028.6877815721709
 21
6813.3564885246433
 31
0.0
  0
ARC
  5
16C17
  8
01
 10
984.687781249713
 20
6816.0564885246431
 30
0.0
 40
0.5
 50
180.0
 51
270.0
  0
ARC
  5
16C18
  8
01
 10
1023.687781249712
 20
6816.0564885246431
 30
0.0
 40
0.5
 50
270.0
 51
0.0
  0
ARC
  5
16C19
  8
01
 10
979.68778157217162
 20
6813.8564885246424
 30
0.0
 40
0.5
 50
179.9999999999479
 51
270.0
  0
ARC
  5
16C1A
  8
01
 10
1028.6877815721709
 20
6813.8564885246424
 30
0.0
 40
0.5
 50
270.0
 51
0.0
  0
LINE
  5
16C1B
  8
01
 10
1005.187782893109
 20
6814.1567185246422
 30
-0.0000000000001137
 11
1005.187782893109
 21
6815.5564885246422
 31
-0.0000000000001137
  0
ARC
  5
16C1C
  8
01
 10
1002.887783893109
 20
6814.1567185246422
 30
-0.0000000000001137
 40
0.30000001
 50
256.81652000000599
 51
0.0000029999846689
  0
ARC
  5
16C1D
  8
01
 10
1004.187782893109
 20
6819.7064885246427
 30
-0.0000000000001137
 40
6.0
 50
283.1834819999915
 51
305.685334000019
  0
ARC
  5
16C1E
  8
01
 10
1005.487785893109
 20
6814.1567185246422
 30
-0.0000000000001137
 40
0.30000001
 50
180.0
 51
283.1834819999915
  0
LINE
  5
16C1F
  8
01
 10
1007.687782893109
 20
6814.8330885246423
 30
-0.0000000000001137
 11
1007.687782893109
 21
6815.5564885246422
 31
-0.0000000000001137
  0
LINE
  5
16C20
  8
01
 10
1000.687782893109
 20
6814.8330885246423
 30
-0.0000000000001137
 11
1000.687782893109
 21
6815.5564885246422
 31
-0.0000000000001137
  0
ARC
  5
16C21
  8
01
 10
1004.187782893109
 20
6819.7064885246427
 30
-0.0000000000001137
 40
6.0
 50
234.31466999998781
 51
256.81651749662518
  0
LINE
  5
16C22
  8
01
 10
1003.187782893109
 20
6814.1559400652413
 30
-0.0000000000001137
 11
1003.187782893109
 21
6815.5564885246422
 31
-0.0000000000001137
  0
LINE
  5
16C23
  8
01
 10
979.18778157217173
 20
6861.8564885246433
 30
0.0
 11
979.18778157217173
 21
6869.8564885246433
 31
0.0
  0
LINE
  5
16C24
  8
01
 10
1029.1877815721709
 20
6861.8564885246433
 30
0.0
 11
1029.1877815721709
 21
6869.8564885246433
 31
0.0
  0
LINE
  5
16C25
  8
01
 10
984.18778124971288
 20
6861.8564885246433
 30
0.0
 11
984.18778124971288
 21
6867.6564885246416
 31
0.0
  0
LINE
  5
16C26
  8
01
 10
1024.1877812497121
 20
6861.8564885246433
 30
0.0
 11
1024.1877812497121
 21
6867.6564885246416
 31
0.0
  0
LINE
  5
16C27
  8
01
 10
979.18778157217173
 20
6861.8564885246433
 30
0.0
 11
1029.1877815721709
 21
6861.8564885246433
 31
0.0
  0
LINE
  5
16C28
  8
01
 10
984.687781249713
 20
6868.1564885246426
 30
0.0
 11
1023.687781249712
 21
6868.1564885246426
 31
0.0
  0
LINE
  5
16C29
  8
01
 10
979.68778157217162
 20
6870.3564885246424
 30
0.0
 11
1001.687781572164
 21
6870.3564885246424
 31
0.0
  0
LINE
  5
16C2A
  8
01
 10
1006.687781572166
 20
6870.3564885246424
 30
0.0
 11
1028.6877815721709
 21
6870.3564885246424
 31
0.0
  0
ARC
  5
16C2B
  8
01
 10
984.687781249713
 20
6867.6564885246416
 30
0.0
 40
0.5
 50
90.0
 51
180.0
  0
ARC
  5
16C2C
  8
01
 10
1023.687781249712
 20
6867.6564885246416
 30
0.0
 40
0.5
 50
0.0
 51
90.0
  0
ARC
  5
16C2D
  8
01
 10
979.68778157217162
 20
6869.8564885246442
 30
0.0
 40
0.5
 50
90.0
 51
180.0
  0
ARC
  5
16C2E
  8
01
 10
1028.6877815721709
 20
6869.8564885246442
 30
0.0
 40
0.5
 50
0.0
 51
90.0
  0
ARC
  5
16C2F
  8
01
 10
1007.687781572164
 20
6870.3564655804339
 30
0.0
 40
1.0
 50
180.0
 51
270.0
  0
LINE
  5
16C30
  8
01
 10
1007.687781572166
 20
6869.3564655804339
 30
0.0
 11
1014.687786572163
 21
6869.3564655804366
 31
0.0
  0
ARC
  5
16C31
  8
01
 10
1014.687786572163
 20
6868.8564655804348
 30
0.0
 40
0.5
 50
0.0
 51
90.0
  0
ARC
  5
16C32
  8
01
 10
1000.687781572162
 20
6870.3564655804348
 30
0.0
 40
1.0
 50
270.0
 51
0.0
  0
ARC
  5
16C33
  8
01
 10
993.68778657216421
 20
6868.8564655804348
 30
0.0
 40
0.5
 50
90.0
 51
180.0
  0
LINE
  5
16C34
  8
01
 10
1001.687781572164
 20
6882.8564885246387
 30
0.0
 11
1001.687781572164
 21
6870.3564655804348
 31
0.0
  0
ARC
  5
16C35
  8
01
 10
1002.687781572162
 20
6882.8564885246406
 30
0.0
 40
1.0
 50
90.0
 51
179.9999999999479
  0
LINE
  5
16C36
  8
01
 10
1002.687781572164
 20
6883.8564885246424
 30
0.0
 11
1005.687781572162
 21
6883.8564885246424
 31
0.0
  0
ARC
  5
16C37
  8
01
 10
1005.687781572162
 20
6882.8564885246406
 30
0.0
 40
1.0
 50
0.0
 51
90.0
  0
LINE
  5
16C38
  8
01
 10
1006.687781572164
 20
6882.8564885246406
 30
0.0
 11
1006.687781572166
 21
6870.3564655804339
 31
0.0
  0
LINE
  5
16C39
  8
01
 10
993.68778657216421
 20
6869.3564655804366
 30
0.0
 11
1000.687781572164
 21
6869.3564655804366
 31
0.0
  0
LINE
  5
16C3A
  8
01
 10
993.1877865721641
 20
6868.8564655804348
 30
0.0
 11
993.1877865721641
 21
6868.1564885246426
 31
0.0
  0
LINE
  5
16C3B
  8
01
 10
1015.187786572163
 20
6868.8564655804348
 30
0.0
 11
1015.187786572163
 21
6868.1564885246426
 31
0.0
  0
LINE
  5
16C4E
  8
01
 10
984.97829245402636
 20
6555.856488525671
 30
0.0
 11
1022.187665166325
 21
6555.856488525671
 31
0.0
  0
LINE
  5
16C4F
  8
01
 10
1022.187665166325
 20
6589.2058400985688
 30
0.0
 11
1022.187665166325
 21
6555.856488525671
 31
0.0
  0
LINE
  5
16D98
  8
01
 10
1006.687781572166
 20
6870.8564885247806
 30
0.0
 11
1014.937782456069
 21
6870.8564885252399
 31
0.0
  0
LINE
  5
16E3C
  8
01
 10
1022.187665166325
 20
6630.3564885256701
 30
0.0
 11
1022.187665166325
 21
6618.6386913043852
 31
0.0
  0
LINE
  5
16E3D
  8
01
 10
1001.187665166324
 20
6630.3564885256701
 30
0.0
 11
1007.187665166325
 21
6630.3564885256701
 31
0.0
  0
LINE
  5
16E3E
  8
01
 10
1014.187665166325
 20
6630.3564885256701
 30
0.0
 11
1022.187665166325
 21
6630.3564885256701
 31
0.0
  0
LINE
  5
16E3F
  8
01
 10
1001.187665166325
 20
6629.356488525671
 30
0.0
 11
1001.187665166324
 21
6630.3564885256701
 31
0.0
  0
LINE
  5
16E40
  8
01
 10
1007.187665166325
 20
6629.356488525671
 30
0.0
 11
1007.187665166325
 21
6630.3564885256701
 31
0.0
  0
ARC
  5
16E41
  8
01
 10
997.68766516632456
 20
6629.356488525671
 30
0.0
 40
3.5
 50
180.0
 51
0.0
  0
ARC
  5
16E42
  8
01
 10
1010.687665166325
 20
6629.356488525671
 30
0.0
 40
3.5
 50
180.0
 51
0.0
  0
CIRCLE
  5
16E43
  8
01
 10
1004.187665166036
 20
6621.8564885253809
 30
0.0
 40
6.0
  0
LINE
  5
16E44
  8
01
 10
994.18766516632456
 20
6630.3564885256701
 30
0.0
 11
984.41394491058099
 21
6630.3564885256701
 31
0.0
  0
LINE
  5
16E45
  8
01
  6
BYBLOCK
 10
984.41394491058099
 20
6630.3564885256701
 30
0.0
 11
956.1876651663249
 21
6630.3564885256701
 31
0.0
  0
LINE
  5
16E46
  8
01
 10
994.18766516632445
 20
6629.356488525671
 30
0.0
 11
994.18766516632456
 21
6630.3564885256701
 31
0.0
  0
LINE
  5
16E47
  8
01
 10
1014.187665166325
 20
6629.356488525671
 30
0.0
 11
1014.187665166325
 21
6630.3564885256701
 31
0.0
  0
LINE
  5
16E48
  8
01
  6
BYBLOCK
 10
683.96138509960679
 20
6630.3564885256701
 30
0.0
 11
712.18767316632386
 21
6630.3564885256701
 31
0.0
  0
LINE
  5
16E49
  8
01
  6
BYBLOCK
 10
1010.188549348096
 20
6852.1064885246433
 30
0.0
 11
998.1885493480961
 21
6852.1064885246433
 31
0.0
  0
LINE
  5
16E4A
  8
01
  6
BYBLOCK
 10
998.1885493480961
 20
6831.6064885246406
 30
0.0
 11
1010.188549348096
 21
6831.6064885246406
 31
0.0
  0
LINE
  5
16E4B
  8
01
  6
BYBLOCK
 10
998.1885493480961
 20
6831.6064885246406
 30
0.0
 11
998.1885493480961
 21
6832.3564885246424
 31
0.0
  0
LINE
  5
16E4C
  8
01
  6
BYBLOCK
 10
998.1885493480961
 20
6851.3564885246424
 30
0.0
 11
998.1885493480961
 21
6852.1064885246433
 31
0.0
  0
LINE
  5
16E4D
  8
01
  6
BYBLOCK
 10
1010.188549348096
 20
6831.6064885246406
 30
0.0
 11
1010.188549348096
 21
6832.3564885246424
 31
0.0
  0
LINE
  5
16E4E
  8
01
  6
BYBLOCK
 10
1010.188549348096
 20
6851.3564885246424
 30
0.0
 11
1010.188549348096
 21
6852.1064885246433
 31
0.0
  0
LINE
  5
16FDA
  8
01
 10
1010.188549348096
 20
6852.1064885246433
 30
0.0
 11
1045.3489401080981
 21
6852.1064885246433
 31
0.0
  0
LINE
  5
16FDB
  8
01
 10
1010.188549348096
 20
6831.6064885246406
 30
0.0
 11
1045.3489401080981
 21
6831.6064885246406
 31
0.0
  0
LINE
  5
16FDC
  8
01
 10
1044.0489401080979
 20
6849.506488524642
 30
0.0
 11
1044.0489401080979
 21
6834.2064885246418
 31
0.0
  0
TEXT
  5
16FE0
  8
01
 10
914.58415959267484
 20
6791.4398218579754
 30
0.0
 40
4.5499999999999989
  1
材質：亜鉛ダイキャスト
  0
TEXT
  5
16FE1
  8
01
 10
925.5041595926748
 20
6783.8564885246433
 30
0.0
 40
4.5499999999999989
  1
仕上げ：各種メッキ
  0
SOLID
  5
16FE2
  8
01
 10
1001.610520805609
 20
6802.702500384732
 30
0.0
 11
1003.928266406386
 21
6803.9578222987666
 31
0.0
 12
1002.142935783176
 22
6802.018654347401
 32
0.0
 13
1002.142935783176
 23
6802.018654347401
 33
0.0
1001
ACAD
1000
DSTYLE
1002
{
1070
    40
1040
1.3
1002
}
  0
LINE
  5
16FE4
  8
01
 10
1022.187665166325
 20
6630.3564885256701
 30
0.0
 11
1050.4876651663251
 21
6630.3564885256701
 31
0.0
  0
LINE
  5
16FE5
  8
01
 10
1022.187665166325
 20
6555.856488525671
 30
0.0
 11
1050.4876651663251
 21
6555.856488525671
 31
0.0
  0
LINE
  5
16FE6
  8
01
 10
1049.1876651663249
 20
6627.7564885256706
 30
0.0
 11
1049.1876651663249
 21
6558.4564885256714
 31
0.0
  0
LINE
  5
16FEA
  8
01
 10
993.43778245606768
 20
6763.3564885250489
 30
0.0
 11
993.43778245606768
 21
6736.5564885250487
 31
0.0
  0
LINE
  5
16FEB
  8
01
 10
1123.437782456069
 20
6763.3564885250489
 30
0.0
 11
1123.437782456069
 21
6736.5564885250487
 31
0.0
  0
LINE
  5
16FEC
  8
01
 10
996.03778245606759
 20
6737.856488525048
 30
0.0
 11
1120.8377824560689
 21
6737.856488525048
 31
0.0
  0
LINE
  5
16FF0
  8
01
 10
1004.187781506069
 20
6801.3564885246406
 30
0.0
 11
1004.187781506069
 21
6746.5564885250478
 31
0.0
  0
LINE
  5
16FF1
  8
01
 10
1123.437782456069
 20
6763.3564885250489
 30
0.0
 11
1123.437782456069
 21
6746.5564885250478
 31
0.0
  0
LINE
  5
16FF2
  8
01
 10
1006.787781506069
 20
6747.8564885250489
 30
0.0
 11
1120.8377824560689
 21
6747.8564885250489
 31
0.0
  0
LINE
  5
16FF6
  8
01
 10
1106.9429295034161
 20
6821.8564885246424
 30
0.0
 11
1149.737781506069
 21
6821.8564885246424
 31
0.0
  0
LINE
  5
16FF7
  8
01
 10
1122.937782456069
 20
6762.8564885250489
 30
0.0
 11
1149.737781506069
 21
6762.8564885250489
 31
0.0
  0
LINE
  5
16FF8
  8
01
 10
1148.4377815060691
 20
6819.2564885246411
 30
0.0
 11
1148.4377815060691
 21
6765.4564885250502
 31
0.0
  0
LINE
  5
16FFC
  8
01
 10
1106.9429295034161
 20
6821.8564885246424
 30
0.0
 11
1139.737781506069
 21
6821.8564885246424
 31
0.0
  0
LINE
  5
16FFD
  8
01
 10
1122.937782456069
 20
6773.8564885252526
 30
0.0
 11
1139.737781506069
 21
6773.8564885252526
 31
0.0
  0
LINE
  5
16FFE
  8
01
 10
1138.4377815060691
 20
6819.2564885246411
 30
0.0
 11
1138.4377815060691
 21
6776.4564885252521
 31
0.0
  0
LINE
  5
17002
  8
01
 10
1122.937665166324
 20
6561.106488525671
 30
0.0
 11
1139.7376651663251
 21
6561.106488525671
 31
0.0
  0
LINE
  5
17003
  8
01
 10
1122.937665166326
 20
6582.606488525671
 30
0.0
 11
1139.7376651663251
 21
6582.606488525671
 31
0.0
  0
LINE
  5
17004
  8
01
 10
1138.4376651663249
 20
6563.7064885256723
 30
0.0
 11
1138.4376651663249
 21
6580.0064885256697
 31
0.0
  0
LINE
  5
17008
  8
01
 10
1004.187665166325
 20
6546.856488525671
 30
0.0
 11
967.88766516632495
 21
6546.856488525671
 31
0.0
  0
LINE
  5
17009
  8
01
 10
1004.187665166325
 20
6596.856488525671
 30
0.0
 11
967.88766516632495
 21
6596.856488525671
 31
0.0
  0
LINE
  5
1700A
  8
01
 10
969.18766516632479
 20
6549.4564885256723
 30
0.0
 11
969.18766516632479
 21
6594.2564885256697
 31
0.0
  0
LINE
  5
1700E
  8
01
 10
840.68766916632444
 20
6657.856488525671
 30
0.0
 11
895.48766916632553
 21
6657.856488525671
 31
0.0
  0
LINE
  5
1700F
  8
01
 10
840.68766916632444
 20
6527.856488525671
 30
0.0
 11
895.48766916632553
 21
6527.856488525671
 31
0.0
  0
LINE
  5
17010
  8
01
 10
894.18766916632546
 20
6655.2564885256706
 30
0.0
 11
894.18766916632546
 21
6530.4564885256714
 31
0.0
  0
LINE
  5
17014
  8
01
 10
840.68766916632444
 20
6649.856488525671
 30
0.0
 11
879.99126020288224
 21
6649.856488525671
 31
0.0
  0
LINE
  5
17015
  8
01
 10
840.68766916632444
 20
6535.856488525671
 30
0.0
 11
879.99126020288224
 21
6535.856488525671
 31
0.0
  0
LINE
  5
17016
  8
01
 10
878.69126020288218
 20
6647.2564885256697
 30
0.0
 11
878.69126020288218
 21
6538.4564885256714
 31
0.0
  0
LINE
  5
1701A
  8
01
 10
634.1876731663242
 20
6571.856488525671
 30
0.0
 11
619.88768516632445
 21
6571.856488525671
 31
0.0
  0
LINE
  5
1701B
  8
01
 10
641.6876651663232
 20
6627.3564885256719
 30
0.0
 11
619.88768516632445
 21
6627.3564885256719
 31
0.0
  0
LINE
  5
1701C
  8
01
 10
621.1876851663244
 20
6574.4564885256723
 30
0.0
 11
621.1876851663244
 21
6624.7564885256706
 31
0.0
  0
LINE
  5
17020
  8
01
 10
634.1876731663242
 20
6571.856488525671
 30
0.0
 11
629.88768516632445
 21
6571.856488525671
 31
0.0
  0
LINE
  5
17021
  8
01
 10
651.18766516632331
 20
6621.856488525671
 30
0.0
 11
629.88768516632445
 21
6621.856488525671
 31
0.0
  0
LINE
  5
17022
  8
01
 10
631.18768516632429
 20
6574.4564885256723
 30
0.0
 11
631.18768516632429
 21
6619.2564885256697
 31
0.0
  0
LINE
  5
17026
  8
01
 10
644.38766616632324
 20
6627.3564885256719
 30
0.0
 11
644.38766616632324
 21
6656.1564885256712
 31
0.0
  0
LINE
  5
17027
  8
01
 10
683.98766416632316
 20
6627.3564885256719
 30
0.0
 11
683.98766416632316
 21
6656.1564885256712
 31
0.0
  0
LINE
  5
17028
  8
01
 10
646.98766616632315
 20
6654.856488525671
 30
0.0
 11
681.38766416632313
 21
6654.856488525671
 31
0.0
  0
LINE
  5
1702C
  8
01
 10
984.38766616632483
 20
6627.3564885256719
 30
0.0
 11
984.38766616632483
 21
6656.1564885256712
 31
0.0
  0
LINE
  5
1702D
  8
01
 10
1023.987664166325
 20
6627.3564885256719
 30
0.0
 11
1023.987664166325
 21
6656.1564885256712
 31
0.0
  0
LINE
  5
1702E
  8
01
 10
986.98766616632474
 20
6654.856488525671
 30
0.0
 11
1021.387664166325
 21
6654.856488525671
 31
0.0
  0
LINE
  5
17032
  8
01
 10
792.1872836006047
 20
6621.8564835256811
 30
0.0
 11
792.1872836006047
 21
6679.1564885256721
 31
0.0
  0
LINE
  5
17033
  8
01
 10
814.18766916632433
 20
6664.3538685256717
 30
0.0
 11
814.18766916632433
 21
6679.1564885256721
 31
0.0
  0
LINE
  5
17034
  8
01
 10
794.78728360060484
 20
6677.856488525671
 30
0.0
 11
811.58766916632442
 21
6677.856488525671
 31
0.0
  0
LINE
  5
17038
  8
01
 10
854.18766916632444
 20
6664.3538685256717
 30
0.0
 11
854.18766916632444
 21
6679.1564885256721
 31
0.0
  0
LINE
  5
17039
  8
01
 10
862.18743917632719
 20
6621.8564898147952
 30
0.0
 11
862.18743917632719
 21
6679.1564885256721
 31
0.0
  0
LINE
  5
1703A
  8
01
 10
856.78766916632435
 20
6677.856488525671
 30
0.0
 11
859.58743917632717
 21
6677.856488525671
 31
0.0
  0
LINE
  5
1703E
  8
01
 10
800.98670727200124
 20
6572.6064885256701
 30
0.0
 11
799.68766916632444
 21
6573.356488525671
 31
0.0
  0
LINE
  5
1703F
  8
01
 10
799.68766916632444
 20
6573.356488525671
 30
0.0
 11
798.38863106064787
 21
6572.6064885256701
 31
0.0
  0
LINE
  5
17040
  8
01
 10
798.38863106064787
 20
6572.6064885256701
 30
0.0
 11
798.38863106064787
 21
6571.106488525671
 31
0.0
  0
LINE
  5
17041
  8
01
 10
798.38863106064787
 20
6571.106488525671
 30
0.0
 11
799.68766916632444
 21
6570.356488525671
 31
0.0
  0
LINE
  5
17042
  8
01
 10
799.68766916632444
 20
6570.356488525671
 30
0.0
 11
800.98670727200124
 21
6571.106488525671
 31
0.0
  0
LINE
  5
17043
  8
01
 10
800.98670727200124
 20
6571.106488525671
 30
0.0
 11
800.98670727200124
 21
6572.6064885256701
 31
0.0
  0
CIRCLE
  5
17044
  8
01
 10
799.68766916632444
 20
6571.856488525671
 30
0.0
 40
3.0
  0
CIRCLE
  5
17045
  8
01
 10
868.68766916632433
 20
6571.856488525671
 30
0.0
 40
3.0
  0
LINE
  5
17046
  8
01
 10
953.18766516632502
 20
6657.856488525671
 30
0.0
 11
953.18766516632502
 21
6679.1564885256721
 31
0.0
  0
LINE
  5
17047
  8
01
 10
1004.187665166325
 20
6602.3868526165079
 30
0.0
 11
1004.187665166325
 21
6679.1564885256721
 31
0.0
  0
LINE
  5
17048
  8
01
 10
955.78766516632493
 20
6677.856488525671
 30
0.0
 11
1001.587665166325
 21
6677.856488525671
 31
0.0
  0
LINE
  5
1704C
  8
01
 10
1022.187665166325
 20
6629.856488525671
 30
0.0
 11
1022.187665166325
 21
6689.1564885256721
 31
0.0
  0
LINE
  5
1704D
  8
01
 10
953.18766516632502
 20
6657.856488525671
 30
0.0
 11
953.18766516632502
 21
6689.1564885256721
 31
0.0
  0
LINE
  5
1704E
  8
01
 10
1019.587665166325
 20
6687.856488525671
 30
0.0
 11
955.78766516632493
 21
6687.856488525671
 31
0.0
  0
LINE
  5
17052
  8
01
 10
942.18766516632479
 20
6599.8564878275401
 30
0.0
 11
942.18766516632479
 21
6679.1564885256721
 31
0.0
  0
LINE
  5
17053
  8
01
 10
953.18766516632502
 20
6657.856488525671
 30
0.0
 11
953.18766516632502
 21
6679.1564885256721
 31
0.0
  0
LINE
  5
17054
  8
01
 10
944.78766516632481
 20
6677.856488525671
 30
0.0
 11
950.58766516632477
 21
6677.856488525671
 31
0.0
  0
LINE
  5
17058
  8
01
 10
821.68766916632444
 20
6651.856488525671
 30
0.0
 11
821.68766916632444
 21
6679.1564885256721
 31
0.0
  0
LINE
  5
17059
  8
01
 10
846.68766916632444
 20
6651.856488525671
 30
0.0
 11
846.68766916632444
 21
6679.1564885256721
 31
0.0
  0
LINE
  5
1705A
  8
01
 10
824.28766916632435
 20
6677.856488525671
 30
0.0
 11
844.08766916632453
 21
6677.856488525671
 31
0.0
  0
TEXT
  5
1705E
  8
01
 10
829.85433583299107
 20
6678.7664885256709
 30
0.0
 40
4.5499999999999989
  1
25
  0
LINE
  5
1705F
  8
01
  6
BYBLOCK
 10
844.08766916632453
 20
6678.5531564196699
 30
0.0
 11
846.68766916632444
 21
6677.856488525671
 31
0.0
  0
LINE
  5
17060
  8
01
  6
BYBLOCK
 10
846.68766916632444
 20
6677.856488525671
 30
0.0
 11
844.08766916632453
 21
6677.1598206316712
 31
0.0
  0
LINE
  5
17061
  8
01
  6
BYBLOCK
 10
846.68766916632444
 20
6677.856488525671
 30
0.0
 11
844.08766916632453
 21
6677.856488525671
 31
0.0
  0
LINE
  5
17062
  8
01
  6
BYBLOCK
 10
824.28766916632435
 20
6677.1598206316712
 30
0.0
 11
821.68766916632444
 21
6677.856488525671
 31
0.0
  0
LINE
  5
17063
  8
01
  6
BYBLOCK
 10
821.68766916632444
 20
6677.856488525671
 30
0.0
 11
824.28766916632435
 21
6678.5531564196699
 31
0.0
  0
LINE
  5
17064
  8
01
  6
BYBLOCK
 10
821.68766916632444
 20
6677.856488525671
 30
0.0
 11
824.28766916632435
 21
6677.856488525671
 31
0.0
  0
TEXT
  5
17065
  8
01
 10
943.67933183299158
 20
6678.7664885256709
 30
0.0
 40
4.5499999999999989
  1
11
  0
LINE
  5
17066
  8
01
  6
BYBLOCK
 10
950.58766516632477
 20
6678.5531564196699
 30
0.0
 11
953.18766516632502
 21
6677.856488525671
 31
0.0
  0
LINE
  5
17067
  8
01
  6
BYBLOCK
 10
953.18766516632502
 20
6677.856488525671
 30
0.0
 11
950.58766516632477
 21
6677.1598206316712
 31
0.0
  0
LINE
  5
17068
  8
01
  6
BYBLOCK
 10
953.18766516632502
 20
6677.856488525671
 30
0.0
 11
950.58766516632477
 21
6677.856488525671
 31
0.0
  0
LINE
  5
17069
  8
01
  6
BYBLOCK
 10
944.78766516632481
 20
6677.1598206316712
 30
0.0
 11
942.18766516632479
 21
6677.856488525671
 31
0.0
  0
LINE
  5
1706A
  8
01
  6
BYBLOCK
 10
942.18766516632479
 20
6677.856488525671
 30
0.0
 11
944.78766516632481
 21
6678.5531564196699
 31
0.0
  0
LINE
  5
1706B
  8
01
  6
BYBLOCK
 10
942.18766516632479
 20
6677.856488525671
 30
0.0
 11
944.78766516632481
 21
6677.856488525671
 31
0.0
  0
TEXT
  5
1706C
  8
01
 10
983.35433183299153
 20
6688.7664885256709
 30
0.0
 40
4.5499999999999989
  1
69
  0
LINE
  5
1706D
  8
01
  6
BYBLOCK
 10
955.78766516632493
 20
6687.1598206316721
 30
0.0
 11
953.18766516632502
 21
6687.856488525671
 31
0.0
  0
LINE
  5
1706E
  8
01
  6
BYBLOCK
 10
953.18766516632502
 20
6687.856488525671
 30
0.0
 11
955.78766516632493
 21
6688.5531564196708
 31
0.0
  0
LINE
  5
1706F
  8
01
  6
BYBLOCK
 10
953.18766516632502
 20
6687.856488525671
 30
0.0
 11
955.78766516632493
 21
6687.856488525671
 31
0.0
  0
LINE
  5
17070
  8
01
  6
BYBLOCK
 10
1019.587665166325
 20
6688.5531564196708
 30
0.0
 11
1022.187665166325
 21
6687.856488525671
 31
0.0
  0
LINE
  5
17071
  8
01
  6
BYBLOCK
 10
1022.187665166325
 20
6687.856488525671
 30
0.0
 11
1019.587665166325
 21
6687.1598206316721
 31
0.0
  0
LINE
  5
17072
  8
01
  6
BYBLOCK
 10
1022.187665166325
 20
6687.856488525671
 30
0.0
 11
1019.587665166325
 21
6687.856488525671
 31
0.0
  0
TEXT
  5
17073
  8
01
 10
975.00433183299162
 20
6678.7664885256709
 30
0.0
 40
4.5499999999999989
  1
51
  0
LINE
  5
17074
  8
01
  6
BYBLOCK
 10
1001.587665166325
 20
6678.5531564196699
 30
0.0
 11
1004.187665166325
 21
6677.856488525671
 31
0.0
  0
LINE
  5
17075
  8
01
  6
BYBLOCK
 10
1004.187665166325
 20
6677.856488525671
 30
0.0
 11
1001.587665166325
 21
6677.1598206316712
 31
0.0
  0
LINE
  5
17076
  8
01
  6
BYBLOCK
 10
1004.187665166325
 20
6677.856488525671
 30
0.0
 11
1001.587665166325
 21
6677.856488525671
 31
0.0
  0
LINE
  5
17077
  8
01
  6
BYBLOCK
 10
955.78766516632493
 20
6677.1598206316712
 30
0.0
 11
953.18766516632502
 21
6677.856488525671
 31
0.0
  0
LINE
  5
17078
  8
01
  6
BYBLOCK
 10
953.18766516632502
 20
6677.856488525671
 30
0.0
 11
955.78766516632493
 21
6678.5531564196699
 31
0.0
  0
LINE
  5
17079
  8
01
  6
BYBLOCK
 10
953.18766516632502
 20
6677.856488525671
 30
0.0
 11
955.78766516632493
 21
6677.856488525671
 31
0.0
  0
TEXT
  5
1707A
  8
01
 10
856.02088750465919
 20
6678.7664885256709
 30
0.0
 40
4.5499999999999989
  1
8
  0
LINE
  5
1707B
  8
01
  6
BYBLOCK
 10
859.58743917632717
 20
6678.5531564196699
 30
0.0
 11
862.18743917632719
 21
6677.856488525671
 31
0.0
  0
LINE
  5
1707C
  8
01
  6
BYBLOCK
 10
862.18743917632719
 20
6677.856488525671
 30
0.0
 11
859.58743917632717
 21
6677.1598206316712
 31
0.0
  0
LINE
  5
1707D
  8
01
  6
BYBLOCK
 10
862.18743917632719
 20
6677.856488525671
 30
0.0
 11
859.58743917632717
 21
6677.856488525671
 31
0.0
  0
LINE
  5
1707E
  8
01
  6
BYBLOCK
 10
856.78766916632435
 20
6677.1598206316712
 30
0.0
 11
854.18766916632444
 21
6677.856488525671
 31
0.0
  0
LINE
  5
1707F
  8
01
  6
BYBLOCK
 10
854.18766916632444
 20
6677.856488525671
 30
0.0
 11
856.78766916632435
 21
6678.5531564196699
 31
0.0
  0
LINE
  5
17080
  8
01
  6
BYBLOCK
 10
854.18766916632444
 20
6677.856488525671
 30
0.0
 11
856.78766916632435
 21
6677.856488525671
 31
0.0
  0
TEXT
  5
17081
  8
01
 10
798.85414305013137
 20
6678.7664885256709
 30
0.0
 40
4.5499999999999989
  1
22
  0
LINE
  5
17082
  8
01
  6
BYBLOCK
 10
811.58766916632442
 20
6678.5531564196699
 30
0.0
 11
814.18766916632433
 21
6677.856488525671
 31
0.0
  0
LINE
  5
17083
  8
01
  6
BYBLOCK
 10
814.18766916632433
 20
6677.856488525671
 30
0.0
 11
811.58766916632442
 21
6677.1598206316712
 31
0.0
  0
LINE
  5
17084
  8
01
  6
BYBLOCK
 10
814.18766916632433
 20
6677.856488525671
 30
0.0
 11
811.58766916632442
 21
6677.856488525671
 31
0.0
  0
LINE
  5
17085
  8
01
  6
BYBLOCK
 10
794.78728360060484
 20
6677.1598206316712
 30
0.0
 11
792.1872836006047
 21
6677.856488525671
 31
0.0
  0
LINE
  5
17086
  8
01
  6
BYBLOCK
 10
792.1872836006047
 20
6677.856488525671
 30
0.0
 11
794.78728360060484
 21
6678.5531564196699
 31
0.0
  0
LINE
  5
17087
  8
01
  6
BYBLOCK
 10
792.1872836006047
 20
6677.856488525671
 30
0.0
 11
794.78728360060484
 21
6677.856488525671
 31
0.0
  0
TEXT
  5
17088
  8
01
 10
996.99433183299152
 20
6655.7664885256709
 30
0.0
 40
4.5499999999999989
  1
\U+03C640
  0
LINE
  5
17089
  8
01
  6
BYBLOCK
 10
1021.387664166325
 20
6655.5531564196708
 30
0.0
 11
1023.987664166325
 21
6654.856488525671
 31
0.0
  0
LINE
  5
1708A
  8
01
  6
BYBLOCK
 10
1023.987664166325
 20
6654.856488525671
 30
0.0
 11
1021.387664166325
 21
6654.1598206316703
 31
0.0
  0
LINE
  5
1708B
  8
01
  6
BYBLOCK
 10
1023.987664166325
 20
6654.856488525671
 30
0.0
 11
1021.387664166325
 21
6654.856488525671
 31
0.0
  0
LINE
  5
1708C
  8
01
  6
BYBLOCK
 10
986.98766616632474
 20
6654.1598206316703
 30
0.0
 11
984.38766616632483
 21
6654.856488525671
 31
0.0
  0
LINE
  5
1708D
  8
01
  6
BYBLOCK
 10
984.38766616632483
 20
6654.856488525671
 30
0.0
 11
986.98766616632474
 21
6655.5531564196708
 31
0.0
  0
LINE
  5
1708E
  8
01
  6
BYBLOCK
 10
984.38766616632483
 20
6654.856488525671
 30
0.0
 11
986.98766616632474
 21
6654.856488525671
 31
0.0
  0
TEXT
  5
1708F
  8
01
 10
656.99433183298993
 20
6655.7664885256709
 30
0.0
 40
4.5499999999999989
  1
\U+03C640
  0
LINE
  5
17090
  8
01
  6
BYBLOCK
 10
681.38766416632313
 20
6655.5531564196708
 30
0.0
 11
683.98766416632316
 21
6654.856488525671
 31
0.0
  0
LINE
  5
17091
  8
01
  6
BYBLOCK
 10
683.98766416632316
 20
6654.856488525671
 30
0.0
 11
681.38766416632313
 21
6654.1598206316703
 31
0.0
  0
LINE
  5
17092
  8
01
  6
BYBLOCK
 10
683.98766416632316
 20
6654.856488525671
 30
0.0
 11
681.38766416632313
 21
6654.856488525671
 31
0.0
  0
LINE
  5
17093
  8
01
  6
BYBLOCK
 10
646.98766616632315
 20
6654.1598206316703
 30
0.0
 11
644.38766616632324
 21
6654.856488525671
 31
0.0
  0
LINE
  5
17094
  8
01
  6
BYBLOCK
 10
644.38766616632324
 20
6654.856488525671
 30
0.0
 11
646.98766616632315
 21
6655.5531564196708
 31
0.0
  0
LINE
  5
17095
  8
01
  6
BYBLOCK
 10
644.38766616632324
 20
6654.856488525671
 30
0.0
 11
646.98766616632315
 21
6654.856488525671
 31
0.0
  0
TEXT
  5
17096
  8
01
 10
630.27768516632329
 20
6592.523155192338
 30
0.0
 40
4.5499999999999989
  1
50
 50
90.0
  0
LINE
  5
17097
  8
01
  6
BYBLOCK
 10
630.49101727232437
 20
6619.2564885256697
 30
0.0
 11
631.18768516632429
 21
6621.856488525671
 31
0.0
  0
LINE
  5
17098
  8
01
  6
BYBLOCK
 10
631.18768516632429
 20
6621.856488525671
 30
0.0
 11
631.88435306032443
 21
6619.2564885256697
 31
0.0
  0
LINE
  5
17099
  8
01
  6
BYBLOCK
 10
631.18768516632429
 20
6621.856488525671
 30
0.0
 11
631.18768516632429
 21
6619.2564885256697
 31
0.0
  0
LINE
  5
1709A
  8
01
  6
BYBLOCK
 10
631.88435306032443
 20
6574.4564885256723
 30
0.0
 11
631.18768516632429
 21
6571.856488525671
 31
0.0
  0
LINE
  5
1709B
  8
01
  6
BYBLOCK
 10
631.18768516632429
 20
6571.856488525671
 30
0.0
 11
630.49101727232437
 21
6574.4564885256723
 31
0.0
  0
LINE
  5
1709C
  8
01
  6
BYBLOCK
 10
631.18768516632429
 20
6571.856488525671
 30
0.0
 11
631.18768516632429
 21
6574.4564885256723
 31
0.0
  0
TEXT
  5
1709D
  8
01
 10
620.27768516632341
 20
6592.023155192338
 30
0.0
 40
4.5499999999999989
  1
55.5
 50
90.0
  0
LINE
  5
1709E
  8
01
  6
BYBLOCK
 10
620.49101727232426
 20
6624.7564885256706
 30
0.0
 11
621.1876851663244
 21
6627.3564885256719
 31
0.0
  0
LINE
  5
1709F
  8
01
  6
BYBLOCK
 10
621.1876851663244
 20
6627.3564885256719
 30
0.0
 11
621.88435306032443
 21
6624.7564885256706
 31
0.0
  0
LINE
  5
170A0
  8
01
  6
BYBLOCK
 10
621.1876851663244
 20
6627.3564885256719
 30
0.0
 11
621.1876851663244
 21
6624.7564885256706
 31
0.0
  0
LINE
  5
170A1
  8
01
  6
BYBLOCK
 10
621.88435306032443
 20
6574.4564885256723
 30
0.0
 11
621.1876851663244
 21
6571.856488525671
 31
0.0
  0
LINE
  5
170A2
  8
01
  6
BYBLOCK
 10
621.1876851663244
 20
6571.856488525671
 30
0.0
 11
620.49101727232426
 21
6574.4564885256723
 31
0.0
  0
LINE
  5
170A3
  8
01
  6
BYBLOCK
 10
621.1876851663244
 20
6571.856488525671
 30
0.0
 11
621.1876851663244
 21
6574.4564885256723
 31
0.0
  0
TEXT
  5
170A4
  8
01
 10
877.7812602028813
 20
6603.7368758726534
 30
0.0
 40
4.5499999999999989
  1
114
 50
90.0
  0
LINE
  5
170A5
  8
01
  6
BYBLOCK
 10
879.38792809688232
 20
6538.4564885256714
 30
0.0
 11
878.69126020288218
 21
6535.856488525671
 31
0.0
  0
LINE
  5
170A6
  8
01
  6
BYBLOCK
 10
878.69126020288218
 20
6535.856488525671
 30
0.0
 11
877.99459230888215
 21
6538.4564885256714
 31
0.0
  0
LINE
  5
170A7
  8
01
  6
BYBLOCK
 10
878.69126020288218
 20
6535.856488525671
 30
0.0
 11
878.69126020288218
 21
6538.4564885256714
 31
0.0
  0
LINE
  5
170A8
  8
01
  6
BYBLOCK
 10
877.99459230888215
 20
6647.2564885256697
 30
0.0
 11
878.69126020288218
 21
6649.856488525671
 31
0.0
  0
LINE
  5
170A9
  8
01
  6
BYBLOCK
 10
878.69126020288218
 20
6649.856488525671
 30
0.0
 11
879.38792809688232
 21
6647.2564885256697
 31
0.0
  0
LINE
  5
170AA
  8
01
  6
BYBLOCK
 10
878.69126020288218
 20
6649.856488525671
 30
0.0
 11
878.69126020288218
 21
6647.2564885256697
 31
0.0
  0
TEXT
  5
170AB
  8
01
 10
893.27766916632436
 20
6603.8452092059852
 30
0.0
 40
4.5499999999999989
  1
130
 50
90.0
  0
LINE
  5
170AC
  8
01
  6
BYBLOCK
 10
894.88433706032538
 20
6530.4564885256714
 30
0.0
 11
894.18766916632546
 21
6527.856488525671
 31
0.0
  0
LINE
  5
170AD
  8
01
  6
BYBLOCK
 10
894.18766916632546
 20
6527.856488525671
 30
0.0
 11
893.49100127232532
 21
6530.4564885256714
 31
0.0
  0
LINE
  5
170AE
  8
01
  6
BYBLOCK
 10
894.18766916632546
 20
6527.856488525671
 30
0.0
 11
894.18766916632546
 21
6530.4564885256714
 31
0.0
  0
LINE
  5
170AF
  8
01
  6
BYBLOCK
 10
893.49100127232532
 20
6655.2564885256706
 30
0.0
 11
894.18766916632546
 21
6657.856488525671
 31
0.0
  0
LINE
  5
170B0
  8
01
  6
BYBLOCK
 10
894.18766916632546
 20
6657.856488525671
 30
0.0
 11
894.88433706032538
 21
6655.2564885256706
 31
0.0
  0
LINE
  5
170B1
  8
01
  6
BYBLOCK
 10
894.18766916632546
 20
6657.856488525671
 30
0.0
 11
894.18766916632546
 21
6655.2564885256706
 31
0.0
  0
TEXT
  5
170B2
  8
01
 10
968.27766516632391
 20
6564.6631551923383
 30
0.0
 40
4.5499999999999989
  1
\U+03C650
 50
90.0
  0
LINE
  5
170B3
  8
01
  6
BYBLOCK
 10
968.49099727232476
 20
6594.2564885256697
 30
0.0
 11
969.18766516632479
 21
6596.856488525671
 31
0.0
  0
LINE
  5
170B4
  8
01
  6
BYBLOCK
 10
969.18766516632479
 20
6596.856488525671
 30
0.0
 11
969.88433306032493
 21
6594.2564885256697
 31
0.0
  0
LINE
  5
170B5
  8
01
  6
BYBLOCK
 10
969.18766516632479
 20
6596.856488525671
 30
0.0
 11
969.18766516632479
 21
6594.2564885256697
 31
0.0
  0
LINE
  5
170B6
  8
01
  6
BYBLOCK
 10
969.88433306032493
 20
6549.4564885256723
 30
0.0
 11
969.18766516632479
 21
6546.856488525671
 31
0.0
  0
LINE
  5
170B7
  8
01
  6
BYBLOCK
 10
969.18766516632479
 20
6546.856488525671
 30
0.0
 11
968.49099727232476
 21
6549.4564885256723
 31
0.0
  0
LINE
  5
170B8
  8
01
  6
BYBLOCK
 10
969.18766516632479
 20
6546.856488525671
 30
0.0
 11
969.18766516632479
 21
6549.4564885256723
 31
0.0
  0
TEXT
  5
170B9
  8
01
 10
1137.5276651663239
 20
6564.273155192338
 30
0.0
 40
4.5499999999999989
  1
21.5
 50
90.0
  0
LINE
  5
170BA
  8
01
  6
BYBLOCK
 10
1137.7409972723251
 20
6580.0064885256697
 30
0.0
 11
1138.4376651663249
 21
6582.606488525671
 31
0.0
  0
LINE
  5
170BB
  8
01
  6
BYBLOCK
 10
1138.4376651663249
 20
6582.606488525671
 30
0.0
 11
1139.1343330603249
 21
6580.0064885256697
 31
0.0
  0
LINE
  5
170BC
  8
01
  6
BYBLOCK
 10
1138.4376651663249
 20
6582.606488525671
 30
0.0
 11
1138.4376651663249
 21
6580.0064885256697
 31
0.0
  0
LINE
  5
170BD
  8
01
  6
BYBLOCK
 10
1139.1343330603249
 20
6563.7064885256723
 30
0.0
 11
1138.4376651663249
 21
6561.106488525671
 31
0.0
  0
LINE
  5
170BE
  8
01
  6
BYBLOCK
 10
1138.4376651663249
 20
6561.106488525671
 30
0.0
 11
1137.7409972723251
 21
6563.7064885256723
 31
0.0
  0
LINE
  5
170BF
  8
01
  6
BYBLOCK
 10
1138.4376651663249
 20
6561.106488525671
 30
0.0
 11
1138.4376651663249
 21
6563.7064885256723
 31
0.0
  0
TEXT
  5
170C0
  8
01
 10
1137.5277815060681
 20
6793.523155191614
 30
0.0
 40
4.5499999999999989
  1
48
 50
90.0
  0
LINE
  5
170C1
  8
01
  6
BYBLOCK
 10
1139.1344494000689
 20
6776.4564885252521
 30
0.0
 11
1138.4377815060691
 21
6773.8564885252526
 31
0.0
  0
LINE
  5
170C2
  8
01
  6
BYBLOCK
 10
1138.4377815060691
 20
6773.8564885252526
 30
0.0
 11
1137.7411136120691
 21
6776.4564885252521
 31
0.0
  0
LINE
  5
170C3
  8
01
  6
BYBLOCK
 10
1138.4377815060691
 20
6773.8564885252526
 30
0.0
 11
1138.4377815060691
 21
6776.4564885252521
 31
0.0
  0
LINE
  5
170C4
  8
01
  6
BYBLOCK
 10
1137.7411136120691
 20
6819.2564885246411
 30
0.0
 11
1138.4377815060691
 21
6821.8564885246424
 31
0.0
  0
LINE
  5
170C5
  8
01
  6
BYBLOCK
 10
1138.4377815060691
 20
6821.8564885246424
 30
0.0
 11
1139.1344494000689
 21
6819.2564885246411
 31
0.0
  0
LINE
  5
170C6
  8
01
  6
BYBLOCK
 10
1138.4377815060691
 20
6821.8564885246424
 30
0.0
 11
1138.4377815060691
 21
6819.2564885246411
 31
0.0
  0
TEXT
  5
170C7
  8
01
 10
1147.5277815060681
 20
6788.1314885248457
 30
0.0
 40
4.5499999999999989
  1
59
 50
90.0
  0
LINE
  5
170C8
  8
01
  6
BYBLOCK
 10
1149.1344494000689
 20
6765.4564885250502
 30
0.0
 11
1148.4377815060691
 21
6762.8564885250489
 31
0.0
  0
LINE
  5
170C9
  8
01
  6
BYBLOCK
 10
1148.4377815060691
 20
6762.8564885250489
 30
0.0
 11
1147.7411136120691
 21
6765.4564885250502
 31
0.0
  0
LINE
  5
170CA
  8
01
  6
BYBLOCK
 10
1148.4377815060691
 20
6762.8564885250489
 30
0.0
 11
1148.4377815060691
 21
6765.4564885250502
 31
0.0
  0
LINE
  5
170CB
  8
01
  6
BYBLOCK
 10
1147.7411136120691
 20
6819.2564885246411
 30
0.0
 11
1148.4377815060691
 21
6821.8564885246424
 31
0.0
  0
LINE
  5
170CC
  8
01
  6
BYBLOCK
 10
1148.4377815060691
 20
6821.8564885246424
 30
0.0
 11
1149.1344494000689
 21
6819.2564885246411
 31
0.0
  0
LINE
  5
170CD
  8
01
  6
BYBLOCK
 10
1148.4377815060691
 20
6821.8564885246424
 30
0.0
 11
1148.4377815060691
 21
6819.2564885246411
 31
0.0
  0
TEXT
  5
170CE
  8
01
 10
1057.0961153144019
 20
6748.7664885250488
 30
0.0
 40
4.5499999999999989
  1
119
  0
LINE
  5
170CF
  8
01
  6
BYBLOCK
 10
1120.8377824560689
 20
6748.5531564190487
 30
0.0
 11
1123.437782456069
 21
6747.8564885250489
 31
0.0
  0
LINE
  5
170D0
  8
01
  6
BYBLOCK
 10
1123.437782456069
 20
6747.8564885250489
 30
0.0
 11
1120.8377824560689
 21
6747.1598206310491
 31
0.0
  0
LINE
  5
170D1
  8
01
  6
BYBLOCK
 10
1123.437782456069
 20
6747.8564885250489
 30
0.0
 11
1120.8377824560689
 21
6747.8564885250489
 31
0.0
  0
LINE
  5
170D2
  8
01
  6
BYBLOCK
 10
1006.787781506069
 20
6747.1598206310491
 30
0.0
 11
1004.187781506069
 21
6747.8564885250489
 31
0.0
  0
LINE
  5
170D3
  8
01
  6
BYBLOCK
 10
1004.187781506069
 20
6747.8564885250489
 30
0.0
 11
1006.787781506069
 21
6748.5531564190487
 31
0.0
  0
LINE
  5
170D4
  8
01
  6
BYBLOCK
 10
1004.187781506069
 20
6747.8564885250489
 30
0.0
 11
1006.787781506069
 21
6747.8564885250489
 31
0.0
  0
TEXT
  5
170D5
  8
01
 10
1048.862783406069
 20
6738.7664885250479
 30
0.0
 40
4.5499999999999989
  1
130
  0
LINE
  5
170D6
  8
01
  6
BYBLOCK
 10
1120.8377824560689
 20
6738.5531564190478
 30
0.0
 11
1123.437782456069
 21
6737.856488525048
 31
0.0
  0
LINE
  5
170D7
  8
01
  6
BYBLOCK
 10
1123.437782456069
 20
6737.856488525048
 30
0.0
 11
1120.8377824560689
 21
6737.1598206310491
 31
0.0
  0
LINE
  5
170D8
  8
01
  6
BYBLOCK
 10
1123.437782456069
 20
6737.856488525048
 30
0.0
 11
1120.8377824560689
 21
6737.856488525048
 31
0.0
  0
LINE
  5
170D9
  8
01
  6
BYBLOCK
 10
996.03778245606759
 20
6737.1598206310491
 30
0.0
 11
993.43778245606768
 21
6737.856488525048
 31
0.0
  0
LINE
  5
170DA
  8
01
  6
BYBLOCK
 10
993.43778245606768
 20
6737.856488525048
 30
0.0
 11
996.03778245606759
 21
6738.5531564190478
 31
0.0
  0
LINE
  5
170DB
  8
01
  6
BYBLOCK
 10
993.43778245606768
 20
6737.856488525048
 30
0.0
 11
996.03778245606759
 21
6737.856488525048
 31
0.0
  0
TEXT
  5
170DC
  8
01
 10
1048.2776651663239
 20
6585.523155192338
 30
0.0
 40
4.5499999999999989
  1
74.5
 50
90.0
  0
LINE
  5
170DD
  8
01
  6
BYBLOCK
 10
1049.8843330603249
 20
6558.4564885256714
 30
0.0
 11
1049.1876651663249
 21
6555.856488525671
 31
0.0
  0
LINE
  5
170DE
  8
01
  6
BYBLOCK
 10
1049.1876651663249
 20
6555.856488525671
 30
0.0
 11
1048.4909972723251
 21
6558.4564885256714
 31
0.0
  0
LINE
  5
170DF
  8
01
  6
BYBLOCK
 10
1049.1876651663249
 20
6555.856488525671
 30
0.0
 11
1049.1876651663249
 21
6558.4564885256714
 31
0.0
  0
LINE
  5
170E0
  8
01
  6
BYBLOCK
 10
1048.4909972723251
 20
6627.7564885256706
 30
0.0
 11
1049.1876651663249
 21
6630.3564885256701
 31
0.0
  0
LINE
  5
170E1
  8
01
  6
BYBLOCK
 10
1049.1876651663249
 20
6630.3564885256701
 30
0.0
 11
1049.8843330603249
 21
6627.7564885256706
 31
0.0
  0
LINE
  5
170E2
  8
01
  6
BYBLOCK
 10
1049.1876651663249
 20
6630.3564885256701
 30
0.0
 11
1049.1876651663249
 21
6627.7564885256706
 31
0.0
  0
LINE
  5
170E3
  8
01
 10
1001.876728294393
 20
6802.3605773660656
 30
0.0
 11
976.94082625934152
 21
6782.9464885246416
 31
0.0
1001
ACAD
1000
DSTYLE
1002
{
1070
    40
1040
1.3
1002
}
  0
LINE
  5
170E4
  8
01
 10
976.94082625934152
 20
6782.9464885246416
 30
0.0
 11
973.43082625934153
 21
6782.9464885246416
 31
0.0
1001
ACAD
1000
DSTYLE
1002
{
1070
    40
1040
1.3
1002
}
  0
TEXT
  5
170E5
  8
01
 10
1043.1389401080969
 20
6834.2731551913093
 30
0.0
 40
4.5499999999999989
  1
20.5
 50
90.0
  0
LINE
  5
170E6
  8
01
  6
BYBLOCK
 10
1044.7456080020979
 20
6834.2064885246418
 30
0.0
 11
1044.0489401080979
 21
6831.6064885246406
 31
0.0
  0
LINE
  5
170E7
  8
01
  6
BYBLOCK
 10
1044.0489401080979
 20
6831.6064885246406
 30
0.0
 11
1043.352272214097
 21
6834.2064885246418
 31
0.0
  0
LINE
  5
170E8
  8
01
  6
BYBLOCK
 10
1044.0489401080979
 20
6831.6064885246406
 30
0.0
 11
1044.0489401080979
 21
6834.2064885246418
 31
0.0
  0
LINE
  5
170E9
  8
01
  6
BYBLOCK
 10
1043.352272214097
 20
6849.506488524642
 30
0.0
 11
1044.0489401080979
 21
6852.1064885246433
 31
0.0
  0
LINE
  5
170EA
  8
01
  6
BYBLOCK
 10
1044.0489401080979
 20
6852.1064885246433
 30
0.0
 11
1044.7456080020979
 21
6849.506488524642
 31
0.0
  0
LINE
  5
170EB
  8
01
  6
BYBLOCK
 10
1044.0489401080979
 20
6852.1064885246433
 30
0.0
 11
1044.0489401080979
 21
6849.506488524642
 31
0.0
  0
VIEWPORT
  5
57
 67
     1
  8
0
 10
10.29867712960651
 20
17.565658765306811
 30
0.0
 40
436.83256927874061
 41
283.7478812837129
 68
     1
 69
     1
1001
ACAD
1000
MVIEW
1002
{
1070
    16
1010
0.0
1020
0.0
1030
0.0
1010
0.0
1020
0.0
1030
1.0
1040
0.0
1040
283.7478812837129
1040
10.29867712960651
1040
17.565658765306811
1040
50.0
1040
0.0
1040
0.0
1070
     0
1070
   100
1070
     1
1070
     1
1070
     0
1070
     0
1070
     0
1070
     0
1040
0.0
1040
0.0
1040
0.0
1040
10.0
1040
10.0
1040
10.0
1040
10.0
1070
     0
1002
{
1002
}
1002
}
  0
ENDSEC
  0
EOF
